  0
SECTION
  2
HEADER
  9
$ACADVER
  1
AC1014
  9
$ACADMAINTVER
 70
       0
  9
$DWGCODEPAGE
  3
ANSI_932
  9
$INSBASE
 10
0.0
 20
0.0
 30
0.0
  9
$EXTMIN
 10
-2640.53663617
 20
-3684.16666667
 30
0.0
  9
$EXTMAX
 10
2640.01831809
 20
3683.83333333
 30
0.0
  9
$LIMMIN
 10
-840.0
 20
-1188.0
  9
$LIMMAX
 10
840.0
 20
1188.0
  9
$ORTHOMODE
 70
       0
  9
$REGENMODE
 70
       1
  9
$FILLMODE
 70
       1
  9
$QTEXTMODE
 70
       0
  9
$MIRRTEXT
 70
       1
  9
$DRAGMODE
 70
       2
  9
$LTSCALE
 40
8.0
  9
$OSMODE
 70
       0
  9
$ATTMODE
 70
       1
  9
$TEXTSIZE
 40
0.2
  9
$TRACEWID
 40
0.05
  9
$TEXTSTYLE
  7
STANDARD
  9
$CLAYER
  8
0
  9
$CELTYPE
  6
CONTINUOUS
  9
$CECOLOR
 62
     256
  9
$CELTSCALE
 40
1.0
  9
$DELOBJ
 70
       1
  9
$DISPSILH
 70
       0
  9
$DIMSCALE
 40
1.0
  9
$DIMASZ
 40
16.0
  9
$DIMEXO
 40
0.0625
  9
$DIMDLI
 40
0.38
  9
$DIMRND
 40
0.0
  9
$DIMDLE
 40
0.0
  9
$DIMEXE
 40
0.18
  9
$DIMTP
 40
0.0
  9
$DIMTM
 40
0.0
  9
$DIMTXT
 40
16.0
  9
$DIMCEN
 40
0.09
  9
$DIMTSZ
 40
0.0
  9
$DIMTOL
 70
       0
  9
$DIMLIM
 70
       0
  9
$DIMTIH
 70
       1
  9
$DIMTOH
 70
       1
  9
$DIMSE1
 70
       0
  9
$DIMSE2
 70
       0
  9
$DIMTAD
 70
       0
  9
$DIMZIN
 70
       0
  9
$DIMBLK
  1

  9
$DIMASO
 70
       1
  9
$DIMSHO
 70
       1
  9
$DIMPOST
  1

  9
$DIMAPOST
  1

  9
$DIMALT
 70
       0
  9
$DIMALTD
 70
       2
  9
$DIMALTF
 40
25.4
  9
$DIMLFAC
 40
1.0
  9
$DIMTOFL
 70
       0
  9
$DIMTVP
 40
0.0
  9
$DIMTIX
 70
       0
  9
$DIMSOXD
 70
       0
  9
$DIMSAH
 70
       0
  9
$DIMBLK1
  1

  9
$DIMBLK2
  1

  9
$DIMSTYLE
  2
STANDARD
  9
$DIMCLRD
 70
       0
  9
$DIMCLRE
 70
       0
  9
$DIMCLRT
 70
       0
  9
$DIMTFAC
 40
1.0
  9
$DIMGAP
 40
0.09
  9
$DIMJUST
 70
       0
  9
$DIMSD1
 70
       0
  9
$DIMSD2
 70
       0
  9
$DIMTOLJ
 70
       1
  9
$DIMTZIN
 70
       0
  9
$DIMALTZ
 70
       0
  9
$DIMALTTZ
 70
       0
  9
$DIMFIT
 70
       3
  9
$DIMUPT
 70
       0
  9
$DIMUNIT
 70
       2
  9
$DIMDEC
 70
       4
  9
$DIMTDEC
 70
       4
  9
$DIMALTU
 70
       2
  9
$DIMALTTD
 70
       2
  9
$DIMTXSTY
  7
STANDARD
  9
$DIMAUNIT
 70
       0
  9
$LUNITS
 70
       2
  9
$LUPREC
 70
       4
  9
$SKETCHINC
 40
0.1
  9
$FILLETRAD
 40
0.0
  9
$AUNITS
 70
       0
  9
$AUPREC
 70
       0
  9
$MENU
  1
acad
  9
$ELEVATION
 40
0.0
  9
$PELEVATION
 40
0.0
  9
$THICKNESS
 40
0.0
  9
$LIMCHECK
 70
       0
  9
$BLIPMODE
 70
       1
  9
$CHAMFERA
 40
0.0
  9
$CHAMFERB
 40
0.0
  9
$CHAMFERC
 40
0.0
  9
$CHAMFERD
 40
0.0
  9
$SKPOLY
 70
       0
  9
$TDCREATE
 40
0.000000000
  9
$TDUPDATE
 40
0.000000000
  9
$TDINDWG
 40
0.0000000000
  9
$TDUSRTIMER
 40
0.0000000000
  9
$USRTIMER
 70
       1
  9
$ANGBASE
 50
0.0
  9
$ANGDIR
 70
       0
  9
$PDMODE
 70
       0
  9
$PDSIZE
 40
1.0
  9
$PLINEWID
 40
0.0
  9
$COORDS
 70
       1
  9
$SPLFRAME
 70
       0
  9
$SPLINETYPE
 70
       6
  9
$SPLINESEGS
 70
       8
  9
$ATTDIA
 70
       0
  9
$ATTREQ
 70
       1
  9
$HANDLING
 70
       1
  9
$HANDSEED
  5
4F6
  9
$SURFTAB1
 70
       6
  9
$SURFTAB2
 70
       6
  9
$SURFTYPE
 70
       6
  9
$SURFU
 70
       6
  9
$SURFV
 70
       6
  9
$UCSNAME
  2

  9
$UCSORG
 10
0.0
 20
0.0
 30
0.0
  9
$UCSXDIR
 10
1.0
 20
0.0
 30
0.0
  9
$UCSYDIR
 10
0.0
 20
1.0
 30
0.0
  9
$PUCSNAME
  2

  9
$PUCSORG
 10
0.0
 20
0.0
 30
0.0
  9
$PUCSXDIR
 10
1.0
 20
0.0
 30
0.0
  9
$PUCSYDIR
 10
0.0
 20
1.0
 30
0.0
  9
$USERI1
 70
       0
  9
$USERI2
 70
       0
  9
$USERI3
 70
       0
  9
$USERI4
 70
       0
  9
$USERI5
 70
       0
  9
$USERR1
 40
0.0
  9
$USERR2
 40
0.0
  9
$USERR3
 40
0.0
  9
$USERR4
 40
0.0
  9
$USERR5
 40
0.0
  9
$WORLDVIEW
 70
       1
  9
$SHADEDGE
 70
       3
  9
$SHADEDIF
 70
      70
  9
$TILEMODE
 70
       1
  9
$MAXACTVP
 70
      16
  9
$PINSBASE
 10
0.0
 20
0.0
 30
0.0
  9
$PLIMCHECK
 70
       0
  9
$PEXTMIN
 10
1.00000000E+20
 20
1.00000000E+20
 30
1.00000000E+20
  9
$PEXTMAX
 10
-1.00000000E+20
 20
-1.00000000E+20
 30
-1.00000000E+20
  9
$PLIMMIN
 10
0.0
 20
0.0
  9
$PLIMMAX
 10
12.0
 20
9.0
  9
$UNITMODE
 70
       0
  9
$VISRETAIN
 70
       0
  9
$PLINEGEN
 70
       1
  9
$PSLTSCALE
 70
       0
  9
$TREEDEPTH
 70
    3020
  9
$PICKSTYLE
 70
       1
  9
$CMLSTYLE
  2
STANDARD
  9
$CMLJUST
 70
       0
  9
$CMLSCALE
 40
1.0
  9
$PROXYGRAPHICS
 70
       0
  9
$MEASUREMENT
 70
       0
  0
ENDSEC
  0
SECTION
  2
CLASSES
  0
CLASS
  1
LWPOLYLINE
  2
AcDbPolyline
  3
"AutoCAD"
 90
        0
280
       0
281
       1
  0
CLASS
  1
IMAGE
  2
AcDbRasterImage
  3
ISM
 90
      127
280
       0
281
       1
  0
CLASS
  1
OLE2FRAME
  2
AcDbOle2Frame
  3
""
 90
        0
280
       0
281
       1
  0
CLASS
  1
HATCH
  2
AcDbHatch
  3
"ACAD_SEDONA"
 90
        0
280
       0
281
       1
  0
CLASS
  1
DICTIONARYVAR
  2
AcDbDictionaryVar
  3
"AutoCAD"
 90
        0
280
       0
281
       0
  0
CLASS
  1
RASTERVARIABLES
  2
AcDbRasterVariables
  3
ISM
 90
        0
280
       0
281
       0
  0
CLASS
  1
IMAGEDEF
  2
AcDbRasterImageDef
  3
ISM
 90
        0
280
       0
281
       0
  0
CLASS
  1
IMAGEDEF_REACTOR
  2
AcDbRasterImageDefReactor
  3
ISM
 90
        1
280
       0
281
       0
  0
CLASS
  1
IDBUFFER
  2
AcDbIdBuffer
  3
"Acad"
 90
        0
280
       0
281
       0
  0
CLASS
  1
SPATIAL_FILTER
  2
AcDbSpatialFilter
  3
"Acad"
 90
        0
280
       0
281
       0
  0
CLASS
  1
XRECORD
  2
AcDbXrecord
  3
"<Built In>"
 90
        0
280
       0
281
       0
  0
CLASS
  1
SORTENTSTABLE
  2
AcDbSortentsTable
  3
"AutoCAD"
 90
        0
280
       0
281
       0
  0
CLASS
  1
LAYER_INDEX
  2
AcDbLayerIndex
  3
"Acad"
 90
        0
280
       0
281
       0
  0
CLASS
  1
SPATIAL_INDEX
  2
AcDbSpatialIndex
  3
"Acad"
 90
        0
280
       0
281
       0
  0
CLASS
  1
OBJECT_PTR
  2
CAseDLPNTableRecord
  3
"ASE-LPNTableRecord"
 90
        1
280
       0
281
       0
  0
CLASS
  1
LAYOUT
  2
AcDbLayout
  3
"AutoCAD 2000"
 90
        0
280
       0
281
       0
  0
CLASS
  1
PLOTSETTINGS
  2
AcDbPlotSettings
  3
"AutoCAD 2000"
 90
        0
280
       0
281
       0
  0
CLASS
  1
ACDBDICTIONARYWDFLT
  2
AcDbDictionaryWithDefault
  3
"AutoCAD 2000"
 90
        0
280
       0
281
       0
  0
CLASS
  1
ACDBPLACEHOLDER
  2
AcDbPlaceHolder
  3
"AutoCAD 2000"
 90
        0
280
       0
281
       0
  0
CLASS
  1
VBA_PROJECT
  2
AcDbVbaProject
  3
"acadvba"
 90
        0
280
       0
281
       0
  0
CLASS
  1
WIPEOUT
  2
AcDbWipeout
  3
WipeOut|AutoCAD Express Tool|expresstools@autodesk.com
 90
      127
280
       0
281
       1
  0
CLASS
  1
WIPEOUTVARIABLES
  2
AcDbWipeoutVariables
  3
WipeOut|AutoCAD Express Tool|expresstools@autodesk.com
 90
        0
280
       0
281
       0
  0
CLASS
  1
RTEXT
  2
RText
  3
RText|AutoCAD Express Tool|expresstools@autodesk.com
 90
        0
280
       0
281
       1
  0
CLASS
  1
ARCALIGNEDTEXT
  2
AcDbArcAlignedText
  3
ATEXT|AutoCAD Express Tool|expresstools@autodesk.com
 90
        0
280
       0
281
       1
  0
ENDSEC
  0
SECTION
  2
TABLES
  0
TABLE
  2
VPORT
  5
7
100
AcDbSymbolTable
 70
       1
  0
VPORT
  5
15
100
AcDbSymbolTableRecord
100
AcDbViewportTableRecord
  2
*ACTIVE
 70
       0
 10
0.0
 20
0.0
 11
1.0
 21
1.0
 12
0.0
 22
0.0
 13
0.0
 23
0.0
 14
1.0
 24
1.0
 15
0.0
 25
0.0
 16
0.0
 26
0.0
 36
1.0
 17
0.0
 27
0.0
 37
0.0
 40
2376.0
 41
0.70707071
 42
50.0
 43
0.0
 44
0.0
 50
0.0
 51
0.0
 71
       0
 72
     100
 73
       1
 74
       1
 75
       0
 76
       0
 77
       0
 78
       0
  0
ENDTAB
  0
TABLE
  2
LTYPE
  5
4
100
AcDbSymbolTable
 70
      30
  0
LTYPE
  5
11
100
AcDbSymbolTableRecord
100
AcDbLinetypeTableRecord
  2
BYBLOCK
 70
      64
  3

 72
      65
 73
       0
 40
0.0
  0
LTYPE
  5
12
100
AcDbSymbolTableRecord
100
AcDbLinetypeTableRecord
  2
BYLAYER
 70
      64
  3

 72
      65
 73
       0
 40
0.0
  0
LTYPE
  5
13
100
AcDbSymbolTableRecord
100
AcDbLinetypeTableRecord
  2
CONTINUOUS
 70
      64
  3
Solid line
 72
      65
 73
       0
 40
0.0
  0
LTYPE
  5
1D
100
AcDbSymbolTableRecord
100
AcDbLinetypeTableRecord
  2
HIDDENX2
 70
      64
  3
CADPAC LINETYPE
 72
      65
 73
       2
 40
14.00943396
 49
10.50707547
 74
       0
 49
-3.50235849
 74
       0
  0
LTYPE
  5
1E
100
AcDbSymbolTableRecord
100
AcDbLinetypeTableRecord
  2
HIDDEN
 70
      64
  3
CADPAC LINETYPE
 72
      65
 73
       2
 40
10.50707547
 49
7.00471698
 74
       0
 49
-3.50235849
 74
       0
  0
LTYPE
  5
1F
100
AcDbSymbolTableRecord
100
AcDbLinetypeTableRecord
  2
HIDDEN2
 70
      64
  3
CADPAC LINETYPE
 72
      65
 73
       2
 40
8.75589623
 49
5.25353774
 74
       0
 49
-3.50235849
 74
       0
  0
LTYPE
  5
20
100
AcDbSymbolTableRecord
100
AcDbLinetypeTableRecord
  2
DASHED
 70
      64
  3
CADPAC LINETYPE
 72
      65
 73
       2
 40
9.80660377
 49
7.00471698
 74
       0
 49
-2.80188679
 74
       0
  0
LTYPE
  5
21
100
AcDbSymbolTableRecord
100
AcDbLinetypeTableRecord
  2
DASHED2
 70
      64
  3
CADPAC LINETYPE
 72
      65
 73
       2
 40
6.30424528
 49
4.20283019
 74
       0
 49
-2.10141509
 74
       0
  0
LTYPE
  5
22
100
AcDbSymbolTableRecord
100
AcDbLinetypeTableRecord
  2
DASHEDX2
 70
      64
  3
CADPAC LINETYPE
 72
      65
 73
       2
 40
16.81132075
 49
14.00943396
 74
       0
 49
-2.80188679
 74
       0
  0
LTYPE
  5
23
100
AcDbSymbolTableRecord
100
AcDbLinetypeTableRecord
  2
DOTX2
 70
      64
  3
CADPAC LINETYPE
 72
      65
 73
       2
 40
6.12912736
 49
0.0
 74
       0
 49
-6.12912736
 74
       0
  0
LTYPE
  5
24
100
AcDbSymbolTableRecord
100
AcDbLinetypeTableRecord
  2
DOT
 70
      64
  3
CADPAC LINETYPE
 72
      65
 73
       2
 40
4.90330189
 49
0.0
 74
       0
 49
-4.90330189
 74
       0
  0
LTYPE
  5
25
100
AcDbSymbolTableRecord
100
AcDbLinetypeTableRecord
  2
DOT2
 70
      64
  3
CADPAC LINETYPE
 72
      65
 73
       2
 40
3.67747642
 49
0.0
 74
       0
 49
-3.67747642
 74
       0
  0
LTYPE
  5
26
100
AcDbSymbolTableRecord
100
AcDbLinetypeTableRecord
  2
CENTERX2
 70
      64
  3
CADPAC LINETYPE
 72
      65
 73
       4
 40
21.01415094
 49
8.75589623
 74
       0
 49
-4.37794811
 74
       0
 49
3.50235849
 74
       0
 49
-4.37794811
 74
       0
  0
LTYPE
  5
27
100
AcDbSymbolTableRecord
100
AcDbLinetypeTableRecord
  2
CENTER
 70
      64
  3
CADPAC LINETYPE
 72
      65
 73
       4
 40
16.11084906
 49
7.00471698
 74
       0
 49
-3.50235849
 74
       0
 49
2.10141509
 74
       0
 49
-3.50235849
 74
       0
  0
LTYPE
  5
28
100
AcDbSymbolTableRecord
100
AcDbLinetypeTableRecord
  2
CENTER2
 70
      64
  3
CADPAC LINETYPE
 72
      65
 73
       4
 40
11.20754717
 49
5.25353774
 74
       0
 49
-2.62676887
 74
       0
 49
0.7004717
 74
       0
 49
-2.62676887
 74
       0
  0
LTYPE
  5
29
100
AcDbSymbolTableRecord
100
AcDbLinetypeTableRecord
  2
DASHDOTX2
 70
      64
  3
CADPAC LINETYPE
 72
      65
 73
       4
 40
33.62264151
 49
16.81132075
 74
       0
 49
-5.60377358
 74
       0
 49
5.60377358
 74
       0
 49
-5.60377358
 74
       0
  0
LTYPE
  5
2A
100
AcDbSymbolTableRecord
100
AcDbLinetypeTableRecord
  2
DASHDOT
 70
      64
  3
CADPAC LINETYPE
 72
      65
 73
       4
 40
16.81132075
 49
8.40566038
 74
       0
 49
-2.80188679
 74
       0
 49
2.80188679
 74
       0
 49
-2.80188679
 74
       0
  0
LTYPE
  5
2B
100
AcDbSymbolTableRecord
100
AcDbLinetypeTableRecord
  2
DASHDOT2
 70
      64
  3
CADPAC LINETYPE
 72
      65
 73
       4
 40
10.78726415
 49
6.30424528
 74
       0
 49
-2.10141509
 74
       0
 49
0.28018868
 74
       0
 49
-2.10141509
 74
       0
  0
LTYPE
  5
2C
100
AcDbSymbolTableRecord
100
AcDbLinetypeTableRecord
  2
DIVIDEX2
 70
      64
  3
CADPAC LINETYPE
 72
      65
 73
       6
 40
44.83018868
 49
16.81132075
 74
       0
 49
-5.60377358
 74
       0
 49
5.60377358
 74
       0
 49
-5.60377358
 74
       0
 49
5.60377358
 74
       0
 49
-5.60377358
 74
       0
  0
LTYPE
  5
2D
100
AcDbSymbolTableRecord
100
AcDbLinetypeTableRecord
  2
DIVIDE
 70
      64
  3
CADPAC LINETYPE
 72
      65
 73
       6
 40
22.41509434
 49
8.40566038
 74
       0
 49
-2.80188679
 74
       0
 49
2.80188679
 74
       0
 49
-2.80188679
 74
       0
 49
2.80188679
 74
       0
 49
-2.80188679
 74
       0
  0
LTYPE
  5
2E
100
AcDbSymbolTableRecord
100
AcDbLinetypeTableRecord
  2
DIVIDE2
 70
      64
  3
CADPAC LINETYPE
 72
      65
 73
       6
 40
16.81132075
 49
6.30424528
 74
       0
 49
-2.10141509
 74
       0
 49
2.10141509
 74
       0
 49
-2.10141509
 74
       0
 49
2.10141509
 74
       0
 49
-2.10141509
 74
       0
  0
LTYPE
  5
2F
100
AcDbSymbolTableRecord
100
AcDbLinetypeTableRecord
  2
BORDERX2
 70
      64
  3
CADPAC LINETYPE
 72
      65
 73
       6
 40
30.64563679
 49
8.75589623
 74
       0
 49
-4.37794811
 74
       0
 49
8.75589623
 74
       0
 49
-4.37794811
 74
       0
 49
0.0
 74
       0
 49
-4.37794811
 74
       0
  0
LTYPE
  5
30
100
AcDbSymbolTableRecord
100
AcDbLinetypeTableRecord
  2
BORDER
 70
      64
  3
CADPAC LINETYPE
 72
      65
 73
       6
 40
24.51650943
 49
7.00471698
 74
       0
 49
-3.50235849
 74
       0
 49
7.00471698
 74
       0
 49
-3.50235849
 74
       0
 49
0.0
 74
       0
 49
-3.50235849
 74
       0
  0
LTYPE
  5
31
100
AcDbSymbolTableRecord
100
AcDbLinetypeTableRecord
  2
BORDER2
 70
      64
  3
CADPAC LINETYPE
 72
      65
 73
       6
 40
18.21226415
 49
5.60377358
 74
       0
 49
-3.50235849
 74
       0
 49
2.10141509
 74
       0
 49
-3.50235849
 74
       0
 49
0.0
 74
       0
 49
-3.50235849
 74
       0
  0
LTYPE
  5
32
100
AcDbSymbolTableRecord
100
AcDbLinetypeTableRecord
  2
PHANTOMX2
 70
      64
  3
CADPAC LINETYPE
 72
      65
 73
       6
 40
26.26768868
 49
8.75589623
 74
       0
 49
-3.50235849
 74
       0
 49
3.50235849
 74
       0
 49
-3.50235849
 74
       0
 49
3.50235849
 74
       0
 49
-3.50235849
 74
       0
  0
LTYPE
  5
33
100
AcDbSymbolTableRecord
100
AcDbLinetypeTableRecord
  2
PHANTOM
 70
      64
  3
CADPAC LINETYPE
 72
      65
 73
       6
 40
21.71462264
 49
7.00471698
 74
       0
 49
-3.50235849
 74
       0
 49
2.10141509
 74
       0
 49
-3.50235849
 74
       0
 49
2.10141509
 74
       0
 49
-3.50235849
 74
       0
  0
LTYPE
  5
34
100
AcDbSymbolTableRecord
100
AcDbLinetypeTableRecord
  2
PHANTOM2
 70
      64
  3
CADPAC LINETYPE
 72
      65
 73
       6
 40
18.5625
 49
5.25353774
 74
       0
 49
-3.50235849
 74
       0
 49
1.4009434
 74
       0
 49
-3.50235849
 74
       0
 49
1.4009434
 74
       0
 49
-3.50235849
 74
       0
  0
LTYPE
  5
35
100
AcDbSymbolTableRecord
100
AcDbLinetypeTableRecord
  2
ACAD_ISO06W100
 70
      64
  3
CADPAC LINETYPE
 72
      65
 73
       8
 40
37.125
 49
16.81132075
 74
       0
 49
-3.50235849
 74
       0
 49
2.10141509
 74
       0
 49
-3.50235849
 74
       0
 49
2.10141509
 74
       0
 49
-3.50235849
 74
       0
 49
2.10141509
 74
       0
 49
-3.50235849
 74
       0
  0
LTYPE
  5
36
100
AcDbSymbolTableRecord
100
AcDbLinetypeTableRecord
  2
ACAD_ISO13W100
 70
      64
  3
CADPAC LINETYPE
 72
      65
 73
       8
 40
28.01886792
 49
7.00471698
 74
       0
 49
-3.50235849
 74
       0
 49
7.00471698
 74
       0
 49
-3.50235849
 74
       0
 49
0.0
 74
       0
 49
-3.50235849
 74
       0
 49
0.0
 74
       0
 49
-3.50235849
 74
       0
  0
LTYPE
  5
37
100
AcDbSymbolTableRecord
100
AcDbLinetypeTableRecord
  2
ACAD_ISO14W100
 70
      64
  3
CADPAC LINETYPE
 72
      65
 73
       8
 40
21.01415094
 49
7.00471698
 74
       0
 49
-3.50235849
 74
       0
 49
0.0
 74
       0
 49
-3.50235849
 74
       0
 49
0.0
 74
       0
 49
-3.50235849
 74
       0
 49
0.0
 74
       0
 49
-3.50235849
 74
       0
  0
ENDTAB
  0
TABLE
  2
LAYER
  5
2
100
AcDbSymbolTable
 70
       4
  0
LAYER
  5
14
100
AcDbSymbolTableRecord
100
AcDbLayerTableRecord
  2
0
 70
       0
 62
       7
  6
CONTINUOUS
  0
LAYER
  5
38
100
AcDbSymbolTableRecord
100
AcDbLayerTableRecord
  2
LAYER0001
 70
       0
 62
       7
  6
CONTINUOUS
  0
LAYER
  5
39
100
AcDbSymbolTableRecord
100
AcDbLayerTableRecord
  2
LAYER0240
 70
       0
 62
       7
  6
CONTINUOUS
  0
LAYER
  5
3A
100
AcDbSymbolTableRecord
100
AcDbLayerTableRecord
  2
ZUWAKU
 70
       0
 62
       7
  6
CONTINUOUS
  0
ENDTAB
  0
TABLE
  2
STYLE
  5
3
100
AcDbSymbolTable
 70
       2
  0
STYLE
  5
17
100
AcDbSymbolTableRecord
100
AcDbTextStyleTableRecord
  2
STANDARD
 70
       0
 40
27.2
 41
0.8
 50
0.0
 71
       0
 42
27.2
  3
txt.shx
  4
bigfont.shx
  0
STYLE
  5
3B
100
AcDbSymbolTableRecord
100
AcDbTextStyleTableRecord
  2
FDASTYLE1
 70
       4
 40
24.0
 41
0.8
 50
0.0
 71
       0
 42
24.0
  3
txt.shx
  4
bigfont.shx
  0
ENDTAB
  0
TABLE
  2
VIEW
  5
5
100
AcDbSymbolTable
 70
       1
  0
VIEW
  5
3C
100
AcDbSymbolTableRecord
100
AcDbViewTableRecord
  2
QQQQ
 70
       0
 40
2376.0
 10
0.0
 20
0.0
 41
1680.0
 11
0.0
 21
0.0
 31
1.0
 12
100.0
 22
100.0
 32
0.0
 42
50.0
 43
0.0
 44
0.0
 50
0.0
 71
       0
  0
ENDTAB
  0
TABLE
  2
UCS
  5
6
100
AcDbSymbolTable
 70
       0
  0
ENDTAB
  0
TABLE
  2
APPID
  5
8
100
AcDbSymbolTable
 70
       1
  0
APPID
  5
16
100
AcDbSymbolTableRecord
100
AcDbRegAppTableRecord
  2
ACAD
 70
       0
  0
ENDTAB
  0
TABLE
  2
DIMSTYLE
  5
9
100
AcDbSymbolTable
 70
       1
  0
DIMSTYLE
105
18
100
AcDbSymbolTableRecord
100
AcDbDimStyleTableRecord
  2
STANDARD
 70
       0
  3

  4

  5

  6

  7

 40
1.0
 41
0.18
 42
0.0625
 43
0.38
 44
0.18
 45
0.0
 46
0.0
 47
0.0
 48
0.0
 71
       0
 72
       0
 73
       1
 74
       1
 75
       0
 76
       0
 77
       0
 78
       0
140
0.18
141
0.09
142
0.0
143
25.4
144
1.0
145
0.0
146
1.0
147
0.09
170
       0
171
       2
172
       0
173
       0
174
       0
175
       0
176
       0
177
       0
178
       0
270
       2
271
       4
272
       4
273
       2
274
       2
275
       0
280
       0
281
       0
282
       0
283
       1
284
       0
285
       0
286
       0
287
       3
288
       0
340
17
  0
ENDTAB
  0
TABLE
  2
BLOCK_RECORD
  5
1
100
AcDbSymbolTable
 70
      14
  0
BLOCK_RECORD
  5
A
100
AcDbSymbolTableRecord
100
AcDbBlockTableRecord
  2
*MODEL_SPACE
  0
BLOCK_RECORD
  5
B
100
AcDbSymbolTableRecord
100
AcDbBlockTableRecord
  2
*PAPER_SPACE
  0
BLOCK_RECORD
  5
3D
100
AcDbSymbolTableRecord
100
AcDbBlockTableRecord
  2
DA_IMAGEDIMGROUP_1
  0
BLOCK_RECORD
  5
3E
100
AcDbSymbolTableRecord
100
AcDbBlockTableRecord
  2
_OPEN30
  0
BLOCK_RECORD
  5
3F
100
AcDbSymbolTableRecord
100
AcDbBlockTableRecord
  2
DA_IMAGEDIMGROUP_2
  0
BLOCK_RECORD
  5
40
100
AcDbSymbolTableRecord
100
AcDbBlockTableRecord
  2
DA_IMAGEDIMGROUP_3
  0
BLOCK_RECORD
  5
41
100
AcDbSymbolTableRecord
100
AcDbBlockTableRecord
  2
DA_IMAGEDIMGROUP_4
  0
BLOCK_RECORD
  5
42
100
AcDbSymbolTableRecord
100
AcDbBlockTableRecord
  2
DA_IMAGEDIMGROUP_5
  0
BLOCK_RECORD
  5
43
100
AcDbSymbolTableRecord
100
AcDbBlockTableRecord
  2
DA_IMAGEDIMGROUP_6
  0
BLOCK_RECORD
  5
44
100
AcDbSymbolTableRecord
100
AcDbBlockTableRecord
  2
GROUP_1
  0
BLOCK_RECORD
  5
45
100
AcDbSymbolTableRecord
100
AcDbBlockTableRecord
  2
GROUP_2
  0
BLOCK_RECORD
  5
46
100
AcDbSymbolTableRecord
100
AcDbBlockTableRecord
  2
GROUP_3
  0
BLOCK_RECORD
  5
47
100
AcDbSymbolTableRecord
100
AcDbBlockTableRecord
  2
GROUP_4
  0
BLOCK_RECORD
  5
48
100
AcDbSymbolTableRecord
100
AcDbBlockTableRecord
  2
GROUP_5
  0
BLOCK_RECORD
  5
49
100
AcDbSymbolTableRecord
100
AcDbBlockTableRecord
  2
GROUP_6
  0
BLOCK_RECORD
  5
4A
100
AcDbSymbolTableRecord
100
AcDbBlockTableRecord
  2
DA_IMAGEDIMGROUP_7
  0
ENDTAB
  0
ENDSEC
  0
SECTION
  2
BLOCKS
  0
BLOCK
  5
D
100
AcDbEntity
  8
0
100
AcDbBlockBegin
  2
*MODEL_SPACE
 70
       0
 10
0.0
 20
0.0
 30
0.0
  3
*MODEL_SPACE
  1

  0
ENDBLK
  5
E
100
AcDbEntity
  8
0
100
AcDbBlockEnd
  0
BLOCK
  5
F
100
AcDbEntity
 67
       1
  8
0
100
AcDbBlockBegin
  2
*PAPER_SPACE
 70
       0
 10
0.0
 20
0.0
 30
0.0
  3
*PAPER_SPACE
  1

  0
ENDBLK
  5
10
100
AcDbEntity
 67
       1
  8
0
100
AcDbBlockEnd
  0
BLOCK
  5
4B
100
AcDbEntity
  8
0
100
AcDbBlockBegin
  2
DA_IMAGEDIMGROUP_1
 70
       0
 10
0.0
 20
0.0
 30
0.0
  3
DA_IMAGEDIMGROUP_1
  1

  0
LINE
  5
4C
100
AcDbEntity
  8
0
  6
CONTINUOUS
 62
       7
100
AcDbLine
 10
559.95630751
 20
3.05200521
 30
0.0
 11
636.91136774
 21
3.05200521
 31
0.0
  0
LINE
  5
4D
100
AcDbEntity
  8
0
  6
CONTINUOUS
 62
       7
100
AcDbLine
 10
521.60349138
 20
136.05200521
 30
0.0
 11
636.91136774
 21
136.05200521
 31
0.0
  0
LINE
  5
4E
100
AcDbEntity
  8
0
  6
CONTINUOUS
 62
       7
100
AcDbLine
 10
628.91136774
 20
3.05200521
 30
0.0
 11
628.91136774
 21
136.05200521
 31
0.0
  0
LINE
  5
4F
100
AcDbEntity
  8
0
  6
CONTINUOUS
 62
       7
100
AcDbLine
 10
628.91136774
 20
559.23424521
 30
0.0
 11
628.91136774
 21
136.05200521
 31
0.0
  0
INSERT
  5
50
100
AcDbEntity
  8
0
  6
CONTINUOUS
 62
       7
100
AcDbBlockReference
  2
_OPEN30
 10
628.91136774
 20
136.05200521
 30
0.0
 41
24.0000223
 42
23.99991419
 50
270.0
  0
LINE
  5
51
100
AcDbEntity
  8
0
  6
CONTINUOUS
 62
       7
100
AcDbLine
 10
628.91136774
 20
-36.94799479
 30
0.0
 11
628.91136774
 21
3.05200521
 31
0.0
  0
INSERT
  5
52
100
AcDbEntity
  8
0
  6
CONTINUOUS
 62
       7
100
AcDbBlockReference
  2
_OPEN30
 10
628.91136774
 20
3.05200521
 30
0.0
 41
24.0000223
 42
23.99991419
 50
90.0
  0
TEXT
  5
53
100
AcDbEntity
  8
0
 62
       7
100
AcDbText
 10
620.91136774
 20
167.23424521
 30
0.0
 40
32.0
  1
133（カウンタ ーからの高さ）
 50
90.0
 41
0.7143
 72
       5
 11
620.91136774
 21
551.23424521
 31
0.0
100
AcDbText
  0
ENDBLK
  5
54
100
AcDbEntity
  8
0
100
AcDbBlockEnd
  0
BLOCK
  5
55
100
AcDbEntity
  8
0
100
AcDbBlockBegin
  2
_OPEN30
 70
       0
 10
0.0
 20
0.0
 30
0.0
  3
_OPEN30
  1

  0
LINE
  5
56
100
AcDbEntity
  8
0
  6
CONTINUOUS
 62
       0
100
AcDbLine
 10
0.0
 20
0.0
 30
0.0
 11
-0.96592583
 21
0.25881905
 31
0.0
  0
LINE
  5
57
100
AcDbEntity
  8
0
  6
CONTINUOUS
 62
       0
100
AcDbLine
 10
0.0
 20
0.0
 30
0.0
 11
-0.96592583
 21
-0.25881905
 31
0.0
  0
LINE
  5
58
100
AcDbEntity
  8
0
  6
CONTINUOUS
 62
       0
100
AcDbLine
 10
0.0
 20
0.0
 30
0.0
 11
-1.0
 21
0.0
 31
0.0
  0
ENDBLK
  5
59
100
AcDbEntity
  8
0
100
AcDbBlockEnd
  0
BLOCK
  5
5A
100
AcDbEntity
  8
0
100
AcDbBlockBegin
  2
DA_IMAGEDIMGROUP_2
 70
       0
 10
0.0
 20
0.0
 30
0.0
  3
DA_IMAGEDIMGROUP_2
  1

  0
LINE
  5
5B
100
AcDbEntity
  8
0
  6
CONTINUOUS
 62
       7
100
AcDbLine
 10
63.05666429
 20
3.05200521
 30
0.0
 11
42.63779217
 21
3.05200521
 31
0.0
  0
LINE
  5
5C
100
AcDbEntity
  8
0
  6
CONTINUOUS
 62
       7
100
AcDbLine
 10
63.05666429
 20
-36.94799479
 30
0.0
 11
42.63779217
 21
-36.94799479
 31
0.0
  0
LINE
  5
5D
100
AcDbEntity
  8
0
  6
CONTINUOUS
 62
       7
100
AcDbLine
 10
50.63779217
 20
3.05200521
 30
0.0
 11
50.63779217
 21
-36.94799479
 31
0.0
  0
LINE
  5
5E
100
AcDbEntity
  8
0
  6
CONTINUOUS
 62
       7
100
AcDbLine
 10
50.63779217
 20
-436.94245758
 30
0.0
 11
50.63779217
 21
-36.94799479
 31
0.0
  0
INSERT
  5
5F
100
AcDbEntity
  8
0
  6
CONTINUOUS
 62
       7
100
AcDbBlockReference
  2
_OPEN30
 10
50.63779217
 20
-36.94799479
 30
0.0
 41
24.0000223
 42
23.99991419
 50
90.0
  0
LINE
  5
60
100
AcDbEntity
  8
0
  6
CONTINUOUS
 62
       7
100
AcDbLine
 10
50.63779217
 20
43.05200521
 30
0.0
 11
50.63779217
 21
3.05200521
 31
0.0
  0
INSERT
  5
61
100
AcDbEntity
  8
0
  6
CONTINUOUS
 62
       7
100
AcDbBlockReference
  2
_OPEN30
 10
50.63779217
 20
3.05200521
 30
0.0
 41
24.0000223
 42
23.99991419
 50
270.0
  0
TEXT
  5
62
100
AcDbEntity
  8
0
 62
       7
100
AcDbText
 10
42.63779217
 20
-428.94245758
 30
0.0
 40
32.0
  1
最大40（カウンター厚さ）
 50
90.0
 41
0.7222
 72
       5
 11
42.63779217
 21
-96.14245758
 31
0.0
100
AcDbText
  0
ENDBLK
  5
63
100
AcDbEntity
  8
0
100
AcDbBlockEnd
  0
BLOCK
  5
64
100
AcDbEntity
  8
0
100
AcDbBlockBegin
  2
DA_IMAGEDIMGROUP_3
 70
       0
 10
0.0
 20
0.0
 30
0.0
  3
DA_IMAGEDIMGROUP_3
  1

  0
LINE
  5
65
100
AcDbEntity
  8
0
  6
CONTINUOUS
 62
       7
100
AcDbLine
 10
266.10349138
 20
-132.39068316
 30
0.0
 11
311.10349138
 21
-132.39068316
 31
0.0
  0
LINE
  5
66
100
AcDbEntity
  8
0
  6
CONTINUOUS
 62
       7
100
AcDbLine
 10
266.10349138
 20
-38.94799479
 30
0.0
 11
266.10349138
 21
-140.39068316
 31
0.0
  0
LINE
  5
67
100
AcDbEntity
  8
0
  6
CONTINUOUS
 62
       7
100
AcDbLine
 10
311.10349138
 20
-38.94799479
 30
0.0
 11
311.10349138
 21
-140.39068316
 31
0.0
  0
LINE
  5
68
100
AcDbEntity
  8
0
  6
CONTINUOUS
 62
       7
100
AcDbLine
 10
708.68573138
 20
-132.39068316
 30
0.0
 11
311.10349138
 21
-132.39068316
 31
0.0
  0
INSERT
  5
69
100
AcDbEntity
  8
0
  6
CONTINUOUS
 62
       7
100
AcDbBlockReference
  2
_OPEN30
 10
311.10349138
 20
-132.39068316
 30
0.0
 41
24.0000223
 42
23.99991419
 50
180.0
  0
LINE
  5
6A
100
AcDbEntity
  8
0
  6
CONTINUOUS
 62
       7
100
AcDbLine
 10
226.10349138
 20
-132.39068316
 30
0.0
 11
266.10349138
 21
-132.39068316
 31
0.0
  0
INSERT
  5
6B
100
AcDbEntity
  8
0
  6
CONTINUOUS
 62
       7
100
AcDbBlockReference
  2
_OPEN30
 10
266.10349138
 20
-132.39068316
 30
0.0
 41
24.0000223
 42
23.99991419
 50
360.0
  0
TEXT
  5
6C
100
AcDbEntity
  8
0
 62
       7
100
AcDbText
 10
342.28573138
 20
-124.39068316
 30
0.0
 40
32.0
  1
φ45（カウンター貫通穴径）
 41
0.7
 72
       5
 11
700.68573138
 21
-124.39068316
 31
0.0
100
AcDbText
  0
ENDBLK
  5
6D
100
AcDbEntity
  8
0
100
AcDbBlockEnd
  0
BLOCK
  5
6E
100
AcDbEntity
  8
0
100
AcDbBlockBegin
  2
DA_IMAGEDIMGROUP_4
 70
       0
 10
0.0
 20
0.0
 30
0.0
  3
DA_IMAGEDIMGROUP_4
  1

  0
LINE
  5
6F
100
AcDbEntity
  8
0
  6
CONTINUOUS
 62
       7
100
AcDbLine
 10
-536.24338275
 20
144.05200521
 30
0.0
 11
-536.24338275
 21
233.4642269
 31
0.0
  0
LINE
  5
70
100
AcDbEntity
  8
0
  6
CONTINUOUS
 62
       7
100
AcDbLine
 10
-86.24338275
 20
144.05200521
 30
0.0
 11
-86.24338275
 21
233.4642269
 31
0.0
  0
LINE
  5
71
100
AcDbEntity
  8
0
  6
CONTINUOUS
 62
       7
100
AcDbLine
 10
-536.24338275
 20
225.4642269
 30
0.0
 11
-86.24338275
 21
225.4642269
 31
0.0
  0
INSERT
  5
72
100
AcDbEntity
  8
0
  6
CONTINUOUS
 62
       7
100
AcDbBlockReference
  2
_OPEN30
 10
-536.24338275
 20
225.4642269
 30
0.0
 41
24.0000223
 42
23.99991419
 50
180.0
  0
INSERT
  5
73
100
AcDbEntity
  8
0
  6
CONTINUOUS
 62
       7
100
AcDbBlockReference
  2
_OPEN30
 10
-86.24338275
 20
225.4642269
 30
0.0
 41
24.0000223
 42
23.99991419
 50
360.0
  0
TEXT
  5
74
100
AcDbEntity
  8
0
 62
       7
100
AcDbText
 10
-362.44338275
 20
233.4642269
 30
0.0
 40
32.0
  1
φ450
 41
0.8
 72
       5
 11
-260.04338275
 21
233.4642269
 31
0.0
100
AcDbText
  0
ENDBLK
  5
75
100
AcDbEntity
  8
0
100
AcDbBlockEnd
  0
BLOCK
  5
76
100
AcDbEntity
  8
0
100
AcDbBlockBegin
  2
DA_IMAGEDIMGROUP_5
 70
       0
 10
0.0
 20
0.0
 30
0.0
  3
DA_IMAGEDIMGROUP_5
  1

  0
LINE
  5
77
100
AcDbEntity
  8
0
  6
CONTINUOUS
 62
       7
100
AcDbLine
 10
-544.24338275
 20
136.05200521
 30
0.0
 11
-602.97788301
 21
136.05200521
 31
0.0
  0
LINE
  5
78
100
AcDbEntity
  8
0
  6
CONTINUOUS
 62
       7
100
AcDbLine
 10
-343.24338275
 20
6.05200521
 30
0.0
 11
-602.97788301
 21
6.05200521
 31
0.0
  0
LINE
  5
79
100
AcDbEntity
  8
0
  6
CONTINUOUS
 62
       7
100
AcDbLine
 10
-594.97788301
 20
6.05200521
 30
0.0
 11
-594.97788301
 21
136.05200521
 31
0.0
  0
INSERT
  5
7A
100
AcDbEntity
  8
0
  6
CONTINUOUS
 62
       7
100
AcDbBlockReference
  2
_OPEN30
 10
-594.97788301
 20
6.05200521
 30
0.0
 41
24.0000223
 42
23.99991419
 50
270.0
  0
INSERT
  5
7B
100
AcDbEntity
  8
0
  6
CONTINUOUS
 62
       7
100
AcDbBlockReference
  2
_OPEN30
 10
-594.97788301
 20
136.05200521
 30
0.0
 41
24.0000223
 42
23.99991419
 50
90.0
  0
TEXT
  5
7C
100
AcDbEntity
  8
0
 62
       7
100
AcDbText
 10
-602.97788301
 20
32.65200521
 30
0.0
 40
32.0
  1
130
 50
90.0
 41
0.8
 72
       5
 11
-602.97788301
 21
109.45200521
 31
0.0
100
AcDbText
  0
ENDBLK
  5
7D
100
AcDbEntity
  8
0
100
AcDbBlockEnd
  0
BLOCK
  5
7E
100
AcDbEntity
  8
0
100
AcDbBlockBegin
  2
DA_IMAGEDIMGROUP_6
 70
       0
 10
0.0
 20
0.0
 30
0.0
  3
DA_IMAGEDIMGROUP_6
  1

  0
LINE
  5
7F
100
AcDbEntity
  8
0
  6
CONTINUOUS
 62
       7
100
AcDbLine
 10
310.07085238
 20
-70.40995879
 30
0.0
 11
310.07085238
 21
-188.64706255
 31
0.0
  0
LINE
  5
80
100
AcDbEntity
  8
0
  6
CONTINUOUS
 62
       7
100
AcDbLine
 10
267.13613038
 20
-70.40995879
 30
0.0
 11
267.13613038
 21
-188.64706255
 31
0.0
  0
LINE
  5
81
100
AcDbEntity
  8
0
  6
CONTINUOUS
 62
       7
100
AcDbLine
 10
267.13613038
 20
-180.64706255
 30
0.0
 11
310.07085238
 21
-180.64706255
 31
0.0
  0
LINE
  5
82
100
AcDbEntity
  8
0
  6
CONTINUOUS
 62
       7
100
AcDbLine
 10
502.85309238
 20
-180.64706255
 30
0.0
 11
310.07085238
 21
-180.64706255
 31
0.0
  0
INSERT
  5
83
100
AcDbEntity
  8
0
  6
CONTINUOUS
 62
       7
100
AcDbBlockReference
  2
_OPEN30
 10
310.07085238
 20
-180.64706255
 30
0.0
 41
24.0000223
 42
23.99991419
 50
180.0
  0
LINE
  5
84
100
AcDbEntity
  8
0
  6
CONTINUOUS
 62
       7
100
AcDbLine
 10
227.13613038
 20
-180.64706255
 30
0.0
 11
267.13613038
 21
-180.64706255
 31
0.0
  0
INSERT
  5
85
100
AcDbEntity
  8
0
  6
CONTINUOUS
 62
       7
100
AcDbBlockReference
  2
_OPEN30
 10
267.13613038
 20
-180.64706255
 30
0.0
 41
24.0000223
 42
23.99991419
 50
360.0
  0
TEXT
  5
86
100
AcDbEntity
  8
0
 62
       7
100
AcDbText
 10
341.25309238
 20
-172.64706255
 30
0.0
 40
32.0
  1
G1 1/4
 41
0.8
 72
       5
 11
494.85309238
 21
-172.64706255
 31
0.0
100
AcDbText
  0
ENDBLK
  5
87
100
AcDbEntity
  8
0
100
AcDbBlockEnd
  0
BLOCK
  5
88
100
AcDbEntity
  8
0
100
AcDbBlockBegin
  2
GROUP_1
 70
       0
 10
0.0
 20
0.0
 30
0.0
  3
GROUP_1
  1

  0
LINE
  5
89
100
AcDbEntity
  8
0
  6
CONTINUOUS
 62
       7
100
AcDbLine
 10
331.06635938
 20
8.57931721
 30
0.0
 11
494.26301503
 21
47.36369484
 31
0.0
  0
INSERT
  5
8A
100
AcDbEntity
  8
0
  6
CONTINUOUS
 62
       7
100
AcDbBlockReference
  2
_OPEN30
 10
331.06635938
 20
8.57931721
 30
0.0
 41
24.0000223
 42
23.99991419
 50
193.36858374
  0
CIRCLE
  5
8B
100
AcDbEntity
  8
0
  6
CONTINUOUS
 62
       7
100
AcDbCircle
 10
525.39590473
 20
54.76255817
 30
0.0
 40
32.0
  0
TEXT
  5
8C
100
AcDbEntity
  8
0
 62
       7
100
AcDbText
 10
512.59590473
 20
38.76255817
 30
0.0
 40
32.0
  1
5
 41
0.8
 72
       5
 11
538.19590473
 21
38.76255817
 31
0.0
100
AcDbText
  0
ENDBLK
  5
8D
100
AcDbEntity
  8
0
100
AcDbBlockEnd
  0
BLOCK
  5
8E
100
AcDbEntity
  8
0
100
AcDbBlockBegin
  2
GROUP_2
 70
       0
 10
0.0
 20
0.0
 30
0.0
  3
GROUP_2
  1

  0
LINE
  5
8F
100
AcDbEntity
  8
0
  6
CONTINUOUS
 62
       7
100
AcDbLine
 10
245.82591038
 20
-48.66884679
 30
0.0
 11
134.85778556
 21
-139.85228183
 31
0.0
  0
INSERT
  5
90
100
AcDbEntity
  8
0
  6
CONTINUOUS
 62
       7
100
AcDbBlockReference
  2
_OPEN30
 10
245.82591038
 20
-48.66884679
 30
0.0
 41
24.0000223
 42
23.99991419
 50
39.41023113
  0
CIRCLE
  5
91
100
AcDbEntity
  8
0
  6
CONTINUOUS
 62
       7
100
AcDbCircle
 10
110.13393854
 20
-160.16807343
 30
0.0
 40
32.0
  0
TEXT
  5
92
100
AcDbEntity
  8
0
 62
       7
100
AcDbText
 10
97.33393854
 20
-176.16807343
 30
0.0
 40
32.0
  1
7
 41
0.8
 72
       5
 11
122.93393854
 21
-176.16807343
 31
0.0
100
AcDbText
  0
ENDBLK
  5
93
100
AcDbEntity
  8
0
100
AcDbBlockEnd
  0
BLOCK
  5
94
100
AcDbEntity
  8
0
100
AcDbBlockBegin
  2
GROUP_3
 70
       0
 10
0.0
 20
0.0
 30
0.0
  3
GROUP_3
  1

  0
LINE
  5
95
100
AcDbEntity
  8
0
  6
CONTINUOUS
 62
       7
100
AcDbLine
 10
267.13613038
 20
-59.16187557
 30
0.0
 11
132.38365332
 21
-202.2734629
 31
0.0
  0
INSERT
  5
96
100
AcDbEntity
  8
0
  6
CONTINUOUS
 62
       7
100
AcDbBlockReference
  2
_OPEN30
 10
267.13613038
 20
-59.16187557
 30
0.0
 41
24.0000223
 42
23.99991419
 50
46.72313515
  0
CIRCLE
  5
97
100
AcDbEntity
  8
0
  6
CONTINUOUS
 62
       7
100
AcDbCircle
 10
110.44687144
 20
-225.57105078
 30
0.0
 40
32.0
  0
TEXT
  5
98
100
AcDbEntity
  8
0
 62
       7
100
AcDbText
 10
97.64687144
 20
-241.57105078
 30
0.0
 40
32.0
  1
2
 41
0.8
 72
       5
 11
123.24687144
 21
-241.57105078
 31
0.0
100
AcDbText
  0
ENDBLK
  5
99
100
AcDbEntity
  8
0
100
AcDbBlockEnd
  0
BLOCK
  5
9A
100
AcDbEntity
  8
0
100
AcDbBlockBegin
  2
GROUP_4
 70
       0
 10
0.0
 20
0.0
 30
0.0
  3
GROUP_4
  1

  0
LINE
  5
9B
100
AcDbEntity
  8
0
  6
CONTINUOUS
 62
       7
100
AcDbLine
 10
295.45729691
 20
20.18541106
 30
0.0
 11
503.61712821
 21
281.3753278
 31
0.0
  0
INSERT
  5
9C
100
AcDbEntity
  8
0
  6
CONTINUOUS
 62
       7
100
AcDbBlockReference
  2
_OPEN30
 10
295.45729691
 20
20.18541106
 30
0.0
 41
24.0000223
 42
23.99991419
 50
231.44629922
  0
CIRCLE
  5
9D
100
AcDbEntity
  8
0
  6
CONTINUOUS
 62
       7
100
AcDbCircle
 10
523.56105995
 20
306.40010726
 30
0.0
 40
32.0
  0
TEXT
  5
9E
100
AcDbEntity
  8
0
 62
       7
100
AcDbText
 10
510.76105995
 20
290.40010726
 30
0.0
 40
32.0
  1
9
 41
0.8
 72
       5
 11
536.36105995
 21
290.40010726
 31
0.0
100
AcDbText
  0
ENDBLK
  5
9F
100
AcDbEntity
  8
0
100
AcDbBlockEnd
  0
BLOCK
  5
A0
100
AcDbEntity
  8
0
100
AcDbBlockBegin
  2
GROUP_5
 70
       0
 10
0.0
 20
0.0
 30
0.0
  3
GROUP_5
  1

  0
LINE
  5
A1
100
AcDbEntity
  8
0
  6
CONTINUOUS
 62
       7
100
AcDbLine
 10
255.42636138
 20
-36.94799479
 30
0.0
 11
36.11965268
 21
76.12119543
 31
0.0
  0
INSERT
  5
A2
100
AcDbEntity
  8
0
  6
CONTINUOUS
 62
       7
100
AcDbBlockReference
  2
_OPEN30
 10
255.42636138
 20
-36.94799479
 30
0.0
 41
24.0000223
 42
23.99991419
 50
332.72547213
  0
CIRCLE
  5
A3
100
AcDbEntity
  8
0
  6
CONTINUOUS
 62
       7
100
AcDbCircle
 10
7.67737915
 20
90.78533797
 30
0.0
 40
32.0
  0
TEXT
  5
A4
100
AcDbEntity
  8
0
 62
       7
100
AcDbText
 10
-5.12262085
 20
74.78533797
 30
0.0
 40
32.0
  1
6
 41
0.8
 72
       5
 11
20.47737915
 21
74.78533797
 31
0.0
100
AcDbText
  0
ENDBLK
  5
A5
100
AcDbEntity
  8
0
100
AcDbBlockEnd
  0
BLOCK
  5
A6
100
AcDbEntity
  8
0
100
AcDbBlockBegin
  2
GROUP_6
 70
       0
 10
0.0
 20
0.0
 30
0.0
  3
GROUP_6
  1

  0
LINE
  5
A7
100
AcDbEntity
  8
LAYER0001
  6
CONTINUOUS
 62
       7
100
AcDbLine
 10
330.86137838
 20
-40.12949079
 30
0.0
 11
330.86137838
 21
-56.79824079
 31
0.0
  0
LINE
  5
A8
100
AcDbEntity
  8
LAYER0001
  6
CONTINUOUS
 62
       7
100
AcDbLine
 10
246.34440038
 20
-40.12949079
 30
0.0
 11
330.86137838
 21
-40.12949079
 31
0.0
  0
LINE
  5
A9
100
AcDbEntity
  8
LAYER0001
  6
CONTINUOUS
 62
       7
100
AcDbLine
 10
321.86020438
 20
-40.12949079
 30
0.0
 11
321.86020438
 21
-36.94799479
 31
0.0
  0
LINE
  5
AA
100
AcDbEntity
  8
LAYER0001
  6
CONTINUOUS
 62
       7
100
AcDbLine
 10
246.34440038
 20
-56.79824079
 30
0.0
 11
330.86137838
 21
-56.79824079
 31
0.0
  0
LINE
  5
AB
100
AcDbEntity
  8
LAYER0001
  6
CONTINUOUS
 62
       7
100
AcDbLine
 10
255.42636138
 20
-40.12949079
 30
0.0
 11
255.42636138
 21
-36.94799479
 31
0.0
  0
LINE
  5
AC
100
AcDbEntity
  8
LAYER0001
  6
CONTINUOUS
 62
       7
100
AcDbLine
 10
246.34440038
 20
-40.12949079
 30
0.0
 11
246.34440038
 21
-56.79824079
 31
0.0
  0
LINE
  5
AD
100
AcDbEntity
  8
LAYER0001
  6
CONTINUOUS
 62
       7
100
AcDbLine
 10
310.07085238
 20
-56.79824079
 30
0.0
 11
310.07085238
 21
-62.40995879
 31
0.0
  0
LINE
  5
AE
100
AcDbEntity
  8
LAYER0001
  6
CONTINUOUS
 62
       7
100
AcDbLine
 10
310.07085238
 20
-62.40995879
 30
0.0
 11
267.13613038
 21
-62.40995879
 31
0.0
  0
LINE
  5
AF
100
AcDbEntity
  8
LAYER0001
  6
CONTINUOUS
 62
       7
100
AcDbLine
 10
308.46715938
 20
-56.79824079
 30
0.0
 11
308.46715938
 21
-62.40995879
 31
0.0
  0
LINE
  5
B0
100
AcDbEntity
  8
LAYER0001
  6
CONTINUOUS
 62
       7
100
AcDbLine
 10
267.13613038
 20
-56.79824079
 30
0.0
 11
267.13613038
 21
-62.40995879
 31
0.0
  0
LINE
  5
B1
100
AcDbEntity
  8
LAYER0001
  6
CONTINUOUS
 62
       7
100
AcDbLine
 10
268.74223138
 20
-56.79824079
 30
0.0
 11
268.74223138
 21
-62.40995879
 31
0.0
  0
LINE
  5
B2
100
AcDbEntity
  8
0
  6
CONTINUOUS
 62
       7
100
AcDbLine
 10
255.42636138
 20
-36.94799479
 30
0.0
 11
321.86020438
 21
-36.94799479
 31
0.0
  0
ENDBLK
  5
B3
100
AcDbEntity
  8
0
100
AcDbBlockEnd
  0
BLOCK
  5
B4
100
AcDbEntity
  8
0
100
AcDbBlockBegin
  2
DA_IMAGEDIMGROUP_7
 70
       0
 10
0.0
 20
0.0
 30
0.0
  3
DA_IMAGEDIMGROUP_7
  1

  0
LINE
  5
B5
100
AcDbEntity
  8
0
  6
CONTINUOUS
 62
       7
100
AcDbLine
 10
559.95630751
 20
3.05200521
 30
0.0
 11
839.33793566
 21
3.05200521
 31
0.0
  0
LINE
  5
B6
100
AcDbEntity
  8
0
  6
CONTINUOUS
 62
       7
100
AcDbLine
 10
559.95630751
 20
-36.94799479
 30
0.0
 11
839.33793566
 21
-36.94799479
 31
0.0
  0
LINE
  5
B7
100
AcDbEntity
  8
0
  6
CONTINUOUS
 62
       7
100
AcDbLine
 10
831.33793566
 20
3.05200521
 30
0.0
 11
831.33793566
 21
-36.94799479
 31
0.0
  0
LINE
  5
B8
100
AcDbEntity
  8
0
  6
CONTINUOUS
 62
       7
100
AcDbLine
 10
831.33793566
 20
-127.33023479
 30
0.0
 11
831.33793566
 21
-36.94799479
 31
0.0
  0
INSERT
  5
B9
100
AcDbEntity
  8
0
  6
CONTINUOUS
 62
       7
100
AcDbBlockReference
  2
_OPEN30
 10
831.33793566
 20
-36.94799479
 30
0.0
 41
24.0000223
 42
23.99991419
 50
90.0
  0
LINE
  5
BA
100
AcDbEntity
  8
0
  6
CONTINUOUS
 62
       7
100
AcDbLine
 10
831.33793566
 20
43.05200521
 30
0.0
 11
831.33793566
 21
3.05200521
 31
0.0
  0
INSERT
  5
BB
100
AcDbEntity
  8
0
  6
CONTINUOUS
 62
       7
100
AcDbBlockReference
  2
_OPEN30
 10
831.33793566
 20
3.05200521
 30
0.0
 41
24.0000223
 42
23.99991419
 50
270.0
  0
TEXT
  5
BC
100
AcDbEntity
  8
0
 62
       7
100
AcDbText
 10
823.33793566
 20
-119.33023479
 30
0.0
 40
32.0
  1
40
 50
90.0
 41
0.8
 72
       5
 11
823.33793566
 21
-68.13023479
 31
0.0
100
AcDbText
  0
ENDBLK
  5
BD
100
AcDbEntity
  8
0
100
AcDbBlockEnd
  0
ENDSEC
  0
SECTION
  2
ENTITIES
  0
LINE
  5
BE
100
AcDbEntity
  8
ZUWAKU
  6
CONTINUOUS
 62
       7
100
AcDbLine
 10
-453.26666667
 20
-1108.63101302
 30
0.0
 11
-448.76666667
 21
-1096.13101302
 31
0.0
  0
LINE
  5
BF
100
AcDbEntity
  8
ZUWAKU
  6
CONTINUOUS
 62
       7
100
AcDbLine
 10
-486.56666667
 20
-1108.63101302
 30
0.0
 11
-479.56666667
 21
-1089.63101302
 31
0.0
  0
LINE
  5
C0
100
AcDbEntity
  8
ZUWAKU
  6
CONTINUOUS
 62
       7
100
AcDbLine
 10
-493.06666667
 20
-1082.63101302
 30
0.0
 11
-495.56666667
 21
-1089.63101302
 31
0.0
  0
LINE
  5
C1
100
AcDbEntity
  8
ZUWAKU
  6
CONTINUOUS
 62
       7
100
AcDbLine
 10
-470.06666667
 20
-1108.63101302
 30
0.0
 11
-462.56666667
 21
-1086.63101302
 31
0.0
  0
LINE
  5
C2
100
AcDbEntity
  8
ZUWAKU
  6
CONTINUOUS
 62
       7
100
AcDbLine
 10
-365.16666667
 20
-1108.63101302
 30
0.0
 11
-373.66666667
 21
-1094.63101302
 31
0.0
  0
LINE
  5
C3
100
AcDbEntity
  8
ZUWAKU
  6
CONTINUOUS
 62
       7
100
AcDbLine
 10
-493.06666667
 20
-1082.63101302
 30
0.0
 11
-483.56666667
 21
-1082.63101302
 31
0.0
  0
LINE
  5
C4
100
AcDbEntity
  8
ZUWAKU
  6
CONTINUOUS
 62
       7
100
AcDbLine
 10
-442.26666667
 20
-1078.13101302
 30
0.0
 11
-425.76666667
 21
-1078.13101302
 31
0.0
  0
LINE
  5
C5
100
AcDbEntity
  8
ZUWAKU
  6
CONTINUOUS
 62
       7
100
AcDbLine
 10
-406.76666667
 20
-1076.63101302
 30
0.0
 11
-401.76666667
 21
-1076.63101302
 31
0.0
  0
LINE
  5
C6
100
AcDbEntity
  8
ZUWAKU
  6
CONTINUOUS
 62
       7
100
AcDbLine
 10
-438.76666667
 20
-1069.13101302
 30
0.0
 11
-442.26666667
 21
-1078.13101302
 31
0.0
  0
LINE
  5
C7
100
AcDbEntity
  8
ZUWAKU
  6
CONTINUOUS
 62
       7
100
AcDbLine
 10
-422.76666667
 20
-1069.13101302
 30
0.0
 11
-425.76666667
 21
-1078.13101302
 31
0.0
  0
LINE
  5
C8
100
AcDbEntity
  8
ZUWAKU
  6
CONTINUOUS
 62
       7
100
AcDbLine
 10
-486.56666667
 20
-1108.63101302
 30
0.0
 11
-470.06666667
 21
-1108.63101302
 31
0.0
  0
LINE
  5
C9
100
AcDbEntity
  8
ZUWAKU
  6
CONTINUOUS
 62
       7
100
AcDbLine
 10
-461.06666667
 20
-1069.13101302
 30
0.0
 11
-442.56666667
 21
-1069.13101302
 31
0.0
  0
LINE
  5
CA
100
AcDbEntity
  8
ZUWAKU
  6
CONTINUOUS
 62
       7
100
AcDbLine
 10
-379.50726154
 20
-1078.13101302
 30
0.0
 11
-397.16666667
 21
-1078.13101302
 31
0.0
  0
LINE
  5
CB
100
AcDbEntity
  8
ZUWAKU
  6
CONTINUOUS
 62
       7
100
AcDbLine
 10
-360.16666667
 20
-1069.13101302
 30
0.0
 11
-394.16666667
 21
-1069.13101302
 31
0.0
  0
LINE
  5
CC
100
AcDbEntity
  8
ZUWAKU
  6
CONTINUOUS
 62
       7
100
AcDbLine
 10
-495.56666667
 20
-1089.63101302
 30
0.0
 11
-479.56666667
 21
-1089.63101302
 31
0.0
  0
LINE
  5
CD
100
AcDbEntity
  8
ZUWAKU
  6
CONTINUOUS
 62
       7
100
AcDbLine
 10
-453.26666667
 20
-1108.63101302
 30
0.0
 11
-426.76666667
 21
-1108.63101302
 31
0.0
  0
LINE
  5
CE
100
AcDbEntity
  8
ZUWAKU
  6
CONTINUOUS
 62
       7
100
AcDbLine
 10
-448.76666667
 20
-1096.13101302
 30
0.0
 11
-424.76666667
 21
-1096.13101302
 31
0.0
  0
LINE
  5
CF
100
AcDbEntity
  8
ZUWAKU
  6
CONTINUOUS
 62
       7
100
AcDbLine
 10
-365.16666667
 20
-1108.63101302
 30
0.0
 11
-377.66666667
 21
-1108.63101302
 31
0.0
  0
LINE
  5
D0
100
AcDbEntity
  8
ZUWAKU
  6
CONTINUOUS
 62
       7
100
AcDbLine
 10
-397.16666667
 20
-1078.13101302
 30
0.0
 11
-394.16666667
 21
-1069.13101302
 31
0.0
  0
LINE
  5
D1
100
AcDbEntity
  8
ZUWAKU
  6
CONTINUOUS
 62
       7
100
AcDbLine
 10
-571.06666667
 20
-1069.13101302
 30
0.0
 11
-579.56666667
 21
-1093.13101302
 31
0.0
  0
LINE
  5
D2
100
AcDbEntity
  8
ZUWAKU
  6
CONTINUOUS
 62
       7
100
AcDbLine
 10
-579.56666667
 20
-1093.13101302
 30
0.0
 11
-568.06666667
 21
-1093.13101302
 31
0.0
  0
LINE
  5
D3
100
AcDbEntity
  8
ZUWAKU
  6
CONTINUOUS
 62
       7
100
AcDbLine
 10
-568.06666667
 20
-1093.13101302
 30
0.0
 11
-559.06666667
 21
-1069.13101302
 31
0.0
  0
LINE
  5
D4
100
AcDbEntity
  8
ZUWAKU
  6
CONTINUOUS
 62
       7
100
AcDbLine
 10
-559.06666667
 20
-1069.13101302
 30
0.0
 11
-571.06666667
 21
-1069.13101302
 31
0.0
  0
LINE
  5
D5
100
AcDbEntity
  8
ZUWAKU
  6
CONTINUOUS
 62
       7
100
AcDbLine
 10
-418.76666667
 20
-1093.13101302
 30
0.0
 11
-413.26666667
 21
-1088.63101302
 31
0.0
  0
LINE
  5
D6
100
AcDbEntity
  8
ZUWAKU
  6
CONTINUOUS
 62
       7
100
AcDbLine
 10
-413.26666667
 20
-1088.63101302
 30
0.0
 11
-409.26666667
 21
-1083.13101302
 31
0.0
  0
LINE
  5
D7
100
AcDbEntity
  8
ZUWAKU
  6
CONTINUOUS
 62
       7
100
AcDbLine
 10
-409.26666667
 20
-1083.13101302
 30
0.0
 11
-406.76666667
 21
-1076.63101302
 31
0.0
  0
LINE
  5
D8
100
AcDbEntity
  8
ZUWAKU
  6
CONTINUOUS
 62
       7
100
AcDbLine
 10
-529.96666667
 20
-1069.13101302
 30
0.0
 11
-493.46666667
 21
-1069.13101302
 31
0.0
  0
LINE
  5
D9
100
AcDbEntity
  8
ZUWAKU
  6
CONTINUOUS
 62
       7
100
AcDbLine
 10
-493.46666667
 20
-1069.13101302
 30
0.0
 11
-496.46666667
 21
-1078.13101302
 31
0.0
  0
LINE
  5
DA
100
AcDbEntity
  8
ZUWAKU
  6
CONTINUOUS
 62
       7
100
AcDbLine
 10
-493.46666667
 20
-1069.13101302
 30
0.0
 11
-496.46666667
 21
-1078.13101302
 31
0.0
  0
LINE
  5
DB
100
AcDbEntity
  8
ZUWAKU
  6
CONTINUOUS
 62
       7
100
AcDbLine
 10
-496.46666667
 20
-1078.13101302
 30
0.0
 11
-532.96666667
 21
-1078.13101302
 31
0.0
  0
LINE
  5
DC
100
AcDbEntity
  8
ZUWAKU
  6
CONTINUOUS
 62
       7
100
AcDbLine
 10
-532.96666667
 20
-1078.13101302
 30
0.0
 11
-529.96666667
 21
-1069.13101302
 31
0.0
  0
LINE
  5
DD
100
AcDbEntity
  8
ZUWAKU
  6
CONTINUOUS
 62
       7
100
AcDbLine
 10
-532.96666667
 20
-1078.13101302
 30
0.0
 11
-529.96666667
 21
-1069.13101302
 31
0.0
  0
LINE
  5
DE
100
AcDbEntity
  8
ZUWAKU
  6
CONTINUOUS
 62
       7
100
AcDbLine
 10
-493.46666667
 20
-1069.13101302
 30
0.0
 11
-529.96666667
 21
-1069.13101302
 31
0.0
  0
LINE
  5
DF
100
AcDbEntity
  8
ZUWAKU
  6
CONTINUOUS
 62
       7
100
AcDbLine
 10
-529.96666667
 20
-1069.13101302
 30
0.0
 11
-532.96666667
 21
-1078.13101302
 31
0.0
  0
LINE
  5
E0
100
AcDbEntity
  8
ZUWAKU
  6
CONTINUOUS
 62
       7
100
AcDbLine
 10
-532.96666667
 20
-1078.13101302
 30
0.0
 11
-496.46666667
 21
-1078.13101302
 31
0.0
  0
LINE
  5
E1
100
AcDbEntity
  8
ZUWAKU
  6
CONTINUOUS
 62
       7
100
AcDbLine
 10
-514.46666667
 20
-1107.63101302
 30
0.0
 11
-510.46666667
 21
-1105.63101302
 31
0.0
  0
LINE
  5
E2
100
AcDbEntity
  8
ZUWAKU
  6
CONTINUOUS
 62
       7
100
AcDbLine
 10
-510.46666667
 20
-1105.63101302
 30
0.0
 11
-507.46666667
 21
-1102.63101302
 31
0.0
  0
LINE
  5
E3
100
AcDbEntity
  8
ZUWAKU
  6
CONTINUOUS
 62
       7
100
AcDbLine
 10
-507.46666667
 20
-1102.63101302
 30
0.0
 11
-503.96666667
 21
-1099.13101302
 31
0.0
  0
LINE
  5
E4
100
AcDbEntity
  8
ZUWAKU
  6
CONTINUOUS
 62
       7
100
AcDbLine
 10
-503.96666667
 20
-1099.13101302
 30
0.0
 11
-497.96666667
 21
-1082.63101302
 31
0.0
  0
LINE
  5
E5
100
AcDbEntity
  8
ZUWAKU
  6
CONTINUOUS
 62
       7
100
AcDbLine
 10
-497.96666667
 20
-1082.63101302
 30
0.0
 11
-533.96666667
 21
-1082.63101302
 31
0.0
  0
LINE
  5
E6
100
AcDbEntity
  8
ZUWAKU
  6
CONTINUOUS
 62
       7
100
AcDbLine
 10
-533.96666667
 20
-1082.63101302
 30
0.0
 11
-535.96666667
 21
-1089.63101302
 31
0.0
  0
LINE
  5
E7
100
AcDbEntity
  8
ZUWAKU
  6
CONTINUOUS
 62
       7
100
AcDbLine
 10
-535.96666667
 20
-1089.63101302
 30
0.0
 11
-514.96666667
 21
-1089.63101302
 31
0.0
  0
LINE
  5
E8
100
AcDbEntity
  8
ZUWAKU
  6
CONTINUOUS
 62
       7
100
AcDbLine
 10
-514.96666667
 20
-1089.63101302
 30
0.0
 11
-515.96666667
 21
-1093.13101302
 31
0.0
  0
LINE
  5
E9
100
AcDbEntity
  8
ZUWAKU
  6
CONTINUOUS
 62
       7
100
AcDbLine
 10
-515.96666667
 20
-1093.13101302
 30
0.0
 11
-518.46666667
 21
-1096.13101302
 31
0.0
  0
LINE
  5
EA
100
AcDbEntity
  8
ZUWAKU
  6
CONTINUOUS
 62
       7
100
AcDbLine
 10
-518.46666667
 20
-1096.13101302
 30
0.0
 11
-520.96666667
 21
-1098.63101302
 31
0.0
  0
LINE
  5
EB
100
AcDbEntity
  8
ZUWAKU
  6
CONTINUOUS
 62
       7
100
AcDbLine
 10
-520.96666667
 20
-1098.63101302
 30
0.0
 11
-524.46666667
 21
-1101.13101302
 31
0.0
  0
LINE
  5
EC
100
AcDbEntity
  8
ZUWAKU
  6
CONTINUOUS
 62
       7
100
AcDbLine
 10
-524.46666667
 20
-1101.13101302
 30
0.0
 11
-540.96666667
 21
-1101.13101302
 31
0.0
  0
LINE
  5
ED
100
AcDbEntity
  8
ZUWAKU
  6
CONTINUOUS
 62
       7
100
AcDbLine
 10
-540.96666667
 20
-1101.13101302
 30
0.0
 11
-543.96666667
 21
-1108.63101302
 31
0.0
  0
LINE
  5
EE
100
AcDbEntity
  8
ZUWAKU
  6
CONTINUOUS
 62
       7
100
AcDbLine
 10
-576.06666667
 20
-1108.63101302
 30
0.0
 11
-573.56666667
 21
-1101.13101302
 31
0.0
  0
LINE
  5
EF
100
AcDbEntity
  8
ZUWAKU
  6
CONTINUOUS
 62
       7
100
AcDbLine
 10
-573.56666667
 20
-1101.13101302
 30
0.0
 11
-569.06666667
 21
-1101.13101302
 31
0.0
  0
LINE
  5
F0
100
AcDbEntity
  8
ZUWAKU
  6
CONTINUOUS
 62
       7
100
AcDbLine
 10
-569.06666667
 20
-1101.13101302
 30
0.0
 11
-565.06666667
 21
-1100.63101302
 31
0.0
  0
LINE
  5
F1
100
AcDbEntity
  8
ZUWAKU
  6
CONTINUOUS
 62
       7
100
AcDbLine
 10
-565.06666667
 20
-1100.63101302
 30
0.0
 11
-561.06666667
 21
-1098.63101302
 31
0.0
  0
LINE
  5
F2
100
AcDbEntity
  8
ZUWAKU
  6
CONTINUOUS
 62
       7
100
AcDbLine
 10
-561.06666667
 20
-1098.63101302
 30
0.0
 11
-558.56666667
 21
-1094.63101302
 31
0.0
  0
LINE
  5
F3
100
AcDbEntity
  8
ZUWAKU
  6
CONTINUOUS
 62
       7
100
AcDbLine
 10
-558.56666667
 20
-1094.63101302
 30
0.0
 11
-549.06666667
 21
-1069.13101302
 31
0.0
  0
LINE
  5
F4
100
AcDbEntity
  8
ZUWAKU
  6
CONTINUOUS
 62
       7
100
AcDbLine
 10
-549.06666667
 20
-1069.13101302
 30
0.0
 11
-535.56666667
 21
-1069.13101302
 31
0.0
  0
LINE
  5
F5
100
AcDbEntity
  8
ZUWAKU
  6
CONTINUOUS
 62
       7
100
AcDbLine
 10
-535.56666667
 20
-1069.13101302
 30
0.0
 11
-545.56666667
 21
-1098.63101302
 31
0.0
  0
LINE
  5
F6
100
AcDbEntity
  8
ZUWAKU
  6
CONTINUOUS
 62
       7
100
AcDbLine
 10
-545.56666667
 20
-1098.63101302
 30
0.0
 11
-549.56666667
 21
-1102.63101302
 31
0.0
  0
LINE
  5
F7
100
AcDbEntity
  8
ZUWAKU
  6
CONTINUOUS
 62
       7
100
AcDbLine
 10
-549.56666667
 20
-1102.63101302
 30
0.0
 11
-553.56666667
 21
-1106.13101302
 31
0.0
  0
LINE
  5
F8
100
AcDbEntity
  8
ZUWAKU
  6
CONTINUOUS
 62
       7
100
AcDbLine
 10
-553.56666667
 20
-1106.13101302
 30
0.0
 11
-558.56666667
 21
-1108.13101302
 31
0.0
  0
LINE
  5
F9
100
AcDbEntity
  8
ZUWAKU
  6
CONTINUOUS
 62
       7
100
AcDbLine
 10
-442.56666667
 20
-1069.13101302
 30
0.0
 11
-445.56666667
 21
-1075.63101302
 31
0.0
  0
LINE
  5
FA
100
AcDbEntity
  8
ZUWAKU
  6
CONTINUOUS
 62
       7
100
AcDbLine
 10
-445.56666667
 20
-1075.63101302
 30
0.0
 11
-450.56666667
 21
-1080.63101302
 31
0.0
  0
LINE
  5
FB
100
AcDbEntity
  8
ZUWAKU
  6
CONTINUOUS
 62
       7
100
AcDbLine
 10
-445.56666667
 20
-1075.63101302
 30
0.0
 11
-450.56666667
 21
-1080.63101302
 31
0.0
  0
LINE
  5
FC
100
AcDbEntity
  8
ZUWAKU
  6
CONTINUOUS
 62
       7
100
AcDbLine
 10
-450.56666667
 20
-1080.63101302
 30
0.0
 11
-456.06666667
 21
-1084.63101302
 31
0.0
  0
LINE
  5
FD
100
AcDbEntity
  8
ZUWAKU
  6
CONTINUOUS
 62
       7
100
AcDbLine
 10
-456.06666667
 20
-1084.63101302
 30
0.0
 11
-462.56666667
 21
-1086.63101302
 31
0.0
  0
LINE
  5
FE
100
AcDbEntity
  8
ZUWAKU
  6
CONTINUOUS
 62
       7
100
AcDbLine
 10
-456.06666667
 20
-1084.63101302
 30
0.0
 11
-462.56666667
 21
-1086.63101302
 31
0.0
  0
LINE
  5
FF
100
AcDbEntity
  8
ZUWAKU
  6
CONTINUOUS
 62
       7
100
AcDbLine
 10
-462.56666667
 20
-1086.63101302
 30
0.0
 11
-470.06666667
 21
-1108.63101302
 31
0.0
  0
LINE
  5
100
100
AcDbEntity
  8
ZUWAKU
  6
CONTINUOUS
 62
       7
100
AcDbLine
 10
-470.06666667
 20
-1108.63101302
 30
0.0
 11
-486.56666667
 21
-1108.63101302
 31
0.0
  0
LINE
  5
101
100
AcDbEntity
  8
ZUWAKU
  6
CONTINUOUS
 62
       7
100
AcDbLine
 10
-470.06666667
 20
-1108.63101302
 30
0.0
 11
-486.56666667
 21
-1108.63101302
 31
0.0
  0
LINE
  5
102
100
AcDbEntity
  8
ZUWAKU
  6
CONTINUOUS
 62
       7
100
AcDbLine
 10
-480.36666667
 20
-1089.63101302
 30
0.0
 11
-495.56666667
 21
-1089.63101302
 31
0.0
  0
LINE
  5
103
100
AcDbEntity
  8
ZUWAKU
  6
CONTINUOUS
 62
       7
100
AcDbLine
 10
-495.56666667
 20
-1089.63101302
 30
0.0
 11
-493.06666667
 21
-1082.63101302
 31
0.0
  0
LINE
  5
104
100
AcDbEntity
  8
ZUWAKU
  6
CONTINUOUS
 62
       7
100
AcDbLine
 10
-486.56666667
 20
-1108.63101302
 30
0.0
 11
-479.56666667
 21
-1089.63101302
 31
0.0
  0
LINE
  5
105
100
AcDbEntity
  8
ZUWAKU
  6
CONTINUOUS
 62
       7
100
AcDbLine
 10
-486.56666667
 20
-1108.63101302
 30
0.0
 11
-479.56666667
 21
-1089.63101302
 31
0.0
  0
LINE
  5
106
100
AcDbEntity
  8
ZUWAKU
  6
CONTINUOUS
 62
       7
100
AcDbLine
 10
-493.06666667
 20
-1082.63101302
 30
0.0
 11
-483.56666667
 21
-1082.63101302
 31
0.0
  0
LINE
  5
107
100
AcDbEntity
  8
ZUWAKU
  6
CONTINUOUS
 62
       7
100
AcDbLine
 10
-493.06666667
 20
-1082.63101302
 30
0.0
 11
-483.56666667
 21
-1082.63101302
 31
0.0
  0
LINE
  5
108
100
AcDbEntity
  8
ZUWAKU
  6
CONTINUOUS
 62
       7
100
AcDbLine
 10
-483.56666667
 20
-1082.63101302
 30
0.0
 11
-477.06666667
 21
-1082.13101302
 31
0.0
  0
LINE
  5
109
100
AcDbEntity
  8
ZUWAKU
  6
CONTINUOUS
 62
       7
100
AcDbLine
 10
-483.56666667
 20
-1082.63101302
 30
0.0
 11
-477.06666667
 21
-1082.13101302
 31
0.0
  0
LINE
  5
10A
100
AcDbEntity
  8
ZUWAKU
  6
CONTINUOUS
 62
       7
100
AcDbLine
 10
-477.06666667
 20
-1082.13101302
 30
0.0
 11
-470.06666667
 21
-1079.13101302
 31
0.0
  0
LINE
  5
10B
100
AcDbEntity
  8
ZUWAKU
  6
CONTINUOUS
 62
       7
100
AcDbLine
 10
-477.06666667
 20
-1082.13101302
 30
0.0
 11
-470.06666667
 21
-1079.13101302
 31
0.0
  0
LINE
  5
10C
100
AcDbEntity
  8
ZUWAKU
  6
CONTINUOUS
 62
       7
100
AcDbLine
 10
-470.06666667
 20
-1079.13101302
 30
0.0
 11
-465.06666667
 21
-1074.63101302
 31
0.0
  0
LINE
  5
10D
100
AcDbEntity
  8
ZUWAKU
  6
CONTINUOUS
 62
       7
100
AcDbLine
 10
-470.06666667
 20
-1079.13101302
 30
0.0
 11
-465.06666667
 21
-1074.63101302
 31
0.0
  0
LINE
  5
10E
100
AcDbEntity
  8
ZUWAKU
  6
CONTINUOUS
 62
       7
100
AcDbLine
 10
-559.06666667
 20
-1069.13101302
 30
0.0
 11
-568.06666667
 21
-1093.13101302
 31
0.0
  0
LINE
  5
10F
100
AcDbEntity
  8
ZUWAKU
  6
CONTINUOUS
 62
       7
100
AcDbLine
 10
-568.06666667
 20
-1093.13101302
 30
0.0
 11
-579.56666667
 21
-1093.13101302
 31
0.0
  0
LINE
  5
110
100
AcDbEntity
  8
ZUWAKU
  6
CONTINUOUS
 62
       7
100
AcDbLine
 10
-568.06666667
 20
-1093.13101302
 30
0.0
 11
-579.56666667
 21
-1093.13101302
 31
0.0
  0
LINE
  5
111
100
AcDbEntity
  8
ZUWAKU
  6
CONTINUOUS
 62
       7
100
AcDbLine
 10
-579.56666667
 20
-1093.13101302
 30
0.0
 11
-571.06666667
 21
-1069.13101302
 31
0.0
  0
LINE
  5
112
100
AcDbEntity
  8
ZUWAKU
  6
CONTINUOUS
 62
       7
100
AcDbLine
 10
-571.06666667
 20
-1069.13101302
 30
0.0
 11
-559.06666667
 21
-1069.13101302
 31
0.0
  0
LINE
  5
113
100
AcDbEntity
  8
ZUWAKU
  6
CONTINUOUS
 62
       7
100
AcDbLine
 10
-571.06666667
 20
-1069.13101302
 30
0.0
 11
-559.06666667
 21
-1069.13101302
 31
0.0
  0
LINE
  5
114
100
AcDbEntity
  8
ZUWAKU
  6
CONTINUOUS
 62
       7
100
AcDbLine
 10
-394.16666667
 20
-1069.13101302
 30
0.0
 11
-397.16666667
 21
-1078.13101302
 31
0.0
  0
LINE
  5
115
100
AcDbEntity
  8
ZUWAKU
  6
CONTINUOUS
 62
       7
100
AcDbLine
 10
-397.16666667
 20
-1078.13101302
 30
0.0
 11
-381.16666667
 21
-1078.13101302
 31
0.0
  0
LINE
  5
116
100
AcDbEntity
  8
ZUWAKU
  6
CONTINUOUS
 62
       7
100
AcDbLine
 10
-397.16666667
 20
-1078.13101302
 30
0.0
 11
-381.16666667
 21
-1078.13101302
 31
0.0
  0
LINE
  5
117
100
AcDbEntity
  8
ZUWAKU
  6
CONTINUOUS
 62
       7
100
AcDbLine
 10
-408.16666667
 20
-1100.63101302
 30
0.0
 11
-411.16666667
 21
-1109.13101302
 31
0.0
  0
LINE
  5
118
100
AcDbEntity
  8
ZUWAKU
  6
CONTINUOUS
 62
       7
100
AcDbLine
 10
-408.16666667
 20
-1100.63101302
 30
0.0
 11
-411.16666667
 21
-1109.13101302
 31
0.0
  0
LINE
  5
119
100
AcDbEntity
  8
ZUWAKU
  6
CONTINUOUS
 62
       7
100
AcDbLine
 10
-411.16666667
 20
-1109.13101302
 30
0.0
 11
-396.16666667
 21
-1106.63101302
 31
0.0
  0
LINE
  5
11A
100
AcDbEntity
  8
ZUWAKU
  6
CONTINUOUS
 62
       7
100
AcDbLine
 10
-396.16666667
 20
-1106.63101302
 30
0.0
 11
-389.16666667
 21
-1104.63101302
 31
0.0
  0
LINE
  5
11B
100
AcDbEntity
  8
ZUWAKU
  6
CONTINUOUS
 62
       7
100
AcDbLine
 10
-396.16666667
 20
-1106.63101302
 30
0.0
 11
-389.16666667
 21
-1104.63101302
 31
0.0
  0
LINE
  5
11C
100
AcDbEntity
  8
ZUWAKU
  6
CONTINUOUS
 62
       7
100
AcDbLine
 10
-381.66666667
 20
-1102.13101302
 30
0.0
 11
-377.66666667
 21
-1108.63101302
 31
0.0
  0
LINE
  5
11D
100
AcDbEntity
  8
ZUWAKU
  6
CONTINUOUS
 62
       7
100
AcDbLine
 10
-377.66666667
 20
-1108.63101302
 30
0.0
 11
-365.16666667
 21
-1108.63101302
 31
0.0
  0
LINE
  5
11E
100
AcDbEntity
  8
ZUWAKU
  6
CONTINUOUS
 62
       7
100
AcDbLine
 10
-377.66666667
 20
-1108.63101302
 30
0.0
 11
-365.16666667
 21
-1108.63101302
 31
0.0
  0
LINE
  5
11F
100
AcDbEntity
  8
ZUWAKU
  6
CONTINUOUS
 62
       7
100
AcDbLine
 10
-373.66666667
 20
-1094.63101302
 30
0.0
 11
-369.16666667
 21
-1088.63101302
 31
0.0
  0
LINE
  5
120
100
AcDbEntity
  8
ZUWAKU
  6
CONTINUOUS
 62
       7
100
AcDbLine
 10
-369.16666667
 20
-1088.63101302
 30
0.0
 11
-365.16666667
 21
-1082.63101302
 31
0.0
  0
LINE
  5
121
100
AcDbEntity
  8
ZUWAKU
  6
CONTINUOUS
 62
       7
100
AcDbLine
 10
-365.16666667
 20
-1082.63101302
 30
0.0
 11
-362.16666667
 21
-1076.13101302
 31
0.0
  0
LINE
  5
122
100
AcDbEntity
  8
ZUWAKU
  6
CONTINUOUS
 62
       7
100
AcDbLine
 10
-362.16666667
 20
-1076.13101302
 30
0.0
 11
-360.16666667
 21
-1069.13101302
 31
0.0
  0
LINE
  5
123
100
AcDbEntity
  8
ZUWAKU
  6
CONTINUOUS
 62
       7
100
AcDbLine
 10
-362.16666667
 20
-1076.13101302
 30
0.0
 11
-360.16666667
 21
-1069.13101302
 31
0.0
  0
LINE
  5
124
100
AcDbEntity
  8
ZUWAKU
  6
CONTINUOUS
 62
       7
100
AcDbLine
 10
-360.16666667
 20
-1069.13101302
 30
0.0
 11
-394.16666667
 21
-1069.13101302
 31
0.0
  0
LINE
  5
125
100
AcDbEntity
  8
ZUWAKU
  6
CONTINUOUS
 62
       7
100
AcDbLine
 10
-390.66666667
 20
-1094.13101302
 30
0.0
 11
-398.66666667
 21
-1098.63101302
 31
0.0
  0
LINE
  5
126
100
AcDbEntity
  8
ZUWAKU
  6
CONTINUOUS
 62
       7
100
AcDbLine
 10
-389.16666667
 20
-1104.63101302
 30
0.0
 11
-381.66666667
 21
-1102.13101302
 31
0.0
  0
LINE
  5
127
100
AcDbEntity
  8
ZUWAKU
  6
CONTINUOUS
 62
       7
100
AcDbLine
 10
-389.16666667
 20
-1104.63101302
 30
0.0
 11
-381.66666667
 21
-1102.13101302
 31
0.0
  0
LINE
  5
128
100
AcDbEntity
  8
ZUWAKU
  6
CONTINUOUS
 62
       7
100
AcDbLine
 10
-365.16666667
 20
-1108.63101302
 30
0.0
 11
-373.66666667
 21
-1094.63101302
 31
0.0
  0
LINE
  5
129
100
AcDbEntity
  8
ZUWAKU
  6
CONTINUOUS
 62
       7
100
AcDbLine
 10
-365.16666667
 20
-1108.63101302
 30
0.0
 11
-373.66666667
 21
-1094.63101302
 31
0.0
  0
LINE
  5
12A
100
AcDbEntity
  8
ZUWAKU
  6
CONTINUOUS
 62
       7
100
AcDbLine
 10
-384.16666667
 20
-1086.63101302
 30
0.0
 11
-390.66666667
 21
-1094.13101302
 31
0.0
  0
LINE
  5
12B
100
AcDbEntity
  8
ZUWAKU
  6
CONTINUOUS
 62
       7
100
AcDbLine
 10
-384.16666667
 20
-1086.63101302
 30
0.0
 11
-390.66666667
 21
-1094.13101302
 31
0.0
  0
LINE
  5
12C
100
AcDbEntity
  8
ZUWAKU
  6
CONTINUOUS
 62
       7
100
AcDbLine
 10
-483.56666667
 20
-1082.63101302
 30
0.0
 11
-477.06666667
 21
-1082.13101302
 31
0.0
  0
LINE
  5
12D
100
AcDbEntity
  8
ZUWAKU
  6
CONTINUOUS
 62
       7
100
AcDbLine
 10
-477.06666667
 20
-1082.13101302
 30
0.0
 11
-470.06666667
 21
-1079.13101302
 31
0.0
  0
LINE
  5
12E
100
AcDbEntity
  8
ZUWAKU
  6
CONTINUOUS
 62
       7
100
AcDbLine
 10
-470.06666667
 20
-1079.13101302
 30
0.0
 11
-465.06666667
 21
-1074.63101302
 31
0.0
  0
LINE
  5
12F
100
AcDbEntity
  8
ZUWAKU
  6
CONTINUOUS
 62
       7
100
AcDbLine
 10
-465.06666667
 20
-1074.63101302
 30
0.0
 11
-461.06666667
 21
-1069.13101302
 31
0.0
  0
LINE
  5
130
100
AcDbEntity
  8
ZUWAKU
  6
CONTINUOUS
 62
       7
100
AcDbLine
 10
-426.76666667
 20
-1108.63101302
 30
0.0
 11
-417.76666667
 21
-1104.63101302
 31
0.0
  0
LINE
  5
131
100
AcDbEntity
  8
ZUWAKU
  6
CONTINUOUS
 62
       7
100
AcDbLine
 10
-417.76666667
 20
-1104.63101302
 30
0.0
 11
-409.76666667
 21
-1097.13101302
 31
0.0
  0
LINE
  5
132
100
AcDbEntity
  8
ZUWAKU
  6
CONTINUOUS
 62
       7
100
AcDbLine
 10
-409.76666667
 20
-1097.13101302
 30
0.0
 11
-403.76666667
 21
-1087.13101302
 31
0.0
  0
LINE
  5
133
100
AcDbEntity
  8
ZUWAKU
  6
CONTINUOUS
 62
       7
100
AcDbLine
 10
-403.76666667
 20
-1087.13101302
 30
0.0
 11
-401.76666667
 21
-1076.63101302
 31
0.0
  0
LINE
  5
134
100
AcDbEntity
  8
ZUWAKU
  6
CONTINUOUS
 62
       7
100
AcDbLine
 10
-408.16666667
 20
-1100.63101302
 30
0.0
 11
-398.66666667
 21
-1098.63101302
 31
0.0
  0
LINE
  5
135
100
AcDbEntity
  8
ZUWAKU
  6
CONTINUOUS
 62
       7
100
AcDbLine
 10
-398.66666667
 20
-1098.63101302
 30
0.0
 11
-390.66666667
 21
-1094.13101302
 31
0.0
  0
LINE
  5
136
100
AcDbEntity
  8
ZUWAKU
  6
CONTINUOUS
 62
       7
100
AcDbLine
 10
-390.66666667
 20
-1094.13101302
 30
0.0
 11
-384.16666667
 21
-1086.63101302
 31
0.0
  0
LINE
  5
137
100
AcDbEntity
  8
ZUWAKU
  6
CONTINUOUS
 62
       7
100
AcDbLine
 10
-462.56666667
 20
-1086.63101302
 30
0.0
 11
-456.06666667
 21
-1084.63101302
 31
0.0
  0
LINE
  5
138
100
AcDbEntity
  8
ZUWAKU
  6
CONTINUOUS
 62
       7
100
AcDbLine
 10
-456.06666667
 20
-1084.63101302
 30
0.0
 11
-450.56666667
 21
-1080.63101302
 31
0.0
  0
LINE
  5
139
100
AcDbEntity
  8
ZUWAKU
  6
CONTINUOUS
 62
       7
100
AcDbLine
 10
-450.56666667
 20
-1080.63101302
 30
0.0
 11
-445.56666667
 21
-1075.63101302
 31
0.0
  0
LINE
  5
13A
100
AcDbEntity
  8
ZUWAKU
  6
CONTINUOUS
 62
       7
100
AcDbLine
 10
-445.56666667
 20
-1075.63101302
 30
0.0
 11
-442.56666667
 21
-1069.13101302
 31
0.0
  0
LINE
  5
13B
100
AcDbEntity
  8
ZUWAKU
  6
CONTINUOUS
 62
       7
100
AcDbLine
 10
-373.66666667
 20
-1094.63101302
 30
0.0
 11
-369.16666667
 21
-1088.63101302
 31
0.0
  0
LINE
  5
13C
100
AcDbEntity
  8
ZUWAKU
  6
CONTINUOUS
 62
       7
100
AcDbLine
 10
-369.16666667
 20
-1088.63101302
 30
0.0
 11
-365.16666667
 21
-1082.63101302
 31
0.0
  0
LINE
  5
13D
100
AcDbEntity
  8
ZUWAKU
  6
CONTINUOUS
 62
       7
100
AcDbLine
 10
-365.16666667
 20
-1082.63101302
 30
0.0
 11
-362.16666667
 21
-1076.13101302
 31
0.0
  0
LINE
  5
13E
100
AcDbEntity
  8
ZUWAKU
  6
CONTINUOUS
 62
       7
100
AcDbLine
 10
-362.16666667
 20
-1076.13101302
 30
0.0
 11
-360.16666667
 21
-1069.13101302
 31
0.0
  0
LINE
  5
13F
100
AcDbEntity
  8
ZUWAKU
  6
CONTINUOUS
 62
       7
100
AcDbLine
 10
-396.16666667
 20
-1106.63101302
 30
0.0
 11
-389.16666667
 21
-1104.63101302
 31
0.0
  0
LINE
  5
140
100
AcDbEntity
  8
ZUWAKU
  6
CONTINUOUS
 62
       7
100
AcDbLine
 10
-389.16666667
 20
-1104.63101302
 30
0.0
 11
-381.66666667
 21
-1102.13101302
 31
0.0
  0
LINE
  5
141
100
AcDbEntity
  8
ZUWAKU
  6
CONTINUOUS
 62
       7
100
AcDbLine
 10
-409.26666667
 20
-1083.13101302
 30
0.0
 11
-406.76666667
 21
-1076.63101302
 31
0.0
  0
LINE
  5
142
100
AcDbEntity
  8
ZUWAKU
  6
CONTINUOUS
 62
       7
100
AcDbLine
 10
-406.76666667
 20
-1076.63101302
 30
0.0
 11
-401.76666667
 21
-1076.63101302
 31
0.0
  0
LINE
  5
143
100
AcDbEntity
  8
ZUWAKU
  6
CONTINUOUS
 62
       7
100
AcDbLine
 10
-406.76666667
 20
-1076.63101302
 30
0.0
 11
-401.76666667
 21
-1076.63101302
 31
0.0
  0
LINE
  5
144
100
AcDbEntity
  8
ZUWAKU
  6
CONTINUOUS
 62
       7
100
AcDbLine
 10
-401.76666667
 20
-1076.63101302
 30
0.0
 11
-403.76666667
 21
-1087.13101302
 31
0.0
  0
LINE
  5
145
100
AcDbEntity
  8
ZUWAKU
  6
CONTINUOUS
 62
       7
100
AcDbLine
 10
-403.76666667
 20
-1087.13101302
 30
0.0
 11
-409.76666667
 21
-1097.13101302
 31
0.0
  0
LINE
  5
146
100
AcDbEntity
  8
ZUWAKU
  6
CONTINUOUS
 62
       7
100
AcDbLine
 10
-403.76666667
 20
-1087.13101302
 30
0.0
 11
-409.76666667
 21
-1097.13101302
 31
0.0
  0
LINE
  5
147
100
AcDbEntity
  8
ZUWAKU
  6
CONTINUOUS
 62
       7
100
AcDbLine
 10
-409.76666667
 20
-1097.13101302
 30
0.0
 11
-417.76666667
 21
-1104.63101302
 31
0.0
  0
LINE
  5
148
100
AcDbEntity
  8
ZUWAKU
  6
CONTINUOUS
 62
       7
100
AcDbLine
 10
-427.76666667
 20
-1108.63101302
 30
0.0
 11
-453.26666667
 21
-1108.63101302
 31
0.0
  0
LINE
  5
149
100
AcDbEntity
  8
ZUWAKU
  6
CONTINUOUS
 62
       7
100
AcDbLine
 10
-453.26666667
 20
-1108.63101302
 30
0.0
 11
-448.76666667
 21
-1096.13101302
 31
0.0
  0
LINE
  5
14A
100
AcDbEntity
  8
ZUWAKU
  6
CONTINUOUS
 62
       7
100
AcDbLine
 10
-453.26666667
 20
-1108.63101302
 30
0.0
 11
-448.76666667
 21
-1096.13101302
 31
0.0
  0
LINE
  5
14B
100
AcDbEntity
  8
ZUWAKU
  6
CONTINUOUS
 62
       7
100
AcDbLine
 10
-413.26666667
 20
-1088.63101302
 30
0.0
 11
-409.26666667
 21
-1083.13101302
 31
0.0
  0
LINE
  5
14C
100
AcDbEntity
  8
ZUWAKU
  6
CONTINUOUS
 62
       7
100
AcDbLine
 10
-448.76666667
 20
-1096.13101302
 30
0.0
 11
-424.76666667
 21
-1096.13101302
 31
0.0
  0
LINE
  5
14D
100
AcDbEntity
  8
ZUWAKU
  6
CONTINUOUS
 62
       7
100
AcDbLine
 10
-448.76666667
 20
-1096.13101302
 30
0.0
 11
-424.76666667
 21
-1096.13101302
 31
0.0
  0
LINE
  5
14E
100
AcDbEntity
  8
ZUWAKU
  6
CONTINUOUS
 62
       7
100
AcDbLine
 10
-424.76666667
 20
-1096.13101302
 30
0.0
 11
-418.76666667
 21
-1093.13101302
 31
0.0
  0
LINE
  5
14F
100
AcDbEntity
  8
ZUWAKU
  6
CONTINUOUS
 62
       7
100
AcDbLine
 10
-424.76666667
 20
-1096.13101302
 30
0.0
 11
-418.76666667
 21
-1093.13101302
 31
0.0
  0
LINE
  5
150
100
AcDbEntity
  8
ZUWAKU
  6
CONTINUOUS
 62
       7
100
AcDbLine
 10
-418.76666667
 20
-1093.13101302
 30
0.0
 11
-413.26666667
 21
-1088.63101302
 31
0.0
  0
LINE
  5
151
100
AcDbEntity
  8
ZUWAKU
  6
CONTINUOUS
 62
       7
100
AcDbLine
 10
-497.96666667
 20
-1082.63101302
 30
0.0
 11
-503.96666667
 21
-1099.13101302
 31
0.0
  0
LINE
  5
152
100
AcDbEntity
  8
ZUWAKU
  6
CONTINUOUS
 62
       7
100
AcDbLine
 10
-503.96666667
 20
-1099.13101302
 30
0.0
 11
-507.46666667
 21
-1102.63101302
 31
0.0
  0
LINE
  5
153
100
AcDbEntity
  8
ZUWAKU
  6
CONTINUOUS
 62
       7
100
AcDbLine
 10
-503.96666667
 20
-1099.13101302
 30
0.0
 11
-507.46666667
 21
-1102.63101302
 31
0.0
  0
LINE
  5
154
100
AcDbEntity
  8
ZUWAKU
  6
CONTINUOUS
 62
       7
100
AcDbLine
 10
-507.46666667
 20
-1102.63101302
 30
0.0
 11
-510.46666667
 21
-1105.63101302
 31
0.0
  0
LINE
  5
155
100
AcDbEntity
  8
ZUWAKU
  6
CONTINUOUS
 62
       7
100
AcDbLine
 10
-510.46666667
 20
-1105.63101302
 30
0.0
 11
-514.46666667
 21
-1107.63101302
 31
0.0
  0
LINE
  5
156
100
AcDbEntity
  8
ZUWAKU
  6
CONTINUOUS
 62
       7
100
AcDbLine
 10
-510.46666667
 20
-1105.63101302
 30
0.0
 11
-514.46666667
 21
-1107.63101302
 31
0.0
  0
LINE
  5
157
100
AcDbEntity
  8
ZUWAKU
  6
CONTINUOUS
 62
       7
100
AcDbLine
 10
-514.46666667
 20
-1107.63101302
 30
0.0
 11
-518.46666667
 21
-1108.63101302
 31
0.0
  0
LINE
  5
158
100
AcDbEntity
  8
ZUWAKU
  6
CONTINUOUS
 62
       7
100
AcDbLine
 10
-518.46666667
 20
-1108.63101302
 30
0.0
 11
-543.96666667
 21
-1108.63101302
 31
0.0
  0
LINE
  5
159
100
AcDbEntity
  8
ZUWAKU
  6
CONTINUOUS
 62
       7
100
AcDbLine
 10
-518.46666667
 20
-1108.63101302
 30
0.0
 11
-543.96666667
 21
-1108.63101302
 31
0.0
  0
LINE
  5
15A
100
AcDbEntity
  8
ZUWAKU
  6
CONTINUOUS
 62
       7
100
AcDbLine
 10
-543.96666667
 20
-1108.63101302
 30
0.0
 11
-540.96666667
 21
-1101.13101302
 31
0.0
  0
LINE
  5
15B
100
AcDbEntity
  8
ZUWAKU
  6
CONTINUOUS
 62
       7
100
AcDbLine
 10
-540.96666667
 20
-1101.13101302
 30
0.0
 11
-524.46666667
 21
-1101.13101302
 31
0.0
  0
LINE
  5
15C
100
AcDbEntity
  8
ZUWAKU
  6
CONTINUOUS
 62
       7
100
AcDbLine
 10
-540.96666667
 20
-1101.13101302
 30
0.0
 11
-524.46666667
 21
-1101.13101302
 31
0.0
  0
LINE
  5
15D
100
AcDbEntity
  8
ZUWAKU
  6
CONTINUOUS
 62
       7
100
AcDbLine
 10
-514.96666667
 20
-1089.63101302
 30
0.0
 11
-535.96666667
 21
-1089.63101302
 31
0.0
  0
LINE
  5
15E
100
AcDbEntity
  8
ZUWAKU
  6
CONTINUOUS
 62
       7
100
AcDbLine
 10
-535.96666667
 20
-1089.63101302
 30
0.0
 11
-533.96666667
 21
-1082.63101302
 31
0.0
  0
LINE
  5
15F
100
AcDbEntity
  8
ZUWAKU
  6
CONTINUOUS
 62
       7
100
AcDbLine
 10
-535.96666667
 20
-1089.63101302
 30
0.0
 11
-533.96666667
 21
-1082.63101302
 31
0.0
  0
LINE
  5
160
100
AcDbEntity
  8
ZUWAKU
  6
CONTINUOUS
 62
       7
100
AcDbLine
 10
-524.46666667
 20
-1101.13101302
 30
0.0
 11
-520.96666667
 21
-1098.63101302
 31
0.0
  0
LINE
  5
161
100
AcDbEntity
  8
ZUWAKU
  6
CONTINUOUS
 62
       7
100
AcDbLine
 10
-524.46666667
 20
-1101.13101302
 30
0.0
 11
-520.96666667
 21
-1098.63101302
 31
0.0
  0
LINE
  5
162
100
AcDbEntity
  8
ZUWAKU
  6
CONTINUOUS
 62
       7
100
AcDbLine
 10
-520.96666667
 20
-1098.63101302
 30
0.0
 11
-518.46666667
 21
-1096.13101302
 31
0.0
  0
LINE
  5
163
100
AcDbEntity
  8
ZUWAKU
  6
CONTINUOUS
 62
       7
100
AcDbLine
 10
-520.96666667
 20
-1098.63101302
 30
0.0
 11
-518.46666667
 21
-1096.13101302
 31
0.0
  0
LINE
  5
164
100
AcDbEntity
  8
ZUWAKU
  6
CONTINUOUS
 62
       7
100
AcDbLine
 10
-518.46666667
 20
-1096.13101302
 30
0.0
 11
-515.96666667
 21
-1093.13101302
 31
0.0
  0
LINE
  5
165
100
AcDbEntity
  8
ZUWAKU
  6
CONTINUOUS
 62
       7
100
AcDbLine
 10
-518.46666667
 20
-1096.13101302
 30
0.0
 11
-515.96666667
 21
-1093.13101302
 31
0.0
  0
LINE
  5
166
100
AcDbEntity
  8
ZUWAKU
  6
CONTINUOUS
 62
       7
100
AcDbLine
 10
-515.96666667
 20
-1093.13101302
 30
0.0
 11
-514.96666667
 21
-1089.63101302
 31
0.0
  0
LINE
  5
167
100
AcDbEntity
  8
ZUWAKU
  6
CONTINUOUS
 62
       7
100
AcDbLine
 10
-515.96666667
 20
-1093.13101302
 30
0.0
 11
-514.96666667
 21
-1089.63101302
 31
0.0
  0
LINE
  5
168
100
AcDbEntity
  8
ZUWAKU
  6
CONTINUOUS
 62
       7
100
AcDbLine
 10
-547.46666667
 20
-1069.13101302
 30
0.0
 11
-536.47063677
 21
-1069.13101302
 31
0.0
  0
LINE
  5
169
100
AcDbEntity
  8
ZUWAKU
  6
CONTINUOUS
 62
       7
100
AcDbLine
 10
-545.56666667
 20
-1098.63101302
 30
0.0
 11
-549.56666667
 21
-1102.63101302
 31
0.0
  0
LINE
  5
16A
100
AcDbEntity
  8
ZUWAKU
  6
CONTINUOUS
 62
       7
100
AcDbLine
 10
-549.56666667
 20
-1102.63101302
 30
0.0
 11
-553.56666667
 21
-1106.13101302
 31
0.0
  0
LINE
  5
16B
100
AcDbEntity
  8
ZUWAKU
  6
CONTINUOUS
 62
       7
100
AcDbLine
 10
-549.56666667
 20
-1102.63101302
 30
0.0
 11
-553.56666667
 21
-1106.13101302
 31
0.0
  0
LINE
  5
16C
100
AcDbEntity
  8
ZUWAKU
  6
CONTINUOUS
 62
       7
100
AcDbLine
 10
-553.56666667
 20
-1106.13101302
 30
0.0
 11
-558.56666667
 21
-1108.13101302
 31
0.0
  0
LINE
  5
16D
100
AcDbEntity
  8
ZUWAKU
  6
CONTINUOUS
 62
       7
100
AcDbLine
 10
-558.56666667
 20
-1108.13101302
 30
0.0
 11
-563.56666667
 21
-1108.63101302
 31
0.0
  0
LINE
  5
16E
100
AcDbEntity
  8
ZUWAKU
  6
CONTINUOUS
 62
       7
100
AcDbLine
 10
-563.56666667
 20
-1108.63101302
 30
0.0
 11
-576.06666667
 21
-1108.63101302
 31
0.0
  0
LINE
  5
16F
100
AcDbEntity
  8
ZUWAKU
  6
CONTINUOUS
 62
       7
100
AcDbLine
 10
-576.06666667
 20
-1108.63101302
 30
0.0
 11
-573.56666667
 21
-1101.13101302
 31
0.0
  0
LINE
  5
170
100
AcDbEntity
  8
ZUWAKU
  6
CONTINUOUS
 62
       7
100
AcDbLine
 10
-576.06666667
 20
-1108.63101302
 30
0.0
 11
-573.56666667
 21
-1101.13101302
 31
0.0
  0
LINE
  5
171
100
AcDbEntity
  8
ZUWAKU
  6
CONTINUOUS
 62
       7
100
AcDbLine
 10
-558.56666667
 20
-1094.63101302
 30
0.0
 11
-549.06666667
 21
-1069.13101302
 31
0.0
  0
LINE
  5
172
100
AcDbEntity
  8
ZUWAKU
  6
CONTINUOUS
 62
       7
100
AcDbLine
 10
-573.56666667
 20
-1101.13101302
 30
0.0
 11
-569.06666667
 21
-1101.13101302
 31
0.0
  0
LINE
  5
173
100
AcDbEntity
  8
ZUWAKU
  6
CONTINUOUS
 62
       7
100
AcDbLine
 10
-573.56666667
 20
-1101.13101302
 30
0.0
 11
-569.06666667
 21
-1101.13101302
 31
0.0
  0
LINE
  5
174
100
AcDbEntity
  8
ZUWAKU
  6
CONTINUOUS
 62
       7
100
AcDbLine
 10
-561.06666667
 20
-1098.63101302
 30
0.0
 11
-558.56666667
 21
-1094.63101302
 31
0.0
  0
LINE
  5
175
100
AcDbEntity
  8
ZUWAKU
  6
CONTINUOUS
 62
       7
100
AcDbLine
 10
-565.06666667
 20
-1100.63101302
 30
0.0
 11
-561.06666667
 21
-1098.63101302
 31
0.0
  0
LINE
  5
176
100
AcDbEntity
  8
ZUWAKU
  6
CONTINUOUS
 62
       7
100
AcDbLine
 10
-569.06666667
 20
-1101.13101302
 30
0.0
 11
-565.06666667
 21
-1100.63101302
 31
0.0
  0
LINE
  5
177
100
AcDbEntity
  8
ZUWAKU
  6
CONTINUOUS
 62
       7
100
AcDbLine
 10
-569.06666667
 20
-1101.13101302
 30
0.0
 11
-565.06666667
 21
-1100.63101302
 31
0.0
  0
LINE
  5
178
100
AcDbEntity
  8
ZUWAKU
  6
CONTINUOUS
 62
       7
100
AcDbLine
 10
-438.76666667
 20
-1069.13101302
 30
0.0
 11
-422.76666667
 21
-1069.13101302
 31
0.0
  0
LINE
  5
179
100
AcDbEntity
  8
ZUWAKU
  6
CONTINUOUS
 62
       7
100
AcDbLine
 10
-422.76666667
 20
-1069.13101302
 30
0.0
 11
-425.76666667
 21
-1078.13101302
 31
0.0
  0
LINE
  5
17A
100
AcDbEntity
  8
ZUWAKU
  6
CONTINUOUS
 62
       7
100
AcDbLine
 10
-422.76666667
 20
-1069.13101302
 30
0.0
 11
-425.76666667
 21
-1078.13101302
 31
0.0
  0
LINE
  5
17B
100
AcDbEntity
  8
ZUWAKU
  6
CONTINUOUS
 62
       7
100
AcDbLine
 10
-426.56666667
 20
-1078.13101302
 30
0.0
 11
-442.26666667
 21
-1078.13101302
 31
0.0
  0
LINE
  5
17C
100
AcDbEntity
  8
ZUWAKU
  6
CONTINUOUS
 62
       7
100
AcDbLine
 10
-379.50726154
 20
-1078.06449723
 30
0.0
 11
-384.16666667
 21
-1086.63101302
 31
0.0
  0
LINE
  5
17D
100
AcDbEntity
  8
ZUWAKU
  6
CONTINUOUS
 62
       7
100
AcDbLine
 10
-365.66666667
 20
-1069.13101302
 30
0.0
 11
-390.66666667
 21
-1094.13101302
 31
0.0
  0
LINE
  5
17E
100
AcDbEntity
  8
ZUWAKU
  6
CONTINUOUS
 62
       7
100
AcDbLine
 10
-390.66666667
 20
-1094.13101302
 30
0.0
 11
-404.56666667
 21
-1108.03101302
 31
0.0
  0
LINE
  5
17F
100
AcDbEntity
  8
ZUWAKU
  6
CONTINUOUS
 62
       7
100
AcDbLine
 10
-367.92940837
 20
-1069.13101302
 30
0.0
 11
-382.66079042
 21
-1083.86239507
 31
0.0
  0
LINE
  5
180
100
AcDbEntity
  8
ZUWAKU
  6
CONTINUOUS
 62
       7
100
AcDbLine
 10
-395.83864769
 20
-1097.04025234
 30
0.0
 11
-407.28195671
 21
-1108.48356136
 31
0.0
  0
LINE
  5
181
100
AcDbEntity
  8
ZUWAKU
  6
CONTINUOUS
 62
       7
100
AcDbLine
 10
-370.19215007
 20
-1069.13101302
 30
0.0
 11
-379.96236921
 21
-1078.90123216
 31
0.0
  0
LINE
  5
182
100
AcDbEntity
  8
ZUWAKU
  6
CONTINUOUS
 62
       7
100
AcDbLine
 10
-399.96561231
 20
-1098.90447526
 30
0.0
 11
-409.99724675
 21
-1108.9361097
 31
0.0
  0
LINE
  5
183
100
AcDbEntity
  8
ZUWAKU
  6
CONTINUOUS
 62
       7
100
AcDbLine
 10
-372.45489177
 20
-1069.13101302
 30
0.0
 11
-381.45489177
 21
-1078.13101302
 31
0.0
  0
LINE
  5
184
100
AcDbEntity
  8
ZUWAKU
  6
CONTINUOUS
 62
       7
100
AcDbLine
 10
-402.83175179
 20
-1099.50787304
 30
0.0
 11
-410.46399843
 21
-1107.14011968
 31
0.0
  0
LINE
  5
185
100
AcDbEntity
  8
ZUWAKU
  6
CONTINUOUS
 62
       7
100
AcDbLine
 10
-374.71763347
 20
-1069.13101302
 30
0.0
 11
-383.71763347
 21
-1078.13101302
 31
0.0
  0
LINE
  5
186
100
AcDbEntity
  8
ZUWAKU
  6
CONTINUOUS
 62
       7
100
AcDbLine
 10
-405.69789128
 20
-1100.11127083
 30
0.0
 11
-409.22977569
 21
-1103.64315524
 31
0.0
  0
LINE
  5
187
100
AcDbEntity
  8
ZUWAKU
  6
CONTINUOUS
 62
       7
100
AcDbLine
 10
-376.98037517
 20
-1069.13101302
 30
0.0
 11
-385.98037517
 21
-1078.13101302
 31
0.0
  0
LINE
  5
188
100
AcDbEntity
  8
ZUWAKU
  6
CONTINUOUS
 62
       7
100
AcDbLine
 10
-379.24311687
 20
-1069.13101302
 30
0.0
 11
-388.24311687
 21
-1078.13101302
 31
0.0
  0
LINE
  5
189
100
AcDbEntity
  8
ZUWAKU
  6
CONTINUOUS
 62
       7
100
AcDbLine
 10
-381.50585857
 20
-1069.13101302
 30
0.0
 11
-390.50585857
 21
-1078.13101302
 31
0.0
  0
LINE
  5
18A
100
AcDbEntity
  8
ZUWAKU
  6
CONTINUOUS
 62
       7
100
AcDbLine
 10
-383.76860027
 20
-1069.13101302
 30
0.0
 11
-392.76860027
 21
-1078.13101302
 31
0.0
  0
LINE
  5
18B
100
AcDbEntity
  8
ZUWAKU
  6
CONTINUOUS
 62
       7
100
AcDbLine
 10
-386.03134196
 20
-1069.13101302
 30
0.0
 11
-395.03134196
 21
-1078.13101302
 31
0.0
  0
LINE
  5
18C
100
AcDbEntity
  8
ZUWAKU
  6
CONTINUOUS
 62
       7
100
AcDbLine
 10
-388.29408366
 20
-1069.13101302
 30
0.0
 11
-397.10295817
 21
-1077.93988752
 31
0.0
  0
LINE
  5
18D
100
AcDbEntity
  8
ZUWAKU
  6
CONTINUOUS
 62
       7
100
AcDbLine
 10
-390.55682536
 20
-1069.13101302
 30
0.0
 11
-395.97158732
 21
-1074.54577497
 31
0.0
  0
LINE
  5
18E
100
AcDbEntity
  8
ZUWAKU
  6
CONTINUOUS
 62
       7
100
AcDbLine
 10
-392.81956706
 20
-1069.13101302
 30
0.0
 11
-394.84021647
 21
-1071.15166242
 31
0.0
  0
LINE
  5
18F
100
AcDbEntity
  8
ZUWAKU
  6
CONTINUOUS
 62
       7
100
AcDbLine
 10
-363.40392497
 20
-1069.13101302
 30
0.0
 11
-401.85137663
 21
-1107.57846468
 31
0.0
  0
LINE
  5
190
100
AcDbEntity
  8
ZUWAKU
  6
CONTINUOUS
 62
       7
100
AcDbLine
 10
-361.14118327
 20
-1069.13101302
 30
0.0
 11
-399.13608659
 21
-1107.12591634
 31
0.0
  0
LINE
  5
191
100
AcDbEntity
  8
ZUWAKU
  6
CONTINUOUS
 62
       7
100
AcDbLine
 10
-360.68195671
 20
-1070.93452816
 30
0.0
 11
-396.42079655
 21
-1106.673368
 31
0.0
  0
LINE
  5
192
100
AcDbEntity
  8
ZUWAKU
  6
CONTINUOUS
 62
       7
100
AcDbLine
 10
-361.58705339
 20
-1074.10236654
 30
0.0
 11
-393.29531315
 21
-1105.8106263
 31
0.0
  0
LINE
  5
193
100
AcDbEntity
  8
ZUWAKU
  6
CONTINUOUS
 62
       7
100
AcDbLine
 10
-362.86413109
 20
-1077.64218594
 30
0.0
 11
-390.12747477
 21
-1104.90552962
 31
0.0
  0
LINE
  5
194
100
AcDbEntity
  8
ZUWAKU
  6
CONTINUOUS
 62
       7
100
AcDbLine
 10
-364.80362398
 20
-1081.84442053
 30
0.0
 11
-386.80199137
 21
-1103.84278792
 31
0.0
  0
LINE
  5
195
100
AcDbEntity
  8
ZUWAKU
  6
CONTINUOUS
 62
       7
100
AcDbLine
 10
-368.84505046
 20
-1088.14858871
 30
0.0
 11
-383.40787882
 21
-1102.71141707
 31
0.0
  0
LINE
  5
196
100
AcDbEntity
  8
ZUWAKU
  6
CONTINUOUS
 62
       7
100
AcDbLine
 10
-373.43926953
 20
-1095.00554948
 30
0.0
 11
-381.24688244
 21
-1102.81316239
 31
0.0
  0
LINE
  5
197
100
AcDbEntity
  8
ZUWAKU
  6
CONTINUOUS
 62
       7
100
AcDbLine
 10
-372.584456
 20
-1096.41347765
 30
0.0
 11
-380.3848856
 21
-1104.21390725
 31
0.0
  0
LINE
  5
198
100
AcDbEntity
  8
ZUWAKU
  6
CONTINUOUS
 62
       7
100
AcDbLine
 10
-371.72964247
 20
-1097.82140582
 30
0.0
 11
-379.52288876
 21
-1105.61465211
 31
0.0
  0
LINE
  5
199
100
AcDbEntity
  8
ZUWAKU
  6
CONTINUOUS
 62
       7
100
AcDbLine
 10
-370.87482894
 20
-1099.22933398
 30
0.0
 11
-378.66089192
 21
-1107.01539697
 31
0.0
  0
LINE
  5
19A
100
AcDbEntity
  8
ZUWAKU
  6
CONTINUOUS
 62
       7
100
AcDbLine
 10
-370.02001541
 20
-1100.63726215
 30
0.0
 11
-377.79889509
 21
-1108.41614183
 31
0.0
  0
LINE
  5
19B
100
AcDbEntity
  8
ZUWAKU
  6
CONTINUOUS
 62
       7
100
AcDbLine
 10
-369.16520187
 20
-1102.04519032
 30
0.0
 11
-375.75102457
 21
-1108.63101302
 31
0.0
  0
LINE
  5
19C
100
AcDbEntity
  8
ZUWAKU
  6
CONTINUOUS
 62
       7
100
AcDbLine
 10
-368.31038834
 20
-1103.45311849
 30
0.0
 11
-373.48828287
 21
-1108.63101302
 31
0.0
  0
LINE
  5
19D
100
AcDbEntity
  8
ZUWAKU
  6
CONTINUOUS
 62
       7
100
AcDbLine
 10
-367.45557481
 20
-1104.86104666
 30
0.0
 11
-371.22554117
 21
-1108.63101302
 31
0.0
  0
LINE
  5
19E
100
AcDbEntity
  8
ZUWAKU
  6
CONTINUOUS
 62
       7
100
AcDbLine
 10
-366.60076128
 20
-1106.26897483
 30
0.0
 11
-368.96279947
 21
-1108.63101302
 31
0.0
  0
LINE
  5
19F
100
AcDbEntity
  8
ZUWAKU
  6
CONTINUOUS
 62
       7
100
AcDbLine
 10
-365.74594775
 20
-1107.676903
 30
0.0
 11
-366.70005777
 21
-1108.63101302
 31
0.0
  0
LINE
  5
1A0
100
AcDbEntity
  8
ZUWAKU
  6
CONTINUOUS
 62
       7
100
AcDbLine
 10
-428.01666667
 20
-1069.13101302
 30
0.0
 11
-437.01666667
 21
-1078.13101302
 31
0.0
  0
LINE
  5
1A1
100
AcDbEntity
  8
ZUWAKU
  6
CONTINUOUS
 62
       7
100
AcDbLine
 10
-430.27940837
 20
-1069.13101302
 30
0.0
 11
-439.27940837
 21
-1078.13101302
 31
0.0
  0
LINE
  5
1A2
100
AcDbEntity
  8
ZUWAKU
  6
CONTINUOUS
 62
       7
100
AcDbLine
 10
-432.54215007
 20
-1069.13101302
 30
0.0
 11
-441.54215007
 21
-1078.13101302
 31
0.0
  0
LINE
  5
1A3
100
AcDbEntity
  8
ZUWAKU
  6
CONTINUOUS
 62
       7
100
AcDbLine
 10
-434.80489177
 20
-1069.13101302
 30
0.0
 11
-441.28779615
 21
-1075.6139174
 31
0.0
  0
LINE
  5
1A4
100
AcDbEntity
  8
ZUWAKU
  6
CONTINUOUS
 62
       7
100
AcDbLine
 10
-437.06763347
 20
-1069.13101302
 30
0.0
 11
-439.84786961
 21
-1071.91124916
 31
0.0
  0
LINE
  5
1A5
100
AcDbEntity
  8
ZUWAKU
  6
CONTINUOUS
 62
       7
100
AcDbLine
 10
-425.75392497
 20
-1069.13101302
 30
0.0
 11
-434.75392497
 21
-1078.13101302
 31
0.0
  0
LINE
  5
1A6
100
AcDbEntity
  8
ZUWAKU
  6
CONTINUOUS
 62
       7
100
AcDbLine
 10
-423.49118327
 20
-1069.13101302
 30
0.0
 11
-432.49118327
 21
-1078.13101302
 31
0.0
  0
LINE
  5
1A7
100
AcDbEntity
  8
ZUWAKU
  6
CONTINUOUS
 62
       7
100
AcDbLine
 10
-423.53577922
 20
-1071.43835067
 30
0.0
 11
-430.22844157
 21
-1078.13101302
 31
0.0
  0
LINE
  5
1A8
100
AcDbEntity
  8
ZUWAKU
  6
CONTINUOUS
 62
       7
100
AcDbLine
 10
-424.66715007
 20
-1074.83246322
 30
0.0
 11
-427.96569987
 21
-1078.13101302
 31
0.0
  0
LINE
  5
1A9
100
AcDbEntity
  8
ZUWAKU
  6
CONTINUOUS
 62
       7
100
AcDbLine
 10
-425.70295817
 20
-1078.13101302
 30
0.0
 11
-425.79852092
 21
-1078.22657576
 31
0.0
  0
LINE
  5
1AA
100
AcDbEntity
  8
ZUWAKU
  6
CONTINUOUS
 62
       7
100
AcDbLine
 10
-431.01666667
 20
-1096.13101302
 30
0.0
 11
-443.51666667
 21
-1108.63101302
 31
0.0
  0
LINE
  5
1AB
100
AcDbEntity
  8
ZUWAKU
  6
CONTINUOUS
 62
       7
100
AcDbLine
 10
-433.27940837
 20
-1096.13101302
 30
0.0
 11
-445.77940837
 21
-1108.63101302
 31
0.0
  0
LINE
  5
1AC
100
AcDbEntity
  8
ZUWAKU
  6
CONTINUOUS
 62
       7
100
AcDbLine
 10
-435.54215007
 20
-1096.13101302
 30
0.0
 11
-448.04215007
 21
-1108.63101302
 31
0.0
  0
LINE
  5
1AD
100
AcDbEntity
  8
ZUWAKU
  6
CONTINUOUS
 62
       7
100
AcDbLine
 10
-437.80489177
 20
-1096.13101302
 30
0.0
 11
-450.30489177
 21
-1108.63101302
 31
0.0
  0
LINE
  5
1AE
100
AcDbEntity
  8
ZUWAKU
  6
CONTINUOUS
 62
       7
100
AcDbLine
 10
-440.06763347
 20
-1096.13101302
 30
0.0
 11
-452.56763347
 21
-1108.63101302
 31
0.0
  0
LINE
  5
1AF
100
AcDbEntity
  8
ZUWAKU
  6
CONTINUOUS
 62
       7
100
AcDbLine
 10
-442.33037517
 20
-1096.13101302
 30
0.0
 11
-452.38708064
 21
-1106.18771849
 31
0.0
  0
LINE
  5
1B0
100
AcDbEntity
  8
ZUWAKU
  6
CONTINUOUS
 62
       7
100
AcDbLine
 10
-444.59311687
 20
-1096.13101302
 30
0.0
 11
-451.11428843
 21
-1102.65218458
 31
0.0
  0
LINE
  5
1B1
100
AcDbEntity
  8
ZUWAKU
  6
CONTINUOUS
 62
       7
100
AcDbLine
 10
-446.85585857
 20
-1096.13101302
 30
0.0
 11
-449.84149622
 21
-1099.11665067
 31
0.0
  0
LINE
  5
1B2
100
AcDbEntity
  8
ZUWAKU
  6
CONTINUOUS
 62
       7
100
AcDbLine
 10
-428.75392497
 20
-1096.13101302
 30
0.0
 11
-441.25392497
 21
-1108.63101302
 31
0.0
  0
LINE
  5
1B3
100
AcDbEntity
  8
ZUWAKU
  6
CONTINUOUS
 62
       7
100
AcDbLine
 10
-426.49118327
 20
-1096.13101302
 30
0.0
 11
-438.99118327
 21
-1108.63101302
 31
0.0
  0
LINE
  5
1B4
100
AcDbEntity
  8
ZUWAKU
  6
CONTINUOUS
 62
       7
100
AcDbLine
 10
-404.72844157
 20
-1076.63101302
 30
0.0
 11
-408.04055735
 21
-1079.9431288
 31
0.0
  0
LINE
  5
1B5
100
AcDbEntity
  8
ZUWAKU
  6
CONTINUOUS
 62
       7
100
AcDbLine
 10
-423.69021647
 20
-1095.59278792
 30
0.0
 11
-436.72844157
 21
-1108.63101302
 31
0.0
  0
LINE
  5
1B6
100
AcDbEntity
  8
ZUWAKU
  6
CONTINUOUS
 62
       7
100
AcDbLine
 10
-402.46569987
 20
-1076.63101302
 30
0.0
 11
-410.0692448
 21
-1084.23455795
 31
0.0
  0
LINE
  5
1B7
100
AcDbEntity
  8
ZUWAKU
  6
CONTINUOUS
 62
       7
100
AcDbLine
 10
-419.16473307
 20
-1093.33004622
 30
0.0
 11
-434.46569987
 21
-1108.63101302
 31
0.0
  0
LINE
  5
1B8
100
AcDbEntity
  8
ZUWAKU
  6
CONTINUOUS
 62
       7
100
AcDbLine
 10
-402.13459808
 20
-1078.56265293
 30
0.0
 11
-432.20295817
 21
-1108.63101302
 31
0.0
  0
LINE
  5
1B9
100
AcDbEntity
  8
ZUWAKU
  6
CONTINUOUS
 62
       7
100
AcDbLine
 10
-402.66700789
 20
-1081.35780444
 30
0.0
 11
-429.94021647
 21
-1108.63101302
 31
0.0
  0
LINE
  5
1BA
100
AcDbEntity
  8
ZUWAKU
  6
CONTINUOUS
 62
       7
100
AcDbLine
 10
-403.1994177
 20
-1084.15295595
 30
0.0
 11
-427.67747477
 21
-1108.63101302
 31
0.0
  0
LINE
  5
1BB
100
AcDbEntity
  8
ZUWAKU
  6
CONTINUOUS
 62
       7
100
AcDbLine
 10
-403.73182751
 20
-1086.94810746
 30
0.0
 11
-424.33318619
 21
-1107.54946614
 31
0.0
  0
LINE
  5
1BC
100
AcDbEntity
  8
ZUWAKU
  6
CONTINUOUS
 62
       7
100
AcDbLine
 10
-406.93867961
 20
-1092.41770126
 30
0.0
 11
-420.26025113
 21
-1105.73927278
 31
0.0
  0
LINE
  5
1BD
100
AcDbEntity
  8
ZUWAKU
  6
CONTINUOUS
 62
       7
100
AcDbLine
 10
-449.31666667
 20
-1069.13101302
 30
0.0
 11
-485.25416667
 21
-1105.06851302
 31
0.0
  0
LINE
  5
1BE
100
AcDbEntity
  8
ZUWAKU
  6
CONTINUOUS
 62
       7
100
AcDbLine
 10
-451.57940837
 20
-1069.13101302
 30
0.0
 11
-483.93423401
 21
-1101.48583866
 31
0.0
  0
LINE
  5
1BF
100
AcDbEntity
  8
ZUWAKU
  6
CONTINUOUS
 62
       7
100
AcDbLine
 10
-453.84215007
 20
-1069.13101302
 30
0.0
 11
-482.61430135
 21
-1097.9031643
 31
0.0
  0
LINE
  5
1C0
100
AcDbEntity
  8
ZUWAKU
  6
CONTINUOUS
 62
       7
100
AcDbLine
 10
-456.10489177
 20
-1069.13101302
 30
0.0
 11
-481.29436869
 21
-1094.32048994
 31
0.0
  0
LINE
  5
1C1
100
AcDbEntity
  8
ZUWAKU
  6
CONTINUOUS
 62
       7
100
AcDbLine
 10
-458.36763347
 20
-1069.13101302
 30
0.0
 11
-479.97443603
 21
-1090.73781558
 31
0.0
  0
LINE
  5
1C2
100
AcDbEntity
  8
ZUWAKU
  6
CONTINUOUS
 62
       7
100
AcDbLine
 10
-460.63037517
 20
-1069.13101302
 30
0.0
 11
-462.23011067
 21
-1070.73074852
 31
0.0
  0
LINE
  5
1C3
100
AcDbEntity
  8
ZUWAKU
  6
CONTINUOUS
 62
       7
100
AcDbLine
 10
-471.05315654
 20
-1079.55379439
 30
0.0
 11
-481.13037517
 21
-1089.63101302
 31
0.0
  0
LINE
  5
1C4
100
AcDbEntity
  8
ZUWAKU
  6
CONTINUOUS
 62
       7
100
AcDbLine
 10
-475.01295451
 20
-1081.25085067
 30
0.0
 11
-483.39311687
 21
-1089.63101302
 31
0.0
  0
LINE
  5
1C5
100
AcDbEntity
  8
ZUWAKU
  6
CONTINUOUS
 62
       7
100
AcDbLine
 10
-478.24662456
 20
-1082.22177901
 30
0.0
 11
-485.65585857
 21
-1089.63101302
 31
0.0
  0
LINE
  5
1C6
100
AcDbEntity
  8
ZUWAKU
  6
CONTINUOUS
 62
       7
100
AcDbLine
 10
-480.69792806
 20
-1082.41034082
 30
0.0
 11
-487.91860027
 21
-1089.63101302
 31
0.0
  0
LINE
  5
1C7
100
AcDbEntity
  8
ZUWAKU
  6
CONTINUOUS
 62
       7
100
AcDbLine
 10
-483.14923157
 20
-1082.59890262
 30
0.0
 11
-490.18134196
 21
-1089.63101302
 31
0.0
  0
LINE
  5
1C8
100
AcDbEntity
  8
ZUWAKU
  6
CONTINUOUS
 62
       7
100
AcDbLine
 10
-485.44408366
 20
-1082.63101302
 30
0.0
 11
-492.44408366
 21
-1089.63101302
 31
0.0
  0
LINE
  5
1C9
100
AcDbEntity
  8
ZUWAKU
  6
CONTINUOUS
 62
       7
100
AcDbLine
 10
-487.70682536
 20
-1082.63101302
 30
0.0
 11
-494.70682536
 21
-1089.63101302
 31
0.0
  0
LINE
  5
1CA
100
AcDbEntity
  8
ZUWAKU
  6
CONTINUOUS
 62
       7
100
AcDbLine
 10
-489.96956706
 20
-1082.63101302
 30
0.0
 11
-494.78727756
 21
-1087.44872351
 31
0.0
  0
LINE
  5
1CB
100
AcDbEntity
  8
ZUWAKU
  6
CONTINUOUS
 62
       7
100
AcDbLine
 10
-492.23230876
 20
-1082.63101302
 30
0.0
 11
-493.53019883
 21
-1083.92890309
 31
0.0
  0
LINE
  5
1CC
100
AcDbEntity
  8
ZUWAKU
  6
CONTINUOUS
 62
       7
100
AcDbLine
 10
-447.05392497
 20
-1069.13101302
 30
0.0
 11
-486.57409932
 21
-1108.65118737
 31
0.0
  0
LINE
  5
1CD
100
AcDbEntity
  8
ZUWAKU
  6
CONTINUOUS
 62
       7
100
AcDbLine
 10
-444.79118327
 20
-1069.13101302
 30
0.0
 11
-462.1687462
 21
-1086.50857595
 31
0.0
  0
LINE
  5
1CE
100
AcDbEntity
  8
ZUWAKU
  6
CONTINUOUS
 62
       7
100
AcDbLine
 10
-462.70915808
 20
-1087.04898783
 30
0.0
 11
-484.29118327
 21
-1108.63101302
 31
0.0
  0
LINE
  5
1CF
100
AcDbEntity
  8
ZUWAKU
  6
CONTINUOUS
 62
       7
100
AcDbLine
 10
-442.52844157
 20
-1069.13101302
 30
0.0
 11
-458.90034152
 21
-1085.50291297
 31
0.0
  0
LINE
  5
1D0
100
AcDbEntity
  8
ZUWAKU
  6
CONTINUOUS
 62
       7
100
AcDbLine
 10
-463.87954172
 20
-1090.48211317
 30
0.0
 11
-482.02844157
 21
-1108.63101302
 31
0.0
  0
LINE
  5
1D1
100
AcDbEntity
  8
ZUWAKU
  6
CONTINUOUS
 62
       7
100
AcDbLine
 10
-444.53892392
 20
-1073.40423707
 30
0.0
 11
-454.96312174
 21
-1083.82843489
 31
0.0
  0
LINE
  5
1D2
100
AcDbEntity
  8
ZUWAKU
  6
CONTINUOUS
 62
       7
100
AcDbLine
 10
-465.04992536
 20
-1093.9152385
 30
0.0
 11
-479.76569987
 21
-1108.63101302
 31
0.0
  0
LINE
  5
1D3
100
AcDbEntity
  8
ZUWAKU
  6
CONTINUOUS
 62
       7
100
AcDbLine
 10
-466.22030899
 20
-1097.34836384
 30
0.0
 11
-477.50295817
 21
-1108.63101302
 31
0.0
  0
LINE
  5
1D4
100
AcDbEntity
  8
ZUWAKU
  6
CONTINUOUS
 62
       7
100
AcDbLine
 10
-467.39069263
 20
-1100.78148918
 30
0.0
 11
-475.24021647
 21
-1108.63101302
 31
0.0
  0
LINE
  5
1D5
100
AcDbEntity
  8
ZUWAKU
  6
CONTINUOUS
 62
       7
100
AcDbLine
 10
-468.56107627
 20
-1104.21461452
 30
0.0
 11
-472.97747477
 21
-1108.63101302
 31
0.0
  0
LINE
  5
1D6
100
AcDbEntity
  8
ZUWAKU
  6
CONTINUOUS
 62
       7
100
AcDbLine
 10
-469.73145991
 20
-1107.64773986
 30
0.0
 11
-470.71473307
 21
-1108.63101302
 31
0.0
  0
LINE
  5
1D7
100
AcDbEntity
  8
ZUWAKU
  6
CONTINUOUS
 62
       7
100
AcDbLine
 10
-508.71666667
 20
-1069.13101302
 30
0.0
 11
-517.71666667
 21
-1078.13101302
 31
0.0
  0
LINE
  5
1D8
100
AcDbEntity
  8
ZUWAKU
  6
CONTINUOUS
 62
       7
100
AcDbLine
 10
-510.97940837
 20
-1069.13101302
 30
0.0
 11
-519.97940837
 21
-1078.13101302
 31
0.0
  0
LINE
  5
1D9
100
AcDbEntity
  8
ZUWAKU
  6
CONTINUOUS
 62
       7
100
AcDbLine
 10
-513.24215007
 20
-1069.13101302
 30
0.0
 11
-522.24215007
 21
-1078.13101302
 31
0.0
  0
LINE
  5
1DA
100
AcDbEntity
  8
ZUWAKU
  6
CONTINUOUS
 62
       7
100
AcDbLine
 10
-515.50489177
 20
-1069.13101302
 30
0.0
 11
-524.50489177
 21
-1078.13101302
 31
0.0
  0
LINE
  5
1DB
100
AcDbEntity
  8
ZUWAKU
  6
CONTINUOUS
 62
       7
100
AcDbLine
 10
-517.76763347
 20
-1069.13101302
 30
0.0
 11
-526.76763347
 21
-1078.13101302
 31
0.0
  0
LINE
  5
1DC
100
AcDbEntity
  8
ZUWAKU
  6
CONTINUOUS
 62
       7
100
AcDbLine
 10
-520.03037517
 20
-1069.13101302
 30
0.0
 11
-529.03037517
 21
-1078.13101302
 31
0.0
  0
LINE
  5
1DD
100
AcDbEntity
  8
ZUWAKU
  6
CONTINUOUS
 62
       7
100
AcDbLine
 10
-522.29311687
 20
-1069.13101302
 30
0.0
 11
-531.29311687
 21
-1078.13101302
 31
0.0
  0
LINE
  5
1DE
100
AcDbEntity
  8
ZUWAKU
  6
CONTINUOUS
 62
       7
100
AcDbLine
 10
-524.55585857
 20
-1069.13101302
 30
0.0
 11
-532.67207072
 21
-1077.24722517
 31
0.0
  0
LINE
  5
1DF
100
AcDbEntity
  8
ZUWAKU
  6
CONTINUOUS
 62
       7
100
AcDbLine
 10
-526.81860027
 20
-1069.13101302
 30
0.0
 11
-531.54069987
 21
-1073.85311262
 31
0.0
  0
LINE
  5
1E0
100
AcDbEntity
  8
ZUWAKU
  6
CONTINUOUS
 62
       7
100
AcDbLine
 10
-529.08134196
 20
-1069.13101302
 30
0.0
 11
-530.40932902
 21
-1070.45900007
 31
0.0
  0
LINE
  5
1E1
100
AcDbEntity
  8
ZUWAKU
  6
CONTINUOUS
 62
       7
100
AcDbLine
 10
-506.45392497
 20
-1069.13101302
 30
0.0
 11
-515.45392497
 21
-1078.13101302
 31
0.0
  0
LINE
  5
1E2
100
AcDbEntity
  8
ZUWAKU
  6
CONTINUOUS
 62
       7
100
AcDbLine
 10
-504.19118327
 20
-1069.13101302
 30
0.0
 11
-513.19118327
 21
-1078.13101302
 31
0.0
  0
LINE
  5
1E3
100
AcDbEntity
  8
ZUWAKU
  6
CONTINUOUS
 62
       7
100
AcDbLine
 10
-501.92844157
 20
-1069.13101302
 30
0.0
 11
-510.92844157
 21
-1078.13101302
 31
0.0
  0
LINE
  5
1E4
100
AcDbEntity
  8
ZUWAKU
  6
CONTINUOUS
 62
       7
100
AcDbLine
 10
-499.66569987
 20
-1069.13101302
 30
0.0
 11
-508.66569987
 21
-1078.13101302
 31
0.0
  0
LINE
  5
1E5
100
AcDbEntity
  8
ZUWAKU
  6
CONTINUOUS
 62
       7
100
AcDbLine
 10
-497.40295817
 20
-1069.13101302
 30
0.0
 11
-506.40295817
 21
-1078.13101302
 31
0.0
  0
LINE
  5
1E6
100
AcDbEntity
  8
ZUWAKU
  6
CONTINUOUS
 62
       7
100
AcDbLine
 10
-495.14021647
 20
-1069.13101302
 30
0.0
 11
-504.14021647
 21
-1078.13101302
 31
0.0
  0
LINE
  5
1E7
100
AcDbEntity
  8
ZUWAKU
  6
CONTINUOUS
 62
       7
100
AcDbLine
 10
-493.76126262
 20
-1070.01480086
 30
0.0
 11
-501.87747477
 21
-1078.13101302
 31
0.0
  0
LINE
  5
1E8
100
AcDbEntity
  8
ZUWAKU
  6
CONTINUOUS
 62
       7
100
AcDbLine
 10
-494.89263347
 20
-1073.40891341
 30
0.0
 11
-499.61473307
 21
-1078.13101302
 31
0.0
  0
LINE
  5
1E9
100
AcDbEntity
  8
ZUWAKU
  6
CONTINUOUS
 62
       7
100
AcDbLine
 10
-496.02400432
 20
-1076.80302596
 30
0.0
 11
-497.35199137
 21
-1078.13101302
 31
0.0
  0
LINE
  5
1EA
100
AcDbEntity
  8
ZUWAKU
  6
CONTINUOUS
 62
       7
100
AcDbLine
 10
-507.96666667
 20
-1082.63101302
 30
0.0
 11
-514.96666667
 21
-1089.63101302
 31
0.0
  0
LINE
  5
1EB
100
AcDbEntity
  8
ZUWAKU
  6
CONTINUOUS
 62
       7
100
AcDbLine
 10
-526.46666667
 20
-1101.13101302
 30
0.0
 11
-533.96666667
 21
-1108.63101302
 31
0.0
  0
LINE
  5
1EC
100
AcDbEntity
  8
ZUWAKU
  6
CONTINUOUS
 62
       7
100
AcDbLine
 10
-510.22940837
 20
-1082.63101302
 30
0.0
 11
-517.22940837
 21
-1089.63101302
 31
0.0
  0
LINE
  5
1ED
100
AcDbEntity
  8
ZUWAKU
  6
CONTINUOUS
 62
       7
100
AcDbLine
 10
-528.72940837
 20
-1101.13101302
 30
0.0
 11
-536.22940837
 21
-1108.63101302
 31
0.0
  0
LINE
  5
1EE
100
AcDbEntity
  8
ZUWAKU
  6
CONTINUOUS
 62
       7
100
AcDbLine
 10
-512.49215007
 20
-1082.63101302
 30
0.0
 11
-519.49215007
 21
-1089.63101302
 31
0.0
  0
LINE
  5
1EF
100
AcDbEntity
  8
ZUWAKU
  6
CONTINUOUS
 62
       7
100
AcDbLine
 10
-530.99215007
 20
-1101.13101302
 30
0.0
 11
-538.49215007
 21
-1108.63101302
 31
0.0
  0
LINE
  5
1F0
100
AcDbEntity
  8
ZUWAKU
  6
CONTINUOUS
 62
       7
100
AcDbLine
 10
-514.75489177
 20
-1082.63101302
 30
0.0
 11
-521.75489177
 21
-1089.63101302
 31
0.0
  0
LINE
  5
1F1
100
AcDbEntity
  8
ZUWAKU
  6
CONTINUOUS
 62
       7
100
AcDbLine
 10
-533.25489177
 20
-1101.13101302
 30
0.0
 11
-540.75489177
 21
-1108.63101302
 31
0.0
  0
LINE
  5
1F2
100
AcDbEntity
  8
ZUWAKU
  6
CONTINUOUS
 62
       7
100
AcDbLine
 10
-517.01763347
 20
-1082.63101302
 30
0.0
 11
-524.01763347
 21
-1089.63101302
 31
0.0
  0
LINE
  5
1F3
100
AcDbEntity
  8
ZUWAKU
  6
CONTINUOUS
 62
       7
100
AcDbLine
 10
-535.51763347
 20
-1101.13101302
 30
0.0
 11
-543.01763347
 21
-1108.63101302
 31
0.0
  0
LINE
  5
1F4
100
AcDbEntity
  8
ZUWAKU
  6
CONTINUOUS
 62
       7
100
AcDbLine
 10
-519.28037517
 20
-1082.63101302
 30
0.0
 11
-526.28037517
 21
-1089.63101302
 31
0.0
  0
LINE
  5
1F5
100
AcDbEntity
  8
ZUWAKU
  6
CONTINUOUS
 62
       7
100
AcDbLine
 10
-537.78037517
 20
-1101.13101302
 30
0.0
 11
-543.090861
 21
-1106.44149885
 31
0.0
  0
LINE
  5
1F6
100
AcDbEntity
  8
ZUWAKU
  6
CONTINUOUS
 62
       7
100
AcDbLine
 10
-521.54311687
 20
-1082.63101302
 30
0.0
 11
-528.54311687
 21
-1089.63101302
 31
0.0
  0
LINE
  5
1F7
100
AcDbEntity
  8
ZUWAKU
  6
CONTINUOUS
 62
       7
100
AcDbLine
 10
-540.04311687
 20
-1101.13101302
 30
0.0
 11
-541.58236653
 21
-1102.67026269
 31
0.0
  0
LINE
  5
1F8
100
AcDbEntity
  8
ZUWAKU
  6
CONTINUOUS
 62
       7
100
AcDbLine
 10
-523.80585857
 20
-1082.63101302
 30
0.0
 11
-530.80585857
 21
-1089.63101302
 31
0.0
  0
LINE
  5
1F9
100
AcDbEntity
  8
ZUWAKU
  6
CONTINUOUS
 62
       7
100
AcDbLine
 10
-526.06860027
 20
-1082.63101302
 30
0.0
 11
-533.06860027
 21
-1089.63101302
 31
0.0
  0
LINE
  5
1FA
100
AcDbEntity
  8
ZUWAKU
  6
CONTINUOUS
 62
       7
100
AcDbLine
 10
-528.33134196
 20
-1082.63101302
 30
0.0
 11
-535.33134196
 21
-1089.63101302
 31
0.0
  0
LINE
  5
1FB
100
AcDbEntity
  8
ZUWAKU
  6
CONTINUOUS
 62
       7
100
AcDbLine
 10
-530.59408366
 20
-1082.63101302
 30
0.0
 11
-535.31569987
 21
-1087.35262922
 31
0.0
  0
LINE
  5
1FC
100
AcDbEntity
  8
ZUWAKU
  6
CONTINUOUS
 62
       7
100
AcDbLine
 10
-532.85682536
 20
-1082.63101302
 30
0.0
 11
-534.41060319
 21
-1084.18479084
 31
0.0
  0
LINE
  5
1FD
100
AcDbEntity
  8
ZUWAKU
  6
CONTINUOUS
 62
       7
100
AcDbLine
 10
-505.70392497
 20
-1082.63101302
 30
0.0
 11
-515.87176335
 21
-1092.7988514
 31
0.0
  0
LINE
  5
1FE
100
AcDbEntity
  8
ZUWAKU
  6
CONTINUOUS
 62
       7
100
AcDbLine
 10
-523.54707072
 20
-1100.47415877
 30
0.0
 11
-531.70392497
 21
-1108.63101302
 31
0.0
  0
LINE
  5
1FF
100
AcDbEntity
  8
ZUWAKU
  6
CONTINUOUS
 62
       7
100
AcDbLine
 10
-503.44118327
 20
-1082.63101302
 30
0.0
 11
-529.44118327
 21
-1108.63101302
 31
0.0
  0
LINE
  5
200
100
AcDbEntity
  8
ZUWAKU
  6
CONTINUOUS
 62
       7
100
AcDbLine
 10
-501.17844157
 20
-1082.63101302
 30
0.0
 11
-527.17844157
 21
-1108.63101302
 31
0.0
  0
LINE
  5
201
100
AcDbEntity
  8
ZUWAKU
  6
CONTINUOUS
 62
       7
100
AcDbLine
 10
-498.91569987
 20
-1082.63101302
 30
0.0
 11
-524.91569987
 21
-1108.63101302
 31
0.0
  0
LINE
  5
202
100
AcDbEntity
  8
ZUWAKU
  6
CONTINUOUS
 62
       7
100
AcDbLine
 10
-498.71735724
 20
-1084.69541209
 30
0.0
 11
-522.65295817
 21
-1108.63101302
 31
0.0
  0
LINE
  5
203
100
AcDbEntity
  8
ZUWAKU
  6
CONTINUOUS
 62
       7
100
AcDbLine
 10
-500.01035249
 20
-1088.25114904
 30
0.0
 11
-520.39021647
 21
-1108.63101302
 31
0.0
  0
LINE
  5
204
100
AcDbEntity
  8
ZUWAKU
  6
CONTINUOUS
 62
       7
100
AcDbLine
 10
-501.30334775
 20
-1091.806886
 30
0.0
 11
-518.0144108
 21
-1108.51794905
 31
0.0
  0
LINE
  5
205
100
AcDbEntity
  8
ZUWAKU
  6
CONTINUOUS
 62
       7
100
AcDbLine
 10
-502.59634301
 20
-1095.36262296
 30
0.0
 11
-514.99742187
 21
-1107.76370182
 31
0.0
  0
LINE
  5
206
100
AcDbEntity
  8
ZUWAKU
  6
CONTINUOUS
 62
       7
100
AcDbLine
 10
-503.88933827
 20
-1098.91835991
 30
0.0
 11
-510.73731607
 21
-1105.76633772
 31
0.0
  0
LINE
  5
207
100
AcDbEntity
  8
ZUWAKU
  6
CONTINUOUS
 62
       7
100
AcDbLine
 10
-536.06666667
 20
-1069.13101302
 30
0.0
 11
-556.78541667
 21
-1089.84976302
 31
0.0
  0
LINE
  5
208
100
AcDbEntity
  8
ZUWAKU
  6
CONTINUOUS
 62
       7
100
AcDbLine
 10
-567.92380952
 20
-1100.98815587
 30
0.0
 11
-575.56666667
 21
-1108.63101302
 31
0.0
  0
LINE
  5
209
100
AcDbEntity
  8
ZUWAKU
  6
CONTINUOUS
 62
       7
100
AcDbLine
 10
-538.32940837
 20
-1069.13101302
 30
0.0
 11
-555.44191378
 21
-1086.24351843
 31
0.0
  0
LINE
  5
20A
100
AcDbEntity
  8
ZUWAKU
  6
CONTINUOUS
 62
       7
100
AcDbLine
 10
-570.32940837
 20
-1101.13101302
 30
0.0
 11
-575.18529582
 21
-1105.98690047
 31
0.0
  0
LINE
  5
20B
100
AcDbEntity
  8
ZUWAKU
  6
CONTINUOUS
 62
       7
100
AcDbLine
 10
-540.59215007
 20
-1069.13101302
 30
0.0
 11
-554.0984109
 21
-1082.63727385
 31
0.0
  0
LINE
  5
20C
100
AcDbEntity
  8
ZUWAKU
  6
CONTINUOUS
 62
       7
100
AcDbLine
 10
-572.59215007
 20
-1101.13101302
 30
0.0
 11
-574.05392497
 21
-1102.59278792
 31
0.0
  0
LINE
  5
20D
100
AcDbEntity
  8
ZUWAKU
  6
CONTINUOUS
 62
       7
100
AcDbLine
 10
-542.85489177
 20
-1069.13101302
 30
0.0
 11
-552.75490801
 21
-1079.03102926
 31
0.0
  0
LINE
  5
20E
100
AcDbEntity
  8
ZUWAKU
  6
CONTINUOUS
 62
       7
100
AcDbLine
 10
-545.11763347
 20
-1069.13101302
 30
0.0
 11
-551.41140513
 21
-1075.42478468
 31
0.0
  0
LINE
  5
20F
100
AcDbEntity
  8
ZUWAKU
  6
CONTINUOUS
 62
       7
100
AcDbLine
 10
-547.38037517
 20
-1069.13101302
 30
0.0
 11
-550.06790225
 21
-1071.8185401
 31
0.0
  0
LINE
  5
210
100
AcDbEntity
  8
ZUWAKU
  6
CONTINUOUS
 62
       7
100
AcDbLine
 10
-536.47063677
 20
-1071.79772482
 30
0.0
 11
-558.12891955
 21
-1093.4560076
 31
0.0
  0
LINE
  5
211
100
AcDbEntity
  8
ZUWAKU
  6
CONTINUOUS
 62
       7
100
AcDbLine
 10
-565.33781901
 20
-1100.66490706
 30
0.0
 11
-573.30392497
 21
-1108.63101302
 31
0.0
  0
LINE
  5
212
100
AcDbEntity
  8
ZUWAKU
  6
CONTINUOUS
 62
       7
100
AcDbLine
 10
-537.63101713
 20
-1075.22084688
 30
0.0
 11
-561.01569987
 21
-1098.60552962
 31
0.0
  0
LINE
  5
213
100
AcDbEntity
  8
ZUWAKU
  6
CONTINUOUS
 62
       7
100
AcDbLine
 10
-561.109139
 20
-1098.69896875
 30
0.0
 11
-571.04118327
 21
-1108.63101302
 31
0.0
  0
LINE
  5
214
100
AcDbEntity
  8
ZUWAKU
  6
CONTINUOUS
 62
       7
100
AcDbLine
 10
-538.79139749
 20
-1078.64396894
 30
0.0
 11
-568.77844157
 21
-1108.63101302
 31
0.0
  0
LINE
  5
215
100
AcDbEntity
  8
ZUWAKU
  6
CONTINUOUS
 62
       7
100
AcDbLine
 10
-539.95177785
 20
-1082.06709099
 30
0.0
 11
-566.51569987
 21
-1108.63101302
 31
0.0
  0
LINE
  5
216
100
AcDbEntity
  8
ZUWAKU
  6
CONTINUOUS
 62
       7
100
AcDbLine
 10
-541.1121582
 20
-1085.49021305
 30
0.0
 11
-564.25295817
 21
-1108.63101302
 31
0.0
  0
LINE
  5
217
100
AcDbEntity
  8
ZUWAKU
  6
CONTINUOUS
 62
       7
100
AcDbLine
 10
-542.27253856
 20
-1088.91333511
 30
0.0
 11
-561.81505533
 21
-1108.45585188
 31
0.0
  0
LINE
  5
218
100
AcDbEntity
  8
ZUWAKU
  6
CONTINUOUS
 62
       7
100
AcDbLine
 10
-543.43291892
 20
-1092.33645717
 30
0.0
 11
-559.30089789
 21
-1108.20443614
 31
0.0
  0
LINE
  5
219
100
AcDbEntity
  8
ZUWAKU
  6
CONTINUOUS
 62
       7
100
AcDbLine
 10
-544.59329928
 20
-1095.75957923
 30
0.0
 11
-555.89677734
 21
-1107.06305728
 31
0.0
  0
LINE
  5
21A
100
AcDbEntity
  8
ZUWAKU
  6
CONTINUOUS
 62
       7
100
AcDbLine
 10
-560.11666667
 20
-1071.93101302
 30
0.0
 11
-578.60698925
 21
-1090.4213356
 31
0.0
  0
LINE
  5
21B
100
AcDbEntity
  8
ZUWAKU
  6
CONTINUOUS
 62
       7
100
AcDbLine
 10
-559.57940837
 20
-1069.13101302
 30
0.0
 11
-577.3661309
 21
-1086.91773555
 31
0.0
  0
LINE
  5
21C
100
AcDbEntity
  8
ZUWAKU
  6
CONTINUOUS
 62
       7
100
AcDbLine
 10
-561.84215007
 20
-1069.13101302
 30
0.0
 11
-576.12527254
 21
-1083.41413549
 31
0.0
  0
LINE
  5
21D
100
AcDbEntity
  8
ZUWAKU
  6
CONTINUOUS
 62
       7
100
AcDbLine
 10
-564.10489177
 20
-1069.13101302
 30
0.0
 11
-574.88441419
 21
-1079.91053544
 31
0.0
  0
LINE
  5
21E
100
AcDbEntity
  8
ZUWAKU
  6
CONTINUOUS
 62
       7
100
AcDbLine
 10
-566.36763347
 20
-1069.13101302
 30
0.0
 11
-573.64355584
 21
-1076.40693539
 31
0.0
  0
LINE
  5
21F
100
AcDbEntity
  8
ZUWAKU
  6
CONTINUOUS
 62
       7
100
AcDbLine
 10
-568.63037517
 20
-1069.13101302
 30
0.0
 11
-572.40269749
 21
-1072.90333534
 31
0.0
  0
LINE
  5
220
100
AcDbEntity
  8
ZUWAKU
  6
CONTINUOUS
 62
       7
100
AcDbLine
 10
-570.89311687
 20
-1069.13101302
 30
0.0
 11
-571.16183914
 21
-1069.39973529
 31
0.0
  0
LINE
  5
221
100
AcDbEntity
  8
ZUWAKU
  6
CONTINUOUS
 62
       7
100
AcDbLine
 10
-561.47431169
 20
-1075.55139974
 30
0.0
 11
-579.05392497
 21
-1093.13101302
 31
0.0
  0
LINE
  5
222
100
AcDbEntity
  8
ZUWAKU
  6
CONTINUOUS
 62
       7
100
AcDbLine
 10
-562.83195671
 20
-1079.17178646
 30
0.0
 11
-576.79118327
 21
-1093.13101302
 31
0.0
  0
LINE
  5
223
100
AcDbEntity
  8
ZUWAKU
  6
CONTINUOUS
 62
       7
100
AcDbLine
 10
-564.18960173
 20
-1082.79217318
 30
0.0
 11
-574.52844157
 21
-1093.13101302
 31
0.0
  0
LINE
  5
224
100
AcDbEntity
  8
ZUWAKU
  6
CONTINUOUS
 62
       7
100
AcDbLine
 10
-565.54724675
 20
-1086.4125599
 30
0.0
 11
-572.26569987
 21
-1093.13101302
 31
0.0
  0
LINE
  5
225
100
AcDbEntity
  8
ZUWAKU
  6
CONTINUOUS
 62
       7
100
AcDbLine
 10
-566.90489177
 20
-1090.03294661
 30
0.0
 11
-570.00295817
 21
-1093.13101302
 31
0.0
  0
LINE
  5
226
100
AcDbEntity
  8
ZUWAKU
  6
CONTINUOUS
 62
       7
100
AcDbLine
 10
-730.66666667
 20
1067.1198899
 30
0.0
 11
754.83333333
 21
1067.1198899
 31
0.0
  0
LINE
  5
227
100
AcDbEntity
  8
ZUWAKU
  6
CONTINUOUS
 62
       7
100
AcDbLine
 10
249.83333333
 20
1146.36898698
 30
0.0
 11
754.83333333
 21
1146.36898698
 31
0.0
  0
LINE
  5
228
100
AcDbEntity
  8
ZUWAKU
  6
CONTINUOUS
 62
       7
100
AcDbLine
 10
249.83333333
 20
1146.36898698
 30
0.0
 11
249.83333333
 21
1067.1198899
 31
0.0
  0
LINE
  5
229
100
AcDbEntity
  8
ZUWAKU
  6
CONTINUOUS
 62
       7
100
AcDbLine
 10
754.83333333
 20
1146.36898698
 30
0.0
 11
754.83333333
 21
1067.1198899
 31
0.0
  0
LINE
  5
22A
100
AcDbEntity
  8
ZUWAKU
  6
CONTINUOUS
 62
       7
100
AcDbLine
 10
-728.66666667
 20
-1129.13101302
 30
0.0
 11
746.83333333
 21
-1129.13101302
 31
0.0
  0
LINE
  5
22B
100
AcDbEntity
  8
ZUWAKU
  6
CONTINUOUS
 62
       7
100
AcDbLine
 10
-728.66666667
 20
-1032.63101302
 30
0.0
 11
746.83333333
 21
-1032.63101302
 31
0.0
  0
LINE
  5
22C
100
AcDbEntity
  8
ZUWAKU
  6
CONTINUOUS
 62
       7
100
AcDbLine
 10
247.83333333
 20
-1129.13101302
 30
0.0
 11
247.83333333
 21
-1032.63101302
 31
0.0
  0
LINE
  5
22D
100
AcDbEntity
  8
ZUWAKU
  6
CONTINUOUS
 62
       7
100
AcDbLine
 10
207.83333333
 20
-1129.13101302
 30
0.0
 11
207.83333333
 21
-1032.63101302
 31
0.0
  0
LINE
  5
22E
100
AcDbEntity
  8
ZUWAKU
  6
CONTINUOUS
 62
       7
100
AcDbLine
 10
-292.66666667
 20
-1129.13101302
 30
0.0
 11
-292.66666667
 21
-1032.63101302
 31
0.0
  0
LINE
  5
22F
100
AcDbEntity
  8
ZUWAKU
  6
CONTINUOUS
 62
       7
100
AcDbLine
 10
-332.66666667
 20
-1129.13101302
 30
0.0
 11
-332.66666667
 21
-1032.63101302
 31
0.0
  0
LINE
  5
230
100
AcDbEntity
  8
ZUWAKU
  6
CONTINUOUS
 62
       7
100
AcDbLine
 10
-646.16666667
 20
1113.36898698
 30
0.0
 11
-652.94701449
 21
1125.36498698
 31
0.0
  0
LINE
  5
231
100
AcDbEntity
  8
ZUWAKU
  6
CONTINUOUS
 62
       7
100
AcDbLine
 10
-679.97111327
 20
1135.86898698
 30
0.0
 11
-679.13777993
 21
1138.36898698
 31
0.0
  0
LINE
  5
232
100
AcDbEntity
  8
ZUWAKU
  6
CONTINUOUS
 62
       7
100
AcDbLine
 10
-616.24904819
 20
1116.32779622
 30
0.0
 11
-617.15866667
 21
1115.87298698
 31
0.0
  0
LINE
  5
233
100
AcDbEntity
  8
ZUWAKU
  6
CONTINUOUS
 62
       7
100
AcDbLine
 10
-615.66666667
 20
1113.36898698
 30
0.0
 11
-611.46666667
 21
1117.56898698
 31
0.0
  0
LINE
  5
234
100
AcDbEntity
  8
ZUWAKU
  6
CONTINUOUS
 62
       7
100
AcDbLine
 10
-612.16666667
 20
1113.36898698
 30
0.0
 11
-611.46666667
 21
1117.56898698
 31
0.0
  0
LINE
  5
235
100
AcDbEntity
  8
ZUWAKU
  6
CONTINUOUS
 62
       7
100
AcDbLine
 10
-593.66666667
 20
1116.86898698
 30
0.0
 11
-593.66666667
 21
1115.87298698
 31
0.0
  0
LINE
  5
236
100
AcDbEntity
  8
ZUWAKU
  6
CONTINUOUS
 62
       7
100
AcDbLine
 10
-571.5465023
 20
1113.36898698
 30
0.0
 11
-580.66666667
 21
1113.36898698
 31
0.0
  0
LINE
  5
237
100
AcDbEntity
  8
ZUWAKU
  6
CONTINUOUS
 62
       7
100
AcDbLine
 10
-585.59440685
 20
1116.93221432
 30
0.0
 11
-589.66666667
 21
1113.36898698
 31
0.0
  0
LINE
  5
238
100
AcDbEntity
  8
ZUWAKU
  6
CONTINUOUS
 62
       7
100
AcDbLine
 10
-556.70068264
 20
1113.36898698
 30
0.0
 11
-567.16666667
 21
1113.36898698
 31
0.0
  0
LINE
  5
239
100
AcDbEntity
  8
ZUWAKU
  6
CONTINUOUS
 62
       7
100
AcDbLine
 10
-660.97766667
 20
1115.87298698
 30
0.0
 11
-653.47916667
 21
1135.86898698
 31
0.0
  0
LINE
  5
23A
100
AcDbEntity
  8
ZUWAKU
  6
CONTINUOUS
 62
       7
100
AcDbLine
 10
-653.80489349
 20
1127.86898698
 30
0.0
 11
-642.1012439
 21
1127.86898698
 31
0.0
  0
LINE
  5
23B
100
AcDbEntity
  8
ZUWAKU
  6
CONTINUOUS
 62
       7
100
AcDbLine
 10
-578.48484848
 20
1119.36898698
 30
0.0
 11
-580.16666667
 21
1119.36898698
 31
0.0
  0
LINE
  5
23C
100
AcDbEntity
  8
ZUWAKU
  6
CONTINUOUS
 62
       7
100
AcDbLine
 10
-580.16666667
 20
1119.36898698
 30
0.0
 11
-581.81957954
 21
1119.36898698
 31
0.0
  0
LINE
  5
23D
100
AcDbEntity
  8
ZUWAKU
  6
CONTINUOUS
 62
       7
100
AcDbLine
 10
-596.44462508
 20
1113.36898698
 30
0.0
 11
-589.66666667
 21
1113.36898698
 31
0.0
  0
CIRCLE
  5
23E
100
AcDbEntity
  8
ZUWAKU
  6
CONTINUOUS
 62
       7
100
AcDbCircle
 10
-607.43126858
 20
1127.36898698
 30
0.0
 40
1.51460192
  0
LINE
  5
23F
100
AcDbEntity
  8
ZUWAKU
  6
CONTINUOUS
 62
       7
100
AcDbLine
 10
-659.10416667
 20
1135.86898698
 30
0.0
 11
-653.47916667
 21
1135.86898698
 31
0.0
  0
LINE
  5
240
100
AcDbEntity
  8
ZUWAKU
  6
CONTINUOUS
 62
       7
100
AcDbLine
 10
-650.80489349
 20
1135.86898698
 30
0.0
 11
-642.1012439
 21
1135.86898698
 31
0.0
  0
LINE
  5
241
100
AcDbEntity
  8
ZUWAKU
  6
CONTINUOUS
 62
       7
100
AcDbLine
 10
-667.66666667
 20
1113.36898698
 30
0.0
 11
-666.72766667
 21
1115.87298698
 31
0.0
  0
LINE
  5
242
100
AcDbEntity
  8
ZUWAKU
  6
CONTINUOUS
 62
       7
100
AcDbLine
 10
-659.10416667
 20
1135.86898698
 30
0.0
 11
-658.16666667
 21
1138.36898698
 31
0.0
  0
LINE
  5
243
100
AcDbEntity
  8
ZUWAKU
  6
CONTINUOUS
 62
       7
100
AcDbLine
 10
-660.35537443
 20
1135.86898698
 30
0.0
 11
-659.41787443
 21
1138.36898698
 31
0.0
  0
LINE
  5
244
100
AcDbEntity
  8
ZUWAKU
  6
CONTINUOUS
 62
       7
100
AcDbLine
 10
-642.1012439
 20
1138.36898698
 30
0.0
 11
-658.16666667
 21
1138.36898698
 31
0.0
  0
LINE
  5
245
100
AcDbEntity
  8
ZUWAKU
  6
CONTINUOUS
 62
       7
100
AcDbLine
 10
-659.41787443
 20
1138.36898698
 30
0.0
 11
-661.79314947
 21
1138.36898698
 31
0.0
  0
LINE
  5
246
100
AcDbEntity
  8
ZUWAKU
  6
CONTINUOUS
 62
       7
100
AcDbLine
 10
-662.73064947
 20
1135.86898698
 30
0.0
 11
-660.35537443
 21
1135.86898698
 31
0.0
  0
LINE
  5
247
100
AcDbEntity
  8
ZUWAKU
  6
CONTINUOUS
 62
       7
100
AcDbLine
 10
-663.64146902
 20
1135.86898698
 30
0.0
 11
-662.70396902
 21
1138.36898698
 31
0.0
  0
LINE
  5
248
100
AcDbEntity
  8
ZUWAKU
  6
CONTINUOUS
 62
       7
100
AcDbLine
 10
-662.70396902
 20
1138.36898698
 30
0.0
 11
-664.69500547
 21
1138.36898698
 31
0.0
  0
LINE
  5
249
100
AcDbEntity
  8
ZUWAKU
  6
CONTINUOUS
 62
       7
100
AcDbLine
 10
-665.63250547
 20
1135.86898698
 30
0.0
 11
-663.64146902
 21
1135.86898698
 31
0.0
  0
LINE
  5
24A
100
AcDbEntity
  8
ZUWAKU
  6
CONTINUOUS
 62
       7
100
AcDbLine
 10
-665.63250547
 20
1135.86898698
 30
0.0
 11
-664.69500547
 21
1138.36898698
 31
0.0
  0
LINE
  5
24B
100
AcDbEntity
  8
ZUWAKU
  6
CONTINUOUS
 62
       7
100
AcDbLine
 10
-666.39490011
 20
1138.36898698
 30
0.0
 11
-668.34596506
 21
1138.36898698
 31
0.0
  0
LINE
  5
24C
100
AcDbEntity
  8
ZUWAKU
  6
CONTINUOUS
 62
       7
100
AcDbLine
 10
-669.28346506
 20
1135.86898698
 30
0.0
 11
-667.33240011
 21
1135.86898698
 31
0.0
  0
LINE
  5
24D
100
AcDbEntity
  8
ZUWAKU
  6
CONTINUOUS
 62
       7
100
AcDbLine
 10
-669.28346506
 20
1135.86898698
 30
0.0
 11
-668.34596506
 21
1138.36898698
 31
0.0
  0
LINE
  5
24E
100
AcDbEntity
  8
ZUWAKU
  6
CONTINUOUS
 62
       7
100
AcDbLine
 10
-662.73064947
 20
1135.86898698
 30
0.0
 11
-661.79314947
 21
1138.36898698
 31
0.0
  0
LINE
  5
24F
100
AcDbEntity
  8
ZUWAKU
  6
CONTINUOUS
 62
       7
100
AcDbLine
 10
-667.33240011
 20
1135.86898698
 30
0.0
 11
-666.39490011
 21
1138.36898698
 31
0.0
  0
LINE
  5
250
100
AcDbEntity
  8
ZUWAKU
  6
CONTINUOUS
 62
       7
100
AcDbLine
 10
-670.74478279
 20
1135.86898698
 30
0.0
 11
-669.80728279
 21
1138.36898698
 31
0.0
  0
LINE
  5
251
100
AcDbEntity
  8
ZUWAKU
  6
CONTINUOUS
 62
       7
100
AcDbLine
 10
-669.80728279
 20
1138.36898698
 30
0.0
 11
-671.61123185
 21
1138.36898698
 31
0.0
  0
LINE
  5
252
100
AcDbEntity
  8
ZUWAKU
  6
CONTINUOUS
 62
       7
100
AcDbLine
 10
-672.54873185
 20
1135.86898698
 30
0.0
 11
-670.74478279
 21
1135.86898698
 31
0.0
  0
LINE
  5
253
100
AcDbEntity
  8
ZUWAKU
  6
CONTINUOUS
 62
       7
100
AcDbLine
 10
-672.54873185
 20
1135.86898698
 30
0.0
 11
-671.61123185
 21
1138.36898698
 31
0.0
  0
LINE
  5
254
100
AcDbEntity
  8
ZUWAKU
  6
CONTINUOUS
 62
       7
100
AcDbLine
 10
-674.07580695
 20
1135.86898698
 30
0.0
 11
-673.13830695
 21
1138.36898698
 31
0.0
  0
LINE
  5
255
100
AcDbEntity
  8
ZUWAKU
  6
CONTINUOUS
 62
       7
100
AcDbLine
 10
-673.13830695
 20
1138.36898698
 30
0.0
 11
-674.74247361
 21
1138.36898698
 31
0.0
  0
LINE
  5
256
100
AcDbEntity
  8
ZUWAKU
  6
CONTINUOUS
 62
       7
100
AcDbLine
 10
-675.57580695
 20
1135.86898698
 30
0.0
 11
-674.07580695
 21
1135.86898698
 31
0.0
  0
LINE
  5
257
100
AcDbEntity
  8
ZUWAKU
  6
CONTINUOUS
 62
       7
100
AcDbLine
 10
-675.57580695
 20
1135.86898698
 30
0.0
 11
-674.74247361
 21
1138.36898698
 31
0.0
  0
LINE
  5
258
100
AcDbEntity
  8
ZUWAKU
  6
CONTINUOUS
 62
       7
100
AcDbLine
 10
-677.17318709
 20
1135.86898698
 30
0.0
 11
-676.33985375
 21
1138.36898698
 31
0.0
  0
LINE
  5
259
100
AcDbEntity
  8
ZUWAKU
  6
CONTINUOUS
 62
       7
100
AcDbLine
 10
-678.47111327
 20
1135.86898698
 30
0.0
 11
-677.63777993
 21
1138.36898698
 31
0.0
  0
LINE
  5
25A
100
AcDbEntity
  8
ZUWAKU
  6
CONTINUOUS
 62
       7
100
AcDbLine
 10
-680.88777993
 20
1135.86898698
 30
0.0
 11
-680.0544466
 21
1138.36898698
 31
0.0
  0
LINE
  5
25B
100
AcDbEntity
  8
ZUWAKU
  6
CONTINUOUS
 62
       7
100
AcDbLine
 10
-682.47111327
 20
1135.86898698
 30
0.0
 11
-681.63777993
 21
1138.36898698
 31
0.0
  0
LINE
  5
25C
100
AcDbEntity
  8
ZUWAKU
  6
CONTINUOUS
 62
       7
100
AcDbLine
 10
-682.88777993
 20
1135.86898698
 30
0.0
 11
-682.0544466
 21
1138.36898698
 31
0.0
  0
LINE
  5
25D
100
AcDbEntity
  8
ZUWAKU
  6
CONTINUOUS
 62
       7
100
AcDbLine
 10
-676.33985375
 20
1138.36898698
 30
0.0
 11
-677.63777993
 21
1138.36898698
 31
0.0
  0
LINE
  5
25E
100
AcDbEntity
  8
ZUWAKU
  6
CONTINUOUS
 62
       7
100
AcDbLine
 10
-678.47111327
 20
1135.86898698
 30
0.0
 11
-677.17318709
 21
1135.86898698
 31
0.0
  0
LINE
  5
25F
100
AcDbEntity
  8
ZUWAKU
  6
CONTINUOUS
 62
       7
100
AcDbLine
 10
-679.13777993
 20
1138.36898698
 30
0.0
 11
-680.0544466
 21
1138.36898698
 31
0.0
  0
LINE
  5
260
100
AcDbEntity
  8
ZUWAKU
  6
CONTINUOUS
 62
       7
100
AcDbLine
 10
-681.63777993
 20
1138.36898698
 30
0.0
 11
-682.0544466
 21
1138.36898698
 31
0.0
  0
LINE
  5
261
100
AcDbEntity
  8
ZUWAKU
  6
CONTINUOUS
 62
       7
100
AcDbLine
 10
-680.88777993
 20
1135.86898698
 30
0.0
 11
-679.97111327
 21
1135.86898698
 31
0.0
  0
LINE
  5
262
100
AcDbEntity
  8
ZUWAKU
  6
CONTINUOUS
 62
       7
100
AcDbLine
 10
-682.47111327
 20
1135.86898698
 30
0.0
 11
-682.88777993
 21
1135.86898698
 31
0.0
  0
ELLIPSE
  5
263
100
AcDbEntity
  8
ZUWAKU
  6
CONTINUOUS
 62
       7
100
AcDbEllipse
 10
-614.91666667
 20
1123.10128825
 30
0.0
 11
-102.25
 21
0.0
 31
0.0
210
0.0
220
0.0
230
1.0
 40
0.40365317
 41
0.0
 42
6.2831853071796004
  0
LINE
  5
264
100
AcDbEntity
  8
ZUWAKU
  6
CONTINUOUS
 62
       7
100
AcDbLine
 10
-697.16666667
 20
1142.86898698
 30
0.0
 11
-697.16666667
 21
1103.86898698
 31
0.0
  0
LINE
  5
265
100
AcDbEntity
  8
ZUWAKU
  6
CONTINUOUS
 62
       7
100
AcDbLine
 10
-532.16666667
 20
1142.86898698
 30
0.0
 11
-532.16666667
 21
1103.86898698
 31
0.0
  0
LINE
  5
266
100
AcDbEntity
  8
ZUWAKU
  6
CONTINUOUS
 62
       7
100
AcDbLine
 10
-697.16666667
 20
1142.86898698
 30
0.0
 11
-532.16666667
 21
1142.86898698
 31
0.0
  0
LINE
  5
267
100
AcDbEntity
  8
ZUWAKU
  6
CONTINUOUS
 62
       7
100
AcDbLine
 10
-697.16666667
 20
1103.86898698
 30
0.0
 11
-532.16666667
 21
1103.86898698
 31
0.0
  0
LINE
  5
268
100
AcDbEntity
  8
ZUWAKU
  6
CONTINUOUS
 62
       7
100
AcDbLine
 10
-625.10748094
 20
1164.16932334
 30
0.0
 11
-646.4078173
 21
1142.86898698
 31
0.0
  0
LINE
  5
269
100
AcDbEntity
  8
ZUWAKU
  6
CONTINUOUS
 62
       7
100
AcDbLine
 10
-627.47731973
 20
1164.06222625
 30
0.0
 11
-648.670559
 21
1142.86898698
 31
0.0
  0
LINE
  5
26A
100
AcDbEntity
  8
ZUWAKU
  6
CONTINUOUS
 62
       7
100
AcDbLine
 10
-629.87128271
 20
1163.93100497
 30
0.0
 11
-650.9333007
 21
1142.86898698
 31
0.0
  0
LINE
  5
26B
100
AcDbEntity
  8
ZUWAKU
  6
CONTINUOUS
 62
       7
100
AcDbLine
 10
-632.29036678
 20
1163.7746626
 30
0.0
 11
-653.1960424
 21
1142.86898698
 31
0.0
  0
LINE
  5
26C
100
AcDbEntity
  8
ZUWAKU
  6
CONTINUOUS
 62
       7
100
AcDbLine
 10
-634.73568535
 20
1163.59208573
 30
0.0
 11
-655.4587841
 21
1142.86898698
 31
0.0
  0
LINE
  5
26D
100
AcDbEntity
  8
ZUWAKU
  6
CONTINUOUS
 62
       7
100
AcDbLine
 10
-637.2084861
 20
1163.38202668
 30
0.0
 11
-657.7215258
 21
1142.86898698
 31
0.0
  0
LINE
  5
26E
100
AcDbEntity
  8
ZUWAKU
  6
CONTINUOUS
 62
       7
100
AcDbLine
 10
-639.71017274
 20
1163.14308174
 30
0.0
 11
-659.9842675
 21
1142.86898698
 31
0.0
  0
LINE
  5
26F
100
AcDbEntity
  8
ZUWAKU
  6
CONTINUOUS
 62
       7
100
AcDbLine
 10
-642.24233155
 20
1162.87366463
 30
0.0
 11
-662.2470092
 21
1142.86898698
 31
0.0
  0
LINE
  5
270
100
AcDbEntity
  8
ZUWAKU
  6
CONTINUOUS
 62
       7
100
AcDbLine
 10
-644.80676435
 20
1162.57197353
 30
0.0
 11
-664.5097509
 21
1142.86898698
 31
0.0
  0
LINE
  5
271
100
AcDbEntity
  8
ZUWAKU
  6
CONTINUOUS
 62
       7
100
AcDbLine
 10
-647.40552971
 20
1162.23594987
 30
0.0
 11
-666.7724926
 21
1142.86898698
 31
0.0
  0
LINE
  5
272
100
AcDbEntity
  8
ZUWAKU
  6
CONTINUOUS
 62
       7
100
AcDbLine
 10
-650.04099509
 20
1161.86322619
 30
0.0
 11
-669.0352343
 21
1142.86898698
 31
0.0
  0
LINE
  5
273
100
AcDbEntity
  8
ZUWAKU
  6
CONTINUOUS
 62
       7
100
AcDbLine
 10
-652.71590385
 20
1161.45105913
 30
0.0
 11
-671.297976
 21
1142.86898698
 31
0.0
  0
LINE
  5
274
100
AcDbEntity
  8
ZUWAKU
  6
CONTINUOUS
 62
       7
100
AcDbLine
 10
-655.43346238
 20
1160.9962423
 30
0.0
 11
-673.5607177
 21
1142.86898698
 31
0.0
  0
LINE
  5
275
100
AcDbEntity
  8
ZUWAKU
  6
CONTINUOUS
 62
       7
100
AcDbLine
 10
-658.19745554
 20
1160.49499084
 30
0.0
 11
-675.82345939
 21
1142.86898698
 31
0.0
  0
LINE
  5
276
100
AcDbEntity
  8
ZUWAKU
  6
CONTINUOUS
 62
       7
100
AcDbLine
 10
-661.01240249
 20
1159.94278558
 30
0.0
 11
-678.08620109
 21
1142.86898698
 31
0.0
  0
LINE
  5
277
100
AcDbEntity
  8
ZUWAKU
  6
CONTINUOUS
 62
       7
100
AcDbLine
 10
-697.16666667
 20
1123.78852141
 30
0.0
 11
-697.58620109
 21
1123.36898698
 31
0.0
  0
LINE
  5
278
100
AcDbEntity
  8
ZUWAKU
  6
CONTINUOUS
 62
       7
100
AcDbLine
 10
-663.88377157
 20
1159.33415821
 30
0.0
 11
-680.34894279
 21
1142.86898698
 31
0.0
  0
LINE
  5
279
100
AcDbEntity
  8
ZUWAKU
  6
CONTINUOUS
 62
       7
100
AcDbLine
 10
-697.16666667
 20
1126.05126311
 30
0.0
 11
-699.84894279
 21
1123.36898698
 31
0.0
  0
LINE
  5
27A
100
AcDbEntity
  8
ZUWAKU
  6
CONTINUOUS
 62
       7
100
AcDbLine
 10
-666.81828434
 20
1158.66238714
 30
0.0
 11
-682.61168449
 21
1142.86898698
 31
0.0
  0
LINE
  5
27B
100
AcDbEntity
  8
ZUWAKU
  6
CONTINUOUS
 62
       7
100
AcDbLine
 10
-697.16666667
 20
1128.31400481
 30
0.0
 11
-702.11168449
 21
1123.36898698
 31
0.0
  0
LINE
  5
27C
100
AcDbEntity
  8
ZUWAKU
  6
CONTINUOUS
 62
       7
100
AcDbLine
 10
-669.82435891
 20
1157.91905426
 30
0.0
 11
-684.87442619
 21
1142.86898698
 31
0.0
  0
LINE
  5
27D
100
AcDbEntity
  8
ZUWAKU
  6
CONTINUOUS
 62
       7
100
AcDbLine
 10
-697.16666667
 20
1130.57674651
 30
0.0
 11
-704.37442619
 21
1123.36898698
 31
0.0
  0
LINE
  5
27E
100
AcDbEntity
  8
ZUWAKU
  6
CONTINUOUS
 62
       7
100
AcDbLine
 10
-672.91277935
 20
1157.09337553
 30
0.0
 11
-687.13716789
 21
1142.86898698
 31
0.0
  0
LINE
  5
27F
100
AcDbEntity
  8
ZUWAKU
  6
CONTINUOUS
 62
       7
100
AcDbLine
 10
-697.16666667
 20
1132.83948821
 30
0.0
 11
-706.63716789
 21
1123.36898698
 31
0.0
  0
LINE
  5
280
100
AcDbEntity
  8
ZUWAKU
  6
CONTINUOUS
 62
       7
100
AcDbLine
 10
-676.09775134
 20
1156.17114523
 30
0.0
 11
-689.39990959
 21
1142.86898698
 31
0.0
  0
LINE
  5
281
100
AcDbEntity
  8
ZUWAKU
  6
CONTINUOUS
 62
       7
100
AcDbLine
 10
-697.16666667
 20
1135.10222991
 30
0.0
 11
-708.89990959
 21
1123.36898698
 31
0.0
  0
LINE
  5
282
100
AcDbEntity
  8
ZUWAKU
  6
CONTINUOUS
 62
       7
100
AcDbLine
 10
-679.39865793
 20
1155.13298035
 30
0.0
 11
-691.66265129
 21
1142.86898698
 31
0.0
  0
LINE
  5
283
100
AcDbEntity
  8
ZUWAKU
  6
CONTINUOUS
 62
       7
100
AcDbLine
 10
-697.16666667
 20
1137.36497161
 30
0.0
 11
-711.16265129
 21
1123.36898698
 31
0.0
  0
LINE
  5
284
100
AcDbEntity
  8
ZUWAKU
  6
CONTINUOUS
 62
       7
100
AcDbLine
 10
-682.84318522
 20
1153.95119475
 30
0.0
 11
-693.92539299
 21
1142.86898698
 31
0.0
  0
LINE
  5
285
100
AcDbEntity
  8
ZUWAKU
  6
CONTINUOUS
 62
       7
100
AcDbLine
 10
-697.16666667
 20
1139.62771331
 30
0.0
 11
-713.42539299
 21
1123.36898698
 31
0.0
  0
LINE
  5
286
100
AcDbEntity
  8
ZUWAKU
  6
CONTINUOUS
 62
       7
100
AcDbLine
 10
-686.47341155
 20
1152.58371012
 30
0.0
 11
-696.18813469
 21
1142.86898698
 31
0.0
  0
LINE
  5
287
100
AcDbEntity
  8
ZUWAKU
  6
CONTINUOUS
 62
       7
100
AcDbLine
 10
-697.16666667
 20
1141.89045501
 30
0.0
 11
-715.68813469
 21
1123.36898698
 31
0.0
  0
LINE
  5
288
100
AcDbEntity
  8
ZUWAKU
  6
CONTINUOUS
 62
       7
100
AcDbLine
 10
-690.35926033
 20
1150.96060305
 30
0.0
 11
-717.13117345
 21
1124.18868992
 31
0.0
  0
LINE
  5
289
100
AcDbEntity
  8
ZUWAKU
  6
CONTINUOUS
 62
       7
100
AcDbLine
 10
-694.63448884
 20
1148.94811623
 30
0.0
 11
-716.74737478
 21
1126.83523029
 31
0.0
  0
LINE
  5
28A
100
AcDbEntity
  8
ZUWAKU
  6
CONTINUOUS
 62
       7
100
AcDbLine
 10
-699.63212665
 20
1146.21322012
 30
0.0
 11
-715.64116682
 21
1130.20417996
 31
0.0
  0
LINE
  5
28B
100
AcDbEntity
  8
ZUWAKU
  6
CONTINUOUS
 62
       7
100
AcDbLine
 10
-707.42225404
 20
1140.68583443
 30
0.0
 11
-711.74246927
 21
1136.36561921
 31
0.0
  0
LINE
  5
28C
100
AcDbEntity
  8
ZUWAKU
  6
CONTINUOUS
 62
       7
100
AcDbLine
 10
-622.76087109
 20
1164.25319149
 30
0.0
 11
-644.1450756
 21
1142.86898698
 31
0.0
  0
LINE
  5
28D
100
AcDbEntity
  8
ZUWAKU
  6
CONTINUOUS
 62
       7
100
AcDbLine
 10
-620.43668427
 20
1164.31463662
 30
0.0
 11
-641.8823339
 21
1142.86898698
 31
0.0
  0
LINE
  5
28E
100
AcDbEntity
  8
ZUWAKU
  6
CONTINUOUS
 62
       7
100
AcDbLine
 10
-618.13419352
 20
1164.35438567
 30
0.0
 11
-639.6195922
 21
1142.86898698
 31
0.0
  0
LINE
  5
28F
100
AcDbEntity
  8
ZUWAKU
  6
CONTINUOUS
 62
       7
100
AcDbLine
 10
-615.85274207
 20
1164.37309541
 30
0.0
 11
-637.3568505
 21
1142.86898698
 31
0.0
  0
LINE
  5
290
100
AcDbEntity
  8
ZUWAKU
  6
CONTINUOUS
 62
       7
100
AcDbLine
 10
-613.5917359
 20
1164.37135988
 30
0.0
 11
-635.0941088
 21
1142.86898698
 31
0.0
  0
LINE
  5
291
100
AcDbEntity
  8
ZUWAKU
  6
CONTINUOUS
 62
       7
100
AcDbLine
 10
-611.35063735
 20
1164.34971673
 30
0.0
 11
-632.8313671
 21
1142.86898698
 31
0.0
  0
LINE
  5
292
100
AcDbEntity
  8
ZUWAKU
  6
CONTINUOUS
 62
       7
100
AcDbLine
 10
-609.1289597
 20
1164.30865268
 30
0.0
 11
-630.5686254
 21
1142.86898698
 31
0.0
  0
LINE
  5
293
100
AcDbEntity
  8
ZUWAKU
  6
CONTINUOUS
 62
       7
100
AcDbLine
 10
-606.92626246
 20
1164.24860823
 30
0.0
 11
-628.3058837
 21
1142.86898698
 31
0.0
  0
LINE
  5
294
100
AcDbEntity
  8
ZUWAKU
  6
CONTINUOUS
 62
       7
100
AcDbLine
 10
-604.74214734
 20
1164.16998164
 30
0.0
 11
-626.043142
 21
1142.86898698
 31
0.0
  0
LINE
  5
295
100
AcDbEntity
  8
ZUWAKU
  6
CONTINUOUS
 62
       7
100
AcDbLine
 10
-602.57625478
 20
1164.0731325
 30
0.0
 11
-623.7804003
 21
1142.86898698
 31
0.0
  0
LINE
  5
296
100
AcDbEntity
  8
ZUWAKU
  6
CONTINUOUS
 62
       7
100
AcDbLine
 10
-600.42826089
 20
1163.95838469
 30
0.0
 11
-621.5176586
 21
1142.86898698
 31
0.0
  0
LINE
  5
297
100
AcDbEntity
  8
ZUWAKU
  6
CONTINUOUS
 62
       7
100
AcDbLine
 10
-598.29787483
 20
1163.82602905
 30
0.0
 11
-619.2549169
 21
1142.86898698
 31
0.0
  0
LINE
  5
298
100
AcDbEntity
  8
ZUWAKU
  6
CONTINUOUS
 62
       7
100
AcDbLine
 10
-596.18483658
 20
1163.67632561
 30
0.0
 11
-616.9921752
 21
1142.86898698
 31
0.0
  0
LINE
  5
299
100
AcDbEntity
  8
ZUWAKU
  6
CONTINUOUS
 62
       7
100
AcDbLine
 10
-594.08891493
 20
1163.50950556
 30
0.0
 11
-614.7294335
 21
1142.86898698
 31
0.0
  0
LINE
  5
29A
100
AcDbEntity
  8
ZUWAKU
  6
CONTINUOUS
 62
       7
100
AcDbLine
 10
-592.00990582
 20
1163.32577296
 30
0.0
 11
-612.4666918
 21
1142.86898698
 31
0.0
  0
LINE
  5
29B
100
AcDbEntity
  8
ZUWAKU
  6
CONTINUOUS
 62
       7
100
AcDbLine
 10
-589.94763088
 20
1163.1253062
 30
0.0
 11
-610.2039501
 21
1142.86898698
 31
0.0
  0
LINE
  5
29C
100
AcDbEntity
  8
ZUWAKU
  6
CONTINUOUS
 62
       7
100
AcDbLine
 10
-587.90193618
 20
1162.9082592
 30
0.0
 11
-607.9412084
 21
1142.86898698
 31
0.0
  0
LINE
  5
29D
100
AcDbEntity
  8
ZUWAKU
  6
CONTINUOUS
 62
       7
100
AcDbLine
 10
-585.87269119
 20
1162.67476249
 30
0.0
 11
-605.6784667
 21
1142.86898698
 31
0.0
  0
LINE
  5
29E
100
AcDbEntity
  8
ZUWAKU
  6
CONTINUOUS
 62
       7
100
AcDbLine
 10
-583.8597879
 20
1162.42492409
 30
0.0
 11
-603.415725
 21
1142.86898698
 31
0.0
  0
LINE
  5
29F
100
AcDbEntity
  8
ZUWAKU
  6
CONTINUOUS
 62
       7
100
AcDbLine
 10
-581.86314011
 20
1162.15883018
 30
0.0
 11
-601.1529833
 21
1142.86898698
 31
0.0
  0
LINE
  5
2A0
100
AcDbEntity
  8
ZUWAKU
  6
CONTINUOUS
 62
       7
100
AcDbLine
 10
-579.88268289
 20
1161.87654569
 30
0.0
 11
-598.8902416
 21
1142.86898698
 31
0.0
  0
LINE
  5
2A1
100
AcDbEntity
  8
ZUWAKU
  6
CONTINUOUS
 62
       7
100
AcDbLine
 10
-577.91837215
 20
1161.57811473
 30
0.0
 11
-596.6274999
 21
1142.86898698
 31
0.0
  0
LINE
  5
2A2
100
AcDbEntity
  8
ZUWAKU
  6
CONTINUOUS
 62
       7
100
AcDbLine
 10
-575.97018435
 20
1161.26356083
 30
0.0
 11
-594.3647582
 21
1142.86898698
 31
0.0
  0
LINE
  5
2A3
100
AcDbEntity
  8
ZUWAKU
  6
CONTINUOUS
 62
       7
100
AcDbLine
 10
-574.03811637
 20
1160.93288712
 30
0.0
 11
-592.1020165
 21
1142.86898698
 31
0.0
  0
LINE
  5
2A4
100
AcDbEntity
  8
ZUWAKU
  6
CONTINUOUS
 62
       7
100
AcDbLine
 10
-572.12218546
 20
1160.58607632
 30
0.0
 11
-589.8392748
 21
1142.86898698
 31
0.0
  0
LINE
  5
2A5
100
AcDbEntity
  8
ZUWAKU
  6
CONTINUOUS
 62
       7
100
AcDbLine
 10
-570.2224294
 20
1160.22309069
 30
0.0
 11
-587.5765331
 21
1142.86898698
 31
0.0
  0
LINE
  5
2A6
100
AcDbEntity
  8
ZUWAKU
  6
CONTINUOUS
 62
       7
100
AcDbLine
 10
-568.33890668
 20
1159.84387171
 30
0.0
 11
-585.3137914
 21
1142.86898698
 31
0.0
  0
LINE
  5
2A7
100
AcDbEntity
  8
ZUWAKU
  6
CONTINUOUS
 62
       7
100
AcDbLine
 10
-566.47169692
 20
1159.44833977
 30
0.0
 11
-583.0510497
 21
1142.86898698
 31
0.0
  0
LINE
  5
2A8
100
AcDbEntity
  8
ZUWAKU
  6
CONTINUOUS
 62
       7
100
AcDbLine
 10
-564.62090136
 20
1159.03639363
 30
0.0
 11
-580.788308
 21
1142.86898698
 31
0.0
  0
LINE
  5
2A9
100
AcDbEntity
  8
ZUWAKU
  6
CONTINUOUS
 62
       7
100
AcDbLine
 10
-562.78664354
 20
1158.60790975
 30
0.0
 11
-578.5255663
 21
1142.86898698
 31
0.0
  0
LINE
  5
2AA
100
AcDbEntity
  8
ZUWAKU
  6
CONTINUOUS
 62
       7
100
AcDbLine
 10
-560.96907011
 20
1158.16274148
 30
0.0
 11
-576.2628246
 21
1142.86898698
 31
0.0
  0
LINE
  5
2AB
100
AcDbEntity
  8
ZUWAKU
  6
CONTINUOUS
 62
       7
100
AcDbLine
 10
-559.16835181
 20
1157.70071807
 30
0.0
 11
-574.0000829
 21
1142.86898698
 31
0.0
  0
LINE
  5
2AC
100
AcDbEntity
  8
ZUWAKU
  6
CONTINUOUS
 62
       7
100
AcDbLine
 10
-557.3846847
 20
1157.22164349
 30
0.0
 11
-571.7373412
 21
1142.86898698
 31
0.0
  0
LINE
  5
2AD
100
AcDbEntity
  8
ZUWAKU
  6
CONTINUOUS
 62
       7
100
AcDbLine
 10
-555.61829146
 20
1156.72529503
 30
0.0
 11
-569.4745995
 21
1142.86898698
 31
0.0
  0
LINE
  5
2AE
100
AcDbEntity
  8
ZUWAKU
  6
CONTINUOUS
 62
       7
100
AcDbLine
 10
-553.86942308
 20
1156.2114217
 30
0.0
 11
-567.2118578
 21
1142.86898698
 31
0.0
  0
LINE
  5
2AF
100
AcDbEntity
  8
ZUWAKU
  6
CONTINUOUS
 62
       7
100
AcDbLine
 10
-552.13836073
 20
1155.67974236
 30
0.0
 11
-564.9491161
 21
1142.86898698
 31
0.0
  0
LINE
  5
2B0
100
AcDbEntity
  8
ZUWAKU
  6
CONTINUOUS
 62
       7
100
AcDbLine
 10
-550.42541788
 20
1155.12994351
 30
0.0
 11
-562.6863744
 21
1142.86898698
 31
0.0
  0
LINE
  5
2B1
100
AcDbEntity
  8
ZUWAKU
  6
CONTINUOUS
 62
       7
100
AcDbLine
 10
-548.73094285
 20
1154.56167683
 30
0.0
 11
-560.42363271
 21
1142.86898698
 31
0.0
  0
LINE
  5
2B2
100
AcDbEntity
  8
ZUWAKU
  6
CONTINUOUS
 62
       7
100
AcDbLine
 10
-547.05532171
 20
1153.97455628
 30
0.0
 11
-558.16089101
 21
1142.86898698
 31
0.0
  0
LINE
  5
2B3
100
AcDbEntity
  8
ZUWAKU
  6
CONTINUOUS
 62
       7
100
AcDbLine
 10
-545.39898158
 20
1153.36815471
 30
0.0
 11
-555.89814931
 21
1142.86898698
 31
0.0
  0
LINE
  5
2B4
100
AcDbEntity
  8
ZUWAKU
  6
CONTINUOUS
 62
       7
100
AcDbLine
 10
-543.76239454
 20
1152.74200005
 30
0.0
 11
-553.63540761
 21
1142.86898698
 31
0.0
  0
LINE
  5
2B5
100
AcDbEntity
  8
ZUWAKU
  6
CONTINUOUS
 62
       7
100
AcDbLine
 10
-542.14608206
 20
1152.09557083
 30
0.0
 11
-551.37266591
 21
1142.86898698
 31
0.0
  0
LINE
  5
2B6
100
AcDbEntity
  8
ZUWAKU
  6
CONTINUOUS
 62
       7
100
AcDbLine
 10
-540.55062025
 20
1151.42829094
 30
0.0
 11
-549.10992421
 21
1142.86898698
 31
0.0
  0
LINE
  5
2B7
100
AcDbEntity
  8
ZUWAKU
  6
CONTINUOUS
 62
       7
100
AcDbLine
 10
-538.97664589
 20
1150.7395236
 30
0.0
 11
-546.84718251
 21
1142.86898698
 31
0.0
  0
LINE
  5
2B8
100
AcDbEntity
  8
ZUWAKU
  6
CONTINUOUS
 62
       7
100
AcDbLine
 10
-537.42486354
 20
1150.02856425
 30
0.0
 11
-544.58444081
 21
1142.86898698
 31
0.0
  0
LINE
  5
2B9
100
AcDbEntity
  8
ZUWAKU
  6
CONTINUOUS
 62
       7
100
AcDbLine
 10
-535.89605384
 20
1149.29463225
 30
0.0
 11
-542.32169911
 21
1142.86898698
 31
0.0
  0
LINE
  5
2BA
100
AcDbEntity
  8
ZUWAKU
  6
CONTINUOUS
 62
       7
100
AcDbLine
 10
-534.39108342
 20
1148.53686097
 30
0.0
 11
-540.05895741
 21
1142.86898698
 31
0.0
  0
LINE
  5
2BB
100
AcDbEntity
  8
ZUWAKU
  6
CONTINUOUS
 62
       7
100
AcDbLine
 10
-532.91091656
 20
1147.75428614
 30
0.0
 11
-537.79621571
 21
1142.86898698
 31
0.0
  0
LINE
  5
2BC
100
AcDbEntity
  8
ZUWAKU
  6
CONTINUOUS
 62
       7
100
AcDbLine
 10
-531.45662915
 20
1146.94583185
 30
0.0
 11
-535.53347401
 21
1142.86898698
 31
0.0
  0
LINE
  5
2BD
100
AcDbEntity
  8
ZUWAKU
  6
CONTINUOUS
 62
       7
100
AcDbLine
 10
-530.02942557
 20
1146.11029372
 30
0.0
 11
-533.27073231
 21
1142.86898698
 31
0.0
  0
LINE
  5
2BE
100
AcDbEntity
  8
ZUWAKU
  6
CONTINUOUS
 62
       7
100
AcDbLine
 10
-528.63065907
 20
1145.24631852
 30
0.0
 11
-532.16666667
 21
1141.71031092
 31
0.0
  0
LINE
  5
2BF
100
AcDbEntity
  8
ZUWAKU
  6
CONTINUOUS
 62
       7
100
AcDbLine
 10
-527.26185675
 20
1144.35237914
 30
0.0
 11
-532.16666667
 21
1139.44756922
 31
0.0
  0
LINE
  5
2C0
100
AcDbEntity
  8
ZUWAKU
  6
CONTINUOUS
 62
       7
100
AcDbLine
 10
-525.92475032
 20
1143.42674387
 30
0.0
 11
-532.16666667
 21
1137.18482753
 31
0.0
  0
LINE
  5
2C1
100
AcDbEntity
  8
ZUWAKU
  6
CONTINUOUS
 62
       7
100
AcDbLine
 10
-524.62131459
 20
1142.4674379
 30
0.0
 11
-532.16666667
 21
1134.92208583
 31
0.0
  0
LINE
  5
2C2
100
AcDbEntity
  8
ZUWAKU
  6
CONTINUOUS
 62
       7
100
AcDbLine
 10
-523.35381589
 20
1141.4721949
 30
0.0
 11
-532.16666667
 21
1132.65934413
 31
0.0
  0
LINE
  5
2C3
100
AcDbEntity
  8
ZUWAKU
  6
CONTINUOUS
 62
       7
100
AcDbLine
 10
-522.12487404
 20
1140.43839505
 30
0.0
 11
-532.16666667
 21
1130.39660243
 31
0.0
  0
LINE
  5
2C4
100
AcDbEntity
  8
ZUWAKU
  6
CONTINUOUS
 62
       7
100
AcDbLine
 10
-520.93754256
 20
1139.36298483
 30
0.0
 11
-532.16666667
 21
1128.13386073
 31
0.0
  0
LINE
  5
2C5
100
AcDbEntity
  8
ZUWAKU
  6
CONTINUOUS
 62
       7
100
AcDbLine
 10
-519.79541442
 20
1138.24237127
 30
0.0
 11
-532.16666667
 21
1125.87111903
 31
0.0
  0
LINE
  5
2C6
100
AcDbEntity
  8
ZUWAKU
  6
CONTINUOUS
 62
       7
100
AcDbLine
 10
-518.7027638
 20
1137.0722802
 30
0.0
 11
-532.16666667
 21
1123.60837733
 31
0.0
  0
LINE
  5
2C7
100
AcDbEntity
  8
ZUWAKU
  6
CONTINUOUS
 62
       7
100
AcDbLine
 10
-517.66474031
 20
1135.84756198
 30
0.0
 11
-530.14331531
 21
1123.36898698
 31
0.0
  0
LINE
  5
2C8
100
AcDbEntity
  8
ZUWAKU
  6
CONTINUOUS
 62
       7
100
AcDbLine
 10
-516.68764157
 20
1134.56191902
 30
0.0
 11
-527.88057361
 21
1123.36898698
 31
0.0
  0
LINE
  5
2C9
100
AcDbEntity
  8
ZUWAKU
  6
CONTINUOUS
 62
       7
100
AcDbLine
 10
-515.77930666
 20
1133.20751224
 30
0.0
 11
-525.61783191
 21
1123.36898698
 31
0.0
  0
LINE
  5
2CA
100
AcDbEntity
  8
ZUWAKU
  6
CONTINUOUS
 62
       7
100
AcDbLine
 10
-514.94970354
 20
1131.77437366
 30
0.0
 11
-523.35509021
 21
1123.36898698
 31
0.0
  0
LINE
  5
2CB
100
AcDbEntity
  8
ZUWAKU
  6
CONTINUOUS
 62
       7
100
AcDbLine
 10
-514.21184236
 20
1130.24949313
 30
0.0
 11
-521.09234851
 21
1123.36898698
 31
0.0
  0
LINE
  5
2CC
100
AcDbEntity
  8
ZUWAKU
  6
CONTINUOUS
 62
       7
100
AcDbLine
 10
-513.58326777
 20
1128.61532602
 30
0.0
 11
-518.82960681
 21
1123.36898698
 31
0.0
  0
LINE
  5
2CD
100
AcDbEntity
  8
ZUWAKU
  6
CONTINUOUS
 62
       7
100
AcDbLine
 10
-513.08865581
 20
1126.84719629
 30
0.0
 11
-516.56686511
 21
1123.36898698
 31
0.0
  0
LINE
  5
2CE
100
AcDbEntity
  8
ZUWAKU
  6
CONTINUOUS
 62
       7
100
AcDbLine
 10
-512.76472026
 20
1124.90839013
 30
0.0
 11
-514.30412341
 21
1123.36898698
 31
0.0
  0
LINE
  5
2CF
100
AcDbEntity
  8
ZUWAKU
  6
CONTINUOUS
 62
       7
100
AcDbLine
 10
-583.15781965
 20
1103.86898698
 30
0.0
 11
-605.00467086
 21
1082.02213577
 31
0.0
  0
LINE
  5
2D0
100
AcDbEntity
  8
ZUWAKU
  6
CONTINUOUS
 62
       7
100
AcDbLine
 10
-585.42056135
 20
1103.86898698
 30
0.0
 11
-607.34858748
 21
1081.94096086
 31
0.0
  0
LINE
  5
2D1
100
AcDbEntity
  8
ZUWAKU
  6
CONTINUOUS
 62
       7
100
AcDbLine
 10
-587.68330305
 20
1103.86898698
 30
0.0
 11
-609.670171
 21
1081.88211904
 31
0.0
  0
LINE
  5
2D2
100
AcDbEntity
  8
ZUWAKU
  6
CONTINUOUS
 62
       7
100
AcDbLine
 10
-589.94604475
 20
1103.86898698
 30
0.0
 11
-611.97013965
 21
1081.84489208
 31
0.0
  0
LINE
  5
2D3
100
AcDbEntity
  8
ZUWAKU
  6
CONTINUOUS
 62
       7
100
AcDbLine
 10
-592.20878645
 20
1103.86898698
 30
0.0
 11
-614.24914242
 21
1081.82863102
 31
0.0
  0
LINE
  5
2D4
100
AcDbEntity
  8
ZUWAKU
  6
CONTINUOUS
 62
       7
100
AcDbLine
 10
-594.47152815
 20
1103.86898698
 30
0.0
 11
-616.50776635
 21
1081.83274879
 31
0.0
  0
LINE
  5
2D5
100
AcDbEntity
  8
ZUWAKU
  6
CONTINUOUS
 62
       7
100
AcDbLine
 10
-596.73426985
 20
1103.86898698
 30
0.0
 11
-618.7465428
 21
1081.85671404
 31
0.0
  0
LINE
  5
2D6
100
AcDbEntity
  8
ZUWAKU
  6
CONTINUOUS
 62
       7
100
AcDbLine
 10
-598.99701155
 20
1103.86898698
 30
0.0
 11
-620.96595279
 21
1081.90004574
 31
0.0
  0
LINE
  5
2D7
100
AcDbEntity
  8
ZUWAKU
  6
CONTINUOUS
 62
       7
100
AcDbLine
 10
-601.25975325
 20
1103.86898698
 30
0.0
 11
-623.16643163
 21
1081.96230861
 31
0.0
  0
LINE
  5
2D8
100
AcDbEntity
  8
ZUWAKU
  6
CONTINUOUS
 62
       7
100
AcDbLine
 10
-603.52249495
 20
1103.86898698
 30
0.0
 11
-625.34837283
 21
1082.04310911
 31
0.0
  0
LINE
  5
2D9
100
AcDbEntity
  8
ZUWAKU
  6
CONTINUOUS
 62
       7
100
AcDbLine
 10
-605.78523665
 20
1103.86898698
 30
0.0
 11
-627.5121316
 21
1082.14209204
 31
0.0
  0
LINE
  5
2DA
100
AcDbEntity
  8
ZUWAKU
  6
CONTINUOUS
 62
       7
100
AcDbLine
 10
-608.04797835
 20
1103.86898698
 30
0.0
 11
-629.65802779
 21
1082.25893755
 31
0.0
  0
LINE
  5
2DB
100
AcDbEntity
  8
ZUWAKU
  6
CONTINUOUS
 62
       7
100
AcDbLine
 10
-610.31072005
 20
1103.86898698
 30
0.0
 11
-631.78634847
 21
1082.39335856
 31
0.0
  0
LINE
  5
2DC
100
AcDbEntity
  8
ZUWAKU
  6
CONTINUOUS
 62
       7
100
AcDbLine
 10
-612.57346175
 20
1103.86898698
 30
0.0
 11
-633.89735018
 21
1082.54509856
 31
0.0
  0
LINE
  5
2DD
100
AcDbEntity
  8
ZUWAKU
  6
CONTINUOUS
 62
       7
100
AcDbLine
 10
-614.83620345
 20
1103.86898698
 30
0.0
 11
-635.9912608
 21
1082.71392963
 31
0.0
  0
LINE
  5
2DE
100
AcDbEntity
  8
ZUWAKU
  6
CONTINUOUS
 62
       7
100
AcDbLine
 10
-617.09894515
 20
1103.86898698
 30
0.0
 11
-638.0682813
 21
1082.89965084
 31
0.0
  0
LINE
  5
2DF
100
AcDbEntity
  8
ZUWAKU
  6
CONTINUOUS
 62
       7
100
AcDbLine
 10
-619.36168685
 20
1103.86898698
 30
0.0
 11
-640.12858709
 21
1083.10208674
 31
0.0
  0
LINE
  5
2E0
100
AcDbEntity
  8
ZUWAKU
  6
CONTINUOUS
 62
       7
100
AcDbLine
 10
-621.62442855
 20
1103.86898698
 30
0.0
 11
-642.17232929
 21
1083.32108624
 31
0.0
  0
LINE
  5
2E1
100
AcDbEntity
  8
ZUWAKU
  6
CONTINUOUS
 62
       7
100
AcDbLine
 10
-623.88717025
 20
1103.86898698
 30
0.0
 11
-644.19963572
 21
1083.55652151
 31
0.0
  0
LINE
  5
2E2
100
AcDbEntity
  8
ZUWAKU
  6
CONTINUOUS
 62
       7
100
AcDbLine
 10
-626.14991195
 20
1103.86898698
 30
0.0
 11
-646.21061178
 21
1083.80828715
 31
0.0
  0
LINE
  5
2E3
100
AcDbEntity
  8
ZUWAKU
  6
CONTINUOUS
 62
       7
100
AcDbLine
 10
-628.41265365
 20
1103.86898698
 30
0.0
 11
-648.20534111
 21
1084.07629952
 31
0.0
  0
LINE
  5
2E4
100
AcDbEntity
  8
ZUWAKU
  6
CONTINUOUS
 62
       7
100
AcDbLine
 10
-630.67539535
 20
1103.86898698
 30
0.0
 11
-650.18388617
 21
1084.36049617
 31
0.0
  0
LINE
  5
2E5
100
AcDbEntity
  8
ZUWAKU
  6
CONTINUOUS
 62
       7
100
AcDbLine
 10
-632.93813705
 20
1103.86898698
 30
0.0
 11
-652.1462886
 21
1084.66083543
 31
0.0
  0
LINE
  5
2E6
100
AcDbEntity
  8
ZUWAKU
  6
CONTINUOUS
 62
       7
100
AcDbLine
 10
-635.20087875
 20
1103.86898698
 30
0.0
 11
-654.09256952
 21
1084.97729621
 31
0.0
  0
LINE
  5
2E7
100
AcDbEntity
  8
ZUWAKU
  6
CONTINUOUS
 62
       7
100
AcDbLine
 10
-637.46362045
 20
1103.86898698
 30
0.0
 11
-656.02272965
 21
1085.30987778
 31
0.0
  0
LINE
  5
2E8
100
AcDbEntity
  8
ZUWAKU
  6
CONTINUOUS
 62
       7
100
AcDbLine
 10
-639.72636215
 20
1103.86898698
 30
0.0
 11
-657.93674931
 21
1085.65859982
 31
0.0
  0
LINE
  5
2E9
100
AcDbEntity
  8
ZUWAKU
  6
CONTINUOUS
 62
       7
100
AcDbLine
 10
-641.98910385
 20
1103.86898698
 30
0.0
 11
-659.8345883
 21
1086.02350254
 31
0.0
  0
LINE
  5
2EA
100
AcDbEntity
  8
ZUWAKU
  6
CONTINUOUS
 62
       7
100
AcDbLine
 10
-644.25184555
 20
1103.86898698
 30
0.0
 11
-661.71618563
 21
1086.40464691
 31
0.0
  0
LINE
  5
2EB
100
AcDbEntity
  8
ZUWAKU
  6
CONTINUOUS
 62
       7
100
AcDbLine
 10
-646.51458725
 20
1103.86898698
 30
0.0
 11
-663.58145916
 21
1086.80211507
 31
0.0
  0
LINE
  5
2EC
100
AcDbEntity
  8
ZUWAKU
  6
CONTINUOUS
 62
       7
100
AcDbLine
 10
-648.77732895
 20
1103.86898698
 30
0.0
 11
-665.43030505
 21
1087.21601088
 31
0.0
  0
LINE
  5
2ED
100
AcDbEntity
  8
ZUWAKU
  6
CONTINUOUS
 62
       7
100
AcDbLine
 10
-651.04007065
 20
1103.86898698
 30
0.0
 11
-667.26259708
 21
1087.64646056
 31
0.0
  0
LINE
  5
2EE
100
AcDbEntity
  8
ZUWAKU
  6
CONTINUOUS
 62
       7
100
AcDbLine
 10
-653.30281235
 20
1103.86898698
 30
0.0
 11
-669.07818579
 21
1088.09361354
 31
0.0
  0
LINE
  5
2EF
100
AcDbEntity
  8
ZUWAKU
  6
CONTINUOUS
 62
       7
100
AcDbLine
 10
-655.56555405
 20
1103.86898698
 30
0.0
 11
-670.87689752
 21
1088.55764351
 31
0.0
  0
LINE
  5
2F0
100
AcDbEntity
  8
ZUWAKU
  6
CONTINUOUS
 62
       7
100
AcDbLine
 10
-657.82829575
 20
1103.86898698
 30
0.0
 11
-672.65853314
 21
1089.03874959
 31
0.0
  0
LINE
  5
2F1
100
AcDbEntity
  8
ZUWAKU
  6
CONTINUOUS
 62
       7
100
AcDbLine
 10
-660.09103745
 20
1103.86898698
 30
0.0
 11
-674.4228667
 21
1089.53715773
 31
0.0
  0
LINE
  5
2F2
100
AcDbEntity
  8
ZUWAKU
  6
CONTINUOUS
 62
       7
100
AcDbLine
 10
-662.35377915
 20
1103.86898698
 30
0.0
 11
-676.16964375
 21
1090.05312238
 31
0.0
  0
LINE
  5
2F3
100
AcDbEntity
  8
ZUWAKU
  6
CONTINUOUS
 62
       7
100
AcDbLine
 10
-664.61652085
 20
1103.86898698
 30
0.0
 11
-677.89857942
 21
1090.58692841
 31
0.0
  0
LINE
  5
2F4
100
AcDbEntity
  8
ZUWAKU
  6
CONTINUOUS
 62
       7
100
AcDbLine
 10
-666.87926255
 20
1103.86898698
 30
0.0
 11
-679.60935624
 21
1091.13889329
 31
0.0
  0
LINE
  5
2F5
100
AcDbEntity
  8
ZUWAKU
  6
CONTINUOUS
 62
       7
100
AcDbLine
 10
-669.14200425
 20
1103.86898698
 30
0.0
 11
-681.3016216
 21
1091.70936963
 31
0.0
  0
LINE
  5
2F6
100
AcDbEntity
  8
ZUWAKU
  6
CONTINUOUS
 62
       7
100
AcDbLine
 10
-671.40474595
 20
1103.86898698
 30
0.0
 11
-682.97498475
 21
1092.29874818
 31
0.0
  0
LINE
  5
2F7
100
AcDbEntity
  8
ZUWAKU
  6
CONTINUOUS
 62
       7
100
AcDbLine
 10
-673.66748765
 20
1103.86898698
 30
0.0
 11
-684.62901347
 21
1092.90746116
 31
0.0
  0
LINE
  5
2F8
100
AcDbEntity
  8
ZUWAKU
  6
CONTINUOUS
 62
       7
100
AcDbLine
 10
-675.93022935
 20
1103.86898698
 30
0.0
 11
-686.26323007
 21
1093.53598626
 31
0.0
  0
LINE
  5
2F9
100
AcDbEntity
  8
ZUWAKU
  6
CONTINUOUS
 62
       7
100
AcDbLine
 10
-678.19297105
 20
1103.86898698
 30
0.0
 11
-687.87710691
 21
1094.18485112
 31
0.0
  0
LINE
  5
2FA
100
AcDbEntity
  8
ZUWAKU
  6
CONTINUOUS
 62
       7
100
AcDbLine
 10
-680.45571275
 20
1103.86898698
 30
0.0
 11
-689.47006103
 21
1094.8546387
 31
0.0
  0
LINE
  5
2FB
100
AcDbEntity
  8
ZUWAKU
  6
CONTINUOUS
 62
       7
100
AcDbLine
 10
-682.71845445
 20
1103.86898698
 30
0.0
 11
-691.04144804
 21
1095.54599339
 31
0.0
  0
LINE
  5
2FC
100
AcDbEntity
  8
ZUWAKU
  6
CONTINUOUS
 62
       7
100
AcDbLine
 10
-684.98119615
 20
1103.86898698
 30
0.0
 11
-692.59055483
 21
1096.2596283
 31
0.0
  0
LINE
  5
2FD
100
AcDbEntity
  8
ZUWAKU
  6
CONTINUOUS
 62
       7
100
AcDbLine
 10
-687.24393784
 20
1103.86898698
 30
0.0
 11
-694.11659112
 21
1096.9963337
 31
0.0
  0
LINE
  5
2FE
100
AcDbEntity
  8
ZUWAKU
  6
CONTINUOUS
 62
       7
100
AcDbLine
 10
-689.50667954
 20
1103.86898698
 30
0.0
 11
-695.6186794
 21
1097.75698713
 31
0.0
  0
LINE
  5
2FF
100
AcDbEntity
  8
ZUWAKU
  6
CONTINUOUS
 62
       7
100
AcDbLine
 10
-691.76942124
 20
1103.86898698
 30
0.0
 11
-697.09584296
 21
1098.54256527
 31
0.0
  0
LINE
  5
300
100
AcDbEntity
  8
ZUWAKU
  6
CONTINUOUS
 62
       7
100
AcDbLine
 10
-694.03216294
 20
1103.86898698
 30
0.0
 11
-698.54699164
 21
1099.35415829
 31
0.0
  0
LINE
  5
301
100
AcDbEntity
  8
ZUWAKU
  6
CONTINUOUS
 62
       7
100
AcDbLine
 10
-696.29490464
 20
1103.86898698
 30
0.0
 11
-699.97090458
 21
1100.19298705
 31
0.0
  0
LINE
  5
302
100
AcDbEntity
  8
ZUWAKU
  6
CONTINUOUS
 62
       7
100
AcDbLine
 10
-697.16666667
 20
1105.25996666
 30
0.0
 11
-701.36620938
 21
1101.06042394
 31
0.0
  0
LINE
  5
303
100
AcDbEntity
  8
ZUWAKU
  6
CONTINUOUS
 62
       7
100
AcDbLine
 10
-697.16666667
 20
1107.52270836
 30
0.0
 11
-702.73135648
 21
1101.95801854
 31
0.0
  0
LINE
  5
304
100
AcDbEntity
  8
ZUWAKU
  6
CONTINUOUS
 62
       7
100
AcDbLine
 10
-697.16666667
 20
1109.78545006
 30
0.0
 11
-704.06458757
 21
1102.88752916
 31
0.0
  0
LINE
  5
305
100
AcDbEntity
  8
ZUWAKU
  6
CONTINUOUS
 62
       7
100
AcDbLine
 10
-697.16666667
 20
1112.04819176
 30
0.0
 11
-705.3638961
 21
1103.85096233
 31
0.0
  0
LINE
  5
306
100
AcDbEntity
  8
ZUWAKU
  6
CONTINUOUS
 62
       7
100
AcDbLine
 10
-697.16666667
 20
1114.31093346
 30
0.0
 11
-706.62697745
 21
1104.85062268
 31
0.0
  0
LINE
  5
307
100
AcDbEntity
  8
ZUWAKU
  6
CONTINUOUS
 62
       7
100
AcDbLine
 10
-697.16666667
 20
1116.57367516
 30
0.0
 11
-707.85116512
 21
1105.88917671
 31
0.0
  0
LINE
  5
308
100
AcDbEntity
  8
ZUWAKU
  6
CONTINUOUS
 62
       7
100
AcDbLine
 10
-697.16666667
 20
1118.83641686
 30
0.0
 11
-709.03334784
 21
1106.96973569
 31
0.0
  0
LINE
  5
309
100
AcDbEntity
  8
ZUWAKU
  6
CONTINUOUS
 62
       7
100
AcDbLine
 10
-697.16666667
 20
1121.09915856
 30
0.0
 11
-710.1698603
 21
1108.09596492
 31
0.0
  0
LINE
  5
30A
100
AcDbEntity
  8
ZUWAKU
  6
CONTINUOUS
 62
       7
100
AcDbLine
 10
-697.15957994
 20
1123.36898698
 30
0.0
 11
-711.25633612
 21
1109.27223081
 31
0.0
  0
LINE
  5
30B
100
AcDbEntity
  8
ZUWAKU
  6
CONTINUOUS
 62
       7
100
AcDbLine
 10
-699.42232164
 20
1123.36898698
 30
0.0
 11
-712.28750595
 21
1110.50380268
 31
0.0
  0
LINE
  5
30C
100
AcDbEntity
  8
ZUWAKU
  6
CONTINUOUS
 62
       7
100
AcDbLine
 10
-701.68506334
 20
1123.36898698
 30
0.0
 11
-713.25691327
 21
1111.79713705
 31
0.0
  0
LINE
  5
30D
100
AcDbEntity
  8
ZUWAKU
  6
CONTINUOUS
 62
       7
100
AcDbLine
 10
-703.94780504
 20
1123.36898698
 30
0.0
 11
-714.15650262
 21
1113.16028941
 31
0.0
  0
LINE
  5
30E
100
AcDbEntity
  8
ZUWAKU
  6
CONTINUOUS
 62
       7
100
AcDbLine
 10
-706.21054674
 20
1123.36898698
 30
0.0
 11
-714.97600199
 21
1114.60353173
 31
0.0
  0
LINE
  5
30F
100
AcDbEntity
  8
ZUWAKU
  6
CONTINUOUS
 62
       7
100
AcDbLine
 10
-708.47328844
 20
1123.36898698
 30
0.0
 11
-715.70195775
 21
1116.14031767
 31
0.0
  0
LINE
  5
310
100
AcDbEntity
  8
ZUWAKU
  6
CONTINUOUS
 62
       7
100
AcDbLine
 10
-710.73603014
 20
1123.36898698
 30
0.0
 11
-716.31614686
 21
1117.78887027
 31
0.0
  0
LINE
  5
311
100
AcDbEntity
  8
ZUWAKU
  6
CONTINUOUS
 62
       7
100
AcDbLine
 10
-712.99877184
 20
1123.36898698
 30
0.0
 11
-716.79279028
 21
1119.57496855
 31
0.0
  0
LINE
  5
312
100
AcDbEntity
  8
ZUWAKU
  6
CONTINUOUS
 62
       7
100
AcDbLine
 10
-715.26151354
 20
1123.36898698
 30
0.0
 11
-717.09322748
 21
1121.53727305
 31
0.0
  0
LINE
  5
313
100
AcDbEntity
  8
ZUWAKU
  6
CONTINUOUS
 62
       7
100
AcDbLine
 10
-580.89507795
 20
1103.86898698
 30
0.0
 11
-602.6376251
 21
1082.12643984
 31
0.0
  0
LINE
  5
314
100
AcDbEntity
  8
ZUWAKU
  6
CONTINUOUS
 62
       7
100
AcDbLine
 10
-578.63233625
 20
1103.86898698
 30
0.0
 11
-600.24656611
 21
1082.25475713
 31
0.0
  0
LINE
  5
315
100
AcDbEntity
  8
ZUWAKU
  6
CONTINUOUS
 62
       7
100
AcDbLine
 10
-576.36959455
 20
1103.86898698
 30
0.0
 11
-597.83050973
 21
1082.40807181
 31
0.0
  0
LINE
  5
316
100
AcDbEntity
  8
ZUWAKU
  6
CONTINUOUS
 62
       7
100
AcDbLine
 10
-574.10685286
 20
1103.86898698
 30
0.0
 11
-595.3883572
 21
1082.58748264
 31
0.0
  0
LINE
  5
317
100
AcDbEntity
  8
ZUWAKU
  6
CONTINUOUS
 62
       7
100
AcDbLine
 10
-571.84411116
 20
1103.86898698
 30
0.0
 11
-592.91887777
 21
1082.79422037
 31
0.0
  0
LINE
  5
318
100
AcDbEntity
  8
ZUWAKU
  6
CONTINUOUS
 62
       7
100
AcDbLine
 10
-569.58136946
 20
1103.86898698
 30
0.0
 11
-590.42068748
 21
1083.02966896
 31
0.0
  0
LINE
  5
319
100
AcDbEntity
  8
ZUWAKU
  6
CONTINUOUS
 62
       7
100
AcDbLine
 10
-567.31862776
 20
1103.86898698
 30
0.0
 11
-587.89222323
 21
1083.29539151
 31
0.0
  0
LINE
  5
31A
100
AcDbEntity
  8
ZUWAKU
  6
CONTINUOUS
 62
       7
100
AcDbLine
 10
-565.05588606
 20
1103.86898698
 30
0.0
 11
-585.33171065
 21
1083.59316239
 31
0.0
  0
LINE
  5
31B
100
AcDbEntity
  8
ZUWAKU
  6
CONTINUOUS
 62
       7
100
AcDbLine
 10
-562.79314436
 20
1103.86898698
 30
0.0
 11
-582.73712404
 21
1083.9250073
 31
0.0
  0
LINE
  5
31C
100
AcDbEntity
  8
ZUWAKU
  6
CONTINUOUS
 62
       7
100
AcDbLine
 10
-560.53040266
 20
1103.86898698
 30
0.0
 11
-580.10613564
 21
1084.293254
 31
0.0
  0
LINE
  5
31D
100
AcDbEntity
  8
ZUWAKU
  6
CONTINUOUS
 62
       7
100
AcDbLine
 10
-558.26766096
 20
1103.86898698
 30
0.0
 11
-577.43605067
 21
1084.70059727
 31
0.0
  0
LINE
  5
31E
100
AcDbEntity
  8
ZUWAKU
  6
CONTINUOUS
 62
       7
100
AcDbLine
 10
-556.00491926
 20
1103.86898698
 30
0.0
 11
-574.72372288
 21
1085.15018336
 31
0.0
  0
LINE
  5
31F
100
AcDbEntity
  8
ZUWAKU
  6
CONTINUOUS
 62
       7
100
AcDbLine
 10
-553.74217756
 20
1103.86898698
 30
0.0
 11
-571.96544305
 21
1085.64572149
 31
0.0
  0
LINE
  5
320
100
AcDbEntity
  8
ZUWAKU
  6
CONTINUOUS
 62
       7
100
AcDbLine
 10
-531.97943586
 20
1123.36898698
 30
0.0
 11
-532.16666667
 21
1123.18175617
 31
0.0
  0
LINE
  5
321
100
AcDbEntity
  8
ZUWAKU
  6
CONTINUOUS
 62
       7
100
AcDbLine
 10
-551.47943586
 20
1103.86898698
 30
0.0
 11
-569.15678874
 21
1086.1916341
 31
0.0
  0
LINE
  5
322
100
AcDbEntity
  8
ZUWAKU
  6
CONTINUOUS
 62
       7
100
AcDbLine
 10
-529.71669416
 20
1123.36898698
 30
0.0
 11
-532.16666667
 21
1120.91901447
 31
0.0
  0
LINE
  5
323
100
AcDbEntity
  8
ZUWAKU
  6
CONTINUOUS
 62
       7
100
AcDbLine
 10
-549.21669416
 20
1103.86898698
 30
0.0
 11
-566.29241768
 21
1086.79326346
 31
0.0
  0
LINE
  5
324
100
AcDbEntity
  8
ZUWAKU
  6
CONTINUOUS
 62
       7
100
AcDbLine
 10
-527.45395246
 20
1123.36898698
 30
0.0
 11
-532.16666667
 21
1118.65627277
 31
0.0
  0
LINE
  5
325
100
AcDbEntity
  8
ZUWAKU
  6
CONTINUOUS
 62
       7
100
AcDbLine
 10
-546.95395246
 20
1103.86898698
 30
0.0
 11
-563.36577636
 21
1087.45716308
 31
0.0
  0
LINE
  5
326
100
AcDbEntity
  8
ZUWAKU
  6
CONTINUOUS
 62
       7
100
AcDbLine
 10
-525.19121076
 20
1123.36898698
 30
0.0
 11
-532.16666667
 21
1116.39353107
 31
0.0
  0
LINE
  5
327
100
AcDbEntity
  8
ZUWAKU
  6
CONTINUOUS
 62
       7
100
AcDbLine
 10
-544.69121076
 20
1103.86898698
 30
0.0
 11
-560.36867685
 21
1088.19152089
 31
0.0
  0
LINE
  5
328
100
AcDbEntity
  8
ZUWAKU
  6
CONTINUOUS
 62
       7
100
AcDbLine
 10
-522.92846906
 20
1123.36898698
 30
0.0
 11
-532.16666667
 21
1114.13078937
 31
0.0
  0
LINE
  5
329
100
AcDbEntity
  8
ZUWAKU
  6
CONTINUOUS
 62
       7
100
AcDbLine
 10
-542.42846906
 20
1103.86898698
 30
0.0
 11
-557.29066047
 21
1089.00679557
 31
0.0
  0
LINE
  5
32A
100
AcDbEntity
  8
ZUWAKU
  6
CONTINUOUS
 62
       7
100
AcDbLine
 10
-520.66572736
 20
1123.36898698
 30
0.0
 11
-532.16666667
 21
1111.86804767
 31
0.0
  0
LINE
  5
32B
100
AcDbEntity
  8
ZUWAKU
  6
CONTINUOUS
 62
       7
100
AcDbLine
 10
-540.16572736
 20
1103.86898698
 30
0.0
 11
-554.11800016
 21
1089.91671418
 31
0.0
  0
LINE
  5
32C
100
AcDbEntity
  8
ZUWAKU
  6
CONTINUOUS
 62
       7
100
AcDbLine
 10
-518.40298566
 20
1123.36898698
 30
0.0
 11
-532.16666667
 21
1109.60530598
 31
0.0
  0
LINE
  5
32D
100
AcDbEntity
  8
ZUWAKU
  6
CONTINUOUS
 62
       7
100
AcDbLine
 10
-537.90298566
 20
1103.86898698
 30
0.0
 11
-550.83205253
 21
1090.93992011
 31
0.0
  0
LINE
  5
32E
100
AcDbEntity
  8
ZUWAKU
  6
CONTINUOUS
 62
       7
100
AcDbLine
 10
-516.14024396
 20
1123.36898698
 30
0.0
 11
-532.16666667
 21
1107.34256428
 31
0.0
  0
LINE
  5
32F
100
AcDbEntity
  8
ZUWAKU
  6
CONTINUOUS
 62
       7
100
AcDbLine
 10
-535.64024396
 20
1103.86898698
 30
0.0
 11
-547.4063505
 21
1092.10288044
 31
0.0
  0
LINE
  5
330
100
AcDbEntity
  8
ZUWAKU
  6
CONTINUOUS
 62
       7
100
AcDbLine
 10
-513.87750226
 20
1123.36898698
 30
0.0
 11
-532.16666667
 21
1105.07982258
 31
0.0
  0
LINE
  5
331
100
AcDbEntity
  8
ZUWAKU
  6
CONTINUOUS
 62
       7
100
AcDbLine
 10
-533.37750226
 20
1103.86898698
 30
0.0
 11
-543.80100804
 21
1093.4454812
 31
0.0
  0
LINE
  5
332
100
AcDbEntity
  8
ZUWAKU
  6
CONTINUOUS
 62
       7
100
AcDbLine
 10
-512.68604871
 20
1122.29769883
 30
0.0
 11
-539.95057258
 21
1095.03317497
 31
0.0
  0
LINE
  5
333
100
AcDbEntity
  8
ZUWAKU
  6
CONTINUOUS
 62
       7
100
AcDbLine
 10
-513.01277094
 20
1119.7082349
 30
0.0
 11
-535.7324205
 21
1096.98858535
 31
0.0
  0
LINE
  5
334
100
AcDbEntity
  8
ZUWAKU
  6
CONTINUOUS
 62
       7
100
AcDbLine
 10
-513.99960455
 20
1116.4586596
 30
0.0
 11
-530.85415705
 21
1099.60410709
 31
0.0
  0
LINE
  5
335
100
AcDbEntity
  8
ZUWAKU
  6
CONTINUOUS
 62
       7
100
AcDbLine
 10
-517.05207509
 20
1111.14344735
 30
0.0
 11
-523.91025666
 21
1104.28526578
 31
0.0
  0
ARC
  5
336
100
AcDbEntity
  8
ZUWAKU
  6
CONTINUOUS
 62
       7
100
AcDbCircle
 10
-642.1012439
 20
1131.86898698
 30
0.0
 40
4.0
100
AcDbArc
 50
270.0
 51
450.0
  0
LINE
  5
337
100
AcDbEntity
  8
ZUWAKU
  6
CONTINUOUS
 62
       7
100
AcDbLine
 10
-666.72766667
 20
1115.87298698
 30
0.0
 11
-660.97766667
 21
1115.87298698
 31
0.0
  0
LINE
  5
338
100
AcDbEntity
  8
ZUWAKU
  6
CONTINUOUS
 62
       7
100
AcDbLine
 10
-667.66666667
 20
1113.36898698
 30
0.0
 11
-659.24239349
 21
1113.36898698
 31
0.0
  0
LINE
  5
339
100
AcDbEntity
  8
ZUWAKU
  6
CONTINUOUS
 62
       7
100
AcDbLine
 10
-659.24239349
 20
1113.36898698
 30
0.0
 11
-654.74389349
 21
1125.36498698
 31
0.0
  0
LINE
  5
33A
100
AcDbEntity
  8
ZUWAKU
  6
CONTINUOUS
 62
       7
100
AcDbLine
 10
-653.80489349
 20
1127.86898698
 30
0.0
 11
-650.80489349
 21
1135.86898698
 31
0.0
  0
LINE
  5
33B
100
AcDbEntity
  8
ZUWAKU
  6
CONTINUOUS
 62
       7
100
AcDbLine
 10
-654.74389349
 20
1125.36498698
 30
0.0
 11
-652.94701449
 21
1125.36498698
 31
0.0
  0
LINE
  5
33C
100
AcDbEntity
  8
ZUWAKU
  6
CONTINUOUS
 62
       7
100
AcDbLine
 10
-650.07071437
 20
1125.36498698
 30
0.0
 11
-642.1012439
 21
1125.36498698
 31
0.0
  0
LINE
  5
33D
100
AcDbEntity
  8
ZUWAKU
  6
CONTINUOUS
 62
       7
100
AcDbLine
 10
-644.70567089
 20
1115.87298698
 30
0.0
 11
-650.07071437
 21
1125.36498698
 31
0.0
  0
ARC
  5
33E
100
AcDbEntity
  8
ZUWAKU
  6
CONTINUOUS
 62
       7
100
AcDbCircle
 10
-642.1012439
 20
1131.86898698
 30
0.0
 40
6.5
100
AcDbArc
 50
270.0
 51
450.0
  0
ELLIPSE
  5
33F
100
AcDbEntity
  8
ZUWAKU
  6
CONTINUOUS
 62
       7
100
AcDbEllipse
 10
-633.81959118
 20
1119.00546627
 30
0.0
 11
-0.6585493061994612
 21
-1.2073403946985763
 31
0.0
210
0.0
220
0.0
230
1.0
 40
0.75209874
 41
0.0
 42
6.2831853071796004
  0
LINE
  5
340
100
AcDbEntity
  8
ZUWAKU
  6
CONTINUOUS
 62
       7
100
AcDbLine
 10
-646.16666667
 20
1113.36898698
 30
0.0
 11
-637.16666667
 21
1113.36898698
 31
0.0
  0
ELLIPSE
  5
341
100
AcDbEntity
  8
ZUWAKU
  6
CONTINUOUS
 62
       7
100
AcDbEllipse
 10
-633.81959118
 20
1119.00546627
 30
0.0
 11
-2.1039913936083394
 21
-3.857317554947258
 31
0.0
210
0.0
220
0.0
230
1.0
 40
0.75209874
 41
1.1633802511780498
 42
5.8601607076995617
  0
LINE
  5
342
100
AcDbEntity
  8
ZUWAKU
  6
CONTINUOUS
 62
       7
100
AcDbLine
 10
-644.70567089
 20
1115.87298698
 30
0.0
 11
-637.31685895
 21
1115.87298698
 31
0.0
  0
ARC
  5
343
100
AcDbEntity
  8
ZUWAKU
  6
CONTINUOUS
 62
       7
100
AcDbCircle
 10
-638.06170191
 20
1121.48872723
 30
0.0
 40
5.66492097
100
AcDbArc
 50
277.55531967
 51
282.61004677
  0
ARC
  5
344
100
AcDbEntity
  8
ZUWAKU
  6
CONTINUOUS
 62
       7
100
AcDbCircle
 10
-638.06170191
 20
1121.48872723
 30
0.0
 40
8.16892097
100
AcDbArc
 50
276.29029269
 51
293.79815684
  0
ARC
  5
345
100
AcDbEntity
  8
ZUWAKU
  6
CONTINUOUS
 62
       7
100
AcDbCircle
 10
-638.06170191
 20
1121.48872723
 30
0.0
 40
8.16892097
100
AcDbArc
 50
316.57125834
 51
318.01426788
  0
ARC
  5
346
100
AcDbEntity
  8
ZUWAKU
  6
CONTINUOUS
 62
       7
100
AcDbCircle
 10
-632.19438425
 20
1118.79821889
 30
0.0
 40
5.43095072
100
AcDbArc
 50
209.3318227
 51
211.50126528
  0
ARC
  5
347
100
AcDbEntity
  8
ZUWAKU
  6
CONTINUOUS
 62
       7
100
AcDbCircle
 10
-632.19438425
 20
1118.79821889
 30
0.0
 40
5.43095072
100
AcDbArc
 50
241.74457829
 51
270.0
  0
ELLIPSE
  5
348
100
AcDbEntity
  8
ZUWAKU
  6
CONTINUOUS
 62
       7
100
AcDbEllipse
 10
-621.03295142
 20
1122.36774353
 30
0.0
 11
-1.0963443692977535
 21
-2.2612102616769789
 31
0.0
210
0.0
220
0.0
230
1.0
 40
0.44219156
 41
0.0
 42
6.2831853071796004
  0
ARC
  5
349
100
AcDbEntity
  8
ZUWAKU
  6
CONTINUOUS
 62
       7
100
AcDbCircle
 10
-618.72711231
 20
1123.02940083
 30
0.0
 40
9.7128547
100
AcDbArc
 50
241.28311564
 51
264.0434522
  0
LINE
  5
34A
100
AcDbEntity
  8
ZUWAKU
  6
CONTINUOUS
 62
       7
100
AcDbLine
 10
-632.19438425
 20
1113.36898698
 30
0.0
 11
-626.55960878
 21
1113.36898698
 31
0.0
  0
ARC
  5
34B
100
AcDbEntity
  8
ZUWAKU
  6
CONTINUOUS
 62
       7
100
AcDbCircle
 10
-618.72711231
 20
1123.02940083
 30
0.0
 40
7.2088547
100
AcDbArc
 50
251.08708107
 51
263.08482824
  0
ARC
  5
34C
100
AcDbEntity
  8
ZUWAKU
  6
CONTINUOUS
 62
       7
100
AcDbCircle
 10
-628.6850566
 20
1124.21771878
 30
0.0
 40
8.55097671
100
AcDbArc
 50
282.60950936
 51
291.93126974
  0
ELLIPSE
  5
34D
100
AcDbEntity
  8
ZUWAKU
  6
CONTINUOUS
 62
       7
100
AcDbEllipse
 10
-621.03295142
 20
1122.36774353
 30
0.0
 11
-3.5026976654880855
 21
-7.2243139350705405
 31
0.0
210
0.0
220
0.0
230
1.0
 40
0.44219156
 41
1.1621663820477937
 42
5.8906096214263046
  0
LINE
  5
34E
100
AcDbEntity
  8
ZUWAKU
  6
CONTINUOUS
 62
       7
100
AcDbLine
 10
-632.12918716
 20
1115.87298698
 30
0.0
 11
-626.81833383
 21
1115.87298698
 31
0.0
  0
ARC
  5
34F
100
AcDbEntity
  8
ZUWAKU
  6
CONTINUOUS
 62
       7
100
AcDbCircle
 10
-628.6850566
 20
1124.21771878
 30
0.0
 40
11.05497671
100
AcDbArc
 50
313.58286141
 51
326.24939265
  0
ARC
  5
350
100
AcDbEntity
  8
ZUWAKU
  6
CONTINUOUS
 62
       7
100
AcDbCircle
 10
-628.6850566
 20
1124.21771878
 30
0.0
 40
11.05497671
100
AcDbArc
 50
281.08479974
 51
298.5950739
  0
LINE
  5
351
100
AcDbEntity
  8
ZUWAKU
  6
CONTINUOUS
 62
       7
100
AcDbLine
 10
-619.73505607
 20
1113.36898698
 30
0.0
 11
-615.66666667
 21
1113.36898698
 31
0.0
  0
LINE
  5
352
100
AcDbEntity
  8
ZUWAKU
  6
CONTINUOUS
 62
       7
100
AcDbLine
 10
-616.24904819
 20
1116.32779622
 30
0.0
 11
-609.44520688
 21
1123.13163753
 31
0.0
  0
LINE
  5
353
100
AcDbEntity
  8
ZUWAKU
  6
CONTINUOUS
 62
       7
100
AcDbLine
 10
-609.21079377
 20
1115.87298698
 30
0.0
 11
-608.11067845
 21
1122.47367891
 31
0.0
  0
LINE
  5
354
100
AcDbEntity
  8
ZUWAKU
  6
CONTINUOUS
 62
       7
100
AcDbLine
 10
-619.59505635
 20
1115.87298698
 30
0.0
 11
-617.15866667
 21
1115.87298698
 31
0.0
  0
ARC
  5
355
100
AcDbEntity
  8
ZUWAKU
  6
CONTINUOUS
 62
       7
100
AcDbCircle
 10
-608.87705263
 20
1122.60140794
 30
0.0
 40
0.77713748
100
AcDbArc
 50
350.53767779
 51
496.97750576
  0
ELLIPSE
  5
356
100
AcDbEntity
  8
ZUWAKU
  6
CONTINUOUS
 62
       7
100
AcDbEllipse
 10
-598.26786528
 20
1118.07283762
 30
0.0
 11
-0.7294530398138477
 21
-1.2285524881074252
 31
0.0
210
0.0
220
0.0
230
1.0
 40
0.58819821
 41
0.0
 42
6.2831853071796004
  0
LINE
  5
357
100
AcDbEntity
  8
ZUWAKU
  6
CONTINUOUS
 62
       7
100
AcDbLine
 10
-606.57039403
 20
1115.87298698
 30
0.0
 11
-602.40287463
 21
1117.8747089
 31
0.0
  0
LINE
  5
358
100
AcDbEntity
  8
ZUWAKU
  6
CONTINUOUS
 62
       7
100
AcDbLine
 10
-606.16666667
 20
1113.36898698
 30
0.0
 11
-602.67747135
 21
1114.91509285
 31
0.0
  0
LINE
  5
359
100
AcDbEntity
  8
ZUWAKU
  6
CONTINUOUS
 62
       7
100
AcDbLine
 10
-609.21079377
 20
1115.87298698
 30
0.0
 11
-606.57039403
 21
1115.87298698
 31
0.0
  0
LINE
  5
35A
100
AcDbEntity
  8
ZUWAKU
  6
CONTINUOUS
 62
       7
100
AcDbLine
 10
-597.61167369
 20
1114.49713397
 30
0.0
 11
-596.44462508
 21
1113.36898698
 31
0.0
  0
LINE
  5
35B
100
AcDbEntity
  8
ZUWAKU
  6
CONTINUOUS
 62
       7
100
AcDbLine
 10
-593.66666667
 20
1115.87298698
 30
0.0
 11
-590.14896873
 21
1115.87298698
 31
0.0
  0
LINE
  5
35C
100
AcDbEntity
  8
ZUWAKU
  6
CONTINUOUS
 62
       7
100
AcDbLine
 10
-582.15354016
 20
1122.86898698
 30
0.0
 11
-590.14896873
 21
1115.87298698
 31
0.0
  0
ELLIPSE
  5
35D
100
AcDbEntity
  8
ZUWAKU
  6
CONTINUOUS
 62
       7
100
AcDbEllipse
 10
-598.78964503
 20
1117.77696533
 30
0.0
 11
-3.1774816750956916
 21
-3.9366623178134432
 31
0.0
210
0.0
220
0.0
230
1.0
 40
0.63020876
 41
2.7713952963881407
 42
5.1608192210644281
  0
ELLIPSE
  5
35E
100
AcDbEntity
  8
ZUWAKU
  6
CONTINUOUS
 62
       7
100
AcDbEllipse
 10
-598.78964503
 20
1117.77696533
 30
0.0
 11
-3.1774816750956916
 21
-3.9366623178134432
 31
0.0
210
0.0
220
0.0
230
1.0
 40
0.63020876
 41
5.8878630804447276
 42
7.4876029260781625
  0
LINE
  5
35F
100
AcDbEntity
  8
ZUWAKU
  6
CONTINUOUS
 62
       7
100
AcDbLine
 10
-594.324985
 20
1122.38575372
 30
0.0
 11
-591.66056967
 21
1122.38575372
 31
0.0
  0
LINE
  5
360
100
AcDbEntity
  8
ZUWAKU
  6
CONTINUOUS
 62
       7
100
AcDbLine
 10
-594.9298237
 20
1120.72244728
 30
0.0
 11
-594.324985
 21
1122.38575372
 31
0.0
  0
LINE
  5
361
100
AcDbEntity
  8
ZUWAKU
  6
CONTINUOUS
 62
       7
100
AcDbLine
 10
-593.66666667
 20
1116.86898698
 30
0.0
 11
-591.66056967
 21
1122.38575372
 31
0.0
  0
LINE
  5
362
100
AcDbEntity
  8
ZUWAKU
  6
CONTINUOUS
 62
       7
100
AcDbLine
 10
-586.86148226
 20
1113.44775696
 30
0.0
 11
-585.59440685
 21
1116.93221432
 31
0.0
  0
LINE
  5
363
100
AcDbEntity
  8
ZUWAKU
  6
CONTINUOUS
 62
       7
100
AcDbLine
 10
-581.81957954
 20
1119.36898698
 30
0.0
 11
-584.00139772
 21
1113.36898698
 31
0.0
  0
LINE
  5
364
100
AcDbEntity
  8
ZUWAKU
  6
CONTINUOUS
 62
       7
100
AcDbLine
 10
-580.66666667
 20
1113.36898698
 30
0.0
 11
-578.48484848
 21
1119.36898698
 31
0.0
  0
LINE
  5
365
100
AcDbEntity
  8
ZUWAKU
  6
CONTINUOUS
 62
       7
100
AcDbLine
 10
-574.83698915
 20
1121.27560015
 30
0.0
 11
-576.80157576
 21
1115.87298698
 31
0.0
  0
LINE
  5
366
100
AcDbEntity
  8
ZUWAKU
  6
CONTINUOUS
 62
       7
100
AcDbLine
 10
-575.66832141
 20
1122.86898698
 30
0.0
 11
-574.83698915
 21
1121.27560015
 31
0.0
  0
LINE
  5
367
100
AcDbEntity
  8
ZUWAKU
  6
CONTINUOUS
 62
       7
100
AcDbLine
 10
-581.15387719
 20
1121.38177646
 30
0.0
 11
-580.66200283
 21
1122.86898698
 31
0.0
  0
LINE
  5
368
100
AcDbEntity
  8
ZUWAKU
  6
CONTINUOUS
 62
       7
100
AcDbLine
 10
-581.15387719
 20
1121.38177646
 30
0.0
 11
-578.4902885
 21
1122.86898698
 31
0.0
  0
LINE
  5
369
100
AcDbEntity
  8
ZUWAKU
  6
CONTINUOUS
 62
       7
100
AcDbLine
 10
-575.66832141
 20
1122.86898698
 30
0.0
 11
-578.4902885
 21
1122.86898698
 31
0.0
  0
LINE
  5
36A
100
AcDbEntity
  8
ZUWAKU
  6
CONTINUOUS
 62
       7
100
AcDbLine
 10
-580.66200283
 20
1122.86898698
 30
0.0
 11
-582.15354016
 21
1122.86898698
 31
0.0
  0
ELLIPSE
  5
36B
100
AcDbEntity
  8
ZUWAKU
  6
CONTINUOUS
 62
       7
100
AcDbEllipse
 10
-553.35360716
 20
1119.00546627
 30
0.0
 11
-0.6585493061994612
 21
-1.2073403946985763
 31
0.0
210
0.0
220
0.0
230
1.0
 40
0.75209874
 41
0.0
 42
6.2831853071796004
  0
ELLIPSE
  5
36C
100
AcDbEntity
  8
ZUWAKU
  6
CONTINUOUS
 62
       7
100
AcDbEllipse
 10
-553.35360716
 20
1119.00546627
 30
0.0
 11
-2.1039913936083394
 21
-3.857317554947258
 31
0.0
210
0.0
220
0.0
230
1.0
 40
0.75209874
 41
1.1633802511780498
 42
5.8601607076995617
  0
ARC
  5
36D
100
AcDbEntity
  8
ZUWAKU
  6
CONTINUOUS
 62
       7
100
AcDbCircle
 10
-557.59571789
 20
1121.48872723
 30
0.0
 40
5.66492097
100
AcDbArc
 50
277.55531967
 51
282.61004677
  0
ARC
  5
36E
100
AcDbEntity
  8
ZUWAKU
  6
CONTINUOUS
 62
       7
100
AcDbCircle
 10
-557.59571789
 20
1121.48872723
 30
0.0
 40
8.16892097
100
AcDbArc
 50
276.29029269
 51
293.79815684
  0
ARC
  5
36F
100
AcDbEntity
  8
ZUWAKU
  6
CONTINUOUS
 62
       7
100
AcDbCircle
 10
-557.59571789
 20
1121.48872723
 30
0.0
 40
8.16892097
100
AcDbArc
 50
316.57125834
 51
318.01426788
  0
ARC
  5
370
100
AcDbEntity
  8
ZUWAKU
  6
CONTINUOUS
 62
       7
100
AcDbCircle
 10
-551.72840022
 20
1118.79821889
 30
0.0
 40
5.43095072
100
AcDbArc
 50
209.3318227
 51
211.50126528
  0
ARC
  5
371
100
AcDbEntity
  8
ZUWAKU
  6
CONTINUOUS
 62
       7
100
AcDbCircle
 10
-551.72840022
 20
1118.79821889
 30
0.0
 40
5.43095072
100
AcDbArc
 50
241.74457829
 51
270.0
  0
LINE
  5
372
100
AcDbEntity
  8
ZUWAKU
  6
CONTINUOUS
 62
       7
100
AcDbLine
 10
-565.54828223
 20
1115.87298698
 30
0.0
 11
-556.85087492
 21
1115.87298698
 31
0.0
  0
LINE
  5
373
100
AcDbEntity
  8
ZUWAKU
  6
CONTINUOUS
 62
       7
100
AcDbLine
 10
-551.72840022
 20
1113.36898698
 30
0.0
 11
-546.91340599
 21
1113.36898698
 31
0.0
  0
LINE
  5
374
100
AcDbEntity
  8
ZUWAKU
  6
CONTINUOUS
 62
       7
100
AcDbLine
 10
-551.66320314
 20
1115.87298698
 30
0.0
 11
-546.35234981
 21
1115.87298698
 31
0.0
  0
LINE
  5
375
100
AcDbEntity
  8
ZUWAKU
  6
CONTINUOUS
 62
       7
100
AcDbLine
 10
-612.16666667
 20
1113.36898698
 30
0.0
 11
-606.16666667
 21
1113.36898698
 31
0.0
  0
LINE
  5
376
100
AcDbEntity
  8
ZUWAKU
  6
CONTINUOUS
 62
       7
100
AcDbLine
 10
-586.86148226
 20
1113.44775696
 30
0.0
 11
-584.00139772
 21
1113.36898698
 31
0.0
  0
LINE
  5
377
100
AcDbEntity
  8
ZUWAKU
  6
CONTINUOUS
 62
       7
100
AcDbLine
 10
-576.80157576
 20
1115.87298698
 30
0.0
 11
-572.17795243
 21
1115.87298698
 31
0.0
  0
LINE
  5
378
100
AcDbEntity
  8
ZUWAKU
  6
CONTINUOUS
 62
       7
100
AcDbLine
 10
-563.64530252
 20
1119.4777447
 30
0.0
 11
-561.7774333
 21
1120.98760566
 31
0.0
  0
ARC
  5
379
100
AcDbEntity
  8
ZUWAKU
  6
CONTINUOUS
 62
       7
100
AcDbCircle
 10
-565.54828223
 20
1118.19298698
 30
0.0
 40
2.32
100
AcDbArc
 50
34.07537472
 51
270.0
  0
ARC
  5
37A
100
AcDbEntity
  8
ZUWAKU
  6
CONTINUOUS
 62
       7
100
AcDbCircle
 10
-565.54828223
 20
1118.19298698
 30
0.0
 40
4.69352694
100
AcDbArc
 50
36.54256145
 51
190.98612084
  0
LINE
  5
37B
100
AcDbEntity
  8
ZUWAKU
  6
CONTINUOUS
 62
       7
100
AcDbLine
 10
-571.5465023
 20
1113.36898698
 30
0.0
 11
-569.16909834
 21
1115.11839745
 31
0.0
  0
LINE
  5
37C
100
AcDbEntity
  8
ZUWAKU
  6
CONTINUOUS
 62
       7
100
AcDbLine
 10
-570.18560684
 20
1117.3390526
 30
0.0
 11
-572.17795243
 21
1115.87298698
 31
0.0
  0
LINE
  5
37D
100
AcDbEntity
  8
ZUWAKU
  6
CONTINUOUS
 62
       7
100
AcDbLine
 10
-569.16909834
 20
1115.11839745
 30
0.0
 11
-567.16666667
 21
1113.36898698
 31
0.0
  0
LINE
  5
37E
100
AcDbEntity
  8
ZUWAKU
  6
CONTINUOUS
 62
       7
100
AcDbLine
 10
-546.35234981
 20
1115.87298698
 30
0.0
 11
-546.91340599
 21
1113.36898698
 31
0.0
  0
LINE
  5
37F
100
AcDbEntity
  8
ZUWAKU
  6
CONTINUOUS
 62
       7
100
AcDbLine
 10
-679.32527993
 20
1137.80648698
 30
0.0
 11
-680.70027993
 21
1136.43148698
 31
0.0
  0
LINE
  5
380
100
AcDbEntity
  8
ZUWAKU
  6
CONTINUOUS
 62
       7
100
AcDbLine
 10
-676.43203887
 20
1138.09243162
 30
0.0
 11
-678.37892815
 21
1136.14554235
 31
0.0
  0
LINE
  5
381
100
AcDbEntity
  8
ZUWAKU
  6
CONTINUOUS
 62
       7
100
AcDbLine
 10
-673.15705695
 20
1138.31898698
 30
0.0
 11
-675.56018195
 21
1135.91586198
 31
0.0
  0
LINE
  5
382
100
AcDbEntity
  8
ZUWAKU
  6
CONTINUOUS
 62
       7
100
AcDbLine
 10
-669.92800732
 20
1138.36898698
 30
0.0
 11
-672.42800732
 21
1135.86898698
 31
0.0
  0
LINE
  5
383
100
AcDbEntity
  8
ZUWAKU
  6
CONTINUOUS
 62
       7
100
AcDbLine
 10
-666.58918259
 20
1138.36898698
 30
0.0
 11
-669.08918259
 21
1135.86898698
 31
0.0
  0
LINE
  5
384
100
AcDbEntity
  8
ZUWAKU
  6
CONTINUOUS
 62
       7
100
AcDbLine
 10
-662.91823725
 20
1138.36898698
 30
0.0
 11
-665.41823725
 21
1135.86898698
 31
0.0
  0
LINE
  5
385
100
AcDbEntity
  8
ZUWAKU
  6
CONTINUOUS
 62
       7
100
AcDbLine
 10
-659.82426195
 20
1138.36898698
 30
0.0
 11
-662.32426195
 21
1135.86898698
 31
0.0
  0
LINE
  5
386
100
AcDbEntity
  8
ZUWAKU
  6
CONTINUOUS
 62
       7
100
AcDbLine
 10
-658.95931517
 20
1114.1238625
 30
0.0
 11
-659.71419069
 21
1113.36898698
 31
0.0
  0
LINE
  5
387
100
AcDbEntity
  8
ZUWAKU
  6
CONTINUOUS
 62
       7
100
AcDbLine
 10
-657.60167015
 20
1117.74424922
 30
0.0
 11
-661.97693239
 21
1113.36898698
 31
0.0
  0
LINE
  5
388
100
AcDbEntity
  8
ZUWAKU
  6
CONTINUOUS
 62
       7
100
AcDbLine
 10
-656.24402513
 20
1121.36463594
 30
0.0
 11
-660.52286221
 21
1117.08579887
 31
0.0
  0
LINE
  5
389
100
AcDbEntity
  8
ZUWAKU
  6
CONTINUOUS
 62
       7
100
AcDbLine
 10
-661.73567409
 20
1115.87298698
 30
0.0
 11
-664.23967409
 21
1113.36898698
 31
0.0
  0
LINE
  5
38A
100
AcDbEntity
  8
ZUWAKU
  6
CONTINUOUS
 62
       7
100
AcDbLine
 10
-654.88638012
 20
1124.98502266
 30
0.0
 11
-659.16521719
 21
1120.70618559
 31
0.0
  0
LINE
  5
38B
100
AcDbEntity
  8
ZUWAKU
  6
CONTINUOUS
 62
       7
100
AcDbLine
 10
-663.99841579
 20
1115.87298698
 30
0.0
 11
-666.50241579
 21
1113.36898698
 31
0.0
  0
LINE
  5
38C
100
AcDbEntity
  8
ZUWAKU
  6
CONTINUOUS
 62
       7
100
AcDbLine
 10
-666.26115749
 20
1115.87298698
 30
0.0
 11
-667.00757217
 21
1115.12657231
 31
0.0
  0
LINE
  5
38D
100
AcDbEntity
  8
ZUWAKU
  6
CONTINUOUS
 62
       7
100
AcDbLine
 10
-650.55338259
 20
1138.36898698
 30
0.0
 11
-653.73463711
 21
1135.18773246
 31
0.0
  0
LINE
  5
38E
100
AcDbEntity
  8
ZUWAKU
  6
CONTINUOUS
 62
       7
100
AcDbLine
 10
-652.81612429
 20
1138.36898698
 30
0.0
 11
-655.31612429
 21
1135.86898698
 31
0.0
  0
LINE
  5
38F
100
AcDbEntity
  8
ZUWAKU
  6
CONTINUOUS
 62
       7
100
AcDbLine
 10
-655.07886599
 20
1138.36898698
 30
0.0
 11
-657.57886599
 21
1135.86898698
 31
0.0
  0
LINE
  5
390
100
AcDbEntity
  8
ZUWAKU
  6
CONTINUOUS
 62
       7
100
AcDbLine
 10
-657.34160769
 20
1138.36898698
 30
0.0
 11
-658.66170205
 21
1137.04889262
 31
0.0
  0
LINE
  5
391
100
AcDbEntity
  8
ZUWAKU
  6
CONTINUOUS
 62
       7
100
AcDbLine
 10
-634.3994899
 20
1122.84449588
 30
0.0
 11
-636.79300991
 21
1120.45097587
 31
0.0
  0
LINE
  5
392
100
AcDbEntity
  8
ZUWAKU
  6
CONTINUOUS
 62
       7
100
AcDbLine
 10
-631.98985779
 20
1122.99138628
 30
0.0
 11
-637.38314213
 21
1117.59810195
 31
0.0
  0
LINE
  5
393
100
AcDbEntity
  8
ZUWAKU
  6
CONTINUOUS
 62
       7
100
AcDbLine
 10
-630.24148409
 20
1120.21427659
 30
0.0
 11
-637.07630343
 21
1113.37945725
 31
0.0
  0
LINE
  5
394
100
AcDbEntity
  8
ZUWAKU
  6
CONTINUOUS
 62
       7
100
AcDbLine
 10
-646.02789919
 20
1138.36898698
 30
0.0
 11
-648.52789919
 21
1135.86898698
 31
0.0
  0
LINE
  5
395
100
AcDbEntity
  8
ZUWAKU
  6
CONTINUOUS
 62
       7
100
AcDbLine
 10
-652.17109008
 20
1132.2257961
 30
0.0
 11
-656.44992715
 21
1127.94695903
 31
0.0
  0
LINE
  5
396
100
AcDbEntity
  8
ZUWAKU
  6
CONTINUOUS
 62
       7
100
AcDbLine
 10
-643.76515749
 20
1138.36898698
 30
0.0
 11
-646.26515749
 21
1135.86898698
 31
0.0
  0
LINE
  5
397
100
AcDbEntity
  8
ZUWAKU
  6
CONTINUOUS
 62
       7
100
AcDbLine
 10
-653.5287351
 20
1128.60540938
 30
0.0
 11
-657.80757217
 21
1124.32657231
 31
0.0
  0
LINE
  5
398
100
AcDbEntity
  8
ZUWAKU
  6
CONTINUOUS
 62
       7
100
AcDbLine
 10
-641.52776365
 20
1138.34363913
 30
0.0
 11
-644.00241579
 21
1135.86898698
 31
0.0
  0
LINE
  5
399
100
AcDbEntity
  8
ZUWAKU
  6
CONTINUOUS
 62
       7
100
AcDbLine
 10
-652.00241579
 20
1127.86898698
 30
0.0
 11
-654.50641579
 21
1125.36498698
 31
0.0
  0
LINE
  5
39A
100
AcDbEntity
  8
ZUWAKU
  6
CONTINUOUS
 62
       7
100
AcDbLine
 10
-639.69962301
 20
1137.90903807
 30
0.0
 11
-641.75471284
 21
1135.85394824
 31
0.0
  0
LINE
  5
39B
100
AcDbEntity
  8
ZUWAKU
  6
CONTINUOUS
 62
       7
100
AcDbLine
 10
-649.73967409
 20
1127.86898698
 30
0.0
 11
-652.69303046
 21
1124.91563062
 31
0.0
  0
LINE
  5
39C
100
AcDbEntity
  8
ZUWAKU
  6
CONTINUOUS
 62
       7
100
AcDbLine
 10
-638.24465525
 20
1137.10126412
 30
0.0
 11
-640.04557392
 21
1135.30034546
 31
0.0
  0
LINE
  5
39D
100
AcDbEntity
  8
ZUWAKU
  6
CONTINUOUS
 62
       7
100
AcDbLine
 10
-637.08297313
 20
1136.00020455
 30
0.0
 11
-638.86428139
 21
1134.21889629
 31
0.0
  0
LINE
  5
39E
100
AcDbEntity
  8
ZUWAKU
  6
CONTINUOUS
 62
       7
100
AcDbLine
 10
-636.20839577
 20
1134.61204021
 30
0.0
 11
-638.17694269
 21
1132.64349329
 31
0.0
  0
LINE
  5
39F
100
AcDbEntity
  8
ZUWAKU
  6
CONTINUOUS
 62
       7
100
AcDbLine
 10
-635.67999082
 20
1132.87770346
 30
0.0
 11
-638.57271537
 21
1129.98497891
 31
0.0
  0
LINE
  5
3A0
100
AcDbEntity
  8
ZUWAKU
  6
CONTINUOUS
 62
       7
100
AcDbLine
 10
-648.29064089
 20
1138.36898698
 30
0.0
 11
-650.79064089
 21
1135.86898698
 31
0.0
  0
LINE
  5
3A1
100
AcDbEntity
  8
ZUWAKU
  6
CONTINUOUS
 62
       7
100
AcDbLine
 10
-650.81344506
 20
1135.84618282
 30
0.0
 11
-655.09228213
 21
1131.56734575
 31
0.0
  0
LINE
  5
3A2
100
AcDbEntity
  8
ZUWAKU
  6
CONTINUOUS
 62
       7
100
AcDbLine
 10
-645.21419069
 20
1127.86898698
 30
0.0
 11
-647.71819069
 21
1125.36498698
 31
0.0
  0
LINE
  5
3A3
100
AcDbEntity
  8
ZUWAKU
  6
CONTINUOUS
 62
       7
100
AcDbLine
 10
-649.22119193
 20
1123.86198575
 30
0.0
 11
-651.05882812
 21
1122.02434956
 31
0.0
  0
LINE
  5
3A4
100
AcDbEntity
  8
ZUWAKU
  6
CONTINUOUS
 62
       7
100
AcDbLine
 10
-647.47693239
 20
1127.86898698
 30
0.0
 11
-649.98093239
 21
1125.36498698
 31
0.0
  0
LINE
  5
3A5
100
AcDbEntity
  8
ZUWAKU
  6
CONTINUOUS
 62
       7
100
AcDbLine
 10
-650.0382931
 20
1125.30762628
 30
0.0
 11
-651.87592929
 21
1123.46999009
 31
0.0
  0
LINE
  5
3A6
100
AcDbEntity
  8
ZUWAKU
  6
CONTINUOUS
 62
       7
100
AcDbLine
 10
-642.95144899
 20
1127.86898698
 30
0.0
 11
-645.45544899
 21
1125.36498698
 31
0.0
  0
LINE
  5
3A7
100
AcDbEntity
  8
ZUWAKU
  6
CONTINUOUS
 62
       7
100
AcDbLine
 10
-648.40409076
 20
1122.41634522
 30
0.0
 11
-650.24172695
 21
1120.57870903
 31
0.0
  0
LINE
  5
3A8
100
AcDbEntity
  8
ZUWAKU
  6
CONTINUOUS
 62
       7
100
AcDbLine
 10
-640.21723582
 20
1128.34045845
 30
0.0
 11
-643.19270729
 21
1125.36498698
 31
0.0
  0
LINE
  5
3A9
100
AcDbEntity
  8
ZUWAKU
  6
CONTINUOUS
 62
       7
100
AcDbLine
 10
-647.58698959
 20
1120.97070469
 30
0.0
 11
-649.42462578
 21
1119.1330685
 31
0.0
  0
LINE
  5
3AA
100
AcDbEntity
  8
ZUWAKU
  6
CONTINUOUS
 62
       7
100
AcDbLine
 10
-635.73427168
 20
1130.5606809
 30
0.0
 11
-640.79293781
 21
1125.50201477
 31
0.0
  0
LINE
  5
3AB
100
AcDbEntity
  8
ZUWAKU
  6
CONTINUOUS
 62
       7
100
AcDbLine
 10
-646.76988842
 20
1119.52506415
 30
0.0
 11
-648.60752461
 21
1117.68742797
 31
0.0
  0
LINE
  5
3AC
100
AcDbEntity
  8
ZUWAKU
  6
CONTINUOUS
 62
       7
100
AcDbLine
 10
-645.95278725
 20
1118.07942362
 30
0.0
 11
-647.79042344
 21
1116.24178743
 31
0.0
  0
LINE
  5
3AD
100
AcDbEntity
  8
ZUWAKU
  6
CONTINUOUS
 62
       7
100
AcDbLine
 10
-645.13568608
 20
1116.63378309
 30
0.0
 11
-646.97332227
 21
1114.7961469
 31
0.0
  0
LINE
  5
3AE
100
AcDbEntity
  8
ZUWAKU
  6
CONTINUOUS
 62
       7
100
AcDbLine
 10
-643.6337405
 20
1115.87298698
 30
0.0
 11
-646.1377405
 21
1113.36898698
 31
0.0
  0
LINE
  5
3AF
100
AcDbEntity
  8
ZUWAKU
  6
CONTINUOUS
 62
       7
100
AcDbLine
 10
-641.3709988
 20
1115.87298698
 30
0.0
 11
-643.8749988
 21
1113.36898698
 31
0.0
  0
LINE
  5
3B0
100
AcDbEntity
  8
ZUWAKU
  6
CONTINUOUS
 62
       7
100
AcDbLine
 10
-639.1082571
 20
1115.87298698
 30
0.0
 11
-641.6122571
 21
1113.36898698
 31
0.0
  0
LINE
  5
3B1
100
AcDbEntity
  8
ZUWAKU
  6
CONTINUOUS
 62
       7
100
AcDbLine
 10
-630.76141496
 20
1121.95708742
 30
0.0
 11
-632.83508221
 21
1119.88342017
 31
0.0
  0
LINE
  5
3B2
100
AcDbEntity
  8
ZUWAKU
  6
CONTINUOUS
 62
       7
100
AcDbLine
 10
-634.71841785
 20
1118.00008453
 30
0.0
 11
-639.3495154
 21
1113.36898698
 31
0.0
  0
LINE
  5
3B3
100
AcDbEntity
  8
ZUWAKU
  6
CONTINUOUS
 62
       7
100
AcDbLine
 10
-618.4434044
 20
1129.74961458
 30
0.0
 11
-624.18075692
 21
1124.01226206
 31
0.0
  0
LINE
  5
3B4
100
AcDbEntity
  8
ZUWAKU
  6
CONTINUOUS
 62
       7
100
AcDbLine
 10
-631.13557804
 20
1117.05744094
 30
0.0
 11
-634.37065075
 21
1113.82236823
 31
0.0
  0
LINE
  5
3B5
100
AcDbEntity
  8
ZUWAKU
  6
CONTINUOUS
 62
       7
100
AcDbLine
 10
-616.88887858
 20
1129.0413987
 30
0.0
 11
-625.47169565
 21
1120.45858163
 31
0.0
  0
LINE
  5
3B6
100
AcDbEntity
  8
ZUWAKU
  6
CONTINUOUS
 62
       7
100
AcDbLine
 10
-630.0572903
 20
1115.87298698
 30
0.0
 11
-632.55127032
 21
1113.37900696
 31
0.0
  0
LINE
  5
3B7
100
AcDbEntity
  8
ZUWAKU
  6
CONTINUOUS
 62
       7
100
AcDbLine
 10
-627.7945486
 20
1115.87298698
 30
0.0
 11
-630.2985486
 21
1113.36898698
 31
0.0
  0
LINE
  5
3B8
100
AcDbEntity
  8
ZUWAKU
  6
CONTINUOUS
 62
       7
100
AcDbLine
 10
-616.32548413
 20
1127.34205145
 30
0.0
 11
-619.58360968
 21
1124.0839259
 31
0.0
  0
LINE
  5
3B9
100
AcDbEntity
  8
ZUWAKU
  6
CONTINUOUS
 62
       7
100
AcDbLine
 10
-622.51337746
 20
1121.15415812
 30
0.0
 11
-625.77150301
 21
1117.89603257
 31
0.0
  0
LINE
  5
3BA
100
AcDbEntity
  8
ZUWAKU
  6
CONTINUOUS
 62
       7
100
AcDbLine
 10
-616.45562432
 20
1124.94916956
 30
0.0
 11
-628.0358069
 21
1113.36898698
 31
0.0
  0
LINE
  5
3BB
100
AcDbEntity
  8
ZUWAKU
  6
CONTINUOUS
 62
       7
100
AcDbLine
 10
-617.4383677
 20
1121.70368448
 30
0.0
 11
-625.51506954
 21
1113.62698264
 31
0.0
  0
LINE
  5
3BC
100
AcDbEntity
  8
ZUWAKU
  6
CONTINUOUS
 62
       7
100
AcDbLine
 10
-608.98057734
 20
1123.37161915
 30
0.0
 11
-618.9832095
 21
1113.36898698
 31
0.0
  0
LINE
  5
3BD
100
AcDbEntity
  8
ZUWAKU
  6
CONTINUOUS
 62
       7
100
AcDbLine
 10
-608.20904678
 20
1128.66863311
 30
0.0
 11
-608.73091471
 21
1128.14676517
 31
0.0
  0
LINE
  5
3BE
100
AcDbEntity
  8
ZUWAKU
  6
CONTINUOUS
 62
       7
100
AcDbLine
 10
-620.76352404
 20
1116.11415584
 30
0.0
 11
-622.7078997
 21
1114.16978018
 31
0.0
  0
LINE
  5
3BF
100
AcDbEntity
  8
ZUWAKU
  6
CONTINUOUS
 62
       7
100
AcDbLine
 10
-606.27164042
 20
1128.34329776
 30
0.0
 11
-608.40557937
 21
1126.20935882
 31
0.0
  0
LINE
  5
3C0
100
AcDbEntity
  8
ZUWAKU
  6
CONTINUOUS
 62
       7
100
AcDbLine
 10
-618.7419512
 20
1115.87298698
 30
0.0
 11
-621.02311697
 21
1113.59182122
 31
0.0
  0
LINE
  5
3C1
100
AcDbEntity
  8
ZUWAKU
  6
CONTINUOUS
 62
       7
100
AcDbLine
 10
-596.61992619
 20
1122.1558201
 30
0.0
 11
-604.80210509
 21
1113.9736412
 31
0.0
  0
LINE
  5
3C2
100
AcDbEntity
  8
ZUWAKU
  6
CONTINUOUS
 62
       7
100
AcDbLine
 10
-607.4282427
 20
1115.87298698
 30
0.0
 11
-609.9322427
 21
1113.36898698
 31
0.0
  0
LINE
  5
3C3
100
AcDbEntity
  8
ZUWAKU
  6
CONTINUOUS
 62
       7
100
AcDbLine
 10
-609.11475564
 20
1116.44921574
 30
0.0
 11
-612.1949844
 21
1113.36898698
 31
0.0
  0
LINE
  5
3C4
100
AcDbEntity
  8
ZUWAKU
  6
CONTINUOUS
 62
       7
100
AcDbLine
 10
-608.6622073
 20
1119.16450578
 30
0.0
 11
-611.70845478
 21
1116.11825831
 31
0.0
  0
LINE
  5
3C5
100
AcDbEntity
  8
ZUWAKU
  6
CONTINUOUS
 62
       7
100
AcDbLine
 10
-616.7204678
 20
1113.36898698
 30
0.0
 11
-608.20965896
 21
1121.87979582
 31
0.0
  0
LINE
  5
3C6
100
AcDbEntity
  8
ZUWAKU
  6
CONTINUOUS
 62
       7
100
AcDbLine
 10
-591.86450917
 20
1122.38575372
 30
0.0
 11
-600.86621567
 21
1113.38404721
 31
0.0
  0
LINE
  5
3C7
100
AcDbEntity
  8
ZUWAKU
  6
CONTINUOUS
 62
       7
100
AcDbLine
 10
-592.83702807
 20
1119.15049312
 30
0.0
 11
-597.5500026
 21
1114.43751859
 31
0.0
  0
LINE
  5
3C8
100
AcDbEntity
  8
ZUWAKU
  6
CONTINUOUS
 62
       7
100
AcDbLine
 10
-593.66666667
 20
1116.05811282
 30
0.0
 11
-596.35579251
 21
1113.36898698
 31
0.0
  0
LINE
  5
3C9
100
AcDbEntity
  8
ZUWAKU
  6
CONTINUOUS
 62
       7
100
AcDbLine
 10
-591.58905081
 20
1115.87298698
 30
0.0
 11
-594.09305081
 21
1113.36898698
 31
0.0
  0
LINE
  5
3CA
100
AcDbEntity
  8
ZUWAKU
  6
CONTINUOUS
 62
       7
100
AcDbLine
 10
-583.56769175
 20
1121.63160434
 30
0.0
 11
-591.83030911
 21
1113.36898698
 31
0.0
  0
LINE
  5
3CB
100
AcDbEntity
  8
ZUWAKU
  6
CONTINUOUS
 62
       7
100
AcDbLine
 10
-600.03049183
 20
1121.00799616
 30
0.0
 11
-601.31652466
 21
1119.72196333
 31
0.0
  0
LINE
  5
3CC
100
AcDbEntity
  8
ZUWAKU
  6
CONTINUOUS
 62
       7
100
AcDbLine
 10
-603.86703926
 20
1117.17144872
 30
0.0
 11
-607.669501
 21
1113.36898698
 31
0.0
  0
LINE
  5
3CD
100
AcDbEntity
  8
ZUWAKU
  6
CONTINUOUS
 62
       7
100
AcDbLine
 10
-599.26665737
 20
1117.24634722
 30
0.0
 11
-602.31390205
 21
1114.19910254
 31
0.0
  0
LINE
  5
3CE
100
AcDbEntity
  8
ZUWAKU
  6
CONTINUOUS
 62
       7
100
AcDbLine
 10
-594.12725087
 20
1122.38575372
 30
0.0
 11
-594.43797593
 21
1122.07502866
 31
0.0
  0
LINE
  5
3CF
100
AcDbEntity
  8
ZUWAKU
  6
CONTINUOUS
 62
       7
100
AcDbLine
 10
-595.22022312
 20
1121.29278147
 30
0.0
 11
-597.37147694
 21
1119.14152764
 31
0.0
  0
POINT
  5
3D0
100
AcDbEntity
  8
ZUWAKU
  6
CONTINUOUS
 62
       7
100
AcDbPoint
 10
502.33333333
 20
1106.74443844
 30
0.0
  0
POINT
  5
3D1
100
AcDbEntity
  8
ZUWAKU
  6
CONTINUOUS
 62
       7
100
AcDbPoint
 10
-119.38875969
 20
1106.74443844
 30
0.0
  0
POINT
  5
3D2
100
AcDbEntity
  8
ZUWAKU
  6
CONTINUOUS
 62
       7
100
AcDbPoint
 10
497.33333333
 20
-1080.88101302
 30
0.0
  0
POINT
  5
3D3
100
AcDbEntity
  8
ZUWAKU
  6
CONTINUOUS
 62
       7
100
AcDbPoint
 10
-42.41666667
 20
-1080.88101302
 30
0.0
  0
LINE
  5
3D4
100
AcDbEntity
  8
ZUWAKU
  6
CONTINUOUS
 62
       7
100
AcDbLine
 10
-840.16666667
 20
1227.83333333
 30
0.0
 11
-840.16666667
 21
1187.83333333
 31
0.0
  0
LINE
  5
3D5
100
AcDbEntity
  8
ZUWAKU
  6
CONTINUOUS
 62
       7
100
AcDbLine
 10
-840.16666667
 20
1187.83333333
 30
0.0
 11
-880.16666667
 21
1187.83333333
 31
0.0
  0
LINE
  5
3D6
100
AcDbEntity
  8
ZUWAKU
  6
CONTINUOUS
 62
       7
100
AcDbLine
 10
839.83333333
 20
1187.83333333
 30
0.0
 11
879.83333333
 21
1187.83333333
 31
0.0
  0
LINE
  5
3D7
100
AcDbEntity
  8
ZUWAKU
  6
CONTINUOUS
 62
       7
100
AcDbLine
 10
839.83333333
 20
1187.83333333
 30
0.0
 11
839.83333333
 21
1227.83333333
 31
0.0
  0
LINE
  5
3D8
100
AcDbEntity
  8
ZUWAKU
  6
CONTINUOUS
 62
       7
100
AcDbLine
 10
839.83333333
 20
-1228.16666667
 30
0.0
 11
839.83333333
 21
-1188.16666667
 31
0.0
  0
LINE
  5
3D9
100
AcDbEntity
  8
ZUWAKU
  6
CONTINUOUS
 62
       7
100
AcDbLine
 10
839.83333333
 20
-1188.16666667
 30
0.0
 11
879.83333333
 21
-1188.16666667
 31
0.0
  0
LINE
  5
3DA
100
AcDbEntity
  8
ZUWAKU
  6
CONTINUOUS
 62
       7
100
AcDbLine
 10
-880.35165142
 20
-1188.16666667
 30
0.0
 11
-840.16666667
 21
-1188.16666667
 31
0.0
  0
LINE
  5
3DB
100
AcDbEntity
  8
ZUWAKU
  6
CONTINUOUS
 62
       7
100
AcDbLine
 10
-840.16666667
 20
-1188.44275187
 30
0.0
 11
-840.16666667
 21
-1228.16623892
 31
0.0
  0
LINE
  5
3DC
100
AcDbEntity
  8
ZUWAKU
  6
CONTINUOUS
 62
       7
100
AcDbLine
 10
-564.36298169
 20
1122.7343808
 30
0.0
 11
-573.72837551
 21
1113.36898698
 31
0.0
  0
LINE
  5
3DD
100
AcDbEntity
  8
ZUWAKU
  6
CONTINUOUS
 62
       7
100
AcDbLine
 10
-546.36564069
 20
1115.81366964
 30
0.0
 11
-548.81032334
 21
1113.36898698
 31
0.0
  0
LINE
  5
3DE
100
AcDbEntity
  8
ZUWAKU
  6
CONTINUOUS
 62
       7
100
AcDbLine
 10
-548.59695851
 20
1115.87298698
 30
0.0
 11
-551.10095851
 21
1113.36898698
 31
0.0
  0
LINE
  5
3DF
100
AcDbEntity
  8
ZUWAKU
  6
CONTINUOUS
 62
       7
100
AcDbLine
 10
-550.89381073
 20
1122.62710156
 30
0.0
 11
-553.2195991
 21
1120.30131319
 31
0.0
  0
LINE
  5
3E0
100
AcDbEntity
  8
ZUWAKU
  6
CONTINUOUS
 62
       7
100
AcDbLine
 10
-549.96777544
 20
1121.26250169
 30
0.0
 11
-552.27441218
 21
1118.95586495
 31
0.0
  0
LINE
  5
3E1
100
AcDbEntity
  8
ZUWAKU
  6
CONTINUOUS
 62
       7
100
AcDbLine
 10
-553.52512243
 20
1117.7051547
 30
0.0
 11
-557.86129014
 21
1113.36898698
 31
0.0
  0
LINE
  5
3E2
100
AcDbEntity
  8
ZUWAKU
  6
CONTINUOUS
 62
       7
100
AcDbLine
 10
-552.58194358
 20
1123.17381695
 30
0.0
 11
-556.85659078
 21
1118.89916974
 31
0.0
  0
LINE
  5
3E3
100
AcDbEntity
  8
ZUWAKU
  6
CONTINUOUS
 62
       7
100
AcDbLine
 10
-559.88277354
 20
1115.87298698
 30
0.0
 11
-562.38677354
 21
1113.36898698
 31
0.0
  0
LINE
  5
3E4
100
AcDbEntity
  8
ZUWAKU
  6
CONTINUOUS
 62
       7
100
AcDbLine
 10
-554.42186488
 20
1119.09904741
 30
0.0
 11
-556.74765325
 21
1116.77325904
 31
0.0
  0
LINE
  5
3E5
100
AcDbEntity
  8
ZUWAKU
  6
CONTINUOUS
 62
       7
100
AcDbLine
 10
-557.64792531
 20
1115.87298698
 30
0.0
 11
-560.15192531
 21
1113.36898698
 31
0.0
  0
LINE
  5
3E6
100
AcDbEntity
  8
ZUWAKU
  6
CONTINUOUS
 62
       7
100
AcDbLine
 10
-549.84349488
 20
1119.15193401
 30
0.0
 11
-555.36520565
 21
1113.63022324
 31
0.0
  0
LINE
  5
3E7
100
AcDbEntity
  8
ZUWAKU
  6
CONTINUOUS
 62
       7
100
AcDbLine
 10
-550.83180674
 20
1115.87298698
 30
0.0
 11
-553.14855725
 21
1113.55623647
 31
0.0
  0
LINE
  5
3E8
100
AcDbEntity
  8
ZUWAKU
  6
CONTINUOUS
 62
       7
100
AcDbLine
 10
-562.17340871
 20
1115.87298698
 30
0.0
 11
-564.67740871
 21
1113.36898698
 31
0.0
  0
LINE
  5
3E9
100
AcDbEntity
  8
ZUWAKU
  6
CONTINUOUS
 62
       7
100
AcDbLine
 10
-564.40825694
 20
1115.87298698
 30
0.0
 11
-566.91225694
 21
1113.36898698
 31
0.0
  0
LINE
  5
3EA
100
AcDbEntity
  8
ZUWAKU
  6
CONTINUOUS
 62
       7
100
AcDbLine
 10
-562.82593335
 20
1121.98079398
 30
0.0
 11
-564.52943152
 21
1120.2772958
 31
0.0
  0
LINE
  5
3EB
100
AcDbEntity
  8
ZUWAKU
  6
CONTINUOUS
 62
       7
100
AcDbLine
 10
-566.49634014
 20
1116.07553895
 30
0.0
 11
-568.25344009
 21
1114.318439
 31
0.0
  0
LINE
  5
3EC
100
AcDbEntity
  8
ZUWAKU
  6
CONTINUOUS
 62
       7
100
AcDbLine
 10
-567.63259104
 20
1117.17413628
 30
0.0
 11
-571.13476061
 21
1113.67196671
 31
0.0
  0
LINE
  5
3ED
100
AcDbEntity
  8
ZUWAKU
  6
CONTINUOUS
 62
       7
100
AcDbLine
 10
-566.55491514
 20
1122.77729559
 30
0.0
 11
-570.13259083
 21
1119.1996199
 31
0.0
  0
LINE
  5
3EE
100
AcDbEntity
  8
ZUWAKU
  6
CONTINUOUS
 62
       7
100
AcDbLine
 10
-573.45922374
 20
1115.87298698
 30
0.0
 11
-575.96322374
 21
1113.36898698
 31
0.0
  0
LINE
  5
3EF
100
AcDbEntity
  8
ZUWAKU
  6
CONTINUOUS
 62
       7
100
AcDbLine
 10
-575.74985891
 20
1115.87298698
 30
0.0
 11
-578.25385891
 21
1113.36898698
 31
0.0
  0
LINE
  5
3F0
100
AcDbEntity
  8
ZUWAKU
  6
CONTINUOUS
 62
       7
100
AcDbLine
 10
-576.12550068
 20
1117.73219344
 30
0.0
 11
-580.48870714
 21
1113.36898698
 31
0.0
  0
LINE
  5
3F1
100
AcDbEntity
  8
ZUWAKU
  6
CONTINUOUS
 62
       7
100
AcDbLine
 10
-574.84924286
 20
1121.29908643
 30
0.0
 11
-579.45942344
 21
1116.68890585
 31
0.0
  0
LINE
  5
3F2
100
AcDbEntity
  8
ZUWAKU
  6
CONTINUOUS
 62
       7
100
AcDbLine
 10
-575.62504001
 20
1122.78603098
 30
0.0
 11
-579.04208401
 21
1119.36898698
 31
0.0
  0
LINE
  5
3F3
100
AcDbEntity
  8
ZUWAKU
  6
CONTINUOUS
 62
       7
100
AcDbLine
 10
-583.40671984
 20
1115.00435115
 30
0.0
 11
-585.04208401
 21
1113.36898698
 31
0.0
  0
LINE
  5
3F4
100
AcDbEntity
  8
ZUWAKU
  6
CONTINUOUS
 62
       7
100
AcDbLine
 10
-577.80482571
 20
1122.86898698
 30
0.0
 11
-581.30482571
 21
1119.36898698
 31
0.0
  0
LINE
  5
3F5
100
AcDbEntity
  8
ZUWAKU
  6
CONTINUOUS
 62
       7
100
AcDbLine
 10
-582.11372459
 20
1118.5600881
 30
0.0
 11
-586.65315456
 21
1114.02065813
 31
0.0
  0
LINE
  5
3F6
100
AcDbEntity
  8
ZUWAKU
  6
CONTINUOUS
 62
       7
100
AcDbLine
 10
-580.95576041
 20
1121.98079398
 30
0.0
 11
-588.87387258
 21
1114.06268181
 31
0.0
  0
LINE
  5
3F7
100
AcDbEntity
  8
ZUWAKU
  6
CONTINUOUS
 62
       7
100
AcDbLine
 10
795.83333333
 20
-443.13101302
 30
0.0
 11
839.83333333
 21
-443.13101302
 31
0.0
  0
LINE
  5
3F8
100
AcDbEntity
  8
ZUWAKU
  6
CONTINUOUS
 62
       7
100
AcDbLine
 10
795.83333333
 20
-403.13101302
 30
0.0
 11
839.83333333
 21
-403.13101302
 31
0.0
  0
LINE
  5
3F9
100
AcDbEntity
  8
ZUWAKU
  6
CONTINUOUS
 62
       7
100
AcDbLine
 10
839.83333333
 20
-403.13101302
 30
0.0
 11
839.83333333
 21
-443.13101302
 31
0.0
  0
LINE
  5
3FA
100
AcDbEntity
  8
ZUWAKU
  6
CONTINUOUS
 62
       7
100
AcDbLine
 10
795.83333333
 20
-403.13101302
 30
0.0
 11
795.83333333
 21
-443.13101302
 31
0.0
  0
LINE
  5
3FB
100
AcDbEntity
  8
ZUWAKU
  6
CONTINUOUS
 62
       7
100
AcDbLine
 10
839.83333333
 20
-442.99173446
 30
0.0
 11
839.69405478
 21
-443.13101302
 31
0.0
  0
LINE
  5
3FC
100
AcDbEntity
  8
ZUWAKU
  6
CONTINUOUS
 62
       7
100
AcDbLine
 10
816.35643875
 20
-403.13101302
 30
0.0
 11
795.83333333
 21
-423.65411843
 31
0.0
  0
LINE
  5
3FD
100
AcDbEntity
  8
ZUWAKU
  6
CONTINUOUS
 62
       7
100
AcDbLine
 10
814.09369705
 20
-403.13101302
 30
0.0
 11
795.83333333
 21
-421.39137673
 31
0.0
  0
LINE
  5
3FE
100
AcDbEntity
  8
ZUWAKU
  6
CONTINUOUS
 62
       7
100
AcDbLine
 10
811.83095535
 20
-403.13101302
 30
0.0
 11
795.83333333
 21
-419.12863503
 31
0.0
  0
LINE
  5
3FF
100
AcDbEntity
  8
ZUWAKU
  6
CONTINUOUS
 62
       7
100
AcDbLine
 10
809.56821365
 20
-403.13101302
 30
0.0
 11
795.83333333
 21
-416.86589333
 31
0.0
  0
LINE
  5
400
100
AcDbEntity
  8
ZUWAKU
  6
CONTINUOUS
 62
       7
100
AcDbLine
 10
807.30547195
 20
-403.13101302
 30
0.0
 11
795.83333333
 21
-414.60315163
 31
0.0
  0
LINE
  5
401
100
AcDbEntity
  8
ZUWAKU
  6
CONTINUOUS
 62
       7
100
AcDbLine
 10
805.04273025
 20
-403.13101302
 30
0.0
 11
795.83333333
 21
-412.34040993
 31
0.0
  0
LINE
  5
402
100
AcDbEntity
  8
ZUWAKU
  6
CONTINUOUS
 62
       7
100
AcDbLine
 10
802.77998855
 20
-403.13101302
 30
0.0
 11
795.83333333
 21
-410.07766824
 31
0.0
  0
LINE
  5
403
100
AcDbEntity
  8
ZUWAKU
  6
CONTINUOUS
 62
       7
100
AcDbLine
 10
800.51724685
 20
-403.13101302
 30
0.0
 11
795.83333333
 21
-407.81492654
 31
0.0
  0
LINE
  5
404
100
AcDbEntity
  8
ZUWAKU
  6
CONTINUOUS
 62
       7
100
AcDbLine
 10
798.25450515
 20
-403.13101302
 30
0.0
 11
795.83333333
 21
-405.55218484
 31
0.0
  0
LINE
  5
405
100
AcDbEntity
  8
ZUWAKU
  6
CONTINUOUS
 62
       7
100
AcDbLine
 10
818.61918045
 20
-403.13101302
 30
0.0
 11
795.83333333
 21
-425.91686013
 31
0.0
  0
LINE
  5
406
100
AcDbEntity
  8
ZUWAKU
  6
CONTINUOUS
 62
       7
100
AcDbLine
 10
820.88192215
 20
-403.13101302
 30
0.0
 11
795.83333333
 21
-428.17960183
 31
0.0
  0
LINE
  5
407
100
AcDbEntity
  8
ZUWAKU
  6
CONTINUOUS
 62
       7
100
AcDbLine
 10
823.14466385
 20
-403.13101302
 30
0.0
 11
795.83333333
 21
-430.44234353
 31
0.0
  0
LINE
  5
408
100
AcDbEntity
  8
ZUWAKU
  6
CONTINUOUS
 62
       7
100
AcDbLine
 10
825.40740555
 20
-403.13101302
 30
0.0
 11
795.83333333
 21
-432.70508523
 31
0.0
  0
LINE
  5
409
100
AcDbEntity
  8
ZUWAKU
  6
CONTINUOUS
 62
       7
100
AcDbLine
 10
827.67014725
 20
-403.13101302
 30
0.0
 11
795.83333333
 21
-434.96782693
 31
0.0
  0
LINE
  5
40A
100
AcDbEntity
  8
ZUWAKU
  6
CONTINUOUS
 62
       7
100
AcDbLine
 10
829.93288895
 20
-403.13101302
 30
0.0
 11
795.83333333
 21
-437.23056863
 31
0.0
  0
LINE
  5
40B
100
AcDbEntity
  8
ZUWAKU
  6
CONTINUOUS
 62
       7
100
AcDbLine
 10
832.19563065
 20
-403.13101302
 30
0.0
 11
795.83333333
 21
-439.49331033
 31
0.0
  0
LINE
  5
40C
100
AcDbEntity
  8
ZUWAKU
  6
CONTINUOUS
 62
       7
100
AcDbLine
 10
834.45837235
 20
-403.13101302
 30
0.0
 11
795.83333333
 21
-441.75605203
 31
0.0
  0
LINE
  5
40D
100
AcDbEntity
  8
ZUWAKU
  6
CONTINUOUS
 62
       7
100
AcDbLine
 10
836.72111405
 20
-403.13101302
 30
0.0
 11
796.72111405
 21
-443.13101302
 31
0.0
  0
LINE
  5
40E
100
AcDbEntity
  8
ZUWAKU
  6
CONTINUOUS
 62
       7
100
AcDbLine
 10
838.98385575
 20
-403.13101302
 30
0.0
 11
798.98385575
 21
-443.13101302
 31
0.0
  0
LINE
  5
40F
100
AcDbEntity
  8
ZUWAKU
  6
CONTINUOUS
 62
       7
100
AcDbLine
 10
839.83333333
 20
-404.54427713
 30
0.0
 11
801.24659745
 21
-443.13101302
 31
0.0
  0
LINE
  5
410
100
AcDbEntity
  8
ZUWAKU
  6
CONTINUOUS
 62
       7
100
AcDbLine
 10
839.83333333
 20
-406.80701883
 30
0.0
 11
803.50933915
 21
-443.13101302
 31
0.0
  0
LINE
  5
411
100
AcDbEntity
  8
ZUWAKU
  6
CONTINUOUS
 62
       7
100
AcDbLine
 10
839.83333333
 20
-409.06976053
 30
0.0
 11
805.77208085
 21
-443.13101302
 31
0.0
  0
LINE
  5
412
100
AcDbEntity
  8
ZUWAKU
  6
CONTINUOUS
 62
       7
100
AcDbLine
 10
839.83333333
 20
-411.33250223
 30
0.0
 11
808.03482255
 21
-443.13101302
 31
0.0
  0
LINE
  5
413
100
AcDbEntity
  8
ZUWAKU
  6
CONTINUOUS
 62
       7
100
AcDbLine
 10
839.83333333
 20
-413.59524393
 30
0.0
 11
810.29756425
 21
-443.13101302
 31
0.0
  0
LINE
  5
414
100
AcDbEntity
  8
ZUWAKU
  6
CONTINUOUS
 62
       7
100
AcDbLine
 10
839.83333333
 20
-415.85798563
 30
0.0
 11
812.56030595
 21
-443.13101302
 31
0.0
  0
LINE
  5
415
100
AcDbEntity
  8
ZUWAKU
  6
CONTINUOUS
 62
       7
100
AcDbLine
 10
839.83333333
 20
-418.12072733
 30
0.0
 11
814.82304765
 21
-443.13101302
 31
0.0
  0
LINE
  5
416
100
AcDbEntity
  8
ZUWAKU
  6
CONTINUOUS
 62
       7
100
AcDbLine
 10
839.83333333
 20
-420.38346903
 30
0.0
 11
817.08578935
 21
-443.13101302
 31
0.0
  0
LINE
  5
417
100
AcDbEntity
  8
ZUWAKU
  6
CONTINUOUS
 62
       7
100
AcDbLine
 10
839.83333333
 20
-422.64621073
 30
0.0
 11
819.34853105
 21
-443.13101302
 31
0.0
  0
LINE
  5
418
100
AcDbEntity
  8
ZUWAKU
  6
CONTINUOUS
 62
       7
100
AcDbLine
 10
839.83333333
 20
-424.90895243
 30
0.0
 11
821.61127275
 21
-443.13101302
 31
0.0
  0
LINE
  5
419
100
AcDbEntity
  8
ZUWAKU
  6
CONTINUOUS
 62
       7
100
AcDbLine
 10
839.83333333
 20
-427.17169413
 30
0.0
 11
823.87401445
 21
-443.13101302
 31
0.0
  0
LINE
  5
41A
100
AcDbEntity
  8
ZUWAKU
  6
CONTINUOUS
 62
       7
100
AcDbLine
 10
839.83333333
 20
-429.43443583
 30
0.0
 11
826.13675615
 21
-443.13101302
 31
0.0
  0
LINE
  5
41B
100
AcDbEntity
  8
ZUWAKU
  6
CONTINUOUS
 62
       7
100
AcDbLine
 10
839.83333333
 20
-431.69717753
 30
0.0
 11
828.39949785
 21
-443.13101302
 31
0.0
  0
LINE
  5
41C
100
AcDbEntity
  8
ZUWAKU
  6
CONTINUOUS
 62
       7
100
AcDbLine
 10
839.83333333
 20
-433.95991923
 30
0.0
 11
830.66223955
 21
-443.13101302
 31
0.0
  0
LINE
  5
41D
100
AcDbEntity
  8
ZUWAKU
  6
CONTINUOUS
 62
       7
100
AcDbLine
 10
839.83333333
 20
-436.22266093
 30
0.0
 11
832.92498125
 21
-443.13101302
 31
0.0
  0
LINE
  5
41E
100
AcDbEntity
  8
ZUWAKU
  6
CONTINUOUS
 62
       7
100
AcDbLine
 10
839.83333333
 20
-438.48540263
 30
0.0
 11
835.18772295
 21
-443.13101302
 31
0.0
  0
LINE
  5
41F
100
AcDbEntity
  8
ZUWAKU
  6
CONTINUOUS
 62
       7
100
AcDbLine
 10
839.83333333
 20
-440.74814433
 30
0.0
 11
837.45046465
 21
-443.13101302
 31
0.0
  0
LINE
  5
420
100
AcDbEntity
  8
ZUWAKU
  6
CONTINUOUS
 62
       7
100
AcDbLine
 10
839.83333333
 20
-443.01088603
 30
0.0
 11
839.71320635
 21
-443.13101302
 31
0.0
  0
LINE
  5
421
100
AcDbEntity
  8
ZUWAKU
  6
CONTINUOUS
 62
       7
100
AcDbLine
 10
-728.66666667
 20
-1019.13101302
 30
0.0
 11
-728.66666667
 21
-499.13101302
 31
0.0
  0
LINE
  5
422
100
AcDbEntity
  8
ZUWAKU
  6
CONTINUOUS
 62
       7
100
AcDbLine
 10
-673.16666667
 20
-1019.13101302
 30
0.0
 11
-673.16666667
 21
-499.13101302
 31
0.0
  0
LINE
  5
423
100
AcDbEntity
  8
ZUWAKU
  6
CONTINUOUS
 62
       7
100
AcDbLine
 10
-300.66666667
 20
-1019.13101302
 30
0.0
 11
-300.66666667
 21
-499.13101302
 31
0.0
  0
LINE
  5
424
100
AcDbEntity
  8
ZUWAKU
  6
CONTINUOUS
 62
       7
100
AcDbLine
 10
124.33333333
 20
-1019.13101302
 30
0.0
 11
124.33333333
 21
-499.13101302
 31
0.0
  0
LINE
  5
425
100
AcDbEntity
  8
ZUWAKU
  6
CONTINUOUS
 62
       7
100
AcDbLine
 10
213.33333333
 20
-1019.13101302
 30
0.0
 11
213.33333333
 21
-499.13101302
 31
0.0
  0
POINT
  5
426
100
AcDbEntity
  8
ZUWAKU
  6
CONTINUOUS
 62
       7
100
AcDbPoint
 10
168.83333333
 20
-959.13101302
 30
0.0
  0
POINT
  5
427
100
AcDbEntity
  8
ZUWAKU
  6
CONTINUOUS
 62
       7
100
AcDbPoint
 10
-665.16666667
 20
-959.13101302
 30
0.0
  0
POINT
  5
428
100
AcDbEntity
  8
ZUWAKU
  6
CONTINUOUS
 62
       7
100
AcDbPoint
 10
-292.66666667
 20
-959.13101302
 30
0.0
  0
POINT
  5
429
100
AcDbEntity
  8
ZUWAKU
  6
CONTINUOUS
 62
       7
100
AcDbPoint
 10
221.33333333
 20
-959.13101302
 30
0.0
  0
POINT
  5
42A
100
AcDbEntity
  8
ZUWAKU
  6
CONTINUOUS
 62
       7
100
AcDbPoint
 10
168.83333333
 20
-919.13101302
 30
0.0
  0
POINT
  5
42B
100
AcDbEntity
  8
ZUWAKU
  6
CONTINUOUS
 62
       7
100
AcDbPoint
 10
-665.16666667
 20
-919.13101302
 30
0.0
  0
POINT
  5
42C
100
AcDbEntity
  8
ZUWAKU
  6
CONTINUOUS
 62
       7
100
AcDbPoint
 10
-292.66666667
 20
-919.13101302
 30
0.0
  0
POINT
  5
42D
100
AcDbEntity
  8
ZUWAKU
  6
CONTINUOUS
 62
       7
100
AcDbPoint
 10
221.33333333
 20
-919.13101302
 30
0.0
  0
POINT
  5
42E
100
AcDbEntity
  8
ZUWAKU
  6
CONTINUOUS
 62
       7
100
AcDbPoint
 10
168.83333333
 20
-879.13101302
 30
0.0
  0
POINT
  5
42F
100
AcDbEntity
  8
ZUWAKU
  6
CONTINUOUS
 62
       7
100
AcDbPoint
 10
-665.16666667
 20
-879.13101302
 30
0.0
  0
POINT
  5
430
100
AcDbEntity
  8
ZUWAKU
  6
CONTINUOUS
 62
       7
100
AcDbPoint
 10
-292.66666667
 20
-879.13101302
 30
0.0
  0
POINT
  5
431
100
AcDbEntity
  8
ZUWAKU
  6
CONTINUOUS
 62
       7
100
AcDbPoint
 10
221.33333333
 20
-879.13101302
 30
0.0
  0
POINT
  5
432
100
AcDbEntity
  8
ZUWAKU
  6
CONTINUOUS
 62
       7
100
AcDbPoint
 10
168.83333333
 20
-839.13101302
 30
0.0
  0
POINT
  5
433
100
AcDbEntity
  8
ZUWAKU
  6
CONTINUOUS
 62
       7
100
AcDbPoint
 10
-665.16666667
 20
-839.13101302
 30
0.0
  0
POINT
  5
434
100
AcDbEntity
  8
ZUWAKU
  6
CONTINUOUS
 62
       7
100
AcDbPoint
 10
-292.66666667
 20
-839.13101302
 30
0.0
  0
POINT
  5
435
100
AcDbEntity
  8
ZUWAKU
  6
CONTINUOUS
 62
       7
100
AcDbPoint
 10
221.33333333
 20
-839.13101302
 30
0.0
  0
POINT
  5
436
100
AcDbEntity
  8
ZUWAKU
  6
CONTINUOUS
 62
       7
100
AcDbPoint
 10
168.83333333
 20
-799.13101302
 30
0.0
  0
POINT
  5
437
100
AcDbEntity
  8
ZUWAKU
  6
CONTINUOUS
 62
       7
100
AcDbPoint
 10
-665.16666667
 20
-799.13101302
 30
0.0
  0
POINT
  5
438
100
AcDbEntity
  8
ZUWAKU
  6
CONTINUOUS
 62
       7
100
AcDbPoint
 10
-292.66666667
 20
-799.13101302
 30
0.0
  0
POINT
  5
439
100
AcDbEntity
  8
ZUWAKU
  6
CONTINUOUS
 62
       7
100
AcDbPoint
 10
221.33333333
 20
-799.13101302
 30
0.0
  0
POINT
  5
43A
100
AcDbEntity
  8
ZUWAKU
  6
CONTINUOUS
 62
       7
100
AcDbPoint
 10
168.83333333
 20
-759.13101302
 30
0.0
  0
POINT
  5
43B
100
AcDbEntity
  8
ZUWAKU
  6
CONTINUOUS
 62
       7
100
AcDbPoint
 10
-665.16666667
 20
-759.13101302
 30
0.0
  0
POINT
  5
43C
100
AcDbEntity
  8
ZUWAKU
  6
CONTINUOUS
 62
       7
100
AcDbPoint
 10
-292.66666667
 20
-759.13101302
 30
0.0
  0
POINT
  5
43D
100
AcDbEntity
  8
ZUWAKU
  6
CONTINUOUS
 62
       7
100
AcDbPoint
 10
221.33333333
 20
-759.13101302
 30
0.0
  0
POINT
  5
43E
100
AcDbEntity
  8
ZUWAKU
  6
CONTINUOUS
 62
       7
100
AcDbPoint
 10
168.83333333
 20
-719.13101302
 30
0.0
  0
POINT
  5
43F
100
AcDbEntity
  8
ZUWAKU
  6
CONTINUOUS
 62
       7
100
AcDbPoint
 10
-665.16666667
 20
-719.13101302
 30
0.0
  0
POINT
  5
440
100
AcDbEntity
  8
ZUWAKU
  6
CONTINUOUS
 62
       7
100
AcDbPoint
 10
-292.66666667
 20
-719.13101302
 30
0.0
  0
POINT
  5
441
100
AcDbEntity
  8
ZUWAKU
  6
CONTINUOUS
 62
       7
100
AcDbPoint
 10
221.33333333
 20
-719.13101302
 30
0.0
  0
POINT
  5
442
100
AcDbEntity
  8
ZUWAKU
  6
CONTINUOUS
 62
       7
100
AcDbPoint
 10
168.83333333
 20
-679.13101302
 30
0.0
  0
POINT
  5
443
100
AcDbEntity
  8
ZUWAKU
  6
CONTINUOUS
 62
       7
100
AcDbPoint
 10
-665.16666667
 20
-679.13101302
 30
0.0
  0
POINT
  5
444
100
AcDbEntity
  8
ZUWAKU
  6
CONTINUOUS
 62
       7
100
AcDbPoint
 10
-292.66666667
 20
-679.13101302
 30
0.0
  0
POINT
  5
445
100
AcDbEntity
  8
ZUWAKU
  6
CONTINUOUS
 62
       7
100
AcDbPoint
 10
221.33333333
 20
-679.13101302
 30
0.0
  0
LINE
  5
446
100
AcDbEntity
  8
ZUWAKU
  6
CONTINUOUS
 62
       7
100
AcDbLine
 10
-728.66666667
 20
-1019.13101302
 30
0.0
 11
746.83333333
 21
-1019.13101302
 31
0.0
  0
LINE
  5
447
100
AcDbEntity
  8
ZUWAKU
  6
CONTINUOUS
 62
       7
100
AcDbLine
 10
746.83333333
 20
-1019.13101302
 30
0.0
 11
746.83333333
 21
-499.13101302
 31
0.0
  0
LINE
  5
448
100
AcDbEntity
  8
ZUWAKU
  6
CONTINUOUS
 62
       7
100
AcDbLine
 10
-728.66666667
 20
-979.13101302
 30
0.0
 11
746.83333333
 21
-979.13101302
 31
0.0
  0
LINE
  5
449
100
AcDbEntity
  8
ZUWAKU
  6
CONTINUOUS
 62
       7
100
AcDbLine
 10
-728.66666667
 20
-939.13101302
 30
0.0
 11
746.83333333
 21
-939.13101302
 31
0.0
  0
LINE
  5
44A
100
AcDbEntity
  8
ZUWAKU
  6
CONTINUOUS
 62
       7
100
AcDbLine
 10
-728.66666667
 20
-899.13101302
 30
0.0
 11
746.83333333
 21
-899.13101302
 31
0.0
  0
LINE
  5
44B
100
AcDbEntity
  8
ZUWAKU
  6
CONTINUOUS
 62
       7
100
AcDbLine
 10
-728.66666667
 20
-859.13101302
 30
0.0
 11
746.83333333
 21
-859.13101302
 31
0.0
  0
LINE
  5
44C
100
AcDbEntity
  8
ZUWAKU
  6
CONTINUOUS
 62
       7
100
AcDbLine
 10
-728.66666667
 20
-819.13101302
 30
0.0
 11
746.83333333
 21
-819.13101302
 31
0.0
  0
LINE
  5
44D
100
AcDbEntity
  8
ZUWAKU
  6
CONTINUOUS
 62
       7
100
AcDbLine
 10
-728.66666667
 20
-779.13101302
 30
0.0
 11
746.83333333
 21
-779.13101302
 31
0.0
  0
LINE
  5
44E
100
AcDbEntity
  8
ZUWAKU
  6
CONTINUOUS
 62
       7
100
AcDbLine
 10
-728.66666667
 20
-739.13101302
 30
0.0
 11
746.83333333
 21
-739.13101302
 31
0.0
  0
LINE
  5
44F
100
AcDbEntity
  8
ZUWAKU
  6
CONTINUOUS
 62
       7
100
AcDbLine
 10
-728.66666667
 20
-659.13101302
 30
0.0
 11
746.83333333
 21
-659.13101302
 31
0.0
  0
LINE
  5
450
100
AcDbEntity
  8
ZUWAKU
  6
CONTINUOUS
 62
       7
100
AcDbLine
 10
-728.66666667
 20
-699.13101302
 30
0.0
 11
746.83333333
 21
-699.13101302
 31
0.0
  0
POINT
  5
451
100
AcDbEntity
  8
ZUWAKU
  6
CONTINUOUS
 62
       7
100
AcDbPoint
 10
168.83333333
 20
-639.13101302
 30
0.0
  0
POINT
  5
452
100
AcDbEntity
  8
ZUWAKU
  6
CONTINUOUS
 62
       7
100
AcDbPoint
 10
-665.16666667
 20
-639.13101302
 30
0.0
  0
POINT
  5
453
100
AcDbEntity
  8
ZUWAKU
  6
CONTINUOUS
 62
       7
100
AcDbPoint
 10
-292.66666667
 20
-639.13101302
 30
0.0
  0
POINT
  5
454
100
AcDbEntity
  8
ZUWAKU
  6
CONTINUOUS
 62
       7
100
AcDbPoint
 10
221.33333333
 20
-639.13101302
 30
0.0
  0
POINT
  5
455
100
AcDbEntity
  8
ZUWAKU
  6
CONTINUOUS
 62
       7
100
AcDbPoint
 10
168.83333333
 20
-599.13101302
 30
0.0
  0
POINT
  5
456
100
AcDbEntity
  8
ZUWAKU
  6
CONTINUOUS
 62
       7
100
AcDbPoint
 10
-665.16666667
 20
-599.13101302
 30
0.0
  0
POINT
  5
457
100
AcDbEntity
  8
ZUWAKU
  6
CONTINUOUS
 62
       7
100
AcDbPoint
 10
-292.66666667
 20
-599.13101302
 30
0.0
  0
POINT
  5
458
100
AcDbEntity
  8
ZUWAKU
  6
CONTINUOUS
 62
       7
100
AcDbPoint
 10
221.33333333
 20
-599.13101302
 30
0.0
  0
LINE
  5
459
100
AcDbEntity
  8
ZUWAKU
  6
CONTINUOUS
 62
       7
100
AcDbLine
 10
-728.66666667
 20
-579.13101302
 30
0.0
 11
746.83333333
 21
-579.13101302
 31
0.0
  0
LINE
  5
45A
100
AcDbEntity
  8
ZUWAKU
  6
CONTINUOUS
 62
       7
100
AcDbLine
 10
-728.66666667
 20
-619.13101302
 30
0.0
 11
746.83333333
 21
-619.13101302
 31
0.0
  0
POINT
  5
45B
100
AcDbEntity
  8
ZUWAKU
  6
CONTINUOUS
 62
       7
100
AcDbPoint
 10
168.83333333
 20
-559.13101302
 30
0.0
  0
POINT
  5
45C
100
AcDbEntity
  8
ZUWAKU
  6
CONTINUOUS
 62
       7
100
AcDbPoint
 10
-665.16666667
 20
-559.13101302
 30
0.0
  0
POINT
  5
45D
100
AcDbEntity
  8
ZUWAKU
  6
CONTINUOUS
 62
       7
100
AcDbPoint
 10
-292.66666667
 20
-559.13101302
 30
0.0
  0
POINT
  5
45E
100
AcDbEntity
  8
ZUWAKU
  6
CONTINUOUS
 62
       7
100
AcDbPoint
 10
221.33333333
 20
-559.13101302
 30
0.0
  0
POINT
  5
45F
100
AcDbEntity
  8
ZUWAKU
  6
CONTINUOUS
 62
       7
100
AcDbPoint
 10
168.83333333
 20
-519.13101302
 30
0.0
  0
POINT
  5
460
100
AcDbEntity
  8
ZUWAKU
  6
CONTINUOUS
 62
       7
100
AcDbPoint
 10
-665.16666667
 20
-519.13101302
 30
0.0
  0
POINT
  5
461
100
AcDbEntity
  8
ZUWAKU
  6
CONTINUOUS
 62
       7
100
AcDbPoint
 10
-292.66666667
 20
-519.13101302
 30
0.0
  0
POINT
  5
462
100
AcDbEntity
  8
ZUWAKU
  6
CONTINUOUS
 62
       7
100
AcDbPoint
 10
221.33333333
 20
-519.13101302
 30
0.0
  0
LINE
  5
463
100
AcDbEntity
  8
ZUWAKU
  6
CONTINUOUS
 62
       7
100
AcDbLine
 10
-728.66666667
 20
-499.13101302
 30
0.0
 11
746.83333333
 21
-499.13101302
 31
0.0
  0
LINE
  5
464
100
AcDbEntity
  8
ZUWAKU
  6
CONTINUOUS
 62
       7
100
AcDbLine
 10
-728.66666667
 20
-539.13101302
 30
0.0
 11
746.83333333
 21
-539.13101302
 31
0.0
  0
TEXT
  5
465
100
AcDbEntity
  8
ZUWAKU
 62
       7
100
AcDbText
 10
-672.57616791
 20
-1108.63101302
 30
0.0
 40
27.2
  1
株式会社
 41
0.6667
 72
       5
 11
-585.53616791
 21
-1108.63101302
 31
0.0
100
AcDbText
  0
TEXT
  5
466
100
AcDbEntity
  8
ZUWAKU
 62
       7
100
AcDbText
 10
593.29545485
 20
-1173.17863601
 30
0.0
 40
32.0
  1
080422
 41
0.8
 72
       5
 11
746.89545485
 21
-1173.17863601
 31
0.0
100
AcDbText
  0
TEXT
  5
467
100
AcDbEntity
  8
ZUWAKU
 62
       7
100
AcDbText
 10
-312.67062414
 20
-1039.4938856
 30
0.0
 40
19.992
  1
品 名
 41
0.8
  7
FDASTYLE1
100
AcDbText
  0
TEXT
  5
468
100
AcDbEntity
  8
ZUWAKU
 62
       7
100
AcDbText
 10
227.34728287
 20
-1039.63465735
 30
0.0
 40
19.992
  1
品　番
 41
0.8
  7
FDASTYLE1
100
AcDbText
  0
TEXT
  5
469
100
AcDbEntity
  8
ZUWAKU
 62
       7
100
AcDbText
 10
795.89126799
 20
-448.65328497
 30
0.0
 40
32.0
  1
洗面台
 50
-90.0
 41
0.75
 72
       5
 11
795.89126799
 21
-525.45328497
 31
0.0
100
AcDbText
  0
TEXT
  5
46A
100
AcDbEntity
  8
ZUWAKU
 62
       7
100
AcDbText
 10
-714.97263731
 20
-974.81128023
 30
0.0
 40
32.0
  1
1
 41
0.8
 72
       5
 11
-689.37263731
 21
-974.81128023
 31
0.0
100
AcDbText
  0
TEXT
  5
46B
100
AcDbEntity
  8
ZUWAKU
 62
       7
100
AcDbText
 10
-714.97263731
 20
-934.81128023
 30
0.0
 40
32.0
  1
2
 41
0.8
 72
       5
 11
-689.37263731
 21
-934.81128023
 31
0.0
100
AcDbText
  0
TEXT
  5
46C
100
AcDbEntity
  8
ZUWAKU
 62
       7
100
AcDbText
 10
-714.97263731
 20
-894.81128023
 30
0.0
 40
32.0
  1
3
 41
0.8
 72
       5
 11
-689.37263731
 21
-894.81128023
 31
0.0
100
AcDbText
  0
TEXT
  5
46D
100
AcDbEntity
  8
ZUWAKU
 62
       7
100
AcDbText
 10
-714.97263731
 20
-854.81128023
 30
0.0
 40
32.0
  1
4
 41
0.8
 72
       5
 11
-689.37263731
 21
-854.81128023
 31
0.0
100
AcDbText
  0
TEXT
  5
46E
100
AcDbEntity
  8
ZUWAKU
 62
       7
100
AcDbText
 10
-714.97263731
 20
-814.81128023
 30
0.0
 40
32.0
  1
5
 41
0.8
 72
       5
 11
-689.37263731
 21
-814.81128023
 31
0.0
100
AcDbText
  0
TEXT
  5
46F
100
AcDbEntity
  8
ZUWAKU
 62
       7
100
AcDbText
 10
-714.97263731
 20
-774.81128023
 30
0.0
 40
32.0
  1
6
 41
0.8
 72
       5
 11
-689.37263731
 21
-774.81128023
 31
0.0
100
AcDbText
  0
TEXT
  5
470
100
AcDbEntity
  8
ZUWAKU
 62
       7
100
AcDbText
 10
-714.97263731
 20
-734.81128023
 30
0.0
 40
32.0
  1
7
 41
0.8
 72
       5
 11
-689.37263731
 21
-734.81128023
 31
0.0
100
AcDbText
  0
TEXT
  5
471
100
AcDbEntity
  8
ZUWAKU
 62
       7
100
AcDbText
 10
414.81014293
 20
-1014.65341106
 30
0.0
 40
32.0
  1
摘要・仕上
 41
0.7143
 72
       5
 11
542.81014293
 21
-1014.65341106
 31
0.0
100
AcDbText
  0
TEXT
  5
472
100
AcDbEntity
  8
ZUWAKU
 62
       7
100
AcDbText
 10
129.72502368
 20
-1014.65341106
 30
0.0
 40
32.0
  1
個　数
 41
0.75
 72
       5
 11
206.52502368
 21
-1014.65341106
 31
0.0
100
AcDbText
  0
TEXT
  5
473
100
AcDbEntity
  8
ZUWAKU
 62
       7
100
AcDbText
 10
-139.04225073
 20
-1014.65341106
 30
0.0
 40
32.0
  1
材　　質
 41
0.6667
 72
       5
 11
-36.64225073
 21
-1014.65341106
 31
0.0
100
AcDbText
  0
TEXT
  5
474
100
AcDbEntity
  8
ZUWAKU
 62
       7
100
AcDbText
 10
-551.18160881
 20
-1014.65341106
 30
0.0
 40
32.0
  1
部　品　名
 41
0.7143
 72
       5
 11
-423.18160881
 21
-1014.65341106
 31
0.0
100
AcDbText
  0
TEXT
  5
475
100
AcDbEntity
  8
ZUWAKU
 62
       7
100
AcDbText
 10
-727.51851506
 20
-1014.65341106
 30
0.0
 40
32.0
  1
部番
 41
0.6667
 72
       5
 11
-676.31851506
 21
-1014.65341106
 31
0.0
100
AcDbText
  0
TEXT
  5
476
100
AcDbEntity
  8
ZUWAKU
 62
       7
100
AcDbText
 10
-714.97263731
 20
-694.81128023
 30
0.0
 40
32.0
  1
8
 41
0.8
 72
       5
 11
-689.37263731
 21
-694.81128023
 31
0.0
100
AcDbText
  0
TEXT
  5
477
100
AcDbEntity
  8
ZUWAKU
 62
       7
100
AcDbText
 10
-714.97263731
 20
-654.81128023
 30
0.0
 40
32.0
  1
9
 41
0.8
 72
       5
 11
-689.37263731
 21
-654.81128023
 31
0.0
100
AcDbText
  0
TEXT
  5
478
100
AcDbEntity
  8
ZUWAKU
 62
       7
100
AcDbText
 10
-727.40088001
 20
-614.2952062
 30
0.0
 40
32.0
  1
10
 41
0.8
 72
       5
 11
-676.20088001
 21
-614.2952062
 31
0.0
100
AcDbText
  0
TEXT
  5
479
100
AcDbEntity
  8
ZUWAKU
 62
       7
100
AcDbText
 10
-727.40088001
 20
-534.2952062
 30
0.0
 40
32.0
  1
12
 41
0.8
 72
       5
 11
-676.20088001
 21
-534.2952062
 31
0.0
100
AcDbText
  0
TEXT
  5
47A
100
AcDbEntity
  8
ZUWAKU
 62
       7
100
AcDbText
 10
-727.40088001
 20
-574.2952062
 30
0.0
 40
32.0
  1
11
 41
0.8
 72
       5
 11
-676.20088001
 21
-574.2952062
 31
0.0
100
AcDbText
  0
TEXT
  5
47B
100
AcDbEntity
  8
LAYER0240
 62
       7
100
AcDbText
 10
382.13333333
 20
-1096.88101302
 30
0.0
 40
32.0
  1
SB.K450.GS
 41
0.8
 72
       5
 11
638.13333333
 21
-1096.88101302
 31
0.0
100
AcDbText
  0
TEXT
  5
47C
100
AcDbEntity
  8
LAYER0240
 62
       7
100
AcDbText
 10
-170.41666667
 20
-1096.88101302
 30
0.0
 40
32.0
  1
アラペ置き型手洗器
 41
0.6923
 72
       5
 11
59.98333333
 21
-1096.88101302
 31
0.0
100
AcDbText
  0
TEXT
  5
47D
100
AcDbEntity
  8
LAYER0240
 62
       7
100
AcDbText
 10
-235.41666667
 20
1089.91356169
 30
0.0
 40
32.0
  1
アラペ置き型手洗器
 41
0.6923
 72
       5
 11
-5.01666667
 21
1089.91356169
 31
0.0
100
AcDbText
  0
TEXT
  5
47E
100
AcDbEntity
  8
LAYER0240
 62
       7
100
AcDbText
 10
382.13333333
 20
1089.91356169
 30
0.0
 40
32.0
  1
SB.K450.GS
 41
0.8
 72
       5
 11
638.13333333
 21
1089.91356169
 31
0.0
100
AcDbText
  0
TEXT
  5
47F
100
AcDbEntity
  8
LAYER0240
 62
       7
100
AcDbText
 10
425.42890173
 20
-362.0016545
 30
0.0
 40
32.0
  1
重量　5.0ｋｇ
 41
0.7273
 72
       5
 11
630.22890173
 21
-362.0016545
 31
0.0
100
AcDbText
  0
TEXT
  5
480
100
AcDbEntity
  8
LAYER0240
 62
       7
100
AcDbText
 10
425.42890173
 20
-402.0016545
 30
0.0
 40
32.0
  1
容量　9.7Ｌ
 41
0.7778
 72
       5
 11
604.62890173
 21
-402.0016545
 31
0.0
100
AcDbText
  0
TEXT
  5
481
100
AcDbEntity
  8
LAYER0240
 62
       7
100
AcDbText
 10
-665.16666667
 20
-975.13101302
 30
0.0
 40
32.0
  1
洗面台本体
 41
0.7143
 72
       5
 11
-537.16666667
 21
-975.13101302
 31
0.0
100
AcDbText
  0
TEXT
  5
482
100
AcDbEntity
  8
LAYER0240
 62
       7
100
AcDbText
 10
-292.66666667
 20
-975.13101302
 30
0.0
 40
32.0
  1
ホーローホワイト
 41
0.6667
 72
       5
 11
-87.86666667
 21
-975.13101302
 31
0.0
100
AcDbText
  0
TEXT
  5
483
100
AcDbEntity
  8
LAYER0240
 62
       7
100
AcDbText
 10
156.03333333
 20
-975.13101302
 30
0.0
 40
32.0
  1
１
 41
0.8
 72
       5
 11
181.63333333
 21
-975.13101302
 31
0.0
100
AcDbText
  0
TEXT
  5
484
100
AcDbEntity
  8
LAYER0240
 62
       7
100
AcDbText
 10
156.03333333
 20
-935.13101302
 30
0.0
 40
32.0
  1
１
 41
0.8
 72
       5
 11
181.63333333
 21
-935.13101302
 31
0.0
100
AcDbText
  0
TEXT
  5
485
100
AcDbEntity
  8
LAYER0240
 62
       7
100
AcDbText
 10
156.03333333
 20
-855.13101302
 30
0.0
 40
32.0
  1
1
 41
0.8
 72
       5
 11
181.63333333
 21
-855.13101302
 31
0.0
100
AcDbText
  0
TEXT
  5
486
100
AcDbEntity
  8
LAYER0240
 62
       7
100
AcDbText
 10
156.03333333
 20
-895.13101302
 30
0.0
 40
32.0
  1
１
 41
0.8
 72
       5
 11
181.63333333
 21
-895.13101302
 31
0.0
100
AcDbText
  0
TEXT
  5
487
100
AcDbEntity
  8
LAYER0240
 62
       7
100
AcDbText
 10
-665.16666667
 20
-895.13101302
 30
0.0
 40
32.0
  1
排水パッキン
 41
0.6667
 72
       5
 11
-511.56666667
 21
-895.13101302
 31
0.0
100
AcDbText
  0
TEXT
  5
488
100
AcDbEntity
  8
LAYER0240
 62
       7
100
AcDbText
 10
-665.16666667
 20
-815.13101302
 30
0.0
 40
32.0
  1
ベースリング
 41
0.6667
 72
       5
 11
-511.56666667
 21
-815.13101302
 31
0.0
100
AcDbText
  0
TEXT
  5
489
100
AcDbEntity
  8
LAYER0240
 62
       7
100
AcDbText
 10
156.03333333
 20
-815.13101302
 30
0.0
 40
32.0
  1
1
 41
0.8
 72
       5
 11
181.63333333
 21
-815.13101302
 31
0.0
100
AcDbText
  0
TEXT
  5
48A
100
AcDbEntity
  8
LAYER0240
 62
       7
100
AcDbText
 10
-665.16666667
 20
-775.13101302
 30
0.0
 40
32.0
  1
樹脂ワッシャ
 41
0.6667
 72
       5
 11
-511.56666667
 21
-775.13101302
 31
0.0
100
AcDbText
  0
TEXT
  5
48B
100
AcDbEntity
  8
LAYER0240
 62
       7
100
AcDbText
 10
156.03333333
 20
-775.13101302
 30
0.0
 40
32.0
  1
1
 41
0.8
 72
       5
 11
181.63333333
 21
-775.13101302
 31
0.0
100
AcDbText
  0
TEXT
  5
48C
100
AcDbEntity
  8
LAYER0240
 62
       7
100
AcDbText
 10
156.03333333
 20
-735.13101302
 30
0.0
 40
32.0
  1
1
 41
0.8
 72
       5
 11
181.63333333
 21
-735.13101302
 31
0.0
100
AcDbText
  0
TEXT
  5
48D
100
AcDbEntity
  8
LAYER0240
 62
       7
100
AcDbText
 10
-665.16666667
 20
-735.13101302
 30
0.0
 40
32.0
  1
固定ナット
 41
0.7143
 72
       5
 11
-537.16666667
 21
-735.13101302
 31
0.0
100
AcDbText
  0
TEXT
  5
48E
100
AcDbEntity
  8
LAYER0240
 62
       7
100
AcDbText
 10
-292.66666667
 20
-895.13101302
 30
0.0
 40
32.0
  1
合成ゴム
 41
0.6667
 72
       5
 11
-190.26666667
 21
-895.13101302
 31
0.0
100
AcDbText
  0
TEXT
  5
48F
100
AcDbEntity
  8
LAYER0240
 62
       7
100
AcDbText
 10
-292.66666667
 20
-775.13101302
 30
0.0
 40
32.0
  1
PP
 41
0.8
 72
       5
 11
-241.46666667
 21
-775.13101302
 31
0.0
100
AcDbText
  0
TEXT
  5
490
100
AcDbEntity
  8
LAYER0240
 62
       7
100
AcDbText
 10
-665.16666667
 20
-855.13101302
 30
0.0
 40
32.0
  1
施工補助ナット
 41
0.7
 72
       5
 11
-485.96666667
 21
-855.13101302
 31
0.0
100
AcDbText
  0
TEXT
  5
491
100
AcDbEntity
  8
LAYER0240
 62
       7
100
AcDbText
 10
-292.66666667
 20
-855.13101302
 30
0.0
 40
32.0
  1
ABS
 41
0.8
 72
       5
 11
-215.86666667
 21
-855.13101302
 31
0.0
100
AcDbText
  0
TEXT
  5
492
100
AcDbEntity
  8
LAYER0240
 62
       7
100
AcDbText
 10
156.03333333
 20
-855.13101302
 30
0.0
 40
32.0
  1
1
 41
0.8
 72
       5
 11
181.63333333
 21
-855.13101302
 31
0.0
100
AcDbText
  0
TEXT
  5
493
100
AcDbEntity
  8
LAYER0240
 62
       7
100
AcDbText
 10
-665.16666667
 20
-935.13101302
 30
0.0
 40
32.0
  1
排水金具
 41
0.6667
 72
       5
 11
-562.76666667
 21
-935.13101302
 31
0.0
100
AcDbText
  0
TEXT
  5
494
100
AcDbEntity
  8
LAYER0240
 62
       7
100
AcDbText
 10
156.03333333
 20
-655.13101302
 30
0.0
 40
32.0
  1
1
 41
0.8
 72
       5
 11
181.63333333
 21
-655.13101302
 31
0.0
100
AcDbText
  0
TEXT
  5
495
100
AcDbEntity
  8
LAYER0240
 62
       7
100
AcDbText
 10
-665.16666667
 20
-655.13101302
 30
0.0
 40
32.0
  1
排水メッキ栓（大）
 41
0.6923
 72
       5
 11
-434.76666667
 21
-655.13101302
 31
0.0
100
AcDbText
  0
TEXT
  5
496
100
AcDbEntity
  8
LAYER0240
 62
       7
100
AcDbText
 10
-292.66666667
 20
-655.13101302
 30
0.0
 40
32.0
  1
ABS
 41
0.8
 72
       5
 11
-215.86666667
 21
-655.13101302
 31
0.0
100
AcDbText
  0
TEXT
  5
497
100
AcDbEntity
  8
LAYER0240
 62
       7
100
AcDbText
 10
221.33333333
 20
-655.13101302
 30
0.0
 40
32.0
  1
クロムメッキ
 41
0.6667
 72
       5
 11
374.93333333
 21
-655.13101302
 31
0.0
100
AcDbText
  0
TEXT
  5
498
100
AcDbEntity
  8
LAYER0240
 62
       7
100
AcDbText
 10
-666.14565285
 20
-695.3091059
 30
0.0
 40
32.0
  1
ヘアキャッチ
 41
0.6667
 72
       5
 11
-512.54565285
 21
-695.3091059
 31
0.0
100
AcDbText
  0
TEXT
  5
499
100
AcDbEntity
  8
LAYER0240
 62
       7
100
AcDbText
 10
-293.64565285
 20
-695.3091059
 30
0.0
 40
32.0
  1
PP
 41
0.8
 72
       5
 11
-242.44565285
 21
-695.3091059
 31
0.0
100
AcDbText
  0
TEXT
  5
49A
100
AcDbEntity
  8
LAYER0240
 62
       7
100
AcDbText
 10
155.05434715
 20
-695.3091059
 30
0.0
 40
32.0
  1
1
 41
0.8
 72
       5
 11
180.65434715
 21
-695.3091059
 31
0.0
100
AcDbText
  0
TEXT
  5
49B
100
AcDbEntity
  8
LAYER0240
 62
       7
100
AcDbText
 10
-292.66666667
 20
-935.13101302
 30
0.0
 40
32.0
  1
PP
 41
0.8
 72
       5
 11
-241.46666667
 21
-935.13101302
 31
0.0
100
AcDbText
  0
TEXT
  5
49C
100
AcDbEntity
  8
LAYER0240
 62
       7
100
AcDbText
 10
-292.66666667
 20
-815.13101302
 30
0.0
 40
32.0
  1
BS
 41
0.8
 72
       5
 11
-241.46666667
 21
-815.13101302
 31
0.0
100
AcDbText
  0
TEXT
  5
49D
100
AcDbEntity
  8
LAYER0240
 62
       7
100
AcDbText
 10
-292.66666667
 20
-735.13101302
 30
0.0
 40
32.0
  1
ABS
 41
0.8
 72
       5
 11
-215.86666667
 21
-735.13101302
 31
0.0
100
AcDbText
  0
TEXT
  5
49E
100
AcDbEntity
  8
LAYER0240
 62
       7
100
AcDbText
 10
221.33333333
 20
-735.13101302
 30
0.0
 40
32.0
  1
クロムメッキ
 41
0.6667
 72
       5
 11
374.93333333
 21
-735.13101302
 31
0.0
100
AcDbText
  0
TEXT
  5
49F
100
AcDbEntity
  8
LAYER0240
 62
       7
100
AcDbText
 10
221.33333333
 20
-815.13101302
 30
0.0
 40
32.0
  1
クロムメッキ
 41
0.6667
 72
       5
 11
374.93333333
 21
-815.13101302
 31
0.0
100
AcDbText
  0
TEXT
  5
4A0
100
AcDbEntity
  8
LAYER0240
 62
       7
100
AcDbText
 10
221.33333333
 20
-855.13101302
 30
0.0
 40
32.0
  1
着色
 41
0.6667
 72
       5
 11
272.53333333
 21
-855.13101302
 31
0.0
100
AcDbText
  0
TEXT
  5
4A1
100
AcDbEntity
  8
LAYER0240
 62
       7
100
AcDbText
 10
221.33333333
 20
-535.13101302
 30
0.0
 40
32.0
  1
日本語版／英語版
 41
0.6667
 72
       5
 11
426.13333333
 21
-535.13101302
 31
0.0
100
AcDbText
  0
TEXT
  5
4A2
100
AcDbEntity
  8
LAYER0240
 62
       7
100
AcDbText
 10
156.03333333
 20
-615.13101302
 30
0.0
 40
32.0
  1
1
 41
0.8
 72
       5
 11
181.63333333
 21
-615.13101302
 31
0.0
100
AcDbText
  0
TEXT
  5
4A3
100
AcDbEntity
  8
LAYER0240
 62
       7
100
AcDbText
 10
-666.14565285
 20
-615.3091059
 30
0.0
 40
32.0
  1
排水ナット
 41
0.7143
 72
       5
 11
-538.14565285
 21
-615.3091059
 31
0.0
100
AcDbText
  0
TEXT
  5
4A4
100
AcDbEntity
  8
LAYER0240
 62
       7
100
AcDbText
 10
-665.16666667
 20
-575.13101302
 30
0.0
 40
32.0
  1
ゴムワッシャ
 41
0.6667
 72
       5
 11
-511.56666667
 21
-575.13101302
 31
0.0
100
AcDbText
  0
TEXT
  5
4A5
100
AcDbEntity
  8
LAYER0240
 62
       7
100
AcDbText
 10
-666.14565285
 20
-535.3091059
 30
0.0
 40
32.0
  1
施工説明書
 41
0.7143
 72
       5
 11
-538.14565285
 21
-535.3091059
 31
0.0
100
AcDbText
  0
TEXT
  5
4A6
100
AcDbEntity
  8
LAYER0240
 62
       7
100
AcDbText
 10
-292.66666667
 20
-575.13101302
 30
0.0
 40
32.0
  1
合成ゴム
 41
0.6667
 72
       5
 11
-190.26666667
 21
-575.13101302
 31
0.0
100
AcDbText
  0
TEXT
  5
4A7
100
AcDbEntity
  8
LAYER0240
 62
       7
100
AcDbText
 10
-293.64565285
 20
-535.3091059
 30
0.0
 40
32.0
  1
　　―
 41
0.75
 72
       5
 11
-216.84565285
 21
-535.3091059
 31
0.0
100
AcDbText
  0
TEXT
  5
4A8
100
AcDbEntity
  8
LAYER0240
 62
       7
100
AcDbText
 10
142.25434715
 20
-535.3091059
 30
0.0
 40
32.0
  1
各1
 41
0.8
 72
       5
 11
193.45434715
 21
-535.3091059
 31
0.0
100
AcDbText
  0
TEXT
  5
4A9
100
AcDbEntity
  8
LAYER0240
 62
       7
100
AcDbText
 10
156.03333333
 20
-575.13101302
 30
0.0
 40
32.0
  1
1
 41
0.8
 72
       5
 11
181.63333333
 21
-575.13101302
 31
0.0
100
AcDbText
  0
TEXT
  5
4AA
100
AcDbEntity
  8
LAYER0240
 62
       7
100
AcDbText
 10
-292.37986619
 20
-618.47329908
 30
0.0
 40
32.0
  1
ZDC
 41
0.8
 72
       5
 11
-215.57986619
 21
-618.47329908
 31
0.0
100
AcDbText
  0
TEXT
  5
4AB
100
AcDbEntity
  8
LAYER0240
 62
       7
100
AcDbText
 10
222.59911999
 20
-618.2952062
 30
0.0
 40
32.0
  1
ニッケルメッキ
 41
0.7
 72
       5
 11
401.79911999
 21
-618.2952062
 31
0.0
100
AcDbText
  0
LINE
  5
4AC
100
AcDbEntity
  8
0
  6
CENTER
 62
       7
100
AcDbLine
 10
288.60349138
 20
166.64123021
 30
0.0
 11
288.60349138
 21
-59.53216374
 31
0.0
  0
LINE
  5
4AD
100
AcDbEntity
  8
0
  6
CENTER
 62
       7
100
AcDbLine
 10
-41.19405459
 20
614.69702261
 30
0.0
 11
-577.49151475
 21
614.69702261
 31
0.0
  0
LINE
  5
4AE
100
AcDbEntity
  8
0
  6
CENTER
 62
       7
100
AcDbLine
 10
-311.24338275
 20
885.3497059
 30
0.0
 11
-311.24338275
 21
347.93959542
 31
0.0
  0
LINE
  5
4AF
100
AcDbEntity
  8
0
  6
CENTER
 62
       7
100
AcDbLine
 10
-311.24338275
 20
166.64123021
 30
0.0
 11
-311.24338275
 21
-59.53216374
 31
0.0
  0
ARC
  5
4B0
100
AcDbEntity
  8
0
  6
CONTINUOUS
 62
       7
100
AcDbCircle
 10
258.82598503
 20
64.13148107
 30
0.0
 40
50.0
100
AcDbArc
 50
257.05030982
 51
258.96108871
  0
ARC
  5
4B1
100
AcDbEntity
  8
0
  6
CONTINUOUS
 62
       7
100
AcDbCircle
 10
318.38099772
 20
64.13148107
 30
0.0
 40
50.0
100
AcDbArc
 50
281.03891129
 51
282.94969018
  0
ARC
  5
4B2
100
AcDbEntity
  8
0
  6
CONTINUOUS
 62
       7
100
AcDbCircle
 10
329.66082554
 20
6.31147083
 30
0.0
 40
8.91
100
AcDbArc
 50
101.03891129
 51
127.3
  0
ARC
  5
4B3
100
AcDbEntity
  8
0
  6
CONTINUOUS
 62
       7
100
AcDbCircle
 10
247.54615721
 20
6.31147083
 30
0.0
 40
8.91
100
AcDbArc
 50
52.7
 51
78.96108871
  0
CIRCLE
  5
4B4
100
AcDbEntity
  8
0
  6
CONTINUOUS
 62
       7
100
AcDbCircle
 10
-311.24338275
 20
614.69702261
 30
0.0
 40
40.01558678
  0
CIRCLE
  5
4B5
100
AcDbEntity
  8
0
  6
CONTINUOUS
 62
       7
100
AcDbCircle
 10
-311.24338275
 20
614.69702261
 30
0.0
 40
34.74899492
  0
CIRCLE
  5
4B6
100
AcDbEntity
  8
0
  6
CONTINUOUS
 62
       7
100
AcDbCircle
 10
-311.24338275
 20
614.69702261
 30
0.0
 40
24.0
  0
LINE
  5
4B7
100
AcDbEntity
  8
0
  6
CONTINUOUS
 62
       7
100
AcDbLine
 10
288.60349138
 20
136.05200521
 30
0.0
 11
513.60349138
 21
136.05200521
 31
0.0
  0
CIRCLE
  5
4B8
100
AcDbEntity
  8
0
  6
CONTINUOUS
 62
       7
100
AcDbCircle
 10
-311.24338275
 20
614.69702261
 30
0.0
 40
225.0
  0
LINE
  5
4B9
100
AcDbEntity
  8
0
  6
CONTINUOUS
 62
       7
100
AcDbLine
 10
288.60349138
 20
136.05200521
 30
0.0
 11
63.60349138
 21
136.05200521
 31
0.0
  0
ARC
  5
4BA
100
AcDbEntity
  8
0
  6
CONTINUOUS
 62
       7
100
AcDbCircle
 10
292.98128719
 20
271.8929442
 30
0.0
 40
259.08862902
100
AcDbArc
 50
278.12201917
 51
328.37866828
  0
ARC
  5
4BB
100
AcDbEntity
  8
0
  6
CONTINUOUS
 62
       7
100
AcDbCircle
 10
284.22569556
 20
271.8929442
 30
0.0
 40
259.08862902
100
AcDbArc
 50
211.62133172
 51
261.87798083
  0
ARC
  5
4BC
100
AcDbEntity
  8
0
  6
CONTINUOUS
 62
       7
100
AcDbCircle
 10
-341.02088909
 20
64.13148107
 30
0.0
 40
50.0
100
AcDbArc
 50
257.05030982
 51
258.96108871
  0
ARC
  5
4BD
100
AcDbEntity
  8
0
  6
CONTINUOUS
 62
       7
100
AcDbCircle
 10
-281.4658764
 20
64.13148107
 30
0.0
 40
50.0
100
AcDbArc
 50
281.03891129
 51
282.94969018
  0
ARC
  5
4BE
100
AcDbEntity
  8
0
  6
CONTINUOUS
 62
       7
100
AcDbCircle
 10
-270.18604858
 20
6.31147083
 30
0.0
 40
8.91
100
AcDbArc
 50
101.03891129
 51
127.3
  0
ARC
  5
4BF
100
AcDbEntity
  8
0
  6
CONTINUOUS
 62
       7
100
AcDbCircle
 10
-352.30071692
 20
6.31147083
 30
0.0
 40
8.91
100
AcDbArc
 50
52.7
 51
78.96108871
  0
LINE
  5
4C0
100
AcDbEntity
  8
0
  6
CONTINUOUS
 62
       7
100
AcDbLine
 10
-346.90136027
 20
13.39913954
 30
0.0
 11
-339.10572016
 21
7.46045322
 31
0.0
  0
LINE
  5
4C1
100
AcDbEntity
  8
0
  6
CONTINUOUS
 62
       7
100
AcDbLine
 10
-283.38104534
 20
7.46045322
 30
0.0
 11
-275.58540523
 21
13.39913954
 31
0.0
  0
ARC
  5
4C2
100
AcDbEntity
  8
0
  6
CONTINUOUS
 62
       7
100
AcDbCircle
 10
-287.24338275
 20
12.05200521
 30
0.0
 40
6.0
100
AcDbArc
 50
270.0
 51
310.06999042
  0
ARC
  5
4C3
100
AcDbEntity
  8
0
  6
CONTINUOUS
 62
       7
100
AcDbCircle
 10
-335.24338275
 20
12.05200521
 30
0.0
 40
6.0
100
AcDbArc
 50
229.93000958
 51
270.0
  0
LINE
  5
4C4
100
AcDbEntity
  8
0
  6
CONTINUOUS
 62
       7
100
AcDbLine
 10
-283.38104534
 20
7.46045322
 30
0.0
 11
-339.10572016
 21
7.46045322
 31
0.0
  0
LINE
  5
4C5
100
AcDbEntity
  8
0
  6
CONTINUOUS
 62
       7
100
AcDbLine
 10
-287.24338275
 20
6.05200521
 30
0.0
 11
-335.24338275
 21
6.05200521
 31
0.0
  0
LINE
  5
4C6
100
AcDbEntity
  8
0
  6
CONTINUOUS
 62
       7
100
AcDbLine
 10
-311.24338275
 20
136.05200521
 30
0.0
 11
-86.24338275
 21
136.05200521
 31
0.0
  0
LINE
  5
4C7
100
AcDbEntity
  8
0
  6
CONTINUOUS
 62
       7
100
AcDbLine
 10
-311.24338275
 20
136.05200521
 30
0.0
 11
-536.24338275
 21
136.05200521
 31
0.0
  0
ARC
  5
4C8
100
AcDbEntity
  8
0
  6
CONTINUOUS
 62
       7
100
AcDbCircle
 10
-306.86558694
 20
271.8929442
 30
0.0
 40
259.08862902
100
AcDbArc
 50
278.12201917
 51
328.37866828
  0
ARC
  5
4C9
100
AcDbEntity
  8
0
  6
CONTINUOUS
 62
       7
100
AcDbCircle
 10
-315.62117856
 20
271.8929442
 30
0.0
 40
259.08862902
100
AcDbArc
 50
211.62133172
 51
261.87798083
  0
LINE
  5
4CA
100
AcDbEntity
  8
0
  6
CONTINUOUS
 62
       7
100
AcDbLine
 10
308.46715938
 20
-36.94799479
 30
0.0
 11
308.46715938
 21
3.05200521
 31
0.0
  0
LINE
  5
4CB
100
AcDbEntity
  8
0
  6
CONTINUOUS
 62
       7
100
AcDbLine
 10
268.74223138
 20
-36.94799479
 30
0.0
 11
268.74223138
 21
3.05200521
 31
0.0
  0
LINE
  5
4CC
100
AcDbEntity
  8
0
  6
DASHED2
 62
       7
100
AcDbLine
 10
252.94551385
 20
13.39913954
 30
0.0
 11
260.74115396
 21
7.46045322
 31
0.0
  0
LINE
  5
4CD
100
AcDbEntity
  8
0
  6
DASHED2
 62
       7
100
AcDbLine
 10
316.46582879
 20
7.46045322
 30
0.0
 11
324.2614689
 21
13.39913954
 31
0.0
  0
ARC
  5
4CE
100
AcDbEntity
  8
0
  6
DASHED2
 62
       7
100
AcDbCircle
 10
312.60349138
 20
12.05200521
 30
0.0
 40
6.0
100
AcDbArc
 50
270.0
 51
310.06999042
  0
ARC
  5
4CF
100
AcDbEntity
  8
0
  6
DASHED2
 62
       7
100
AcDbCircle
 10
264.60349138
 20
12.05200521
 30
0.0
 40
6.0
100
AcDbArc
 50
229.93000958
 51
270.0
  0
LINE
  5
4D0
100
AcDbEntity
  8
0
  6
DASHED2
 62
       7
100
AcDbLine
 10
316.46582879
 20
7.46045322
 30
0.0
 11
260.74115396
 21
7.46045322
 31
0.0
  0
LINE
  5
4D1
100
AcDbEntity
  8
0
  6
DASHED2
 62
       7
100
AcDbLine
 10
312.60349138
 20
6.05200521
 30
0.0
 11
264.60349138
 21
6.05200521
 31
0.0
  0
CIRCLE
  5
4D2
100
AcDbEntity
  8
0
  6
DASHED2
 62
       7
100
AcDbCircle
 10
-311.24338275
 20
614.69702261
 30
0.0
 40
39.19026858
  0
CIRCLE
  5
4D3
100
AcDbEntity
  8
0
  6
DASHED2
 62
       7
100
AcDbCircle
 10
-311.24338275
 20
614.69702261
 30
0.0
 40
26.52296566
  0
LINE
  5
4D4
100
AcDbEntity
  8
0
  6
DASHED2
 62
       7
100
AcDbLine
 10
262.56851322
 20
16.91166753
 30
0.0
 11
314.63846953
 21
16.91166753
 31
0.0
  0
LINE
  5
4D5
100
AcDbEntity
  8
0
  6
DASHED2
 62
       7
100
AcDbLine
 10
314.63846953
 20
15.50640688
 30
0.0
 11
314.63846953
 21
16.91166753
 31
0.0
  0
LINE
  5
4D6
100
AcDbEntity
  8
0
  6
DASHED2
 62
       7
100
AcDbLine
 10
262.56851322
 20
15.50640688
 30
0.0
 11
262.56851322
 21
16.91166753
 31
0.0
  0
LINE
  5
4D7
100
AcDbEntity
  8
0
  6
DASHED2
 62
       7
100
AcDbLine
 10
269.43591892
 20
15.50640688
 30
0.0
 11
269.43591892
 21
3.05200521
 31
0.0
  0
ARC
  5
4D8
100
AcDbEntity
  8
0
  6
DASHED2
 62
       7
100
AcDbCircle
 10
288.60349138
 20
-77.80070599
 30
0.0
 40
98.22552512
100
AcDbArc
 50
74.62989304
 51
105.37010696
  0
LINE
  5
4D9
100
AcDbEntity
  8
0
  6
DASHED2
 62
       7
100
AcDbLine
 10
262.56851322
 20
15.50640688
 30
0.0
 11
314.63846953
 21
15.50640688
 31
0.0
  0
LINE
  5
4DA
100
AcDbEntity
  8
0
  6
DASHED2
 62
       7
100
AcDbLine
 10
307.77106383
 20
15.50640688
 30
0.0
 11
307.77106383
 21
3.05200521
 31
0.0
  0
LINE
  5
4DB
100
AcDbEntity
  8
0
  6
DIVIDE
 62
       7
100
AcDbLine
 10
71.05666429
 20
3.05200521
 30
0.0
 11
551.95630751
 21
3.05200521
 31
0.0
  0
LINE
  5
4DC
100
AcDbEntity
  8
0
  6
DIVIDE
 62
       7
100
AcDbLine
 10
71.05666429
 20
-36.94799479
 30
0.0
 11
551.95630751
 21
-36.94799479
 31
0.0
  0
LINE
  5
4DD
100
AcDbEntity
  8
0
  6
DIVIDE
 62
       7
100
AcDbLine
 10
311.10349138
 20
3.05200521
 30
0.0
 11
311.10349138
 21
-36.94799479
 31
0.0
  0
LINE
  5
4DE
100
AcDbEntity
  8
0
  6
DIVIDE
 62
       7
100
AcDbLine
 10
266.10349138
 20
3.05200521
 30
0.0
 11
266.10349138
 21
-36.94799479
 31
0.0
  0
POINT
  5
4DF
100
AcDbEntity
  8
LAYER0001
  6
DASHED2
 62
       7
100
AcDbPoint
 10
288.60349138
 20
10.75200521
 30
0.0
  0
POINT
  5
4E0
100
AcDbEntity
  8
LAYER0001
  6
CONTINUOUS
 62
       7
100
AcDbPoint
 10
288.60349138
 20
131.05200521
 30
0.0
  0
POINT
  5
4E1
100
AcDbEntity
  8
LAYER0001
  6
CONTINUOUS
 62
       7
100
AcDbPoint
 10
-311.24338275
 20
10.75200521
 30
0.0
  0
POINT
  5
4E2
100
AcDbEntity
  8
LAYER0001
  6
CONTINUOUS
 62
       7
100
AcDbPoint
 10
-311.24338275
 20
131.05200521
 30
0.0
  0
LINE
  5
4E3
100
AcDbEntity
  8
LAYER0001
  6
CONTINUOUS
 62
       7
100
AcDbLine
 10
330.86137838
 20
3.05200521
 30
0.0
 11
330.86137838
 21
13.75935921
 31
0.0
  0
LINE
  5
4E4
100
AcDbEntity
  8
LAYER0001
  6
CONTINUOUS
 62
       7
100
AcDbLine
 10
246.34440038
 20
13.75935921
 30
0.0
 11
330.86137838
 21
13.75935921
 31
0.0
  0
LINE
  5
4E5
100
AcDbEntity
  8
LAYER0001
  6
CONTINUOUS
 62
       7
100
AcDbLine
 10
246.34440038
 20
3.05200521
 30
0.0
 11
330.86137838
 21
3.05200521
 31
0.0
  0
LINE
  5
4E6
100
AcDbEntity
  8
LAYER0001
  6
CONTINUOUS
 62
       7
100
AcDbLine
 10
246.34440038
 20
3.05200521
 30
0.0
 11
246.34440038
 21
13.75935921
 31
0.0
  0
LINE
  5
4E7
100
AcDbEntity
  8
LAYER0001
  6
CONTINUOUS
 62
       7
100
AcDbLine
 10
310.07085238
 20
3.05200521
 30
0.0
 11
310.07085238
 21
-36.94799479
 31
0.0
  0
LINE
  5
4E8
100
AcDbEntity
  8
LAYER0001
  6
CONTINUOUS
 62
       7
100
AcDbLine
 10
267.13613038
 20
3.05200521
 30
0.0
 11
267.13613038
 21
-36.94799479
 31
0.0
  0
INSERT
  5
4E9
100
AcDbEntity
  8
0
  6
CONTINUOUS
100
AcDbBlockReference
  2
DA_IMAGEDIMGROUP_1
 10
0.0
 20
0.0
 30
0.0
  0
INSERT
  5
4EA
100
AcDbEntity
  8
0
  6
CONTINUOUS
100
AcDbBlockReference
  2
DA_IMAGEDIMGROUP_2
 10
0.0
 20
0.0
 30
0.0
  0
INSERT
  5
4EB
100
AcDbEntity
  8
0
  6
CONTINUOUS
100
AcDbBlockReference
  2
DA_IMAGEDIMGROUP_3
 10
0.0
 20
0.0
 30
0.0
  0
INSERT
  5
4EC
100
AcDbEntity
  8
0
  6
CONTINUOUS
100
AcDbBlockReference
  2
DA_IMAGEDIMGROUP_4
 10
0.0
 20
0.0
 30
0.0
  0
INSERT
  5
4ED
100
AcDbEntity
  8
0
  6
CONTINUOUS
100
AcDbBlockReference
  2
DA_IMAGEDIMGROUP_5
 10
0.0
 20
0.0
 30
0.0
  0
INSERT
  5
4EE
100
AcDbEntity
  8
0
  6
CONTINUOUS
100
AcDbBlockReference
  2
DA_IMAGEDIMGROUP_6
 10
0.0
 20
0.0
 30
0.0
  0
INSERT
  5
4EF
100
AcDbEntity
  8
0
  6
CONTINUOUS
100
AcDbBlockReference
  2
DA_IMAGEDIMGROUP_7
 10
0.0
 20
0.0
 30
0.0
  0
INSERT
  5
4F0
100
AcDbEntity
  8
0
  6
CENTER
100
AcDbBlockReference
  2
GROUP_1
 10
0.0
 20
0.0
 30
0.0
  0
INSERT
  5
4F1
100
AcDbEntity
  8
0
  6
CENTER
100
AcDbBlockReference
  2
GROUP_2
 10
0.0
 20
0.0
 30
0.0
  0
INSERT
  5
4F2
100
AcDbEntity
  8
0
  6
CENTER
100
AcDbBlockReference
  2
GROUP_3
 10
0.0
 20
0.0
 30
0.0
  0
INSERT
  5
4F3
100
AcDbEntity
  8
0
  6
CENTER
100
AcDbBlockReference
  2
GROUP_4
 10
0.0
 20
0.0
 30
0.0
  0
INSERT
  5
4F4
100
AcDbEntity
  8
0
  6
CENTER
100
AcDbBlockReference
  2
GROUP_5
 10
0.0
 20
0.0
 30
0.0
  0
INSERT
  5
4F5
100
AcDbEntity
  8
0
  6
DIVIDE
100
AcDbBlockReference
  2
GROUP_6
 10
0.0
 20
0.0
 30
0.0
  0
ENDSEC
  0
SECTION
  2
OBJECTS
  0
DICTIONARY
  5
19
100
AcDbDictionary
  3
ACAD_GROUP
350
1A
  3
ACAD_MLINESTYLE
350
1B
  0
DICTIONARY
  5
1A
102
{ACAD_REACTORS
330
19
102
}
100
AcDbDictionary
  0
DICTIONARY
  5
1B
102
{ACAD_REACTORS
330
19
102
}
100
AcDbDictionary
  3
STANDARD
350
1C
  0
MLINESTYLE
  5
1C
102
{ACAD_REACTORS
330
1B
102
}
100
AcDbMlineStyle
  2
STANDARD
 70
       0
  3

 62
       0
 51
90.0
 52
90.0
 71
       2
 49
0.5
 62
     256
  6
BYLAYER
 49
-0.5
 62
     256
  6
BYLAYER
  0
ENDSEC
  0
EOF
