  0
SECTION
  2
HEADER
  9
$ACADVER
  1
AC1009
  9
$INSBASE
 10
0.0
 20
0.0
 30
0.0
  9
$EXTMIN
 10
0.0614953
 20
0.272164
 30
0.0
  9
$EXTMAX
 10
210.06399999999999
 20
297.27399999999989
 30
0.0
  9
$LIMMIN
 10
0.0
 20
0.0
  9
$LIMMAX
 10
12.0
 20
9.0
  9
$ORTHOMODE
 70
     0
  9
$REGENMODE
 70
     1
  9
$FILLMODE
 70
     1
  9
$QTEXTMODE
 70
     0
  9
$MIRRTEXT
 70
     1
  9
$DRAGMODE
 70
     2
  9
$LTSCALE
 40
1.0
  9
$OSMODE
 70
    37
  9
$ATTMODE
 70
     1
  9
$TEXTSIZE
 40
0.0
  9
$TRACEWID
 40
0.05
  9
$TEXTSTYLE
  7
STANDARD
  9
$CLAYER
  8
0
  9
$CELTYPE
  6
CONTINUOUS
  9
$CECOLOR
 62
   256
  9
$DIMSCALE
 40
1.0
  9
$DIMASZ
 40
0.18
  9
$DIMEXO
 40
0.0625
  9
$DIMDLI
 40
0.38
  9
$DIMRND
 40
0.0
  9
$DIMDLE
 40
0.0
  9
$DIMEXE
 40
0.18
  9
$DIMTP
 40
0.0
  9
$DIMTM
 40
0.0
  9
$DIMTXT
 40
0.18
  9
$DIMCEN
 40
0.09
  9
$DIMTSZ
 40
0.0
  9
$DIMTOL
 70
     0
  9
$DIMLIM
 70
     0
  9
$DIMTIH
 70
     1
  9
$DIMTOH
 70
     1
  9
$DIMSE1
 70
     0
  9
$DIMSE2
 70
     0
  9
$DIMTAD
 70
     0
  9
$DIMZIN
 70
     0
  9
$DIMBLK
  1

  9
$DIMASO
 70
     1
  9
$DIMSHO
 70
     1
  9
$DIMPOST
  1

  9
$DIMAPOST
  1

  9
$DIMALT
 70
     0
  9
$DIMALTD
 70
     2
  9
$DIMALTF
 40
25.399999999999999
  9
$DIMLFAC
 40
1.0
  9
$DIMTOFL
 70
     0
  9
$DIMTVP
 40
0.0
  9
$DIMTIX
 70
     0
  9
$DIMSOXD
 70
     0
  9
$DIMSAH
 70
     0
  9
$DIMBLK1
  1

  9
$DIMBLK2
  1

  9
$DIMSTYLE
  2
STANDARD
  9
$DIMCLRD
 70
     0
  9
$DIMCLRE
 70
     0
  9
$DIMCLRT
 70
     0
  9
$DIMTFAC
 40
1.0
  9
$DIMGAP
 40
0.09
  9
$LUNITS
 70
     2
  9
$LUPREC
 70
     4
  9
$SKETCHINC
 40
0.1
  9
$FILLETRAD
 40
0.0
  9
$AUNITS
 70
     0
  9
$AUPREC
 70
     0
  9
$MENU
  1
.
  9
$ELEVATION
 40
0.0
  9
$PELEVATION
 40
0.0
  9
$THICKNESS
 40
0.0
  9
$LIMCHECK
 70
     0
  9
$BLIPMODE
 70
     0
  9
$CHAMFERA
 40
0.0
  9
$CHAMFERB
 40
0.0
  9
$SKPOLY
 70
     0
  9
$TDCREATE
 40
2444972.375
  9
$TDUPDATE
 40
2456309.4441030668
  9
$TDINDWG
 40
0.0000072222
  9
$TDUSRTIMER
 40
0.0000072222
  9
$USRTIMER
 70
     1
  9
$ANGBASE
 50
0.0
  9
$ANGDIR
 70
     0
  9
$PDMODE
 70
     0
  9
$PDSIZE
 40
0.0
  9
$PLINEWID
 40
0.0
  9
$COORDS
 70
     1
  9
$SPLFRAME
 70
     0
  9
$SPLINETYPE
 70
     6
  9
$SPLINESEGS
 70
     8
  9
$ATTDIA
 70
     0
  9
$ATTREQ
 70
     1
  9
$HANDLING
 70
     1
  9
$HANDSEED
  5
224
  9
$SURFTAB1
 70
     6
  9
$SURFTAB2
 70
     6
  9
$SURFTYPE
 70
     6
  9
$SURFU
 70
     6
  9
$SURFV
 70
     6
  9
$UCSNAME
  2

  9
$UCSORG
 10
0.0
 20
0.0
 30
0.0
  9
$UCSXDIR
 10
1.0
 20
0.0
 30
0.0
  9
$UCSYDIR
 10
0.0
 20
1.0
 30
0.0
  9
$PUCSNAME
  2

  9
$PUCSORG
 10
0.0
 20
0.0
 30
0.0
  9
$PUCSXDIR
 10
1.0
 20
0.0
 30
0.0
  9
$PUCSYDIR
 10
0.0
 20
1.0
 30
0.0
  9
$USERI1
 70
     0
  9
$USERI2
 70
     0
  9
$USERI3
 70
     0
  9
$USERI4
 70
     0
  9
$USERI5
 70
     0
  9
$USERR1
 40
0.0
  9
$USERR2
 40
0.0
  9
$USERR3
 40
0.0
  9
$USERR4
 40
0.0
  9
$USERR5
 40
0.0
  9
$WORLDVIEW
 70
     1
  9
$SHADEDGE
 70
     3
  9
$SHADEDIF
 70
    70
  9
$TILEMODE
 70
     1
  9
$MAXACTVP
 70
    48
  9
$PLIMCHECK
 70
     0
  9
$PEXTMIN
 10
1.0000000000000000E+020
 20
1.0000000000000000E+020
 30
1.0000000000000000E+020
  9
$PEXTMAX
 10
-1.0000000000000000E+020
 20
-1.0000000000000000E+020
 30
-1.0000000000000000E+020
  9
$PLIMMIN
 10
0.0
 20
0.0
  9
$PLIMMAX
 10
12.0
 20
9.0
  9
$UNITMODE
 70
     0
  9
$VISRETAIN
 70
     1
  9
$PLINEGEN
 70
     0
  9
$PSLTSCALE
 70
     1
  0
ENDSEC
  0
SECTION
  2
TABLES
  0
TABLE
  2
VPORT
 70
     2
  0
VPORT
  2
*ACTIVE
 70
     0
 10
0.0
 20
0.0
 11
1.0
 21
1.0
 12
210.13847447279559
 22
148.63699999999989
 13
0.0
 23
0.0
 14
1.0
 24
1.0
 15
0.0
 25
0.0
 16
0.0
 26
0.0
 36
1.0
 17
0.0
 27
0.0
 37
0.0
 40
299.52040302267
 41
2.2894736842105261
 42
50.0
 43
0.0
 44
0.0
 50
0.0
 51
0.0
 71
     0
 72
   100
 73
     1
 74
     1
 75
     0
 76
     0
 77
     0
 78
     0
  0
ENDTAB
  0
TABLE
  2
LTYPE
 70
     4
  0
LTYPE
  2
CONTINUOUS
 70
     0
  3
Solid line
 72
    65
 73
     0
 40
0.0
  0
LTYPE
  2
AIGENLINE001
 70
     0
  3
generate AI->DXF Converter
 72
    65
 73
     4
 40
5.8561449999999988
 49
3.5278
 49
-0.776115
 49
0.776115
 49
-0.776115
  0
LTYPE
  2
AIGENLINE002
 70
     0
  3
generate AI->DXF Converter
 72
    65
 73
     2
 40
1.5522299999999991
 49
0.776115
 49
-0.776115
  0
LTYPE
  2
AIGENLINE003
 70
     0
  3
generate AI->DXF Converter
 72
    65
 73
     6
 40
7.4083750000000004
 49
3.5278
 49
-0.776115
 49
0.776115
 49
-0.776115
 49
0.776115
 49
-0.776115
  0
ENDTAB
  0
TABLE
  2
LAYER
 70
     2
  0
LAYER
  2
0
 70
     0
 62
     7
  6
CONTINUOUS
  0
LAYER
  2
_________2
 70
     0
 62
     7
  6
CONTINUOUS
  0
ENDTAB
  0
TABLE
  2
STYLE
 70
     1
  0
STYLE
  2
STANDARD
 70
     0
 40
0.0
 41
0.0
 50
0.0
 71
     0
 42
0.0
  3
TXT
  4
EXTFONT.SHX
  0
ENDTAB
  0
TABLE
  2
VIEW
 70
     0
  0
ENDTAB
  0
TABLE
  2
UCS
 70
     0
  0
ENDTAB
  0
TABLE
  2
APPID
 70
     1
  0
APPID
  2
ACAD
 70
     0
  0
ENDTAB
  0
TABLE
  2
DIMSTYLE
 70
     1
  0
DIMSTYLE
  2
STANDARD
 70
     0
  3

  4

  5

  6

  7

 40
1.0
 41
0.18
 42
0.0625
 43
0.38
 44
0.18
 45
0.0
 46
0.0
 47
0.0
 48
0.0
140
0.18
141
0.09
142
0.0
143
25.399999999999999
144
1.0
145
0.0
146
1.0
147
0.09
 71
     0
 72
     0
 73
     1
 74
     1
 75
     0
 76
     0
 77
     0
 78
     0
170
     0
171
     2
172
     0
173
     0
174
     0
175
     0
176
     0
177
     0
178
     0
  0
ENDTAB
  0
ENDSEC
  0
SECTION
  2
BLOCKS
  0
BLOCK
  8
0
  2
$MODEL_SPACE
 70
     0
 10
0.0
 20
0.0
 30
0.0
  3
$MODEL_SPACE
  1

  0
ENDBLK
  5
1A
  8
0
  0
BLOCK
 67
     1
  8
0
  2
$PAPER_SPACE
 70
     0
 10
0.0
 20
0.0
 30
0.0
  3
$PAPER_SPACE
  1

  0
ENDBLK
  5
17
 67
     1
  8
0
  0
ENDSEC
  0
SECTION
  2
ENTITIES
  0
TEXT
  5
24
  8
0
 62
     7
 10
155.63900000000001
 20
135.02713499999999
 30
0.0
 40
3.0923400000000001
  1
10
 50
90.0
 41
0.5
 72
     2
 11
155.63900000000001
 21
136.83099999999999
 31
0.0
  0
TEXT
  5
25
  8
0
 62
     7
 10
167.57599999999991
 20
192.17699999999999
 30
0.0
 40
3.0923400000000001
  1
R10
 41
0.5
  0
TEXT
  5
26
  8
0
 62
     7
 10
125.1159649999999
 20
192.17699999999999
 30
0.0
 40
3.0923400000000001
  1
R10
 41
0.5
 72
     2
 11
128.46600000000001
 21
192.17699999999999
 31
0.0
  0
TEXT
  5
27
  8
0
 62
     7
 10
49.297400000000003
 20
221.28499999999991
 30
0.0
 40
3.0923400000000001
  1
%%c35
 41
0.5
  0
TEXT
  5
28
  8
0
 62
     7
 10
72.251379999999997
 20
210.0629999999999
 30
0.0
 40
3.0923400000000001
  1
%%c45
 41
0.5
 72
     2
 11
76.374499999999998
 21
210.0629999999999
 31
0.0
  0
TEXT
  5
29
  8
0
 62
     7
 10
142.73500000000001
 20
132.81126999999989
 30
0.0
 40
3.0923400000000001
  1
125
 50
90.0
 41
0.5
 72
     2
 11
142.73500000000001
 21
136.4189999999999
 31
0.0
  0
TEXT
  5
2A
  8
0
 62
     7
 10
140.04475999999991
 20
169.13800000000001
 30
0.0
 40
3.0923400000000001
  1
カウンター切込寸法
 41
0.5
 72
     1
 11
148.29099999999991
 21
169.13800000000001
 31
0.0
  0
TEXT
  5
2B
  8
0
 62
     7
 10
162.877646
 20
221.2359999999999
 30
0.0
 40
3.0923400000000001
  1
洗面器後端
 41
0.5
 72
     1
 11
167.30999999999989
 21
221.2359999999999
 31
0.0
  0
TEXT
  5
2C
  8
0
 62
     7
 10
153.6912874999999
 20
111.70699999999999
 30
0.0
 40
3.0923400000000001
  1
220
 41
0.5
 72
     1
 11
155.624
 21
111.70699999999999
 31
0.0
  0
TEXT
  5
2D
  8
0
 62
     7
 10
61.582487499999999
 20
111.70699999999999
 30
0.0
 40
3.0923400000000001
  1
380
 41
0.5
 72
     1
 11
63.5152
 21
111.70699999999999
 31
0.0
  0
TEXT
  5
2E
  8
0
 62
     7
 10
61.5807875
 20
138.20599999999999
 30
0.0
 40
3.0923400000000001
  1
230
 41
0.5
 72
     1
 11
63.513500000000001
 21
138.20599999999999
 31
0.0
  0
TEXT
  5
2F
  8
0
 62
     7
 10
27.0276
 20
179.98099999999991
 30
0.0
 40
3.0923400000000001
  1
10
 41
0.5
  0
TEXT
  5
30
  8
0
 62
     7
 10
36.043134999999992
 20
175.2109999999999
 30
0.0
 40
3.0923400000000001
  1
145
 41
0.5
 72
     1
 11
37.847000000000001
 21
175.2109999999999
 31
0.0
  0
TEXT
  5
31
  8
0
 62
     7
 10
87.376135000000005
 20
175.2109999999999
 30
0.0
 40
3.0923400000000001
  1
145
 41
0.5
 72
     1
 11
89.180000000000007
 21
175.2109999999999
 31
0.0
  0
TEXT
  5
32
  8
0
 62
     7
 10
27.450700000000001
 20
207.74528749999999
 30
0.0
 40
3.0923400000000001
  1
220
 50
90.0
 41
0.5
 72
     1
 11
27.450700000000001
 21
209.67799999999991
 31
0.0
  0
TEXT
  5
33
  8
0
 62
     7
 10
158.96499999999989
 20
207.74528749999999
 30
0.0
 40
3.0923400000000001
  1
220
 50
90.0
 41
0.5
 72
     1
 11
158.96499999999989
 21
209.67799999999991
 31
0.0
  0
TEXT
  5
34
  8
0
 62
     7
 10
183.95099999999991
 20
200.41128749999999
 30
0.0
 40
3.0923400000000001
  1
440
 50
90.0
 41
0.5
 72
     1
 11
183.95099999999991
 21
202.34399999999999
 31
0.0
  0
TEXT
  5
35
  8
0
 62
     7
 10
146.3842875
 20
179.33699999999999
 30
0.0
 40
3.0923400000000001
  1
870
 41
0.5
 72
     1
 11
148.31700000000001
 21
179.33699999999999
 31
0.0
  0
TEXT
  5
36
  8
0
 62
     7
 10
61.45194
 20
175.2109999999999
 30
0.0
 40
3.0923400000000001
  1
625
 41
0.5
 72
     1
 11
63.513500000000001
 21
175.2109999999999
 31
0.0
  0
TEXT
  5
37
  8
0
 62
     7
 10
61.709634999999999
 20
167.19200000000001
 30
0.0
 40
3.0923400000000001
  1
915
 41
0.5
 72
     1
 11
63.513500000000001
 21
167.19200000000001
 31
0.0
  0
TEXT
  5
38
  8
0
 62
     7
 10
105.529
 20
124.0649824999999
 30
0.0
 40
3.0923400000000001
  1
160
 50
90.0
 41
0.5
 72
     1
 11
105.529
 21
125.73999999999999
 31
0.0
  0
TEXT
  5
39
  8
0
 62
     7
 10
99.043999999999997
 20
133.8160499999999
 30
0.0
 40
3.0923400000000001
  1
55
 50
90.0
 41
0.5
 72
     2
 11
99.043999999999997
 21
136.393
 31
0.0
  0
TEXT
  5
3A
  8
0
 62
     7
 10
112.1389999999999
 20
123.4351349999999
 30
0.0
 40
3.0923400000000001
  1
175
 50
90.0
 41
0.5
 72
     1
 11
112.1389999999999
 21
125.2389999999999
 31
0.0
  0
TEXT
  5
3B
  8
0
 62
     7
 10
105.529
 20
180.5379999999999
 30
0.0
 40
3.0923400000000001
  1
10
 50
90.0
 41
0.5
  0
TEXT
  5
3C
  8
0
 62
     7
 10
29.0716
 20
127.5803725
 30
0.0
 40
3.0923400000000001
  1
70
 50
90.0
 41
0.5
 72
     1
 11
29.0716
 21
128.74000000000001
 31
0.0
  0
TEXT
  5
3D
  8
0
 62
     7
 10
105.529
 20
195.04113499999991
 30
0.0
 40
3.0923400000000001
  1
315
 50
90.0
 41
0.5
 72
     1
 11
105.529
 21
196.84499999999991
 31
0.0
  0
TEXT
  5
3E
  8
0
 62
     7
 10
105.529
 20
210.6699825
 30
0.0
 40
3.0923400000000001
  1
140
 50
90.0
 41
0.5
 72
     1
 11
105.529
 21
212.345
 31
0.0
  0
TEXT
  5
3F
  8
0
 62
     7
 10
99.043800000000005
 20
213.55652499999991
 30
0.0
 40
3.0923400000000001
  1
65
 50
90.0
 41
0.5
 72
     1
 11
99.043800000000005
 21
214.84499999999991
 31
0.0
  0
TEXT
  5
40
  8
0
 62
     7
 10
99.043800000000005
 20
208.88952499999991
 30
0.0
 40
3.0923400000000001
  1
75
 50
90.0
 41
0.5
 72
     1
 11
99.043800000000005
 21
210.178
 31
0.0
  0
TEXT
  5
41
  8
0
 62
     7
 10
112.1389999999999
 20
199.45043999999999
 30
0.0
 40
3.0923400000000001
  1
465
 50
90.0
 41
0.5
 72
     1
 11
112.1389999999999
 21
201.512
 31
0.0
  0
LINE
  5
42
  8
0
 62
     7
 10
156.911
 20
128.19599999999991
 30
0.0
 11
156.3189999999999
 21
130.40599999999989
 31
0.0
  0
LINE
  5
43
  8
0
 62
     7
 10
156.3189999999999
 20
130.40599999999989
 30
0.0
 11
155.727
 21
128.19599999999991
 31
0.0
  0
LINE
  5
44
  8
0
 62
     7
 10
155.727
 20
128.19599999999991
 30
0.0
 11
156.911
 21
128.19599999999991
 31
0.0
  0
LINE
  5
45
  8
0
 62
     7
 10
155.738
 20
133.28399999999999
 30
0.0
 11
156.33000000000001
 21
131.07299999999989
 31
0.0
  0
LINE
  5
46
  8
0
 62
     7
 10
156.33000000000001
 20
131.07299999999989
 30
0.0
 11
156.923
 21
133.28399999999999
 31
0.0
  0
LINE
  5
47
  8
0
 62
     7
 10
156.923
 20
133.28399999999999
 30
0.0
 11
155.738
 21
133.28399999999999
 31
0.0
  0
LINE
  5
48
  8
0
 62
     7
 10
175.8129999999999
 20
189.85599999999991
 30
0.0
 11
176.95699999999991
 21
187.87299999999999
 31
0.0
  0
LINE
  5
49
  8
0
 62
     7
 10
176.95699999999991
 20
187.87299999999999
 30
0.0
 11
174.97399999999999
 21
189.01799999999989
 31
0.0
  0
LINE
  5
4A
  8
0
 62
     7
 10
174.97399999999999
 20
189.01799999999989
 30
0.0
 11
175.8129999999999
 21
189.85599999999991
 31
0.0
  0
LINE
  5
4B
  8
0
 62
     7
 10
176.95699999999991
 20
187.87299999999999
 30
0.0
 11
173.3179999999999
 21
191.51199999999989
 31
0.0
  0
LINE
  5
4C
  8
0
 62
     7
 10
173.3179999999999
 20
191.51199999999989
 30
0.0
 11
167.57599999999991
 21
191.51199999999989
 31
0.0
  0
LINE
  5
4D
  8
0
 62
     7
 10
120.5799999999999
 20
189.85599999999991
 30
0.0
 11
119.435
 21
187.87299999999999
 31
0.0
  0
LINE
  5
4E
  8
0
 62
     7
 10
119.435
 20
187.87299999999999
 30
0.0
 11
121.41800000000001
 21
189.01799999999989
 31
0.0
  0
LINE
  5
4F
  8
0
 62
     7
 10
121.41800000000001
 20
189.01799999999989
 30
0.0
 11
120.5799999999999
 21
189.85599999999991
 31
0.0
  0
LINE
  5
50
  8
0
 62
     7
 10
119.435
 20
187.87299999999999
 30
0.0
 11
123.0739999999999
 21
191.51199999999989
 31
0.0
  0
LINE
  5
51
  8
0
 62
     7
 10
123.0739999999999
 20
191.51199999999989
 30
0.0
 11
128.46600000000001
 21
191.51199999999989
 31
0.0
  0
LINE
  5
52
  8
0
 62
     7
 10
49.297400000000003
 20
220.15199999999999
 30
0.0
 11
56.039700000000003
 21
220.15199999999999
 31
0.0
  0
LINE
  5
53
  8
0
 62
     7
 10
70.132300000000001
 20
208.964
 30
0.0
 11
76.374499999999998
 21
208.964
 31
0.0
  0
LINE
  5
54
  8
0
 62
     7
 10
144.02099999999999
 20
128.86299999999989
 30
0.0
 11
143.429
 21
131.07299999999989
 31
0.0
  0
LINE
  5
55
  8
0
 62
     7
 10
143.429
 20
131.07299999999989
 30
0.0
 11
142.83600000000001
 21
128.86299999999989
 31
0.0
  0
LINE
  5
56
  8
0
 62
     7
 10
142.83600000000001
 20
128.86299999999989
 30
0.0
 11
144.02099999999999
 21
128.86299999999989
 31
0.0
  0
LINE
  5
57
  8
0
 62
     7
 10
142.8479999999999
 20
124.952
 30
0.0
 11
143.43999999999991
 21
122.741
 31
0.0
  0
LINE
  5
58
  8
0
 62
     7
 10
143.43999999999991
 20
122.741
 30
0.0
 11
144.0329999999999
 21
124.952
 31
0.0
  0
LINE
  5
59
  8
0
 62
     7
 10
144.0329999999999
 20
124.952
 30
0.0
 11
142.8479999999999
 21
124.952
 31
0.0
  0
LINE
  5
5A
  8
0
 62
     7
 10
143.435
 20
136.4189999999999
 30
0.0
 11
143.435
 21
122.741
 31
0.0
  0
LINE
  5
5B
  8
0
 62
     7
 10
61.3078
 20
199.3009999999999
 30
0.0
 11
62.45239999999999
 21
201.28399999999999
 31
0.0
  0
LINE
  5
5C
  8
0
 62
     7
 10
62.45239999999999
 20
201.28399999999999
 30
0.0
 11
60.4694
 21
200.1399999999999
 31
0.0
  0
LINE
  5
5D
  8
0
 62
     7
 10
60.4694
 20
200.1399999999999
 30
0.0
 11
61.3078
 21
199.3009999999999
 31
0.0
  0
LINE
  5
5E
  8
0
 62
     7
 10
65.718699999999998
 20
205.3889999999999
 30
0.0
 11
64.573599999999999
 21
203.405
 31
0.0
  0
LINE
  5
5F
  8
0
 62
     7
 10
64.573599999999999
 20
203.405
 30
0.0
 11
66.557100000000005
 21
204.55000000000001
 31
0.0
  0
LINE
  5
60
  8
0
 62
     7
 10
66.557100000000005
 20
204.55000000000001
 30
0.0
 11
65.718699999999998
 21
205.3889999999999
 31
0.0
  0
LINE
  5
61
  8
0
 62
     7
 10
66.320899999999995
 20
210.70799999999991
 30
0.0
 11
64.338300000000004
 21
211.85299999999989
 31
0.0
  0
LINE
  5
62
  8
0
 62
     7
 10
64.338300000000004
 20
211.85299999999989
 30
0.0
 11
65.482399999999984
 21
209.87
 31
0.0
  0
LINE
  5
63
  8
0
 62
     7
 10
65.482399999999984
 20
209.87
 30
0.0
 11
66.320899999999995
 21
210.70799999999991
 31
0.0
  0
LINE
  5
64
  8
0
 62
     7
 10
60.7057
 20
214.64699999999999
 30
0.0
 11
62.68869999999999
 21
213.5029999999999
 31
0.0
  0
LINE
  5
65
  8
0
 62
     7
 10
62.68869999999999
 20
213.5029999999999
 30
0.0
 11
61.5441
 21
215.4859999999999
 31
0.0
  0
LINE
  5
66
  8
0
 62
     7
 10
61.5441
 20
215.4859999999999
 30
0.0
 11
60.7057
 21
214.64699999999999
 31
0.0
  0
LINE
  5
67
  8
0
 62
     7
 10
150.50200000000001
 20
111.65300000000001
 30
0.0
 11
148.29099999999991
 21
111.06100000000001
 31
0.0
  0
LINE
  5
68
  8
0
 62
     7
 10
148.29099999999991
 20
111.06100000000001
 30
0.0
 11
150.50200000000001
 21
110.4679999999999
 31
0.0
  0
LINE
  5
69
  8
0
 62
     7
 10
150.50200000000001
 20
110.4679999999999
 30
0.0
 11
150.50200000000001
 21
111.65300000000001
 31
0.0
  0
LINE
  5
6A
  8
0
 62
     7
 10
160.74600000000001
 20
110.48
 30
0.0
 11
162.95699999999999
 21
111.072
 31
0.0
  0
LINE
  5
6B
  8
0
 62
     7
 10
162.95699999999999
 20
111.072
 30
0.0
 11
160.74600000000001
 21
111.66500000000001
 31
0.0
  0
LINE
  5
6C
  8
0
 62
     7
 10
160.74600000000001
 20
111.66500000000001
 30
0.0
 11
160.74600000000001
 21
110.48
 31
0.0
  0
LINE
  5
6D
  8
0
 62
     7
 10
148.29099999999991
 20
111.0659999999999
 30
0.0
 11
162.95699999999999
 21
111.0659999999999
 31
0.0
  0
LINE
  5
6E
  8
0
 62
     7
 10
169.21199999999999
 20
220.30699999999999
 30
0.0
 11
167.30999999999989
 21
217.011
 31
0.0
  0
LINE
  5
6F
  8
0
 62
     7
 10
167.30999999999989
 20
217.011
 30
0.0
 11
165.40700000000001
 21
220.30699999999999
 31
0.0
  0
LINE
  5
70
  8
0
 62
     7
 10
165.40700000000001
 20
220.30699999999999
 30
0.0
 11
169.21199999999999
 21
220.30699999999999
 31
0.0
  0
LINE
  5
71
  8
0
 62
     7
 10
156.339
 20
136.83099999999999
 30
0.0
 11
156.339
 21
127.761
 31
0.0
  0
LINE
  5
72
  8
0
 62
     7
 10
162.95699999999999
 20
119.75399999999991
 30
0.0
 11
162.95699999999999
 21
110.512
 31
0.0
  0
LINE
  5
73
  8
0
 62
     7
 10
148.29099999999991
 20
117.41500000000001
 30
0.0
 11
148.29099999999991
 21
110.512
 31
0.0
  0
LINE
  5
74
  8
0
 62
     7
 10
151.727
 20
128.07299999999989
 30
0.0
 11
155.7229999999999
 21
128.07299999999989
 31
0.0
  0
LINE
  5
75
  8
0
  6
AIGENLINE001
 62
     7
 10
158.624
 20
132.4439999999999
 30
0.0
 11
158.624
 21
128.4439999999999
 31
0.0
  0
LINE
  5
76
  8
0
  6
AIGENLINE001
 62
     7
 10
148.29099999999991
 20
118.069
 30
0.0
 11
148.29099999999991
 21
132.31399999999991
 31
0.0
  0
LINE
  5
77
  8
0
  6
AIGENLINE001
 62
     7
 10
160.31399999999991
 20
126.407
 30
0.0
 11
164.31399999999999
 21
126.407
 31
0.0
  0
ARC
  5
78
  8
0
  6
AIGENLINE002
 62
     7
 10
154.24425600000001
 20
129.6941379999999
 30
0.0
 40
0.7119830000000001
 50
91.232445000000013
 51
173.772929
  0
ARC
  5
79
  8
0
  6
AIGENLINE002
 62
     7
 10
161.94411199999999
 20
130.75236199999989
 30
0.0
 40
0.34699
 50
272.133464
 51
357.86654599999991
  0
ARC
  5
7A
  8
0
  6
AIGENLINE002
 62
     7
 10
162.63629800000001
 20
130.72752
 30
0.0
 40
0.345642
 50
92.095477999999986
 51
178.0229939999999
  0
ARC
  5
7B
  8
0
 62
     7
 10
138.31678600000001
 20
122.58096499999991
 30
0.0
 40
0.344313
 50
17.424762000000001
 51
35.705334000000001
  0
ARC
  5
7C
  8
0
 62
     7
 10
135.11803699999999
 20
127.06645
 30
0.0
 40
0.339853
 50
36.259770000000003
 51
89.567874000000003
  0
ARC
  5
7D
  8
0
  6
AIGENLINE002
 62
     7
 10
145.27336199999999
 20
122.05570899999999
 30
0.0
 40
0.685324
 50
2.0431469999999998
 51
87.897034999999988
  0
LINE
  5
7E
  8
0
  6
AIGENLINE002
 62
     7
 10
145.958
 20
122.08
 30
0.0
 11
145.958
 21
119.42700000000001
 31
0.0
  0
LINE
  5
7F
  8
0
  6
AIGENLINE002
 62
     7
 10
151.28399999999991
 20
122.741
 30
0.0
 11
152.41200000000001
 21
122.741
 31
0.0
  0
ARC
  5
80
  8
0
  6
AIGENLINE002
 62
     7
 10
151.31030899999999
 20
122.05494899999999
 30
0.0
 40
0.686111
 50
92.164036999999979
 51
177.8957409999999
  0
LINE
  5
81
  8
0
  6
AIGENLINE002
 62
     7
 10
150.625
 20
119.42700000000001
 30
0.0
 11
150.625
 21
122.08
 31
0.0
  0
LINE
  5
82
  8
0
 62
     7
 10
150.95500000000001
 20
119.407
 30
0.0
 11
150.625
 21
119.407
 31
0.0
  0
ARC
  5
83
  8
0
 62
     7
 10
150.954892
 20
119.736469
 30
0.0
 40
0.329394
 50
270.02716400000003
 51
344.52449300000001
  0
ARC
  5
84
  8
0
 62
     7
 10
151.90543099999999
 20
119.4756509999999
 30
0.0
 40
0.656281
 50
89.808666000000002
 51
164.72239799999991
  0
LINE
  5
85
  8
0
 62
     7
 10
151.9079999999999
 20
120.13200000000001
 30
0.0
 11
152.76400000000001
 21
120.13200000000001
 31
0.0
  0
ARC
  5
86
  8
0
 62
     7
 10
152.894938
 20
125.109066
 30
0.0
 40
4.9788489999999994
 50
268.49789599999991
 51
289.189144
  0
LINE
  5
87
  8
0
 62
     7
 10
150.625
 20
119.407
 30
0.0
 11
145.6399999999999
 21
119.407
 31
0.0
  0
LINE
  5
88
  8
0
 62
     7
 10
154.53100000000001
 20
120.407
 30
0.0
 11
162.60900000000001
 21
120.407
 31
0.0
  0
LINE
  5
89
  8
0
  6
AIGENLINE002
 62
     7
 10
151.28399999999991
 20
122.741
 30
0.0
 11
141.59200000000001
 21
122.741
 31
0.0
  0
LINE
  5
8A
  8
0
  6
AIGENLINE002
 62
     7
 10
145.958
 20
122.08
 30
0.0
 11
150.625
 21
122.08
 31
0.0
  0
LINE
  5
8B
  8
0
 62
     7
 10
139.29199999999989
 20
120.66500000000001
 30
0.0
 11
138.64500000000001
 21
122.6839999999999
 31
0.0
  0
ARC
  5
8C
  8
0
 62
     7
 10
139.63551200000001
 20
120.764329
 30
0.0
 40
0.35757
 50
196.089584
 51
268.71642500000002
  0
ARC
  5
8D
  8
0
 62
     7
 10
132.16710599999999
 20
127.614357
 30
0.0
 40
0.208228
 50
182.08002499999989
 51
267.72277400000002
  0
LINE
  5
8E
  8
0
 62
     7
 10
131.959
 20
130.7239999999999
 30
0.0
 11
131.959
 21
127.607
 31
0.0
  0
LINE
  5
8F
  8
0
 62
     7
 10
138.596
 20
122.782
 30
0.0
 11
135.392
 21
127.267
 31
0.0
  0
LINE
  5
90
  8
0
  6
AIGENLINE002
 62
     7
 10
161.95699999999991
 20
130.40599999999989
 30
0.0
 11
159.47599999999991
 21
130.40599999999989
 31
0.0
  0
LINE
  5
91
  8
0
 62
     7
 10
162.60900000000001
 20
131.07299999999989
 30
0.0
 11
162.63499999999991
 21
131.07299999999989
 31
0.0
  0
ARC
  5
92
  8
0
 62
     7
 10
162.59630000000001
 20
130.7124649999999
 30
0.0
 40
0.360696
 50
1.8779490000000001
 51
87.951939999999993
  0
LINE
  5
93
  8
0
 62
     7
 10
162.95699999999999
 20
125.767
 30
0.0
 11
162.95699999999999
 21
130.7239999999999
 31
0.0
  0
LINE
  5
94
  8
0
  6
AIGENLINE002
 62
     7
 10
156.447
 20
130.40599999999989
 30
0.0
 11
154.2289999999999
 21
130.40599999999989
 31
0.0
  0
ARC
  5
95
  8
0
  6
AIGENLINE002
 62
     7
 10
152.39755500000001
 20
123.451887
 30
0.0
 40
0.7114700000000001
 50
271.19010800000001
 51
353.75330000000002
  0
LINE
  5
96
  8
0
 62
     7
 10
145.29199999999989
 20
120.407
 30
0.0
 11
145.29199999999989
 21
119.75399999999991
 31
0.0
  0
ARC
  5
97
  8
0
 62
     7
 10
145.6528209999999
 20
119.767945
 30
0.0
 40
0.361113
 50
182.15871999999999
 51
267.898122
  0
ARC
  5
98
  8
0
  6
AIGENLINE002
 62
     7
 10
141.566124
 20
123.2102009999999
 30
0.0
 40
0.4703560000000001
 50
256.352889
 51
273.18444899999997
  0
ARC
  5
99
  8
0
  6
AIGENLINE002
 62
     7
 10
141.60480399999989
 20
123.454808
 30
0.0
 40
0.7174660000000001
 50
230.29428499999989
 51
257.96028100000001
  0
LINE
  5
9A
  8
0
  6
AIGENLINE002
 62
     7
 10
141.14599999999999
 20
122.90299999999991
 30
0.0
 11
132.68299999999991
 21
130.37700000000001
 31
0.0
  0
LINE
  5
9B
  8
0
 62
     7
 10
135.12100000000001
 20
127.40600000000001
 30
0.0
 11
132.15899999999999
 21
127.40600000000001
 31
0.0
  0
LINE
  5
9C
  8
0
  6
AIGENLINE002
 62
     7
 10
132.62599999999989
 20
130.7239999999999
 30
0.0
 11
132.62599999999989
 21
130.37700000000001
 31
0.0
  0
ARC
  5
9D
  8
0
 62
     7
 10
132.3209469999999
 20
130.71105600000001
 30
0.0
 40
0.362173
 50
92.320358999999996
 51
177.9065249999999
  0
ARC
  5
9E
  8
0
  6
AIGENLINE002
 62
     7
 10
132.26556099999999
 20
130.712907
 30
0.0
 40
0.360265
 50
1.8098879999999999
 51
87.906319999999994
  0
LINE
  5
9F
  8
0
 62
     7
 10
132.27899999999991
 20
131.07299999999989
 30
0.0
 11
132.30600000000001
 21
131.07299999999989
 31
0.0
  0
ARC
  5
A0
  8
0
 62
     7
 10
162.59585999999999
 20
120.76744600000001
 30
0.0
 40
0.361188
 50
272.11505299999999
 51
357.88495699999999
  0
LINE
  5
A1
  8
0
  6
AIGENLINE002
 62
     7
 10
153.536
 20
129.77099999999999
 30
0.0
 11
153.10499999999999
 21
123.374
 31
0.0
  0
LINE
  5
A2
  8
0
 62
     7
 10
135.12100000000001
 20
127.40600000000001
 30
0.0
 11
162.95699999999999
 21
127.40600000000001
 31
0.0
  0
LINE
  5
A3
  8
0
 62
     7
 10
161.62399999999991
 20
122.741
 30
0.0
 11
161.62399999999991
 21
127.40600000000001
 31
0.0
  0
LINE
  5
A4
  8
0
 62
     7
 10
162.60900000000001
 20
131.07299999999989
 30
0.0
 11
132.27899999999991
 21
131.07299999999989
 31
0.0
  0
LINE
  5
A5
  8
0
 62
     7
 10
162.95699999999999
 20
120.75399999999991
 30
0.0
 11
162.95699999999999
 21
125.767
 31
0.0
  0
LINE
  5
A6
  8
0
 62
     7
 10
138.596
 20
122.741
 30
0.0
 11
162.95699999999999
 21
122.741
 31
0.0
  0
LINE
  5
A7
  8
0
 62
     7
 10
139.6279999999999
 20
120.407
 30
0.0
 11
145.29199999999989
 21
120.407
 31
0.0
  0
LINE
  5
A8
  8
0
  6
AIGENLINE002
 62
     7
 10
159.4739999999999
 20
130.40599999999989
 30
0.0
 11
156.447
 21
130.40599999999989
 31
0.0
  0
LINE
  5
A9
  8
0
 62
     7
 10
28.742999999999999
 20
214.798
 30
0.0
 11
28.150700000000001
 21
217.00999999999999
 31
0.0
  0
LINE
  5
AA
  8
0
 62
     7
 10
28.150700000000001
 20
217.00999999999999
 30
0.0
 11
27.558199999999989
 21
214.798
 31
0.0
  0
LINE
  5
AB
  8
0
 62
     7
 10
27.558199999999989
 20
214.798
 30
0.0
 11
28.742999999999999
 21
214.798
 31
0.0
  0
LINE
  5
AC
  8
0
 62
     7
 10
27.566099999999999
 20
204.55499999999989
 30
0.0
 11
28.1587
 21
202.3429999999999
 31
0.0
  0
LINE
  5
AD
  8
0
 62
     7
 10
28.1587
 20
202.3429999999999
 30
0.0
 11
28.751200000000001
 21
204.55499999999989
 31
0.0
  0
LINE
  5
AE
  8
0
 62
     7
 10
28.751200000000001
 20
204.55499999999989
 30
0.0
 11
27.566099999999999
 21
204.55499999999989
 31
0.0
  0
LINE
  5
AF
  8
0
 62
     7
 10
28.150700000000001
 20
217.00999999999999
 30
0.0
 11
28.150700000000001
 21
202.34499999999991
 31
0.0
  0
LINE
  5
B0
  8
0
 62
     7
 10
27.598500000000001
 20
217.011
 30
0.0
 11
32.12919999999999
 21
217.011
 31
0.0
  0
LINE
  5
B1
  8
0
 62
     7
 10
27.598500000000001
 20
202.34499999999991
 30
0.0
 11
59.643900000000002
 21
202.34499999999991
 31
0.0
  0
LINE
  5
B2
  8
0
 62
     7
 10
160.25700000000001
 20
214.798
 30
0.0
 11
159.66499999999991
 21
217.00999999999999
 31
0.0
  0
LINE
  5
B3
  8
0
 62
     7
 10
159.66499999999991
 20
217.00999999999999
 30
0.0
 11
159.072
 21
214.798
 31
0.0
  0
LINE
  5
B4
  8
0
 62
     7
 10
159.072
 20
214.798
 30
0.0
 11
160.25700000000001
 21
214.798
 31
0.0
  0
LINE
  5
B5
  8
0
 62
     7
 10
159.08000000000001
 20
204.55499999999989
 30
0.0
 11
159.67299999999989
 21
202.3429999999999
 31
0.0
  0
LINE
  5
B6
  8
0
 62
     7
 10
159.67299999999989
 20
202.3429999999999
 30
0.0
 11
160.2649999999999
 21
204.55499999999989
 31
0.0
  0
LINE
  5
B7
  8
0
 62
     7
 10
160.2649999999999
 20
204.55499999999989
 30
0.0
 11
159.08000000000001
 21
204.55499999999989
 31
0.0
  0
LINE
  5
B8
  8
0
 62
     7
 10
159.66499999999991
 20
217.00999999999999
 30
0.0
 11
159.66499999999991
 21
202.34499999999991
 31
0.0
  0
LINE
  5
B9
  8
0
 62
     7
 10
152.44399999999999
 20
202.34499999999991
 30
0.0
 11
160.32599999999991
 21
202.34499999999991
 31
0.0
  0
LINE
  5
BA
  8
0
 62
     7
 10
185.23500000000001
 20
214.80000000000001
 30
0.0
 11
184.64199999999991
 21
217.012
 31
0.0
  0
LINE
  5
BB
  8
0
 62
     7
 10
184.64199999999991
 20
217.012
 30
0.0
 11
184.05000000000001
 21
214.80000000000001
 31
0.0
  0
LINE
  5
BC
  8
0
 62
     7
 10
184.05000000000001
 20
214.80000000000001
 30
0.0
 11
185.23500000000001
 21
214.80000000000001
 31
0.0
  0
LINE
  5
BD
  8
0
 62
     7
 10
184.06599999999989
 20
189.88800000000001
 30
0.0
 11
184.6579999999999
 21
187.6759999999999
 31
0.0
  0
LINE
  5
BE
  8
0
 62
     7
 10
184.6579999999999
 20
187.6759999999999
 30
0.0
 11
185.25099999999989
 21
189.88800000000001
 31
0.0
  0
LINE
  5
BF
  8
0
 62
     7
 10
185.25099999999989
 20
189.88800000000001
 30
0.0
 11
184.06599999999989
 21
189.88800000000001
 31
0.0
  0
LINE
  5
C0
  8
0
 62
     7
 10
184.64999999999989
 20
217.011
 30
0.0
 11
184.64999999999989
 21
187.678
 31
0.0
  0
LINE
  5
C1
  8
0
 62
     7
 10
180.86199999999991
 20
217.011
 30
0.0
 11
185.4429999999999
 21
217.011
 31
0.0
  0
LINE
  5
C2
  8
0
 62
     7
 10
177.94399999999999
 20
187.678
 30
0.0
 11
185.4429999999999
 21
187.678
 31
0.0
  0
LINE
  5
C3
  8
0
 62
     7
 10
121.501
 20
179.3609999999999
 30
0.0
 11
119.29000000000001
 21
178.76900000000001
 31
0.0
  0
LINE
  5
C4
  8
0
 62
     7
 10
119.29000000000001
 20
178.76900000000001
 30
0.0
 11
121.501
 21
178.17599999999999
 31
0.0
  0
LINE
  5
C5
  8
0
 62
     7
 10
121.501
 20
178.17599999999999
 30
0.0
 11
121.501
 21
179.3609999999999
 31
0.0
  0
LINE
  5
C6
  8
0
 62
     7
 10
175.07900000000001
 20
178.19200000000001
 30
0.0
 11
177.29099999999991
 21
178.78399999999999
 31
0.0
  0
LINE
  5
C7
  8
0
 62
     7
 10
177.29099999999991
 20
178.78399999999999
 30
0.0
 11
175.07900000000001
 21
179.37700000000001
 31
0.0
  0
LINE
  5
C8
  8
0
 62
     7
 10
175.07900000000001
 20
179.37700000000001
 30
0.0
 11
175.07900000000001
 21
178.19200000000001
 31
0.0
  0
LINE
  5
C9
  8
0
 62
     7
 10
119.2909999999999
 20
178.77699999999999
 30
0.0
 11
177.28999999999991
 21
178.77699999999999
 31
0.0
  0
LINE
  5
CA
  8
0
 62
     7
 10
177.29099999999991
 20
187.02500000000001
 30
0.0
 11
177.29099999999991
 21
178.11500000000001
 31
0.0
  0
LINE
  5
CB
  8
0
 62
     7
 10
119.2919999999999
 20
187.02500000000001
 30
0.0
 11
119.2919999999999
 21
178.11500000000001
 31
0.0
  0
ARC
  5
CC
  8
0
 62
     7
 10
176.59912800000001
 20
188.3695449999999
 30
0.0
 40
0.691887
 50
272.05410599999988
 51
357.91628600000001
  0
LINE
  5
CD
  8
0
 62
     7
 10
180.20899999999989
 20
217.011
 30
0.0
 11
177.29099999999991
 21
217.011
 31
0.0
  0
LINE
  5
CE
  8
0
 62
     7
 10
176.624
 20
187.678
 30
0.0
 11
148.29099999999991
 21
187.678
 31
0.0
  0
LINE
  5
CF
  8
0
 62
     7
 10
177.29099999999991
 20
217.011
 30
0.0
 11
177.29099999999991
 21
188.34399999999999
 31
0.0
  0
ARC
  5
D0
  8
0
 62
     7
 10
119.9313129999999
 20
188.36977300000001
 30
0.0
 40
0.692136
 50
182.101879
 51
267.89815099999993
  0
LINE
  5
D1
  8
0
  6
AIGENLINE003
 62
     7
 10
119.2399999999999
 20
217.011
 30
0.0
 11
177.29099999999991
 21
217.011
 31
0.0
  0
LINE
  5
D2
  8
0
 62
     7
 10
116.321
 20
217.011
 30
0.0
 11
119.2399999999999
 21
217.011
 31
0.0
  0
LINE
  5
D3
  8
0
  6
AIGENLINE001
 62
     7
 10
151.791
 20
202.34499999999991
 30
0.0
 11
144.791
 21
202.34499999999991
 31
0.0
  0
LINE
  5
D4
  8
0
  6
AIGENLINE001
 62
     7
 10
148.29099999999991
 20
218.714
 30
0.0
 11
148.29099999999991
 21
186.102
 31
0.0
  0
ARC
  5
D5
  8
0
  6
AIGENLINE002
 62
     7
 10
148.29102399999999
 20
202.34508700000001
 30
0.0
 40
1.5329909999999991
 50
359.99035299999991
 51
89.990323000000004
  0
ARC
  5
D6
  8
0
  6
AIGENLINE002
 62
     7
 10
148.350303
 20
202.285629
 30
0.0
 40
1.593542
 50
92.122545999999986
 51
177.87098700000001
  0
ARC
  5
D7
  8
0
  6
AIGENLINE002
 62
     7
 10
148.350131
 20
202.40385499999991
 30
0.0
 40
1.593362999999999
 50
182.1230469999999
 51
267.88341899999989
  0
ARC
  5
D8
  8
0
  6
AIGENLINE002
 62
     7
 10
148.232235
 20
202.4033399999999
 30
0.0
 40
1.592856
 50
272.12449399999991
 51
357.8948299999999
  0
LINE
  5
D9
  8
0
 62
     7
 10
119.90600000000001
 20
187.678
 30
0.0
 11
148.29099999999991
 21
187.678
 31
0.0
  0
LINE
  5
DA
  8
0
 62
     7
 10
119.2399999999999
 20
217.011
 30
0.0
 11
119.2399999999999
 21
188.34399999999999
 31
0.0
  0
ARC
  5
DB
  8
0
  6
AIGENLINE002
 62
     7
 10
148.195144
 20
202.24904699999999
 30
0.0
 40
2.5973380000000001
 50
2.1133509999999989
 51
87.878742000000003
  0
ARC
  5
DC
  8
0
  6
AIGENLINE002
 62
     7
 10
148.387843
 20
202.24790999999999
 30
0.0
 40
2.5984899999999991
 50
92.129602000000006
 51
177.862472
  0
ARC
  5
DD
  8
0
  6
AIGENLINE002
 62
     7
 10
148.29111
 20
202.34499999999991
 30
0.0
 40
2.4999489999999991
 50
180.00395800000001
 51
270.00396799999999
  0
ARC
  5
DE
  8
0
  6
AIGENLINE002
 62
     7
 10
148.29111
 20
202.3446569999999
 30
0.0
 40
2.499604999999999
 50
270.00396799999999
 51
0.003939
  0
LINE
  5
DF
  8
0
 62
     7
 10
53.059600000000003
 20
111.73099999999999
 30
0.0
 11
50.848199999999999
 21
111.13800000000001
 31
0.0
  0
LINE
  5
E0
  8
0
 62
     7
 10
50.848199999999999
 20
111.13800000000001
 30
0.0
 11
53.059600000000003
 21
110.54600000000001
 31
0.0
  0
LINE
  5
E1
  8
0
 62
     7
 10
53.059600000000003
 20
110.54600000000001
 30
0.0
 11
53.059600000000003
 21
111.73099999999999
 31
0.0
  0
LINE
  5
E2
  8
0
 62
     7
 10
73.971100000000007
 20
110.56100000000001
 30
0.0
 11
76.182599999999994
 21
111.1539999999999
 31
0.0
  0
LINE
  5
E3
  8
0
 62
     7
 10
76.182599999999994
 20
111.1539999999999
 30
0.0
 11
73.971100000000007
 21
111.747
 31
0.0
  0
LINE
  5
E4
  8
0
 62
     7
 10
73.971100000000007
 20
111.747
 30
0.0
 11
73.971100000000007
 21
110.56100000000001
 31
0.0
  0
LINE
  5
E5
  8
0
 62
     7
 10
50.849200000000003
 20
111.146
 30
0.0
 11
76.181499999999986
 21
111.146
 31
0.0
  0
LINE
  5
E6
  8
0
 62
     7
 10
58.057600000000001
 20
138.23099999999991
 30
0.0
 11
55.846699999999998
 21
137.63800000000001
 31
0.0
  0
LINE
  5
E7
  8
0
 62
     7
 10
55.846699999999998
 20
137.63800000000001
 30
0.0
 11
58.057600000000001
 21
137.0449999999999
 31
0.0
  0
LINE
  5
E8
  8
0
 62
     7
 10
58.057600000000001
 20
137.0449999999999
 30
0.0
 11
58.057600000000001
 21
138.23099999999991
 31
0.0
  0
LINE
  5
E9
  8
0
 62
     7
 10
68.970600000000005
 20
137.06100000000001
 30
0.0
 11
71.180899999999994
 21
137.654
 31
0.0
  0
LINE
  5
EA
  8
0
 62
     7
 10
71.180899999999994
 20
137.654
 30
0.0
 11
68.970600000000005
 21
138.24600000000001
 31
0.0
  0
LINE
  5
EB
  8
0
 62
     7
 10
68.970600000000005
 20
138.24600000000001
 30
0.0
 11
68.970600000000005
 21
137.06100000000001
 31
0.0
  0
LINE
  5
EC
  8
0
 62
     7
 10
55.847799999999999
 20
137.64599999999999
 30
0.0
 11
71.179900000000004
 21
137.64599999999999
 31
0.0
  0
ARC
  5
ED
  8
0
 62
     7
 10
77.005337999999995
 20
121.8937889999999
 30
0.0
 40
0.8243659999999998
 50
103.786385
 51
178.68486999999999
  0
ARC
  5
EE
  8
0
 62
     7
 10
66.502308999999997
 20
119.93569699999991
 30
0.0
 40
0.5290050000000001
 50
272.18285299999991
 51
357.89474100000001
  0
LINE
  5
EF
  8
0
 62
     7
 10
67.031000000000006
 20
120.407
 30
0.0
 11
67.031000000000006
 21
119.916
 31
0.0
  0
LINE
  5
F0
  8
0
 62
     7
 10
63.514499999999991
 20
119.407
 30
0.0
 11
66.522499999999994
 21
119.407
 31
0.0
  0
ARC
  5
F1
  8
0
 62
     7
 10
88.226768000000007
 20
128.711265
 30
0.0
 40
2.5811999999999991
 50
312.07787999999999
 51
329.63093500000002
  0
ARC
  5
F2
  8
0
 62
     7
 10
86.503214999999997
 20
130.49062399999991
 30
0.0
 40
5.0576689999999997
 50
300.3631299999999
 51
313.06193100000002
  0
ARC
  5
F3
  8
0
 62
     7
 10
83.553170999999978
 20
135.280328
 30
0.0
 40
10.682321
 50
291.45240899999999
 51
301.02995399999998
  0
ARC
  5
F4
  8
0
 62
     7
 10
78.690522000000001
 20
146.98155399999999
 30
0.0
 40
23.352613000000002
 50
285.40683399999989
 51
292.0567319999999
  0
ARC
  5
F5
  8
0
 62
     7
 10
71.156694999999999
 20
172.84574900000001
 30
0.0
 40
50.290391
 50
281.67309199999988
 51
285.85312900000002
  0
ARC
  5
F6
  8
0
 62
     7
 10
53.259679000000013
 20
256.35988399999991
 30
0.0
 40
135.69979900000001
 50
280.702023
 51
281.93896099999989
  0
ARC
  5
F7
  8
0
 62
     7
 10
224.60222899999991
 20
-621.16849500000001
 30
0.0
 40
758.40285199999994
 50
101.110285
 51
101.23737800000001
  0
ARC
  5
F8
  8
0
 62
     7
 10
93.485082999999975
 20
127.9336429999999
 30
0.0
 40
0.5276930000000001
 50
272.06522200000001
 51
357.915369
  0
ARC
  5
F9
  8
0
 62
     7
 10
75.653906000000006
 20
120.933481
 30
0.0
 40
0.5269550000000001
 50
272.00531799999987
 51
357.87803899999989
  0
LINE
  5
FA
  8
0
 62
     7
 10
76.180499999999995
 20
120.914
 30
0.0
 11
76.180499999999995
 21
121.913
 31
0.0
  0
LINE
  5
FB
  8
0
 62
     7
 10
94.012399999999985
 20
127.9139999999999
 30
0.0
 11
94.012399999999985
 21
130.56399999999991
 31
0.0
  0
LINE
  5
FC
  8
0
 62
     7
 10
63.514499999999991
 20
120.407
 30
0.0
 11
75.672300000000007
 21
120.407
 31
0.0
  0
LINE
  5
FD
  8
0
 62
     7
 10
63.514499999999991
 20
127.40600000000001
 30
0.0
 11
93.504099999999994
 21
127.40600000000001
 31
0.0
  0
ARC
  5
FE
  8
0
 62
     7
 10
93.485164999999995
 20
130.5456749999999
 30
0.0
 40
0.527596
 50
2.0373700000000001
 51
87.943207000000001
  0
LINE
  5
FF
  8
0
 62
     7
 10
93.504099999999994
 20
131.07299999999989
 30
0.0
 11
63.514499999999991
 21
131.07299999999989
 31
0.0
  0
ARC
  5
100
  8
0
 62
     7
 10
69.320829000000003
 20
33.966862999999996
 30
0.0
 40
89.291515000000004
 50
86.314474000000004
 51
87.476093000000006
  0
ARC
  5
101
  8
0
 62
     7
 10
63.394067000000007
 20
-83.698340000000002
 30
0.0
 40
207.10488699999999
 50
87.271508999999995
 51
89.966665000000006
  0
ARC
  5
102
  8
0
  6
AIGENLINE002
 62
     7
 10
71.479760999999996
 20
126.3720659999999
 30
0.0
 40
0.7014600000000001
 50
2.8153479999999989
 51
88.124376999999996
  0
ARC
  5
103
  8
0
  6
AIGENLINE002
 62
     7
 10
71.487383999999992
 20
126.4328669999999
 30
0.0
 40
0.693491
 50
271.26716800000003
 51
357.82270599999993
  0
LINE
  5
104
  8
0
  6
AIGENLINE002
 62
     7
 10
71.502700000000004
 20
125.73999999999999
 30
0.0
 11
70.857799999999983
 21
125.73999999999999
 31
0.0
  0
ARC
  5
105
  8
0
  6
AIGENLINE002
 62
     7
 10
70.882726000000005
 20
126.44225399999991
 30
0.0
 40
0.703151
 50
182.91304
 51
267.96799399999992
  0
ARC
  5
106
  8
0
  6
AIGENLINE002
 62
     7
 10
70.873131999999998
 20
126.38016999999989
 30
0.0
 40
0.6931500000000002
 50
91.267976000000004
 51
177.82139100000001
  0
LINE
  5
107
  8
0
  6
AIGENLINE002
 62
     7
 10
70.857799999999983
 20
127.07299999999989
 30
0.0
 11
71.502700000000004
 21
127.07299999999989
 31
0.0
  0
LINE
  5
108
  8
0
  6
AIGENLINE001
 62
     7
 10
71.180300000000003
 20
125.02799999999991
 30
0.0
 11
71.180300000000003
 21
127.78399999999991
 31
0.0
  0
LINE
  5
109
  8
0
  6
AIGENLINE001
 62
     7
 10
73.224900000000005
 20
126.407
 30
0.0
 11
69.136600000000001
 21
126.407
 31
0.0
  0
ARC
  5
10A
  8
0
 62
     7
 10
50.023107000000003
 20
121.89285099999999
 30
0.0
 40
0.8253399999999999
 50
1.3786929999999991
 51
76.211394999999996
  0
ARC
  5
10B
  8
0
 62
     7
 10
60.527076999999998
 20
119.9356719999999
 30
0.0
 40
0.528994
 50
182.1026719999999
 51
267.78094299999998
  0
LINE
  5
10C
  8
0
 62
     7
 10
59.99839999999999
 20
120.407
 30
0.0
 11
59.99839999999999
 21
119.916
 31
0.0
  0
LINE
  5
10D
  8
0
 62
     7
 10
63.514499999999991
 20
119.407
 30
0.0
 11
60.506599999999999
 21
119.407
 31
0.0
  0
ARC
  5
10E
  8
0
 62
     7
 10
38.802903000000001
 20
128.71251000000001
 30
0.0
 40
2.5828090000000001
 50
210.38016999999999
 51
227.9238069999999
  0
ARC
  5
10F
  8
0
 62
     7
 10
40.526340999999988
 20
130.49225200000001
 30
0.0
 40
5.0594779999999986
 50
226.943172
 51
239.63839899999999
  0
ARC
  5
110
  8
0
 62
     7
 10
43.476958000000003
 20
135.28364699999989
 30
0.0
 40
10.685872
 50
238.97292999999991
 51
248.54780400000001
  0
ARC
  5
111
  8
0
 62
     7
 10
48.338997999999997
 20
146.98402400000001
 30
0.0
 40
23.355147999999989
 50
247.94407299999989
 51
254.593424
  0
ARC
  5
112
  8
0
 62
     7
 10
55.873240000000003
 20
172.8496889999999
 30
0.0
 40
50.294452
 50
254.1470259999999
 51
258.32671299999993
  0
ARC
  5
113
  8
0
 62
     7
 10
73.777411000000001
 20
256.39663999999988
 30
0.0
 40
135.737448
 50
258.06089800000001
 51
259.2974549999999
  0
ARC
  5
114
  8
0
 62
     7
 10
-97.085549999999998
 20
-618.64042199999994
 30
0.0
 40
755.82815500000004
 50
78.761537000000004
 51
78.889054000000002
  0
ARC
  5
115
  8
0
 62
     7
 10
33.543838000000001
 20
127.9338759999999
 30
0.0
 40
0.527914
 50
182.10904599999989
 51
267.96861999999999
  0
ARC
  5
116
  8
0
 62
     7
 10
51.375135
 20
120.9334569999999
 30
0.0
 40
0.5269430000000001
 50
182.119361
 51
267.95846299999988
  0
LINE
  5
117
  8
0
 62
     7
 10
50.84859999999999
 20
120.914
 30
0.0
 11
50.84859999999999
 21
121.913
 31
0.0
  0
LINE
  5
118
  8
0
 62
     7
 10
33.016300000000001
 20
127.9139999999999
 30
0.0
 11
33.016300000000001
 21
130.56399999999991
 31
0.0
  0
LINE
  5
119
  8
0
 62
     7
 10
63.514499999999991
 20
120.407
 30
0.0
 11
51.356400000000001
 21
120.407
 31
0.0
  0
LINE
  5
11A
  8
0
 62
     7
 10
63.514499999999991
 20
127.40600000000001
 30
0.0
 11
33.525100000000002
 21
127.40600000000001
 31
0.0
  0
ARC
  5
11B
  8
0
 62
     7
 10
33.544367999999999
 20
130.54483200000001
 30
0.0
 40
0.52845
 50
92.086793999999983
 51
177.874371
  0
LINE
  5
11C
  8
0
 62
     7
 10
33.525100000000002
 20
131.07299999999989
 30
0.0
 11
63.514499999999991
 21
131.07299999999989
 31
0.0
  0
ARC
  5
11D
  8
0
 62
     7
 10
59.200783000000001
 20
7.1228839999999991
 30
0.0
 40
116.1761379999999
 50
92.523261999999974
 51
93.568917000000013
  0
ARC
  5
11E
  8
0
 62
     7
 10
63.654406000000009
 20
-84.607618000000002
 30
0.0
 40
208.01417699999999
 50
90.038518999999994
 51
92.636427999999995
  0
ARC
  5
11F
  8
0
  6
AIGENLINE002
 62
     7
 10
55.550521999999987
 20
126.37047800000001
 30
0.0
 40
0.703113
 50
92.027717999999993
 51
177.0616489999999
  0
ARC
  5
120
  8
0
  6
AIGENLINE002
 62
     7
 10
55.541307999999987
 20
126.43284199999999
 30
0.0
 40
0.693474
 50
182.17531199999991
 51
268.70572199999998
  0
LINE
  5
121
  8
0
  6
AIGENLINE002
 62
     7
 10
55.52559999999999
 20
125.73999999999999
 30
0.0
 11
56.1706
 21
125.73999999999999
 31
0.0
  0
ARC
  5
122
  8
0
  6
AIGENLINE002
 62
     7
 10
56.147252000000002
 20
126.440977
 30
0.0
 40
0.701819
 50
271.90404000000001
 51
357.18583399999989
  0
ARC
  5
123
  8
0
  6
AIGENLINE002
 62
     7
 10
56.155558999999997
 20
126.380146
 30
0.0
 40
0.693167
 50
2.180593
 51
88.759131999999994
  0
LINE
  5
124
  8
0
  6
AIGENLINE002
 62
     7
 10
56.1706
 20
127.07299999999989
 30
0.0
 11
55.52559999999999
 21
127.07299999999989
 31
0.0
  0
LINE
  5
125
  8
0
  6
AIGENLINE001
 62
     7
 10
55.848100000000002
 20
125.02799999999991
 30
0.0
 11
55.848100000000002
 21
127.78399999999991
 31
0.0
  0
LINE
  5
126
  8
0
  6
AIGENLINE001
 62
     7
 10
53.80449999999999
 20
126.407
 30
0.0
 11
57.892800000000001
 21
126.407
 31
0.0
  0
LINE
  5
127
  8
0
  6
AIGENLINE001
 62
     7
 10
63.514499999999991
 20
132.14099999999991
 30
0.0
 11
63.514499999999991
 21
118.51899999999991
 31
0.0
  0
LINE
  5
128
  8
0
 62
     7
 10
76.181499999999986
 20
119.75399999999991
 30
0.0
 11
76.181499999999986
 21
110.5779999999999
 31
0.0
  0
LINE
  5
129
  8
0
 62
     7
 10
50.84859999999999
 20
119.75399999999991
 30
0.0
 11
50.84859999999999
 21
110.5779999999999
 31
0.0
  0
LINE
  5
12A
  8
0
 62
     7
 10
71.179900000000004
 20
138.21399999999991
 30
0.0
 11
71.179900000000004
 21
128.54599999999999
 31
0.0
  0
LINE
  5
12B
  8
0
 62
     7
 10
55.846699999999998
 20
138.21399999999991
 30
0.0
 11
55.846699999999998
 21
128.54599999999999
 31
0.0
  0
LINE
  5
12C
  8
0
 62
     7
 10
56.039700000000003
 20
220.15199999999999
 30
0.0
 11
66.637200000000007
 21
209.554
 31
0.0
  0
LINE
  5
12D
  8
0
 62
     7
 10
70.132300000000001
 20
208.964
 30
0.0
 11
60.130000000000003
 21
198.96199999999999
 31
0.0
  0
ARC
  5
12E
  8
0
 62
     7
 10
63.417665
 20
202.44068200000001
 30
0.0
 40
2.5973739999999998
 50
272.099153
 51
357.88506599999999
  0
ARC
  5
12F
  8
0
 62
     7
 10
63.609408999999999
 20
202.44143399999999
 30
0.0
 40
2.598179
 50
182.13087999999991
 51
267.86914999999988
  0
ARC
  5
130
  8
0
 62
     7
 10
63.608936999999997
 20
202.249053
 30
0.0
 40
2.597675999999999
 50
92.12083800000002
 51
177.88702799999999
  0
ARC
  5
131
  8
0
 62
     7
 10
63.417805999999999
 20
202.24947299999999
 30
0.0
 40
2.5972149999999998
 50
2.1040610000000002
 51
87.903824
  0
ARC
  5
132
  8
0
 62
     7
 10
63.455902999999999
 20
202.402445
 30
0.0
 40
1.558659
 50
272.09213999999992
 51
357.88155799999998
  0
ARC
  5
133
  8
0
 62
     7
 10
63.570793000000002
 20
202.40245999999999
 30
0.0
 40
1.5587150000000001
 50
182.1189369999999
 51
267.867932
  0
ARC
  5
134
  8
0
 62
     7
 10
63.570878999999998
 20
202.2872899999999
 30
0.0
 40
1.558797
 50
92.135114999999999
 51
177.88459499999999
  0
ARC
  5
135
  8
0
 62
     7
 10
63.454875000000001
 20
202.28636299999991
 30
0.0
 40
1.559717999999999
 50
2.1482160000000001
 51
87.871507999999992
  0
ARC
  5
136
  8
0
 62
     7
 10
63.513061999999991
 20
212.67819900000001
 30
0.0
 40
1.166947999999999
 50
269.98733399999992
 51
359.98730399999999
  0
ARC
  5
137
  8
0
 62
     7
 10
63.556871999999998
 20
212.72147299999989
 30
0.0
 40
1.2110229999999991
 50
182.060035
 51
267.91460999999998
  0
ARC
  5
138
  8
0
 62
     7
 10
63.557774000000002
 20
212.633149
 30
0.0
 40
1.211970999999999
 50
92.126445999999987
 51
177.88198700000001
  0
ARC
  5
139
  8
0
 62
     7
 10
63.468815999999997
 20
212.63305899999989
 30
0.0
 40
1.212024999999999
 50
2.1221649999999999
 51
87.920119
  0
LINE
  5
13A
  8
0
 62
     7
 10
30.356000000000002
 20
128.86199999999991
 30
0.0
 11
29.764299999999999
 21
131.07299999999989
 31
0.0
  0
LINE
  5
13B
  8
0
 62
     7
 10
29.764299999999999
 20
131.07299999999989
 30
0.0
 11
29.1708
 21
128.86199999999991
 31
0.0
  0
LINE
  5
13C
  8
0
 62
     7
 10
29.1708
 20
128.86199999999991
 30
0.0
 11
30.356000000000002
 21
128.86199999999991
 31
0.0
  0
LINE
  5
13D
  8
0
 62
     7
 10
29.186999999999991
 20
128.61799999999991
 30
0.0
 11
29.779599999999991
 21
126.407
 31
0.0
  0
LINE
  5
13E
  8
0
 62
     7
 10
29.779599999999991
 20
126.407
 30
0.0
 11
30.372199999999999
 21
128.61799999999991
 31
0.0
  0
LINE
  5
13F
  8
0
 62
     7
 10
30.372199999999999
 20
128.61799999999991
 30
0.0
 11
29.186999999999991
 21
128.61799999999991
 31
0.0
  0
LINE
  5
140
  8
0
 62
     7
 10
29.7713
 20
131.07299999999989
 30
0.0
 11
29.7713
 21
126.407
 31
0.0
  0
LINE
  5
141
  8
0
 62
     7
 10
29.2194
 20
126.407
 30
0.0
 11
53.15059999999999
 21
126.407
 31
0.0
  0
LINE
  5
142
  8
0
 62
     7
 10
29.133299999999998
 20
131.07299999999989
 30
0.0
 11
32.363100000000003
 21
131.07299999999989
 31
0.0
  0
LINE
  5
143
  8
0
 62
     7
 10
100.3279999999999
 20
125.19499999999989
 30
0.0
 11
99.735600000000005
 21
127.407
 31
0.0
  0
LINE
  5
144
  8
0
 62
     7
 10
99.735600000000005
 20
127.407
 30
0.0
 11
99.143100000000004
 21
125.19499999999989
 31
0.0
  0
LINE
  5
145
  8
0
 62
     7
 10
99.143100000000004
 20
125.19499999999989
 30
0.0
 11
100.3279999999999
 21
125.19499999999989
 31
0.0
  0
LINE
  5
146
  8
0
 62
     7
 10
99.159099999999995
 20
133.285
 30
0.0
 11
99.751599999999996
 21
131.07299999999989
 31
0.0
  0
LINE
  5
147
  8
0
 62
     7
 10
99.751599999999996
 20
131.07299999999989
 30
0.0
 11
100.34399999999989
 21
133.285
 31
0.0
  0
LINE
  5
148
  8
0
 62
     7
 10
100.34399999999989
 20
133.285
 30
0.0
 11
99.159099999999995
 21
133.285
 31
0.0
  0
LINE
  5
149
  8
0
 62
     7
 10
99.743899999999996
 20
136.393
 30
0.0
 11
99.743899999999996
 21
124.066
 31
0.0
  0
LINE
  5
14A
  8
0
 62
     7
 10
106.81399999999989
 20
128.86199999999991
 30
0.0
 11
106.221
 21
131.07299999999989
 31
0.0
  0
LINE
  5
14B
  8
0
 62
     7
 10
106.221
 20
131.07299999999989
 30
0.0
 11
105.62899999999991
 21
128.86199999999991
 31
0.0
  0
LINE
  5
14C
  8
0
 62
     7
 10
105.62899999999991
 20
128.86199999999991
 30
0.0
 11
106.81399999999989
 21
128.86199999999991
 31
0.0
  0
LINE
  5
14D
  8
0
 62
     7
 10
105.6449999999999
 20
122.621
 30
0.0
 11
106.23699999999999
 21
120.40899999999991
 31
0.0
  0
LINE
  5
14E
  8
0
 62
     7
 10
106.23699999999999
 20
120.40899999999991
 30
0.0
 11
106.83
 21
122.621
 31
0.0
  0
LINE
  5
14F
  8
0
 62
     7
 10
106.83
 20
122.621
 30
0.0
 11
105.6449999999999
 21
122.621
 31
0.0
  0
LINE
  5
150
  8
0
 62
     7
 10
106.2289999999999
 20
131.072
 30
0.0
 11
106.2289999999999
 21
120.411
 31
0.0
  0
LINE
  5
151
  8
0
 62
     7
 10
113.4229999999999
 20
128.86299999999989
 30
0.0
 11
112.831
 21
131.0749999999999
 31
0.0
  0
LINE
  5
152
  8
0
 62
     7
 10
112.831
 20
131.0749999999999
 30
0.0
 11
112.2379999999999
 21
128.86299999999989
 31
0.0
  0
LINE
  5
153
  8
0
 62
     7
 10
112.2379999999999
 20
128.86299999999989
 30
0.0
 11
113.4229999999999
 21
128.86299999999989
 31
0.0
  0
LINE
  5
154
  8
0
 62
     7
 10
112.25399999999991
 20
121.619
 30
0.0
 11
112.84699999999999
 21
119.4079999999999
 31
0.0
  0
LINE
  5
155
  8
0
 62
     7
 10
112.84699999999999
 20
119.4079999999999
 30
0.0
 11
113.43899999999999
 21
121.619
 31
0.0
  0
LINE
  5
156
  8
0
 62
     7
 10
113.43899999999999
 20
121.619
 30
0.0
 11
112.25399999999991
 21
121.619
 31
0.0
  0
LINE
  5
157
  8
0
 62
     7
 10
112.839
 20
131.07299999999989
 30
0.0
 11
112.839
 21
119.40899999999991
 31
0.0
  0
LINE
  5
158
  8
0
 62
     7
 10
76.833699999999993
 20
120.407
 30
0.0
 11
106.7979999999999
 21
120.407
 31
0.0
  0
LINE
  5
159
  8
0
 62
     7
 10
67.6845
 20
119.407
 30
0.0
 11
113.407
 21
119.407
 31
0.0
  0
LINE
  5
15A
  8
0
 62
     7
 10
94.665599999999984
 20
127.40600000000001
 30
0.0
 11
100.29600000000001
 21
127.40600000000001
 31
0.0
  0
LINE
  5
15B
  8
0
 62
     7
 10
94.665599999999984
 20
131.07299999999989
 30
0.0
 11
113.39099999999991
 21
131.07299999999989
 31
0.0
  0
LINE
  5
15C
  8
0
 62
     7
 10
105.637
 20
183.83500000000001
 30
0.0
 11
106.2289999999999
 21
186.047
 31
0.0
  0
LINE
  5
15D
  8
0
 62
     7
 10
106.2289999999999
 20
186.047
 30
0.0
 11
106.821
 21
183.83500000000001
 31
0.0
  0
LINE
  5
15E
  8
0
 62
     7
 10
106.821
 20
183.83500000000001
 30
0.0
 11
105.637
 21
183.83500000000001
 31
0.0
  0
LINE
  5
15F
  8
0
 62
     7
 10
100.3279999999999
 20
210.46700000000001
 30
0.0
 11
99.736299999999986
 21
212.678
 31
0.0
  0
LINE
  5
160
  8
0
 62
     7
 10
99.736299999999986
 20
212.678
 30
0.0
 11
99.143100000000004
 21
210.46700000000001
 31
0.0
  0
LINE
  5
161
  8
0
 62
     7
 10
99.143100000000004
 20
210.46700000000001
 30
0.0
 11
100.3279999999999
 21
210.46700000000001
 31
0.0
  0
LINE
  5
162
  8
0
 62
     7
 10
99.159099999999995
 20
209.8889999999999
 30
0.0
 11
99.751099999999994
 21
207.67799999999991
 31
0.0
  0
LINE
  5
163
  8
0
 62
     7
 10
99.751099999999994
 20
207.67799999999991
 30
0.0
 11
100.3449999999999
 21
209.8889999999999
 31
0.0
  0
LINE
  5
164
  8
0
 62
     7
 10
100.3449999999999
 20
209.8889999999999
 30
0.0
 11
99.159099999999995
 21
209.8889999999999
 31
0.0
  0
LINE
  5
165
  8
0
 62
     7
 10
99.743899999999996
 20
212.67699999999999
 30
0.0
 11
99.743899999999996
 21
207.67899999999989
 31
0.0
  0
LINE
  5
166
  8
0
 62
     7
 10
99.151899999999998
 20
219.2229999999999
 30
0.0
 11
99.743899999999996
 21
217.011
 31
0.0
  0
LINE
  5
167
  8
0
 62
     7
 10
99.743899999999996
 20
217.011
 30
0.0
 11
100.337
 21
219.2229999999999
 31
0.0
  0
LINE
  5
168
  8
0
 62
     7
 10
100.337
 20
219.2229999999999
 30
0.0
 11
99.151899999999998
 21
219.2229999999999
 31
0.0
  0
LINE
  5
169
  8
0
 62
     7
 10
99.743899999999996
 20
220.44399999999999
 30
0.0
 11
99.743899999999996
 21
212.678
 31
0.0
  0
LINE
  5
16A
  8
0
 62
     7
 10
106.81399999999989
 20
205.46599999999989
 30
0.0
 11
106.221
 21
207.67799999999991
 31
0.0
  0
LINE
  5
16B
  8
0
 62
     7
 10
106.221
 20
207.67799999999991
 30
0.0
 11
105.6279999999999
 21
205.46599999999989
 31
0.0
  0
LINE
  5
16C
  8
0
 62
     7
 10
105.6279999999999
 20
205.46599999999989
 30
0.0
 11
106.81399999999989
 21
205.46599999999989
 31
0.0
  0
LINE
  5
16D
  8
0
 62
     7
 10
105.6449999999999
 20
188.8899999999999
 30
0.0
 11
106.23699999999999
 21
186.67899999999989
 31
0.0
  0
LINE
  5
16E
  8
0
 62
     7
 10
106.23699999999999
 20
186.67899999999989
 30
0.0
 11
106.83
 21
188.8899999999999
 31
0.0
  0
LINE
  5
16F
  8
0
 62
     7
 10
106.83
 20
188.8899999999999
 30
0.0
 11
105.6449999999999
 21
188.8899999999999
 31
0.0
  0
LINE
  5
170
  8
0
 62
     7
 10
106.2289999999999
 20
207.6759999999999
 30
0.0
 11
106.2289999999999
 21
180.5379999999999
 31
0.0
  0
LINE
  5
171
  8
0
 62
     7
 10
106.81399999999989
 20
214.80000000000001
 30
0.0
 11
106.221
 21
217.012
 31
0.0
  0
LINE
  5
172
  8
0
 62
     7
 10
106.221
 20
217.012
 30
0.0
 11
105.6279999999999
 21
214.80000000000001
 31
0.0
  0
LINE
  5
173
  8
0
 62
     7
 10
105.6279999999999
 20
214.80000000000001
 30
0.0
 11
106.81399999999989
 21
214.80000000000001
 31
0.0
  0
LINE
  5
174
  8
0
 62
     7
 10
105.6449999999999
 20
209.8889999999999
 30
0.0
 11
106.23699999999999
 21
207.67799999999991
 31
0.0
  0
LINE
  5
175
  8
0
 62
     7
 10
106.23699999999999
 20
207.67799999999991
 30
0.0
 11
106.83
 21
209.8889999999999
 31
0.0
  0
LINE
  5
176
  8
0
 62
     7
 10
106.83
 20
209.8889999999999
 30
0.0
 11
105.6449999999999
 21
209.8889999999999
 31
0.0
  0
LINE
  5
177
  8
0
 62
     7
 10
106.2289999999999
 20
217.011
 30
0.0
 11
106.2289999999999
 21
207.67899999999989
 31
0.0
  0
LINE
  5
178
  8
0
 62
     7
 10
113.42399999999989
 20
214.8009999999999
 30
0.0
 11
112.831
 21
217.012
 31
0.0
  0
LINE
  5
179
  8
0
 62
     7
 10
112.831
 20
217.012
 30
0.0
 11
112.2379999999999
 21
214.8009999999999
 31
0.0
  0
LINE
  5
17A
  8
0
 62
     7
 10
112.2379999999999
 20
214.8009999999999
 30
0.0
 11
113.42399999999989
 21
214.8009999999999
 31
0.0
  0
LINE
  5
17B
  8
0
 62
     7
 10
112.25399999999991
 20
188.22200000000001
 30
0.0
 11
112.84699999999999
 21
186.00999999999991
 31
0.0
  0
LINE
  5
17C
  8
0
 62
     7
 10
112.84699999999999
 20
186.00999999999991
 30
0.0
 11
113.43899999999999
 21
188.22200000000001
 31
0.0
  0
LINE
  5
17D
  8
0
 62
     7
 10
113.43899999999999
 20
188.22200000000001
 30
0.0
 11
112.25399999999991
 21
188.22200000000001
 31
0.0
  0
LINE
  5
17E
  8
0
 62
     7
 10
112.839
 20
217.011
 30
0.0
 11
112.839
 21
186.012
 31
0.0
  0
LINE
  5
17F
  8
0
 62
     7
 10
84.999300000000005
 20
207.67799999999991
 30
0.0
 11
106.78100000000001
 21
207.67799999999991
 31
0.0
  0
LINE
  5
180
  8
0
 62
     7
 10
94.665599999999984
 20
186.012
 30
0.0
 11
113.407
 21
186.012
 31
0.0
  0
LINE
  5
181
  8
0
 62
     7
 10
94.665599999999984
 20
186.67899999999989
 30
0.0
 11
106.797
 21
186.67899999999989
 31
0.0
  0
LINE
  5
182
  8
0
 62
     7
 10
94.665599999999984
 20
212.678
 30
0.0
 11
100.29600000000001
 21
212.678
 31
0.0
  0
LINE
  5
183
  8
0
 62
     7
 10
94.665599999999984
 20
217.011
 30
0.0
 11
113.402
 21
217.011
 31
0.0
  0
LINE
  5
184
  8
0
 62
     7
 10
91.802899999999994
 20
173.761
 30
0.0
 11
94.013999999999996
 21
174.35299999999989
 31
0.0
  0
LINE
  5
185
  8
0
 62
     7
 10
94.013999999999996
 20
174.35299999999989
 30
0.0
 11
91.802899999999994
 21
174.946
 31
0.0
  0
LINE
  5
186
  8
0
 62
     7
 10
91.802899999999994
 20
174.946
 30
0.0
 11
91.802899999999994
 21
173.761
 31
0.0
  0
LINE
  5
187
  8
0
 62
     7
 10
86.556200000000004
 20
174.93000000000001
 30
0.0
 11
84.345100000000016
 21
174.33799999999991
 31
0.0
  0
LINE
  5
188
  8
0
 62
     7
 10
84.345100000000016
 20
174.33799999999991
 30
0.0
 11
86.556200000000004
 21
173.745
 31
0.0
  0
LINE
  5
189
  8
0
 62
     7
 10
86.556200000000004
 20
173.745
 30
0.0
 11
86.556200000000004
 21
174.93000000000001
 31
0.0
  0
LINE
  5
18A
  8
0
 62
     7
 10
94.012600000000006
 20
174.34499999999991
 30
0.0
 11
84.346100000000007
 21
174.34499999999991
 31
0.0
  0
LINE
  5
18B
  8
0
 62
     7
 10
30.8035
 20
178.56700000000001
 30
0.0
 11
33.0139
 21
179.16
 31
0.0
  0
LINE
  5
18C
  8
0
 62
     7
 10
33.0139
 20
179.16
 30
0.0
 11
30.8035
 21
179.75200000000001
 31
0.0
  0
LINE
  5
18D
  8
0
 62
     7
 10
30.8035
 20
179.75200000000001
 30
0.0
 11
30.8035
 21
178.56700000000001
 31
0.0
  0
LINE
  5
18E
  8
0
 62
     7
 10
35.892299999999999
 20
179.73699999999991
 30
0.0
 11
33.680799999999991
 21
179.14400000000001
 31
0.0
  0
LINE
  5
18F
  8
0
 62
     7
 10
33.680799999999991
 20
179.14400000000001
 30
0.0
 11
35.892299999999999
 21
178.55199999999999
 31
0.0
  0
LINE
  5
190
  8
0
 62
     7
 10
35.892299999999999
 20
178.55199999999999
 30
0.0
 11
35.892299999999999
 21
179.73699999999991
 31
0.0
  0
LINE
  5
191
  8
0
 62
     7
 10
37.116700000000002
 20
179.15199999999999
 30
0.0
 11
27.0276
 21
179.15199999999999
 31
0.0
  0
LINE
  5
192
  8
0
 62
     7
 10
40.471499999999999
 20
173.761
 30
0.0
 11
42.681899999999992
 21
174.35299999999989
 31
0.0
  0
LINE
  5
193
  8
0
 62
     7
 10
42.681899999999992
 20
174.35299999999989
 30
0.0
 11
40.471499999999999
 21
174.946
 31
0.0
  0
LINE
  5
194
  8
0
 62
     7
 10
40.471499999999999
 20
174.946
 30
0.0
 11
40.471499999999999
 21
173.761
 31
0.0
  0
LINE
  5
195
  8
0
 62
     7
 10
35.224299999999992
 20
174.93000000000001
 30
0.0
 11
33.012799999999999
 21
174.33799999999991
 31
0.0
  0
LINE
  5
196
  8
0
 62
     7
 10
33.012799999999999
 20
174.33799999999991
 30
0.0
 11
35.224299999999992
 21
173.745
 31
0.0
  0
LINE
  5
197
  8
0
 62
     7
 10
35.224299999999992
 20
173.745
 30
0.0
 11
35.224299999999992
 21
174.93000000000001
 31
0.0
  0
LINE
  5
198
  8
0
 62
     7
 10
42.680899999999987
 20
174.34499999999991
 30
0.0
 11
33.0139
 21
174.34499999999991
 31
0.0
  0
LINE
  5
199
  8
0
 62
     7
 10
82.136600000000001
 20
173.761
 30
0.0
 11
84.347499999999997
 21
174.35299999999989
 31
0.0
  0
LINE
  5
19A
  8
0
 62
     7
 10
84.347499999999997
 20
174.35299999999989
 30
0.0
 11
82.136600000000001
 21
174.946
 31
0.0
  0
LINE
  5
19B
  8
0
 62
     7
 10
82.136600000000001
 20
174.946
 30
0.0
 11
82.136600000000001
 21
173.761
 31
0.0
  0
LINE
  5
19C
  8
0
 62
     7
 10
44.890599999999999
 20
174.93000000000001
 30
0.0
 11
42.679099999999991
 21
174.33799999999991
 31
0.0
  0
LINE
  5
19D
  8
0
 62
     7
 10
42.679099999999991
 20
174.33799999999991
 30
0.0
 11
44.890599999999999
 21
173.745
 31
0.0
  0
LINE
  5
19E
  8
0
 62
     7
 10
44.890599999999999
 20
173.745
 30
0.0
 11
44.890599999999999
 21
174.93000000000001
 31
0.0
  0
LINE
  5
19F
  8
0
 62
     7
 10
84.346100000000007
 20
174.34499999999991
 30
0.0
 11
42.680899999999987
 21
174.34499999999991
 31
0.0
  0
LINE
  5
1A0
  8
0
 62
     7
 10
84.346100000000007
 20
185.358
 30
0.0
 11
84.346100000000007
 21
173.77799999999991
 31
0.0
  0
LINE
  5
1A1
  8
0
 62
     7
 10
94.012399999999985
 20
185.358
 30
0.0
 11
94.012399999999985
 21
165.77500000000001
 31
0.0
  0
LINE
  5
1A2
  8
0
 62
     7
 10
42.680899999999987
 20
185.358
 30
0.0
 11
42.680899999999987
 21
173.79300000000001
 31
0.0
  0
LINE
  5
1A3
  8
0
 62
     7
 10
33.680799999999991
 20
185.358
 30
0.0
 11
33.680799999999991
 21
178.584
 31
0.0
  0
LINE
  5
1A4
  8
0
 62
     7
 10
33.0139
 20
185.91800000000001
 30
0.0
 11
33.0139
 21
165.852
 31
0.0
  0
LINE
  5
1A5
  8
0
 62
     7
 10
91.802899999999994
 20
165.74299999999991
 30
0.0
 11
94.013999999999996
 21
166.33500000000001
 31
0.0
  0
LINE
  5
1A6
  8
0
 62
     7
 10
94.013999999999996
 20
166.33500000000001
 30
0.0
 11
91.802899999999994
 21
166.928
 31
0.0
  0
LINE
  5
1A7
  8
0
 62
     7
 10
91.802899999999994
 20
166.928
 30
0.0
 11
91.802899999999994
 21
165.74299999999991
 31
0.0
  0
LINE
  5
1A8
  8
0
 62
     7
 10
35.224299999999992
 20
166.91200000000001
 30
0.0
 11
33.012799999999999
 21
166.31899999999999
 31
0.0
  0
LINE
  5
1A9
  8
0
 62
     7
 10
33.012799999999999
 20
166.31899999999999
 30
0.0
 11
35.224299999999992
 21
165.72599999999991
 31
0.0
  0
LINE
  5
1AA
  8
0
 62
     7
 10
35.224299999999992
 20
165.72599999999991
 30
0.0
 11
35.224299999999992
 21
166.91200000000001
 31
0.0
  0
LINE
  5
1AB
  8
0
 62
     7
 10
94.012600000000006
 20
166.32699999999991
 30
0.0
 11
33.0139
 21
166.32699999999991
 31
0.0
  0
ARC
  5
1AC
  8
0
 62
     7
 10
73.451993000000002
 20
187.611446
 30
0.0
 40
6.8804160000000003
 50
74.178093000000004
 51
89.922748999999996
  0
ARC
  5
1AD
  8
0
 62
     7
 10
72.492749000000003
 20
183.587636
 30
0.0
 40
11.014692999999991
 50
61.505276000000002
 51
75.084181999999998
  0
ARC
  5
1AE
  8
0
 62
     7
 10
70.810693999999998
 20
180.17525900000001
 30
0.0
 40
14.816924999999999
 50
35.140562000000003
 51
62.084067999999988
  0
ARC
  5
1AF
  8
0
 62
     7
 10
74.553065000000004
 20
183.03551999999991
 30
0.0
 40
10.111999000000001
 50
24.975827999999989
 51
34.092804000000001
  0
LINE
  5
1B0
  8
0
 62
     7
 10
73.461299999999994
 20
194.49199999999999
 30
0.0
 11
73.461299999999994
 21
207.67799999999991
 31
0.0
  0
LINE
  5
1B1
  8
0
 62
     7
 10
63.513500000000001
 20
194.49199999999999
 30
0.0
 11
73.461299999999994
 21
194.49199999999999
 31
0.0
  0
LINE
  5
1B2
  8
0
 62
     7
 10
84.346100000000007
 20
207.67799999999991
 30
0.0
 11
84.346100000000007
 21
186.67899999999989
 31
0.0
  0
LINE
  5
1B3
  8
0
 62
     7
 10
63.513500000000001
 20
207.67799999999991
 30
0.0
 11
84.346100000000007
 21
207.67799999999991
 31
0.0
  0
LINE
  5
1B4
  8
0
 62
     7
 10
63.513500000000001
 20
186.67899999999989
 30
0.0
 11
93.345600000000005
 21
186.67899999999989
 31
0.0
  0
LINE
  5
1B5
  8
0
 62
     7
 10
63.513500000000001
 20
186.012
 30
0.0
 11
93.345600000000005
 21
186.012
 31
0.0
  0
ARC
  5
1B6
  8
0
 62
     7
 10
93.320212999999995
 20
186.703913
 30
0.0
 40
0.6926800000000001
 50
272.10238900000002
 51
357.89762100000002
  0
LINE
  5
1B7
  8
0
 62
     7
 10
93.345600000000005
 20
186.67899999999989
 30
0.0
 11
93.345600000000005
 21
215.67799999999991
 31
0.0
  0
ARC
  5
1B8
  8
0
 62
     7
 10
92.653850000000006
 20
215.652612
 30
0.0
 40
0.692245
 50
2.1118009999999989
 51
87.932609999999997
  0
LINE
  5
1B9
  8
0
 62
     7
 10
92.678799999999995
 20
216.34399999999999
 30
0.0
 11
63.513500000000001
 21
216.34399999999999
 31
0.0
  0
LINE
  5
1BA
  8
0
 62
     7
 10
94.012399999999985
 20
186.67899999999989
 30
0.0
 11
94.012399999999985
 21
216.345
 31
0.0
  0
ARC
  5
1BB
  8
0
 62
     7
 10
93.320707999999996
 20
216.319299
 30
0.0
 40
0.6921870000000001
 50
2.107294
 51
87.937117000000015
  0
LINE
  5
1BC
  8
0
 62
     7
 10
93.345600000000005
 20
217.011
 30
0.0
 11
63.513500000000001
 21
217.011
 31
0.0
  0
ARC
  5
1BD
  8
0
 62
     7
 10
53.574307999999988
 20
187.6132739999999
 30
0.0
 40
6.8785879999999997
 50
90.077289000000007
 51
105.824003
  0
ARC
  5
1BE
  8
0
 62
     7
 10
54.534055000000002
 20
183.58774299999999
 30
0.0
 40
11.01465299999999
 50
104.9171969999999
 51
118.495496
  0
ARC
  5
1BF
  8
0
 62
     7
 10
56.217272999999992
 20
180.17310999999989
 30
0.0
 40
14.819423
 50
117.91638399999999
 51
144.85605200000001
  0
ARC
  5
1C0
  8
0
 62
     7
 10
52.473854000000003
 20
183.03439399999991
 30
0.0
 40
10.113038
 50
145.90345799999989
 51
155.019857
  0
LINE
  5
1C1
  8
0
  6
AIGENLINE001
 62
     7
 10
65.647400000000005
 20
212.678
 30
0.0
 11
61.380299999999998
 21
212.678
 31
0.0
  0
LINE
  5
1C2
  8
0
  6
AIGENLINE001
 62
     7
 10
71.179900000000004
 20
219.1279999999999
 30
0.0
 11
71.179900000000004
 21
213.85299999999989
 31
0.0
  0
LINE
  5
1C3
  8
0
  6
AIGENLINE001
 62
     7
 10
55.847099999999998
 20
219.1279999999999
 30
0.0
 11
55.847099999999998
 21
213.85299999999989
 31
0.0
  0
LINE
  5
1C4
  8
0
  6
AIGENLINE001
 62
     7
 10
63.513500000000001
 20
219.1279999999999
 30
0.0
 11
63.513500000000001
 21
183.38900000000001
 31
0.0
  0
LINE
  5
1C5
  8
0
  6
AIGENLINE001
 62
     7
 10
66.513800000000003
 20
202.34499999999991
 30
0.0
 11
60.513800000000003
 21
202.34499999999991
 31
0.0
  0
LINE
  5
1C6
  8
0
 62
     7
 10
53.564999999999998
 20
194.49199999999999
 30
0.0
 11
53.564999999999998
 21
207.67799999999991
 31
0.0
  0
LINE
  5
1C7
  8
0
 62
     7
 10
63.513500000000001
 20
194.49199999999999
 30
0.0
 11
53.564999999999998
 21
194.49199999999999
 31
0.0
  0
LINE
  5
1C8
  8
0
 62
     7
 10
42.680899999999987
 20
207.67799999999991
 30
0.0
 11
42.680899999999987
 21
186.67899999999989
 31
0.0
  0
LINE
  5
1C9
  8
0
 62
     7
 10
63.513500000000001
 20
207.67799999999991
 30
0.0
 11
42.680899999999987
 21
207.67799999999991
 31
0.0
  0
LINE
  5
1CA
  8
0
 62
     7
 10
63.513500000000001
 20
186.67899999999989
 30
0.0
 11
33.680799999999991
 21
186.67899999999989
 31
0.0
  0
LINE
  5
1CB
  8
0
 62
     7
 10
63.513500000000001
 20
186.012
 30
0.0
 11
33.680799999999991
 21
186.012
 31
0.0
  0
ARC
  5
1CC
  8
0
 62
     7
 10
33.706285999999992
 20
186.70412300000001
 30
0.0
 40
0.6928910000000002
 50
182.11911900000001
 51
267.89571000000001
  0
LINE
  5
1CD
  8
0
 62
     7
 10
33.680799999999991
 20
186.67899999999989
 30
0.0
 11
33.680799999999991
 21
215.67799999999991
 31
0.0
  0
ARC
  5
1CE
  8
0
 62
     7
 10
34.372872999999991
 20
215.652365
 30
0.0
 40
0.6925080000000001
 50
92.101825000000005
 51
177.86852699999989
  0
LINE
  5
1CF
  8
0
 62
     7
 10
34.347499999999989
 20
216.34399999999999
 30
0.0
 11
63.513500000000001
 21
216.34399999999999
 31
0.0
  0
LINE
  5
1D0
  8
0
 62
     7
 10
33.0139
 20
186.67899999999989
 30
0.0
 11
33.0139
 21
216.345
 31
0.0
  0
ARC
  5
1D1
  8
0
 62
     7
 10
33.706251000000002
 20
216.31862899999999
 30
0.0
 40
0.692874
 50
92.101385999999977
 51
177.8393639999999
  0
LINE
  5
1D2
  8
0
 62
     7
 10
33.680799999999991
 20
217.011
 30
0.0
 11
63.513500000000001
 21
217.011
 31
0.0
  0
TEXT
  5
1D3
  8
_________2
 62
     7
 10
26.512799999999991
 20
61.42369999999999
 30
0.0
 40
3.9357000000000002
  1
※壁取付部には厚さ30mm以上の補強木を入れてください。
 41
0.5
  0
TEXT
  5
1D4
  8
_________2
 62
     7
 10
142.0814749999999
 20
30.451399999999989
 30
0.0
 40
3.9357000000000002
  1
SB3005G
 41
0.5
 72
     1
 11
148.3129999999999
 21
30.451399999999989
 31
0.0
  0
TEXT
  5
1D5
  8
_________2
 62
     7
 10
142.0814749999999
 20
20.450600000000001
 30
0.0
 40
3.9357000000000002
  1
SB3005G
 41
0.5
 72
     1
 11
148.3129999999999
 21
20.450600000000001
 31
0.0
  0
TEXT
  5
1D6
  8
_________2
 62
     7
 10
29.3491
 20
22.050799999999999
 30
0.0
 40
3.9357000000000002
  1
実容量：5.4L、重量：22kg、オーバーフロー付
 41
0.5
  0
LINE
  5
1D7
  8
_________2
 62
     7
 10
210.06399999999999
 20
148.75399999999991
 30
0.0
 11
188.3129999999999
 21
148.75399999999991
 31
0.0
  0
LINE
  5
1D8
  8
_________2
 62
     7
 10
105.062
 20
17.252099999999992
 30
0.0
 11
105.062
 21
0.272164
 31
0.0
  0
LINE
  5
1D9
  8
_________2
 62
     7
 10
105.062
 20
297.27399999999989
 30
0.0
 11
105.062
 21
280.25400000000002
 31
0.0
  0
LINE
  5
1DA
  8
_________2
 62
     7
 10
21.811900000000001
 20
148.75399999999991
 30
0.0
 11
0.0614953
 21
148.75399999999991
 31
0.0
  0
LINE
  5
1DB
  8
_________2
 62
     7
 10
81.503399999999985
 20
51.1479
 30
0.0
 11
79.317099999999996
 21
51.1479
 31
0.0
  0
LINE
  5
1DC
  8
_________2
 62
     7
 10
81.996000000000009
 20
51.1479
 30
0.0
 11
81.743799999999993
 21
51.1479
 31
0.0
  0
LINE
  5
1DD
  8
_________2
 62
     7
 10
82.488699999999994
 20
51.1479
 30
0.0
 11
85.413600000000002
 21
51.1479
 31
0.0
  0
LINE
  5
1DE
  8
_________2
 62
     7
 10
81.996000000000009
 20
51.1479
 30
0.0
 11
82.248199999999997
 21
51.1479
 31
0.0
  0
LINE
  5
1DF
  8
_________2
 62
     7
 10
75.599800000000002
 20
51.1479
 30
0.0
 11
73.412899999999993
 21
51.1479
 31
0.0
  0
LINE
  5
1E0
  8
_________2
 62
     7
 10
76.091800000000006
 20
51.1479
 30
0.0
 11
75.840299999999999
 21
51.1479
 31
0.0
  0
LINE
  5
1E1
  8
_________2
 62
     7
 10
76.091800000000006
 20
51.640599999999999
 30
0.0
 11
76.091800000000006
 21
53.827500000000001
 31
0.0
  0
LINE
  5
1E2
  8
_________2
 62
     7
 10
76.091800000000006
 20
51.1479
 30
0.0
 11
76.091800000000006
 21
51.400500000000001
 31
0.0
  0
LINE
  5
1E3
  8
_________2
 62
     7
 10
76.584400000000002
 20
51.1479
 30
0.0
 11
78.7714
 21
51.1479
 31
0.0
  0
LINE
  5
1E4
  8
_________2
 62
     7
 10
76.091800000000006
 20
51.1479
 30
0.0
 11
76.343999999999994
 21
51.1479
 31
0.0
  0
LINE
  5
1E5
  8
_________2
 62
     7
 10
76.091800000000006
 20
50.655999999999999
 30
0.0
 11
76.091800000000006
 21
48.4694
 31
0.0
  0
LINE
  5
1E6
  8
_________2
 62
     7
 10
76.091800000000006
 20
51.1479
 30
0.0
 11
76.091800000000006
 21
50.8964
 31
0.0
  0
LINE
  5
1E7
  8
_________2
 62
     7
 10
79.802899999999994
 20
49.928400000000011
 30
0.0
 11
84.980900000000005
 21
49.063600000000001
 31
0.0
  0
LINE
  5
1E8
  8
_________2
 62
     7
 10
79.802899999999994
 20
52.367800000000003
 30
0.0
 11
84.980900000000005
 21
53.2333
 31
0.0
  0
LINE
  5
1E9
  8
_________2
 62
     7
 10
84.980900000000005
 20
49.063600000000001
 30
0.0
 11
84.980900000000005
 21
53.2333
 31
0.0
  0
LINE
  5
1EA
  8
_________2
 62
     7
 10
79.802899999999994
 20
49.928400000000011
 30
0.0
 11
79.802899999999994
 21
52.367800000000003
 31
0.0
  0
ARC
  5
1EB
  8
_________2
 62
     7
 10
76.045203999999998
 20
51.100991
 30
0.0
 40
1.267714
 50
2.1220840000000001
 51
87.894083999999992
  0
ARC
  5
1EC
  8
_________2
 62
     7
 10
76.138734999999997
 20
51.101345000000002
 30
0.0
 40
1.267374999999999
 50
92.122849999999985
 51
177.893304
  0
ARC
  5
1ED
  8
_________2
 62
     7
 10
76.138711000000001
 20
51.194856000000001
 30
0.0
 40
1.267363
 50
182.12181499999991
 51
267.87821400000001
  0
ARC
  5
1EE
  8
_________2
 62
     7
 10
76.044899000000001
 20
51.195538999999997
 30
0.0
 40
1.2680439999999991
 50
272.11916400000001
 51
357.84848499999993
  0
ARC
  5
1EF
  8
_________2
 62
     7
 10
76.011420000000001
 20
51.067923
 30
0.0
 40
2.1668310000000002
 50
2.1161439999999989
 51
87.874379000000005
  0
ARC
  5
1F0
  8
_________2
 62
     7
 10
76.171850000000006
 20
51.068944999999999
 30
0.0
 40
2.1657980000000001
 50
92.118487999999999
 51
177.90988599999989
  0
ARC
  5
1F1
  8
_________2
 62
     7
 10
76.171792000000011
 20
51.22793699999999
 30
0.0
 40
2.1657779999999991
 50
182.11700400000001
 51
267.88302499999992
  0
ARC
  5
1F2
  8
_________2
 62
     7
 10
76.011817000000008
 20
51.228619999999999
 30
0.0
 40
2.1664590000000001
 50
272.11546800000002
 51
357.86560400000002
  0
TEXT
  5
1F3
  8
_________2
 62
     7
 10
109.367
 20
23.0227
 30
0.0
 40
3.0923400000000001
  1
図番
 41
0.5
  0
LINE
  5
1F4
  8
_________2
 62
     7
 10
108.3129999999999
 20
27.251899999999999
 30
0.0
 11
188.3129999999999
 21
27.251899999999999
 31
0.0
  0
TEXT
  5
1F5
  8
_________2
 62
     7
 10
109.367
 20
33.022500000000001
 30
0.0
 40
3.0923400000000001
  1
品番
 41
0.5
  0
TEXT
  5
1F6
  8
_________2
 62
     7
 10
109.367
 20
53.161599999999993
 30
0.0
 40
3.0923400000000001
  1
名称
 41
0.5
  0
TEXT
  5
1F7
  8
_________2
 62
     7
 10
96.607458333333355
 20
48.165500000000002
 30
0.0
 40
3.6545800000000002
  1
mm
 41
0.5
 72
     1
 11
98.130200000000016
 21
48.165500000000002
 31
0.0
  0
TEXT
  5
1F8
  8
_________2
 62
     7
 10
90.405600000000007
 20
53.161599999999993
 30
0.0
 40
3.0923400000000001
  1
単位
 41
0.5
  0
TEXT
  5
1F9
  8
_________2
 62
     7
 10
90.405600000000007
 20
40.753999999999998
 30
0.0
 40
3.0923400000000001
  1
尺度
 41
0.5
  0
TEXT
  5
1FA
  8
_________2
 62
     7
 10
94.702061999999984
 20
34.561399999999992
 30
0.0
 40
3.6545800000000002
  1
1 ： 15
 41
0.5
 72
     1
 11
98.722099999999998
 21
34.561399999999992
 31
0.0
  0
TEXT
  5
1FB
  8
_________2
 62
     7
 10
113.941
 20
45.569299999999998
 30
0.0
 40
3.9357000000000002
  1
ML 洗面器
 41
0.5
  0
TEXT
  5
1FC
  8
_________2
 62
     7
 10
44.187700333333332
 20
34.946599999999989
 30
0.0
 40
3.6545800000000002
  1
早川
 41
0.5
 72
     1
 11
46.075899999999997
 21
34.946599999999989
 31
0.0
  0
TEXT
  5
1FD
  8
_________2
 62
     7
 10
25.55279066666666
 20
34.946599999999989
 30
0.0
 40
3.6545800000000002
  1
菅原
 41
0.5
 72
     1
 11
27.501899999999988
 21
34.946599999999989
 31
0.0
  0
TEXT
  5
1FE
  8
_________2
 62
     7
 10
72.548100000000005
 20
34.561399999999992
 30
0.0
 40
3.6545800000000002
  1
12.11.21
 41
0.5
  0
TEXT
  5
1FF
  8
_________2
 62
     7
 10
71.355400000000003
 20
40.753999999999998
 30
0.0
 40
3.0923400000000001
  1
日付
 41
0.5
  0
TEXT
  5
200
  8
_________2
 62
     7
 10
34.401699999999998
 20
40.753999999999998
 30
0.0
 40
3.0923400000000001
  1
検図
 41
0.5
  0
TEXT
  5
201
  8
_________2
 62
     7
 10
22.7834
 20
26.554600000000001
 30
0.0
 40
3.0923400000000001
  1
備考
 41
0.5
  0
TEXT
  5
202
  8
_________2
 62
     7
 10
22.7834
 20
40.753999999999998
 30
0.0
 40
3.0923400000000001
  1
製図
 41
0.5
  0
TEXT
  5
203
  8
_________2
 62
     7
 10
28.550865333333341
 20
49.280000000000001
 30
0.0
 40
4.4979399999999989
  1
セラトレーディング株式会社
 41
0.5
 72
     1
 11
45.942899999999987
 21
49.280000000000001
 31
0.0
  0
LINE
  5
204
  8
_________2
 62
     7
 10
188.3129999999999
 20
17.252099999999992
 30
0.0
 11
21.811900000000001
 21
17.252099999999992
 31
0.0
  0
LINE
  5
205
  8
_________2
 62
     7
 10
21.811900000000001
 20
17.252099999999992
 30
0.0
 11
21.811900000000001
 21
280.25400000000002
 31
0.0
  0
LINE
  5
206
  8
_________2
 62
     7
 10
21.811900000000001
 20
280.25400000000002
 30
0.0
 11
188.3129999999999
 21
280.25400000000002
 31
0.0
  0
LINE
  5
207
  8
_________2
 62
     7
 10
188.3129999999999
 20
280.25400000000002
 30
0.0
 11
188.3129999999999
 21
17.252099999999992
 31
0.0
  0
LINE
  5
208
  8
_________2
 62
     7
 10
70.312299999999993
 20
30.752500000000001
 30
0.0
 11
70.312299999999993
 21
57.252299999999991
 31
0.0
  0
LINE
  5
209
  8
_________2
 62
     7
 10
89.312100000000001
 20
30.752500000000001
 30
0.0
 11
89.312100000000001
 21
57.252299999999991
 31
0.0
  0
LINE
  5
20A
  8
_________2
 62
     7
 10
108.3129999999999
 20
17.252099999999992
 30
0.0
 11
108.3129999999999
 21
57.252299999999991
 31
0.0
  0
LINE
  5
20B
  8
_________2
 62
     7
 10
33.311700000000002
 20
30.752500000000001
 30
0.0
 11
33.311700000000002
 21
44.752400000000002
 31
0.0
  0
LINE
  5
20C
  8
_________2
 62
     7
 10
21.811900000000001
 20
30.752500000000001
 30
0.0
 11
108.3129999999999
 21
30.752500000000001
 31
0.0
  0
LINE
  5
20D
  8
_________2
 62
     7
 10
21.811900000000001
 20
44.752400000000002
 30
0.0
 11
108.3129999999999
 21
44.752400000000002
 31
0.0
  0
LINE
  5
20E
  8
_________2
 62
     7
 10
108.3129999999999
 20
37.2517
 30
0.0
 11
188.3129999999999
 21
37.2517
 31
0.0
  0
LINE
  5
20F
  8
_________2
 62
     7
 10
21.811900000000001
 20
57.252299999999991
 30
0.0
 11
188.3129999999999
 21
57.252299999999991
 31
0.0
  0
ENDSEC
  0
EOF
