  0
SECTION
  2
HEADER
  9
$ACADVER
  1
AC1009
  9
$INSBASE
 10
0.0
 20
0.0
 30
0.0
  9
$EXTMIN
 10
0.238402
 20
0.4485540000000001
 30
0.0
  9
$EXTMAX
 10
210.24000000000001
 20
297.45099999999991
 30
0.0
  9
$LIMMIN
 10
0.0
 20
0.0
  9
$LIMMAX
 10
12.0
 20
9.0
  9
$ORTHOMODE
 70
     0
  9
$REGENMODE
 70
     1
  9
$FILLMODE
 70
     1
  9
$QTEXTMODE
 70
     0
  9
$MIRRTEXT
 70
     1
  9
$DRAGMODE
 70
     2
  9
$LTSCALE
 40
1.0
  9
$OSMODE
 70
    37
  9
$ATTMODE
 70
     1
  9
$TEXTSIZE
 40
0.0
  9
$TRACEWID
 40
0.05
  9
$TEXTSTYLE
  7
STANDARD
  9
$CLAYER
  8
0
  9
$CELTYPE
  6
CONTINUOUS
  9
$CECOLOR
 62
   256
  9
$DIMSCALE
 40
1.0
  9
$DIMASZ
 40
0.18
  9
$DIMEXO
 40
0.0625
  9
$DIMDLI
 40
0.38
  9
$DIMRND
 40
0.0
  9
$DIMDLE
 40
0.0
  9
$DIMEXE
 40
0.18
  9
$DIMTP
 40
0.0
  9
$DIMTM
 40
0.0
  9
$DIMTXT
 40
0.18
  9
$DIMCEN
 40
0.09
  9
$DIMTSZ
 40
0.0
  9
$DIMTOL
 70
     0
  9
$DIMLIM
 70
     0
  9
$DIMTIH
 70
     1
  9
$DIMTOH
 70
     1
  9
$DIMSE1
 70
     0
  9
$DIMSE2
 70
     0
  9
$DIMTAD
 70
     0
  9
$DIMZIN
 70
     0
  9
$DIMBLK
  1

  9
$DIMASO
 70
     1
  9
$DIMSHO
 70
     1
  9
$DIMPOST
  1

  9
$DIMAPOST
  1

  9
$DIMALT
 70
     0
  9
$DIMALTD
 70
     2
  9
$DIMALTF
 40
25.399999999999999
  9
$DIMLFAC
 40
1.0
  9
$DIMTOFL
 70
     0
  9
$DIMTVP
 40
0.0
  9
$DIMTIX
 70
     0
  9
$DIMSOXD
 70
     0
  9
$DIMSAH
 70
     0
  9
$DIMBLK1
  1

  9
$DIMBLK2
  1

  9
$DIMSTYLE
  2
STANDARD
  9
$DIMCLRD
 70
     0
  9
$DIMCLRE
 70
     0
  9
$DIMCLRT
 70
     0
  9
$DIMTFAC
 40
1.0
  9
$DIMGAP
 40
0.09
  9
$LUNITS
 70
     2
  9
$LUPREC
 70
     4
  9
$SKETCHINC
 40
0.1
  9
$FILLETRAD
 40
0.0
  9
$AUNITS
 70
     0
  9
$AUPREC
 70
     0
  9
$MENU
  1
.
  9
$ELEVATION
 40
0.0
  9
$PELEVATION
 40
0.0
  9
$THICKNESS
 40
0.0
  9
$LIMCHECK
 70
     0
  9
$BLIPMODE
 70
     0
  9
$CHAMFERA
 40
0.0
  9
$CHAMFERB
 40
0.0
  9
$SKPOLY
 70
     0
  9
$TDCREATE
 40
2444972.375
  9
$TDUPDATE
 40
2457054.2485052198
  9
$TDINDWG
 40
0.000006956
  9
$TDUSRTIMER
 40
0.000006956
  9
$USRTIMER
 70
     1
  9
$ANGBASE
 50
0.0
  9
$ANGDIR
 70
     0
  9
$PDMODE
 70
     0
  9
$PDSIZE
 40
0.0
  9
$PLINEWID
 40
0.0
  9
$COORDS
 70
     1
  9
$SPLFRAME
 70
     0
  9
$SPLINETYPE
 70
     6
  9
$SPLINESEGS
 70
     8
  9
$ATTDIA
 70
     0
  9
$ATTREQ
 70
     1
  9
$HANDLING
 70
     1
  9
$HANDSEED
  5
26F
  9
$SURFTAB1
 70
     6
  9
$SURFTAB2
 70
     6
  9
$SURFTYPE
 70
     6
  9
$SURFU
 70
     6
  9
$SURFV
 70
     6
  9
$UCSNAME
  2

  9
$UCSORG
 10
0.0
 20
0.0
 30
0.0
  9
$UCSXDIR
 10
1.0
 20
0.0
 30
0.0
  9
$UCSYDIR
 10
0.0
 20
1.0
 30
0.0
  9
$PUCSNAME
  2

  9
$PUCSORG
 10
0.0
 20
0.0
 30
0.0
  9
$PUCSXDIR
 10
1.0
 20
0.0
 30
0.0
  9
$PUCSYDIR
 10
0.0
 20
1.0
 30
0.0
  9
$USERI1
 70
     0
  9
$USERI2
 70
     0
  9
$USERI3
 70
     0
  9
$USERI4
 70
     0
  9
$USERI5
 70
     0
  9
$USERR1
 40
0.0
  9
$USERR2
 40
0.0
  9
$USERR3
 40
0.0
  9
$USERR4
 40
0.0
  9
$USERR5
 40
0.0
  9
$WORLDVIEW
 70
     1
  9
$SHADEDGE
 70
     3
  9
$SHADEDIF
 70
    70
  9
$TILEMODE
 70
     1
  9
$MAXACTVP
 70
    48
  9
$PLIMCHECK
 70
     0
  9
$PEXTMIN
 10
1.0000000000000000E+020
 20
1.0000000000000000E+020
 30
1.0000000000000000E+020
  9
$PEXTMAX
 10
-1.0000000000000000E+020
 20
-1.0000000000000000E+020
 30
-1.0000000000000000E+020
  9
$PLIMMIN
 10
0.0
 20
0.0
  9
$PLIMMAX
 10
12.0
 20
9.0
  9
$UNITMODE
 70
     0
  9
$VISRETAIN
 70
     1
  9
$PLINEGEN
 70
     0
  9
$PSLTSCALE
 70
     1
  0
ENDSEC
  0
SECTION
  2
TABLES
  0
TABLE
  2
VPORT
 70
     2
  0
VPORT
  2
*ACTIVE
 70
     0
 10
0.0
 20
0.0
 11
1.0
 21
1.0
 12
206.64826976736501
 22
148.7254999999999
 13
0.0
 23
0.0
 14
1.0
 24
1.0
 15
0.0
 25
0.0
 16
0.0
 26
0.0
 36
1.0
 17
0.0
 27
0.0
 37
0.0
 40
299.90927272727259
 41
2.2894736842105261
 42
50.0
 43
0.0
 44
0.0
 50
0.0
 51
0.0
 71
     0
 72
   100
 73
     1
 74
     1
 75
     0
 76
     0
 77
     0
 78
     0
  0
ENDTAB
  0
TABLE
  2
LTYPE
 70
     4
  0
LTYPE
  2
CONTINUOUS
 70
     0
  3
Solid line
 72
    65
 73
     0
 40
0.0
  0
LTYPE
  2
AIGENLINE001
 70
     0
  3
generate AI->DXF Converter
 72
    65
 73
     4
 40
5.8561449999999988
 49
3.5278
 49
-0.776115
 49
0.776115
 49
-0.776115
  0
LTYPE
  2
AIGENLINE002
 70
     0
  3
generate AI->DXF Converter
 72
    65
 73
     2
 40
1.5522299999999991
 49
0.776115
 49
-0.776115
  0
LTYPE
  2
AIGENLINE003
 70
     0
  3
generate AI->DXF Converter
 72
    65
 73
     6
 40
7.4083750000000004
 49
3.5278
 49
-0.776115
 49
0.776115
 49
-0.776115
 49
0.776115
 49
-0.776115
  0
ENDTAB
  0
TABLE
  2
LAYER
 70
     2
  0
LAYER
  2
0
 70
     0
 62
     7
  6
CONTINUOUS
  0
LAYER
  2
_________2
 70
     0
 62
     7
  6
CONTINUOUS
  0
ENDTAB
  0
TABLE
  2
STYLE
 70
     1
  0
STYLE
  2
STANDARD
 70
     0
 40
0.0
 41
0.0
 50
0.0
 71
     0
 42
0.0
  3
TXT
  4
EXTFONT.SHX
  0
ENDTAB
  0
TABLE
  2
VIEW
 70
     0
  0
ENDTAB
  0
TABLE
  2
UCS
 70
     0
  0
ENDTAB
  0
TABLE
  2
APPID
 70
     1
  0
APPID
  2
ACAD
 70
     0
  0
ENDTAB
  0
TABLE
  2
DIMSTYLE
 70
     1
  0
DIMSTYLE
  2
STANDARD
 70
     0
  3

  4

  5

  6

  7

 40
1.0
 41
0.18
 42
0.0625
 43
0.38
 44
0.18
 45
0.0
 46
0.0
 47
0.0
 48
0.0
140
0.18
141
0.09
142
0.0
143
25.399999999999999
144
1.0
145
0.0
146
1.0
147
0.09
 71
     0
 72
     0
 73
     1
 74
     1
 75
     0
 76
     0
 77
     0
 78
     0
170
     0
171
     2
172
     0
173
     0
174
     0
175
     0
176
     0
177
     0
178
     0
  0
ENDTAB
  0
ENDSEC
  0
SECTION
  2
BLOCKS
  0
BLOCK
  8
0
  2
$MODEL_SPACE
 70
     0
 10
0.0
 20
0.0
 30
0.0
  3
$MODEL_SPACE
  1

  0
ENDBLK
  5
1A
  8
0
  0
BLOCK
 67
     1
  8
0
  2
$PAPER_SPACE
 70
     0
 10
0.0
 20
0.0
 30
0.0
  3
$PAPER_SPACE
  1

  0
ENDBLK
  5
17
 67
     1
  8
0
  0
ENDSEC
  0
SECTION
  2
ENTITIES
  0
TEXT
  5
24
  8
0
 62
     7
 10
56.719358499999998
 20
118.355
 30
0.0
 40
3.660169999999999
  1
取付ボルト×2セット付（尺度1：5）
 41
0.5
 72
     1
 11
74.837199999999996
 21
118.355
 31
0.0
  0
TEXT
  5
25
  8
0
 62
     7
 10
61.813095083333337
 20
113.779
 30
0.0
 40
3.660169999999999
  1
※Φ12×60樹脂プラグ付
 41
0.5
 72
     1
 11
74.837199999999996
 21
113.779
 31
0.0
  0
TEXT
  5
26
  8
0
 62
     7
 10
72.655929166666667
 20
104.48099999999999
 30
0.0
 40
3.660169999999999
  1
45
 41
0.5
 72
     1
 11
74.180999999999983
 21
104.48099999999999
 31
0.0
  0
TEXT
  5
27
  8
0
 62
     7
 10
78.825143333333315
 20
104.48099999999999
 30
0.0
 40
3.660169999999999
  1
15
 41
0.5
 72
     1
 11
80.045199999999994
 21
104.48099999999999
 31
0.0
  0
TEXT
  5
28
  8
0
 62
     7
 10
86.404236249999997
 20
104.48099999999999
 30
0.0
 40
3.660169999999999
  1
60
 41
0.5
 72
     1
 11
87.776799999999994
 21
104.48099999999999
 31
0.0
  0
TEXT
  5
29
  8
0
 62
     7
 10
158.80781866666661
 20
96.456000000000003
 30
0.0
 40
3.660169999999999
  1
陶器
 41
0.5
 72
     2
 11
162.71199999999999
 21
96.456000000000003
 31
0.0
  0
TEXT
  5
2A
  8
0
 62
     7
 10
149.74662599999991
 20
83.247499999999988
 30
0.0
 40
3.660169999999999
  1
シリコン
 41
0.5
 72
     2
 11
157.79899999999989
 21
83.247499999999988
 31
0.0
  0
TEXT
  5
2B
  8
0
 62
     7
 10
178.30399999999989
 20
229.86439375
 30
0.0
 40
3.660169999999999
  1
220
 50
90.0
 41
0.5
 72
     1
 11
178.30399999999989
 21
232.15199999999999
 31
0.0
  0
TEXT
  5
2C
  8
0
 62
     7
 10
126.5629999999999
 20
193.27199999999999
 30
0.0
 40
3.660169999999999
  1
※カウンターを設ける場合も洗面器の
 41
0.5
  0
TEXT
  5
2D
  8
0
 62
     7
 10
126.5629999999999
 20
188.69699999999989
 30
0.0
 40
3.660169999999999
  1
壁固定が必要です。
 41
0.5
  0
TEXT
  5
2E
  8
0
 62
     7
 10
126.5629999999999
 20
184.12200000000001
 30
0.0
 40
3.660169999999999
  1
※カウンターの制作可否はカウンター
 41
0.5
  0
TEXT
  5
2F
  8
0
 62
     7
 10
126.5629999999999
 20
179.54599999999999
 30
0.0
 40
3.660169999999999
  1
業者様にご確認ください。
 41
0.5
  0
TEXT
  5
30
  8
0
 62
     7
 10
140.6155466666666
 20
202.44399999999999
 30
0.0
 40
3.660169999999999
  1
カウンター切込寸法
 41
0.5
 72
     1
 11
150.37599999999989
 21
202.44399999999999
 31
0.0
  0
TEXT
  5
31
  8
0
 62
     7
 10
123.596
 20
225.66940791666659
 30
0.0
 40
3.660169999999999
  1
310
 50
90.0
 41
0.5
 72
     1
 11
123.596
 21
227.65199999999999
 31
0.0
  0
TEXT
  5
32
  8
0
 62
     7
 10
139.351
 20
229.71299999999999
 30
0.0
 40
3.660169999999999
  1
排水口
 41
0.5
  0
TEXT
  5
33
  8
0
 62
     7
 10
160.29300000000001
 20
217.25399999999999
 30
0.0
 40
3.660169999999999
  1
R10
 41
0.5
  0
TEXT
  5
34
  8
0
 62
     7
 10
136.26681583333331
 20
217.25399999999999
 30
0.0
 40
3.660169999999999
  1
R10
 41
0.5
 72
     2
 11
140.232
 21
217.25399999999999
 31
0.0
  0
TEXT
  5
35
  8
0
 62
     7
 10
158.05896033333329
 20
246.72
 30
0.0
 40
3.660169999999999
  1
壁
 41
0.5
 72
     1
 11
158.9129999999999
 21
246.72
 31
0.0
  0
TEXT
  5
36
  8
0
 62
     7
 10
148.08839374999991
 20
252.94699999999989
 30
0.0
 40
3.660169999999999
  1
380
 41
0.5
 72
     1
 11
150.37599999999989
 21
252.94699999999989
 31
0.0
  0
TEXT
  5
37
  8
0
 62
     7
 10
143.0382306190476
 20
75.924899999999994
 30
0.0
 40
3.660169999999999
  1
排水目皿カバー
 41
0.5
 72
     1
 11
150.37599999999989
 21
75.924899999999994
 31
0.0
  0
TEXT
  5
38
  8
0
 62
     7
 10
134.11299999999989
 20
83.698400000000007
 30
0.0
 40
3.660169999999999
  1
16
 50
90.0
 41
0.5
  0
TEXT
  5
39
  8
0
 62
     7
 10
147.47836541666661
 20
125.20699999999999
 30
0.0
 40
3.660169999999999
  1
%%c190
 41
0.5
 72
     1
 11
150.37599999999989
 21
125.20699999999999
 31
0.0
  0
TEXT
  5
3A
  8
0
 62
     7
 10
86.871287499999994
 20
228.50700000000001
 30
0.0
 40
3.660169999999999
  1
%%c50
 41
0.5
 72
     2
 11
91.4465
 21
228.50700000000001
 31
0.0
  0
TEXT
  5
3B
  8
0
 62
     7
 10
88.80007333333333
 20
246.828
 30
0.0
 40
3.660169999999999
  1
%%c36
 41
0.5
 72
     2
 11
93.680300000000003
 21
246.828
 31
0.0
  0
TEXT
  5
3C
  8
0
 62
     7
 10
147.49199999999999
 20
148.43492916666659
 30
0.0
 40
3.660169999999999
  1
95
 50
90.0
 41
0.5
 72
     1
 11
147.49199999999999
 21
149.96000000000001
 31
0.0
  0
TEXT
  5
3D
  8
0
 62
     7
 10
159.08839374999991
 20
162.244
 30
0.0
 40
3.660169999999999
  1
220
 41
0.5
 72
     1
 11
161.376
 21
162.244
 31
0.0
  0
TEXT
  5
3E
  8
0
 62
     7
 10
39.261899999999997
 20
145.84140791666661
 30
0.0
 40
3.660169999999999
  1
140
 50
90.0
 41
0.5
 72
     1
 11
39.261899999999997
 21
147.8239999999999
 31
0.0
  0
TEXT
  5
3F
  8
0
 62
     7
 10
45.849299999999992
 20
150.45143624999989
 30
0.0
 40
3.660169999999999
  1
60
 50
90.0
 41
0.5
 72
     1
 11
45.849299999999992
 21
151.8239999999999
 31
0.0
  0
TEXT
  5
40
  8
0
 62
     7
 10
112.324
 20
229.86439375
 30
0.0
 40
3.660169999999999
  1
220
 50
90.0
 41
0.5
 72
     1
 11
112.324
 21
232.15199999999999
 31
0.0
  0
TEXT
  5
41
  8
0
 62
     7
 10
39.752200000000002
 20
236.323915
 30
0.0
 40
3.660169999999999
  1
100
 50
90.0
 41
0.5
 72
     1
 11
39.752200000000002
 21
238.154
 31
0.0
  0
TEXT
  5
42
  8
0
 62
     7
 10
46.053600000000003
 20
233.78143625000001
 30
0.0
 40
3.660169999999999
  1
40
 50
90.0
 41
0.5
 72
     1
 11
46.053600000000003
 21
235.154
 31
0.0
  0
TEXT
  5
43
  8
0
 62
     7
 10
46.053600000000003
 20
238.77943625
 30
0.0
 40
3.660169999999999
  1
60
 50
90.0
 41
0.5
 72
     1
 11
46.053600000000003
 21
240.15199999999999
 31
0.0
  0
TEXT
  5
44
  8
0
 62
     7
 10
33.184399999999989
 20
218.9618866666666
 30
0.0
 40
3.660169999999999
  1
435
 50
90.0
 41
0.5
 72
     1
 11
33.184399999999989
 21
221.40199999999999
 31
0.0
  0
TEXT
  5
45
  8
0
 62
     7
 10
76.15049375000001
 20
162.244
 30
0.0
 40
3.660169999999999
  1
270
 41
0.5
 72
     1
 11
78.438100000000006
 21
162.244
 31
0.0
  0
TEXT
  5
46
  8
0
 62
     7
 10
76.302600833333344
 20
189.88800000000001
 30
0.0
 40
3.660169999999999
  1
500
 41
0.5
 72
     1
 11
78.437700000000007
 21
189.88800000000001
 31
0.0
  0
LINE
  5
47
  8
0
 62
     7
 10
66.271699999999996
 20
96.218299999999999
 30
0.0
 11
63.471499999999999
 21
96.218299999999999
 31
0.0
  0
LINE
  5
48
  8
0
 62
     7
 10
63.471499999999999
 20
96.218299999999999
 30
0.0
 11
63.471499999999999
 21
98.818399999999997
 31
0.0
  0
LINE
  5
49
  8
0
 62
     7
 10
63.471499999999999
 20
98.818399999999997
 30
0.0
 11
66.271699999999996
 21
98.818399999999997
 31
0.0
  0
LINE
  5
4A
  8
0
 62
     7
 10
66.271699999999996
 20
98.818399999999997
 30
0.0
 11
66.271699999999996
 21
96.218299999999999
 31
0.0
  0
LINE
  5
4B
  8
0
 62
     7
 10
63.471499999999999
 20
93.718199999999996
 30
0.0
 11
62.87169999999999
 21
93.718199999999996
 31
0.0
  0
LINE
  5
4C
  8
0
 62
     7
 10
62.87169999999999
 20
93.718199999999996
 30
0.0
 11
62.87169999999999
 21
101.3179999999999
 31
0.0
  0
LINE
  5
4D
  8
0
 62
     7
 10
62.87169999999999
 20
101.3179999999999
 30
0.0
 11
63.471499999999999
 21
101.3179999999999
 31
0.0
  0
LINE
  5
4E
  8
0
 62
     7
 10
63.471499999999999
 20
101.3179999999999
 30
0.0
 11
63.471499999999999
 21
93.718199999999996
 31
0.0
  0
LINE
  5
4F
  8
0
 62
     7
 10
62.87169999999999
 20
95.068399999999997
 30
0.0
 11
62.671500000000002
 21
95.068399999999997
 31
0.0
  0
LINE
  5
50
  8
0
 62
     7
 10
62.671500000000002
 20
95.068399999999997
 30
0.0
 11
62.671500000000002
 21
99.968299999999999
 31
0.0
  0
LINE
  5
51
  8
0
 62
     7
 10
62.671500000000002
 20
99.968299999999999
 30
0.0
 11
62.87169999999999
 21
99.968299999999999
 31
0.0
  0
LINE
  5
52
  8
0
 62
     7
 10
62.87169999999999
 20
99.968299999999999
 30
0.0
 11
62.87169999999999
 21
95.068399999999997
 31
0.0
  0
LINE
  5
53
  8
0
 62
     7
 10
59.89650000000001
 20
94.518199999999993
 30
0.0
 11
59.496499999999997
 21
94.518199999999993
 31
0.0
  0
LINE
  5
54
  8
0
 62
     7
 10
59.496499999999997
 20
94.518199999999993
 30
0.0
 11
59.496499999999997
 21
100.5179999999999
 31
0.0
  0
LINE
  5
55
  8
0
 62
     7
 10
59.496499999999997
 20
100.5179999999999
 30
0.0
 11
59.89650000000001
 21
100.5179999999999
 31
0.0
  0
LINE
  5
56
  8
0
 62
     7
 10
59.89650000000001
 20
100.5179999999999
 30
0.0
 11
59.89650000000001
 21
94.518199999999993
 31
0.0
  0
LINE
  5
57
  8
0
 62
     7
 10
76.471299999999999
 20
103.1959999999999
 30
0.0
 11
78.681700000000006
 21
103.7879999999999
 31
0.0
  0
LINE
  5
58
  8
0
 62
     7
 10
78.681700000000006
 20
103.7879999999999
 30
0.0
 11
76.471299999999999
 21
104.381
 31
0.0
  0
LINE
  5
59
  8
0
 62
     7
 10
76.471299999999999
 20
104.381
 30
0.0
 11
76.471299999999999
 21
103.1959999999999
 31
0.0
  0
LINE
  5
5A
  8
0
 62
     7
 10
91.469899999999996
 20
103.1959999999999
 30
0.0
 11
93.680300000000003
 21
103.7879999999999
 31
0.0
  0
LINE
  5
5B
  8
0
 62
     7
 10
93.680300000000003
 20
103.7879999999999
 30
0.0
 11
91.469899999999996
 21
104.381
 31
0.0
  0
LINE
  5
5C
  8
0
 62
     7
 10
91.469899999999996
 20
104.381
 30
0.0
 11
91.469899999999996
 21
103.1959999999999
 31
0.0
  0
LINE
  5
5D
  8
0
 62
     7
 10
83.890699999999995
 20
104.366
 30
0.0
 11
81.680299999999988
 21
103.77500000000001
 31
0.0
  0
LINE
  5
5E
  8
0
 62
     7
 10
81.680299999999988
 20
103.77500000000001
 30
0.0
 11
83.890699999999995
 21
103.1819999999999
 31
0.0
  0
LINE
  5
5F
  8
0
 62
     7
 10
83.890699999999995
 20
103.1819999999999
 30
0.0
 11
83.890699999999995
 21
104.366
 31
0.0
  0
LINE
  5
60
  8
0
 62
     7
 10
71.891999999999996
 20
104.366
 30
0.0
 11
69.681299999999993
 21
103.77500000000001
 31
0.0
  0
LINE
  5
61
  8
0
 62
     7
 10
69.681299999999993
 20
103.77500000000001
 30
0.0
 11
71.891999999999996
 21
103.1819999999999
 31
0.0
  0
LINE
  5
62
  8
0
 62
     7
 10
71.891999999999996
 20
103.1819999999999
 30
0.0
 11
71.891999999999996
 21
104.366
 31
0.0
  0
LINE
  5
63
  8
0
 62
     7
 10
93.680300000000003
 20
103.78100000000001
 30
0.0
 11
69.681299999999993
 21
103.78100000000001
 31
0.0
  0
LINE
  5
64
  8
0
 62
     7
 10
92.479699999999994
 20
98.41940000000001
 30
0.0
 11
93.680300000000003
 21
97.518199999999993
 31
0.0
  0
LINE
  5
65
  8
0
 62
     7
 10
92.479699999999994
 20
96.618300000000005
 30
0.0
 11
81.679900000000004
 21
96.619699999999995
 31
0.0
  0
LINE
  5
66
  8
0
 62
     7
 10
92.479699999999994
 20
98.41940000000001
 30
0.0
 11
81.679900000000004
 21
98.418700000000001
 31
0.0
  0
LINE
  5
67
  8
0
 62
     7
 10
69.880099999999999
 20
96.619699999999995
 30
0.0
 11
69.681299999999993
 21
96.818100000000001
 31
0.0
  0
LINE
  5
68
  8
0
 62
     7
 10
78.680300000000003
 20
96.818100000000001
 30
0.0
 11
78.881100000000004
 21
96.619699999999995
 31
0.0
  0
LINE
  5
69
  8
0
 62
     7
 10
78.680300000000003
 20
98.218900000000005
 30
0.0
 11
78.881100000000004
 21
98.418700000000001
 31
0.0
  0
LINE
  5
6A
  8
0
 62
     7
 10
69.681600000000003
 20
98.218199999999996
 30
0.0
 11
69.881399999999999
 21
98.417999999999992
 31
0.0
  0
LINE
  5
6B
  8
0
 62
     7
 10
69.681600000000003
 20
98.218199999999996
 30
0.0
 11
78.680300000000003
 21
98.218900000000005
 31
0.0
  0
LINE
  5
6C
  8
0
 62
     7
 10
69.681299999999993
 20
96.818100000000001
 30
0.0
 11
78.680300000000003
 21
96.818100000000001
 31
0.0
  0
LINE
  5
6D
  8
0
 62
     7
 10
69.880099999999999
 20
96.619699999999995
 30
0.0
 11
79.479900000000001
 21
96.619000000000014
 31
0.0
  0
LINE
  5
6E
  8
0
 62
     7
 10
69.881399999999999
 20
98.417999999999992
 30
0.0
 11
79.479900000000001
 21
98.418700000000001
 31
0.0
  0
LINE
  5
6F
  8
0
 62
     7
 10
81.679900000000004
 20
98.218199999999996
 30
0.0
 11
79.680700000000002
 21
98.218900000000005
 31
0.0
  0
LINE
  5
70
  8
0
 62
     7
 10
81.679900000000004
 20
96.818100000000001
 30
0.0
 11
79.680400000000006
 21
96.818799999999996
 31
0.0
  0
LINE
  5
71
  8
0
 62
     7
 10
79.479900000000001
 20
96.619000000000014
 30
0.0
 11
79.680400000000006
 21
96.818799999999996
 31
0.0
  0
LINE
  5
72
  8
0
 62
     7
 10
79.680700000000002
 20
98.218900000000005
 30
0.0
 11
79.479900000000001
 21
98.418700000000001
 31
0.0
  0
LINE
  5
73
  8
0
 62
     7
 10
93.680300000000003
 20
97.518199999999993
 30
0.0
 11
92.479699999999994
 21
96.618300000000005
 31
0.0
  0
LINE
  5
74
  8
0
 62
     7
 10
81.984800000000007
 20
98.819100000000006
 30
0.0
 11
83.008399999999995
 21
96.219399999999993
 31
0.0
  0
LINE
  5
75
  8
0
 62
     7
 10
82.872299999999996
 20
98.819100000000006
 30
0.0
 11
83.896199999999979
 21
96.218700000000013
 31
0.0
  0
LINE
  5
76
  8
0
 62
     7
 10
83.760799999999989
 20
98.819100000000006
 30
0.0
 11
84.784999999999997
 21
96.218700000000013
 31
0.0
  0
LINE
  5
77
  8
0
 62
     7
 10
84.648599999999988
 20
98.819100000000006
 30
0.0
 11
85.672499999999985
 21
96.219399999999993
 31
0.0
  0
LINE
  5
78
  8
0
 62
     7
 10
85.536100000000005
 20
98.818399999999997
 30
0.0
 11
86.561000000000007
 21
96.218700000000013
 31
0.0
  0
LINE
  5
79
  8
0
 62
     7
 10
86.423199999999994
 20
98.819100000000006
 30
0.0
 11
87.447400000000002
 21
96.218700000000013
 31
0.0
  0
LINE
  5
7A
  8
0
 62
     7
 10
87.310599999999994
 20
98.819100000000006
 30
0.0
 11
88.335899999999995
 21
96.218700000000013
 31
0.0
  0
LINE
  5
7B
  8
0
 62
     7
 10
88.198400000000007
 20
98.818399999999997
 30
0.0
 11
89.222700000000003
 21
96.218700000000013
 31
0.0
  0
LINE
  5
7C
  8
0
 62
     7
 10
89.086899999999986
 20
98.819100000000006
 30
0.0
 11
90.110799999999983
 21
96.218700000000013
 31
0.0
  0
LINE
  5
7D
  8
0
 62
     7
 10
89.975099999999998
 20
98.818399999999997
 30
0.0
 11
90.9983
 21
96.218700000000013
 31
0.0
  0
LINE
  5
7E
  8
0
 62
     7
 10
90.862600000000015
 20
98.819100000000006
 30
0.0
 11
91.885099999999994
 21
96.219399999999993
 31
0.0
  0
LINE
  5
7F
  8
0
 62
     7
 10
91.749300000000005
 20
98.819699999999997
 30
0.0
 11
92.773599999999988
 21
96.219399999999993
 31
0.0
  0
LINE
  5
80
  8
0
 62
     7
 10
81.679900000000004
 20
98.417999999999992
 30
0.0
 11
81.679900000000004
 21
96.619699999999995
 31
0.0
  0
LINE
  5
81
  8
0
 62
     7
 10
78.682000000000002
 20
98.417999999999992
 30
0.0
 11
78.680599999999984
 21
96.619699999999995
 31
0.0
  0
LINE
  5
82
  8
0
 62
     7
 10
69.881399999999999
 20
98.417999999999992
 30
0.0
 11
69.880099999999999
 21
96.619699999999995
 31
0.0
  0
LINE
  5
83
  8
0
 62
     7
 10
93.680300000000003
 20
104.36199999999999
 30
0.0
 11
93.680000000000007
 21
98.819100000000006
 31
0.0
  0
LINE
  5
84
  8
0
 62
     7
 10
81.679900000000004
 20
104.361
 30
0.0
 11
81.681700000000006
 21
98.819100000000006
 31
0.0
  0
LINE
  5
85
  8
0
 62
     7
 10
78.682000000000002
 20
104.36199999999999
 30
0.0
 11
78.680599999999984
 21
98.819100000000006
 31
0.0
  0
LINE
  5
86
  8
0
 62
     7
 10
69.681299999999993
 20
104.361
 30
0.0
 11
69.681299999999993
 21
98.820400000000006
 31
0.0
  0
LINE
  5
87
  8
0
 62
     7
 10
69.681600000000003
 20
98.218199999999996
 30
0.0
 11
69.681299999999993
 21
96.818100000000001
 31
0.0
  0
LINE
  5
88
  8
0
 62
     7
 10
56.026200000000003
 20
96.018900000000002
 30
0.0
 11
55.911799999999999
 21
96.519099999999995
 31
0.0
  0
ARC
  5
89
  8
0
 62
     7
 10
49.768805
 20
97.530535
 30
0.0
 40
6.2588049999999997
 50
355.43449600000002
 51
359.88688400000001
  0
ARC
  5
8A
  8
0
 62
     7
 10
53.058951
 20
97.275129000000007
 30
0.0
 40
2.9587779999999988
 50
347.53779300000002
 51
355.29321199999998
  0
ARC
  5
8B
  8
0
 62
     7
 10
55.155526999999999
 20
96.816187000000014
 30
0.0
 40
0.812574
 50
338.554303
 51
347.23434300000002
  0
ARC
  5
8C
  8
0
 62
     7
 10
55.151716999999998
 20
96.020681000000025
 30
0.0
 40
0.8745049999999999
 50
347.30358000000001
 51
359.88092499999988
  0
ARC
  5
8D
  8
0
 62
     7
 10
54.306423999999993
 20
96.177961999999994
 30
0.0
 40
1.7339990000000001
 50
337.67628300000001
 51
348.37249100000002
  0
ARC
  5
8E
  8
0
 62
     7
 10
55.146287000000001
 20
99.024535
 30
0.0
 40
0.881333
 50
347.14079099999998
 51
359.58702199999999
  0
ARC
  5
8F
  8
0
 62
     7
 10
54.272368999999998
 20
99.190782999999996
 30
0.0
 40
1.770629999999999
 50
337.69067000000001
 51
348.18981899999989
  0
ARC
  5
90
  8
0
 62
     7
 10
49.81165
 20
97.507973000000007
 30
0.0
 40
6.2159559999999994
 50
0.094064
 51
4.5900910000000001
  0
ARC
  5
91
  8
0
 62
     7
 10
53.105947999999998
 20
97.76464
 30
0.0
 40
2.9116939999999989
 50
4.743345999999999
 51
12.631898
  0
ARC
  5
92
  8
0
 62
     7
 10
55.160600000000002
 20
98.219555000000014
 30
0.0
 40
0.8073090000000001
 50
13.016615
 51
21.744741999999999
  0
LINE
  5
93
  8
0
 62
     7
 10
56.027599999999993
 20
99.018199999999993
 30
0.0
 11
55.911799999999999
 21
99.517700000000005
 31
0.0
  0
ARC
  5
94
  8
0
 62
     7
 10
55.317228
 20
96.019701999999995
 30
0.0
 40
0.8650830000000001
 50
167.34333000000001
 51
180.0555939999999
  0
ARC
  5
95
  8
0
 62
     7
 10
56.155403999999997
 20
95.864620000000002
 30
0.0
 40
1.7171769999999991
 50
157.62089900000001
 51
168.42235999999991
  0
ARC
  5
96
  8
0
 62
     7
 10
60.543085999999988
 20
97.508238000000006
 30
0.0
 40
6.0909500000000003
 50
179.89999299999991
 51
184.48232300000001
  0
ARC
  5
97
  8
0
 62
     7
 10
57.379134999999998
 20
97.269199999999984
 30
0.0
 40
2.9180079999999999
 50
184.6582499999999
 51
192.4266189999999
  0
ARC
  5
98
  8
0
 62
     7
 10
55.338346999999992
 20
96.824545999999984
 30
0.0
 40
0.8293610000000001
 50
192.76638399999999
 51
201.66192799999999
  0
LINE
  5
99
  8
0
 62
     7
 10
54.452100000000002
 20
96.018900000000002
 30
0.0
 11
54.567599999999999
 21
95.519300000000001
 31
0.0
  0
ARC
  5
9A
  8
0
 62
     7
 10
55.324817000000003
 20
99.020696000000001
 30
0.0
 40
0.873018
 50
180.11974599999999
 51
192.70729800000001
  0
ARC
  5
9B
  8
0
 62
     7
 10
56.188285
 20
99.181391000000005
 30
0.0
 40
1.750999
 50
191.62160700000001
 51
202.24073899999991
  0
ARC
  5
9C
  8
0
 62
     7
 10
60.591647999999999
 20
97.523876000000001
 30
0.0
 40
6.1395049999999998
 50
175.50159099999999
 51
180.04676299999991
  0
ARC
  5
9D
  8
0
 62
     7
 10
57.397151999999998
 20
97.765981000000011
 30
0.0
 40
2.9358749999999989
 50
167.60843600000001
 51
175.322272
  0
ARC
  5
9E
  8
0
 62
     7
 10
55.339106000000008
 20
98.213134000000011
 30
0.0
 40
0.8298329999999999
 50
158.3981269999999
 51
167.2698969999999
  0
ARC
  5
9F
  8
0
 62
     7
 10
55.32137500000001
 20
99.020591000000024
 30
0.0
 40
0.8695759999999999
 50
167.44088999999991
 51
180.1133199999999
  0
ARC
  5
A0
  8
0
 62
     7
 10
56.148031999999994
 20
98.868355000000008
 30
0.0
 40
1.70984
 50
157.6297659999999
 51
168.48510899999991
  0
LINE
  5
A1
  8
0
  6
AIGENLINE001
 62
     7
 10
50.807600000000001
 20
97.518199999999993
 30
0.0
 11
97.918200000000013
 21
97.518900000000016
 31
0.0
  0
LINE
  5
A2
  8
0
 62
     7
 10
54.566899999999997
 20
99.519099999999995
 30
0.0
 11
55.911799999999999
 21
99.517700000000005
 31
0.0
  0
LINE
  5
A3
  8
0
 62
     7
 10
54.567599999999999
 20
98.518600000000021
 30
0.0
 11
55.910499999999999
 21
98.518600000000021
 31
0.0
  0
LINE
  5
A4
  8
0
 62
     7
 10
54.567599999999999
 20
95.519300000000001
 30
0.0
 11
55.910499999999999
 21
95.519300000000001
 31
0.0
  0
LINE
  5
A5
  8
0
 62
     7
 10
54.566899999999997
 20
96.518399999999986
 30
0.0
 11
55.911799999999999
 21
96.51700000000001
 31
0.0
  0
LINE
  5
A6
  8
0
 62
     7
 10
56.039299999999997
 20
95.8459
 30
0.0
 11
56.039999999999999
 21
97.518199999999993
 31
0.0
  0
LINE
  5
A7
  8
0
 62
     7
 10
56.039999999999999
 20
97.518199999999993
 30
0.0
 11
56.039299999999997
 21
99.191100000000006
 31
0.0
  0
LINE
  5
A8
  8
0
 62
     7
 10
55.910499999999999
 20
95.519300000000001
 30
0.0
 11
56.039299999999997
 21
95.8459
 31
0.0
  0
LINE
  5
A9
  8
0
 62
     7
 10
54.440100000000001
 20
95.845200000000006
 30
0.0
 11
54.438699999999997
 21
99.191100000000006
 31
0.0
  0
LINE
  5
AA
  8
0
 62
     7
 10
54.438699999999997
 20
99.191100000000006
 30
0.0
 11
54.566899999999997
 21
99.519099999999995
 31
0.0
  0
LINE
  5
AB
  8
0
 62
     7
 10
54.440100000000001
 20
95.845200000000006
 30
0.0
 11
54.567599999999999
 21
95.519300000000001
 31
0.0
  0
LINE
  5
AC
  8
0
 62
     7
 10
55.910499999999999
 20
95.519300000000001
 30
0.0
 11
56.039299999999997
 21
95.8459
 31
0.0
  0
LINE
  5
AD
  8
0
 62
     7
 10
55.911799999999999
 20
99.517700000000005
 30
0.0
 11
56.039299999999997
 21
99.191100000000006
 31
0.0
  0
LINE
  5
AE
  8
0
 62
     7
 10
154.90700000000001
 20
95.755999999999986
 30
0.0
 11
162.71199999999999
 21
95.755999999999986
 31
0.0
  0
LINE
  5
AF
  8
0
 62
     7
 10
153.15000000000001
 20
92.790400000000005
 30
0.0
 11
151.262
 21
91.496099999999998
 31
0.0
  0
LINE
  5
B0
  8
0
 62
     7
 10
151.262
 20
91.496099999999998
 30
0.0
 11
152.24899999999991
 21
93.5608
 31
0.0
  0
LINE
  5
B1
  8
0
 62
     7
 10
152.24899999999991
 20
93.5608
 30
0.0
 11
153.15000000000001
 21
92.790400000000005
 31
0.0
  0
LINE
  5
B2
  8
0
 62
     7
 10
151.262
 20
91.496099999999998
 30
0.0
 11
154.90700000000001
 21
95.755999999999986
 31
0.0
  0
LINE
  5
B3
  8
0
 62
     7
 10
146.55899999999991
 20
82.547399999999996
 30
0.0
 11
157.79899999999989
 21
82.547399999999996
 31
0.0
  0
LINE
  5
B4
  8
0
 62
     7
 10
144.30699999999999
 20
86.907899999999984
 30
0.0
 11
144.0929999999999
 21
89.186199999999999
 31
0.0
  0
LINE
  5
B5
  8
0
 62
     7
 10
144.0929999999999
 20
89.186199999999999
 30
0.0
 11
145.41800000000001
 21
87.320299999999989
 31
0.0
  0
LINE
  5
B6
  8
0
 62
     7
 10
145.41800000000001
 20
87.320299999999989
 30
0.0
 11
144.30699999999999
 21
86.907899999999984
 31
0.0
  0
LINE
  5
B7
  8
0
 62
     7
 10
144.0929999999999
 20
89.186199999999999
 30
0.0
 11
146.55899999999991
 21
82.547399999999996
 31
0.0
  0
LINE
  5
B8
  8
0
 62
     7
 10
160.47799999999989
 20
245.86199999999991
 30
0.0
 11
158.9129999999999
 21
243.15199999999999
 31
0.0
  0
LINE
  5
B9
  8
0
 62
     7
 10
158.9129999999999
 20
243.15199999999999
 30
0.0
 11
157.3479999999999
 21
245.86199999999991
 31
0.0
  0
LINE
  5
BA
  8
0
 62
     7
 10
157.3479999999999
 20
245.86199999999991
 30
0.0
 11
160.47799999999989
 21
245.86199999999991
 31
0.0
  0
LINE
  5
BB
  8
0
 62
     7
 10
179.56200000000001
 20
240.94099999999989
 30
0.0
 11
178.96899999999999
 21
243.15199999999999
 31
0.0
  0
LINE
  5
BC
  8
0
 62
     7
 10
178.96899999999999
 20
243.15199999999999
 30
0.0
 11
178.37700000000001
 21
240.94099999999989
 31
0.0
  0
LINE
  5
BD
  8
0
 62
     7
 10
178.37700000000001
 20
240.94099999999989
 30
0.0
 11
179.56200000000001
 21
240.94099999999989
 31
0.0
  0
LINE
  5
BE
  8
0
 62
     7
 10
178.39099999999991
 20
223.363
 30
0.0
 11
178.983
 21
221.15199999999999
 31
0.0
  0
LINE
  5
BF
  8
0
 62
     7
 10
178.983
 20
221.15199999999999
 30
0.0
 11
179.5749999999999
 21
223.363
 31
0.0
  0
LINE
  5
C0
  8
0
 62
     7
 10
179.5749999999999
 20
223.363
 30
0.0
 11
178.39099999999991
 21
223.363
 31
0.0
  0
LINE
  5
C1
  8
0
 62
     7
 10
178.976
 20
243.1509999999999
 30
0.0
 11
178.976
 21
221.15299999999991
 31
0.0
  0
LINE
  5
C2
  8
0
 62
     7
 10
123.574
 20
212.15199999999999
 30
0.0
 11
130.62599999999989
 21
212.15199999999999
 31
0.0
  0
LINE
  5
C3
  8
0
 62
     7
 10
123.56100000000001
 20
243.15199999999999
 30
0.0
 11
126.355
 21
243.15199999999999
 31
0.0
  0
LINE
  5
C4
  8
0
 62
     7
 10
174.3959999999999
 20
243.15199999999999
 30
0.0
 11
179.78599999999989
 21
243.15199999999999
 31
0.0
  0
LINE
  5
C5
  8
0
 62
     7
 10
155.54199999999989
 20
221.15199999999999
 30
0.0
 11
179.852
 21
221.15199999999999
 31
0.0
  0
LINE
  5
C6
  8
0
 62
     7
 10
139.351
 20
228.87299999999999
 30
0.0
 11
147.78700000000001
 21
228.87299999999999
 31
0.0
  0
LINE
  5
C7
  8
0
 62
     7
 10
149.28399999999991
 20
225.69699999999989
 30
0.0
 11
149.304
 21
223.40799999999999
 31
0.0
  0
LINE
  5
C8
  8
0
 62
     7
 10
149.304
 20
223.40799999999999
 30
0.0
 11
148.14199999999991
 21
225.38
 31
0.0
  0
LINE
  5
C9
  8
0
 62
     7
 10
148.14199999999991
 20
225.38
 30
0.0
 11
149.28399999999991
 21
225.69699999999989
 31
0.0
  0
LINE
  5
CA
  8
0
 62
     7
 10
149.304
 20
223.40799999999999
 30
0.0
 11
147.78700000000001
 21
228.87299999999999
 31
0.0
  0
LINE
  5
CB
  8
0
 62
     7
 10
160.29300000000001
 20
216.41399999999999
 30
0.0
 11
165.023
 21
216.41399999999999
 31
0.0
  0
LINE
  5
CC
  8
0
 62
     7
 10
135.637
 20
216.41399999999999
 30
0.0
 11
140.232
 21
216.41399999999999
 31
0.0
  0
LINE
  5
CD
  8
0
 62
     7
 10
167.88900000000001
 20
214.386
 30
0.0
 11
169.0329999999999
 21
212.404
 31
0.0
  0
LINE
  5
CE
  8
0
 62
     7
 10
169.0329999999999
 20
212.404
 30
0.0
 11
167.0509999999999
 21
213.548
 31
0.0
  0
LINE
  5
CF
  8
0
 62
     7
 10
167.0509999999999
 20
213.548
 30
0.0
 11
167.88900000000001
 21
214.386
 31
0.0
  0
LINE
  5
D0
  8
0
 62
     7
 10
169.0329999999999
 20
212.404
 30
0.0
 11
165.023
 21
216.41399999999999
 31
0.0
  0
LINE
  5
D1
  8
0
 62
     7
 10
132.8129999999999
 20
214.42699999999999
 30
0.0
 11
131.6689999999999
 21
212.44499999999991
 31
0.0
  0
LINE
  5
D2
  8
0
 62
     7
 10
131.6689999999999
 20
212.44499999999991
 30
0.0
 11
133.65100000000001
 21
213.58999999999989
 31
0.0
  0
LINE
  5
D3
  8
0
 62
     7
 10
133.65100000000001
 20
213.58999999999989
 30
0.0
 11
132.8129999999999
 21
214.42699999999999
 31
0.0
  0
LINE
  5
D4
  8
0
 62
     7
 10
131.6689999999999
 20
212.44499999999991
 30
0.0
 11
135.637
 21
216.41399999999999
 31
0.0
  0
LINE
  5
D5
  8
0
 62
     7
 10
124.85299999999989
 20
240.96599999999989
 30
0.0
 11
124.261
 21
243.17699999999999
 31
0.0
  0
LINE
  5
D6
  8
0
 62
     7
 10
124.261
 20
243.17699999999999
 30
0.0
 11
123.66800000000001
 21
240.96599999999989
 31
0.0
  0
LINE
  5
D7
  8
0
 62
     7
 10
123.66800000000001
 20
240.96599999999989
 30
0.0
 11
124.85299999999989
 21
240.96599999999989
 31
0.0
  0
LINE
  5
D8
  8
0
 62
     7
 10
123.682
 20
214.36299999999989
 30
0.0
 11
124.2739999999999
 21
212.15199999999999
 31
0.0
  0
LINE
  5
D9
  8
0
 62
     7
 10
124.2739999999999
 20
212.15199999999999
 30
0.0
 11
124.867
 21
214.36299999999989
 31
0.0
  0
LINE
  5
DA
  8
0
 62
     7
 10
124.867
 20
214.36299999999989
 30
0.0
 11
123.682
 21
214.36299999999989
 31
0.0
  0
LINE
  5
DB
  8
0
 62
     7
 10
124.267
 20
243.17599999999999
 30
0.0
 11
124.267
 21
212.15199999999999
 31
0.0
  0
LINE
  5
DC
  8
0
 62
     7
 10
131.376
 20
243.99199999999999
 30
0.0
 11
131.376
 21
252.78599999999989
 31
0.0
  0
LINE
  5
DD
  8
0
 62
     7
 10
169.375
 20
243.99199999999999
 30
0.0
 11
169.375
 21
252.78599999999989
 31
0.0
  0
LINE
  5
DE
  8
0
 62
     7
 10
167.16499999999991
 20
251.5209999999999
 30
0.0
 11
169.375
 21
252.11399999999989
 31
0.0
  0
LINE
  5
DF
  8
0
 62
     7
 10
169.375
 20
252.11399999999989
 30
0.0
 11
167.16499999999991
 21
252.70599999999999
 31
0.0
  0
LINE
  5
E0
  8
0
 62
     7
 10
167.16499999999991
 20
252.70599999999999
 30
0.0
 11
167.16499999999991
 21
251.5209999999999
 31
0.0
  0
LINE
  5
E1
  8
0
 62
     7
 10
133.58600000000001
 20
252.69200000000001
 30
0.0
 11
131.376
 21
252.09999999999991
 31
0.0
  0
LINE
  5
E2
  8
0
 62
     7
 10
131.376
 20
252.09999999999991
 30
0.0
 11
133.58600000000001
 21
251.5079999999999
 31
0.0
  0
LINE
  5
E3
  8
0
 62
     7
 10
133.58600000000001
 20
251.5079999999999
 30
0.0
 11
133.58600000000001
 21
252.69200000000001
 31
0.0
  0
LINE
  5
E4
  8
0
 62
     7
 10
169.374
 20
252.10699999999991
 30
0.0
 11
131.376
 21
252.10699999999991
 31
0.0
  0
LINE
  5
E5
  8
0
 62
     7
 10
134.22799999999989
 20
93.709599999999995
 30
0.0
 11
134.82099999999991
 21
91.498900000000006
 31
0.0
  0
LINE
  5
E6
  8
0
 62
     7
 10
134.82099999999991
 20
91.498900000000006
 30
0.0
 11
135.4129999999999
 21
93.709599999999995
 31
0.0
  0
LINE
  5
E7
  8
0
 62
     7
 10
135.4129999999999
 20
93.709599999999995
 30
0.0
 11
134.22799999999989
 21
93.709599999999995
 31
0.0
  0
LINE
  5
E8
  8
0
 62
     7
 10
135.399
 20
87.690600000000003
 30
0.0
 11
134.80699999999999
 21
89.901399999999995
 31
0.0
  0
LINE
  5
E9
  8
0
 62
     7
 10
134.80699999999999
 20
89.901399999999995
 30
0.0
 11
134.214
 21
87.690600000000003
 31
0.0
  0
LINE
  5
EA
  8
0
 62
     7
 10
134.214
 20
87.690600000000003
 30
0.0
 11
135.399
 21
87.690600000000003
 31
0.0
  0
LINE
  5
EB
  8
0
 62
     7
 10
134.8129999999999
 20
83.698400000000007
 30
0.0
 11
134.8129999999999
 21
95.698099999999997
 31
0.0
  0
LINE
  5
EC
  8
0
 62
     7
 10
143.08600000000001
 20
125.092
 30
0.0
 11
140.876
 21
124.5
 31
0.0
  0
LINE
  5
ED
  8
0
 62
     7
 10
140.876
 20
124.5
 30
0.0
 11
143.08600000000001
 21
123.907
 31
0.0
  0
LINE
  5
EE
  8
0
 62
     7
 10
143.08600000000001
 20
123.907
 30
0.0
 11
143.08600000000001
 21
125.092
 31
0.0
  0
LINE
  5
EF
  8
0
 62
     7
 10
157.66499999999991
 20
123.92100000000001
 30
0.0
 11
159.876
 21
124.51299999999991
 31
0.0
  0
LINE
  5
F0
  8
0
 62
     7
 10
159.876
 20
124.51299999999991
 30
0.0
 11
157.66499999999991
 21
125.10599999999999
 31
0.0
  0
LINE
  5
F1
  8
0
 62
     7
 10
157.66499999999991
 20
125.10599999999999
 30
0.0
 11
157.66499999999991
 21
123.92100000000001
 31
0.0
  0
LINE
  5
F2
  8
0
 62
     7
 10
140.87700000000001
 20
124.50700000000001
 30
0.0
 11
159.875
 21
124.50700000000001
 31
0.0
  0
LINE
  5
F3
  8
0
 62
     7
 10
140.876
 20
125.35299999999999
 30
0.0
 11
140.876
 21
114.34099999999999
 31
0.0
  0
LINE
  5
F4
  8
0
 62
     7
 10
159.876
 20
125.35299999999999
 30
0.0
 11
159.876
 21
114.34099999999999
 31
0.0
  0
LINE
  5
F5
  8
0
 62
     7
 10
133.96700000000001
 20
91.498900000000006
 30
0.0
 11
144.67799999999991
 21
91.498900000000006
 31
0.0
  0
LINE
  5
F6
  8
0
 62
     7
 10
133.96700000000001
 20
89.901399999999995
 30
0.0
 11
138.96600000000001
 21
89.901399999999995
 31
0.0
  0
ARC
  5
F7
  8
0
  6
AIGENLINE002
 62
     7
 10
150.375923
 20
221.152241
 30
0.0
 40
2.5001220000000002
 50
270.00002000000001
 51
359.99998999999991
  0
ARC
  5
F8
  8
0
  6
AIGENLINE002
 62
     7
 10
150.37609499999999
 20
221.15206800000001
 30
0.0
 40
2.4999489999999991
 50
179.99602200000001
 51
269.99607200000003
  0
ARC
  5
F9
  8
0
  6
AIGENLINE002
 62
     7
 10
150.37601000000001
 20
221.1523259999999
 30
0.0
 40
2.4998640000000001
 50
90.001974000000004
 51
180.00198399999999
  0
ARC
  5
FA
  8
0
  6
AIGENLINE002
 62
     7
 10
150.37600900000001
 20
221.152154
 30
0.0
 40
2.5000360000000001
 50
0.001984
 51
90.001953999999998
  0
LINE
  5
FB
  8
0
  6
AIGENLINE001
 62
     7
 10
145.67099999999991
 20
221.15199999999999
 30
0.0
 11
154.84200000000001
 21
221.15199999999999
 31
0.0
  0
ARC
  5
FC
  8
0
 62
     7
 10
168.33764500000001
 20
213.18993299999991
 30
0.0
 40
1.0384370000000001
 50
272.13423299999999
 51
357.92501800000002
  0
ARC
  5
FD
  8
0
 62
     7
 10
132.376047
 20
213.15250599999999
 30
0.0
 40
1.000289999999999
 50
180.0098769999999
 51
270.00988699999999
  0
LINE
  5
FE
  8
0
  6
AIGENLINE001
 62
     7
 10
150.37599999999989
 20
209.904
 30
0.0
 11
150.37599999999989
 21
245.79900000000001
 31
0.0
  0
LINE
  5
FF
  8
0
 62
     7
 10
169.375
 20
213.15199999999999
 30
0.0
 11
169.375
 21
243.15199999999999
 31
0.0
  0
LINE
  5
100
  8
0
 62
     7
 10
131.376
 20
243.15199999999999
 30
0.0
 11
127.05500000000001
 21
243.15199999999999
 31
0.0
  0
LINE
  5
101
  8
0
 62
     7
 10
173.696
 20
243.15199999999999
 30
0.0
 11
169.375
 21
243.15199999999999
 31
0.0
  0
LINE
  5
102
  8
0
 62
     7
 10
168.37599999999989
 20
212.15199999999999
 30
0.0
 11
132.376
 21
212.15199999999999
 31
0.0
  0
LINE
  5
103
  8
0
  6
AIGENLINE003
 62
     7
 10
169.375
 20
243.15199999999999
 30
0.0
 11
131.376
 21
243.15199999999999
 31
0.0
  0
LINE
  5
104
  8
0
 62
     7
 10
131.376
 20
243.15199999999999
 30
0.0
 11
131.376
 21
213.15199999999999
 31
0.0
  0
LINE
  5
105
  8
0
  6
AIGENLINE001
 62
     7
 10
143.7949999999999
 20
112.226
 30
0.0
 11
143.7949999999999
 21
110.226
 31
0.0
  0
ARC
  5
106
  8
0
 62
     7
 10
143.7649199999999
 20
89.931163999999995
 30
0.0
 40
0.8054979999999998
 50
272.119889
 51
357.88012099999992
  0
ARC
  5
107
  8
0
 62
     7
 10
143.82452000000001
 20
89.930814999999996
 30
0.0
 40
0.80515
 50
182.09596999999991
 51
267.87858899999998
  0
ARC
  5
108
  8
0
  6
AIGENLINE002
 62
     7
 10
143.76525899999999
 20
111.2557699999999
 30
0.0
 40
0.805161
 50
272.09667200000001
 51
357.87786799999998
  0
ARC
  5
109
  8
0
  6
AIGENLINE002
 62
     7
 10
143.8244959999999
 20
111.255736
 30
0.0
 40
0.8051379999999999
 50
182.1197389999999
 51
267.88029099999989
  0
ARC
  5
10A
  8
0
  6
AIGENLINE002
 62
     7
 10
143.795061
 20
111.22629999999999
 30
0.0
 40
0.7751520000000001
 50
90.025465000000011
 51
180.02547499999989
  0
ARC
  5
10B
  8
0
  6
AIGENLINE002
 62
     7
 10
143.764906
 20
111.19650300000001
 30
0.0
 40
0.8054999999999999
 50
2.0954280000000001
 51
87.879102000000003
  0
LINE
  5
10C
  8
0
  6
AIGENLINE001
 62
     7
 10
150.37599999999989
 20
111.226
 30
0.0
 11
155.74299999999999
 21
116.592
 31
0.0
  0
LINE
  5
10D
  8
0
  6
AIGENLINE001
 62
     7
 10
155.74299999999999
 20
115.178
 30
0.0
 11
154.32900000000001
 21
116.592
 31
0.0
  0
ARC
  5
10E
  8
0
  6
AIGENLINE002
 62
     7
 10
155.0354449999999
 20
115.84383
 30
0.0
 40
0.804639
 50
47.062671000000002
 51
132.937309
  0
ARC
  5
10F
  8
0
  6
AIGENLINE002
 62
     7
 10
155.07623299999989
 20
115.88496000000001
 30
0.0
 40
0.8043969999999999
 50
137.06343699999999
 51
222.93656299999989
  0
ARC
  5
110
  8
0
  6
AIGENLINE002
 62
     7
 10
155.0354449999999
 20
115.8857559999999
 30
0.0
 40
0.775598
 50
225.03263499999991
 51
314.96738499999998
  0
ARC
  5
111
  8
0
  6
AIGENLINE002
 62
     7
 10
154.99231299999991
 20
115.88496000000001
 30
0.0
 40
0.8061149999999999
 50
317.17691600000001
 51
42.823084000000001
  0
LINE
  5
112
  8
0
  6
AIGENLINE001
 62
     7
 10
150.37599999999989
 20
111.226
 30
0.0
 11
155.74299999999999
 21
105.8599999999999
 31
0.0
  0
LINE
  5
113
  8
0
  6
AIGENLINE001
 62
     7
 10
155.74299999999999
 20
107.274
 30
0.0
 11
154.32900000000001
 21
105.8599999999999
 31
0.0
  0
ARC
  5
114
  8
0
 62
     7
 10
155.00566000000001
 20
89.931139999999999
 30
0.0
 40
0.8054859999999999
 50
272.1436589999999
 51
357.881822
  0
ARC
  5
115
  8
0
 62
     7
 10
155.0655659999999
 20
89.931503000000006
 30
0.0
 40
0.805836
 50
182.14310800000001
 51
267.88238100000001
  0
ARC
  5
116
  8
0
  6
AIGENLINE002
 62
     7
 10
155.0354449999999
 20
106.567403
 30
0.0
 40
0.775598
 50
225.03263499999991
 51
314.96738499999998
  0
ARC
  5
117
  8
0
  6
AIGENLINE002
 62
     7
 10
155.07796799999991
 20
106.566779
 30
0.0
 40
0.8057859999999999
 50
137.13850299999999
 51
222.86149700000001
  0
ARC
  5
118
  8
0
  6
AIGENLINE002
 62
     7
 10
155.0354449999999
 20
106.525029
 30
0.0
 40
0.8052189999999999
 50
47.101072000000002
 51
132.89890800000001
  0
ARC
  5
119
  8
0
  6
AIGENLINE002
 62
     7
 10
155.0341949999999
 20
106.566779
 30
0.0
 40
0.77604
 50
315.06525299999993
 51
44.934746999999987
  0
LINE
  5
11A
  8
0
  6
AIGENLINE001
 62
     7
 10
150.37599999999989
 20
122.5659999999999
 30
0.0
 11
150.37599999999989
 21
99.88600000000001
 31
0.0
  0
LINE
  5
11B
  8
0
  6
AIGENLINE001
 62
     7
 10
161.29599999999991
 20
111.226
 30
0.0
 11
138.61600000000001
 21
111.226
 31
0.0
  0
ARC
  5
11C
  8
0
 62
     7
 10
150.37609399999999
 20
111.225781
 30
0.0
 40
9.5000809999999998
 50
179.99893099999991
 51
269.99898100000001
  0
ARC
  5
11D
  8
0
 62
     7
 10
150.3760969999999
 20
111.22612599999999
 30
0.0
 40
9.5000850000000003
 50
90.001039000000006
 51
180.00104899999991
  0
ARC
  5
11E
  8
0
 62
     7
 10
150.37557699999991
 20
111.226298
 30
0.0
 40
9.4999130000000012
 50
359.99793199999999
 51
89.997901999999996
  0
ARC
  5
11F
  8
0
 62
     7
 10
150.37557699999991
 20
111.225613
 30
0.0
 40
9.4999130000000012
 50
270.00209799999999
 51
0.002068
  0
LINE
  5
120
  8
0
 62
     7
 10
159.59399999999991
 20
89.901399999999995
 30
0.0
 11
141.17099999999999
 21
89.901399999999995
 31
0.0
  0
LINE
  5
121
  8
0
 62
     7
 10
159.59399999999991
 20
89.901399999999995
 30
0.0
 11
159.69599999999991
 21
89.929599999999994
 31
0.0
  0
LINE
  5
122
  8
0
 62
     7
 10
159.69599999999991
 20
89.929599999999994
 30
0.0
 11
159.78700000000001
 21
89.985799999999998
 31
0.0
  0
LINE
  5
123
  8
0
 62
     7
 10
159.78700000000001
 20
89.985799999999998
 30
0.0
 11
159.84999999999999
 21
90.083999999999989
 31
0.0
  0
LINE
  5
124
  8
0
 62
     7
 10
159.84999999999999
 20
90.083999999999989
 30
0.0
 11
159.876
 21
90.196600000000004
 31
0.0
  0
LINE
  5
125
  8
0
 62
     7
 10
159.876
 20
90.196600000000004
 30
0.0
 11
159.876
 21
90.308899999999994
 31
0.0
  0
LINE
  5
126
  8
0
 62
     7
 10
159.876
 20
90.308899999999994
 30
0.0
 11
159.8249999999999
 21
90.421599999999998
 31
0.0
  0
LINE
  5
127
  8
0
 62
     7
 10
159.8249999999999
 20
90.421599999999998
 30
0.0
 11
159.74799999999999
 21
90.491900000000015
 31
0.0
  0
LINE
  5
128
  8
0
 62
     7
 10
159.74799999999999
 20
90.491900000000015
 30
0.0
 11
159.64500000000001
 21
90.533900000000003
 31
0.0
  0
LINE
  5
129
  8
0
 62
     7
 10
159.64500000000001
 20
90.533900000000003
 30
0.0
 11
158.10900000000001
 21
90.843299999999985
 31
0.0
  0
LINE
  5
12A
  8
0
 62
     7
 10
158.10900000000001
 20
90.843299999999985
 30
0.0
 11
156.57299999999989
 21
91.082000000000008
 31
0.0
  0
ARC
  5
12B
  8
0
 62
     7
 10
150.3945469999999
 20
46.346494999999997
 30
0.0
 40
45.160154999999989
 50
82.136576000000005
 51
95.930550999999994
  0
LINE
  5
12C
  8
0
 62
     7
 10
145.72799999999989
 20
91.264899999999997
 30
0.0
 11
144.179
 21
91.082000000000008
 31
0.0
  0
LINE
  5
12D
  8
0
 62
     7
 10
144.179
 20
91.082000000000008
 30
0.0
 11
142.642
 21
90.843299999999985
 31
0.0
  0
LINE
  5
12E
  8
0
 62
     7
 10
142.642
 20
90.843299999999985
 30
0.0
 11
141.11899999999989
 21
90.533900000000003
 31
0.0
  0
LINE
  5
12F
  8
0
 62
     7
 10
141.11899999999989
 20
90.533900000000003
 30
0.0
 11
141.01699999999991
 21
90.491900000000015
 31
0.0
  0
LINE
  5
130
  8
0
 62
     7
 10
141.01699999999991
 20
90.491900000000015
 30
0.0
 11
140.93999999999991
 21
90.421599999999998
 31
0.0
  0
LINE
  5
131
  8
0
 62
     7
 10
140.93999999999991
 20
90.421599999999998
 30
0.0
 11
140.88900000000001
 21
90.308899999999994
 31
0.0
  0
LINE
  5
132
  8
0
 62
     7
 10
140.88900000000001
 20
90.308899999999994
 30
0.0
 11
140.876
 21
90.196600000000004
 31
0.0
  0
LINE
  5
133
  8
0
 62
     7
 10
140.876
 20
90.196600000000004
 30
0.0
 11
140.90199999999999
 21
90.083999999999989
 31
0.0
  0
LINE
  5
134
  8
0
 62
     7
 10
140.90199999999999
 20
90.083999999999989
 30
0.0
 11
140.97799999999989
 21
89.985799999999998
 31
0.0
  0
LINE
  5
135
  8
0
 62
     7
 10
140.97799999999989
 20
89.985799999999998
 30
0.0
 11
141.0679999999999
 21
89.929599999999994
 31
0.0
  0
LINE
  5
136
  8
0
 62
     7
 10
141.0679999999999
 20
89.929599999999994
 30
0.0
 11
141.17099999999999
 21
89.901399999999995
 31
0.0
  0
LINE
  5
137
  8
0
 62
     7
 10
85.179799999999986
 20
227.80699999999999
 30
0.0
 11
91.4465
 21
227.80699999999999
 31
0.0
  0
LINE
  5
138
  8
0
 62
     7
 10
87.413600000000002
 20
246.1279999999999
 30
0.0
 11
93.680300000000003
 21
246.1279999999999
 31
0.0
  0
LINE
  5
139
  8
0
 62
     7
 10
148.78499999999991
 20
152.61199999999991
 30
0.0
 11
148.19200000000001
 21
154.8239999999999
 31
0.0
  0
LINE
  5
13A
  8
0
 62
     7
 10
148.19200000000001
 20
154.8239999999999
 30
0.0
 11
147.59999999999991
 21
152.61199999999991
 31
0.0
  0
LINE
  5
13B
  8
0
 62
     7
 10
147.59999999999991
 20
152.61199999999991
 30
0.0
 11
148.78499999999991
 21
152.61199999999991
 31
0.0
  0
LINE
  5
13C
  8
0
 62
     7
 10
147.59999999999991
 20
147.53499999999991
 30
0.0
 11
148.19200000000001
 21
145.32299999999989
 31
0.0
  0
LINE
  5
13D
  8
0
 62
     7
 10
148.19200000000001
 20
145.32299999999989
 30
0.0
 11
148.78499999999991
 21
147.53499999999991
 31
0.0
  0
LINE
  5
13E
  8
0
 62
     7
 10
148.78499999999991
 20
147.53499999999991
 30
0.0
 11
147.59999999999991
 21
147.53499999999991
 31
0.0
  0
LINE
  5
13F
  8
0
 62
     7
 10
148.19200000000001
 20
154.8239999999999
 30
0.0
 11
148.19200000000001
 21
145.32299999999989
 31
0.0
  0
LINE
  5
140
  8
0
 62
     7
 10
170.1629999999999
 20
160.95699999999991
 30
0.0
 11
172.374
 21
161.55000000000001
 31
0.0
  0
LINE
  5
141
  8
0
 62
     7
 10
172.374
 20
161.55000000000001
 30
0.0
 11
170.1629999999999
 21
162.142
 31
0.0
  0
LINE
  5
142
  8
0
 62
     7
 10
170.1629999999999
 20
162.142
 30
0.0
 11
170.1629999999999
 21
160.95699999999991
 31
0.0
  0
LINE
  5
143
  8
0
 62
     7
 10
152.58799999999991
 20
162.131
 30
0.0
 11
150.37599999999989
 21
161.5379999999999
 31
0.0
  0
LINE
  5
144
  8
0
 62
     7
 10
150.37599999999989
 20
161.5379999999999
 30
0.0
 11
152.58799999999991
 21
160.946
 31
0.0
  0
LINE
  5
145
  8
0
 62
     7
 10
152.58799999999991
 20
160.946
 30
0.0
 11
152.58799999999991
 21
162.131
 31
0.0
  0
LINE
  5
146
  8
0
 62
     7
 10
172.374
 20
161.5439999999999
 30
0.0
 11
150.37700000000001
 21
161.5439999999999
 31
0.0
  0
LINE
  5
147
  8
0
 62
     7
 10
40.89909999999999
 20
152.61500000000001
 30
0.0
 11
40.3065
 21
154.82599999999991
 31
0.0
  0
LINE
  5
148
  8
0
 62
     7
 10
40.3065
 20
154.82599999999991
 30
0.0
 11
39.713900000000002
 21
152.61500000000001
 31
0.0
  0
LINE
  5
149
  8
0
 62
     7
 10
39.713900000000002
 20
152.61500000000001
 30
0.0
 11
40.89909999999999
 21
152.61500000000001
 31
0.0
  0
LINE
  5
14A
  8
0
 62
     7
 10
39.72529999999999
 20
143.036
 30
0.0
 11
40.317899999999987
 21
140.8239999999999
 31
0.0
  0
LINE
  5
14B
  8
0
 62
     7
 10
40.317899999999987
 20
140.8239999999999
 30
0.0
 11
40.910400000000003
 21
143.036
 31
0.0
  0
LINE
  5
14C
  8
0
 62
     7
 10
40.910400000000003
 20
143.036
 30
0.0
 11
39.72529999999999
 21
143.036
 31
0.0
  0
LINE
  5
14D
  8
0
 62
     7
 10
40.311999999999998
 20
154.8249999999999
 30
0.0
 11
40.311999999999998
 21
140.8249999999999
 31
0.0
  0
LINE
  5
14E
  8
0
 62
     7
 10
47.4861
 20
152.61500000000001
 30
0.0
 11
46.893599999999992
 21
154.82599999999991
 31
0.0
  0
LINE
  5
14F
  8
0
 62
     7
 10
46.893599999999992
 20
154.82599999999991
 30
0.0
 11
46.301000000000002
 21
152.61500000000001
 31
0.0
  0
LINE
  5
150
  8
0
 62
     7
 10
46.301000000000002
 20
152.61500000000001
 30
0.0
 11
47.4861
 21
152.61500000000001
 31
0.0
  0
LINE
  5
151
  8
0
 62
     7
 10
46.312699999999992
 20
151.036
 30
0.0
 11
46.90529999999999
 21
148.8239999999999
 31
0.0
  0
LINE
  5
152
  8
0
 62
     7
 10
46.90529999999999
 20
148.8239999999999
 30
0.0
 11
47.497799999999998
 21
151.036
 31
0.0
  0
LINE
  5
153
  8
0
 62
     7
 10
47.497799999999998
 20
151.036
 30
0.0
 11
46.312699999999992
 21
151.036
 31
0.0
  0
LINE
  5
154
  8
0
 62
     7
 10
46.899399999999993
 20
154.8249999999999
 30
0.0
 11
46.899399999999993
 21
148.8249999999999
 31
0.0
  0
LINE
  5
155
  8
0
 62
     7
 10
91.938100000000006
 20
162.0979999999999
 30
0.0
 11
91.938100000000006
 21
151.54599999999999
 31
0.0
  0
LINE
  5
156
  8
0
 62
     7
 10
64.937700000000007
 20
162.0979999999999
 30
0.0
 11
64.937700000000007
 21
151.54599999999999
 31
0.0
  0
LINE
  5
157
  8
0
 62
     7
 10
76.249099999999984
 20
234.29299999999989
 30
0.0
 11
77.165099999999995
 21
235.88
 31
0.0
  0
LINE
  5
158
  8
0
 62
     7
 10
77.165099999999995
 20
235.88
 30
0.0
 11
75.578599999999994
 21
234.964
 31
0.0
  0
LINE
  5
159
  8
0
 62
     7
 10
75.578599999999994
 20
234.964
 30
0.0
 11
76.249099999999984
 21
234.29299999999989
 31
0.0
  0
LINE
  5
15A
  8
0
 62
     7
 10
80.626800000000003
 20
240.012
 30
0.0
 11
79.710700000000003
 21
238.42500000000001
 31
0.0
  0
LINE
  5
15B
  8
0
 62
     7
 10
79.710700000000003
 20
238.42500000000001
 30
0.0
 11
81.297200000000004
 21
239.34099999999989
 31
0.0
  0
LINE
  5
15C
  8
0
 62
     7
 10
81.297200000000004
 20
239.34099999999989
 30
0.0
 11
80.626800000000003
 21
240.012
 31
0.0
  0
LINE
  5
15D
  8
0
 62
     7
 10
87.413600000000002
 20
246.1279999999999
 30
0.0
 11
75.261300000000006
 21
233.976
 31
0.0
  0
LINE
  5
15E
  8
0
 62
     7
 10
79.331699999999998
 20
221.2879999999999
 30
0.0
 11
80.247799999999984
 21
222.875
 31
0.0
  0
LINE
  5
15F
  8
0
 62
     7
 10
80.247799999999984
 20
222.875
 30
0.0
 11
78.661299999999997
 21
221.959
 31
0.0
  0
LINE
  5
160
  8
0
 62
     7
 10
78.661299999999997
 20
221.959
 30
0.0
 11
79.331699999999998
 21
221.2879999999999
 31
0.0
  0
LINE
  5
161
  8
0
 62
     7
 10
77.631200000000007
 20
220.929
 30
0.0
 11
76.715199999999996
 21
219.34200000000001
 31
0.0
  0
LINE
  5
162
  8
0
 62
     7
 10
76.715199999999996
 20
219.34200000000001
 30
0.0
 11
78.301699999999997
 21
220.2579999999999
 31
0.0
  0
LINE
  5
163
  8
0
 62
     7
 10
78.301699999999997
 20
220.2579999999999
 30
0.0
 11
77.631200000000007
 21
220.929
 31
0.0
  0
LINE
  5
164
  8
0
 62
     7
 10
85.179799999999986
 20
227.80699999999999
 30
0.0
 11
76.714500000000001
 21
219.34099999999989
 31
0.0
  0
LINE
  5
165
  8
0
 62
     7
 10
113.47
 20
240.94099999999989
 30
0.0
 11
112.8779999999999
 21
243.15199999999999
 31
0.0
  0
LINE
  5
166
  8
0
 62
     7
 10
112.8779999999999
 20
243.15199999999999
 30
0.0
 11
112.2849999999999
 21
240.94099999999989
 31
0.0
  0
LINE
  5
167
  8
0
 62
     7
 10
112.2849999999999
 20
240.94099999999989
 30
0.0
 11
113.47
 21
240.94099999999989
 31
0.0
  0
LINE
  5
168
  8
0
 62
     7
 10
112.297
 20
223.364
 30
0.0
 11
112.8889999999999
 21
221.15199999999999
 31
0.0
  0
LINE
  5
169
  8
0
 62
     7
 10
112.8889999999999
 20
221.15199999999999
 30
0.0
 11
113.482
 21
223.364
 31
0.0
  0
LINE
  5
16A
  8
0
 62
     7
 10
113.482
 20
223.364
 30
0.0
 11
112.297
 21
223.364
 31
0.0
  0
LINE
  5
16B
  8
0
 62
     7
 10
112.883
 20
243.15199999999999
 30
0.0
 11
112.883
 21
221.15299999999991
 31
0.0
  0
LINE
  5
16C
  8
0
 62
     7
 10
40.89909999999999
 20
240.94099999999989
 30
0.0
 11
40.3065
 21
243.15199999999999
 31
0.0
  0
LINE
  5
16D
  8
0
 62
     7
 10
40.3065
 20
243.15199999999999
 30
0.0
 11
39.713900000000002
 21
240.94099999999989
 31
0.0
  0
LINE
  5
16E
  8
0
 62
     7
 10
39.713900000000002
 20
240.94099999999989
 30
0.0
 11
40.89909999999999
 21
240.94099999999989
 31
0.0
  0
LINE
  5
16F
  8
0
 62
     7
 10
39.72529999999999
 20
235.36699999999999
 30
0.0
 11
40.317899999999987
 21
233.155
 31
0.0
  0
LINE
  5
170
  8
0
 62
     7
 10
40.317899999999987
 20
233.155
 30
0.0
 11
40.910400000000003
 21
235.36699999999999
 31
0.0
  0
LINE
  5
171
  8
0
 62
     7
 10
40.910400000000003
 20
235.36699999999999
 30
0.0
 11
39.72529999999999
 21
235.36699999999999
 31
0.0
  0
LINE
  5
172
  8
0
 62
     7
 10
40.311999999999998
 20
243.15199999999999
 30
0.0
 11
40.311999999999998
 21
233.15599999999989
 31
0.0
  0
LINE
  5
173
  8
0
 62
     7
 10
47.480600000000003
 20
230.94399999999999
 30
0.0
 11
46.887999999999998
 21
233.15599999999989
 31
0.0
  0
LINE
  5
174
  8
0
 62
     7
 10
46.887999999999998
 20
233.15599999999989
 30
0.0
 11
46.295499999999997
 21
230.94399999999999
 31
0.0
  0
LINE
  5
175
  8
0
 62
     7
 10
46.295499999999997
 20
230.94399999999999
 30
0.0
 11
47.480600000000003
 21
230.94399999999999
 31
0.0
  0
LINE
  5
176
  8
0
 62
     7
 10
47.480600000000003
 20
240.94099999999989
 30
0.0
 11
46.887999999999998
 21
243.15199999999999
 31
0.0
  0
LINE
  5
177
  8
0
 62
     7
 10
46.887999999999998
 20
243.15199999999999
 30
0.0
 11
46.295499999999997
 21
240.94099999999989
 31
0.0
  0
LINE
  5
178
  8
0
 62
     7
 10
46.295499999999997
 20
240.94099999999989
 30
0.0
 11
47.480600000000003
 21
240.94099999999989
 31
0.0
  0
LINE
  5
179
  8
0
 62
     7
 10
46.306899999999999
 20
239.36399999999989
 30
0.0
 11
46.899399999999993
 21
237.15199999999999
 31
0.0
  0
LINE
  5
17A
  8
0
 62
     7
 10
46.899399999999993
 20
237.15199999999999
 30
0.0
 11
47.491999999999997
 21
239.36399999999989
 31
0.0
  0
LINE
  5
17B
  8
0
 62
     7
 10
47.491999999999997
 20
239.36399999999989
 30
0.0
 11
46.306899999999999
 21
239.36399999999989
 31
0.0
  0
LINE
  5
17C
  8
0
 62
     7
 10
46.893599999999992
 20
243.15199999999999
 30
0.0
 11
46.893599999999992
 21
230.1759999999999
 31
0.0
  0
LINE
  5
17D
  8
0
 62
     7
 10
34.331299999999999
 20
240.94099999999989
 30
0.0
 11
33.738700000000001
 21
243.15199999999999
 31
0.0
  0
LINE
  5
17E
  8
0
 62
     7
 10
33.738700000000001
 20
243.15199999999999
 30
0.0
 11
33.1462
 21
240.94099999999989
 31
0.0
  0
LINE
  5
17F
  8
0
 62
     7
 10
33.1462
 20
240.94099999999989
 30
0.0
 11
34.331299999999999
 21
240.94099999999989
 31
0.0
  0
LINE
  5
180
  8
0
 62
     7
 10
33.157499999999992
 20
201.86399999999989
 30
0.0
 11
33.750100000000003
 21
199.65199999999999
 31
0.0
  0
LINE
  5
181
  8
0
 62
     7
 10
33.750100000000003
 20
199.65199999999999
 30
0.0
 11
34.342700000000001
 21
201.86399999999989
 31
0.0
  0
LINE
  5
182
  8
0
 62
     7
 10
34.342700000000001
 20
201.86399999999989
 30
0.0
 11
33.157499999999992
 21
201.86399999999989
 31
0.0
  0
LINE
  5
183
  8
0
 62
     7
 10
33.744199999999999
 20
243.15199999999999
 30
0.0
 11
33.744199999999999
 21
199.65299999999991
 31
0.0
  0
LINE
  5
184
  8
0
 62
     7
 10
103.4379999999999
 20
188.63399999999999
 30
0.0
 11
103.4379999999999
 21
200.65499999999989
 31
0.0
  0
LINE
  5
185
  8
0
 62
     7
 10
53.437899999999999
 20
188.63399999999999
 30
0.0
 11
53.437899999999999
 21
200.65499999999989
 31
0.0
  0
ARC
  5
186
  8
0
 62
     7
 10
78.737790000000004
 20
218.55415699999989
 30
0.0
 40
19.01211099999999
 50
49.520015999999998
 51
72.540909999999997
  0
ARC
  5
187
  8
0
 62
     7
 10
79.906301999999997
 20
220.11786799999999
 30
0.0
 40
17.064591
 50
29.407827000000001
 51
49.095867999999989
  0
ARC
  5
188
  8
0
 62
     7
 10
81.352285999999992
 20
221.0742479999999
 30
0.0
 40
15.335817
 50
0.291388
 51
28.94777899999999
  0
ARC
  5
189
  8
0
 62
     7
 10
81.461877000000001
 20
221.19082999999989
 30
0.0
 40
15.226077
 50
324.21013399999998
 51
359.85478499999999
  0
ARC
  5
18A
  8
0
 62
     7
 10
79.846789999999984
 20
222.23866199999989
 30
0.0
 40
17.149231
 50
302.26860299999998
 51
324.52605899999998
  0
ARC
  5
18B
  8
0
 62
     7
 10
78.669069999999991
 20
223.91014799999991
 30
0.0
 40
19.191613
 50
274.88614000000001
 51
302.57741700000003
  0
ARC
  5
18C
  8
0
 62
     7
 10
78.44273299999999
 20
225.13674700000001
 30
0.0
 40
20.433391
 50
269.98601200000002
 51
275.22553499999998
  0
ARC
  5
18D
  8
0
 62
     7
 10
78.459591000000003
 20
224.78407599999991
 30
0.0
 40
20.080732000000001
 50
241.813131
 51
269.93766599999998
  0
ARC
  5
18E
  8
0
 62
     7
 10
77.685209
 20
222.97480899999999
 30
0.0
 40
18.121061999999991
 50
218.759266
 51
241.2691109999999
  0
ARC
  5
18F
  8
0
 62
     7
 10
76.085639
 20
221.505943
 30
0.0
 40
15.954810999999991
 50
193.29399199999989
 51
218.24217899999991
  0
ARC
  5
190
  8
0
 62
     7
 10
75.140451999999996
 20
221.14645799999991
 30
0.0
 40
14.95287699999999
 50
179.977824
 51
192.78624400000001
  0
ARC
  5
191
  8
0
 62
     7
 10
75.377892000000003
 20
221.11963199999991
 30
0.0
 40
15.19035
 50
146.061204
 51
179.87698700000001
  0
ARC
  5
192
  8
0
 62
     7
 10
76.831617000000008
 20
220.23463899999999
 30
0.0
 40
16.890685999999992
 50
126.305758
 51
146.32376899999991
  0
ARC
  5
193
  8
0
 62
     7
 10
77.957368000000002
 20
218.86707999999999
 30
0.0
 40
18.659565000000001
 50
107.2181489999999
 51
126.6050899999999
  0
ARC
  5
194
  8
0
 62
     7
 10
78.651882999999984
 20
234.25755699999999
 30
0.0
 40
6.6894549999999997
 50
55.224896999999999
 51
73.658004000000005
  0
ARC
  5
195
  8
0
 62
     7
 10
79.371904000000001
 20
235.387247
 30
0.0
 40
5.3511239999999987
 50
34.49859
 51
54.658439999999999
  0
ARC
  5
196
  8
0
 62
     7
 10
80.324308000000002
 20
236.12198699999999
 30
0.0
 40
4.1505879999999991
 50
0.991292
 51
33.58608499999999
  0
ARC
  5
197
  8
0
 62
     7
 10
80.551067000000003
 20
236.200692
 30
0.0
 40
3.9232139999999989
 50
328.90041999999988
 51
359.89927299999988
  0
ARC
  5
198
  8
0
 62
     7
 10
79.78949200000001
 20
236.61374099999989
 30
0.0
 40
4.7888440000000001
 50
308.29363899999993
 51
329.37532199999998
  0
ARC
  5
199
  8
0
 62
     7
 10
78.921891000000002
 20
237.59937500000001
 30
0.0
 40
6.1004629999999986
 50
288.473411
 51
308.95244100000002
  0
ARC
  5
19A
  8
0
 62
     7
 10
78.479592000000011
 20
238.69038699999999
 30
0.0
 40
7.2757789999999991
 50
269.670435
 51
289.05462199999999
  0
ARC
  5
19B
  8
0
 62
     7
 10
78.441931999999994
 20
238.85990799999999
 30
0.0
 40
7.4451809999999989
 50
245.10380199999989
 51
269.96775899999989
  0
ARC
  5
19C
  8
0
 62
     7
 10
77.941772
 20
237.58747299999999
 30
0.0
 40
6.0809889999999989
 50
226.8107259999999
 51
244.33131700000001
  0
ARC
  5
19D
  8
0
 62
     7
 10
77.117255
 20
236.63715999999999
 30
0.0
 40
4.8240610000000004
 50
205.62888599999999
 51
226.22575000000001
  0
ARC
  5
19E
  8
0
 62
     7
 10
76.370070999999996
 20
236.21589900000001
 30
0.0
 40
3.9685809999999999
 50
180.319154
 51
204.81130400000001
  0
ARC
  5
19F
  8
0
 62
     7
 10
76.340625000000003
 20
236.18543899999989
 30
0.0
 40
3.9390830000000001
 50
146.87733399999999
 51
179.87845100000001
  0
ARC
  5
1A0
  8
0
 62
     7
 10
77.118829000000005
 20
235.740306
 30
0.0
 40
4.834350999999999
 50
129.47977800000001
 51
147.498806
  0
ARC
  5
1A1
  8
0
 62
     7
 10
77.885765000000006
 20
234.88475899999989
 30
0.0
 40
5.982518999999999
 50
111.818697
 51
129.93945600000001
  0
ARC
  5
1A2
  8
0
 62
     7
 10
78.264156999999997
 20
234.10015699999991
 30
0.0
 40
6.8518129999999999
 50
106.29432199999989
 51
112.3176879999999
  0
ARC
  5
1A3
  8
0
 62
     7
 10
78.384662000000006
 20
219.721474
 30
0.0
 40
21.066044000000002
 50
40.220165999999992
 51
84.149387999999988
  0
ARC
  5
1A4
  8
0
 62
     7
 10
79.382574000000005
 20
220.961027
 30
0.0
 40
19.505998000000002
 50
0.4549040000000001
 51
39.332743000000001
  0
ARC
  5
1A5
  8
0
 62
     7
 10
79.564650999999984
 20
221.20219700000001
 30
0.0
 40
19.323498000000001
 50
316.474086
 51
359.74410599999987
  0
ARC
  5
1A6
  8
0
 62
     7
 10
78.542687000000001
 20
222.22974799999989
 30
0.0
 40
20.772185
 50
274.05399899999998
 51
316.36036000000001
  0
ARC
  5
1A7
  8
0
 62
     7
 10
78.441069999999996
 20
222.978352
 30
0.0
 40
21.526153999999998
 50
269.99114800000001
 51
274.182928
  0
ARC
  5
1A8
  8
0
 62
     7
 10
78.520302999999998
 20
222.7129569999999
 30
0.0
 40
21.260919000000001
 50
228.12531999999999
 51
269.77751499999999
  0
ARC
  5
1A9
  8
0
 62
     7
 10
77.778262999999995
 20
221.50440800000001
 30
0.0
 40
19.867338
 50
195.480525
 51
227.39225499999989
  0
ARC
  5
1AA
  8
0
 62
     7
 10
76.959027000000006
 20
221.10197400000001
 30
0.0
 40
18.971163000000001
 50
179.95793999999989
 51
194.96959599999991
  0
ARC
  5
1AB
  8
0
 62
     7
 10
77.336221999999992
 20
221.0209879999999
 30
0.0
 40
19.348584999999989
 50
135.17786000000001
 51
179.71893799999989
  0
ARC
  5
1AC
  8
0
 62
     7
 10
78.322668000000007
 20
220.01436299999989
 30
0.0
 40
20.757857000000001
 50
95.472277999999989
 51
135.12639999999999
  0
ARC
  5
1AD
  8
0
 62
     7
 10
78.393473
 20
237.127387
 30
0.0
 40
4.1449339999999992
 50
1.0005850000000001
 51
58.92828699999999
  0
ARC
  5
1AE
  8
0
 62
     7
 10
78.335680999999994
 20
237.3588959999999
 30
0.0
 40
4.2051059999999989
 50
271.39074599999992
 51
357.831324
  0
ARC
  5
1AF
  8
0
 62
     7
 10
78.590065999999993
 20
237.40984800000001
 30
0.0
 40
4.2575449999999986
 50
182.82830499999989
 51
267.94966399999998
  0
ARC
  5
1B0
  8
0
 62
     7
 10
78.436831999999995
 20
237.1532259999999
 30
0.0
 40
4.0993889999999986
 50
120.7131219999999
 51
179.34944699999991
  0
ARC
  5
1B1
  8
0
 62
     7
 10
99.804382000000004
 20
239.51851499999989
 30
0.0
 40
3.6363559999999988
 50
2.1119050000000001
 51
87.893725000000003
  0
ARC
  5
1B2
  8
0
 62
     7
 10
56.937798000000001
 20
239.6525189999999
 30
0.0
 40
3.4998949999999991
 50
90.0
 51
179.99996999999991
  0
ARC
  5
1B3
  8
0
 62
     7
 10
99.804370000000006
 20
203.28603000000001
 30
0.0
 40
3.6363620000000001
 50
272.10646400000002
 51
357.89072599999992
  0
ARC
  5
1B4
  8
0
 62
     7
 10
56.937882999999999
 20
203.15210500000001
 30
0.0
 40
3.4999799999999999
 50
179.99856
 51
269.99860999999993
  0
ARC
  5
1B5
  8
0
 62
     7
 10
78.437825000000004
 20
221.1523279999999
 30
0.0
 40
8.700215
 50
269.9994529999999
 51
359.99942299999998
  0
ARC
  5
1B6
  8
0
 62
     7
 10
78.437825000000004
 20
221.15215299999991
 30
0.0
 40
8.7000390000000003
 50
179.999403
 51
269.9994529999999
  0
ARC
  5
1B7
  8
0
 62
     7
 10
78.437827999999996
 20
221.15232499999991
 30
0.0
 40
8.7000419999999998
 50
90.000567000000004
 51
180.00057699999999
  0
ARC
  5
1B8
  8
0
 62
     7
 10
78.437825000000004
 20
221.15215299999991
 30
0.0
 40
8.700215
 50
0.000577
 51
90.000546999999983
  0
ARC
  5
1B9
  8
0
 62
     7
 10
78.437826000000001
 20
221.15232700000001
 30
0.0
 40
3.5001540000000002
 50
269.99860999999993
 51
359.99858
  0
ARC
  5
1BA
  8
0
 62
     7
 10
78.437826000000001
 20
221.152154
 30
0.0
 40
3.4999799999999999
 50
179.99856
 51
269.99860999999993
  0
ARC
  5
1BB
  8
0
 62
     7
 10
78.437827999999996
 20
221.1523259999999
 30
0.0
 40
3.4999809999999991
 50
90.001410000000007
 51
180.00141999999991
  0
ARC
  5
1BC
  8
0
 62
     7
 10
78.437826000000001
 20
221.152154
 30
0.0
 40
3.5001540000000002
 50
0.00142
 51
90.001390000000001
  0
ARC
  5
1BD
  8
0
 62
     7
 10
78.437826999999999
 20
237.15248500000001
 30
0.0
 40
1.7999879999999999
 50
269.99727799999999
 51
359.99724900000001
  0
ARC
  5
1BE
  8
0
 62
     7
 10
78.437826999999999
 20
237.15231199999999
 30
0.0
 40
1.7998149999999999
 50
179.99722800000001
 51
269.99727799999999
  0
ARC
  5
1BF
  8
0
 62
     7
 10
78.437912999999995
 20
237.15257
 30
0.0
 40
1.7999019999999999
 50
90.005483000000012
 51
180.00549299999989
  0
ARC
  5
1C0
  8
0
 62
     7
 10
78.437741000000003
 20
237.15239800000001
 30
0.0
 40
1.800074
 50
0.00001
 51
89.999980000000008
  0
ARC
  5
1C1
  8
0
 62
     7
 10
78.437826999999999
 20
221.15232700000001
 30
0.0
 40
2.5000360000000001
 50
269.99804599999987
 51
359.99801600000001
  0
ARC
  5
1C2
  8
0
 62
     7
 10
78.437826999999999
 20
221.152154
 30
0.0
 40
2.4998629999999991
 50
179.99799599999989
 51
269.99804599999987
  0
ARC
  5
1C3
  8
0
 62
     7
 10
78.437826999999999
 20
221.1523259999999
 30
0.0
 40
2.4998640000000001
 50
90.001974000000004
 51
180.00198399999999
  0
ARC
  5
1C4
  8
0
 62
     7
 10
78.437826999999999
 20
221.152154
 30
0.0
 40
2.5000360000000001
 50
0.001984
 51
90.001953999999998
  0
LINE
  5
1C5
  8
0
 62
     7
 10
103.4379999999999
 20
239.65199999999999
 30
0.0
 11
103.4379999999999
 21
203.1519999999999
 31
0.0
  0
LINE
  5
1C6
  8
0
  6
AIGENLINE001
 62
     7
 10
91.937799999999996
 20
244.72499999999991
 30
0.0
 11
91.937799999999996
 21
240.72499999999991
 31
0.0
  0
LINE
  5
1C7
  8
0
  6
AIGENLINE001
 62
     7
 10
64.937700000000007
 20
244.72499999999991
 30
0.0
 11
64.937700000000007
 21
240.72499999999991
 31
0.0
  0
LINE
  5
1C8
  8
0
  6
AIGENLINE001
 62
     7
 10
78.437700000000007
 20
157.53700000000001
 30
0.0
 11
78.437700000000007
 21
136.607
 31
0.0
  0
LINE
  5
1C9
  8
0
  6
AIGENLINE001
 62
     7
 10
78.437700000000007
 20
246.35299999999989
 30
0.0
 11
78.437700000000007
 21
196.452
 31
0.0
  0
LINE
  5
1CA
  8
0
 62
     7
 10
53.437899999999999
 20
239.65199999999999
 30
0.0
 11
53.437899999999999
 21
203.1519999999999
 31
0.0
  0
LINE
  5
1CB
  8
0
 62
     7
 10
56.937800000000003
 20
199.65199999999999
 30
0.0
 11
99.938000000000002
 21
199.65199999999999
 31
0.0
  0
LINE
  5
1CC
  8
0
  6
AIGENLINE001
 62
     7
 10
50.23769999999999
 20
221.15199999999999
 30
0.0
 11
106.63799999999991
 21
221.15199999999999
 31
0.0
  0
LINE
  5
1CD
  8
0
 62
     7
 10
33.178499999999993
 20
199.65199999999999
 30
0.0
 11
54.440800000000003
 21
199.65199999999999
 31
0.0
  0
LINE
  5
1CE
  8
0
 62
     7
 10
33.178499999999993
 20
243.15199999999999
 30
0.0
 11
54.440800000000003
 21
243.15199999999999
 31
0.0
  0
LINE
  5
1CF
  8
0
 62
     7
 10
46.339599999999997
 20
237.15199999999999
 30
0.0
 11
74.621899999999997
 21
237.15199999999999
 31
0.0
  0
LINE
  5
1D0
  8
0
 62
     7
 10
102.40899999999991
 20
243.15199999999999
 30
0.0
 11
113.4379999999999
 21
243.15199999999999
 31
0.0
  0
LINE
  5
1D1
  8
0
 62
     7
 10
107.19799999999989
 20
221.15199999999999
 30
0.0
 11
113.4379999999999
 21
221.15199999999999
 31
0.0
  0
LINE
  5
1D2
  8
0
 62
     7
 10
39.758000000000003
 20
233.155
 30
0.0
 11
76.197699999999983
 21
233.155
 31
0.0
  0
LINE
  5
1D3
  8
0
  6
AIGENLINE001
 62
     7
 10
75.237899999999996
 20
237.15199999999999
 30
0.0
 11
81.637900000000002
 21
237.15199999999999
 31
0.0
  0
LINE
  5
1D4
  8
0
 62
     7
 10
56.937800000000003
 20
243.15199999999999
 30
0.0
 11
99.938000000000002
 21
243.15199999999999
 31
0.0
  0
ARC
  5
1D5
  8
0
  6
AIGENLINE002
 62
     7
 10
154.14277599999991
 20
144.02213999999989
 30
0.0
 40
1.3024290000000001
 50
92.514901999999992
 51
166.61958200000001
  0
ARC
  5
1D6
  8
0
  6
AIGENLINE002
 62
     7
 10
146.61063100000001
 20
144.02402799999999
 30
0.0
 40
1.3004759999999991
 50
13.315382
 51
87.550095000000013
  0
ARC
  5
1D7
  8
0
  6
AIGENLINE002
 62
     7
 10
130.6427679999999
 20
145.63368600000001
 30
0.0
 40
9.1897719999999996
 50
47.588251999999997
 51
89.792458999999994
  0
ARC
  5
1D8
  8
0
  6
AIGENLINE002
 62
     7
 10
129.032228
 20
143.745611
 30
0.0
 40
11.670309
 50
36.969695999999999
 51
48.002279999999999
  0
ARC
  5
1D9
  8
0
  6
AIGENLINE002
 62
     7
 10
126.604358
 20
141.82103499999999
 30
0.0
 40
14.767694000000001
 50
25.297152000000001
 51
37.270552999999992
  0
ARC
  5
1DA
  8
0
  6
AIGENLINE002
 62
     7
 10
124.14946499999991
 20
140.52089899999999
 30
0.0
 40
17.543193999999989
 50
17.938537
 51
25.710139000000002
  0
ARC
  5
1DB
  8
0
  6
AIGENLINE002
 62
     7
 10
141.633195
 20
146.14724199999989
 30
0.0
 40
0.8241280000000001
 50
195.70646500000001
 51
268.73424099999988
  0
LINE
  5
1DC
  8
0
  6
AIGENLINE002
 62
     7
 10
141.61500000000001
 20
145.32299999999989
 30
0.0
 11
141.62899999999991
 21
145.32299999999989
 31
0.0
  0
LINE
  5
1DD
  8
0
  6
AIGENLINE002
 62
     7
 10
141.62899999999991
 20
145.32299999999989
 30
0.0
 11
159.12399999999991
 21
145.32299999999989
 31
0.0
  0
ARC
  5
1DE
  8
0
  6
AIGENLINE002
 62
     7
 10
159.10862499999999
 20
146.1454019999999
 30
0.0
 40
0.82224
 50
271.103072
 51
340.51147700000001
  0
LINE
  5
1DF
  8
0
  6
AIGENLINE002
 62
     7
 10
159.8839999999999
 20
145.87100000000001
 30
0.0
 11
159.88499999999991
 21
145.87299999999991
 31
0.0
  0
ARC
  5
1E0
  8
0
  6
AIGENLINE002
 62
     7
 10
120.3957129999999
 20
158.808582
 30
0.0
 40
41.554059000000002
 50
341.86291999999997
 51
350.84457900000001
  0
ARC
  5
1E1
  8
0
  6
AIGENLINE002
 62
     7
 10
116.7672419999999
 20
159.566596
 30
0.0
 40
45.257236999999989
 50
350.62806699999987
 51
353.2603509999999
  0
LINE
  5
1E2
  8
0
  6
AIGENLINE002
 62
     7
 10
161.71199999999999
 20
154.255
 30
0.0
 11
161.71100000000001
 21
154.24600000000001
 31
0.0
  0
ARC
  5
1E3
  8
0
  6
AIGENLINE002
 62
     7
 10
162.37752499999999
 20
154.15077199999999
 30
0.0
 40
0.6732930000000001
 50
91.775525000000002
 51
171.83975699999999
  0
ARC
  5
1E4
  8
0
 62
     7
 10
129.499098
 20
154.200266
 30
0.0
 40
0.623912
 50
92.142309999999995
 51
177.82476
  0
ARC
  5
1E5
  8
0
 62
     7
 10
129.49907400000001
 20
141.44745700000001
 30
0.0
 40
0.6239
 50
182.20596499999999
 51
267.85988399999991
  0
ARC
  5
1E6
  8
0
 62
     7
 10
171.75298000000001
 20
154.200266
 30
0.0
 40
0.623912
 50
2.175219999999999
 51
87.857669999999985
  0
ARC
  5
1E7
  8
0
 62
     7
 10
171.75300399999989
 20
141.44745700000001
 30
0.0
 40
0.6239
 50
272.14013599999993
 51
357.7940549999999
  0
LINE
  5
1E8
  8
0
 62
     7
 10
128.876
 20
154.2239999999999
 30
0.0
 11
128.876
 21
141.423
 31
0.0
  0
LINE
  5
1E9
  8
0
  6
AIGENLINE002
 62
     7
 10
152.876
 20
144.3239999999999
 30
0.0
 11
152.876
 21
140.8239999999999
 31
0.0
  0
LINE
  5
1EA
  8
0
  6
AIGENLINE002
 62
     7
 10
147.876
 20
144.3239999999999
 30
0.0
 11
147.876
 21
140.8239999999999
 31
0.0
  0
LINE
  5
1EB
  8
0
  6
AIGENLINE001
 62
     7
 10
150.37599999999989
 20
146.49600000000001
 30
0.0
 11
150.37599999999989
 21
138.91800000000001
 31
0.0
  0
LINE
  5
1EC
  8
0
  6
AIGENLINE001
 62
     7
 10
169.53700000000001
 20
148.8239999999999
 30
0.0
 11
174.38200000000001
 21
148.8239999999999
 31
0.0
  0
LINE
  5
1ED
  8
0
  6
AIGENLINE001
 62
     7
 10
166.37599999999989
 20
156.77699999999999
 30
0.0
 11
166.37599999999989
 21
152.49199999999999
 31
0.0
  0
LINE
  5
1EE
  8
0
 62
     7
 10
172.37599999999989
 20
154.2239999999999
 30
0.0
 11
172.37599999999989
 21
141.423
 31
0.0
  0
LINE
  5
1EF
  8
0
 62
     7
 10
171.7759999999999
 20
140.8239999999999
 30
0.0
 11
129.47599999999991
 21
140.8239999999999
 31
0.0
  0
LINE
  5
1F0
  8
0
 62
     7
 10
172.37599999999989
 20
155.34399999999991
 30
0.0
 11
172.37599999999989
 21
162.11000000000001
 31
0.0
  0
LINE
  5
1F1
  8
0
 62
     7
 10
150.37599999999989
 20
147.05600000000001
 30
0.0
 11
150.37599999999989
 21
162.11000000000001
 31
0.0
  0
LINE
  5
1F2
  8
0
  6
AIGENLINE002
 62
     7
 10
152.876
 20
144.3239999999999
 30
0.0
 11
147.876
 21
144.3239999999999
 31
0.0
  0
LINE
  5
1F3
  8
0
 62
     7
 10
171.7759999999999
 20
154.8239999999999
 30
0.0
 11
129.47599999999991
 21
154.8239999999999
 31
0.0
  0
ARC
  5
1F4
  8
0
  6
AIGENLINE002
 62
     7
 10
92.399146999999985
 20
148.862752
 30
0.0
 40
1.039698
 50
272.1420619999999
 51
357.86781500000001
  0
LINE
  5
1F5
  8
0
  6
AIGENLINE002
 62
     7
 10
92.437999999999974
 20
147.8239999999999
 30
0.0
 11
91.437899999999999
 21
147.8239999999999
 31
0.0
  0
ARC
  5
1F6
  8
0
  6
AIGENLINE002
 62
     7
 10
91.476600000000005
 20
148.86260100000001
 30
0.0
 40
1.039541
 50
182.12414799999991
 51
267.86601400000001
  0
ARC
  5
1F7
  8
0
  6
AIGENLINE002
 62
     7
 10
91.476577000000006
 20
148.78538399999999
 30
0.0
 40
1.039523999999999
 50
92.132778000000002
 51
177.8671919999999
  0
LINE
  5
1F8
  8
0
  6
AIGENLINE002
 62
     7
 10
91.437899999999999
 20
149.8239999999999
 30
0.0
 11
92.437999999999974
 21
149.8239999999999
 31
0.0
  0
ARC
  5
1F9
  8
0
  6
AIGENLINE002
 62
     7
 10
92.399311999999995
 20
148.78537399999999
 30
0.0
 40
1.0395350000000001
 50
2.133337
 51
87.866653000000014
  0
LINE
  5
1FA
  8
0
  6
AIGENLINE001
 62
     7
 10
91.938100000000006
 20
146.79900000000001
 30
0.0
 11
91.938100000000006
 21
150.9859999999999
 31
0.0
  0
ARC
  5
1FB
  8
0
  6
AIGENLINE002
 62
     7
 10
65.399135000000001
 20
148.862334
 30
0.0
 40
1.0392779999999999
 50
272.13959699999998
 51
357.89001999999999
  0
LINE
  5
1FC
  8
0
  6
AIGENLINE002
 62
     7
 10
65.437899999999999
 20
147.8239999999999
 30
0.0
 11
64.437799999999996
 21
147.8239999999999
 31
0.0
  0
ARC
  5
1FD
  8
0
  6
AIGENLINE002
 62
     7
 10
64.476516000000004
 20
148.8625899999999
 30
0.0
 40
1.039529999999999
 50
182.12359900000001
 51
267.86656299999993
  0
ARC
  5
1FE
  8
0
  6
AIGENLINE002
 62
     7
 10
64.476109999999991
 20
148.78577799999991
 30
0.0
 40
1.039115999999999
 50
92.111874999999984
 51
177.88809499999999
  0
LINE
  5
1FF
  8
0
  6
AIGENLINE002
 62
     7
 10
64.437799999999996
 20
149.8239999999999
 30
0.0
 11
65.437899999999999
 21
149.8239999999999
 31
0.0
  0
ARC
  5
200
  8
0
  6
AIGENLINE002
 62
     7
 10
65.399235000000004
 20
148.78572800000001
 30
0.0
 40
1.039180999999999
 50
2.1145299999999989
 51
87.865719999999996
  0
ARC
  5
201
  8
0
 62
     7
 10
102.81480499999989
 20
154.20061100000001
 30
0.0
 40
0.623912
 50
2.175219999999999
 51
87.857669999999985
  0
ARC
  5
202
  8
0
 62
     7
 10
102.838128
 20
141.42413099999999
 30
0.0
 40
0.6001400000000001
 50
270.00002000000001
 51
359.99998999999991
  0
ARC
  5
203
  8
0
 62
     7
 10
54.061023999999989
 20
154.20096499999991
 30
0.0
 40
0.623558
 50
92.143855000000002
 51
177.8561159999999
  0
ARC
  5
204
  8
0
 62
     7
 10
54.061048
 20
141.447124
 30
0.0
 40
0.62357
 50
182.11316299999999
 51
267.85396600000001
  0
LINE
  5
205
  8
0
 62
     7
 10
103.4379999999999
 20
154.2239999999999
 30
0.0
 11
103.4379999999999
 21
141.42400000000001
 31
0.0
  0
LINE
  5
206
  8
0
 62
     7
 10
53.437899999999999
 20
154.2239999999999
 30
0.0
 11
53.437899999999999
 21
141.42400000000001
 31
0.0
  0
LINE
  5
207
  8
0
 62
     7
 10
54.037700000000001
 20
140.8239999999999
 30
0.0
 11
102.83799999999989
 21
140.8239999999999
 31
0.0
  0
LINE
  5
208
  8
0
 62
     7
 10
52.503900000000002
 20
140.8239999999999
 30
0.0
 11
39.762900000000002
 21
140.8239999999999
 31
0.0
  0
LINE
  5
209
  8
0
 62
     7
 10
52.503900000000002
 20
154.8239999999999
 30
0.0
 11
39.762900000000002
 21
154.8239999999999
 31
0.0
  0
LINE
  5
20A
  8
0
 62
     7
 10
61.596600000000002
 20
148.8239999999999
 30
0.0
 11
46.3337
 21
148.8239999999999
 31
0.0
  0
LINE
  5
20B
  8
0
  6
AIGENLINE001
 62
     7
 10
64.937700000000007
 20
146.79900000000001
 30
0.0
 11
64.937700000000007
 21
150.9859999999999
 31
0.0
  0
LINE
  5
20C
  8
0
  6
AIGENLINE001
 62
     7
 10
62.436900000000001
 20
148.8239999999999
 30
0.0
 11
68.790700000000001
 21
148.8239999999999
 31
0.0
  0
LINE
  5
20D
  8
0
  6
AIGENLINE001
 62
     7
 10
88.546400000000006
 20
148.8239999999999
 30
0.0
 11
94.438199999999995
 21
148.8239999999999
 31
0.0
  0
LINE
  5
20E
  8
0
 62
     7
 10
54.037700000000001
 20
154.8239999999999
 30
0.0
 11
102.83799999999989
 21
154.8239999999999
 31
0.0
  0
LINE
  5
20F
  8
0
 62
     7
 10
89.726399999999998
 20
160.95699999999991
 30
0.0
 11
91.938100000000006
 21
161.55000000000001
 31
0.0
  0
LINE
  5
210
  8
0
 62
     7
 10
91.938100000000006
 20
161.55000000000001
 30
0.0
 11
89.726399999999998
 21
162.142
 31
0.0
  0
LINE
  5
211
  8
0
 62
     7
 10
89.726399999999998
 20
162.142
 30
0.0
 11
89.726399999999998
 21
160.95699999999991
 31
0.0
  0
LINE
  5
212
  8
0
 62
     7
 10
67.149500000000003
 20
162.131
 30
0.0
 11
64.937700000000007
 21
161.5379999999999
 31
0.0
  0
LINE
  5
213
  8
0
 62
     7
 10
64.937700000000007
 20
161.5379999999999
 30
0.0
 11
67.149500000000003
 21
160.946
 31
0.0
  0
LINE
  5
214
  8
0
 62
     7
 10
67.149500000000003
 20
160.946
 30
0.0
 11
67.149500000000003
 21
162.131
 31
0.0
  0
LINE
  5
215
  8
0
 62
     7
 10
91.937100000000015
 20
161.5439999999999
 30
0.0
 11
64.938699999999997
 21
161.5439999999999
 31
0.0
  0
LINE
  5
216
  8
0
 62
     7
 10
101.227
 20
188.60099999999991
 30
0.0
 11
103.4379999999999
 21
189.19399999999999
 31
0.0
  0
LINE
  5
217
  8
0
 62
     7
 10
103.4379999999999
 20
189.19399999999999
 30
0.0
 11
101.227
 21
189.78599999999989
 31
0.0
  0
LINE
  5
218
  8
0
 62
     7
 10
101.227
 20
189.78599999999989
 30
0.0
 11
101.227
 21
188.60099999999991
 31
0.0
  0
LINE
  5
219
  8
0
 62
     7
 10
55.649700000000003
 20
189.77500000000001
 30
0.0
 11
53.437899999999999
 21
189.18199999999999
 31
0.0
  0
LINE
  5
21A
  8
0
 62
     7
 10
53.437899999999999
 20
189.18199999999999
 30
0.0
 11
55.649700000000003
 21
188.59
 31
0.0
  0
LINE
  5
21B
  8
0
 62
     7
 10
55.649700000000003
 20
188.59
 30
0.0
 11
55.649700000000003
 21
189.77500000000001
 31
0.0
  0
LINE
  5
21C
  8
0
 62
     7
 10
103.437
 20
189.18799999999999
 30
0.0
 11
53.438600000000001
 21
189.18799999999999
 31
0.0
  0
TEXT
  5
21D
  8
_________2
 62
     7
 10
26.512799999999991
 20
66.018100000000004
 30
0.0
 40
4.6583899999999989
  1
※壁取付部には厚さ30mm以上の補強木を入れてください。
 41
0.5
  0
TEXT
  5
21E
  8
_________2
 62
     7
 10
26.512799999999991
 20
60.195099999999996
 30
0.0
 40
4.6583899999999989
  1
※毎分7L以上吐水させないでください。
 41
0.5
  0
TEXT
  5
21F
  8
_________2
 62
     7
 10
29.525700000000001
 20
22.2272
 30
0.0
 40
4.6583899999999989
  1
重量13kg、オーバーフローなし
 41
0.5
  0
LINE
  5
220
  8
_________2
 62
     7
 10
105.2389999999999
 20
17.428499999999989
 30
0.0
 11
105.2389999999999
 21
0.4485540000000001
 31
0.0
  0
LINE
  5
221
  8
_________2
 62
     7
 10
81.679900000000004
 20
51.324300000000001
 30
0.0
 11
79.493700000000004
 21
51.324300000000001
 31
0.0
  0
LINE
  5
222
  8
_________2
 62
     7
 10
82.172600000000017
 20
51.324300000000001
 30
0.0
 11
81.920400000000001
 21
51.324300000000001
 31
0.0
  0
LINE
  5
223
  8
_________2
 62
     7
 10
82.665199999999984
 20
51.324300000000001
 30
0.0
 11
85.590100000000007
 21
51.324300000000001
 31
0.0
  0
LINE
  5
224
  8
_________2
 62
     7
 10
82.172600000000017
 20
51.324300000000001
 30
0.0
 11
82.424800000000005
 21
51.324300000000001
 31
0.0
  0
LINE
  5
225
  8
_________2
 62
     7
 10
75.776399999999995
 20
51.324300000000001
 30
0.0
 11
73.589399999999998
 21
51.324300000000001
 31
0.0
  0
LINE
  5
226
  8
_________2
 62
     7
 10
76.2684
 20
51.324300000000001
 30
0.0
 11
76.016900000000007
 21
51.324300000000001
 31
0.0
  0
LINE
  5
227
  8
_________2
 62
     7
 10
76.2684
 20
51.817
 30
0.0
 11
76.2684
 21
54.003900000000002
 31
0.0
  0
LINE
  5
228
  8
_________2
 62
     7
 10
76.2684
 20
51.324300000000001
 30
0.0
 11
76.2684
 21
51.576900000000002
 31
0.0
  0
LINE
  5
229
  8
_________2
 62
     7
 10
76.76100000000001
 20
51.324300000000001
 30
0.0
 11
78.947999999999993
 21
51.324300000000001
 31
0.0
  0
LINE
  5
22A
  8
_________2
 62
     7
 10
76.2684
 20
51.324300000000001
 30
0.0
 11
76.520499999999998
 21
51.324300000000001
 31
0.0
  0
LINE
  5
22B
  8
_________2
 62
     7
 10
76.2684
 20
50.832399999999993
 30
0.0
 11
76.2684
 21
48.645699999999998
 31
0.0
  0
LINE
  5
22C
  8
_________2
 62
     7
 10
76.2684
 20
51.324300000000001
 30
0.0
 11
76.2684
 21
51.072800000000001
 31
0.0
  0
LINE
  5
22D
  8
_________2
 62
     7
 10
79.979399999999984
 20
50.104799999999997
 30
0.0
 11
85.157399999999996
 21
49.240000000000002
 31
0.0
  0
LINE
  5
22E
  8
_________2
 62
     7
 10
79.979399999999984
 20
52.544199999999989
 30
0.0
 11
85.157399999999996
 21
53.409700000000001
 31
0.0
  0
LINE
  5
22F
  8
_________2
 62
     7
 10
85.157399999999996
 20
49.240000000000002
 30
0.0
 11
85.157399999999996
 21
53.409700000000001
 31
0.0
  0
LINE
  5
230
  8
_________2
 62
     7
 10
79.979399999999984
 20
50.104799999999997
 30
0.0
 11
79.979399999999984
 21
52.544199999999989
 31
0.0
  0
ARC
  5
231
  8
_________2
 62
     7
 10
76.221766000000002
 20
51.277380999999998
 30
0.0
 40
1.267714
 50
2.1220840000000001
 51
87.894083999999992
  0
ARC
  5
232
  8
_________2
 62
     7
 10
76.315297000000001
 20
51.277734999999993
 30
0.0
 40
1.267374999999999
 50
92.122849999999985
 51
177.893304
  0
ARC
  5
233
  8
_________2
 62
     7
 10
76.315273000000005
 20
51.371245999999992
 30
0.0
 40
1.267363
 50
182.12181499999991
 51
267.87821400000001
  0
ARC
  5
234
  8
_________2
 62
     7
 10
76.221461000000005
 20
51.371928999999987
 30
0.0
 40
1.2680439999999991
 50
272.11916400000001
 51
357.84848499999993
  0
ARC
  5
235
  8
_________2
 62
     7
 10
76.187981999999991
 20
51.244312999999998
 30
0.0
 40
2.1668310000000002
 50
2.1161439999999989
 51
87.874379000000005
  0
ARC
  5
236
  8
_________2
 62
     7
 10
76.348411999999996
 20
51.245334999999997
 30
0.0
 40
2.1657980000000001
 50
92.118487999999999
 51
177.90988599999989
  0
ARC
  5
237
  8
_________2
 62
     7
 10
76.348354
 20
51.404327000000002
 30
0.0
 40
2.1657779999999991
 50
182.11700400000001
 51
267.88302499999992
  0
ARC
  5
238
  8
_________2
 62
     7
 10
76.188378999999983
 20
51.405009999999997
 30
0.0
 40
2.1664590000000001
 50
272.11546800000002
 51
357.86560400000002
  0
TEXT
  5
239
  8
_________2
 62
     7
 10
109.5439999999999
 20
23.199100000000001
 30
0.0
 40
3.660169999999999
  1
図番
 41
0.5
  0
LINE
  5
23A
  8
_________2
 62
     7
 10
108.4889999999999
 20
27.4283
 30
0.0
 11
188.49000000000001
 21
27.4283
 31
0.0
  0
TEXT
  5
23B
  8
_________2
 62
     7
 10
109.5439999999999
 20
33.198900000000002
 30
0.0
 40
3.660169999999999
  1
品番
 41
0.5
  0
TEXT
  5
23C
  8
_________2
 62
     7
 10
109.5439999999999
 20
53.338000000000001
 30
0.0
 40
3.660169999999999
  1
名称
 41
0.5
  0
TEXT
  5
23D
  8
_________2
 62
     7
 10
96.504445833333335
 20
48.341900000000003
 30
0.0
 40
4.3256500000000004
  1
mm
 41
0.5
 72
     1
 11
98.306799999999996
 21
48.341900000000003
 31
0.0
  0
TEXT
  5
23E
  8
_________2
 62
     7
 10
90.582099999999997
 20
53.338000000000001
 30
0.0
 40
3.660169999999999
  1
単位
 41
0.5
  0
TEXT
  5
23F
  8
_________2
 62
     7
 10
90.582099999999997
 20
40.930399999999999
 30
0.0
 40
3.660169999999999
  1
尺度
 41
0.5
  0
TEXT
  5
240
  8
_________2
 62
     7
 10
94.320620416666657
 20
34.7378
 30
0.0
 40
4.3256500000000004
  1
1 ： 10
 41
0.5
 72
     1
 11
98.898600000000002
 21
34.7378
 31
0.0
  0
TEXT
  5
241
  8
_________2
 62
     7
 10
142.27781333333331
 20
30.627800000000001
 30
0.0
 40
4.6583899999999989
  1
SB6003
 41
0.5
 72
     1
 11
148.489
 21
30.627800000000001
 31
0.0
  0
TEXT
  5
242
  8
_________2
 62
     7
 10
142.27781333333331
 20
20.626999999999988
 30
0.0
 40
4.6583899999999989
  1
SB6003
 41
0.5
 72
     1
 11
148.489
 21
20.626999999999988
 31
0.0
  0
TEXT
  5
243
  8
_________2
 62
     7
 10
114.11799999999999
 20
45.745600000000003
 30
0.0
 40
4.6583899999999989
  1
フジ 洗面器
 41
0.5
  0
TEXT
  5
244
  8
_________2
 62
     7
 10
44.01748083333333
 20
35.122999999999998
 30
0.0
 40
4.3256500000000004
  1
早川
 41
0.5
 72
     1
 11
46.252400000000002
 21
35.122999999999998
 31
0.0
  0
TEXT
  5
245
  8
_________2
 62
     7
 10
25.443480833333329
 20
35.122999999999998
 30
0.0
 40
4.3256500000000004
  1
井田
 41
0.5
 72
     1
 11
27.6784
 21
35.122999999999998
 31
0.0
  0
TEXT
  5
246
  8
_________2
 62
     7
 10
72.724699999999999
 20
34.7378
 30
0.0
 40
4.3256500000000004
  1
14.12.25
 41
0.5
  0
TEXT
  5
247
  8
_________2
 62
     7
 10
71.531999999999996
 20
40.930399999999999
 30
0.0
 40
3.660169999999999
  1
日付
 41
0.5
  0
TEXT
  5
248
  8
_________2
 62
     7
 10
34.578299999999992
 20
40.930399999999999
 30
0.0
 40
3.660169999999999
  1
検図
 41
0.5
  0
TEXT
  5
249
  8
_________2
 62
     7
 10
22.96019999999999
 20
26.730999999999991
 30
0.0
 40
3.660169999999999
  1
備考
 41
0.5
  0
TEXT
  5
24A
  8
_________2
 62
     7
 10
22.96019999999999
 20
40.930399999999999
 30
0.0
 40
3.660169999999999
  1
製図
 41
0.5
  0
TEXT
  5
24B
  8
_________2
 62
     7
 10
25.533730666666681
 20
49.456400000000002
 30
0.0
 40
5.3238799999999991
  1
セラトレーディング株式会社
 41
0.5
 72
     1
 11
46.119399999999992
 21
49.456400000000002
 31
0.0
  0
LINE
  5
24C
  8
_________2
 62
     7
 10
188.49000000000001
 20
17.428499999999989
 30
0.0
 11
21.988499999999991
 21
17.428499999999989
 31
0.0
  0
LINE
  5
24D
  8
_________2
 62
     7
 10
21.988499999999991
 20
17.428499999999989
 30
0.0
 11
21.988499999999991
 21
280.42999999999989
 31
0.0
  0
LINE
  5
24E
  8
_________2
 62
     7
 10
21.988499999999991
 20
280.42999999999989
 30
0.0
 11
188.49000000000001
 21
280.42999999999989
 31
0.0
  0
LINE
  5
24F
  8
_________2
 62
     7
 10
188.49000000000001
 20
280.42999999999989
 30
0.0
 11
188.49000000000001
 21
17.428499999999989
 31
0.0
  0
LINE
  5
250
  8
_________2
 62
     7
 10
70.488799999999998
 20
30.928899999999999
 30
0.0
 11
70.488799999999998
 21
57.428699999999992
 31
0.0
  0
LINE
  5
251
  8
_________2
 62
     7
 10
89.488600000000005
 20
30.928899999999999
 30
0.0
 11
89.488600000000005
 21
57.428699999999992
 31
0.0
  0
LINE
  5
252
  8
_________2
 62
     7
 10
108.4889999999999
 20
17.428499999999989
 30
0.0
 11
108.4889999999999
 21
57.428699999999992
 31
0.0
  0
LINE
  5
253
  8
_________2
 62
     7
 10
33.488300000000002
 20
30.928899999999999
 30
0.0
 11
33.488300000000002
 21
44.928800000000003
 31
0.0
  0
LINE
  5
254
  8
_________2
 62
     7
 10
21.988499999999991
 20
30.928899999999999
 30
0.0
 11
108.4889999999999
 21
30.928899999999999
 31
0.0
  0
LINE
  5
255
  8
_________2
 62
     7
 10
21.988499999999991
 20
44.928800000000003
 30
0.0
 11
108.4889999999999
 21
44.928800000000003
 31
0.0
  0
LINE
  5
256
  8
_________2
 62
     7
 10
108.4889999999999
 20
37.428100000000001
 30
0.0
 11
188.49000000000001
 21
37.428100000000001
 31
0.0
  0
LINE
  5
257
  8
_________2
 62
     7
 10
21.988499999999991
 20
57.428699999999992
 30
0.0
 11
188.49000000000001
 21
57.428699999999992
 31
0.0
  0
LINE
  5
258
  8
_________2
 62
     7
 10
210.24000000000001
 20
148.93100000000001
 30
0.0
 11
188.489
 21
148.93100000000001
 31
0.0
  0
LINE
  5
259
  8
_________2
 62
     7
 10
105.2389999999999
 20
297.45099999999991
 30
0.0
 11
105.2389999999999
 21
280.42999999999989
 31
0.0
  0
LINE
  5
25A
  8
_________2
 62
     7
 10
21.988499999999991
 20
148.93100000000001
 30
0.0
 11
0.238402
 21
148.93100000000001
 31
0.0
  0
ENDSEC
  0
EOF
