  0
SECTION
  2
HEADER
  9
$ACADVER
  1
AC1009
  9
$INSBASE
 10
0.0
 20
0.0
 30
0.0
  9
$EXTMIN
 10
0.238402
 20
0.4485540000000001
 30
0.0
  9
$EXTMAX
 10
210.24000000000001
 20
297.45099999999991
 30
0.0
  9
$LIMMIN
 10
0.0
 20
0.0
  9
$LIMMAX
 10
12.0
 20
9.0
  9
$ORTHOMODE
 70
     0
  9
$REGENMODE
 70
     1
  9
$FILLMODE
 70
     1
  9
$QTEXTMODE
 70
     0
  9
$MIRRTEXT
 70
     1
  9
$DRAGMODE
 70
     2
  9
$LTSCALE
 40
1.0
  9
$OSMODE
 70
    37
  9
$ATTMODE
 70
     1
  9
$TEXTSIZE
 40
0.0
  9
$TRACEWID
 40
0.05
  9
$TEXTSTYLE
  7
STANDARD
  9
$CLAYER
  8
0
  9
$CELTYPE
  6
CONTINUOUS
  9
$CECOLOR
 62
   256
  9
$DIMSCALE
 40
1.0
  9
$DIMASZ
 40
0.18
  9
$DIMEXO
 40
0.0625
  9
$DIMDLI
 40
0.38
  9
$DIMRND
 40
0.0
  9
$DIMDLE
 40
0.0
  9
$DIMEXE
 40
0.18
  9
$DIMTP
 40
0.0
  9
$DIMTM
 40
0.0
  9
$DIMTXT
 40
0.18
  9
$DIMCEN
 40
0.09
  9
$DIMTSZ
 40
0.0
  9
$DIMTOL
 70
     0
  9
$DIMLIM
 70
     0
  9
$DIMTIH
 70
     1
  9
$DIMTOH
 70
     1
  9
$DIMSE1
 70
     0
  9
$DIMSE2
 70
     0
  9
$DIMTAD
 70
     0
  9
$DIMZIN
 70
     0
  9
$DIMBLK
  1

  9
$DIMASO
 70
     1
  9
$DIMSHO
 70
     1
  9
$DIMPOST
  1

  9
$DIMAPOST
  1

  9
$DIMALT
 70
     0
  9
$DIMALTD
 70
     2
  9
$DIMALTF
 40
25.399999999999999
  9
$DIMLFAC
 40
1.0
  9
$DIMTOFL
 70
     0
  9
$DIMTVP
 40
0.0
  9
$DIMTIX
 70
     0
  9
$DIMSOXD
 70
     0
  9
$DIMSAH
 70
     0
  9
$DIMBLK1
  1

  9
$DIMBLK2
  1

  9
$DIMSTYLE
  2
STANDARD
  9
$DIMCLRD
 70
     0
  9
$DIMCLRE
 70
     0
  9
$DIMCLRT
 70
     0
  9
$DIMTFAC
 40
1.0
  9
$DIMGAP
 40
0.09
  9
$LUNITS
 70
     2
  9
$LUPREC
 70
     4
  9
$SKETCHINC
 40
0.1
  9
$FILLETRAD
 40
0.0
  9
$AUNITS
 70
     0
  9
$AUPREC
 70
     0
  9
$MENU
  1
.
  9
$ELEVATION
 40
0.0
  9
$PELEVATION
 40
0.0
  9
$THICKNESS
 40
0.0
  9
$LIMCHECK
 70
     0
  9
$BLIPMODE
 70
     0
  9
$CHAMFERA
 40
0.0
  9
$CHAMFERB
 40
0.0
  9
$SKPOLY
 70
     0
  9
$TDCREATE
 40
2444972.375
  9
$TDUPDATE
 40
2457054.248581423
  9
$TDINDWG
 40
0.0000066782
  9
$TDUSRTIMER
 40
0.0000066782
  9
$USRTIMER
 70
     1
  9
$ANGBASE
 50
0.0
  9
$ANGDIR
 70
     0
  9
$PDMODE
 70
     0
  9
$PDSIZE
 40
0.0
  9
$PLINEWID
 40
0.0
  9
$COORDS
 70
     1
  9
$SPLFRAME
 70
     0
  9
$SPLINETYPE
 70
     6
  9
$SPLINESEGS
 70
     8
  9
$ATTDIA
 70
     0
  9
$ATTREQ
 70
     1
  9
$HANDLING
 70
     1
  9
$HANDSEED
  5
278
  9
$SURFTAB1
 70
     6
  9
$SURFTAB2
 70
     6
  9
$SURFTYPE
 70
     6
  9
$SURFU
 70
     6
  9
$SURFV
 70
     6
  9
$UCSNAME
  2

  9
$UCSORG
 10
0.0
 20
0.0
 30
0.0
  9
$UCSXDIR
 10
1.0
 20
0.0
 30
0.0
  9
$UCSYDIR
 10
0.0
 20
1.0
 30
0.0
  9
$PUCSNAME
  2

  9
$PUCSORG
 10
0.0
 20
0.0
 30
0.0
  9
$PUCSXDIR
 10
1.0
 20
0.0
 30
0.0
  9
$PUCSYDIR
 10
0.0
 20
1.0
 30
0.0
  9
$USERI1
 70
     0
  9
$USERI2
 70
     0
  9
$USERI3
 70
     0
  9
$USERI4
 70
     0
  9
$USERI5
 70
     0
  9
$USERR1
 40
0.0
  9
$USERR2
 40
0.0
  9
$USERR3
 40
0.0
  9
$USERR4
 40
0.0
  9
$USERR5
 40
0.0
  9
$WORLDVIEW
 70
     1
  9
$SHADEDGE
 70
     3
  9
$SHADEDIF
 70
    70
  9
$TILEMODE
 70
     1
  9
$MAXACTVP
 70
    48
  9
$PLIMCHECK
 70
     0
  9
$PEXTMIN
 10
1.0000000000000000E+020
 20
1.0000000000000000E+020
 30
1.0000000000000000E+020
  9
$PEXTMAX
 10
-1.0000000000000000E+020
 20
-1.0000000000000000E+020
 30
-1.0000000000000000E+020
  9
$PLIMMIN
 10
0.0
 20
0.0
  9
$PLIMMAX
 10
12.0
 20
9.0
  9
$UNITMODE
 70
     0
  9
$VISRETAIN
 70
     1
  9
$PLINEGEN
 70
     0
  9
$PSLTSCALE
 70
     1
  0
ENDSEC
  0
SECTION
  2
TABLES
  0
TABLE
  2
VPORT
 70
     2
  0
VPORT
  2
*ACTIVE
 70
     0
 10
0.0
 20
0.0
 11
1.0
 21
1.0
 12
206.64826976736501
 22
148.7254999999999
 13
0.0
 23
0.0
 14
1.0
 24
1.0
 15
0.0
 25
0.0
 16
0.0
 26
0.0
 36
1.0
 17
0.0
 27
0.0
 37
0.0
 40
299.90927272727259
 41
2.2894736842105261
 42
50.0
 43
0.0
 44
0.0
 50
0.0
 51
0.0
 71
     0
 72
   100
 73
     1
 74
     1
 75
     0
 76
     0
 77
     0
 78
     0
  0
ENDTAB
  0
TABLE
  2
LTYPE
 70
     4
  0
LTYPE
  2
CONTINUOUS
 70
     0
  3
Solid line
 72
    65
 73
     0
 40
0.0
  0
LTYPE
  2
AIGENLINE001
 70
     0
  3
generate AI->DXF Converter
 72
    65
 73
     4
 40
5.8561449999999988
 49
3.5278
 49
-0.776115
 49
0.776115
 49
-0.776115
  0
LTYPE
  2
AIGENLINE002
 70
     0
  3
generate AI->DXF Converter
 72
    65
 73
     2
 40
1.5522299999999991
 49
0.776115
 49
-0.776115
  0
LTYPE
  2
AIGENLINE003
 70
     0
  3
generate AI->DXF Converter
 72
    65
 73
     6
 40
7.4083750000000004
 49
3.5278
 49
-0.776115
 49
0.776115
 49
-0.776115
 49
0.776115
 49
-0.776115
  0
ENDTAB
  0
TABLE
  2
LAYER
 70
     2
  0
LAYER
  2
0
 70
     0
 62
     7
  6
CONTINUOUS
  0
LAYER
  2
_________2
 70
     0
 62
     7
  6
CONTINUOUS
  0
ENDTAB
  0
TABLE
  2
STYLE
 70
     1
  0
STYLE
  2
STANDARD
 70
     0
 40
0.0
 41
0.0
 50
0.0
 71
     0
 42
0.0
  3
TXT
  4
EXTFONT.SHX
  0
ENDTAB
  0
TABLE
  2
VIEW
 70
     0
  0
ENDTAB
  0
TABLE
  2
UCS
 70
     0
  0
ENDTAB
  0
TABLE
  2
APPID
 70
     1
  0
APPID
  2
ACAD
 70
     0
  0
ENDTAB
  0
TABLE
  2
DIMSTYLE
 70
     1
  0
DIMSTYLE
  2
STANDARD
 70
     0
  3

  4

  5

  6

  7

 40
1.0
 41
0.18
 42
0.0625
 43
0.38
 44
0.18
 45
0.0
 46
0.0
 47
0.0
 48
0.0
140
0.18
141
0.09
142
0.0
143
25.399999999999999
144
1.0
145
0.0
146
1.0
147
0.09
 71
     0
 72
     0
 73
     1
 74
     1
 75
     0
 76
     0
 77
     0
 78
     0
170
     0
171
     2
172
     0
173
     0
174
     0
175
     0
176
     0
177
     0
178
     0
  0
ENDTAB
  0
ENDSEC
  0
SECTION
  2
BLOCKS
  0
BLOCK
  8
0
  2
$MODEL_SPACE
 70
     0
 10
0.0
 20
0.0
 30
0.0
  3
$MODEL_SPACE
  1

  0
ENDBLK
  5
1A
  8
0
  0
BLOCK
 67
     1
  8
0
  2
$PAPER_SPACE
 70
     0
 10
0.0
 20
0.0
 30
0.0
  3
$PAPER_SPACE
  1

  0
ENDBLK
  5
17
 67
     1
  8
0
  0
ENDSEC
  0
SECTION
  2
ENTITIES
  0
TEXT
  5
24
  8
0
 62
     7
 10
158.80781866666661
 20
96.456000000000003
 30
0.0
 40
3.660169999999999
  1
陶器
 41
0.5
 72
     2
 11
162.71199999999999
 21
96.456000000000003
 31
0.0
  0
TEXT
  5
25
  8
0
 62
     7
 10
149.74662599999991
 20
83.247499999999988
 30
0.0
 40
3.660169999999999
  1
シリコン
 41
0.5
 72
     2
 11
157.79899999999989
 21
83.247499999999988
 31
0.0
  0
TEXT
  5
26
  8
0
 62
     7
 10
143.0382306190476
 20
75.924899999999994
 30
0.0
 40
3.660169999999999
  1
排水目皿カバー
 41
0.5
 72
     1
 11
150.37599999999989
 21
75.924899999999994
 31
0.0
  0
TEXT
  5
27
  8
0
 62
     7
 10
134.11299999999989
 20
83.698400000000007
 30
0.0
 40
3.660169999999999
  1
16
 50
90.0
 41
0.5
  0
TEXT
  5
28
  8
0
 62
     7
 10
147.47836541666661
 20
125.20699999999999
 30
0.0
 40
3.660169999999999
  1
%%c190
 41
0.5
 72
     1
 11
150.37599999999989
 21
125.20699999999999
 31
0.0
  0
TEXT
  5
29
  8
0
 62
     7
 10
56.719358499999998
 20
118.355
 30
0.0
 40
3.660169999999999
  1
取付ボルト×2セット付（尺度1：5）
 41
0.5
 72
     1
 11
74.837199999999996
 21
118.355
 31
0.0
  0
TEXT
  5
2A
  8
0
 62
     7
 10
61.813095083333337
 20
113.779
 30
0.0
 40
3.660169999999999
  1
※Φ12×60樹脂プラグ付
 41
0.5
 72
     1
 11
74.837199999999996
 21
113.779
 31
0.0
  0
TEXT
  5
2B
  8
0
 62
     7
 10
72.655929166666667
 20
104.831
 30
0.0
 40
3.660169999999999
  1
45
 41
0.5
 72
     1
 11
74.180999999999983
 21
104.831
 31
0.0
  0
TEXT
  5
2C
  8
0
 62
     7
 10
78.825143333333315
 20
104.831
 30
0.0
 40
3.660169999999999
  1
15
 41
0.5
 72
     1
 11
80.045199999999994
 21
104.831
 31
0.0
  0
TEXT
  5
2D
  8
0
 62
     7
 10
86.404236249999997
 20
104.831
 30
0.0
 40
3.660169999999999
  1
60
 41
0.5
 72
     1
 11
87.776799999999994
 21
104.831
 31
0.0
  0
TEXT
  5
2E
  8
0
 62
     7
 10
35.318800000000003
 20
236.04691500000001
 30
0.0
 40
3.660169999999999
  1
100
 50
90.0
 41
0.5
 72
     1
 11
35.318800000000003
 21
237.87700000000001
 31
0.0
  0
TEXT
  5
2F
  8
0
 62
     7
 10
42.460399999999993
 20
233.50443625
 30
0.0
 40
3.660169999999999
  1
40
 50
90.0
 41
0.5
 72
     1
 11
42.460399999999993
 21
234.87700000000001
 31
0.0
  0
TEXT
  5
30
  8
0
 62
     7
 10
42.460399999999993
 20
238.77943625
 30
0.0
 40
3.660169999999999
  1
60
 50
90.0
 41
0.5
 72
     1
 11
42.460399999999993
 21
240.15199999999999
 31
0.0
  0
TEXT
  5
31
  8
0
 62
     7
 10
28.389800000000001
 20
219.36439375
 30
0.0
 40
3.660169999999999
  1
430
 50
90.0
 41
0.5
 72
     1
 11
28.389800000000001
 21
221.65199999999999
 31
0.0
  0
TEXT
  5
32
  8
0
 62
     7
 10
164.82599999999999
 20
229.86439375
 30
0.0
 40
3.660169999999999
  1
220
 50
90.0
 41
0.5
 72
     1
 11
164.82599999999999
 21
232.15199999999999
 31
0.0
  0
TEXT
  5
33
  8
0
 62
     7
 10
110.8899999999999
 20
229.86439375
 30
0.0
 40
3.660169999999999
  1
220
 50
90.0
 41
0.5
 72
     1
 11
110.8899999999999
 21
232.15199999999999
 31
0.0
  0
TEXT
  5
34
  8
0
 62
     7
 10
81.203000833333334
 20
190.18499999999989
 30
0.0
 40
3.660169999999999
  1
700
 41
0.5
 72
     1
 11
83.338099999999983
 21
190.18499999999989
 31
0.0
  0
TEXT
  5
35
  8
0
 62
     7
 10
130.06399999999999
 20
193.27199999999999
 30
0.0
 40
3.660169999999999
  1
※カウンターを設ける場合も洗面器の
 41
0.5
  0
TEXT
  5
36
  8
0
 62
     7
 10
130.06399999999999
 20
188.69699999999989
 30
0.0
 40
3.660169999999999
  1
壁固定が必要です。
 41
0.5
  0
TEXT
  5
37
  8
0
 62
     7
 10
130.06399999999999
 20
184.12200000000001
 30
0.0
 40
3.660169999999999
  1
※カウンターの制作可否はカウンター
 41
0.5
  0
TEXT
  5
38
  8
0
 62
     7
 10
130.06399999999999
 20
179.54599999999999
 30
0.0
 40
3.660169999999999
  1
業者様にご確認ください。
 41
0.5
  0
TEXT
  5
39
  8
0
 62
     7
 10
144.1155466666666
 20
202.44399999999999
 30
0.0
 40
3.660169999999999
  1
カウンター切込寸法
 41
0.5
 72
     1
 11
153.876
 21
202.44399999999999
 31
0.0
  0
TEXT
  5
3A
  8
0
 62
     7
 10
139.40299999999991
 20
225.66940791666659
 30
0.0
 40
3.660169999999999
  1
310
 50
90.0
 41
0.5
 72
     1
 11
139.40299999999991
 21
227.65199999999999
 31
0.0
  0
TEXT
  5
3B
  8
0
 62
     7
 10
91.361287499999989
 20
228.4679999999999
 30
0.0
 40
3.660169999999999
  1
%%c50
 41
0.5
 72
     2
 11
95.936499999999995
 21
228.4679999999999
 31
0.0
  0
TEXT
  5
3C
  8
0
 62
     7
 10
142.85099999999991
 20
229.71299999999999
 30
0.0
 40
3.660169999999999
  1
排水口
 41
0.5
  0
TEXT
  5
3D
  8
0
 62
     7
 10
170.79300000000001
 20
217.25399999999999
 30
0.0
 40
3.660169999999999
  1
R10
 41
0.5
  0
TEXT
  5
3E
  8
0
 62
     7
 10
132.76681583333331
 20
217.25399999999999
 30
0.0
 40
3.660169999999999
  1
R10
 41
0.5
 72
     2
 11
136.732
 21
217.25399999999999
 31
0.0
  0
TEXT
  5
3F
  8
0
 62
     7
 10
93.791873333333314
 20
246.95400000000001
 30
0.0
 40
3.660169999999999
  1
%%c36
 41
0.5
 72
     2
 11
98.6721
 21
246.95400000000001
 31
0.0
  0
TEXT
  5
40
  8
0
 62
     7
 10
168.55996033333329
 20
246.72
 30
0.0
 40
3.660169999999999
  1
壁
 41
0.5
 72
     1
 11
169.41399999999999
 21
246.72
 31
0.0
  0
TEXT
  5
41
  8
0
 62
     7
 10
151.58839374999991
 20
252.94699999999989
 30
0.0
 40
3.660169999999999
  1
520
 41
0.5
 72
     1
 11
153.876
 21
252.94699999999989
 31
0.0
  0
TEXT
  5
42
  8
0
 62
     7
 10
32.705500000000001
 20
146.14140791666659
 30
0.0
 40
3.660169999999999
  1
140
 50
90.0
 41
0.5
 72
     1
 11
32.705500000000001
 21
148.12399999999991
 31
0.0
  0
TEXT
  5
43
  8
0
 62
     7
 10
40.610199999999999
 20
150.50592916666659
 30
0.0
 40
3.660169999999999
  1
55
 50
90.0
 41
0.5
 72
     1
 11
40.610199999999999
 21
152.03100000000001
 31
0.0
  0
TEXT
  5
44
  8
0
 62
     7
 10
81.050493750000001
 20
163.02099999999999
 30
0.0
 40
3.660169999999999
  1
380
 41
0.5
 72
     1
 11
83.338099999999983
 21
163.02099999999999
 31
0.0
  0
TEXT
  5
45
  8
0
 62
     7
 10
148.49399999999989
 20
147.89391499999991
 30
0.0
 40
3.660169999999999
  1
100
 50
90.0
 41
0.5
 72
     1
 11
148.49399999999989
 21
149.7239999999999
 31
0.0
  0
TEXT
  5
46
  8
0
 62
     7
 10
162.58839374999991
 20
163.161
 30
0.0
 40
3.660169999999999
  1
220
 41
0.5
 72
     1
 11
164.87599999999989
 21
163.161
 31
0.0
  0
LINE
  5
47
  8
0
 62
     7
 10
154.90700000000001
 20
95.755999999999986
 30
0.0
 11
162.71199999999999
 21
95.755999999999986
 31
0.0
  0
LINE
  5
48
  8
0
 62
     7
 10
153.15000000000001
 20
92.790400000000005
 30
0.0
 11
151.262
 21
91.496099999999998
 31
0.0
  0
LINE
  5
49
  8
0
 62
     7
 10
151.262
 20
91.496099999999998
 30
0.0
 11
152.24899999999991
 21
93.5608
 31
0.0
  0
LINE
  5
4A
  8
0
 62
     7
 10
152.24899999999991
 20
93.5608
 30
0.0
 11
153.15000000000001
 21
92.790400000000005
 31
0.0
  0
LINE
  5
4B
  8
0
 62
     7
 10
151.262
 20
91.496099999999998
 30
0.0
 11
154.90700000000001
 21
95.755999999999986
 31
0.0
  0
LINE
  5
4C
  8
0
 62
     7
 10
146.55899999999991
 20
82.547399999999996
 30
0.0
 11
157.79899999999989
 21
82.547399999999996
 31
0.0
  0
LINE
  5
4D
  8
0
 62
     7
 10
144.30699999999999
 20
86.907899999999984
 30
0.0
 11
144.0929999999999
 21
89.186199999999999
 31
0.0
  0
LINE
  5
4E
  8
0
 62
     7
 10
144.0929999999999
 20
89.186199999999999
 30
0.0
 11
145.41800000000001
 21
87.320299999999989
 31
0.0
  0
LINE
  5
4F
  8
0
 62
     7
 10
145.41800000000001
 20
87.320299999999989
 30
0.0
 11
144.30699999999999
 21
86.907899999999984
 31
0.0
  0
LINE
  5
50
  8
0
 62
     7
 10
144.0929999999999
 20
89.186199999999999
 30
0.0
 11
146.55899999999991
 21
82.547399999999996
 31
0.0
  0
LINE
  5
51
  8
0
 62
     7
 10
134.22799999999989
 20
93.709599999999995
 30
0.0
 11
134.82099999999991
 21
91.498900000000006
 31
0.0
  0
LINE
  5
52
  8
0
 62
     7
 10
134.82099999999991
 20
91.498900000000006
 30
0.0
 11
135.4129999999999
 21
93.709599999999995
 31
0.0
  0
LINE
  5
53
  8
0
 62
     7
 10
135.4129999999999
 20
93.709599999999995
 30
0.0
 11
134.22799999999989
 21
93.709599999999995
 31
0.0
  0
LINE
  5
54
  8
0
 62
     7
 10
135.399
 20
87.690600000000003
 30
0.0
 11
134.80699999999999
 21
89.901399999999995
 31
0.0
  0
LINE
  5
55
  8
0
 62
     7
 10
134.80699999999999
 20
89.901399999999995
 30
0.0
 11
134.214
 21
87.690600000000003
 31
0.0
  0
LINE
  5
56
  8
0
 62
     7
 10
134.214
 20
87.690600000000003
 30
0.0
 11
135.399
 21
87.690600000000003
 31
0.0
  0
LINE
  5
57
  8
0
 62
     7
 10
134.8129999999999
 20
83.698400000000007
 30
0.0
 11
134.8129999999999
 21
95.698099999999997
 31
0.0
  0
LINE
  5
58
  8
0
 62
     7
 10
143.08600000000001
 20
125.092
 30
0.0
 11
140.876
 21
124.5
 31
0.0
  0
LINE
  5
59
  8
0
 62
     7
 10
140.876
 20
124.5
 30
0.0
 11
143.08600000000001
 21
123.907
 31
0.0
  0
LINE
  5
5A
  8
0
 62
     7
 10
143.08600000000001
 20
123.907
 30
0.0
 11
143.08600000000001
 21
125.092
 31
0.0
  0
LINE
  5
5B
  8
0
 62
     7
 10
157.66499999999991
 20
123.92100000000001
 30
0.0
 11
159.876
 21
124.51299999999991
 31
0.0
  0
LINE
  5
5C
  8
0
 62
     7
 10
159.876
 20
124.51299999999991
 30
0.0
 11
157.66499999999991
 21
125.10599999999999
 31
0.0
  0
LINE
  5
5D
  8
0
 62
     7
 10
157.66499999999991
 20
125.10599999999999
 30
0.0
 11
157.66499999999991
 21
123.92100000000001
 31
0.0
  0
LINE
  5
5E
  8
0
 62
     7
 10
140.87700000000001
 20
124.50700000000001
 30
0.0
 11
159.875
 21
124.50700000000001
 31
0.0
  0
LINE
  5
5F
  8
0
 62
     7
 10
140.876
 20
125.35299999999999
 30
0.0
 11
140.876
 21
114.34099999999999
 31
0.0
  0
LINE
  5
60
  8
0
 62
     7
 10
159.876
 20
125.35299999999999
 30
0.0
 11
159.876
 21
114.34099999999999
 31
0.0
  0
LINE
  5
61
  8
0
 62
     7
 10
133.96700000000001
 20
91.498900000000006
 30
0.0
 11
144.67799999999991
 21
91.498900000000006
 31
0.0
  0
LINE
  5
62
  8
0
 62
     7
 10
133.96700000000001
 20
89.901399999999995
 30
0.0
 11
138.96600000000001
 21
89.901399999999995
 31
0.0
  0
LINE
  5
63
  8
0
  6
AIGENLINE001
 62
     7
 10
143.7949999999999
 20
112.226
 30
0.0
 11
143.7949999999999
 21
110.226
 31
0.0
  0
ARC
  5
64
  8
0
 62
     7
 10
143.7649199999999
 20
89.931163999999995
 30
0.0
 40
0.8054979999999998
 50
272.119889
 51
357.88012099999992
  0
ARC
  5
65
  8
0
 62
     7
 10
143.82452000000001
 20
89.930814999999996
 30
0.0
 40
0.80515
 50
182.09596999999991
 51
267.87858899999998
  0
ARC
  5
66
  8
0
  6
AIGENLINE002
 62
     7
 10
143.76525899999999
 20
111.2557699999999
 30
0.0
 40
0.805161
 50
272.09667200000001
 51
357.87786799999998
  0
ARC
  5
67
  8
0
  6
AIGENLINE002
 62
     7
 10
143.8244959999999
 20
111.255736
 30
0.0
 40
0.8051379999999999
 50
182.1197389999999
 51
267.88029099999989
  0
ARC
  5
68
  8
0
  6
AIGENLINE002
 62
     7
 10
143.795061
 20
111.22629999999999
 30
0.0
 40
0.7751520000000001
 50
90.025465000000011
 51
180.02547499999989
  0
ARC
  5
69
  8
0
  6
AIGENLINE002
 62
     7
 10
143.764906
 20
111.19650300000001
 30
0.0
 40
0.8054999999999999
 50
2.0954280000000001
 51
87.879102000000003
  0
LINE
  5
6A
  8
0
  6
AIGENLINE001
 62
     7
 10
150.37599999999989
 20
111.226
 30
0.0
 11
155.74299999999999
 21
116.592
 31
0.0
  0
LINE
  5
6B
  8
0
  6
AIGENLINE001
 62
     7
 10
155.74299999999999
 20
115.178
 30
0.0
 11
154.32900000000001
 21
116.592
 31
0.0
  0
ARC
  5
6C
  8
0
  6
AIGENLINE002
 62
     7
 10
155.0354449999999
 20
115.84383
 30
0.0
 40
0.804639
 50
47.062671000000002
 51
132.937309
  0
ARC
  5
6D
  8
0
  6
AIGENLINE002
 62
     7
 10
155.07623299999989
 20
115.88496000000001
 30
0.0
 40
0.8043969999999999
 50
137.06343699999999
 51
222.93656299999989
  0
ARC
  5
6E
  8
0
  6
AIGENLINE002
 62
     7
 10
155.0354449999999
 20
115.8857559999999
 30
0.0
 40
0.775598
 50
225.03263499999991
 51
314.96738499999998
  0
ARC
  5
6F
  8
0
  6
AIGENLINE002
 62
     7
 10
154.99231299999991
 20
115.88496000000001
 30
0.0
 40
0.8061149999999999
 50
317.17691600000001
 51
42.823084000000001
  0
LINE
  5
70
  8
0
  6
AIGENLINE001
 62
     7
 10
150.37599999999989
 20
111.226
 30
0.0
 11
155.74299999999999
 21
105.8599999999999
 31
0.0
  0
LINE
  5
71
  8
0
  6
AIGENLINE001
 62
     7
 10
155.74299999999999
 20
107.274
 30
0.0
 11
154.32900000000001
 21
105.8599999999999
 31
0.0
  0
ARC
  5
72
  8
0
 62
     7
 10
155.00566000000001
 20
89.931139999999999
 30
0.0
 40
0.8054859999999999
 50
272.1436589999999
 51
357.881822
  0
ARC
  5
73
  8
0
 62
     7
 10
155.0655659999999
 20
89.931503000000006
 30
0.0
 40
0.805836
 50
182.14310800000001
 51
267.88238100000001
  0
ARC
  5
74
  8
0
  6
AIGENLINE002
 62
     7
 10
155.0354449999999
 20
106.567403
 30
0.0
 40
0.775598
 50
225.03263499999991
 51
314.96738499999998
  0
ARC
  5
75
  8
0
  6
AIGENLINE002
 62
     7
 10
155.07796799999991
 20
106.566779
 30
0.0
 40
0.8057859999999999
 50
137.13850299999999
 51
222.86149700000001
  0
ARC
  5
76
  8
0
  6
AIGENLINE002
 62
     7
 10
155.0354449999999
 20
106.525029
 30
0.0
 40
0.8052189999999999
 50
47.101072000000002
 51
132.89890800000001
  0
ARC
  5
77
  8
0
  6
AIGENLINE002
 62
     7
 10
155.0341949999999
 20
106.566779
 30
0.0
 40
0.77604
 50
315.06525299999993
 51
44.934746999999987
  0
LINE
  5
78
  8
0
  6
AIGENLINE001
 62
     7
 10
150.37599999999989
 20
122.5659999999999
 30
0.0
 11
150.37599999999989
 21
99.88600000000001
 31
0.0
  0
LINE
  5
79
  8
0
  6
AIGENLINE001
 62
     7
 10
161.29599999999991
 20
111.226
 30
0.0
 11
138.61600000000001
 21
111.226
 31
0.0
  0
ARC
  5
7A
  8
0
 62
     7
 10
150.37609399999999
 20
111.225781
 30
0.0
 40
9.5000809999999998
 50
179.99893099999991
 51
269.99898100000001
  0
ARC
  5
7B
  8
0
 62
     7
 10
150.3760969999999
 20
111.22612599999999
 30
0.0
 40
9.5000850000000003
 50
90.001039000000006
 51
180.00104899999991
  0
ARC
  5
7C
  8
0
 62
     7
 10
150.37557699999991
 20
111.226298
 30
0.0
 40
9.4999130000000012
 50
359.99793199999999
 51
89.997901999999996
  0
ARC
  5
7D
  8
0
 62
     7
 10
150.37557699999991
 20
111.225613
 30
0.0
 40
9.4999130000000012
 50
270.00209799999999
 51
0.002068
  0
LINE
  5
7E
  8
0
 62
     7
 10
159.59399999999991
 20
89.901399999999995
 30
0.0
 11
141.17099999999999
 21
89.901399999999995
 31
0.0
  0
LINE
  5
7F
  8
0
 62
     7
 10
159.59399999999991
 20
89.901399999999995
 30
0.0
 11
159.69599999999991
 21
89.929599999999994
 31
0.0
  0
LINE
  5
80
  8
0
 62
     7
 10
159.69599999999991
 20
89.929599999999994
 30
0.0
 11
159.78700000000001
 21
89.985799999999998
 31
0.0
  0
LINE
  5
81
  8
0
 62
     7
 10
159.78700000000001
 20
89.985799999999998
 30
0.0
 11
159.84999999999999
 21
90.083999999999989
 31
0.0
  0
LINE
  5
82
  8
0
 62
     7
 10
159.84999999999999
 20
90.083999999999989
 30
0.0
 11
159.876
 21
90.196600000000004
 31
0.0
  0
LINE
  5
83
  8
0
 62
     7
 10
159.876
 20
90.196600000000004
 30
0.0
 11
159.876
 21
90.308899999999994
 31
0.0
  0
LINE
  5
84
  8
0
 62
     7
 10
159.876
 20
90.308899999999994
 30
0.0
 11
159.8249999999999
 21
90.421599999999998
 31
0.0
  0
LINE
  5
85
  8
0
 62
     7
 10
159.8249999999999
 20
90.421599999999998
 30
0.0
 11
159.74799999999999
 21
90.491900000000015
 31
0.0
  0
LINE
  5
86
  8
0
 62
     7
 10
159.74799999999999
 20
90.491900000000015
 30
0.0
 11
159.64500000000001
 21
90.533900000000003
 31
0.0
  0
LINE
  5
87
  8
0
 62
     7
 10
159.64500000000001
 20
90.533900000000003
 30
0.0
 11
158.10900000000001
 21
90.843299999999985
 31
0.0
  0
LINE
  5
88
  8
0
 62
     7
 10
158.10900000000001
 20
90.843299999999985
 30
0.0
 11
156.57299999999989
 21
91.082000000000008
 31
0.0
  0
ARC
  5
89
  8
0
 62
     7
 10
150.3945469999999
 20
46.346494999999997
 30
0.0
 40
45.160154999999989
 50
82.136576000000005
 51
95.930550999999994
  0
LINE
  5
8A
  8
0
 62
     7
 10
145.72799999999989
 20
91.264899999999997
 30
0.0
 11
144.179
 21
91.082000000000008
 31
0.0
  0
LINE
  5
8B
  8
0
 62
     7
 10
144.179
 20
91.082000000000008
 30
0.0
 11
142.642
 21
90.843299999999985
 31
0.0
  0
LINE
  5
8C
  8
0
 62
     7
 10
142.642
 20
90.843299999999985
 30
0.0
 11
141.11899999999989
 21
90.533900000000003
 31
0.0
  0
LINE
  5
8D
  8
0
 62
     7
 10
141.11899999999989
 20
90.533900000000003
 30
0.0
 11
141.01699999999991
 21
90.491900000000015
 31
0.0
  0
LINE
  5
8E
  8
0
 62
     7
 10
141.01699999999991
 20
90.491900000000015
 30
0.0
 11
140.93999999999991
 21
90.421599999999998
 31
0.0
  0
LINE
  5
8F
  8
0
 62
     7
 10
140.93999999999991
 20
90.421599999999998
 30
0.0
 11
140.88900000000001
 21
90.308899999999994
 31
0.0
  0
LINE
  5
90
  8
0
 62
     7
 10
140.88900000000001
 20
90.308899999999994
 30
0.0
 11
140.876
 21
90.196600000000004
 31
0.0
  0
LINE
  5
91
  8
0
 62
     7
 10
140.876
 20
90.196600000000004
 30
0.0
 11
140.90199999999999
 21
90.083999999999989
 31
0.0
  0
LINE
  5
92
  8
0
 62
     7
 10
140.90199999999999
 20
90.083999999999989
 30
0.0
 11
140.97799999999989
 21
89.985799999999998
 31
0.0
  0
LINE
  5
93
  8
0
 62
     7
 10
140.97799999999989
 20
89.985799999999998
 30
0.0
 11
141.0679999999999
 21
89.929599999999994
 31
0.0
  0
LINE
  5
94
  8
0
 62
     7
 10
141.0679999999999
 20
89.929599999999994
 30
0.0
 11
141.17099999999999
 21
89.901399999999995
 31
0.0
  0
LINE
  5
95
  8
0
 62
     7
 10
66.271699999999996
 20
96.568399999999997
 30
0.0
 11
63.471499999999999
 21
96.568399999999997
 31
0.0
  0
LINE
  5
96
  8
0
 62
     7
 10
63.471499999999999
 20
96.568399999999997
 30
0.0
 11
63.471499999999999
 21
99.168400000000005
 31
0.0
  0
LINE
  5
97
  8
0
 62
     7
 10
63.471499999999999
 20
99.168400000000005
 30
0.0
 11
66.271699999999996
 21
99.168400000000005
 31
0.0
  0
LINE
  5
98
  8
0
 62
     7
 10
66.271699999999996
 20
99.168400000000005
 30
0.0
 11
66.271699999999996
 21
96.568399999999997
 31
0.0
  0
LINE
  5
99
  8
0
 62
     7
 10
63.471499999999999
 20
94.068200000000004
 30
0.0
 11
62.87169999999999
 21
94.068200000000004
 31
0.0
  0
LINE
  5
9A
  8
0
 62
     7
 10
62.87169999999999
 20
94.068200000000004
 30
0.0
 11
62.87169999999999
 21
101.669
 31
0.0
  0
LINE
  5
9B
  8
0
 62
     7
 10
62.87169999999999
 20
101.669
 30
0.0
 11
63.471499999999999
 21
101.669
 31
0.0
  0
LINE
  5
9C
  8
0
 62
     7
 10
63.471499999999999
 20
101.669
 30
0.0
 11
63.471499999999999
 21
94.068200000000004
 31
0.0
  0
LINE
  5
9D
  8
0
 62
     7
 10
62.87169999999999
 20
95.418400000000005
 30
0.0
 11
62.671500000000002
 21
95.418400000000005
 31
0.0
  0
LINE
  5
9E
  8
0
 62
     7
 10
62.671500000000002
 20
95.418400000000005
 30
0.0
 11
62.671500000000002
 21
100.3179999999999
 31
0.0
  0
LINE
  5
9F
  8
0
 62
     7
 10
62.671500000000002
 20
100.3179999999999
 30
0.0
 11
62.87169999999999
 21
100.3179999999999
 31
0.0
  0
LINE
  5
A0
  8
0
 62
     7
 10
62.87169999999999
 20
100.3179999999999
 30
0.0
 11
62.87169999999999
 21
95.418400000000005
 31
0.0
  0
LINE
  5
A1
  8
0
 62
     7
 10
59.89650000000001
 20
94.868199999999987
 30
0.0
 11
59.496499999999997
 21
94.868199999999987
 31
0.0
  0
LINE
  5
A2
  8
0
 62
     7
 10
59.496499999999997
 20
94.868199999999987
 30
0.0
 11
59.496499999999997
 21
100.86799999999999
 31
0.0
  0
LINE
  5
A3
  8
0
 62
     7
 10
59.496499999999997
 20
100.86799999999999
 30
0.0
 11
59.89650000000001
 21
100.86799999999999
 31
0.0
  0
LINE
  5
A4
  8
0
 62
     7
 10
59.89650000000001
 20
100.86799999999999
 30
0.0
 11
59.89650000000001
 21
94.868199999999987
 31
0.0
  0
LINE
  5
A5
  8
0
 62
     7
 10
76.471299999999999
 20
103.54600000000001
 30
0.0
 11
78.681700000000006
 21
104.13799999999991
 31
0.0
  0
LINE
  5
A6
  8
0
 62
     7
 10
78.681700000000006
 20
104.13799999999991
 30
0.0
 11
76.471299999999999
 21
104.73099999999999
 31
0.0
  0
LINE
  5
A7
  8
0
 62
     7
 10
76.471299999999999
 20
104.73099999999999
 30
0.0
 11
76.471299999999999
 21
103.54600000000001
 31
0.0
  0
LINE
  5
A8
  8
0
 62
     7
 10
91.469899999999996
 20
103.54600000000001
 30
0.0
 11
93.680300000000003
 21
104.13799999999991
 31
0.0
  0
LINE
  5
A9
  8
0
 62
     7
 10
93.680300000000003
 20
104.13799999999991
 30
0.0
 11
91.469899999999996
 21
104.73099999999999
 31
0.0
  0
LINE
  5
AA
  8
0
 62
     7
 10
91.469899999999996
 20
104.73099999999999
 30
0.0
 11
91.469899999999996
 21
103.54600000000001
 31
0.0
  0
LINE
  5
AB
  8
0
 62
     7
 10
83.890699999999995
 20
104.71599999999999
 30
0.0
 11
81.680299999999988
 21
104.125
 31
0.0
  0
LINE
  5
AC
  8
0
 62
     7
 10
81.680299999999988
 20
104.125
 30
0.0
 11
83.890699999999995
 21
103.532
 31
0.0
  0
LINE
  5
AD
  8
0
 62
     7
 10
83.890699999999995
 20
103.532
 30
0.0
 11
83.890699999999995
 21
104.71599999999999
 31
0.0
  0
LINE
  5
AE
  8
0
 62
     7
 10
71.891999999999996
 20
104.71599999999999
 30
0.0
 11
69.681299999999993
 21
104.125
 31
0.0
  0
LINE
  5
AF
  8
0
 62
     7
 10
69.681299999999993
 20
104.125
 30
0.0
 11
71.891999999999996
 21
103.532
 31
0.0
  0
LINE
  5
B0
  8
0
 62
     7
 10
71.891999999999996
 20
103.532
 30
0.0
 11
71.891999999999996
 21
104.71599999999999
 31
0.0
  0
LINE
  5
B1
  8
0
 62
     7
 10
93.680300000000003
 20
104.1309999999999
 30
0.0
 11
69.681299999999993
 21
104.1309999999999
 31
0.0
  0
LINE
  5
B2
  8
0
 62
     7
 10
92.479699999999994
 20
98.769400000000005
 30
0.0
 11
93.680300000000003
 21
97.868200000000002
 31
0.0
  0
LINE
  5
B3
  8
0
 62
     7
 10
92.479699999999994
 20
96.968299999999999
 30
0.0
 11
81.679900000000004
 21
96.969700000000003
 31
0.0
  0
LINE
  5
B4
  8
0
 62
     7
 10
92.479699999999994
 20
98.769400000000005
 30
0.0
 11
81.679900000000004
 21
98.768799999999985
 31
0.0
  0
LINE
  5
B5
  8
0
 62
     7
 10
69.880099999999999
 20
96.969700000000003
 30
0.0
 11
69.681299999999993
 21
97.168199999999999
 31
0.0
  0
LINE
  5
B6
  8
0
 62
     7
 10
78.680300000000003
 20
97.168199999999999
 30
0.0
 11
78.881100000000004
 21
96.969700000000003
 31
0.0
  0
LINE
  5
B7
  8
0
 62
     7
 10
78.680300000000003
 20
98.568899999999985
 30
0.0
 11
78.881100000000004
 21
98.768799999999985
 31
0.0
  0
LINE
  5
B8
  8
0
 62
     7
 10
69.681600000000003
 20
98.568299999999994
 30
0.0
 11
69.881399999999999
 21
98.768100000000004
 31
0.0
  0
LINE
  5
B9
  8
0
 62
     7
 10
69.681600000000003
 20
98.568299999999994
 30
0.0
 11
78.680300000000003
 21
98.568899999999985
 31
0.0
  0
LINE
  5
BA
  8
0
 62
     7
 10
69.681299999999993
 20
97.168199999999999
 30
0.0
 11
78.680300000000003
 21
97.168199999999999
 31
0.0
  0
LINE
  5
BB
  8
0
 62
     7
 10
69.880099999999999
 20
96.969700000000003
 30
0.0
 11
79.479900000000001
 21
96.968999999999994
 31
0.0
  0
LINE
  5
BC
  8
0
 62
     7
 10
69.881399999999999
 20
98.768100000000004
 30
0.0
 11
79.479900000000001
 21
98.768799999999985
 31
0.0
  0
LINE
  5
BD
  8
0
 62
     7
 10
81.679900000000004
 20
98.568299999999994
 30
0.0
 11
79.680700000000002
 21
98.568899999999985
 31
0.0
  0
LINE
  5
BE
  8
0
 62
     7
 10
81.679900000000004
 20
97.168199999999999
 30
0.0
 11
79.680400000000006
 21
97.168800000000005
 31
0.0
  0
LINE
  5
BF
  8
0
 62
     7
 10
79.479900000000001
 20
96.968999999999994
 30
0.0
 11
79.680400000000006
 21
97.168800000000005
 31
0.0
  0
LINE
  5
C0
  8
0
 62
     7
 10
79.680700000000002
 20
98.568899999999985
 30
0.0
 11
79.479900000000001
 21
98.768799999999985
 31
0.0
  0
LINE
  5
C1
  8
0
 62
     7
 10
93.680300000000003
 20
97.868200000000002
 30
0.0
 11
92.479699999999994
 21
96.968299999999999
 31
0.0
  0
LINE
  5
C2
  8
0
 62
     7
 10
81.984800000000007
 20
99.169100000000014
 30
0.0
 11
83.008399999999995
 21
96.569400000000002
 31
0.0
  0
LINE
  5
C3
  8
0
 62
     7
 10
82.872299999999996
 20
99.169100000000014
 30
0.0
 11
83.896199999999979
 21
96.568700000000007
 31
0.0
  0
LINE
  5
C4
  8
0
 62
     7
 10
83.760799999999989
 20
99.169100000000014
 30
0.0
 11
84.784999999999997
 21
96.568700000000007
 31
0.0
  0
LINE
  5
C5
  8
0
 62
     7
 10
84.648599999999988
 20
99.169100000000014
 30
0.0
 11
85.672499999999985
 21
96.569400000000002
 31
0.0
  0
LINE
  5
C6
  8
0
 62
     7
 10
85.536100000000005
 20
99.168400000000005
 30
0.0
 11
86.561000000000007
 21
96.568700000000007
 31
0.0
  0
LINE
  5
C7
  8
0
 62
     7
 10
86.423199999999994
 20
99.169100000000014
 30
0.0
 11
87.447400000000002
 21
96.568700000000007
 31
0.0
  0
LINE
  5
C8
  8
0
 62
     7
 10
87.310599999999994
 20
99.169100000000014
 30
0.0
 11
88.335899999999995
 21
96.568700000000007
 31
0.0
  0
LINE
  5
C9
  8
0
 62
     7
 10
88.198400000000007
 20
99.168400000000005
 30
0.0
 11
89.222700000000003
 21
96.568700000000007
 31
0.0
  0
LINE
  5
CA
  8
0
 62
     7
 10
89.086899999999986
 20
99.169100000000014
 30
0.0
 11
90.110799999999983
 21
96.568700000000007
 31
0.0
  0
LINE
  5
CB
  8
0
 62
     7
 10
89.975099999999998
 20
99.168400000000005
 30
0.0
 11
90.9983
 21
96.568700000000007
 31
0.0
  0
LINE
  5
CC
  8
0
 62
     7
 10
90.862600000000015
 20
99.169100000000014
 30
0.0
 11
91.885099999999994
 21
96.569400000000002
 31
0.0
  0
LINE
  5
CD
  8
0
 62
     7
 10
91.749300000000005
 20
99.169799999999995
 30
0.0
 11
92.773599999999988
 21
96.569400000000002
 31
0.0
  0
LINE
  5
CE
  8
0
 62
     7
 10
81.679900000000004
 20
98.768100000000004
 30
0.0
 11
81.679900000000004
 21
96.969700000000003
 31
0.0
  0
LINE
  5
CF
  8
0
 62
     7
 10
78.682000000000002
 20
98.768100000000004
 30
0.0
 11
78.680599999999984
 21
96.969700000000003
 31
0.0
  0
LINE
  5
D0
  8
0
 62
     7
 10
69.881399999999999
 20
98.768100000000004
 30
0.0
 11
69.880099999999999
 21
96.969700000000003
 31
0.0
  0
LINE
  5
D1
  8
0
 62
     7
 10
93.680300000000003
 20
104.712
 30
0.0
 11
93.680000000000007
 21
99.169100000000014
 31
0.0
  0
LINE
  5
D2
  8
0
 62
     7
 10
81.679900000000004
 20
104.7109999999999
 30
0.0
 11
81.681700000000006
 21
99.169100000000014
 31
0.0
  0
LINE
  5
D3
  8
0
 62
     7
 10
78.682000000000002
 20
104.712
 30
0.0
 11
78.680599999999984
 21
99.169100000000014
 31
0.0
  0
LINE
  5
D4
  8
0
 62
     7
 10
69.681299999999993
 20
104.7109999999999
 30
0.0
 11
69.681299999999993
 21
99.170500000000004
 31
0.0
  0
LINE
  5
D5
  8
0
 62
     7
 10
69.681600000000003
 20
98.568299999999994
 30
0.0
 11
69.681299999999993
 21
97.168199999999999
 31
0.0
  0
LINE
  5
D6
  8
0
 62
     7
 10
56.026200000000003
 20
96.368900000000011
 30
0.0
 11
55.911799999999999
 21
96.869100000000003
 31
0.0
  0
ARC
  5
D7
  8
0
 62
     7
 10
49.768805
 20
97.880558999999991
 30
0.0
 40
6.2588049999999997
 50
355.43449600000002
 51
359.88688400000001
  0
ARC
  5
D8
  8
0
 62
     7
 10
53.058951
 20
97.625152999999997
 30
0.0
 40
2.9587779999999988
 50
347.53779300000002
 51
355.29321199999998
  0
ARC
  5
D9
  8
0
 62
     7
 10
55.155526999999999
 20
97.166211000000004
 30
0.0
 40
0.812574
 50
338.554303
 51
347.23434300000002
  0
ARC
  5
DA
  8
0
 62
     7
 10
55.151716999999998
 20
96.370705000000001
 30
0.0
 40
0.8745049999999999
 50
347.30358000000001
 51
359.88092499999988
  0
ARC
  5
DB
  8
0
 62
     7
 10
54.306423999999993
 20
96.527985999999999
 30
0.0
 40
1.7339990000000001
 50
337.67628300000001
 51
348.37249100000002
  0
ARC
  5
DC
  8
0
 62
     7
 10
55.146287000000001
 20
99.374558999999991
 30
0.0
 40
0.881333
 50
347.14079099999998
 51
359.58702199999999
  0
ARC
  5
DD
  8
0
 62
     7
 10
54.272368999999998
 20
99.540807000000001
 30
0.0
 40
1.770629999999999
 50
337.69067000000001
 51
348.18981899999989
  0
ARC
  5
DE
  8
0
 62
     7
 10
49.81165
 20
97.857996999999997
 30
0.0
 40
6.2159559999999994
 50
0.094064
 51
4.5900910000000001
  0
ARC
  5
DF
  8
0
 62
     7
 10
53.105947999999998
 20
98.114663000000007
 30
0.0
 40
2.9116939999999989
 50
4.743345999999999
 51
12.631898
  0
ARC
  5
E0
  8
0
 62
     7
 10
55.160600000000002
 20
98.569579000000004
 30
0.0
 40
0.8073090000000001
 50
13.016615
 51
21.744741999999999
  0
LINE
  5
E1
  8
0
 62
     7
 10
56.027599999999993
 20
99.368200000000002
 30
0.0
 11
55.911799999999999
 21
99.867699999999985
 31
0.0
  0
ARC
  5
E2
  8
0
 62
     7
 10
55.317228
 20
96.369725999999986
 30
0.0
 40
0.8650830000000001
 50
167.34333000000001
 51
180.0555939999999
  0
ARC
  5
E3
  8
0
 62
     7
 10
56.155403999999997
 20
96.214644000000007
 30
0.0
 40
1.7171769999999991
 50
157.62089900000001
 51
168.42235999999991
  0
ARC
  5
E4
  8
0
 62
     7
 10
60.543085999999988
 20
97.858261999999996
 30
0.0
 40
6.0909500000000003
 50
179.89999299999991
 51
184.48232300000001
  0
ARC
  5
E5
  8
0
 62
     7
 10
57.379134999999998
 20
97.619224000000017
 30
0.0
 40
2.9180079999999999
 50
184.6582499999999
 51
192.4266189999999
  0
ARC
  5
E6
  8
0
 62
     7
 10
55.338346999999992
 20
97.174569999999989
 30
0.0
 40
0.8293610000000001
 50
192.76638399999999
 51
201.66192799999999
  0
LINE
  5
E7
  8
0
 62
     7
 10
54.452100000000002
 20
96.368900000000011
 30
0.0
 11
54.567599999999999
 21
95.869299999999996
 31
0.0
  0
ARC
  5
E8
  8
0
 62
     7
 10
55.324817000000003
 20
99.370720000000006
 30
0.0
 40
0.873018
 50
180.11974599999999
 51
192.70729800000001
  0
ARC
  5
E9
  8
0
 62
     7
 10
56.188285
 20
99.531414999999996
 30
0.0
 40
1.750999
 50
191.62160700000001
 51
202.24073899999991
  0
ARC
  5
EA
  8
0
 62
     7
 10
60.591647999999999
 20
97.87390000000002
 30
0.0
 40
6.1395049999999998
 50
175.50159099999999
 51
180.04676299999991
  0
ARC
  5
EB
  8
0
 62
     7
 10
57.397151999999998
 20
98.116005000000001
 30
0.0
 40
2.9358749999999989
 50
167.60843600000001
 51
175.322272
  0
ARC
  5
EC
  8
0
 62
     7
 10
55.339106000000008
 20
98.563158000000001
 30
0.0
 40
0.8298329999999999
 50
158.3981269999999
 51
167.2698969999999
  0
ARC
  5
ED
  8
0
 62
     7
 10
55.32137500000001
 20
99.370615000000001
 30
0.0
 40
0.8695759999999999
 50
167.44088999999991
 51
180.1133199999999
  0
ARC
  5
EE
  8
0
 62
     7
 10
56.148031999999994
 20
99.218378999999985
 30
0.0
 40
1.70984
 50
157.6297659999999
 51
168.48510899999991
  0
LINE
  5
EF
  8
0
  6
AIGENLINE001
 62
     7
 10
50.807600000000001
 20
97.868200000000002
 30
0.0
 11
97.918200000000013
 21
97.868899999999996
 31
0.0
  0
LINE
  5
F0
  8
0
 62
     7
 10
54.566899999999997
 20
99.869100000000003
 30
0.0
 11
55.911799999999999
 21
99.867699999999985
 31
0.0
  0
LINE
  5
F1
  8
0
 62
     7
 10
54.567599999999999
 20
98.868700000000004
 30
0.0
 11
55.910499999999999
 21
98.868700000000004
 31
0.0
  0
LINE
  5
F2
  8
0
 62
     7
 10
54.567599999999999
 20
95.869299999999996
 30
0.0
 11
55.910499999999999
 21
95.869299999999996
 31
0.0
  0
LINE
  5
F3
  8
0
 62
     7
 10
54.566899999999997
 20
96.868399999999994
 30
0.0
 11
55.911799999999999
 21
96.867099999999994
 31
0.0
  0
LINE
  5
F4
  8
0
 62
     7
 10
56.039299999999997
 20
96.195899999999995
 30
0.0
 11
56.039999999999999
 21
97.868200000000002
 31
0.0
  0
LINE
  5
F5
  8
0
 62
     7
 10
56.039999999999999
 20
97.868200000000002
 30
0.0
 11
56.039299999999997
 21
99.541200000000003
 31
0.0
  0
LINE
  5
F6
  8
0
 62
     7
 10
55.910499999999999
 20
95.869299999999996
 30
0.0
 11
56.039299999999997
 21
96.195899999999995
 31
0.0
  0
LINE
  5
F7
  8
0
 62
     7
 10
54.440100000000001
 20
96.195300000000003
 30
0.0
 11
54.438699999999997
 21
99.541200000000003
 31
0.0
  0
LINE
  5
F8
  8
0
 62
     7
 10
54.438699999999997
 20
99.541200000000003
 30
0.0
 11
54.566899999999997
 21
99.869100000000003
 31
0.0
  0
LINE
  5
F9
  8
0
 62
     7
 10
54.440100000000001
 20
96.195300000000003
 30
0.0
 11
54.567599999999999
 21
95.869299999999996
 31
0.0
  0
LINE
  5
FA
  8
0
 62
     7
 10
55.910499999999999
 20
95.869299999999996
 30
0.0
 11
56.039299999999997
 21
96.195899999999995
 31
0.0
  0
LINE
  5
FB
  8
0
 62
     7
 10
55.911799999999999
 20
99.867699999999985
 30
0.0
 11
56.039299999999997
 21
99.541200000000003
 31
0.0
  0
LINE
  5
FC
  8
0
 62
     7
 10
170.97799999999989
 20
245.86199999999991
 30
0.0
 11
169.41399999999999
 21
243.15199999999999
 31
0.0
  0
LINE
  5
FD
  8
0
 62
     7
 10
169.41399999999999
 20
243.15199999999999
 30
0.0
 11
167.84899999999999
 21
245.86199999999991
 31
0.0
  0
LINE
  5
FE
  8
0
 62
     7
 10
167.84899999999999
 20
245.86199999999991
 30
0.0
 11
170.97799999999989
 21
245.86199999999991
 31
0.0
  0
LINE
  5
FF
  8
0
 62
     7
 10
36.688299999999991
 20
240.94099999999989
 30
0.0
 11
36.0959
 21
243.15199999999999
 31
0.0
  0
LINE
  5
100
  8
0
 62
     7
 10
36.0959
 20
243.15199999999999
 30
0.0
 11
35.503500000000003
 21
240.94099999999989
 31
0.0
  0
LINE
  5
101
  8
0
 62
     7
 10
35.503500000000003
 20
240.94099999999989
 30
0.0
 11
36.688299999999991
 21
240.94099999999989
 31
0.0
  0
LINE
  5
102
  8
0
 62
     7
 10
35.517299999999999
 20
234.8129999999999
 30
0.0
 11
36.109699999999997
 21
232.602
 31
0.0
  0
LINE
  5
103
  8
0
 62
     7
 10
36.109699999999997
 20
232.602
 30
0.0
 11
36.701999999999991
 21
234.8129999999999
 31
0.0
  0
LINE
  5
104
  8
0
 62
     7
 10
36.701999999999991
 20
234.8129999999999
 30
0.0
 11
35.517299999999999
 21
234.8129999999999
 31
0.0
  0
LINE
  5
105
  8
0
 62
     7
 10
36.102899999999991
 20
243.1509999999999
 30
0.0
 11
36.102899999999991
 21
232.602
 31
0.0
  0
LINE
  5
106
  8
0
 62
     7
 10
43.745800000000003
 20
230.39099999999999
 30
0.0
 11
43.153399999999991
 21
232.602
 31
0.0
  0
LINE
  5
107
  8
0
 62
     7
 10
43.153399999999991
 20
232.602
 30
0.0
 11
42.561
 21
230.39099999999999
 31
0.0
  0
LINE
  5
108
  8
0
 62
     7
 10
42.561
 20
230.39099999999999
 30
0.0
 11
43.745800000000003
 21
230.39099999999999
 31
0.0
  0
LINE
  5
109
  8
0
 62
     7
 10
43.745800000000003
 20
240.94099999999989
 30
0.0
 11
43.153399999999991
 21
243.15199999999999
 31
0.0
  0
LINE
  5
10A
  8
0
 62
     7
 10
43.153399999999991
 20
243.15199999999999
 30
0.0
 11
42.561
 21
240.94099999999989
 31
0.0
  0
LINE
  5
10B
  8
0
 62
     7
 10
42.561
 20
240.94099999999989
 30
0.0
 11
43.745800000000003
 21
240.94099999999989
 31
0.0
  0
LINE
  5
10C
  8
0
 62
     7
 10
42.574899999999992
 20
239.36299999999989
 30
0.0
 11
43.16729999999999
 21
237.15199999999999
 31
0.0
  0
LINE
  5
10D
  8
0
 62
     7
 10
43.16729999999999
 20
237.15199999999999
 30
0.0
 11
43.759700000000002
 21
239.36299999999989
 31
0.0
  0
LINE
  5
10E
  8
0
 62
     7
 10
43.759700000000002
 20
239.36299999999989
 30
0.0
 11
42.574899999999992
 21
239.36299999999989
 31
0.0
  0
LINE
  5
10F
  8
0
 62
     7
 10
43.160400000000003
 20
243.1509999999999
 30
0.0
 11
43.160400000000003
 21
228.86799999999991
 31
0.0
  0
LINE
  5
110
  8
0
 62
     7
 10
29.647099999999998
 20
240.94099999999989
 30
0.0
 11
29.0547
 21
243.15199999999999
 31
0.0
  0
LINE
  5
111
  8
0
 62
     7
 10
29.0547
 20
243.15199999999999
 30
0.0
 11
28.462399999999992
 21
240.94099999999989
 31
0.0
  0
LINE
  5
112
  8
0
 62
     7
 10
28.462399999999992
 20
240.94099999999989
 30
0.0
 11
29.647099999999998
 21
240.94099999999989
 31
0.0
  0
LINE
  5
113
  8
0
 62
     7
 10
28.476299999999998
 20
202.36299999999989
 30
0.0
 11
29.068699999999989
 21
200.15199999999999
 31
0.0
  0
LINE
  5
114
  8
0
 62
     7
 10
29.068699999999989
 20
200.15199999999999
 30
0.0
 11
29.661100000000001
 21
202.36299999999989
 31
0.0
  0
LINE
  5
115
  8
0
 62
     7
 10
29.661100000000001
 20
202.36299999999989
 30
0.0
 11
28.476299999999998
 21
202.36299999999989
 31
0.0
  0
LINE
  5
116
  8
0
 62
     7
 10
29.061800000000002
 20
243.1509999999999
 30
0.0
 11
29.061800000000002
 21
200.15299999999991
 31
0.0
  0
LINE
  5
117
  8
0
 62
     7
 10
28.3828
 20
200.15199999999999
 30
0.0
 11
49.317900000000002
 21
200.15199999999999
 31
0.0
  0
LINE
  5
118
  8
0
 62
     7
 10
28.3828
 20
243.15199999999999
 30
0.0
 11
49.317900000000002
 21
243.15199999999999
 31
0.0
  0
LINE
  5
119
  8
0
 62
     7
 10
42.4953
 20
237.15199999999999
 30
0.0
 11
79.298199999999994
 21
237.15199999999999
 31
0.0
  0
LINE
  5
11A
  8
0
 62
     7
 10
35.4377
 20
232.602
 30
0.0
 11
80.817999999999984
 21
232.602
 31
0.0
  0
LINE
  5
11B
  8
0
 62
     7
 10
80.471000000000004
 20
217.3599999999999
 30
0.0
 11
81.616200000000006
 21
219.3429999999999
 31
0.0
  0
LINE
  5
11C
  8
0
 62
     7
 10
81.616200000000006
 20
219.3429999999999
 30
0.0
 11
79.632999999999996
 21
218.19799999999989
 31
0.0
  0
LINE
  5
11D
  8
0
 62
     7
 10
79.632999999999996
 20
218.19799999999989
 30
0.0
 11
80.471000000000004
 21
217.3599999999999
 31
0.0
  0
LINE
  5
11E
  8
0
 62
     7
 10
86.292799999999986
 20
224.85699999999991
 30
0.0
 11
85.147599999999997
 21
222.874
 31
0.0
  0
LINE
  5
11F
  8
0
 62
     7
 10
85.147599999999997
 20
222.874
 30
0.0
 11
87.130799999999994
 21
224.01900000000001
 31
0.0
  0
LINE
  5
120
  8
0
 62
     7
 10
87.130799999999994
 20
224.01900000000001
 30
0.0
 11
86.292799999999986
 21
224.85699999999991
 31
0.0
  0
LINE
  5
121
  8
0
 62
     7
 10
80.919899999999998
 20
233.89699999999999
 30
0.0
 11
82.065099999999987
 21
235.87899999999999
 31
0.0
  0
LINE
  5
122
  8
0
 62
     7
 10
82.065099999999987
 20
235.87899999999999
 30
0.0
 11
80.081900000000005
 21
234.73500000000001
 31
0.0
  0
LINE
  5
123
  8
0
 62
     7
 10
80.081900000000005
 20
234.73500000000001
 30
0.0
 11
80.919899999999998
 21
233.89699999999999
 31
0.0
  0
LINE
  5
124
  8
0
 62
     7
 10
85.755999999999986
 20
240.4079999999999
 30
0.0
 11
84.610900000000001
 21
238.42500000000001
 31
0.0
  0
LINE
  5
125
  8
0
 62
     7
 10
84.610900000000001
 20
238.42500000000001
 30
0.0
 11
86.594099999999983
 21
239.56999999999999
 31
0.0
  0
LINE
  5
126
  8
0
 62
     7
 10
86.594099999999983
 20
239.56999999999999
 30
0.0
 11
85.755999999999986
 21
240.4079999999999
 31
0.0
  0
LINE
  5
127
  8
0
 62
     7
 10
92.299999999999997
 20
246.11399999999989
 30
0.0
 11
79.780600000000007
 21
233.59499999999991
 31
0.0
  0
LINE
  5
128
  8
0
 62
     7
 10
89.901899999999998
 20
227.6279999999999
 30
0.0
 11
78.828900000000004
 21
216.55500000000001
 31
0.0
  0
LINE
  5
129
  8
0
 62
     7
 10
166.08299999999991
 20
240.94099999999989
 30
0.0
 11
165.4909999999999
 21
243.15199999999999
 31
0.0
  0
LINE
  5
12A
  8
0
 62
     7
 10
165.4909999999999
 20
243.15199999999999
 30
0.0
 11
164.89899999999989
 21
240.94099999999989
 31
0.0
  0
LINE
  5
12B
  8
0
 62
     7
 10
164.89899999999989
 20
240.94099999999989
 30
0.0
 11
166.08299999999991
 21
240.94099999999989
 31
0.0
  0
LINE
  5
12C
  8
0
 62
     7
 10
164.9129999999999
 20
223.363
 30
0.0
 11
165.50499999999991
 21
221.15199999999999
 31
0.0
  0
LINE
  5
12D
  8
0
 62
     7
 10
165.50499999999991
 20
221.15199999999999
 30
0.0
 11
166.09700000000001
 21
223.363
 31
0.0
  0
LINE
  5
12E
  8
0
 62
     7
 10
166.09700000000001
 20
223.363
 30
0.0
 11
164.9129999999999
 21
223.363
 31
0.0
  0
LINE
  5
12F
  8
0
 62
     7
 10
165.49700000000001
 20
243.1509999999999
 30
0.0
 11
165.49700000000001
 21
221.15299999999991
 31
0.0
  0
LINE
  5
130
  8
0
 62
     7
 10
159.04199999999989
 20
221.15199999999999
 30
0.0
 11
166.1629999999999
 21
221.15199999999999
 31
0.0
  0
LINE
  5
131
  8
0
 62
     7
 10
112.14700000000001
 20
240.94099999999989
 30
0.0
 11
111.55500000000001
 21
243.15199999999999
 31
0.0
  0
LINE
  5
132
  8
0
 62
     7
 10
111.55500000000001
 20
243.15199999999999
 30
0.0
 11
110.96299999999989
 21
240.94099999999989
 31
0.0
  0
LINE
  5
133
  8
0
 62
     7
 10
110.96299999999989
 20
240.94099999999989
 30
0.0
 11
112.14700000000001
 21
240.94099999999989
 31
0.0
  0
LINE
  5
134
  8
0
 62
     7
 10
110.977
 20
223.363
 30
0.0
 11
111.569
 21
221.15199999999999
 31
0.0
  0
LINE
  5
135
  8
0
 62
     7
 10
111.569
 20
221.15199999999999
 30
0.0
 11
112.1609999999999
 21
223.363
 31
0.0
  0
LINE
  5
136
  8
0
 62
     7
 10
112.1609999999999
 20
223.363
 30
0.0
 11
110.977
 21
223.363
 31
0.0
  0
LINE
  5
137
  8
0
 62
     7
 10
111.56099999999989
 20
243.1509999999999
 30
0.0
 11
111.56099999999989
 21
221.15299999999991
 31
0.0
  0
LINE
  5
138
  8
0
 62
     7
 10
89.901899999999998
 20
227.6279999999999
 30
0.0
 11
95.936499999999995
 21
227.6279999999999
 31
0.0
  0
LINE
  5
139
  8
0
 62
     7
 10
142.85099999999991
 20
228.87299999999999
 30
0.0
 11
151.28700000000001
 21
228.87299999999999
 31
0.0
  0
LINE
  5
13A
  8
0
 62
     7
 10
152.78399999999991
 20
225.69699999999989
 30
0.0
 11
152.80500000000001
 21
223.40799999999999
 31
0.0
  0
LINE
  5
13B
  8
0
 62
     7
 10
152.80500000000001
 20
223.40799999999999
 30
0.0
 11
151.64299999999989
 21
225.38
 31
0.0
  0
LINE
  5
13C
  8
0
 62
     7
 10
151.64299999999989
 20
225.38
 30
0.0
 11
152.78399999999991
 21
225.69699999999989
 31
0.0
  0
LINE
  5
13D
  8
0
 62
     7
 10
152.80500000000001
 20
223.40799999999999
 30
0.0
 11
151.28700000000001
 21
228.87299999999999
 31
0.0
  0
LINE
  5
13E
  8
0
 62
     7
 10
170.79300000000001
 20
216.41399999999999
 30
0.0
 11
175.523
 21
216.41399999999999
 31
0.0
  0
LINE
  5
13F
  8
0
 62
     7
 10
132.13699999999989
 20
216.41399999999999
 30
0.0
 11
136.732
 21
216.41399999999999
 31
0.0
  0
LINE
  5
140
  8
0
 62
     7
 10
92.299999999999997
 20
246.11399999999989
 30
0.0
 11
98.6721
 21
246.11399999999989
 31
0.0
  0
LINE
  5
141
  8
0
 62
     7
 10
118.33799999999989
 20
188.68000000000001
 30
0.0
 11
118.33799999999989
 21
200.65499999999989
 31
0.0
  0
LINE
  5
142
  8
0
 62
     7
 10
48.33809999999999
 20
188.68000000000001
 30
0.0
 11
48.33809999999999
 21
200.65499999999989
 31
0.0
  0
LINE
  5
143
  8
0
 62
     7
 10
116.127
 20
188.75899999999999
 30
0.0
 11
118.33799999999989
 21
189.352
 31
0.0
  0
LINE
  5
144
  8
0
 62
     7
 10
118.33799999999989
 20
189.352
 30
0.0
 11
116.127
 21
189.94399999999999
 31
0.0
  0
LINE
  5
145
  8
0
 62
     7
 10
116.127
 20
189.94399999999999
 30
0.0
 11
116.127
 21
188.75899999999999
 31
0.0
  0
LINE
  5
146
  8
0
 62
     7
 10
50.548999999999992
 20
189.93000000000001
 30
0.0
 11
48.33809999999999
 21
189.33799999999999
 31
0.0
  0
LINE
  5
147
  8
0
 62
     7
 10
48.33809999999999
 20
189.33799999999999
 30
0.0
 11
50.548999999999992
 21
188.745
 31
0.0
  0
LINE
  5
148
  8
0
 62
     7
 10
50.548999999999992
 20
188.745
 30
0.0
 11
50.548999999999992
 21
189.93000000000001
 31
0.0
  0
LINE
  5
149
  8
0
 62
     7
 10
118.337
 20
189.34499999999991
 30
0.0
 11
48.339100000000002
 21
189.34499999999991
 31
0.0
  0
LINE
  5
14A
  8
0
 62
     7
 10
178.38900000000001
 20
214.386
 30
0.0
 11
179.5329999999999
 21
212.404
 31
0.0
  0
LINE
  5
14B
  8
0
 62
     7
 10
179.5329999999999
 20
212.404
 30
0.0
 11
177.5509999999999
 21
213.548
 31
0.0
  0
LINE
  5
14C
  8
0
 62
     7
 10
177.5509999999999
 20
213.548
 30
0.0
 11
178.38900000000001
 21
214.386
 31
0.0
  0
LINE
  5
14D
  8
0
 62
     7
 10
179.5329999999999
 20
212.404
 30
0.0
 11
175.523
 21
216.41399999999999
 31
0.0
  0
LINE
  5
14E
  8
0
 62
     7
 10
129.3129999999999
 20
214.42699999999999
 30
0.0
 11
128.1689999999999
 21
212.44499999999991
 31
0.0
  0
LINE
  5
14F
  8
0
 62
     7
 10
128.1689999999999
 20
212.44499999999991
 30
0.0
 11
130.15100000000001
 21
213.58999999999989
 31
0.0
  0
LINE
  5
150
  8
0
 62
     7
 10
130.15100000000001
 20
213.58999999999989
 30
0.0
 11
129.3129999999999
 21
214.42699999999999
 31
0.0
  0
LINE
  5
151
  8
0
 62
     7
 10
128.1689999999999
 20
212.44499999999991
 30
0.0
 11
132.13699999999989
 21
216.41399999999999
 31
0.0
  0
LINE
  5
152
  8
0
 62
     7
 10
140.66
 20
240.96599999999989
 30
0.0
 11
140.06700000000001
 21
243.17699999999999
 31
0.0
  0
LINE
  5
153
  8
0
 62
     7
 10
140.06700000000001
 20
243.17699999999999
 30
0.0
 11
139.47499999999991
 21
240.96599999999989
 31
0.0
  0
LINE
  5
154
  8
0
 62
     7
 10
139.47499999999991
 20
240.96599999999989
 30
0.0
 11
140.66
 21
240.96599999999989
 31
0.0
  0
LINE
  5
155
  8
0
 62
     7
 10
139.48899999999989
 20
214.36299999999989
 30
0.0
 11
140.08099999999999
 21
212.15199999999999
 31
0.0
  0
LINE
  5
156
  8
0
 62
     7
 10
140.08099999999999
 20
212.15199999999999
 30
0.0
 11
140.673
 21
214.36299999999989
 31
0.0
  0
LINE
  5
157
  8
0
 62
     7
 10
140.673
 20
214.36299999999989
 30
0.0
 11
139.48899999999989
 21
214.36299999999989
 31
0.0
  0
LINE
  5
158
  8
0
 62
     7
 10
140.0739999999999
 20
243.17599999999999
 30
0.0
 11
140.0739999999999
 21
212.15199999999999
 31
0.0
  0
LINE
  5
159
  8
0
 62
     7
 10
127.876
 20
243.99199999999999
 30
0.0
 11
127.876
 21
252.78599999999989
 31
0.0
  0
LINE
  5
15A
  8
0
 62
     7
 10
179.87599999999989
 20
243.99199999999999
 30
0.0
 11
179.87599999999989
 21
252.78599999999989
 31
0.0
  0
LINE
  5
15B
  8
0
 62
     7
 10
177.66499999999999
 20
251.5209999999999
 30
0.0
 11
179.87599999999989
 21
252.11399999999989
 31
0.0
  0
LINE
  5
15C
  8
0
 62
     7
 10
179.87599999999989
 20
252.11399999999989
 30
0.0
 11
177.66499999999999
 21
252.70599999999999
 31
0.0
  0
LINE
  5
15D
  8
0
 62
     7
 10
177.66499999999999
 20
252.70599999999999
 30
0.0
 11
177.66499999999999
 21
251.5209999999999
 31
0.0
  0
LINE
  5
15E
  8
0
 62
     7
 10
130.08699999999999
 20
252.69200000000001
 30
0.0
 11
127.876
 21
252.09999999999991
 31
0.0
  0
LINE
  5
15F
  8
0
 62
     7
 10
127.876
 20
252.09999999999991
 30
0.0
 11
130.08699999999999
 21
251.5079999999999
 31
0.0
  0
LINE
  5
160
  8
0
 62
     7
 10
130.08699999999999
 20
251.5079999999999
 30
0.0
 11
130.08699999999999
 21
252.69200000000001
 31
0.0
  0
LINE
  5
161
  8
0
 62
     7
 10
179.874
 20
252.10699999999991
 30
0.0
 11
127.876
 21
252.10699999999991
 31
0.0
  0
LINE
  5
162
  8
0
 62
     7
 10
33.990900000000003
 20
152.614
 30
0.0
 11
33.398499999999999
 21
154.8239999999999
 31
0.0
  0
LINE
  5
163
  8
0
 62
     7
 10
33.398499999999999
 20
154.8239999999999
 30
0.0
 11
32.806100000000001
 21
152.614
 31
0.0
  0
LINE
  5
164
  8
0
 62
     7
 10
32.806100000000001
 20
152.614
 30
0.0
 11
33.990900000000003
 21
152.614
 31
0.0
  0
LINE
  5
165
  8
0
 62
     7
 10
32.820099999999989
 20
143.03499999999991
 30
0.0
 11
33.412500000000001
 21
140.8239999999999
 31
0.0
  0
LINE
  5
166
  8
0
 62
     7
 10
33.412500000000001
 20
140.8239999999999
 30
0.0
 11
34.004899999999999
 21
143.03499999999991
 31
0.0
  0
LINE
  5
167
  8
0
 62
     7
 10
34.004899999999999
 20
143.03499999999991
 30
0.0
 11
32.820099999999989
 21
143.03499999999991
 31
0.0
  0
LINE
  5
168
  8
0
 62
     7
 10
33.405599999999993
 20
154.8239999999999
 30
0.0
 11
33.405599999999993
 21
140.8239999999999
 31
0.0
  0
LINE
  5
169
  8
0
 62
     7
 10
41.89589999999999
 20
147.114
 30
0.0
 11
41.303499999999993
 21
149.3239999999999
 31
0.0
  0
LINE
  5
16A
  8
0
 62
     7
 10
41.303499999999993
 20
149.3239999999999
 30
0.0
 11
40.711100000000002
 21
147.114
 31
0.0
  0
LINE
  5
16B
  8
0
 62
     7
 10
40.711100000000002
 20
147.114
 30
0.0
 11
41.89589999999999
 21
147.114
 31
0.0
  0
LINE
  5
16C
  8
0
 62
     7
 10
40.724899999999998
 20
157.03499999999991
 30
0.0
 11
41.317300000000003
 21
154.8239999999999
 31
0.0
  0
LINE
  5
16D
  8
0
 62
     7
 10
41.317300000000003
 20
154.8239999999999
 30
0.0
 11
41.909700000000001
 21
157.03499999999991
 31
0.0
  0
LINE
  5
16E
  8
0
 62
     7
 10
41.909700000000001
 20
157.03499999999991
 30
0.0
 11
40.724899999999998
 21
157.03499999999991
 31
0.0
  0
LINE
  5
16F
  8
0
 62
     7
 10
41.310200000000002
 20
158.47799999999989
 30
0.0
 11
41.310200000000002
 21
145.30699999999999
 31
0.0
  0
LINE
  5
170
  8
0
 62
     7
 10
102.33799999999989
 20
162.9859999999999
 30
0.0
 11
102.33799999999989
 21
152.59100000000001
 31
0.0
  0
LINE
  5
171
  8
0
 62
     7
 10
64.338099999999997
 20
162.9859999999999
 30
0.0
 11
64.338099999999997
 21
152.59100000000001
 31
0.0
  0
LINE
  5
172
  8
0
 62
     7
 10
47.677999999999997
 20
140.8239999999999
 30
0.0
 11
32.74669999999999
 21
140.8239999999999
 31
0.0
  0
LINE
  5
173
  8
0
 62
     7
 10
47.677999999999997
 20
154.8239999999999
 30
0.0
 11
32.74669999999999
 21
154.8239999999999
 31
0.0
  0
LINE
  5
174
  8
0
 62
     7
 10
60.997
 20
149.3239999999999
 30
0.0
 11
40.631500000000003
 21
149.3239999999999
 31
0.0
  0
LINE
  5
175
  8
0
 62
     7
 10
100.127
 20
161.73500000000001
 30
0.0
 11
102.33799999999989
 21
162.328
 31
0.0
  0
LINE
  5
176
  8
0
 62
     7
 10
102.33799999999989
 20
162.328
 30
0.0
 11
100.127
 21
162.9199999999999
 31
0.0
  0
LINE
  5
177
  8
0
 62
     7
 10
100.127
 20
162.9199999999999
 30
0.0
 11
100.127
 21
161.73500000000001
 31
0.0
  0
LINE
  5
178
  8
0
 62
     7
 10
66.548999999999992
 20
162.90600000000001
 30
0.0
 11
64.338099999999997
 21
162.31399999999999
 31
0.0
  0
LINE
  5
179
  8
0
 62
     7
 10
64.338099999999997
 20
162.31399999999999
 30
0.0
 11
66.548999999999992
 21
161.721
 31
0.0
  0
LINE
  5
17A
  8
0
 62
     7
 10
66.548999999999992
 20
161.721
 30
0.0
 11
66.548999999999992
 21
162.90600000000001
 31
0.0
  0
LINE
  5
17B
  8
0
 62
     7
 10
102.33799999999989
 20
162.321
 30
0.0
 11
64.338099999999997
 21
162.321
 31
0.0
  0
LINE
  5
17C
  8
0
 62
     7
 10
150.00999999999991
 20
152.613
 30
0.0
 11
149.41699999999989
 21
154.8239999999999
 31
0.0
  0
LINE
  5
17D
  8
0
 62
     7
 10
149.41699999999989
 20
154.8239999999999
 30
0.0
 11
148.8249999999999
 21
152.613
 31
0.0
  0
LINE
  5
17E
  8
0
 62
     7
 10
148.8249999999999
 20
152.613
 30
0.0
 11
150.00999999999991
 21
152.613
 31
0.0
  0
LINE
  5
17F
  8
0
 62
     7
 10
148.83199999999991
 20
147.035
 30
0.0
 11
149.42400000000001
 21
144.82299999999989
 31
0.0
  0
LINE
  5
180
  8
0
 62
     7
 10
149.42400000000001
 20
144.82299999999989
 30
0.0
 11
150.01699999999991
 21
147.035
 31
0.0
  0
LINE
  5
181
  8
0
 62
     7
 10
150.01699999999991
 20
147.035
 30
0.0
 11
148.83199999999991
 21
147.035
 31
0.0
  0
LINE
  5
182
  8
0
 62
     7
 10
149.41699999999989
 20
154.8239999999999
 30
0.0
 11
149.41699999999989
 21
144.8249999999999
 31
0.0
  0
LINE
  5
183
  8
0
 62
     7
 10
173.66399999999999
 20
161.73500000000001
 30
0.0
 11
175.875
 21
162.328
 31
0.0
  0
LINE
  5
184
  8
0
 62
     7
 10
175.875
 20
162.328
 30
0.0
 11
173.66399999999999
 21
162.9199999999999
 31
0.0
  0
LINE
  5
185
  8
0
 62
     7
 10
173.66399999999999
 20
162.9199999999999
 30
0.0
 11
173.66399999999999
 21
161.73500000000001
 31
0.0
  0
LINE
  5
186
  8
0
 62
     7
 10
156.08699999999999
 20
162.90700000000001
 30
0.0
 11
153.876
 21
162.31399999999999
 31
0.0
  0
LINE
  5
187
  8
0
 62
     7
 10
153.876
 20
162.31399999999999
 30
0.0
 11
156.08699999999999
 21
161.72200000000001
 31
0.0
  0
LINE
  5
188
  8
0
 62
     7
 10
156.08699999999999
 20
161.72200000000001
 30
0.0
 11
156.08699999999999
 21
162.90700000000001
 31
0.0
  0
LINE
  5
189
  8
0
 62
     7
 10
175.874
 20
162.321
 30
0.0
 11
153.87700000000001
 21
162.321
 31
0.0
  0
LINE
  5
18A
  8
0
 62
     7
 10
175.87700000000001
 20
155.34399999999991
 30
0.0
 11
175.87700000000001
 21
163.0
 31
0.0
  0
LINE
  5
18B
  8
0
 62
     7
 10
153.876
 20
146.41599999999991
 30
0.0
 11
153.876
 21
163.0
 31
0.0
  0
ARC
  5
18C
  8
0
  6
AIGENLINE002
 62
     7
 10
157.642144
 20
143.524179
 30
0.0
 40
1.3004679999999991
 50
92.480320999999989
 51
166.68621699999991
  0
ARC
  5
18D
  8
0
  6
AIGENLINE002
 62
     7
 10
150.110871
 20
143.524103
 30
0.0
 40
1.3004839999999991
 50
13.317
 51
87.580510000000004
  0
ARC
  5
18E
  8
0
  6
AIGENLINE002
 62
     7
 10
145.13343399999999
 20
145.647355
 30
0.0
 40
0.8241280000000001
 50
195.70646500000001
 51
268.73424099999988
  0
ARC
  5
18F
  8
0
  6
AIGENLINE002
 62
     7
 10
165.47781399999991
 20
154.15183999999991
 30
0.0
 40
0.672195
 50
91.692671000000004
 51
171.88862800000001
  0
ARC
  5
190
  8
0
  6
AIGENLINE002
 62
     7
 10
162.60887500000001
 20
145.64550099999991
 30
0.0
 40
0.822226
 50
271.10236299999991
 51
340.51218599999987
  0
ARC
  5
191
  8
0
  6
AIGENLINE002
 62
     7
 10
145.69358299999999
 20
151.1675909999999
 30
0.0
 40
18.616489000000001
 50
341.86561999999998
 51
346.21540800000002
  0
ARC
  5
192
  8
0
  6
AIGENLINE002
 62
     7
 10
135.981525
 20
153.67934700000001
 30
0.0
 40
28.647580999999992
 50
345.96480600000001
 51
349.81185499999998
  0
ARC
  5
193
  8
0
  6
AIGENLINE002
 62
     7
 10
124.74365299999999
 20
155.7987489999999
 30
0.0
 40
40.083258999999998
 50
349.67146300000002
 51
355.11257799999998
  0
ARC
  5
194
  8
0
  6
AIGENLINE002
 62
     7
 10
116.1706949999999
 20
156.7245189999999
 30
0.0
 40
48.704298000000001
 50
354.88670400000001
 51
357.09355499999998
  0
ARC
  5
195
  8
0
  6
AIGENLINE002
 62
     7
 10
134.1576499999999
 20
146.30598499999999
 30
0.0
 40
8.5174330000000005
 50
53.855580000000003
 51
89.874580000000009
  0
ARC
  5
196
  8
0
  6
AIGENLINE002
 62
     7
 10
133.12133999999989
 20
144.786484
 30
0.0
 40
10.355888999999999
 50
44.504468000000003
 51
54.184118000000012
  0
ARC
  5
197
  8
0
  6
AIGENLINE002
 62
     7
 10
131.34045599999999
 20
142.9660199999999
 30
0.0
 40
12.902187
 50
34.365549000000001
 51
44.72655300000001
  0
ARC
  5
198
  8
0
  6
AIGENLINE002
 62
     7
 10
128.11851399999989
 20
140.63946899999991
 30
0.0
 40
16.875326000000001
 50
23.890309999999989
 51
34.711069999999992
  0
ARC
  5
199
  8
0
  6
AIGENLINE002
 62
     7
 10
125.36819799999989
 20
139.26995400000001
 30
0.0
 40
19.945117
 50
17.972580999999991
 51
24.287707999999999
  0
ARC
  5
19A
  8
0
 62
     7
 10
133.4995679999999
 20
154.200266
 30
0.0
 40
0.623912
 50
92.142309999999995
 51
177.82476
  0
ARC
  5
19B
  8
0
 62
     7
 10
133.47624500000001
 20
141.42378600000001
 30
0.0
 40
0.600139
 50
179.99996999999991
 51
270.00002000000001
  0
LINE
  5
19C
  8
0
 62
     7
 10
132.876
 20
154.2239999999999
 30
0.0
 11
132.876
 21
141.42400000000001
 31
0.0
  0
LINE
  5
19D
  8
0
  6
AIGENLINE002
 62
     7
 10
156.37700000000001
 20
143.8239999999999
 30
0.0
 11
156.37700000000001
 21
140.8239999999999
 31
0.0
  0
LINE
  5
19E
  8
0
  6
AIGENLINE002
 62
     7
 10
151.37599999999989
 20
143.8239999999999
 30
0.0
 11
151.37599999999989
 21
140.8239999999999
 31
0.0
  0
LINE
  5
19F
  8
0
 62
     7
 10
175.27699999999999
 20
140.8239999999999
 30
0.0
 11
133.47599999999991
 21
140.8239999999999
 31
0.0
  0
LINE
  5
1A0
  8
0
  6
AIGENLINE002
 62
     7
 10
156.37700000000001
 20
143.8239999999999
 30
0.0
 11
151.37599999999989
 21
143.8239999999999
 31
0.0
  0
LINE
  5
1A1
  8
0
  6
AIGENLINE002
 62
     7
 10
162.62499999999989
 20
144.82299999999989
 30
0.0
 11
145.12899999999999
 21
144.82299999999989
 31
0.0
  0
LINE
  5
1A2
  8
0
 62
     7
 10
175.27699999999999
 20
154.8239999999999
 30
0.0
 11
133.47599999999991
 21
154.8239999999999
 31
0.0
  0
ARC
  5
1A3
  8
0
 62
     7
 10
175.25325799999999
 20
154.19958799999989
 30
0.0
 40
0.6245880000000001
 50
2.2350959999999991
 51
87.86353800000002
  0
ARC
  5
1A4
  8
0
 62
     7
 10
175.25323299999999
 20
141.447811
 30
0.0
 40
0.624599
 50
272.13865399999997
 51
357.79561200000001
  0
LINE
  5
1A5
  8
0
  6
AIGENLINE001
 62
     7
 10
153.876
 20
145.57599999999991
 30
0.0
 11
153.876
 21
137.6579999999999
 31
0.0
  0
LINE
  5
1A6
  8
0
  6
AIGENLINE001
 62
     7
 10
173.0379999999999
 20
149.32299999999989
 30
0.0
 11
178.7229999999999
 21
149.32299999999989
 31
0.0
  0
LINE
  5
1A7
  8
0
  6
AIGENLINE001
 62
     7
 10
169.87700000000001
 20
158.03700000000001
 30
0.0
 11
169.87700000000001
 21
152.49199999999999
 31
0.0
  0
LINE
  5
1A8
  8
0
 62
     7
 10
175.87700000000001
 20
154.2239999999999
 30
0.0
 11
175.87700000000001
 21
141.42400000000001
 31
0.0
  0
ARC
  5
1A9
  8
0
 62
     7
 10
83.805486999999999
 20
216.790108
 30
0.0
 40
20.504820999999989
 50
55.265984000000003
 51
72.744895999999983
  0
ARC
  5
1AA
  8
0
 62
     7
 10
85.117983999999993
 20
218.880202
 30
0.0
 40
18.039699999999989
 50
39.207064000000003
 51
54.909467000000021
  0
ARC
  5
1AB
  8
0
 62
     7
 10
86.904685999999998
 20
220.47043899999991
 30
0.0
 40
15.65035299999999
 50
21.322866000000001
 51
38.830700999999991
  0
ARC
  5
1AC
  8
0
 62
     7
 10
88.296928000000008
 20
221.12410600000001
 30
0.0
 40
14.116101
 50
0.114196
 51
20.906139
  0
ARC
  5
1AD
  8
0
 62
     7
 10
88.249495999999994
 20
221.17696699999991
 30
0.0
 40
14.163527
 50
328.50256300000001
 51
359.89997299999999
  0
ARC
  5
1AE
  8
0
 62
     7
 10
86.436752999999996
 20
222.164523
 30
0.0
 40
16.225484999999988
 50
311.30106599999999
 51
328.87346400000001
  0
ARC
  5
1AF
  8
0
 62
     7
 10
84.624262000000016
 20
224.04827700000001
 30
0.0
 40
18.837302999999991
 50
293.12362899999999
 51
311.66098099999988
  0
ARC
  5
1B0
  8
0
 62
     7
 10
83.498546999999988
 20
226.3670819999999
 30
0.0
 40
21.412264
 50
270.88805600000001
 51
293.45715299999989
  0
ARC
  5
1B1
  8
0
 62
     7
 10
83.336788999999996
 20
227.95513899999989
 30
0.0
 40
23.003046000000001
 50
270.00321500000001
 51
271.22961099999998
  0
ARC
  5
1B2
  8
0
 62
     7
 10
83.349755000000002
 20
227.17059499999999
 30
0.0
 40
22.218503999999999
 50
246.96034199999991
 51
269.96989100000002
  0
ARC
  5
1B3
  8
0
 62
     7
 10
82.475509999999986
 20
224.697159
 30
0.0
 40
19.600895000000001
 50
227.4406229999999
 51
246.48236399999999
  0
ARC
  5
1B4
  8
0
 62
     7
 10
80.629239999999996
 20
222.469077
 30
0.0
 40
16.711656000000001
 50
208.53783899999991
 51
226.9364479999999
  0
ARC
  5
1B5
  8
0
 62
     7
 10
78.680866000000009
 20
221.24985399999991
 30
0.0
 40
14.418218
 50
180.387924
 51
207.98039299999991
  0
ARC
  5
1B6
  8
0
 62
     7
 10
78.392192000000009
 20
221.13151300000001
 30
0.0
 40
14.129229
 50
150.13569799999991
 51
179.91592600000001
  0
ARC
  5
1B7
  8
0
 62
     7
 10
80.076364999999996
 20
220.25769799999989
 30
0.0
 40
16.025074
 50
133.10290399999991
 51
150.4247719999999
  0
ARC
  5
1B8
  8
0
 62
     7
 10
81.863064000000008
 20
218.5028529999999
 30
0.0
 40
18.527504999999991
 50
116.202949
 51
133.4288949999999
  0
ARC
  5
1B9
  8
0
 62
     7
 10
82.84677099999999
 20
216.7704939999999
 30
0.0
 40
20.516535000000001
 50
107.1755729999999
 51
116.53161799999999
  0
ARC
  5
1BA
  8
0
 62
     7
 10
83.258886000000004
 20
237.11391900000001
 30
0.0
 40
4.6294870000000001
 50
0.474104
 51
51.439383999999997
  0
ARC
  5
1BB
  8
0
 62
     7
 10
83.338075000000003
 20
237.15222700000001
 30
0.0
 40
4.5501389999999988
 50
270.00002000000001
 51
359.99998999999991
  0
ARC
  5
1BC
  8
0
 62
     7
 10
83.338160999999985
 20
237.15213900000001
 30
0.0
 40
4.5500519999999991
 50
179.998886
 51
269.99893500000002
  0
ARC
  5
1BD
  8
0
 62
     7
 10
83.40912800000001
 20
237.117964
 30
0.0
 40
4.6211459999999986
 50
128.51129900000001
 51
179.57517300000001
  0
ARC
  5
1BE
  8
0
 62
     7
 10
83.730273999999994
 20
233.89366499999991
 30
0.0
 40
7.2546289999999987
 50
55.973142000000003
 51
70.558077000000011
  0
ARC
  5
1BF
  8
0
 62
     7
 10
84.524787999999987
 20
235.15639799999991
 30
0.0
 40
5.7637130000000001
 50
40.963839
 51
55.494707999999989
  0
ARC
  5
1C0
  8
0
 62
     7
 10
85.475961999999996
 20
236.033097
 30
0.0
 40
4.4708759999999996
 50
18.899519999999999
 51
40.471173999999998
  0
ARC
  5
1C1
  8
0
 62
     7
 10
86.158795999999995
 20
236.32950899999989
 30
0.0
 40
3.7293150000000002
 50
0.103568
 51
17.989104000000001
  0
ARC
  5
1C2
  8
0
 62
     7
 10
86.129316000000017
 20
236.3420799999999
 30
0.0
 40
3.7587929999999989
 50
330.59898399999992
 51
359.911137
  0
ARC
  5
1C3
  8
0
 62
     7
 10
85.329999000000001
 20
236.74616800000001
 30
0.0
 40
4.6537110000000004
 50
311.968861
 51
331.09585299999992
  0
ARC
  5
1C4
  8
0
 62
     7
 10
84.346334999999996
 20
237.73760200000001
 30
0.0
 40
6.0490399999999989
 50
296.71043900000001
 51
312.61641700000001
  0
ARC
  5
1C5
  8
0
 62
     7
 10
83.592972999999986
 20
239.09480199999999
 30
0.0
 40
7.6002960000000011
 50
278.66397799999987
 51
297.18487699999997
  0
ARC
  5
1C6
  8
0
 62
     7
 10
83.349541000000002
 20
240.17724699999999
 30
0.0
 40
8.7074049999999996
 50
269.92456399999998
 51
279.17457000000002
  0
ARC
  5
1C7
  8
0
 62
     7
 10
83.339337000000015
 20
240.08118899999999
 30
0.0
 40
8.6113389999999992
 50
249.23123000000001
 51
269.99161700000002
  0
ARC
  5
1C8
  8
0
 62
     7
 10
82.829561999999996
 20
238.52710200000001
 30
0.0
 40
6.9778710000000004
 50
232.09633700000001
 51
248.62010000000001
  0
ARC
  5
1C9
  8
0
 62
     7
 10
81.877600000000001
 20
237.2060119999999
 30
0.0
 40
5.3509880000000001
 50
214.52165899999989
 51
231.449029
  0
ARC
  5
1CA
  8
0
 62
     7
 10
80.918595999999994
 20
236.48431099999991
 30
0.0
 40
4.1521679999999987
 50
193.2182619999999
 51
213.816045
  0
ARC
  5
1CB
  8
0
 62
     7
 10
80.475352000000001
 20
236.33738199999999
 30
0.0
 40
3.6873059999999991
 50
180.0176139999999
 51
192.5705449999999
  0
ARC
  5
1CC
  8
0
 62
     7
 10
80.552381000000025
 20
236.33024499999999
 30
0.0
 40
3.7643390000000001
 50
149.889364
 51
179.90857800000001
  0
ARC
  5
1CD
  8
0
 62
     7
 10
81.313295999999994
 20
235.94328799999991
 30
0.0
 40
4.6169390000000003
 50
134.28559199999989
 51
150.4724939999999
  0
ARC
  5
1CE
  8
0
 62
     7
 10
82.181414999999987
 20
235.11932400000001
 30
0.0
 40
5.813123
 50
120.008534
 51
134.74034900000001
  0
ARC
  5
1CF
  8
0
 62
     7
 10
82.857840999999993
 20
234.05536599999999
 30
0.0
 40
7.0729619999999986
 50
109.20672500000001
 51
120.44301899999989
  0
ARC
  5
1D0
  8
0
 62
     7
 10
83.449454000000003
 20
214.49274299999999
 30
0.0
 40
26.379965999999989
 50
62.720723
 51
84.135216000000014
  0
ARC
  5
1D1
  8
0
 62
     7
 10
84.72184
 20
217.35117399999999
 30
0.0
 40
23.25696099999999
 50
45.554022999999987
 51
62.279181999999992
  0
ARC
  5
1D2
  8
0
 62
     7
 10
86.843292999999989
 20
219.71193799999989
 30
0.0
 40
20.086545000000001
 50
27.941879
 51
45.158773999999987
  0
ARC
  5
1D3
  8
0
 62
     7
 10
89.039612000000005
 20
221.04181
 30
0.0
 40
17.523724999999988
 50
0.361065
 51
27.465495000000001
  0
ARC
  5
1D4
  8
0
 62
     7
 10
89.358035000000001
 20
221.17736599999989
 30
0.0
 40
17.204972000000001
 50
330.09868299999988
 51
359.91632599999991
  0
ARC
  5
1D5
  8
0
 62
     7
 10
87.372079999999997
 20
222.20109400000001
 30
0.0
 40
19.437174999999989
 50
314.10370999999998
 51
330.401003
  0
ARC
  5
1D6
  8
0
 62
     7
 10
85.309632999999991
 20
224.15947299999999
 30
0.0
 40
22.279140999999999
 50
298.25387499999988
 51
314.40731099999988
  0
ARC
  5
1D7
  8
0
 62
     7
 10
83.803549000000004
 20
226.70667599999999
 30
0.0
 40
25.236105999999999
 50
278.30633799999993
 51
298.52826399999998
  0
ARC
  5
1D8
  8
0
 62
     7
 10
83.362221999999988
 20
228.6904649999999
 30
0.0
 40
27.263253999999989
 50
269.94926400000003
 51
278.621803
  0
ARC
  5
1D9
  8
0
 62
     7
 10
83.346789000000001
 20
228.560869
 30
0.0
 40
27.133648999999998
 50
249.35520099999999
 51
269.98161099999987
  0
ARC
  5
1DA
  8
0
 62
     7
 10
82.51859300000001
 20
225.918543
 30
0.0
 40
24.369506000000001
 50
231.3977899999999
 51
248.98700699999989
  0
ARC
  5
1DB
  8
0
 62
     7
 10
80.643816999999999
 20
223.33631199999999
 30
0.0
 40
21.182313000000001
 50
214.51512500000001
 51
231.00300999999999
  0
ARC
  5
1DC
  8
0
 62
     7
 10
78.351190000000003
 20
221.59613999999991
 30
0.0
 40
18.307715999999999
 50
193.96835599999989
 51
214.09323599999991
  0
ARC
  5
1DD
  8
0
 62
     7
 10
77.087305000000001
 20
221.15136999999999
 30
0.0
 40
16.974316000000002
 50
179.9970439999999
 51
193.541246
  0
ARC
  5
1DE
  8
0
 62
     7
 10
77.304432999999989
 20
221.12837500000001
 30
0.0
 40
17.191458999999998
 50
150.75238300000001
 51
179.9204409999999
  0
ARC
  5
1DF
  8
0
 62
     7
 10
79.299854000000011
 20
220.11565499999989
 30
0.0
 40
19.427510999999988
 50
133.169434
 51
151.02169900000001
  0
ARC
  5
1E0
  8
0
 62
     7
 10
81.522599999999997
 20
217.95495600000001
 30
0.0
 40
22.524545
 50
116.193209
 51
133.53283899999991
  0
ARC
  5
1E1
  8
0
 62
     7
 10
82.988523999999984
 20
215.28744199999991
 30
0.0
 40
25.565563999999998
 50
95.515765000000016
 51
116.50237199999989
  0
ARC
  5
1E2
  8
0
 62
     7
 10
114.83816
 20
239.65234699999999
 30
0.0
 40
3.4998949999999991
 50
0.00001
 51
89.999980000000008
  0
ARC
  5
1E3
  8
0
 62
     7
 10
51.837990999999988
 20
239.65234699999999
 30
0.0
 40
3.4998949999999991
 50
90.0
 51
179.99996999999991
  0
ARC
  5
1E4
  8
0
 62
     7
 10
114.83807400000001
 20
203.652165
 30
0.0
 40
3.4999809999999991
 50
270.00142999999991
 51
0.0014
  0
ARC
  5
1E5
  8
0
 62
     7
 10
51.838076000000001
 20
203.652164
 30
0.0
 40
3.4999799999999999
 50
179.99856
 51
269.99860999999993
  0
ARC
  5
1E6
  8
0
 62
     7
 10
83.337987999999996
 20
221.15215599999999
 30
0.0
 40
8.7000419999999998
 50
270.000587
 51
0.000557
  0
ARC
  5
1E7
  8
0
 62
     7
 10
83.338074000000006
 20
221.15223900000001
 30
0.0
 40
8.7001249999999999
 50
179.99996999999991
 51
270.00002000000001
  0
ARC
  5
1E8
  8
0
 62
     7
 10
83.338076999999984
 20
221.15223900000001
 30
0.0
 40
8.7001279999999994
 50
90.0
 51
179.99996999999991
  0
ARC
  5
1E9
  8
0
 62
     7
 10
83.337987999999996
 20
221.15232499999991
 30
0.0
 40
8.7000419999999998
 50
359.99944299999999
 51
89.999413000000004
  0
ARC
  5
1EA
  8
0
 62
     7
 10
83.338075000000003
 20
221.152241
 30
0.0
 40
3.500067
 50
270.00002000000001
 51
359.99998999999991
  0
ARC
  5
1EB
  8
0
 62
     7
 10
83.338160999999985
 20
221.152154
 30
0.0
 40
3.4999799999999999
 50
179.99856
 51
269.99860999999993
  0
ARC
  5
1EC
  8
0
 62
     7
 10
83.338076000000001
 20
221.15223999999989
 30
0.0
 40
3.4998949999999991
 50
90.0
 51
179.99996999999991
  0
ARC
  5
1ED
  8
0
 62
     7
 10
83.338160999999985
 20
221.152154
 30
0.0
 40
3.4999809999999991
 50
0.00142
 51
90.001390000000001
  0
ARC
  5
1EE
  8
0
 62
     7
 10
83.338075000000003
 20
237.1522259999999
 30
0.0
 40
1.800074
 50
270.00002000000001
 51
359.99998999999991
  0
ARC
  5
1EF
  8
0
 62
     7
 10
83.407306000000005
 20
237.22127699999999
 30
0.0
 40
1.870406999999999
 50
182.1157279999999
 51
267.87881900000002
  0
ARC
  5
1F0
  8
0
 62
     7
 10
83.406897000000001
 20
237.08340499999991
 30
0.0
 40
1.869988999999999
 50
92.109111999999996
 51
177.89085800000001
  0
ARC
  5
1F1
  8
0
 62
     7
 10
83.268856999999997
 20
237.08282800000001
 30
0.0
 40
1.870579999999999
 50
2.1261389999999989
 51
87.879334
  0
ARC
  5
1F2
  8
0
  6
AIGENLINE002
 62
     7
 10
153.87616199999999
 20
221.152241
 30
0.0
 40
2.5001220000000002
 50
270.00002000000001
 51
359.99998999999991
  0
ARC
  5
1F3
  8
0
  6
AIGENLINE002
 62
     7
 10
153.87633400000001
 20
221.15206800000001
 30
0.0
 40
2.4999489999999991
 50
179.99602200000001
 51
269.99607200000003
  0
ARC
  5
1F4
  8
0
  6
AIGENLINE002
 62
     7
 10
153.876249
 20
221.1523259999999
 30
0.0
 40
2.4998640000000001
 50
90.001974000000004
 51
180.00198399999999
  0
ARC
  5
1F5
  8
0
  6
AIGENLINE002
 62
     7
 10
153.876248
 20
221.152154
 30
0.0
 40
2.5000360000000001
 50
0.001984
 51
90.001953999999998
  0
LINE
  5
1F6
  8
0
  6
AIGENLINE001
 62
     7
 10
149.17099999999991
 20
221.15199999999999
 30
0.0
 11
158.34200000000001
 21
221.15199999999999
 31
0.0
  0
ARC
  5
1F7
  8
0
 62
     7
 10
83.337989000000007
 20
221.15215499999999
 30
0.0
 40
2.5000360000000001
 50
270.00199399999991
 51
0.001964
  0
ARC
  5
1F8
  8
0
 62
     7
 10
83.338075000000003
 20
221.15223999999989
 30
0.0
 40
2.500121
 50
179.99996999999991
 51
270.00002000000001
  0
ARC
  5
1F9
  8
0
 62
     7
 10
83.337990000000005
 20
221.152154
 30
0.0
 40
2.5000360000000001
 50
89.998025999999996
 51
179.99799599999989
  0
ARC
  5
1FA
  8
0
 62
     7
 10
83.338075000000003
 20
221.15223999999989
 30
0.0
 40
2.4999500000000001
 50
0.00001
 51
89.999980000000008
  0
LINE
  5
1FB
  8
0
 62
     7
 10
118.33799999999989
 20
239.65199999999999
 30
0.0
 11
118.33799999999989
 21
203.65199999999999
 31
0.0
  0
LINE
  5
1FC
  8
0
 62
     7
 10
48.33809999999999
 20
239.65199999999999
 30
0.0
 11
48.33809999999999
 21
203.65199999999999
 31
0.0
  0
LINE
  5
1FD
  8
0
 62
     7
 10
51.838000000000001
 20
200.15199999999999
 30
0.0
 11
114.83799999999989
 21
200.15199999999999
 31
0.0
  0
LINE
  5
1FE
  8
0
 62
     7
 10
51.838000000000001
 20
243.15199999999999
 30
0.0
 11
114.83799999999989
 21
243.15199999999999
 31
0.0
  0
LINE
  5
1FF
  8
0
  6
AIGENLINE001
 62
     7
 10
83.338099999999983
 20
157.4079999999999
 30
0.0
 11
83.338099999999983
 21
137.82799999999989
 31
0.0
  0
LINE
  5
200
  8
0
  6
AIGENLINE001
 62
     7
 10
83.338099999999983
 20
246.35199999999989
 30
0.0
 11
83.338099999999983
 21
196.95199999999991
 31
0.0
  0
LINE
  5
201
  8
0
  6
AIGENLINE001
 62
     7
 10
45.138300000000001
 20
221.15199999999999
 30
0.0
 11
121.5379999999999
 21
221.15199999999999
 31
0.0
  0
LINE
  5
202
  8
0
  6
AIGENLINE001
 62
     7
 10
80.138300000000001
 20
237.15199999999999
 30
0.0
 11
86.538399999999996
 21
237.15199999999999
 31
0.0
  0
ARC
  5
203
  8
0
  6
AIGENLINE002
 62
     7
 10
102.79960799999991
 20
149.36283499999999
 30
0.0
 40
1.0391870000000001
 50
272.11481400000002
 51
357.86545599999999
  0
LINE
  5
204
  8
0
  6
AIGENLINE002
 62
     7
 10
102.83799999999989
 20
148.3239999999999
 30
0.0
 11
101.83799999999999
 21
148.3239999999999
 31
0.0
  0
ARC
  5
205
  8
0
  6
AIGENLINE002
 62
     7
 10
101.876673
 20
149.36314899999999
 30
0.0
 40
1.0395119999999991
 50
182.15123
 51
267.868539
  0
ARC
  5
206
  8
0
  6
AIGENLINE002
 62
     7
 10
101.87635899999999
 20
149.28542300000001
 30
0.0
 40
1.0391870000000001
 50
92.114793999999989
 51
177.86543599999999
  0
LINE
  5
207
  8
0
  6
AIGENLINE002
 62
     7
 10
101.83799999999999
 20
150.3239999999999
 30
0.0
 11
102.83799999999989
 21
150.3239999999999
 31
0.0
  0
ARC
  5
208
  8
0
  6
AIGENLINE002
 62
     7
 10
102.7992939999999
 20
149.28510900000001
 30
0.0
 40
1.0395119999999991
 50
2.151211
 51
87.86851999999999
  0
ARC
  5
209
  8
0
  6
AIGENLINE002
 62
     7
 10
64.800014000000004
 20
149.3624409999999
 30
0.0
 40
1.0387789999999999
 50
272.09391199999999
 51
357.88635799999997
  0
LINE
  5
20A
  8
0
  6
AIGENLINE002
 62
     7
 10
64.838000000000008
 20
148.3239999999999
 30
0.0
 11
63.838000000000001
 21
148.3239999999999
 31
0.0
  0
ARC
  5
20B
  8
0
  6
AIGENLINE002
 62
     7
 10
63.876690000000004
 20
149.36315400000001
 30
0.0
 40
1.0395179999999991
 50
182.15150499999999
 51
267.86826500000001
  0
ARC
  5
20C
  8
0
  6
AIGENLINE002
 62
     7
 10
63.875976999999999
 20
149.28581799999989
 30
0.0
 40
1.0387779999999991
 50
92.093874999999997
 51
177.88635500000001
  0
LINE
  5
20D
  8
0
  6
AIGENLINE002
 62
     7
 10
63.838000000000001
 20
150.3239999999999
 30
0.0
 11
64.838000000000008
 21
150.3239999999999
 31
0.0
  0
ARC
  5
20E
  8
0
  6
AIGENLINE002
 62
     7
 10
64.799306000000001
 20
149.28510900000001
 30
0.0
 40
1.0395119999999991
 50
2.151211
 51
87.86851999999999
  0
ARC
  5
20F
  8
0
 62
     7
 10
117.714929
 20
154.20096000000001
 30
0.0
 40
0.623563
 50
2.1443300000000001
 51
87.855660999999998
  0
ARC
  5
210
  8
0
 62
     7
 10
117.714856
 20
141.44680700000001
 30
0.0
 40
0.6236000000000002
 50
272.15092900000002
 51
357.94772499999999
  0
ARC
  5
211
  8
0
 62
     7
 10
48.961385
 20
154.2007909999999
 30
0.0
 40
0.623732
 50
92.142850000000024
 51
177.84066799999991
  0
ARC
  5
212
  8
0
 62
     7
 10
48.961458
 20
141.44697600000001
 30
0.0
 40
0.6237680000000001
 50
182.06725800000001
 51
267.85057999999992
  0
LINE
  5
213
  8
0
 62
     7
 10
118.33799999999989
 20
154.2239999999999
 30
0.0
 11
118.33799999999989
 21
141.42400000000001
 31
0.0
  0
LINE
  5
214
  8
0
 62
     7
 10
48.33809999999999
 20
154.2239999999999
 30
0.0
 11
48.33809999999999
 21
141.42400000000001
 31
0.0
  0
LINE
  5
215
  8
0
 62
     7
 10
48.938099999999999
 20
140.8239999999999
 30
0.0
 11
117.738
 21
140.8239999999999
 31
0.0
  0
LINE
  5
216
  8
0
 62
     7
 10
48.938099999999999
 20
154.8239999999999
 30
0.0
 11
117.738
 21
154.8239999999999
 31
0.0
  0
ARC
  5
217
  8
0
 62
     7
 10
178.83801800000001
 20
213.18993299999991
 30
0.0
 40
1.0384370000000001
 50
272.13423299999999
 51
357.92501800000002
  0
ARC
  5
218
  8
0
 62
     7
 10
128.87615199999991
 20
213.15250599999999
 30
0.0
 40
1.000289999999999
 50
180.0098769999999
 51
270.00988699999999
  0
LINE
  5
219
  8
0
  6
AIGENLINE001
 62
     7
 10
153.876
 20
209.904
 30
0.0
 11
153.876
 21
245.79900000000001
 31
0.0
  0
LINE
  5
21A
  8
0
 62
     7
 10
179.87599999999989
 20
213.15199999999999
 30
0.0
 11
179.87599999999989
 21
243.15199999999999
 31
0.0
  0
LINE
  5
21B
  8
0
 62
     7
 10
127.876
 20
243.15199999999999
 30
0.0
 11
123.55500000000001
 21
243.15199999999999
 31
0.0
  0
LINE
  5
21C
  8
0
 62
     7
 10
184.197
 20
243.15199999999999
 30
0.0
 11
179.87599999999989
 21
243.15199999999999
 31
0.0
  0
LINE
  5
21D
  8
0
 62
     7
 10
178.87700000000001
 20
212.15199999999999
 30
0.0
 11
128.876
 21
212.15199999999999
 31
0.0
  0
LINE
  5
21E
  8
0
  6
AIGENLINE003
 62
     7
 10
179.87599999999989
 20
243.15199999999999
 30
0.0
 11
127.876
 21
243.15199999999999
 31
0.0
  0
LINE
  5
21F
  8
0
 62
     7
 10
127.876
 20
243.15199999999999
 30
0.0
 11
127.876
 21
213.15199999999999
 31
0.0
  0
LINE
  5
220
  8
0
  6
AIGENLINE001
 62
     7
 10
102.33799999999989
 20
245.98500000000001
 30
0.0
 11
102.33799999999989
 21
239.88499999999991
 31
0.0
  0
LINE
  5
221
  8
0
  6
AIGENLINE001
 62
     7
 10
64.338099999999997
 20
245.98500000000001
 30
0.0
 11
64.338099999999997
 21
239.88499999999991
 31
0.0
  0
LINE
  5
222
  8
0
  6
AIGENLINE001
 62
     7
 10
102.33799999999989
 20
147.29900000000001
 30
0.0
 11
102.33799999999989
 21
151.4859999999999
 31
0.0
  0
LINE
  5
223
  8
0
  6
AIGENLINE001
 62
     7
 10
64.338099999999997
 20
147.29900000000001
 30
0.0
 11
64.338099999999997
 21
151.4859999999999
 31
0.0
  0
LINE
  5
224
  8
0
  6
AIGENLINE001
 62
     7
 10
61.8371
 20
149.3239999999999
 30
0.0
 11
67.389200000000002
 21
149.3239999999999
 31
0.0
  0
LINE
  5
225
  8
0
  6
AIGENLINE001
 62
     7
 10
99.315799999999996
 20
149.3239999999999
 30
0.0
 11
104.83799999999989
 21
149.3239999999999
 31
0.0
  0
TEXT
  5
226
  8
_________2
 62
     7
 10
26.512799999999991
 20
66.018100000000004
 30
0.0
 40
4.6583899999999989
  1
※壁取付部には厚さ30mm以上の補強木を入れてください。
 41
0.5
  0
TEXT
  5
227
  8
_________2
 62
     7
 10
26.512799999999991
 20
60.195099999999996
 30
0.0
 40
4.6583899999999989
  1
※毎分7L以上吐水させないでください。
 41
0.5
  0
TEXT
  5
228
  8
_________2
 62
     7
 10
29.525700000000001
 20
22.2272
 30
0.0
 40
4.6583899999999989
  1
重量16kg、オーバーフローなし
 41
0.5
  0
LINE
  5
229
  8
_________2
 62
     7
 10
105.2389999999999
 20
17.428499999999989
 30
0.0
 11
105.2389999999999
 21
0.4485540000000001
 31
0.0
  0
LINE
  5
22A
  8
_________2
 62
     7
 10
81.679900000000004
 20
51.324300000000001
 30
0.0
 11
79.493700000000004
 21
51.324300000000001
 31
0.0
  0
LINE
  5
22B
  8
_________2
 62
     7
 10
82.172600000000017
 20
51.324300000000001
 30
0.0
 11
81.920400000000001
 21
51.324300000000001
 31
0.0
  0
LINE
  5
22C
  8
_________2
 62
     7
 10
82.665199999999984
 20
51.324300000000001
 30
0.0
 11
85.590100000000007
 21
51.324300000000001
 31
0.0
  0
LINE
  5
22D
  8
_________2
 62
     7
 10
82.172600000000017
 20
51.324300000000001
 30
0.0
 11
82.424800000000005
 21
51.324300000000001
 31
0.0
  0
LINE
  5
22E
  8
_________2
 62
     7
 10
75.776399999999995
 20
51.324300000000001
 30
0.0
 11
73.589399999999998
 21
51.324300000000001
 31
0.0
  0
LINE
  5
22F
  8
_________2
 62
     7
 10
76.2684
 20
51.324300000000001
 30
0.0
 11
76.016900000000007
 21
51.324300000000001
 31
0.0
  0
LINE
  5
230
  8
_________2
 62
     7
 10
76.2684
 20
51.817
 30
0.0
 11
76.2684
 21
54.003900000000002
 31
0.0
  0
LINE
  5
231
  8
_________2
 62
     7
 10
76.2684
 20
51.324300000000001
 30
0.0
 11
76.2684
 21
51.576900000000002
 31
0.0
  0
LINE
  5
232
  8
_________2
 62
     7
 10
76.76100000000001
 20
51.324300000000001
 30
0.0
 11
78.947999999999993
 21
51.324300000000001
 31
0.0
  0
LINE
  5
233
  8
_________2
 62
     7
 10
76.2684
 20
51.324300000000001
 30
0.0
 11
76.520499999999998
 21
51.324300000000001
 31
0.0
  0
LINE
  5
234
  8
_________2
 62
     7
 10
76.2684
 20
50.832399999999993
 30
0.0
 11
76.2684
 21
48.645699999999998
 31
0.0
  0
LINE
  5
235
  8
_________2
 62
     7
 10
76.2684
 20
51.324300000000001
 30
0.0
 11
76.2684
 21
51.072800000000001
 31
0.0
  0
LINE
  5
236
  8
_________2
 62
     7
 10
79.979399999999984
 20
50.104799999999997
 30
0.0
 11
85.157399999999996
 21
49.240000000000002
 31
0.0
  0
LINE
  5
237
  8
_________2
 62
     7
 10
79.979399999999984
 20
52.544199999999989
 30
0.0
 11
85.157399999999996
 21
53.409700000000001
 31
0.0
  0
LINE
  5
238
  8
_________2
 62
     7
 10
85.157399999999996
 20
49.240000000000002
 30
0.0
 11
85.157399999999996
 21
53.409700000000001
 31
0.0
  0
LINE
  5
239
  8
_________2
 62
     7
 10
79.979399999999984
 20
50.104799999999997
 30
0.0
 11
79.979399999999984
 21
52.544199999999989
 31
0.0
  0
ARC
  5
23A
  8
_________2
 62
     7
 10
76.221766000000002
 20
51.277380999999998
 30
0.0
 40
1.267714
 50
2.1220840000000001
 51
87.894083999999992
  0
ARC
  5
23B
  8
_________2
 62
     7
 10
76.315297000000001
 20
51.277734999999993
 30
0.0
 40
1.267374999999999
 50
92.122849999999985
 51
177.893304
  0
ARC
  5
23C
  8
_________2
 62
     7
 10
76.315273000000005
 20
51.371245999999992
 30
0.0
 40
1.267363
 50
182.12181499999991
 51
267.87821400000001
  0
ARC
  5
23D
  8
_________2
 62
     7
 10
76.221461000000005
 20
51.371928999999987
 30
0.0
 40
1.2680439999999991
 50
272.11916400000001
 51
357.84848499999993
  0
ARC
  5
23E
  8
_________2
 62
     7
 10
76.187981999999991
 20
51.244312999999998
 30
0.0
 40
2.1668310000000002
 50
2.1161439999999989
 51
87.874379000000005
  0
ARC
  5
23F
  8
_________2
 62
     7
 10
76.348411999999996
 20
51.245334999999997
 30
0.0
 40
2.1657980000000001
 50
92.118487999999999
 51
177.90988599999989
  0
ARC
  5
240
  8
_________2
 62
     7
 10
76.348354
 20
51.404327000000002
 30
0.0
 40
2.1657779999999991
 50
182.11700400000001
 51
267.88302499999992
  0
ARC
  5
241
  8
_________2
 62
     7
 10
76.188378999999983
 20
51.405009999999997
 30
0.0
 40
2.1664590000000001
 50
272.11546800000002
 51
357.86560400000002
  0
TEXT
  5
242
  8
_________2
 62
     7
 10
109.5439999999999
 20
23.199100000000001
 30
0.0
 40
3.660169999999999
  1
図番
 41
0.5
  0
LINE
  5
243
  8
_________2
 62
     7
 10
108.4889999999999
 20
27.4283
 30
0.0
 11
188.49000000000001
 21
27.4283
 31
0.0
  0
TEXT
  5
244
  8
_________2
 62
     7
 10
109.5439999999999
 20
33.198900000000002
 30
0.0
 40
3.660169999999999
  1
品番
 41
0.5
  0
TEXT
  5
245
  8
_________2
 62
     7
 10
109.5439999999999
 20
53.338000000000001
 30
0.0
 40
3.660169999999999
  1
名称
 41
0.5
  0
TEXT
  5
246
  8
_________2
 62
     7
 10
96.504445833333335
 20
48.341900000000003
 30
0.0
 40
4.3256500000000004
  1
mm
 41
0.5
 72
     1
 11
98.306799999999996
 21
48.341900000000003
 31
0.0
  0
TEXT
  5
247
  8
_________2
 62
     7
 10
90.582099999999997
 20
53.338000000000001
 30
0.0
 40
3.660169999999999
  1
単位
 41
0.5
  0
TEXT
  5
248
  8
_________2
 62
     7
 10
90.582099999999997
 20
40.930399999999999
 30
0.0
 40
3.660169999999999
  1
尺度
 41
0.5
  0
TEXT
  5
249
  8
_________2
 62
     7
 10
94.320620416666657
 20
34.7378
 30
0.0
 40
4.3256500000000004
  1
1 ： 10
 41
0.5
 72
     1
 11
98.898600000000002
 21
34.7378
 31
0.0
  0
TEXT
  5
24A
  8
_________2
 62
     7
 10
142.27781333333331
 20
30.627800000000001
 30
0.0
 40
4.6583899999999989
  1
SB6004
 41
0.5
 72
     1
 11
148.489
 21
30.627800000000001
 31
0.0
  0
TEXT
  5
24B
  8
_________2
 62
     7
 10
142.27781333333331
 20
20.626999999999988
 30
0.0
 40
4.6583899999999989
  1
SB6004
 41
0.5
 72
     1
 11
148.489
 21
20.626999999999988
 31
0.0
  0
TEXT
  5
24C
  8
_________2
 62
     7
 10
114.11799999999999
 20
45.745600000000003
 30
0.0
 40
4.6583899999999989
  1
フジ 洗面器
 41
0.5
  0
TEXT
  5
24D
  8
_________2
 62
     7
 10
44.01748083333333
 20
35.122999999999998
 30
0.0
 40
4.3256500000000004
  1
早川
 41
0.5
 72
     1
 11
46.252400000000002
 21
35.122999999999998
 31
0.0
  0
TEXT
  5
24E
  8
_________2
 62
     7
 10
25.443480833333329
 20
35.122999999999998
 30
0.0
 40
4.3256500000000004
  1
井田
 41
0.5
 72
     1
 11
27.6784
 21
35.122999999999998
 31
0.0
  0
TEXT
  5
24F
  8
_________2
 62
     7
 10
72.724699999999999
 20
34.7378
 30
0.0
 40
4.3256500000000004
  1
14.12.25
 41
0.5
  0
TEXT
  5
250
  8
_________2
 62
     7
 10
71.531999999999996
 20
40.930399999999999
 30
0.0
 40
3.660169999999999
  1
日付
 41
0.5
  0
TEXT
  5
251
  8
_________2
 62
     7
 10
34.578299999999992
 20
40.930399999999999
 30
0.0
 40
3.660169999999999
  1
検図
 41
0.5
  0
TEXT
  5
252
  8
_________2
 62
     7
 10
22.96019999999999
 20
26.730999999999991
 30
0.0
 40
3.660169999999999
  1
備考
 41
0.5
  0
TEXT
  5
253
  8
_________2
 62
     7
 10
22.96019999999999
 20
40.930399999999999
 30
0.0
 40
3.660169999999999
  1
製図
 41
0.5
  0
TEXT
  5
254
  8
_________2
 62
     7
 10
25.533730666666681
 20
49.456400000000002
 30
0.0
 40
5.3238799999999991
  1
セラトレーディング株式会社
 41
0.5
 72
     1
 11
46.119399999999992
 21
49.456400000000002
 31
0.0
  0
LINE
  5
255
  8
_________2
 62
     7
 10
188.49000000000001
 20
17.428499999999989
 30
0.0
 11
21.988499999999991
 21
17.428499999999989
 31
0.0
  0
LINE
  5
256
  8
_________2
 62
     7
 10
21.988499999999991
 20
17.428499999999989
 30
0.0
 11
21.988499999999991
 21
280.42999999999989
 31
0.0
  0
LINE
  5
257
  8
_________2
 62
     7
 10
21.988499999999991
 20
280.42999999999989
 30
0.0
 11
188.49000000000001
 21
280.42999999999989
 31
0.0
  0
LINE
  5
258
  8
_________2
 62
     7
 10
188.49000000000001
 20
280.42999999999989
 30
0.0
 11
188.49000000000001
 21
17.428499999999989
 31
0.0
  0
LINE
  5
259
  8
_________2
 62
     7
 10
70.488799999999998
 20
30.928899999999999
 30
0.0
 11
70.488799999999998
 21
57.428699999999992
 31
0.0
  0
LINE
  5
25A
  8
_________2
 62
     7
 10
89.488600000000005
 20
30.928899999999999
 30
0.0
 11
89.488600000000005
 21
57.428699999999992
 31
0.0
  0
LINE
  5
25B
  8
_________2
 62
     7
 10
108.4889999999999
 20
17.428499999999989
 30
0.0
 11
108.4889999999999
 21
57.428699999999992
 31
0.0
  0
LINE
  5
25C
  8
_________2
 62
     7
 10
33.488300000000002
 20
30.928899999999999
 30
0.0
 11
33.488300000000002
 21
44.928800000000003
 31
0.0
  0
LINE
  5
25D
  8
_________2
 62
     7
 10
21.988499999999991
 20
30.928899999999999
 30
0.0
 11
108.4889999999999
 21
30.928899999999999
 31
0.0
  0
LINE
  5
25E
  8
_________2
 62
     7
 10
21.988499999999991
 20
44.928800000000003
 30
0.0
 11
108.4889999999999
 21
44.928800000000003
 31
0.0
  0
LINE
  5
25F
  8
_________2
 62
     7
 10
108.4889999999999
 20
37.428100000000001
 30
0.0
 11
188.49000000000001
 21
37.428100000000001
 31
0.0
  0
LINE
  5
260
  8
_________2
 62
     7
 10
21.988499999999991
 20
57.428699999999992
 30
0.0
 11
188.49000000000001
 21
57.428699999999992
 31
0.0
  0
LINE
  5
261
  8
_________2
 62
     7
 10
210.24000000000001
 20
148.93100000000001
 30
0.0
 11
188.489
 21
148.93100000000001
 31
0.0
  0
LINE
  5
262
  8
_________2
 62
     7
 10
105.2389999999999
 20
297.45099999999991
 30
0.0
 11
105.2389999999999
 21
280.42999999999989
 31
0.0
  0
LINE
  5
263
  8
_________2
 62
     7
 10
21.988499999999991
 20
148.93100000000001
 30
0.0
 11
0.238402
 21
148.93100000000001
 31
0.0
  0
ENDSEC
  0
EOF
