  0
SECTION
  2
HEADER
  9
$ACADVER
  1
AC1009
  9
$INSBASE
 10
0.0
 20
0.0
 30
0.0
  9
$EXTMIN
 10
0.0614953
 20
0.272164
 30
0.0
  9
$EXTMAX
 10
210.06399999999999
 20
297.27399999999989
 30
0.0
  9
$LIMMIN
 10
0.0
 20
0.0
  9
$LIMMAX
 10
12.0
 20
9.0
  9
$ORTHOMODE
 70
     0
  9
$REGENMODE
 70
     1
  9
$FILLMODE
 70
     1
  9
$QTEXTMODE
 70
     0
  9
$MIRRTEXT
 70
     1
  9
$DRAGMODE
 70
     2
  9
$LTSCALE
 40
1.0
  9
$OSMODE
 70
    37
  9
$ATTMODE
 70
     1
  9
$TEXTSIZE
 40
0.0
  9
$TRACEWID
 40
0.05
  9
$TEXTSTYLE
  7
STANDARD
  9
$CLAYER
  8
0
  9
$CELTYPE
  6
CONTINUOUS
  9
$CECOLOR
 62
   256
  9
$DIMSCALE
 40
1.0
  9
$DIMASZ
 40
0.18
  9
$DIMEXO
 40
0.0625
  9
$DIMDLI
 40
0.38
  9
$DIMRND
 40
0.0
  9
$DIMDLE
 40
0.0
  9
$DIMEXE
 40
0.18
  9
$DIMTP
 40
0.0
  9
$DIMTM
 40
0.0
  9
$DIMTXT
 40
0.18
  9
$DIMCEN
 40
0.09
  9
$DIMTSZ
 40
0.0
  9
$DIMTOL
 70
     0
  9
$DIMLIM
 70
     0
  9
$DIMTIH
 70
     1
  9
$DIMTOH
 70
     1
  9
$DIMSE1
 70
     0
  9
$DIMSE2
 70
     0
  9
$DIMTAD
 70
     0
  9
$DIMZIN
 70
     0
  9
$DIMBLK
  1

  9
$DIMASO
 70
     1
  9
$DIMSHO
 70
     1
  9
$DIMPOST
  1

  9
$DIMAPOST
  1

  9
$DIMALT
 70
     0
  9
$DIMALTD
 70
     2
  9
$DIMALTF
 40
25.399999999999999
  9
$DIMLFAC
 40
1.0
  9
$DIMTOFL
 70
     0
  9
$DIMTVP
 40
0.0
  9
$DIMTIX
 70
     0
  9
$DIMSOXD
 70
     0
  9
$DIMSAH
 70
     0
  9
$DIMBLK1
  1

  9
$DIMBLK2
  1

  9
$DIMSTYLE
  2
STANDARD
  9
$DIMCLRD
 70
     0
  9
$DIMCLRE
 70
     0
  9
$DIMCLRT
 70
     0
  9
$DIMTFAC
 40
1.0
  9
$DIMGAP
 40
0.09
  9
$LUNITS
 70
     2
  9
$LUPREC
 70
     4
  9
$SKETCHINC
 40
0.1
  9
$FILLETRAD
 40
0.0
  9
$AUNITS
 70
     0
  9
$AUPREC
 70
     0
  9
$MENU
  1
.
  9
$ELEVATION
 40
0.0
  9
$PELEVATION
 40
0.0
  9
$THICKNESS
 40
0.0
  9
$LIMCHECK
 70
     0
  9
$BLIPMODE
 70
     0
  9
$CHAMFERA
 40
0.0
  9
$CHAMFERB
 40
0.0
  9
$SKPOLY
 70
     0
  9
$TDCREATE
 40
2444972.375
  9
$TDUPDATE
 40
2456309.444237581
  9
$TDINDWG
 40
0.0000066898
  9
$TDUSRTIMER
 40
0.0000066898
  9
$USRTIMER
 70
     1
  9
$ANGBASE
 50
0.0
  9
$ANGDIR
 70
     0
  9
$PDMODE
 70
     0
  9
$PDSIZE
 40
0.0
  9
$PLINEWID
 40
0.0
  9
$COORDS
 70
     1
  9
$SPLFRAME
 70
     0
  9
$SPLINETYPE
 70
     6
  9
$SPLINESEGS
 70
     8
  9
$ATTDIA
 70
     0
  9
$ATTREQ
 70
     1
  9
$HANDLING
 70
     1
  9
$HANDSEED
  5
1D0
  9
$SURFTAB1
 70
     6
  9
$SURFTAB2
 70
     6
  9
$SURFTYPE
 70
     6
  9
$SURFU
 70
     6
  9
$SURFV
 70
     6
  9
$UCSNAME
  2

  9
$UCSORG
 10
0.0
 20
0.0
 30
0.0
  9
$UCSXDIR
 10
1.0
 20
0.0
 30
0.0
  9
$UCSYDIR
 10
0.0
 20
1.0
 30
0.0
  9
$PUCSNAME
  2

  9
$PUCSORG
 10
0.0
 20
0.0
 30
0.0
  9
$PUCSXDIR
 10
1.0
 20
0.0
 30
0.0
  9
$PUCSYDIR
 10
0.0
 20
1.0
 30
0.0
  9
$USERI1
 70
     0
  9
$USERI2
 70
     0
  9
$USERI3
 70
     0
  9
$USERI4
 70
     0
  9
$USERI5
 70
     0
  9
$USERR1
 40
0.0
  9
$USERR2
 40
0.0
  9
$USERR3
 40
0.0
  9
$USERR4
 40
0.0
  9
$USERR5
 40
0.0
  9
$WORLDVIEW
 70
     1
  9
$SHADEDGE
 70
     3
  9
$SHADEDIF
 70
    70
  9
$TILEMODE
 70
     1
  9
$MAXACTVP
 70
    48
  9
$PLIMCHECK
 70
     0
  9
$PEXTMIN
 10
1.0000000000000000E+020
 20
1.0000000000000000E+020
 30
1.0000000000000000E+020
  9
$PEXTMAX
 10
-1.0000000000000000E+020
 20
-1.0000000000000000E+020
 30
-1.0000000000000000E+020
  9
$PLIMMIN
 10
0.0
 20
0.0
  9
$PLIMMAX
 10
12.0
 20
9.0
  9
$UNITMODE
 70
     0
  9
$VISRETAIN
 70
     1
  9
$PLINEGEN
 70
     0
  9
$PSLTSCALE
 70
     1
  0
ENDSEC
  0
SECTION
  2
TABLES
  0
TABLE
  2
VPORT
 70
     2
  0
VPORT
  2
*ACTIVE
 70
     0
 10
0.0
 20
0.0
 11
1.0
 21
1.0
 12
210.13847447279559
 22
148.63699999999989
 13
0.0
 23
0.0
 14
1.0
 24
1.0
 15
0.0
 25
0.0
 16
0.0
 26
0.0
 36
1.0
 17
0.0
 27
0.0
 37
0.0
 40
299.52040302267
 41
2.2894736842105261
 42
50.0
 43
0.0
 44
0.0
 50
0.0
 51
0.0
 71
     0
 72
   100
 73
     1
 74
     1
 75
     0
 76
     0
 77
     0
 78
     0
  0
ENDTAB
  0
TABLE
  2
LTYPE
 70
     4
  0
LTYPE
  2
CONTINUOUS
 70
     0
  3
Solid line
 72
    65
 73
     0
 40
0.0
  0
LTYPE
  2
AIGENLINE001
 70
     0
  3
generate AI->DXF Converter
 72
    65
 73
     4
 40
5.8561449999999988
 49
3.5278
 49
-0.776115
 49
0.776115
 49
-0.776115
  0
LTYPE
  2
AIGENLINE002
 70
     0
  3
generate AI->DXF Converter
 72
    65
 73
     2
 40
1.5522299999999991
 49
0.776115
 49
-0.776115
  0
LTYPE
  2
AIGENLINE003
 70
     0
  3
generate AI->DXF Converter
 72
    65
 73
     6
 40
7.4083750000000004
 49
3.5278
 49
-0.776115
 49
0.776115
 49
-0.776115
 49
0.776115
 49
-0.776115
  0
ENDTAB
  0
TABLE
  2
LAYER
 70
     2
  0
LAYER
  2
0
 70
     0
 62
     7
  6
CONTINUOUS
  0
LAYER
  2
_________2
 70
     0
 62
     7
  6
CONTINUOUS
  0
ENDTAB
  0
TABLE
  2
STYLE
 70
     1
  0
STYLE
  2
STANDARD
 70
     0
 40
0.0
 41
0.0
 50
0.0
 71
     0
 42
0.0
  3
TXT
  4
EXTFONT.SHX
  0
ENDTAB
  0
TABLE
  2
VIEW
 70
     0
  0
ENDTAB
  0
TABLE
  2
UCS
 70
     0
  0
ENDTAB
  0
TABLE
  2
APPID
 70
     1
  0
APPID
  2
ACAD
 70
     0
  0
ENDTAB
  0
TABLE
  2
DIMSTYLE
 70
     1
  0
DIMSTYLE
  2
STANDARD
 70
     0
  3

  4

  5

  6

  7

 40
1.0
 41
0.18
 42
0.0625
 43
0.38
 44
0.18
 45
0.0
 46
0.0
 47
0.0
 48
0.0
140
0.18
141
0.09
142
0.0
143
25.399999999999999
144
1.0
145
0.0
146
1.0
147
0.09
 71
     0
 72
     0
 73
     1
 74
     1
 75
     0
 76
     0
 77
     0
 78
     0
170
     0
171
     2
172
     0
173
     0
174
     0
175
     0
176
     0
177
     0
178
     0
  0
ENDTAB
  0
ENDSEC
  0
SECTION
  2
BLOCKS
  0
BLOCK
  8
0
  2
$MODEL_SPACE
 70
     0
 10
0.0
 20
0.0
 30
0.0
  3
$MODEL_SPACE
  1

  0
ENDBLK
  5
1A
  8
0
  0
BLOCK
 67
     1
  8
0
  2
$PAPER_SPACE
 70
     0
 10
0.0
 20
0.0
 30
0.0
  3
$PAPER_SPACE
  1

  0
ENDBLK
  5
17
 67
     1
  8
0
  0
ENDSEC
  0
SECTION
  2
ENTITIES
  0
TEXT
  5
24
  8
0
 62
     7
 10
79.449200000000005
 20
259.24700000000001
 30
0.0
 40
3.0923400000000001
  1
R10
 50
90.0
 41
0.5
  0
LINE
  5
25
  8
0
 62
     7
 10
81.970399999999984
 20
266.822
 30
0.0
 11
83.952699999999993
 21
267.96600000000001
 31
0.0
  0
LINE
  5
26
  8
0
 62
     7
 10
83.952699999999993
 20
267.96600000000001
 30
0.0
 11
82.808199999999999
 21
265.98399999999998
 31
0.0
  0
LINE
  5
27
  8
0
 62
     7
 10
82.808199999999999
 20
265.98399999999998
 30
0.0
 11
81.970399999999984
 21
266.822
 31
0.0
  0
LINE
  5
28
  8
0
 62
     7
 10
83.952699999999993
 20
267.96600000000001
 30
0.0
 11
80.149299999999997
 21
264.16199999999998
 31
0.0
  0
LINE
  5
29
  8
0
 62
     7
 10
80.149299999999997
 20
264.16199999999998
 30
0.0
 11
80.149299999999997
 21
259.24700000000001
 31
0.0
  0
TEXT
  5
2A
  8
0
 62
     7
 10
79.449200000000005
 20
194.081965
 30
0.0
 40
3.0923400000000001
  1
R10
 50
90.0
 41
0.5
 72
     2
 11
79.449200000000005
 21
197.43199999999999
 31
0.0
  0
LINE
  5
2B
  8
0
 62
     7
 10
81.970399999999984
 20
189.92699999999999
 30
0.0
 11
83.952699999999993
 21
188.7819999999999
 31
0.0
  0
LINE
  5
2C
  8
0
 62
     7
 10
83.952699999999993
 20
188.7819999999999
 30
0.0
 11
82.808199999999999
 21
190.76400000000001
 31
0.0
  0
LINE
  5
2D
  8
0
 62
     7
 10
82.808199999999999
 20
190.76400000000001
 30
0.0
 11
81.970399999999984
 21
189.92699999999999
 31
0.0
  0
LINE
  5
2E
  8
0
 62
     7
 10
83.952699999999993
 20
188.7819999999999
 30
0.0
 11
80.149299999999997
 21
192.5859999999999
 31
0.0
  0
LINE
  5
2F
  8
0
 62
     7
 10
80.149299999999997
 20
192.5859999999999
 30
0.0
 11
80.149299999999997
 21
197.43199999999999
 31
0.0
  0
TEXT
  5
30
  8
0
 62
     7
 10
133.7949999999999
 20
245.304
 30
0.0
 40
3.0923400000000001
  1
10
 41
0.5
  0
LINE
  5
31
  8
0
 62
     7
 10
137.559
 20
245.19
 30
0.0
 11
139.77000000000001
 21
244.59699999999989
 31
0.0
  0
LINE
  5
32
  8
0
 62
     7
 10
139.77000000000001
 20
244.59699999999989
 30
0.0
 11
137.559
 21
244.00399999999999
 31
0.0
  0
LINE
  5
33
  8
0
 62
     7
 10
137.559
 20
244.00399999999999
 30
0.0
 11
137.559
 21
245.19
 31
0.0
  0
LINE
  5
34
  8
0
 62
     7
 10
143.08699999999999
 20
244.01900000000001
 30
0.0
 11
140.87499999999989
 21
244.61099999999999
 31
0.0
  0
LINE
  5
35
  8
0
 62
     7
 10
140.87499999999989
 20
244.61099999999999
 30
0.0
 11
143.08699999999999
 21
245.20400000000001
 31
0.0
  0
LINE
  5
36
  8
0
 62
     7
 10
143.08699999999999
 20
245.20400000000001
 30
0.0
 11
143.08699999999999
 21
244.01900000000001
 31
0.0
  0
LINE
  5
37
  8
0
 62
     7
 10
144.11199999999991
 20
244.6039999999999
 30
0.0
 11
133.7949999999999
 21
244.6039999999999
 31
0.0
  0
TEXT
  5
38
  8
0
 62
     7
 10
65.900779999999997
 20
98.262
 30
0.0
 40
3.0923400000000001
  1
%%c35
 41
0.5
 72
     2
 11
70.023899999999998
 21
98.262
 31
0.0
  0
LINE
  5
39
  8
0
 62
     7
 10
53.502800000000001
 20
103.505
 30
0.0
 11
55.485900000000001
 21
102.36
 31
0.0
  0
LINE
  5
3A
  8
0
 62
     7
 10
55.485900000000001
 20
102.36
 30
0.0
 11
54.341000000000001
 21
104.3429999999999
 31
0.0
  0
LINE
  5
3B
  8
0
 62
     7
 10
54.341000000000001
 20
104.3429999999999
 30
0.0
 11
53.502800000000001
 21
103.505
 31
0.0
  0
LINE
  5
3C
  8
0
 62
     7
 10
59.941800000000001
 20
98.741500000000002
 30
0.0
 11
57.959099999999999
 21
99.886700000000005
 31
0.0
  0
LINE
  5
3D
  8
0
 62
     7
 10
57.959099999999999
 20
99.886700000000005
 30
0.0
 11
59.103900000000003
 21
97.903700000000015
 31
0.0
  0
LINE
  5
3E
  8
0
 62
     7
 10
59.103900000000003
 20
97.903700000000015
 30
0.0
 11
59.941800000000001
 21
98.741500000000002
 31
0.0
  0
LINE
  5
3F
  8
0
 62
     7
 10
52.970199999999991
 20
104.876
 30
0.0
 11
60.832700000000003
 21
97.012799999999999
 31
0.0
  0
LINE
  5
40
  8
0
 62
     7
 10
60.832700000000003
 20
97.012799999999999
 30
0.0
 11
69.974299999999999
 21
97.012799999999999
 31
0.0
  0
TEXT
  5
41
  8
0
 62
     7
 10
65.900779999999997
 20
140.26599999999999
 30
0.0
 40
3.0923400000000001
  1
%%c35
 41
0.5
 72
     2
 11
70.023899999999998
 21
140.26599999999999
 31
0.0
  0
LINE
  5
42
  8
0
 62
     7
 10
53.502800000000001
 20
145.50899999999999
 30
0.0
 11
55.485900000000001
 21
144.364
 31
0.0
  0
LINE
  5
43
  8
0
 62
     7
 10
55.485900000000001
 20
144.364
 30
0.0
 11
54.341000000000001
 21
146.34700000000001
 31
0.0
  0
LINE
  5
44
  8
0
 62
     7
 10
54.341000000000001
 20
146.34700000000001
 30
0.0
 11
53.502800000000001
 21
145.50899999999999
 31
0.0
  0
LINE
  5
45
  8
0
 62
     7
 10
59.941800000000001
 20
140.745
 30
0.0
 11
57.959099999999999
 21
141.89099999999991
 31
0.0
  0
LINE
  5
46
  8
0
 62
     7
 10
57.959099999999999
 20
141.89099999999991
 30
0.0
 11
59.103900000000003
 21
139.9079999999999
 31
0.0
  0
LINE
  5
47
  8
0
 62
     7
 10
59.103900000000003
 20
139.9079999999999
 30
0.0
 11
59.941800000000001
 21
140.745
 31
0.0
  0
LINE
  5
48
  8
0
 62
     7
 10
52.970199999999991
 20
146.87899999999999
 30
0.0
 11
60.832700000000003
 21
139.01699999999991
 31
0.0
  0
LINE
  5
49
  8
0
 62
     7
 10
60.832700000000003
 20
139.01699999999991
 30
0.0
 11
69.974299999999999
 21
139.01699999999991
 31
0.0
  0
LINE
  5
4A
  8
0
 62
     7
 10
56.723199999999999
 20
157.47799999999989
 30
0.0
 11
56.723199999999999
 21
147.827
 31
0.0
  0
TEXT
  5
4B
  8
0
 62
     7
 10
83.358379999999997
 20
118.9079999999999
 30
0.0
 40
3.0923400000000001
  1
%%c45
 41
0.5
 72
     2
 11
87.481499999999997
 21
118.9079999999999
 31
0.0
  0
LINE
  5
4C
  8
0
 62
     7
 10
72.649600000000007
 20
124.86199999999999
 30
0.0
 11
74.632599999999996
 21
123.717
 31
0.0
  0
LINE
  5
4D
  8
0
 62
     7
 10
74.632599999999996
 20
123.717
 30
0.0
 11
73.487799999999993
 21
125.7
 31
0.0
  0
LINE
  5
4E
  8
0
 62
     7
 10
73.487799999999993
 20
125.7
 30
0.0
 11
72.649600000000007
 21
124.86199999999999
 31
0.0
  0
LINE
  5
4F
  8
0
 62
     7
 10
79.799599999999998
 20
119.38799999999991
 30
0.0
 11
77.816900000000004
 21
120.5329999999999
 31
0.0
  0
LINE
  5
50
  8
0
 62
     7
 10
77.816900000000004
 20
120.5329999999999
 30
0.0
 11
78.961699999999993
 21
118.55
 31
0.0
  0
LINE
  5
51
  8
0
 62
     7
 10
78.961699999999993
 20
118.55
 30
0.0
 11
79.799599999999998
 21
119.38799999999991
 31
0.0
  0
LINE
  5
52
  8
0
 62
     7
 10
71.6905
 20
126.65899999999991
 30
0.0
 11
80.6905
 21
117.65900000000001
 31
0.0
  0
LINE
  5
53
  8
0
 62
     7
 10
80.6905
 20
117.65900000000001
 30
0.0
 11
87.431899999999999
 21
117.65900000000001
 31
0.0
  0
TEXT
  5
54
  8
0
 62
     7
 10
52.779924999999992
 20
157.48500000000001
 30
0.0
 40
3.0923400000000001
  1
65
 41
0.5
 72
     1
 11
54.06839999999999
 21
157.48500000000001
 31
0.0
  0
TEXT
  5
55
  8
0
 62
     7
 10
59.063772499999999
 20
157.48500000000001
 30
0.0
 40
3.0923400000000001
  1
70
 41
0.5
 72
     1
 11
60.223399999999991
 21
157.48500000000001
 31
0.0
  0
LINE
  5
56
  8
0
 62
     7
 10
52.433500000000002
 20
156.1999999999999
 30
0.0
 11
50.223300000000002
 21
156.79199999999989
 31
0.0
  0
LINE
  5
57
  8
0
 62
     7
 10
50.223300000000002
 20
156.79199999999989
 30
0.0
 11
52.433500000000002
 21
157.38499999999999
 31
0.0
  0
LINE
  5
58
  8
0
 62
     7
 10
52.433500000000002
 20
157.38499999999999
 30
0.0
 11
52.433500000000002
 21
156.1999999999999
 31
0.0
  0
LINE
  5
59
  8
0
 62
     7
 10
54.51209999999999
 20
157.37
 30
0.0
 11
56.723199999999999
 21
156.77799999999991
 31
0.0
  0
LINE
  5
5A
  8
0
 62
     7
 10
56.723199999999999
 20
156.77799999999991
 30
0.0
 11
54.51209999999999
 21
156.18499999999989
 31
0.0
  0
LINE
  5
5B
  8
0
 62
     7
 10
54.51209999999999
 20
156.18499999999989
 30
0.0
 11
54.51209999999999
 21
157.37
 31
0.0
  0
LINE
  5
5C
  8
0
 62
     7
 10
50.223300000000002
 20
156.78499999999991
 30
0.0
 11
56.723199999999999
 21
156.78499999999991
 31
0.0
  0
LINE
  5
5D
  8
0
 62
     7
 10
61.513300000000001
 20
156.1999999999999
 30
0.0
 11
63.723500000000001
 21
156.79199999999989
 31
0.0
  0
LINE
  5
5E
  8
0
 62
     7
 10
63.723500000000001
 20
156.79199999999989
 30
0.0
 11
61.513300000000001
 21
157.38499999999999
 31
0.0
  0
LINE
  5
5F
  8
0
 62
     7
 10
61.513300000000001
 20
157.38499999999999
 30
0.0
 11
61.513300000000001
 21
156.1999999999999
 31
0.0
  0
LINE
  5
60
  8
0
 62
     7
 10
59.4343
 20
157.37
 30
0.0
 11
57.223199999999991
 21
156.77799999999991
 31
0.0
  0
LINE
  5
61
  8
0
 62
     7
 10
57.223199999999991
 20
156.77799999999991
 30
0.0
 11
59.4343
 21
156.18499999999989
 31
0.0
  0
LINE
  5
62
  8
0
 62
     7
 10
59.4343
 20
156.18499999999989
 30
0.0
 11
59.4343
 21
157.37
 31
0.0
  0
LINE
  5
63
  8
0
 62
     7
 10
63.723500000000001
 20
156.78499999999991
 30
0.0
 11
56.723199999999999
 21
156.78499999999991
 31
0.0
  0
TEXT
  5
64
  8
0
 62
     7
 10
99.737134999999995
 20
176.58500000000001
 30
0.0
 40
3.0923400000000001
  1
10
 41
0.5
 72
     2
 11
101.5409999999999
 21
176.58500000000001
 31
0.0
  0
LINE
  5
65
  8
0
 62
     7
 10
98.54140000000001
 20
176.46999999999991
 30
0.0
 11
96.329599999999999
 21
175.8779999999999
 31
0.0
  0
LINE
  5
66
  8
0
 62
     7
 10
96.329599999999999
 20
175.8779999999999
 30
0.0
 11
98.54140000000001
 21
175.285
 31
0.0
  0
LINE
  5
67
  8
0
 62
     7
 10
98.54140000000001
 20
175.285
 30
0.0
 11
98.54140000000001
 21
176.46999999999991
 31
0.0
  0
TEXT
  5
68
  8
0
 62
     7
 10
106.81
 20
66.809100000000001
 30
0.0
 40
3.0923400000000001
  1
10
 50
90.0
 41
0.5
  0
LINE
  5
69
  8
0
 62
     7
 10
108.096
 20
75.337100000000007
 30
0.0
 11
107.5029999999999
 21
73.125399999999999
 31
0.0
  0
LINE
  5
6A
  8
0
 62
     7
 10
107.5029999999999
 20
73.125399999999999
 30
0.0
 11
106.911
 21
75.337100000000007
 31
0.0
  0
LINE
  5
6B
  8
0
 62
     7
 10
106.911
 20
75.337100000000007
 30
0.0
 11
108.096
 21
75.337100000000007
 31
0.0
  0
LINE
  5
6C
  8
0
 62
     7
 10
106.925
 20
69.809100000000001
 30
0.0
 11
107.5179999999999
 21
72.020899999999997
 31
0.0
  0
LINE
  5
6D
  8
0
 62
     7
 10
107.5179999999999
 20
72.020899999999997
 30
0.0
 11
108.1099999999999
 21
69.809100000000001
 31
0.0
  0
LINE
  5
6E
  8
0
 62
     7
 10
108.1099999999999
 20
69.809100000000001
 30
0.0
 11
106.925
 21
69.809100000000001
 31
0.0
  0
TEXT
  5
6F
  8
0
 62
     7
 10
106.803
 20
175.68913499999999
 30
0.0
 40
3.0923400000000001
  1
10
 50
90.0
 41
0.5
 72
     2
 11
106.803
 21
177.49299999999991
 31
0.0
  0
LINE
  5
70
  8
0
 62
     7
 10
108.08799999999999
 20
168.91399999999999
 30
0.0
 11
107.496
 21
171.12599999999989
 31
0.0
  0
LINE
  5
71
  8
0
 62
     7
 10
107.496
 20
171.12599999999989
 30
0.0
 11
106.90299999999991
 21
168.91399999999999
 31
0.0
  0
LINE
  5
72
  8
0
 62
     7
 10
106.90299999999991
 20
168.91399999999999
 30
0.0
 11
108.08799999999999
 21
168.91399999999999
 31
0.0
  0
LINE
  5
73
  8
0
 62
     7
 10
106.91800000000001
 20
174.44200000000001
 30
0.0
 11
107.51000000000001
 21
172.23099999999999
 31
0.0
  0
LINE
  5
74
  8
0
 62
     7
 10
107.51000000000001
 20
172.23099999999999
 30
0.0
 11
108.10299999999989
 21
174.44200000000001
 31
0.0
  0
LINE
  5
75
  8
0
 62
     7
 10
108.10299999999989
 20
174.44200000000001
 30
0.0
 11
106.91800000000001
 21
174.44200000000001
 31
0.0
  0
TEXT
  5
76
  8
0
 62
     7
 10
46.3461
 20
252.033646
 30
0.0
 40
3.0923400000000001
  1
洗面器後端
 50
90.0
 41
0.5
 72
     1
 11
46.3461
 21
256.46599999999989
 31
0.0
  0
LINE
  5
77
  8
0
 62
     7
 10
47.195999999999998
 20
258.21299999999991
 30
0.0
 11
50.223300000000002
 21
256.46599999999989
 31
0.0
  0
LINE
  5
78
  8
0
 62
     7
 10
50.223300000000002
 20
256.46599999999989
 30
0.0
 11
47.195999999999998
 21
254.7179999999999
 31
0.0
  0
LINE
  5
79
  8
0
 62
     7
 10
47.195999999999998
 20
254.7179999999999
 30
0.0
 11
47.195999999999998
 21
258.21299999999991
 31
0.0
  0
LINE
  5
7A
  8
0
 62
     7
 10
107.496
 20
122.126
 30
0.0
 11
107.496
 21
66.809100000000001
 31
0.0
  0
TEXT
  5
7B
  8
0
 62
     7
 10
106.79600000000001
 20
120.1932875
 30
0.0
 40
3.0923400000000001
  1
980
 50
90.0
 41
0.5
 72
     1
 11
106.79600000000001
 21
122.126
 31
0.0
  0
LINE
  5
7C
  8
0
 62
     7
 10
107.496
 20
177.44200000000001
 30
0.0
 11
107.496
 21
122.126
 31
0.0
  0
TEXT
  5
7D
  8
0
 62
     7
 10
164.03899999999999
 20
239.53328749999989
 30
0.0
 40
3.0923400000000001
  1
260
 50
90.0
 41
0.5
 72
     1
 11
164.03899999999999
 21
241.46600000000001
 31
0.0
  0
LINE
  5
7E
  8
0
 62
     7
 10
165.32400000000001
 20
230.67599999999999
 30
0.0
 11
164.732
 21
228.46599999999989
 31
0.0
  0
LINE
  5
7F
  8
0
 62
     7
 10
164.732
 20
228.46599999999989
 30
0.0
 11
164.13900000000001
 21
230.67599999999999
 31
0.0
  0
LINE
  5
80
  8
0
 62
     7
 10
164.13900000000001
 20
230.67599999999999
 30
0.0
 11
165.32400000000001
 21
230.67599999999999
 31
0.0
  0
LINE
  5
81
  8
0
 62
     7
 10
164.154
 20
252.25499999999991
 30
0.0
 11
164.7459999999999
 21
254.46599999999989
 31
0.0
  0
LINE
  5
82
  8
0
 62
     7
 10
164.7459999999999
 20
254.46599999999989
 30
0.0
 11
165.339
 21
252.25499999999991
 31
0.0
  0
LINE
  5
83
  8
0
 62
     7
 10
165.339
 20
252.25499999999991
 30
0.0
 11
164.154
 21
252.25499999999991
 31
0.0
  0
LINE
  5
84
  8
0
 62
     7
 10
164.739
 20
228.46599999999989
 30
0.0
 11
164.739
 21
254.46599999999989
 31
0.0
  0
TEXT
  5
85
  8
0
 62
     7
 10
164.03899999999999
 20
120.1932875
 30
0.0
 40
3.0923400000000001
  1
630
 50
90.0
 41
0.5
 72
     1
 11
164.03899999999999
 21
122.126
 31
0.0
  0
LINE
  5
86
  8
0
 62
     7
 10
165.32400000000001
 20
151.41599999999991
 30
0.0
 11
164.73099999999999
 21
153.626
 31
0.0
  0
LINE
  5
87
  8
0
 62
     7
 10
164.73099999999999
 20
153.626
 30
0.0
 11
164.13900000000001
 21
151.41599999999991
 31
0.0
  0
LINE
  5
88
  8
0
 62
     7
 10
164.13900000000001
 20
151.41599999999991
 30
0.0
 11
165.32400000000001
 21
151.41599999999991
 31
0.0
  0
LINE
  5
89
  8
0
 62
     7
 10
164.154
 20
92.836600000000004
 30
0.0
 11
164.7459999999999
 21
90.625499999999988
 31
0.0
  0
LINE
  5
8A
  8
0
 62
     7
 10
164.7459999999999
 20
90.625499999999988
 30
0.0
 11
165.33799999999999
 21
92.836600000000004
 31
0.0
  0
LINE
  5
8B
  8
0
 62
     7
 10
165.33799999999999
 20
92.836600000000004
 30
0.0
 11
164.154
 21
92.836600000000004
 31
0.0
  0
LINE
  5
8C
  8
0
 62
     7
 10
164.739
 20
153.626
 30
0.0
 11
164.739
 21
90.625499999999988
 31
0.0
  0
LINE
  5
8D
  8
0
 62
     7
 10
158.267
 20
228.46599999999989
 30
0.0
 11
165.446
 21
228.46599999999989
 31
0.0
  0
LINE
  5
8E
  8
0
 62
     7
 10
154.38499999999991
 20
254.46599999999989
 30
0.0
 11
165.446
 21
254.46599999999989
 31
0.0
  0
LINE
  5
8F
  8
0
 62
     7
 10
149.26300000000001
 20
153.626
 30
0.0
 11
165.446
 21
153.626
 31
0.0
  0
LINE
  5
90
  8
0
 62
     7
 10
149.26300000000001
 20
90.625499999999988
 30
0.0
 11
165.446
 21
90.625499999999988
 31
0.0
  0
TEXT
  5
91
  8
0
 62
     7
 10
39.086199999999991
 20
120.1932875
 30
0.0
 40
3.0923400000000001
  1
420
 50
90.0
 41
0.5
 72
     1
 11
39.086199999999991
 21
122.126
 31
0.0
  0
LINE
  5
92
  8
0
 62
     7
 10
40.371299999999998
 20
140.91800000000001
 30
0.0
 11
39.779000000000003
 21
143.1279999999999
 31
0.0
  0
LINE
  5
93
  8
0
 62
     7
 10
39.779000000000003
 20
143.1279999999999
 30
0.0
 11
39.186500000000002
 21
140.91800000000001
 31
0.0
  0
LINE
  5
94
  8
0
 62
     7
 10
39.186500000000002
 20
140.91800000000001
 30
0.0
 11
40.371299999999998
 21
140.91800000000001
 31
0.0
  0
LINE
  5
95
  8
0
 62
     7
 10
39.201300000000003
 20
103.339
 30
0.0
 11
39.793500000000002
 21
101.1279999999999
 31
0.0
  0
LINE
  5
96
  8
0
 62
     7
 10
39.793500000000002
 20
101.1279999999999
 30
0.0
 11
40.386099999999999
 21
103.339
 31
0.0
  0
LINE
  5
97
  8
0
 62
     7
 10
40.386099999999999
 20
103.339
 30
0.0
 11
39.201300000000003
 21
103.339
 31
0.0
  0
LINE
  5
98
  8
0
 62
     7
 10
39.78629999999999
 20
143.1279999999999
 30
0.0
 11
39.78629999999999
 21
101.1279999999999
 31
0.0
  0
LINE
  5
99
  8
0
 62
     7
 10
39.093499999999992
 20
101.126
 30
0.0
 11
52.023200000000003
 21
101.126
 31
0.0
  0
LINE
  5
9A
  8
0
 62
     7
 10
39.093499999999992
 20
143.12599999999989
 30
0.0
 11
52.005600000000001
 21
143.12599999999989
 31
0.0
  0
TEXT
  5
9B
  8
0
 62
     7
 10
116.727
 20
119.9355925
 30
0.0
 40
3.0923400000000001
  1
1000
 50
90.0
 41
0.5
 72
     1
 11
116.727
 21
122.126
 31
0.0
  0
LINE
  5
9C
  8
0
 62
     7
 10
118.012
 20
169.916
 30
0.0
 11
117.42
 21
172.12599999999989
 31
0.0
  0
LINE
  5
9D
  8
0
 62
     7
 10
117.42
 20
172.12599999999989
 30
0.0
 11
116.827
 21
169.916
 31
0.0
  0
LINE
  5
9E
  8
0
 62
     7
 10
116.827
 20
169.916
 30
0.0
 11
118.012
 21
169.916
 31
0.0
  0
LINE
  5
9F
  8
0
 62
     7
 10
116.842
 20
74.336299999999994
 30
0.0
 11
117.4339999999999
 21
72.125299999999996
 31
0.0
  0
LINE
  5
A0
  8
0
 62
     7
 10
117.4339999999999
 20
72.125299999999996
 30
0.0
 11
118.0269999999999
 21
74.336299999999994
 31
0.0
  0
LINE
  5
A1
  8
0
 62
     7
 10
118.0269999999999
 20
74.336299999999994
 30
0.0
 11
116.842
 21
74.336299999999994
 31
0.0
  0
LINE
  5
A2
  8
0
 62
     7
 10
117.42700000000001
 20
172.12599999999989
 30
0.0
 11
117.42700000000001
 21
72.125299999999996
 31
0.0
  0
TEXT
  5
A3
  8
0
 62
     7
 10
94.523700000000005
 20
226.66213499999989
 30
0.0
 40
3.0923400000000001
  1
800
 50
90.0
 41
0.5
 72
     1
 11
94.523700000000005
 21
228.46599999999989
 31
0.0
  0
LINE
  5
A4
  8
0
 62
     7
 10
95.808700000000002
 20
266.25599999999991
 30
0.0
 11
95.216200000000001
 21
268.46600000000001
 31
0.0
  0
LINE
  5
A5
  8
0
 62
     7
 10
95.216200000000001
 20
268.46600000000001
 30
0.0
 11
94.623599999999996
 21
266.25599999999991
 31
0.0
  0
LINE
  5
A6
  8
0
 62
     7
 10
94.623599999999996
 20
266.25599999999991
 30
0.0
 11
95.808700000000002
 21
266.25599999999991
 31
0.0
  0
LINE
  5
A7
  8
0
 62
     7
 10
94.6387
 20
190.67599999999999
 30
0.0
 11
95.230599999999995
 21
188.465
 31
0.0
  0
LINE
  5
A8
  8
0
 62
     7
 10
95.230599999999995
 20
188.465
 30
0.0
 11
95.823200000000014
 21
190.67599999999999
 31
0.0
  0
LINE
  5
A9
  8
0
 62
     7
 10
95.823200000000014
 20
190.67599999999999
 30
0.0
 11
94.6387
 21
190.67599999999999
 31
0.0
  0
LINE
  5
AA
  8
0
 62
     7
 10
95.223699999999994
 20
268.46600000000001
 30
0.0
 11
95.223699999999994
 21
188.465
 31
0.0
  0
TEXT
  5
AB
  8
0
 62
     7
 10
65.340587500000012
 20
131.57900000000001
 30
0.0
 40
3.0923400000000001
  1
260
 41
0.5
 72
     1
 11
67.273300000000006
 21
131.57900000000001
 31
0.0
  0
LINE
  5
AC
  8
0
 62
     7
 10
74.013199999999998
 20
130.2939999999999
 30
0.0
 11
76.223600000000005
 21
130.88599999999991
 31
0.0
  0
LINE
  5
AD
  8
0
 62
     7
 10
76.223600000000005
 20
130.88599999999991
 30
0.0
 11
74.013199999999998
 21
131.47799999999989
 31
0.0
  0
LINE
  5
AE
  8
0
 62
     7
 10
74.013199999999998
 20
131.47799999999989
 30
0.0
 11
74.013199999999998
 21
130.2939999999999
 31
0.0
  0
LINE
  5
AF
  8
0
 62
     7
 10
52.218999999999987
 20
131.464
 30
0.0
 11
50.007899999999999
 21
130.87100000000001
 31
0.0
  0
LINE
  5
B0
  8
0
 62
     7
 10
50.007899999999999
 20
130.87100000000001
 30
0.0
 11
52.218999999999987
 21
130.27899999999991
 31
0.0
  0
LINE
  5
B1
  8
0
 62
     7
 10
52.218999999999987
 20
130.27899999999991
 30
0.0
 11
52.218999999999987
 21
131.464
 31
0.0
  0
LINE
  5
B2
  8
0
 62
     7
 10
76.223600000000005
 20
130.87899999999991
 30
0.0
 11
50.007899999999999
 21
130.87899999999991
 31
0.0
  0
LINE
  5
B3
  8
0
 62
     7
 10
76.223600000000005
 20
131.58600000000001
 30
0.0
 11
76.223600000000005
 21
127.82599999999999
 31
0.0
  0
TEXT
  5
B4
  8
0
 62
     7
 10
61.290687499999997
 20
241.40000000000001
 30
0.0
 40
3.0923400000000001
  1
260
 41
0.5
 72
     1
 11
63.223399999999998
 21
241.40000000000001
 31
0.0
  0
LINE
  5
B5
  8
0
 62
     7
 10
74.013199999999998
 20
240.11500000000001
 30
0.0
 11
76.223600000000005
 21
240.708
 31
0.0
  0
LINE
  5
B6
  8
0
 62
     7
 10
76.223600000000005
 20
240.708
 30
0.0
 11
74.013199999999998
 21
241.30000000000001
 31
0.0
  0
LINE
  5
B7
  8
0
 62
     7
 10
74.013199999999998
 20
241.30000000000001
 30
0.0
 11
74.013199999999998
 21
240.11500000000001
 31
0.0
  0
LINE
  5
B8
  8
0
 62
     7
 10
52.218999999999987
 20
241.285
 30
0.0
 11
50.007899999999999
 21
240.69300000000001
 31
0.0
  0
LINE
  5
B9
  8
0
 62
     7
 10
50.007899999999999
 20
240.69300000000001
 30
0.0
 11
52.218999999999987
 21
240.10099999999991
 31
0.0
  0
LINE
  5
BA
  8
0
 62
     7
 10
52.218999999999987
 20
240.10099999999991
 30
0.0
 11
52.218999999999987
 21
241.285
 31
0.0
  0
LINE
  5
BB
  8
0
 62
     7
 10
76.223600000000005
 20
240.69999999999999
 30
0.0
 11
50.007899999999999
 21
240.69999999999999
 31
0.0
  0
TEXT
  5
BC
  8
0
 62
     7
 10
77.669834999999992
 20
176.58500000000001
 30
0.0
 40
3.0923400000000001
  1
315
 41
0.5
 72
     1
 11
79.473699999999994
 21
176.58500000000001
 31
0.0
  0
LINE
  5
BD
  8
0
 62
     7
 10
93.013300000000001
 20
175.30000000000001
 30
0.0
 11
95.223699999999994
 21
175.89199999999991
 31
0.0
  0
LINE
  5
BE
  8
0
 62
     7
 10
95.223699999999994
 20
175.89199999999991
 30
0.0
 11
93.013300000000001
 21
176.48400000000001
 31
0.0
  0
LINE
  5
BF
  8
0
 62
     7
 10
93.013300000000001
 20
176.48400000000001
 30
0.0
 11
93.013300000000001
 21
175.30000000000001
 31
0.0
  0
LINE
  5
C0
  8
0
 62
     7
 10
65.9345
 20
176.46999999999991
 30
0.0
 11
63.723500000000001
 21
175.87700000000001
 31
0.0
  0
LINE
  5
C1
  8
0
 62
     7
 10
63.723500000000001
 20
175.87700000000001
 30
0.0
 11
65.9345
 21
175.285
 31
0.0
  0
LINE
  5
C2
  8
0
 62
     7
 10
65.9345
 20
175.285
 30
0.0
 11
65.9345
 21
176.46999999999991
 31
0.0
  0
LINE
  5
C3
  8
0
 62
     7
 10
101.5409999999999
 20
175.88499999999991
 30
0.0
 11
63.723500000000001
 21
175.88499999999991
 31
0.0
  0
TEXT
  5
C4
  8
0
 62
     7
 10
142.83652499999991
 20
220.601
 30
0.0
 40
3.0923400000000001
  1
85
 41
0.5
 72
     1
 11
144.12499999999989
 21
220.601
 31
0.0
  0
TEXT
  5
C5
  8
0
 62
     7
 10
141.90337249999999
 20
179.875
 30
0.0
 40
3.0923400000000001
  1
60
 41
0.5
 72
     1
 11
143.0629999999999
 21
179.875
 31
0.0
  0
LINE
  5
C6
  8
0
 62
     7
 10
143.85299999999989
 20
178.4429999999999
 30
0.0
 11
146.0629999999999
 21
179.035
 31
0.0
  0
LINE
  5
C7
  8
0
 62
     7
 10
146.0629999999999
 20
179.035
 30
0.0
 11
143.85299999999989
 21
179.6269999999999
 31
0.0
  0
LINE
  5
C8
  8
0
 62
     7
 10
143.85299999999989
 20
179.6269999999999
 30
0.0
 11
143.85299999999989
 21
178.4429999999999
 31
0.0
  0
LINE
  5
C9
  8
0
 62
     7
 10
142.274
 20
179.61999999999989
 30
0.0
 11
140.0629999999999
 21
179.02799999999991
 31
0.0
  0
LINE
  5
CA
  8
0
 62
     7
 10
140.0629999999999
 20
179.02799999999991
 30
0.0
 11
142.274
 21
178.435
 31
0.0
  0
LINE
  5
CB
  8
0
 62
     7
 10
142.274
 20
178.435
 30
0.0
 11
142.274
 21
179.61999999999989
 31
0.0
  0
LINE
  5
CC
  8
0
 62
     7
 10
146.0629999999999
 20
179.035
 30
0.0
 11
140.0629999999999
 21
179.035
 31
0.0
  0
TEXT
  5
CD
  8
0
 62
     7
 10
145.38798249999999
 20
185.517
 30
0.0
 40
3.0923400000000001
  1
140
 41
0.5
 72
     1
 11
147.0629999999999
 21
185.517
 31
0.0
  0
LINE
  5
CE
  8
0
 62
     7
 10
151.85299999999989
 20
184.23199999999991
 30
0.0
 11
154.0629999999999
 21
184.8249999999999
 31
0.0
  0
LINE
  5
CF
  8
0
 62
     7
 10
154.0629999999999
 20
184.8249999999999
 30
0.0
 11
151.85299999999989
 21
185.417
 31
0.0
  0
LINE
  5
D0
  8
0
 62
     7
 10
151.85299999999989
 20
185.417
 30
0.0
 11
151.85299999999989
 21
184.23199999999991
 31
0.0
  0
LINE
  5
D1
  8
0
 62
     7
 10
142.274
 20
185.40199999999999
 30
0.0
 11
140.0629999999999
 21
184.81
 31
0.0
  0
LINE
  5
D2
  8
0
 62
     7
 10
140.0629999999999
 20
184.81
 30
0.0
 11
142.274
 21
184.2179999999999
 31
0.0
  0
LINE
  5
D3
  8
0
 62
     7
 10
142.274
 20
184.2179999999999
 30
0.0
 11
142.274
 21
185.40199999999999
 31
0.0
  0
LINE
  5
D4
  8
0
 62
     7
 10
154.0629999999999
 20
184.81700000000001
 30
0.0
 11
140.0629999999999
 21
184.81700000000001
 31
0.0
  0
TEXT
  5
D5
  8
0
 62
     7
 10
55.169435
 20
176.58500000000001
 30
0.0
 40
3.0923400000000001
  1
135
 41
0.5
 72
     1
 11
56.973300000000002
 21
176.58500000000001
 31
0.0
  0
LINE
  5
D6
  8
0
 62
     7
 10
61.513300000000001
 20
175.30000000000001
 30
0.0
 11
63.723500000000001
 21
175.89199999999991
 31
0.0
  0
LINE
  5
D7
  8
0
 62
     7
 10
63.723500000000001
 20
175.89199999999991
 30
0.0
 11
61.513300000000001
 21
176.48400000000001
 31
0.0
  0
LINE
  5
D8
  8
0
 62
     7
 10
61.513300000000001
 20
176.48400000000001
 30
0.0
 11
61.513300000000001
 21
175.30000000000001
 31
0.0
  0
LINE
  5
D9
  8
0
 62
     7
 10
52.4343
 20
176.46999999999991
 30
0.0
 11
50.223300000000002
 21
175.87700000000001
 31
0.0
  0
LINE
  5
DA
  8
0
 62
     7
 10
50.223300000000002
 20
175.87700000000001
 30
0.0
 11
52.4343
 21
175.285
 31
0.0
  0
LINE
  5
DB
  8
0
 62
     7
 10
52.4343
 20
175.285
 30
0.0
 11
52.4343
 21
176.46999999999991
 31
0.0
  0
LINE
  5
DC
  8
0
 62
     7
 10
63.723500000000001
 20
175.88499999999991
 30
0.0
 11
50.223300000000002
 21
175.88499999999991
 31
0.0
  0
TEXT
  5
DD
  8
0
 62
     7
 10
71.290487500000012
 20
181.31700000000001
 30
0.0
 40
3.0923400000000001
  1
460
 41
0.5
 72
     1
 11
73.223200000000006
 21
181.31700000000001
 31
0.0
  0
LINE
  5
DE
  8
0
 62
     7
 10
94.013099999999994
 20
180.03200000000001
 30
0.0
 11
96.223500000000001
 21
180.624
 31
0.0
  0
LINE
  5
DF
  8
0
 62
     7
 10
96.223500000000001
 20
180.624
 30
0.0
 11
94.013099999999994
 21
181.21700000000001
 31
0.0
  0
LINE
  5
E0
  8
0
 62
     7
 10
94.013099999999994
 20
181.21700000000001
 30
0.0
 11
94.013099999999994
 21
180.03200000000001
 31
0.0
  0
LINE
  5
E1
  8
0
 62
     7
 10
52.4343
 20
181.202
 30
0.0
 11
50.223300000000002
 21
180.61000000000001
 31
0.0
  0
LINE
  5
E2
  8
0
 62
     7
 10
50.223300000000002
 20
180.61000000000001
 30
0.0
 11
52.4343
 21
180.01699999999991
 31
0.0
  0
LINE
  5
E3
  8
0
 62
     7
 10
52.4343
 20
180.01699999999991
 30
0.0
 11
52.4343
 21
181.202
 31
0.0
  0
LINE
  5
E4
  8
0
 62
     7
 10
96.223500000000001
 20
180.61699999999999
 30
0.0
 11
50.223300000000002
 21
180.61699999999999
 31
0.0
  0
LINE
  5
E5
  8
0
 62
     7
 10
96.223500000000001
 20
181.31
 30
0.0
 11
96.223500000000001
 21
172.38599999999991
 31
0.0
  0
LINE
  5
E6
  8
0
 62
     7
 10
146.0629999999999
 20
179.73500000000001
 30
0.0
 11
146.0629999999999
 21
157.32599999999991
 31
0.0
  0
LINE
  5
E7
  8
0
 62
     7
 10
154.0629999999999
 20
185.50999999999999
 30
0.0
 11
154.0629999999999
 21
172.73599999999999
 31
0.0
  0
LINE
  5
E8
  8
0
 62
     7
 10
140.0629999999999
 20
185.50999999999999
 30
0.0
 11
140.0629999999999
 21
172.73599999999999
 31
0.0
  0
LINE
  5
E9
  8
0
 62
     7
 10
95.223699999999994
 20
176.577
 30
0.0
 11
95.223699999999994
 21
171.82599999999991
 31
0.0
  0
LINE
  5
EA
  8
0
 62
     7
 10
63.723500000000001
 20
176.577
 30
0.0
 11
63.723500000000001
 21
171.82599999999991
 31
0.0
  0
LINE
  5
EB
  8
0
 62
     7
 10
50.223300000000002
 20
181.31
 30
0.0
 11
50.223300000000002
 21
172.38599999999991
 31
0.0
  0
TEXT
  5
EC
  8
0
 62
     7
 10
65.791087500000003
 20
275.88400000000001
 30
0.0
 40
3.0923400000000001
  1
340
 41
0.5
 72
     1
 11
67.723799999999997
 21
275.88400000000001
 31
0.0
  0
LINE
  5
ED
  8
0
 62
     7
 10
82.013099999999994
 20
274.59899999999988
 30
0.0
 11
84.223499999999987
 21
275.19099999999992
 31
0.0
  0
LINE
  5
EE
  8
0
 62
     7
 10
84.223499999999987
 20
275.19099999999992
 30
0.0
 11
82.013099999999994
 21
275.78399999999988
 31
0.0
  0
LINE
  5
EF
  8
0
 62
     7
 10
82.013099999999994
 20
275.78399999999988
 30
0.0
 11
82.013099999999994
 21
274.59899999999988
 31
0.0
  0
LINE
  5
F0
  8
0
 62
     7
 10
52.4343
 20
275.76900000000001
 30
0.0
 11
50.223300000000002
 21
275.17700000000002
 31
0.0
  0
LINE
  5
F1
  8
0
 62
     7
 10
50.223300000000002
 20
275.17700000000002
 30
0.0
 11
52.4343
 21
274.584
 31
0.0
  0
LINE
  5
F2
  8
0
 62
     7
 10
52.4343
 20
274.584
 30
0.0
 11
52.4343
 21
275.76900000000001
 31
0.0
  0
LINE
  5
F3
  8
0
 62
     7
 10
84.223499999999987
 20
275.18400000000003
 30
0.0
 11
50.223300000000002
 21
275.18400000000003
 31
0.0
  0
LINE
  5
F4
  8
0
 62
     7
 10
95.484200000000001
 20
73.125399999999999
 30
0.0
 11
108.18899999999999
 21
73.125399999999999
 31
0.0
  0
LINE
  5
F5
  8
0
 62
     7
 10
96.483300000000014
 20
72.125299999999996
 30
0.0
 11
118.13799999999991
 21
72.125299999999996
 31
0.0
  0
LINE
  5
F6
  8
0
 62
     7
 10
95.484200000000001
 20
171.12599999999989
 30
0.0
 11
108.18899999999999
 21
171.12599999999989
 31
0.0
  0
LINE
  5
F7
  8
0
 62
     7
 10
96.483300000000014
 20
172.12599999999989
 30
0.0
 11
118.12
 21
172.12599999999989
 31
0.0
  0
LINE
  5
F8
  8
0
 62
     7
 10
84.643799999999999
 20
188.465
 30
0.0
 11
95.934100000000001
 21
188.465
 31
0.0
  0
LINE
  5
F9
  8
0
 62
     7
 10
76.223600000000005
 20
241.4079999999999
 30
0.0
 11
76.223600000000005
 21
234.416
 31
0.0
  0
LINE
  5
FA
  8
0
 62
     7
 10
84.223499999999987
 20
275.87700000000001
 30
0.0
 11
84.223499999999987
 21
268.88599999999991
 31
0.0
  0
LINE
  5
FB
  8
0
 62
     7
 10
50.223300000000002
 20
275.87700000000001
 30
0.0
 11
50.223300000000002
 21
273.685
 31
0.0
  0
LINE
  5
FC
  8
0
 62
     7
 10
84.643799999999999
 20
268.46600000000001
 30
0.0
 11
95.916200000000003
 21
268.46600000000001
 31
0.0
  0
LINE
  5
FD
  8
0
 62
     7
 10
146.41499999999991
 20
219.31599999999989
 30
0.0
 11
148.375
 21
219.90899999999999
 31
0.0
  0
LINE
  5
FE
  8
0
 62
     7
 10
148.375
 20
219.90899999999999
 30
0.0
 11
146.41499999999991
 21
220.50099999999989
 31
0.0
  0
LINE
  5
FF
  8
0
 62
     7
 10
146.41499999999991
 20
220.50099999999989
 30
0.0
 11
146.41499999999991
 21
219.31599999999989
 31
0.0
  0
LINE
  5
100
  8
0
 62
     7
 10
142.274
 20
220.48599999999999
 30
0.0
 11
140.0629999999999
 21
219.89399999999989
 31
0.0
  0
LINE
  5
101
  8
0
 62
     7
 10
140.0629999999999
 20
219.89399999999989
 30
0.0
 11
142.274
 21
219.30199999999999
 31
0.0
  0
LINE
  5
102
  8
0
 62
     7
 10
142.274
 20
219.30199999999999
 30
0.0
 11
142.274
 21
220.48599999999999
 31
0.0
  0
LINE
  5
103
  8
0
 62
     7
 10
148.375
 20
219.9009999999999
 30
0.0
 11
140.0629999999999
 21
219.9009999999999
 31
0.0
  0
TEXT
  5
104
  8
0
 62
     7
 10
104.259
 20
220.21975999999989
 30
0.0
 40
3.0923400000000001
  1
カウンター切込寸法
 50
90.0
 41
0.5
 72
     1
 11
104.259
 21
228.46599999999989
 31
0.0
  0
ARC
  5
105
  8
0
 62
     7
 10
83.185286000000005
 20
267.42775199999988
 30
0.0
 40
1.0388889999999991
 50
2.109067
 51
87.881051999999997
  0
LINE
  5
106
  8
0
 62
     7
 10
50.223300000000002
 20
272.84500000000003
 30
0.0
 11
50.223300000000002
 21
268.46600000000001
 31
0.0
  0
LINE
  5
107
  8
0
 62
     7
 10
84.223499999999987
 20
267.46600000000001
 30
0.0
 11
84.223499999999987
 21
228.46599999999989
 31
0.0
  0
LINE
  5
108
  8
0
 62
     7
 10
50.223300000000002
 20
268.46600000000001
 30
0.0
 11
83.223399999999998
 21
268.46600000000001
 31
0.0
  0
ARC
  5
109
  8
0
 62
     7
 10
83.184782999999996
 20
189.50380200000001
 30
0.0
 40
1.03939
 50
272.14568199999991
 51
357.89380099999988
  0
LINE
  5
10A
  8
0
  6
AIGENLINE003
 62
     7
 10
50.223300000000002
 20
188.465
 30
0.0
 11
50.223300000000002
 21
268.46600000000001
 31
0.0
  0
LINE
  5
10B
  8
0
 62
     7
 10
50.223300000000002
 20
184.08699999999999
 30
0.0
 11
50.223300000000002
 21
188.465
 31
0.0
  0
LINE
  5
10C
  8
0
  6
AIGENLINE001
 62
     7
 10
76.223600000000005
 20
233.71599999999989
 30
0.0
 11
76.223600000000005
 21
223.215
 31
0.0
  0
LINE
  5
10D
  8
0
  6
AIGENLINE001
 62
     7
 10
47.668500000000002
 20
228.46599999999989
 30
0.0
 11
86.588200000000001
 21
228.46599999999989
 31
0.0
  0
LINE
  5
10E
  8
0
 62
     7
 10
84.223499999999987
 20
189.465
 30
0.0
 11
84.223499999999987
 21
228.46599999999989
 31
0.0
  0
LINE
  5
10F
  8
0
 62
     7
 10
50.223300000000002
 20
188.465
 30
0.0
 11
83.223399999999998
 21
188.465
 31
0.0
  0
ARC
  5
110
  8
0
  6
AIGENLINE002
 62
     7
 10
76.223478
 20
228.465621
 30
0.0
 40
2.2500930000000001
 50
89.997806999999995
 51
179.99777700000001
  0
ARC
  5
111
  8
0
  6
AIGENLINE002
 62
     7
 10
76.30953199999999
 20
228.55185399999991
 30
0.0
 40
2.3377340000000002
 50
182.11188200000001
 51
267.89253400000001
  0
ARC
  5
112
  8
0
  6
AIGENLINE002
 62
     7
 10
76.136630000000011
 20
228.5524629999999
 30
0.0
 40
2.3383780000000001
 50
272.13059700000002
 51
357.87380000000002
  0
ARC
  5
113
  8
0
  6
AIGENLINE002
 62
     7
 10
76.223477000000003
 20
228.46579299999999
 30
0.0
 40
2.249919999999999
 50
359.99781699999988
 51
89.997787000000002
  0
ARC
  5
114
  8
0
  6
AIGENLINE002
 62
     7
 10
76.223651000000004
 20
228.46579299999999
 30
0.0
 40
3.4999809999999991
 50
90.001410000000007
 51
180.00141999999991
  0
ARC
  5
115
  8
0
  6
AIGENLINE002
 62
     7
 10
76.223650000000006
 20
228.465621
 30
0.0
 40
3.4999799999999999
 50
179.99856
 51
269.99860999999993
  0
ARC
  5
116
  8
0
  6
AIGENLINE002
 62
     7
 10
76.223477000000003
 20
228.465622
 30
0.0
 40
3.4999809999999991
 50
270.00142999999991
 51
0.0014
  0
ARC
  5
117
  8
0
  6
AIGENLINE002
 62
     7
 10
76.223477000000003
 20
228.46579299999999
 30
0.0
 40
3.4999809999999991
 50
359.99860000000001
 51
89.998570000000001
  0
LINE
  5
118
  8
0
  6
AIGENLINE001
 62
     7
 10
146.0629999999999
 20
156.62599999999989
 30
0.0
 11
146.0629999999999
 21
150.626
 31
0.0
  0
LINE
  5
119
  8
0
  6
AIGENLINE001
 62
     7
 10
148.56299999999999
 20
153.626
 30
0.0
 11
143.5629999999999
 21
153.626
 31
0.0
  0
LINE
  5
11A
  8
0
  6
AIGENLINE002
 62
     7
 10
144.61299999999989
 20
153.14899999999989
 30
0.0
 11
144.61299999999989
 21
154.1039999999999
 31
0.0
  0
ARC
  5
11B
  8
0
  6
AIGENLINE002
 62
     7
 10
146.14011899999991
 20
154.04975499999989
 30
0.0
 40
1.528159
 50
92.880443000000014
 51
177.957131
  0
ARC
  5
11C
  8
0
  6
AIGENLINE002
 62
     7
 10
146.14093600000001
 20
153.20347599999991
 30
0.0
 40
1.528991999999999
 50
182.05854699999989
 51
267.09047099999992
  0
ARC
  5
11D
  8
0
  6
AIGENLINE002
 62
     7
 10
145.9865439999999
 20
153.2016129999999
 30
0.0
 40
1.527088999999999
 50
272.88205599999992
 51
357.98298299999988
  0
ARC
  5
11E
  8
0
  6
AIGENLINE002
 62
     7
 10
145.98505299999991
 20
154.0493699999999
 30
0.0
 40
1.5286179999999989
 50
2.056668999999999
 51
87.064880000000002
  0
LINE
  5
11F
  8
0
  6
AIGENLINE002
 62
     7
 10
147.51300000000001
 20
154.1039999999999
 30
0.0
 11
147.51300000000001
 21
153.14799999999991
 31
0.0
  0
LINE
  5
120
  8
0
  6
AIGENLINE001
 62
     7
 10
146.0629999999999
 20
93.625900000000001
 30
0.0
 11
146.0629999999999
 21
87.625500000000002
 31
0.0
  0
LINE
  5
121
  8
0
  6
AIGENLINE001
 62
     7
 10
148.56299999999999
 20
90.625499999999988
 30
0.0
 11
143.5629999999999
 21
90.625499999999988
 31
0.0
  0
LINE
  5
122
  8
0
  6
AIGENLINE002
 62
     7
 10
144.61299999999989
 20
90.147999999999996
 30
0.0
 11
144.61299999999989
 21
91.104099999999988
 31
0.0
  0
ARC
  5
123
  8
0
  6
AIGENLINE002
 62
     7
 10
146.14009499999989
 20
91.049250999999998
 30
0.0
 40
1.528146999999999
 50
92.879559999999984
 51
177.94460100000001
  0
ARC
  5
124
  8
0
  6
AIGENLINE002
 62
     7
 10
146.14093099999999
 20
90.202956
 30
0.0
 40
1.5289859999999991
 50
182.05836500000001
 51
267.09065299999992
  0
ARC
  5
125
  8
0
  6
AIGENLINE002
 62
     7
 10
145.985716
 20
90.201901000000007
 30
0.0
 40
1.5279329999999991
 50
272.9115569999999
 51
357.96689500000002
  0
ARC
  5
126
  8
0
  6
AIGENLINE002
 62
     7
 10
145.98539700000001
 20
91.049181000000004
 30
0.0
 40
1.5282759999999991
 50
2.0578379999999998
 51
87.077123
  0
LINE
  5
127
  8
0
  6
AIGENLINE002
 62
     7
 10
147.51300000000001
 20
91.104099999999988
 30
0.0
 11
147.51300000000001
 21
90.1477
 31
0.0
  0
LINE
  5
128
  8
0
 62
     7
 10
153.125
 20
208.46599999999989
 30
0.0
 11
140.625
 21
208.46599999999989
 31
0.0
  0
LINE
  5
129
  8
0
 62
     7
 10
153.875
 20
209.21599999999989
 30
0.0
 11
153.875
 21
213.71999999999991
 31
0.0
  0
ARC
  5
12A
  8
0
 62
     7
 10
140.6538679999999
 20
209.24458899999999
 30
0.0
 40
0.779533
 50
182.106009
 51
267.86770799999988
  0
LINE
  5
12B
  8
0
 62
     7
 10
139.87499999999989
 20
209.21599999999989
 30
0.0
 11
139.87499999999989
 21
209.46599999999989
 31
0.0
  0
ARC
  5
12C
  8
0
  6
AIGENLINE002
 62
     7
 10
140.3940629999999
 20
208.946684
 30
0.0
 40
0.5195610000000001
 50
92.130477999999997
 51
177.86949300000001
  0
LINE
  5
12D
  8
0
  6
AIGENLINE002
 62
     7
 10
140.375
 20
209.46599999999989
 30
0.0
 11
147.87499999999989
 21
209.46599999999989
 31
0.0
  0
ARC
  5
12E
  8
0
  6
AIGENLINE002
 62
     7
 10
147.85578699999999
 20
209.98511199999999
 30
0.0
 40
0.519573
 50
272.09366099999988
 51
357.86687599999988
  0
LINE
  5
12F
  8
0
  6
AIGENLINE002
 62
     7
 10
148.375
 20
223.96599999999989
 30
0.0
 11
148.375
 21
209.96599999999989
 31
0.0
  0
ARC
  5
130
  8
0
  6
AIGENLINE002
 62
     7
 10
149.41375099999991
 20
223.92690200000001
 30
0.0
 40
1.0394699999999999
 50
92.149011000000002
 51
177.870699
  0
LINE
  5
131
  8
0
  6
AIGENLINE002
 62
     7
 10
153.875
 20
224.96599999999989
 30
0.0
 11
149.375
 21
224.96599999999989
 31
0.0
  0
ARC
  5
132
  8
0
  6
AIGENLINE002
 62
     7
 10
149.4134159999999
 20
233.00417799999991
 30
0.0
 40
1.039121999999999
 50
182.11152200000001
 51
267.86876799999987
  0
LINE
  5
133
  8
0
  6
AIGENLINE002
 62
     7
 10
149.375
 20
231.96599999999989
 30
0.0
 11
153.875
 21
231.96599999999989
 31
0.0
  0
LINE
  5
134
  8
0
  6
AIGENLINE002
 62
     7
 10
148.375
 20
236.69399999999999
 30
0.0
 11
148.375
 21
232.96600000000001
 31
0.0
  0
LINE
  5
135
  8
0
 62
     7
 10
140.625
 20
254.46599999999989
 30
0.0
 11
153.125
 21
254.46599999999989
 31
0.0
  0
ARC
  5
136
  8
0
 62
     7
 10
140.65384399999999
 20
253.68702500000001
 30
0.0
 40
0.779521
 50
92.130552000000009
 51
177.86941899999991
  0
LINE
  5
137
  8
0
 62
     7
 10
139.87499999999989
 20
253.46599999999989
 30
0.0
 11
139.87499999999989
 21
253.71599999999989
 31
0.0
  0
ARC
  5
138
  8
0
  6
AIGENLINE002
 62
     7
 10
140.39407700000001
 20
253.484861
 30
0.0
 40
0.519562
 50
182.09256099999999
 51
267.86799500000001
  0
ARC
  5
139
  8
0
  6
AIGENLINE002
 62
     7
 10
140.3554419999999
 20
252.44610800000001
 30
0.0
 40
0.5199090000000001
 50
2.1675490000000002
 51
87.871915000000001
  0
LINE
  5
13A
  8
0
  6
AIGENLINE002
 62
     7
 10
140.87499999999989
 20
252.46599999999989
 30
0.0
 11
140.87499999999989
 21
249.76599999999991
 31
0.0
  0
LINE
  5
13B
  8
0
  6
AIGENLINE002
 62
     7
 10
140.87499999999989
 20
244.666
 30
0.0
 11
140.87499999999989
 21
241.46600000000001
 31
0.0
  0
ARC
  5
13C
  8
0
  6
AIGENLINE002
 62
     7
 10
141.39355399999991
 20
241.48467899999989
 30
0.0
 40
0.518898
 50
182.02165600000001
 51
267.859872
  0
LINE
  5
13D
  8
0
  6
AIGENLINE002
 62
     7
 10
147.87499999999989
 20
240.96599999999989
 30
0.0
 11
141.37399999999991
 21
240.96599999999989
 31
0.0
  0
ARC
  5
13E
  8
0
  6
AIGENLINE002
 62
     7
 10
147.85546199999999
 20
240.44659300000001
 30
0.0
 40
0.5199090000000001
 50
2.1675490000000002
 51
87.871915000000001
  0
LINE
  5
13F
  8
0
  6
AIGENLINE002
 62
     7
 10
148.375
 20
240.46599999999989
 30
0.0
 11
148.375
 21
236.69399999999999
 31
0.0
  0
LINE
  5
140
  8
0
 62
     7
 10
153.875
 20
213.71999999999991
 30
0.0
 11
153.875
 21
253.71599999999989
 31
0.0
  0
LINE
  5
141
  8
0
 62
     7
 10
139.87499999999989
 20
253.46599999999989
 30
0.0
 11
139.87499999999989
 21
210.46599999999989
 31
0.0
  0
LINE
  5
142
  8
0
 62
     7
 10
139.87499999999989
 20
209.46599999999989
 30
0.0
 11
139.87499999999989
 21
210.46599999999989
 31
0.0
  0
LINE
  5
143
  8
0
  6
AIGENLINE002
 62
     7
 10
148.375
 20
232.96600000000001
 30
0.0
 11
148.375
 21
223.96599999999989
 31
0.0
  0
LINE
  5
144
  8
0
  6
AIGENLINE002
 62
     7
 10
149.375
 20
224.96599999999989
 30
0.0
 11
149.375
 21
231.96599999999989
 31
0.0
  0
LINE
  5
145
  8
0
  6
AIGENLINE002
 62
     7
 10
140.87499999999989
 20
249.76599999999991
 30
0.0
 11
140.87499999999989
 21
244.666
 31
0.0
  0
ARC
  5
146
  8
0
 62
     7
 10
153.09545399999999
 20
209.24491399999991
 30
0.0
 40
0.7798689999999999
 50
272.1552759999999
 51
357.87104699999998
  0
ARC
  5
147
  8
0
 62
     7
 10
153.09581299999991
 20
253.68703599999989
 30
0.0
 40
0.7795100000000002
 50
2.1298330000000001
 51
87.870156999999992
  0
ARC
  5
148
  8
0
 62
     7
 10
140.84194099999999
 20
72.904560000000004
 30
0.0
 40
0.779859
 50
182.12824499999991
 51
267.84547199999997
  0
ARC
  5
149
  8
0
 62
     7
 10
140.84160600000001
 20
171.347354
 30
0.0
 40
0.779511
 50
92.130836000000002
 51
177.8954469999999
  0
LINE
  5
14A
  8
0
 62
     7
 10
140.8129999999999
 20
172.12599999999989
 30
0.0
 11
153.3129999999999
 21
172.12599999999989
 31
0.0
  0
LINE
  5
14B
  8
0
 62
     7
 10
140.0629999999999
 20
171.12599999999989
 30
0.0
 11
140.0629999999999
 21
171.37599999999989
 31
0.0
  0
LINE
  5
14C
  8
0
 62
     7
 10
140.0629999999999
 20
72.875600000000006
 30
0.0
 11
140.0629999999999
 21
73.125399999999999
 31
0.0
  0
LINE
  5
14D
  8
0
 62
     7
 10
140.0629999999999
 20
73.125399999999999
 30
0.0
 11
140.0629999999999
 21
171.12599999999989
 31
0.0
  0
ARC
  5
14E
  8
0
 62
     7
 10
153.28321199999999
 20
171.34700900000001
 30
0.0
 40
0.7798689999999999
 50
2.1289530000000001
 51
87.844723999999999
  0
ARC
  5
14F
  8
0
 62
     7
 10
153.283939
 20
72.903843999999992
 30
0.0
 40
0.7791160000000001
 50
272.10387900000001
 51
357.92244299999999
  0
LINE
  5
150
  8
0
 62
     7
 10
153.3129999999999
 20
72.125299999999996
 30
0.0
 11
140.8129999999999
 21
72.125299999999996
 31
0.0
  0
LINE
  5
151
  8
0
 62
     7
 10
154.0629999999999
 20
171.37599999999989
 30
0.0
 11
154.0629999999999
 21
171.12599999999989
 31
0.0
  0
LINE
  5
152
  8
0
 62
     7
 10
154.0629999999999
 20
171.12599999999989
 30
0.0
 11
154.0629999999999
 21
73.125399999999999
 31
0.0
  0
LINE
  5
153
  8
0
 62
     7
 10
154.0629999999999
 20
73.125399999999999
 30
0.0
 11
154.0629999999999
 21
72.875600000000006
 31
0.0
  0
LINE
  5
154
  8
0
 62
     7
 10
95.222999999999985
 20
72.125299999999996
 30
0.0
 11
51.223399999999998
 21
72.125299999999996
 31
0.0
  0
ARC
  5
155
  8
0
 62
     7
 10
95.223212999999987
 20
73.12554200000001
 30
0.0
 40
1.000289999999999
 50
269.99015299999991
 51
359.99012299999993
  0
ARC
  5
156
  8
0
 62
     7
 10
51.261628999999999
 20
73.163618
 30
0.0
 40
1.039069
 50
182.10952
 51
267.89050900000001
  0
LINE
  5
157
  8
0
 62
     7
 10
96.223500000000001
 20
171.12599999999989
 30
0.0
 11
96.223500000000001
 21
73.125399999999999
 31
0.0
  0
LINE
  5
158
  8
0
 62
     7
 10
63.723500000000001
 20
73.125399999999999
 30
0.0
 11
63.723500000000001
 21
171.12599999999989
 31
0.0
  0
LINE
  5
159
  8
0
 62
     7
 10
50.223300000000002
 20
73.125399999999999
 30
0.0
 11
50.223300000000002
 21
171.12599999999989
 31
0.0
  0
ARC
  5
15A
  8
0
 62
     7
 10
95.223212999999987
 20
171.126037
 30
0.0
 40
1.000289999999999
 50
0.009877
 51
90.009846999999993
  0
ARC
  5
15B
  8
0
 62
     7
 10
51.262015999999988
 20
171.0875739999999
 30
0.0
 40
1.0394709999999989
 50
92.130042000000003
 51
177.86992799999999
  0
LINE
  5
15C
  8
0
 62
     7
 10
51.223399999999998
 20
172.12599999999989
 30
0.0
 11
95.222999999999985
 21
172.12599999999989
 31
0.0
  0
ARC
  5
15D
  8
0
 62
     7
 10
56.723253
 20
143.12593200000001
 30
0.0
 40
1.7502059999999999
 50
0.002829
 51
90.002800000000008
  0
ARC
  5
15E
  8
0
 62
     7
 10
56.723339000000003
 20
143.12619100000001
 30
0.0
 40
1.7499480000000001
 50
90.005639999999985
 51
180.00565
  0
ARC
  5
15F
  8
0
 62
     7
 10
56.790722000000002
 20
143.193217
 30
0.0
 40
1.8185729999999991
 50
182.11762999999991
 51
267.87112000000002
  0
ARC
  5
160
  8
0
 62
     7
 10
56.656345999999999
 20
143.19301899999991
 30
0.0
 40
1.818347999999999
 50
272.10600599999992
 51
357.88836400000002
  0
LINE
  5
161
  8
0
  6
AIGENLINE001
 62
     7
 10
56.723199999999999
 20
147.126
 30
0.0
 11
56.723199999999999
 21
139.126
 31
0.0
  0
LINE
  5
162
  8
0
  6
AIGENLINE001
 62
     7
 10
60.72359999999999
 20
143.12599999999989
 30
0.0
 11
52.723199999999999
 21
143.12599999999989
 31
0.0
  0
ARC
  5
163
  8
0
 62
     7
 10
56.72308000000001
 20
101.125646
 30
0.0
 40
1.7503779999999991
 50
359.99719099999987
 51
89.997161000000006
  0
ARC
  5
164
  8
0
 62
     7
 10
56.723511999999999
 20
101.125905
 30
0.0
 40
1.7501199999999999
 50
90.011279000000016
 51
180.01128899999989
  0
ARC
  5
165
  8
0
 62
     7
 10
56.723166000000013
 20
101.12555999999989
 30
0.0
 40
1.7497750000000001
 50
179.99996999999991
 51
270.00002000000001
  0
ARC
  5
166
  8
0
 62
     7
 10
56.723424999999999
 20
101.12581899999989
 30
0.0
 40
1.7500340000000001
 50
269.99155999999999
 51
359.99153100000001
  0
ARC
  5
167
  8
0
 62
     7
 10
76.223477000000003
 20
122.125703
 30
0.0
 40
2.249919999999999
 50
359.99781699999988
 51
89.997787000000002
  0
ARC
  5
168
  8
0
 62
     7
 10
76.223478
 20
122.125531
 30
0.0
 40
2.2500930000000001
 50
89.997806999999995
 51
179.99777700000001
  0
ARC
  5
169
  8
0
 62
     7
 10
76.309551999999996
 20
122.21178399999999
 30
0.0
 40
2.337755
 50
182.1123539999999
 51
267.89206200000001
  0
ARC
  5
16A
  8
0
 62
     7
 10
76.137414000000007
 20
122.2115889999999
 30
0.0
 40
2.3375650000000001
 50
272.1121
 51
357.89229599999987
  0
ARC
  5
16B
  8
0
 62
     7
 10
76.223391000000007
 20
122.1257889999999
 30
0.0
 40
3.500067
 50
359.99718999999988
 51
89.997159999999994
  0
ARC
  5
16C
  8
0
 62
     7
 10
76.223737
 20
122.1257889999999
 30
0.0
 40
3.500067
 50
90.002820000000014
 51
180.00282999999999
  0
ARC
  5
16D
  8
0
 62
     7
 10
76.223562999999984
 20
122.12561699999991
 30
0.0
 40
3.4998939999999998
 50
179.99996999999991
 51
270.00002000000001
  0
ARC
  5
16E
  8
0
 62
     7
 10
76.223562999999984
 20
122.1256179999999
 30
0.0
 40
3.4998949999999991
 50
270.00002000000001
 51
359.99998999999991
  0
ARC
  5
16F
  8
0
 62
     7
 10
94.184978000000001
 20
170.08747099999991
 30
0.0
 40
1.0394699999999999
 50
2.1292810000000002
 51
87.850968999999992
  0
LINE
  5
170
  8
0
 62
     7
 10
95.223699999999994
 20
170.12599999999989
 30
0.0
 11
95.223699999999994
 21
74.125500000000002
 31
0.0
  0
ARC
  5
171
  8
0
 62
     7
 10
94.185694999999996
 20
74.163392000000002
 30
0.0
 40
1.0387269999999991
 50
272.11100099999987
 51
357.908749
  0
LINE
  5
172
  8
0
 62
     7
 10
94.22399999999999
 20
73.125399999999999
 30
0.0
 11
51.223399999999998
 21
73.125399999999999
 31
0.0
  0
LINE
  5
173
  8
0
 62
     7
 10
51.223399999999998
 20
171.12599999999989
 30
0.0
 11
94.22399999999999
 21
171.12599999999989
 31
0.0
  0
LINE
  5
174
  8
0
 62
     7
 10
51.223399999999998
 20
73.125399999999999
 30
0.0
 11
51.223399999999998
 21
171.12599999999989
 31
0.0
  0
LINE
  5
175
  8
0
  6
AIGENLINE001
 62
     7
 10
56.723199999999999
 20
105.126
 30
0.0
 11
56.723199999999999
 21
97.125399999999999
 31
0.0
  0
LINE
  5
176
  8
0
  6
AIGENLINE001
 62
     7
 10
60.72359999999999
 20
101.126
 30
0.0
 11
52.723199999999999
 21
101.126
 31
0.0
  0
LINE
  5
177
  8
0
  6
AIGENLINE001
 62
     7
 10
76.223600000000005
 20
127.126
 30
0.0
 11
76.223600000000005
 21
117.12599999999991
 31
0.0
  0
LINE
  5
178
  8
0
  6
AIGENLINE001
 62
     7
 10
52.923400000000001
 20
153.626
 30
0.0
 11
47.92329999999999
 21
153.626
 31
0.0
  0
LINE
  5
179
  8
0
  6
AIGENLINE001
 62
     7
 10
52.923400000000001
 20
90.625499999999988
 30
0.0
 11
47.92329999999999
 21
90.625499999999988
 31
0.0
  0
LINE
  5
17A
  8
0
  6
AIGENLINE001
 62
     7
 10
156.98799999999989
 20
122.126
 30
0.0
 11
137.363
 21
122.126
 31
0.0
  0
LINE
  5
17B
  8
0
  6
AIGENLINE001
 62
     7
 10
98.417400000000015
 20
122.126
 30
0.0
 11
47.3035
 21
122.126
 31
0.0
  0
LINE
  5
17C
  8
0
  6
AIGENLINE001
 62
     7
 10
143.375
 20
243.46600000000001
 30
0.0
 11
143.375
 21
238.46599999999989
 31
0.0
  0
LINE
  5
17D
  8
0
  6
AIGENLINE001
 62
     7
 10
137.87499999999989
 20
247.96599999999989
 30
0.0
 11
142.87499999999989
 21
247.96599999999989
 31
0.0
  0
LINE
  5
17E
  8
0
  6
AIGENLINE001
 62
     7
 10
137.06599999999989
 20
228.46599999999989
 30
0.0
 11
157.91699999999989
 21
228.46599999999989
 31
0.0
  0
TEXT
  5
17F
  8
_________2
 62
     7
 10
26.512799999999991
 20
61.073700000000002
 30
0.0
 40
3.9357000000000002
  1
※壁取付部には厚さ30mm以上の補強木を入れてください。
 41
0.5
  0
TEXT
  5
180
  8
_________2
 62
     7
 10
140.76957499999989
 20
30.451399999999989
 30
0.0
 40
3.9357000000000002
  1
SB803110G
 41
0.5
 72
     1
 11
148.3129999999999
 21
30.451399999999989
 31
0.0
  0
TEXT
  5
181
  8
_________2
 62
     7
 10
140.76957499999989
 20
20.450600000000001
 30
0.0
 40
3.9357000000000002
  1
SB803110G
 41
0.5
 72
     1
 11
148.3129999999999
 21
20.450600000000001
 31
0.0
  0
TEXT
  5
182
  8
_________2
 62
     7
 10
29.3491
 20
22.050799999999999
 30
0.0
 40
3.9357000000000002
  1
実容量：10L、重量：28kg、オーバーフロー付
 41
0.5
  0
LINE
  5
183
  8
_________2
 62
     7
 10
210.06399999999999
 20
148.75499999999991
 30
0.0
 11
188.3129999999999
 21
148.75499999999991
 31
0.0
  0
LINE
  5
184
  8
_________2
 62
     7
 10
105.062
 20
17.252099999999992
 30
0.0
 11
105.062
 21
0.272164
 31
0.0
  0
LINE
  5
185
  8
_________2
 62
     7
 10
105.062
 20
297.27399999999989
 30
0.0
 11
105.062
 21
280.25400000000002
 31
0.0
  0
LINE
  5
186
  8
_________2
 62
     7
 10
21.811900000000001
 20
148.75499999999991
 30
0.0
 11
0.0614953
 21
148.75499999999991
 31
0.0
  0
LINE
  5
187
  8
_________2
 62
     7
 10
81.503200000000007
 20
51.1479
 30
0.0
 11
79.316900000000004
 21
51.1479
 31
0.0
  0
LINE
  5
188
  8
_________2
 62
     7
 10
81.995900000000006
 20
51.1479
 30
0.0
 11
81.743700000000004
 21
51.1479
 31
0.0
  0
LINE
  5
189
  8
_________2
 62
     7
 10
82.488500000000002
 20
51.1479
 30
0.0
 11
85.413399999999996
 21
51.1479
 31
0.0
  0
LINE
  5
18A
  8
_________2
 62
     7
 10
81.995900000000006
 20
51.1479
 30
0.0
 11
82.248000000000005
 21
51.1479
 31
0.0
  0
LINE
  5
18B
  8
_________2
 62
     7
 10
75.599699999999984
 20
51.1479
 30
0.0
 11
73.412700000000001
 21
51.1479
 31
0.0
  0
LINE
  5
18C
  8
_________2
 62
     7
 10
76.0916
 20
51.1479
 30
0.0
 11
75.840100000000007
 21
51.1479
 31
0.0
  0
LINE
  5
18D
  8
_________2
 62
     7
 10
76.0916
 20
51.640599999999999
 30
0.0
 11
76.0916
 21
53.827500000000001
 31
0.0
  0
LINE
  5
18E
  8
_________2
 62
     7
 10
76.0916
 20
51.1479
 30
0.0
 11
76.0916
 21
51.400500000000001
 31
0.0
  0
LINE
  5
18F
  8
_________2
 62
     7
 10
76.584299999999999
 20
51.1479
 30
0.0
 11
78.771199999999993
 21
51.1479
 31
0.0
  0
LINE
  5
190
  8
_________2
 62
     7
 10
76.0916
 20
51.1479
 30
0.0
 11
76.343800000000002
 21
51.1479
 31
0.0
  0
LINE
  5
191
  8
_________2
 62
     7
 10
76.0916
 20
50.655999999999999
 30
0.0
 11
76.0916
 21
48.4694
 31
0.0
  0
LINE
  5
192
  8
_________2
 62
     7
 10
76.0916
 20
51.1479
 30
0.0
 11
76.0916
 21
50.8964
 31
0.0
  0
LINE
  5
193
  8
_________2
 62
     7
 10
79.802700000000002
 20
49.928400000000011
 30
0.0
 11
84.980699999999999
 21
49.063600000000001
 31
0.0
  0
LINE
  5
194
  8
_________2
 62
     7
 10
79.802700000000002
 20
52.367800000000003
 30
0.0
 11
84.980699999999999
 21
53.2333
 31
0.0
  0
LINE
  5
195
  8
_________2
 62
     7
 10
84.980699999999999
 20
49.063600000000001
 30
0.0
 11
84.980699999999999
 21
53.2333
 31
0.0
  0
LINE
  5
196
  8
_________2
 62
     7
 10
79.802700000000002
 20
49.928400000000011
 30
0.0
 11
79.802700000000002
 21
52.367800000000003
 31
0.0
  0
ARC
  5
197
  8
_________2
 62
     7
 10
76.045031999999992
 20
51.100991
 30
0.0
 40
1.267714
 50
2.1220840000000001
 51
87.894083999999992
  0
ARC
  5
198
  8
_________2
 62
     7
 10
76.138563000000005
 20
51.101345000000002
 30
0.0
 40
1.267374999999999
 50
92.122849999999985
 51
177.893304
  0
ARC
  5
199
  8
_________2
 62
     7
 10
76.138538999999994
 20
51.194856000000001
 30
0.0
 40
1.267363
 50
182.12181499999991
 51
267.87821400000001
  0
ARC
  5
19A
  8
_________2
 62
     7
 10
76.044727000000009
 20
51.195538999999997
 30
0.0
 40
1.2680439999999991
 50
272.11916400000001
 51
357.84848499999993
  0
ARC
  5
19B
  8
_________2
 62
     7
 10
76.011246999999983
 20
51.067923
 30
0.0
 40
2.1668310000000002
 50
2.1161439999999989
 51
87.874379000000005
  0
ARC
  5
19C
  8
_________2
 62
     7
 10
76.171678
 20
51.068944999999999
 30
0.0
 40
2.1657980000000001
 50
92.118487999999999
 51
177.90988599999989
  0
ARC
  5
19D
  8
_________2
 62
     7
 10
76.17161999999999
 20
51.22793699999999
 30
0.0
 40
2.1657779999999991
 50
182.11700400000001
 51
267.88302499999992
  0
ARC
  5
19E
  8
_________2
 62
     7
 10
76.011645000000001
 20
51.228619999999999
 30
0.0
 40
2.1664590000000001
 50
272.11546800000002
 51
357.86560400000002
  0
TEXT
  5
19F
  8
_________2
 62
     7
 10
109.367
 20
23.0227
 30
0.0
 40
3.0923400000000001
  1
図番
 41
0.5
  0
LINE
  5
1A0
  8
_________2
 62
     7
 10
108.3129999999999
 20
27.251899999999999
 30
0.0
 11
188.3129999999999
 21
27.251899999999999
 31
0.0
  0
TEXT
  5
1A1
  8
_________2
 62
     7
 10
109.367
 20
33.022500000000001
 30
0.0
 40
3.0923400000000001
  1
品番
 41
0.5
  0
TEXT
  5
1A2
  8
_________2
 62
     7
 10
109.367
 20
53.161599999999993
 30
0.0
 40
3.0923400000000001
  1
名称
 41
0.5
  0
TEXT
  5
1A3
  8
_________2
 62
     7
 10
96.607258333333334
 20
48.165500000000002
 30
0.0
 40
3.6545800000000002
  1
mm
 41
0.5
 72
     1
 11
98.129999999999995
 21
48.165500000000002
 31
0.0
  0
TEXT
  5
1A4
  8
_________2
 62
     7
 10
90.4054
 20
53.161599999999993
 30
0.0
 40
3.0923400000000001
  1
単位
 41
0.5
  0
TEXT
  5
1A5
  8
_________2
 62
     7
 10
90.4054
 20
40.753999999999998
 30
0.0
 40
3.0923400000000001
  1
尺度
 41
0.5
  0
TEXT
  5
1A6
  8
_________2
 62
     7
 10
94.854136166666663
 20
34.561399999999992
 30
0.0
 40
3.6545800000000002
  1
1 ： 10
 41
0.5
 72
     1
 11
98.721900000000005
 21
34.561399999999992
 31
0.0
  0
TEXT
  5
1A7
  8
_________2
 62
     7
 10
113.941
 20
45.569299999999998
 30
0.0
 40
3.9357000000000002
  1
TR 洗面器
 41
0.5
  0
TEXT
  5
1A8
  8
_________2
 62
     7
 10
44.187700333333332
 20
34.946599999999989
 30
0.0
 40
3.6545800000000002
  1
早川
 41
0.5
 72
     1
 11
46.075899999999997
 21
34.946599999999989
 31
0.0
  0
TEXT
  5
1A9
  8
_________2
 62
     7
 10
25.55279066666666
 20
34.946599999999989
 30
0.0
 40
3.6545800000000002
  1
菅原
 41
0.5
 72
     1
 11
27.501899999999988
 21
34.946599999999989
 31
0.0
  0
TEXT
  5
1AA
  8
_________2
 62
     7
 10
72.548000000000002
 20
34.561399999999992
 30
0.0
 40
3.6545800000000002
  1
12.12.05
 41
0.5
  0
TEXT
  5
1AB
  8
_________2
 62
     7
 10
71.3553
 20
40.753999999999998
 30
0.0
 40
3.0923400000000001
  1
日付
 41
0.5
  0
TEXT
  5
1AC
  8
_________2
 62
     7
 10
34.401699999999998
 20
40.753999999999998
 30
0.0
 40
3.0923400000000001
  1
検図
 41
0.5
  0
TEXT
  5
1AD
  8
_________2
 62
     7
 10
22.7834
 20
26.554600000000001
 30
0.0
 40
3.0923400000000001
  1
備考
 41
0.5
  0
TEXT
  5
1AE
  8
_________2
 62
     7
 10
22.7834
 20
40.753999999999998
 30
0.0
 40
3.0923400000000001
  1
製図
 41
0.5
  0
TEXT
  5
1AF
  8
_________2
 62
     7
 10
28.550865333333341
 20
49.280000000000001
 30
0.0
 40
4.4979399999999989
  1
セラトレーディング株式会社
 41
0.5
 72
     1
 11
45.942899999999987
 21
49.280000000000001
 31
0.0
  0
LINE
  5
1B0
  8
_________2
 62
     7
 10
188.3129999999999
 20
17.252099999999992
 30
0.0
 11
21.811900000000001
 21
17.252099999999992
 31
0.0
  0
LINE
  5
1B1
  8
_________2
 62
     7
 10
21.811900000000001
 20
17.252099999999992
 30
0.0
 11
21.811900000000001
 21
280.25400000000002
 31
0.0
  0
LINE
  5
1B2
  8
_________2
 62
     7
 10
21.811900000000001
 20
280.25400000000002
 30
0.0
 11
188.3129999999999
 21
280.25400000000002
 31
0.0
  0
LINE
  5
1B3
  8
_________2
 62
     7
 10
188.3129999999999
 20
280.25400000000002
 30
0.0
 11
188.3129999999999
 21
17.252099999999992
 31
0.0
  0
LINE
  5
1B4
  8
_________2
 62
     7
 10
70.312299999999993
 20
30.752500000000001
 30
0.0
 11
70.312299999999993
 21
57.252299999999991
 31
0.0
  0
LINE
  5
1B5
  8
_________2
 62
     7
 10
89.311899999999994
 20
30.752500000000001
 30
0.0
 11
89.311899999999994
 21
57.252299999999991
 31
0.0
  0
LINE
  5
1B6
  8
_________2
 62
     7
 10
108.3129999999999
 20
17.252099999999992
 30
0.0
 11
108.3129999999999
 21
57.252299999999991
 31
0.0
  0
LINE
  5
1B7
  8
_________2
 62
     7
 10
33.311700000000002
 20
30.752500000000001
 30
0.0
 11
33.311700000000002
 21
44.752400000000002
 31
0.0
  0
LINE
  5
1B8
  8
_________2
 62
     7
 10
21.811900000000001
 20
30.752500000000001
 30
0.0
 11
108.3129999999999
 21
30.752500000000001
 31
0.0
  0
LINE
  5
1B9
  8
_________2
 62
     7
 10
21.811900000000001
 20
44.752400000000002
 30
0.0
 11
108.3129999999999
 21
44.752400000000002
 31
0.0
  0
LINE
  5
1BA
  8
_________2
 62
     7
 10
108.3129999999999
 20
37.2517
 30
0.0
 11
188.3129999999999
 21
37.2517
 31
0.0
  0
LINE
  5
1BB
  8
_________2
 62
     7
 10
21.811900000000001
 20
57.252299999999991
 30
0.0
 11
188.3129999999999
 21
57.252299999999991
 31
0.0
  0
ENDSEC
  0
EOF
