  0
SECTION
  2
HEADER
  9
$ACADVER
  1
AC1009
  9
$INSBASE
 10
0.0
 20
0.0
 30
0.0
  9
$EXTMIN
 10
-4.70052
 20
-21.071400000000001
 30
0.0
  9
$EXTMAX
 10
205.30099999999999
 20
275.93099999999993
 30
0.0
  9
$LIMMIN
 10
0.0
 20
0.0
  9
$LIMMAX
 10
12.0
 20
9.0
  9
$ORTHOMODE
 70
     0
  9
$REGENMODE
 70
     1
  9
$FILLMODE
 70
     1
  9
$QTEXTMODE
 70
     0
  9
$MIRRTEXT
 70
     1
  9
$DRAGMODE
 70
     2
  9
$LTSCALE
 40
1.0
  9
$OSMODE
 70
    37
  9
$ATTMODE
 70
     1
  9
$TEXTSIZE
 40
0.0
  9
$TRACEWID
 40
0.05
  9
$TEXTSTYLE
  7
STANDARD
  9
$CLAYER
  8
0
  9
$CELTYPE
  6
CONTINUOUS
  9
$CECOLOR
 62
   256
  9
$DIMSCALE
 40
1.0
  9
$DIMASZ
 40
0.18
  9
$DIMEXO
 40
0.0625
  9
$DIMDLI
 40
0.38
  9
$DIMRND
 40
0.0
  9
$DIMDLE
 40
0.0
  9
$DIMEXE
 40
0.18
  9
$DIMTP
 40
0.0
  9
$DIMTM
 40
0.0
  9
$DIMTXT
 40
0.18
  9
$DIMCEN
 40
0.09
  9
$DIMTSZ
 40
0.0
  9
$DIMTOL
 70
     0
  9
$DIMLIM
 70
     0
  9
$DIMTIH
 70
     1
  9
$DIMTOH
 70
     1
  9
$DIMSE1
 70
     0
  9
$DIMSE2
 70
     0
  9
$DIMTAD
 70
     0
  9
$DIMZIN
 70
     0
  9
$DIMBLK
  1

  9
$DIMASO
 70
     1
  9
$DIMSHO
 70
     1
  9
$DIMPOST
  1

  9
$DIMAPOST
  1

  9
$DIMALT
 70
     0
  9
$DIMALTD
 70
     2
  9
$DIMALTF
 40
25.399999999999999
  9
$DIMLFAC
 40
1.0
  9
$DIMTOFL
 70
     0
  9
$DIMTVP
 40
0.0
  9
$DIMTIX
 70
     0
  9
$DIMSOXD
 70
     0
  9
$DIMSAH
 70
     0
  9
$DIMBLK1
  1

  9
$DIMBLK2
  1

  9
$DIMSTYLE
  2
STANDARD
  9
$DIMCLRD
 70
     0
  9
$DIMCLRE
 70
     0
  9
$DIMCLRT
 70
     0
  9
$DIMTFAC
 40
1.0
  9
$DIMGAP
 40
0.09
  9
$LUNITS
 70
     2
  9
$LUPREC
 70
     4
  9
$SKETCHINC
 40
0.1
  9
$FILLETRAD
 40
0.0
  9
$AUNITS
 70
     0
  9
$AUPREC
 70
     0
  9
$MENU
  1
.
  9
$ELEVATION
 40
0.0
  9
$PELEVATION
 40
0.0
  9
$THICKNESS
 40
0.0
  9
$LIMCHECK
 70
     0
  9
$BLIPMODE
 70
     0
  9
$CHAMFERA
 40
0.0
  9
$CHAMFERB
 40
0.0
  9
$SKPOLY
 70
     0
  9
$TDCREATE
 40
2444972.375
  9
$TDUPDATE
 40
2455345.2479808908
  9
$TDINDWG
 40
0.0000060301
  9
$TDUSRTIMER
 40
0.0000060301
  9
$USRTIMER
 70
     1
  9
$ANGBASE
 50
0.0
  9
$ANGDIR
 70
     0
  9
$PDMODE
 70
     0
  9
$PDSIZE
 40
0.0
  9
$PLINEWID
 40
0.0
  9
$COORDS
 70
     1
  9
$SPLFRAME
 70
     0
  9
$SPLINETYPE
 70
     6
  9
$SPLINESEGS
 70
     8
  9
$ATTDIA
 70
     0
  9
$ATTREQ
 70
     1
  9
$HANDLING
 70
     1
  9
$HANDSEED
  5
11D
  9
$SURFTAB1
 70
     6
  9
$SURFTAB2
 70
     6
  9
$SURFTYPE
 70
     6
  9
$SURFU
 70
     6
  9
$SURFV
 70
     6
  9
$UCSNAME
  2

  9
$UCSORG
 10
0.0
 20
0.0
 30
0.0
  9
$UCSXDIR
 10
1.0
 20
0.0
 30
0.0
  9
$UCSYDIR
 10
0.0
 20
1.0
 30
0.0
  9
$PUCSNAME
  2

  9
$PUCSORG
 10
0.0
 20
0.0
 30
0.0
  9
$PUCSXDIR
 10
1.0
 20
0.0
 30
0.0
  9
$PUCSYDIR
 10
0.0
 20
1.0
 30
0.0
  9
$USERI1
 70
     0
  9
$USERI2
 70
     0
  9
$USERI3
 70
     0
  9
$USERI4
 70
     0
  9
$USERI5
 70
     0
  9
$USERR1
 40
0.0
  9
$USERR2
 40
0.0
  9
$USERR3
 40
0.0
  9
$USERR4
 40
0.0
  9
$USERR5
 40
0.0
  9
$WORLDVIEW
 70
     1
  9
$SHADEDGE
 70
     3
  9
$SHADEDIF
 70
    70
  9
$TILEMODE
 70
     1
  9
$MAXACTVP
 70
    48
  9
$PLIMCHECK
 70
     0
  9
$PEXTMIN
 10
1.0000000000000000E+020
 20
1.0000000000000000E+020
 30
1.0000000000000000E+020
  9
$PEXTMAX
 10
-1.0000000000000000E+020
 20
-1.0000000000000000E+020
 30
-1.0000000000000000E+020
  9
$PLIMMIN
 10
0.0
 20
0.0
  9
$PLIMMAX
 10
12.0
 20
9.0
  9
$UNITMODE
 70
     0
  9
$VISRETAIN
 70
     1
  9
$PLINEGEN
 70
     0
  9
$PSLTSCALE
 70
     1
  0
ENDSEC
  0
SECTION
  2
TABLES
  0
TABLE
  2
VPORT
 70
     2
  0
VPORT
  2
*ACTIVE
 70
     0
 10
0.0
 20
0.0
 11
1.0
 21
1.0
 12
195.35172167095331
 22
127.4297999999999
 13
0.0
 23
0.0
 14
1.0
 24
1.0
 15
0.0
 25
0.0
 16
0.0
 26
0.0
 36
1.0
 17
0.0
 27
0.0
 37
0.0
 40
299.3410015748031
 41
2.2894736842105261
 42
50.0
 43
0.0
 44
0.0
 50
0.0
 51
0.0
 71
     0
 72
   100
 73
     1
 74
     1
 75
     0
 76
     0
 77
     0
 78
     0
  0
ENDTAB
  0
TABLE
  2
LTYPE
 70
     2
  0
LTYPE
  2
CONTINUOUS
 70
     0
  3
Solid line
 72
    65
 73
     0
 40
0.0
  0
LTYPE
  2
AIGENLINE001
 70
     0
  3
generate AI->DXF Converter
 72
    65
 73
     4
 40
5.8561449999999988
 49
3.5278
 49
-0.776115
 49
0.776115
 49
-0.776115
  0
ENDTAB
  0
TABLE
  2
LAYER
 70
     2
  0
LAYER
  2
0
 70
     0
 62
     7
  6
CONTINUOUS
  0
LAYER
  2
_________2
 70
     0
 62
     7
  6
CONTINUOUS
  0
ENDTAB
  0
TABLE
  2
STYLE
 70
     1
  0
STYLE
  2
STANDARD
 70
     0
 40
0.0
 41
0.0
 50
0.0
 71
     0
 42
0.0
  3
TXT
  4
EXTFONT.SHX
  0
ENDTAB
  0
TABLE
  2
VIEW
 70
     0
  0
ENDTAB
  0
TABLE
  2
UCS
 70
     0
  0
ENDTAB
  0
TABLE
  2
APPID
 70
     1
  0
APPID
  2
ACAD
 70
     0
  0
ENDTAB
  0
TABLE
  2
DIMSTYLE
 70
     1
  0
DIMSTYLE
  2
STANDARD
 70
     0
  3

  4

  5

  6

  7

 40
1.0
 41
0.18
 42
0.0625
 43
0.38
 44
0.18
 45
0.0
 46
0.0
 47
0.0
 48
0.0
140
0.18
141
0.09
142
0.0
143
25.399999999999999
144
1.0
145
0.0
146
1.0
147
0.09
 71
     0
 72
     0
 73
     1
 74
     1
 75
     0
 76
     0
 77
     0
 78
     0
170
     0
171
     2
172
     0
173
     0
174
     0
175
     0
176
     0
177
     0
178
     0
  0
ENDTAB
  0
ENDSEC
  0
SECTION
  2
BLOCKS
  0
BLOCK
  8
0
  2
$MODEL_SPACE
 70
     0
 10
0.0
 20
0.0
 30
0.0
  3
$MODEL_SPACE
  1

  0
ENDBLK
  5
1A
  8
0
  0
BLOCK
 67
     1
  8
0
  2
$PAPER_SPACE
 70
     0
 10
0.0
 20
0.0
 30
0.0
  3
$PAPER_SPACE
  1

  0
ENDBLK
  5
17
 67
     1
  8
0
  0
ENDSEC
  0
SECTION
  2
ENTITIES
  0
TEXT
  5
22
  8
0
 62
     7
 10
116.96100799999989
 20
141.73299999999989
 30
0.0
 40
3.0923400000000001
  1
G 3/8
 41
0.5
 72
     2
 11
123.55799999999989
 21
141.73299999999989
 31
0.0
  0
TEXT
  5
23
  8
0
 62
     7
 10
98.624982500000016
 20
162.08199999999991
 30
0.0
 40
3.0923400000000001
  1
%%c10
 41
0.5
 72
     1
 11
100.2999999999999
 21
162.08199999999991
 31
0.0
  0
TEXT
  5
24
  8
0
 62
     7
 10
97.259198999999995
 20
106.09699999999999
 30
0.0
 40
3.0923400000000001
  1
G 1/2
 41
0.5
 72
     1
 11
100.2999999999999
 21
106.09699999999999
 31
0.0
  0
LINE
  5
25
  8
0
  6
AIGENLINE001
 62
     7
 10
100.2999999999999
 20
179.04300000000001
 30
0.0
 11
100.2999999999999
 21
212.239
 31
0.0
  0
LINE
  5
26
  8
0
  6
AIGENLINE001
 62
     7
 10
82.469599999999986
 20
195.869
 30
0.0
 11
119.175
 21
195.869
 31
0.0
  0
LINE
  5
27
  8
0
 62
     7
 10
108.2999999999999
 20
151.04900000000001
 30
0.0
 11
111.47199999999999
 21
144.53999999999999
 31
0.0
  0
ARC
  5
28
  8
0
 62
     7
 10
112.70150700000001
 20
140.98213799999991
 30
0.0
 40
5.4009199999999993
 50
179.95812100000001
 51
190.75315000000001
  0
ARC
  5
29
  8
0
 62
     7
 10
110.177234
 20
140.53100800000001
 30
0.0
 40
2.8369369999999989
 50
191.313897
 51
216.95603999999989
  0
ARC
  5
2A
  8
0
 62
     7
 10
109.49890600000001
 20
140.14266399999991
 30
0.0
 40
2.0637180000000002
 50
219.66364899999999
 51
261.83791300000001
  0
ARC
  5
2B
  8
0
 62
     7
 10
109.7814709999999
 20
141.3470989999999
 30
0.0
 40
3.2978610000000002
 50
259.94898399999988
 51
270.33427599999987
  0
ARC
  5
2C
  8
0
 62
     7
 10
109.8024919999999
 20
141.1638759999999
 30
0.0
 40
3.1145819999999991
 50
269.96723100000003
 51
292.4562509999999
  0
ARC
  5
2D
  8
0
 62
     7
 10
110.127633
 20
140.1288909999999
 30
0.0
 40
2.0360930000000002
 50
295.126463
 51
336.77654200000001
  0
ARC
  5
2E
  8
0
 62
     7
 10
109.097393
 20
140.62016199999999
 30
0.0
 40
3.1768959999999988
 50
335.960916
 51
352.86592300000001
  0
ARC
  5
2F
  8
0
 62
     7
 10
107.042185
 20
140.95537300000001
 30
0.0
 40
5.258392999999999
 50
352.02279099999998
 51
0.334632
  0
ARC
  5
30
  8
0
 62
     7
 10
104.230733
 20
140.969246
 30
0.0
 40
8.0697720000000004
 50
0.119548
 51
29.241792
  0
ARC
  5
31
  8
0
 62
     7
 10
108.23591
 20
143.1146939999999
 30
0.0
 40
3.5279589999999992
 50
30.613751000000001
 51
45.951194999999991
  0
ARC
  5
32
  8
0
 62
     7
 10
109.5608099999999
 20
144.444988
 30
0.0
 40
1.6508759999999989
 50
46.900606000000003
 51
70.235519999999994
  0
ARC
  5
33
  8
0
 62
     7
 10
109.7966039999999
 20
144.99640400000001
 30
0.0
 40
1.0528049999999991
 50
72.164597999999984
 51
89.776519999999991
  0
ARC
  5
34
  8
0
 62
     7
 10
109.8063649999999
 20
144.9101389999999
 30
0.0
 40
1.1390759999999991
 50
90.284440999999987
 51
129.184324
  0
ARC
  5
35
  8
0
 62
     7
 10
110.55851
 20
143.81254799999991
 30
0.0
 40
2.46753
 50
126.61821500000001
 51
146.3564189999999
  0
ARC
  5
36
  8
0
 62
     7
 10
112.73375799999999
 20
142.22114999999991
 30
0.0
 40
5.161486
 50
145.0275729999999
 51
158.54237499999991
  0
ARC
  5
37
  8
0
 62
     7
 10
115.79186900000001
 20
140.89982499999991
 30
0.0
 40
8.4917189999999998
 50
157.79309599999991
 51
179.41795799999991
  0
LINE
  5
38
  8
0
 62
     7
 10
92.300200000000004
 20
151.04900000000001
 30
0.0
 11
89.126400000000004
 21
144.53999999999999
 31
0.0
  0
ARC
  5
39
  8
0
 62
     7
 10
87.898693999999978
 20
140.98213999999999
 30
0.0
 40
5.4009390000000002
 50
349.24688900000001
 51
0.041839
  0
ARC
  5
3A
  8
0
 62
     7
 10
90.422781000000001
 20
140.531058
 30
0.0
 40
2.8371490000000001
 50
323.04593899999998
 51
348.68595199999987
  0
ARC
  5
3B
  8
0
 62
     7
 10
91.101299999999995
 20
140.142695
 30
0.0
 40
2.0637659999999989
 50
278.16536200000002
 51
320.33636300000001
  0
ARC
  5
3C
  8
0
 62
     7
 10
90.818916000000002
 20
141.34644299999991
 30
0.0
 40
3.2972049999999999
 50
269.665795
 51
280.05203499999988
  0
ARC
  5
3D
  8
0
 62
     7
 10
90.797903000000005
 20
141.16448399999999
 30
0.0
 40
3.1151900000000001
 50
247.54598799999991
 51
270.03274099999987
  0
ARC
  5
3E
  8
0
 62
     7
 10
90.472672000000003
 20
140.12901599999989
 30
0.0
 40
2.036219
 50
203.22579400000001
 51
244.874304
  0
ARC
  5
3F
  8
0
 62
     7
 10
91.503458999999992
 20
140.62033799999989
 30
0.0
 40
3.177543
 50
187.13583299999999
 51
204.03736799999999
  0
ARC
  5
40
  8
0
 62
     7
 10
93.555794999999989
 20
140.9552229999999
 30
0.0
 40
5.2561519999999993
 50
179.66357400000001
 51
187.97900300000001
  0
ARC
  5
41
  8
0
 62
     7
 10
96.369192000000012
 20
140.96924699999991
 30
0.0
 40
8.0694759999999999
 50
150.757014
 51
179.88042899999991
  0
ARC
  5
42
  8
0
 62
     7
 10
92.363951999999998
 20
143.11488600000001
 30
0.0
 40
3.5275150000000002
 50
134.0458229999999
 51
149.385592
  0
ARC
  5
43
  8
0
 62
     7
 10
91.039514999999994
 20
144.444872
 30
0.0
 40
1.6509759999999991
 50
109.7622749999999
 51
133.0972229999999
  0
ARC
  5
44
  8
0
 62
     7
 10
90.803771999999995
 20
144.99623500000001
 30
0.0
 40
1.0529740000000001
 50
90.222514999999987
 51
107.83392499999989
  0
ARC
  5
45
  8
0
 62
     7
 10
90.794018999999977
 20
144.91032699999991
 30
0.0
 40
1.138887999999999
 50
50.812296000000011
 51
89.715054000000009
  0
ARC
  5
46
  8
0
 62
     7
 10
90.041912999999994
 20
143.81282899999991
 30
0.0
 40
2.4672419999999988
 50
33.640188999999999
 51
53.379849
  0
ARC
  5
47
  8
0
 62
     7
 10
87.865623999999997
 20
142.22077400000001
 30
0.0
 40
5.1624249999999989
 50
21.458000999999999
 51
34.970221000000002
  0
ARC
  5
48
  8
0
 62
     7
 10
84.807334999999995
 20
140.899674
 30
0.0
 40
8.4927369999999982
 50
0.58297
 51
22.205178
  0
ARC
  5
49
  8
0
 62
     7
 10
102.660915
 20
140.9867129999999
 30
0.0
 40
2.6390940000000001
 50
326.370204
 51
359.9863509999999
  0
ARC
  5
4A
  8
0
 62
     7
 10
102.7420479999999
 20
141.076314
 30
0.0
 40
2.6238879999999991
 50
295.64602000000002
 51
323.75903699999998
  0
ARC
  5
4B
  8
0
 62
     7
 10
101.72526499999999
 20
142.8885929999999
 30
0.0
 40
4.6995649999999989
 50
283.07962199999997
 51
297.25850200000002
  0
ARC
  5
4C
  8
0
 62
     7
 10
100.772863
 20
146.52573100000001
 30
0.0
 40
8.4585229999999996
 50
273.21045299999992
 51
283.78811200000001
  0
ARC
  5
4D
  8
0
 62
     7
 10
100.322276
 20
151.75283799999991
 30
0.0
 40
13.703562
 50
269.90733499999988
 51
273.867501
  0
ARC
  5
4E
  8
0
 62
     7
 10
100.2946249999999
 20
151.346746
 30
0.0
 40
13.29745299999999
 50
263.09752300000002
 51
270.02364599999993
  0
ARC
  5
4F
  8
0
 62
     7
 10
99.633468000000008
 20
145.520781
 30
0.0
 40
7.4343849999999998
 50
252.16907999999989
 51
262.75996800000001
  0
ARC
  5
50
  8
0
 62
     7
 10
98.675010999999998
 20
142.4246259999999
 30
0.0
 40
4.1936189999999991
 50
237.21212999999989
 51
251.681938
  0
ARC
  5
51
  8
0
 62
     7
 10
97.794584000000015
 20
140.97000700000001
 30
0.0
 40
2.4944239999999991
 50
179.630686
 51
236.1195689999999
  0
ARC
  5
52
  8
0
 62
     7
 10
99.17939100000001
 20
140.97949299999991
 30
0.0
 40
3.8791849999999992
 50
158.79227099999989
 51
179.90263100000001
  0
ARC
  5
53
  8
0
 62
     7
 10
101.083429
 20
140.3365409999999
 30
0.0
 40
5.8875380000000002
 50
112.06006600000001
 51
159.662104
  0
ARC
  5
54
  8
0
 62
     7
 10
100.326138
 20
141.79597199999989
 30
0.0
 40
4.2533079999999996
 50
90.35060799999998
 51
109.9888879999999
  0
ARC
  5
55
  8
0
 62
     7
 10
100.28835099999991
 20
141.74318199999999
 30
0.0
 40
4.3060349999999987
 50
55.355623999999992
 51
89.843513999999985
  0
ARC
  5
56
  8
0
 62
     7
 10
99.464887000000004
 20
140.343918
 30
0.0
 40
5.9265019999999993
 50
15.144329000000001
 51
56.496437999999991
  0
ARC
  5
57
  8
0
 62
     7
 10
101.368369
 20
140.94982899999991
 30
0.0
 40
3.9318080000000002
 50
0.5283310000000001
 51
13.867963
  0
ARC
  5
58
  8
0
 62
     7
 10
112.1188269999999
 20
119.31308199999999
 30
0.0
 40
2.2126509999999988
 50
323.60843699999998
 51
350.48968400000001
  0
ARC
  5
59
  8
0
 62
     7
 10
112.315001
 20
119.2747419999999
 30
0.0
 40
2.0337860000000001
 50
288.789511
 51
321.19828100000001
  0
ARC
  5
5A
  8
0
 62
     7
 10
111.5424289999999
 20
121.144136
 30
0.0
 40
4.0544580000000003
 50
275.86556300000001
 51
290.616783
  0
ARC
  5
5B
  8
0
 62
     7
 10
110.900802
 20
125.94068899999991
 30
0.0
 40
8.8927029999999991
 50
269.355864
 51
276.81973099999999
  0
ARC
  5
5C
  8
0
 62
     7
 10
109.479737
 20
119.310661
 30
0.0
 40
2.209201999999999
 50
189.46165599999989
 51
216.37950499999999
  0
ARC
  5
5D
  8
0
 62
     7
 10
109.285434
 20
119.273735
 30
0.0
 40
2.032665999999999
 50
218.79073799999989
 51
251.2152759999999
  0
ARC
  5
5E
  8
0
 62
     7
 10
110.05876599999991
 20
121.14500200000001
 30
0.0
 40
4.0553530000000002
 50
249.3843839999999
 51
264.13113799999991
  0
ARC
  5
5F
  8
0
 62
     7
 10
110.69968900000001
 20
125.9346129999999
 30
0.0
 40
8.8866250000000004
 50
263.17806300000001
 51
270.64322199999998
  0
ARC
  5
60
  8
0
 62
     7
 10
96.042908000000011
 20
120.55521399999991
 30
0.0
 40
3.1778889999999991
 50
210.39161999999999
 51
250.24947299999999
  0
ARC
  5
61
  8
0
 62
     7
 10
97.059174999999996
 20
123.024287
 30
0.0
 40
5.8464109999999989
 50
249.0525879999999
 51
261.79302100000001
  0
ARC
  5
62
  8
0
 62
     7
 10
98.038110000000003
 20
128.6071639999999
 30
0.0
 40
11.513139999999989
 50
260.93724099999997
 51
265.20356399999997
  0
ARC
  5
63
  8
0
 62
     7
 10
98.805114000000003
 20
137.814268
 30
0.0
 40
20.752136
 50
265.21887099999992
 51
268.393934
  0
ARC
  5
64
  8
0
 62
     7
 10
99.929647000000017
 20
180.8635699999999
 30
0.0
 40
63.816096999999999
 50
268.467986
 51
270.3326239999999
  0
ARC
  5
65
  8
0
 62
     7
 10
104.557427
 20
120.55838899999991
 30
0.0
 40
3.181181
 50
289.74645699999991
 51
329.57687099999993
  0
ARC
  5
66
  8
0
 62
     7
 10
103.54150899999991
 20
123.02717
 30
0.0
 40
5.8493000000000004
 50
278.20537100000001
 51
290.94236000000001
  0
ARC
  5
67
  8
0
 62
     7
 10
102.56232799999999
 20
128.61273099999991
 30
0.0
 40
11.518715999999991
 50
274.79578800000002
 51
279.06084299999998
  0
ARC
  5
68
  8
0
 62
     7
 10
101.7953609999999
 20
137.82122899999999
 30
0.0
 40
20.75909699999999
 50
271.60585800000001
 51
274.78036099999991
  0
ARC
  5
69
  8
0
 62
     7
 10
100.670655
 20
180.884567
 30
0.0
 40
63.837094999999998
 50
269.66743300000002
 51
271.53178600000001
  0
ARC
  5
6A
  8
0
 62
     7
 10
91.122712000000007
 20
119.31063399999999
 30
0.0
 40
2.2090389999999989
 50
323.6182839999999
 51
350.53838500000001
  0
ARC
  5
6B
  8
0
 62
     7
 10
91.316973000000004
 20
119.27372800000001
 30
0.0
 40
2.0325509999999989
 50
288.77586500000001
 51
321.20694099999997
  0
ARC
  5
6C
  8
0
 62
     7
 10
90.543051000000006
 20
121.14678000000001
 30
0.0
 40
4.0571070000000002
 50
275.864307
 51
290.61016999999998
  0
ARC
  5
6D
  8
0
 62
     7
 10
89.901358999999999
 20
125.944988
 30
0.0
 40
8.8970009999999995
 50
269.35665499999999
 51
276.81802199999998
  0
ARC
  5
6E
  8
0
 62
     7
 10
88.481460999999996
 20
119.31116399999991
 30
0.0
 40
2.210361999999999
 50
189.46984599999999
 51
216.373525
  0
ARC
  5
6F
  8
0
 62
     7
 10
88.285853999999986
 20
119.2735899999999
 30
0.0
 40
2.0323919999999989
 50
218.79168399999989
 51
251.22523799999999
  0
ARC
  5
70
  8
0
 62
     7
 10
89.059856999999994
 20
121.14676
 30
0.0
 40
4.0570859999999991
 50
249.3898419999999
 51
264.13585699999987
  0
ARC
  5
71
  8
0
 62
     7
 10
89.701560999999998
 20
125.944988
 30
0.0
 40
8.8970009999999995
 50
263.18199800000002
 51
270.64336400000002
  0
ARC
  5
72
  8
0
 62
     7
 10
112.1158429999999
 20
129.782847
 30
0.0
 40
2.215622999999999
 50
9.5020000000000007
 51
36.365761999999997
  0
ARC
  5
73
  8
0
 62
     7
 10
112.3143679999999
 20
129.82258200000001
 30
0.0
 40
2.034006999999999
 50
38.781028999999997
 51
71.193792999999999
  0
ARC
  5
74
  8
0
 62
     7
 10
111.542445
 20
127.95545799999999
 30
0.0
 40
4.052344999999999
 50
69.372214999999997
 51
84.13159499999999
  0
ARC
  5
75
  8
0
 62
     7
 10
110.900623
 20
123.155
 30
0.0
 40
8.8944929999999989
 50
83.180486999999999
 51
90.642852999999988
  0
ARC
  5
76
  8
0
 62
     7
 10
109.48271800000001
 20
129.785269
 30
0.0
 40
2.2121710000000001
 50
143.6463
 51
170.5466209999999
  0
ARC
  5
77
  8
0
 62
     7
 10
109.28606599999991
 20
129.823588
 30
0.0
 40
2.0328870000000001
 50
108.8014219999999
 51
141.22995199999991
  0
ARC
  5
78
  8
0
 62
     7
 10
110.05875
 20
127.9545929999999
 30
0.0
 40
4.0532389999999987
 50
95.871706000000017
 51
110.626617
  0
ARC
  5
79
  8
0
 62
     7
 10
110.699868
 20
123.16107599999989
 30
0.0
 40
8.8884150000000002
 50
89.358060999999978
 51
96.821718000000018
  0
ARC
  5
7A
  8
0
 62
     7
 10
96.044521000000003
 20
128.541156
 30
0.0
 40
3.1791450000000001
 50
109.77328899999991
 51
149.62724299999991
  0
ARC
  5
7B
  8
0
 62
     7
 10
97.059085999999994
 20
126.077186
 30
0.0
 40
5.8423199999999991
 50
98.211881999999989
 51
110.96183600000001
  0
ARC
  5
7C
  8
0
 62
     7
 10
98.038056000000026
 20
120.49898899999999
 30
0.0
 40
11.504441
 50
94.799801000000002
 51
99.069396999999995
  0
ARC
  5
7D
  8
0
 62
     7
 10
98.803145000000001
 20
111.3288739999999
 30
0.0
 40
20.706416999999998
 50
91.604164999999995
 51
94.786243999999996
  0
ARC
  5
7E
  8
0
 62
     7
 10
99.929217000000008
 20
68.338070000000002
 30
0.0
 40
63.711942999999998
 50
89.666445999999993
 51
91.534132999999983
  0
ARC
  5
7F
  8
0
 62
     7
 10
104.555814
 20
128.53798199999989
 30
0.0
 40
3.182436
 50
30.404254999999999
 51
70.230797999999993
  0
ARC
  5
80
  8
0
 62
     7
 10
103.54159799999999
 20
126.074305
 30
0.0
 40
5.8452070000000003
 50
69.043218999999993
 51
81.789727999999997
  0
ARC
  5
81
  8
0
 62
     7
 10
102.562382
 20
120.4934259999999
 30
0.0
 40
11.510012
 50
80.932520999999994
 51
85.200847999999993
  0
ARC
  5
82
  8
0
 62
     7
 10
101.7973299999999
 20
111.321928
 30
0.0
 40
20.713363000000001
 50
85.214524999999995
 51
88.396043000000006
  0
ARC
  5
83
  8
0
 62
     7
 10
100.67108499999991
 20
68.317105999999995
 30
0.0
 40
63.732906999999997
 50
88.466095999999979
 51
90.333496999999994
  0
ARC
  5
84
  8
0
 62
     7
 10
91.119731000000002
 20
129.7852969999999
 30
0.0
 40
2.2120079999999991
 50
9.4533380000000005
 51
36.355909999999987
  0
ARC
  5
85
  8
0
 62
     7
 10
91.316342000000006
 20
129.8235949999999
 30
0.0
 40
2.032772
 50
38.772368999999991
 51
71.207440000000005
  0
ARC
  5
86
  8
0
 62
     7
 10
90.543067000000008
 20
127.9528149999999
 30
0.0
 40
4.0549919999999986
 50
69.378831999999989
 51
84.132852
  0
ARC
  5
87
  8
0
 62
     7
 10
89.901179999999997
 20
123.1507
 30
0.0
 40
8.8987920000000003
 50
83.182196000000005
 51
90.642061999999996
  0
ARC
  5
88
  8
0
 62
     7
 10
88.484443999999996
 20
129.78476599999991
 30
0.0
 40
2.2133329999999991
 50
143.65227499999989
 51
170.53843699999999
  0
ARC
  5
89
  8
0
 62
     7
 10
88.286485999999996
 20
129.823733
 30
0.0
 40
2.032613
 50
108.79145699999989
 51
141.22900599999991
  0
ARC
  5
8A
  8
0
 62
     7
 10
89.059841000000006
 20
127.95283499999999
 30
0.0
 40
4.0549710000000001
 50
95.866984000000016
 51
110.6211559999999
  0
ARC
  5
8B
  8
0
 62
     7
 10
89.701740000000001
 20
123.1507
 30
0.0
 40
8.8987920000000003
 50
89.357918000000026
 51
96.817784000000003
  0
LINE
  5
8C
  8
0
 62
     7
 10
114.301
 20
118.947
 30
0.0
 11
114.301
 21
130.149
 31
0.0
  0
LINE
  5
8D
  8
0
 62
     7
 10
107.301
 20
118.947
 30
0.0
 11
107.301
 21
130.149
 31
0.0
  0
LINE
  5
8E
  8
0
 62
     7
 10
110.8009999999999
 20
132.04900000000001
 30
0.0
 11
89.801500000000004
 21
132.04900000000001
 31
0.0
  0
LINE
  5
8F
  8
0
 62
     7
 10
110.8009999999999
 20
117.04900000000001
 30
0.0
 11
89.801500000000004
 21
117.04900000000001
 31
0.0
  0
LINE
  5
90
  8
0
 62
     7
 10
93.301699999999997
 20
118.947
 30
0.0
 11
93.301699999999997
 21
130.149
 31
0.0
  0
LINE
  5
91
  8
0
 62
     7
 10
86.301199999999994
 20
118.947
 30
0.0
 11
86.301199999999994
 21
130.149
 31
0.0
  0
LINE
  5
92
  8
0
 62
     7
 10
90.799700000000016
 20
138.04899999999989
 30
0.0
 11
109.801
 21
138.04899999999989
 31
0.0
  0
LINE
  5
93
  8
0
 62
     7
 10
92.300200000000004
 20
151.04900000000001
 30
0.0
 11
108.2999999999999
 21
151.04900000000001
 31
0.0
  0
LINE
  5
94
  8
0
 62
     7
 10
105.2999999999999
 20
161.166
 30
0.0
 11
105.2999999999999
 21
152.39199999999991
 31
0.0
  0
LINE
  5
95
  8
0
 62
     7
 10
95.300200000000004
 20
161.166
 30
0.0
 11
95.300200000000004
 21
152.39199999999991
 31
0.0
  0
LINE
  5
96
  8
0
 62
     7
 10
109.69499999999989
 20
135.827
 30
0.0
 11
108.5499999999999
 21
133.84399999999999
 31
0.0
  0
LINE
  5
97
  8
0
 62
     7
 10
108.5499999999999
 20
133.84399999999999
 30
0.0
 11
110.5329999999999
 21
134.989
 31
0.0
  0
LINE
  5
98
  8
0
 62
     7
 10
110.5329999999999
 20
134.989
 30
0.0
 11
109.69499999999989
 21
135.827
 31
0.0
  0
LINE
  5
99
  8
0
 62
     7
 10
108.545
 20
133.84999999999999
 30
0.0
 11
115.616
 21
140.92099999999991
 31
0.0
  0
LINE
  5
9A
  8
0
 62
     7
 10
97.510900000000007
 20
161.05199999999999
 30
0.0
 11
95.299499999999995
 21
160.45899999999989
 31
0.0
  0
LINE
  5
9B
  8
0
 62
     7
 10
95.299499999999995
 20
160.45899999999989
 30
0.0
 11
97.510900000000007
 21
159.86699999999999
 31
0.0
  0
LINE
  5
9C
  8
0
 62
     7
 10
97.510900000000007
 20
159.86699999999999
 30
0.0
 11
97.510900000000007
 21
161.05199999999999
 31
0.0
  0
LINE
  5
9D
  8
0
 62
     7
 10
103.09
 20
159.881
 30
0.0
 11
105.301
 21
160.4739999999999
 31
0.0
  0
LINE
  5
9E
  8
0
 62
     7
 10
105.301
 20
160.4739999999999
 30
0.0
 11
103.09
 21
161.066
 31
0.0
  0
LINE
  5
9F
  8
0
 62
     7
 10
103.09
 20
161.066
 30
0.0
 11
103.09
 21
159.881
 31
0.0
  0
LINE
  5
A0
  8
0
 62
     7
 10
115.616
 20
140.92099999999991
 30
0.0
 11
123.602
 21
140.92099999999991
 31
0.0
  0
LINE
  5
A1
  8
0
 62
     7
 10
95.300200000000004
 20
160.46600000000001
 30
0.0
 11
105.2999999999999
 21
160.46600000000001
 31
0.0
  0
LINE
  5
A2
  8
0
 62
     7
 10
110.8
 20
104.06699999999989
 30
0.0
 11
110.8
 21
115.17399999999989
 31
0.0
  0
LINE
  5
A3
  8
0
 62
     7
 10
89.8001
 20
104.06699999999989
 30
0.0
 11
89.8001
 21
115.17399999999989
 31
0.0
  0
LINE
  5
A4
  8
0
 62
     7
 10
92.010800000000003
 20
105.352
 30
0.0
 11
89.799199999999985
 21
104.759
 31
0.0
  0
LINE
  5
A5
  8
0
 62
     7
 10
89.799199999999985
 20
104.759
 30
0.0
 11
92.010800000000003
 21
104.167
 31
0.0
  0
LINE
  5
A6
  8
0
 62
     7
 10
92.010800000000003
 20
104.167
 30
0.0
 11
92.010800000000003
 21
105.352
 31
0.0
  0
LINE
  5
A7
  8
0
 62
     7
 10
108.59
 20
104.1809999999999
 30
0.0
 11
110.8009999999999
 21
104.774
 31
0.0
  0
LINE
  5
A8
  8
0
 62
     7
 10
110.8009999999999
 20
104.774
 30
0.0
 11
108.59
 21
105.366
 31
0.0
  0
LINE
  5
A9
  8
0
 62
     7
 10
108.59
 20
105.366
 30
0.0
 11
108.59
 21
104.1809999999999
 31
0.0
  0
LINE
  5
AA
  8
0
 62
     7
 10
89.8001
 20
104.767
 30
0.0
 11
110.8
 21
104.767
 31
0.0
  0
LINE
  5
AB
  8
0
  6
AIGENLINE001
 62
     7
 10
100.2999999999999
 20
113.31100000000001
 30
0.0
 11
100.2999999999999
 21
153.696
 31
0.0
  0
LINE
  5
AC
  8
0
  6
AIGENLINE001
 62
     7
 10
100.2999999999999
 20
83.000500000000002
 30
0.0
 11
100.2999999999999
 21
92.668800000000005
 31
0.0
  0
LINE
  5
AD
  8
0
 62
     7
 10
91.3001
 20
89.1066
 30
0.0
 11
91.3001
 21
87.106300000000005
 31
0.0
  0
LINE
  5
AE
  8
0
 62
     7
 10
109.2999999999999
 20
89.1066
 30
0.0
 11
109.2999999999999
 21
87.106300000000005
 31
0.0
  0
LINE
  5
AF
  8
0
 62
     7
 10
91.3001
 20
87.106300000000005
 30
0.0
 11
109.2999999999999
 21
87.106300000000005
 31
0.0
  0
LINE
  5
B0
  8
0
 62
     7
 10
91.3001
 20
89.1066
 30
0.0
 11
109.2999999999999
 21
89.1066
 31
0.0
  0
LINE
  5
B1
  8
0
 62
     7
 10
107.2289999999999
 20
207.86999999999989
 30
0.0
 11
93.372299999999996
 21
207.86999999999989
 31
0.0
  0
LINE
  5
B2
  8
0
 62
     7
 10
93.372299999999996
 20
207.86999999999989
 30
0.0
 11
86.443799999999996
 21
195.869
 31
0.0
  0
LINE
  5
B3
  8
0
 62
     7
 10
86.443799999999996
 20
195.869
 30
0.0
 11
93.372299999999996
 21
183.869
 31
0.0
  0
LINE
  5
B4
  8
0
 62
     7
 10
93.372299999999996
 20
183.869
 30
0.0
 11
107.2289999999999
 21
183.869
 31
0.0
  0
LINE
  5
B5
  8
0
 62
     7
 10
107.2289999999999
 20
183.869
 30
0.0
 11
114.1579999999999
 21
195.869
 31
0.0
  0
LINE
  5
B6
  8
0
 62
     7
 10
114.1579999999999
 20
195.869
 30
0.0
 11
107.2289999999999
 21
207.86999999999989
 31
0.0
  0
LINE
  5
B7
  8
0
 62
     7
 10
105.786
 20
205.37
 30
0.0
 11
94.815799999999996
 21
205.369
 31
0.0
  0
LINE
  5
B8
  8
0
 62
     7
 10
94.815799999999996
 20
205.369
 30
0.0
 11
89.330899999999986
 21
195.869
 31
0.0
  0
LINE
  5
B9
  8
0
 62
     7
 10
89.330899999999986
 20
195.869
 30
0.0
 11
94.815799999999996
 21
186.369
 31
0.0
  0
LINE
  5
BA
  8
0
 62
     7
 10
94.815799999999996
 20
186.369
 30
0.0
 11
105.786
 21
186.369
 31
0.0
  0
LINE
  5
BB
  8
0
 62
     7
 10
105.786
 20
186.369
 30
0.0
 11
111.271
 21
195.869
 31
0.0
  0
LINE
  5
BC
  8
0
 62
     7
 10
111.271
 20
195.869
 30
0.0
 11
105.786
 21
205.37
 31
0.0
  0
ARC
  5
BD
  8
0
 62
     7
 10
100.300713
 20
195.86929900000001
 30
0.0
 40
5.0001290000000003
 50
29.999631000000001
 51
119.9996009999999
  0
ARC
  5
BE
  8
0
 62
     7
 10
100.3006139999999
 20
195.86943600000001
 30
0.0
 40
4.9999599999999988
 50
119.999402
 51
210.00254699999999
  0
ARC
  5
BF
  8
0
 62
     7
 10
100.3010219999999
 20
195.86939899999999
 30
0.0
 40
5.0002949999999986
 50
209.9998499999999
 51
299.99672500000003
  0
ARC
  5
C0
  8
0
 62
     7
 10
100.300712
 20
195.86912799999999
 30
0.0
 40
5.000214999999999
 50
300.00135
 51
30.001321000000001
  0
ARC
  5
C1
  8
0
 62
     7
 10
100.3006969999999
 20
195.8696469999999
 30
0.0
 40
7.999871999999999
 50
29.997983999999999
 51
120.00070599999999
  0
ARC
  5
C2
  8
0
 62
     7
 10
100.30059300000001
 20
195.869551
 30
0.0
 40
7.9999029999999989
 50
119.99971599999991
 51
210.00281699999999
  0
ARC
  5
C3
  8
0
 62
     7
 10
100.30100899999989
 20
195.86894499999991
 30
0.0
 40
7.999960999999999
 50
209.99757
 51
299.99947500000002
  0
ARC
  5
C4
  8
0
 62
     7
 10
100.3006249999999
 20
195.86904199999989
 30
0.0
 40
8.0002370000000003
 50
300.00150699999989
 51
30.001477000000001
  0
ARC
  5
C5
  8
0
 62
     7
 10
100.3007409999999
 20
195.869404
 30
0.0
 40
11.999869999999991
 50
29.999399
 51
120.000114
  0
ARC
  5
C6
  8
0
 62
     7
 10
100.30063299999991
 20
195.86914899999991
 30
0.0
 40
12.000036
 50
119.99905800000001
 51
209.99965199999991
  0
ARC
  5
C7
  8
0
 62
     7
 10
100.300735
 20
195.86938099999989
 30
0.0
 40
12.000239999999989
 50
210.00036499999999
 51
299.99979000000002
  0
ARC
  5
C8
  8
0
 62
     7
 10
100.30060400000001
 20
195.869157
 30
0.0
 40
12.000112
 50
300.00086599999997
 51
30.000090999999991
  0
LINE
  5
C9
  8
0
 62
     7
 10
93.051199999999994
 20
138.04899999999989
 30
0.0
 11
93.051199999999994
 21
132.04900000000001
 31
0.0
  0
LINE
  5
CA
  8
0
 62
     7
 10
92.050600000000017
 20
138.04899999999989
 30
0.0
 11
92.050600000000017
 21
132.04900000000001
 31
0.0
  0
LINE
  5
CB
  8
0
 62
     7
 10
107.5499999999999
 20
138.04899999999989
 30
0.0
 11
107.5499999999999
 21
132.04900000000001
 31
0.0
  0
LINE
  5
CC
  8
0
 62
     7
 10
108.5499999999999
 20
138.04899999999989
 30
0.0
 11
108.5499999999999
 21
132.04900000000001
 31
0.0
  0
LINE
  5
CD
  8
0
 62
     7
 10
108.5499999999999
 20
133.16099999999989
 30
0.0
 11
92.050600000000017
 21
133.16099999999989
 31
0.0
  0
LINE
  5
CE
  8
_________2
 62
     7
 10
205.30099999999999
 20
127.411
 30
0.0
 11
183.55000000000001
 21
127.411
 31
0.0
  0
LINE
  5
CF
  8
_________2
 62
     7
 10
100.2999999999999
 20
-4.0910799999999998
 30
0.0
 11
100.2999999999999
 21
-21.071400000000001
 31
0.0
  0
LINE
  5
D0
  8
_________2
 62
     7
 10
100.2999999999999
 20
275.93099999999993
 30
0.0
 11
100.2999999999999
 21
258.911
 31
0.0
  0
LINE
  5
D1
  8
_________2
 62
     7
 10
17.049499999999998
 20
127.411
 30
0.0
 11
-4.70052
 21
127.411
 31
0.0
  0
LINE
  5
D2
  8
_________2
 62
     7
 10
76.741
 20
29.8047
 30
0.0
 11
74.554699999999997
 21
29.8047
 31
0.0
  0
LINE
  5
D3
  8
_________2
 62
     7
 10
77.233699999999999
 20
29.8047
 30
0.0
 11
76.981499999999997
 21
29.8047
 31
0.0
  0
LINE
  5
D4
  8
_________2
 62
     7
 10
77.726299999999995
 20
29.8047
 30
0.0
 11
80.651200000000003
 21
29.8047
 31
0.0
  0
LINE
  5
D5
  8
_________2
 62
     7
 10
77.233699999999999
 20
29.8047
 30
0.0
 11
77.485500000000002
 21
29.8047
 31
0.0
  0
LINE
  5
D6
  8
_________2
 62
     7
 10
70.837100000000007
 20
29.8047
 30
0.0
 11
68.650499999999994
 21
29.8047
 31
0.0
  0
LINE
  5
D7
  8
_________2
 62
     7
 10
71.329400000000007
 20
29.8047
 30
0.0
 11
71.077600000000004
 21
29.8047
 31
0.0
  0
LINE
  5
D8
  8
_________2
 62
     7
 10
71.329400000000007
 20
30.2974
 30
0.0
 11
71.329400000000007
 21
32.484400000000001
 31
0.0
  0
LINE
  5
D9
  8
_________2
 62
     7
 10
71.329400000000007
 20
29.8047
 30
0.0
 11
71.329400000000007
 21
30.056899999999992
 31
0.0
  0
LINE
  5
DA
  8
_________2
 62
     7
 10
71.822100000000006
 20
29.8047
 30
0.0
 11
74.009
 21
29.8047
 31
0.0
  0
LINE
  5
DB
  8
_________2
 62
     7
 10
71.329400000000007
 20
29.8047
 30
0.0
 11
71.581599999999995
 21
29.8047
 31
0.0
  0
LINE
  5
DC
  8
_________2
 62
     7
 10
71.329400000000007
 20
29.312799999999999
 30
0.0
 11
71.329400000000007
 21
27.125800000000002
 31
0.0
  0
LINE
  5
DD
  8
_________2
 62
     7
 10
71.329400000000007
 20
29.8047
 30
0.0
 11
71.329400000000007
 21
29.5532
 31
0.0
  0
LINE
  5
DE
  8
_________2
 62
     7
 10
75.040499999999994
 20
28.5852
 30
0.0
 11
80.218500000000006
 21
27.720400000000001
 31
0.0
  0
LINE
  5
DF
  8
_________2
 62
     7
 10
75.040499999999994
 20
31.0243
 30
0.0
 11
80.218500000000006
 21
31.889700000000001
 31
0.0
  0
LINE
  5
E0
  8
_________2
 62
     7
 10
80.218500000000006
 20
27.720400000000001
 30
0.0
 11
80.218500000000006
 21
31.889700000000001
 31
0.0
  0
LINE
  5
E1
  8
_________2
 62
     7
 10
75.040499999999994
 20
28.5852
 30
0.0
 11
75.040499999999994
 21
31.0243
 31
0.0
  0
ARC
  5
E2
  8
_________2
 62
     7
 10
71.28285600000001
 20
29.757811
 30
0.0
 40
1.2673589999999999
 50
2.122214
 51
87.893958999999995
  0
ARC
  5
E3
  8
_________2
 62
     7
 10
71.375959999999992
 20
29.758213000000001
 30
0.0
 40
1.2669559999999991
 50
92.104701000000006
 51
177.8952689999999
  0
ARC
  5
E4
  8
_________2
 62
     7
 10
71.376357999999996
 20
29.851671
 30
0.0
 40
1.2673680000000001
 50
182.12203600000001
 51
267.877993
  0
ARC
  5
E5
  8
_________2
 62
     7
 10
71.282531999999989
 20
29.851998999999989
 30
0.0
 40
1.267695999999999
 50
272.12015300000002
 51
357.863674
  0
ARC
  5
E6
  8
_________2
 62
     7
 10
71.329430000000002
 20
29.804742999999998
 30
0.0
 40
2.0849849999999992
 50
0.00001
 51
89.999980000000008
  0
ARC
  5
E7
  8
_________2
 62
     7
 10
71.329603000000006
 20
29.804915000000001
 30
0.0
 40
2.084813
 50
90.004733999999999
 51
180.00474399999999
  0
ARC
  5
E8
  8
_________2
 62
     7
 10
71.409106000000008
 20
29.884775999999999
 30
0.0
 40
2.1657950000000001
 50
182.11776599999999
 51
267.89173399999999
  0
ARC
  5
E9
  8
_________2
 62
     7
 10
71.249459000000002
 20
29.885429999999989
 30
0.0
 40
2.1664590000000001
 50
272.11546800000002
 51
357.86560400000002
  0
TEXT
  5
EA
  8
_________2
 62
     7
 10
104.605
 20
1.6794899999999999
 30
0.0
 40
3.0923400000000001
  1
図番
 41
0.5
  0
LINE
  5
EB
  8
_________2
 62
     7
 10
103.55
 20
5.9087199999999989
 30
0.0
 11
183.55099999999999
 21
5.9087199999999989
 31
0.0
  0
TEXT
  5
EC
  8
_________2
 62
     7
 10
104.605
 20
11.679299999999991
 30
0.0
 40
3.0923400000000001
  1
品番
 41
0.5
  0
TEXT
  5
ED
  8
_________2
 62
     7
 10
104.605
 20
31.818100000000001
 30
0.0
 40
3.0923400000000001
  1
名称
 41
0.5
  0
TEXT
  5
EE
  8
_________2
 62
     7
 10
91.845058333333341
 20
26.821999999999989
 30
0.0
 40
3.6545800000000002
  1
mm
 41
0.5
 72
     1
 11
93.367800000000003
 21
26.821999999999989
 31
0.0
  0
TEXT
  5
EF
  8
_________2
 62
     7
 10
85.643199999999993
 20
31.818100000000001
 30
0.0
 40
3.0923400000000001
  1
単位
 41
0.5
  0
TEXT
  5
F0
  8
_________2
 62
     7
 10
85.643199999999993
 20
19.410799999999991
 30
0.0
 40
3.0923400000000001
  1
尺度
 41
0.5
  0
TEXT
  5
F1
  8
_________2
 62
     7
 10
90.853307000000001
 20
13.2179
 30
0.0
 40
3.6545800000000002
  1
1 ： 1
 41
0.5
 72
     1
 11
93.959699999999998
 21
13.2179
 31
0.0
  0
TEXT
  5
F2
  8
_________2
 62
     7
 10
137.4824625
 20
9.1078600000000005
 30
0.0
 40
3.9357000000000002
  1
SC06412
 41
0.5
 72
     1
 11
143.55000000000001
 21
9.1078600000000005
 31
0.0
  0
TEXT
  5
F3
  8
_________2
 62
     7
 10
137.4824625
 20
-0.8926299999999999
 30
0.0
 40
3.9357000000000002
  1
SC06412
 41
0.5
 72
     1
 11
143.55000000000001
 21
-0.8926299999999999
 31
0.0
  0
TEXT
  5
F4
  8
_________2
 62
     7
 10
109.179
 20
24.2257
 30
0.0
 40
3.9357000000000002
  1
接続アダプター（G 1/2-%%c10）
 41
0.5
  0
TEXT
  5
F5
  8
_________2
 62
     7
 10
39.364390666666658
 20
13.603
 30
0.0
 40
3.6545800000000002
  1
高橋
 41
0.5
 72
     1
 11
41.313499999999998
 21
13.603
 31
0.0
  0
TEXT
  5
F6
  8
_________2
 62
     7
 10
20.790090666666661
 20
13.603
 30
0.0
 40
3.6545800000000002
  1
石原
 41
0.5
 72
     1
 11
22.73919999999999
 21
13.603
 31
0.0
  0
TEXT
  5
F7
  8
_________2
 62
     7
 10
67.785399999999996
 20
13.2179
 30
0.0
 40
3.6545800000000002
  1
07.11.12
 41
0.5
  0
TEXT
  5
F8
  8
_________2
 62
     7
 10
66.593100000000007
 20
19.410799999999991
 30
0.0
 40
3.0923400000000001
  1
日付
 41
0.5
  0
TEXT
  5
F9
  8
_________2
 62
     7
 10
29.639399999999998
 20
19.410799999999991
 30
0.0
 40
3.0923400000000001
  1
検図
 41
0.5
  0
TEXT
  5
FA
  8
_________2
 62
     7
 10
18.021100000000001
 20
5.21143
 30
0.0
 40
3.0923400000000001
  1
備考
 41
0.5
  0
TEXT
  5
FB
  8
_________2
 62
     7
 10
18.021100000000001
 20
19.410799999999991
 30
0.0
 40
3.0923400000000001
  1
製図
 41
0.5
  0
TEXT
  5
FC
  8
_________2
 62
     7
 10
23.788465333333338
 20
27.936800000000002
 30
0.0
 40
4.4979399999999989
  1
セラトレーディング株式会社
 41
0.5
 72
     1
 11
41.180500000000002
 21
27.936800000000002
 31
0.0
  0
LINE
  5
FD
  8
_________2
 62
     7
 10
183.55099999999999
 20
-4.0910799999999998
 30
0.0
 11
17.049499999999998
 21
-4.0910799999999998
 31
0.0
  0
LINE
  5
FE
  8
_________2
 62
     7
 10
17.049499999999998
 20
-4.0910799999999998
 30
0.0
 11
17.049499999999998
 21
258.911
 31
0.0
  0
LINE
  5
FF
  8
_________2
 62
     7
 10
17.049499999999998
 20
258.911
 30
0.0
 11
183.55099999999999
 21
258.911
 31
0.0
  0
LINE
  5
100
  8
_________2
 62
     7
 10
183.55099999999999
 20
258.911
 30
0.0
 11
183.55099999999999
 21
-4.0910799999999998
 31
0.0
  0
LINE
  5
101
  8
_________2
 62
     7
 10
65.549599999999998
 20
9.4089600000000004
 30
0.0
 11
65.549599999999998
 21
35.908799999999999
 31
0.0
  0
LINE
  5
102
  8
_________2
 62
     7
 10
84.549700000000016
 20
9.4089600000000004
 30
0.0
 11
84.549700000000016
 21
35.908799999999999
 31
0.0
  0
LINE
  5
103
  8
_________2
 62
     7
 10
103.55
 20
-4.0910799999999998
 30
0.0
 11
103.55
 21
35.908799999999999
 31
0.0
  0
LINE
  5
104
  8
_________2
 62
     7
 10
28.549299999999992
 20
9.4089600000000004
 30
0.0
 11
28.549299999999992
 21
23.409199999999998
 31
0.0
  0
LINE
  5
105
  8
_________2
 62
     7
 10
17.049499999999998
 20
9.4089600000000004
 30
0.0
 11
103.55
 21
9.4089600000000004
 31
0.0
  0
LINE
  5
106
  8
_________2
 62
     7
 10
17.049499999999998
 20
23.409199999999998
 30
0.0
 11
103.55
 21
23.409199999999998
 31
0.0
  0
LINE
  5
107
  8
_________2
 62
     7
 10
103.55
 20
15.9085
 30
0.0
 11
183.55099999999999
 21
15.9085
 31
0.0
  0
LINE
  5
108
  8
_________2
 62
     7
 10
17.049499999999998
 20
35.908799999999999
 30
0.0
 11
183.55099999999999
 21
35.908799999999999
 31
0.0
  0
ENDSEC
  0
EOF
