  0
SECTION
  2
HEADER
  9
$ACADVER
  1
AC1009
  9
$INSBASE
 10
0.0
 20
0.0
 30
0.0
  9
$EXTMIN
 10
0.238402
 20
0.4485540000000001
 30
0.0
  9
$EXTMAX
 10
210.24000000000001
 20
297.45099999999991
 30
0.0
  9
$LIMMIN
 10
0.0
 20
0.0
  9
$LIMMAX
 10
12.0
 20
9.0
  9
$ORTHOMODE
 70
     0
  9
$REGENMODE
 70
     1
  9
$FILLMODE
 70
     1
  9
$QTEXTMODE
 70
     0
  9
$MIRRTEXT
 70
     1
  9
$DRAGMODE
 70
     2
  9
$LTSCALE
 40
1.0
  9
$OSMODE
 70
    37
  9
$ATTMODE
 70
     1
  9
$TEXTSIZE
 40
0.0
  9
$TRACEWID
 40
0.05
  9
$TEXTSTYLE
  7
STANDARD
  9
$CLAYER
  8
0
  9
$CELTYPE
  6
CONTINUOUS
  9
$CECOLOR
 62
   256
  9
$DIMSCALE
 40
1.0
  9
$DIMASZ
 40
0.18
  9
$DIMEXO
 40
0.0625
  9
$DIMDLI
 40
0.38
  9
$DIMRND
 40
0.0
  9
$DIMDLE
 40
0.0
  9
$DIMEXE
 40
0.18
  9
$DIMTP
 40
0.0
  9
$DIMTM
 40
0.0
  9
$DIMTXT
 40
0.18
  9
$DIMCEN
 40
0.09
  9
$DIMTSZ
 40
0.0
  9
$DIMTOL
 70
     0
  9
$DIMLIM
 70
     0
  9
$DIMTIH
 70
     1
  9
$DIMTOH
 70
     1
  9
$DIMSE1
 70
     0
  9
$DIMSE2
 70
     0
  9
$DIMTAD
 70
     0
  9
$DIMZIN
 70
     0
  9
$DIMBLK
  1

  9
$DIMASO
 70
     1
  9
$DIMSHO
 70
     1
  9
$DIMPOST
  1

  9
$DIMAPOST
  1

  9
$DIMALT
 70
     0
  9
$DIMALTD
 70
     2
  9
$DIMALTF
 40
25.399999999999999
  9
$DIMLFAC
 40
1.0
  9
$DIMTOFL
 70
     0
  9
$DIMTVP
 40
0.0
  9
$DIMTIX
 70
     0
  9
$DIMSOXD
 70
     0
  9
$DIMSAH
 70
     0
  9
$DIMBLK1
  1

  9
$DIMBLK2
  1

  9
$DIMSTYLE
  2
STANDARD
  9
$DIMCLRD
 70
     0
  9
$DIMCLRE
 70
     0
  9
$DIMCLRT
 70
     0
  9
$DIMTFAC
 40
1.0
  9
$DIMGAP
 40
0.09
  9
$LUNITS
 70
     2
  9
$LUPREC
 70
     4
  9
$SKETCHINC
 40
0.1
  9
$FILLETRAD
 40
0.0
  9
$AUNITS
 70
     0
  9
$AUPREC
 70
     0
  9
$MENU
  1
.
  9
$ELEVATION
 40
0.0
  9
$PELEVATION
 40
0.0
  9
$THICKNESS
 40
0.0
  9
$LIMCHECK
 70
     0
  9
$BLIPMODE
 70
     0
  9
$CHAMFERA
 40
0.0
  9
$CHAMFERB
 40
0.0
  9
$SKPOLY
 70
     0
  9
$TDCREATE
 40
2444972.375
  9
$TDUPDATE
 40
2456723.25016412
  9
$TDINDWG
 40
0.0000067708
  9
$TDUSRTIMER
 40
0.0000067708
  9
$USRTIMER
 70
     1
  9
$ANGBASE
 50
0.0
  9
$ANGDIR
 70
     0
  9
$PDMODE
 70
     0
  9
$PDSIZE
 40
0.0
  9
$PLINEWID
 40
0.0
  9
$COORDS
 70
     1
  9
$SPLFRAME
 70
     0
  9
$SPLINETYPE
 70
     6
  9
$SPLINESEGS
 70
     8
  9
$ATTDIA
 70
     0
  9
$ATTREQ
 70
     1
  9
$HANDLING
 70
     1
  9
$HANDSEED
  5
226
  9
$SURFTAB1
 70
     6
  9
$SURFTAB2
 70
     6
  9
$SURFTYPE
 70
     6
  9
$SURFU
 70
     6
  9
$SURFV
 70
     6
  9
$UCSNAME
  2

  9
$UCSORG
 10
0.0
 20
0.0
 30
0.0
  9
$UCSXDIR
 10
1.0
 20
0.0
 30
0.0
  9
$UCSYDIR
 10
0.0
 20
1.0
 30
0.0
  9
$PUCSNAME
  2

  9
$PUCSORG
 10
0.0
 20
0.0
 30
0.0
  9
$PUCSXDIR
 10
1.0
 20
0.0
 30
0.0
  9
$PUCSYDIR
 10
0.0
 20
1.0
 30
0.0
  9
$USERI1
 70
     0
  9
$USERI2
 70
     0
  9
$USERI3
 70
     0
  9
$USERI4
 70
     0
  9
$USERI5
 70
     0
  9
$USERR1
 40
0.0
  9
$USERR2
 40
0.0
  9
$USERR3
 40
0.0
  9
$USERR4
 40
0.0
  9
$USERR5
 40
0.0
  9
$WORLDVIEW
 70
     1
  9
$SHADEDGE
 70
     3
  9
$SHADEDIF
 70
    70
  9
$TILEMODE
 70
     1
  9
$MAXACTVP
 70
    48
  9
$PLIMCHECK
 70
     0
  9
$PEXTMIN
 10
1.0000000000000000E+020
 20
1.0000000000000000E+020
 30
1.0000000000000000E+020
  9
$PEXTMAX
 10
-1.0000000000000000E+020
 20
-1.0000000000000000E+020
 30
-1.0000000000000000E+020
  9
$PLIMMIN
 10
0.0
 20
0.0
  9
$PLIMMAX
 10
12.0
 20
9.0
  9
$UNITMODE
 70
     0
  9
$VISRETAIN
 70
     1
  9
$PLINEGEN
 70
     0
  9
$PSLTSCALE
 70
     1
  0
ENDSEC
  0
SECTION
  2
TABLES
  0
TABLE
  2
VPORT
 70
     2
  0
VPORT
  2
*ACTIVE
 70
     0
 10
0.0
 20
0.0
 11
1.0
 21
1.0
 12
206.98016390466589
 22
148.7254999999999
 13
0.0
 23
0.0
 14
1.0
 24
1.0
 15
0.0
 25
0.0
 16
0.0
 26
0.0
 36
1.0
 17
0.0
 27
0.0
 37
0.0
 40
299.90589133425021
 41
2.2894736842105261
 42
50.0
 43
0.0
 44
0.0
 50
0.0
 51
0.0
 71
     0
 72
   100
 73
     1
 74
     1
 75
     0
 76
     0
 77
     0
 78
     0
  0
ENDTAB
  0
TABLE
  2
LTYPE
 70
     3
  0
LTYPE
  2
CONTINUOUS
 70
     0
  3
Solid line
 72
    65
 73
     0
 40
0.0
  0
LTYPE
  2
AIGENLINE001
 70
     0
  3
generate AI->DXF Converter
 72
    65
 73
     2
 40
1.5522299999999991
 49
0.776115
 49
-0.776115
  0
LTYPE
  2
AIGENLINE002
 70
     0
  3
generate AI->DXF Converter
 72
    65
 73
     4
 40
5.8561449999999988
 49
3.5278
 49
-0.776115
 49
0.776115
 49
-0.776115
  0
ENDTAB
  0
TABLE
  2
LAYER
 70
     2
  0
LAYER
  2
0
 70
     0
 62
     7
  6
CONTINUOUS
  0
LAYER
  2
_________2
 70
     0
 62
     7
  6
CONTINUOUS
  0
ENDTAB
  0
TABLE
  2
STYLE
 70
     1
  0
STYLE
  2
STANDARD
 70
     0
 40
0.0
 41
0.0
 50
0.0
 71
     0
 42
0.0
  3
TXT
  4
EXTFONT.SHX
  0
ENDTAB
  0
TABLE
  2
VIEW
 70
     0
  0
ENDTAB
  0
TABLE
  2
UCS
 70
     0
  0
ENDTAB
  0
TABLE
  2
APPID
 70
     1
  0
APPID
  2
ACAD
 70
     0
  0
ENDTAB
  0
TABLE
  2
DIMSTYLE
 70
     1
  0
DIMSTYLE
  2
STANDARD
 70
     0
  3

  4

  5

  6

  7

 40
1.0
 41
0.18
 42
0.0625
 43
0.38
 44
0.18
 45
0.0
 46
0.0
 47
0.0
 48
0.0
140
0.18
141
0.09
142
0.0
143
25.399999999999999
144
1.0
145
0.0
146
1.0
147
0.09
 71
     0
 72
     0
 73
     1
 74
     1
 75
     0
 76
     0
 77
     0
 78
     0
170
     0
171
     2
172
     0
173
     0
174
     0
175
     0
176
     0
177
     0
178
     0
  0
ENDTAB
  0
ENDSEC
  0
SECTION
  2
BLOCKS
  0
BLOCK
  8
0
  2
$MODEL_SPACE
 70
     0
 10
0.0
 20
0.0
 30
0.0
  3
$MODEL_SPACE
  1

  0
ENDBLK
  5
1A
  8
0
  0
BLOCK
 67
     1
  8
0
  2
$PAPER_SPACE
 70
     0
 10
0.0
 20
0.0
 30
0.0
  3
$PAPER_SPACE
  1

  0
ENDBLK
  5
17
 67
     1
  8
0
  0
ENDSEC
  0
SECTION
  2
ENTITIES
  0
TEXT
  5
23
  8
0
 62
     7
 10
29.700199999999992
 20
67.051299999999998
 30
0.0
 40
4.2168199999999993
  1
※排水栓を閉めた状態で毎分10L以上吐水させないでください。
 41
0.5
  0
TEXT
  5
24
  8
0
 62
     7
 10
29.700199999999992
 20
61.78029999999999
 30
0.0
 40
4.2168199999999993
  1
※壁取付部には厚さ30mm以上の補強材を入れてください。
 41
0.5
  0
TEXT
  5
25
  8
0
 62
     7
 10
55.817799999999998
 20
221.27500000000001
 30
0.0
 40
3.0923400000000001
  1
%%c46
 41
0.5
  0
TEXT
  5
26
  8
0
 62
     7
 10
107.64088
 20
198.124
 30
0.0
 40
3.0923400000000001
  1
%%c35
 41
0.5
 72
     2
 11
111.7639999999999
 21
198.124
 31
0.0
  0
TEXT
  5
27
  8
0
 62
     7
 10
76.782139999999998
 20
143.1579999999999
 30
0.0
 40
3.0923400000000001
  1
385
 41
0.5
 72
     1
 11
78.843699999999998
 21
143.1579999999999
 31
0.0
  0
TEXT
  5
28
  8
0
 62
     7
 10
153.02983
 20
112.949
 30
0.0
 40
3.0923400000000001
  1
100
 41
0.5
 72
     1
 11
154.57599999999999
 21
112.949
 31
0.0
  0
TEXT
  5
29
  8
0
 62
     7
 10
77.039834999999997
 20
174.20500000000001
 30
0.0
 40
3.0923400000000001
  1
500
 41
0.5
 72
     1
 11
78.843699999999998
 21
174.20500000000001
 31
0.0
  0
TEXT
  5
2A
  8
0
 62
     7
 10
76.910987500000005
 20
180.8479999999999
 30
0.0
 40
3.0923400000000001
  1
305
 41
0.5
 72
     1
 11
78.843699999999998
 21
180.8479999999999
 31
0.0
  0
TEXT
  5
2B
  8
0
 62
     7
 10
86.290035000000003
 20
222.12299999999991
 30
0.0
 40
3.0923400000000001
  1
185
 41
0.5
 72
     1
 11
88.093900000000005
 21
222.12299999999991
 31
0.0
  0
TEXT
  5
2C
  8
0
 62
     7
 10
108.011
 20
141.50844000000001
 30
0.0
 40
3.0923400000000001
  1
15
 50
90.0
 41
0.5
 72
     2
 11
108.011
 21
143.56999999999991
 31
0.0
  0
TEXT
  5
2D
  8
0
 62
     7
 10
116.81
 20
217.04604999999989
 30
0.0
 40
3.0923400000000001
  1
45
 50
90.0
 41
0.5
 72
     2
 11
116.81
 21
219.62299999999991
 31
0.0
  0
TEXT
  5
2E
  8
0
 62
     7
 10
116.81
 20
183.09599999999989
 30
0.0
 40
3.0923400000000001
  1
30
 50
90.0
 41
0.5
  0
TEXT
  5
2F
  8
0
 62
     7
 10
110.7439999999999
 20
208.7325249999999
 30
0.0
 40
3.0923400000000001
  1
75
 50
90.0
 41
0.5
 72
     1
 11
110.7439999999999
 21
210.0209999999999
 31
0.0
  0
TEXT
  5
30
  8
0
 62
     7
 10
44.495600000000003
 20
133.6855249999999
 30
0.0
 40
3.0923400000000001
  1
55
 50
90.0
 41
0.5
 72
     1
 11
44.495600000000003
 21
134.9739999999999
 31
0.0
  0
TEXT
  5
31
  8
0
 62
     7
 10
147.0089999999999
 20
128.92883
 30
0.0
 40
3.0923400000000001
  1
115
 50
90.0
 41
0.5
 72
     1
 11
147.0089999999999
 21
130.47499999999999
 31
0.0
  0
TEXT
  5
32
  8
0
 62
     7
 10
113.2889999999999
 20
127.1701349999999
 30
0.0
 40
3.0923400000000001
  1
175
 50
90.0
 41
0.5
 72
     1
 11
113.2889999999999
 21
128.9739999999999
 31
0.0
  0
TEXT
  5
33
  8
0
 62
     7
 10
122.4189999999999
 20
199.30628749999991
 30
0.0
 40
3.0923400000000001
  1
250
 50
90.0
 41
0.5
 72
     1
 11
122.4189999999999
 21
201.23899999999989
 31
0.0
  0
TEXT
  5
34
  8
0
 62
     7
 10
116.81
 20
198.685135
 30
0.0
 40
3.0923400000000001
  1
175
 50
90.0
 41
0.5
 72
     1
 11
116.81
 21
200.489
 31
0.0
  0
ARC
  5
35
  8
0
 62
     7
 10
98.749525000000006
 20
132.02662499999991
 30
0.0
 40
4.0021199999999988
 50
304.32066099999992
 51
326.67238900000001
  0
ARC
  5
36
  8
0
 62
     7
 10
99.026650000000004
 20
131.7874009999999
 30
0.0
 40
3.6394449999999989
 50
327.42212899999993
 51
342.1745049999999
  0
ARC
  5
37
  8
0
 62
     7
 10
58.941077
 20
132.028831
 30
0.0
 40
4.0052070000000004
 50
213.33635799999999
 51
235.67063300000001
  0
ARC
  5
38
  8
0
 62
     7
 10
58.662872
 20
131.78794899999991
 30
0.0
 40
3.6407219999999998
 50
197.828115
 51
212.57529
  0
ARC
  5
39
  8
0
 62
     7
 10
82.602266000000014
 20
187.69287
 30
0.0
 40
21.546156
 50
83.412237000000005
 51
90.015744999999995
  0
ARC
  5
3A
  8
0
 62
     7
 10
83.180149999999998
 20
193.446044
 30
0.0
 40
15.764905000000001
 50
75.145431000000002
 51
83.099807999999996
  0
ARC
  5
3B
  8
0
 62
     7
 10
84.122601000000003
 20
197.26050799999999
 30
0.0
 40
11.83649799999999
 50
63.590324000000003
 51
74.821374000000006
  0
ARC
  5
3C
  8
0
 62
     7
 10
85.248188999999996
 20
199.69951399999991
 30
0.0
 40
9.1517100000000013
 50
41.744993999999998
 51
63.110005999999998
  0
ARC
  5
3D
  8
0
 62
     7
 10
85.500104000000007
 20
200.046896
 30
0.0
 40
8.732939
 50
28.33869799999999
 51
41.144934999999997
  0
ARC
  5
3E
  8
0
 62
     7
 10
86.664614999999998
 20
200.65572399999991
 30
0.0
 40
7.4190050000000003
 50
4.6822749999999989
 51
28.469290000000001
  0
ARC
  5
3F
  8
0
 62
     7
 10
85.672100999999998
 20
200.493841
 30
0.0
 40
8.4218039999999998
 50
359.96551099999999
 51
5.2287480000000004
  0
ARC
  5
40
  8
0
 62
     7
 10
82.602266000000014
 20
213.28467299999991
 30
0.0
 40
21.546156
 50
269.98425499999991
 51
276.58776299999988
  0
ARC
  5
41
  8
0
 62
     7
 10
83.180149999999998
 20
207.53149899999991
 30
0.0
 40
15.764905000000001
 50
276.900192
 51
284.85456899999991
  0
ARC
  5
42
  8
0
 62
     7
 10
84.122601000000003
 20
203.71703500000001
 30
0.0
 40
11.83649799999999
 50
285.17862599999989
 51
296.40967599999988
  0
ARC
  5
43
  8
0
 62
     7
 10
85.248188999999996
 20
201.278029
 30
0.0
 40
9.1517100000000013
 50
296.889994
 51
318.25500599999998
  0
ARC
  5
44
  8
0
 62
     7
 10
85.500104000000007
 20
200.93064699999991
 30
0.0
 40
8.732939
 50
318.85506499999991
 51
331.66130199999992
  0
ARC
  5
45
  8
0
 62
     7
 10
86.664614999999998
 20
200.321819
 30
0.0
 40
7.4190050000000003
 50
331.53071
 51
355.317725
  0
ARC
  5
46
  8
0
 62
     7
 10
85.672100999999998
 20
200.48370199999999
 30
0.0
 40
8.4218039999999998
 50
354.771252
 51
0.034489
  0
LINE
  5
47
  8
0
 62
     7
 10
78.843699999999998
 20
209.23899999999989
 30
0.0
 11
82.596299999999985
 21
209.23899999999989
 31
0.0
  0
LINE
  5
48
  8
0
 62
     7
 10
82.596299999999985
 20
191.739
 30
0.0
 11
78.843699999999998
 21
191.739
 31
0.0
  0
ARC
  5
49
  8
0
 62
     7
 10
75.085228999999984
 20
187.69287
 30
0.0
 40
21.546156
 50
89.984235999999996
 51
96.587744000000015
  0
ARC
  5
4A
  8
0
 62
     7
 10
74.507345999999998
 20
193.446044
 30
0.0
 40
15.764905000000001
 50
96.900171999999984
 51
104.85454900000001
  0
ARC
  5
4B
  8
0
 62
     7
 10
73.564893999999995
 20
197.26050799999999
 30
0.0
 40
11.83649799999999
 50
105.178606
 51
116.409656
  0
ARC
  5
4C
  8
0
 62
     7
 10
72.439278999999999
 20
199.69956799999991
 30
0.0
 40
9.1516490000000008
 50
116.8899709999999
 51
138.2551
  0
ARC
  5
4D
  8
0
 62
     7
 10
72.184025000000005
 20
200.04920999999999
 30
0.0
 40
8.7288770000000007
 50
138.85191299999991
 51
151.66415399999991
  0
ARC
  5
4E
  8
0
 62
     7
 10
71.018895999999984
 20
200.65769399999991
 30
0.0
 40
7.4145630000000002
 50
151.52939499999999
 51
175.08605600000001
  0
ARC
  5
4F
  8
0
 62
     7
 10
72.004215000000002
 20
200.49426999999989
 30
0.0
 40
8.4106249999999996
 50
174.551816
 51
180.03747999999999
  0
ARC
  5
50
  8
0
 62
     7
 10
75.085228999999984
 20
213.28467299999991
 30
0.0
 40
21.546156
 50
263.41225600000001
 51
270.01576399999999
  0
ARC
  5
51
  8
0
 62
     7
 10
74.507345999999998
 20
207.53149899999991
 30
0.0
 40
15.764905000000001
 50
255.14545100000001
 51
263.099828
  0
ARC
  5
52
  8
0
 62
     7
 10
73.564893999999995
 20
203.71703500000001
 30
0.0
 40
11.83649799999999
 50
243.59034399999999
 51
254.821394
  0
ARC
  5
53
  8
0
 62
     7
 10
72.439278999999999
 20
201.27797499999991
 30
0.0
 40
9.1516490000000008
 50
221.7449
 51
243.11002899999991
  0
ARC
  5
54
  8
0
 62
     7
 10
72.184025000000005
 20
200.92833300000001
 30
0.0
 40
8.7288770000000007
 50
208.33584599999989
 51
221.14808699999989
  0
ARC
  5
55
  8
0
 62
     7
 10
71.018895999999984
 20
200.31984899999989
 30
0.0
 40
7.4145630000000002
 50
184.9139439999999
 51
208.47060500000001
  0
ARC
  5
56
  8
0
 62
     7
 10
72.004215000000002
 20
200.48327299999991
 30
0.0
 40
8.4106249999999996
 50
179.9625199999999
 51
185.448184
  0
ARC
  5
57
  8
0
 62
     7
 10
93.037545999999992
 20
203.95061199999989
 30
0.0
 40
14.844080999999999
 50
278.06601699999987
 51
286.44273399999992
  0
ARC
  5
58
  8
0
 62
     7
 10
94.059173999999985
 20
200.2304
 30
0.0
 40
10.987078999999991
 50
286.824386
 51
297.67737299999999
  0
ARC
  5
59
  8
0
 62
     7
 10
95.159454999999994
 20
197.99801099999999
 30
0.0
 40
8.4992839999999994
 50
298.098996
 51
319.4367509999999
  0
ARC
  5
5A
  8
0
 62
     7
 10
95.329566
 20
197.72802200000001
 30
0.0
 40
8.1950269999999996
 50
320.097375
 51
338.43961000000002
  0
ARC
  5
5B
  8
0
 62
     7
 10
93.479770000000002
 20
198.54252199999991
 30
0.0
 40
10.21500399999999
 50
338.00353899999988
 51
348.336164
  0
ARC
  5
5C
  8
0
 62
     7
 10
90.465381000000008
 20
199.23223400000001
 30
0.0
 40
13.306749999999999
 50
348.05175400000002
 51
357.00087000000002
  0
ARC
  5
5D
  8
0
 62
     7
 10
87.171096999999989
 20
199.50913
 30
0.0
 40
16.611335999999991
 50
356.64161000000001
 51
358.19238999999999
  0
LINE
  5
5E
  8
0
 62
     7
 10
90.370400000000004
 20
188.9199999999999
 30
0.0
 11
95.120400000000004
 21
189.2529999999999
 31
0.0
  0
ARC
  5
5F
  8
0
 62
     7
 10
64.650296999999995
 20
203.95226099999999
 30
0.0
 40
14.845762000000001
 50
253.55778099999989
 51
261.93356799999998
  0
ARC
  5
60
  8
0
 62
     7
 10
63.628653
 20
200.23118600000001
 30
0.0
 40
10.987928999999999
 50
242.323025
 51
253.17514399999999
  0
ARC
  5
61
  8
0
 62
     7
 10
62.528070999999997
 20
197.99806699999991
 30
0.0
 40
8.4993479999999995
 50
220.5633959999999
 51
241.90101899999991
  0
ARC
  5
62
  8
0
 62
     7
 10
62.358887000000003
 20
197.7285939999999
 30
0.0
 40
8.1961329999999997
 50
201.56165799999999
 51
219.901397
  0
ARC
  5
63
  8
0
 62
     7
 10
64.210042999999985
 20
198.54319399999989
 30
0.0
 40
10.217408999999989
 50
191.664919
 51
201.99509699999999
  0
ARC
  5
64
  8
0
 62
     7
 10
67.221620000000001
 20
199.232135
 30
0.0
 40
13.306246
 50
182.9988339999999
 51
191.94828699999999
  0
ARC
  5
65
  8
0
 62
     7
 10
70.560133999999991
 20
199.51130199999989
 30
0.0
 40
16.655117999999991
 50
181.81035299999991
 51
183.357057
  0
ARC
  5
66
  8
0
 62
     7
 10
85.885028000000005
 20
165.77986200000001
 30
0.0
 40
40.240501999999999
 50
284.03742799999992
 51
286.76340299999993
  0
ARC
  5
67
  8
0
 62
     7
 10
90.770953000000006
 20
149.2656629999999
 30
0.0
 40
23.019048000000002
 50
286.97431399999999
 51
291.14447699999999
  0
ARC
  5
68
  8
0
 62
     7
 10
93.651058000000006
 20
141.66561200000001
 30
0.0
 40
14.89186799999999
 50
291.35723200000001
 51
298.15171199999997
  0
ARC
  5
69
  8
0
 62
     7
 10
95.104965000000007
 20
138.78390300000001
 30
0.0
 40
11.665355999999999
 50
298.53335399999997
 51
300.38952199999989
  0
ARC
  5
6A
  8
0
 62
     7
 10
71.792546000000002
 20
165.74009099999989
 30
0.0
 40
40.19926199999999
 50
253.235218
 51
255.96399
  0
ARC
  5
6B
  8
0
 62
     7
 10
66.916578000000001
 20
149.262854
 30
0.0
 40
23.016069999999999
 50
248.85532599999991
 51
253.02604199999999
  0
ARC
  5
6C
  8
0
 62
     7
 10
64.037152000000006
 20
141.66482899999991
 30
0.0
 40
14.891025000000001
 50
241.84798699999999
 51
248.6428149999999
  0
ARC
  5
6D
  8
0
 62
     7
 10
62.588627000000002
 20
138.793027
 30
0.0
 40
11.675786999999991
 50
239.611717
 51
241.466249
  0
ARC
  5
6E
  8
0
  6
AIGENLINE001
 62
     7
 10
155.57598400000001
 20
135.7245289999999
 30
0.0
 40
0.5002310000000002
 50
90.0
 51
179.99996999999991
  0
ARC
  5
6F
  8
0
  6
AIGENLINE001
 62
     7
 10
154.03735
 20
125.7626719999999
 30
0.0
 40
1.0391209999999991
 50
272.13049699999999
 51
357.86951299999993
  0
ARC
  5
70
  8
0
  6
AIGENLINE001
 62
     7
 10
137.16038499999999
 20
135.70927900000001
 30
0.0
 40
0.5156310000000001
 50
14.007075
 51
88.614107999999987
  0
ARC
  5
71
  8
0
  6
AIGENLINE001
 62
     7
 10
153.61745300000001
 20
139.006147
 30
0.0
 40
16.269137000000001
 50
191.2457149999999
 51
241.38422
  0
ARC
  5
72
  8
0
 62
     7
 10
135.06967900000001
 20
135.723907
 30
0.0
 40
0.493753
 50
179.92786699999991
 51
194.5558659999999
  0
ARC
  5
73
  8
0
 62
     7
 10
135.09545600000001
 20
135.70525699999999
 30
0.0
 40
0.519887
 50
92.203312999999994
 51
177.875631
  0
ARC
  5
74
  8
0
 62
     7
 10
153.14566499999989
 20
141.31793599999989
 30
0.0
 40
19.415040000000001
 50
197.12878499999999
 51
244.78571700000001
  0
LINE
  5
75
  8
0
 62
     7
 10
157.215
 20
136.22499999999991
 30
0.0
 11
135.0749999999999
 21
136.22499999999991
 31
0.0
  0
ARC
  5
76
  8
0
 62
     7
 10
157.20685900000001
 20
136.73725999999999
 30
0.0
 40
0.512567
 50
270.92912200000001
 51
340.46028100000001
  0
ARC
  5
77
  8
0
 62
     7
 10
158.44537800000001
 20
137.21157999999991
 30
0.0
 40
0.5125790000000001
 50
91.034909999999996
 51
160.54300900000001
  0
LINE
  5
78
  8
0
  6
AIGENLINE001
 62
     7
 10
147.27600000000001
 20
123.7239999999999
 30
0.0
 11
151.876
 21
123.7239999999999
 31
0.0
  0
LINE
  5
79
  8
0
  6
AIGENLINE001
 62
     7
 10
153.32599999999999
 20
124.7239999999999
 30
0.0
 11
154.07599999999991
 21
124.7239999999999
 31
0.0
  0
LINE
  5
7A
  8
0
  6
AIGENLINE001
 62
     7
 10
145.82599999999991
 20
124.7239999999999
 30
0.0
 11
153.32599999999999
 21
124.7239999999999
 31
0.0
  0
LINE
  5
7B
  8
0
  6
AIGENLINE001
 62
     7
 10
145.82599999999991
 20
124.7239999999999
 30
0.0
 11
147.27600000000001
 21
123.7239999999999
 31
0.0
  0
LINE
  5
7C
  8
0
  6
AIGENLINE001
 62
     7
 10
147.27600000000001
 20
123.7239999999999
 30
0.0
 11
147.27600000000001
 21
120.2239999999999
 31
0.0
  0
LINE
  5
7D
  8
0
  6
AIGENLINE001
 62
     7
 10
153.32599999999999
 20
124.7239999999999
 30
0.0
 11
151.876
 21
123.7239999999999
 31
0.0
  0
LINE
  5
7E
  8
0
  6
AIGENLINE001
 62
     7
 10
151.876
 20
123.7239999999999
 30
0.0
 11
151.876
 21
120.2239999999999
 31
0.0
  0
LINE
  5
7F
  8
0
 62
     7
 10
157.69
 20
136.566
 30
0.0
 11
157.96199999999999
 21
137.38200000000001
 31
0.0
  0
LINE
  5
80
  8
0
 62
     7
 10
148.2939999999999
 20
134.01400000000001
 30
0.0
 11
147.703
 21
136.22499999999991
 31
0.0
  0
LINE
  5
81
  8
0
 62
     7
 10
147.703
 20
136.22499999999991
 30
0.0
 11
147.11000000000001
 21
134.01400000000001
 31
0.0
  0
LINE
  5
82
  8
0
 62
     7
 10
147.11000000000001
 20
134.01400000000001
 30
0.0
 11
148.2939999999999
 21
134.01400000000001
 31
0.0
  0
LINE
  5
83
  8
0
 62
     7
 10
147.12399999999991
 20
126.9349999999999
 30
0.0
 11
147.71700000000001
 21
124.7239999999999
 31
0.0
  0
LINE
  5
84
  8
0
 62
     7
 10
147.71700000000001
 20
124.7239999999999
 30
0.0
 11
148.30899999999991
 21
126.9349999999999
 31
0.0
  0
LINE
  5
85
  8
0
 62
     7
 10
148.30899999999991
 20
126.9349999999999
 30
0.0
 11
147.12399999999991
 21
126.9349999999999
 31
0.0
  0
LINE
  5
86
  8
0
 62
     7
 10
147.709
 20
136.22499999999991
 30
0.0
 11
147.709
 21
124.7239999999999
 31
0.0
  0
LINE
  5
87
  8
0
  6
AIGENLINE001
 62
     7
 10
155.07599999999991
 20
135.72499999999999
 30
0.0
 11
155.07599999999991
 21
125.7239999999999
 31
0.0
  0
LINE
  5
88
  8
0
  6
AIGENLINE002
 62
     7
 10
152.07599999999991
 20
138.304
 30
0.0
 11
152.07599999999991
 21
134.071
 31
0.0
  0
LINE
  5
89
  8
0
 62
     7
 10
159.57599999999999
 20
124.98699999999999
 30
0.0
 11
153.1629999999999
 21
120.9799999999999
 31
0.0
  0
LINE
  5
8A
  8
0
 62
     7
 10
159.57599999999999
 20
124.28700000000001
 30
0.0
 11
159.57599999999999
 21
111.54899999999989
 31
0.0
  0
LINE
  5
8B
  8
0
 62
     7
 10
159.57599999999999
 20
137.72399999999999
 30
0.0
 11
159.57599999999999
 21
124.98699999999999
 31
0.0
  0
LINE
  5
8C
  8
0
 62
     7
 10
149.57599999999991
 20
117.5839999999999
 30
0.0
 11
149.57599999999991
 21
111.54899999999989
 31
0.0
  0
LINE
  5
8D
  8
0
  6
AIGENLINE002
 62
     7
 10
149.57599999999991
 20
139.65100000000001
 30
0.0
 11
149.57599999999991
 21
118.28399999999991
 31
0.0
  0
LINE
  5
8E
  8
0
 62
     7
 10
145.77199999999999
 20
123.2639999999999
 30
0.0
 11
145.75299999999999
 21
123.3659999999999
 31
0.0
  0
LINE
  5
8F
  8
0
 62
     7
 10
145.75299999999999
 20
123.3659999999999
 30
0.0
 11
145.71600000000001
 21
123.462
 31
0.0
  0
LINE
  5
90
  8
0
 62
     7
 10
145.71600000000001
 20
123.462
 30
0.0
 11
145.65999999999991
 21
123.54899999999989
 31
0.0
  0
LINE
  5
91
  8
0
 62
     7
 10
145.65999999999991
 20
123.54899999999989
 30
0.0
 11
145.58999999999989
 21
123.624
 31
0.0
  0
LINE
  5
92
  8
0
 62
     7
 10
145.58999999999989
 20
123.624
 30
0.0
 11
145.506
 21
123.68299999999989
 31
0.0
  0
LINE
  5
93
  8
0
 62
     7
 10
145.506
 20
123.68299999999989
 30
0.0
 11
145.4129999999999
 21
123.72499999999989
 31
0.0
  0
LINE
  5
94
  8
0
 62
     7
 10
145.4129999999999
 20
123.72499999999989
 30
0.0
 11
145.31399999999991
 21
123.74799999999991
 31
0.0
  0
LINE
  5
95
  8
0
 62
     7
 10
145.31399999999991
 20
123.74799999999991
 30
0.0
 11
145.21199999999999
 21
123.751
 31
0.0
  0
LINE
  5
96
  8
0
 62
     7
 10
146.03700000000001
 20
120.46899999999999
 30
0.0
 11
145.77199999999999
 21
123.2639999999999
 31
0.0
  0
LINE
  5
97
  8
0
 62
     7
 10
146.30000000000001
 20
120.2239999999999
 30
0.0
 11
146.25099999999989
 21
120.22799999999999
 31
0.0
  0
LINE
  5
98
  8
0
 62
     7
 10
146.25099999999989
 20
120.22799999999999
 30
0.0
 11
146.20500000000001
 21
120.242
 31
0.0
  0
LINE
  5
99
  8
0
 62
     7
 10
146.20500000000001
 20
120.242
 30
0.0
 11
146.15999999999991
 21
120.2639999999999
 31
0.0
  0
LINE
  5
9A
  8
0
 62
     7
 10
146.15999999999991
 20
120.2639999999999
 30
0.0
 11
146.12200000000001
 21
120.2949999999999
 31
0.0
  0
LINE
  5
9B
  8
0
 62
     7
 10
146.12200000000001
 20
120.2949999999999
 30
0.0
 11
146.089
 21
120.33199999999999
 31
0.0
  0
LINE
  5
9C
  8
0
 62
     7
 10
146.089
 20
120.33199999999999
 30
0.0
 11
146.0629999999999
 21
120.374
 31
0.0
  0
LINE
  5
9D
  8
0
 62
     7
 10
146.0629999999999
 20
120.374
 30
0.0
 11
146.04599999999991
 21
120.42100000000001
 31
0.0
  0
LINE
  5
9E
  8
0
 62
     7
 10
146.04599999999991
 20
120.42100000000001
 30
0.0
 11
146.03700000000001
 21
120.46899999999999
 31
0.0
  0
LINE
  5
9F
  8
0
 62
     7
 10
152.852
 20
120.2239999999999
 30
0.0
 11
146.30000000000001
 21
120.2239999999999
 31
0.0
  0
LINE
  5
A0
  8
0
 62
     7
 10
153.114
 20
120.46899999999999
 30
0.0
 11
153.10599999999999
 21
120.42100000000001
 31
0.0
  0
LINE
  5
A1
  8
0
 62
     7
 10
153.10599999999999
 20
120.42100000000001
 30
0.0
 11
153.08799999999991
 21
120.374
 31
0.0
  0
LINE
  5
A2
  8
0
 62
     7
 10
153.08799999999991
 20
120.374
 30
0.0
 11
153.0629999999999
 21
120.33199999999999
 31
0.0
  0
LINE
  5
A3
  8
0
 62
     7
 10
153.0629999999999
 20
120.33199999999999
 30
0.0
 11
153.02999999999989
 21
120.2949999999999
 31
0.0
  0
LINE
  5
A4
  8
0
 62
     7
 10
153.02999999999989
 20
120.2949999999999
 30
0.0
 11
152.99100000000001
 21
120.2639999999999
 31
0.0
  0
LINE
  5
A5
  8
0
 62
     7
 10
152.99100000000001
 20
120.2639999999999
 30
0.0
 11
152.94799999999989
 21
120.242
 31
0.0
  0
LINE
  5
A6
  8
0
 62
     7
 10
152.94799999999989
 20
120.242
 30
0.0
 11
152.90100000000001
 21
120.22799999999999
 31
0.0
  0
LINE
  5
A7
  8
0
 62
     7
 10
152.90100000000001
 20
120.22799999999999
 30
0.0
 11
152.852
 21
120.2239999999999
 31
0.0
  0
LINE
  5
A8
  8
0
 62
     7
 10
153.38
 20
123.2639999999999
 30
0.0
 11
153.114
 21
120.46899999999999
 31
0.0
  0
LINE
  5
A9
  8
0
 62
     7
 10
153.876
 20
123.75
 30
0.0
 11
153.77099999999999
 21
123.73099999999999
 31
0.0
  0
LINE
  5
AA
  8
0
 62
     7
 10
153.77099999999999
 20
123.73099999999999
 30
0.0
 11
153.673
 21
123.6909999999999
 31
0.0
  0
LINE
  5
AB
  8
0
 62
     7
 10
153.673
 20
123.6909999999999
 30
0.0
 11
153.58299999999991
 21
123.6329999999999
 31
0.0
  0
LINE
  5
AC
  8
0
 62
     7
 10
153.58299999999991
 20
123.6329999999999
 30
0.0
 11
153.506
 21
123.55799999999989
 31
0.0
  0
LINE
  5
AD
  8
0
 62
     7
 10
153.506
 20
123.55799999999989
 30
0.0
 11
153.44599999999991
 21
123.46899999999999
 31
0.0
  0
LINE
  5
AE
  8
0
 62
     7
 10
153.44599999999991
 20
123.46899999999999
 30
0.0
 11
153.40299999999999
 21
123.37
 31
0.0
  0
LINE
  5
AF
  8
0
 62
     7
 10
153.40299999999999
 20
123.37
 30
0.0
 11
153.38
 21
123.2639999999999
 31
0.0
  0
LINE
  5
B0
  8
0
 62
     7
 10
158.43600000000001
 20
137.72399999999999
 30
0.0
 11
159.57599999999999
 21
137.72399999999999
 31
0.0
  0
LINE
  5
B1
  8
0
 62
     7
 10
154.27699999999999
 20
123.7529999999999
 30
0.0
 11
149.57599999999991
 21
123.7239999999999
 31
0.0
  0
LINE
  5
B2
  8
0
 62
     7
 10
149.57599999999991
 20
123.7239999999999
 30
0.0
 11
144.87499999999989
 21
123.7529999999999
 31
0.0
  0
ARC
  5
B3
  8
0
  6
AIGENLINE001
 62
     7
 10
81.880250000000004
 20
134.586331
 30
0.0
 40
9.8878389999999996
 50
274.13808099999989
 51
280.05348500000002
  0
ARC
  5
B4
  8
0
  6
AIGENLINE001
 62
     7
 10
79.952505000000002
 20
146.22248500000001
 30
0.0
 40
21.682252999999999
 50
279.70164099999988
 51
282.13452100000001
  0
ARC
  5
B5
  8
0
  6
AIGENLINE001
 62
     7
 10
81.779550999999998
 20
137.00390899999999
 30
0.0
 40
12.28652499999999
 50
282.84144800000001
 51
348.81226900000001
  0
ARC
  5
B6
  8
0
  6
AIGENLINE001
 62
     7
 10
87.845145999999986
 20
135.698699
 30
0.0
 40
6.0838349999999988
 50
349.78736299999991
 51
351.88741599999997
  0
ARC
  5
B7
  8
0
  6
AIGENLINE001
 62
     7
 10
79.933956999999992
 20
136.85310200000001
 30
0.0
 40
14.078787
 50
351.77983799999993
 51
353.44669399999992
  0
ARC
  5
B8
  8
0
  6
AIGENLINE001
 62
     7
 10
66.467214999999996
 20
138.40975099999989
 30
0.0
 40
27.635196000000001
 50
353.42689300000001
 51
358.57824900000008
  0
ARC
  5
B9
  8
0
  6
AIGENLINE001
 62
     7
 10
75.807245999999992
 20
134.586331
 30
0.0
 40
9.8878389999999996
 50
259.94653499999998
 51
265.86193900000001
  0
ARC
  5
BA
  8
0
  6
AIGENLINE001
 62
     7
 10
77.734991000000008
 20
146.22248500000001
 30
0.0
 40
21.682252999999999
 50
257.865498
 51
260.29837900000001
  0
ARC
  5
BB
  8
0
  6
AIGENLINE001
 62
     7
 10
75.907944999999998
 20
137.00390899999999
 30
0.0
 40
12.28652499999999
 50
191.18775099999999
 51
257.15857199999988
  0
ARC
  5
BC
  8
0
  6
AIGENLINE001
 62
     7
 10
69.842349999999996
 20
135.698699
 30
0.0
 40
6.0838349999999988
 50
188.112604
 51
190.21265700000001
  0
ARC
  5
BD
  8
0
  6
AIGENLINE001
 62
     7
 10
77.702415999999999
 20
136.846475
 30
0.0
 40
14.027241999999999
 50
186.55026299999989
 51
188.22324499999999
  0
ARC
  5
BE
  8
0
  6
AIGENLINE001
 62
     7
 10
91.220280000000002
 20
138.40975099999989
 30
0.0
 40
27.635196000000001
 50
181.42177000000001
 51
186.573127
  0
ARC
  5
BF
  8
0
  6
AIGENLINE001
 62
     7
 10
97.594057000000006
 20
132.22403099999991
 30
0.0
 40
1.0002040000000001
 50
179.9851689999999
 51
269.98521899999992
  0
ARC
  5
C0
  8
0
  6
AIGENLINE001
 62
     7
 10
97.632261999999997
 20
132.1856479999999
 30
0.0
 40
1.0391269999999999
 50
92.121266000000034
 51
177.86883399999999
  0
LINE
  5
C1
  8
0
  6
AIGENLINE001
 62
     7
 10
97.593800000000002
 20
133.2239999999999
 30
0.0
 11
98.593699999999998
 21
133.2239999999999
 31
0.0
  0
ARC
  5
C2
  8
0
  6
AIGENLINE001
 62
     7
 10
98.555118999999991
 20
132.185485
 30
0.0
 40
1.0392950000000001
 50
2.1397550000000001
 51
87.870106000000007
  0
ARC
  5
C3
  8
0
  6
AIGENLINE001
 62
     7
 10
98.593485000000015
 20
132.22403099999991
 30
0.0
 40
1.0002040000000001
 50
270.01482099999998
 51
0.014791
  0
LINE
  5
C4
  8
0
  6
AIGENLINE001
 62
     7
 10
98.593699999999998
 20
131.2239999999999
 30
0.0
 11
97.593800000000002
 21
131.2239999999999
 31
0.0
  0
LINE
  5
C5
  8
0
  6
AIGENLINE002
 62
     7
 10
152.86099999999999
 20
133.7239999999999
 30
0.0
 11
158.25499999999991
 21
133.7239999999999
 31
0.0
  0
LINE
  5
C6
  8
0
  6
AIGENLINE002
 62
     7
 10
76.240600000000001
 20
133.7239999999999
 30
0.0
 11
81.634600000000006
 21
133.7239999999999
 31
0.0
  0
LINE
  5
C7
  8
0
  6
AIGENLINE002
 62
     7
 10
157.167
 20
132.2239999999999
 30
0.0
 11
162.56099999999989
 21
132.2239999999999
 31
0.0
  0
LINE
  5
C8
  8
0
  6
AIGENLINE002
 62
     7
 10
95.166399999999996
 20
132.2239999999999
 30
0.0
 11
100.56
 21
132.2239999999999
 31
0.0
  0
LINE
  5
C9
  8
0
  6
AIGENLINE002
 62
     7
 10
98.093900000000005
 20
209.77500000000001
 30
0.0
 11
98.093900000000005
 21
216.59999999999991
 31
0.0
  0
LINE
  5
CA
  8
0
  6
AIGENLINE002
 62
     7
 10
59.593600000000002
 20
209.77500000000001
 30
0.0
 11
59.593600000000002
 21
216.59999999999991
 31
0.0
  0
LINE
  5
CB
  8
0
  6
AIGENLINE002
 62
     7
 10
98.093900000000005
 20
130.143
 30
0.0
 11
98.093900000000005
 21
134.608
 31
0.0
  0
ARC
  5
CC
  8
0
  6
AIGENLINE001
 62
     7
 10
59.093837999999998
 20
132.22403099999991
 30
0.0
 40
1.0002040000000001
 50
179.9851689999999
 51
269.98521899999992
  0
ARC
  5
CD
  8
0
  6
AIGENLINE001
 62
     7
 10
59.13165
 20
132.18603999999999
 30
0.0
 40
1.0387200000000001
 50
92.100432999999981
 51
177.88966600000001
  0
LINE
  5
CE
  8
0
  6
AIGENLINE001
 62
     7
 10
59.093600000000002
 20
133.2239999999999
 30
0.0
 11
60.093499999999999
 21
133.2239999999999
 31
0.0
  0
ARC
  5
CF
  8
0
  6
AIGENLINE001
 62
     7
 10
60.054904999999998
 20
132.1854909999999
 30
0.0
 40
1.03929
 50
2.1394820000000001
 51
87.870378999999986
  0
ARC
  5
D0
  8
0
  6
AIGENLINE001
 62
     7
 10
60.093266
 20
132.22403099999991
 30
0.0
 40
1.0002040000000001
 50
270.01482099999998
 51
0.014791
  0
LINE
  5
D1
  8
0
  6
AIGENLINE001
 62
     7
 10
60.093499999999999
 20
131.2239999999999
 30
0.0
 11
59.093600000000002
 21
131.2239999999999
 31
0.0
  0
LINE
  5
D2
  8
0
 62
     7
 10
78.843699999999998
 20
209.23899999999989
 30
0.0
 11
75.091200000000001
 21
209.23899999999989
 31
0.0
  0
LINE
  5
D3
  8
0
 62
     7
 10
75.091200000000001
 20
191.739
 30
0.0
 11
78.843699999999998
 21
191.739
 31
0.0
  0
ARC
  5
D4
  8
0
  6
AIGENLINE001
 62
     7
 10
78.843834000000001
 20
133.72437999999991
 30
0.0
 40
1.2499750000000001
 50
269.99607200000003
 51
359.99604199999987
  0
ARC
  5
D5
  8
0
  6
AIGENLINE001
 62
     7
 10
78.843661999999995
 20
133.72437999999991
 30
0.0
 40
1.249973999999999
 50
180.00395800000001
 51
270.00396799999999
  0
ARC
  5
D6
  8
0
  6
AIGENLINE001
 62
     7
 10
78.843661999999995
 20
133.72420700000001
 30
0.0
 40
1.2499750000000001
 50
89.996052000000006
 51
179.99602200000001
  0
ARC
  5
D7
  8
0
  6
AIGENLINE001
 62
     7
 10
78.843834000000001
 20
133.72420700000001
 30
0.0
 40
1.2499750000000001
 50
0.003958
 51
90.003928000000016
  0
ARC
  5
D8
  8
0
 62
     7
 10
78.843746999999993
 20
203.738551
 30
0.0
 40
3.7500110000000002
 50
270.00002000000001
 51
359.99998999999991
  0
ARC
  5
D9
  8
0
 62
     7
 10
78.843746999999993
 20
203.73855
 30
0.0
 40
3.750008999999999
 50
179.99996999999991
 51
270.00002000000001
  0
ARC
  5
DA
  8
0
 62
     7
 10
78.843749000000003
 20
203.73855
 30
0.0
 40
3.7500110000000002
 50
90.0
 51
179.99996999999991
  0
ARC
  5
DB
  8
0
 62
     7
 10
78.843746999999993
 20
203.73855
 30
0.0
 40
3.7500110000000002
 50
0.00001
 51
89.999980000000008
  0
ARC
  5
DC
  8
0
 62
     7
 10
97.343855000000005
 20
206.23867200000001
 30
0.0
 40
1.7499480000000001
 50
270.00002000000001
 51
359.99998999999991
  0
ARC
  5
DD
  8
0
 62
     7
 10
97.343855000000005
 20
206.23867200000001
 30
0.0
 40
1.7499469999999999
 50
179.99996999999991
 51
270.00002000000001
  0
ARC
  5
DE
  8
0
 62
     7
 10
97.343856000000017
 20
206.23867200000001
 30
0.0
 40
1.7499480000000001
 50
90.0
 51
179.99996999999991
  0
ARC
  5
DF
  8
0
 62
     7
 10
97.343855000000005
 20
206.23867200000001
 30
0.0
 40
1.7499480000000001
 50
0.00001
 51
89.999980000000008
  0
LINE
  5
E0
  8
0
  6
AIGENLINE002
 62
     7
 10
73.346400000000003
 20
203.739
 30
0.0
 11
84.490600000000015
 21
203.739
 31
0.0
  0
LINE
  5
E1
  8
0
  6
AIGENLINE002
 62
     7
 10
94.256200000000007
 20
206.239
 30
0.0
 11
99.887900000000016
 21
206.239
 31
0.0
  0
LINE
  5
E2
  8
0
 62
     7
 10
112.32599999999999
 20
206.239
 30
0.0
 11
100.9319999999999
 21
206.239
 31
0.0
  0
LINE
  5
E3
  8
0
 62
     7
 10
100.56399999999989
 20
203.85599999999991
 30
0.0
 11
98.581299999999999
 21
205.00099999999989
 31
0.0
  0
LINE
  5
E4
  8
0
 62
     7
 10
98.581299999999999
 20
205.00099999999989
 30
0.0
 11
99.726200000000006
 21
203.018
 31
0.0
  0
LINE
  5
E5
  8
0
 62
     7
 10
99.726200000000006
 20
203.018
 30
0.0
 11
100.56399999999989
 21
203.85599999999991
 31
0.0
  0
LINE
  5
E6
  8
0
 62
     7
 10
94.123700000000014
 20
208.6209999999999
 30
0.0
 11
96.106499999999997
 21
207.47599999999991
 31
0.0
  0
LINE
  5
E7
  8
0
 62
     7
 10
96.106499999999997
 20
207.47599999999991
 30
0.0
 11
94.961699999999993
 21
209.459
 31
0.0
  0
LINE
  5
E8
  8
0
 62
     7
 10
94.961699999999993
 20
209.459
 30
0.0
 11
94.123700000000014
 21
208.6209999999999
 31
0.0
  0
LINE
  5
E9
  8
0
 62
     7
 10
93.446700000000007
 20
210.136
 30
0.0
 11
106.15900000000001
 21
197.42400000000001
 31
0.0
  0
LINE
  5
EA
  8
0
 62
     7
 10
111.7639999999999
 20
197.42400000000001
 30
0.0
 11
106.15900000000001
 21
197.42400000000001
 31
0.0
  0
LINE
  5
EB
  8
0
 62
     7
 10
82.4529
 20
200.96700000000001
 30
0.0
 11
80.469999999999999
 21
202.11199999999991
 31
0.0
  0
LINE
  5
EC
  8
0
 62
     7
 10
80.469999999999999
 20
202.11199999999991
 30
0.0
 11
81.614800000000002
 21
200.12899999999999
 31
0.0
  0
LINE
  5
ED
  8
0
 62
     7
 10
81.614800000000002
 20
200.12899999999999
 30
0.0
 11
82.4529
 21
200.96700000000001
 31
0.0
  0
LINE
  5
EE
  8
0
 62
     7
 10
75.234499999999997
 20
206.50999999999999
 30
0.0
 11
77.217500000000001
 21
205.36500000000001
 31
0.0
  0
LINE
  5
EF
  8
0
 62
     7
 10
77.217500000000001
 20
205.36500000000001
 30
0.0
 11
76.072699999999983
 21
207.3479999999999
 31
0.0
  0
LINE
  5
F0
  8
0
 62
     7
 10
76.072699999999983
 20
207.3479999999999
 30
0.0
 11
75.234499999999997
 21
206.50999999999999
 31
0.0
  0
LINE
  5
F1
  8
0
 62
     7
 10
62.007599999999989
 20
220.57499999999999
 30
0.0
 11
83.020099999999999
 21
199.56200000000001
 31
0.0
  0
LINE
  5
F2
  8
0
 62
     7
 10
55.817799999999998
 20
220.57499999999999
 30
0.0
 11
62.007599999999989
 21
220.57499999999999
 31
0.0
  0
LINE
  5
F3
  8
0
 62
     7
 10
86.617000000000004
 20
209.23899999999989
 30
0.0
 11
107.07599999999999
 21
209.23899999999989
 31
0.0
  0
LINE
  5
F4
  8
0
 62
     7
 10
112.47499999999989
 20
209.23899999999989
 30
0.0
 11
118.20999999999989
 21
209.23899999999989
 31
0.0
  0
LINE
  5
F5
  8
0
 62
     7
 10
86.356499999999997
 20
191.739
 30
0.0
 11
118.20999999999989
 21
191.739
 31
0.0
  0
LINE
  5
F6
  8
0
 62
     7
 10
93.650499999999994
 20
188.739
 30
0.0
 11
123.81999999999989
 21
188.739
 31
0.0
  0
LINE
  5
F7
  8
0
 62
     7
 10
104.52799999999991
 20
213.73899999999989
 30
0.0
 11
123.81999999999989
 21
213.73899999999989
 31
0.0
  0
LINE
  5
F8
  8
0
 62
     7
 10
44.774599999999992
 20
132.2239999999999
 30
0.0
 11
55.966099999999997
 21
132.2239999999999
 31
0.0
  0
LINE
  5
F9
  8
0
 62
     7
 10
104.73099999999999
 20
136.2239999999999
 30
0.0
 11
109.411
 21
136.2239999999999
 31
0.0
  0
LINE
  5
FA
  8
0
 62
     7
 10
83.304799999999986
 20
120.2239999999999
 30
0.0
 11
114.68899999999989
 21
120.2239999999999
 31
0.0
  0
LINE
  5
FB
  8
0
 62
     7
 10
104.03100000000001
 20
137.72399999999999
 30
0.0
 11
114.68899999999989
 21
137.72399999999999
 31
0.0
  0
LINE
  5
FC
  8
0
 62
     7
 10
44.774599999999992
 20
137.72399999999999
 30
0.0
 11
53.5197
 21
137.72399999999999
 31
0.0
  0
LINE
  5
FD
  8
0
  6
AIGENLINE002
 62
     7
 10
56.666200000000003
 20
132.2239999999999
 30
0.0
 11
62.060200000000002
 21
132.2239999999999
 31
0.0
  0
LINE
  5
FE
  8
0
 62
     7
 10
151.78599999999989
 20
112.834
 30
0.0
 11
149.5749999999999
 21
112.2419999999999
 31
0.0
  0
LINE
  5
FF
  8
0
 62
     7
 10
149.5749999999999
 20
112.2419999999999
 30
0.0
 11
151.78599999999989
 21
111.6489999999999
 31
0.0
  0
LINE
  5
100
  8
0
 62
     7
 10
151.78599999999989
 20
111.6489999999999
 30
0.0
 11
151.78599999999989
 21
112.834
 31
0.0
  0
LINE
  5
101
  8
0
 62
     7
 10
157.36500000000001
 20
111.663
 30
0.0
 11
159.57699999999991
 21
112.256
 31
0.0
  0
LINE
  5
102
  8
0
 62
     7
 10
159.57699999999991
 20
112.256
 30
0.0
 11
157.36500000000001
 21
112.8489999999999
 31
0.0
  0
LINE
  5
103
  8
0
 62
     7
 10
157.36500000000001
 20
112.8489999999999
 30
0.0
 11
157.36500000000001
 21
111.663
 31
0.0
  0
LINE
  5
104
  8
0
 62
     7
 10
149.57599999999991
 20
112.2489999999999
 30
0.0
 11
159.57599999999999
 21
112.2489999999999
 31
0.0
  0
LINE
  5
105
  8
0
 62
     7
 10
61.804400000000001
 20
143.04300000000001
 30
0.0
 11
59.592599999999997
 21
142.4499999999999
 31
0.0
  0
LINE
  5
106
  8
0
 62
     7
 10
59.592599999999997
 20
142.4499999999999
 30
0.0
 11
61.804400000000001
 21
141.858
 31
0.0
  0
LINE
  5
107
  8
0
 62
     7
 10
61.804400000000001
 20
141.858
 30
0.0
 11
61.804400000000001
 21
143.04300000000001
 31
0.0
  0
LINE
  5
108
  8
0
 62
     7
 10
95.883099999999985
 20
141.87200000000001
 30
0.0
 11
98.094899999999996
 21
142.46499999999989
 31
0.0
  0
LINE
  5
109
  8
0
 62
     7
 10
98.094899999999996
 20
142.46499999999989
 30
0.0
 11
95.883099999999985
 21
143.05699999999999
 31
0.0
  0
LINE
  5
10A
  8
0
 62
     7
 10
95.883099999999985
 20
143.05699999999999
 30
0.0
 11
95.883099999999985
 21
141.87200000000001
 31
0.0
  0
LINE
  5
10B
  8
0
 62
     7
 10
59.593600000000002
 20
142.45799999999991
 30
0.0
 11
98.093900000000005
 21
142.45799999999991
 31
0.0
  0
LINE
  5
10C
  8
0
 62
     7
 10
98.093900000000005
 20
135.30799999999999
 30
0.0
 11
98.093900000000005
 21
143.1579999999999
 31
0.0
  0
LINE
  5
10D
  8
0
  6
AIGENLINE002
 62
     7
 10
59.593600000000002
 20
130.143
 30
0.0
 11
59.593600000000002
 21
134.608
 31
0.0
  0
LINE
  5
10E
  8
0
 62
     7
 10
59.593600000000002
 20
135.30799999999999
 30
0.0
 11
59.593600000000002
 21
143.1579999999999
 31
0.0
  0
LINE
  5
10F
  8
0
 62
     7
 10
65.804299999999984
 20
180.733
 30
0.0
 11
63.59259999999999
 21
180.14099999999991
 31
0.0
  0
LINE
  5
110
  8
0
 62
     7
 10
63.59259999999999
 20
180.14099999999991
 30
0.0
 11
65.804299999999984
 21
179.54799999999989
 31
0.0
  0
LINE
  5
111
  8
0
 62
     7
 10
65.804299999999984
 20
179.54799999999989
 30
0.0
 11
65.804299999999984
 21
180.733
 31
0.0
  0
LINE
  5
112
  8
0
 62
     7
 10
91.883200000000002
 20
179.5629999999999
 30
0.0
 11
94.094899999999996
 21
180.15499999999989
 31
0.0
  0
LINE
  5
113
  8
0
 62
     7
 10
94.094899999999996
 20
180.15499999999989
 30
0.0
 11
91.883200000000002
 21
180.74799999999991
 31
0.0
  0
LINE
  5
114
  8
0
 62
     7
 10
91.883200000000002
 20
180.74799999999991
 30
0.0
 11
91.883200000000002
 21
179.5629999999999
 31
0.0
  0
LINE
  5
115
  8
0
 62
     7
 10
63.593600000000002
 20
180.14799999999991
 30
0.0
 11
94.093900000000005
 21
180.14799999999991
 31
0.0
  0
LINE
  5
116
  8
0
 62
     7
 10
94.093900000000005
 20
197.8129999999999
 30
0.0
 11
94.093900000000005
 21
179.44799999999989
 31
0.0
  0
LINE
  5
117
  8
0
 62
     7
 10
112.20399999999989
 20
211.52799999999991
 30
0.0
 11
111.611
 21
213.7399999999999
 31
0.0
  0
LINE
  5
118
  8
0
 62
     7
 10
111.611
 20
213.7399999999999
 30
0.0
 11
111.01900000000001
 21
211.52799999999991
 31
0.0
  0
LINE
  5
119
  8
0
 62
     7
 10
111.01900000000001
 20
211.52799999999991
 30
0.0
 11
112.20399999999989
 21
211.52799999999991
 31
0.0
  0
LINE
  5
11A
  8
0
 62
     7
 10
111.0329999999999
 20
208.44900000000001
 30
0.0
 11
111.626
 21
206.238
 31
0.0
  0
LINE
  5
11B
  8
0
 62
     7
 10
111.626
 20
206.238
 30
0.0
 11
112.2179999999999
 21
208.44900000000001
 31
0.0
  0
LINE
  5
11C
  8
0
 62
     7
 10
112.2179999999999
 20
208.44900000000001
 30
0.0
 11
111.0329999999999
 21
208.44900000000001
 31
0.0
  0
LINE
  5
11D
  8
0
 62
     7
 10
111.619
 20
213.73899999999989
 30
0.0
 11
111.619
 21
206.239
 31
0.0
  0
LINE
  5
11E
  8
0
 62
     7
 10
123.7049999999999
 20
211.52799999999991
 30
0.0
 11
123.113
 21
213.7399999999999
 31
0.0
  0
LINE
  5
11F
  8
0
 62
     7
 10
123.113
 20
213.7399999999999
 30
0.0
 11
122.52
 21
211.52799999999991
 31
0.0
  0
LINE
  5
120
  8
0
 62
     7
 10
122.52
 20
211.52799999999991
 30
0.0
 11
123.7049999999999
 21
211.52799999999991
 31
0.0
  0
LINE
  5
121
  8
0
 62
     7
 10
122.5349999999999
 20
190.94900000000001
 30
0.0
 11
123.127
 21
188.73699999999991
 31
0.0
  0
LINE
  5
122
  8
0
 62
     7
 10
123.127
 20
188.73699999999991
 30
0.0
 11
123.72
 21
190.94900000000001
 31
0.0
  0
LINE
  5
123
  8
0
 62
     7
 10
123.72
 20
190.94900000000001
 30
0.0
 11
122.5349999999999
 21
190.94900000000001
 31
0.0
  0
LINE
  5
124
  8
0
 62
     7
 10
123.12
 20
213.73899999999989
 30
0.0
 11
123.12
 21
188.739
 31
0.0
  0
LINE
  5
125
  8
0
 62
     7
 10
109.3029999999999
 20
134.01199999999989
 30
0.0
 11
108.711
 21
136.2239999999999
 31
0.0
  0
LINE
  5
126
  8
0
 62
     7
 10
108.711
 20
136.2239999999999
 30
0.0
 11
108.11799999999999
 21
134.01199999999989
 31
0.0
  0
LINE
  5
127
  8
0
 62
     7
 10
108.11799999999999
 20
134.01199999999989
 30
0.0
 11
109.3029999999999
 21
134.01199999999989
 31
0.0
  0
LINE
  5
128
  8
0
 62
     7
 10
108.11799999999999
 20
139.93600000000001
 30
0.0
 11
108.711
 21
137.72399999999999
 31
0.0
  0
LINE
  5
129
  8
0
 62
     7
 10
108.711
 20
137.72399999999999
 30
0.0
 11
109.3029999999999
 21
139.93600000000001
 31
0.0
  0
LINE
  5
12A
  8
0
 62
     7
 10
109.3029999999999
 20
139.93600000000001
 30
0.0
 11
108.11799999999999
 21
139.93600000000001
 31
0.0
  0
LINE
  5
12B
  8
0
 62
     7
 10
108.711
 20
143.56999999999991
 30
0.0
 11
108.711
 21
132.43000000000001
 31
0.0
  0
LINE
  5
12C
  8
0
 62
     7
 10
114.5739999999999
 20
135.51400000000001
 30
0.0
 11
113.98099999999999
 21
137.72499999999991
 31
0.0
  0
LINE
  5
12D
  8
0
 62
     7
 10
113.98099999999999
 20
137.72499999999991
 30
0.0
 11
113.38799999999991
 21
135.51400000000001
 31
0.0
  0
LINE
  5
12E
  8
0
 62
     7
 10
113.38799999999991
 20
135.51400000000001
 30
0.0
 11
114.5739999999999
 21
135.51400000000001
 31
0.0
  0
LINE
  5
12F
  8
0
 62
     7
 10
113.40299999999991
 20
122.435
 30
0.0
 11
113.995
 21
120.2229999999999
 31
0.0
  0
LINE
  5
130
  8
0
 62
     7
 10
113.995
 20
120.2229999999999
 30
0.0
 11
114.58799999999999
 21
122.435
 31
0.0
  0
LINE
  5
131
  8
0
 62
     7
 10
114.58799999999999
 20
122.435
 30
0.0
 11
113.40299999999991
 21
122.435
 31
0.0
  0
LINE
  5
132
  8
0
 62
     7
 10
113.9889999999999
 20
137.72399999999999
 30
0.0
 11
113.9889999999999
 21
120.2239999999999
 31
0.0
  0
LINE
  5
133
  8
0
 62
     7
 10
118.10299999999999
 20
207.02699999999999
 30
0.0
 11
117.51000000000001
 21
209.23899999999989
 31
0.0
  0
LINE
  5
134
  8
0
 62
     7
 10
117.51000000000001
 20
209.23899999999989
 30
0.0
 11
116.91799999999991
 21
207.02699999999999
 31
0.0
  0
LINE
  5
135
  8
0
 62
     7
 10
116.91799999999991
 20
207.02699999999999
 30
0.0
 11
118.10299999999999
 21
207.02699999999999
 31
0.0
  0
LINE
  5
136
  8
0
 62
     7
 10
118.10299999999999
 20
186.52699999999999
 30
0.0
 11
117.51000000000001
 21
188.739
 31
0.0
  0
LINE
  5
137
  8
0
 62
     7
 10
117.51000000000001
 20
188.739
 30
0.0
 11
116.91799999999991
 21
186.52699999999999
 31
0.0
  0
LINE
  5
138
  8
0
 62
     7
 10
116.91799999999991
 20
186.52699999999999
 30
0.0
 11
118.10299999999999
 21
186.52699999999999
 31
0.0
  0
LINE
  5
139
  8
0
 62
     7
 10
116.91799999999991
 20
215.9499999999999
 30
0.0
 11
117.51000000000001
 21
213.73899999999989
 31
0.0
  0
LINE
  5
13A
  8
0
 62
     7
 10
117.51000000000001
 20
213.73899999999989
 30
0.0
 11
118.10299999999999
 21
215.9499999999999
 31
0.0
  0
LINE
  5
13B
  8
0
 62
     7
 10
118.10299999999999
 20
215.9499999999999
 30
0.0
 11
116.91799999999991
 21
215.9499999999999
 31
0.0
  0
LINE
  5
13C
  8
0
 62
     7
 10
116.9249999999999
 20
193.9499999999999
 30
0.0
 11
117.5179999999999
 21
191.739
 31
0.0
  0
LINE
  5
13D
  8
0
 62
     7
 10
117.5179999999999
 20
191.739
 30
0.0
 11
118.11
 21
193.9499999999999
 31
0.0
  0
LINE
  5
13E
  8
0
 62
     7
 10
118.11
 20
193.9499999999999
 30
0.0
 11
116.9249999999999
 21
193.9499999999999
 31
0.0
  0
LINE
  5
13F
  8
0
 62
     7
 10
117.51000000000001
 20
219.62299999999991
 30
0.0
 11
117.51000000000001
 21
183.09599999999989
 31
0.0
  0
LINE
  5
140
  8
0
 62
     7
 10
46.060000000000002
 20
135.51400000000001
 30
0.0
 11
45.467500000000001
 21
137.72499999999991
 31
0.0
  0
LINE
  5
141
  8
0
 62
     7
 10
45.467500000000001
 20
137.72499999999991
 30
0.0
 11
44.874699999999997
 21
135.51400000000001
 31
0.0
  0
LINE
  5
142
  8
0
 62
     7
 10
44.874699999999997
 20
135.51400000000001
 30
0.0
 11
46.060000000000002
 21
135.51400000000001
 31
0.0
  0
LINE
  5
143
  8
0
 62
     7
 10
44.889400000000002
 20
134.435
 30
0.0
 11
45.481900000000003
 21
132.2229999999999
 31
0.0
  0
LINE
  5
144
  8
0
 62
     7
 10
45.481900000000003
 20
132.2229999999999
 30
0.0
 11
46.0747
 21
134.435
 31
0.0
  0
LINE
  5
145
  8
0
 62
     7
 10
46.0747
 20
134.435
 30
0.0
 11
44.889400000000002
 21
134.435
 31
0.0
  0
LINE
  5
146
  8
0
 62
     7
 10
45.474699999999991
 20
137.72399999999999
 30
0.0
 11
45.474699999999991
 21
132.2239999999999
 31
0.0
  0
LINE
  5
147
  8
0
 62
     7
 10
63.593600000000002
 20
197.8129999999999
 30
0.0
 11
63.593600000000002
 21
179.44799999999989
 31
0.0
  0
LINE
  5
148
  8
0
 62
     7
 10
56.054299999999998
 20
174.09099999999989
 30
0.0
 11
53.842500000000001
 21
173.49799999999999
 31
0.0
  0
LINE
  5
149
  8
0
 62
     7
 10
53.842500000000001
 20
173.49799999999999
 30
0.0
 11
56.054299999999998
 21
172.90499999999989
 31
0.0
  0
LINE
  5
14A
  8
0
 62
     7
 10
56.054299999999998
 20
172.90499999999989
 30
0.0
 11
56.054299999999998
 21
174.09099999999989
 31
0.0
  0
LINE
  5
14B
  8
0
 62
     7
 10
101.6329999999999
 20
172.9199999999999
 30
0.0
 11
103.845
 21
173.512
 31
0.0
  0
LINE
  5
14C
  8
0
 62
     7
 10
103.845
 20
173.512
 30
0.0
 11
101.6329999999999
 21
174.1049999999999
 31
0.0
  0
LINE
  5
14D
  8
0
 62
     7
 10
101.6329999999999
 20
174.1049999999999
 30
0.0
 11
101.6329999999999
 21
172.9199999999999
 31
0.0
  0
LINE
  5
14E
  8
0
 62
     7
 10
53.843600000000002
 20
173.505
 30
0.0
 11
103.84399999999999
 21
173.505
 31
0.0
  0
LINE
  5
14F
  8
0
 62
     7
 10
81.055299999999988
 20
222.01599999999991
 30
0.0
 11
78.843599999999995
 21
221.423
 31
0.0
  0
LINE
  5
150
  8
0
 62
     7
 10
78.843599999999995
 20
221.423
 30
0.0
 11
81.055299999999988
 21
220.8309999999999
 31
0.0
  0
LINE
  5
151
  8
0
 62
     7
 10
81.055299999999988
 20
220.8309999999999
 30
0.0
 11
81.055299999999988
 21
222.01599999999991
 31
0.0
  0
LINE
  5
152
  8
0
 62
     7
 10
95.133099999999999
 20
220.83799999999999
 30
0.0
 11
97.344899999999996
 21
221.4309999999999
 31
0.0
  0
LINE
  5
153
  8
0
 62
     7
 10
97.344899999999996
 20
221.4309999999999
 30
0.0
 11
95.133099999999999
 21
222.02299999999991
 31
0.0
  0
LINE
  5
154
  8
0
 62
     7
 10
95.133099999999999
 20
222.02299999999991
 30
0.0
 11
95.133099999999999
 21
220.83799999999999
 31
0.0
  0
LINE
  5
155
  8
0
 62
     7
 10
78.843599999999995
 20
221.423
 30
0.0
 11
97.343900000000005
 21
221.423
 31
0.0
  0
LINE
  5
156
  8
0
 62
     7
 10
78.843699999999998
 20
222.12299999999991
 30
0.0
 11
78.843699999999998
 21
216.83500000000001
 31
0.0
  0
LINE
  5
157
  8
0
 62
     7
 10
103.84399999999999
 20
195.86000000000001
 30
0.0
 11
103.84399999999999
 21
172.80500000000001
 31
0.0
  0
LINE
  5
158
  8
0
 62
     7
 10
53.843600000000002
 20
195.86000000000001
 30
0.0
 11
53.843600000000002
 21
172.80500000000001
 31
0.0
  0
LINE
  5
159
  8
0
 62
     7
 10
97.343900000000005
 20
222.12299999999991
 30
0.0
 11
97.343900000000005
 21
210.298
 31
0.0
  0
LINE
  5
15A
  8
0
  6
AIGENLINE002
 62
     7
 10
97.343900000000005
 20
209.59700000000001
 30
0.0
 11
97.343900000000005
 21
202.93199999999999
 31
0.0
  0
ARC
  5
15B
  8
0
 62
     7
 10
78.843748000000005
 20
203.738551
 30
0.0
 40
2.2999610000000001
 50
270.00002000000001
 51
359.99998999999991
  0
ARC
  5
15C
  8
0
 62
     7
 10
78.843748000000005
 20
203.73855
 30
0.0
 40
2.29996
 50
179.99996999999991
 51
270.00002000000001
  0
ARC
  5
15D
  8
0
 62
     7
 10
78.843748000000005
 20
203.73855
 30
0.0
 40
2.2999610000000001
 50
90.0
 51
179.99996999999991
  0
ARC
  5
15E
  8
0
 62
     7
 10
78.843748000000005
 20
203.73855
 30
0.0
 40
2.2999610000000001
 50
0.00001
 51
89.999980000000008
  0
LINE
  5
15F
  8
0
  6
AIGENLINE001
 62
     7
 10
76.543800000000005
 20
123.7239999999999
 30
0.0
 11
81.143699999999995
 21
123.7239999999999
 31
0.0
  0
LINE
  5
160
  8
0
  6
AIGENLINE001
 62
     7
 10
75.093699999999998
 20
124.7239999999999
 30
0.0
 11
82.593800000000002
 21
124.7239999999999
 31
0.0
  0
LINE
  5
161
  8
0
  6
AIGENLINE001
 62
     7
 10
75.093699999999998
 20
124.7239999999999
 30
0.0
 11
76.543800000000005
 21
123.7239999999999
 31
0.0
  0
LINE
  5
162
  8
0
  6
AIGENLINE001
 62
     7
 10
76.543800000000005
 20
123.7239999999999
 30
0.0
 11
76.543800000000005
 21
120.2239999999999
 31
0.0
  0
LINE
  5
163
  8
0
  6
AIGENLINE001
 62
     7
 10
82.593800000000002
 20
124.7239999999999
 30
0.0
 11
81.143699999999995
 21
123.7239999999999
 31
0.0
  0
LINE
  5
164
  8
0
  6
AIGENLINE001
 62
     7
 10
81.143699999999995
 20
123.7239999999999
 30
0.0
 11
81.143699999999995
 21
120.2239999999999
 31
0.0
  0
LINE
  5
165
  8
0
  6
AIGENLINE002
 62
     7
 10
78.843699999999998
 20
139.65100000000001
 30
0.0
 11
78.843699999999998
 21
118.28399999999991
 31
0.0
  0
LINE
  5
166
  8
0
  6
AIGENLINE002
 62
     7
 10
78.843699999999998
 20
216.13499999999999
 30
0.0
 11
78.843699999999998
 21
186.59
 31
0.0
  0
LINE
  5
167
  8
0
 62
     7
 10
75.040000000000006
 20
123.2639999999999
 30
0.0
 11
75.0214
 21
123.3659999999999
 31
0.0
  0
LINE
  5
168
  8
0
 62
     7
 10
75.0214
 20
123.3659999999999
 30
0.0
 11
74.983800000000002
 21
123.462
 31
0.0
  0
LINE
  5
169
  8
0
 62
     7
 10
74.983800000000002
 20
123.462
 30
0.0
 11
74.928399999999996
 21
123.54899999999989
 31
0.0
  0
LINE
  5
16A
  8
0
 62
     7
 10
74.928399999999996
 20
123.54899999999989
 30
0.0
 11
74.858299999999986
 21
123.624
 31
0.0
  0
LINE
  5
16B
  8
0
 62
     7
 10
74.858299999999986
 20
123.624
 30
0.0
 11
74.774199999999993
 21
123.68299999999989
 31
0.0
  0
LINE
  5
16C
  8
0
 62
     7
 10
74.774199999999993
 20
123.68299999999989
 30
0.0
 11
74.681200000000004
 21
123.72499999999989
 31
0.0
  0
LINE
  5
16D
  8
0
 62
     7
 10
74.681200000000004
 20
123.72499999999989
 30
0.0
 11
74.581800000000001
 21
123.74799999999991
 31
0.0
  0
LINE
  5
16E
  8
0
 62
     7
 10
74.581800000000001
 20
123.74799999999991
 30
0.0
 11
74.480199999999996
 21
123.751
 31
0.0
  0
LINE
  5
16F
  8
0
 62
     7
 10
75.305400000000006
 20
120.46899999999999
 30
0.0
 11
75.040000000000006
 21
123.2639999999999
 31
0.0
  0
LINE
  5
170
  8
0
 62
     7
 10
75.567800000000005
 20
120.2239999999999
 30
0.0
 11
75.519199999999984
 21
120.22799999999999
 31
0.0
  0
LINE
  5
171
  8
0
 62
     7
 10
75.519199999999984
 20
120.22799999999999
 30
0.0
 11
75.472399999999993
 21
120.242
 31
0.0
  0
LINE
  5
172
  8
0
 62
     7
 10
75.472399999999993
 20
120.242
 30
0.0
 11
75.428399999999996
 21
120.2639999999999
 31
0.0
  0
LINE
  5
173
  8
0
 62
     7
 10
75.428399999999996
 20
120.2639999999999
 30
0.0
 11
75.389799999999994
 21
120.2949999999999
 31
0.0
  0
LINE
  5
174
  8
0
 62
     7
 10
75.389799999999994
 20
120.2949999999999
 30
0.0
 11
75.356800000000007
 21
120.33199999999999
 31
0.0
  0
LINE
  5
175
  8
0
 62
     7
 10
75.356800000000007
 20
120.33199999999999
 30
0.0
 11
75.331599999999995
 21
120.374
 31
0.0
  0
LINE
  5
176
  8
0
 62
     7
 10
75.331599999999995
 20
120.374
 30
0.0
 11
75.314099999999996
 21
120.42100000000001
 31
0.0
  0
LINE
  5
177
  8
0
 62
     7
 10
75.314099999999996
 20
120.42100000000001
 30
0.0
 11
75.305400000000006
 21
120.46899999999999
 31
0.0
  0
LINE
  5
178
  8
0
 62
     7
 10
82.120099999999994
 20
120.2239999999999
 30
0.0
 11
75.567800000000005
 21
120.2239999999999
 31
0.0
  0
LINE
  5
179
  8
0
 62
     7
 10
82.382400000000004
 20
120.46899999999999
 30
0.0
 11
82.374099999999999
 21
120.42100000000001
 31
0.0
  0
LINE
  5
17A
  8
0
 62
     7
 10
82.374099999999999
 20
120.42100000000001
 30
0.0
 11
82.356200000000001
 21
120.374
 31
0.0
  0
LINE
  5
17B
  8
0
 62
     7
 10
82.356200000000001
 20
120.374
 30
0.0
 11
82.331100000000006
 21
120.33199999999999
 31
0.0
  0
LINE
  5
17C
  8
0
 62
     7
 10
82.331100000000006
 20
120.33199999999999
 30
0.0
 11
82.297999999999988
 21
120.2949999999999
 31
0.0
  0
LINE
  5
17D
  8
0
 62
     7
 10
82.297999999999988
 20
120.2949999999999
 30
0.0
 11
82.259100000000004
 21
120.2639999999999
 31
0.0
  0
LINE
  5
17E
  8
0
 62
     7
 10
82.259100000000004
 20
120.2639999999999
 30
0.0
 11
82.215800000000016
 21
120.242
 31
0.0
  0
LINE
  5
17F
  8
0
 62
     7
 10
82.215800000000016
 20
120.242
 30
0.0
 11
82.168999999999997
 21
120.22799999999999
 31
0.0
  0
LINE
  5
180
  8
0
 62
     7
 10
82.168999999999997
 20
120.22799999999999
 30
0.0
 11
82.120099999999994
 21
120.2239999999999
 31
0.0
  0
LINE
  5
181
  8
0
 62
     7
 10
82.647800000000004
 20
123.2639999999999
 30
0.0
 11
82.382400000000004
 21
120.46899999999999
 31
0.0
  0
LINE
  5
182
  8
0
 62
     7
 10
83.143900000000016
 20
123.75
 30
0.0
 11
83.039699999999996
 21
123.73099999999999
 31
0.0
  0
LINE
  5
183
  8
0
 62
     7
 10
83.039699999999996
 20
123.73099999999999
 30
0.0
 11
82.940899999999999
 21
123.6909999999999
 31
0.0
  0
LINE
  5
184
  8
0
 62
     7
 10
82.940899999999999
 20
123.6909999999999
 30
0.0
 11
82.851299999999995
 21
123.6329999999999
 31
0.0
  0
LINE
  5
185
  8
0
 62
     7
 10
82.851299999999995
 20
123.6329999999999
 30
0.0
 11
82.774299999999997
 21
123.55799999999989
 31
0.0
  0
LINE
  5
186
  8
0
 62
     7
 10
82.774299999999997
 20
123.55799999999989
 30
0.0
 11
82.713599999999985
 21
123.46899999999999
 31
0.0
  0
LINE
  5
187
  8
0
 62
     7
 10
82.713599999999985
 20
123.46899999999999
 30
0.0
 11
82.670900000000003
 21
123.37
 31
0.0
  0
LINE
  5
188
  8
0
 62
     7
 10
82.670900000000003
 20
123.37
 30
0.0
 11
82.647800000000004
 21
123.2639999999999
 31
0.0
  0
LINE
  5
189
  8
0
 62
     7
 10
103.8279999999999
 20
136.55500000000001
 30
0.0
 11
103.84399999999999
 21
135.982
 31
0.0
  0
LINE
  5
18A
  8
0
 62
     7
 10
102.729
 20
137.72399999999999
 30
0.0
 11
102.9249999999999
 21
137.70599999999999
 31
0.0
  0
LINE
  5
18B
  8
0
 62
     7
 10
102.9249999999999
 20
137.70599999999999
 30
0.0
 11
103.11499999999999
 21
137.65299999999999
 31
0.0
  0
LINE
  5
18C
  8
0
 62
     7
 10
103.11499999999999
 20
137.65299999999999
 30
0.0
 11
103.29299999999991
 21
137.566
 31
0.0
  0
LINE
  5
18D
  8
0
 62
     7
 10
103.29299999999991
 20
137.566
 30
0.0
 11
103.4529999999999
 21
137.44799999999989
 31
0.0
  0
LINE
  5
18E
  8
0
 62
     7
 10
103.4529999999999
 20
137.44799999999989
 30
0.0
 11
103.5889999999999
 21
137.30199999999999
 31
0.0
  0
LINE
  5
18F
  8
0
 62
     7
 10
103.5889999999999
 20
137.30199999999999
 30
0.0
 11
103.69799999999999
 21
137.13499999999991
 31
0.0
  0
LINE
  5
190
  8
0
 62
     7
 10
103.69799999999999
 20
137.13499999999991
 30
0.0
 11
103.77500000000001
 21
136.95099999999999
 31
0.0
  0
LINE
  5
191
  8
0
 62
     7
 10
103.77500000000001
 20
136.95099999999999
 30
0.0
 11
103.8189999999999
 21
136.755
 31
0.0
  0
LINE
  5
192
  8
0
 62
     7
 10
103.8189999999999
 20
136.755
 30
0.0
 11
103.8279999999999
 21
136.55500000000001
 31
0.0
  0
LINE
  5
193
  8
0
 62
     7
 10
54.9587
 20
137.72399999999999
 30
0.0
 11
102.729
 21
137.72399999999999
 31
0.0
  0
LINE
  5
194
  8
0
 62
     7
 10
53.859799999999993
 20
136.55500000000001
 30
0.0
 11
53.883899999999997
 21
136.77500000000001
 31
0.0
  0
LINE
  5
195
  8
0
 62
     7
 10
53.883899999999997
 20
136.77500000000001
 30
0.0
 11
53.948
 21
136.98799999999989
 31
0.0
  0
LINE
  5
196
  8
0
 62
     7
 10
53.948
 20
136.98799999999989
 30
0.0
 11
54.049100000000003
 21
137.18399999999991
 31
0.0
  0
LINE
  5
197
  8
0
 62
     7
 10
54.049100000000003
 20
137.18399999999991
 30
0.0
 11
54.184800000000003
 21
137.358
 31
0.0
  0
LINE
  5
198
  8
0
 62
     7
 10
54.184800000000003
 20
137.358
 30
0.0
 11
54.349299999999999
 21
137.50399999999999
 31
0.0
  0
LINE
  5
199
  8
0
 62
     7
 10
54.349299999999999
 20
137.50399999999999
 30
0.0
 11
54.538400000000003
 21
137.61600000000001
 31
0.0
  0
LINE
  5
19A
  8
0
 62
     7
 10
54.538400000000003
 20
137.61600000000001
 30
0.0
 11
54.743899999999989
 21
137.69
 31
0.0
  0
LINE
  5
19B
  8
0
 62
     7
 10
54.743899999999989
 20
137.69
 30
0.0
 11
54.9587
 21
137.72399999999999
 31
0.0
  0
LINE
  5
19C
  8
0
 62
     7
 10
53.843899999999991
 20
135.982
 30
0.0
 11
53.859799999999993
 21
136.55500000000001
 31
0.0
  0
LINE
  5
19D
  8
0
 62
     7
 10
83.545500000000004
 20
123.7529999999999
 30
0.0
 11
78.843699999999998
 21
123.7239999999999
 31
0.0
  0
LINE
  5
19E
  8
0
 62
     7
 10
88.070800000000006
 20
124.97199999999999
 30
0.0
 11
83.545500000000004
 21
123.7529999999999
 31
0.0
  0
LINE
  5
19F
  8
0
 62
     7
 10
95.645199999999988
 20
126.7409999999999
 30
0.0
 11
88.070800000000006
 21
124.97199999999999
 31
0.0
  0
LINE
  5
1A0
  8
0
 62
     7
 10
103.84399999999999
 20
135.982
 30
0.0
 11
103.32299999999989
 21
133.28699999999989
 31
0.0
  0
LINE
  5
1A1
  8
0
 62
     7
 10
103.32299999999989
 20
133.28699999999989
 30
0.0
 11
102.4909999999999
 21
130.67299999999989
 31
0.0
  0
LINE
  5
1A2
  8
0
 62
     7
 10
103.232
 20
136.22499999999991
 30
0.0
 11
103.32899999999999
 21
136.21600000000001
 31
0.0
  0
LINE
  5
1A3
  8
0
 62
     7
 10
103.32899999999999
 20
136.21600000000001
 30
0.0
 11
103.4229999999999
 21
136.19
 31
0.0
  0
LINE
  5
1A4
  8
0
 62
     7
 10
103.4229999999999
 20
136.19
 30
0.0
 11
103.511
 21
136.14699999999999
 31
0.0
  0
LINE
  5
1A5
  8
0
 62
     7
 10
103.511
 20
136.14699999999999
 30
0.0
 11
103.59
 21
136.08899999999991
 31
0.0
  0
LINE
  5
1A6
  8
0
 62
     7
 10
103.59
 20
136.08899999999991
 30
0.0
 11
103.6579999999999
 21
136.01799999999989
 31
0.0
  0
LINE
  5
1A7
  8
0
 62
     7
 10
103.6579999999999
 20
136.01799999999989
 30
0.0
 11
103.712
 21
135.935
 31
0.0
  0
LINE
  5
1A8
  8
0
 62
     7
 10
103.712
 20
135.935
 30
0.0
 11
103.752
 21
135.84399999999991
 31
0.0
  0
LINE
  5
1A9
  8
0
 62
     7
 10
103.752
 20
135.84399999999991
 30
0.0
 11
103.774
 21
135.74799999999999
 31
0.0
  0
LINE
  5
1AA
  8
0
 62
     7
 10
103.774
 20
135.74799999999999
 30
0.0
 11
103.78
 21
135.64899999999989
 31
0.0
  0
LINE
  5
1AB
  8
0
 62
     7
 10
54.456499999999998
 20
136.22499999999991
 30
0.0
 11
78.843699999999998
 21
136.2239999999999
 31
0.0
  0
LINE
  5
1AC
  8
0
 62
     7
 10
78.843699999999998
 20
136.2239999999999
 30
0.0
 11
103.232
 21
136.22499999999991
 31
0.0
  0
LINE
  5
1AD
  8
0
 62
     7
 10
53.908299999999997
 20
135.64899999999989
 30
0.0
 11
53.913800000000002
 21
135.74799999999999
 31
0.0
  0
LINE
  5
1AE
  8
0
 62
     7
 10
53.913800000000002
 20
135.74799999999999
 30
0.0
 11
53.936599999999999
 21
135.84399999999991
 31
0.0
  0
LINE
  5
1AF
  8
0
 62
     7
 10
53.936599999999999
 20
135.84399999999991
 30
0.0
 11
53.975900000000003
 21
135.935
 31
0.0
  0
LINE
  5
1B0
  8
0
 62
     7
 10
53.975900000000003
 20
135.935
 30
0.0
 11
54.030299999999997
 21
136.01799999999989
 31
0.0
  0
LINE
  5
1B1
  8
0
 62
     7
 10
54.030299999999997
 20
136.01799999999989
 30
0.0
 11
54.0976
 21
136.08899999999991
 31
0.0
  0
LINE
  5
1B2
  8
0
 62
     7
 10
54.0976
 20
136.08899999999991
 30
0.0
 11
54.177199999999999
 21
136.14699999999999
 31
0.0
  0
LINE
  5
1B3
  8
0
 62
     7
 10
54.177199999999999
 20
136.14699999999999
 30
0.0
 11
54.265099999999997
 21
136.19
 31
0.0
  0
LINE
  5
1B4
  8
0
 62
     7
 10
54.265099999999997
 20
136.19
 30
0.0
 11
54.35929999999999
 21
136.21600000000001
 31
0.0
  0
LINE
  5
1B5
  8
0
 62
     7
 10
54.35929999999999
 20
136.21600000000001
 30
0.0
 11
54.456499999999998
 21
136.22499999999991
 31
0.0
  0
LINE
  5
1B6
  8
0
 62
     7
 10
55.197000000000003
 20
130.67299999999989
 30
0.0
 11
54.3645
 21
133.28699999999989
 31
0.0
  0
LINE
  5
1B7
  8
0
 62
     7
 10
54.3645
 20
133.28699999999989
 30
0.0
 11
53.843899999999991
 21
135.982
 31
0.0
  0
LINE
  5
1B8
  8
0
 62
     7
 10
69.616699999999994
 20
124.97199999999999
 30
0.0
 11
62.042900000000003
 21
126.7409999999999
 31
0.0
  0
LINE
  5
1B9
  8
0
 62
     7
 10
74.142700000000005
 20
123.7529999999999
 30
0.0
 11
69.616699999999994
 21
124.97199999999999
 31
0.0
  0
LINE
  5
1BA
  8
0
 62
     7
 10
78.843699999999998
 20
123.7239999999999
 30
0.0
 11
74.142700000000005
 21
123.7529999999999
 31
0.0
  0
LINE
  5
1BB
  8
0
 62
     7
 10
103.32899999999999
 20
211.41200000000001
 30
0.0
 11
103.417
 21
211.4129999999999
 31
0.0
  0
LINE
  5
1BC
  8
0
 62
     7
 10
103.417
 20
211.4129999999999
 30
0.0
 11
103.50399999999991
 21
211.429
 31
0.0
  0
LINE
  5
1BD
  8
0
 62
     7
 10
103.50399999999991
 20
211.429
 30
0.0
 11
103.586
 21
211.46199999999999
 31
0.0
  0
LINE
  5
1BE
  8
0
 62
     7
 10
103.586
 20
211.46199999999999
 30
0.0
 11
103.661
 21
211.5079999999999
 31
0.0
  0
LINE
  5
1BF
  8
0
 62
     7
 10
103.661
 20
211.5079999999999
 30
0.0
 11
103.726
 21
211.5679999999999
 31
0.0
  0
LINE
  5
1C0
  8
0
 62
     7
 10
103.726
 20
211.5679999999999
 30
0.0
 11
103.78
 21
211.63799999999989
 31
0.0
  0
LINE
  5
1C1
  8
0
 62
     7
 10
103.78
 20
211.63799999999989
 30
0.0
 11
103.8189999999999
 21
211.71700000000001
 31
0.0
  0
LINE
  5
1C2
  8
0
 62
     7
 10
54.358800000000002
 20
211.41200000000001
 30
0.0
 11
103.32899999999999
 21
211.41200000000001
 31
0.0
  0
LINE
  5
1C3
  8
0
 62
     7
 10
53.859099999999991
 20
211.791
 30
0.0
 11
53.891599999999997
 21
211.6999999999999
 31
0.0
  0
LINE
  5
1C4
  8
0
 62
     7
 10
53.891599999999997
 20
211.6999999999999
 30
0.0
 11
53.941200000000002
 21
211.61699999999999
 31
0.0
  0
LINE
  5
1C5
  8
0
 62
     7
 10
53.941200000000002
 20
211.61699999999999
 30
0.0
 11
54.005699999999997
 21
211.54499999999999
 31
0.0
  0
LINE
  5
1C6
  8
0
 62
     7
 10
54.005699999999997
 20
211.54499999999999
 30
0.0
 11
54.082700000000003
 21
211.48699999999991
 31
0.0
  0
LINE
  5
1C7
  8
0
 62
     7
 10
54.082700000000003
 20
211.48699999999991
 30
0.0
 11
54.1691
 21
211.44399999999999
 31
0.0
  0
LINE
  5
1C8
  8
0
 62
     7
 10
54.1691
 20
211.44399999999999
 30
0.0
 11
54.262300000000003
 21
211.41900000000001
 31
0.0
  0
LINE
  5
1C9
  8
0
 62
     7
 10
54.262300000000003
 20
211.41900000000001
 30
0.0
 11
54.358800000000002
 21
211.41200000000001
 31
0.0
  0
LINE
  5
1CA
  8
0
 62
     7
 10
82.972899999999996
 20
188.739
 30
0.0
 11
74.714799999999997
 21
188.739
 31
0.0
  0
LINE
  5
1CB
  8
0
 62
     7
 10
90.370599999999996
 20
188.9199999999999
 30
0.0
 11
82.972899999999996
 21
188.739
 31
0.0
  0
LINE
  5
1CC
  8
0
 62
     7
 10
103.84399999999999
 20
202.904
 30
0.0
 11
103.774
 21
198.98500000000001
 31
0.0
  0
LINE
  5
1CD
  8
0
 62
     7
 10
103.7849999999999
 20
209.39199999999991
 30
0.0
 11
103.84399999999999
 21
202.904
 31
0.0
  0
LINE
  5
1CE
  8
0
 62
     7
 10
103.8279999999999
 20
213.73899999999989
 30
0.0
 11
103.7849999999999
 21
209.39199999999991
 31
0.0
  0
LINE
  5
1CF
  8
0
 62
     7
 10
53.859099999999991
 20
213.73899999999989
 30
0.0
 11
78.843699999999998
 21
213.73899999999989
 31
0.0
  0
LINE
  5
1D0
  8
0
 62
     7
 10
78.843699999999998
 20
213.73899999999989
 30
0.0
 11
103.8279999999999
 21
213.73899999999989
 31
0.0
  0
LINE
  5
1D1
  8
0
 62
     7
 10
53.90229999999999
 20
209.39199999999991
 30
0.0
 11
53.859099999999991
 21
213.73899999999989
 31
0.0
  0
LINE
  5
1D2
  8
0
 62
     7
 10
53.843699999999998
 20
202.904
 30
0.0
 11
53.90229999999999
 21
209.39199999999991
 31
0.0
  0
LINE
  5
1D3
  8
0
 62
     7
 10
53.913299999999992
 20
198.98500000000001
 30
0.0
 11
53.843699999999998
 21
202.904
 31
0.0
  0
LINE
  5
1D4
  8
0
 62
     7
 10
67.317099999999996
 20
188.9199999999999
 30
0.0
 11
62.567100000000003
 21
189.2529999999999
 31
0.0
  0
LINE
  5
1D5
  8
0
 62
     7
 10
74.714799999999997
 20
188.739
 30
0.0
 11
67.317099999999996
 21
188.9199999999999
 31
0.0
  0
TEXT
  5
1D6
  8
_________2
 62
     7
 10
29.525700000000001
 20
22.2272
 30
0.0
 40
3.9357000000000002
  1
実容量：1.5L、重量6.0kg、オーバーフロー付
 41
0.5
  0
LINE
  5
1D7
  8
_________2
 62
     7
 10
105.2389999999999
 20
17.428499999999989
 30
0.0
 11
105.2389999999999
 21
0.4485540000000001
 31
0.0
  0
LINE
  5
1D8
  8
_________2
 62
     7
 10
81.679900000000004
 20
51.324300000000001
 30
0.0
 11
79.493700000000004
 21
51.324300000000001
 31
0.0
  0
LINE
  5
1D9
  8
_________2
 62
     7
 10
82.172600000000017
 20
51.324300000000001
 30
0.0
 11
81.920400000000001
 21
51.324300000000001
 31
0.0
  0
LINE
  5
1DA
  8
_________2
 62
     7
 10
82.665199999999984
 20
51.324300000000001
 30
0.0
 11
85.590100000000007
 21
51.324300000000001
 31
0.0
  0
LINE
  5
1DB
  8
_________2
 62
     7
 10
82.172600000000017
 20
51.324300000000001
 30
0.0
 11
82.424800000000005
 21
51.324300000000001
 31
0.0
  0
LINE
  5
1DC
  8
_________2
 62
     7
 10
75.776399999999995
 20
51.324300000000001
 30
0.0
 11
73.589399999999998
 21
51.324300000000001
 31
0.0
  0
LINE
  5
1DD
  8
_________2
 62
     7
 10
76.2684
 20
51.324300000000001
 30
0.0
 11
76.016900000000007
 21
51.324300000000001
 31
0.0
  0
LINE
  5
1DE
  8
_________2
 62
     7
 10
76.2684
 20
51.817
 30
0.0
 11
76.2684
 21
54.003900000000002
 31
0.0
  0
LINE
  5
1DF
  8
_________2
 62
     7
 10
76.2684
 20
51.324300000000001
 30
0.0
 11
76.2684
 21
51.576900000000002
 31
0.0
  0
LINE
  5
1E0
  8
_________2
 62
     7
 10
76.76100000000001
 20
51.324300000000001
 30
0.0
 11
78.947999999999993
 21
51.324300000000001
 31
0.0
  0
LINE
  5
1E1
  8
_________2
 62
     7
 10
76.2684
 20
51.324300000000001
 30
0.0
 11
76.520499999999998
 21
51.324300000000001
 31
0.0
  0
LINE
  5
1E2
  8
_________2
 62
     7
 10
76.2684
 20
50.832399999999993
 30
0.0
 11
76.2684
 21
48.645699999999998
 31
0.0
  0
LINE
  5
1E3
  8
_________2
 62
     7
 10
76.2684
 20
51.324300000000001
 30
0.0
 11
76.2684
 21
51.072800000000001
 31
0.0
  0
LINE
  5
1E4
  8
_________2
 62
     7
 10
79.979399999999984
 20
50.104799999999997
 30
0.0
 11
85.157399999999996
 21
49.240000000000002
 31
0.0
  0
LINE
  5
1E5
  8
_________2
 62
     7
 10
79.979399999999984
 20
52.544199999999989
 30
0.0
 11
85.157399999999996
 21
53.409700000000001
 31
0.0
  0
LINE
  5
1E6
  8
_________2
 62
     7
 10
85.157399999999996
 20
49.240000000000002
 30
0.0
 11
85.157399999999996
 21
53.409700000000001
 31
0.0
  0
LINE
  5
1E7
  8
_________2
 62
     7
 10
79.979399999999984
 20
50.104799999999997
 30
0.0
 11
79.979399999999984
 21
52.544199999999989
 31
0.0
  0
ARC
  5
1E8
  8
_________2
 62
     7
 10
76.221766000000002
 20
51.277380999999998
 30
0.0
 40
1.267714
 50
2.1220840000000001
 51
87.894083999999992
  0
ARC
  5
1E9
  8
_________2
 62
     7
 10
76.315297000000001
 20
51.277734999999993
 30
0.0
 40
1.267374999999999
 50
92.122849999999985
 51
177.893304
  0
ARC
  5
1EA
  8
_________2
 62
     7
 10
76.315273000000005
 20
51.371245999999992
 30
0.0
 40
1.267363
 50
182.12181499999991
 51
267.87821400000001
  0
ARC
  5
1EB
  8
_________2
 62
     7
 10
76.221461000000005
 20
51.371928999999987
 30
0.0
 40
1.2680439999999991
 50
272.11916400000001
 51
357.84848499999993
  0
ARC
  5
1EC
  8
_________2
 62
     7
 10
76.187981999999991
 20
51.244312999999998
 30
0.0
 40
2.1668310000000002
 50
2.1161439999999989
 51
87.874379000000005
  0
ARC
  5
1ED
  8
_________2
 62
     7
 10
76.348411999999996
 20
51.245334999999997
 30
0.0
 40
2.1657980000000001
 50
92.118487999999999
 51
177.90988599999989
  0
ARC
  5
1EE
  8
_________2
 62
     7
 10
76.348354
 20
51.404327000000002
 30
0.0
 40
2.1657779999999991
 50
182.11700400000001
 51
267.88302499999992
  0
ARC
  5
1EF
  8
_________2
 62
     7
 10
76.188378999999983
 20
51.405009999999997
 30
0.0
 40
2.1664590000000001
 50
272.11546800000002
 51
357.86560400000002
  0
TEXT
  5
1F0
  8
_________2
 62
     7
 10
109.5439999999999
 20
23.199100000000001
 30
0.0
 40
3.0923400000000001
  1
図番
 41
0.5
  0
LINE
  5
1F1
  8
_________2
 62
     7
 10
108.4889999999999
 20
27.4283
 30
0.0
 11
188.49000000000001
 21
27.4283
 31
0.0
  0
TEXT
  5
1F2
  8
_________2
 62
     7
 10
109.5439999999999
 20
33.198900000000002
 30
0.0
 40
3.0923400000000001
  1
品番
 41
0.5
  0
TEXT
  5
1F3
  8
_________2
 62
     7
 10
109.5439999999999
 20
53.338000000000001
 30
0.0
 40
3.0923400000000001
  1
名称
 41
0.5
  0
TEXT
  5
1F4
  8
_________2
 62
     7
 10
96.784058333333334
 20
48.341900000000003
 30
0.0
 40
3.6545800000000002
  1
mm
 41
0.5
 72
     1
 11
98.306799999999996
 21
48.341900000000003
 31
0.0
  0
TEXT
  5
1F5
  8
_________2
 62
     7
 10
90.582099999999997
 20
53.338000000000001
 30
0.0
 40
3.0923400000000001
  1
単位
 41
0.5
  0
TEXT
  5
1F6
  8
_________2
 62
     7
 10
90.582099999999997
 20
40.930399999999999
 30
0.0
 40
3.0923400000000001
  1
尺度
 41
0.5
  0
TEXT
  5
1F7
  8
_________2
 62
     7
 10
95.030836166666674
 20
34.7378
 30
0.0
 40
3.6545800000000002
  1
1 ： 10
 41
0.5
 72
     1
 11
98.898600000000002
 21
34.7378
 31
0.0
  0
TEXT
  5
1F8
  8
_________2
 62
     7
 10
141.10956250000001
 20
30.627800000000001
 30
0.0
 40
3.9357000000000002
  1
VB536150
 41
0.5
 72
     1
 11
148.489
 21
30.627800000000001
 31
0.0
  0
TEXT
  5
1F9
  8
_________2
 62
     7
 10
141.10956250000001
 20
20.626999999999988
 30
0.0
 40
3.9357000000000002
  1
VB536150
 41
0.5
 72
     1
 11
148.489
 21
20.626999999999988
 31
0.0
  0
TEXT
  5
1FA
  8
_________2
 62
     7
 10
114.11799999999999
 20
45.745600000000003
 30
0.0
 40
3.9357000000000002
  1
オノーボ 手洗器
 41
0.5
  0
TEXT
  5
1FB
  8
_________2
 62
     7
 10
44.364200333333329
 20
35.122999999999998
 30
0.0
 40
3.6545800000000002
  1
早川
 41
0.5
 72
     1
 11
46.252400000000002
 21
35.122999999999998
 31
0.0
  0
TEXT
  5
1FC
  8
_________2
 62
     7
 10
25.790200333333331
 20
35.122999999999998
 30
0.0
 40
3.6545800000000002
  1
福田
 41
0.5
 72
     1
 11
27.6784
 21
35.122999999999998
 31
0.0
  0
TEXT
  5
1FD
  8
_________2
 62
     7
 10
72.724699999999999
 20
34.7378
 30
0.0
 40
3.6545800000000002
  1
13.11.11
 41
0.5
  0
TEXT
  5
1FE
  8
_________2
 62
     7
 10
71.531999999999996
 20
40.930399999999999
 30
0.0
 40
3.0923400000000001
  1
日付
 41
0.5
  0
TEXT
  5
1FF
  8
_________2
 62
     7
 10
34.578299999999992
 20
40.930399999999999
 30
0.0
 40
3.0923400000000001
  1
検図
 41
0.5
  0
TEXT
  5
200
  8
_________2
 62
     7
 10
22.96019999999999
 20
26.730999999999991
 30
0.0
 40
3.0923400000000001
  1
備考
 41
0.5
  0
TEXT
  5
201
  8
_________2
 62
     7
 10
22.96019999999999
 20
40.930399999999999
 30
0.0
 40
3.0923400000000001
  1
製図
 41
0.5
  0
TEXT
  5
202
  8
_________2
 62
     7
 10
28.727365333333339
 20
49.456400000000002
 30
0.0
 40
4.4979399999999989
  1
セラトレーディング株式会社
 41
0.5
 72
     1
 11
46.119399999999992
 21
49.456400000000002
 31
0.0
  0
LINE
  5
203
  8
_________2
 62
     7
 10
188.49000000000001
 20
17.428499999999989
 30
0.0
 11
21.988499999999991
 21
17.428499999999989
 31
0.0
  0
LINE
  5
204
  8
_________2
 62
     7
 10
21.988499999999991
 20
17.428499999999989
 30
0.0
 11
21.988499999999991
 21
280.42999999999989
 31
0.0
  0
LINE
  5
205
  8
_________2
 62
     7
 10
21.988499999999991
 20
280.42999999999989
 30
0.0
 11
188.49000000000001
 21
280.42999999999989
 31
0.0
  0
LINE
  5
206
  8
_________2
 62
     7
 10
188.49000000000001
 20
280.42999999999989
 30
0.0
 11
188.49000000000001
 21
17.428499999999989
 31
0.0
  0
LINE
  5
207
  8
_________2
 62
     7
 10
70.488799999999998
 20
30.928899999999999
 30
0.0
 11
70.488799999999998
 21
57.428699999999992
 31
0.0
  0
LINE
  5
208
  8
_________2
 62
     7
 10
89.488600000000005
 20
30.928899999999999
 30
0.0
 11
89.488600000000005
 21
57.428699999999992
 31
0.0
  0
LINE
  5
209
  8
_________2
 62
     7
 10
108.4889999999999
 20
17.428499999999989
 30
0.0
 11
108.4889999999999
 21
57.428699999999992
 31
0.0
  0
LINE
  5
20A
  8
_________2
 62
     7
 10
33.488300000000002
 20
30.928899999999999
 30
0.0
 11
33.488300000000002
 21
44.928800000000003
 31
0.0
  0
LINE
  5
20B
  8
_________2
 62
     7
 10
21.988499999999991
 20
30.928899999999999
 30
0.0
 11
108.4889999999999
 21
30.928899999999999
 31
0.0
  0
LINE
  5
20C
  8
_________2
 62
     7
 10
21.988499999999991
 20
44.928800000000003
 30
0.0
 11
108.4889999999999
 21
44.928800000000003
 31
0.0
  0
LINE
  5
20D
  8
_________2
 62
     7
 10
108.4889999999999
 20
37.428100000000001
 30
0.0
 11
188.49000000000001
 21
37.428100000000001
 31
0.0
  0
LINE
  5
20E
  8
_________2
 62
     7
 10
21.988499999999991
 20
57.428699999999992
 30
0.0
 11
188.49000000000001
 21
57.428699999999992
 31
0.0
  0
LINE
  5
20F
  8
_________2
 62
     7
 10
210.24000000000001
 20
148.93100000000001
 30
0.0
 11
188.489
 21
148.93100000000001
 31
0.0
  0
LINE
  5
210
  8
_________2
 62
     7
 10
105.2389999999999
 20
297.45099999999991
 30
0.0
 11
105.2389999999999
 21
280.42999999999989
 31
0.0
  0
LINE
  5
211
  8
_________2
 62
     7
 10
21.988499999999991
 20
148.93100000000001
 30
0.0
 11
0.238402
 21
148.93100000000001
 31
0.0
  0
ENDSEC
  0
EOF
