  0
SECTION
  2
HEADER
  9
$ACADVER
  1
AC1009
  9
$INSBASE
 10
0.0
 20
0.0
 30
0.0
  9
$EXTMIN
 10
-4.70052
 20
-21.071400000000001
 30
0.0
  9
$EXTMAX
 10
205.30099999999999
 20
275.93099999999993
 30
0.0
  9
$LIMMIN
 10
0.0
 20
0.0
  9
$LIMMAX
 10
12.0
 20
9.0
  9
$ORTHOMODE
 70
     0
  9
$REGENMODE
 70
     1
  9
$FILLMODE
 70
     1
  9
$QTEXTMODE
 70
     0
  9
$MIRRTEXT
 70
     1
  9
$DRAGMODE
 70
     2
  9
$LTSCALE
 40
1.0
  9
$OSMODE
 70
    37
  9
$ATTMODE
 70
     1
  9
$TEXTSIZE
 40
0.0
  9
$TRACEWID
 40
0.05
  9
$TEXTSTYLE
  7
STANDARD
  9
$CLAYER
  8
0
  9
$CELTYPE
  6
CONTINUOUS
  9
$CECOLOR
 62
   256
  9
$DIMSCALE
 40
1.0
  9
$DIMASZ
 40
0.18
  9
$DIMEXO
 40
0.0625
  9
$DIMDLI
 40
0.38
  9
$DIMRND
 40
0.0
  9
$DIMDLE
 40
0.0
  9
$DIMEXE
 40
0.18
  9
$DIMTP
 40
0.0
  9
$DIMTM
 40
0.0
  9
$DIMTXT
 40
0.18
  9
$DIMCEN
 40
0.09
  9
$DIMTSZ
 40
0.0
  9
$DIMTOL
 70
     0
  9
$DIMLIM
 70
     0
  9
$DIMTIH
 70
     1
  9
$DIMTOH
 70
     1
  9
$DIMSE1
 70
     0
  9
$DIMSE2
 70
     0
  9
$DIMTAD
 70
     0
  9
$DIMZIN
 70
     0
  9
$DIMBLK
  1

  9
$DIMASO
 70
     1
  9
$DIMSHO
 70
     1
  9
$DIMPOST
  1

  9
$DIMAPOST
  1

  9
$DIMALT
 70
     0
  9
$DIMALTD
 70
     2
  9
$DIMALTF
 40
25.399999999999999
  9
$DIMLFAC
 40
1.0
  9
$DIMTOFL
 70
     0
  9
$DIMTVP
 40
0.0
  9
$DIMTIX
 70
     0
  9
$DIMSOXD
 70
     0
  9
$DIMSAH
 70
     0
  9
$DIMBLK1
  1

  9
$DIMBLK2
  1

  9
$DIMSTYLE
  2
STANDARD
  9
$DIMCLRD
 70
     0
  9
$DIMCLRE
 70
     0
  9
$DIMCLRT
 70
     0
  9
$DIMTFAC
 40
1.0
  9
$DIMGAP
 40
0.09
  9
$LUNITS
 70
     2
  9
$LUPREC
 70
     4
  9
$SKETCHINC
 40
0.1
  9
$FILLETRAD
 40
0.0
  9
$AUNITS
 70
     0
  9
$AUPREC
 70
     0
  9
$MENU
  1
.
  9
$ELEVATION
 40
0.0
  9
$PELEVATION
 40
0.0
  9
$THICKNESS
 40
0.0
  9
$LIMCHECK
 70
     0
  9
$BLIPMODE
 70
     0
  9
$CHAMFERA
 40
0.0
  9
$CHAMFERB
 40
0.0
  9
$SKPOLY
 70
     0
  9
$TDCREATE
 40
2444972.375
  9
$TDUPDATE
 40
2456723.249611794
  9
$TDINDWG
 40
0.0000066435
  9
$TDUSRTIMER
 40
0.0000066435
  9
$USRTIMER
 70
     1
  9
$ANGBASE
 50
0.0
  9
$ANGDIR
 70
     0
  9
$PDMODE
 70
     0
  9
$PDSIZE
 40
0.0
  9
$PLINEWID
 40
0.0
  9
$COORDS
 70
     1
  9
$SPLFRAME
 70
     0
  9
$SPLINETYPE
 70
     6
  9
$SPLINESEGS
 70
     8
  9
$ATTDIA
 70
     0
  9
$ATTREQ
 70
     1
  9
$HANDLING
 70
     1
  9
$HANDSEED
  5
143
  9
$SURFTAB1
 70
     6
  9
$SURFTAB2
 70
     6
  9
$SURFTYPE
 70
     6
  9
$SURFU
 70
     6
  9
$SURFV
 70
     6
  9
$UCSNAME
  2

  9
$UCSORG
 10
0.0
 20
0.0
 30
0.0
  9
$UCSXDIR
 10
1.0
 20
0.0
 30
0.0
  9
$UCSYDIR
 10
0.0
 20
1.0
 30
0.0
  9
$PUCSNAME
  2

  9
$PUCSORG
 10
0.0
 20
0.0
 30
0.0
  9
$PUCSXDIR
 10
1.0
 20
0.0
 30
0.0
  9
$PUCSYDIR
 10
0.0
 20
1.0
 30
0.0
  9
$USERI1
 70
     0
  9
$USERI2
 70
     0
  9
$USERI3
 70
     0
  9
$USERI4
 70
     0
  9
$USERI5
 70
     0
  9
$USERR1
 40
0.0
  9
$USERR2
 40
0.0
  9
$USERR3
 40
0.0
  9
$USERR4
 40
0.0
  9
$USERR5
 40
0.0
  9
$WORLDVIEW
 70
     1
  9
$SHADEDGE
 70
     3
  9
$SHADEDIF
 70
    70
  9
$TILEMODE
 70
     1
  9
$MAXACTVP
 70
    48
  9
$PLIMCHECK
 70
     0
  9
$PEXTMIN
 10
1.0000000000000000E+020
 20
1.0000000000000000E+020
 30
1.0000000000000000E+020
  9
$PEXTMAX
 10
-1.0000000000000000E+020
 20
-1.0000000000000000E+020
 30
-1.0000000000000000E+020
  9
$PLIMMIN
 10
0.0
 20
0.0
  9
$PLIMMAX
 10
12.0
 20
9.0
  9
$UNITMODE
 70
     0
  9
$VISRETAIN
 70
     1
  9
$PLINEGEN
 70
     0
  9
$PSLTSCALE
 70
     1
  0
ENDSEC
  0
SECTION
  2
TABLES
  0
TABLE
  2
VPORT
 70
     2
  0
VPORT
  2
*ACTIVE
 70
     0
 10
0.0
 20
0.0
 11
1.0
 21
1.0
 12
202.00678374696719
 22
127.4298
 13
0.0
 23
0.0
 14
1.0
 24
1.0
 15
0.0
 25
0.0
 16
0.0
 26
0.0
 36
1.0
 17
0.0
 27
0.0
 37
0.0
 40
299.45358899587342
 41
2.2894736842105261
 42
50.0
 43
0.0
 44
0.0
 50
0.0
 51
0.0
 71
     0
 72
   100
 73
     1
 74
     1
 75
     0
 76
     0
 77
     0
 78
     0
  0
ENDTAB
  0
TABLE
  2
LTYPE
 70
     3
  0
LTYPE
  2
CONTINUOUS
 70
     0
  3
Solid line
 72
    65
 73
     0
 40
0.0
  0
LTYPE
  2
AIGENLINE001
 70
     0
  3
generate AI->DXF Converter
 72
    65
 73
     2
 40
1.5522299999999991
 49
0.776115
 49
-0.776115
  0
LTYPE
  2
AIGENLINE002
 70
     0
  3
generate AI->DXF Converter
 72
    65
 73
     4
 40
5.8561449999999988
 49
3.5278
 49
-0.776115
 49
0.776115
 49
-0.776115
  0
ENDTAB
  0
TABLE
  2
LAYER
 70
     2
  0
LAYER
  2
0
 70
     0
 62
     7
  6
CONTINUOUS
  0
LAYER
  2
_________2
 70
     0
 62
     7
  6
CONTINUOUS
  0
ENDTAB
  0
TABLE
  2
STYLE
 70
     1
  0
STYLE
  2
STANDARD
 70
     0
 40
0.0
 41
0.0
 50
0.0
 71
     0
 42
0.0
  3
TXT
  4
EXTFONT.SHX
  0
ENDTAB
  0
TABLE
  2
VIEW
 70
     0
  0
ENDTAB
  0
TABLE
  2
UCS
 70
     0
  0
ENDTAB
  0
TABLE
  2
APPID
 70
     1
  0
APPID
  2
ACAD
 70
     0
  0
ENDTAB
  0
TABLE
  2
DIMSTYLE
 70
     1
  0
DIMSTYLE
  2
STANDARD
 70
     0
  3

  4

  5

  6

  7

 40
1.0
 41
0.18
 42
0.0625
 43
0.38
 44
0.18
 45
0.0
 46
0.0
 47
0.0
 48
0.0
140
0.18
141
0.09
142
0.0
143
25.399999999999999
144
1.0
145
0.0
146
1.0
147
0.09
 71
     0
 72
     0
 73
     1
 74
     1
 75
     0
 76
     0
 77
     0
 78
     0
170
     0
171
     2
172
     0
173
     0
174
     0
175
     0
176
     0
177
     0
178
     0
  0
ENDTAB
  0
ENDSEC
  0
SECTION
  2
BLOCKS
  0
BLOCK
  8
0
  2
$MODEL_SPACE
 70
     0
 10
0.0
 20
0.0
 30
0.0
  3
$MODEL_SPACE
  1

  0
ENDBLK
  5
1A
  8
0
  0
BLOCK
 67
     1
  8
0
  2
$PAPER_SPACE
 70
     0
 10
0.0
 20
0.0
 30
0.0
  3
$PAPER_SPACE
  1

  0
ENDBLK
  5
17
 67
     1
  8
0
  0
ENDSEC
  0
SECTION
  2
ENTITIES
  0
TEXT
  5
23
  8
0
 62
     7
 10
145.34200000000001
 20
185.50299999999999
 30
0.0
 40
3.0923400000000001
  1
%%c314
 50
315.0
 41
0.5
  0
TEXT
  5
24
  8
0
 62
     7
 10
69.644279999999995
 20
182.73400000000001
 30
0.0
 40
3.0923400000000001
  1
%%c46
 41
0.5
 72
     2
 11
73.767399999999995
 21
182.73400000000001
 31
0.0
  0
TEXT
  5
25
  8
0
 62
     7
 10
137.67400000000001
 20
99.168982499999998
 30
0.0
 40
3.0923400000000001
  1
120
 50
90.0
 41
0.5
 72
     1
 11
137.67400000000001
 21
100.84399999999999
 31
0.0
  0
TEXT
  5
26
  8
0
 62
     7
 10
94.086799999999997
 20
115.16643999999999
 30
0.0
 40
3.0923400000000001
  1
15
 50
90.0
 41
0.5
 72
     2
 11
94.086799999999997
 21
117.22799999999989
 31
0.0
  0
TEXT
  5
27
  8
0
 62
     7
 10
100.611
 20
95.289834999999997
 30
0.0
 40
3.0923400000000001
  1
165
 50
90.0
 41
0.5
 72
     1
 11
100.611
 21
97.093699999999984
 31
0.0
  0
TEXT
  5
28
  8
0
 62
     7
 10
68.364599999999996
 20
105.2713725
 30
0.0
 40
3.0923400000000001
  1
50
 50
90.0
 41
0.5
 72
     1
 11
68.364599999999996
 21
106.431
 31
0.0
  0
TEXT
  5
29
  8
0
 62
     7
 10
57.780497500000003
 20
73.755499999999998
 30
0.0
 40
3.0923400000000001
  1
%%c160
 41
0.5
 72
     1
 11
60.2286
 21
73.755499999999998
 31
0.0
  0
TEXT
  5
2A
  8
0
 62
     7
 10
133.59976
 20
148.79900000000001
 30
0.0
 40
3.0923400000000001
  1
カウンター切込寸法
 41
0.5
 72
     1
 11
141.846
 21
148.79900000000001
 31
0.0
  0
TEXT
  5
2B
  8
0
 62
     7
 10
57.522802499999997
 20
149.14899999999989
 30
0.0
 40
3.0923400000000001
  1
%%c280
 41
0.5
 72
     1
 11
60.2286
 21
149.14899999999989
 31
0.0
  0
TEXT
  5
2C
  8
0
 62
     7
 10
57.522802499999997
 20
141.798
 30
0.0
 40
3.0923400000000001
  1
%%c340
 41
0.5
 72
     1
 11
60.2286
 21
141.798
 31
0.0
  0
ARC
  5
2D
  8
0
 62
     7
 10
60.229166000000014
 20
161.5392479999999
 30
0.0
 40
5.3062309999999986
 50
79.708821
 51
90.004528000000008
  0
ARC
  5
2E
  8
0
 62
     7
 10
60.55727499999999
 20
163.4789199999999
 30
0.0
 40
3.3392300000000001
 50
68.690016999999997
 51
79.302288000000004
  0
ARC
  5
2F
  8
0
 62
     7
 10
61.133054000000001
 20
165.02250799999999
 30
0.0
 40
1.692113
 50
57.750014
 51
67.858750999999998
  0
ARC
  5
30
  8
0
 62
     7
 10
61.553493999999993
 20
165.70234500000001
 30
0.0
 40
0.8928319999999999
 50
43.368009000000001
 51
57.288376999999997
  0
ARC
  5
31
  8
0
 62
     7
 10
61.878962999999999
 20
166.01637099999991
 30
0.0
 40
0.44062
 50
14.299739000000001
 51
42.74518599999999
  0
ARC
  5
32
  8
0
 62
     7
 10
62.010879000000003
 20
166.06500800000001
 30
0.0
 40
0.301129
 50
0.028826
 51
11.53067899999999
  0
ARC
  5
33
  8
0
 62
     7
 10
61.993267000000003
 20
166.06608600000001
 30
0.0
 40
0.318743
 50
328.25519600000001
 51
359.83350000000002
  0
ARC
  5
34
  8
0
 62
     7
 10
61.798659999999998
 20
166.17522500000001
 30
0.0
 40
0.541743
 50
310.19411200000002
 51
329.26820900000001
  0
ARC
  5
35
  8
0
 62
     7
 10
61.473981999999992
 20
166.53320099999999
 30
0.0
 40
1.024869
 50
298.06805799999989
 51
311.143393
  0
ARC
  5
36
  8
0
 62
     7
 10
61.059627999999996
 20
167.260583
 30
0.0
 40
1.8618119999999989
 50
289.008937
 51
298.78738399999992
  0
ARC
  5
37
  8
0
 62
     7
 10
60.635081999999997
 20
168.4118399999999
 30
0.0
 40
3.0886809999999998
 50
281.780531
 51
289.49889300000001
  0
ARC
  5
38
  8
0
 62
     7
 10
60.280990000000003
 20
170.01309699999999
 30
0.0
 40
4.7285449999999987
 50
269.36695900000001
 51
282.01943599999993
  0
ARC
  5
39
  8
0
 62
     7
 10
60.228326000000003
 20
170.591072
 30
0.0
 40
5.3062309999999986
 50
259.70884100000001
 51
270.00454799999989
  0
ARC
  5
3A
  8
0
 62
     7
 10
59.900216
 20
168.65139899999991
 30
0.0
 40
3.3392300000000001
 50
248.69003599999991
 51
259.30230799999998
  0
ARC
  5
3B
  8
0
 62
     7
 10
59.324438000000001
 20
167.107812
 30
0.0
 40
1.692113
 50
237.75003399999991
 51
247.8587709999999
  0
ARC
  5
3C
  8
0
 62
     7
 10
58.903998000000001
 20
166.42797400000001
 30
0.0
 40
0.8928319999999999
 50
223.36802900000001
 51
237.288397
  0
ARC
  5
3D
  8
0
 62
     7
 10
58.57852900000001
 20
166.11394799999991
 30
0.0
 40
0.44062
 50
194.29975899999999
 51
222.745206
  0
ARC
  5
3E
  8
0
 62
     7
 10
58.446612000000002
 20
166.06531100000001
 30
0.0
 40
0.301129
 50
180.0288459999999
 51
191.53069899999991
  0
ARC
  5
3F
  8
0
 62
     7
 10
58.464224999999999
 20
166.06423299999989
 30
0.0
 40
0.318743
 50
148.25517599999989
 51
179.83348000000001
  0
ARC
  5
40
  8
0
 62
     7
 10
58.65883199999999
 20
165.955094
 30
0.0
 40
0.541743
 50
130.1940919999999
 51
149.26818899999989
  0
ARC
  5
41
  8
0
 62
     7
 10
58.983509999999988
 20
165.59711799999991
 30
0.0
 40
1.024869
 50
118.0680379999999
 51
131.143373
  0
ARC
  5
42
  8
0
 62
     7
 10
59.397863999999998
 20
164.86973599999999
 30
0.0
 40
1.8618119999999989
 50
109.0089169999999
 51
118.787364
  0
ARC
  5
43
  8
0
 62
     7
 10
59.822408999999993
 20
163.71847999999989
 30
0.0
 40
3.0886809999999998
 50
101.780511
 51
109.498873
  0
ARC
  5
44
  8
0
 62
     7
 10
60.176501999999999
 20
162.117222
 30
0.0
 40
4.7285449999999987
 50
89.366938999999988
 51
102.01941600000001
  0
ARC
  5
45
  8
0
  6
AIGENLINE001
 62
     7
 10
60.444429
 20
102.52404900000001
 30
0.0
 40
1.867627999999999
 50
309.38653999999991
 51
359.58427099999989
  0
ARC
  5
46
  8
0
  6
AIGENLINE001
 62
     7
 10
60.245913000000002
 20
102.737055
 30
0.0
 40
2.1583030000000001
 50
269.54428100000001
 51
309.87147099999987
  0
ARC
  5
47
  8
0
  6
AIGENLINE001
 62
     7
 10
60.241048999999997
 20
102.796477
 30
0.0
 40
2.217690999999999
 50
223.08112
 51
269.68213399999991
  0
ARC
  5
48
  8
0
  6
AIGENLINE001
 62
     7
 10
60.040003000000013
 20
102.537567
 30
0.0
 40
1.8947130000000001
 50
180.81863100000001
 51
221.51502099999999
  0
ARC
  5
49
  8
0
  6
AIGENLINE001
 62
     7
 10
60.012836999999998
 20
102.496943
 30
0.0
 40
1.867402
 50
129.3778979999999
 51
179.58408999999989
  0
ARC
  5
4A
  8
0
  6
AIGENLINE001
 62
     7
 10
60.211905000000002
 20
102.2834019999999
 30
0.0
 40
2.1588389999999991
 50
89.553023999999979
 51
129.86618300000001
  0
ARC
  5
4B
  8
0
  6
AIGENLINE001
 62
     7
 10
60.216451999999997
 20
102.22427999999999
 30
0.0
 40
2.2179289999999998
 50
43.083767999999999
 51
89.682405000000003
  0
ARC
  5
4C
  8
0
  6
AIGENLINE001
 62
     7
 10
60.417363000000002
 20
102.4835099999999
 30
0.0
 40
1.894836999999999
 50
0.8160810000000001
 51
41.508363000000003
  0
LINE
  5
4D
  8
0
 62
     7
 10
141.84499999999991
 20
108.3429999999999
 30
0.0
 11
113.514
 21
108.3429999999999
 31
0.0
  0
LINE
  5
4E
  8
0
  6
AIGENLINE002
 62
     7
 10
117.6819999999999
 20
101.52200000000001
 30
0.0
 11
122.57599999999999
 21
103.499
 31
0.0
  0
LINE
  5
4F
  8
0
 62
     7
 10
55.535299999999999
 20
191.637
 30
0.0
 11
57.518300000000004
 21
190.49199999999999
 31
0.0
  0
LINE
  5
50
  8
0
 62
     7
 10
57.518300000000004
 20
190.49199999999999
 30
0.0
 11
56.3735
 21
192.47499999999991
 31
0.0
  0
LINE
  5
51
  8
0
 62
     7
 10
56.3735
 20
192.47499999999991
 30
0.0
 11
55.535299999999999
 21
191.637
 31
0.0
  0
LINE
  5
52
  8
0
 62
     7
 10
65.084999999999994
 20
183.76300000000001
 30
0.0
 11
63.1023
 21
184.9079999999999
 31
0.0
  0
LINE
  5
53
  8
0
 62
     7
 10
63.1023
 20
184.9079999999999
 30
0.0
 11
64.247100000000003
 21
182.92500000000001
 31
0.0
  0
LINE
  5
54
  8
0
 62
     7
 10
64.247100000000003
 20
182.92500000000001
 30
0.0
 11
65.084999999999994
 21
183.76300000000001
 31
0.0
  0
LINE
  5
55
  8
0
 62
     7
 10
54.64439999999999
 20
193.3659999999999
 30
0.0
 11
65.975899999999996
 21
182.03399999999999
 31
0.0
  0
LINE
  5
56
  8
0
 62
     7
 10
65.975899999999996
 20
182.03399999999999
 30
0.0
 11
73.767399999999995
 21
182.03399999999999
 31
0.0
  0
LINE
  5
57
  8
0
 62
     7
 10
69.649600000000007
 20
108.633
 30
0.0
 11
69.057400000000001
 21
110.84399999999989
 31
0.0
  0
LINE
  5
58
  8
0
 62
     7
 10
69.057400000000001
 20
110.84399999999989
 30
0.0
 11
68.465199999999996
 21
108.633
 31
0.0
  0
LINE
  5
59
  8
0
 62
     7
 10
68.465199999999996
 20
108.633
 30
0.0
 11
69.649600000000007
 21
108.633
 31
0.0
  0
LINE
  5
5A
  8
0
 62
     7
 10
68.479600000000005
 20
104.7209999999999
 30
0.0
 11
69.0715
 21
102.51000000000001
 31
0.0
  0
LINE
  5
5B
  8
0
 62
     7
 10
69.0715
 20
102.51000000000001
 30
0.0
 11
69.664100000000005
 21
104.7209999999999
 31
0.0
  0
LINE
  5
5C
  8
0
 62
     7
 10
69.664100000000005
 20
104.7209999999999
 30
0.0
 11
68.479600000000005
 21
104.7209999999999
 31
0.0
  0
LINE
  5
5D
  8
0
 62
     7
 10
69.064599999999999
 20
110.84399999999989
 30
0.0
 11
69.064599999999999
 21
102.51000000000001
 31
0.0
  0
LINE
  5
5E
  8
0
 62
     7
 10
65.095299999999995
 20
102.51000000000001
 30
0.0
 11
69.757400000000004
 21
102.51000000000001
 31
0.0
  0
LINE
  5
5F
  8
0
 62
     7
 10
138.959
 20
108.633
 30
0.0
 11
138.36699999999999
 21
110.84399999999989
 31
0.0
  0
LINE
  5
60
  8
0
 62
     7
 10
138.36699999999999
 20
110.84399999999989
 30
0.0
 11
137.77500000000001
 21
108.633
 31
0.0
  0
LINE
  5
61
  8
0
 62
     7
 10
137.77500000000001
 20
108.633
 30
0.0
 11
138.959
 21
108.633
 31
0.0
  0
LINE
  5
62
  8
0
 62
     7
 10
137.78999999999991
 20
93.054299999999984
 30
0.0
 11
138.38099999999989
 21
90.843999999999994
 31
0.0
  0
LINE
  5
63
  8
0
 62
     7
 10
138.38099999999989
 20
90.843999999999994
 30
0.0
 11
138.9739999999999
 21
93.054299999999984
 31
0.0
  0
LINE
  5
64
  8
0
 62
     7
 10
138.9739999999999
 20
93.054299999999984
 30
0.0
 11
137.78999999999991
 21
93.054299999999984
 31
0.0
  0
LINE
  5
65
  8
0
 62
     7
 10
138.375
 20
110.84399999999989
 30
0.0
 11
138.375
 21
90.843999999999994
 31
0.0
  0
LINE
  5
66
  8
0
 62
     7
 10
95.379099999999994
 20
106.12
 30
0.0
 11
94.786900000000003
 21
108.3309999999999
 31
0.0
  0
LINE
  5
67
  8
0
 62
     7
 10
94.786900000000003
 20
108.3309999999999
 30
0.0
 11
94.194699999999997
 21
106.12
 31
0.0
  0
LINE
  5
68
  8
0
 62
     7
 10
94.194699999999997
 20
106.12
 30
0.0
 11
95.379099999999994
 21
106.12
 31
0.0
  0
LINE
  5
69
  8
0
 62
     7
 10
94.194999999999993
 20
113.054
 30
0.0
 11
94.786900000000003
 21
110.84399999999989
 31
0.0
  0
LINE
  5
6A
  8
0
 62
     7
 10
94.786900000000003
 20
110.84399999999989
 30
0.0
 11
95.379400000000004
 21
113.054
 31
0.0
  0
LINE
  5
6B
  8
0
 62
     7
 10
95.379400000000004
 20
113.054
 30
0.0
 11
94.194999999999993
 21
113.054
 31
0.0
  0
LINE
  5
6C
  8
0
 62
     7
 10
94.786900000000003
 20
117.22799999999989
 30
0.0
 11
94.786900000000003
 21
104.34999999999989
 31
0.0
  0
LINE
  5
6D
  8
0
 62
     7
 10
101.896
 20
108.633
 30
0.0
 11
101.3039999999999
 21
110.84399999999989
 31
0.0
  0
LINE
  5
6E
  8
0
 62
     7
 10
101.3039999999999
 20
110.84399999999989
 30
0.0
 11
100.712
 21
108.633
 31
0.0
  0
LINE
  5
6F
  8
0
 62
     7
 10
100.712
 20
108.633
 30
0.0
 11
101.896
 21
108.633
 31
0.0
  0
LINE
  5
70
  8
0
 62
     7
 10
100.726
 20
85.554699999999997
 30
0.0
 11
101.3179999999999
 21
83.344300000000004
 31
0.0
  0
LINE
  5
71
  8
0
 62
     7
 10
101.3179999999999
 20
83.344300000000004
 30
0.0
 11
101.9109999999999
 21
85.554699999999997
 31
0.0
  0
LINE
  5
72
  8
0
 62
     7
 10
101.9109999999999
 20
85.554699999999997
 30
0.0
 11
100.726
 21
85.554699999999997
 31
0.0
  0
LINE
  5
73
  8
0
 62
     7
 10
101.31100000000001
 20
110.84399999999989
 30
0.0
 11
101.31100000000001
 21
83.344300000000004
 31
0.0
  0
LINE
  5
74
  8
0
 62
     7
 10
89.127799999999993
 20
108.3429999999999
 30
0.0
 11
95.479699999999994
 21
108.3429999999999
 31
0.0
  0
LINE
  5
75
  8
0
 62
     7
 10
89.127799999999993
 20
110.84399999999989
 30
0.0
 11
102.0179999999999
 21
110.84399999999989
 31
0.0
  0
LINE
  5
76
  8
0
 62
     7
 10
74.611599999999996
 20
83.344300000000004
 30
0.0
 11
102.0179999999999
 21
83.344300000000004
 31
0.0
  0
ARC
  5
77
  8
0
 62
     7
 10
87.727671999999998
 20
110.0101729999999
 30
0.0
 40
0.8333739999999998
 50
0.00001
 51
89.999980000000008
  0
LINE
  5
78
  8
0
 62
     7
 10
88.561000000000007
 20
110.01000000000001
 30
0.0
 11
88.561000000000007
 21
108.3429999999999
 31
0.0
  0
LINE
  5
79
  8
0
 62
     7
 10
60.2286
 20
83.344300000000004
 30
0.0
 11
73.561499999999995
 21
83.344300000000004
 31
0.0
  0
LINE
  5
7A
  8
0
 62
     7
 10
60.2286
 20
108.3429999999999
 30
0.0
 11
88.561000000000007
 21
108.3429999999999
 31
0.0
  0
LINE
  5
7B
  8
0
 62
     7
 10
60.2286
 20
110.84399999999989
 30
0.0
 11
87.727699999999984
 21
110.84399999999989
 31
0.0
  0
ARC
  5
7C
  8
0
 62
     7
 10
32.729647999999997
 20
110.0101729999999
 30
0.0
 40
0.8333739999999998
 50
90.0
 51
179.99996999999991
  0
ARC
  5
7D
  8
0
 62
     7
 10
77.823463000000004
 20
108.1696129999999
 30
0.0
 40
7.7396989999999999
 50
359.46103900000003
 51
1.2868189999999999
  0
ARC
  5
7E
  8
0
 62
     7
 10
61.233779000000013
 20
108.19700400000001
 30
0.0
 40
24.329246999999999
 50
357.06234000000001
 51
359.76403999999991
  0
ARC
  5
7F
  8
0
 62
     7
 10
47.837534000000012
 20
108.79716999999989
 30
0.0
 40
37.738745999999999
 50
339.68814400000002
 51
357.19468699999999
  0
ARC
  5
80
  8
0
 62
     7
 10
55.164857999999988
 20
106.290178
 30
0.0
 40
29.997422999999991
 50
329.41492899999997
 51
339.32059099999998
  0
ARC
  5
81
  8
0
 62
     7
 10
59.755029999999998
 20
103.73866700000001
 30
0.0
 40
24.747997999999999
 50
317.75704999999988
 51
329.09305499999999
  0
ARC
  5
82
  8
0
 62
     7
 10
61.940622999999988
 20
101.899314
 30
0.0
 40
21.893713000000002
 50
302.05865299999999
 51
317.47534000000002
  0
ARC
  5
83
  8
0
 62
     7
 10
42.633860999999989
 20
108.169614
 30
0.0
 40
7.7395309999999986
 50
178.71314099999989
 51
180.53899999999999
  0
ARC
  5
84
  8
0
 62
     7
 10
59.199703999999997
 20
108.196111
 30
0.0
 40
24.305235
 50
180.23410799999999
 51
182.93847600000001
  0
ARC
  5
85
  8
0
 62
     7
 10
72.616640000000004
 20
108.7961889999999
 30
0.0
 40
37.735396000000001
 50
182.804091
 51
200.31217100000001
  0
ARC
  5
86
  8
0
 62
     7
 10
65.294668999999999
 20
106.290998
 30
0.0
 40
29.99971699999999
 50
200.67944900000001
 51
210.58431899999999
  0
ARC
  5
87
  8
0
 62
     7
 10
60.702871999999999
 20
103.73900500000001
 30
0.0
 40
24.748647999999999
 50
210.90697399999999
 51
222.24265699999989
  0
ARC
  5
88
  8
0
 62
     7
 10
58.516829000000001
 20
101.899427
 30
0.0
 40
21.893879999999999
 50
222.5246829999999
 51
237.9412299999999
  0
LINE
  5
89
  8
0
 62
     7
 10
31.8963
 20
110.01000000000001
 30
0.0
 11
31.8963
 21
108.3429999999999
 31
0.0
  0
LINE
  5
8A
  8
0
 62
     7
 10
60.228700000000011
 20
83.344300000000004
 30
0.0
 11
46.895800000000001
 21
83.344300000000004
 31
0.0
  0
LINE
  5
8B
  8
0
 62
     7
 10
60.228700000000011
 20
108.3429999999999
 30
0.0
 11
31.8963
 21
108.3429999999999
 31
0.0
  0
LINE
  5
8C
  8
0
  6
AIGENLINE002
 62
     7
 10
64.395300000000006
 20
102.51000000000001
 30
0.0
 11
56.062199999999997
 21
102.51000000000001
 31
0.0
  0
LINE
  5
8D
  8
0
 62
     7
 10
60.228700000000011
 20
110.84399999999989
 30
0.0
 11
32.729599999999991
 21
110.84399999999989
 31
0.0
  0
LINE
  5
8E
  8
0
  6
AIGENLINE002
 62
     7
 10
60.228700000000011
 20
112.50999999999991
 30
0.0
 11
60.228700000000011
 21
80.844499999999996
 31
0.0
  0
ARC
  5
8F
  8
0
 62
     7
 10
169.31340299999991
 20
109.97848
 30
0.0
 40
0.8656349999999999
 50
2.0982340000000002
 51
87.925437000000016
  0
ARC
  5
90
  8
0
  6
AIGENLINE001
 62
     7
 10
142.81340599999999
 20
110.8760799999999
 30
0.0
 40
22.364831999999989
 50
333.178335
 51
359.91665499999999
  0
ARC
  5
91
  8
0
  6
AIGENLINE001
 62
     7
 10
146.30868699999999
 20
109.2897879999999
 30
0.0
 40
18.530535
 50
313.24843399999992
 51
332.67900099999991
  0
ARC
  5
92
  8
0
  6
AIGENLINE001
 62
     7
 10
147.00167999999991
 20
108.76008
 30
0.0
 40
17.670456999999988
 50
294.847238
 51
312.78854000000001
  0
ARC
  5
93
  8
0
  6
AIGENLINE001
 62
     7
 10
145.7029179999999
 20
111.33392600000001
 30
0.0
 40
20.552014
 50
283.94506299999989
 51
295.11768000000001
  0
ARC
  5
94
  8
0
  6
AIGENLINE001
 62
     7
 10
144.53359900000001
 20
115.495983
 30
0.0
 40
24.873549000000001
 50
277.65240399999988
 51
284.24874899999998
  0
LINE
  5
95
  8
0
  6
AIGENLINE001
 62
     7
 10
147.846
 20
90.843999999999994
 30
0.0
 11
145.67899999999989
 21
89.177499999999995
 31
0.0
  0
LINE
  5
96
  8
0
  6
AIGENLINE001
 62
     7
 10
145.67899999999989
 20
89.177499999999995
 30
0.0
 11
145.67899999999989
 21
83.344300000000004
 31
0.0
  0
LINE
  5
97
  8
0
 62
     7
 10
170.178
 20
110.01000000000001
 30
0.0
 11
170.178
 21
108.3429999999999
 31
0.0
  0
LINE
  5
98
  8
0
 62
     7
 10
141.846
 20
83.344300000000004
 30
0.0
 11
155.179
 21
83.344300000000004
 31
0.0
  0
LINE
  5
99
  8
0
 62
     7
 10
141.846
 20
108.3429999999999
 30
0.0
 11
170.178
 21
108.3429999999999
 31
0.0
  0
LINE
  5
9A
  8
0
  6
AIGENLINE001
 62
     7
 10
141.846
 20
89.177499999999995
 30
0.0
 11
145.68000000000001
 21
89.177499999999995
 31
0.0
  0
LINE
  5
9B
  8
0
  6
AIGENLINE001
 62
     7
 10
141.846
 20
90.843999999999994
 30
0.0
 11
147.846
 21
90.843999999999994
 31
0.0
  0
LINE
  5
9C
  8
0
 62
     7
 10
141.846
 20
110.84399999999989
 30
0.0
 11
169.345
 21
110.84399999999989
 31
0.0
  0
ARC
  5
9D
  8
0
 62
     7
 10
114.3788889999999
 20
109.97852899999999
 30
0.0
 40
0.86561
 50
92.118729000000016
 51
177.904932
  0
ARC
  5
9E
  8
0
  6
AIGENLINE001
 62
     7
 10
140.877771
 20
110.876079
 30
0.0
 40
22.364383
 50
180.08336499999999
 51
206.82226499999999
  0
ARC
  5
9F
  8
0
  6
AIGENLINE001
 62
     7
 10
137.381462
 20
109.2889879999999
 30
0.0
 40
18.528807
 50
207.32099600000001
 51
226.75365600000001
  0
ARC
  5
A0
  8
0
  6
AIGENLINE001
 62
     7
 10
136.6889679999999
 20
108.75880100000001
 30
0.0
 40
17.668721999999988
 50
227.21144899999999
 51
245.15505499999989
  0
ARC
  5
A1
  8
0
  6
AIGENLINE001
 62
     7
 10
137.98935299999991
 20
111.33528799999991
 30
0.0
 40
20.553356999999998
 50
244.8833029999999
 51
256.05564299999998
  0
ARC
  5
A2
  8
0
  6
AIGENLINE001
 62
     7
 10
139.1578899999999
 20
115.4931629999999
 30
0.0
 40
24.870643999999992
 50
255.75122999999991
 51
262.34863899999999
  0
LINE
  5
A3
  8
0
  6
AIGENLINE001
 62
     7
 10
135.846
 20
90.843999999999994
 30
0.0
 11
138.01300000000001
 21
89.177499999999995
 31
0.0
  0
ARC
  5
A4
  8
0
 62
     7
 10
160.19139199999989
 20
108.174359
 30
0.0
 40
6.9891030000000001
 50
359.36424
 51
1.3861190000000001
  0
ARC
  5
A5
  8
0
 62
     7
 10
142.869269
 20
108.196156
 30
0.0
 40
24.310998000000001
 50
357.06213300000002
 51
359.76585999999998
  0
ARC
  5
A6
  8
0
 62
     7
 10
129.461187
 20
108.7952189999999
 30
0.0
 40
37.732267
 50
339.68765999999999
 51
357.19717000000003
  0
ARC
  5
A7
  8
0
 62
     7
 10
136.77895499999991
 20
106.291467
 30
0.0
 40
30.001028999999988
 50
329.41614099999998
 51
339.32055999999989
  0
ARC
  5
A8
  8
0
 62
     7
 10
141.37453999999991
 20
103.7370189999999
 30
0.0
 40
24.745448
 50
317.75684499999988
 51
329.09396900000002
  0
ARC
  5
A9
  8
0
 62
     7
 10
143.557941
 20
101.899541
 30
0.0
 40
21.894047
 50
302.05892699999993
 51
317.47533399999992
  0
ARC
  5
AA
  8
0
 62
     7
 10
123.48263300000001
 20
108.174779
 30
0.0
 40
6.971496000000001
 50
178.613809
 51
180.64083400000001
  0
ARC
  5
AB
  8
0
 62
     7
 10
140.847328
 20
108.19776
 30
0.0
 40
24.335964000000001
 50
180.237696
 51
182.93865099999991
  0
ARC
  5
AC
  8
0
 62
     7
 10
154.233126
 20
108.796976
 30
0.0
 40
37.734982000000002
 50
182.805319
 51
200.31367900000001
  0
ARC
  5
AD
  8
0
 62
     7
 10
146.91770700000001
 20
106.294386
 30
0.0
 40
30.006359
 50
200.681577
 51
210.58433899999989
  0
ARC
  5
AE
  8
0
 62
     7
 10
142.32162600000001
 20
103.74031599999989
 30
0.0
 40
24.750547000000001
 50
210.90787900000001
 51
222.24276499999991
  0
ARC
  5
AF
  8
0
 62
     7
 10
140.136571
 20
101.902365
 30
0.0
 40
21.897606
 50
222.52617100000001
 51
237.940145
  0
LINE
  5
B0
  8
0
  6
AIGENLINE001
 62
     7
 10
138.01300000000001
 20
89.177499999999995
 30
0.0
 11
138.01300000000001
 21
83.344300000000004
 31
0.0
  0
LINE
  5
B1
  8
0
 62
     7
 10
113.514
 20
110.01000000000001
 30
0.0
 11
113.514
 21
108.3429999999999
 31
0.0
  0
LINE
  5
B2
  8
0
 62
     7
 10
141.846
 20
83.344300000000004
 30
0.0
 11
128.51300000000001
 21
83.344300000000004
 31
0.0
  0
LINE
  5
B3
  8
0
 62
     7
 10
141.846
 20
108.3429999999999
 30
0.0
 11
113.514
 21
108.3429999999999
 31
0.0
  0
LINE
  5
B4
  8
0
  6
AIGENLINE001
 62
     7
 10
141.846
 20
89.177499999999995
 30
0.0
 11
138.01300000000001
 21
89.177499999999995
 31
0.0
  0
LINE
  5
B5
  8
0
  6
AIGENLINE001
 62
     7
 10
141.846
 20
90.843999999999994
 30
0.0
 11
135.846
 21
90.843999999999994
 31
0.0
  0
LINE
  5
B6
  8
0
 62
     7
 10
141.846
 20
110.84399999999989
 30
0.0
 11
114.34699999999999
 21
110.84399999999989
 31
0.0
  0
LINE
  5
B7
  8
0
  6
AIGENLINE002
 62
     7
 10
141.846
 20
112.50999999999991
 30
0.0
 11
141.846
 21
80.844499999999996
 31
0.0
  0
LINE
  5
B8
  8
0
  6
AIGENLINE002
 62
     7
 10
141.846
 20
220.155
 30
0.0
 11
141.846
 21
155.4079999999999
 31
0.0
  0
LINE
  5
B9
  8
0
  6
AIGENLINE002
 62
     7
 10
174.21999999999991
 20
187.78099999999989
 30
0.0
 11
109.47199999999999
 21
187.78099999999989
 31
0.0
  0
ARC
  5
BA
  8
0
 62
     7
 10
141.84563600000001
 20
187.78128000000001
 30
0.0
 40
26.16722
 50
0.000387
 51
90.000356999999994
  0
ARC
  5
BB
  8
0
 62
     7
 10
141.84581799999989
 20
187.7817959999999
 30
0.0
 40
26.166703999999999
 50
90.000753999999986
 51
180.000764
  0
ARC
  5
BC
  8
0
 62
     7
 10
141.84563600000001
 20
187.78128000000001
 30
0.0
 40
26.166522000000001
 50
179.999593
 51
269.99964299999999
  0
ARC
  5
BD
  8
0
 62
     7
 10
141.845809
 20
187.78180499999991
 30
0.0
 40
26.167048000000001
 50
269.99926499999992
 51
359.99923599999988
  0
LINE
  5
BE
  8
0
  6
AIGENLINE002
 62
     7
 10
60.228700000000011
 20
218.61399999999989
 30
0.0
 11
60.228700000000011
 21
156.9489999999999
 31
0.0
  0
LINE
  5
BF
  8
0
  6
AIGENLINE002
 62
     7
 10
56.756599999999999
 20
166.06499999999991
 30
0.0
 11
63.701300000000003
 21
166.06499999999991
 31
0.0
  0
LINE
  5
C0
  8
0
  6
AIGENLINE002
 62
     7
 10
91.061000000000007
 20
187.78099999999989
 30
0.0
 11
29.3965
 21
187.78099999999989
 31
0.0
  0
ARC
  5
C1
  8
0
 62
     7
 10
60.228658999999993
 20
187.78119699999991
 30
0.0
 40
3.8332969999999991
 50
0.003872
 51
90.00384200000002
  0
ARC
  5
C2
  8
0
 62
     7
 10
60.228487999999999
 20
187.781542
 30
0.0
 40
3.8329519999999988
 50
90.001287000000019
 51
180.00129699999999
  0
ARC
  5
C3
  8
0
 62
     7
 10
60.228658999999993
 20
187.78119699999991
 30
0.0
 40
3.8331230000000001
 50
179.99610799999999
 51
269.99615799999992
  0
ARC
  5
C4
  8
0
 62
     7
 10
60.228487000000001
 20
187.781543
 30
0.0
 40
3.833469
 50
269.99873300000002
 51
359.99870299999992
  0
ARC
  5
C5
  8
0
 62
     7
 10
60.228572999999997
 20
187.781283
 30
0.0
 40
5.9998449999999988
 50
0.001655
 51
90.001625000000004
  0
ARC
  5
C6
  8
0
 62
     7
 10
60.228487999999999
 20
187.781542
 30
0.0
 40
5.999587
 50
90.000822999999983
 51
180.000832
  0
ARC
  5
C7
  8
0
 62
     7
 10
60.228658999999993
 20
187.78119699999991
 30
0.0
 40
5.9997569999999989
 50
179.99750299999991
 51
269.99755199999993
  0
ARC
  5
C8
  8
0
 62
     7
 10
60.228400000000001
 20
187.78145699999999
 30
0.0
 40
6.0000169999999988
 50
270.00002000000001
 51
359.99998999999991
  0
ARC
  5
C9
  8
0
 62
     7
 10
60.228999999999992
 20
187.78188299999999
 30
0.0
 40
23.332827999999999
 50
180.00022100000001
 51
270.00023099999993
  0
ARC
  5
CA
  8
0
 62
     7
 10
60.228828
 20
187.7815469999999
 30
0.0
 40
23.332491000000001
 50
270.00065399999988
 51
0.000625
  0
ARC
  5
CB
  8
0
 62
     7
 10
60.228999999999992
 20
187.78188299999999
 30
0.0
 40
23.332318999999998
 50
359.99979799999988
 51
89.999769000000001
  0
ARC
  5
CC
  8
0
 62
     7
 10
60.228836000000001
 20
187.7815389999999
 30
0.0
 40
23.332664000000001
 50
89.999366000000009
 51
179.999336
  0
ARC
  5
CD
  8
0
 62
     7
 10
60.228395999999996
 20
187.781452
 30
0.0
 40
28.332648999999989
 50
0.00001
 51
89.999980000000008
  0
ARC
  5
CE
  8
0
 62
     7
 10
60.228664999999999
 20
187.78171
 30
0.0
 40
28.332391000000001
 50
90.000523000000001
 51
180.00053199999991
  0
ARC
  5
CF
  8
0
 62
     7
 10
60.22848299999999
 20
187.78136499999999
 30
0.0
 40
28.332208999999999
 50
179.99979599999989
 51
269.99984599999988
  0
ARC
  5
D0
  8
0
 62
     7
 10
60.228568999999993
 20
187.781634
 30
0.0
 40
28.332477000000001
 50
269.99967199999998
 51
359.99964199999999
  0
LINE
  5
D1
  8
0
 62
     7
 10
86.350300000000004
 20
140.51299999999989
 30
0.0
 11
88.561000000000007
 21
141.10599999999991
 31
0.0
  0
LINE
  5
D2
  8
0
 62
     7
 10
88.561000000000007
 20
141.10599999999991
 30
0.0
 11
86.350300000000004
 21
141.69799999999989
 31
0.0
  0
LINE
  5
D3
  8
0
 62
     7
 10
86.350300000000004
 20
141.69799999999989
 30
0.0
 11
86.350300000000004
 21
140.51299999999989
 31
0.0
  0
LINE
  5
D4
  8
0
 62
     7
 10
34.106699999999989
 20
141.68299999999999
 30
0.0
 11
31.8963
 21
141.09200000000001
 31
0.0
  0
LINE
  5
D5
  8
0
 62
     7
 10
31.8963
 20
141.09200000000001
 30
0.0
 11
34.106699999999989
 21
140.49899999999991
 31
0.0
  0
LINE
  5
D6
  8
0
 62
     7
 10
34.106699999999989
 20
140.49899999999991
 30
0.0
 11
34.106699999999989
 21
141.68299999999999
 31
0.0
  0
LINE
  5
D7
  8
0
 62
     7
 10
88.561000000000007
 20
141.0979999999999
 30
0.0
 11
31.8963
 21
141.0979999999999
 31
0.0
  0
LINE
  5
D8
  8
0
 62
     7
 10
71.350800000000007
 20
72.470500000000001
 30
0.0
 11
73.561499999999995
 21
73.062700000000007
 31
0.0
  0
LINE
  5
D9
  8
0
 62
     7
 10
73.561499999999995
 20
73.062700000000007
 30
0.0
 11
71.350800000000007
 21
73.654899999999998
 31
0.0
  0
LINE
  5
DA
  8
0
 62
     7
 10
71.350800000000007
 20
73.654899999999998
 30
0.0
 11
71.350800000000007
 21
72.470500000000001
 31
0.0
  0
LINE
  5
DB
  8
0
 62
     7
 10
49.106200000000001
 20
73.6404
 30
0.0
 11
46.895800000000001
 21
73.048500000000004
 31
0.0
  0
LINE
  5
DC
  8
0
 62
     7
 10
46.895800000000001
 20
73.048500000000004
 30
0.0
 11
49.106200000000001
 21
72.456000000000003
 31
0.0
  0
LINE
  5
DD
  8
0
 62
     7
 10
49.106200000000001
 20
72.456000000000003
 30
0.0
 11
49.106200000000001
 21
73.6404
 31
0.0
  0
LINE
  5
DE
  8
0
 62
     7
 10
73.561499999999995
 20
73.055400000000006
 30
0.0
 11
46.895800000000001
 21
73.055400000000006
 31
0.0
  0
LINE
  5
DF
  8
0
 62
     7
 10
73.561499999999995
 20
82.644199999999984
 30
0.0
 11
73.561499999999995
 21
72.348500000000001
 31
0.0
  0
LINE
  5
E0
  8
0
 62
     7
 10
46.895800000000001
 20
82.644199999999984
 30
0.0
 11
46.895800000000001
 21
72.348500000000001
 31
0.0
  0
LINE
  5
E1
  8
0
 62
     7
 10
158.36699999999999
 20
170.423
 30
0.0
 11
160.3489999999999
 21
169.279
 31
0.0
  0
LINE
  5
E2
  8
0
 62
     7
 10
160.3489999999999
 20
169.279
 30
0.0
 11
159.20400000000001
 21
171.26099999999991
 31
0.0
  0
LINE
  5
E3
  8
0
 62
     7
 10
159.20400000000001
 20
171.26099999999991
 30
0.0
 11
158.36699999999999
 21
170.423
 31
0.0
  0
LINE
  5
E4
  8
0
 62
     7
 10
125.3239999999999
 20
205.13999999999999
 30
0.0
 11
123.343
 21
206.28399999999999
 31
0.0
  0
LINE
  5
E5
  8
0
 62
     7
 10
123.343
 20
206.28399999999999
 30
0.0
 11
124.48699999999999
 21
204.30199999999999
 31
0.0
  0
LINE
  5
E6
  8
0
 62
     7
 10
124.48699999999999
 20
204.30199999999999
 30
0.0
 11
125.3239999999999
 21
205.13999999999999
 31
0.0
  0
LINE
  5
E7
  8
0
 62
     7
 10
160.3489999999999
 20
169.279
 30
0.0
 11
123.343
 21
206.28399999999999
 31
0.0
  0
LINE
  5
E8
  8
0
 62
     7
 10
81.350600000000014
 20
147.864
 30
0.0
 11
83.561300000000003
 21
148.45599999999999
 31
0.0
  0
LINE
  5
E9
  8
0
 62
     7
 10
83.561300000000003
 20
148.45599999999999
 30
0.0
 11
81.350600000000014
 21
149.04799999999989
 31
0.0
  0
LINE
  5
EA
  8
0
 62
     7
 10
81.350600000000014
 20
149.04799999999989
 30
0.0
 11
81.350600000000014
 21
147.864
 31
0.0
  0
LINE
  5
EB
  8
0
 62
     7
 10
39.1066
 20
149.03399999999991
 30
0.0
 11
36.8962
 21
148.44200000000001
 31
0.0
  0
LINE
  5
EC
  8
0
 62
     7
 10
36.8962
 20
148.44200000000001
 30
0.0
 11
39.1066
 21
147.8489999999999
 31
0.0
  0
LINE
  5
ED
  8
0
 62
     7
 10
39.1066
 20
147.8489999999999
 30
0.0
 11
39.1066
 21
149.03399999999991
 31
0.0
  0
LINE
  5
EE
  8
0
 62
     7
 10
83.561300000000003
 20
148.4489999999999
 30
0.0
 11
36.8962
 21
148.4489999999999
 31
0.0
  0
LINE
  5
EF
  8
0
 62
     7
 10
88.561000000000007
 20
179.73099999999991
 30
0.0
 11
88.561000000000007
 21
140.39099999999991
 31
0.0
  0
LINE
  5
F0
  8
0
 62
     7
 10
83.561300000000003
 20
181.48099999999991
 30
0.0
 11
83.561300000000003
 21
147.74199999999999
 31
0.0
  0
LINE
  5
F1
  8
0
 62
     7
 10
36.8962
 20
181.48099999999991
 30
0.0
 11
36.8962
 21
147.74199999999999
 31
0.0
  0
LINE
  5
F2
  8
0
 62
     7
 10
31.8963
 20
179.73099999999991
 30
0.0
 11
31.8963
 21
140.39099999999991
 31
0.0
  0
LINE
  5
F3
  8
_________2
 62
     7
 10
205.30099999999999
 20
127.411
 30
0.0
 11
183.55000000000001
 21
127.411
 31
0.0
  0
LINE
  5
F4
  8
_________2
 62
     7
 10
100.2999999999999
 20
-4.0910799999999998
 30
0.0
 11
100.2999999999999
 21
-21.071400000000001
 31
0.0
  0
LINE
  5
F5
  8
_________2
 62
     7
 10
100.2999999999999
 20
275.93099999999993
 30
0.0
 11
100.2999999999999
 21
258.911
 31
0.0
  0
LINE
  5
F6
  8
_________2
 62
     7
 10
17.049499999999998
 20
127.411
 30
0.0
 11
-4.70052
 21
127.411
 31
0.0
  0
LINE
  5
F7
  8
_________2
 62
     7
 10
76.741
 20
29.8047
 30
0.0
 11
74.554699999999997
 21
29.8047
 31
0.0
  0
LINE
  5
F8
  8
_________2
 62
     7
 10
77.233699999999999
 20
29.8047
 30
0.0
 11
76.981499999999997
 21
29.8047
 31
0.0
  0
LINE
  5
F9
  8
_________2
 62
     7
 10
77.726299999999995
 20
29.8047
 30
0.0
 11
80.651200000000003
 21
29.8047
 31
0.0
  0
LINE
  5
FA
  8
_________2
 62
     7
 10
77.233699999999999
 20
29.8047
 30
0.0
 11
77.485500000000002
 21
29.8047
 31
0.0
  0
LINE
  5
FB
  8
_________2
 62
     7
 10
70.837100000000007
 20
29.8047
 30
0.0
 11
68.650499999999994
 21
29.8047
 31
0.0
  0
LINE
  5
FC
  8
_________2
 62
     7
 10
71.329400000000007
 20
29.8047
 30
0.0
 11
71.077600000000004
 21
29.8047
 31
0.0
  0
LINE
  5
FD
  8
_________2
 62
     7
 10
71.329400000000007
 20
30.2974
 30
0.0
 11
71.329400000000007
 21
32.484400000000001
 31
0.0
  0
LINE
  5
FE
  8
_________2
 62
     7
 10
71.329400000000007
 20
29.8047
 30
0.0
 11
71.329400000000007
 21
30.056899999999992
 31
0.0
  0
LINE
  5
FF
  8
_________2
 62
     7
 10
71.822100000000006
 20
29.8047
 30
0.0
 11
74.009
 21
29.8047
 31
0.0
  0
LINE
  5
100
  8
_________2
 62
     7
 10
71.329400000000007
 20
29.8047
 30
0.0
 11
71.581599999999995
 21
29.8047
 31
0.0
  0
LINE
  5
101
  8
_________2
 62
     7
 10
71.329400000000007
 20
29.312799999999999
 30
0.0
 11
71.329400000000007
 21
27.125800000000002
 31
0.0
  0
LINE
  5
102
  8
_________2
 62
     7
 10
71.329400000000007
 20
29.8047
 30
0.0
 11
71.329400000000007
 21
29.5532
 31
0.0
  0
LINE
  5
103
  8
_________2
 62
     7
 10
75.040499999999994
 20
28.5852
 30
0.0
 11
80.218500000000006
 21
27.720400000000001
 31
0.0
  0
LINE
  5
104
  8
_________2
 62
     7
 10
75.040499999999994
 20
31.0243
 30
0.0
 11
80.218500000000006
 21
31.889700000000001
 31
0.0
  0
LINE
  5
105
  8
_________2
 62
     7
 10
80.218500000000006
 20
27.720400000000001
 30
0.0
 11
80.218500000000006
 21
31.889700000000001
 31
0.0
  0
LINE
  5
106
  8
_________2
 62
     7
 10
75.040499999999994
 20
28.5852
 30
0.0
 11
75.040499999999994
 21
31.0243
 31
0.0
  0
ARC
  5
107
  8
_________2
 62
     7
 10
71.28285600000001
 20
29.757811
 30
0.0
 40
1.2673589999999999
 50
2.122214
 51
87.893958999999995
  0
ARC
  5
108
  8
_________2
 62
     7
 10
71.375959999999992
 20
29.758213000000001
 30
0.0
 40
1.2669559999999991
 50
92.104701000000006
 51
177.8952689999999
  0
ARC
  5
109
  8
_________2
 62
     7
 10
71.376357999999996
 20
29.851671
 30
0.0
 40
1.2673680000000001
 50
182.12203600000001
 51
267.877993
  0
ARC
  5
10A
  8
_________2
 62
     7
 10
71.282531999999989
 20
29.851998999999989
 30
0.0
 40
1.267695999999999
 50
272.12015300000002
 51
357.863674
  0
ARC
  5
10B
  8
_________2
 62
     7
 10
71.329430000000002
 20
29.804742999999998
 30
0.0
 40
2.0849849999999992
 50
0.00001
 51
89.999980000000008
  0
ARC
  5
10C
  8
_________2
 62
     7
 10
71.329603000000006
 20
29.804915000000001
 30
0.0
 40
2.084813
 50
90.004733999999999
 51
180.00474399999999
  0
ARC
  5
10D
  8
_________2
 62
     7
 10
71.409106000000008
 20
29.884775999999999
 30
0.0
 40
2.1657950000000001
 50
182.11776599999999
 51
267.89173399999999
  0
ARC
  5
10E
  8
_________2
 62
     7
 10
71.249459000000002
 20
29.885429999999989
 30
0.0
 40
2.1664590000000001
 50
272.11546800000002
 51
357.86560400000002
  0
TEXT
  5
10F
  8
_________2
 62
     7
 10
104.605
 20
1.6794899999999999
 30
0.0
 40
3.0923400000000001
  1
図番
 41
0.5
  0
LINE
  5
110
  8
_________2
 62
     7
 10
103.55
 20
5.9087199999999989
 30
0.0
 11
183.55099999999999
 21
5.9087199999999989
 31
0.0
  0
TEXT
  5
111
  8
_________2
 62
     7
 10
104.605
 20
11.679299999999991
 30
0.0
 40
3.0923400000000001
  1
品番
 41
0.5
  0
TEXT
  5
112
  8
_________2
 62
     7
 10
104.605
 20
31.818100000000001
 30
0.0
 40
3.0923400000000001
  1
名称
 41
0.5
  0
TEXT
  5
113
  8
_________2
 62
     7
 10
91.845058333333341
 20
26.821999999999989
 30
0.0
 40
3.6545800000000002
  1
mm
 41
0.5
 72
     1
 11
93.367800000000003
 21
26.821999999999989
 31
0.0
  0
TEXT
  5
114
  8
_________2
 62
     7
 10
85.643199999999993
 20
31.818100000000001
 30
0.0
 40
3.0923400000000001
  1
単位
 41
0.5
  0
TEXT
  5
115
  8
_________2
 62
     7
 10
85.643199999999993
 20
19.410799999999991
 30
0.0
 40
3.0923400000000001
  1
尺度
 41
0.5
  0
TEXT
  5
116
  8
_________2
 62
     7
 10
90.548758666666686
 20
13.2179
 30
0.0
 40
3.6545800000000002
  1
1 ： 6
 41
0.5
 72
     1
 11
93.959699999999998
 21
13.2179
 31
0.0
  0
TEXT
  5
117
  8
_________2
 62
     7
 10
136.17056249999999
 20
9.1078600000000005
 30
0.0
 40
3.9357000000000002
  1
VB614034
 41
0.5
 72
     1
 11
143.55000000000001
 21
9.1078600000000005
 31
0.0
  0
TEXT
  5
118
  8
_________2
 62
     7
 10
136.17056249999999
 20
-0.8926299999999999
 30
0.0
 40
3.9357000000000002
  1
VB614034
 41
0.5
 72
     1
 11
143.55000000000001
 21
-0.8926299999999999
 31
0.0
  0
TEXT
  5
119
  8
_________2
 62
     7
 10
24.5868
 20
0.707283
 30
0.0
 40
3.9357000000000002
  1
実容量1.5L、重量：6.0kg、オーバーフロー付
 41
0.5
  0
TEXT
  5
11A
  8
_________2
 62
     7
 10
109.179
 20
24.2257
 30
0.0
 40
3.9357000000000002
  1
ループ&フレンズ　手洗器
 41
0.5
  0
TEXT
  5
11B
  8
_________2
 62
     7
 10
39.425300333333333
 20
13.603
 30
0.0
 40
3.6545800000000002
  1
早川
 41
0.5
 72
     1
 11
41.313499999999998
 21
13.603
 31
0.0
  0
TEXT
  5
11C
  8
_________2
 62
     7
 10
20.790090666666661
 20
13.603
 30
0.0
 40
3.6545800000000002
  1
麻生
 41
0.5
 72
     1
 11
22.73919999999999
 21
13.603
 31
0.0
  0
TEXT
  5
11D
  8
_________2
 62
     7
 10
67.785399999999996
 20
13.2179
 30
0.0
 40
3.6545800000000002
  1
14.02.12
 41
0.5
  0
TEXT
  5
11E
  8
_________2
 62
     7
 10
66.593100000000007
 20
19.410799999999991
 30
0.0
 40
3.0923400000000001
  1
日付
 41
0.5
  0
TEXT
  5
11F
  8
_________2
 62
     7
 10
29.639399999999998
 20
19.410799999999991
 30
0.0
 40
3.0923400000000001
  1
検図
 41
0.5
  0
TEXT
  5
120
  8
_________2
 62
     7
 10
18.021100000000001
 20
5.21143
 30
0.0
 40
3.0923400000000001
  1
備考
 41
0.5
  0
TEXT
  5
121
  8
_________2
 62
     7
 10
18.021100000000001
 20
19.410799999999991
 30
0.0
 40
3.0923400000000001
  1
製図
 41
0.5
  0
TEXT
  5
122
  8
_________2
 62
     7
 10
23.788465333333338
 20
27.936800000000002
 30
0.0
 40
4.4979399999999989
  1
セラトレーディング株式会社
 41
0.5
 72
     1
 11
41.180500000000002
 21
27.936800000000002
 31
0.0
  0
LINE
  5
123
  8
_________2
 62
     7
 10
183.55099999999999
 20
-4.0910799999999998
 30
0.0
 11
17.049499999999998
 21
-4.0910799999999998
 31
0.0
  0
LINE
  5
124
  8
_________2
 62
     7
 10
17.049499999999998
 20
-4.0910799999999998
 30
0.0
 11
17.049499999999998
 21
258.911
 31
0.0
  0
LINE
  5
125
  8
_________2
 62
     7
 10
17.049499999999998
 20
258.911
 30
0.0
 11
183.55099999999999
 21
258.911
 31
0.0
  0
LINE
  5
126
  8
_________2
 62
     7
 10
183.55099999999999
 20
258.911
 30
0.0
 11
183.55099999999999
 21
-4.0910799999999998
 31
0.0
  0
LINE
  5
127
  8
_________2
 62
     7
 10
65.549599999999998
 20
9.4089600000000004
 30
0.0
 11
65.549599999999998
 21
35.908799999999999
 31
0.0
  0
LINE
  5
128
  8
_________2
 62
     7
 10
84.549700000000016
 20
9.4089600000000004
 30
0.0
 11
84.549700000000016
 21
35.908799999999999
 31
0.0
  0
LINE
  5
129
  8
_________2
 62
     7
 10
103.55
 20
-4.0910799999999998
 30
0.0
 11
103.55
 21
35.908799999999999
 31
0.0
  0
LINE
  5
12A
  8
_________2
 62
     7
 10
28.549299999999992
 20
9.4089600000000004
 30
0.0
 11
28.549299999999992
 21
23.409199999999998
 31
0.0
  0
LINE
  5
12B
  8
_________2
 62
     7
 10
17.049499999999998
 20
9.4089600000000004
 30
0.0
 11
103.55
 21
9.4089600000000004
 31
0.0
  0
LINE
  5
12C
  8
_________2
 62
     7
 10
17.049499999999998
 20
23.409199999999998
 30
0.0
 11
103.55
 21
23.409199999999998
 31
0.0
  0
LINE
  5
12D
  8
_________2
 62
     7
 10
103.55
 20
15.9085
 30
0.0
 11
183.55099999999999
 21
15.9085
 31
0.0
  0
LINE
  5
12E
  8
_________2
 62
     7
 10
17.049499999999998
 20
35.908799999999999
 30
0.0
 11
183.55099999999999
 21
35.908799999999999
 31
0.0
  0
ENDSEC
  0
EOF
