  0
SECTION
  2
HEADER
  9
$ACADVER
  1
AC1009
  9
$INSBASE
 10
0.0
 20
0.0
 30
0.0
  9
$EXTMIN
 10
0.238402
 20
0.4485540000000001
 30
0.0
  9
$EXTMAX
 10
210.24000000000001
 20
297.45099999999991
 30
0.0
  9
$LIMMIN
 10
0.0
 20
0.0
  9
$LIMMAX
 10
12.0
 20
9.0
  9
$ORTHOMODE
 70
     0
  9
$REGENMODE
 70
     1
  9
$FILLMODE
 70
     1
  9
$QTEXTMODE
 70
     0
  9
$MIRRTEXT
 70
     1
  9
$DRAGMODE
 70
     2
  9
$LTSCALE
 40
1.0
  9
$OSMODE
 70
    37
  9
$ATTMODE
 70
     1
  9
$TEXTSIZE
 40
0.0
  9
$TRACEWID
 40
0.05
  9
$TEXTSTYLE
  7
STANDARD
  9
$CLAYER
  8
0
  9
$CELTYPE
  6
CONTINUOUS
  9
$CECOLOR
 62
   256
  9
$DIMSCALE
 40
1.0
  9
$DIMASZ
 40
0.18
  9
$DIMEXO
 40
0.0625
  9
$DIMDLI
 40
0.38
  9
$DIMRND
 40
0.0
  9
$DIMDLE
 40
0.0
  9
$DIMEXE
 40
0.18
  9
$DIMTP
 40
0.0
  9
$DIMTM
 40
0.0
  9
$DIMTXT
 40
0.18
  9
$DIMCEN
 40
0.09
  9
$DIMTSZ
 40
0.0
  9
$DIMTOL
 70
     0
  9
$DIMLIM
 70
     0
  9
$DIMTIH
 70
     1
  9
$DIMTOH
 70
     1
  9
$DIMSE1
 70
     0
  9
$DIMSE2
 70
     0
  9
$DIMTAD
 70
     0
  9
$DIMZIN
 70
     0
  9
$DIMBLK
  1

  9
$DIMASO
 70
     1
  9
$DIMSHO
 70
     1
  9
$DIMPOST
  1

  9
$DIMAPOST
  1

  9
$DIMALT
 70
     0
  9
$DIMALTD
 70
     2
  9
$DIMALTF
 40
25.399999999999999
  9
$DIMLFAC
 40
1.0
  9
$DIMTOFL
 70
     0
  9
$DIMTVP
 40
0.0
  9
$DIMTIX
 70
     0
  9
$DIMSOXD
 70
     0
  9
$DIMSAH
 70
     0
  9
$DIMBLK1
  1

  9
$DIMBLK2
  1

  9
$DIMSTYLE
  2
STANDARD
  9
$DIMCLRD
 70
     0
  9
$DIMCLRE
 70
     0
  9
$DIMCLRT
 70
     0
  9
$DIMTFAC
 40
1.0
  9
$DIMGAP
 40
0.09
  9
$LUNITS
 70
     2
  9
$LUPREC
 70
     4
  9
$SKETCHINC
 40
0.1
  9
$FILLETRAD
 40
0.0
  9
$AUNITS
 70
     0
  9
$AUPREC
 70
     0
  9
$MENU
  1
.
  9
$ELEVATION
 40
0.0
  9
$PELEVATION
 40
0.0
  9
$THICKNESS
 40
0.0
  9
$LIMCHECK
 70
     0
  9
$BLIPMODE
 70
     0
  9
$CHAMFERA
 40
0.0
  9
$CHAMFERB
 40
0.0
  9
$SKPOLY
 70
     0
  9
$TDCREATE
 40
2444972.375
  9
$TDUPDATE
 40
2456571.249650856
  9
$TDINDWG
 40
0.0000062616
  9
$TDUSRTIMER
 40
0.0000062616
  9
$USRTIMER
 70
     1
  9
$ANGBASE
 50
0.0
  9
$ANGDIR
 70
     0
  9
$PDMODE
 70
     0
  9
$PDSIZE
 40
0.0
  9
$PLINEWID
 40
0.0
  9
$COORDS
 70
     1
  9
$SPLFRAME
 70
     0
  9
$SPLINETYPE
 70
     6
  9
$SPLINESEGS
 70
     8
  9
$ATTDIA
 70
     0
  9
$ATTREQ
 70
     1
  9
$HANDLING
 70
     1
  9
$HANDSEED
  5
1EE
  9
$SURFTAB1
 70
     6
  9
$SURFTAB2
 70
     6
  9
$SURFTYPE
 70
     6
  9
$SURFU
 70
     6
  9
$SURFV
 70
     6
  9
$UCSNAME
  2

  9
$UCSORG
 10
0.0
 20
0.0
 30
0.0
  9
$UCSXDIR
 10
1.0
 20
0.0
 30
0.0
  9
$UCSYDIR
 10
0.0
 20
1.0
 30
0.0
  9
$PUCSNAME
  2

  9
$PUCSORG
 10
0.0
 20
0.0
 30
0.0
  9
$PUCSXDIR
 10
1.0
 20
0.0
 30
0.0
  9
$PUCSYDIR
 10
0.0
 20
1.0
 30
0.0
  9
$USERI1
 70
     0
  9
$USERI2
 70
     0
  9
$USERI3
 70
     0
  9
$USERI4
 70
     0
  9
$USERI5
 70
     0
  9
$USERR1
 40
0.0
  9
$USERR2
 40
0.0
  9
$USERR3
 40
0.0
  9
$USERR4
 40
0.0
  9
$USERR5
 40
0.0
  9
$WORLDVIEW
 70
     1
  9
$SHADEDGE
 70
     3
  9
$SHADEDIF
 70
    70
  9
$TILEMODE
 70
     1
  9
$MAXACTVP
 70
    48
  9
$PLIMCHECK
 70
     0
  9
$PEXTMIN
 10
1.0000000000000000E+020
 20
1.0000000000000000E+020
 30
1.0000000000000000E+020
  9
$PEXTMAX
 10
-1.0000000000000000E+020
 20
-1.0000000000000000E+020
 30
-1.0000000000000000E+020
  9
$PLIMMIN
 10
0.0
 20
0.0
  9
$PLIMMAX
 10
12.0
 20
9.0
  9
$UNITMODE
 70
     0
  9
$VISRETAIN
 70
     1
  9
$PLINEGEN
 70
     0
  9
$PSLTSCALE
 70
     1
  0
ENDSEC
  0
SECTION
  2
TABLES
  0
TABLE
  2
VPORT
 70
     2
  0
VPORT
  2
*ACTIVE
 70
     0
 10
0.0
 20
0.0
 11
1.0
 21
1.0
 12
206.98016390466589
 22
148.7254999999999
 13
0.0
 23
0.0
 14
1.0
 24
1.0
 15
0.0
 25
0.0
 16
0.0
 26
0.0
 36
1.0
 17
0.0
 27
0.0
 37
0.0
 40
299.90589133425021
 41
2.2894736842105261
 42
50.0
 43
0.0
 44
0.0
 50
0.0
 51
0.0
 71
     0
 72
   100
 73
     1
 74
     1
 75
     0
 76
     0
 77
     0
 78
     0
  0
ENDTAB
  0
TABLE
  2
LTYPE
 70
     4
  0
LTYPE
  2
CONTINUOUS
 70
     0
  3
Solid line
 72
    65
 73
     0
 40
0.0
  0
LTYPE
  2
AIGENLINE001
 70
     0
  3
generate AI->DXF Converter
 72
    65
 73
     2
 40
1.5522299999999991
 49
0.776115
 49
-0.776115
  0
LTYPE
  2
AIGENLINE002
 70
     0
  3
generate AI->DXF Converter
 72
    65
 73
     4
 40
5.8561449999999988
 49
3.5278
 49
-0.776115
 49
0.776115
 49
-0.776115
  0
LTYPE
  2
AIGENLINE003
 70
     0
  3
generate AI->DXF Converter
 72
    65
 73
     6
 40
7.4083750000000004
 49
3.5278
 49
-0.776115
 49
0.776115
 49
-0.776115
 49
0.776115
 49
-0.776115
  0
ENDTAB
  0
TABLE
  2
LAYER
 70
     2
  0
LAYER
  2
0
 70
     0
 62
     7
  6
CONTINUOUS
  0
LAYER
  2
_________2
 70
     0
 62
     7
  6
CONTINUOUS
  0
ENDTAB
  0
TABLE
  2
STYLE
 70
     1
  0
STYLE
  2
STANDARD
 70
     0
 40
0.0
 41
0.0
 50
0.0
 71
     0
 42
0.0
  3
TXT
  4
EXTFONT.SHX
  0
ENDTAB
  0
TABLE
  2
VIEW
 70
     0
  0
ENDTAB
  0
TABLE
  2
UCS
 70
     0
  0
ENDTAB
  0
TABLE
  2
APPID
 70
     1
  0
APPID
  2
ACAD
 70
     0
  0
ENDTAB
  0
TABLE
  2
DIMSTYLE
 70
     1
  0
DIMSTYLE
  2
STANDARD
 70
     0
  3

  4

  5

  6

  7

 40
1.0
 41
0.18
 42
0.0625
 43
0.38
 44
0.18
 45
0.0
 46
0.0
 47
0.0
 48
0.0
140
0.18
141
0.09
142
0.0
143
25.399999999999999
144
1.0
145
0.0
146
1.0
147
0.09
 71
     0
 72
     0
 73
     1
 74
     1
 75
     0
 76
     0
 77
     0
 78
     0
170
     0
171
     2
172
     0
173
     0
174
     0
175
     0
176
     0
177
     0
178
     0
  0
ENDTAB
  0
ENDSEC
  0
SECTION
  2
BLOCKS
  0
BLOCK
  8
0
  2
$MODEL_SPACE
 70
     0
 10
0.0
 20
0.0
 30
0.0
  3
$MODEL_SPACE
  1

  0
ENDBLK
  5
1A
  8
0
  0
BLOCK
 67
     1
  8
0
  2
$PAPER_SPACE
 70
     0
 10
0.0
 20
0.0
 30
0.0
  3
$PAPER_SPACE
  1

  0
ENDBLK
  5
17
 67
     1
  8
0
  0
ENDSEC
  0
SECTION
  2
ENTITIES
  0
TEXT
  5
24
  8
0
 62
     7
 10
153.81399999999999
 20
227.13828749999999
 30
0.0
 40
3.0923400000000001
  1
320
 50
90.0
 41
0.5
 72
     1
 11
153.81399999999999
 21
229.071
 31
0.0
  0
TEXT
  5
25
  8
0
 62
     7
 10
134.67999999999989
 20
79.503
 30
0.0
 40
3.0923400000000001
  1
〈付属品〉
 41
0.5
  0
TEXT
  5
26
  8
0
 62
     7
 10
134.67999999999989
 20
75.637500000000003
 30
0.0
 40
3.0923400000000001
  1
洗面器固定金具×4
 41
0.5
  0
TEXT
  5
27
  8
0
 62
     7
 10
134.67999999999989
 20
71.772099999999995
 30
0.0
 40
3.0923400000000001
  1
%%c5×20SUSねじ付
 41
0.5
  0
TEXT
  5
28
  8
0
 62
     7
 10
134.67999999999989
 20
67.906700000000001
 30
0.0
 40
3.0923400000000001
  1
（尺度 1：3）
 41
0.5
  0
TEXT
  5
29
  8
0
 62
     7
 10
143.70699999999999
 20
114.6449999999999
 30
0.0
 40
3.0923400000000001
  1
12.5
 41
0.5
  0
TEXT
  5
2A
  8
0
 62
     7
 10
146.77888799999999
 20
99.222099999999983
 30
0.0
 40
3.0923400000000001
  1
両面テープ付
 41
0.5
 72
     2
 11
157.49899999999991
 21
99.222099999999983
 31
0.0
  0
TEXT
  5
2B
  8
0
 62
     7
 10
144.7483724999999
 20
109.801
 30
0.0
 40
3.0923400000000001
  1
50
 41
0.5
 72
     1
 11
145.9079999999999
 21
109.801
 31
0.0
  0
TEXT
  5
2C
  8
0
 62
     7
 10
158.7239999999999
 20
92.395949999999985
 30
0.0
 40
3.0923400000000001
  1
1.5
 50
90.0
 41
0.5
 72
     2
 11
158.7239999999999
 21
94.972899999999996
 31
0.0
  0
TEXT
  5
2D
  8
0
 62
     7
 10
132.68199999999999
 20
91.223919999999993
 30
0.0
 40
3.0923400000000001
  1
19
 50
90.0
 41
0.5
 72
     1
 11
132.68199999999999
 21
92.254699999999985
 31
0.0
  0
TEXT
  5
2E
  8
0
 62
     7
 10
159.65100000000001
 20
122.8673724999999
 30
0.0
 40
3.0923400000000001
  1
30
 50
90.0
 41
0.5
 72
     1
 11
159.65100000000001
 21
124.0269999999999
 31
0.0
  0
TEXT
  5
2F
  8
0
 62
     7
 10
137.31375999999989
 20
182.905
 30
0.0
 40
3.0923400000000001
  1
カウンター切込寸法
 41
0.5
 72
     1
 11
145.56
 21
182.905
 31
0.0
  0
TEXT
  5
30
  8
0
 62
     7
 10
131.803
 20
230.512
 30
0.0
 40
3.0923400000000001
  1
排水口
 41
0.5
  0
TEXT
  5
31
  8
0
 62
     7
 10
50.986199999999997
 20
230.74700000000001
 30
0.0
 40
3.0923400000000001
  1
%%c46
 41
0.5
  0
TEXT
  5
32
  8
0
 62
     7
 10
112.926
 20
192.50899999999999
 30
0.0
 40
3.0923400000000001
  1
洗面器固定用カウンター裏補強木（t＝21）
 41
0.5
  0
TEXT
  5
33
  8
0
 62
     7
 10
137.32757499999991
 20
214.745
 30
0.0
 40
3.0923400000000001
  1
R20
 41
0.5
 72
     2
 11
141.1929999999999
 21
214.745
 31
0.0
  0
TEXT
  5
34
  8
0
 62
     7
 10
137.32757499999991
 20
235.69099999999989
 30
0.0
 40
3.0923400000000001
  1
R20
 41
0.5
 72
     2
 11
141.1929999999999
 21
235.69099999999989
 31
0.0
  0
TEXT
  5
35
  8
0
 62
     7
 10
175.23685900000001
 20
249.732
 30
0.0
 40
3.0923400000000001
  1
50以上
 41
0.5
 72
     2
 11
181.37
 21
249.732
 31
0.0
  0
TEXT
  5
36
  8
0
 62
     7
 10
109.538
 20
249.732
 30
0.0
 40
3.0923400000000001
  1
50以上
 41
0.5
  0
TEXT
  5
37
  8
0
 62
     7
 10
162.921525
 20
249.732
 30
0.0
 40
3.0923400000000001
  1
53
 41
0.5
 72
     1
 11
164.21000000000001
 21
249.732
 31
0.0
  0
TEXT
  5
38
  8
0
 62
     7
 10
125.62152499999991
 20
249.732
 30
0.0
 40
3.0923400000000001
  1
53
 41
0.5
 72
     1
 11
126.9099999999999
 21
249.732
 31
0.0
  0
TEXT
  5
39
  8
0
 62
     7
 10
135.88498250000001
 20
249.732
 30
0.0
 40
3.0923400000000001
  1
160
 41
0.5
 72
     1
 11
137.56
 21
249.732
 31
0.0
  0
TEXT
  5
3A
  8
0
 62
     7
 10
151.88498250000001
 20
249.732
 30
0.0
 40
3.0923400000000001
  1
160
 41
0.5
 72
     1
 11
153.56
 21
249.732
 31
0.0
  0
TEXT
  5
3B
  8
0
 62
     7
 10
143.62728749999999
 20
200.83699999999999
 30
0.0
 40
3.0923400000000001
  1
320
 41
0.5
 72
     1
 11
145.56
 21
200.83699999999999
 31
0.0
  0
TEXT
  5
3C
  8
0
 62
     7
 10
59.7648875
 20
187.19599999999991
 30
0.0
 40
3.0923400000000001
  1
405
 41
0.5
 72
     1
 11
61.697600000000001
 21
187.19599999999991
 31
0.0
  0
TEXT
  5
3D
  8
0
 62
     7
 10
59.7648875
 20
194.14099999999991
 30
0.0
 40
3.0923400000000001
  1
340
 41
0.5
 72
     1
 11
61.697600000000001
 21
194.14099999999991
 31
0.0
  0
TEXT
  5
3E
  8
0
 62
     7
 10
97.304199999999994
 20
222.58528749999999
 30
0.0
 40
3.0923400000000001
  1
405
 50
90.0
 41
0.5
 72
     1
 11
97.304199999999994
 21
224.51799999999989
 31
0.0
  0
TEXT
  5
3F
  8
0
 62
     7
 10
86.936800000000005
 20
171.66444000000001
 30
0.0
 40
3.0923400000000001
  1
12
 50
90.0
 41
0.5
 72
     2
 11
86.936800000000005
 21
173.726
 31
0.0
  0
TEXT
  5
40
  8
0
 62
     7
 10
143.24799999999991
 20
159.19313500000001
 30
0.0
 40
3.0923400000000001
  1
135
 50
90.0
 41
0.5
 72
     1
 11
143.24799999999991
 21
160.99700000000001
 31
0.0
  0
TEXT
  5
41
  8
0
 62
     7
 10
92.705500000000001
 20
157.07198249999999
 30
0.0
 40
3.0923400000000001
  1
180
 50
90.0
 41
0.5
 72
     1
 11
92.705500000000001
 21
158.74700000000001
 31
0.0
  0
TEXT
  5
42
  8
0
 62
     7
 10
90.053099999999986
 20
222.58528749999999
 30
0.0
 40
3.0923400000000001
  1
340
 50
90.0
 41
0.5
 72
     1
 11
90.053099999999986
 21
224.51799999999989
 31
0.0
  0
TEXT
  5
43
  8
0
 62
     7
 10
152.72150749999989
 20
141.55600000000001
 30
0.0
 40
3.0923400000000001
  1
202.5
 41
0.5
 72
     1
 11
155.685
 21
141.55600000000001
 31
0.0
  0
TEXT
  5
44
  8
0
 62
     7
 10
32.2849
 20
231.67950749999989
 30
0.0
 40
3.0923400000000001
  1
202.5
 50
90.0
 41
0.5
 72
     1
 11
32.2849
 21
234.643
 31
0.0
  0
LINE
  5
45
  8
0
 62
     7
 10
78.697199999999995
 20
209.76799999999989
 30
0.0
 11
78.697199999999995
 21
239.26799999999989
 31
0.0
  0
LINE
  5
46
  8
0
 62
     7
 10
81.947500000000005
 20
209.76799999999989
 30
0.0
 11
81.947500000000005
 21
239.26799999999989
 31
0.0
  0
LINE
  5
47
  8
0
 62
     7
 10
41.447200000000002
 20
209.76799999999989
 30
0.0
 11
41.447200000000002
 21
239.26799999999989
 31
0.0
  0
LINE
  5
48
  8
0
 62
     7
 10
44.697499999999998
 20
209.76799999999989
 30
0.0
 11
44.697499999999998
 21
239.26799999999989
 31
0.0
  0
LINE
  5
49
  8
0
 62
     7
 10
46.947800000000001
 20
207.518
 30
0.0
 11
76.447800000000001
 21
207.518
 31
0.0
  0
LINE
  5
4A
  8
0
 62
     7
 10
46.947800000000001
 20
204.26799999999989
 30
0.0
 11
76.447800000000001
 21
204.26799999999989
 31
0.0
  0
LINE
  5
4B
  8
0
 62
     7
 10
46.947499999999991
 20
244.768
 30
0.0
 11
76.447500000000005
 21
244.768
 31
0.0
  0
LINE
  5
4C
  8
0
 62
     7
 10
46.947499999999991
 20
241.51799999999989
 30
0.0
 11
76.447500000000005
 21
241.51799999999989
 31
0.0
  0
ARC
  5
4D
  8
0
  6
AIGENLINE001
 62
     7
 10
65.16704399999999
 20
174.87031999999999
 30
0.0
 40
21.673152999999989
 50
199.18839700000001
 51
228.10777400000001
  0
ARC
  5
4E
  8
0
  6
AIGENLINE001
 62
     7
 10
65.799385000000001
 20
175.46273299999999
 30
0.0
 40
22.536505999999989
 50
227.91673399999999
 51
250.28809199999989
  0
ARC
  5
4F
  8
0
 62
     7
 10
63.23425799999999
 20
169.04255499999999
 30
0.0
 40
20.941572000000001
 50
230.7161009999999
 51
247.132655
  0
ARC
  5
50
  8
0
 62
     7
 10
61.712187
 20
166.9699149999999
 30
0.0
 40
18.374082000000001
 50
206.32740799999999
 51
230.2975909999999
  0
ARC
  5
51
  8
0
 62
     7
 10
61.14344599999999
 20
166.52191099999999
 30
0.0
 40
17.666274999999999
 50
182.36305400000001
 51
205.84319500000001
  0
LINE
  5
52
  8
0
 62
     7
 10
43.49219999999999
 20
165.79400000000001
 30
0.0
 11
43.445999999999998
 21
166.547
 31
0.0
  0
ARC
  5
53
  8
0
  6
AIGENLINE001
 62
     7
 10
58.232177999999998
 20
174.867648
 30
0.0
 40
21.669073000000001
 50
311.89079800000002
 51
340.81534699999997
  0
ARC
  5
54
  8
0
  6
AIGENLINE001
 62
     7
 10
57.596786000000002
 20
175.46303700000001
 30
0.0
 40
22.536677999999998
 50
289.71085699999992
 51
312.08261699999991
  0
LINE
  5
55
  8
0
  6
AIGENLINE001
 62
     7
 10
58.197699999999998
 20
154.24700000000001
 30
0.0
 11
59.39759999999999
 21
153.24700000000001
 31
0.0
  0
LINE
  5
56
  8
0
  6
AIGENLINE001
 62
     7
 10
63.997500000000002
 20
153.24700000000001
 30
0.0
 11
65.197800000000001
 21
154.24700000000001
 31
0.0
  0
LINE
  5
57
  8
0
  6
AIGENLINE001
 62
     7
 10
58.197699999999998
 20
154.24700000000001
 30
0.0
 11
65.197800000000001
 21
154.24700000000001
 31
0.0
  0
LINE
  5
58
  8
0
  6
AIGENLINE001
 62
     7
 10
59.39759999999999
 20
153.24700000000001
 30
0.0
 11
63.997500000000002
 21
153.24700000000001
 31
0.0
  0
LINE
  5
59
  8
0
  6
AIGENLINE001
 62
     7
 10
59.39759999999999
 20
153.24700000000001
 30
0.0
 11
59.39759999999999
 21
149.74700000000001
 31
0.0
  0
LINE
  5
5A
  8
0
  6
AIGENLINE001
 62
     7
 10
63.997500000000002
 20
153.24700000000001
 30
0.0
 11
63.997500000000002
 21
149.74700000000001
 31
0.0
  0
LINE
  5
5B
  8
0
  6
AIGENLINE002
 62
     7
 10
61.697600000000001
 20
147.45699999999991
 30
0.0
 11
61.697600000000001
 21
169.7229999999999
 31
0.0
  0
LINE
  5
5C
  8
0
 62
     7
 10
68.299800000000005
 20
149.74700000000001
 30
0.0
 11
55.096400000000003
 21
149.74700000000001
 31
0.0
  0
LINE
  5
5D
  8
0
  6
AIGENLINE002
 62
     7
 10
134.86000000000001
 20
162.24700000000001
 30
0.0
 11
128.53100000000001
 21
162.24700000000001
 31
0.0
  0
LINE
  5
5E
  8
0
  6
AIGENLINE002
 62
     7
 10
65.521999999999991
 20
162.24700000000001
 30
0.0
 11
58.337200000000003
 21
162.24700000000001
 31
0.0
  0
LINE
  5
5F
  8
0
 62
     7
 10
81.205499999999986
 20
167.74700000000001
 30
0.0
 11
42.189900000000002
 21
167.74700000000001
 31
0.0
  0
ARC
  5
60
  8
0
 62
     7
 10
60.161895999999999
 20
169.041946
 30
0.0
 40
20.941020000000002
 50
292.86807099999999
 51
309.28470299999992
  0
ARC
  5
61
  8
0
 62
     7
 10
61.681868000000001
 20
166.97166399999989
 30
0.0
 40
18.376685999999989
 50
309.70367099999987
 51
333.67054400000001
  0
ARC
  5
62
  8
0
 62
     7
 10
62.251761000000002
 20
166.5223389999999
 30
0.0
 40
17.667261
 50
334.15683300000001
 51
357.63571000000002
  0
LINE
  5
63
  8
0
 62
     7
 10
79.903999999999996
 20
165.79400000000001
 30
0.0
 11
79.949799999999996
 21
166.547
 31
0.0
  0
ARC
  5
64
  8
0
 62
     7
 10
81.182248999999985
 20
167.02142900000001
 30
0.0
 40
0.7258390000000001
 50
6.4253929999999988
 51
88.160515000000004
  0
LINE
  5
65
  8
0
 62
     7
 10
81.947999999999979
 20
166.54599999999991
 30
0.0
 11
81.903499999999994
 21
167.10299999999989
 31
0.0
  0
LINE
  5
66
  8
0
 62
     7
 10
41.49199999999999
 20
167.10299999999989
 30
0.0
 11
41.447499999999998
 21
166.54599999999991
 31
0.0
  0
ARC
  5
67
  8
0
 62
     7
 10
42.211498999999989
 20
167.02253899999991
 30
0.0
 40
0.7239870000000001
 50
91.706452999999996
 51
173.64648600000001
  0
LINE
  5
68
  8
0
 62
     7
 10
41.447499999999998
 20
166.54599999999991
 30
0.0
 11
81.947999999999979
 21
166.54599999999991
 31
0.0
  0
ARC
  5
69
  8
0
 62
     7
 10
76.447496000000001
 20
239.26787200000001
 30
0.0
 40
5.4999580000000003
 50
0.00001
 51
89.999980000000008
  0
ARC
  5
6A
  8
0
 62
     7
 10
76.447496000000001
 20
239.26769999999991
 30
0.0
 40
2.2500059999999991
 50
0.00001
 51
89.999980000000008
  0
ARC
  5
6B
  8
0
 62
     7
 10
46.947302999999998
 20
239.267527
 30
0.0
 40
5.4999580000000003
 50
90.0
 51
179.99996999999991
  0
ARC
  5
6C
  8
0
 62
     7
 10
46.947474999999997
 20
239.26752799999991
 30
0.0
 40
2.2500059999999991
 50
90.0
 51
179.99996999999991
  0
ARC
  5
6D
  8
0
 62
     7
 10
46.947645999999999
 20
209.76733300000001
 30
0.0
 40
5.4999570000000002
 50
179.99996999999991
 51
270.00002000000001
  0
ARC
  5
6E
  8
0
 62
     7
 10
46.947645999999999
 20
209.76750499999989
 30
0.0
 40
2.2500059999999991
 50
179.99996999999991
 51
270.00002000000001
  0
ARC
  5
6F
  8
0
 62
     7
 10
76.447839999999999
 20
209.76767899999999
 30
0.0
 40
5.4999580000000003
 50
270.00002000000001
 51
359.99998999999991
  0
ARC
  5
70
  8
0
 62
     7
 10
76.447668000000007
 20
209.76767799999999
 30
0.0
 40
2.2500059999999991
 50
270.00002000000001
 51
359.99998999999991
  0
LINE
  5
71
  8
0
 62
     7
 10
153.929
 20
210.72799999999989
 30
0.0
 11
154.52099999999999
 21
208.51599999999999
 31
0.0
  0
LINE
  5
72
  8
0
 62
     7
 10
154.52099999999999
 20
208.51599999999999
 30
0.0
 11
155.114
 21
210.72799999999989
 31
0.0
  0
LINE
  5
73
  8
0
 62
     7
 10
155.114
 20
210.72799999999989
 30
0.0
 11
153.929
 21
210.72799999999989
 31
0.0
  0
LINE
  5
74
  8
0
 62
     7
 10
155.0989999999999
 20
238.3059999999999
 30
0.0
 11
154.50700000000001
 21
240.518
 31
0.0
  0
LINE
  5
75
  8
0
 62
     7
 10
154.50700000000001
 20
240.518
 30
0.0
 11
153.9139999999999
 21
238.3059999999999
 31
0.0
  0
LINE
  5
76
  8
0
 62
     7
 10
153.9139999999999
 20
238.3059999999999
 30
0.0
 11
155.0989999999999
 21
238.3059999999999
 31
0.0
  0
LINE
  5
77
  8
0
 62
     7
 10
154.51400000000001
 20
208.517
 30
0.0
 11
154.51400000000001
 21
240.517
 31
0.0
  0
ARC
  5
78
  8
0
 62
     7
 10
166.87696800000001
 20
249.04852099999999
 30
0.0
 40
0.459848
 50
182.077403
 51
267.90033699999998
  0
ARC
  5
79
  8
0
 62
     7
 10
166.84265899999991
 20
249.0494919999999
 30
0.0
 40
0.4608410000000001
 50
272.17145499999992
 51
357.80627399999997
  0
ARC
  5
7A
  8
0
 62
     7
 10
166.84360599999991
 20
249.01515800000001
 30
0.0
 40
0.4598600000000001
 50
2.0803829999999999
 51
87.941888000000006
  0
ARC
  5
7B
  8
0
 62
     7
 10
166.87758999999991
 20
249.0145609999999
 30
0.0
 40
0.460492
 50
92.174154000000001
 51
177.848106
  0
ARC
  5
7C
  8
0
 62
     7
 10
124.276382
 20
249.04854499999999
 30
0.0
 40
0.4598600000000001
 50
182.080386
 51
267.94192500000003
  0
ARC
  5
7D
  8
0
 62
     7
 10
124.24239799999989
 20
249.04914299999999
 30
0.0
 40
0.460492
 50
272.17417399999999
 51
357.84812599999992
  0
ARC
  5
7E
  8
0
 62
     7
 10
124.24302
 20
249.01518300000001
 30
0.0
 40
0.459848
 50
2.077399999999999
 51
87.900299999999987
  0
ARC
  5
7F
  8
0
 62
     7
 10
124.27732899999999
 20
249.01421199999999
 30
0.0
 40
0.4608410000000001
 50
92.171434999999974
 51
177.806254
  0
ARC
  5
80
  8
0
  6
AIGENLINE001
 62
     7
 10
149.02677600000001
 20
174.86875900000001
 30
0.0
 40
21.670425000000002
 50
199.1865379999999
 51
228.10963399999989
  0
ARC
  5
81
  8
0
  6
AIGENLINE001
 62
     7
 10
149.661463
 20
175.46273299999999
 30
0.0
 40
22.536505999999989
 50
227.91673399999999
 51
250.28809199999989
  0
ARC
  5
82
  8
0
 62
     7
 10
147.09537299999991
 20
169.04095699999999
 30
0.0
 40
20.939724999999999
 50
230.715372
 51
247.13338400000001
  0
ARC
  5
83
  8
0
 62
     7
 10
145.5757999999999
 20
166.9711429999999
 30
0.0
 40
18.376007000000001
 50
206.328709
 51
230.29635399999989
  0
ARC
  5
84
  8
0
 62
     7
 10
145.00804899999989
 20
166.52253300000001
 30
0.0
 40
17.668822999999989
 50
182.36473099999989
 51
205.84143399999999
  0
LINE
  5
85
  8
0
 62
     7
 10
127.354
 20
165.79400000000001
 30
0.0
 11
127.30799999999989
 21
166.547
 31
0.0
  0
ARC
  5
86
  8
0
  6
AIGENLINE001
 62
     7
 10
142.0919109999999
 20
174.86920900000001
 30
0.0
 40
21.671800999999999
 50
311.89265799999998
 51
340.81348700000001
  0
ARC
  5
87
  8
0
  6
AIGENLINE001
 62
     7
 10
141.458155
 20
175.46422100000001
 30
0.0
 40
22.538032000000001
 50
289.7115379999999
 51
312.08193699999998
  0
LINE
  5
88
  8
0
  6
AIGENLINE001
 62
     7
 10
142.06
 20
154.24700000000001
 30
0.0
 11
143.25999999999991
 21
153.24700000000001
 31
0.0
  0
LINE
  5
89
  8
0
  6
AIGENLINE001
 62
     7
 10
147.86000000000001
 20
153.24700000000001
 30
0.0
 11
149.06
 21
154.24700000000001
 31
0.0
  0
LINE
  5
8A
  8
0
  6
AIGENLINE001
 62
     7
 10
142.06
 20
154.24700000000001
 30
0.0
 11
149.06
 21
154.24700000000001
 31
0.0
  0
LINE
  5
8B
  8
0
  6
AIGENLINE001
 62
     7
 10
143.25999999999991
 20
153.24700000000001
 30
0.0
 11
147.86000000000001
 21
153.24700000000001
 31
0.0
  0
LINE
  5
8C
  8
0
  6
AIGENLINE001
 62
     7
 10
143.25999999999991
 20
153.24700000000001
 30
0.0
 11
143.25999999999991
 21
149.74700000000001
 31
0.0
  0
LINE
  5
8D
  8
0
  6
AIGENLINE001
 62
     7
 10
147.86000000000001
 20
153.24700000000001
 30
0.0
 11
147.86000000000001
 21
149.74700000000001
 31
0.0
  0
LINE
  5
8E
  8
0
  6
AIGENLINE002
 62
     7
 10
145.56
 20
147.45699999999991
 30
0.0
 11
145.56
 21
169.7229999999999
 31
0.0
  0
LINE
  5
8F
  8
0
 62
     7
 10
152.16200000000001
 20
149.74700000000001
 30
0.0
 11
138.958
 21
149.74700000000001
 31
0.0
  0
LINE
  5
90
  8
0
 62
     7
 10
165.0679999999999
 20
167.74700000000001
 30
0.0
 11
126.05200000000001
 21
167.74700000000001
 31
0.0
  0
ARC
  5
91
  8
0
 62
     7
 10
144.02397400000001
 20
169.041946
 30
0.0
 40
20.941020000000002
 50
292.86807099999999
 51
309.28470299999992
  0
ARC
  5
92
  8
0
 62
     7
 10
145.54394600000001
 20
166.97166399999989
 30
0.0
 40
18.376685999999989
 50
309.70367099999987
 51
333.67054400000001
  0
ARC
  5
93
  8
0
 62
     7
 10
146.11642800000001
 20
166.5216879999999
 30
0.0
 40
17.664648
 50
334.15507100000002
 51
357.63747100000001
  0
LINE
  5
94
  8
0
 62
     7
 10
163.76599999999991
 20
165.79400000000001
 30
0.0
 11
163.81200000000001
 21
166.547
 31
0.0
  0
ARC
  5
95
  8
0
 62
     7
 10
165.04474400000001
 20
167.02188000000001
 30
0.0
 40
0.7253750000000001
 50
6.3936349999999988
 51
88.192272999999986
  0
LINE
  5
96
  8
0
 62
     7
 10
165.81
 20
166.54599999999991
 30
0.0
 11
165.76599999999991
 21
167.10299999999989
 31
0.0
  0
LINE
  5
97
  8
0
 62
     7
 10
143.94799999999989
 20
167.74700000000001
 30
0.0
 11
143.94799999999989
 21
154.24700000000001
 31
0.0
  0
LINE
  5
98
  8
0
 62
     7
 10
144.541
 20
165.535
 30
0.0
 11
143.94799999999989
 21
167.74700000000001
 31
0.0
  0
LINE
  5
99
  8
0
 62
     7
 10
143.94799999999989
 20
167.74700000000001
 30
0.0
 11
143.3549999999999
 21
165.535
 31
0.0
  0
LINE
  5
9A
  8
0
 62
     7
 10
143.3549999999999
 20
165.535
 30
0.0
 11
144.541
 21
165.535
 31
0.0
  0
LINE
  5
9B
  8
0
 62
     7
 10
143.3549999999999
 20
156.459
 30
0.0
 11
143.94799999999989
 21
154.24700000000001
 31
0.0
  0
LINE
  5
9C
  8
0
 62
     7
 10
143.94799999999989
 20
154.24700000000001
 30
0.0
 11
144.541
 21
156.459
 31
0.0
  0
LINE
  5
9D
  8
0
 62
     7
 10
144.541
 20
156.459
 30
0.0
 11
143.3549999999999
 21
156.459
 31
0.0
  0
LINE
  5
9E
  8
0
 62
     7
 10
125.354
 20
167.10299999999989
 30
0.0
 11
125.31
 21
166.54599999999991
 31
0.0
  0
ARC
  5
9F
  8
0
 62
     7
 10
126.0735769999999
 20
167.02253899999991
 30
0.0
 40
0.7239870000000001
 50
91.706452999999996
 51
173.64648600000001
  0
LINE
  5
A0
  8
0
 62
     7
 10
125.31
 20
166.54599999999991
 30
0.0
 11
165.81
 21
166.54599999999991
 31
0.0
  0
LINE
  5
A1
  8
0
 62
     7
 10
121.27200000000001
 20
206.232
 30
0.0
 11
121.137
 21
208.518
 31
0.0
  0
LINE
  5
A2
  8
0
 62
     7
 10
121.137
 20
208.518
 30
0.0
 11
120.111
 21
206.47099999999989
 31
0.0
  0
LINE
  5
A3
  8
0
 62
     7
 10
120.111
 20
206.47099999999989
 30
0.0
 11
121.27200000000001
 21
206.232
 31
0.0
  0
LINE
  5
A4
  8
0
 62
     7
 10
121.137
 20
208.518
 30
0.0
 11
118.6369999999999
 21
196.37
 31
0.0
  0
LINE
  5
A5
  8
0
 62
     7
 10
131.803
 20
229.81200000000001
 30
0.0
 11
139.84899999999999
 21
229.81200000000001
 31
0.0
  0
LINE
  5
A6
  8
0
 62
     7
 10
141.74100000000001
 20
228.7579999999999
 30
0.0
 11
142.887
 21
226.77399999999989
 31
0.0
  0
LINE
  5
A7
  8
0
 62
     7
 10
142.887
 20
226.77399999999989
 30
0.0
 11
140.90299999999999
 21
227.91900000000001
 31
0.0
  0
LINE
  5
A8
  8
0
 62
     7
 10
140.90299999999999
 20
227.91900000000001
 30
0.0
 11
141.74100000000001
 21
228.7579999999999
 31
0.0
  0
LINE
  5
A9
  8
0
 62
     7
 10
142.887
 20
226.77399999999989
 30
0.0
 11
139.84899999999999
 21
229.81200000000001
 31
0.0
  0
LINE
  5
AA
  8
0
 62
     7
 10
141.1929999999999
 20
214.0449999999999
 30
0.0
 11
135.08699999999999
 21
214.0449999999999
 31
0.0
  0
LINE
  5
AB
  8
0
 62
     7
 10
131.291
 20
211.0859999999999
 30
0.0
 11
130.14599999999999
 21
209.10299999999989
 31
0.0
  0
LINE
  5
AC
  8
0
 62
     7
 10
130.14599999999999
 20
209.10299999999989
 30
0.0
 11
132.12899999999991
 21
210.24799999999991
 31
0.0
  0
LINE
  5
AD
  8
0
 62
     7
 10
132.12899999999991
 20
210.24799999999991
 30
0.0
 11
131.291
 21
211.0859999999999
 31
0.0
  0
LINE
  5
AE
  8
0
 62
     7
 10
130.14599999999999
 20
209.10299999999989
 30
0.0
 11
135.08699999999999
 21
214.0449999999999
 31
0.0
  0
LINE
  5
AF
  8
0
 62
     7
 10
141.1929999999999
 20
234.9909999999999
 30
0.0
 11
135.08699999999999
 21
234.9909999999999
 31
0.0
  0
LINE
  5
B0
  8
0
 62
     7
 10
65.306700000000006
 20
221.7459999999999
 30
0.0
 11
63.323799999999999
 21
222.89099999999991
 31
0.0
  0
LINE
  5
B1
  8
0
 62
     7
 10
63.323799999999999
 20
222.89099999999991
 30
0.0
 11
64.468699999999998
 21
220.9079999999999
 31
0.0
  0
LINE
  5
B2
  8
0
 62
     7
 10
64.468699999999998
 20
220.9079999999999
 30
0.0
 11
65.306700000000006
 21
221.7459999999999
 31
0.0
  0
LINE
  5
B3
  8
0
 62
     7
 10
58.088299999999997
 20
227.28899999999999
 30
0.0
 11
60.071100000000001
 21
226.14399999999989
 31
0.0
  0
LINE
  5
B4
  8
0
 62
     7
 10
60.071100000000001
 20
226.14399999999989
 30
0.0
 11
58.926299999999998
 21
228.12700000000001
 31
0.0
  0
LINE
  5
B5
  8
0
 62
     7
 10
58.926299999999998
 20
228.12700000000001
 30
0.0
 11
58.088299999999997
 21
227.28899999999999
 31
0.0
  0
LINE
  5
B6
  8
0
 62
     7
 10
56.658099999999997
 20
229.55699999999999
 30
0.0
 11
67.260099999999994
 21
218.95500000000001
 31
0.0
  0
LINE
  5
B7
  8
0
 62
     7
 10
132.12899999999991
 20
238.78699999999989
 30
0.0
 11
130.14599999999999
 21
239.93199999999999
 31
0.0
  0
LINE
  5
B8
  8
0
 62
     7
 10
130.14599999999999
 20
239.93199999999999
 30
0.0
 11
131.291
 21
237.94900000000001
 31
0.0
  0
LINE
  5
B9
  8
0
 62
     7
 10
131.291
 20
237.94900000000001
 30
0.0
 11
132.12899999999991
 21
238.78699999999989
 31
0.0
  0
LINE
  5
BA
  8
0
 62
     7
 10
130.14599999999999
 20
239.93199999999999
 30
0.0
 11
135.08699999999999
 21
234.9909999999999
 31
0.0
  0
LINE
  5
BB
  8
0
 62
     7
 10
174.072
 20
249.624
 30
0.0
 11
171.86000000000001
 21
249.03200000000001
 31
0.0
  0
LINE
  5
BC
  8
0
 62
     7
 10
171.86000000000001
 20
249.03200000000001
 30
0.0
 11
174.072
 21
248.43899999999999
 31
0.0
  0
LINE
  5
BD
  8
0
 62
     7
 10
174.072
 20
248.43899999999999
 30
0.0
 11
174.072
 21
249.624
 31
0.0
  0
LINE
  5
BE
  8
0
 62
     7
 10
147.77099999999999
 20
249.624
 30
0.0
 11
145.56
 21
249.03200000000001
 31
0.0
  0
LINE
  5
BF
  8
0
 62
     7
 10
145.56
 20
249.03200000000001
 30
0.0
 11
147.77099999999999
 21
248.43899999999999
 31
0.0
  0
LINE
  5
C0
  8
0
 62
     7
 10
147.77099999999999
 20
248.43899999999999
 30
0.0
 11
147.77099999999999
 21
249.624
 31
0.0
  0
LINE
  5
C1
  8
0
 62
     7
 10
131.77199999999999
 20
249.624
 30
0.0
 11
129.56
 21
249.03200000000001
 31
0.0
  0
LINE
  5
C2
  8
0
 62
     7
 10
129.56
 20
249.03200000000001
 30
0.0
 11
131.77199999999999
 21
248.43899999999999
 31
0.0
  0
LINE
  5
C3
  8
0
 62
     7
 10
131.77199999999999
 20
248.43899999999999
 30
0.0
 11
131.77199999999999
 21
249.624
 31
0.0
  0
LINE
  5
C4
  8
0
 62
     7
 10
117.0479999999999
 20
248.43899999999999
 30
0.0
 11
119.26000000000001
 21
249.03200000000001
 31
0.0
  0
LINE
  5
C5
  8
0
 62
     7
 10
119.26000000000001
 20
249.03200000000001
 30
0.0
 11
117.0479999999999
 21
249.62499999999989
 31
0.0
  0
LINE
  5
C6
  8
0
 62
     7
 10
117.0479999999999
 20
249.62499999999989
 30
0.0
 11
117.0479999999999
 21
248.43899999999999
 31
0.0
  0
LINE
  5
C7
  8
0
 62
     7
 10
143.3479999999999
 20
248.43899999999999
 30
0.0
 11
145.56
 21
249.03200000000001
 31
0.0
  0
LINE
  5
C8
  8
0
 62
     7
 10
145.56
 20
249.03200000000001
 30
0.0
 11
143.3479999999999
 21
249.62499999999989
 31
0.0
  0
LINE
  5
C9
  8
0
 62
     7
 10
143.3479999999999
 20
249.62499999999989
 30
0.0
 11
143.3479999999999
 21
248.43899999999999
 31
0.0
  0
LINE
  5
CA
  8
0
 62
     7
 10
159.3479999999999
 20
248.43899999999999
 30
0.0
 11
161.56
 21
249.03200000000001
 31
0.0
  0
LINE
  5
CB
  8
0
 62
     7
 10
161.56
 20
249.03200000000001
 30
0.0
 11
159.3479999999999
 21
249.62499999999989
 31
0.0
  0
LINE
  5
CC
  8
0
 62
     7
 10
159.3479999999999
 20
249.62499999999989
 30
0.0
 11
159.3479999999999
 21
248.43899999999999
 31
0.0
  0
LINE
  5
CD
  8
0
 62
     7
 10
109.538
 20
249.03200000000001
 30
0.0
 11
181.37
 21
249.03200000000001
 31
0.0
  0
LINE
  5
CE
  8
0
 62
     7
 10
161.56
 20
249.732
 30
0.0
 11
161.56
 21
240.81999999999991
 31
0.0
  0
LINE
  5
CF
  8
0
 62
     7
 10
131.77099999999999
 20
200.7229999999999
 30
0.0
 11
129.559
 21
200.13
 31
0.0
  0
LINE
  5
D0
  8
0
 62
     7
 10
129.559
 20
200.13
 30
0.0
 11
131.77099999999999
 21
199.53700000000001
 31
0.0
  0
LINE
  5
D1
  8
0
 62
     7
 10
131.77099999999999
 20
199.53700000000001
 30
0.0
 11
131.77099999999999
 21
200.7229999999999
 31
0.0
  0
LINE
  5
D2
  8
0
 62
     7
 10
159.3489999999999
 20
199.55199999999999
 30
0.0
 11
161.56100000000001
 21
200.14500000000001
 31
0.0
  0
LINE
  5
D3
  8
0
 62
     7
 10
161.56100000000001
 20
200.14500000000001
 30
0.0
 11
159.3489999999999
 21
200.73699999999991
 31
0.0
  0
LINE
  5
D4
  8
0
 62
     7
 10
159.3489999999999
 20
200.73699999999991
 30
0.0
 11
159.3489999999999
 21
199.55199999999999
 31
0.0
  0
LINE
  5
D5
  8
0
 62
     7
 10
129.56
 20
200.137
 30
0.0
 11
161.56
 21
200.137
 31
0.0
  0
LINE
  5
D6
  8
0
 62
     7
 10
161.56
 20
208.40299999999991
 30
0.0
 11
161.56
 21
199.43700000000001
 31
0.0
  0
LINE
  5
D7
  8
0
 62
     7
 10
129.56
 20
208.40299999999991
 30
0.0
 11
129.56
 21
199.43700000000001
 31
0.0
  0
LINE
  5
D8
  8
0
  6
AIGENLINE002
 62
     7
 10
145.56
 20
206.30500000000001
 30
0.0
 11
145.56
 21
242.81700000000001
 31
0.0
  0
LINE
  5
D9
  8
0
  6
AIGENLINE002
 62
     7
 10
127.337
 20
224.51799999999989
 30
0.0
 11
163.71100000000001
 21
224.51799999999989
 31
0.0
  0
LINE
  5
DA
  8
0
 62
     7
 10
171.86000000000001
 20
249.732
 30
0.0
 11
171.86000000000001
 21
241.2179999999999
 31
0.0
  0
LINE
  5
DB
  8
0
 62
     7
 10
166.86000000000001
 20
249.732
 30
0.0
 11
166.86000000000001
 21
241.2179999999999
 31
0.0
  0
LINE
  5
DC
  8
0
  6
AIGENLINE003
 62
     7
 10
166.86000000000001
 20
208.518
 30
0.0
 11
171.86000000000001
 21
208.518
 31
0.0
  0
LINE
  5
DD
  8
0
  6
AIGENLINE003
 62
     7
 10
166.86000000000001
 20
240.518
 30
0.0
 11
171.86000000000001
 21
240.518
 31
0.0
  0
LINE
  5
DE
  8
0
  6
AIGENLINE003
 62
     7
 10
171.86000000000001
 20
208.518
 30
0.0
 11
171.86000000000001
 21
240.518
 31
0.0
  0
LINE
  5
DF
  8
0
  6
AIGENLINE003
 62
     7
 10
166.86000000000001
 20
208.518
 30
0.0
 11
166.86000000000001
 21
240.518
 31
0.0
  0
LINE
  5
E0
  8
0
 62
     7
 10
145.56
 20
249.732
 30
0.0
 11
145.56
 21
243.672
 31
0.0
  0
LINE
  5
E1
  8
0
 62
     7
 10
129.56
 20
249.732
 30
0.0
 11
129.56
 21
240.81999999999991
 31
0.0
  0
LINE
  5
E2
  8
0
 62
     7
 10
119.26000000000001
 20
249.732
 30
0.0
 11
119.26000000000001
 21
241.2179999999999
 31
0.0
  0
LINE
  5
E3
  8
0
 62
     7
 10
124.26000000000001
 20
249.732
 30
0.0
 11
124.26000000000001
 21
241.2179999999999
 31
0.0
  0
LINE
  5
E4
  8
0
 62
     7
 10
161.56
 20
210.51799999999989
 30
0.0
 11
161.56
 21
238.518
 31
0.0
  0
LINE
  5
E5
  8
0
 62
     7
 10
131.56
 20
240.518
 30
0.0
 11
159.56
 21
240.518
 31
0.0
  0
ARC
  5
E6
  8
0
 62
     7
 10
159.56008899999989
 20
238.517698
 30
0.0
 40
2.000062999999999
 50
0.004945
 51
90.004914999999997
  0
LINE
  5
E7
  8
0
 62
     7
 10
131.56
 20
208.518
 30
0.0
 11
159.56
 21
208.518
 31
0.0
  0
ARC
  5
E8
  8
0
 62
     7
 10
159.56000299999991
 20
210.51776699999991
 30
0.0
 40
2.0001489999999991
 50
269.99755299999993
 51
359.997523
  0
LINE
  5
E9
  8
0
 62
     7
 10
129.56
 20
210.51799999999989
 30
0.0
 11
129.56
 21
238.518
 31
0.0
  0
ARC
  5
EA
  8
0
 62
     7
 10
131.55998500000001
 20
210.51776599999999
 30
0.0
 40
2.0001489999999991
 50
180.002477
 51
270.00248699999997
  0
ARC
  5
EB
  8
0
 62
     7
 10
131.559899
 20
238.517698
 30
0.0
 40
2.000062999999999
 50
89.995064999999997
 51
179.995036
  0
LINE
  5
EC
  8
0
  6
AIGENLINE003
 62
     7
 10
124.26000000000001
 20
208.518
 30
0.0
 11
119.26000000000001
 21
208.518
 31
0.0
  0
LINE
  5
ED
  8
0
  6
AIGENLINE003
 62
     7
 10
124.26000000000001
 20
240.518
 30
0.0
 11
119.26000000000001
 21
240.518
 31
0.0
  0
LINE
  5
EE
  8
0
  6
AIGENLINE003
 62
     7
 10
119.26000000000001
 20
208.518
 30
0.0
 11
119.26000000000001
 21
240.518
 31
0.0
  0
LINE
  5
EF
  8
0
  6
AIGENLINE003
 62
     7
 10
124.26000000000001
 20
208.518
 30
0.0
 11
124.26000000000001
 21
240.518
 31
0.0
  0
LINE
  5
F0
  8
0
 62
     7
 10
70.580600000000004
 20
149.74700000000001
 30
0.0
 11
94.105599999999995
 21
149.74700000000001
 31
0.0
  0
ARC
  5
F1
  8
0
  6
AIGENLINE001
 62
     7
 10
61.697656999999992
 20
162.24684999999999
 30
0.0
 40
1.2499750000000001
 50
0.003958
 51
90.003928000000016
  0
ARC
  5
F2
  8
0
  6
AIGENLINE001
 62
     7
 10
61.697485999999998
 20
162.24684999999999
 30
0.0
 40
1.2499750000000001
 50
89.996052000000006
 51
179.99602200000001
  0
ARC
  5
F3
  8
0
  6
AIGENLINE001
 62
     7
 10
61.697570999999989
 20
162.24693600000001
 30
0.0
 40
1.2500610000000001
 50
179.99996999999991
 51
270.00002000000001
  0
ARC
  5
F4
  8
0
  6
AIGENLINE001
 62
     7
 10
61.697570999999989
 20
162.246937
 30
0.0
 40
1.2500610000000001
 50
270.00002000000001
 51
359.99998999999991
  0
ARC
  5
F5
  8
0
  6
AIGENLINE001
 62
     7
 10
145.55982099999991
 20
224.51760200000001
 30
0.0
 40
3.500067
 50
0.00283
 51
90.002800000000008
  0
ARC
  5
F6
  8
0
  6
AIGENLINE001
 62
     7
 10
145.55947800000001
 20
224.51760200000001
 30
0.0
 40
3.500067
 50
89.997179999999986
 51
179.99715
  0
ARC
  5
F7
  8
0
  6
AIGENLINE001
 62
     7
 10
145.55956299999991
 20
224.5178609999999
 30
0.0
 40
3.500151999999999
 50
180.00141999999991
 51
270.00142999999991
  0
ARC
  5
F8
  8
0
  6
AIGENLINE001
 62
     7
 10
145.55973499999999
 20
224.51786200000001
 30
0.0
 40
3.5001540000000002
 50
269.99860999999993
 51
359.99858
  0
ARC
  5
F9
  8
0
  6
AIGENLINE001
 62
     7
 10
145.47189800000001
 20
224.43002299999989
 30
0.0
 40
2.3893239999999998
 50
2.1047569999999989
 51
87.89523299999999
  0
ARC
  5
FA
  8
0
  6
AIGENLINE001
 62
     7
 10
145.55965
 20
224.51777499999989
 30
0.0
 40
2.2999610000000001
 50
90.0
 51
179.99996999999991
  0
ARC
  5
FB
  8
0
  6
AIGENLINE001
 62
     7
 10
145.55973499999999
 20
224.51768899999999
 30
0.0
 40
2.300046
 50
179.99782500000001
 51
269.99787400000002
  0
ARC
  5
FC
  8
0
  6
AIGENLINE001
 62
     7
 10
145.47110199999989
 20
224.606144
 30
0.0
 40
2.3901419999999991
 50
272.12314099999998
 51
357.88116000000002
  0
ARC
  5
FD
  8
0
 62
     7
 10
61.697656999999992
 20
224.51768899999999
 30
0.0
 40
3.4999809999999991
 50
0.00142
 51
90.001390000000001
  0
ARC
  5
FE
  8
0
 62
     7
 10
61.697485999999998
 20
224.51768899999999
 30
0.0
 40
3.4999809999999991
 50
89.998589999999993
 51
179.99856
  0
ARC
  5
FF
  8
0
 62
     7
 10
61.697570999999989
 20
224.51777499999989
 30
0.0
 40
3.5000659999999999
 50
179.99996999999991
 51
270.00002000000001
  0
ARC
  5
100
  8
0
 62
     7
 10
61.697570999999989
 20
224.51777599999991
 30
0.0
 40
3.500067
 50
270.00002000000001
 51
359.99998999999991
  0
LINE
  5
101
  8
0
  6
AIGENLINE002
 62
     7
 10
83.356499999999997
 20
224.51799999999989
 30
0.0
 11
39.925600000000003
 21
224.51799999999989
 31
0.0
  0
LINE
  5
102
  8
0
  6
AIGENLINE002
 62
     7
 10
61.697600000000001
 20
202.30399999999989
 30
0.0
 11
61.697600000000001
 21
246.30499999999989
 31
0.0
  0
ARC
  5
103
  8
0
 62
     7
 10
61.697656999999992
 20
224.51768899999999
 30
0.0
 40
2.3000470000000002
 50
0.002155
 51
90.002126000000004
  0
ARC
  5
104
  8
0
 62
     7
 10
61.697571999999987
 20
224.51777499999989
 30
0.0
 40
2.2999610000000001
 50
90.0
 51
179.99996999999991
  0
ARC
  5
105
  8
0
 62
     7
 10
61.697656999999992
 20
224.51768899999999
 30
0.0
 40
2.300046
 50
179.99782500000001
 51
269.99787400000002
  0
ARC
  5
106
  8
0
 62
     7
 10
61.697570999999989
 20
224.51777599999991
 30
0.0
 40
2.3001330000000002
 50
270.00002000000001
 51
359.99998999999991
  0
LINE
  5
107
  8
0
 62
     7
 10
82.605500000000006
 20
167.74700000000001
 30
0.0
 11
94.105599999999995
 21
167.74700000000001
 31
0.0
  0
LINE
  5
108
  8
0
 62
     7
 10
78.8172
 20
207.518
 30
0.0
 11
91.453199999999995
 21
207.518
 31
0.0
  0
LINE
  5
109
  8
0
 62
     7
 10
50.986199999999997
 20
229.55699999999999
 30
0.0
 11
56.658099999999997
 21
229.55699999999999
 31
0.0
  0
LINE
  5
10A
  8
0
 62
     7
 10
78.8172
 20
241.51799999999989
 30
0.0
 11
91.453199999999995
 21
241.51799999999989
 31
0.0
  0
LINE
  5
10B
  8
0
 62
     7
 10
79.898300000000006
 20
204.26799999999989
 30
0.0
 11
98.704300000000003
 21
204.26799999999989
 31
0.0
  0
LINE
  5
10C
  8
0
 62
     7
 10
79.898300000000006
 20
244.768
 30
0.0
 11
98.704300000000003
 21
244.768
 31
0.0
  0
LINE
  5
10D
  8
0
 62
     7
 10
98.589600000000004
 20
242.55699999999999
 30
0.0
 11
97.997000000000014
 21
244.76900000000001
 31
0.0
  0
LINE
  5
10E
  8
0
 62
     7
 10
97.997000000000014
 20
244.76900000000001
 30
0.0
 11
97.404300000000006
 21
242.55699999999999
 31
0.0
  0
LINE
  5
10F
  8
0
 62
     7
 10
97.404300000000006
 20
242.55699999999999
 30
0.0
 11
98.589600000000004
 21
242.55699999999999
 31
0.0
  0
LINE
  5
110
  8
0
 62
     7
 10
97.419000000000011
 20
206.47799999999989
 30
0.0
 11
98.011499999999984
 21
204.267
 31
0.0
  0
LINE
  5
111
  8
0
 62
     7
 10
98.011499999999984
 20
204.267
 30
0.0
 11
98.604299999999995
 21
206.47799999999989
 31
0.0
  0
LINE
  5
112
  8
0
 62
     7
 10
98.604299999999995
 20
206.47799999999989
 30
0.0
 11
97.419000000000011
 21
206.47799999999989
 31
0.0
  0
LINE
  5
113
  8
0
 62
     7
 10
98.004300000000001
 20
244.768
 30
0.0
 11
98.004300000000001
 21
204.26799999999989
 31
0.0
  0
LINE
  5
114
  8
0
 62
     7
 10
91.338499999999996
 20
239.30699999999999
 30
0.0
 11
90.745900000000006
 21
241.51899999999989
 31
0.0
  0
LINE
  5
115
  8
0
 62
     7
 10
90.745900000000006
 20
241.51899999999989
 30
0.0
 11
90.153199999999998
 21
239.30699999999999
 31
0.0
  0
LINE
  5
116
  8
0
 62
     7
 10
90.153199999999998
 20
239.30699999999999
 30
0.0
 11
91.338499999999996
 21
239.30699999999999
 31
0.0
  0
LINE
  5
117
  8
0
 62
     7
 10
90.1678
 20
209.72800000000001
 30
0.0
 11
90.760400000000004
 21
207.51699999999991
 31
0.0
  0
LINE
  5
118
  8
0
 62
     7
 10
90.760400000000004
 20
207.51699999999991
 30
0.0
 11
91.353099999999998
 21
209.72800000000001
 31
0.0
  0
LINE
  5
119
  8
0
 62
     7
 10
91.353099999999998
 20
209.72800000000001
 30
0.0
 11
90.1678
 21
209.72800000000001
 31
0.0
  0
LINE
  5
11A
  8
0
 62
     7
 10
90.753200000000007
 20
241.51899999999989
 30
0.0
 11
90.753200000000007
 21
207.518
 31
0.0
  0
LINE
  5
11B
  8
0
 62
     7
 10
78.697699999999983
 20
206.33799999999991
 30
0.0
 11
78.697699999999983
 21
192.7409999999999
 31
0.0
  0
LINE
  5
11C
  8
0
 62
     7
 10
44.697499999999998
 20
206.33799999999991
 30
0.0
 11
44.697499999999998
 21
192.7409999999999
 31
0.0
  0
LINE
  5
11D
  8
0
 62
     7
 10
147.77099999999999
 20
141.44099999999989
 30
0.0
 11
145.55899999999991
 21
140.8479999999999
 31
0.0
  0
LINE
  5
11E
  8
0
 62
     7
 10
145.55899999999991
 20
140.8479999999999
 30
0.0
 11
147.77099999999999
 21
140.256
 31
0.0
  0
LINE
  5
11F
  8
0
 62
     7
 10
147.77099999999999
 20
140.256
 30
0.0
 11
147.77099999999999
 21
141.44099999999989
 31
0.0
  0
LINE
  5
120
  8
0
 62
     7
 10
163.5989999999999
 20
140.27000000000001
 30
0.0
 11
165.81099999999989
 21
140.863
 31
0.0
  0
LINE
  5
121
  8
0
 62
     7
 10
165.81099999999989
 20
140.863
 30
0.0
 11
163.5989999999999
 21
141.45599999999999
 31
0.0
  0
LINE
  5
122
  8
0
 62
     7
 10
163.5989999999999
 20
141.45599999999999
 30
0.0
 11
163.5989999999999
 21
140.27000000000001
 31
0.0
  0
LINE
  5
123
  8
0
 62
     7
 10
145.56
 20
140.85599999999999
 30
0.0
 11
165.81
 21
140.85599999999999
 31
0.0
  0
LINE
  5
124
  8
0
 62
     7
 10
165.81
 20
165.84599999999989
 30
0.0
 11
165.81
 21
140.15600000000001
 31
0.0
  0
LINE
  5
125
  8
0
 62
     7
 10
145.56
 20
146.75599999999989
 30
0.0
 11
145.56
 21
140.15600000000001
 31
0.0
  0
LINE
  5
126
  8
0
 62
     7
 10
33.570300000000003
 20
242.55699999999999
 30
0.0
 11
32.977699999999992
 21
244.76900000000001
 31
0.0
  0
LINE
  5
127
  8
0
 62
     7
 10
32.977699999999992
 20
244.76900000000001
 30
0.0
 11
32.384999999999998
 21
242.55699999999999
 31
0.0
  0
LINE
  5
128
  8
0
 62
     7
 10
32.384999999999998
 20
242.55699999999999
 30
0.0
 11
33.570300000000003
 21
242.55699999999999
 31
0.0
  0
LINE
  5
129
  8
0
 62
     7
 10
32.399599999999992
 20
226.72900000000001
 30
0.0
 11
32.992199999999997
 21
224.51699999999991
 31
0.0
  0
LINE
  5
12A
  8
0
 62
     7
 10
32.992199999999997
 20
224.51699999999991
 30
0.0
 11
33.58489999999999
 21
226.72900000000001
 31
0.0
  0
LINE
  5
12B
  8
0
 62
     7
 10
33.58489999999999
 20
226.72900000000001
 30
0.0
 11
32.399599999999992
 21
226.72900000000001
 31
0.0
  0
LINE
  5
12C
  8
0
 62
     7
 10
32.984900000000003
 20
244.768
 30
0.0
 11
32.984900000000003
 21
224.51799999999989
 31
0.0
  0
LINE
  5
12D
  8
0
 62
     7
 10
93.990899999999996
 20
165.53700000000001
 30
0.0
 11
93.398300000000006
 21
167.74799999999991
 31
0.0
  0
LINE
  5
12E
  8
0
 62
     7
 10
93.398300000000006
 20
167.74799999999991
 30
0.0
 11
92.805599999999984
 21
165.53700000000001
 31
0.0
  0
LINE
  5
12F
  8
0
 62
     7
 10
92.805599999999984
 20
165.53700000000001
 30
0.0
 11
93.990899999999996
 21
165.53700000000001
 31
0.0
  0
LINE
  5
130
  8
0
 62
     7
 10
92.820200000000014
 20
151.95699999999991
 30
0.0
 11
93.412800000000004
 21
149.745
 31
0.0
  0
LINE
  5
131
  8
0
 62
     7
 10
93.412800000000004
 20
149.745
 30
0.0
 11
94.005499999999998
 21
151.95699999999991
 31
0.0
  0
LINE
  5
132
  8
0
 62
     7
 10
94.005499999999998
 20
151.95699999999991
 30
0.0
 11
92.820200000000014
 21
151.95699999999991
 31
0.0
  0
LINE
  5
133
  8
0
 62
     7
 10
93.405600000000007
 20
167.74700000000001
 30
0.0
 11
93.405600000000007
 21
149.74700000000001
 31
0.0
  0
LINE
  5
134
  8
0
 62
     7
 10
88.229500000000002
 20
164.334
 30
0.0
 11
87.636899999999997
 21
166.54599999999991
 31
0.0
  0
LINE
  5
135
  8
0
 62
     7
 10
87.636899999999997
 20
166.54599999999991
 30
0.0
 11
87.044200000000004
 21
164.334
 31
0.0
  0
LINE
  5
136
  8
0
 62
     7
 10
87.044200000000004
 20
164.334
 30
0.0
 11
88.229500000000002
 21
164.334
 31
0.0
  0
LINE
  5
137
  8
0
 62
     7
 10
87.044300000000007
 20
169.959
 30
0.0
 11
87.636899999999997
 21
167.74700000000001
 31
0.0
  0
LINE
  5
138
  8
0
 62
     7
 10
87.636899999999997
 20
167.74700000000001
 30
0.0
 11
88.229600000000005
 21
169.959
 31
0.0
  0
LINE
  5
139
  8
0
 62
     7
 10
88.229600000000005
 20
169.959
 30
0.0
 11
87.044300000000007
 21
169.959
 31
0.0
  0
LINE
  5
13A
  8
0
 62
     7
 10
87.636899999999997
 20
173.726
 30
0.0
 11
87.636899999999997
 21
162.56099999999989
 31
0.0
  0
LINE
  5
13B
  8
0
 62
     7
 10
81.947799999999987
 20
206.24000000000001
 30
0.0
 11
81.947799999999987
 21
185.79599999999999
 31
0.0
  0
LINE
  5
13C
  8
0
 62
     7
 10
41.447499999999998
 20
206.33799999999991
 30
0.0
 11
41.447499999999998
 21
185.79599999999999
 31
0.0
  0
LINE
  5
13D
  8
0
 62
     7
 10
39.2256
 20
224.51799999999989
 30
0.0
 11
32.2849
 21
224.51799999999989
 31
0.0
  0
LINE
  5
13E
  8
0
 62
     7
 10
88.3369
 20
166.54599999999991
 30
0.0
 11
82.647800000000004
 21
166.54599999999991
 31
0.0
  0
LINE
  5
13F
  8
0
 62
     7
 10
79.737099999999998
 20
185.90999999999991
 30
0.0
 11
81.948800000000006
 21
186.5029999999999
 31
0.0
  0
LINE
  5
140
  8
0
 62
     7
 10
81.948800000000006
 20
186.5029999999999
 30
0.0
 11
79.737099999999998
 21
187.09599999999989
 31
0.0
  0
LINE
  5
141
  8
0
 62
     7
 10
79.737099999999998
 20
187.09599999999989
 30
0.0
 11
79.737099999999998
 21
185.90999999999991
 31
0.0
  0
LINE
  5
142
  8
0
 62
     7
 10
43.658200000000001
 20
187.0809999999999
 30
0.0
 11
41.4465
 21
186.489
 31
0.0
  0
LINE
  5
143
  8
0
 62
     7
 10
41.4465
 20
186.489
 30
0.0
 11
43.658200000000001
 21
185.8959999999999
 31
0.0
  0
LINE
  5
144
  8
0
 62
     7
 10
43.658200000000001
 20
185.8959999999999
 30
0.0
 11
43.658200000000001
 21
187.0809999999999
 31
0.0
  0
LINE
  5
145
  8
0
 62
     7
 10
81.947799999999987
 20
186.4959999999999
 30
0.0
 11
41.447499999999998
 21
186.4959999999999
 31
0.0
  0
LINE
  5
146
  8
0
 62
     7
 10
76.486900000000006
 20
192.85599999999999
 30
0.0
 11
78.698700000000002
 21
193.44900000000001
 31
0.0
  0
LINE
  5
147
  8
0
 62
     7
 10
78.698700000000002
 20
193.44900000000001
 30
0.0
 11
76.486900000000006
 21
194.04099999999991
 31
0.0
  0
LINE
  5
148
  8
0
 62
     7
 10
76.486900000000006
 20
194.04099999999991
 30
0.0
 11
76.486900000000006
 21
192.85599999999999
 31
0.0
  0
LINE
  5
149
  8
0
 62
     7
 10
46.908200000000001
 20
194.02699999999999
 30
0.0
 11
44.696399999999997
 21
193.434
 31
0.0
  0
LINE
  5
14A
  8
0
 62
     7
 10
44.696399999999997
 20
193.434
 30
0.0
 11
46.908200000000001
 21
192.84099999999989
 31
0.0
  0
LINE
  5
14B
  8
0
 62
     7
 10
46.908200000000001
 20
192.84099999999989
 30
0.0
 11
46.908200000000001
 21
194.02699999999999
 31
0.0
  0
LINE
  5
14C
  8
0
 62
     7
 10
78.698700000000002
 20
193.44099999999989
 30
0.0
 11
44.696399999999997
 21
193.44099999999989
 31
0.0
  0
LINE
  5
14D
  8
0
 62
     7
 10
43.019699999999993
 20
244.768
 30
0.0
 11
32.2849
 21
244.768
 31
0.0
  0
ARC
  5
14E
  8
0
 62
     7
 10
150.9035429999999
 20
124.02715000000001
 30
0.0
 40
1.000289999999999
 50
359.99014299999999
 51
89.990113000000008
  0
ARC
  5
14F
  8
0
 62
     7
 10
150.865419
 20
124.06563199999999
 30
0.0
 40
1.0391330000000001
 50
272.112076
 51
357.86819400000002
  0
ARC
  5
150
  8
0
 62
     7
 10
149.275598
 20
124.0656069999999
 30
0.0
 40
1.0391209999999991
 50
182.13050699999999
 51
267.86952200000002
  0
ARC
  5
151
  8
0
 62
     7
 10
149.276285
 20
123.988376
 30
0.0
 40
1.039806999999999
 50
92.166991999999993
 51
177.87245100000001
  0
LINE
  5
152
  8
0
  6
AIGENLINE002
 62
     7
 10
147.65999999999991
 20
124.0269999999999
 30
0.0
 11
152.48099999999991
 21
124.0269999999999
 31
0.0
  0
LINE
  5
153
  8
0
  6
AIGENLINE002
 62
     7
 10
150.07099999999991
 20
122.642
 30
0.0
 11
150.07099999999991
 21
125.429
 31
0.0
  0
LINE
  5
154
  8
0
  6
AIGENLINE002
 62
     7
 10
150.90399999999991
 20
125.5859999999999
 30
0.0
 11
150.90399999999991
 21
122.399
 31
0.0
  0
LINE
  5
155
  8
0
  6
AIGENLINE002
 62
     7
 10
149.23699999999999
 20
125.5859999999999
 30
0.0
 11
149.23699999999999
 21
122.399
 31
0.0
  0
LINE
  5
156
  8
0
 62
     7
 10
150.90399999999991
 20
125.0269999999999
 30
0.0
 11
149.23699999999999
 21
125.0269999999999
 31
0.0
  0
LINE
  5
157
  8
0
 62
     7
 10
150.90399999999991
 20
123.0269999999999
 30
0.0
 11
149.23699999999999
 21
123.0269999999999
 31
0.0
  0
LINE
  5
158
  8
0
  6
AIGENLINE002
 62
     7
 10
150.07099999999991
 20
90.853300000000004
 30
0.0
 11
150.07099999999991
 21
87.971100000000007
 31
0.0
  0
LINE
  5
159
  8
0
 62
     7
 10
142.56999999999991
 20
119.0269999999999
 30
0.0
 11
142.56999999999991
 21
129.02699999999999
 31
0.0
  0
LINE
  5
15A
  8
0
 62
     7
 10
139.23699999999991
 20
119.361
 30
0.0
 11
139.23699999999991
 21
128.6939999999999
 31
0.0
  0
LINE
  5
15B
  8
0
 62
     7
 10
154.86500000000001
 20
89.192000000000007
 30
0.0
 11
159.911
 21
89.192000000000007
 31
0.0
  0
LINE
  5
15C
  8
0
 62
     7
 10
154.86500000000001
 20
89.691599999999994
 30
0.0
 11
159.911
 21
89.691599999999994
 31
0.0
  0
LINE
  5
15D
  8
0
 62
     7
 10
154.23699999999999
 20
129.02699999999999
 30
0.0
 11
137.56999999999991
 21
129.02699999999999
 31
0.0
  0
LINE
  5
15E
  8
0
 62
     7
 10
137.56999999999991
 20
119.0269999999999
 30
0.0
 11
137.56999999999991
 21
129.02699999999999
 31
0.0
  0
LINE
  5
15F
  8
0
 62
     7
 10
154.23699999999999
 20
119.0269999999999
 30
0.0
 11
137.56999999999991
 21
119.0269999999999
 31
0.0
  0
LINE
  5
160
  8
0
 62
     7
 10
154.23699999999999
 20
119.0269999999999
 30
0.0
 11
154.23699999999999
 21
129.02699999999999
 31
0.0
  0
LINE
  5
161
  8
0
 62
     7
 10
154.23699999999999
 20
89.192000000000007
 30
0.0
 11
142.667
 21
89.192000000000007
 31
0.0
  0
LINE
  5
162
  8
0
 62
     7
 10
142.08899999999991
 20
89.524799999999985
 30
0.0
 11
138.9139999999999
 21
95.025300000000001
 31
0.0
  0
ARC
  5
163
  8
0
 62
     7
 10
142.67300199999991
 20
89.870097999999999
 30
0.0
 40
0.6781080000000002
 50
210.609444
 51
269.47466700000001
  0
LINE
  5
164
  8
0
 62
     7
 10
142.6049999999999
 20
89.691599999999994
 30
0.0
 11
139.429
 21
95.192000000000007
 31
0.0
  0
LINE
  5
165
  8
0
 62
     7
 10
138.85199999999989
 20
95.524799999999999
 30
0.0
 11
137.56999999999991
 21
95.524799999999999
 31
0.0
  0
ARC
  5
166
  8
0
 62
     7
 10
138.84470400000001
 20
94.844871999999995
 30
0.0
 40
0.680001
 50
30.699383000000001
 51
89.384687999999997
  0
LINE
  5
167
  8
0
 62
     7
 10
138.9139999999999
 20
95.025300000000001
 30
0.0
 11
137.56999999999991
 21
95.025300000000001
 31
0.0
  0
LINE
  5
168
  8
0
 62
     7
 10
137.56999999999991
 20
95.025300000000001
 30
0.0
 11
137.56999999999991
 21
95.524799999999999
 31
0.0
  0
LINE
  5
169
  8
0
 62
     7
 10
154.23699999999999
 20
89.691599999999994
 30
0.0
 11
142.6049999999999
 21
89.691599999999994
 31
0.0
  0
LINE
  5
16A
  8
0
 62
     7
 10
154.23699999999999
 20
89.192000000000007
 30
0.0
 11
154.23699999999999
 21
89.691599999999994
 31
0.0
  0
LINE
  5
16B
  8
0
 62
     7
 10
150.07099999999991
 20
122.407
 30
0.0
 11
150.06999999999991
 21
113.43300000000001
 31
0.0
  0
LINE
  5
16C
  8
0
 62
     7
 10
152.76300000000001
 20
113.4579999999999
 30
0.0
 11
154.23699999999999
 21
113.854
 31
0.0
  0
LINE
  5
16D
  8
0
 62
     7
 10
154.23699999999999
 20
113.854
 30
0.0
 11
152.76300000000001
 21
114.24799999999991
 31
0.0
  0
LINE
  5
16E
  8
0
 62
     7
 10
152.76300000000001
 20
114.24799999999991
 30
0.0
 11
152.76300000000001
 21
113.4579999999999
 31
0.0
  0
LINE
  5
16F
  8
0
 62
     7
 10
151.5449999999999
 20
114.239
 30
0.0
 11
150.06999999999991
 21
113.84399999999989
 31
0.0
  0
LINE
  5
170
  8
0
 62
     7
 10
150.06999999999991
 20
113.84399999999989
 30
0.0
 11
151.5449999999999
 21
113.44799999999989
 31
0.0
  0
LINE
  5
171
  8
0
 62
     7
 10
151.5449999999999
 20
113.44799999999989
 30
0.0
 11
151.5449999999999
 21
114.239
 31
0.0
  0
LINE
  5
172
  8
0
 62
     7
 10
154.23699999999999
 20
113.84399999999989
 30
0.0
 11
143.602
 21
113.84399999999989
 31
0.0
  0
LINE
  5
173
  8
0
 62
     7
 10
137.56999999999991
 20
118.38500000000001
 30
0.0
 11
137.56999999999991
 21
108.5029999999999
 31
0.0
  0
LINE
  5
174
  8
0
 62
     7
 10
154.23699999999999
 20
118.38500000000001
 30
0.0
 11
154.23699999999999
 21
108.5029999999999
 31
0.0
  0
LINE
  5
175
  8
0
 62
     7
 10
139.24000000000001
 20
96.830500000000015
 30
0.0
 11
138.47599999999991
 21
95.508300000000006
 31
0.0
  0
LINE
  5
176
  8
0
 62
     7
 10
138.47599999999991
 20
95.508300000000006
 30
0.0
 11
139.798
 21
96.271699999999996
 31
0.0
  0
LINE
  5
177
  8
0
 62
     7
 10
139.798
 20
96.271699999999996
 30
0.0
 11
139.24000000000001
 21
96.830500000000015
 31
0.0
  0
LINE
  5
178
  8
0
 62
     7
 10
141.232
 20
98.2637
 30
0.0
 11
138.47599999999991
 21
95.508300000000006
 31
0.0
  0
LINE
  5
179
  8
0
 62
     7
 10
157.505
 20
98.2637
 30
0.0
 11
141.232
 21
98.2637
 31
0.0
  0
LINE
  5
17A
  8
0
 62
     7
 10
152.76300000000001
 20
108.52800000000001
 30
0.0
 11
154.238
 21
108.92399999999989
 31
0.0
  0
LINE
  5
17B
  8
0
 62
     7
 10
154.238
 20
108.92399999999989
 30
0.0
 11
152.76300000000001
 21
109.318
 31
0.0
  0
LINE
  5
17C
  8
0
 62
     7
 10
152.76300000000001
 20
109.318
 30
0.0
 11
152.76300000000001
 21
108.52800000000001
 31
0.0
  0
LINE
  5
17D
  8
0
 62
     7
 10
139.0449999999999
 20
109.3089999999999
 30
0.0
 11
137.56999999999991
 21
108.9139999999999
 31
0.0
  0
LINE
  5
17E
  8
0
 62
     7
 10
137.56999999999991
 20
108.9139999999999
 30
0.0
 11
139.0449999999999
 21
108.5179999999999
 31
0.0
  0
LINE
  5
17F
  8
0
 62
     7
 10
139.0449999999999
 20
108.5179999999999
 30
0.0
 11
139.0449999999999
 21
109.3089999999999
 31
0.0
  0
LINE
  5
180
  8
0
 62
     7
 10
154.23699999999999
 20
108.9139999999999
 30
0.0
 11
137.56999999999991
 21
108.9139999999999
 31
0.0
  0
LINE
  5
181
  8
0
 62
     7
 10
141.636
 20
89.192000000000007
 30
0.0
 11
133.387
 21
89.192000000000007
 31
0.0
  0
LINE
  5
182
  8
0
 62
     7
 10
136.95400000000001
 20
95.524799999999999
 30
0.0
 11
133.387
 21
95.524799999999999
 31
0.0
  0
LINE
  5
183
  8
0
 62
     7
 10
134.19200000000001
 20
94.051000000000002
 30
0.0
 11
133.797
 21
95.525499999999994
 31
0.0
  0
LINE
  5
184
  8
0
 62
     7
 10
133.797
 20
95.525499999999994
 30
0.0
 11
133.40199999999999
 21
94.051000000000002
 31
0.0
  0
LINE
  5
185
  8
0
 62
     7
 10
133.40199999999999
 20
94.051000000000002
 30
0.0
 11
134.19200000000001
 21
94.051000000000002
 31
0.0
  0
LINE
  5
186
  8
0
 62
     7
 10
133.41200000000001
 20
90.665800000000004
 30
0.0
 11
133.80699999999999
 21
89.191299999999998
 31
0.0
  0
LINE
  5
187
  8
0
 62
     7
 10
133.80699999999999
 20
89.191299999999998
 30
0.0
 11
134.20199999999991
 21
90.665800000000004
 31
0.0
  0
LINE
  5
188
  8
0
 62
     7
 10
134.20199999999991
 20
90.665800000000004
 30
0.0
 11
133.41200000000001
 21
90.665800000000004
 31
0.0
  0
LINE
  5
189
  8
0
 62
     7
 10
133.797
 20
95.524799999999999
 30
0.0
 11
133.797
 21
89.192000000000007
 31
0.0
  0
LINE
  5
18A
  8
0
 62
     7
 10
154.86500000000001
 20
119.0269999999999
 30
0.0
 11
161.05099999999999
 21
119.0269999999999
 31
0.0
  0
LINE
  5
18B
  8
0
 62
     7
 10
154.86500000000001
 20
129.02699999999999
 30
0.0
 11
161.05099999999999
 21
129.02699999999999
 31
0.0
  0
LINE
  5
18C
  8
0
 62
     7
 10
159.89500000000001
 20
87.717500000000001
 30
0.0
 11
159.49999999999989
 21
89.192000000000007
 31
0.0
  0
LINE
  5
18D
  8
0
 62
     7
 10
159.49999999999989
 20
89.192000000000007
 30
0.0
 11
159.1049999999999
 21
87.717500000000001
 31
0.0
  0
LINE
  5
18E
  8
0
 62
     7
 10
159.1049999999999
 20
87.717500000000001
 30
0.0
 11
159.89500000000001
 21
87.717500000000001
 31
0.0
  0
LINE
  5
18F
  8
0
 62
     7
 10
159.1049999999999
 20
91.166099999999986
 30
0.0
 11
159.49999999999989
 21
89.691599999999994
 31
0.0
  0
LINE
  5
190
  8
0
 62
     7
 10
159.49999999999989
 20
89.691599999999994
 30
0.0
 11
159.89500000000001
 21
91.166099999999986
 31
0.0
  0
LINE
  5
191
  8
0
 62
     7
 10
159.89500000000001
 20
91.166099999999986
 30
0.0
 11
159.1049999999999
 21
91.166099999999986
 31
0.0
  0
LINE
  5
192
  8
0
 62
     7
 10
159.49999999999989
 20
95.031499999999994
 30
0.0
 11
159.49999999999989
 21
86.738399999999999
 31
0.0
  0
LINE
  5
193
  8
0
 62
     7
 10
161.03399999999991
 20
127.553
 30
0.0
 11
160.63900000000001
 21
129.02699999999999
 31
0.0
  0
LINE
  5
194
  8
0
 62
     7
 10
160.63900000000001
 20
129.02699999999999
 30
0.0
 11
160.244
 21
127.553
 31
0.0
  0
LINE
  5
195
  8
0
 62
     7
 10
160.244
 20
127.553
 30
0.0
 11
161.03399999999991
 21
127.553
 31
0.0
  0
LINE
  5
196
  8
0
 62
     7
 10
160.25399999999991
 20
120.501
 30
0.0
 11
160.64899999999989
 21
119.0269999999999
 31
0.0
  0
LINE
  5
197
  8
0
 62
     7
 10
160.64899999999989
 20
119.0269999999999
 30
0.0
 11
161.0439999999999
 21
120.501
 31
0.0
  0
LINE
  5
198
  8
0
 62
     7
 10
161.0439999999999
 20
120.501
 30
0.0
 11
160.25399999999991
 21
120.501
 31
0.0
  0
LINE
  5
199
  8
0
 62
     7
 10
160.63900000000001
 20
129.02699999999999
 30
0.0
 11
160.63900000000001
 21
119.0269999999999
 31
0.0
  0
LINE
  5
19A
  8
0
  6
AIGENLINE003
 62
     7
 10
119.26000000000001
 20
208.518
 30
0.0
 11
124.26000000000001
 21
240.518
 31
0.0
  0
LINE
  5
19B
  8
0
  6
AIGENLINE003
 62
     7
 10
124.26000000000001
 20
208.518
 30
0.0
 11
119.26000000000001
 21
240.518
 31
0.0
  0
LINE
  5
19C
  8
0
  6
AIGENLINE003
 62
     7
 10
166.86000000000001
 20
208.518
 30
0.0
 11
171.86000000000001
 21
240.518
 31
0.0
  0
LINE
  5
19D
  8
0
  6
AIGENLINE003
 62
     7
 10
171.86000000000001
 20
208.518
 30
0.0
 11
166.86000000000001
 21
240.518
 31
0.0
  0
TEXT
  5
19E
  8
_________2
 62
     7
 10
29.525700000000001
 20
22.2272
 30
0.0
 40
3.9357000000000002
  1
実容量：2.6L、重量10.0kg、オーバーフロー付
 41
0.5
  0
LINE
  5
19F
  8
_________2
 62
     7
 10
105.2389999999999
 20
17.428499999999989
 30
0.0
 11
105.2389999999999
 21
0.4485540000000001
 31
0.0
  0
LINE
  5
1A0
  8
_________2
 62
     7
 10
81.679900000000004
 20
51.324300000000001
 30
0.0
 11
79.493700000000004
 21
51.324300000000001
 31
0.0
  0
LINE
  5
1A1
  8
_________2
 62
     7
 10
82.172600000000017
 20
51.324300000000001
 30
0.0
 11
81.920400000000001
 21
51.324300000000001
 31
0.0
  0
LINE
  5
1A2
  8
_________2
 62
     7
 10
82.665199999999984
 20
51.324300000000001
 30
0.0
 11
85.590100000000007
 21
51.324300000000001
 31
0.0
  0
LINE
  5
1A3
  8
_________2
 62
     7
 10
82.172600000000017
 20
51.324300000000001
 30
0.0
 11
82.424800000000005
 21
51.324300000000001
 31
0.0
  0
LINE
  5
1A4
  8
_________2
 62
     7
 10
75.776399999999995
 20
51.324300000000001
 30
0.0
 11
73.589399999999998
 21
51.324300000000001
 31
0.0
  0
LINE
  5
1A5
  8
_________2
 62
     7
 10
76.2684
 20
51.324300000000001
 30
0.0
 11
76.016900000000007
 21
51.324300000000001
 31
0.0
  0
LINE
  5
1A6
  8
_________2
 62
     7
 10
76.2684
 20
51.817
 30
0.0
 11
76.2684
 21
54.003900000000002
 31
0.0
  0
LINE
  5
1A7
  8
_________2
 62
     7
 10
76.2684
 20
51.324300000000001
 30
0.0
 11
76.2684
 21
51.576900000000002
 31
0.0
  0
LINE
  5
1A8
  8
_________2
 62
     7
 10
76.76100000000001
 20
51.324300000000001
 30
0.0
 11
78.947999999999993
 21
51.324300000000001
 31
0.0
  0
LINE
  5
1A9
  8
_________2
 62
     7
 10
76.2684
 20
51.324300000000001
 30
0.0
 11
76.520499999999998
 21
51.324300000000001
 31
0.0
  0
LINE
  5
1AA
  8
_________2
 62
     7
 10
76.2684
 20
50.832399999999993
 30
0.0
 11
76.2684
 21
48.645699999999998
 31
0.0
  0
LINE
  5
1AB
  8
_________2
 62
     7
 10
76.2684
 20
51.324300000000001
 30
0.0
 11
76.2684
 21
51.072800000000001
 31
0.0
  0
LINE
  5
1AC
  8
_________2
 62
     7
 10
79.979399999999984
 20
50.104799999999997
 30
0.0
 11
85.157399999999996
 21
49.240000000000002
 31
0.0
  0
LINE
  5
1AD
  8
_________2
 62
     7
 10
79.979399999999984
 20
52.544199999999989
 30
0.0
 11
85.157399999999996
 21
53.409700000000001
 31
0.0
  0
LINE
  5
1AE
  8
_________2
 62
     7
 10
85.157399999999996
 20
49.240000000000002
 30
0.0
 11
85.157399999999996
 21
53.409700000000001
 31
0.0
  0
LINE
  5
1AF
  8
_________2
 62
     7
 10
79.979399999999984
 20
50.104799999999997
 30
0.0
 11
79.979399999999984
 21
52.544199999999989
 31
0.0
  0
ARC
  5
1B0
  8
_________2
 62
     7
 10
76.221766000000002
 20
51.277380999999998
 30
0.0
 40
1.267714
 50
2.1220840000000001
 51
87.894083999999992
  0
ARC
  5
1B1
  8
_________2
 62
     7
 10
76.315297000000001
 20
51.277734999999993
 30
0.0
 40
1.267374999999999
 50
92.122849999999985
 51
177.893304
  0
ARC
  5
1B2
  8
_________2
 62
     7
 10
76.315273000000005
 20
51.371245999999992
 30
0.0
 40
1.267363
 50
182.12181499999991
 51
267.87821400000001
  0
ARC
  5
1B3
  8
_________2
 62
     7
 10
76.221461000000005
 20
51.371928999999987
 30
0.0
 40
1.2680439999999991
 50
272.11916400000001
 51
357.84848499999993
  0
ARC
  5
1B4
  8
_________2
 62
     7
 10
76.187981999999991
 20
51.244312999999998
 30
0.0
 40
2.1668310000000002
 50
2.1161439999999989
 51
87.874379000000005
  0
ARC
  5
1B5
  8
_________2
 62
     7
 10
76.348411999999996
 20
51.245334999999997
 30
0.0
 40
2.1657980000000001
 50
92.118487999999999
 51
177.90988599999989
  0
ARC
  5
1B6
  8
_________2
 62
     7
 10
76.348354
 20
51.404327000000002
 30
0.0
 40
2.1657779999999991
 50
182.11700400000001
 51
267.88302499999992
  0
ARC
  5
1B7
  8
_________2
 62
     7
 10
76.188378999999983
 20
51.405009999999997
 30
0.0
 40
2.1664590000000001
 50
272.11546800000002
 51
357.86560400000002
  0
TEXT
  5
1B8
  8
_________2
 62
     7
 10
109.5439999999999
 20
23.199100000000001
 30
0.0
 40
3.0923400000000001
  1
図番
 41
0.5
  0
LINE
  5
1B9
  8
_________2
 62
     7
 10
108.4889999999999
 20
27.4283
 30
0.0
 11
188.49000000000001
 21
27.4283
 31
0.0
  0
TEXT
  5
1BA
  8
_________2
 62
     7
 10
109.5439999999999
 20
33.198900000000002
 30
0.0
 40
3.0923400000000001
  1
品番
 41
0.5
  0
TEXT
  5
1BB
  8
_________2
 62
     7
 10
109.5439999999999
 20
53.338000000000001
 30
0.0
 40
3.0923400000000001
  1
名称
 41
0.5
  0
TEXT
  5
1BC
  8
_________2
 62
     7
 10
96.784058333333334
 20
48.341900000000003
 30
0.0
 40
3.6545800000000002
  1
mm
 41
0.5
 72
     1
 11
98.306799999999996
 21
48.341900000000003
 31
0.0
  0
TEXT
  5
1BD
  8
_________2
 62
     7
 10
90.582099999999997
 20
53.338000000000001
 30
0.0
 40
3.0923400000000001
  1
単位
 41
0.5
  0
TEXT
  5
1BE
  8
_________2
 62
     7
 10
90.582099999999997
 20
40.930399999999999
 30
0.0
 40
3.0923400000000001
  1
尺度
 41
0.5
  0
TEXT
  5
1BF
  8
_________2
 62
     7
 10
95.030836166666674
 20
34.7378
 30
0.0
 40
3.6545800000000002
  1
1 ： 10
 41
0.5
 72
     1
 11
98.898600000000002
 21
34.7378
 31
0.0
  0
TEXT
  5
1C0
  8
_________2
 62
     7
 10
141.43753749999991
 20
30.627800000000001
 30
0.0
 40
3.9357000000000002
  1
VB616210
 41
0.5
 72
     1
 11
148.489
 21
30.627800000000001
 31
0.0
  0
TEXT
  5
1C1
  8
_________2
 62
     7
 10
141.43753749999991
 20
20.626999999999988
 30
0.0
 40
3.9357000000000002
  1
VB616210
 41
0.5
 72
     1
 11
148.489
 21
20.626999999999988
 31
0.0
  0
TEXT
  5
1C2
  8
_________2
 62
     7
 10
114.11799999999999
 20
45.745600000000003
 30
0.0
 40
3.9357000000000002
  1
ループ＆フレンズ アンダーカウンター式洗面器
 41
0.5
  0
TEXT
  5
1C3
  8
_________2
 62
     7
 10
44.364200333333329
 20
35.122999999999998
 30
0.0
 40
3.6545800000000002
  1
早川
 41
0.5
 72
     1
 11
46.252400000000002
 21
35.122999999999998
 31
0.0
  0
TEXT
  5
1C4
  8
_________2
 62
     7
 10
25.729290666666671
 20
35.122999999999998
 30
0.0
 40
3.6545800000000002
  1
菅原
 41
0.5
 72
     1
 11
27.6784
 21
35.122999999999998
 31
0.0
  0
TEXT
  5
1C5
  8
_________2
 62
     7
 10
72.724699999999999
 20
34.7378
 30
0.0
 40
3.6545800000000002
  1
13.06.11
 41
0.5
  0
TEXT
  5
1C6
  8
_________2
 62
     7
 10
71.531999999999996
 20
40.930399999999999
 30
0.0
 40
3.0923400000000001
  1
日付
 41
0.5
  0
TEXT
  5
1C7
  8
_________2
 62
     7
 10
34.578299999999992
 20
40.930399999999999
 30
0.0
 40
3.0923400000000001
  1
検図
 41
0.5
  0
TEXT
  5
1C8
  8
_________2
 62
     7
 10
22.96019999999999
 20
26.730999999999991
 30
0.0
 40
3.0923400000000001
  1
備考
 41
0.5
  0
TEXT
  5
1C9
  8
_________2
 62
     7
 10
22.96019999999999
 20
40.930399999999999
 30
0.0
 40
3.0923400000000001
  1
製図
 41
0.5
  0
TEXT
  5
1CA
  8
_________2
 62
     7
 10
28.727365333333339
 20
49.456400000000002
 30
0.0
 40
4.4979399999999989
  1
セラトレーディング株式会社
 41
0.5
 72
     1
 11
46.119399999999992
 21
49.456400000000002
 31
0.0
  0
LINE
  5
1CB
  8
_________2
 62
     7
 10
188.49000000000001
 20
17.428499999999989
 30
0.0
 11
21.988499999999991
 21
17.428499999999989
 31
0.0
  0
LINE
  5
1CC
  8
_________2
 62
     7
 10
21.988499999999991
 20
17.428499999999989
 30
0.0
 11
21.988499999999991
 21
280.42999999999989
 31
0.0
  0
LINE
  5
1CD
  8
_________2
 62
     7
 10
21.988499999999991
 20
280.42999999999989
 30
0.0
 11
188.49000000000001
 21
280.42999999999989
 31
0.0
  0
LINE
  5
1CE
  8
_________2
 62
     7
 10
188.49000000000001
 20
280.42999999999989
 30
0.0
 11
188.49000000000001
 21
17.428499999999989
 31
0.0
  0
LINE
  5
1CF
  8
_________2
 62
     7
 10
70.488799999999998
 20
30.928899999999999
 30
0.0
 11
70.488799999999998
 21
57.428699999999992
 31
0.0
  0
LINE
  5
1D0
  8
_________2
 62
     7
 10
89.488600000000005
 20
30.928899999999999
 30
0.0
 11
89.488600000000005
 21
57.428699999999992
 31
0.0
  0
LINE
  5
1D1
  8
_________2
 62
     7
 10
108.4889999999999
 20
17.428499999999989
 30
0.0
 11
108.4889999999999
 21
57.428699999999992
 31
0.0
  0
LINE
  5
1D2
  8
_________2
 62
     7
 10
33.488300000000002
 20
30.928899999999999
 30
0.0
 11
33.488300000000002
 21
44.928800000000003
 31
0.0
  0
LINE
  5
1D3
  8
_________2
 62
     7
 10
21.988499999999991
 20
30.928899999999999
 30
0.0
 11
108.4889999999999
 21
30.928899999999999
 31
0.0
  0
LINE
  5
1D4
  8
_________2
 62
     7
 10
21.988499999999991
 20
44.928800000000003
 30
0.0
 11
108.4889999999999
 21
44.928800000000003
 31
0.0
  0
LINE
  5
1D5
  8
_________2
 62
     7
 10
108.4889999999999
 20
37.428100000000001
 30
0.0
 11
188.49000000000001
 21
37.428100000000001
 31
0.0
  0
LINE
  5
1D6
  8
_________2
 62
     7
 10
21.988499999999991
 20
57.428699999999992
 30
0.0
 11
188.49000000000001
 21
57.428699999999992
 31
0.0
  0
LINE
  5
1D7
  8
_________2
 62
     7
 10
210.24000000000001
 20
148.93100000000001
 30
0.0
 11
188.489
 21
148.93100000000001
 31
0.0
  0
LINE
  5
1D8
  8
_________2
 62
     7
 10
105.2389999999999
 20
297.45099999999991
 30
0.0
 11
105.2389999999999
 21
280.42999999999989
 31
0.0
  0
LINE
  5
1D9
  8
_________2
 62
     7
 10
21.988499999999991
 20
148.93100000000001
 30
0.0
 11
0.238402
 21
148.93100000000001
 31
0.0
  0
ENDSEC
  0
EOF
