  0
SECTION
  2
HEADER
  9
$ACADVER
  1
AC1009
  9
$INSBASE
 10
0.0
 20
0.0
 30
0.0
  9
$EXTMIN
 10
0.238402
 20
0.4485540000000001
 30
0.0
  9
$EXTMAX
 10
210.24000000000001
 20
297.45099999999991
 30
0.0
  9
$LIMMIN
 10
0.0
 20
0.0
  9
$LIMMAX
 10
12.0
 20
9.0
  9
$ORTHOMODE
 70
     0
  9
$REGENMODE
 70
     1
  9
$FILLMODE
 70
     1
  9
$QTEXTMODE
 70
     0
  9
$MIRRTEXT
 70
     1
  9
$DRAGMODE
 70
     2
  9
$LTSCALE
 40
1.0
  9
$OSMODE
 70
    37
  9
$ATTMODE
 70
     1
  9
$TEXTSIZE
 40
0.0
  9
$TRACEWID
 40
0.05
  9
$TEXTSTYLE
  7
STANDARD
  9
$CLAYER
  8
0
  9
$CELTYPE
  6
CONTINUOUS
  9
$CECOLOR
 62
   256
  9
$DIMSCALE
 40
1.0
  9
$DIMASZ
 40
0.18
  9
$DIMEXO
 40
0.0625
  9
$DIMDLI
 40
0.38
  9
$DIMRND
 40
0.0
  9
$DIMDLE
 40
0.0
  9
$DIMEXE
 40
0.18
  9
$DIMTP
 40
0.0
  9
$DIMTM
 40
0.0
  9
$DIMTXT
 40
0.18
  9
$DIMCEN
 40
0.09
  9
$DIMTSZ
 40
0.0
  9
$DIMTOL
 70
     0
  9
$DIMLIM
 70
     0
  9
$DIMTIH
 70
     1
  9
$DIMTOH
 70
     1
  9
$DIMSE1
 70
     0
  9
$DIMSE2
 70
     0
  9
$DIMTAD
 70
     0
  9
$DIMZIN
 70
     0
  9
$DIMBLK
  1

  9
$DIMASO
 70
     1
  9
$DIMSHO
 70
     1
  9
$DIMPOST
  1

  9
$DIMAPOST
  1

  9
$DIMALT
 70
     0
  9
$DIMALTD
 70
     2
  9
$DIMALTF
 40
25.399999999999999
  9
$DIMLFAC
 40
1.0
  9
$DIMTOFL
 70
     0
  9
$DIMTVP
 40
0.0
  9
$DIMTIX
 70
     0
  9
$DIMSOXD
 70
     0
  9
$DIMSAH
 70
     0
  9
$DIMBLK1
  1

  9
$DIMBLK2
  1

  9
$DIMSTYLE
  2
STANDARD
  9
$DIMCLRD
 70
     0
  9
$DIMCLRE
 70
     0
  9
$DIMCLRT
 70
     0
  9
$DIMTFAC
 40
1.0
  9
$DIMGAP
 40
0.09
  9
$LUNITS
 70
     2
  9
$LUPREC
 70
     4
  9
$SKETCHINC
 40
0.1
  9
$FILLETRAD
 40
0.0
  9
$AUNITS
 70
     0
  9
$AUPREC
 70
     0
  9
$MENU
  1
.
  9
$ELEVATION
 40
0.0
  9
$PELEVATION
 40
0.0
  9
$THICKNESS
 40
0.0
  9
$LIMCHECK
 70
     0
  9
$BLIPMODE
 70
     0
  9
$CHAMFERA
 40
0.0
  9
$CHAMFERB
 40
0.0
  9
$SKPOLY
 70
     0
  9
$TDCREATE
 40
2444972.375
  9
$TDUPDATE
 40
2456571.2493458912
  9
$TDINDWG
 40
0.0000063542
  9
$TDUSRTIMER
 40
0.0000063542
  9
$USRTIMER
 70
     1
  9
$ANGBASE
 50
0.0
  9
$ANGDIR
 70
     0
  9
$PDMODE
 70
     0
  9
$PDSIZE
 40
0.0
  9
$PLINEWID
 40
0.0
  9
$COORDS
 70
     1
  9
$SPLFRAME
 70
     0
  9
$SPLINETYPE
 70
     6
  9
$SPLINESEGS
 70
     8
  9
$ATTDIA
 70
     0
  9
$ATTREQ
 70
     1
  9
$HANDLING
 70
     1
  9
$HANDSEED
  5
22C
  9
$SURFTAB1
 70
     6
  9
$SURFTAB2
 70
     6
  9
$SURFTYPE
 70
     6
  9
$SURFU
 70
     6
  9
$SURFV
 70
     6
  9
$UCSNAME
  2

  9
$UCSORG
 10
0.0
 20
0.0
 30
0.0
  9
$UCSXDIR
 10
1.0
 20
0.0
 30
0.0
  9
$UCSYDIR
 10
0.0
 20
1.0
 30
0.0
  9
$PUCSNAME
  2

  9
$PUCSORG
 10
0.0
 20
0.0
 30
0.0
  9
$PUCSXDIR
 10
1.0
 20
0.0
 30
0.0
  9
$PUCSYDIR
 10
0.0
 20
1.0
 30
0.0
  9
$USERI1
 70
     0
  9
$USERI2
 70
     0
  9
$USERI3
 70
     0
  9
$USERI4
 70
     0
  9
$USERI5
 70
     0
  9
$USERR1
 40
0.0
  9
$USERR2
 40
0.0
  9
$USERR3
 40
0.0
  9
$USERR4
 40
0.0
  9
$USERR5
 40
0.0
  9
$WORLDVIEW
 70
     1
  9
$SHADEDGE
 70
     3
  9
$SHADEDIF
 70
    70
  9
$TILEMODE
 70
     1
  9
$MAXACTVP
 70
    48
  9
$PLIMCHECK
 70
     0
  9
$PEXTMIN
 10
1.0000000000000000E+020
 20
1.0000000000000000E+020
 30
1.0000000000000000E+020
  9
$PEXTMAX
 10
-1.0000000000000000E+020
 20
-1.0000000000000000E+020
 30
-1.0000000000000000E+020
  9
$PLIMMIN
 10
0.0
 20
0.0
  9
$PLIMMAX
 10
12.0
 20
9.0
  9
$UNITMODE
 70
     0
  9
$VISRETAIN
 70
     1
  9
$PLINEGEN
 70
     0
  9
$PSLTSCALE
 70
     1
  0
ENDSEC
  0
SECTION
  2
TABLES
  0
TABLE
  2
VPORT
 70
     2
  0
VPORT
  2
*ACTIVE
 70
     0
 10
0.0
 20
0.0
 11
1.0
 21
1.0
 12
214.6779983880206
 22
148.72550000000001
 13
0.0
 23
0.0
 14
1.0
 24
1.0
 15
0.0
 25
0.0
 16
0.0
 26
0.0
 36
1.0
 17
0.0
 27
0.0
 37
0.0
 40
299.82743941411439
 41
2.2894736842105261
 42
50.0
 43
0.0
 44
0.0
 50
0.0
 51
0.0
 71
     0
 72
   100
 73
     1
 74
     1
 75
     0
 76
     0
 77
     0
 78
     0
  0
ENDTAB
  0
TABLE
  2
LTYPE
 70
     3
  0
LTYPE
  2
CONTINUOUS
 70
     0
  3
Solid line
 72
    65
 73
     0
 40
0.0
  0
LTYPE
  2
AIGENLINE001
 70
     0
  3
generate AI->DXF Converter
 72
    65
 73
     2
 40
1.5522299999999991
 49
0.776115
 49
-0.776115
  0
LTYPE
  2
AIGENLINE002
 70
     0
  3
generate AI->DXF Converter
 72
    65
 73
     4
 40
5.8561449999999988
 49
3.5278
 49
-0.776115
 49
0.776115
 49
-0.776115
  0
ENDTAB
  0
TABLE
  2
LAYER
 70
     2
  0
LAYER
  2
0
 70
     0
 62
     7
  6
CONTINUOUS
  0
LAYER
  2
_________2
 70
     0
 62
     7
  6
CONTINUOUS
  0
ENDTAB
  0
TABLE
  2
STYLE
 70
     1
  0
STYLE
  2
STANDARD
 70
     0
 40
0.0
 41
0.0
 50
0.0
 71
     0
 42
0.0
  3
TXT
  4
EXTFONT.SHX
  0
ENDTAB
  0
TABLE
  2
VIEW
 70
     0
  0
ENDTAB
  0
TABLE
  2
UCS
 70
     0
  0
ENDTAB
  0
TABLE
  2
APPID
 70
     1
  0
APPID
  2
ACAD
 70
     0
  0
ENDTAB
  0
TABLE
  2
DIMSTYLE
 70
     1
  0
DIMSTYLE
  2
STANDARD
 70
     0
  3

  4

  5

  6

  7

 40
1.0
 41
0.18
 42
0.0625
 43
0.38
 44
0.18
 45
0.0
 46
0.0
 47
0.0
 48
0.0
140
0.18
141
0.09
142
0.0
143
25.399999999999999
144
1.0
145
0.0
146
1.0
147
0.09
 71
     0
 72
     0
 73
     1
 74
     1
 75
     0
 76
     0
 77
     0
 78
     0
170
     0
171
     2
172
     0
173
     0
174
     0
175
     0
176
     0
177
     0
178
     0
  0
ENDTAB
  0
ENDSEC
  0
SECTION
  2
BLOCKS
  0
BLOCK
  8
0
  2
$MODEL_SPACE
 70
     0
 10
0.0
 20
0.0
 30
0.0
  3
$MODEL_SPACE
  1

  0
ENDBLK
  5
1A
  8
0
  0
BLOCK
 67
     1
  8
0
  2
$PAPER_SPACE
 70
     0
 10
0.0
 20
0.0
 30
0.0
  3
$PAPER_SPACE
  1

  0
ENDBLK
  5
17
 67
     1
  8
0
  0
ENDSEC
  0
SECTION
  2
ENTITIES
  0
TEXT
  5
23
  8
0
 62
     7
 10
168.7052875
 20
101.458
 30
0.0
 40
3.0923400000000001
  1
230
 41
0.5
 72
     1
 11
170.63800000000001
 21
101.458
 31
0.0
  0
TEXT
  5
24
  8
0
 62
     7
 10
50.684399999999989
 20
254.06100000000001
 30
0.0
 40
3.0923400000000001
  1
%%c35
 41
0.5
  0
TEXT
  5
25
  8
0
 62
     7
 10
78.81568
 20
219.6699999999999
 30
0.0
 40
3.0923400000000001
  1
%%c46
 41
0.5
 72
     2
 11
82.938799999999986
 21
219.6699999999999
 31
0.0
  0
TEXT
  5
26
  8
0
 62
     7
 10
67.899687500000013
 20
142.33299999999991
 30
0.0
 40
3.0923400000000001
  1
280
 41
0.5
 72
     1
 11
69.832400000000007
 21
142.33299999999991
 31
0.0
  0
TEXT
  5
27
  8
0
 62
     7
 10
73.286429999999996
 20
261.67799999999988
 30
0.0
 40
3.0923400000000001
  1
100
 41
0.5
 72
     1
 11
74.832599999999999
 21
261.67799999999988
 31
0.0
  0
TEXT
  5
28
  8
0
 62
     7
 10
63.28613
 20
261.67799999999988
 30
0.0
 40
3.0923400000000001
  1
100
 41
0.5
 72
     1
 11
64.832300000000004
 21
261.67799999999988
 31
0.0
  0
TEXT
  5
29
  8
0
 62
     7
 10
114.569
 20
235.06852499999999
 30
0.0
 40
3.0923400000000001
  1
65
 50
90.0
 41
0.5
 72
     1
 11
114.569
 21
236.357
 31
0.0
  0
TEXT
  5
2A
  8
0
 62
     7
 10
155.66599999999991
 20
120.943135
 30
0.0
 40
3.0923400000000001
  1
165
 50
90.0
 41
0.5
 72
     1
 11
155.66599999999991
 21
122.747
 31
0.0
  0
TEXT
  5
2B
  8
0
 62
     7
 10
67.899487500000006
 20
169.012
 30
0.0
 40
3.0923400000000001
  1
750
 41
0.5
 72
     1
 11
69.8322
 21
169.012
 31
0.0
  0
TEXT
  5
2C
  8
0
 62
     7
 10
102.1733725
 20
179.50599999999989
 30
0.0
 40
3.0923400000000001
  1
80
 41
0.5
 72
     1
 11
103.333
 21
179.50599999999989
 31
0.0
  0
TEXT
  5
2D
  8
0
 62
     7
 10
35.172772500000001
 20
179.50599999999989
 30
0.0
 40
3.0923400000000001
  1
80
 41
0.5
 72
     1
 11
36.3324
 21
179.50599999999989
 31
0.0
  0
TEXT
  5
2E
  8
0
 62
     7
 10
67.900287500000005
 20
179.38
 30
0.0
 40
3.0923400000000001
  1
590
 41
0.5
 72
     1
 11
69.832999999999984
 21
179.38
 31
0.0
  0
TEXT
  5
2F
  8
0
 62
     7
 10
130.876
 20
217.41728749999999
 30
0.0
 40
3.0923400000000001
  1
580
 50
90.0
 41
0.5
 72
     1
 11
130.876
 21
219.34999999999991
 31
0.0
  0
TEXT
  5
30
  8
0
 62
     7
 10
121.98399999999999
 20
193.19037249999991
 30
0.0
 40
3.0923400000000001
  1
80
 50
90.0
 41
0.5
 72
     1
 11
121.98399999999999
 21
194.34999999999999
 31
0.0
  0
TEXT
  5
31
  8
0
 62
     7
 10
118.2679999999999
 20
130.4983724999999
 30
0.0
 40
3.0923400000000001
  1
60
 50
90.0
 41
0.5
 72
     1
 11
118.2679999999999
 21
131.6579999999999
 31
0.0
  0
TEXT
  5
32
  8
0
 62
     7
 10
171.45500000000001
 20
132.92421999999999
 30
0.0
 40
3.0923400000000001
  1
5
 50
90.0
 41
0.5
 72
     2
 11
171.45500000000001
 21
133.95500000000001
 31
0.0
  0
TEXT
  5
33
  8
0
 62
     7
 10
111.91799999999991
 20
114.9929825
 30
0.0
 40
3.0923400000000001
  1
140
 50
90.0
 41
0.5
 72
     1
 11
111.91799999999991
 21
116.66799999999991
 31
0.0
  0
TEXT
  5
34
  8
0
 62
     7
 10
111.91799999999991
 20
124.9983724999999
 30
0.0
 40
3.0923400000000001
  1
50
 50
90.0
 41
0.5
 72
     1
 11
111.91799999999991
 21
126.1579999999999
 31
0.0
  0
TEXT
  5
35
  8
0
 62
     7
 10
118.2679999999999
 20
116.48298249999991
 30
0.0
 40
3.0923400000000001
  1
210
 50
90.0
 41
0.5
 72
     1
 11
118.2679999999999
 21
118.1579999999999
 31
0.0
  0
TEXT
  5
36
  8
0
 62
     7
 10
122.111
 20
213.9172874999999
 30
0.0
 40
3.0923400000000001
  1
350
 50
90.0
 41
0.5
 72
     1
 11
122.111
 21
215.84999999999999
 31
0.0
  0
TEXT
  5
37
  8
0
 62
     7
 10
122.111
 20
239.1749825
 30
0.0
 40
3.0923400000000001
  1
150
 50
90.0
 41
0.5
 72
     1
 11
122.111
 21
240.84999999999999
 31
0.0
  0
TEXT
  5
38
  8
0
 62
     7
 10
114.569
 20
241.1903725
 30
0.0
 40
3.0923400000000001
  1
50
 50
90.0
 41
0.5
 72
     1
 11
114.569
 21
242.34999999999999
 31
0.0
  0
TEXT
  5
39
  8
0
 62
     7
 10
114.569
 20
252.02104999999989
 30
0.0
 40
3.0923400000000001
  1
35
 50
90.0
 41
0.5
 72
     2
 11
114.569
 21
254.5979999999999
 31
0.0
  0
TEXT
  5
3A
  8
0
 62
     7
 10
27.708400000000001
 20
234.9172874999999
 30
0.0
 40
3.0923400000000001
  1
230
 50
90.0
 41
0.5
 72
     1
 11
27.708400000000001
 21
236.84999999999999
 31
0.0
  0
ARC
  5
3B
  8
0
  6
AIGENLINE001
 62
     7
 10
69.784447
 20
125.206262
 30
0.0
 40
1.2990250000000001
 50
272.11355200000003
 51
357.886458
  0
ARC
  5
3C
  8
0
  6
AIGENLINE001
 62
     7
 10
69.880669999999995
 20
125.2064899999999
 30
0.0
 40
1.2992680000000001
 50
182.1232289999999
 51
267.86890599999992
  0
ARC
  5
3D
  8
0
  6
AIGENLINE001
 62
     7
 10
69.87938299999999
 20
125.110432
 30
0.0
 40
1.2979739999999991
 50
92.076397999999998
 51
177.884083
  0
ARC
  5
3E
  8
0
  6
AIGENLINE001
 62
     7
 10
69.784917000000007
 20
125.109843
 30
0.0
 40
1.298578
 50
2.140911
 51
87.906463000000002
  0
ARC
  5
3F
  8
0
  6
AIGENLINE001
 62
     7
 10
167.6624939999999
 20
127.5998799999999
 30
0.0
 40
0.5584150000000001
 50
91.803629000000001
 51
174.722646
  0
ARC
  5
40
  8
0
  6
AIGENLINE001
 62
     7
 10
164.678718
 20
113.7100809999999
 30
0.0
 40
1.553712999999999
 50
271.8408
 51
354.59806600000002
  0
ARC
  5
41
  8
0
  6
AIGENLINE001
 62
     7
 10
178.11805799999999
 20
128.6775439999999
 30
0.0
 40
0.519898
 50
272.16646700000001
 51
357.873017
  0
LINE
  5
42
  8
0
  6
AIGENLINE001
 62
     7
 10
178.13800000000001
 20
128.1579999999999
 30
0.0
 11
167.64500000000001
 21
128.1579999999999
 31
0.0
  0
ARC
  5
43
  8
0
 62
     7
 10
178.11875599999999
 20
129.17710400000001
 30
0.0
 40
0.5192020000000001
 50
272.09231999999997
 51
357.86818899999997
  0
ARC
  5
44
  8
0
 62
     7
 10
179.052515
 20
132.418126
 30
0.0
 40
0.415198
 50
92.109420999999983
 51
177.89054899999991
  0
ARC
  5
45
  8
0
 62
     7
 10
179.47324
 20
133.24767199999999
 30
0.0
 40
0.414875
 50
271.97097999999988
 51
357.88091500000002
  0
ARC
  5
46
  8
0
 62
     7
 10
180.40736100000001
 20
134.13805999999991
 30
0.0
 40
0.519888
 50
92.165356999999986
 51
177.874087
  0
ARC
  5
47
  8
0
 62
     7
 10
181.61828499999999
 20
134.13766599999991
 30
0.0
 40
0.520269
 50
2.167745
 51
87.871690999999984
  0
ARC
  5
48
  8
0
  6
AIGENLINE002
 62
     7
 10
131.69994099999991
 20
128.14090799999991
 30
0.0
 40
0.517524
 50
11.117801999999999
 51
88.473980000000012
  0
ARC
  5
49
  8
0
  6
AIGENLINE001
 62
     7
 10
145.0641479999999
 20
125.23155199999999
 30
0.0
 40
12.20108699999999
 50
192.1773
 51
200.954747
  0
ARC
  5
4A
  8
0
  6
AIGENLINE001
 62
     7
 10
141.6839389999999
 20
124.030348
 30
0.0
 40
8.6152870000000004
 50
201.53404599999999
 51
231.58154300000001
  0
ARC
  5
4B
  8
0
  6
AIGENLINE001
 62
     7
 10
143.6938529999999
 20
126.4841789999999
 30
0.0
 40
11.786915
 50
231.338773
 51
239.296277
  0
ARC
  5
4C
  8
0
  6
AIGENLINE001
 62
     7
 10
146.68706099999989
 20
131.29397700000001
 30
0.0
 40
17.451197000000001
 50
238.90971400000001
 51
243.43376699999999
  0
ARC
  5
4D
  8
0
  6
AIGENLINE001
 62
     7
 10
155.64328499999999
 20
148.9277459999999
 30
0.0
 40
36.770575000000001
 50
264.82404200000002
 51
269.99069500000002
  0
ARC
  5
4E
  8
0
  6
AIGENLINE001
 62
     7
 10
156.306939
 20
157.64236199999999
 30
0.0
 40
45.509700999999993
 50
252.37490799999989
 51
264.98171600000001
  0
ARC
  5
4F
  8
0
  6
AIGENLINE001
 62
     7
 10
152.80383699999999
 20
146.24107100000001
 30
0.0
 40
33.583103999999999
 50
246.483701
 51
252.181252
  0
ARC
  5
50
  8
0
  6
AIGENLINE001
 62
     7
 10
149.29507899999999
 20
137.80101999999999
 30
0.0
 40
24.444459999999999
 50
244.791121
 51
246.13135700000001
  0
LINE
  5
51
  8
0
  6
AIGENLINE001
 62
     7
 10
132.20799999999991
 20
128.24100000000001
 30
0.0
 11
133.13800000000001
 21
122.658
 31
0.0
  0
LINE
  5
52
  8
0
  6
AIGENLINE001
 62
     7
 10
156.83799999999991
 20
107.6579999999999
 30
0.0
 11
156.83799999999991
 21
111.1579999999999
 31
0.0
  0
LINE
  5
53
  8
0
  6
AIGENLINE001
 62
     7
 10
161.4379999999999
 20
111.1579999999999
 30
0.0
 11
161.4379999999999
 21
107.6579999999999
 31
0.0
  0
LINE
  5
54
  8
0
  6
AIGENLINE001
 62
     7
 10
161.4379999999999
 20
111.1579999999999
 30
0.0
 11
162.63800000000001
 21
112.157
 31
0.0
  0
LINE
  5
55
  8
0
  6
AIGENLINE001
 62
     7
 10
155.637
 20
112.157
 30
0.0
 11
156.83799999999991
 21
111.1579999999999
 31
0.0
  0
LINE
  5
56
  8
0
  6
AIGENLINE001
 62
     7
 10
161.4379999999999
 20
111.1579999999999
 30
0.0
 11
156.83799999999991
 21
111.1579999999999
 31
0.0
  0
LINE
  5
57
  8
0
  6
AIGENLINE001
 62
     7
 10
164.72900000000001
 20
112.157
 30
0.0
 11
162.63800000000001
 21
112.157
 31
0.0
  0
LINE
  5
58
  8
0
  6
AIGENLINE001
 62
     7
 10
162.63800000000001
 20
112.157
 30
0.0
 11
155.637
 21
112.157
 31
0.0
  0
LINE
  5
59
  8
0
  6
AIGENLINE002
 62
     7
 10
185.11299999999989
 20
123.6579999999999
 30
0.0
 11
179.56700000000001
 21
123.6579999999999
 31
0.0
  0
LINE
  5
5A
  8
0
  6
AIGENLINE001
 62
     7
 10
178.63800000000001
 20
129.1579999999999
 30
0.0
 11
178.63800000000001
 21
128.6579999999999
 31
0.0
  0
LINE
  5
5B
  8
0
  6
AIGENLINE001
 62
     7
 10
166.226
 20
113.56399999999989
 30
0.0
 11
167.10599999999991
 21
127.651
 31
0.0
  0
LINE
  5
5C
  8
0
  6
AIGENLINE002
 62
     7
 10
173.63800000000001
 20
130.54300000000001
 30
0.0
 11
173.63800000000001
 21
126.2679999999999
 31
0.0
  0
LINE
  5
5D
  8
0
 62
     7
 10
178.63800000000001
 20
132.43299999999999
 30
0.0
 11
178.63800000000001
 21
129.1579999999999
 31
0.0
  0
LINE
  5
5E
  8
0
 62
     7
 10
179.88800000000001
 20
134.15700000000001
 30
0.0
 11
179.88800000000001
 21
133.23199999999991
 31
0.0
  0
LINE
  5
5F
  8
0
 62
     7
 10
182.13799999999989
 20
134.15700000000001
 30
0.0
 11
182.13799999999989
 21
109.6579999999999
 31
0.0
  0
LINE
  5
60
  8
0
 62
     7
 10
125.2639999999999
 20
126.744
 30
0.0
 11
182.13799999999989
 21
126.744
 31
0.0
  0
LINE
  5
61
  8
0
 62
     7
 10
124.556
 20
125.8429999999999
 30
0.0
 11
182.13799999999989
 21
125.8429999999999
 31
0.0
  0
LINE
  5
62
  8
0
 62
     7
 10
124.7679999999999
 20
120.0409999999999
 30
0.0
 11
182.13799999999989
 21
120.0409999999999
 31
0.0
  0
LINE
  5
63
  8
0
 62
     7
 10
125.9249999999999
 20
118.086
 30
0.0
 11
182.13799999999989
 21
118.086
 31
0.0
  0
ARC
  5
64
  8
0
 62
     7
 10
140.8650529999999
 20
123.963885
 30
0.0
 40
16.758372000000001
 50
175.08800500000001
 51
192.68154699999999
  0
ARC
  5
65
  8
0
 62
     7
 10
127.403452
 20
113.797195
 30
0.0
 40
14.86248599999999
 50
90.795226999999997
 51
93.806177000000005
  0
ARC
  5
66
  8
0
 62
     7
 10
126.4728689999999
 20
127.958629
 30
0.0
 40
0.670613
 50
94.791244000000006
 51
159.02603199999999
  0
LINE
  5
67
  8
0
 62
     7
 10
125.7139999999999
 20
127.13499999999991
 30
0.0
 11
125.84699999999999
 21
128.1989999999999
 31
0.0
  0
ARC
  5
68
  8
0
 62
     7
 10
125.375379
 20
126.029173
 30
0.0
 40
0.723521
 50
98.81819999999999
 51
117.999893
  0
ARC
  5
69
  8
0
 62
     7
 10
125.10328699999999
 20
127.383971
 30
0.0
 40
0.6598180000000001
 50
284.13894199999999
 51
337.84665000000001
  0
ARC
  5
6A
  8
0
 62
     7
 10
125.26337700000001
 20
126.320155
 30
0.0
 40
0.415731
 50
123.204846
 51
173.87813399999999
  0
LINE
  5
6B
  8
0
 62
     7
 10
124.82899999999989
 20
126.1689999999999
 30
0.0
 11
124.84999999999989
 21
126.3639999999999
 31
0.0
  0
ARC
  5
6C
  8
0
 62
     7
 10
124.441531
 20
126.2164379999999
 30
0.0
 40
0.390728
 50
287.058041
 51
352.99802199999999
  0
ARC
  5
6D
  8
0
 62
     7
 10
124.729136
 20
125.300315
 30
0.0
 40
0.5694930000000001
 50
107.68348899999989
 51
170.03910400000001
  0
ARC
  5
6E
  8
0
 62
     7
 10
162.57481899999991
 20
107.9938309999999
 30
0.0
 40
0.33801
 50
275.71898599999992
 51
350.18533600000001
  0
LINE
  5
6F
  8
0
 62
     7
 10
162.9079999999999
 20
107.93600000000001
 30
0.0
 11
163.02699999999999
 21
109.6579999999999
 31
0.0
  0
ARC
  5
70
  8
0
 62
     7
 10
155.70153500000001
 20
107.99531399999989
 30
0.0
 40
0.339509
 50
190.02506299999999
 51
264.26758499999988
  0
LINE
  5
71
  8
0
 62
     7
 10
155.36699999999999
 20
107.93600000000001
 30
0.0
 11
155.24700000000001
 21
109.6579999999999
 31
0.0
  0
LINE
  5
72
  8
0
 62
     7
 10
125.462
 20
118.4579999999999
 30
0.0
 11
125.26299999999991
 21
119.5529999999999
 31
0.0
  0
ARC
  5
73
  8
0
 62
     7
 10
124.646559
 20
119.422595
 30
0.0
 40
0.630198
 50
11.956125
 51
78.887319999999988
  0
ARC
  5
74
  8
0
 62
     7
 10
124.82738500000001
 20
120.3551149999999
 30
0.0
 40
0.319698
 50
192.68886099999989
 51
259.29902499999992
  0
ARC
  5
75
  8
0
 62
     7
 10
125.93419399999991
 20
118.571235
 30
0.0
 40
0.4858020000000001
 50
193.52736299999989
 51
268.86228699999998
  0
LINE
  5
76
  8
0
 62
     7
 10
182.13799999999989
 20
109.6579999999999
 30
0.0
 11
161.63800000000001
 21
109.6579999999999
 31
0.0
  0
ARC
  5
77
  8
0
 62
     7
 10
138.66182900000001
 20
115.95101799999991
 30
0.0
 40
6.2934469999999996
 50
221.92302900000001
 51
270.41722399999998
  0
ARC
  5
78
  8
0
 62
     7
 10
141.942768
 20
119.18946699999989
 30
0.0
 40
10.900487
 50
185.79983200000001
 51
223.06606600000001
  0
LINE
  5
79
  8
0
 62
     7
 10
178.13800000000001
 20
128.6579999999999
 30
0.0
 11
127.197
 21
128.6579999999999
 31
0.0
  0
LINE
  5
7A
  8
0
 62
     7
 10
155.66800000000001
 20
107.6579999999999
 30
0.0
 11
162.60900000000001
 21
107.6579999999999
 31
0.0
  0
LINE
  5
7B
  8
0
 62
     7
 10
138.708
 20
109.6579999999999
 30
0.0
 11
161.63800000000001
 21
109.6579999999999
 31
0.0
  0
ARC
  5
7C
  8
0
  6
AIGENLINE002
 62
     7
 10
99.770256000000003
 20
128.1411139999999
 30
0.0
 40
0.517319
 50
91.526958999999991
 51
168.9009209999999
  0
ARC
  5
7D
  8
0
  6
AIGENLINE001
 62
     7
 10
90.323705000000004
 20
124.407569
 30
0.0
 40
8.1977949999999993
 50
311.103297
 51
347.67638399999993
  0
ARC
  5
7E
  8
0
  6
AIGENLINE001
 62
     7
 10
88.381281000000001
 20
126.55086899999991
 30
0.0
 40
11.08994699999999
 50
302.97771799999998
 51
311.38549499999988
  0
ARC
  5
7F
  8
0
  6
AIGENLINE001
 62
     7
 10
85.609465999999983
 20
130.66247999999999
 30
0.0
 40
16.048075999999998
 50
296.689843
 51
303.28913399999988
  0
ARC
  5
80
  8
0
  6
AIGENLINE001
 62
     7
 10
81.689635999999993
 20
138.10102399999991
 30
0.0
 40
24.455214000000002
 50
294.828012
 51
297.06722899999988
  0
ARC
  5
81
  8
0
  6
AIGENLINE001
 62
     7
 10
73.301569999999984
 20
160.46360200000001
 30
0.0
 40
48.306441
 50
270.03680700000001
 51
292.71857599999998
  0
LINE
  5
82
  8
0
  6
AIGENLINE001
 62
     7
 10
99.262600000000006
 20
128.24100000000001
 30
0.0
 11
98.332599999999999
 21
122.658
 31
0.0
  0
ARC
  5
83
  8
0
  6
AIGENLINE002
 62
     7
 10
39.895133999999999
 20
128.14194199999989
 30
0.0
 40
0.5164910000000001
 50
11.02347599999999
 51
88.469714999999994
  0
ARC
  5
84
  8
0
  6
AIGENLINE001
 62
     7
 10
49.343125000000001
 20
124.4085179999999
 30
0.0
 40
8.1999009999999988
 50
192.327212
 51
228.88994799999989
  0
ARC
  5
85
  8
0
  6
AIGENLINE001
 62
     7
 10
51.283814
 20
126.5510389999999
 30
0.0
 40
11.09032599999999
 50
228.61363299999999
 51
237.0209009999999
  0
ARC
  5
86
  8
0
  6
AIGENLINE001
 62
     7
 10
54.056543000000012
 20
130.66494299999999
 30
0.0
 40
16.050875000000001
 50
236.71168700000001
 51
243.309876
  0
ARC
  5
87
  8
0
  6
AIGENLINE001
 62
     7
 10
57.969298000000002
 20
138.090013
 30
0.0
 40
24.442795999999991
 50
242.93303499999999
 51
245.17345800000001
  0
ARC
  5
88
  8
0
  6
AIGENLINE001
 62
     7
 10
66.363828999999996
 20
160.46360200000001
 30
0.0
 40
48.306441
 50
247.28144399999999
 51
269.96321299999988
  0
LINE
  5
89
  8
0
 62
     7
 10
182.13799999999989
 20
108.8179999999999
 30
0.0
 11
182.13799999999989
 21
99.777799999999999
 31
0.0
  0
LINE
  5
8A
  8
0
 62
     7
 10
159.13800000000001
 20
104.00399999999991
 30
0.0
 11
159.13800000000001
 21
99.777799999999999
 31
0.0
  0
LINE
  5
8B
  8
0
 62
     7
 10
157.0929999999999
 20
126.44799999999999
 30
0.0
 11
156.49700000000001
 21
128.65899999999991
 31
0.0
  0
LINE
  5
8C
  8
0
 62
     7
 10
156.49700000000001
 20
128.65899999999991
 30
0.0
 11
155.90100000000001
 21
126.44799999999999
 31
0.0
  0
LINE
  5
8D
  8
0
 62
     7
 10
155.90100000000001
 20
126.44799999999999
 30
0.0
 11
157.0929999999999
 21
126.44799999999999
 31
0.0
  0
LINE
  5
8E
  8
0
 62
     7
 10
155.91800000000001
 20
114.366
 30
0.0
 11
156.51400000000001
 21
112.155
 31
0.0
  0
LINE
  5
8F
  8
0
 62
     7
 10
156.51400000000001
 20
112.155
 30
0.0
 11
157.11000000000001
 21
114.366
 31
0.0
  0
LINE
  5
90
  8
0
 62
     7
 10
157.11000000000001
 20
114.366
 30
0.0
 11
155.91800000000001
 21
114.366
 31
0.0
  0
LINE
  5
91
  8
0
 62
     7
 10
156.505
 20
128.6579999999999
 30
0.0
 11
156.505
 21
112.157
 31
0.0
  0
LINE
  5
92
  8
0
 62
     7
 10
172.8899999999999
 20
125.947
 30
0.0
 11
172.29400000000001
 21
128.1579999999999
 31
0.0
  0
LINE
  5
93
  8
0
 62
     7
 10
172.29400000000001
 20
128.1579999999999
 30
0.0
 11
171.69799999999989
 21
125.947
 31
0.0
  0
LINE
  5
94
  8
0
 62
     7
 10
171.69799999999989
 20
125.947
 30
0.0
 11
172.8899999999999
 21
125.947
 31
0.0
  0
LINE
  5
95
  8
0
 62
     7
 10
171.69799999999989
 20
130.869
 30
0.0
 11
172.29400000000001
 21
128.6579999999999
 31
0.0
  0
LINE
  5
96
  8
0
 62
     7
 10
172.29400000000001
 20
128.6579999999999
 30
0.0
 11
172.8899999999999
 21
130.869
 31
0.0
  0
LINE
  5
97
  8
0
 62
     7
 10
172.8899999999999
 20
130.869
 30
0.0
 11
171.69799999999989
 21
130.869
 31
0.0
  0
LINE
  5
98
  8
0
 62
     7
 10
172.29400000000001
 20
133.95500000000001
 30
0.0
 11
172.29400000000001
 21
124.09399999999989
 31
0.0
  0
LINE
  5
99
  8
0
 62
     7
 10
113.3539999999999
 20
121.447
 30
0.0
 11
112.758
 21
123.6579999999999
 31
0.0
  0
LINE
  5
9A
  8
0
 62
     7
 10
112.758
 20
123.6579999999999
 30
0.0
 11
112.16200000000001
 21
121.447
 31
0.0
  0
LINE
  5
9B
  8
0
 62
     7
 10
112.16200000000001
 20
121.447
 30
0.0
 11
113.3539999999999
 21
121.447
 31
0.0
  0
LINE
  5
9C
  8
0
 62
     7
 10
112.16200000000001
 20
111.8679999999999
 30
0.0
 11
112.758
 21
109.6579999999999
 31
0.0
  0
LINE
  5
9D
  8
0
 62
     7
 10
112.758
 20
109.6579999999999
 30
0.0
 11
113.3539999999999
 21
111.8679999999999
 31
0.0
  0
LINE
  5
9E
  8
0
 62
     7
 10
113.3539999999999
 20
111.8679999999999
 30
0.0
 11
112.16200000000001
 21
111.8679999999999
 31
0.0
  0
LINE
  5
9F
  8
0
 62
     7
 10
112.16200000000001
 20
130.86799999999999
 30
0.0
 11
112.758
 21
128.6579999999999
 31
0.0
  0
LINE
  5
A0
  8
0
 62
     7
 10
112.758
 20
128.6579999999999
 30
0.0
 11
113.3539999999999
 21
130.86799999999999
 31
0.0
  0
LINE
  5
A1
  8
0
 62
     7
 10
113.3539999999999
 20
130.86799999999999
 30
0.0
 11
112.16200000000001
 21
130.86799999999999
 31
0.0
  0
LINE
  5
A2
  8
0
 62
     7
 10
112.758
 20
132.27899999999991
 30
0.0
 11
112.758
 21
109.6579999999999
 31
0.0
  0
LINE
  5
A3
  8
0
 62
     7
 10
119.70399999999989
 20
126.4469999999999
 30
0.0
 11
119.1079999999999
 21
128.6579999999999
 31
0.0
  0
LINE
  5
A4
  8
0
 62
     7
 10
119.1079999999999
 20
128.6579999999999
 30
0.0
 11
118.5119999999999
 21
126.4469999999999
 31
0.0
  0
LINE
  5
A5
  8
0
 62
     7
 10
118.5119999999999
 20
126.4469999999999
 30
0.0
 11
119.70399999999989
 21
126.4469999999999
 31
0.0
  0
LINE
  5
A6
  8
0
 62
     7
 10
119.69499999999989
 20
132.44799999999989
 30
0.0
 11
119.099
 21
134.65899999999991
 31
0.0
  0
LINE
  5
A7
  8
0
 62
     7
 10
119.099
 20
134.65899999999991
 30
0.0
 11
118.5029999999999
 21
132.44799999999989
 31
0.0
  0
LINE
  5
A8
  8
0
 62
     7
 10
118.5029999999999
 20
132.44799999999989
 30
0.0
 11
119.69499999999989
 21
132.44799999999989
 31
0.0
  0
LINE
  5
A9
  8
0
 62
     7
 10
118.5119999999999
 20
130.86799999999999
 30
0.0
 11
119.1079999999999
 21
128.6579999999999
 31
0.0
  0
LINE
  5
AA
  8
0
 62
     7
 10
119.1079999999999
 20
128.6579999999999
 30
0.0
 11
119.70399999999989
 21
130.86799999999999
 31
0.0
  0
LINE
  5
AB
  8
0
 62
     7
 10
119.70399999999989
 20
130.86799999999999
 30
0.0
 11
118.5119999999999
 21
130.86799999999999
 31
0.0
  0
LINE
  5
AC
  8
0
 62
     7
 10
118.521
 20
109.867
 30
0.0
 11
119.117
 21
107.65600000000001
 31
0.0
  0
LINE
  5
AD
  8
0
 62
     7
 10
119.117
 20
107.65600000000001
 30
0.0
 11
119.71299999999999
 21
109.867
 31
0.0
  0
LINE
  5
AE
  8
0
 62
     7
 10
119.71299999999999
 20
109.867
 30
0.0
 11
118.521
 21
109.867
 31
0.0
  0
LINE
  5
AF
  8
0
 62
     7
 10
119.1079999999999
 20
134.6579999999999
 30
0.0
 11
119.1079999999999
 21
107.6579999999999
 31
0.0
  0
LINE
  5
B0
  8
0
 62
     7
 10
81.609499999999997
 20
140.90899999999991
 30
0.0
 11
83.833699999999993
 21
141.501
 31
0.0
  0
LINE
  5
B1
  8
0
 62
     7
 10
83.833699999999993
 20
141.501
 30
0.0
 11
81.609499999999997
 21
142.09399999999991
 31
0.0
  0
LINE
  5
B2
  8
0
 62
     7
 10
81.609499999999997
 20
142.09399999999991
 30
0.0
 11
81.609499999999997
 21
140.90899999999991
 31
0.0
  0
LINE
  5
B3
  8
0
 62
     7
 10
58.054900000000004
 20
142.07599999999999
 30
0.0
 11
55.8307
 21
141.483
 31
0.0
  0
LINE
  5
B4
  8
0
 62
     7
 10
55.8307
 20
141.483
 30
0.0
 11
58.054900000000004
 21
140.89099999999991
 31
0.0
  0
LINE
  5
B5
  8
0
 62
     7
 10
58.054900000000004
 20
140.89099999999991
 30
0.0
 11
58.054900000000004
 21
142.07599999999999
 31
0.0
  0
LINE
  5
B6
  8
0
 62
     7
 10
83.832300000000004
 20
141.49299999999999
 30
0.0
 11
55.832299999999996
 21
141.49299999999999
 31
0.0
  0
LINE
  5
B7
  8
0
 62
     7
 10
55.832299999999996
 20
126.47799999999999
 30
0.0
 11
55.832299999999996
 21
142.33299999999991
 31
0.0
  0
LINE
  5
B8
  8
0
 62
     7
 10
83.832300000000004
 20
126.47799999999999
 30
0.0
 11
83.832300000000004
 21
142.33299999999991
 31
0.0
  0
LINE
  5
B9
  8
0
  6
AIGENLINE001
 62
     7
 10
40.402099999999997
 20
128.24100000000001
 30
0.0
 11
41.332299999999996
 21
122.658
 31
0.0
  0
LINE
  5
BA
  8
0
  6
AIGENLINE002
 62
     7
 10
159.13800000000001
 20
114.465
 30
0.0
 11
159.13800000000001
 21
104.84399999999999
 31
0.0
  0
LINE
  5
BB
  8
0
  6
AIGENLINE001
 62
     7
 10
67.532200000000003
 20
107.6579999999999
 30
0.0
 11
67.532200000000003
 21
111.1579999999999
 31
0.0
  0
LINE
  5
BC
  8
0
  6
AIGENLINE001
 62
     7
 10
72.1327
 20
111.1579999999999
 30
0.0
 11
72.1327
 21
107.6579999999999
 31
0.0
  0
LINE
  5
BD
  8
0
  6
AIGENLINE001
 62
     7
 10
72.1327
 20
111.1579999999999
 30
0.0
 11
73.332599999999999
 21
112.157
 31
0.0
  0
LINE
  5
BE
  8
0
  6
AIGENLINE001
 62
     7
 10
66.332800000000006
 20
112.157
 30
0.0
 11
67.532200000000003
 21
111.1579999999999
 31
0.0
  0
LINE
  5
BF
  8
0
  6
AIGENLINE001
 62
     7
 10
72.1327
 20
111.1579999999999
 30
0.0
 11
67.532200000000003
 21
111.1579999999999
 31
0.0
  0
LINE
  5
C0
  8
0
  6
AIGENLINE001
 62
     7
 10
73.332599999999999
 20
112.157
 30
0.0
 11
66.332800000000006
 21
112.157
 31
0.0
  0
LINE
  5
C1
  8
0
  6
AIGENLINE002
 62
     7
 10
58.603999999999999
 20
123.6579999999999
 30
0.0
 11
53.0595
 21
123.6579999999999
 31
0.0
  0
LINE
  5
C2
  8
0
  6
AIGENLINE001
 62
     7
 10
55.332500000000003
 20
122.4079999999999
 30
0.0
 11
56.332000000000001
 21
122.4079999999999
 31
0.0
  0
LINE
  5
C3
  8
0
  6
AIGENLINE001
 62
     7
 10
55.332500000000003
 20
124.9079999999999
 30
0.0
 11
56.332000000000001
 21
124.9079999999999
 31
0.0
  0
ARC
  5
C4
  8
0
  6
AIGENLINE001
 62
     7
 10
55.380850000000002
 20
123.60953499999999
 30
0.0
 40
1.299256999999999
 50
92.130656999999985
 51
177.87720799999991
  0
ARC
  5
C5
  8
0
  6
AIGENLINE001
 62
     7
 10
55.379922000000001
 20
123.7055739999999
 30
0.0
 40
1.2983219999999991
 50
182.11494999999991
 51
267.908771
  0
ARC
  5
C6
  8
0
  6
AIGENLINE001
 62
     7
 10
56.284511000000002
 20
123.7058389999999
 30
0.0
 40
1.2985889999999991
 50
272.09459199999992
 51
357.87383199999988
  0
ARC
  5
C7
  8
0
  6
AIGENLINE001
 62
     7
 10
56.284066000000003
 20
123.609753
 30
0.0
 40
1.2990250000000001
 50
2.1135419999999989
 51
87.886448000000001
  0
LINE
  5
C8
  8
0
  6
AIGENLINE002
 62
     7
 10
55.832299999999996
 20
125.63799999999991
 30
0.0
 11
55.832299999999996
 21
121.44199999999999
 31
0.0
  0
LINE
  5
C9
  8
0
  6
AIGENLINE002
 62
     7
 10
169.83399999999989
 20
125.1579999999999
 30
0.0
 11
164.28899999999999
 21
125.1579999999999
 31
0.0
  0
LINE
  5
CA
  8
0
  6
AIGENLINE002
 62
     7
 10
72.658600000000007
 20
125.1579999999999
 30
0.0
 11
67.113799999999998
 21
125.1579999999999
 31
0.0
  0
LINE
  5
CB
  8
0
  6
AIGENLINE002
 62
     7
 10
86.604900000000015
 20
123.6579999999999
 30
0.0
 11
81.059600000000003
 21
123.6579999999999
 31
0.0
  0
LINE
  5
CC
  8
0
  6
AIGENLINE001
 62
     7
 10
83.332599999999999
 20
122.4079999999999
 30
0.0
 11
84.332899999999995
 21
122.4079999999999
 31
0.0
  0
LINE
  5
CD
  8
0
  6
AIGENLINE001
 62
     7
 10
83.332599999999999
 20
124.9079999999999
 30
0.0
 11
84.332899999999995
 21
124.9079999999999
 31
0.0
  0
ARC
  5
CE
  8
0
  6
AIGENLINE001
 62
     7
 10
83.332650000000001
 20
123.657747
 30
0.0
 40
1.250146999999999
 50
90.003946999999997
 51
180.00395700000001
  0
ARC
  5
CF
  8
0
  6
AIGENLINE001
 62
     7
 10
83.379940000000005
 20
123.7055739999999
 30
0.0
 40
1.2983219999999991
 50
182.11494999999991
 51
267.908771
  0
ARC
  5
D0
  8
0
  6
AIGENLINE001
 62
     7
 10
84.285371999999995
 20
123.705679
 30
0.0
 40
1.298430999999999
 50
272.09569799999991
 51
357.88062200000002
  0
ARC
  5
D1
  8
0
  6
AIGENLINE001
 62
     7
 10
84.284779
 20
123.609765
 30
0.0
 40
1.2990189999999999
 50
2.1130139999999988
 51
87.879080999999999
  0
LINE
  5
D2
  8
0
  6
AIGENLINE002
 62
     7
 10
83.832300000000004
 20
125.63799999999991
 30
0.0
 11
83.832300000000004
 21
121.44199999999999
 31
0.0
  0
LINE
  5
D3
  8
0
 62
     7
 10
119.94799999999989
 20
107.6579999999999
 30
0.0
 11
74.350300000000004
 21
107.6579999999999
 31
0.0
  0
LINE
  5
D4
  8
0
 62
     7
 10
113.5979999999999
 20
109.6579999999999
 30
0.0
 11
95.662599999999983
 21
109.6579999999999
 31
0.0
  0
LINE
  5
D5
  8
0
 62
     7
 10
113.5979999999999
 20
123.6579999999999
 30
0.0
 11
87.444999999999993
 21
123.6579999999999
 31
0.0
  0
LINE
  5
D6
  8
0
 62
     7
 10
119.94799999999989
 20
128.6579999999999
 30
0.0
 11
106.7339999999999
 21
128.6579999999999
 31
0.0
  0
LINE
  5
D7
  8
0
 62
     7
 10
179.488
 20
132.833
 30
0.0
 11
179.03700000000001
 21
132.833
 31
0.0
  0
LINE
  5
D8
  8
0
 62
     7
 10
181.63800000000001
 20
134.6579999999999
 30
0.0
 11
180.38800000000001
 21
134.6579999999999
 31
0.0
  0
LINE
  5
D9
  8
0
 62
     7
 10
179.91499999999999
 20
100.03400000000001
 30
0.0
 11
182.13900000000001
 21
100.627
 31
0.0
  0
LINE
  5
DA
  8
0
 62
     7
 10
182.13900000000001
 20
100.627
 30
0.0
 11
179.91499999999999
 21
101.21899999999989
 31
0.0
  0
LINE
  5
DB
  8
0
 62
     7
 10
179.91499999999999
 20
101.21899999999989
 30
0.0
 11
179.91499999999999
 21
100.03400000000001
 31
0.0
  0
LINE
  5
DC
  8
0
 62
     7
 10
161.3609999999999
 20
101.20099999999999
 30
0.0
 11
159.13699999999989
 21
100.6089999999999
 31
0.0
  0
LINE
  5
DD
  8
0
 62
     7
 10
159.13699999999989
 20
100.6089999999999
 30
0.0
 11
161.3609999999999
 21
100.017
 31
0.0
  0
LINE
  5
DE
  8
0
 62
     7
 10
161.3609999999999
 20
100.017
 30
0.0
 11
161.3609999999999
 21
101.20099999999999
 31
0.0
  0
LINE
  5
DF
  8
0
 62
     7
 10
182.13799999999989
 20
100.61799999999999
 30
0.0
 11
159.13800000000001
 21
100.61799999999999
 31
0.0
  0
LINE
  5
E0
  8
0
 62
     7
 10
119.94799999999989
 20
134.6579999999999
 30
0.0
 11
87.445499999999996
 21
134.6579999999999
 31
0.0
  0
LINE
  5
E1
  8
0
  6
AIGENLINE002
 62
     7
 10
69.832400000000007
 20
137.14099999999999
 30
0.0
 11
69.832400000000007
 21
104.84399999999999
 31
0.0
  0
ARC
  5
E2
  8
0
 62
     7
 10
104.3936259999999
 20
130.208662
 30
0.0
 40
1.0399769999999999
 50
3.545493
 51
87.903681000000006
  0
ARC
  5
E3
  8
0
 62
     7
 10
35.269382
 20
130.211322
 30
0.0
 40
1.037258
 50
92.007742000000007
 51
176.59240199999991
  0
ARC
  5
E4
  8
0
 62
     7
 10
100.63845600000001
 20
160.58278100000001
 30
0.0
 40
29.336561
 50
264.11360400000001
 51
270.01272499999988
  0
LINE
  5
E5
  8
0
 62
     7
 10
100.645
 20
131.24600000000001
 30
0.0
 11
104.432
 21
131.24799999999991
 31
0.0
  0
ARC
  5
E6
  8
0
 62
     7
 10
69.835378000000006
 20
-137.76374300000001
 30
0.0
 40
270.59575399999989
 50
84.104712000000006
 51
95.897398000000024
  0
ARC
  5
E7
  8
0
 62
     7
 10
39.044595999999999
 20
160.23858000000001
 30
0.0
 40
28.992370000000001
 50
269.951233
 51
275.92147199999999
  0
ARC
  5
E8
  8
0
 62
     7
 10
100.82079399999991
 20
163.69233399999999
 30
0.0
 40
30.629359999999998
 50
264.41807299999988
 51
269.65789099999989
  0
ARC
  5
E9
  8
0
 62
     7
 10
104.03384200000001
 20
131.70696399999991
 30
0.0
 40
1.3576790000000001
 50
3.791874
 51
87.669468000000009
  0
LINE
  5
EA
  8
0
 62
     7
 10
100.63799999999991
 20
133.06399999999999
 30
0.0
 11
104.095
 21
133.06399999999999
 31
0.0
  0
LINE
  5
EB
  8
0
 62
     7
 10
105.3889999999999
 20
131.797
 30
0.0
 11
105.4839999999999
 21
128.42400000000001
 31
0.0
  0
ARC
  5
EC
  8
0
 62
     7
 10
69.832699000000005
 20
-136.96096199999999
 30
0.0
 40
271.61715199999992
 50
84.081203999999985
 51
95.918775999999994
  0
ARC
  5
ED
  8
0
 62
     7
 10
38.859149000000002
 20
163.41123200000001
 30
0.0
 40
30.348178999999998
 50
270.31783799999999
 51
275.60623800000002
  0
ARC
  5
EE
  8
0
 62
     7
 10
35.630728999999988
 20
131.70762899999991
 30
0.0
 40
1.356981999999999
 50
92.296748999999991
 51
176.2342779999999
  0
LINE
  5
EF
  8
0
 62
     7
 10
105.756
 20
127.13499999999991
 30
0.0
 11
105.624
 21
128.1989999999999
 31
0.0
  0
LINE
  5
F0
  8
0
 62
     7
 10
33.459699999999991
 20
126.744
 30
0.0
 11
106.206
 21
126.744
 31
0.0
  0
LINE
  5
F1
  8
0
 62
     7
 10
32.750500000000002
 20
125.8429999999999
 30
0.0
 11
106.91500000000001
 21
125.8429999999999
 31
0.0
  0
LINE
  5
F2
  8
0
 62
     7
 10
32.962499999999999
 20
120.0409999999999
 30
0.0
 11
106.702
 21
120.0409999999999
 31
0.0
  0
LINE
  5
F3
  8
0
 62
     7
 10
34.119599999999998
 20
118.086
 30
0.0
 11
105.54600000000001
 21
118.086
 31
0.0
  0
ARC
  5
F4
  8
0
 62
     7
 10
106.64654299999999
 20
120.3499459999999
 30
0.0
 40
0.3139369999999999
 50
280.20657899999992
 51
348.04042800000002
  0
ARC
  5
F5
  8
0
 62
     7
 10
106.82246000000001
 20
119.4237879999999
 30
0.0
 40
0.6288020000000002
 50
101.028516
 51
168.1279989999999
  0
LINE
  5
F6
  8
0
 62
     7
 10
106.0079999999999
 20
118.4579999999999
 30
0.0
 11
106.20699999999999
 21
119.5529999999999
 31
0.0
  0
ARC
  5
F7
  8
0
 62
     7
 10
105.53568199999999
 20
118.5707459999999
 30
0.0
 40
0.4853270000000001
 50
271.21709299999998
 51
346.51847299999991
  0
ARC
  5
F8
  8
0
 62
     7
 10
107.02897399999991
 20
126.2174729999999
 30
0.0
 40
0.391506
 50
187.14053799999991
 51
253.08741499999999
  0
LINE
  5
F9
  8
0
 62
     7
 10
106.64100000000001
 20
126.1689999999999
 30
0.0
 11
106.6189999999999
 21
126.3639999999999
 31
0.0
  0
ARC
  5
FA
  8
0
 62
     7
 10
106.2073749999999
 20
126.3216899999999
 30
0.0
 40
0.4143310000000001
 50
5.9291450000000001
 51
56.703471999999991
  0
ARC
  5
FB
  8
0
 62
     7
 10
106.09721999999989
 20
126.0348709999999
 30
0.0
 40
0.7175229999999999
 50
61.931727000000002
 51
81.301781999999989
  0
ARC
  5
FC
  8
0
 62
     7
 10
90.664423999999997
 20
123.9624239999999
 30
0.0
 40
16.699210000000001
 50
347.27793199999991
 51
359.99217199999998
  0
ARC
  5
FD
  8
0
 62
     7
 10
90.679571999999993
 20
123.965659
 30
0.0
 40
16.684062999999998
 50
359.98105499999991
 51
4.927791
  0
ARC
  5
FE
  8
0
 62
     7
 10
106.739749
 20
125.299578
 30
0.0
 40
0.5709100000000001
 50
10.010965000000001
 51
72.114958999999999
  0
ARC
  5
FF
  8
0
 62
     7
 10
106.36145999999999
 20
127.3777029999999
 30
0.0
 40
0.6524200000000001
 50
201.82395600000001
 51
256.19049199999989
  0
ARC
  5
100
  8
0
 62
     7
 10
104.996949
 20
127.958128
 30
0.0
 40
0.6711430000000001
 50
21.00235799999999
 51
85.180326000000008
  0
ARC
  5
101
  8
0
 62
     7
 10
104.046903
 20
113.304636
 30
0.0
 40
15.35528
 50
86.241942000000009
 51
89.155598999999995
  0
ARC
  5
102
  8
0
 62
     7
 10
49.016781999999999
 20
123.960921
 30
0.0
 40
16.715139999999991
 50
175.0650719999999
 51
192.70447899999999
  0
ARC
  5
103
  8
0
 62
     7
 10
35.598242999999989
 20
113.8185559999999
 30
0.0
 40
14.841132
 50
90.798103000000012
 51
93.809398000000016
  0
ARC
  5
104
  8
0
 62
     7
 10
34.668084999999991
 20
127.9583389999999
 30
0.0
 40
0.6708880000000002
 50
94.775493000000012
 51
159.00854799999991
  0
LINE
  5
105
  8
0
 62
     7
 10
33.909399999999998
 20
127.13499999999991
 30
0.0
 11
34.041699999999999
 21
128.1989999999999
 31
0.0
  0
ARC
  5
106
  8
0
 62
     7
 10
33.568854999999999
 20
126.032071
 30
0.0
 40
0.7203930000000001
 50
98.717669999999984
 51
118.0230139999999
  0
ARC
  5
107
  8
0
 62
     7
 10
33.298578999999989
 20
127.3836009999999
 30
0.0
 40
0.659438
 50
284.13940700000001
 51
337.86791099999999
  0
ARC
  5
108
  8
0
 62
     7
 10
33.458940999999989
 20
126.320323
 30
0.0
 40
0.4160720000000001
 50
123.31862
 51
173.90643399999999
  0
LINE
  5
109
  8
0
 62
     7
 10
33.024700000000003
 20
126.1689999999999
 30
0.0
 11
33.045200000000001
 21
126.3639999999999
 31
0.0
  0
ARC
  5
10A
  8
0
 62
     7
 10
32.635655
 20
126.217854
 30
0.0
 40
0.392146
 50
287.028008
 51
352.81496200000009
  0
ARC
  5
10B
  8
0
 62
     7
 10
32.923969999999997
 20
125.3011919999999
 30
0.0
 40
0.568807
 50
107.75739299999999
 51
170.11664400000001
  0
ARC
  5
10C
  8
0
 62
     7
 10
73.269346999999996
 20
107.9941749999999
 30
0.0
 40
0.338346
 50
275.70252199999999
 51
350.136076
  0
LINE
  5
10D
  8
0
 62
     7
 10
73.602699999999984
 20
107.93600000000001
 30
0.0
 11
73.722899999999996
 21
109.6579999999999
 31
0.0
  0
LINE
  5
10E
  8
0
 62
     7
 10
39.01959999999999
 20
131.24600000000001
 30
0.0
 11
35.232999999999997
 21
131.24799999999991
 31
0.0
  0
LINE
  5
10F
  8
0
 62
     7
 10
39.027500000000003
 20
133.06399999999999
 30
0.0
 11
35.570300000000003
 21
133.06399999999999
 31
0.0
  0
ARC
  5
110
  8
0
 62
     7
 10
66.395321999999993
 20
107.994212
 30
0.0
 40
0.338312
 50
189.87144799999999
 51
264.4212
  0
LINE
  5
111
  8
0
 62
     7
 10
66.061999999999998
 20
107.93600000000001
 30
0.0
 11
65.942499999999995
 21
109.6579999999999
 31
0.0
  0
LINE
  5
112
  8
0
 62
     7
 10
33.657099999999993
 20
118.4579999999999
 30
0.0
 11
33.4574
 21
119.5529999999999
 31
0.0
  0
ARC
  5
113
  8
0
 62
     7
 10
32.843021999999991
 20
119.42392099999989
 30
0.0
 40
0.628524
 50
11.864889
 51
79.038325999999998
  0
ARC
  5
114
  8
0
 62
     7
 10
33.020359999999989
 20
120.35242599999999
 30
0.0
 40
0.316771
 50
192.309788
 51
259.4824549999999
  0
ARC
  5
115
  8
0
 62
     7
 10
34.12894
 20
118.570661
 30
0.0
 40
0.485223
 50
193.47412700000001
 51
268.89468399999998
  0
ARC
  5
116
  8
0
 62
     7
 10
92.809514000000007
 20
115.94843
 30
0.0
 40
6.290862999999999
 50
269.57687399999998
 51
318.08754199999998
  0
ARC
  5
117
  8
0
 62
     7
 10
89.527426000000006
 20
119.18946699999989
 30
0.0
 40
10.900487
 50
316.93395400000003
 51
354.20018799999991
  0
LINE
  5
118
  8
0
 62
     7
 10
92.763099999999994
 20
109.6579999999999
 30
0.0
 11
69.832400000000007
 21
109.6579999999999
 31
0.0
  0
ARC
  5
119
  8
0
 62
     7
 10
46.856448999999991
 20
115.9497079999999
 30
0.0
 40
6.2921370000000003
 50
221.9177029999999
 51
270.41792099999992
  0
ARC
  5
11A
  8
0
 62
     7
 10
50.144421000000001
 20
119.1932809999999
 30
0.0
 40
10.90780199999999
 50
185.81606699999989
 51
223.057571
  0
LINE
  5
11B
  8
0
 62
     7
 10
34.276699999999991
 20
131.797
 30
0.0
 11
34.181199999999997
 21
128.42299999999989
 31
0.0
  0
LINE
  5
11C
  8
0
 62
     7
 10
104.274
 20
128.6579999999999
 30
0.0
 11
35.391500000000001
 21
128.6579999999999
 31
0.0
  0
LINE
  5
11D
  8
0
 62
     7
 10
66.362399999999994
 20
107.6579999999999
 30
0.0
 11
73.302999999999997
 21
107.6579999999999
 31
0.0
  0
LINE
  5
11E
  8
0
 62
     7
 10
46.90229999999999
 20
109.6579999999999
 30
0.0
 11
69.832400000000007
 21
109.6579999999999
 31
0.0
  0
LINE
  5
11F
  8
0
 62
     7
 10
33.332399999999993
 20
248.34999999999991
 30
0.0
 11
106.333
 21
248.34999999999991
 31
0.0
  0
LINE
  5
120
  8
0
 62
     7
 10
32.332299999999989
 20
247.34999999999999
 30
0.0
 11
32.332299999999989
 21
192.34999999999991
 31
0.0
  0
ARC
  5
121
  8
0
 62
     7
 10
33.371034999999999
 20
247.31163900000001
 30
0.0
 40
1.0394879999999991
 50
92.131615999999994
 51
177.88808700000001
  0
LINE
  5
122
  8
0
 62
     7
 10
107.33199999999999
 20
247.34999999999999
 30
0.0
 11
107.33199999999999
 21
192.34999999999991
 31
0.0
  0
ARC
  5
123
  8
0
 62
     7
 10
106.2931939999999
 20
247.31135800000001
 30
0.0
 40
1.039806
 50
2.1267580000000001
 51
87.814012000000005
  0
LINE
  5
124
  8
0
 62
     7
 10
34.331800000000001
 20
190.34999999999999
 30
0.0
 11
105.333
 21
190.34999999999999
 31
0.0
  0
ARC
  5
125
  8
0
 62
     7
 10
105.25543999999999
 20
192.42643699999999
 30
0.0
 40
2.0782560000000001
 50
272.13154300000002
 51
357.88820800000002
  0
ARC
  5
126
  8
0
 62
     7
 10
34.332143000000002
 20
192.34950900000001
 30
0.0
 40
1.9998899999999999
 50
179.99010000000001
 51
269.99015000000003
  0
LINE
  5
127
  8
0
 62
     7
 10
34.555
 20
168.75499999999991
 30
0.0
 11
32.3309
 21
168.16300000000001
 31
0.0
  0
LINE
  5
128
  8
0
 62
     7
 10
32.3309
 20
168.16300000000001
 30
0.0
 11
34.555
 21
167.571
 31
0.0
  0
LINE
  5
129
  8
0
 62
     7
 10
34.555
 20
167.571
 30
0.0
 11
34.555
 21
168.75499999999991
 31
0.0
  0
LINE
  5
12A
  8
0
 62
     7
 10
105.1089999999999
 20
167.58799999999999
 30
0.0
 11
107.333
 21
168.18000000000001
 31
0.0
  0
LINE
  5
12B
  8
0
 62
     7
 10
107.333
 20
168.18000000000001
 30
0.0
 11
105.1089999999999
 21
168.77299999999991
 31
0.0
  0
LINE
  5
12C
  8
0
 62
     7
 10
105.1089999999999
 20
168.77299999999991
 30
0.0
 11
105.1089999999999
 21
167.58799999999999
 31
0.0
  0
LINE
  5
12D
  8
0
 62
     7
 10
32.332299999999989
 20
168.172
 30
0.0
 11
107.33199999999999
 21
168.172
 31
0.0
  0
LINE
  5
12E
  8
0
 62
     7
 10
32.332299999999989
 20
189.40999999999991
 30
0.0
 11
32.332299999999989
 21
167.33199999999991
 31
0.0
  0
LINE
  5
12F
  8
0
 62
     7
 10
40.332500000000003
 20
197.51400000000001
 30
0.0
 11
40.332500000000003
 21
177.6999999999999
 31
0.0
  0
LINE
  5
130
  8
0
 62
     7
 10
107.33199999999999
 20
189.40999999999991
 30
0.0
 11
107.33199999999999
 21
167.33199999999991
 31
0.0
  0
LINE
  5
131
  8
0
 62
     7
 10
99.333100000000002
 20
197.60900000000001
 30
0.0
 11
99.333100000000002
 21
177.6999999999999
 31
0.0
  0
LINE
  5
132
  8
0
 62
     7
 10
42.556699999999999
 20
179.1329999999999
 30
0.0
 11
40.332500000000003
 21
178.53999999999991
 31
0.0
  0
LINE
  5
133
  8
0
 62
     7
 10
40.332500000000003
 20
178.53999999999991
 30
0.0
 11
42.556699999999999
 21
177.94799999999989
 31
0.0
  0
LINE
  5
134
  8
0
 62
     7
 10
42.556699999999999
 20
177.94799999999989
 30
0.0
 11
42.556699999999999
 21
179.1329999999999
 31
0.0
  0
LINE
  5
135
  8
0
 62
     7
 10
38.108199999999989
 20
177.94799999999989
 30
0.0
 11
40.332500000000003
 21
178.53999999999991
 31
0.0
  0
LINE
  5
136
  8
0
 62
     7
 10
40.332500000000003
 20
178.53999999999991
 30
0.0
 11
38.108199999999989
 21
179.1329999999999
 31
0.0
  0
LINE
  5
137
  8
0
 62
     7
 10
38.108199999999989
 20
179.1329999999999
 30
0.0
 11
38.108199999999989
 21
177.94799999999989
 31
0.0
  0
LINE
  5
138
  8
0
 62
     7
 10
101.557
 20
179.1329999999999
 30
0.0
 11
99.333100000000002
 21
178.53999999999991
 31
0.0
  0
LINE
  5
139
  8
0
 62
     7
 10
99.333100000000002
 20
178.53999999999991
 30
0.0
 11
101.557
 21
177.94799999999989
 31
0.0
  0
LINE
  5
13A
  8
0
 62
     7
 10
101.557
 20
177.94799999999989
 30
0.0
 11
101.557
 21
179.1329999999999
 31
0.0
  0
LINE
  5
13B
  8
0
 62
     7
 10
34.555599999999998
 20
179.124
 30
0.0
 11
32.331400000000002
 21
178.53099999999989
 31
0.0
  0
LINE
  5
13C
  8
0
 62
     7
 10
32.331400000000002
 20
178.53099999999989
 30
0.0
 11
34.555599999999998
 21
177.93899999999999
 31
0.0
  0
LINE
  5
13D
  8
0
 62
     7
 10
34.555599999999998
 20
177.93899999999999
 30
0.0
 11
34.555599999999998
 21
179.124
 31
0.0
  0
LINE
  5
13E
  8
0
 62
     7
 10
97.108900000000006
 20
177.94799999999989
 30
0.0
 11
99.333100000000002
 21
178.53999999999991
 31
0.0
  0
LINE
  5
13F
  8
0
 62
     7
 10
99.333100000000002
 20
178.53999999999991
 30
0.0
 11
97.108900000000006
 21
179.1329999999999
 31
0.0
  0
LINE
  5
140
  8
0
 62
     7
 10
97.108900000000006
 20
179.1329999999999
 30
0.0
 11
97.108900000000006
 21
177.94799999999989
 31
0.0
  0
LINE
  5
141
  8
0
 62
     7
 10
105.1099999999999
 20
177.95599999999999
 30
0.0
 11
107.3339999999999
 21
178.54900000000001
 31
0.0
  0
LINE
  5
142
  8
0
 62
     7
 10
107.3339999999999
 20
178.54900000000001
 30
0.0
 11
105.1099999999999
 21
179.14099999999991
 31
0.0
  0
LINE
  5
143
  8
0
 62
     7
 10
105.1099999999999
 20
179.14099999999991
 30
0.0
 11
105.1099999999999
 21
177.95599999999999
 31
0.0
  0
LINE
  5
144
  8
0
 62
     7
 10
32.3324
 20
178.53999999999991
 30
0.0
 11
107.33199999999999
 21
178.53999999999991
 31
0.0
  0
LINE
  5
145
  8
0
 62
     7
 10
131.1279999999999
 20
192.559
 30
0.0
 11
131.7239999999999
 21
190.3479999999999
 31
0.0
  0
LINE
  5
146
  8
0
 62
     7
 10
131.7239999999999
 20
190.3479999999999
 30
0.0
 11
132.31999999999991
 21
192.559
 31
0.0
  0
LINE
  5
147
  8
0
 62
     7
 10
132.31999999999991
 20
192.559
 30
0.0
 11
131.1279999999999
 21
192.559
 31
0.0
  0
LINE
  5
148
  8
0
 62
     7
 10
132.30299999999991
 20
246.1399999999999
 30
0.0
 11
131.70699999999991
 21
248.35099999999991
 31
0.0
  0
LINE
  5
149
  8
0
 62
     7
 10
131.70699999999991
 20
248.35099999999991
 30
0.0
 11
131.1109999999999
 21
246.1399999999999
 31
0.0
  0
LINE
  5
14A
  8
0
 62
     7
 10
131.1109999999999
 20
246.1399999999999
 30
0.0
 11
132.30299999999991
 21
246.1399999999999
 31
0.0
  0
LINE
  5
14B
  8
0
 62
     7
 10
131.71600000000001
 20
190.34999999999999
 30
0.0
 11
131.71600000000001
 21
248.34999999999991
 31
0.0
  0
LINE
  5
14C
  8
0
 62
     7
 10
108.372
 20
190.34999999999999
 30
0.0
 11
132.55600000000001
 21
190.34999999999999
 31
0.0
  0
LINE
  5
14D
  8
0
 62
     7
 10
100.2679999999999
 20
198.34999999999999
 30
0.0
 11
123.791
 21
198.34999999999999
 31
0.0
  0
LINE
  5
14E
  8
0
 62
     7
 10
105.98099999999999
 20
244.851
 30
0.0
 11
116.11
 21
244.851
 31
0.0
  0
LINE
  5
14F
  8
0
 62
     7
 10
108.02200000000001
 20
248.34999999999991
 30
0.0
 11
132.55600000000001
 21
248.34999999999991
 31
0.0
  0
LINE
  5
150
  8
0
 62
     7
 10
98.713600000000014
 20
233.34999999999991
 30
0.0
 11
123.791
 21
233.34999999999991
 31
0.0
  0
LINE
  5
151
  8
0
  6
AIGENLINE002
 62
     7
 10
55.832299999999996
 20
251.54400000000001
 30
0.0
 11
55.832299999999996
 21
243.35599999999991
 31
0.0
  0
LINE
  5
152
  8
0
  6
AIGENLINE002
 62
     7
 10
83.832300000000004
 20
251.54400000000001
 30
0.0
 11
83.832300000000004
 21
243.35599999999991
 31
0.0
  0
LINE
  5
153
  8
0
 62
     7
 10
114.81399999999989
 20
250.56099999999989
 30
0.0
 11
115.4099999999999
 21
248.34999999999991
 31
0.0
  0
LINE
  5
154
  8
0
 62
     7
 10
115.4099999999999
 20
248.34999999999991
 30
0.0
 11
116.005
 21
250.56099999999989
 31
0.0
  0
LINE
  5
155
  8
0
 62
     7
 10
116.005
 20
250.56099999999989
 30
0.0
 11
114.81399999999989
 21
250.56099999999989
 31
0.0
  0
LINE
  5
156
  8
0
 62
     7
 10
115.4099999999999
 20
254.3479999999999
 30
0.0
 11
115.4099999999999
 21
233.09999999999991
 31
0.0
  0
LINE
  5
157
  8
0
 62
     7
 10
83.350800000000007
 20
239.84999999999991
 30
0.0
 11
116.25
 21
239.84999999999991
 31
0.0
  0
LINE
  5
158
  8
0
 62
     7
 10
57.005000000000003
 20
252.67699999999999
 30
0.0
 11
50.684399999999989
 21
252.67699999999999
 31
0.0
  0
LINE
  5
159
  8
0
 62
     7
 10
73.063999999999993
 20
237.46799999999999
 30
0.0
 11
71.069800000000001
 21
238.613
 31
0.0
  0
LINE
  5
15A
  8
0
 62
     7
 10
71.069800000000001
 20
238.613
 30
0.0
 11
72.221000000000004
 21
236.63099999999989
 31
0.0
  0
LINE
  5
15B
  8
0
 62
     7
 10
72.221000000000004
 20
236.63099999999989
 30
0.0
 11
73.063999999999993
 21
237.46799999999999
 31
0.0
  0
LINE
  5
15C
  8
0
 62
     7
 10
66.601200000000006
 20
242.232
 30
0.0
 11
68.595200000000006
 21
241.08799999999999
 31
0.0
  0
LINE
  5
15D
  8
0
 62
     7
 10
68.595200000000006
 20
241.08799999999999
 30
0.0
 11
67.443899999999999
 21
243.06999999999991
 31
0.0
  0
LINE
  5
15E
  8
0
 62
     7
 10
67.443899999999999
 20
243.06999999999991
 30
0.0
 11
66.601200000000006
 21
242.232
 31
0.0
  0
LINE
  5
15F
  8
0
 62
     7
 10
57.005000000000003
 20
252.67699999999999
 30
0.0
 11
74.052599999999998
 21
235.63
 31
0.0
  0
LINE
  5
160
  8
0
 62
     7
 10
82.938799999999986
 20
218.28399999999999
 30
0.0
 11
76.898499999999984
 21
218.28399999999999
 31
0.0
  0
LINE
  5
161
  8
0
 62
     7
 10
73.453199999999995
 20
222.57899999999989
 30
0.0
 11
71.459100000000007
 21
223.72399999999999
 31
0.0
  0
LINE
  5
162
  8
0
 62
     7
 10
71.459100000000007
 20
223.72399999999999
 30
0.0
 11
72.610699999999994
 21
221.74100000000001
 31
0.0
  0
LINE
  5
163
  8
0
 62
     7
 10
72.610699999999994
 20
221.74100000000001
 30
0.0
 11
73.453199999999995
 21
222.57899999999989
 31
0.0
  0
LINE
  5
164
  8
0
 62
     7
 10
66.212199999999996
 20
228.1209999999999
 30
0.0
 11
68.206299999999999
 21
226.976
 31
0.0
  0
LINE
  5
165
  8
0
 62
     7
 10
68.206299999999999
 20
226.976
 30
0.0
 11
67.054900000000004
 21
228.95799999999991
 31
0.0
  0
LINE
  5
166
  8
0
 62
     7
 10
67.054900000000004
 20
228.95799999999991
 30
0.0
 11
66.212199999999996
 21
228.1209999999999
 31
0.0
  0
LINE
  5
167
  8
0
 62
     7
 10
65.160799999999995
 20
230.0209999999999
 30
0.0
 11
76.898499999999984
 21
218.28399999999999
 31
0.0
  0
LINE
  5
168
  8
0
 62
     7
 10
27.961300000000001
 20
227.559
 30
0.0
 11
28.557099999999998
 21
225.34899999999999
 31
0.0
  0
LINE
  5
169
  8
0
 62
     7
 10
28.557099999999998
 20
225.34899999999999
 30
0.0
 11
29.152899999999999
 21
227.559
 31
0.0
  0
LINE
  5
16A
  8
0
 62
     7
 10
29.152899999999999
 20
227.559
 30
0.0
 11
27.961300000000001
 21
227.559
 31
0.0
  0
LINE
  5
16B
  8
0
 62
     7
 10
29.135899999999999
 20
246.14099999999991
 30
0.0
 11
28.539999999999999
 21
248.35199999999989
 31
0.0
  0
LINE
  5
16C
  8
0
 62
     7
 10
28.539999999999999
 20
248.35199999999989
 30
0.0
 11
27.944199999999999
 21
246.14099999999991
 31
0.0
  0
LINE
  5
16D
  8
0
 62
     7
 10
27.944199999999999
 20
246.14099999999991
 30
0.0
 11
29.135899999999999
 21
246.14099999999991
 31
0.0
  0
LINE
  5
16E
  8
0
 62
     7
 10
28.548500000000001
 20
225.34999999999991
 30
0.0
 11
28.548500000000001
 21
248.34999999999991
 31
0.0
  0
LINE
  5
16F
  8
0
 62
     7
 10
31.367799999999988
 20
248.34999999999991
 30
0.0
 11
27.856999999999999
 21
248.34999999999991
 31
0.0
  0
LINE
  5
170
  8
0
 62
     7
 10
63.657200000000003
 20
225.34999999999991
 30
0.0
 11
27.856999999999999
 21
225.34999999999991
 31
0.0
  0
LINE
  5
171
  8
0
 62
     7
 10
72.0565
 20
261.30399999999997
 30
0.0
 11
69.832400000000007
 21
260.71199999999999
 31
0.0
  0
LINE
  5
172
  8
0
 62
     7
 10
69.832400000000007
 20
260.71199999999999
 30
0.0
 11
72.0565
 21
260.11900000000003
 31
0.0
  0
LINE
  5
173
  8
0
 62
     7
 10
72.0565
 20
260.11900000000003
 30
0.0
 11
72.0565
 21
261.30399999999997
 31
0.0
  0
LINE
  5
174
  8
0
 62
     7
 10
62.055
 20
261.29599999999999
 30
0.0
 11
59.830800000000011
 21
260.70400000000001
 31
0.0
  0
LINE
  5
175
  8
0
 62
     7
 10
59.830800000000011
 20
260.70400000000001
 30
0.0
 11
62.055
 21
260.11099999999988
 31
0.0
  0
LINE
  5
176
  8
0
 62
     7
 10
62.055
 20
260.11099999999988
 30
0.0
 11
62.055
 21
261.29599999999999
 31
0.0
  0
LINE
  5
177
  8
0
 62
     7
 10
67.608199999999997
 20
260.11999999999989
 30
0.0
 11
69.832400000000007
 21
260.71199999999999
 31
0.0
  0
LINE
  5
178
  8
0
 62
     7
 10
69.832400000000007
 20
260.71199999999999
 30
0.0
 11
67.608199999999997
 21
261.30500000000001
 31
0.0
  0
LINE
  5
179
  8
0
 62
     7
 10
67.608199999999997
 20
261.30500000000001
 30
0.0
 11
67.608199999999997
 21
260.11999999999989
 31
0.0
  0
LINE
  5
17A
  8
0
 62
     7
 10
77.609399999999994
 20
260.12799999999999
 30
0.0
 11
79.833500000000001
 21
260.721
 31
0.0
  0
LINE
  5
17B
  8
0
 62
     7
 10
79.833500000000001
 20
260.721
 30
0.0
 11
77.609399999999994
 21
261.31299999999987
 31
0.0
  0
LINE
  5
17C
  8
0
 62
     7
 10
77.609399999999994
 20
261.31299999999987
 30
0.0
 11
77.609399999999994
 21
260.12799999999999
 31
0.0
  0
LINE
  5
17D
  8
0
 62
     7
 10
59.832599999999999
 20
260.71199999999999
 30
0.0
 11
79.8322
 21
260.71199999999999
 31
0.0
  0
LINE
  5
17E
  8
0
 62
     7
 10
69.832400000000007
 20
252.38399999999999
 30
0.0
 11
69.832400000000007
 21
261.55200000000002
 31
0.0
  0
LINE
  5
17F
  8
0
 62
     7
 10
79.8322
 20
243.48500000000001
 30
0.0
 11
79.8322
 21
261.55200000000002
 31
0.0
  0
LINE
  5
180
  8
0
  6
AIGENLINE002
 62
     7
 10
82.5107
 20
239.84999999999991
 30
0.0
 11
77.033500000000004
 21
239.84999999999991
 31
0.0
  0
LINE
  5
181
  8
0
  6
AIGENLINE002
 62
     7
 10
79.8322
 20
242.6449999999999
 30
0.0
 11
79.8322
 21
236.83199999999999
 31
0.0
  0
ARC
  5
182
  8
0
  6
AIGENLINE001
 62
     7
 10
79.774743000000001
 20
239.79285400000001
 30
0.0
 40
1.558821
 50
2.1171599999999988
 51
87.889407999999975
  0
ARC
  5
183
  8
0
  6
AIGENLINE001
 62
     7
 10
79.890124
 20
239.79264900000001
 30
0.0
 40
1.5590479999999991
 50
92.130990999999995
 51
177.87555900000001
  0
ARC
  5
184
  8
0
  6
AIGENLINE001
 62
     7
 10
79.889874000000006
 20
239.907985
 30
0.0
 40
1.558787999999999
 50
182.11557099999999
 51
267.87787899999989
  0
ARC
  5
185
  8
0
  6
AIGENLINE001
 62
     7
 10
79.774193999999994
 20
239.90857899999989
 30
0.0
 40
1.5593909999999991
 50
272.13002399999999
 51
357.863407
  0
LINE
  5
186
  8
0
 62
     7
 10
59.832599999999999
 20
243.48500000000001
 30
0.0
 11
59.832599999999999
 21
261.55200000000002
 31
0.0
  0
LINE
  5
187
  8
0
  6
AIGENLINE002
 62
     7
 10
72.510800000000003
 20
239.84999999999991
 30
0.0
 11
67.032899999999984
 21
239.84999999999991
 31
0.0
  0
LINE
  5
188
  8
0
  6
AIGENLINE002
 62
     7
 10
62.511099999999999
 20
239.84999999999991
 30
0.0
 11
57.033099999999997
 21
239.84999999999991
 31
0.0
  0
LINE
  5
189
  8
0
  6
AIGENLINE002
 62
     7
 10
59.832599999999999
 20
242.6449999999999
 30
0.0
 11
59.832599999999999
 21
236.83199999999999
 31
0.0
  0
ARC
  5
18A
  8
0
  6
AIGENLINE001
 62
     7
 10
59.774814999999997
 20
239.79287899999991
 30
0.0
 40
1.5588089999999999
 50
2.1162809999999999
 51
87.877130000000008
  0
ARC
  5
18B
  8
0
  6
AIGENLINE001
 62
     7
 10
59.890515000000001
 20
239.79248399999989
 30
0.0
 40
1.5592109999999999
 50
92.130224999999996
 51
177.86974599999999
  0
ARC
  5
18C
  8
0
  6
AIGENLINE001
 62
     7
 10
59.832556999999987
 20
239.85044199999999
 30
0.0
 40
1.5001759999999991
 50
179.99996999999991
 51
270.00002000000001
  0
ARC
  5
18D
  8
0
  6
AIGENLINE001
 62
     7
 10
59.774590000000003
 20
239.90822999999989
 30
0.0
 40
1.5590429999999991
 50
272.13082900000001
 51
357.87576100000001
  0
LINE
  5
18E
  8
0
  6
AIGENLINE002
 62
     7
 10
64.497200000000007
 20
225.34999999999991
 30
0.0
 11
74.969200000000001
 21
225.34999999999991
 31
0.0
  0
ARC
  5
18F
  8
0
 62
     7
 10
104.5021849999999
 20
193.180407
 30
0.0
 40
0.8311159999999999
 50
272.10973699999988
 51
357.89027299999992
  0
ARC
  5
190
  8
0
 62
     7
 10
35.162362999999999
 20
193.180431
 30
0.0
 40
0.831128
 50
182.11137899999991
 51
267.91332099999988
  0
ARC
  5
191
  8
0
 62
     7
 10
105.8590429999999
 20
247.8774249999999
 30
0.0
 40
0.474124
 50
2.078231999999999
 51
88.029720999999995
  0
ARC
  5
192
  8
0
 62
     7
 10
105.87835699999999
 20
247.60013699999999
 30
0.0
 40
0.751138
 50
90.229815000000002
 51
92.753646000000003
  0
ARC
  5
193
  8
0
 62
     7
 10
104.29401
 20
245.88908199999989
 30
0.0
 40
1.039458999999999
 50
272.12874399999993
 51
357.85152499999992
  0
ARC
  5
194
  8
0
 62
     7
 10
104.293998
 20
247.13880399999991
 30
0.0
 40
1.039464999999999
 50
272.12940299999991
 51
357.86073699999997
  0
ARC
  5
195
  8
0
 62
     7
 10
96.832599999999999
 20
230.850245
 30
0.0
 40
2.4999500000000001
 50
359.99606199999999
 51
89.996032000000014
  0
ARC
  5
196
  8
0
 62
     7
 10
69.832611999999997
 20
225.34968399999991
 30
0.0
 40
3.4999809999999991
 50
0.00424
 51
90.004210000000015
  0
ARC
  5
197
  8
0
 62
     7
 10
69.832441000000003
 20
225.35002900000001
 30
0.0
 40
3.4996369999999999
 50
90.001410000000007
 51
180.00141999999991
  0
ARC
  5
198
  8
0
 62
     7
 10
69.832526000000001
 20
225.34977099999989
 30
0.0
 40
3.4997220000000002
 50
179.99715
 51
269.99720000000002
  0
ARC
  5
199
  8
0
 62
     7
 10
69.832526000000001
 20
225.35011600000001
 30
0.0
 40
3.500067
 50
269.99720000000002
 51
359.99716999999998
  0
ARC
  5
19A
  8
0
 62
     7
 10
33.80574699999999
 20
247.87548100000001
 30
0.0
 40
0.4752200000000001
 50
87.987112999999994
 51
173.69239899999999
  0
ARC
  5
19B
  8
0
 62
     7
 10
33.810597999999999
 20
247.89465399999989
 30
0.0
 40
0.478336
 50
176.03954899999999
 51
181.221732
  0
ARC
  5
19C
  8
0
 62
     7
 10
35.369832000000002
 20
245.8883999999999
 30
0.0
 40
1.038738999999999
 50
182.112313
 51
267.92718999999988
  0
ARC
  5
19D
  8
0
 62
     7
 10
35.370005999999989
 20
247.13828399999991
 30
0.0
 40
1.0389129999999991
 50
182.11170899999999
 51
267.91792400000003
  0
ARC
  5
19E
  8
0
 62
     7
 10
42.832627000000002
 20
230.85007300000001
 30
0.0
 40
2.5001220000000002
 50
90.0
 51
179.99996999999991
  0
LINE
  5
19F
  8
0
 62
     7
 10
104.333
 20
246.09999999999991
 30
0.0
 11
35.332299999999989
 21
246.09999999999991
 31
0.0
  0
LINE
  5
1A0
  8
0
 62
     7
 10
104.333
 20
244.84999999999999
 30
0.0
 11
35.332299999999989
 21
244.84999999999999
 31
0.0
  0
LINE
  5
1A1
  8
0
 62
     7
 10
96.832800000000006
 20
233.34999999999991
 30
0.0
 11
42.832599999999999
 21
233.34999999999991
 31
0.0
  0
ARC
  5
1A2
  8
0
 62
     7
 10
105.33273800000001
 20
192.34985399999991
 30
0.0
 40
1.0001180000000001
 50
270.00002000000001
 51
359.99998999999991
  0
ARC
  5
1A3
  8
0
 62
     7
 10
34.332144
 20
192.34950900000001
 30
0.0
 40
0.9997729999999998
 50
179.98022700000001
 51
269.980276
  0
LINE
  5
1A4
  8
0
 62
     7
 10
35.132100000000001
 20
192.34999999999991
 30
0.0
 11
104.5329999999999
 21
192.34999999999991
 31
0.0
  0
LINE
  5
1A5
  8
0
 62
     7
 10
34.331800000000001
 20
191.34999999999991
 30
0.0
 11
105.333
 21
191.34999999999991
 31
0.0
  0
LINE
  5
1A6
  8
0
 62
     7
 10
34.331800000000001
 20
248.34999999999991
 30
0.0
 11
34.331800000000001
 21
193.14999999999989
 31
0.0
  0
LINE
  5
1A7
  8
0
 62
     7
 10
33.332399999999993
 20
247.88399999999999
 30
0.0
 11
33.332399999999993
 21
192.34999999999991
 31
0.0
  0
LINE
  5
1A8
  8
0
 62
     7
 10
105.333
 20
193.14999999999989
 30
0.0
 11
105.333
 21
248.34999999999991
 31
0.0
  0
LINE
  5
1A9
  8
0
 62
     7
 10
106.333
 20
192.34999999999991
 30
0.0
 11
106.333
 21
247.88399999999999
 31
0.0
  0
LINE
  5
1AA
  8
0
 62
     7
 10
99.33250000000001
 20
200.84999999999999
 30
0.0
 11
99.33250000000001
 21
244.84999999999999
 31
0.0
  0
LINE
  5
1AB
  8
0
 62
     7
 10
40.332500000000003
 20
244.84999999999999
 30
0.0
 11
40.332500000000003
 21
200.84999999999999
 31
0.0
  0
LINE
  5
1AC
  8
0
  6
AIGENLINE002
 62
     7
 10
69.832400000000007
 20
251.54400000000001
 30
0.0
 11
69.832400000000007
 21
187.715
 31
0.0
  0
ARC
  5
1AD
  8
0
 62
     7
 10
69.744543999999991
 20
225.261775
 30
0.0
 40
2.389742
 50
2.1143740000000002
 51
87.894198000000003
  0
ARC
  5
1AE
  8
0
 62
     7
 10
69.832268999999997
 20
225.34985699999999
 30
0.0
 40
2.3000470000000002
 50
89.997854000000004
 51
179.99782500000001
  0
ARC
  5
1AF
  8
0
 62
     7
 10
69.832267999999999
 20
225.35002900000001
 30
0.0
 40
2.300046
 50
180.0021549999999
 51
270.00216499999999
  0
ARC
  5
1B0
  8
0
 62
     7
 10
69.743818000000005
 20
225.43883799999989
 30
0.0
 40
2.390495
 50
272.12256500000001
 51
357.86886399999997
  0
ARC
  5
1B1
  8
0
 62
     7
 10
69.764969999999991
 20
239.78323700000001
 30
0.0
 40
1.8182290000000001
 50
2.1182470000000002
 51
87.876102000000003
  0
ARC
  5
1B2
  8
0
 62
     7
 10
69.899965000000009
 20
239.7828319999999
 30
0.0
 40
1.818641999999999
 50
92.130509000000004
 51
177.869461
  0
ARC
  5
1B3
  8
0
 62
     7
 10
69.899900000000002
 20
239.91762999999989
 30
0.0
 40
1.8185619999999989
 50
182.117324
 51
267.87142599999999
  0
ARC
  5
1B4
  8
0
 62
     7
 10
69.764731000000012
 20
239.917529
 30
0.0
 40
1.818463999999999
 50
272.13115899999991
 51
357.88577099999992
  0
ARC
  5
1B5
  8
0
 62
     7
 10
96.832599999999999
 20
200.84981999999999
 30
0.0
 40
2.4999500000000001
 50
270.00396799999999
 51
0.003938
  0
ARC
  5
1B6
  8
0
 62
     7
 10
42.832625999999991
 20
200.8499919999999
 30
0.0
 40
2.500121
 50
179.99996999999991
 51
270.00002000000001
  0
LINE
  5
1B7
  8
0
 62
     7
 10
42.832599999999999
 20
198.34999999999999
 30
0.0
 11
96.832800000000006
 21
198.34999999999999
 31
0.0
  0
LINE
  5
1B8
  8
0
 62
     7
 10
122.355
 20
200.56099999999989
 30
0.0
 11
122.95099999999999
 21
198.34999999999999
 31
0.0
  0
LINE
  5
1B9
  8
0
 62
     7
 10
122.95099999999999
 20
198.34999999999999
 30
0.0
 11
123.547
 21
200.56099999999989
 31
0.0
  0
LINE
  5
1BA
  8
0
 62
     7
 10
123.547
 20
200.56099999999989
 30
0.0
 11
122.355
 21
200.56099999999989
 31
0.0
  0
LINE
  5
1BB
  8
0
 62
     7
 10
123.547
 20
196.13900000000001
 30
0.0
 11
122.95099999999999
 21
198.34999999999999
 31
0.0
  0
LINE
  5
1BC
  8
0
 62
     7
 10
122.95099999999999
 20
198.34999999999999
 30
0.0
 11
122.355
 21
196.13900000000001
 31
0.0
  0
LINE
  5
1BD
  8
0
 62
     7
 10
122.355
 20
196.13900000000001
 30
0.0
 11
123.547
 21
196.13900000000001
 31
0.0
  0
LINE
  5
1BE
  8
0
 62
     7
 10
114.81399999999989
 20
247.06099999999989
 30
0.0
 11
115.4099999999999
 21
244.84999999999999
 31
0.0
  0
LINE
  5
1BF
  8
0
 62
     7
 10
115.4099999999999
 20
244.84999999999999
 30
0.0
 11
116.006
 21
247.06099999999989
 31
0.0
  0
LINE
  5
1C0
  8
0
 62
     7
 10
116.006
 20
247.06099999999989
 30
0.0
 11
114.81399999999989
 21
247.06099999999989
 31
0.0
  0
LINE
  5
1C1
  8
0
 62
     7
 10
116.006
 20
242.63900000000001
 30
0.0
 11
115.4099999999999
 21
244.84999999999999
 31
0.0
  0
LINE
  5
1C2
  8
0
 62
     7
 10
115.4099999999999
 20
244.84999999999999
 30
0.0
 11
114.81399999999989
 21
242.63900000000001
 31
0.0
  0
LINE
  5
1C3
  8
0
 62
     7
 10
114.81399999999989
 20
242.63900000000001
 30
0.0
 11
116.006
 21
242.63900000000001
 31
0.0
  0
LINE
  5
1C4
  8
0
 62
     7
 10
114.81399999999989
 20
235.56099999999989
 30
0.0
 11
115.4099999999999
 21
233.34999999999991
 31
0.0
  0
LINE
  5
1C5
  8
0
 62
     7
 10
115.4099999999999
 20
233.34999999999991
 30
0.0
 11
116.006
 21
235.56099999999989
 31
0.0
  0
LINE
  5
1C6
  8
0
 62
     7
 10
116.006
 20
235.56099999999989
 30
0.0
 11
114.81399999999989
 21
235.56099999999989
 31
0.0
  0
LINE
  5
1C7
  8
0
 62
     7
 10
114.81399999999989
 20
242.31099999999989
 30
0.0
 11
115.4099999999999
 21
240.09999999999991
 31
0.0
  0
LINE
  5
1C8
  8
0
 62
     7
 10
115.4099999999999
 20
240.09999999999991
 30
0.0
 11
116.006
 21
242.31099999999989
 31
0.0
  0
LINE
  5
1C9
  8
0
 62
     7
 10
116.006
 20
242.31099999999989
 30
0.0
 11
114.81399999999989
 21
242.31099999999989
 31
0.0
  0
LINE
  5
1CA
  8
0
 62
     7
 10
116.006
 20
237.88900000000001
 30
0.0
 11
115.4099999999999
 21
240.09999999999991
 31
0.0
  0
LINE
  5
1CB
  8
0
 62
     7
 10
115.4099999999999
 20
240.09999999999991
 30
0.0
 11
114.81399999999989
 21
237.88900000000001
 31
0.0
  0
LINE
  5
1CC
  8
0
 62
     7
 10
114.81399999999989
 20
237.88900000000001
 30
0.0
 11
116.006
 21
237.88900000000001
 31
0.0
  0
LINE
  5
1CD
  8
0
 62
     7
 10
122.355
 20
235.56099999999989
 30
0.0
 11
122.95099999999999
 21
233.34999999999991
 31
0.0
  0
LINE
  5
1CE
  8
0
 62
     7
 10
122.95099999999999
 20
233.34999999999991
 30
0.0
 11
123.547
 21
235.56099999999989
 31
0.0
  0
LINE
  5
1CF
  8
0
 62
     7
 10
123.547
 20
235.56099999999989
 30
0.0
 11
122.355
 21
235.56099999999989
 31
0.0
  0
LINE
  5
1D0
  8
0
 62
     7
 10
122.3639999999999
 20
192.56
 30
0.0
 11
122.95999999999999
 21
190.34899999999999
 31
0.0
  0
LINE
  5
1D1
  8
0
 62
     7
 10
122.95999999999999
 20
190.34899999999999
 30
0.0
 11
123.5559999999999
 21
192.56
 31
0.0
  0
LINE
  5
1D2
  8
0
 62
     7
 10
123.5559999999999
 20
192.56
 30
0.0
 11
122.3639999999999
 21
192.56
 31
0.0
  0
LINE
  5
1D3
  8
0
 62
     7
 10
123.547
 20
231.13900000000001
 30
0.0
 11
122.95099999999999
 21
233.34999999999991
 31
0.0
  0
LINE
  5
1D4
  8
0
 62
     7
 10
122.95099999999999
 20
233.34999999999991
 30
0.0
 11
122.355
 21
231.13900000000001
 31
0.0
  0
LINE
  5
1D5
  8
0
 62
     7
 10
122.355
 20
231.13900000000001
 30
0.0
 11
123.547
 21
231.13900000000001
 31
0.0
  0
LINE
  5
1D6
  8
0
 62
     7
 10
123.5379999999999
 20
246.14099999999991
 30
0.0
 11
122.94199999999999
 21
248.35199999999989
 31
0.0
  0
LINE
  5
1D7
  8
0
 62
     7
 10
122.94199999999999
 20
248.35199999999989
 30
0.0
 11
122.3459999999999
 21
246.14099999999991
 31
0.0
  0
LINE
  5
1D8
  8
0
 62
     7
 10
122.3459999999999
 20
246.14099999999991
 30
0.0
 11
123.5379999999999
 21
246.14099999999991
 31
0.0
  0
LINE
  5
1D9
  8
0
 62
     7
 10
122.95099999999999
 20
190.34999999999999
 30
0.0
 11
122.95099999999999
 21
248.34999999999991
 31
0.0
  0
TEXT
  5
1DA
  8
_________2
 62
     7
 10
30.861000000000001
 20
68.627799999999993
 30
0.0
 40
4.2168199999999993
  1
※壁取付部には厚さ30mm以上の補強木を入れてください。
 41
0.5
  0
TEXT
  5
1DB
  8
_________2
 62
     7
 10
30.861000000000001
 20
63.356699999999996
 30
0.0
 40
4.2168199999999993
  1
※ペダスタルとの施工に当たっては、施工説明書をご参照ください。
 41
0.5
  0
TEXT
  5
1DC
  8
_________2
 62
     7
 10
29.525700000000001
 20
22.2272
 30
0.0
 40
3.9357000000000002
  1
実容量：12.9L、重量28.0kg、オーバーフロ－付
 41
0.5
  0
LINE
  5
1DD
  8
_________2
 62
     7
 10
105.2389999999999
 20
17.428499999999989
 30
0.0
 11
105.2389999999999
 21
0.4485540000000001
 31
0.0
  0
LINE
  5
1DE
  8
_________2
 62
     7
 10
81.679900000000004
 20
51.324300000000001
 30
0.0
 11
79.493700000000004
 21
51.324300000000001
 31
0.0
  0
LINE
  5
1DF
  8
_________2
 62
     7
 10
82.172600000000017
 20
51.324300000000001
 30
0.0
 11
81.920400000000001
 21
51.324300000000001
 31
0.0
  0
LINE
  5
1E0
  8
_________2
 62
     7
 10
82.665199999999984
 20
51.324300000000001
 30
0.0
 11
85.590100000000007
 21
51.324300000000001
 31
0.0
  0
LINE
  5
1E1
  8
_________2
 62
     7
 10
82.172600000000017
 20
51.324300000000001
 30
0.0
 11
82.424800000000005
 21
51.324300000000001
 31
0.0
  0
LINE
  5
1E2
  8
_________2
 62
     7
 10
75.776399999999995
 20
51.324300000000001
 30
0.0
 11
73.589399999999998
 21
51.324300000000001
 31
0.0
  0
LINE
  5
1E3
  8
_________2
 62
     7
 10
76.2684
 20
51.324300000000001
 30
0.0
 11
76.016900000000007
 21
51.324300000000001
 31
0.0
  0
LINE
  5
1E4
  8
_________2
 62
     7
 10
76.2684
 20
51.817
 30
0.0
 11
76.2684
 21
54.003900000000002
 31
0.0
  0
LINE
  5
1E5
  8
_________2
 62
     7
 10
76.2684
 20
51.324300000000001
 30
0.0
 11
76.2684
 21
51.576900000000002
 31
0.0
  0
LINE
  5
1E6
  8
_________2
 62
     7
 10
76.76100000000001
 20
51.324300000000001
 30
0.0
 11
78.947999999999993
 21
51.324300000000001
 31
0.0
  0
LINE
  5
1E7
  8
_________2
 62
     7
 10
76.2684
 20
51.324300000000001
 30
0.0
 11
76.520499999999998
 21
51.324300000000001
 31
0.0
  0
LINE
  5
1E8
  8
_________2
 62
     7
 10
76.2684
 20
50.832399999999993
 30
0.0
 11
76.2684
 21
48.645699999999998
 31
0.0
  0
LINE
  5
1E9
  8
_________2
 62
     7
 10
76.2684
 20
51.324300000000001
 30
0.0
 11
76.2684
 21
51.072800000000001
 31
0.0
  0
LINE
  5
1EA
  8
_________2
 62
     7
 10
79.979399999999984
 20
50.104799999999997
 30
0.0
 11
85.157399999999996
 21
49.240000000000002
 31
0.0
  0
LINE
  5
1EB
  8
_________2
 62
     7
 10
79.979399999999984
 20
52.544199999999989
 30
0.0
 11
85.157399999999996
 21
53.409700000000001
 31
0.0
  0
LINE
  5
1EC
  8
_________2
 62
     7
 10
85.157399999999996
 20
49.240000000000002
 30
0.0
 11
85.157399999999996
 21
53.409700000000001
 31
0.0
  0
LINE
  5
1ED
  8
_________2
 62
     7
 10
79.979399999999984
 20
50.104799999999997
 30
0.0
 11
79.979399999999984
 21
52.544199999999989
 31
0.0
  0
ARC
  5
1EE
  8
_________2
 62
     7
 10
76.221766000000002
 20
51.277380999999998
 30
0.0
 40
1.267714
 50
2.1220840000000001
 51
87.894083999999992
  0
ARC
  5
1EF
  8
_________2
 62
     7
 10
76.315297000000001
 20
51.277734999999993
 30
0.0
 40
1.267374999999999
 50
92.122849999999985
 51
177.893304
  0
ARC
  5
1F0
  8
_________2
 62
     7
 10
76.315273000000005
 20
51.371245999999992
 30
0.0
 40
1.267363
 50
182.12181499999991
 51
267.87821400000001
  0
ARC
  5
1F1
  8
_________2
 62
     7
 10
76.221461000000005
 20
51.371928999999987
 30
0.0
 40
1.2680439999999991
 50
272.11916400000001
 51
357.84848499999993
  0
ARC
  5
1F2
  8
_________2
 62
     7
 10
76.187981999999991
 20
51.244312999999998
 30
0.0
 40
2.1668310000000002
 50
2.1161439999999989
 51
87.874379000000005
  0
ARC
  5
1F3
  8
_________2
 62
     7
 10
76.348411999999996
 20
51.245334999999997
 30
0.0
 40
2.1657980000000001
 50
92.118487999999999
 51
177.90988599999989
  0
ARC
  5
1F4
  8
_________2
 62
     7
 10
76.348354
 20
51.404327000000002
 30
0.0
 40
2.1657779999999991
 50
182.11700400000001
 51
267.88302499999992
  0
ARC
  5
1F5
  8
_________2
 62
     7
 10
76.188378999999983
 20
51.405009999999997
 30
0.0
 40
2.1664590000000001
 50
272.11546800000002
 51
357.86560400000002
  0
TEXT
  5
1F6
  8
_________2
 62
     7
 10
109.5439999999999
 20
23.199100000000001
 30
0.0
 40
3.0923400000000001
  1
図番
 41
0.5
  0
LINE
  5
1F7
  8
_________2
 62
     7
 10
108.4889999999999
 20
27.4283
 30
0.0
 11
188.49000000000001
 21
27.4283
 31
0.0
  0
TEXT
  5
1F8
  8
_________2
 62
     7
 10
109.5439999999999
 20
33.198900000000002
 30
0.0
 40
3.0923400000000001
  1
品番
 41
0.5
  0
TEXT
  5
1F9
  8
_________2
 62
     7
 10
109.5439999999999
 20
53.338000000000001
 30
0.0
 40
3.0923400000000001
  1
名称
 41
0.5
  0
TEXT
  5
1FA
  8
_________2
 62
     7
 10
96.784058333333334
 20
48.341900000000003
 30
0.0
 40
3.6545800000000002
  1
mm
 41
0.5
 72
     1
 11
98.306799999999996
 21
48.341900000000003
 31
0.0
  0
TEXT
  5
1FB
  8
_________2
 62
     7
 10
90.582099999999997
 20
53.338000000000001
 30
0.0
 40
3.0923400000000001
  1
単位
 41
0.5
  0
TEXT
  5
1FC
  8
_________2
 62
     7
 10
90.582099999999997
 20
40.930399999999999
 30
0.0
 40
3.0923400000000001
  1
尺度
 41
0.5
  0
TEXT
  5
1FD
  8
_________2
 62
     7
 10
95.030836166666674
 20
34.7378
 30
0.0
 40
3.6545800000000002
  1
1 ： 10
 41
0.5
 72
     1
 11
98.898600000000002
 21
34.7378
 31
0.0
  0
TEXT
  5
1FE
  8
_________2
 62
     7
 10
141.43753749999991
 20
30.627800000000001
 30
0.0
 40
3.9357000000000002
  1
VB710175
 41
0.5
 72
     1
 11
148.489
 21
30.627800000000001
 31
0.0
  0
TEXT
  5
1FF
  8
_________2
 62
     7
 10
141.43753749999991
 20
20.626999999999988
 30
0.0
 40
3.9357000000000002
  1
VB710175
 41
0.5
 72
     1
 11
148.489
 21
20.626999999999988
 31
0.0
  0
TEXT
  5
200
  8
_________2
 62
     7
 10
114.11799999999999
 20
45.745600000000003
 30
0.0
 40
3.9357000000000002
  1
オマージュ 洗面器
 41
0.5
  0
TEXT
  5
201
  8
_________2
 62
     7
 10
44.364200333333329
 20
35.122999999999998
 30
0.0
 40
3.6545800000000002
  1
早川
 41
0.5
 72
     1
 11
46.252400000000002
 21
35.122999999999998
 31
0.0
  0
TEXT
  5
202
  8
_________2
 62
     7
 10
25.729290666666671
 20
35.122999999999998
 30
0.0
 40
3.6545800000000002
  1
菅原
 41
0.5
 72
     1
 11
27.6784
 21
35.122999999999998
 31
0.0
  0
TEXT
  5
203
  8
_________2
 62
     7
 10
72.724699999999999
 20
34.7378
 30
0.0
 40
3.6545800000000002
  1
13.06.19
 41
0.5
  0
TEXT
  5
204
  8
_________2
 62
     7
 10
71.531999999999996
 20
40.930399999999999
 30
0.0
 40
3.0923400000000001
  1
日付
 41
0.5
  0
TEXT
  5
205
  8
_________2
 62
     7
 10
34.578299999999992
 20
40.930399999999999
 30
0.0
 40
3.0923400000000001
  1
検図
 41
0.5
  0
TEXT
  5
206
  8
_________2
 62
     7
 10
22.96019999999999
 20
26.730999999999991
 30
0.0
 40
3.0923400000000001
  1
備考
 41
0.5
  0
TEXT
  5
207
  8
_________2
 62
     7
 10
22.96019999999999
 20
40.930399999999999
 30
0.0
 40
3.0923400000000001
  1
製図
 41
0.5
  0
TEXT
  5
208
  8
_________2
 62
     7
 10
28.727365333333339
 20
49.456400000000002
 30
0.0
 40
4.4979399999999989
  1
セラトレーディング株式会社
 41
0.5
 72
     1
 11
46.119399999999992
 21
49.456400000000002
 31
0.0
  0
LINE
  5
209
  8
_________2
 62
     7
 10
188.49000000000001
 20
17.428499999999989
 30
0.0
 11
21.988499999999991
 21
17.428499999999989
 31
0.0
  0
LINE
  5
20A
  8
_________2
 62
     7
 10
21.988499999999991
 20
17.428499999999989
 30
0.0
 11
21.988499999999991
 21
280.42999999999989
 31
0.0
  0
LINE
  5
20B
  8
_________2
 62
     7
 10
21.988499999999991
 20
280.42999999999989
 30
0.0
 11
188.49000000000001
 21
280.42999999999989
 31
0.0
  0
LINE
  5
20C
  8
_________2
 62
     7
 10
188.49000000000001
 20
280.42999999999989
 30
0.0
 11
188.49000000000001
 21
17.428499999999989
 31
0.0
  0
LINE
  5
20D
  8
_________2
 62
     7
 10
70.488799999999998
 20
30.928899999999999
 30
0.0
 11
70.488799999999998
 21
57.428699999999992
 31
0.0
  0
LINE
  5
20E
  8
_________2
 62
     7
 10
89.488600000000005
 20
30.928899999999999
 30
0.0
 11
89.488600000000005
 21
57.428699999999992
 31
0.0
  0
LINE
  5
20F
  8
_________2
 62
     7
 10
108.4889999999999
 20
17.428499999999989
 30
0.0
 11
108.4889999999999
 21
57.428699999999992
 31
0.0
  0
LINE
  5
210
  8
_________2
 62
     7
 10
33.488300000000002
 20
30.928899999999999
 30
0.0
 11
33.488300000000002
 21
44.928800000000003
 31
0.0
  0
LINE
  5
211
  8
_________2
 62
     7
 10
21.988499999999991
 20
30.928899999999999
 30
0.0
 11
108.4889999999999
 21
30.928899999999999
 31
0.0
  0
LINE
  5
212
  8
_________2
 62
     7
 10
21.988499999999991
 20
44.928800000000003
 30
0.0
 11
108.4889999999999
 21
44.928800000000003
 31
0.0
  0
LINE
  5
213
  8
_________2
 62
     7
 10
108.4889999999999
 20
37.428100000000001
 30
0.0
 11
188.49000000000001
 21
37.428100000000001
 31
0.0
  0
LINE
  5
214
  8
_________2
 62
     7
 10
21.988499999999991
 20
57.428699999999992
 30
0.0
 11
188.49000000000001
 21
57.428699999999992
 31
0.0
  0
LINE
  5
215
  8
_________2
 62
     7
 10
210.24000000000001
 20
148.93100000000001
 30
0.0
 11
188.489
 21
148.93100000000001
 31
0.0
  0
LINE
  5
216
  8
_________2
 62
     7
 10
105.2389999999999
 20
297.45099999999991
 30
0.0
 11
105.2389999999999
 21
280.42999999999989
 31
0.0
  0
LINE
  5
217
  8
_________2
 62
     7
 10
21.988499999999991
 20
148.93100000000001
 30
0.0
 11
0.238402
 21
148.93100000000001
 31
0.0
  0
ENDSEC
  0
EOF
