  0
SECTION
  2
HEADER
  9
$ACADVER
  1
AC1009
  9
$INSBASE
 10
0.0
 20
0.0
 30
0.0
  9
$EXTMIN
 10
0.238402
 20
0.4485540000000001
 30
0.0
  9
$EXTMAX
 10
210.24000000000001
 20
297.45099999999991
 30
0.0
  9
$LIMMIN
 10
0.0
 20
0.0
  9
$LIMMAX
 10
12.0
 20
9.0
  9
$ORTHOMODE
 70
     0
  9
$REGENMODE
 70
     1
  9
$FILLMODE
 70
     1
  9
$QTEXTMODE
 70
     0
  9
$MIRRTEXT
 70
     1
  9
$DRAGMODE
 70
     2
  9
$LTSCALE
 40
1.0
  9
$OSMODE
 70
    37
  9
$ATTMODE
 70
     1
  9
$TEXTSIZE
 40
0.0
  9
$TRACEWID
 40
0.05
  9
$TEXTSTYLE
  7
STANDARD
  9
$CLAYER
  8
0
  9
$CELTYPE
  6
CONTINUOUS
  9
$CECOLOR
 62
   256
  9
$DIMSCALE
 40
1.0
  9
$DIMASZ
 40
0.18
  9
$DIMEXO
 40
0.0625
  9
$DIMDLI
 40
0.38
  9
$DIMRND
 40
0.0
  9
$DIMDLE
 40
0.0
  9
$DIMEXE
 40
0.18
  9
$DIMTP
 40
0.0
  9
$DIMTM
 40
0.0
  9
$DIMTXT
 40
0.18
  9
$DIMCEN
 40
0.09
  9
$DIMTSZ
 40
0.0
  9
$DIMTOL
 70
     0
  9
$DIMLIM
 70
     0
  9
$DIMTIH
 70
     1
  9
$DIMTOH
 70
     1
  9
$DIMSE1
 70
     0
  9
$DIMSE2
 70
     0
  9
$DIMTAD
 70
     0
  9
$DIMZIN
 70
     0
  9
$DIMBLK
  1

  9
$DIMASO
 70
     1
  9
$DIMSHO
 70
     1
  9
$DIMPOST
  1

  9
$DIMAPOST
  1

  9
$DIMALT
 70
     0
  9
$DIMALTD
 70
     2
  9
$DIMALTF
 40
25.399999999999999
  9
$DIMLFAC
 40
1.0
  9
$DIMTOFL
 70
     0
  9
$DIMTVP
 40
0.0
  9
$DIMTIX
 70
     0
  9
$DIMSOXD
 70
     0
  9
$DIMSAH
 70
     0
  9
$DIMBLK1
  1

  9
$DIMBLK2
  1

  9
$DIMSTYLE
  2
STANDARD
  9
$DIMCLRD
 70
     0
  9
$DIMCLRE
 70
     0
  9
$DIMCLRT
 70
     0
  9
$DIMTFAC
 40
1.0
  9
$DIMGAP
 40
0.09
  9
$LUNITS
 70
     2
  9
$LUPREC
 70
     4
  9
$SKETCHINC
 40
0.1
  9
$FILLETRAD
 40
0.0
  9
$AUNITS
 70
     0
  9
$AUPREC
 70
     0
  9
$MENU
  1
.
  9
$ELEVATION
 40
0.0
  9
$PELEVATION
 40
0.0
  9
$THICKNESS
 40
0.0
  9
$LIMCHECK
 70
     0
  9
$BLIPMODE
 70
     0
  9
$CHAMFERA
 40
0.0
  9
$CHAMFERB
 40
0.0
  9
$SKPOLY
 70
     0
  9
$TDCREATE
 40
2444972.375
  9
$TDUPDATE
 40
2456571.249499375
  9
$TDINDWG
 40
0.0000069444
  9
$TDUSRTIMER
 40
0.0000069444
  9
$USRTIMER
 70
     1
  9
$ANGBASE
 50
0.0
  9
$ANGDIR
 70
     0
  9
$PDMODE
 70
     0
  9
$PDSIZE
 40
0.0
  9
$PLINEWID
 40
0.0
  9
$COORDS
 70
     1
  9
$SPLFRAME
 70
     0
  9
$SPLINETYPE
 70
     6
  9
$SPLINESEGS
 70
     8
  9
$ATTDIA
 70
     0
  9
$ATTREQ
 70
     1
  9
$HANDLING
 70
     1
  9
$HANDSEED
  5
21B
  9
$SURFTAB1
 70
     6
  9
$SURFTAB2
 70
     6
  9
$SURFTYPE
 70
     6
  9
$SURFU
 70
     6
  9
$SURFV
 70
     6
  9
$UCSNAME
  2

  9
$UCSORG
 10
0.0
 20
0.0
 30
0.0
  9
$UCSXDIR
 10
1.0
 20
0.0
 30
0.0
  9
$UCSYDIR
 10
0.0
 20
1.0
 30
0.0
  9
$PUCSNAME
  2

  9
$PUCSORG
 10
0.0
 20
0.0
 30
0.0
  9
$PUCSXDIR
 10
1.0
 20
0.0
 30
0.0
  9
$PUCSYDIR
 10
0.0
 20
1.0
 30
0.0
  9
$USERI1
 70
     0
  9
$USERI2
 70
     0
  9
$USERI3
 70
     0
  9
$USERI4
 70
     0
  9
$USERI5
 70
     0
  9
$USERR1
 40
0.0
  9
$USERR2
 40
0.0
  9
$USERR3
 40
0.0
  9
$USERR4
 40
0.0
  9
$USERR5
 40
0.0
  9
$WORLDVIEW
 70
     1
  9
$SHADEDGE
 70
     3
  9
$SHADEDIF
 70
    70
  9
$TILEMODE
 70
     1
  9
$MAXACTVP
 70
    48
  9
$PLIMCHECK
 70
     0
  9
$PEXTMIN
 10
1.0000000000000000E+020
 20
1.0000000000000000E+020
 30
1.0000000000000000E+020
  9
$PEXTMAX
 10
-1.0000000000000000E+020
 20
-1.0000000000000000E+020
 30
-1.0000000000000000E+020
  9
$PLIMMIN
 10
0.0
 20
0.0
  9
$PLIMMAX
 10
12.0
 20
9.0
  9
$UNITMODE
 70
     0
  9
$VISRETAIN
 70
     1
  9
$PLINEGEN
 70
     0
  9
$PSLTSCALE
 70
     1
  0
ENDSEC
  0
SECTION
  2
TABLES
  0
TABLE
  2
VPORT
 70
     2
  0
VPORT
  2
*ACTIVE
 70
     0
 10
0.0
 20
0.0
 11
1.0
 21
1.0
 12
214.6779983880206
 22
148.72550000000001
 13
0.0
 23
0.0
 14
1.0
 24
1.0
 15
0.0
 25
0.0
 16
0.0
 26
0.0
 36
1.0
 17
0.0
 27
0.0
 37
0.0
 40
299.82743941411439
 41
2.2894736842105261
 42
50.0
 43
0.0
 44
0.0
 50
0.0
 51
0.0
 71
     0
 72
   100
 73
     1
 74
     1
 75
     0
 76
     0
 77
     0
 78
     0
  0
ENDTAB
  0
TABLE
  2
LTYPE
 70
     4
  0
LTYPE
  2
CONTINUOUS
 70
     0
  3
Solid line
 72
    65
 73
     0
 40
0.0
  0
LTYPE
  2
AIGENLINE001
 70
     0
  3
generate AI->DXF Converter
 72
    65
 73
     2
 40
1.5522299999999991
 49
0.776115
 49
-0.776115
  0
LTYPE
  2
AIGENLINE002
 70
     0
  3
generate AI->DXF Converter
 72
    65
 73
     4
 40
5.8561449999999988
 49
3.5278
 49
-0.776115
 49
0.776115
 49
-0.776115
  0
LTYPE
  2
AIGENLINE003
 70
     0
  3
generate AI->DXF Converter
 72
    65
 73
     6
 40
7.4083750000000004
 49
3.5278
 49
-0.776115
 49
0.776115
 49
-0.776115
 49
0.776115
 49
-0.776115
  0
ENDTAB
  0
TABLE
  2
LAYER
 70
     2
  0
LAYER
  2
0
 70
     0
 62
     7
  6
CONTINUOUS
  0
LAYER
  2
_________2
 70
     0
 62
     7
  6
CONTINUOUS
  0
ENDTAB
  0
TABLE
  2
STYLE
 70
     1
  0
STYLE
  2
STANDARD
 70
     0
 40
0.0
 41
0.0
 50
0.0
 71
     0
 42
0.0
  3
TXT
  4
EXTFONT.SHX
  0
ENDTAB
  0
TABLE
  2
VIEW
 70
     0
  0
ENDTAB
  0
TABLE
  2
UCS
 70
     0
  0
ENDTAB
  0
TABLE
  2
APPID
 70
     1
  0
APPID
  2
ACAD
 70
     0
  0
ENDTAB
  0
TABLE
  2
DIMSTYLE
 70
     1
  0
DIMSTYLE
  2
STANDARD
 70
     0
  3

  4

  5

  6

  7

 40
1.0
 41
0.18
 42
0.0625
 43
0.38
 44
0.18
 45
0.0
 46
0.0
 47
0.0
 48
0.0
140
0.18
141
0.09
142
0.0
143
25.399999999999999
144
1.0
145
0.0
146
1.0
147
0.09
 71
     0
 72
     0
 73
     1
 74
     1
 75
     0
 76
     0
 77
     0
 78
     0
170
     0
171
     2
172
     0
173
     0
174
     0
175
     0
176
     0
177
     0
178
     0
  0
ENDTAB
  0
ENDSEC
  0
SECTION
  2
BLOCKS
  0
BLOCK
  8
0
  2
$MODEL_SPACE
 70
     0
 10
0.0
 20
0.0
 30
0.0
  3
$MODEL_SPACE
  1

  0
ENDBLK
  5
1A
  8
0
  0
BLOCK
 67
     1
  8
0
  2
$PAPER_SPACE
 70
     0
 10
0.0
 20
0.0
 30
0.0
  3
$PAPER_SPACE
  1

  0
ENDBLK
  5
17
 67
     1
  8
0
  0
ENDSEC
  0
SECTION
  2
ENTITIES
  0
TEXT
  5
24
  8
0
 62
     7
 10
128.5079999999999
 20
207.43999999999991
 30
0.0
 40
3.0923400000000001
  1
排水口
 41
0.5
  0
TEXT
  5
25
  8
0
 62
     7
 10
122.883
 20
162.172
 30
0.0
 40
3.0923400000000001
  1
※カウンターを設ける場合も
 41
0.5
  0
TEXT
  5
26
  8
0
 62
     7
 10
122.883
 20
158.30600000000001
 30
0.0
 40
3.0923400000000001
  1
　洗面器の壁固定が必要です。
 41
0.5
  0
TEXT
  5
27
  8
0
 62
     7
 10
134.0187599999999
 20
168.624
 30
0.0
 40
3.0923400000000001
  1
カウンター切込寸法
 41
0.5
 72
     1
 11
142.2649999999999
 21
168.624
 31
0.0
  0
TEXT
  5
28
  8
0
 62
     7
 10
71.296880000000002
 20
195.5679999999999
 30
0.0
 40
3.0923400000000001
  1
%%c46
 41
0.5
 72
     2
 11
75.420000000000002
 21
195.5679999999999
 31
0.0
  0
TEXT
  5
29
  8
0
 62
     7
 10
45.551000000000002
 20
228.995
 30
0.0
 40
3.0923400000000001
  1
%%c35
 41
0.5
  0
TEXT
  5
2A
  8
0
 62
     7
 10
123.9909649999999
 20
185.15000000000001
 30
0.0
 40
3.0923400000000001
  1
R10
 41
0.5
 72
     2
 11
127.34099999999999
 21
185.15000000000001
 31
0.0
  0
TEXT
  5
2B
  8
0
 62
     7
 10
66.185029999999998
 20
233.63599999999991
 30
0.0
 40
3.0923400000000001
  1
100
 41
0.5
 72
     1
 11
67.731200000000001
 21
233.63599999999991
 31
0.0
  0
TEXT
  5
2C
  8
0
 62
     7
 10
56.184830000000012
 20
233.63599999999991
 30
0.0
 40
3.0923400000000001
  1
100
 41
0.5
 72
     1
 11
57.731000000000002
 21
233.63599999999991
 31
0.0
  0
TEXT
  5
2D
  8
0
 62
     7
 10
157.598454
 20
226.148
 30
0.0
 40
3.0923400000000001
  1
壁
 41
0.5
 72
     1
 11
158.31999999999991
 21
226.148
 31
0.0
  0
TEXT
  5
2E
  8
0
 62
     7
 10
140.58998249999991
 20
234.44199999999989
 30
0.0
 40
3.0923400000000001
  1
510
 41
0.5
 72
     1
 11
142.2649999999999
 21
234.44199999999989
 31
0.0
  0
TEXT
  5
2F
  8
0
 62
     7
 10
151.2111349999999
 20
102.342
 30
0.0
 40
3.0923400000000001
  1
215
 41
0.5
 72
     1
 11
153.0149999999999
 21
102.342
 31
0.0
  0
TEXT
  5
30
  8
0
 62
     7
 10
60.798387499999997
 20
133.024
 30
0.0
 40
3.0923400000000001
  1
280
 41
0.5
 72
     1
 11
62.731099999999991
 21
133.024
 31
0.0
  0
TEXT
  5
31
  8
0
 62
     7
 10
60.927234999999989
 20
158.6339999999999
 30
0.0
 40
3.0923400000000001
  1
600
 41
0.5
 72
     1
 11
62.731099999999991
 21
158.6339999999999
 31
0.0
  0
TEXT
  5
32
  8
0
 62
     7
 10
87.036945000000003
 20
165.19499999999999
 30
0.0
 40
3.0923400000000001
  1
67.5
 41
0.5
 72
     1
 11
89.356200000000001
 21
165.19499999999999
 31
0.0
  0
TEXT
  5
33
  8
0
 62
     7
 10
33.786745000000003
 20
165.19499999999999
 30
0.0
 40
3.0923400000000001
  1
67.5
 41
0.5
 72
     1
 11
36.106000000000002
 21
165.19499999999999
 31
0.0
  0
TEXT
  5
34
  8
0
 62
     7
 10
60.669539999999991
 20
165.09
 30
0.0
 40
3.0923400000000001
  1
465
 41
0.5
 72
     1
 11
62.731099999999991
 21
165.09
 31
0.0
  0
TEXT
  5
35
  8
0
 62
     7
 10
81.579899999999995
 20
218.40752499999991
 30
0.0
 40
3.0923400000000001
  1
67
 50
90.0
 41
0.5
 72
     1
 11
81.579899999999995
 21
219.696
 31
0.0
  0
TEXT
  5
36
  8
0
 62
     7
 10
81.579899999999995
 20
211.90752499999991
 30
0.0
 40
3.0923400000000001
  1
63
 50
90.0
 41
0.5
 72
     1
 11
81.579899999999995
 21
213.19599999999991
 31
0.0
  0
TEXT
  5
37
  8
0
 62
     7
 10
100.41500000000001
 20
170.214
 30
0.0
 40
3.0923400000000001
  1
35
 50
90.0
 41
0.5
  0
TEXT
  5
38
  8
0
 62
     7
 10
100.41500000000001
 20
214.7709825
 30
0.0
 40
3.0923400000000001
  1
130
 50
90.0
 41
0.5
 72
     1
 11
100.41500000000001
 21
216.446
 31
0.0
  0
TEXT
  5
39
  8
0
 62
     7
 10
46.817799999999991
 20
210.93599999999989
 30
0.0
 40
3.0923400000000001
  1
215
 50
90.0
 41
0.5
  0
TEXT
  5
3A
  8
0
 62
     7
 10
154.0629999999999
 20
210.39213499999991
 30
0.0
 40
3.0923400000000001
  1
215
 50
90.0
 41
0.5
 72
     1
 11
154.0629999999999
 21
212.196
 31
0.0
  0
TEXT
  5
3B
  8
0
 62
     7
 10
107.3639999999999
 20
197.5132874999999
 30
0.0
 40
3.0923400000000001
  1
470
 50
90.0
 41
0.5
 72
     1
 11
107.3639999999999
 21
199.446
 31
0.0
  0
TEXT
  5
3C
  8
0
 62
     7
 10
140.16099999999989
 20
128.08696499999999
 30
0.0
 40
3.0923400000000001
  1
105
 50
90.0
 41
0.5
 72
     2
 11
140.16099999999989
 21
131.43700000000001
 31
0.0
  0
TEXT
  5
3D
  8
0
 62
     7
 10
106.97799999999989
 20
116.4839825
 30
0.0
 40
3.0923400000000001
  1
150
 50
90.0
 41
0.5
 72
     1
 11
106.97799999999989
 21
118.15899999999991
 31
0.0
  0
TEXT
  5
3E
  8
0
 62
     7
 10
175.56599999999989
 20
121.49937250000001
 30
0.0
 40
3.0923400000000001
  1
60
 50
90.0
 41
0.5
 72
     1
 11
175.56599999999989
 21
122.65899999999991
 31
0.0
  0
TEXT
  5
3F
  8
0
 62
     7
 10
99.924400000000006
 20
121.49937250000001
 30
0.0
 40
3.0923400000000001
  1
60
 50
90.0
 41
0.5
 72
     1
 11
99.924400000000006
 21
122.65899999999991
 31
0.0
  0
TEXT
  5
40
  8
0
 62
     7
 10
100.41500000000001
 20
192.76328749999999
 30
0.0
 40
3.0923400000000001
  1
305
 50
90.0
 41
0.5
 72
     1
 11
100.41500000000001
 21
194.69599999999991
 31
0.0
  0
TEXT
  5
41
  8
0
 62
     7
 10
178.60299999999989
 20
199.5132874999999
 30
0.0
 40
3.0923400000000001
  1
430
 50
90.0
 41
0.5
 72
     1
 11
178.60299999999989
 21
201.446
 31
0.0
  0
LINE
  5
42
  8
0
 62
     7
 10
128.5079999999999
 20
206.74000000000001
 30
0.0
 11
136.55399999999989
 21
206.74000000000001
 31
0.0
  0
LINE
  5
43
  8
0
 62
     7
 10
138.447
 20
205.68599999999989
 30
0.0
 11
139.59200000000001
 21
203.703
 31
0.0
  0
LINE
  5
44
  8
0
 62
     7
 10
139.59200000000001
 20
203.703
 30
0.0
 11
137.60799999999989
 21
204.84700000000001
 31
0.0
  0
LINE
  5
45
  8
0
 62
     7
 10
137.60799999999989
 20
204.84700000000001
 30
0.0
 11
138.447
 21
205.68599999999989
 31
0.0
  0
LINE
  5
46
  8
0
 62
     7
 10
139.59200000000001
 20
203.703
 30
0.0
 11
136.55399999999989
 21
206.74000000000001
 31
0.0
  0
ARC
  5
47
  8
0
  6
AIGENLINE001
 62
     7
 10
142.265083
 20
201.44565199999991
 30
0.0
 40
3.4998949999999991
 50
0.00565
 51
90.005619999999993
  0
ARC
  5
48
  8
0
  6
AIGENLINE001
 62
     7
 10
142.26439500000001
 20
201.44565199999991
 30
0.0
 40
3.4998949999999991
 50
89.994360000000015
 51
179.99432999999991
  0
ARC
  5
49
  8
0
  6
AIGENLINE001
 62
     7
 10
142.26473899999991
 20
201.44599699999989
 30
0.0
 40
3.5002390000000001
 50
179.99996999999991
 51
270.00002000000001
  0
ARC
  5
4A
  8
0
  6
AIGENLINE001
 62
     7
 10
142.26473899999991
 20
201.445998
 30
0.0
 40
3.5002399999999998
 50
270.00002000000001
 51
359.99998999999991
  0
ARC
  5
4B
  8
0
  6
AIGENLINE001
 62
     7
 10
142.1769679999999
 20
201.358226
 30
0.0
 40
2.3893450000000001
 50
2.1052140000000001
 51
87.894776000000007
  0
ARC
  5
4C
  8
0
  6
AIGENLINE001
 62
     7
 10
142.35328499999989
 20
201.357451
 30
0.0
 40
2.3901469999999998
 50
92.123069000000015
 51
177.87690099999989
  0
ARC
  5
4D
  8
0
  6
AIGENLINE001
 62
     7
 10
142.26491100000001
 20
201.44582500000001
 30
0.0
 40
2.3001320000000001
 50
179.99567899999991
 51
269.99572899999993
  0
ARC
  5
4E
  8
0
  6
AIGENLINE001
 62
     7
 10
142.17617899999991
 20
201.53419999999991
 30
0.0
 40
2.3901479999999991
 50
272.12342799999999
 51
357.88516399999997
  0
ARC
  5
4F
  8
0
  6
AIGENLINE001
 62
     7
 10
119.979992
 20
125.14863099999999
 30
0.0
 40
0.509987
 50
32.172311000000001
 51
89.341317000000004
  0
ARC
  5
50
  8
0
  6
AIGENLINE001
 62
     7
 10
137.20026299999989
 20
131.25526899999991
 30
0.0
 40
16.096719
 50
243.5853129999999
 51
269.94660299999993
  0
ARC
  5
51
  8
0
  6
AIGENLINE001
 62
     7
 10
140.0451689999999
 20
137.75651099999999
 30
0.0
 40
23.187222999999999
 50
212.1749979999999
 51
244.43683200000001
  0
ARC
  5
52
  8
0
  6
AIGENLINE001
 62
     7
 10
147.513081
 20
117.7814919999999
 30
0.0
 40
2.5315279999999989
 50
274.29922799999991
 51
350.81063999999992
  0
ARC
  5
53
  8
0
  6
AIGENLINE001
 62
     7
 10
151.28441699999991
 20
125.13905800000001
 30
0.0
 40
0.519898
 50
92.166447000000005
 51
177.872997
  0
ARC
  5
54
  8
0
 62
     7
 10
146.74368100000001
 20
124.0849129999999
 30
0.0
 40
12.261001
 50
282.43899399999992
 51
285.95707799999991
  0
ARC
  5
55
  8
0
 62
     7
 10
145.38902399999989
 20
130.046346
 30
0.0
 40
18.374328999999989
 50
277.69462900000002
 51
282.55987599999992
  0
ARC
  5
56
  8
0
 62
     7
 10
144.883411
 20
133.07204699999991
 30
0.0
 40
21.440698999999992
 50
273.65918699999997
 51
277.951008
  0
ARC
  5
57
  8
0
 62
     7
 10
145.69417899999991
 20
120.80467
 30
0.0
 40
9.1466239999999992
 50
270.44135599999993
 51
273.49509899999998
  0
LINE
  5
58
  8
0
  6
AIGENLINE001
 62
     7
 10
144.565
 20
113.65899999999991
 30
0.0
 11
139.965
 21
113.65899999999991
 31
0.0
  0
LINE
  5
59
  8
0
  6
AIGENLINE001
 62
     7
 10
144.565
 20
110.65899999999991
 30
0.0
 11
144.565
 21
113.65899999999991
 31
0.0
  0
LINE
  5
5A
  8
0
  6
AIGENLINE001
 62
     7
 10
144.565
 20
113.65899999999991
 30
0.0
 11
145.7649999999999
 21
115.15899999999991
 31
0.0
  0
LINE
  5
5B
  8
0
  6
AIGENLINE001
 62
     7
 10
139.965
 20
110.65899999999991
 30
0.0
 11
139.965
 21
113.65899999999991
 31
0.0
  0
LINE
  5
5C
  8
0
  6
AIGENLINE001
 62
     7
 10
139.965
 20
113.65899999999991
 30
0.0
 11
138.7649999999999
 21
115.15899999999991
 31
0.0
  0
LINE
  5
5D
  8
0
  6
AIGENLINE001
 62
     7
 10
147.703
 20
115.25700000000001
 30
0.0
 11
145.7649999999999
 21
115.15899999999991
 31
0.0
  0
LINE
  5
5E
  8
0
  6
AIGENLINE001
 62
     7
 10
145.7649999999999
 20
115.15899999999991
 30
0.0
 11
138.7649999999999
 21
115.15899999999991
 31
0.0
  0
LINE
  5
5F
  8
0
 62
     7
 10
145.7649999999999
 20
110.65899999999991
 30
0.0
 11
138.7649999999999
 21
110.65899999999991
 31
0.0
  0
ARC
  5
60
  8
0
 62
     7
 10
126.88282699999991
 20
119.231987
 30
0.0
 40
4.1198030000000001
 50
181.62820599999989
 51
261.52426200000002
  0
LINE
  5
61
  8
0
 62
     7
 10
163.7649999999999
 20
110.65899999999991
 30
0.0
 11
126.276
 21
115.157
 31
0.0
  0
ARC
  5
62
  8
0
 62
     7
 10
196.785045
 20
136.8205669999999
 30
0.0
 40
80.862445999999977
 50
188.84196799999989
 51
192.25349399999999
  0
ARC
  5
63
  8
0
 62
     7
 10
139.20755199999991
 20
127.78783199999999
 30
0.0
 40
22.58090799999999
 50
187.1364649999999
 51
188.651173
  0
ARC
  5
64
  8
0
 62
     7
 10
121.206834
 20
125.574859
 30
0.0
 40
4.4448989999999986
 50
182.46531899999999
 51
187.657858
  0
ARC
  5
65
  8
0
 62
     7
 10
116.94813600000001
 20
125.406221
 30
0.0
 40
0.183479
 50
179.297911
 51
187.06174899999991
  0
ARC
  5
66
  8
0
 62
     7
 10
117.024451
 20
125.398804
 30
0.0
 40
0.25996
 50
92.130700000000004
 51
177.86927
  0
LINE
  5
67
  8
0
 62
     7
 10
159.7649999999999
 20
225.44800000000001
 30
0.0
 11
158.31999999999991
 21
222.94599999999991
 31
0.0
  0
LINE
  5
68
  8
0
 62
     7
 10
158.31999999999991
 20
222.94599999999991
 30
0.0
 11
156.875
 21
225.44800000000001
 31
0.0
  0
LINE
  5
69
  8
0
 62
     7
 10
156.875
 20
225.44800000000001
 30
0.0
 11
159.7649999999999
 21
225.44800000000001
 31
0.0
  0
ARC
  5
6A
  8
0
 62
     7
 10
75.036512999999999
 20
115.5910659999999
 30
0.0
 40
3.535666
 50
260.85647799999998
 51
267.07111700000002
  0
ARC
  5
6B
  8
0
 62
     7
 10
75.200474999999997
 20
116.8080489999999
 30
0.0
 40
4.763344
 50
249.09143499999999
 51
261.23549199999991
  0
ARC
  5
6C
  8
0
 62
     7
 10
66.958325000000002
 20
113.13670500000001
 30
0.0
 40
0.518128
 50
92.292994999999991
 51
174.170815
  0
LINE
  5
6D
  8
0
 62
     7
 10
66.442899999999995
 20
113.18899999999999
 30
0.0
 11
66.263400000000004
 21
110.82299999999999
 31
0.0
  0
ARC
  5
6E
  8
0
 62
     7
 10
66.080157999999997
 20
110.842758
 30
0.0
 40
0.18434
 50
272.12565799999987
 51
353.70079800000002
  0
ARC
  5
6F
  8
0
 62
     7
 10
68.528942999999984
 20
97.451302999999996
 30
0.0
 40
16.208089000000001
 50
82.100521999999984
 51
89.416798999999997
  0
ARC
  5
70
  8
0
 62
     7
 10
70.012619999999998
 20
109.459356
 30
0.0
 40
4.1140460000000001
 50
70.911959999999993
 51
79.582676000000006
  0
ARC
  5
71
  8
0
 62
     7
 10
70.634081000000009
 20
111.29161599999991
 30
0.0
 40
2.1793309999999999
 50
62.09686099999999
 51
70.599221
  0
LINE
  5
72
  8
0
 62
     7
 10
71.653999999999996
 20
113.2179999999999
 30
0.0
 11
73.500500000000002
 21
112.358
 31
0.0
  0
ARC
  5
73
  8
0
 62
     7
 10
87.420213000000004
 20
412.983068
 30
0.0
 40
301.18523299999993
 50
267.60914300000002
 51
268.521568
  0
ARC
  5
74
  8
0
 62
     7
 10
79.662490000000005
 20
108.624336
 30
0.0
 40
3.2737880000000001
 50
74.946973999999983
 51
90.229290999999975
  0
ARC
  5
75
  8
0
 62
     7
 10
80.491860000000003
 20
111.701348
 30
0.0
 40
0.086981
 50
4.7933370000000002
 51
76.113686999999985
  0
LINE
  5
76
  8
0
 62
     7
 10
80.578500000000005
 20
111.709
 30
0.0
 11
80.807599999999994
 21
111.05799999999989
 31
0.0
  0
ARC
  5
77
  8
0
 62
     7
 10
81.296453999999983
 20
111.192385
 30
0.0
 40
0.5069060000000001
 50
195.35251599999989
 51
238.72452999999999
  0
ARC
  5
78
  8
0
 62
     7
 10
81.209242000000003
 20
110.8596439999999
 30
0.0
 40
0.202631
 50
209.73488499999999
 51
254.8492609999999
  0
ARC
  5
79
  8
0
 62
     7
 10
81.204169999999991
 20
110.857484
 30
0.0
 40
0.199267
 50
256.09471899999988
 51
301.82404500000001
  0
ARC
  5
7A
  8
0
 62
     7
 10
72.781493999999995
 20
348.26824099999988
 30
0.0
 40
237.733068
 50
272.05571499999991
 51
272.55521599999997
  0
ARC
  5
7B
  8
0
 62
     7
 10
83.196921000000003
 20
113.0262239999999
 30
0.0
 40
2.2621090000000001
 50
274.64490599999988
 51
283.20308799999992
  0
ARC
  5
7C
  8
0
 62
     7
 10
83.175731999999996
 20
113.04623599999999
 30
0.0
 40
2.2864879999999999
 50
283.60548099999988
 51
296.63380100000001
  0
ARC
  5
7D
  8
0
 62
     7
 10
83.182343999999986
 20
113.01512
 30
0.0
 40
2.2557230000000001
 50
296.837964
 51
313.46343400000001
  0
ARC
  5
7E
  8
0
 62
     7
 10
83.178093000000004
 20
113.01355599999999
 30
0.0
 40
2.2575169999999991
 50
313.56904700000001
 51
336.10972599999991
  0
ARC
  5
7F
  8
0
 62
     7
 10
83.159059999999997
 20
113.0181139999999
 30
0.0
 40
2.2767680000000001
 50
336.19883499999997
 51
351.953822
  0
ARC
  5
80
  8
0
 62
     7
 10
26.122724000000002
 20
121.05723500000001
 30
0.0
 40
59.876864000000012
 50
351.97627399999999
 51
353.496128
  0
ARC
  5
81
  8
0
 62
     7
 10
-27.86283499999999
 20
127.404201
 30
0.0
 40
114.234066
 50
353.40025099999991
 51
354.66729600000002
  0
ARC
  5
82
  8
0
 62
     7
 10
-148.38309699999991
 20
138.972475
 30
0.0
 40
235.30805000000001
 50
354.59006499999998
 51
355.17995500000001
  0
ARC
  5
83
  8
0
 62
     7
 10
86.607299999999995
 20
119.140879
 30
0.0
 40
0.517937
 50
91.770295999999988
 51
173.40458000000001
  0
LINE
  5
84
  8
0
 62
     7
 10
172.50899999999999
 20
222.94599999999991
 30
0.0
 11
167.7649999999999
 21
222.94599999999991
 31
0.0
  0
LINE
  5
85
  8
0
 62
     7
 10
116.765
 20
222.94599999999991
 30
0.0
 11
112.02
 21
222.94599999999991
 31
0.0
  0
LINE
  5
86
  8
0
 62
     7
 10
66.087000000000003
 20
110.65899999999991
 30
0.0
 11
62.731099999999991
 21
110.65899999999991
 31
0.0
  0
LINE
  5
87
  8
0
 62
     7
 10
68.693899999999999
 20
113.65899999999991
 30
0.0
 11
66.937600000000003
 21
113.65899999999991
 31
0.0
  0
ARC
  5
88
  8
0
 62
     7
 10
50.42562199999999
 20
115.59255999999991
 30
0.0
 40
3.5371619999999999
 50
272.92893800000002
 51
279.14181400000001
  0
ARC
  5
89
  8
0
 62
     7
 10
50.262555999999989
 20
116.804811
 30
0.0
 40
4.7600280000000001
 50
278.76138099999997
 51
290.91329999999999
  0
ARC
  5
8A
  8
0
 62
     7
 10
58.503888000000011
 20
113.13670500000001
 30
0.0
 40
0.518128
 50
5.8291659999999998
 51
87.706986000000015
  0
LINE
  5
8B
  8
0
 62
     7
 10
59.019300000000001
 20
113.18899999999999
 30
0.0
 11
59.198799999999999
 21
110.82299999999999
 31
0.0
  0
ARC
  5
8C
  8
0
 62
     7
 10
59.382055000000001
 20
110.842758
 30
0.0
 40
0.18434
 50
186.2992219999999
 51
267.87436200000002
  0
ARC
  5
8D
  8
0
 62
     7
 10
92.128826999999987
 20
125.05107599999999
 30
0.0
 40
0.6075159999999999
 50
44.929800999999991
 51
89.725504999999998
  0
ARC
  5
8E
  8
0
 62
     7
 10
92.120854000000008
 20
125.05415600000001
 30
0.0
 40
0.611036
 50
359.62695099999991
 51
44.197325999999997
  0
ARC
  5
8F
  8
0
 62
     7
 10
68.709282999999999
 20
125.3731149999999
 30
0.0
 40
24.024764999999999
 50
355.69722200000001
 51
359.22981399999998
  0
ARC
  5
90
  8
0
 62
     7
 10
75.450906000000003
 20
124.977281
 30
0.0
 40
17.272801999999999
 50
350.28326099999998
 51
355.32873699999999
  0
ARC
  5
91
  8
0
 62
     7
 10
61.727102000000002
 20
127.22290599999999
 30
0.0
 40
31.178906999999999
 50
349.33148399999999
 51
350.47227700000002
  0
ARC
  5
92
  8
0
 62
     7
 10
-15.345257999999991
 20
141.86046399999989
 30
0.0
 40
109.62891
 50
348.57337899999987
 51
349.27065199999998
  0
ARC
  5
93
  8
0
 62
     7
 10
91.506602000000001
 20
120.27763
 30
0.0
 40
0.6192510000000001
 50
271.42034399999989
 51
347.30802499999987
  0
LINE
  5
94
  8
0
 62
     7
 10
91.522000000000006
 20
119.65900000000001
 30
0.0
 11
33.941000000000003
 21
119.65900000000001
 31
0.0
  0
ARC
  5
95
  8
0
 62
     7
 10
33.956176999999997
 20
120.27704900000001
 30
0.0
 40
0.618668
 50
192.64905999999999
 51
268.58971999999989
  0
ARC
  5
96
  8
0
 62
     7
 10
277.72103799999991
 20
168.8246509999999
 30
0.0
 40
249.17064799999989
 50
190.96894
 51
191.2669689999999
  0
ARC
  5
97
  8
0
 62
     7
 10
60.255797999999999
 20
126.58126
 30
0.0
 40
27.640612999999998
 50
188.39271199999999
 51
190.77595699999989
  0
ARC
  5
98
  8
0
 62
     7
 10
50.055238000000003
 20
124.99899499999999
 30
0.0
 40
17.318518000000001
 50
181.5954339999999
 51
188.13969299999999
  0
ARC
  5
99
  8
0
 62
     7
 10
59.527949999999997
 20
125.389437
 30
0.0
 40
26.798728000000001
 50
180.72537800000001
 51
181.86600899999999
  0
ARC
  5
9A
  8
0
 62
     7
 10
33.340009000000002
 20
125.0551149999999
 30
0.0
 40
0.6086590000000001
 50
135.71092899999991
 51
180.4647939999999
  0
ARC
  5
9B
  8
0
 62
     7
 10
33.336311000000002
 20
125.04656799999999
 30
0.0
 40
0.612041
 50
90.513994999999994
 51
134.89648700000001
  0
ARC
  5
9C
  8
0
 62
     7
 10
56.933270999999998
 20
97.451302999999996
 30
0.0
 40
16.208089000000001
 50
90.58318100000001
 51
97.899457999999996
  0
ARC
  5
9D
  8
0
 62
     7
 10
55.449593000000007
 20
109.459356
 30
0.0
 40
4.1140460000000001
 50
100.417305
 51
109.0880199999999
  0
ARC
  5
9E
  8
0
 62
     7
 10
54.828131999999989
 20
111.29161599999991
 30
0.0
 40
2.1793309999999999
 50
109.40075899999989
 51
117.9031189999999
  0
LINE
  5
9F
  8
0
 62
     7
 10
53.808300000000003
 20
113.2179999999999
 30
0.0
 11
51.9617
 21
112.358
 31
0.0
  0
ARC
  5
A0
  8
0
 62
     7
 10
38.046745000000001
 20
412.82607699999988
 30
0.0
 40
301.0281819999999
 50
271.47838499999989
 51
272.39122099999992
  0
ARC
  5
A1
  8
0
 62
     7
 10
45.800069999999998
 20
108.621709
 30
0.0
 40
3.2764150000000001
 50
89.770914000000005
 51
105.04693399999999
  0
ARC
  5
A2
  8
0
 62
     7
 10
44.970269999999999
 20
111.70180499999999
 30
0.0
 40
0.086517
 50
103.90521099999989
 51
175.484587
  0
LINE
  5
A3
  8
0
 62
     7
 10
44.883999999999993
 20
111.709
 30
0.0
 11
44.654899999999991
 21
111.05799999999989
 31
0.0
  0
ARC
  5
A4
  8
0
 62
     7
 10
44.168508000000003
 20
111.190871
 30
0.0
 40
0.5041870000000001
 50
301.09783399999992
 51
344.74108799999999
  0
ARC
  5
A5
  8
0
 62
     7
 10
44.252971000000002
 20
110.8596439999999
 30
0.0
 40
0.202631
 50
285.15075899999999
 51
330.26513499999999
  0
ARC
  5
A6
  8
0
 62
     7
 10
44.257872999999989
 20
110.8564019999999
 30
0.0
 40
0.198258
 50
238.05302099999989
 51
284.02825499999989
  0
ARC
  5
A7
  8
0
 62
     7
 10
52.680720000000001
 20
348.26824099999988
 30
0.0
 40
237.733068
 50
267.44480399999992
 51
267.94430499999987
  0
ARC
  5
A8
  8
0
 62
     7
 10
42.265293
 20
113.0262239999999
 30
0.0
 40
2.2621090000000001
 50
256.79693099999997
 51
265.35511300000002
  0
ARC
  5
A9
  8
0
 62
     7
 10
42.286481999999999
 20
113.04623599999999
 30
0.0
 40
2.2864879999999999
 50
243.366219
 51
256.39453900000001
  0
ARC
  5
AA
  8
0
 62
     7
 10
42.279868999999998
 20
113.01512
 30
0.0
 40
2.2557230000000001
 50
226.536586
 51
243.16205600000001
  0
ARC
  5
AB
  8
0
 62
     7
 10
42.284120999999992
 20
113.01355599999999
 30
0.0
 40
2.2575169999999991
 50
203.8902939999999
 51
226.43097299999991
  0
ARC
  5
AC
  8
0
 62
     7
 10
42.335869000000002
 20
113.02744799999989
 30
0.0
 40
2.3104719999999999
 50
188.1618269999999
 51
203.68555499999999
  0
ARC
  5
AD
  8
0
 62
     7
 10
99.863906
 20
121.124077
 30
0.0
 40
60.405477000000012
 50
186.51054300000001
 51
188.01709500000001
  0
ARC
  5
AE
  8
0
 62
     7
 10
153.45841799999991
 20
127.418139
 30
0.0
 40
114.3681539999999
 50
185.3334669999999
 51
186.59902600000001
  0
ARC
  5
AF
  8
0
 62
     7
 10
273.84530999999998
 20
138.972475
 30
0.0
 40
235.30805000000001
 50
184.820065
 51
185.40995499999991
  0
ARC
  5
B0
  8
0
 62
     7
 10
38.854922999999999
 20
119.140902
 30
0.0
 40
0.5179240000000001
 50
6.5930010000000001
 51
88.192611999999997
  0
LINE
  5
B1
  8
0
 62
     7
 10
90.520499999999984
 20
157.3489999999999
 30
0.0
 11
92.732200000000006
 21
157.941
 31
0.0
  0
LINE
  5
B2
  8
0
 62
     7
 10
92.732200000000006
 20
157.941
 30
0.0
 11
90.520499999999984
 21
158.53399999999991
 31
0.0
  0
LINE
  5
B3
  8
0
 62
     7
 10
90.520499999999984
 20
158.53399999999991
 30
0.0
 11
90.520499999999984
 21
157.3489999999999
 31
0.0
  0
LINE
  5
B4
  8
0
 62
     7
 10
34.941800000000001
 20
158.51900000000001
 30
0.0
 11
32.72999999999999
 21
157.92699999999999
 31
0.0
  0
LINE
  5
B5
  8
0
 62
     7
 10
32.72999999999999
 20
157.92699999999999
 30
0.0
 11
34.941800000000001
 21
157.33399999999989
 31
0.0
  0
LINE
  5
B6
  8
0
 62
     7
 10
34.941800000000001
 20
157.33399999999989
 30
0.0
 11
34.941800000000001
 21
158.51900000000001
 31
0.0
  0
LINE
  5
B7
  8
0
 62
     7
 10
92.731200000000001
 20
157.934
 30
0.0
 11
32.731000000000002
 21
157.934
 31
0.0
  0
LINE
  5
B8
  8
0
 62
     7
 10
34.942799999999991
 20
164.983
 30
0.0
 11
32.731000000000002
 21
164.3899999999999
 31
0.0
  0
LINE
  5
B9
  8
0
 62
     7
 10
32.731000000000002
 20
164.3899999999999
 30
0.0
 11
34.942799999999991
 21
163.79799999999989
 31
0.0
  0
LINE
  5
BA
  8
0
 62
     7
 10
34.942799999999991
 20
163.79799999999989
 30
0.0
 11
34.942799999999991
 21
164.983
 31
0.0
  0
LINE
  5
BB
  8
0
 62
     7
 10
64.942899999999995
 20
233.52799999999999
 30
0.0
 11
62.731099999999991
 21
232.93599999999989
 31
0.0
  0
LINE
  5
BC
  8
0
 62
     7
 10
62.731099999999991
 20
232.93599999999989
 30
0.0
 11
64.942899999999995
 21
232.34299999999999
 31
0.0
  0
LINE
  5
BD
  8
0
 62
     7
 10
64.942899999999995
 20
232.34299999999999
 30
0.0
 11
64.942899999999995
 21
233.52799999999999
 31
0.0
  0
LINE
  5
BE
  8
0
 62
     7
 10
60.519300000000001
 20
232.34299999999999
 30
0.0
 11
62.731099999999991
 21
232.93599999999989
 31
0.0
  0
LINE
  5
BF
  8
0
 62
     7
 10
62.731099999999991
 20
232.93599999999989
 30
0.0
 11
60.519300000000001
 21
233.52799999999999
 31
0.0
  0
LINE
  5
C0
  8
0
 62
     7
 10
60.519300000000001
 20
233.52799999999999
 30
0.0
 11
60.519300000000001
 21
232.34299999999999
 31
0.0
  0
LINE
  5
C1
  8
0
 62
     7
 10
88.192899999999995
 20
164.983
 30
0.0
 11
85.981199999999987
 21
164.3899999999999
 31
0.0
  0
LINE
  5
C2
  8
0
 62
     7
 10
85.981199999999987
 20
164.3899999999999
 30
0.0
 11
88.192899999999995
 21
163.79799999999989
 31
0.0
  0
LINE
  5
C3
  8
0
 62
     7
 10
88.192899999999995
 20
163.79799999999989
 30
0.0
 11
88.192899999999995
 21
164.983
 31
0.0
  0
LINE
  5
C4
  8
0
 62
     7
 10
41.692799999999991
 20
164.983
 30
0.0
 11
39.481000000000002
 21
164.3899999999999
 31
0.0
  0
LINE
  5
C5
  8
0
 62
     7
 10
39.481000000000002
 20
164.3899999999999
 30
0.0
 11
41.692799999999991
 21
163.79799999999989
 31
0.0
  0
LINE
  5
C6
  8
0
 62
     7
 10
41.692799999999991
 20
163.79799999999989
 30
0.0
 11
41.692799999999991
 21
164.983
 31
0.0
  0
LINE
  5
C7
  8
0
 62
     7
 10
90.519400000000005
 20
163.79799999999989
 30
0.0
 11
92.731200000000001
 21
164.3899999999999
 31
0.0
  0
LINE
  5
C8
  8
0
 62
     7
 10
92.731200000000001
 20
164.3899999999999
 30
0.0
 11
90.519400000000005
 21
164.983
 31
0.0
  0
LINE
  5
C9
  8
0
 62
     7
 10
90.519400000000005
 20
164.983
 30
0.0
 11
90.519400000000005
 21
163.79799999999989
 31
0.0
  0
LINE
  5
CA
  8
0
 62
     7
 10
37.269300000000001
 20
163.79799999999989
 30
0.0
 11
39.481000000000002
 21
164.3899999999999
 31
0.0
  0
LINE
  5
CB
  8
0
 62
     7
 10
39.481000000000002
 20
164.3899999999999
 30
0.0
 11
37.269300000000001
 21
164.983
 31
0.0
  0
LINE
  5
CC
  8
0
 62
     7
 10
37.269300000000001
 20
164.983
 30
0.0
 11
37.269300000000001
 21
163.79799999999989
 31
0.0
  0
LINE
  5
CD
  8
0
 62
     7
 10
83.769400000000005
 20
163.79799999999989
 30
0.0
 11
85.981199999999987
 21
164.3899999999999
 31
0.0
  0
LINE
  5
CE
  8
0
 62
     7
 10
85.981199999999987
 20
164.3899999999999
 30
0.0
 11
83.769400000000005
 21
164.983
 31
0.0
  0
LINE
  5
CF
  8
0
 62
     7
 10
83.769400000000005
 20
164.983
 30
0.0
 11
83.769400000000005
 21
163.79799999999989
 31
0.0
  0
LINE
  5
D0
  8
0
 62
     7
 10
32.731000000000002
 20
164.3899999999999
 30
0.0
 11
92.731200000000001
 21
164.3899999999999
 31
0.0
  0
LINE
  5
D1
  8
0
 62
     7
 10
32.731000000000002
 20
157.23400000000001
 30
0.0
 11
32.731000000000002
 21
175.245
 31
0.0
  0
LINE
  5
D2
  8
0
 62
     7
 10
39.481000000000002
 20
163.68999999999991
 30
0.0
 11
39.481000000000002
 21
177.92699999999999
 31
0.0
  0
LINE
  5
D3
  8
0
 62
     7
 10
85.981199999999987
 20
163.68999999999991
 30
0.0
 11
85.981199999999987
 21
177.92699999999999
 31
0.0
  0
LINE
  5
D4
  8
0
 62
     7
 10
92.731200000000001
 20
157.23400000000001
 30
0.0
 11
92.731200000000001
 21
175.245
 31
0.0
  0
LINE
  5
D5
  8
0
 62
     7
 10
101.8149999999999
 20
179.44499999999991
 30
0.0
 11
86.548599999999993
 21
179.44499999999991
 31
0.0
  0
LINE
  5
D6
  8
0
 62
     7
 10
83.154799999999994
 20
216.2459999999999
 30
0.0
 11
76.139200000000002
 21
216.2459999999999
 31
0.0
  0
LINE
  5
D7
  8
0
 62
     7
 10
101.8149999999999
 20
209.946
 30
0.0
 11
86.548599999999993
 21
209.946
 31
0.0
  0
LINE
  5
D8
  8
0
 62
     7
 10
81.862200000000001
 20
212.15700000000001
 30
0.0
 11
82.454700000000003
 21
209.946
 31
0.0
  0
LINE
  5
D9
  8
0
 62
     7
 10
82.454700000000003
 20
209.946
 30
0.0
 11
83.047499999999999
 21
212.15700000000001
 31
0.0
  0
LINE
  5
DA
  8
0
 62
     7
 10
83.047499999999999
 20
212.15700000000001
 30
0.0
 11
81.862200000000001
 21
212.15700000000001
 31
0.0
  0
LINE
  5
DB
  8
0
 62
     7
 10
81.862200000000001
 20
218.452
 30
0.0
 11
82.454700000000003
 21
216.2409999999999
 31
0.0
  0
LINE
  5
DC
  8
0
 62
     7
 10
82.454700000000003
 20
216.2409999999999
 30
0.0
 11
83.047499999999999
 21
218.452
 31
0.0
  0
LINE
  5
DD
  8
0
 62
     7
 10
83.047499999999999
 20
218.452
 30
0.0
 11
81.862200000000001
 21
218.452
 31
0.0
  0
LINE
  5
DE
  8
0
 62
     7
 10
83.047300000000007
 20
220.73400000000001
 30
0.0
 11
82.454700000000003
 21
222.94599999999991
 31
0.0
  0
LINE
  5
DF
  8
0
 62
     7
 10
82.454700000000003
 20
222.94599999999991
 30
0.0
 11
81.861999999999995
 21
220.73400000000001
 31
0.0
  0
LINE
  5
E0
  8
0
 62
     7
 10
81.861999999999995
 20
220.73400000000001
 30
0.0
 11
83.047300000000007
 21
220.73400000000001
 31
0.0
  0
LINE
  5
E1
  8
0
 62
     7
 10
83.047300000000007
 20
214.029
 30
0.0
 11
82.454700000000003
 21
216.2409999999999
 31
0.0
  0
LINE
  5
E2
  8
0
 62
     7
 10
82.454700000000003
 20
216.2409999999999
 30
0.0
 11
81.861999999999995
 21
214.029
 31
0.0
  0
LINE
  5
E3
  8
0
 62
     7
 10
81.861999999999995
 20
214.029
 30
0.0
 11
83.047300000000007
 21
214.029
 31
0.0
  0
LINE
  5
E4
  8
0
 62
     7
 10
100.52200000000001
 20
212.15700000000001
 30
0.0
 11
101.1149999999999
 21
209.946
 31
0.0
  0
LINE
  5
E5
  8
0
 62
     7
 10
101.1149999999999
 20
209.946
 30
0.0
 11
101.7079999999999
 21
212.15700000000001
 31
0.0
  0
LINE
  5
E6
  8
0
 62
     7
 10
101.7079999999999
 20
212.15700000000001
 30
0.0
 11
100.52200000000001
 21
212.15700000000001
 31
0.0
  0
LINE
  5
E7
  8
0
 62
     7
 10
100.52200000000001
 20
181.65700000000001
 30
0.0
 11
101.1149999999999
 21
179.44499999999991
 31
0.0
  0
LINE
  5
E8
  8
0
 62
     7
 10
101.1149999999999
 20
179.44499999999991
 30
0.0
 11
101.7079999999999
 21
181.65700000000001
 31
0.0
  0
LINE
  5
E9
  8
0
 62
     7
 10
101.7079999999999
 20
181.65700000000001
 30
0.0
 11
100.52200000000001
 21
181.65700000000001
 31
0.0
  0
LINE
  5
EA
  8
0
 62
     7
 10
101.70699999999999
 20
173.73400000000001
 30
0.0
 11
101.1149999999999
 21
175.94499999999999
 31
0.0
  0
LINE
  5
EB
  8
0
 62
     7
 10
101.1149999999999
 20
175.94499999999999
 30
0.0
 11
100.52200000000001
 21
173.73400000000001
 31
0.0
  0
LINE
  5
EC
  8
0
 62
     7
 10
100.52200000000001
 20
173.73400000000001
 30
0.0
 11
101.70699999999999
 21
173.73400000000001
 31
0.0
  0
LINE
  5
ED
  8
0
 62
     7
 10
101.70699999999999
 20
207.7339999999999
 30
0.0
 11
101.1149999999999
 21
209.946
 31
0.0
  0
LINE
  5
EE
  8
0
 62
     7
 10
101.1149999999999
 20
209.946
 30
0.0
 11
100.52200000000001
 21
207.7339999999999
 31
0.0
  0
LINE
  5
EF
  8
0
 62
     7
 10
100.52200000000001
 20
207.7339999999999
 30
0.0
 11
101.70699999999999
 21
207.7339999999999
 31
0.0
  0
LINE
  5
F0
  8
0
 62
     7
 10
101.7
 20
220.73500000000001
 30
0.0
 11
101.1079999999999
 21
222.947
 31
0.0
  0
LINE
  5
F1
  8
0
 62
     7
 10
101.1079999999999
 20
222.947
 30
0.0
 11
100.5149999999999
 21
220.73500000000001
 31
0.0
  0
LINE
  5
F2
  8
0
 62
     7
 10
100.5149999999999
 20
220.73500000000001
 30
0.0
 11
101.7
 21
220.73500000000001
 31
0.0
  0
LINE
  5
F3
  8
0
 62
     7
 10
82.454700000000003
 20
209.946
 30
0.0
 11
82.454700000000003
 21
222.94599999999991
 31
0.0
  0
LINE
  5
F4
  8
0
 62
     7
 10
101.1149999999999
 20
169.99700000000001
 30
0.0
 11
101.1149999999999
 21
222.94599999999991
 31
0.0
  0
LINE
  5
F5
  8
0
 62
     7
 10
175.72200000000001
 20
121.869
 30
0.0
 11
176.31499999999991
 21
119.6579999999999
 31
0.0
  0
LINE
  5
F6
  8
0
 62
     7
 10
176.31499999999991
 20
119.6579999999999
 30
0.0
 11
176.9079999999999
 21
121.869
 31
0.0
  0
LINE
  5
F7
  8
0
 62
     7
 10
176.9079999999999
 20
121.869
 30
0.0
 11
175.72200000000001
 21
121.869
 31
0.0
  0
LINE
  5
F8
  8
0
 62
     7
 10
176.893
 20
123.44799999999999
 30
0.0
 11
176.30000000000001
 21
125.6599999999999
 31
0.0
  0
LINE
  5
F9
  8
0
 62
     7
 10
176.30000000000001
 20
125.6599999999999
 30
0.0
 11
175.708
 21
123.44799999999999
 31
0.0
  0
LINE
  5
FA
  8
0
 62
     7
 10
175.708
 20
123.44799999999999
 30
0.0
 11
176.893
 21
123.44799999999999
 31
0.0
  0
LINE
  5
FB
  8
0
 62
     7
 10
176.30799999999991
 20
119.65900000000001
 30
0.0
 11
176.30799999999991
 21
125.65899999999991
 31
0.0
  0
LINE
  5
FC
  8
0
 62
     7
 10
177.0079999999999
 20
119.65900000000001
 30
0.0
 11
169.0509999999999
 21
119.65900000000001
 31
0.0
  0
LINE
  5
FD
  8
0
 62
     7
 10
177.0
 20
125.65899999999991
 30
0.0
 11
164.465
 21
125.65899999999991
 31
0.0
  0
LINE
  5
FE
  8
0
 62
     7
 10
100.0809999999999
 20
121.869
 30
0.0
 11
100.67399999999989
 21
119.6579999999999
 31
0.0
  0
LINE
  5
FF
  8
0
 62
     7
 10
100.67399999999989
 20
119.6579999999999
 30
0.0
 11
101.267
 21
121.869
 31
0.0
  0
LINE
  5
100
  8
0
 62
     7
 10
101.267
 20
121.869
 30
0.0
 11
100.0809999999999
 21
121.869
 31
0.0
  0
LINE
  5
101
  8
0
 62
     7
 10
101.252
 20
123.44799999999999
 30
0.0
 11
100.65899999999991
 21
125.6599999999999
 31
0.0
  0
LINE
  5
102
  8
0
 62
     7
 10
100.65899999999991
 20
125.6599999999999
 30
0.0
 11
100.06699999999999
 21
123.44799999999999
 31
0.0
  0
LINE
  5
103
  8
0
 62
     7
 10
100.06699999999999
 20
123.44799999999999
 30
0.0
 11
101.252
 21
123.44799999999999
 31
0.0
  0
LINE
  5
104
  8
0
 62
     7
 10
100.6669999999999
 20
119.65900000000001
 30
0.0
 11
100.6669999999999
 21
125.65899999999991
 31
0.0
  0
LINE
  5
105
  8
0
 62
     7
 10
107.0929999999999
 20
112.8689999999999
 30
0.0
 11
107.685
 21
110.6579999999999
 31
0.0
  0
LINE
  5
106
  8
0
 62
     7
 10
107.685
 20
110.6579999999999
 30
0.0
 11
108.27799999999991
 21
112.8689999999999
 31
0.0
  0
LINE
  5
107
  8
0
 62
     7
 10
108.27799999999991
 20
112.8689999999999
 30
0.0
 11
107.0929999999999
 21
112.8689999999999
 31
0.0
  0
LINE
  5
108
  8
0
 62
     7
 10
108.26299999999991
 20
123.44799999999999
 30
0.0
 11
107.67100000000001
 21
125.6599999999999
 31
0.0
  0
LINE
  5
109
  8
0
 62
     7
 10
107.67100000000001
 20
125.6599999999999
 30
0.0
 11
107.0779999999999
 21
123.44799999999999
 31
0.0
  0
LINE
  5
10A
  8
0
 62
     7
 10
107.0779999999999
 20
123.44799999999999
 30
0.0
 11
108.26299999999991
 21
123.44799999999999
 31
0.0
  0
LINE
  5
10B
  8
0
 62
     7
 10
107.678
 20
110.65899999999991
 30
0.0
 11
107.678
 21
125.65899999999991
 31
0.0
  0
LINE
  5
10C
  8
0
 62
     7
 10
108.3779999999999
 20
110.65899999999991
 30
0.0
 11
85.536100000000005
 21
110.65899999999991
 31
0.0
  0
LINE
  5
10D
  8
0
 62
     7
 10
101.367
 20
119.65900000000001
 30
0.0
 11
93.410200000000003
 21
119.65900000000001
 31
0.0
  0
LINE
  5
10E
  8
0
 62
     7
 10
108.3779999999999
 20
125.65899999999991
 30
0.0
 11
93.410200000000003
 21
125.65899999999991
 31
0.0
  0
LINE
  5
10F
  8
0
 62
     7
 10
46.93249999999999
 20
203.65599999999989
 30
0.0
 11
47.524999999999999
 21
201.44499999999999
 31
0.0
  0
LINE
  5
110
  8
0
 62
     7
 10
47.524999999999999
 20
201.44499999999999
 30
0.0
 11
48.117600000000003
 21
203.65599999999989
 31
0.0
  0
LINE
  5
111
  8
0
 62
     7
 10
48.117600000000003
 20
203.65599999999989
 30
0.0
 11
46.93249999999999
 21
203.65599999999989
 31
0.0
  0
LINE
  5
112
  8
0
 62
     7
 10
48.103099999999998
 20
220.73500000000001
 30
0.0
 11
47.51059999999999
 21
222.947
 31
0.0
  0
LINE
  5
113
  8
0
 62
     7
 10
47.51059999999999
 20
222.947
 30
0.0
 11
46.917999999999992
 21
220.73500000000001
 31
0.0
  0
LINE
  5
114
  8
0
 62
     7
 10
46.917999999999992
 20
220.73500000000001
 30
0.0
 11
48.103099999999998
 21
220.73500000000001
 31
0.0
  0
LINE
  5
115
  8
0
 62
     7
 10
47.517800000000001
 20
201.446
 30
0.0
 11
47.517800000000001
 21
222.94599999999991
 31
0.0
  0
LINE
  5
116
  8
0
 62
     7
 10
46.825000000000003
 20
201.446
 30
0.0
 11
55.744799999999998
 21
201.446
 31
0.0
  0
LINE
  5
117
  8
0
 62
     7
 10
154.17799999999991
 20
203.65599999999989
 30
0.0
 11
154.77000000000001
 21
201.44499999999999
 31
0.0
  0
LINE
  5
118
  8
0
 62
     7
 10
154.77000000000001
 20
201.44499999999999
 30
0.0
 11
155.363
 21
203.65599999999989
 31
0.0
  0
LINE
  5
119
  8
0
 62
     7
 10
155.363
 20
203.65599999999989
 30
0.0
 11
154.17799999999991
 21
203.65599999999989
 31
0.0
  0
LINE
  5
11A
  8
0
 62
     7
 10
155.3479999999999
 20
220.73500000000001
 30
0.0
 11
154.756
 21
222.947
 31
0.0
  0
LINE
  5
11B
  8
0
 62
     7
 10
154.756
 20
222.947
 30
0.0
 11
154.1629999999999
 21
220.73500000000001
 31
0.0
  0
LINE
  5
11C
  8
0
 62
     7
 10
154.1629999999999
 20
220.73500000000001
 30
0.0
 11
155.3479999999999
 21
220.73500000000001
 31
0.0
  0
LINE
  5
11D
  8
0
 62
     7
 10
154.76300000000001
 20
201.446
 30
0.0
 11
154.76300000000001
 21
222.94599999999991
 31
0.0
  0
LINE
  5
11E
  8
0
 62
     7
 10
178.71799999999999
 20
182.15599999999989
 30
0.0
 11
179.31
 21
179.94399999999999
 31
0.0
  0
LINE
  5
11F
  8
0
 62
     7
 10
179.31
 20
179.94399999999999
 30
0.0
 11
179.90299999999991
 21
182.15599999999989
 31
0.0
  0
LINE
  5
120
  8
0
 62
     7
 10
179.90299999999991
 20
182.15599999999989
 30
0.0
 11
178.71799999999999
 21
182.15599999999989
 31
0.0
  0
LINE
  5
121
  8
0
 62
     7
 10
179.88800000000001
 20
220.73500000000001
 30
0.0
 11
179.29599999999991
 21
222.947
 31
0.0
  0
LINE
  5
122
  8
0
 62
     7
 10
179.29599999999991
 20
222.947
 30
0.0
 11
178.703
 21
220.73500000000001
 31
0.0
  0
LINE
  5
123
  8
0
 62
     7
 10
178.703
 20
220.73500000000001
 30
0.0
 11
179.88800000000001
 21
220.73500000000001
 31
0.0
  0
LINE
  5
124
  8
0
 62
     7
 10
179.30299999999991
 20
179.94499999999999
 30
0.0
 11
179.30299999999991
 21
222.94599999999991
 31
0.0
  0
LINE
  5
125
  8
0
 62
     7
 10
180.0029999999999
 20
179.94499999999999
 30
0.0
 11
168.72799999999989
 21
179.94499999999999
 31
0.0
  0
LINE
  5
126
  8
0
 62
     7
 10
180.0029999999999
 20
222.94599999999991
 30
0.0
 11
173.209
 21
222.94599999999991
 31
0.0
  0
LINE
  5
127
  8
0
 62
     7
 10
107.47799999999999
 20
178.15599999999989
 30
0.0
 11
108.071
 21
175.94399999999999
 31
0.0
  0
LINE
  5
128
  8
0
 62
     7
 10
108.071
 20
175.94399999999999
 30
0.0
 11
108.6629999999999
 21
178.15599999999989
 31
0.0
  0
LINE
  5
129
  8
0
 62
     7
 10
108.6629999999999
 20
178.15599999999989
 30
0.0
 11
107.47799999999999
 21
178.15599999999989
 31
0.0
  0
LINE
  5
12A
  8
0
 62
     7
 10
108.6489999999999
 20
220.73500000000001
 30
0.0
 11
108.0559999999999
 21
222.947
 31
0.0
  0
LINE
  5
12B
  8
0
 62
     7
 10
108.0559999999999
 20
222.947
 30
0.0
 11
107.464
 21
220.73500000000001
 31
0.0
  0
LINE
  5
12C
  8
0
 62
     7
 10
107.464
 20
220.73500000000001
 30
0.0
 11
108.6489999999999
 21
220.73500000000001
 31
0.0
  0
LINE
  5
12D
  8
0
 62
     7
 10
108.06399999999999
 20
175.94499999999999
 30
0.0
 11
108.06399999999999
 21
222.94599999999991
 31
0.0
  0
LINE
  5
12E
  8
0
 62
     7
 10
108.7639999999999
 20
175.94499999999999
 30
0.0
 11
93.431200000000004
 21
175.94499999999999
 31
0.0
  0
LINE
  5
12F
  8
0
 62
     7
 10
108.7639999999999
 20
222.94599999999991
 30
0.0
 11
93.431200000000004
 21
222.94599999999991
 31
0.0
  0
LINE
  5
130
  8
0
 62
     7
 10
62.731099999999991
 20
226.01599999999991
 30
0.0
 11
62.731099999999991
 21
233.63599999999991
 31
0.0
  0
LINE
  5
131
  8
0
 62
     7
 10
165.554
 20
233.15700000000001
 30
0.0
 11
167.76599999999991
 21
233.749
 31
0.0
  0
LINE
  5
132
  8
0
 62
     7
 10
167.76599999999991
 20
233.749
 30
0.0
 11
165.554
 21
234.34200000000001
 31
0.0
  0
LINE
  5
133
  8
0
 62
     7
 10
165.554
 20
234.34200000000001
 30
0.0
 11
165.554
 21
233.15700000000001
 31
0.0
  0
LINE
  5
134
  8
0
 62
     7
 10
118.97499999999989
 20
234.32699999999991
 30
0.0
 11
116.76299999999991
 21
233.73500000000001
 31
0.0
  0
LINE
  5
135
  8
0
 62
     7
 10
116.76299999999991
 20
233.73500000000001
 30
0.0
 11
118.97499999999989
 21
233.142
 31
0.0
  0
LINE
  5
136
  8
0
 62
     7
 10
118.97499999999989
 20
233.142
 30
0.0
 11
118.97499999999989
 21
234.32699999999991
 31
0.0
  0
LINE
  5
137
  8
0
 62
     7
 10
167.7649999999999
 20
233.74199999999999
 30
0.0
 11
116.765
 21
233.74199999999999
 31
0.0
  0
LINE
  5
138
  8
0
 62
     7
 10
116.765
 20
223.64599999999999
 30
0.0
 11
116.765
 21
234.44199999999989
 31
0.0
  0
LINE
  5
139
  8
0
 62
     7
 10
167.7649999999999
 20
223.64599999999999
 30
0.0
 11
167.7649999999999
 21
234.44199999999989
 31
0.0
  0
LINE
  5
13A
  8
0
 62
     7
 10
161.55499999999989
 20
101.0559999999999
 30
0.0
 11
163.76599999999991
 21
101.649
 31
0.0
  0
LINE
  5
13B
  8
0
 62
     7
 10
163.76599999999991
 20
101.649
 30
0.0
 11
161.55499999999989
 21
102.241
 31
0.0
  0
LINE
  5
13C
  8
0
 62
     7
 10
161.55499999999989
 20
102.241
 30
0.0
 11
161.55499999999989
 21
101.0559999999999
 31
0.0
  0
LINE
  5
13D
  8
0
 62
     7
 10
144.47499999999991
 20
102.227
 30
0.0
 11
142.26300000000001
 21
101.634
 31
0.0
  0
LINE
  5
13E
  8
0
 62
     7
 10
142.26300000000001
 20
101.634
 30
0.0
 11
144.47499999999991
 21
101.042
 31
0.0
  0
LINE
  5
13F
  8
0
 62
     7
 10
144.47499999999991
 20
101.042
 30
0.0
 11
144.47499999999991
 21
102.227
 31
0.0
  0
LINE
  5
140
  8
0
 62
     7
 10
163.7649999999999
 20
101.642
 30
0.0
 11
142.2649999999999
 21
101.642
 31
0.0
  0
LINE
  5
141
  8
0
 62
     7
 10
141.446
 20
123.44799999999999
 30
0.0
 11
140.8539999999999
 21
125.6599999999999
 31
0.0
  0
LINE
  5
142
  8
0
 62
     7
 10
140.8539999999999
 20
125.6599999999999
 30
0.0
 11
140.26099999999991
 21
123.44799999999999
 31
0.0
  0
LINE
  5
143
  8
0
 62
     7
 10
140.26099999999991
 20
123.44799999999999
 30
0.0
 11
141.446
 21
123.44799999999999
 31
0.0
  0
LINE
  5
144
  8
0
 62
     7
 10
140.27600000000001
 20
117.369
 30
0.0
 11
140.86799999999991
 21
115.1579999999999
 31
0.0
  0
LINE
  5
145
  8
0
 62
     7
 10
140.86799999999991
 20
115.1579999999999
 30
0.0
 11
141.46100000000001
 21
117.369
 31
0.0
  0
LINE
  5
146
  8
0
 62
     7
 10
141.46100000000001
 20
117.369
 30
0.0
 11
140.27600000000001
 21
117.369
 31
0.0
  0
LINE
  5
147
  8
0
 62
     7
 10
140.8609999999999
 20
131.43700000000001
 30
0.0
 11
140.8609999999999
 21
115.15899999999991
 31
0.0
  0
LINE
  5
148
  8
0
 62
     7
 10
142.2649999999999
 20
108.232
 30
0.0
 11
142.2649999999999
 21
100.94199999999989
 31
0.0
  0
LINE
  5
149
  8
0
 62
     7
 10
163.7649999999999
 20
109.958
 30
0.0
 11
163.7649999999999
 21
100.94199999999989
 31
0.0
  0
LINE
  5
14A
  8
0
 62
     7
 10
74.520600000000002
 20
131.73799999999989
 30
0.0
 11
76.732399999999984
 21
132.33099999999999
 31
0.0
  0
LINE
  5
14B
  8
0
 62
     7
 10
76.732399999999984
 20
132.33099999999999
 30
0.0
 11
74.520600000000002
 21
132.923
 31
0.0
  0
LINE
  5
14C
  8
0
 62
     7
 10
74.520600000000002
 20
132.923
 30
0.0
 11
74.520600000000002
 21
131.73799999999989
 31
0.0
  0
LINE
  5
14D
  8
0
 62
     7
 10
50.941899999999997
 20
132.90899999999991
 30
0.0
 11
48.730200000000004
 21
132.316
 31
0.0
  0
LINE
  5
14E
  8
0
 62
     7
 10
48.730200000000004
 20
132.316
 30
0.0
 11
50.941899999999997
 21
131.7239999999999
 31
0.0
  0
LINE
  5
14F
  8
0
 62
     7
 10
50.941899999999997
 20
131.7239999999999
 30
0.0
 11
50.941899999999997
 21
132.90899999999991
 31
0.0
  0
LINE
  5
150
  8
0
 62
     7
 10
76.731399999999994
 20
132.3239999999999
 30
0.0
 11
48.731200000000001
 21
132.3239999999999
 31
0.0
  0
LINE
  5
151
  8
0
 62
     7
 10
48.731200000000001
 20
122.2269999999999
 30
0.0
 11
48.731200000000001
 21
133.024
 31
0.0
  0
LINE
  5
152
  8
0
 62
     7
 10
76.731399999999994
 20
122.2269999999999
 30
0.0
 11
76.731399999999994
 21
133.024
 31
0.0
  0
LINE
  5
153
  8
0
 62
     7
 10
70.520499999999998
 20
232.34999999999999
 30
0.0
 11
72.732299999999995
 21
232.9429999999999
 31
0.0
  0
LINE
  5
154
  8
0
 62
     7
 10
72.732299999999995
 20
232.9429999999999
 30
0.0
 11
70.520499999999998
 21
233.53599999999989
 31
0.0
  0
LINE
  5
155
  8
0
 62
     7
 10
70.520499999999998
 20
233.53599999999989
 30
0.0
 11
70.520499999999998
 21
232.34999999999999
 31
0.0
  0
LINE
  5
156
  8
0
 62
     7
 10
54.941699999999997
 20
233.52099999999999
 30
0.0
 11
52.729900000000001
 21
232.92899999999989
 31
0.0
  0
LINE
  5
157
  8
0
 62
     7
 10
52.729900000000001
 20
232.92899999999989
 30
0.0
 11
54.941699999999997
 21
232.33600000000001
 31
0.0
  0
LINE
  5
158
  8
0
 62
     7
 10
54.941699999999997
 20
232.33600000000001
 30
0.0
 11
54.941699999999997
 21
233.52099999999999
 31
0.0
  0
LINE
  5
159
  8
0
 62
     7
 10
72.731200000000001
 20
232.93599999999989
 30
0.0
 11
52.731000000000002
 21
232.93599999999989
 31
0.0
  0
LINE
  5
15A
  8
0
 62
     7
 10
52.731000000000002
 20
219.87700000000001
 30
0.0
 11
52.731000000000002
 21
233.63599999999991
 31
0.0
  0
LINE
  5
15B
  8
0
 62
     7
 10
72.731200000000001
 20
219.87700000000001
 30
0.0
 11
72.731200000000001
 21
233.63599999999991
 31
0.0
  0
LINE
  5
15C
  8
0
  6
AIGENLINE002
 62
     7
 10
69.935500000000005
 20
216.2459999999999
 30
0.0
 11
75.439099999999996
 21
216.2459999999999
 31
0.0
  0
ARC
  5
15D
  8
0
  6
AIGENLINE001
 62
     7
 10
72.731247999999994
 20
216.24570399999999
 30
0.0
 40
1.5000039999999999
 50
0.00001
 51
89.999980000000008
  0
ARC
  5
15E
  8
0
  6
AIGENLINE001
 62
     7
 10
72.731249000000005
 20
216.24570399999999
 30
0.0
 40
1.5000039999999999
 50
90.0
 51
179.99996999999991
  0
ARC
  5
15F
  8
0
  6
AIGENLINE001
 62
     7
 10
72.731247999999994
 20
216.24570399999999
 30
0.0
 40
1.5000039999999999
 50
179.99996999999991
 51
270.00002000000001
  0
ARC
  5
160
  8
0
  6
AIGENLINE001
 62
     7
 10
72.731247999999994
 20
216.2457049999999
 30
0.0
 40
1.5000039999999999
 50
270.00002000000001
 51
359.99998999999991
  0
LINE
  5
161
  8
0
  6
AIGENLINE002
 62
     7
 10
72.731200000000001
 20
218.977
 30
0.0
 11
72.731200000000001
 21
213.54400000000001
 31
0.0
  0
LINE
  5
162
  8
0
  6
AIGENLINE002
 62
     7
 10
49.935600000000001
 20
216.2459999999999
 30
0.0
 11
55.438800000000001
 21
216.2459999999999
 31
0.0
  0
ARC
  5
163
  8
0
  6
AIGENLINE001
 62
     7
 10
52.730965000000012
 20
216.24570399999999
 30
0.0
 40
1.5000039999999999
 50
0.00001
 51
89.999980000000008
  0
ARC
  5
164
  8
0
  6
AIGENLINE001
 62
     7
 10
52.78891999999999
 20
216.187749
 30
0.0
 40
1.559037
 50
92.130370000000013
 51
177.86960099999999
  0
ARC
  5
165
  8
0
  6
AIGENLINE001
 62
     7
 10
52.788531999999996
 20
216.30327199999999
 30
0.0
 40
1.5586349999999991
 50
182.11668599999999
 51
267.88334300000002
  0
ARC
  5
166
  8
0
  6
AIGENLINE001
 62
     7
 10
52.730965000000012
 20
216.2457049999999
 30
0.0
 40
1.5000039999999999
 50
270.00002000000001
 51
359.99998999999991
  0
LINE
  5
167
  8
0
  6
AIGENLINE002
 62
     7
 10
52.731000000000002
 20
218.977
 30
0.0
 11
52.731000000000002
 21
213.54400000000001
 31
0.0
  0
LINE
  5
168
  8
0
  6
AIGENLINE002
 62
     7
 10
74.180300000000003
 20
119.65900000000001
 30
0.0
 11
79.287999999999997
 21
119.65900000000001
 31
0.0
  0
ARC
  5
169
  8
0
  6
AIGENLINE001
 62
     7
 10
77.231261000000003
 20
119.658569
 30
0.0
 40
1.249889
 50
270.00002000000001
 51
359.99998999999991
  0
ARC
  5
16A
  8
0
  6
AIGENLINE001
 62
     7
 10
77.231261000000003
 20
119.658569
 30
0.0
 40
1.249889
 50
0.00001
 51
89.999980000000008
  0
LINE
  5
16B
  8
0
  6
AIGENLINE001
 62
     7
 10
77.231300000000005
 20
120.9079999999999
 30
0.0
 11
76.231099999999998
 21
120.9079999999999
 31
0.0
  0
ARC
  5
16C
  8
0
  6
AIGENLINE001
 62
     7
 10
76.231143000000003
 20
119.658569
 30
0.0
 40
1.249889
 50
90.0
 51
179.99996999999991
  0
ARC
  5
16D
  8
0
  6
AIGENLINE001
 62
     7
 10
76.231143000000003
 20
119.658569
 30
0.0
 40
1.249887999999999
 50
179.99996999999991
 51
270.00002000000001
  0
LINE
  5
16E
  8
0
  6
AIGENLINE001
 62
     7
 10
76.231099999999998
 20
118.40899999999991
 30
0.0
 11
77.231300000000005
 21
118.40899999999991
 31
0.0
  0
LINE
  5
16F
  8
0
  6
AIGENLINE002
 62
     7
 10
76.731399999999994
 20
226.44799999999989
 30
0.0
 11
76.731399999999994
 21
219.523
 31
0.0
  0
LINE
  5
170
  8
0
  6
AIGENLINE002
 62
     7
 10
48.731200000000001
 20
226.44799999999989
 30
0.0
 11
48.731200000000001
 21
219.523
 31
0.0
  0
LINE
  5
171
  8
0
  6
AIGENLINE002
 62
     7
 10
76.731399999999994
 20
121.8809999999999
 30
0.0
 11
76.731399999999994
 21
117.33
 31
0.0
  0
LINE
  5
172
  8
0
  6
AIGENLINE002
 62
     7
 10
46.180100000000003
 20
119.65900000000001
 30
0.0
 11
51.28779999999999
 21
119.65900000000001
 31
0.0
  0
ARC
  5
173
  8
0
  6
AIGENLINE001
 62
     7
 10
49.231070000000003
 20
119.658569
 30
0.0
 40
1.249889
 50
270.00002000000001
 51
359.99998999999991
  0
ARC
  5
174
  8
0
  6
AIGENLINE001
 62
     7
 10
49.231070000000003
 20
119.658569
 30
0.0
 40
1.249889
 50
0.00001
 51
89.999980000000008
  0
LINE
  5
175
  8
0
  6
AIGENLINE001
 62
     7
 10
49.231099999999998
 20
120.9079999999999
 30
0.0
 11
48.231000000000002
 21
120.9079999999999
 31
0.0
  0
ARC
  5
176
  8
0
  6
AIGENLINE001
 62
     7
 10
48.230953
 20
119.658569
 30
0.0
 40
1.249889
 50
90.0
 51
179.99996999999991
  0
ARC
  5
177
  8
0
  6
AIGENLINE001
 62
     7
 10
48.230952000000002
 20
119.658569
 30
0.0
 40
1.249887999999999
 50
179.99996999999991
 51
270.00002000000001
  0
LINE
  5
178
  8
0
  6
AIGENLINE001
 62
     7
 10
48.231000000000002
 20
118.40899999999991
 30
0.0
 11
49.231099999999998
 21
118.40899999999991
 31
0.0
  0
LINE
  5
179
  8
0
  6
AIGENLINE002
 62
     7
 10
48.731200000000001
 20
121.8809999999999
 30
0.0
 11
48.731200000000001
 21
117.33
 31
0.0
  0
LINE
  5
17A
  8
0
  6
AIGENLINE002
 62
     7
 10
60.79869999999999
 20
123.15899999999991
 30
0.0
 11
64.798900000000003
 21
123.15899999999991
 31
0.0
  0
ARC
  5
17B
  8
0
  6
AIGENLINE001
 62
     7
 10
62.731107000000002
 20
123.15880799999999
 30
0.0
 40
1.249889
 50
0.00001
 51
89.999980000000008
  0
ARC
  5
17C
  8
0
  6
AIGENLINE001
 62
     7
 10
62.731107000000002
 20
123.15880799999999
 30
0.0
 40
1.249889
 50
90.0
 51
179.99996999999991
  0
ARC
  5
17D
  8
0
  6
AIGENLINE001
 62
     7
 10
62.779695999999987
 20
123.206682
 30
0.0
 40
1.2993600000000001
 50
182.111524
 51
267.85692899999992
  0
ARC
  5
17E
  8
0
  6
AIGENLINE001
 62
     7
 10
62.682772999999997
 20
123.20642599999999
 30
0.0
 40
1.2990950000000001
 50
272.13221399999998
 51
357.89937300000003
  0
LINE
  5
17F
  8
0
  6
AIGENLINE002
 62
     7
 10
59.601599999999998
 20
216.2459999999999
 30
0.0
 11
66.269199999999998
 21
216.2459999999999
 31
0.0
  0
ARC
  5
180
  8
0
 62
     7
 10
62.731193000000012
 20
216.24561799999989
 30
0.0
 40
1.7500340000000001
 50
0.00283
 51
90.002800000000008
  0
ARC
  5
181
  8
0
 62
     7
 10
62.798715000000001
 20
216.17791699999989
 30
0.0
 40
1.818991
 50
92.130040000000008
 51
177.8642899999999
  0
ARC
  5
182
  8
0
 62
     7
 10
62.798164999999997
 20
216.312941
 30
0.0
 40
1.818420999999999
 50
182.119035
 51
267.8866339999999
  0
ARC
  5
183
  8
0
 62
     7
 10
62.731193000000012
 20
216.245791
 30
0.0
 40
1.7500340000000001
 50
269.99720000000002
 51
359.99716999999998
  0
LINE
  5
184
  8
0
 62
     7
 10
127.34099999999999
 20
184.44999999999999
 30
0.0
 11
121.26900000000001
 21
184.44999999999999
 31
0.0
  0
LINE
  5
185
  8
0
 62
     7
 10
118.202
 20
182.22099999999989
 30
0.0
 11
117.05799999999989
 21
180.238
 31
0.0
  0
LINE
  5
186
  8
0
 62
     7
 10
117.05799999999989
 20
180.238
 30
0.0
 11
119.0409999999999
 21
181.3829999999999
 31
0.0
  0
LINE
  5
187
  8
0
 62
     7
 10
119.0409999999999
 20
181.3829999999999
 30
0.0
 11
118.202
 21
182.22099999999989
 31
0.0
  0
LINE
  5
188
  8
0
 62
     7
 10
117.05799999999989
 20
180.238
 30
0.0
 11
121.26900000000001
 21
184.44999999999999
 31
0.0
  0
LINE
  5
189
  8
0
 62
     7
 10
51.171999999999997
 20
227.80499999999989
 30
0.0
 11
45.551000000000002
 21
227.80499999999989
 31
0.0
  0
LINE
  5
18A
  8
0
 62
     7
 10
75.420000000000002
 20
194.3779999999999
 30
0.0
 11
69.798400000000001
 21
194.3779999999999
 31
0.0
  0
LINE
  5
18B
  8
0
 62
     7
 10
65.951400000000007
 20
213.863
 30
0.0
 11
63.968600000000002
 21
215.0079999999999
 31
0.0
  0
LINE
  5
18C
  8
0
 62
     7
 10
63.968600000000002
 20
215.0079999999999
 30
0.0
 11
65.113399999999999
 21
213.02500000000001
 31
0.0
  0
LINE
  5
18D
  8
0
 62
     7
 10
65.113399999999999
 20
213.02500000000001
 30
0.0
 11
65.951400000000007
 21
213.863
 31
0.0
  0
LINE
  5
18E
  8
0
 62
     7
 10
59.51080000000001
 20
218.62799999999999
 30
0.0
 11
61.493600000000001
 21
217.483
 31
0.0
  0
LINE
  5
18F
  8
0
 62
     7
 10
61.493600000000001
 20
217.483
 30
0.0
 11
60.348799999999997
 21
219.46599999999989
 31
0.0
  0
LINE
  5
190
  8
0
 62
     7
 10
60.348799999999997
 20
219.46599999999989
 30
0.0
 11
59.51080000000001
 21
218.62799999999999
 31
0.0
  0
LINE
  5
191
  8
0
 62
     7
 10
51.171999999999997
 20
227.80499999999989
 30
0.0
 11
66.689199999999985
 21
212.2879999999999
 31
0.0
  0
LINE
  5
192
  8
0
 62
     7
 10
66.340199999999996
 20
198.67400000000001
 30
0.0
 11
64.357399999999998
 21
199.81899999999999
 31
0.0
  0
LINE
  5
193
  8
0
 62
     7
 10
64.357399999999998
 20
199.81899999999999
 30
0.0
 11
65.502200000000002
 21
197.8359999999999
 31
0.0
  0
LINE
  5
194
  8
0
 62
     7
 10
65.502200000000002
 20
197.8359999999999
 30
0.0
 11
66.340199999999996
 21
198.67400000000001
 31
0.0
  0
LINE
  5
195
  8
0
 62
     7
 10
59.122
 20
204.21700000000001
 30
0.0
 11
61.10479999999999
 21
203.072
 31
0.0
  0
LINE
  5
196
  8
0
 62
     7
 10
61.10479999999999
 20
203.072
 30
0.0
 11
59.960000000000001
 21
205.05500000000001
 31
0.0
  0
LINE
  5
197
  8
0
 62
     7
 10
59.960000000000001
 20
205.05500000000001
 30
0.0
 11
59.122
 21
204.21700000000001
 31
0.0
  0
LINE
  5
198
  8
0
 62
     7
 10
57.521700000000003
 20
206.65499999999989
 30
0.0
 11
69.798400000000001
 21
194.3779999999999
 31
0.0
  0
ARC
  5
199
  8
0
 62
     7
 10
62.731105999999997
 20
201.44565199999991
 30
0.0
 40
2.2999610000000001
 50
0.00001
 51
89.999980000000008
  0
ARC
  5
19A
  8
0
 62
     7
 10
62.731107000000002
 20
201.44565199999991
 30
0.0
 40
2.2999610000000001
 50
90.0
 51
179.99996999999991
  0
ARC
  5
19B
  8
0
 62
     7
 10
62.731192
 20
201.4455659999999
 30
0.0
 40
2.300046
 50
179.99782500000001
 51
269.99787400000002
  0
ARC
  5
19C
  8
0
 62
     7
 10
62.731019999999987
 20
201.4455669999999
 30
0.0
 40
2.3000470000000002
 50
270.00216499999999
 51
0.002136
  0
ARC
  5
19D
  8
0
 62
     7
 10
62.731105999999997
 20
201.44565199999991
 30
0.0
 40
3.4998949999999991
 50
0.00001
 51
89.999980000000008
  0
ARC
  5
19E
  8
0
 62
     7
 10
62.731107000000002
 20
201.44565199999991
 30
0.0
 40
3.4998949999999991
 50
90.0
 51
179.99996999999991
  0
ARC
  5
19F
  8
0
 62
     7
 10
62.731192
 20
201.4455659999999
 30
0.0
 40
3.4999799999999999
 50
179.99856
 51
269.99860999999993
  0
ARC
  5
1A0
  8
0
 62
     7
 10
62.731019999999987
 20
201.4455669999999
 30
0.0
 40
3.4999809999999991
 50
270.00142999999991
 51
0.0014
  0
LINE
  5
1A1
  8
0
  6
AIGENLINE002
 62
     7
 10
114.1899999999999
 20
201.446
 30
0.0
 11
170.90599999999989
 21
201.446
 31
0.0
  0
LINE
  5
1A2
  8
0
  6
AIGENLINE002
 62
     7
 10
142.2649999999999
 20
226.3129999999999
 30
0.0
 11
142.2649999999999
 21
177.00399999999999
 31
0.0
  0
LINE
  5
1A3
  8
0
 62
     7
 10
122.765
 20
119.65900000000001
 30
0.0
 11
122.765
 21
119.1149999999999
 31
0.0
  0
LINE
  5
1A4
  8
0
 62
     7
 10
145.7649999999999
 20
112.819
 30
0.0
 11
145.7649999999999
 21
110.65899999999991
 31
0.0
  0
LINE
  5
1A5
  8
0
  6
AIGENLINE001
 62
     7
 10
137.185
 20
115.15899999999991
 30
0.0
 11
138.7649999999999
 21
115.15899999999991
 31
0.0
  0
LINE
  5
1A6
  8
0
 62
     7
 10
138.7649999999999
 20
113.65899999999991
 30
0.0
 11
138.7649999999999
 21
110.65899999999991
 31
0.0
  0
LINE
  5
1A7
  8
0
  6
AIGENLINE002
 62
     7
 10
142.2649999999999
 20
115.59999999999989
 30
0.0
 11
142.2649999999999
 21
108.932
 31
0.0
  0
LINE
  5
1A8
  8
0
  6
AIGENLINE002
 62
     7
 10
157.065
 20
128.76300000000001
 30
0.0
 11
157.065
 21
123.0329999999999
 31
0.0
  0
LINE
  5
1A9
  8
0
  6
AIGENLINE001
 62
     7
 10
150.7649999999999
 20
125.1579999999999
 30
0.0
 11
150.012
 21
117.377
 31
0.0
  0
LINE
  5
1AA
  8
0
 62
     7
 10
163.7649999999999
 20
125.65899999999991
 30
0.0
 11
163.7649999999999
 21
110.65899999999991
 31
0.0
  0
LINE
  5
1AB
  8
0
 62
     7
 10
167.7649999999999
 20
222.94599999999991
 30
0.0
 11
167.7649999999999
 21
180.94499999999999
 31
0.0
  0
LINE
  5
1AC
  8
0
 62
     7
 10
117.765
 20
179.946
 30
0.0
 11
166.7649999999999
 21
179.946
 31
0.0
  0
ARC
  5
1AD
  8
0
 62
     7
 10
166.726393
 20
180.983946
 30
0.0
 40
1.0391269999999999
 50
272.13115699999992
 51
357.87872399999998
  0
LINE
  5
1AE
  8
0
 62
     7
 10
116.765
 20
222.94599999999991
 30
0.0
 11
116.765
 21
180.94499999999999
 31
0.0
  0
ARC
  5
1AF
  8
0
 62
     7
 10
117.803259
 20
180.98413199999999
 30
0.0
 40
1.0393069999999991
 50
182.13122200000001
 51
267.87867699999993
  0
LINE
  5
1B0
  8
0
  6
AIGENLINE003
 62
     7
 10
116.765
 20
222.94599999999991
 30
0.0
 11
167.7649999999999
 21
222.94599999999991
 31
0.0
  0
LINE
  5
1B1
  8
0
  6
AIGENLINE002
 62
     7
 10
56.814799999999998
 20
201.446
 30
0.0
 11
68.809299999999993
 21
201.446
 31
0.0
  0
LINE
  5
1B2
  8
0
 62
     7
 10
41.981200000000001
 20
179.44499999999991
 30
0.0
 11
83.481399999999994
 21
179.44499999999991
 31
0.0
  0
LINE
  5
1B3
  8
0
 62
     7
 10
39.481000000000002
 20
207.446
 30
0.0
 11
39.481000000000002
 21
181.94499999999991
 31
0.0
  0
ARC
  5
1B4
  8
0
 62
     7
 10
41.981079000000001
 20
181.94551299999989
 30
0.0
 40
2.500035
 50
180.00198399999999
 51
270.00199399999991
  0
LINE
  5
1B5
  8
0
 62
     7
 10
85.981199999999987
 20
207.446
 30
0.0
 11
85.981199999999987
 21
181.94499999999991
 31
0.0
  0
ARC
  5
1B6
  8
0
 62
     7
 10
83.481306000000004
 20
181.9453419999999
 30
0.0
 40
2.4998640000000001
 50
270.00199399999991
 51
0.001964
  0
LINE
  5
1B7
  8
0
 62
     7
 10
41.981200000000001
 20
209.946
 30
0.0
 11
83.481399999999994
 21
209.946
 31
0.0
  0
ARC
  5
1B8
  8
0
 62
     7
 10
83.481306000000004
 20
207.44575499999991
 30
0.0
 40
2.4998640000000001
 50
359.9980359999999
 51
89.998006000000004
  0
ARC
  5
1B9
  8
0
 62
     7
 10
41.981079999999999
 20
207.44558199999989
 30
0.0
 40
2.5000360000000001
 50
89.998025999999996
 51
179.99799599999989
  0
LINE
  5
1BA
  8
0
  6
AIGENLINE002
 62
     7
 10
62.731099999999991
 20
127.172
 30
0.0
 11
62.731099999999991
 21
108.9169999999999
 31
0.0
  0
LINE
  5
1BB
  8
0
  6
AIGENLINE002
 62
     7
 10
62.731099999999991
 20
225.315
 30
0.0
 11
62.731099999999991
 21
173.245
 31
0.0
  0
LINE
  5
1BC
  8
0
 62
     7
 10
92.731200000000001
 20
222.94599999999991
 30
0.0
 11
92.731200000000001
 21
177.94499999999991
 31
0.0
  0
LINE
  5
1BD
  8
0
 62
     7
 10
58.5246
 20
113.6539999999999
 30
0.0
 11
66.937600000000003
 21
113.6539999999999
 31
0.0
  0
LINE
  5
1BE
  8
0
 62
     7
 10
59.3752
 20
110.65899999999991
 30
0.0
 11
62.731099999999991
 21
110.65899999999991
 31
0.0
  0
LINE
  5
1BF
  8
0
 62
     7
 10
56.768300000000004
 20
113.65899999999991
 30
0.0
 11
58.5246
 21
113.65899999999991
 31
0.0
  0
LINE
  5
1C0
  8
0
 62
     7
 10
117.765
 20
119.65900000000001
 30
0.0
 11
163.7649999999999
 21
119.65900000000001
 31
0.0
  0
LINE
  5
1C1
  8
0
  6
AIGENLINE002
 62
     7
 10
160.37700000000001
 20
119.65900000000001
 30
0.0
 11
168.22499999999991
 21
119.65900000000001
 31
0.0
  0
LINE
  5
1C2
  8
0
  6
AIGENLINE002
 62
     7
 10
149.477
 20
122.1579999999999
 30
0.0
 11
152.28099999999989
 21
122.1579999999999
 31
0.0
  0
LINE
  5
1C3
  8
0
 62
     7
 10
117.015
 20
125.65899999999991
 30
0.0
 11
163.7649999999999
 21
125.65899999999991
 31
0.0
  0
LINE
  5
1C4
  8
0
 62
     7
 10
33.330800000000004
 20
125.65899999999991
 30
0.0
 11
92.131699999999995
 21
125.65899999999991
 31
0.0
  0
LINE
  5
1C5
  8
0
 62
     7
 10
34.730899999999998
 20
175.94499999999999
 30
0.0
 11
90.731300000000005
 21
175.94499999999999
 31
0.0
  0
ARC
  5
1C6
  8
0
 62
     7
 10
90.731210999999988
 20
177.94538899999989
 30
0.0
 40
1.9999769999999999
 50
270.00248699999997
 51
0.002457
  0
LINE
  5
1C7
  8
0
 62
     7
 10
32.731000000000002
 20
222.94599999999991
 30
0.0
 11
32.731000000000002
 21
177.94499999999991
 31
0.0
  0
ARC
  5
1C8
  8
0
 62
     7
 10
34.731001999999997
 20
177.94538799999989
 30
0.0
 40
1.9999759999999991
 50
179.99750299999991
 51
269.99755199999993
  0
LINE
  5
1C9
  8
0
 62
     7
 10
32.731000000000002
 20
222.94599999999991
 30
0.0
 11
92.731200000000001
 21
222.94599999999991
 31
0.0
  0
TEXT
  5
1CA
  8
_________2
 62
     7
 10
29.525700000000001
 20
22.2272
 30
0.0
 40
3.9357000000000002
  1
実容量：4.9L、重量18.0kg、オーバーフロー付
 41
0.5
  0
LINE
  5
1CB
  8
_________2
 62
     7
 10
105.2389999999999
 20
17.428499999999989
 30
0.0
 11
105.2389999999999
 21
0.4485540000000001
 31
0.0
  0
LINE
  5
1CC
  8
_________2
 62
     7
 10
81.679900000000004
 20
51.324300000000001
 30
0.0
 11
79.493700000000004
 21
51.324300000000001
 31
0.0
  0
LINE
  5
1CD
  8
_________2
 62
     7
 10
82.172600000000017
 20
51.324300000000001
 30
0.0
 11
81.920400000000001
 21
51.324300000000001
 31
0.0
  0
LINE
  5
1CE
  8
_________2
 62
     7
 10
82.665199999999984
 20
51.324300000000001
 30
0.0
 11
85.590100000000007
 21
51.324300000000001
 31
0.0
  0
LINE
  5
1CF
  8
_________2
 62
     7
 10
82.172600000000017
 20
51.324300000000001
 30
0.0
 11
82.424800000000005
 21
51.324300000000001
 31
0.0
  0
LINE
  5
1D0
  8
_________2
 62
     7
 10
75.776399999999995
 20
51.324300000000001
 30
0.0
 11
73.589399999999998
 21
51.324300000000001
 31
0.0
  0
LINE
  5
1D1
  8
_________2
 62
     7
 10
76.2684
 20
51.324300000000001
 30
0.0
 11
76.016900000000007
 21
51.324300000000001
 31
0.0
  0
LINE
  5
1D2
  8
_________2
 62
     7
 10
76.2684
 20
51.817
 30
0.0
 11
76.2684
 21
54.003900000000002
 31
0.0
  0
LINE
  5
1D3
  8
_________2
 62
     7
 10
76.2684
 20
51.324300000000001
 30
0.0
 11
76.2684
 21
51.576900000000002
 31
0.0
  0
LINE
  5
1D4
  8
_________2
 62
     7
 10
76.76100000000001
 20
51.324300000000001
 30
0.0
 11
78.947999999999993
 21
51.324300000000001
 31
0.0
  0
LINE
  5
1D5
  8
_________2
 62
     7
 10
76.2684
 20
51.324300000000001
 30
0.0
 11
76.520499999999998
 21
51.324300000000001
 31
0.0
  0
LINE
  5
1D6
  8
_________2
 62
     7
 10
76.2684
 20
50.832399999999993
 30
0.0
 11
76.2684
 21
48.645699999999998
 31
0.0
  0
LINE
  5
1D7
  8
_________2
 62
     7
 10
76.2684
 20
51.324300000000001
 30
0.0
 11
76.2684
 21
51.072800000000001
 31
0.0
  0
LINE
  5
1D8
  8
_________2
 62
     7
 10
79.979399999999984
 20
50.104799999999997
 30
0.0
 11
85.157399999999996
 21
49.240000000000002
 31
0.0
  0
LINE
  5
1D9
  8
_________2
 62
     7
 10
79.979399999999984
 20
52.544199999999989
 30
0.0
 11
85.157399999999996
 21
53.409700000000001
 31
0.0
  0
LINE
  5
1DA
  8
_________2
 62
     7
 10
85.157399999999996
 20
49.240000000000002
 30
0.0
 11
85.157399999999996
 21
53.409700000000001
 31
0.0
  0
LINE
  5
1DB
  8
_________2
 62
     7
 10
79.979399999999984
 20
50.104799999999997
 30
0.0
 11
79.979399999999984
 21
52.544199999999989
 31
0.0
  0
ARC
  5
1DC
  8
_________2
 62
     7
 10
76.221766000000002
 20
51.277380999999998
 30
0.0
 40
1.267714
 50
2.1220840000000001
 51
87.894083999999992
  0
ARC
  5
1DD
  8
_________2
 62
     7
 10
76.315297000000001
 20
51.277734999999993
 30
0.0
 40
1.267374999999999
 50
92.122849999999985
 51
177.893304
  0
ARC
  5
1DE
  8
_________2
 62
     7
 10
76.315273000000005
 20
51.371245999999992
 30
0.0
 40
1.267363
 50
182.12181499999991
 51
267.87821400000001
  0
ARC
  5
1DF
  8
_________2
 62
     7
 10
76.221461000000005
 20
51.371928999999987
 30
0.0
 40
1.2680439999999991
 50
272.11916400000001
 51
357.84848499999993
  0
ARC
  5
1E0
  8
_________2
 62
     7
 10
76.187981999999991
 20
51.244312999999998
 30
0.0
 40
2.1668310000000002
 50
2.1161439999999989
 51
87.874379000000005
  0
ARC
  5
1E1
  8
_________2
 62
     7
 10
76.348411999999996
 20
51.245334999999997
 30
0.0
 40
2.1657980000000001
 50
92.118487999999999
 51
177.90988599999989
  0
ARC
  5
1E2
  8
_________2
 62
     7
 10
76.348354
 20
51.404327000000002
 30
0.0
 40
2.1657779999999991
 50
182.11700400000001
 51
267.88302499999992
  0
ARC
  5
1E3
  8
_________2
 62
     7
 10
76.188378999999983
 20
51.405009999999997
 30
0.0
 40
2.1664590000000001
 50
272.11546800000002
 51
357.86560400000002
  0
TEXT
  5
1E4
  8
_________2
 62
     7
 10
109.5439999999999
 20
23.199100000000001
 30
0.0
 40
3.0923400000000001
  1
図番
 41
0.5
  0
LINE
  5
1E5
  8
_________2
 62
     7
 10
108.4889999999999
 20
27.4283
 30
0.0
 11
188.49000000000001
 21
27.4283
 31
0.0
  0
TEXT
  5
1E6
  8
_________2
 62
     7
 10
109.5439999999999
 20
33.198900000000002
 30
0.0
 40
3.0923400000000001
  1
品番
 41
0.5
  0
TEXT
  5
1E7
  8
_________2
 62
     7
 10
109.5439999999999
 20
53.338000000000001
 30
0.0
 40
3.0923400000000001
  1
名称
 41
0.5
  0
TEXT
  5
1E8
  8
_________2
 62
     7
 10
96.784058333333334
 20
48.341900000000003
 30
0.0
 40
3.6545800000000002
  1
mm
 41
0.5
 72
     1
 11
98.306799999999996
 21
48.341900000000003
 31
0.0
  0
TEXT
  5
1E9
  8
_________2
 62
     7
 10
90.582099999999997
 20
53.338000000000001
 30
0.0
 40
3.0923400000000001
  1
単位
 41
0.5
  0
TEXT
  5
1EA
  8
_________2
 62
     7
 10
90.582099999999997
 20
40.930399999999999
 30
0.0
 40
3.0923400000000001
  1
尺度
 41
0.5
  0
TEXT
  5
1EB
  8
_________2
 62
     7
 10
95.030836166666674
 20
34.7378
 30
0.0
 40
3.6545800000000002
  1
1 ： 10
 41
0.5
 72
     1
 11
98.898600000000002
 21
34.7378
 31
0.0
  0
TEXT
  5
1EC
  8
_________2
 62
     7
 10
141.27354999999989
 20
30.627800000000001
 30
0.0
 40
3.9357000000000002
  1
VB71136G
 41
0.5
 72
     1
 11
148.489
 21
30.627800000000001
 31
0.0
  0
TEXT
  5
1ED
  8
_________2
 62
     7
 10
141.27354999999989
 20
20.626999999999988
 30
0.0
 40
3.9357000000000002
  1
VB71136G
 41
0.5
 72
     1
 11
148.489
 21
20.626999999999988
 31
0.0
  0
TEXT
  5
1EE
  8
_________2
 62
     7
 10
30.861000000000001
 20
61.679299999999998
 30
0.0
 40
4.2168199999999993
  1
※壁取付部には厚さ30mm以上の補強木を入れてください。
 41
0.5
  0
TEXT
  5
1EF
  8
_________2
 62
     7
 10
114.11799999999999
 20
45.745600000000003
 30
0.0
 40
3.9357000000000002
  1
サブウェイ2 洗面器
 41
0.5
  0
TEXT
  5
1F0
  8
_________2
 62
     7
 10
44.364200333333329
 20
35.122999999999998
 30
0.0
 40
3.6545800000000002
  1
早川
 41
0.5
 72
     1
 11
46.252400000000002
 21
35.122999999999998
 31
0.0
  0
TEXT
  5
1F1
  8
_________2
 62
     7
 10
25.729290666666671
 20
35.122999999999998
 30
0.0
 40
3.6545800000000002
  1
菅原
 41
0.5
 72
     1
 11
27.6784
 21
35.122999999999998
 31
0.0
  0
TEXT
  5
1F2
  8
_________2
 62
     7
 10
72.724699999999999
 20
34.7378
 30
0.0
 40
3.6545800000000002
  1
13.06.19
 41
0.5
  0
TEXT
  5
1F3
  8
_________2
 62
     7
 10
71.531999999999996
 20
40.930399999999999
 30
0.0
 40
3.0923400000000001
  1
日付
 41
0.5
  0
TEXT
  5
1F4
  8
_________2
 62
     7
 10
34.578299999999992
 20
40.930399999999999
 30
0.0
 40
3.0923400000000001
  1
検図
 41
0.5
  0
TEXT
  5
1F5
  8
_________2
 62
     7
 10
22.96019999999999
 20
26.730999999999991
 30
0.0
 40
3.0923400000000001
  1
備考
 41
0.5
  0
TEXT
  5
1F6
  8
_________2
 62
     7
 10
22.96019999999999
 20
40.930399999999999
 30
0.0
 40
3.0923400000000001
  1
製図
 41
0.5
  0
TEXT
  5
1F7
  8
_________2
 62
     7
 10
28.727365333333339
 20
49.456400000000002
 30
0.0
 40
4.4979399999999989
  1
セラトレーディング株式会社
 41
0.5
 72
     1
 11
46.119399999999992
 21
49.456400000000002
 31
0.0
  0
LINE
  5
1F8
  8
_________2
 62
     7
 10
188.49000000000001
 20
17.428499999999989
 30
0.0
 11
21.988499999999991
 21
17.428499999999989
 31
0.0
  0
LINE
  5
1F9
  8
_________2
 62
     7
 10
21.988499999999991
 20
17.428499999999989
 30
0.0
 11
21.988499999999991
 21
280.42999999999989
 31
0.0
  0
LINE
  5
1FA
  8
_________2
 62
     7
 10
21.988499999999991
 20
280.42999999999989
 30
0.0
 11
188.49000000000001
 21
280.42999999999989
 31
0.0
  0
LINE
  5
1FB
  8
_________2
 62
     7
 10
188.49000000000001
 20
280.42999999999989
 30
0.0
 11
188.49000000000001
 21
17.428499999999989
 31
0.0
  0
LINE
  5
1FC
  8
_________2
 62
     7
 10
70.488799999999998
 20
30.928899999999999
 30
0.0
 11
70.488799999999998
 21
57.428699999999992
 31
0.0
  0
LINE
  5
1FD
  8
_________2
 62
     7
 10
89.488600000000005
 20
30.928899999999999
 30
0.0
 11
89.488600000000005
 21
57.428699999999992
 31
0.0
  0
LINE
  5
1FE
  8
_________2
 62
     7
 10
108.4889999999999
 20
17.428499999999989
 30
0.0
 11
108.4889999999999
 21
57.428699999999992
 31
0.0
  0
LINE
  5
1FF
  8
_________2
 62
     7
 10
33.488300000000002
 20
30.928899999999999
 30
0.0
 11
33.488300000000002
 21
44.928800000000003
 31
0.0
  0
LINE
  5
200
  8
_________2
 62
     7
 10
21.988499999999991
 20
30.928899999999999
 30
0.0
 11
108.4889999999999
 21
30.928899999999999
 31
0.0
  0
LINE
  5
201
  8
_________2
 62
     7
 10
21.988499999999991
 20
44.928800000000003
 30
0.0
 11
108.4889999999999
 21
44.928800000000003
 31
0.0
  0
LINE
  5
202
  8
_________2
 62
     7
 10
108.4889999999999
 20
37.428100000000001
 30
0.0
 11
188.49000000000001
 21
37.428100000000001
 31
0.0
  0
LINE
  5
203
  8
_________2
 62
     7
 10
21.988499999999991
 20
57.428699999999992
 30
0.0
 11
188.49000000000001
 21
57.428699999999992
 31
0.0
  0
LINE
  5
204
  8
_________2
 62
     7
 10
210.24000000000001
 20
148.93100000000001
 30
0.0
 11
188.489
 21
148.93100000000001
 31
0.0
  0
LINE
  5
205
  8
_________2
 62
     7
 10
105.2389999999999
 20
297.45099999999991
 30
0.0
 11
105.2389999999999
 21
280.42999999999989
 31
0.0
  0
LINE
  5
206
  8
_________2
 62
     7
 10
21.988499999999991
 20
148.93100000000001
 30
0.0
 11
0.238402
 21
148.93100000000001
 31
0.0
  0
ENDSEC
  0
EOF
