  0
SECTION
  2
HEADER
  9
$ACADVER
  1
AC1009
  9
$INSBASE
 10
0.0
 20
0.0
 30
0.0
  9
$EXTMIN
 10
-4.7010300000000003
 20
-21.070999999999991
 30
0.0
  9
$EXTMAX
 10
205.30099999999999
 20
275.93099999999993
 30
0.0
  9
$LIMMIN
 10
0.0
 20
0.0
  9
$LIMMAX
 10
12.0
 20
9.0
  9
$ORTHOMODE
 70
     0
  9
$REGENMODE
 70
     1
  9
$FILLMODE
 70
     1
  9
$QTEXTMODE
 70
     0
  9
$MIRRTEXT
 70
     1
  9
$DRAGMODE
 70
     2
  9
$LTSCALE
 40
1.0
  9
$OSMODE
 70
    37
  9
$ATTMODE
 70
     1
  9
$TEXTSIZE
 40
0.0
  9
$TRACEWID
 40
0.05
  9
$TEXTSTYLE
  7
STANDARD
  9
$CLAYER
  8
0
  9
$CELTYPE
  6
CONTINUOUS
  9
$CECOLOR
 62
   256
  9
$DIMSCALE
 40
1.0
  9
$DIMASZ
 40
0.18
  9
$DIMEXO
 40
0.0625
  9
$DIMDLI
 40
0.38
  9
$DIMRND
 40
0.0
  9
$DIMDLE
 40
0.0
  9
$DIMEXE
 40
0.18
  9
$DIMTP
 40
0.0
  9
$DIMTM
 40
0.0
  9
$DIMTXT
 40
0.18
  9
$DIMCEN
 40
0.09
  9
$DIMTSZ
 40
0.0
  9
$DIMTOL
 70
     0
  9
$DIMLIM
 70
     0
  9
$DIMTIH
 70
     1
  9
$DIMTOH
 70
     1
  9
$DIMSE1
 70
     0
  9
$DIMSE2
 70
     0
  9
$DIMTAD
 70
     0
  9
$DIMZIN
 70
     0
  9
$DIMBLK
  1

  9
$DIMASO
 70
     1
  9
$DIMSHO
 70
     1
  9
$DIMPOST
  1

  9
$DIMAPOST
  1

  9
$DIMALT
 70
     0
  9
$DIMALTD
 70
     2
  9
$DIMALTF
 40
25.399999999999999
  9
$DIMLFAC
 40
1.0
  9
$DIMTOFL
 70
     0
  9
$DIMTVP
 40
0.0
  9
$DIMTIX
 70
     0
  9
$DIMSOXD
 70
     0
  9
$DIMSAH
 70
     0
  9
$DIMBLK1
  1

  9
$DIMBLK2
  1

  9
$DIMSTYLE
  2
STANDARD
  9
$DIMCLRD
 70
     0
  9
$DIMCLRE
 70
     0
  9
$DIMCLRT
 70
     0
  9
$DIMTFAC
 40
1.0
  9
$DIMGAP
 40
0.09
  9
$LUNITS
 70
     2
  9
$LUPREC
 70
     4
  9
$SKETCHINC
 40
0.1
  9
$FILLETRAD
 40
0.0
  9
$AUNITS
 70
     0
  9
$AUPREC
 70
     0
  9
$MENU
  1
.
  9
$ELEVATION
 40
0.0
  9
$PELEVATION
 40
0.0
  9
$THICKNESS
 40
0.0
  9
$LIMCHECK
 70
     0
  9
$BLIPMODE
 70
     0
  9
$CHAMFERA
 40
0.0
  9
$CHAMFERB
 40
0.0
  9
$SKPOLY
 70
     0
  9
$TDCREATE
 40
2444972.375
  9
$TDUPDATE
 40
2456787.2487629158
  9
$TDINDWG
 40
0.0000058333
  9
$TDUSRTIMER
 40
0.0000058333
  9
$USRTIMER
 70
     1
  9
$ANGBASE
 50
0.0
  9
$ANGDIR
 70
     0
  9
$PDMODE
 70
     0
  9
$PDSIZE
 40
0.0
  9
$PLINEWID
 40
0.0
  9
$COORDS
 70
     1
  9
$SPLFRAME
 70
     0
  9
$SPLINETYPE
 70
     6
  9
$SPLINESEGS
 70
     8
  9
$ATTDIA
 70
     0
  9
$ATTREQ
 70
     1
  9
$HANDLING
 70
     1
  9
$HANDSEED
  5
1BF
  9
$SURFTAB1
 70
     6
  9
$SURFTAB2
 70
     6
  9
$SURFTYPE
 70
     6
  9
$SURFU
 70
     6
  9
$SURFV
 70
     6
  9
$UCSNAME
  2

  9
$UCSORG
 10
0.0
 20
0.0
 30
0.0
  9
$UCSXDIR
 10
1.0
 20
0.0
 30
0.0
  9
$UCSYDIR
 10
0.0
 20
1.0
 30
0.0
  9
$PUCSNAME
  2

  9
$PUCSORG
 10
0.0
 20
0.0
 30
0.0
  9
$PUCSXDIR
 10
1.0
 20
0.0
 30
0.0
  9
$PUCSYDIR
 10
0.0
 20
1.0
 30
0.0
  9
$USERI1
 70
     0
  9
$USERI2
 70
     0
  9
$USERI3
 70
     0
  9
$USERI4
 70
     0
  9
$USERI5
 70
     0
  9
$USERR1
 40
0.0
  9
$USERR2
 40
0.0
  9
$USERR3
 40
0.0
  9
$USERR4
 40
0.0
  9
$USERR5
 40
0.0
  9
$WORLDVIEW
 70
     1
  9
$SHADEDGE
 70
     3
  9
$SHADEDIF
 70
    70
  9
$TILEMODE
 70
     1
  9
$MAXACTVP
 70
    48
  9
$PLIMCHECK
 70
     0
  9
$PEXTMIN
 10
1.0000000000000000E+020
 20
1.0000000000000000E+020
 30
1.0000000000000000E+020
  9
$PEXTMAX
 10
-1.0000000000000000E+020
 20
-1.0000000000000000E+020
 30
-1.0000000000000000E+020
  9
$PLIMMIN
 10
0.0
 20
0.0
  9
$PLIMMAX
 10
12.0
 20
9.0
  9
$UNITMODE
 70
     0
  9
$VISRETAIN
 70
     1
  9
$PLINEGEN
 70
     0
  9
$PSLTSCALE
 70
     1
  0
ENDSEC
  0
SECTION
  2
TABLES
  0
TABLE
  2
VPORT
 70
     2
  0
VPORT
  2
*ACTIVE
 70
     0
 10
0.0
 20
0.0
 11
1.0
 21
1.0
 12
202.006391769564
 22
127.42999999999989
 13
0.0
 23
0.0
 14
1.0
 24
1.0
 15
0.0
 25
0.0
 16
0.0
 26
0.0
 36
1.0
 17
0.0
 27
0.0
 37
0.0
 40
299.45318569463541
 41
2.2894736842105261
 42
50.0
 43
0.0
 44
0.0
 50
0.0
 51
0.0
 71
     0
 72
   100
 73
     1
 74
     1
 75
     0
 76
     0
 77
     0
 78
     0
  0
ENDTAB
  0
TABLE
  2
LTYPE
 70
     3
  0
LTYPE
  2
CONTINUOUS
 70
     0
  3
Solid line
 72
    65
 73
     0
 40
0.0
  0
LTYPE
  2
AIGENLINE001
 70
     0
  3
generate AI->DXF Converter
 72
    65
 73
     2
 40
1.5522299999999991
 49
0.776115
 49
-0.776115
  0
LTYPE
  2
AIGENLINE002
 70
     0
  3
generate AI->DXF Converter
 72
    65
 73
     4
 40
5.8561449999999988
 49
3.5278
 49
-0.776115
 49
0.776115
 49
-0.776115
  0
ENDTAB
  0
TABLE
  2
LAYER
 70
     2
  0
LAYER
  2
0
 70
     0
 62
     7
  6
CONTINUOUS
  0
LAYER
  2
_________2
 70
     0
 62
     7
  6
CONTINUOUS
  0
ENDTAB
  0
TABLE
  2
STYLE
 70
     1
  0
STYLE
  2
STANDARD
 70
     0
 40
0.0
 41
0.0
 50
0.0
 71
     0
 42
0.0
  3
TXT
  4
EXTFONT.SHX
  0
ENDTAB
  0
TABLE
  2
VIEW
 70
     0
  0
ENDTAB
  0
TABLE
  2
UCS
 70
     0
  0
ENDTAB
  0
TABLE
  2
APPID
 70
     1
  0
APPID
  2
ACAD
 70
     0
  0
ENDTAB
  0
TABLE
  2
DIMSTYLE
 70
     1
  0
DIMSTYLE
  2
STANDARD
 70
     0
  3

  4

  5

  6

  7

 40
1.0
 41
0.18
 42
0.0625
 43
0.38
 44
0.18
 45
0.0
 46
0.0
 47
0.0
 48
0.0
140
0.18
141
0.09
142
0.0
143
25.399999999999999
144
1.0
145
0.0
146
1.0
147
0.09
 71
     0
 72
     0
 73
     1
 74
     1
 75
     0
 76
     0
 77
     0
 78
     0
170
     0
171
     2
172
     0
173
     0
174
     0
175
     0
176
     0
177
     0
178
     0
  0
ENDTAB
  0
ENDSEC
  0
SECTION
  2
BLOCKS
  0
BLOCK
  8
0
  2
$MODEL_SPACE
 70
     0
 10
0.0
 20
0.0
 30
0.0
  3
$MODEL_SPACE
  1

  0
ENDBLK
  5
1A
  8
0
  0
BLOCK
 67
     1
  8
0
  2
$PAPER_SPACE
 70
     0
 10
0.0
 20
0.0
 30
0.0
  3
$PAPER_SPACE
  1

  0
ENDBLK
  5
17
 67
     1
  8
0
  0
ENDSEC
  0
SECTION
  2
ENTITIES
  0
TEXT
  5
23
  8
0
 62
     7
 10
24.622299999999989
 20
46.205199999999991
 30
0.0
 40
4.9911399999999997
  1
※排水栓を閉めた状態で毎分10L以上吐水させないでください。
 41
0.5
  0
TEXT
  5
24
  8
0
 62
     7
 10
24.622299999999989
 20
39.96629999999999
 30
0.0
 40
4.9911399999999997
  1
※壁取付部には厚さ30mm以上の補強材を入れてください。
 41
0.5
  0
TEXT
  5
25
  8
0
 62
     7
 10
52.471899999999991
 20
211.57400000000001
 30
0.0
 40
3.660169999999999
  1
%%c35
 41
0.5
  0
TEXT
  5
26
  8
0
 62
     7
 10
80.276373333333325
 20
177.95699999999991
 30
0.0
 40
3.660169999999999
  1
%%c46
 41
0.5
 72
     2
 11
85.156599999999997
 21
177.95699999999991
 31
0.0
  0
TEXT
  5
27
  8
0
 62
     7
 10
154.65299999999991
 20
93.712407916666663
 30
0.0
 40
3.660169999999999
  1
105
 50
90.0
 41
0.5
 72
     1
 11
154.65299999999991
 21
95.694999999999993
 31
0.0
  0
TEXT
  5
28
  8
0
 62
     7
 10
126.587
 20
95.125536249999996
 30
0.0
 40
3.660169999999999
  1
70
 50
90.0
 41
0.5
 72
     1
 11
126.587
 21
96.498099999999994
 31
0.0
  0
TEXT
  5
29
  8
0
 62
     7
 10
28.308499999999992
 20
87.43650791666667
 30
0.0
 40
3.660169999999999
  1
150
 50
90.0
 41
0.5
 72
     1
 11
28.308499999999992
 21
89.4191
 31
0.0
  0
TEXT
  5
2A
  8
0
 62
     7
 10
38.403100000000002
 20
95.625436249999993
 30
0.0
 40
3.660169999999999
  1
60
 50
90.0
 41
0.5
 72
     1
 11
38.403100000000002
 21
96.99799999999999
 31
0.0
  0
TEXT
  5
2B
  8
0
 62
     7
 10
69.469579583333342
 20
139.148
 30
0.0
 40
3.660169999999999
  1
1000
 41
0.5
 72
     1
 11
72.062200000000004
 21
139.148
 31
0.0
  0
TEXT
  5
2C
  8
0
 62
     7
 10
108.3718866666666
 20
148.28999999999991
 30
0.0
 40
3.660169999999999
  1
225
 41
0.5
 72
     1
 11
110.812
 21
148.28999999999991
 31
0.0
  0
TEXT
  5
2D
  8
0
 62
     7
 10
30.871886666666661
 20
148.28999999999991
 30
0.0
 40
3.660169999999999
  1
225
 41
0.5
 72
     1
 11
33.311999999999991
 21
148.28999999999991
 31
0.0
  0
TEXT
  5
2E
  8
0
 62
     7
 10
69.774593750000008
 20
148.28999999999991
 30
0.0
 40
3.660169999999999
  1
550
 41
0.5
 72
     1
 11
72.062200000000004
 21
148.28999999999991
 31
0.0
  0
TEXT
  5
2F
  8
0
 62
     7
 10
75.232415000000003
 20
218.83000000000001
 30
0.0
 40
3.660169999999999
  1
100
 41
0.5
 72
     1
 11
77.0625
 21
218.83000000000001
 31
0.0
  0
TEXT
  5
30
  8
0
 62
     7
 10
65.232214999999997
 20
218.83000000000001
 30
0.0
 40
3.660169999999999
  1
100
 41
0.5
 72
     1
 11
67.062299999999993
 21
218.83000000000001
 31
0.0
  0
TEXT
  5
31
  8
0
 62
     7
 10
165.50890083333331
 20
75.649299999999997
 30
0.0
 40
3.660169999999999
  1
215
 41
0.5
 72
     1
 11
167.64400000000001
 21
75.649299999999997
 31
0.0
  0
TEXT
  5
32
  8
0
 62
     7
 10
69.774593750000008
 20
106.876
 30
0.0
 40
3.660169999999999
  1
280
 41
0.5
 72
     1
 11
72.062200000000004
 21
106.876
 31
0.0
  0
TEXT
  5
33
  8
0
 62
     7
 10
139.32299999999989
 20
179.70639374999999
 30
0.0
 40
3.660169999999999
  1
470
 50
90.0
 41
0.5
 72
     1
 11
139.32299999999989
 21
181.994
 31
0.0
  0
TEXT
  5
34
  8
0
 62
     7
 10
130.65100000000001
 20
197.0114079166666
 30
0.0
 40
3.660169999999999
  1
130
 50
90.0
 41
0.5
 72
     1
 11
130.65100000000001
 21
198.994
 31
0.0
  0
TEXT
  5
35
  8
0
 62
     7
 10
130.65100000000001
 20
151.9139999999999
 30
0.0
 40
3.660169999999999
  1
30
 50
90.0
 41
0.5
  0
TEXT
  5
36
  8
0
 62
     7
 10
130.65100000000001
 20
175.0114079166666
 30
0.0
 40
3.660169999999999
  1
310
 50
90.0
 41
0.5
 72
     1
 11
130.65100000000001
 21
176.994
 31
0.0
  0
TEXT
  5
37
  8
0
 62
     7
 10
93.963499999999996
 20
194.12143624999999
 30
0.0
 40
3.660169999999999
  1
60
 50
90.0
 41
0.5
 72
     1
 11
93.963499999999996
 21
195.494
 31
0.0
  0
TEXT
  5
38
  8
0
 62
     7
 10
93.963499999999996
 20
200.62143624999999
 30
0.0
 40
3.660169999999999
  1
70
 50
90.0
 41
0.5
 72
     1
 11
93.963499999999996
 21
201.994
 31
0.0
  0
TEXT
  5
39
  8
0
 62
     7
 10
31.903199999999991
 20
193.03690083333331
 30
0.0
 40
3.660169999999999
  1
215
 50
90.0
 41
0.5
 72
     1
 11
31.903199999999991
 21
195.172
 31
0.0
  0
ARC
  5
3A
  8
0
 62
     7
 10
139.882418
 20
91.981553000000005
 30
0.0
 40
1.016669
 50
37.120528999999991
 51
89.513327000000004
  0
ARC
  5
3B
  8
0
 62
     7
 10
147.76478999999989
 20
93.228752
 30
0.0
 40
6.054373
 50
216.81692100000001
 51
261.08046300000001
  0
ARC
  5
3C
  8
0
  6
AIGENLINE001
 62
     7
 10
133.88517699999991
 20
98.98332400000001
 30
0.0
 40
1.01467
 50
39.242717999999989
 51
89.630167
  0
ARC
  5
3D
  8
0
  6
AIGENLINE001
 62
     7
 10
162.2787449999999
 20
92.613078999999999
 30
0.0
 40
3.117259999999999
 50
272.11651499999999
 51
357.88349499999998
  0
ARC
  5
3E
  8
0
  6
AIGENLINE001
 62
     7
 10
153.43268699999999
 20
110.67838999999989
 30
0.0
 40
21.180479999999989
 50
237.84882999999999
 51
269.89400899999993
  0
ARC
  5
3F
  8
0
  6
AIGENLINE001
 62
     7
 10
157.00021100000001
 20
116.420663
 30
0.0
 40
27.940657000000002
 50
216.94956199999999
 51
237.921313
  0
ARC
  5
40
  8
0
 62
     7
 10
177.87518099999991
 20
83.017016999999996
 30
0.0
 40
0.519207
 50
272.09286600000001
 51
357.86764299999999
  0
ARC
  5
41
  8
0
 62
     7
 10
177.89370199999991
 20
83.073123999999979
 30
0.0
 40
0.5749680000000002
 50
262.573353
 51
270.04389600000002
  0
ARC
  5
42
  8
0
 62
     7
 10
131.9125139999999
 20
93.517040000000009
 30
0.0
 40
0.5192020000000001
 50
182.13183100000001
 51
267.90769999999992
  0
ARC
  5
43
  8
0
 62
     7
 10
131.9125139999999
 20
99.479117999999985
 30
0.0
 40
0.5192020000000001
 50
92.092299999999994
 51
177.86816899999991
  0
ARC
  5
44
  8
0
  6
AIGENLINE001
 62
     7
 10
74.858478000000005
 20
137.2871649999999
 30
0.0
 40
47.794404
 50
270.84395499999999
 51
292.07837599999988
  0
ARC
  5
45
  8
0
  6
AIGENLINE001
 62
     7
 10
88.077554000000006
 20
104.216981
 30
0.0
 40
12.18186199999999
 50
292.92740099999992
 51
340.52578599999993
  0
ARC
  5
46
  8
0
  6
AIGENLINE001
 62
     7
 10
69.266183999999996
 20
137.284921
 30
0.0
 40
47.792158999999998
 50
247.92112199999991
 51
269.15614099999988
  0
ARC
  5
47
  8
0
  6
AIGENLINE001
 62
     7
 10
56.046804999999999
 20
104.21683299999989
 30
0.0
 40
12.181436
 50
199.47420399999999
 51
247.07557199999999
  0
LINE
  5
48
  8
0
  6
AIGENLINE001
 62
     7
 10
160.39400000000001
 20
89.497900000000001
 30
0.0
 11
159.1939999999999
 21
88.498199999999997
 31
0.0
  0
LINE
  5
49
  8
0
  6
AIGENLINE001
 62
     7
 10
159.1939999999999
 20
88.498199999999997
 30
0.0
 11
159.1939999999999
 21
84.997900000000001
 31
0.0
  0
LINE
  5
4A
  8
0
  6
AIGENLINE001
 62
     7
 10
153.39400000000001
 20
89.497900000000001
 30
0.0
 11
154.59399999999991
 21
88.498199999999997
 31
0.0
  0
LINE
  5
4B
  8
0
  6
AIGENLINE001
 62
     7
 10
159.1939999999999
 20
88.498199999999997
 30
0.0
 11
154.59399999999991
 21
88.498199999999997
 31
0.0
  0
LINE
  5
4C
  8
0
  6
AIGENLINE001
 62
     7
 10
153.39400000000001
 20
89.497900000000001
 30
0.0
 11
162.39400000000001
 21
89.497900000000001
 31
0.0
  0
LINE
  5
4D
  8
0
  6
AIGENLINE001
 62
     7
 10
154.59399999999991
 20
88.498199999999997
 30
0.0
 11
154.59399999999991
 21
84.997900000000001
 31
0.0
  0
LINE
  5
4E
  8
0
  6
AIGENLINE001
 62
     7
 10
75.562399999999997
 20
89.497900000000001
 30
0.0
 11
74.362200000000001
 21
88.498199999999997
 31
0.0
  0
LINE
  5
4F
  8
0
  6
AIGENLINE001
 62
     7
 10
74.362200000000001
 20
88.498199999999997
 30
0.0
 11
74.362200000000001
 21
84.997900000000001
 31
0.0
  0
LINE
  5
50
  8
0
  6
AIGENLINE001
 62
     7
 10
68.562299999999993
 20
89.497900000000001
 30
0.0
 11
69.762200000000007
 21
88.498199999999997
 31
0.0
  0
ARC
  5
51
  8
0
  6
AIGENLINE001
 62
     7
 10
72.062379000000007
 20
97.498368999999997
 30
0.0
 40
1.2500610000000001
 50
269.99212499999999
 51
359.99209500000001
  0
ARC
  5
52
  8
0
  6
AIGENLINE001
 62
     7
 10
72.062207000000001
 20
97.498195999999993
 30
0.0
 40
1.249887999999999
 50
179.99996999999991
 51
270.00002000000001
  0
ARC
  5
53
  8
0
  6
AIGENLINE001
 62
     7
 10
72.062207000000001
 20
97.498195999999993
 30
0.0
 40
1.249889
 50
90.0
 51
179.99996999999991
  0
ARC
  5
54
  8
0
  6
AIGENLINE001
 62
     7
 10
72.062379000000007
 20
97.498024000000001
 30
0.0
 40
1.2500610000000001
 50
0.007905
 51
90.007875000000013
  0
LINE
  5
55
  8
0
  6
AIGENLINE001
 62
     7
 10
85.696299999999994
 20
92.998199999999997
 30
0.0
 11
86.428299999999993
 21
92.998199999999997
 31
0.0
  0
LINE
  5
56
  8
0
  6
AIGENLINE001
 62
     7
 10
85.696299999999994
 20
94.998400000000004
 30
0.0
 11
86.428299999999993
 21
94.998400000000004
 31
0.0
  0
ARC
  5
57
  8
0
  6
AIGENLINE001
 62
     7
 10
86.389686999999995
 20
93.959656000000024
 30
0.0
 40
1.039482999999999
 50
2.1116369999999991
 51
87.868619999999993
  0
ARC
  5
58
  8
0
  6
AIGENLINE001
 62
     7
 10
86.390441999999993
 20
94.036218999999988
 30
0.0
 40
1.0387269999999991
 50
272.09126099999992
 51
357.88900899999987
  0
ARC
  5
59
  8
0
  6
AIGENLINE001
 62
     7
 10
85.734874000000005
 20
94.03693100000001
 30
0.0
 40
1.0394639999999991
 50
182.14876799999999
 51
267.87100199999998
  0
ARC
  5
5A
  8
0
  6
AIGENLINE001
 62
     7
 10
85.696431000000004
 20
93.998129999999989
 30
0.0
 40
1.000289999999999
 50
90.009867000000014
 51
180.0098769999999
  0
LINE
  5
5B
  8
0
  6
AIGENLINE001
 62
     7
 10
74.362200000000001
 20
88.498199999999997
 30
0.0
 11
69.762200000000007
 21
88.498199999999997
 31
0.0
  0
LINE
  5
5C
  8
0
  6
AIGENLINE001
 62
     7
 10
68.562299999999993
 20
89.497900000000001
 30
0.0
 11
75.562399999999997
 21
89.497900000000001
 31
0.0
  0
LINE
  5
5D
  8
0
  6
AIGENLINE002
 62
     7
 10
174.96199999999999
 20
93.99799999999999
 30
0.0
 11
181.136
 21
93.99799999999999
 31
0.0
  0
LINE
  5
5E
  8
0
  6
AIGENLINE002
 62
     7
 10
83.804199999999994
 20
93.99799999999999
 30
0.0
 11
88.566699999999983
 21
93.99799999999999
 31
0.0
  0
LINE
  5
5F
  8
0
 62
     7
 10
178.39400000000001
 20
81.762299999999996
 30
0.0
 11
178.39400000000001
 21
74.241900000000001
 31
0.0
  0
LINE
  5
60
  8
0
 62
     7
 10
156.89400000000001
 20
82.297700000000006
 30
0.0
 11
156.89400000000001
 21
74.241900000000001
 31
0.0
  0
LINE
  5
61
  8
0
 62
     7
 10
159.10599999999991
 20
75.534499999999994
 30
0.0
 11
156.89400000000001
 21
74.941999999999993
 31
0.0
  0
LINE
  5
62
  8
0
 62
     7
 10
156.89400000000001
 20
74.941999999999993
 30
0.0
 11
159.10599999999991
 21
74.349400000000003
 31
0.0
  0
LINE
  5
63
  8
0
 62
     7
 10
159.10599999999991
 20
74.349400000000003
 30
0.0
 11
159.10599999999991
 21
75.534499999999994
 31
0.0
  0
LINE
  5
64
  8
0
 62
     7
 10
176.18199999999999
 20
74.363900000000001
 30
0.0
 11
178.39400000000001
 21
74.956400000000002
 31
0.0
  0
LINE
  5
65
  8
0
 62
     7
 10
178.39400000000001
 20
74.956400000000002
 30
0.0
 11
176.18199999999999
 21
75.548999999999992
 31
0.0
  0
LINE
  5
66
  8
0
 62
     7
 10
176.18199999999999
 20
75.548999999999992
 30
0.0
 11
176.18199999999999
 21
74.363900000000001
 31
0.0
  0
LINE
  5
67
  8
0
 62
     7
 10
156.89500000000001
 20
74.949200000000005
 30
0.0
 11
178.39299999999989
 21
74.949200000000005
 31
0.0
  0
LINE
  5
68
  8
0
 62
     7
 10
86.062500000000014
 20
106.8689999999999
 30
0.0
 11
86.062500000000014
 21
96.173199999999994
 31
0.0
  0
LINE
  5
69
  8
0
 62
     7
 10
58.0623
 20
106.8689999999999
 30
0.0
 11
58.0623
 21
96.173199999999994
 31
0.0
  0
LINE
  5
6A
  8
0
  6
AIGENLINE002
 62
     7
 10
86.062500000000014
 20
96.173199999999994
 30
0.0
 11
86.062500000000014
 21
91.763499999999993
 31
0.0
  0
LINE
  5
6B
  8
0
  6
AIGENLINE001
 62
     7
 10
57.696100000000001
 20
92.998199999999997
 30
0.0
 11
58.4285
 21
92.998199999999997
 31
0.0
  0
LINE
  5
6C
  8
0
  6
AIGENLINE001
 62
     7
 10
57.696100000000001
 20
94.998400000000004
 30
0.0
 11
58.4285
 21
94.998400000000004
 31
0.0
  0
ARC
  5
6D
  8
0
  6
AIGENLINE001
 62
     7
 10
58.389816000000003
 20
93.959988999999993
 30
0.0
 40
1.039150999999999
 50
2.0939239999999999
 51
87.866593000000009
  0
ARC
  5
6E
  8
0
  6
AIGENLINE001
 62
     7
 10
58.390262
 20
94.036194999999992
 30
0.0
 40
1.0387150000000001
 50
272.10968100000002
 51
357.89032899999989
  0
ARC
  5
6F
  8
0
  6
AIGENLINE001
 62
     7
 10
57.734693000000007
 20
94.036581999999996
 30
0.0
 40
1.039115999999999
 50
182.130234
 51
267.86979600000001
  0
ARC
  5
70
  8
0
  6
AIGENLINE001
 62
     7
 10
57.734993000000003
 20
93.959748000000005
 30
0.0
 40
1.0394000000000001
 50
92.146173999999988
 51
177.89327
  0
ARC
  5
71
  8
0
 62
     7
 10
72.06237800000001
 20
183.99423999999991
 30
0.0
 40
3.500067
 50
269.99720000000002
 51
359.99716999999998
  0
ARC
  5
72
  8
0
 62
     7
 10
72.062206000000003
 20
183.994066
 30
0.0
 40
3.4998939999999998
 50
179.99996999999991
 51
270.00002000000001
  0
ARC
  5
73
  8
0
 62
     7
 10
72.062380000000005
 20
183.994238
 30
0.0
 40
3.500067
 50
90.002820000000014
 51
180.00282999999999
  0
ARC
  5
74
  8
0
 62
     7
 10
72.062206000000003
 20
183.994066
 30
0.0
 40
3.5002399999999998
 50
0.00001
 51
89.999980000000008
  0
ARC
  5
75
  8
0
  6
AIGENLINE001
 62
     7
 10
62.062409000000002
 20
198.49456599999991
 30
0.0
 40
1.7501199999999999
 50
270.00002000000001
 51
359.99998999999991
  0
ARC
  5
76
  8
0
  6
AIGENLINE001
 62
     7
 10
62.062409000000002
 20
198.49456499999999
 30
0.0
 40
1.7501189999999991
 50
179.99996999999991
 51
270.00002000000001
  0
ARC
  5
77
  8
0
  6
AIGENLINE001
 62
     7
 10
62.062238000000001
 20
198.494393
 30
0.0
 40
1.7499480000000001
 50
89.994360000000015
 51
179.99432999999991
  0
ARC
  5
78
  8
0
  6
AIGENLINE001
 62
     7
 10
62.062581000000009
 20
198.494393
 30
0.0
 40
1.7499480000000001
 50
0.00565
 51
90.005619999999993
  0
LINE
  5
79
  8
0
 62
     7
 10
33.5062
 20
203.28399999999999
 30
0.0
 11
32.914000000000001
 21
205.494
 31
0.0
  0
LINE
  5
7A
  8
0
 62
     7
 10
32.914000000000001
 20
205.494
 30
0.0
 11
32.321699999999993
 21
203.28399999999999
 31
0.0
  0
LINE
  5
7B
  8
0
 62
     7
 10
32.321699999999993
 20
203.28399999999999
 30
0.0
 11
33.5062
 21
203.28399999999999
 31
0.0
  0
LINE
  5
7C
  8
0
 62
     7
 10
32.336199999999998
 20
186.20500000000001
 30
0.0
 11
32.928400000000003
 21
183.994
 31
0.0
  0
LINE
  5
7D
  8
0
 62
     7
 10
32.928400000000003
 20
183.994
 30
0.0
 11
33.520600000000002
 21
186.20500000000001
 31
0.0
  0
LINE
  5
7E
  8
0
 62
     7
 10
33.520600000000002
 20
186.20500000000001
 30
0.0
 11
32.336199999999998
 21
186.20500000000001
 31
0.0
  0
LINE
  5
7F
  8
0
 62
     7
 10
32.921199999999999
 20
205.494
 30
0.0
 11
32.921199999999999
 21
183.994
 31
0.0
  0
LINE
  5
80
  8
0
 62
     7
 10
62.062399999999997
 20
218.83000000000001
 30
0.0
 11
62.062399999999997
 21
202.5979999999999
 31
0.0
  0
LINE
  5
81
  8
0
 62
     7
 10
72.062200000000004
 20
218.83000000000001
 30
0.0
 11
72.062200000000004
 21
209.89400000000001
 31
0.0
  0
LINE
  5
82
  8
0
 62
     7
 10
29.593599999999999
 20
97.787599999999998
 30
0.0
 11
29.001300000000001
 21
99.998000000000005
 31
0.0
  0
LINE
  5
83
  8
0
 62
     7
 10
29.001300000000001
 20
99.998000000000005
 30
0.0
 11
28.409099999999999
 21
97.787599999999998
 31
0.0
  0
LINE
  5
84
  8
0
 62
     7
 10
28.409099999999999
 20
97.787599999999998
 30
0.0
 11
29.593599999999999
 21
97.787599999999998
 31
0.0
  0
LINE
  5
85
  8
0
 62
     7
 10
28.4236
 20
87.208299999999994
 30
0.0
 11
29.015799999999999
 21
84.997900000000001
 31
0.0
  0
LINE
  5
86
  8
0
 62
     7
 10
29.015799999999999
 20
84.997900000000001
 30
0.0
 11
29.608000000000001
 21
87.208299999999994
 31
0.0
  0
LINE
  5
87
  8
0
 62
     7
 10
29.608000000000001
 20
87.208299999999994
 30
0.0
 11
28.4236
 21
87.208299999999994
 31
0.0
  0
LINE
  5
88
  8
0
 62
     7
 10
29.008600000000001
 20
99.998000000000005
 30
0.0
 11
29.008600000000001
 21
84.997900000000001
 31
0.0
  0
LINE
  5
89
  8
0
 62
     7
 10
39.688099999999991
 20
97.787599999999998
 30
0.0
 11
39.0959
 21
99.998000000000005
 31
0.0
  0
LINE
  5
8A
  8
0
 62
     7
 10
39.0959
 20
99.998000000000005
 30
0.0
 11
38.503700000000002
 21
97.787599999999998
 31
0.0
  0
LINE
  5
8B
  8
0
 62
     7
 10
38.503700000000002
 20
97.787599999999998
 30
0.0
 11
39.688099999999991
 21
97.787599999999998
 31
0.0
  0
LINE
  5
8C
  8
0
 62
     7
 10
38.518099999999997
 20
96.208299999999994
 30
0.0
 11
39.110300000000002
 21
93.99799999999999
 31
0.0
  0
LINE
  5
8D
  8
0
 62
     7
 10
39.110300000000002
 20
93.99799999999999
 30
0.0
 11
39.70259999999999
 21
96.208299999999994
 31
0.0
  0
LINE
  5
8E
  8
0
 62
     7
 10
39.70259999999999
 20
96.208299999999994
 30
0.0
 11
38.518099999999997
 21
96.208299999999994
 31
0.0
  0
LINE
  5
8F
  8
0
 62
     7
 10
39.103099999999991
 20
99.998000000000005
 30
0.0
 11
39.103099999999991
 21
93.99799999999999
 31
0.0
  0
LINE
  5
90
  8
0
 62
     7
 10
67.392700000000005
 20
84.997900000000001
 30
0.0
 11
28.308499999999992
 21
84.997900000000001
 31
0.0
  0
LINE
  5
91
  8
0
 62
     7
 10
55.103999999999999
 20
93.99799999999999
 30
0.0
 11
38.403100000000002
 21
93.99799999999999
 31
0.0
  0
LINE
  5
92
  8
0
 62
     7
 10
155.9379999999999
 20
97.787599999999998
 30
0.0
 11
155.346
 21
99.998000000000005
 31
0.0
  0
LINE
  5
93
  8
0
 62
     7
 10
155.346
 20
99.998000000000005
 30
0.0
 11
154.75399999999991
 21
97.787599999999998
 31
0.0
  0
LINE
  5
94
  8
0
 62
     7
 10
154.75399999999991
 20
97.787599999999998
 30
0.0
 11
155.9379999999999
 21
97.787599999999998
 31
0.0
  0
LINE
  5
95
  8
0
 62
     7
 10
154.76799999999989
 20
91.708299999999994
 30
0.0
 11
155.36000000000001
 21
89.497900000000001
 31
0.0
  0
LINE
  5
96
  8
0
 62
     7
 10
155.36000000000001
 20
89.497900000000001
 30
0.0
 11
155.953
 21
91.708299999999994
 31
0.0
  0
LINE
  5
97
  8
0
 62
     7
 10
155.953
 20
91.708299999999994
 30
0.0
 11
154.76799999999989
 21
91.708299999999994
 31
0.0
  0
LINE
  5
98
  8
0
 62
     7
 10
155.35299999999989
 20
99.998000000000005
 30
0.0
 11
155.35299999999989
 21
89.497900000000001
 31
0.0
  0
LINE
  5
99
  8
0
 62
     7
 10
127.872
 20
97.787599999999998
 30
0.0
 11
127.2799999999999
 21
99.998000000000005
 31
0.0
  0
LINE
  5
9A
  8
0
 62
     7
 10
127.2799999999999
 20
99.998000000000005
 30
0.0
 11
126.688
 21
97.787599999999998
 31
0.0
  0
LINE
  5
9B
  8
0
 62
     7
 10
126.688
 20
97.787599999999998
 30
0.0
 11
127.872
 21
97.787599999999998
 31
0.0
  0
LINE
  5
9C
  8
0
 62
     7
 10
126.702
 20
95.208600000000004
 30
0.0
 11
127.295
 21
92.998199999999997
 31
0.0
  0
LINE
  5
9D
  8
0
 62
     7
 10
127.295
 20
92.998199999999997
 30
0.0
 11
127.8869999999999
 21
95.208600000000004
 31
0.0
  0
LINE
  5
9E
  8
0
 62
     7
 10
127.8869999999999
 20
95.208600000000004
 30
0.0
 11
126.702
 21
95.208600000000004
 31
0.0
  0
LINE
  5
9F
  8
0
 62
     7
 10
127.28700000000001
 20
99.998000000000005
 30
0.0
 11
127.28700000000001
 21
92.998199999999997
 31
0.0
  0
LINE
  5
A0
  8
0
 62
     7
 10
131.9429999999999
 20
203.28399999999999
 30
0.0
 11
131.35099999999991
 21
205.494
 31
0.0
  0
LINE
  5
A1
  8
0
 62
     7
 10
131.35099999999991
 20
205.494
 30
0.0
 11
130.7579999999999
 21
203.28399999999999
 31
0.0
  0
LINE
  5
A2
  8
0
 62
     7
 10
130.7579999999999
 20
203.28399999999999
 30
0.0
 11
131.9429999999999
 21
203.28399999999999
 31
0.0
  0
LINE
  5
A3
  8
0
 62
     7
 10
140.608
 20
203.28399999999999
 30
0.0
 11
140.01599999999991
 21
205.494
 31
0.0
  0
LINE
  5
A4
  8
0
 62
     7
 10
140.01599999999991
 20
205.494
 30
0.0
 11
139.42400000000001
 21
203.28399999999999
 31
0.0
  0
LINE
  5
A5
  8
0
 62
     7
 10
139.42400000000001
 20
203.28399999999999
 30
0.0
 11
140.608
 21
203.28399999999999
 31
0.0
  0
LINE
  5
A6
  8
0
 62
     7
 10
139.4379999999999
 20
160.70400000000001
 30
0.0
 11
140.03
 21
158.494
 31
0.0
  0
LINE
  5
A7
  8
0
 62
     7
 10
140.03
 20
158.494
 30
0.0
 11
140.62200000000001
 21
160.70400000000001
 31
0.0
  0
LINE
  5
A8
  8
0
 62
     7
 10
140.62200000000001
 20
160.70400000000001
 30
0.0
 11
139.4379999999999
 21
160.70400000000001
 31
0.0
  0
LINE
  5
A9
  8
0
 62
     7
 10
140.023
 20
205.494
 30
0.0
 11
140.023
 21
158.494
 31
0.0
  0
LINE
  5
AA
  8
0
 62
     7
 10
131.9429999999999
 20
156.2829999999999
 30
0.0
 11
131.35099999999991
 21
158.494
 31
0.0
  0
LINE
  5
AB
  8
0
 62
     7
 10
131.35099999999991
 20
158.494
 30
0.0
 11
130.7579999999999
 21
156.2829999999999
 31
0.0
  0
LINE
  5
AC
  8
0
 62
     7
 10
130.7579999999999
 20
156.2829999999999
 30
0.0
 11
131.9429999999999
 21
156.2829999999999
 31
0.0
  0
LINE
  5
AD
  8
0
 62
     7
 10
131.93600000000001
 20
190.2829999999999
 30
0.0
 11
131.3429999999999
 21
192.494
 31
0.0
  0
LINE
  5
AE
  8
0
 62
     7
 10
131.3429999999999
 20
192.494
 30
0.0
 11
130.751
 21
190.2829999999999
 31
0.0
  0
LINE
  5
AF
  8
0
 62
     7
 10
130.751
 20
190.2829999999999
 30
0.0
 11
131.93600000000001
 21
190.2829999999999
 31
0.0
  0
LINE
  5
B0
  8
0
 62
     7
 10
130.751
 20
194.70500000000001
 30
0.0
 11
131.3429999999999
 21
192.494
 31
0.0
  0
LINE
  5
B1
  8
0
 62
     7
 10
131.3429999999999
 20
192.494
 30
0.0
 11
131.93600000000001
 21
194.70500000000001
 31
0.0
  0
LINE
  5
B2
  8
0
 62
     7
 10
131.93600000000001
 20
194.70500000000001
 30
0.0
 11
130.751
 21
194.70500000000001
 31
0.0
  0
LINE
  5
B3
  8
0
 62
     7
 10
130.76599999999999
 20
163.70400000000001
 30
0.0
 11
131.35799999999989
 21
161.49399999999989
 31
0.0
  0
LINE
  5
B4
  8
0
 62
     7
 10
131.35799999999989
 20
161.49399999999989
 30
0.0
 11
131.9499999999999
 21
163.70400000000001
 31
0.0
  0
LINE
  5
B5
  8
0
 62
     7
 10
131.9499999999999
 20
163.70400000000001
 30
0.0
 11
130.76599999999999
 21
163.70400000000001
 31
0.0
  0
LINE
  5
B6
  8
0
 62
     7
 10
131.35099999999991
 20
205.494
 30
0.0
 11
131.35099999999991
 21
151.9139999999999
 31
0.0
  0
LINE
  5
B7
  8
0
 62
     7
 10
75.281300000000002
 20
196.11199999999999
 30
0.0
 11
73.299300000000002
 21
197.25599999999989
 31
0.0
  0
LINE
  5
B8
  8
0
 62
     7
 10
73.299300000000002
 20
197.25599999999989
 30
0.0
 11
74.443799999999996
 21
195.27500000000001
 31
0.0
  0
LINE
  5
B9
  8
0
 62
     7
 10
74.443799999999996
 20
195.27500000000001
 30
0.0
 11
75.281300000000002
 21
196.11199999999999
 31
0.0
  0
LINE
  5
BA
  8
0
 62
     7
 10
68.842399999999998
 20
200.87599999999989
 30
0.0
 11
70.824399999999997
 21
199.73099999999991
 31
0.0
  0
LINE
  5
BB
  8
0
 62
     7
 10
70.824399999999997
 20
199.73099999999991
 30
0.0
 11
69.679900000000004
 21
201.71299999999991
 31
0.0
  0
LINE
  5
BC
  8
0
 62
     7
 10
69.679900000000004
 20
201.71299999999991
 30
0.0
 11
68.842399999999998
 21
200.87599999999989
 31
0.0
  0
LINE
  5
BD
  8
0
 62
     7
 10
59.681800000000003
 20
210.874
 30
0.0
 11
76.662099999999995
 21
193.89400000000001
 31
0.0
  0
LINE
  5
BE
  8
0
 62
     7
 10
75.671700000000001
 20
181.22499999999991
 30
0.0
 11
73.689700000000002
 21
182.369
 31
0.0
  0
LINE
  5
BF
  8
0
 62
     7
 10
73.689700000000002
 20
182.369
 30
0.0
 11
74.834100000000007
 21
180.387
 31
0.0
  0
LINE
  5
C0
  8
0
 62
     7
 10
74.834100000000007
 20
180.387
 30
0.0
 11
75.671700000000001
 21
181.22499999999991
 31
0.0
  0
LINE
  5
C1
  8
0
 62
     7
 10
68.455200000000005
 20
186.76599999999991
 30
0.0
 11
70.437100000000001
 21
185.62200000000001
 31
0.0
  0
LINE
  5
C2
  8
0
 62
     7
 10
70.437100000000001
 20
185.62200000000001
 30
0.0
 11
69.292699999999996
 21
187.60400000000001
 31
0.0
  0
LINE
  5
C3
  8
0
 62
     7
 10
69.292699999999996
 20
187.60400000000001
 30
0.0
 11
68.455200000000005
 21
186.76599999999991
 31
0.0
  0
LINE
  5
C4
  8
0
 62
     7
 10
67.323800000000006
 20
188.7349999999999
 30
0.0
 11
78.801500000000004
 21
177.25699999999989
 31
0.0
  0
LINE
  5
C5
  8
0
 62
     7
 10
82.062700000000007
 20
218.83000000000001
 30
0.0
 11
82.062700000000007
 21
202.5979999999999
 31
0.0
  0
LINE
  5
C6
  8
0
  6
AIGENLINE002
 62
     7
 10
58.0625
 20
208.7359999999999
 30
0.0
 11
58.0625
 21
201.732
 31
0.0
  0
LINE
  5
C7
  8
0
  6
AIGENLINE002
 62
     7
 10
86.062600000000003
 20
208.7359999999999
 30
0.0
 11
86.062600000000003
 21
201.732
 31
0.0
  0
LINE
  5
C8
  8
0
  6
AIGENLINE002
 62
     7
 10
62.062399999999997
 20
201.89799999999991
 30
0.0
 11
62.062399999999997
 21
194.893
 31
0.0
  0
ARC
  5
C9
  8
0
  6
AIGENLINE001
 62
     7
 10
82.062520999999975
 20
198.494393
 30
0.0
 40
1.7499480000000001
 50
270.00565999999998
 51
0.00563
  0
ARC
  5
CA
  8
0
  6
AIGENLINE001
 62
     7
 10
82.062692999999996
 20
198.49456499999999
 30
0.0
 40
1.7501189999999991
 50
179.99996999999991
 51
270.00002000000001
  0
ARC
  5
CB
  8
0
  6
AIGENLINE001
 62
     7
 10
82.062520999999975
 20
198.494393
 30
0.0
 40
1.7499480000000001
 50
89.994360000000015
 51
179.99432999999991
  0
ARC
  5
CC
  8
0
  6
AIGENLINE001
 62
     7
 10
82.062692999999996
 20
198.49456499999999
 30
0.0
 40
1.7497750000000001
 50
0.00001
 51
89.999980000000008
  0
ARC
  5
CD
  8
0
 62
     7
 10
72.062207000000001
 20
198.49456599999991
 30
0.0
 40
1.7501199999999999
 50
270.00002000000001
 51
359.99998999999991
  0
ARC
  5
CE
  8
0
 62
     7
 10
72.062379000000007
 20
198.494393
 30
0.0
 40
1.7499469999999999
 50
179.99432999999991
 51
269.99437999999992
  0
ARC
  5
CF
  8
0
 62
     7
 10
72.062207000000001
 20
198.49456499999999
 30
0.0
 40
1.7497750000000001
 50
90.0
 51
179.99996999999991
  0
ARC
  5
D0
  8
0
 62
     7
 10
72.062379000000007
 20
198.494393
 30
0.0
 40
1.7499480000000001
 50
0.00565
 51
90.005619999999993
  0
LINE
  5
D1
  8
0
  6
AIGENLINE002
 62
     7
 10
57.889699999999991
 20
198.49499999999989
 30
0.0
 11
86.053499999999985
 21
198.49499999999989
 31
0.0
  0
ARC
  5
D2
  8
0
 62
     7
 10
71.974043000000009
 20
184.08223100000001
 30
0.0
 40
2.3897509999999991
 50
272.11427400000002
 51
357.88573600000001
  0
ARC
  5
D3
  8
0
 62
     7
 10
72.150757999999996
 20
184.082618
 30
0.0
 40
2.3901520000000001
 50
182.12321700000001
 51
267.87681299999991
  0
ARC
  5
D4
  8
0
 62
     7
 10
72.150350000000003
 20
183.905924
 30
0.0
 40
2.3897289999999991
 50
92.113772999999981
 51
177.88619700000001
  0
ARC
  5
D5
  8
0
 62
     7
 10
71.973670999999996
 20
183.90553099999991
 30
0.0
 40
2.390136
 50
2.122844999999999
 51
87.877145999999996
  0
ARC
  5
D6
  8
0
 62
     7
 10
97.485020000000006
 20
190.41669999999991
 30
0.0
 40
2.0789399999999998
 50
2.1395360000000001
 51
87.870323999999997
  0
ARC
  5
D7
  8
0
 62
     7
 10
46.639412999999998
 20
190.4170389999999
 30
0.0
 40
2.0786020000000001
 50
92.130533
 51
177.869437
  0
LINE
  5
D8
  8
0
  6
AIGENLINE001
 62
     7
 10
165.39400000000001
 20
92.497999999999976
 30
0.0
 11
165.39400000000001
 21
99.998000000000005
 31
0.0
  0
LINE
  5
D9
  8
0
 62
     7
 10
46.562100000000001
 20
192.494
 30
0.0
 11
97.562299999999993
 21
192.494
 31
0.0
  0
ARC
  5
DA
  8
0
 62
     7
 10
97.485804000000016
 20
163.57072600000001
 30
0.0
 40
2.0781269999999989
 50
272.10886799999997
 51
357.88127300000002
  0
LINE
  5
DB
  8
0
 62
     7
 10
122.0629999999999
 20
157.922
 30
0.0
 11
122.0629999999999
 21
137.74799999999999
 31
0.0
  0
LINE
  5
DC
  8
0
 62
     7
 10
22.061800000000002
 20
157.922
 30
0.0
 11
22.061800000000002
 21
137.74799999999999
 31
0.0
  0
LINE
  5
DD
  8
0
 62
     7
 10
99.5625
 20
160.7939999999999
 30
0.0
 11
99.5625
 21
146.8899999999999
 31
0.0
  0
LINE
  5
DE
  8
0
 62
     7
 10
44.562199999999997
 20
160.7939999999999
 30
0.0
 11
44.562199999999997
 21
146.8899999999999
 31
0.0
  0
LINE
  5
DF
  8
0
 62
     7
 10
99.5625
 20
190.494
 30
0.0
 11
99.5625
 21
163.494
 31
0.0
  0
ARC
  5
E0
  8
0
 62
     7
 10
46.638627999999997
 20
163.57038600000001
 30
0.0
 40
2.0777890000000001
 50
182.10972899999999
 51
267.89030000000002
  0
LINE
  5
E1
  8
0
 62
     7
 10
44.562199999999997
 20
190.494
 30
0.0
 11
44.562199999999997
 21
163.494
 31
0.0
  0
LINE
  5
E2
  8
0
 62
     7
 10
46.562100000000001
 20
161.49399999999989
 30
0.0
 11
97.562299999999993
 21
161.49399999999989
 31
0.0
  0
ARC
  5
E3
  8
0
 62
     7
 10
120.5053919999999
 20
160.05117699999991
 30
0.0
 40
1.5582290000000001
 50
272.10281700000002
 51
357.89719300000002
  0
LINE
  5
E4
  8
0
 62
     7
 10
142.91800000000001
 20
89.6006
 30
0.0
 11
140.6929999999999
 21
92.595100000000002
 31
0.0
  0
LINE
  5
E5
  8
0
 62
     7
 10
131.39400000000001
 20
99.498400000000004
 30
0.0
 11
131.39400000000001
 21
93.497699999999995
 31
0.0
  0
LINE
  5
E6
  8
0
  6
AIGENLINE002
 62
     7
 10
171.39400000000001
 20
103.349
 30
0.0
 11
171.39400000000001
 21
96.466700000000003
 31
0.0
  0
LINE
  5
E7
  8
0
  6
AIGENLINE002
 62
     7
 10
156.89400000000001
 20
91.351399999999984
 30
0.0
 11
156.89400000000001
 21
82.997699999999995
 31
0.0
  0
LINE
  5
E8
  8
0
 62
     7
 10
178.39400000000001
 20
99.998000000000005
 30
0.0
 11
178.39400000000001
 21
82.997699999999995
 31
0.0
  0
LINE
  5
E9
  8
0
 62
     7
 10
122.0629999999999
 20
205.494
 30
0.0
 11
122.0629999999999
 21
159.994
 31
0.0
  0
ARC
  5
EA
  8
0
 62
     7
 10
23.619021
 20
160.05117699999991
 30
0.0
 40
1.5582279999999999
 50
182.10281000000001
 51
267.89722
  0
LINE
  5
EB
  8
0
  6
AIGENLINE002
 62
     7
 10
82.062700000000007
 20
201.89799999999991
 30
0.0
 11
82.062700000000007
 21
194.893
 31
0.0
  0
LINE
  5
EC
  8
0
 62
     7
 10
95.255799999999994
 20
196.28399999999999
 30
0.0
 11
94.663599999999988
 21
198.49499999999989
 31
0.0
  0
LINE
  5
ED
  8
0
 62
     7
 10
94.663599999999988
 20
198.49499999999989
 30
0.0
 11
94.071299999999994
 21
196.28399999999999
 31
0.0
  0
LINE
  5
EE
  8
0
 62
     7
 10
94.071299999999994
 20
196.28399999999999
 30
0.0
 11
95.255799999999994
 21
196.28399999999999
 31
0.0
  0
LINE
  5
EF
  8
0
 62
     7
 10
95.248500000000007
 20
203.28399999999999
 30
0.0
 11
94.656300000000002
 21
205.494
 31
0.0
  0
LINE
  5
F0
  8
0
 62
     7
 10
94.656300000000002
 20
205.494
 30
0.0
 11
94.064099999999996
 21
203.28399999999999
 31
0.0
  0
LINE
  5
F1
  8
0
 62
     7
 10
94.064099999999996
 20
203.28399999999999
 30
0.0
 11
95.248500000000007
 21
203.28399999999999
 31
0.0
  0
LINE
  5
F2
  8
0
 62
     7
 10
94.071299999999994
 20
200.70500000000001
 30
0.0
 11
94.663599999999988
 21
198.49499999999989
 31
0.0
  0
LINE
  5
F3
  8
0
 62
     7
 10
94.663599999999988
 20
198.49499999999989
 30
0.0
 11
95.255799999999994
 21
200.70500000000001
 31
0.0
  0
LINE
  5
F4
  8
0
 62
     7
 10
95.255799999999994
 20
200.70500000000001
 30
0.0
 11
94.071299999999994
 21
200.70500000000001
 31
0.0
  0
LINE
  5
F5
  8
0
 62
     7
 10
94.078599999999994
 20
194.70500000000001
 30
0.0
 11
94.670800000000014
 21
192.494
 31
0.0
  0
LINE
  5
F6
  8
0
 62
     7
 10
94.670800000000014
 20
192.494
 30
0.0
 11
95.262999999999991
 21
194.70500000000001
 31
0.0
  0
LINE
  5
F7
  8
0
 62
     7
 10
95.262999999999991
 20
194.70500000000001
 30
0.0
 11
94.078599999999994
 21
194.70500000000001
 31
0.0
  0
LINE
  5
F8
  8
0
 62
     7
 10
94.663599999999988
 20
205.494
 30
0.0
 11
94.663599999999988
 21
192.494
 31
0.0
  0
LINE
  5
F9
  8
0
  6
AIGENLINE002
 62
     7
 10
162.63800000000001
 20
97.498199999999997
 30
0.0
 11
168.26699999999991
 21
97.498199999999997
 31
0.0
  0
LINE
  5
FA
  8
0
  6
AIGENLINE002
 62
     7
 10
69.327500000000001
 20
97.498199999999997
 30
0.0
 11
74.956800000000001
 21
97.498199999999997
 31
0.0
  0
LINE
  5
FB
  8
0
  6
AIGENLINE002
 62
     7
 10
55.804000000000002
 20
93.99799999999999
 30
0.0
 11
60.566499999999998
 21
93.99799999999999
 31
0.0
  0
LINE
  5
FC
  8
0
  6
AIGENLINE002
 62
     7
 10
58.0623
 20
96.173199999999994
 30
0.0
 11
58.0623
 21
91.763499999999993
 31
0.0
  0
LINE
  5
FD
  8
0
  6
AIGENLINE001
 62
     7
 10
69.762200000000007
 20
88.498199999999997
 30
0.0
 11
69.762200000000007
 21
84.997900000000001
 31
0.0
  0
LINE
  5
FE
  8
0
  6
AIGENLINE002
 62
     7
 10
72.062200000000004
 20
102.8589999999999
 30
0.0
 11
72.062200000000004
 21
81.238600000000005
 31
0.0
  0
LINE
  5
FF
  8
0
  6
AIGENLINE002
 62
     7
 10
72.062200000000004
 20
209.19399999999999
 30
0.0
 11
72.062200000000004
 21
154.90899999999991
 31
0.0
  0
LINE
  5
100
  8
0
 62
     7
 10
22.061800000000002
 20
205.494
 30
0.0
 11
22.061800000000002
 21
159.994
 31
0.0
  0
LINE
  5
101
  8
0
 62
     7
 10
74.274000000000001
 20
218.72199999999989
 30
0.0
 11
72.062200000000004
 21
218.12999999999991
 31
0.0
  0
LINE
  5
102
  8
0
 62
     7
 10
72.062200000000004
 20
218.12999999999991
 30
0.0
 11
74.274000000000001
 21
217.53700000000001
 31
0.0
  0
LINE
  5
103
  8
0
 62
     7
 10
74.274000000000001
 20
217.53700000000001
 30
0.0
 11
74.274000000000001
 21
218.72199999999989
 31
0.0
  0
LINE
  5
104
  8
0
 62
     7
 10
64.273099999999999
 20
218.71499999999989
 30
0.0
 11
62.061399999999999
 21
218.12299999999991
 31
0.0
  0
LINE
  5
105
  8
0
 62
     7
 10
62.061399999999999
 20
218.12299999999991
 30
0.0
 11
64.273099999999999
 21
217.53
 31
0.0
  0
LINE
  5
106
  8
0
 62
     7
 10
64.273099999999999
 20
217.53
 30
0.0
 11
64.273099999999999
 21
218.71499999999989
 31
0.0
  0
LINE
  5
107
  8
0
 62
     7
 10
69.850399999999993
 20
217.53700000000001
 30
0.0
 11
72.062200000000004
 21
218.12999999999991
 31
0.0
  0
LINE
  5
108
  8
0
 62
     7
 10
72.062200000000004
 20
218.12999999999991
 30
0.0
 11
69.850399999999993
 21
218.72300000000001
 31
0.0
  0
LINE
  5
109
  8
0
 62
     7
 10
69.850399999999993
 20
218.72300000000001
 30
0.0
 11
69.850399999999993
 21
217.53700000000001
 31
0.0
  0
LINE
  5
10A
  8
0
 62
     7
 10
79.852000000000004
 20
217.54499999999999
 30
0.0
 11
82.063699999999983
 21
218.137
 31
0.0
  0
LINE
  5
10B
  8
0
 62
     7
 10
82.063699999999983
 20
218.137
 30
0.0
 11
79.852000000000004
 21
218.72999999999999
 31
0.0
  0
LINE
  5
10C
  8
0
 62
     7
 10
79.852000000000004
 20
218.72999999999999
 30
0.0
 11
79.852000000000004
 21
217.54499999999999
 31
0.0
  0
LINE
  5
10D
  8
0
 62
     7
 10
62.062399999999997
 20
218.12999999999991
 30
0.0
 11
82.062700000000007
 21
218.12999999999991
 31
0.0
  0
LINE
  5
10E
  8
0
 62
     7
 10
52.471899999999991
 20
210.874
 30
0.0
 11
59.681800000000003
 21
210.874
 31
0.0
  0
LINE
  5
10F
  8
0
 62
     7
 10
78.801500000000004
 20
177.25699999999989
 30
0.0
 11
85.156599999999997
 21
177.25699999999989
 31
0.0
  0
LINE
  5
110
  8
0
 62
     7
 10
86.753600000000006
 20
198.49499999999989
 30
0.0
 11
95.363600000000005
 21
198.49499999999989
 31
0.0
  0
LINE
  5
111
  8
0
 62
     7
 10
100.0329999999999
 20
192.494
 30
0.0
 11
132.05099999999999
 21
192.494
 31
0.0
  0
LINE
  5
112
  8
0
 62
     7
 10
60.274000000000001
 20
106.762
 30
0.0
 11
58.0623
 21
106.169
 31
0.0
  0
LINE
  5
113
  8
0
 62
     7
 10
58.0623
 20
106.169
 30
0.0
 11
60.274000000000001
 21
105.577
 31
0.0
  0
LINE
  5
114
  8
0
 62
     7
 10
60.274000000000001
 20
105.577
 30
0.0
 11
60.274000000000001
 21
106.762
 31
0.0
  0
LINE
  5
115
  8
0
 62
     7
 10
83.850700000000003
 20
105.59099999999999
 30
0.0
 11
86.062500000000014
 21
106.1839999999999
 31
0.0
  0
LINE
  5
116
  8
0
 62
     7
 10
86.062500000000014
 20
106.1839999999999
 30
0.0
 11
83.850700000000003
 21
106.776
 31
0.0
  0
LINE
  5
117
  8
0
 62
     7
 10
83.850700000000003
 20
106.776
 30
0.0
 11
83.850700000000003
 21
105.59099999999999
 31
0.0
  0
LINE
  5
118
  8
0
 62
     7
 10
58.063699999999997
 20
106.176
 30
0.0
 11
86.061400000000006
 21
106.176
 31
0.0
  0
LINE
  5
119
  8
0
 62
     7
 10
24.273599999999998
 20
148.18199999999999
 30
0.0
 11
22.061800000000002
 21
147.59
 31
0.0
  0
LINE
  5
11A
  8
0
 62
     7
 10
22.061800000000002
 20
147.59
 30
0.0
 11
24.273599999999998
 21
146.99700000000001
 31
0.0
  0
LINE
  5
11B
  8
0
 62
     7
 10
24.273599999999998
 20
146.99700000000001
 30
0.0
 11
24.273599999999998
 21
148.18199999999999
 31
0.0
  0
LINE
  5
11C
  8
0
 62
     7
 10
101.774
 20
148.18199999999999
 30
0.0
 11
99.5625
 21
147.59
 31
0.0
  0
LINE
  5
11D
  8
0
 62
     7
 10
99.5625
 20
147.59
 30
0.0
 11
101.774
 21
146.99700000000001
 31
0.0
  0
LINE
  5
11E
  8
0
 62
     7
 10
101.774
 20
146.99700000000001
 30
0.0
 11
101.774
 21
148.18199999999999
 31
0.0
  0
LINE
  5
11F
  8
0
 62
     7
 10
97.350700000000003
 20
146.99700000000001
 30
0.0
 11
99.5625
 21
147.59
 31
0.0
  0
LINE
  5
120
  8
0
 62
     7
 10
99.5625
 20
147.59
 30
0.0
 11
97.350700000000003
 21
148.18199999999999
 31
0.0
  0
LINE
  5
121
  8
0
 62
     7
 10
97.350700000000003
 20
148.18199999999999
 30
0.0
 11
97.350700000000003
 21
146.99700000000001
 31
0.0
  0
LINE
  5
122
  8
0
 62
     7
 10
46.773999999999987
 20
148.18199999999999
 30
0.0
 11
44.562199999999997
 21
147.59
 31
0.0
  0
LINE
  5
123
  8
0
 62
     7
 10
44.562199999999997
 20
147.59
 30
0.0
 11
46.773999999999987
 21
146.99700000000001
 31
0.0
  0
LINE
  5
124
  8
0
 62
     7
 10
46.773999999999987
 20
146.99700000000001
 30
0.0
 11
46.773999999999987
 21
148.18199999999999
 31
0.0
  0
LINE
  5
125
  8
0
 62
     7
 10
42.350499999999997
 20
146.99700000000001
 30
0.0
 11
44.562199999999997
 21
147.59
 31
0.0
  0
LINE
  5
126
  8
0
 62
     7
 10
44.562199999999997
 20
147.59
 30
0.0
 11
42.350499999999997
 21
148.18199999999999
 31
0.0
  0
LINE
  5
127
  8
0
 62
     7
 10
42.350499999999997
 20
148.18199999999999
 30
0.0
 11
42.350499999999997
 21
146.99700000000001
 31
0.0
  0
LINE
  5
128
  8
0
 62
     7
 10
119.8509999999999
 20
146.99700000000001
 30
0.0
 11
122.0629999999999
 21
147.59
 31
0.0
  0
LINE
  5
129
  8
0
 62
     7
 10
122.0629999999999
 20
147.59
 30
0.0
 11
119.8509999999999
 21
148.18199999999999
 31
0.0
  0
LINE
  5
12A
  8
0
 62
     7
 10
119.8509999999999
 20
148.18199999999999
 30
0.0
 11
119.8509999999999
 21
146.99700000000001
 31
0.0
  0
LINE
  5
12B
  8
0
 62
     7
 10
22.061800000000002
 20
147.59
 30
0.0
 11
122.0629999999999
 21
147.59
 31
0.0
  0
LINE
  5
12C
  8
0
 62
     7
 10
24.272600000000001
 20
139.03399999999991
 30
0.0
 11
22.0608
 21
138.441
 31
0.0
  0
LINE
  5
12D
  8
0
 62
     7
 10
22.0608
 20
138.441
 30
0.0
 11
24.272600000000001
 21
137.8489999999999
 31
0.0
  0
LINE
  5
12E
  8
0
 62
     7
 10
24.272600000000001
 20
137.8489999999999
 30
0.0
 11
24.272600000000001
 21
139.03399999999991
 31
0.0
  0
LINE
  5
12F
  8
0
 62
     7
 10
119.852
 20
137.863
 30
0.0
 11
122.06399999999989
 21
138.45599999999999
 31
0.0
  0
LINE
  5
130
  8
0
 62
     7
 10
122.06399999999989
 20
138.45599999999999
 30
0.0
 11
119.852
 21
139.04799999999989
 31
0.0
  0
LINE
  5
131
  8
0
 62
     7
 10
119.852
 20
139.04799999999989
 30
0.0
 11
119.852
 21
137.863
 31
0.0
  0
LINE
  5
132
  8
0
 62
     7
 10
22.061800000000002
 20
138.44799999999989
 30
0.0
 11
122.0629999999999
 21
138.44799999999989
 31
0.0
  0
LINE
  5
133
  8
0
 62
     7
 10
32.2211
 20
183.994
 30
0.0
 11
64.485699999999994
 21
183.994
 31
0.0
  0
LINE
  5
134
  8
0
 62
     7
 10
122.76299999999991
 20
205.494
 30
0.0
 11
140.72300000000001
 21
205.494
 31
0.0
  0
LINE
  5
135
  8
0
 62
     7
 10
123.075
 20
99.998000000000005
 30
0.0
 11
127.98699999999999
 21
99.998000000000005
 31
0.0
  0
LINE
  5
136
  8
0
 62
     7
 10
146.82599999999991
 20
87.247600000000006
 30
0.0
 11
177.81899999999999
 21
82.502999999999986
 31
0.0
  0
LINE
  5
137
  8
0
 62
     7
 10
131.89400000000001
 20
99.998000000000005
 30
0.0
 11
178.39400000000001
 21
99.998000000000005
 31
0.0
  0
LINE
  5
138
  8
0
 62
     7
 10
131.89400000000001
 20
92.998199999999997
 30
0.0
 11
178.39400000000001
 21
92.998199999999997
 31
0.0
  0
LINE
  5
139
  8
0
 62
     7
 10
122.375
 20
92.998199999999997
 30
0.0
 11
127.98699999999999
 21
92.998199999999997
 31
0.0
  0
LINE
  5
13A
  8
0
 62
     7
 10
122.3129999999999
 20
158.494
 30
0.0
 11
140.72300000000001
 21
158.494
 31
0.0
  0
LINE
  5
13B
  8
0
 62
     7
 10
100.0329999999999
 20
161.49399999999989
 30
0.0
 11
132.05099999999999
 21
161.49399999999989
 31
0.0
  0
LINE
  5
13C
  8
0
 62
     7
 10
23.561800000000002
 20
158.494
 30
0.0
 11
120.5629999999999
 21
158.494
 31
0.0
  0
LINE
  5
13D
  8
0
  6
AIGENLINE002
 62
     7
 10
65.1858
 20
183.994
 30
0.0
 11
78.757400000000004
 21
183.994
 31
0.0
  0
LINE
  5
13E
  8
0
 62
     7
 10
22.061800000000002
 20
205.494
 30
0.0
 11
122.0629999999999
 21
205.494
 31
0.0
  0
ARC
  5
13F
  8
0
 62
     7
 10
72.057727999999997
 20
-5192.6382899999999
 30
0.0
 40
5292.866
 50
89.467223000000004
 51
90.532756999999975
  0
ARC
  5
140
  8
0
 62
     7
 10
121.248869
 20
99.188739000000012
 30
0.0
 40
0.810282
 50
43.363872999999998
 51
88.296887999999996
  0
ARC
  5
141
  8
0
 62
     7
 10
121.245324
 20
99.194638999999995
 30
0.0
 40
0.8088359999999999
 50
357.89603899999997
 51
42.887577
  0
LINE
  5
142
  8
0
 62
     7
 10
122.0539999999999
 20
99.164900000000003
 30
0.0
 11
121.467
 21
93.410899999999984
 31
0.0
  0
ARC
  5
143
  8
0
 62
     7
 10
120.961386
 20
93.513508000000002
 30
0.0
 40
0.5154930000000001
 50
271.46924000000001
 51
348.5197379999999
  0
LINE
  5
144
  8
0
 62
     7
 10
120.97499999999989
 20
92.998199999999997
 30
0.0
 11
23.140899999999991
 21
92.998199999999997
 31
0.0
  0
ARC
  5
145
  8
0
 62
     7
 10
23.154509999999998
 20
93.514032
 30
0.0
 40
0.516029
 50
191.52758399999999
 51
268.48347799999999
  0
LINE
  5
146
  8
0
 62
     7
 10
22.648900000000001
 20
93.410899999999984
 30
0.0
 11
22.0625
 21
99.164900000000003
 31
0.0
  0
ARC
  5
147
  8
0
 62
     7
 10
22.866507999999989
 20
99.196942000000021
 30
0.0
 40
0.8046140000000001
 50
137.056883
 51
182.27911899999989
  0
ARC
  5
148
  8
0
 62
     7
 10
22.866192999999988
 20
99.189616999999998
 30
0.0
 40
0.809392
 50
91.677043000000026
 51
136.66215700000001
  0
LINE
  5
149
  8
0
 62
     7
 10
53.9009
 20
84.486000000000004
 30
0.0
 11
57.8215
 21
84.621000000000009
 31
0.0
  0
ARC
  5
14A
  8
0
 62
     7
 10
57.412837000000003
 20
96.513074000000003
 30
0.0
 40
11.899055000000001
 50
271.96802799999989
 51
283.31442700000002
  0
ARC
  5
14B
  8
0
 62
     7
 10
59.311990000000002
 20
88.491809999999987
 30
0.0
 40
3.6560299999999999
 50
283.30107599999991
 51
295.38553899999999
  0
ARC
  5
14C
  8
0
 62
     7
 10
59.962851000000001
 20
87.119724999999988
 30
0.0
 40
2.1373999999999991
 50
295.39106800000002
 51
320.92339700000002
  0
ARC
  5
14D
  8
0
 62
     7
 10
56.817073999999998
 20
89.676670999999985
 30
0.0
 40
6.1912739999999991
 50
320.90489899999989
 51
327.58733499999988
  0
ARC
  5
14E
  8
0
 62
     7
 10
62.562257999999993
 20
86.026665000000008
 30
0.0
 40
0.61532
 50
113.1750269999999
 51
147.41285400000001
  0
ARC
  5
14F
  8
0
 62
     7
 10
63.361637000000002
 20
84.166145999999998
 30
0.0
 40
2.640298
 50
100.38278
 51
113.23324699999991
  0
ARC
  5
150
  8
0
 62
     7
 10
64.529856000000009
 20
77.798569000000001
 30
0.0
 40
9.1141509999999997
 50
95.549009999999996
 51
100.39221999999999
  0
ARC
  5
151
  8
0
 62
     7
 10
71.636667000000003
 20
-64.919698999999994
 30
0.0
 40
151.99975599999999
 50
89.841142999999988
 51
93.012473999999983
  0
ARC
  5
152
  8
0
 62
     7
 10
72.465429
 20
-65.457429000000005
 30
0.0
 40
152.5374459999999
 50
86.993109999999987
 51
90.153000000000006
  0
ARC
  5
153
  8
0
 62
     7
 10
79.603048000000001
 20
77.91268199999999
 30
0.0
 40
8.9988890000000001
 50
79.581651000000008
 51
84.491281999999998
  0
ARC
  5
154
  8
0
 62
     7
 10
80.743962999999994
 20
84.131233999999992
 30
0.0
 40
2.6765419999999991
 50
66.854097999999993
 51
79.529834999999991
  0
ARC
  5
155
  8
0
 62
     7
 10
81.553480000000008
 20
86.027710999999996
 30
0.0
 40
0.61452
 50
32.519185999999991
 51
66.751728999999983
  0
ARC
  5
156
  8
0
 62
     7
 10
87.408344
 20
89.755843999999996
 30
0.0
 40
6.3265469999999988
 50
212.484205
 51
219.02360100000001
  0
ARC
  5
157
  8
0
 62
     7
 10
84.164753000000005
 20
87.135184999999993
 30
0.0
 40
2.1565810000000001
 50
219.1920539999999
 51
244.49352099999999
  0
ARC
  5
158
  8
0
 62
     7
 10
84.802028000000007
 20
88.487713999999997
 30
0.0
 40
3.6517140000000001
 50
244.60731299999989
 51
256.70611200000002
  0
ARC
  5
159
  8
0
 62
     7
 10
86.701981999999987
 20
96.508324000000002
 30
0.0
 40
11.894285999999999
 50
256.683311
 51
268.03427399999998
  0
LINE
  5
15A
  8
0
 62
     7
 10
86.293999999999997
 20
84.621000000000009
 30
0.0
 11
90.214499999999987
 21
84.486000000000004
 31
0.0
  0
LINE
  5
15B
  8
0
 62
     7
 10
153.352
 20
84.997900000000001
 30
0.0
 11
161.52099999999999
 21
84.997900000000001
 31
0.0
  0
LINE
  5
15C
  8
0
 62
     7
 10
153.01400000000001
 20
86.300200000000004
 30
0.0
 11
153.06700000000001
 21
85.268699999999995
 31
0.0
  0
ARC
  5
15D
  8
0
 62
     7
 10
153.35776000000001
 20
85.289473999999984
 30
0.0
 40
0.291594
 50
184.08155099999991
 51
268.899742
  0
LINE
  5
15E
  8
0
 62
     7
 10
68.143699999999995
 20
87.0381
 30
0.0
 11
68.235399999999998
 21
85.268699999999995
 31
0.0
  0
ARC
  5
15F
  8
0
 62
     7
 10
68.526225999999994
 20
85.289473999999984
 30
0.0
 40
0.291594
 50
184.08155099999991
 51
268.899742
  0
LINE
  5
160
  8
0
 62
     7
 10
68.520600000000002
 20
84.997900000000001
 30
0.0
 11
75.594800000000006
 21
84.997900000000001
 31
0.0
  0
ARC
  5
161
  8
0
 62
     7
 10
75.584920999999994
 20
85.294014000000004
 30
0.0
 40
0.296247
 50
271.916899
 51
355.10184800000002
  0
LINE
  5
162
  8
0
 62
     7
 10
75.880099999999999
 20
85.268699999999995
 30
0.0
 11
75.971699999999998
 21
87.0381
 31
0.0
  0
ARC
  5
163
  8
0
 62
     7
 10
103.112336
 20
87.948520999999985
 30
0.0
 40
6.0847129999999989
 50
123.9121879999999
 51
173.66296600000001
  0
LINE
  5
164
  8
0
 62
     7
 10
97.064800000000005
 20
88.620099999999994
 30
0.0
 11
96.580399999999983
 21
84.663799999999995
 31
0.0
  0
ARC
  5
165
  8
0
 62
     7
 10
94.552176000000003
 20
84.967285000000004
 30
0.0
 40
2.0508269999999991
 50
273.90393699999993
 51
351.48880200000002
  0
LINE
  5
166
  8
0
 62
     7
 10
94.691799999999986
 20
82.921199999999999
 30
0.0
 11
92.084500000000006
 21
82.809600000000003
 31
0.0
  0
ARC
  5
167
  8
0
 62
     7
 10
92.066797999999991
 20
83.311701999999997
 30
0.0
 40
0.50242
 50
222.19144700000001
 51
272.0236569999999
  0
ARC
  5
168
  8
0
 62
     7
 10
72.024323999999993
 20
65.198631999999989
 30
0.0
 40
26.512096
 50
42.103561999999989
 51
46.675519999999992
  0
ARC
  5
169
  8
0
 62
     7
 10
72.126512000000005
 20
65.173478000000003
 30
0.0
 40
26.554698999999989
 50
133.34065299999989
 51
137.90633500000001
  0
ARC
  5
16A
  8
0
 62
     7
 10
52.047876000000002
 20
83.315116000000003
 30
0.0
 40
0.5058060000000001
 50
268.07855000000001
 51
317.63394099999999
  0
LINE
  5
16B
  8
0
 62
     7
 10
52.030900000000003
 20
82.809600000000003
 30
0.0
 11
49.423699999999997
 21
82.921199999999999
 31
0.0
  0
ARC
  5
16C
  8
0
 62
     7
 10
49.563433000000003
 20
84.967449999999999
 30
0.0
 40
2.0510029999999988
 50
188.51516000000001
 51
266.09214100000003
  0
LINE
  5
16D
  8
0
 62
     7
 10
47.534999999999989
 20
84.663799999999995
 30
0.0
 11
47.050699999999999
 21
88.620099999999994
 31
0.0
  0
ARC
  5
16E
  8
0
 62
     7
 10
40.99882199999999
 20
87.945915999999997
 30
0.0
 40
6.0892730000000004
 50
6.3569069999999988
 51
56.067900999999999
  0
TEXT
  5
16F
  8
_________2
 62
     7
 10
134.81551875
 20
9.1082000000000001
 30
0.0
 40
4.6583899999999989
  1
VB7175A0
 41
0.5
 72
     1
 11
143.55000000000001
 21
9.1082000000000001
 31
0.0
  0
TEXT
  5
170
  8
_________2
 62
     7
 10
134.81551875
 20
-0.8926299999999999
 30
0.0
 40
4.6583899999999989
  1
VB7175A0
 41
0.5
 72
     1
 11
143.55000000000001
 21
-0.8926299999999999
 31
0.0
  0
TEXT
  5
171
  8
_________2
 62
     7
 10
24.586600000000001
 20
0.707627
 30
0.0
 40
4.6583899999999989
  1
実容量：5.0L、重量：26.0kg、オーバーフロー付
 41
0.5
  0
LINE
  5
172
  8
_________2
 62
     7
 10
205.30099999999999
 20
127.411
 30
0.0
 11
183.55099999999999
 21
127.411
 31
0.0
  0
LINE
  5
173
  8
_________2
 62
     7
 10
100.2999999999999
 20
-4.0910799999999998
 30
0.0
 11
100.2999999999999
 21
-21.070999999999991
 31
0.0
  0
LINE
  5
174
  8
_________2
 62
     7
 10
100.2999999999999
 20
275.93099999999993
 30
0.0
 11
100.2999999999999
 21
258.911
 31
0.0
  0
LINE
  5
175
  8
_________2
 62
     7
 10
17.049399999999991
 20
127.411
 30
0.0
 11
-4.7010300000000003
 21
127.411
 31
0.0
  0
LINE
  5
176
  8
_________2
 62
     7
 10
76.740799999999993
 20
29.8047
 30
0.0
 11
74.554599999999994
 21
29.8047
 31
0.0
  0
LINE
  5
177
  8
_________2
 62
     7
 10
77.233500000000006
 20
29.8047
 30
0.0
 11
76.981300000000005
 21
29.8047
 31
0.0
  0
LINE
  5
178
  8
_________2
 62
     7
 10
77.726200000000006
 20
29.8047
 30
0.0
 11
80.6511
 21
29.8047
 31
0.0
  0
LINE
  5
179
  8
_________2
 62
     7
 10
77.233500000000006
 20
29.8047
 30
0.0
 11
77.485699999999994
 21
29.8047
 31
0.0
  0
LINE
  5
17A
  8
_________2
 62
     7
 10
70.837299999999999
 20
29.8047
 30
0.0
 11
68.650300000000001
 21
29.8047
 31
0.0
  0
LINE
  5
17B
  8
_________2
 62
     7
 10
71.329300000000003
 20
29.8047
 30
0.0
 11
71.077799999999996
 21
29.8047
 31
0.0
  0
LINE
  5
17C
  8
_________2
 62
     7
 10
71.329300000000003
 20
30.2974
 30
0.0
 11
71.329300000000003
 21
32.484400000000001
 31
0.0
  0
LINE
  5
17D
  8
_________2
 62
     7
 10
71.329300000000003
 20
29.8047
 30
0.0
 11
71.329300000000003
 21
30.057300000000001
 31
0.0
  0
LINE
  5
17E
  8
_________2
 62
     7
 10
71.821899999999999
 20
29.8047
 30
0.0
 11
74.008899999999997
 21
29.8047
 31
0.0
  0
LINE
  5
17F
  8
_________2
 62
     7
 10
71.329300000000003
 20
29.8047
 30
0.0
 11
71.581400000000002
 21
29.8047
 31
0.0
  0
LINE
  5
180
  8
_________2
 62
     7
 10
71.329300000000003
 20
29.312799999999999
 30
0.0
 11
71.329300000000003
 21
27.126200000000001
 31
0.0
  0
LINE
  5
181
  8
_________2
 62
     7
 10
71.329300000000003
 20
29.8047
 30
0.0
 11
71.329300000000003
 21
29.5532
 31
0.0
  0
LINE
  5
182
  8
_________2
 62
     7
 10
75.040300000000002
 20
28.5852
 30
0.0
 11
80.218299999999985
 21
27.720400000000001
 31
0.0
  0
LINE
  5
183
  8
_________2
 62
     7
 10
75.040300000000002
 20
31.024699999999999
 30
0.0
 11
80.218299999999985
 21
31.8901
 31
0.0
  0
LINE
  5
184
  8
_________2
 62
     7
 10
80.218299999999985
 20
27.720400000000001
 30
0.0
 11
80.218299999999985
 21
31.8901
 31
0.0
  0
LINE
  5
185
  8
_________2
 62
     7
 10
75.040300000000002
 20
28.5852
 30
0.0
 11
75.040300000000002
 21
31.024699999999999
 31
0.0
  0
ARC
  5
186
  8
_________2
 62
     7
 10
71.282674
 20
29.757801000000001
 30
0.0
 40
1.267714
 50
2.1220840000000001
 51
87.894083999999992
  0
ARC
  5
187
  8
_________2
 62
     7
 10
71.375812999999994
 20
29.758545999999999
 30
0.0
 40
1.2669680000000001
 50
92.105782999999988
 51
177.91037
  0
ARC
  5
188
  8
_________2
 62
     7
 10
71.376186000000004
 20
29.851671
 30
0.0
 40
1.2673680000000001
 50
182.12203600000001
 51
267.877993
  0
ARC
  5
189
  8
_________2
 62
     7
 10
71.282368999999989
 20
29.852347999999999
 30
0.0
 40
1.2680439999999991
 50
272.11916400000001
 51
357.84848499999993
  0
ARC
  5
18A
  8
_________2
 62
     7
 10
71.248890000000003
 20
29.724731999999989
 30
0.0
 40
2.1668310000000002
 50
2.1161439999999989
 51
87.874379000000005
  0
ARC
  5
18B
  8
_________2
 62
     7
 10
71.408928000000003
 20
29.726146
 30
0.0
 40
2.165392999999999
 50
92.108508999999998
 51
177.91986499999999
  0
ARC
  5
18C
  8
_________2
 62
     7
 10
71.409267
 20
29.884751999999999
 30
0.0
 40
2.1657829999999998
 50
182.117133
 51
267.88289700000001
  0
ARC
  5
18D
  8
_________2
 62
     7
 10
71.249286999999995
 20
29.885429999999989
 30
0.0
 40
2.1664590000000001
 50
272.11546800000002
 51
357.86560400000002
  0
TEXT
  5
18E
  8
_________2
 62
     7
 10
104.605
 20
1.6794899999999999
 30
0.0
 40
3.660169999999999
  1
図番
 41
0.5
  0
LINE
  5
18F
  8
_________2
 62
     7
 10
103.55
 20
5.9087199999999989
 30
0.0
 11
183.55099999999999
 21
5.9087199999999989
 31
0.0
  0
TEXT
  5
190
  8
_________2
 62
     7
 10
104.605
 20
11.679299999999991
 30
0.0
 40
3.660169999999999
  1
品番
 41
0.5
  0
TEXT
  5
191
  8
_________2
 62
     7
 10
104.605
 20
31.8184
 30
0.0
 40
3.660169999999999
  1
名称
 41
0.5
  0
TEXT
  5
192
  8
_________2
 62
     7
 10
91.565345833333339
 20
26.822299999999998
 30
0.0
 40
4.3256500000000004
  1
mm
 41
0.5
 72
     1
 11
93.367699999999985
 21
26.822299999999998
 31
0.0
  0
TEXT
  5
193
  8
_________2
 62
     7
 10
85.642999999999986
 20
31.8184
 30
0.0
 40
3.660169999999999
  1
単位
 41
0.5
  0
TEXT
  5
194
  8
_________2
 62
     7
 10
85.642999999999986
 20
19.410799999999991
 30
0.0
 40
3.660169999999999
  1
尺度
 41
0.5
  0
TEXT
  5
195
  8
_________2
 62
     7
 10
89.381520416666675
 20
13.218199999999991
 30
0.0
 40
4.3256500000000004
  1
1 ： 10
 41
0.5
 72
     1
 11
93.959500000000006
 21
13.218199999999991
 31
0.0
  0
TEXT
  5
196
  8
_________2
 62
     7
 10
109.179
 20
24.226099999999999
 30
0.0
 40
4.6583899999999989
  1
サブウェイ2 洗面器
 41
0.5
  0
TEXT
  5
197
  8
_________2
 62
     7
 10
39.078380833333327
 20
13.603400000000001
 30
0.0
 40
4.3256500000000004
  1
早川
 41
0.5
 72
     1
 11
41.313299999999998
 21
13.603400000000001
 31
0.0
  0
TEXT
  5
198
  8
_________2
 62
     7
 10
20.504380833333329
 20
13.603400000000001
 30
0.0
 40
4.3256500000000004
  1
福田
 41
0.5
 72
     1
 11
22.7393
 21
13.603400000000001
 31
0.0
  0
TEXT
  5
199
  8
_________2
 62
     7
 10
67.785600000000002
 20
13.218199999999991
 30
0.0
 40
4.3256500000000004
  1
14.05.07
 41
0.5
  0
TEXT
  5
19A
  8
_________2
 62
     7
 10
66.5929
 20
19.410799999999991
 30
0.0
 40
3.660169999999999
  1
日付
 41
0.5
  0
TEXT
  5
19B
  8
_________2
 62
     7
 10
29.639199999999992
 20
19.410799999999991
 30
0.0
 40
3.660169999999999
  1
検図
 41
0.5
  0
TEXT
  5
19C
  8
_________2
 62
     7
 10
18.020900000000001
 20
5.21143
 30
0.0
 40
3.660169999999999
  1
備考
 41
0.5
  0
TEXT
  5
19D
  8
_________2
 62
     7
 10
18.020900000000001
 20
19.410799999999991
 30
0.0
 40
3.660169999999999
  1
製図
 41
0.5
  0
TEXT
  5
19E
  8
_________2
 62
     7
 10
20.594630666666689
 20
27.936800000000002
 30
0.0
 40
5.3238799999999991
  1
セラトレーディング株式会社
 41
0.5
 72
     1
 11
41.180300000000003
 21
27.936800000000002
 31
0.0
  0
LINE
  5
19F
  8
_________2
 62
     7
 10
183.55099999999999
 20
-4.0910799999999998
 30
0.0
 11
17.049399999999991
 21
-4.0910799999999998
 31
0.0
  0
LINE
  5
1A0
  8
_________2
 62
     7
 10
17.049399999999991
 20
-4.0910799999999998
 30
0.0
 11
17.049399999999991
 21
258.911
 31
0.0
  0
LINE
  5
1A1
  8
_________2
 62
     7
 10
17.049399999999991
 20
258.911
 30
0.0
 11
183.55099999999999
 21
258.911
 31
0.0
  0
LINE
  5
1A2
  8
_________2
 62
     7
 10
183.55099999999999
 20
258.911
 30
0.0
 11
183.55099999999999
 21
-4.0910799999999998
 31
0.0
  0
LINE
  5
1A3
  8
_________2
 62
     7
 10
65.549700000000001
 20
9.4092999999999982
 30
0.0
 11
65.549700000000001
 21
35.909100000000002
 31
0.0
  0
LINE
  5
1A4
  8
_________2
 62
     7
 10
84.549599999999984
 20
9.4092999999999982
 30
0.0
 11
84.549599999999984
 21
35.909100000000002
 31
0.0
  0
LINE
  5
1A5
  8
_________2
 62
     7
 10
103.55
 20
-4.0910799999999998
 30
0.0
 11
103.55
 21
35.909100000000002
 31
0.0
  0
LINE
  5
1A6
  8
_________2
 62
     7
 10
28.549199999999988
 20
9.4092999999999982
 30
0.0
 11
28.549199999999988
 21
23.409199999999998
 31
0.0
  0
LINE
  5
1A7
  8
_________2
 62
     7
 10
17.049399999999991
 20
9.4092999999999982
 30
0.0
 11
103.55
 21
9.4092999999999982
 31
0.0
  0
LINE
  5
1A8
  8
_________2
 62
     7
 10
17.049399999999991
 20
23.409199999999998
 30
0.0
 11
103.55
 21
23.409199999999998
 31
0.0
  0
LINE
  5
1A9
  8
_________2
 62
     7
 10
103.55
 20
15.9085
 30
0.0
 11
183.55099999999999
 21
15.9085
 31
0.0
  0
LINE
  5
1AA
  8
_________2
 62
     7
 10
17.049399999999991
 20
35.909100000000002
 30
0.0
 11
183.55099999999999
 21
35.909100000000002
 31
0.0
  0
ENDSEC
  0
EOF
