  0
SECTION
  2
HEADER
  9
$ACADVER
  1
AC1009
  9
$LUNITS
 70
2
  9
$LUPREC
 70
4
  9
$LTSCALE
 40
1.0
  9
$EXTMIN
 10
-104.7936
 20
0.176
 30
0
  9
$EXTMAX
 10
315.2069
 20
297.1763
 30
0
  0
ENDSEC
  0
SECTION
  2
TABLES
  0
TABLE
  2
LTYPE
 70
256
  0
LTYPE
  2
AIGENLINE001
 70
64
  3
generate AI->DXF Converter
 72
65
 73
4
 40
5.8561
 49
3.5278
 49
-0.7761
 49
0.7761
 49
-0.7761
  0
LTYPE
  2
AIGENLINE002
 70
64
  3
generate AI->DXF Converter
 72
65
 73
6
 40
7.4083
 49
3.5278
 49
-0.7761
 49
0.7761
 49
-0.7761
 49
0.7761
 49
-0.7761
  0
ENDTAB
  0
TABLE
  2
LAYER
 70
3
  0
LAYER
  2
LAYER_1
 70
64
 62
7
  6
CONTINUOUS
  0
LAYER
  2
LAYER_2
 70
64
 62
7
  6
CONTINUOUS
  0
LAYER
  2
LAYER_3
 70
64
 62
7
  6
CONTINUOUS
  0
ENDTAB
  0
TABLE
  2
STYLE
 70
6
  0
STYLE
  2
STANDARD
 70
0
 40
0
 50
0
 71
0
 41
0
 42
0
  3
TXT
  4
BIGFONT
  0
ENDTAB
  0
ENDSEC
  0
SECTION
  2
BLOCKS
  0
BLOCK
  8
LAYER_2
  2
AIGNBL0203000B
 70
64
 10
0
 20
0
 30
0
  3
AIGNBL0203000B
  0
LINE
  8
LAYER_2
 10
-34.6275
 20
204.6104
 11
-24.2872
 21
204.6104
  0
ENDBLK
  0
BLOCK
  8
LAYER_2
  2
AIGNBL0203001A
 70
64
 10
0
 20
0
 30
0
  3
AIGNBL0203001A
  0
LINE
  8
LAYER_2
 10
52.6095
 20
100.3239
 11
52.6095
 21
111.4905
  0
ENDBLK
  0
BLOCK
  8
LAYER_2
  2
AIGNBL0203001B
 70
64
 10
0
 20
0
 30
0
  3
AIGNBL0203001B
  0
LINE
  8
LAYER_2
 10
63.3806
 20
107.4684
 11
63.3806
 21
119.447
  0
ENDBLK
  0
BLOCK
  8
LAYER_2
  2
AIGNBL0203001F
 70
64
 10
0
 20
0
 30
0
  3
AIGNBL0203001F
  0
ARC
  8
LAYER_2
 10
-43.3224
 20
118.5737
 40
0.8333
 50
90.00056536
 51
179.9994346
  0
ENDBLK
  0
BLOCK
  8
LAYER_2
  2
AIGNBL02030020
 70
64
 10
0
 20
0
 30
0
  3
AIGNBL02030020
  0
ARC
  8
LAYER_2
 10
-43.3224
 20
104.407
 40
0.8333
 50
180.0005704
 51
269.9994296
  0
ENDBLK
  0
BLOCK
  8
LAYER_2
  2
AIGNBL02030021
 70
64
 10
0
 20
0
 30
0
  3
AIGNBL02030021
  0
LINE
  8
LAYER_2
 10
-44.1557
 20
104.407
 11
-44.1557
 21
118.5737
  0
ENDBLK
  0
BLOCK
  8
LAYER_2
  2
AIGNBL02030022
 70
64
 10
0
 20
0
 30
0
  3
AIGNBL02030022
  0
LINE
  8
LAYER_2
 10
-33.739
 20
119.407
 11
-43.3224
 21
119.407
  0
ENDBLK
  0
BLOCK
  8
LAYER_2
  2
AIGNBL02030023
 70
64
 10
0
 20
0
 30
0
  3
AIGNBL02030023
  0
LINE
  8
LAYER_2
 10
-42.4891
 20
117.3237
 11
-39.1557
 21
117.3237
  0
ENDBLK
  0
BLOCK
  8
LAYER_2
  2
AIGNBL02030024
 70
64
 10
0
 20
0
 30
0
  3
AIGNBL02030024
  0
LINE
  8
LAYER_2
 10
-39.1557
 20
118.157
 11
-42.4891
 21
118.157
  0
ENDBLK
  0
BLOCK
  8
LAYER_2
  2
AIGNBL02030025
 70
64
 10
0
 20
0
 30
0
  3
AIGNBL02030025
  0
ARC
  8
LAYER_2
 10
-42.4891
 20
117.7404
 40
0.4166
 50
90.00570984
 51
180.0080417
  0
ARC
  8
LAYER_2
 10
-42.4891
 20
117.7403
 40
0.4166
 50
180.0056861
 51
269.9943139
  0
ENDBLK
  0
BLOCK
  8
LAYER_2
  2
AIGNBL02030026
 70
64
 10
0
 20
0
 30
0
  3
AIGNBL02030026
  0
ARC
  8
LAYER_2
 10
-39.1557
 20
117.7403
 40
0.4166
 50
270.0057589
 51
359.9942411
  0
ARC
  8
LAYER_2
 10
-39.1557
 20
117.7404
 40
0.4166
 50
359.9920312
 51
89.9942173
  0
ENDBLK
  0
BLOCK
  8
LAYER_2
  2
AIGNBL02030027
 70
64
 10
0
 20
0
 30
0
  3
AIGNBL02030027
  0
LINE
  8
LAYER_2
 10
-33.739
 20
103.5737
 11
-43.3224
 21
103.5737
  0
ENDBLK
  0
BLOCK
  8
LAYER_2
  2
AIGNBL02030028
 70
64
 10
0
 20
0
 30
0
  3
AIGNBL02030028
  0
LINE
  8
LAYER_2
 10
-42.4891
 20
105.657
 11
-39.1557
 21
105.657
  0
ENDBLK
  0
BLOCK
  8
LAYER_2
  2
AIGNBL02030029
 70
64
 10
0
 20
0
 30
0
  3
AIGNBL02030029
  0
LINE
  8
LAYER_2
 10
-39.1557
 20
104.8237
 11
-42.4891
 21
104.8237
  0
ENDBLK
  0
BLOCK
  8
LAYER_2
  2
AIGNBL0203002A
 70
64
 10
0
 20
0
 30
0
  3
AIGNBL0203002A
  0
ARC
  8
LAYER_2
 10
-42.4891
 20
105.2404
 40
0.4166
 50
90.00567598
 51
179.994324
  0
ARC
  8
LAYER_2
 10
-42.4891
 20
105.2403
 40
0.4166
 50
179.9919684
 51
269.9942801
  0
ENDBLK
  0
BLOCK
  8
LAYER_2
  2
AIGNBL0203002B
 70
64
 10
0
 20
0
 30
0
  3
AIGNBL0203002B
  0
ARC
  8
LAYER_2
 10
-39.1557
 20
105.2403
 40
0.4166
 50
270.0057928
 51
0.007958776701
  0
ARC
  8
LAYER_2
 10
-39.1557
 20
105.2404
 40
0.4166
 50
0.005748795049
 51
89.99425119
  0
ENDBLK
  0
BLOCK
  8
LAYER_2
  2
AIGNBL0203002C
 70
64
 10
0
 20
0
 30
0
  3
AIGNBL0203002C
  0
ARC
  8
LAYER_2
 10
-42.4891
 20
113.9903
 40
0.4167
 50
359.994304
 51
90.005696
  0
ARC
  8
LAYER_2
 10
-42.4891
 20
113.9904
 40
0.4166
 50
90.00569959
 51
180.008052
  0
ENDBLK
  0
BLOCK
  8
LAYER_2
  2
AIGNBL0203002D
 70
64
 10
0
 20
0
 30
0
  3
AIGNBL0203002D
  0
ARC
  8
LAYER_2
 10
-39.1557
 20
113.9904
 40
0.4166
 50
359.9920209
 51
89.99422754
  0
ARC
  8
LAYER_2
 10
-39.1557
 20
113.9903
 40
0.4167
 50
89.99423114
 51
180.0057689
  0
ENDBLK
  0
BLOCK
  8
LAYER_2
  2
AIGNBL0203002E
 70
64
 10
0
 20
0
 30
0
  3
AIGNBL0203002E
  0
LINE
  8
LAYER_2
 10
-42.9057
 20
113.9903
 11
-42.9057
 21
108.9903
  0
ENDBLK
  0
BLOCK
  8
LAYER_2
  2
AIGNBL0203002F
 70
64
 10
0
 20
0
 30
0
  3
AIGNBL0203002F
  0
LINE
  8
LAYER_2
 10
-42.0724
 20
108.9903
 11
-42.0724
 21
113.9903
  0
ENDBLK
  0
BLOCK
  8
LAYER_2
  2
AIGNBL02030030
 70
64
 10
0
 20
0
 30
0
  3
AIGNBL02030030
  0
ARC
  8
LAYER_2
 10
-42.4891
 20
108.9903
 40
0.4166
 50
179.9919581
 51
269.9942903
  0
ARC
  8
LAYER_2
 10
-42.4891
 20
108.9904
 40
0.4167
 50
269.9943141
 51
0.005685938161
  0
ENDBLK
  0
BLOCK
  8
LAYER_2
  2
AIGNBL02030031
 70
64
 10
0
 20
0
 30
0
  3
AIGNBL02030031
  0
LINE
  8
LAYER_2
 10
-39.5724
 20
113.9903
 11
-39.5724
 21
108.9903
  0
ENDBLK
  0
BLOCK
  8
LAYER_2
  2
AIGNBL02030032
 70
64
 10
0
 20
0
 30
0
  3
AIGNBL02030032
  0
LINE
  8
LAYER_2
 10
-38.7391
 20
108.9903
 11
-38.7391
 21
113.9903
  0
ENDBLK
  0
BLOCK
  8
LAYER_2
  2
AIGNBL02030033
 70
64
 10
0
 20
0
 30
0
  3
AIGNBL02030033
  0
ARC
  8
LAYER_2
 10
-39.1557
 20
108.9904
 40
0.4167
 50
179.9942412
 51
270.0057588
  0
ARC
  8
LAYER_2
 10
-39.1557
 20
108.9903
 40
0.4166
 50
270.0057825
 51
0.007969025479
  0
ENDBLK
  0
BLOCK
  8
LAYER_2
  2
AIGNBL02030035
 70
64
 10
0
 20
0
 30
0
  3
AIGNBL02030035
  0
ARC
  8
LAYER_2
 10
17.8442
 20
118.5737
 40
0.8333
 50
0.002074676465
 51
89.99792531
  0
ENDBLK
  0
BLOCK
  8
LAYER_2
  2
AIGNBL02030036
 70
64
 10
0
 20
0
 30
0
  3
AIGNBL02030036
  0
ARC
  8
LAYER_2
 10
17.8442
 20
104.407
 40
0.8333
 50
270.0020797
 51
359.9979203
  0
ENDBLK
  0
BLOCK
  8
LAYER_2
  2
AIGNBL02030037
 70
64
 10
0
 20
0
 30
0
  3
AIGNBL02030037
  0
LINE
  8
LAYER_2
 10
18.6775
 20
104.407
 11
18.6775
 21
118.5737
  0
ENDBLK
  0
BLOCK
  8
LAYER_2
  2
AIGNBL02030038
 70
64
 10
0
 20
0
 30
0
  3
AIGNBL02030038
  0
LINE
  8
LAYER_2
 10
8.3443
 20
119.407
 11
17.8442
 21
119.407
  0
ENDBLK
  0
BLOCK
  8
LAYER_2
  2
AIGNBL02030039
 70
64
 10
0
 20
0
 30
0
  3
AIGNBL02030039
  0
LINE
  8
LAYER_2
 10
17.0108
 20
117.3237
 11
13.6775
 21
117.3237
  0
ENDBLK
  0
BLOCK
  8
LAYER_2
  2
AIGNBL0203003A
 70
64
 10
0
 20
0
 30
0
  3
AIGNBL0203003A
  0
LINE
  8
LAYER_2
 10
13.6775
 20
118.157
 11
17.0108
 21
118.157
  0
ENDBLK
  0
BLOCK
  8
LAYER_2
  2
AIGNBL0203003B
 70
64
 10
0
 20
0
 30
0
  3
AIGNBL0203003B
  0
ARC
  8
LAYER_2
 10
17.0108
 20
117.7403
 40
0.4167
 50
359.9949774
 51
90.00502255
  0
ARC
  8
LAYER_2
 10
17.0108
 20
117.7404
 40
0.4167
 50
269.9949529
 51
359.9912956
  0
ENDBLK
  0
BLOCK
  8
LAYER_2
  2
AIGNBL0203003C
 70
64
 10
0
 20
0
 30
0
  3
AIGNBL0203003C
  0
ARC
  8
LAYER_2
 10
13.6775
 20
117.7404
 40
0.4167
 50
180.0096155
 51
270.0041361
  0
ARC
  8
LAYER_2
 10
13.6775
 20
117.7403
 40
0.4167
 50
89.99588863
 51
180.0041114
  0
ENDBLK
  0
BLOCK
  8
LAYER_2
  2
AIGNBL0203003D
 70
64
 10
0
 20
0
 30
0
  3
AIGNBL0203003D
  0
LINE
  8
LAYER_2
 10
8.3443
 20
103.5737
 11
17.8442
 21
103.5737
  0
ENDBLK
  0
BLOCK
  8
LAYER_2
  2
AIGNBL0203003E
 70
64
 10
0
 20
0
 30
0
  3
AIGNBL0203003E
  0
LINE
  8
LAYER_2
 10
17.0108
 20
105.657
 11
13.6775
 21
105.657
  0
ENDBLK
  0
BLOCK
  8
LAYER_2
  2
AIGNBL0203003F
 70
64
 10
0
 20
0
 30
0
  3
AIGNBL0203003F
  0
LINE
  8
LAYER_2
 10
13.6775
 20
104.8237
 11
17.0108
 21
104.8237
  0
ENDBLK
  0
BLOCK
  8
LAYER_2
  2
AIGNBL02030040
 70
64
 10
0
 20
0
 30
0
  3
AIGNBL02030040
  0
ARC
  8
LAYER_2
 10
17.0108
 20
105.2403
 40
0.4167
 50
0.008694407892
 51
90.00505712
  0
ARC
  8
LAYER_2
 10
17.0108
 20
105.2404
 40
0.4167
 50
269.9949875
 51
0.005012474715
  0
ENDBLK
  0
BLOCK
  8
LAYER_2
  2
AIGNBL02030041
 70
64
 10
0
 20
0
 30
0
  3
AIGNBL02030041
  0
ARC
  8
LAYER_2
 10
13.6775
 20
105.2404
 40
0.4167
 50
179.9958986
 51
270.0041013
  0
ARC
  8
LAYER_2
 10
13.6775
 20
105.2403
 40
0.4167
 50
89.99585379
 51
179.9903946
  0
ENDBLK
  0
BLOCK
  8
LAYER_2
  2
AIGNBL02030042
 70
64
 10
0
 20
0
 30
0
  3
AIGNBL02030042
  0
ARC
  8
LAYER_2
 10
17.0108
 20
113.9904
 40
0.4166
 50
90.00503641
 51
180.0087151
  0
ARC
  8
LAYER_2
 10
17.0108
 20
113.9903
 40
0.4167
 50
359.9949672
 51
90.00503279
  0
ENDBLK
  0
BLOCK
  8
LAYER_2
  2
AIGNBL02030043
 70
64
 10
0
 20
0
 30
0
  3
AIGNBL02030043
  0
ARC
  8
LAYER_2
 10
13.6775
 20
113.9903
 40
0.4167
 50
89.99587837
 51
180.0041216
  0
ARC
  8
LAYER_2
 10
13.6775
 20
113.9903
 40
0.4167
 50
359.9972503
 51
90.00274971
  0
ENDBLK
  0
BLOCK
  8
LAYER_2
  2
AIGNBL02030044
 70
64
 10
0
 20
0
 30
0
  3
AIGNBL02030044
  0
LINE
  8
LAYER_2
 10
17.4275
 20
113.9903
 11
17.4275
 21
108.9903
  0
ENDBLK
  0
BLOCK
  8
LAYER_2
  2
AIGNBL02030045
 70
64
 10
0
 20
0
 30
0
  3
AIGNBL02030045
  0
LINE
  8
LAYER_2
 10
16.5942
 20
108.9903
 11
16.5942
 21
113.9903
  0
ENDBLK
  0
BLOCK
  8
LAYER_2
  2
AIGNBL02030046
 70
64
 10
0
 20
0
 30
0
  3
AIGNBL02030046
  0
ARC
  8
LAYER_2
 10
17.0108
 20
108.9904
 40
0.4167
 50
269.9949773
 51
0.005022735238
  0
ARC
  8
LAYER_2
 10
17.0108
 20
108.9903
 40
0.4166
 50
179.9912949
 51
269.9949536
  0
ENDBLK
  0
BLOCK
  8
LAYER_2
  2
AIGNBL02030047
 70
64
 10
0
 20
0
 30
0
  3
AIGNBL02030047
  0
LINE
  8
LAYER_2
 10
14.0942
 20
113.9903
 11
14.0942
 21
108.9903
  0
ENDBLK
  0
BLOCK
  8
LAYER_2
  2
AIGNBL02030048
 70
64
 10
0
 20
0
 30
0
  3
AIGNBL02030048
  0
LINE
  8
LAYER_2
 10
13.2608
 20
108.9903
 11
13.2608
 21
113.9903
  0
ENDBLK
  0
BLOCK
  8
LAYER_2
  2
AIGNBL02030049
 70
64
 10
0
 20
0
 30
0
  3
AIGNBL02030049
  0
ARC
  8
LAYER_2
 10
13.6775
 20
108.9904
 40
0.4167
 50
269.9972604
 51
0.002739640544
  0
ARC
  8
LAYER_2
 10
13.6775
 20
108.9904
 40
0.4167
 50
179.9958884
 51
270.0041116
  0
ENDBLK
  0
BLOCK
  8
LAYER_2
  2
AIGNBL02020003
 70
64
 10
0
 20
0
 30
0
  3
AIGNBL02020003
  0
LINE
  8
LAYER_2
 10
8.8808
 20
203.7147
 11
-1.1727
 21
203.7147
  0
ENDBLK
  0
BLOCK
  8
LAYER_2
  2
AIGNBL0202000A
 70
64
 10
0
 20
0
 30
0
  3
AIGNBL0202000A
  0
INSERT
  8
LAYER_2
  2
AIGNBL0203000B
 10
0
 20
0
 30
0
  0
ENDBLK
  0
BLOCK
  8
LAYER_2
  2
AIGNBL02020019
 70
64
 10
0
 20
0
 30
0
  3
AIGNBL02020019
  0
LINE
  8
LAYER_2
 10
80.3136
 20
108.1812
 11
80.3136
 21
97.3935
  0
LINE
  8
LAYER_2
 10
44.8377
 20
100.3239
 11
53.2521
 21
100.3239
  0
INSERT
  8
LAYER_2
  2
AIGNBL0203001A
 10
0
 20
0
 30
0
  0
INSERT
  8
LAYER_2
  2
AIGNBL0203001B
 10
0
 20
0
 30
0
  0
ENDBLK
  0
BLOCK
  8
LAYER_2
  2
AIGNBL0202001E
 70
64
 10
0
 20
0
 30
0
  3
AIGNBL0202001E
  0
INSERT
  8
LAYER_2
  2
AIGNBL0203001F
 10
0
 20
0
 30
0
  0
INSERT
  8
LAYER_2
  2
AIGNBL02030020
 10
0
 20
0
 30
0
  0
INSERT
  8
LAYER_2
  2
AIGNBL02030021
 10
0
 20
0
 30
0
  0
INSERT
  8
LAYER_2
  2
AIGNBL02030022
 10
0
 20
0
 30
0
  0
INSERT
  8
LAYER_2
  2
AIGNBL02030023
 10
0
 20
0
 30
0
  0
INSERT
  8
LAYER_2
  2
AIGNBL02030024
 10
0
 20
0
 30
0
  0
INSERT
  8
LAYER_2
  2
AIGNBL02030025
 10
0
 20
0
 30
0
  0
INSERT
  8
LAYER_2
  2
AIGNBL02030026
 10
0
 20
0
 30
0
  0
INSERT
  8
LAYER_2
  2
AIGNBL02030027
 10
0
 20
0
 30
0
  0
INSERT
  8
LAYER_2
  2
AIGNBL02030028
 10
0
 20
0
 30
0
  0
INSERT
  8
LAYER_2
  2
AIGNBL02030029
 10
0
 20
0
 30
0
  0
INSERT
  8
LAYER_2
  2
AIGNBL0203002A
 10
0
 20
0
 30
0
  0
INSERT
  8
LAYER_2
  2
AIGNBL0203002B
 10
0
 20
0
 30
0
  0
INSERT
  8
LAYER_2
  2
AIGNBL0203002C
 10
0
 20
0
 30
0
  0
INSERT
  8
LAYER_2
  2
AIGNBL0203002D
 10
0
 20
0
 30
0
  0
INSERT
  8
LAYER_2
  2
AIGNBL0203002E
 10
0
 20
0
 30
0
  0
INSERT
  8
LAYER_2
  2
AIGNBL0203002F
 10
0
 20
0
 30
0
  0
INSERT
  8
LAYER_2
  2
AIGNBL02030030
 10
0
 20
0
 30
0
  0
INSERT
  8
LAYER_2
  2
AIGNBL02030031
 10
0
 20
0
 30
0
  0
INSERT
  8
LAYER_2
  2
AIGNBL02030032
 10
0
 20
0
 30
0
  0
INSERT
  8
LAYER_2
  2
AIGNBL02030033
 10
0
 20
0
 30
0
  0
ENDBLK
  0
BLOCK
  8
LAYER_2
  2
AIGNBL02020034
 70
64
 10
0
 20
0
 30
0
  3
AIGNBL02020034
  0
INSERT
  8
LAYER_2
  2
AIGNBL02030035
 10
0
 20
0
 30
0
  0
INSERT
  8
LAYER_2
  2
AIGNBL02030036
 10
0
 20
0
 30
0
  0
INSERT
  8
LAYER_2
  2
AIGNBL02030037
 10
0
 20
0
 30
0
  0
INSERT
  8
LAYER_2
  2
AIGNBL02030038
 10
0
 20
0
 30
0
  0
INSERT
  8
LAYER_2
  2
AIGNBL02030039
 10
0
 20
0
 30
0
  0
INSERT
  8
LAYER_2
  2
AIGNBL0203003A
 10
0
 20
0
 30
0
  0
INSERT
  8
LAYER_2
  2
AIGNBL0203003B
 10
0
 20
0
 30
0
  0
INSERT
  8
LAYER_2
  2
AIGNBL0203003C
 10
0
 20
0
 30
0
  0
INSERT
  8
LAYER_2
  2
AIGNBL0203003D
 10
0
 20
0
 30
0
  0
INSERT
  8
LAYER_2
  2
AIGNBL0203003E
 10
0
 20
0
 30
0
  0
INSERT
  8
LAYER_2
  2
AIGNBL0203003F
 10
0
 20
0
 30
0
  0
INSERT
  8
LAYER_2
  2
AIGNBL02030040
 10
0
 20
0
 30
0
  0
INSERT
  8
LAYER_2
  2
AIGNBL02030041
 10
0
 20
0
 30
0
  0
INSERT
  8
LAYER_2
  2
AIGNBL02030042
 10
0
 20
0
 30
0
  0
INSERT
  8
LAYER_2
  2
AIGNBL02030043
 10
0
 20
0
 30
0
  0
INSERT
  8
LAYER_2
  2
AIGNBL02030044
 10
0
 20
0
 30
0
  0
INSERT
  8
LAYER_2
  2
AIGNBL02030045
 10
0
 20
0
 30
0
  0
INSERT
  8
LAYER_2
  2
AIGNBL02030046
 10
0
 20
0
 30
0
  0
INSERT
  8
LAYER_2
  2
AIGNBL02030047
 10
0
 20
0
 30
0
  0
INSERT
  8
LAYER_2
  2
AIGNBL02030048
 10
0
 20
0
 30
0
  0
INSERT
  8
LAYER_2
  2
AIGNBL02030049
 10
0
 20
0
 30
0
  0
ENDBLK
  0
BLOCK
  8
LAYER_2
  2
AIGNBL02010002
 70
64
 10
0
 20
0
 30
0
  3
AIGNBL02010002
  0
INSERT
  8
LAYER_2
  2
AIGNBL02020003
 10
0
 20
0
 30
0
  0
ENDBLK
  0
BLOCK
  8
LAYER_2
  2
AIGNBL02010004
 70
64
 10
0
 20
0
 30
0
  3
AIGNBL02010004
  0
LINE
  8
LAYER_2
 10
-11.4058
 20
215.2348
 11
-1.4058
 21
215.2348
  0
LINE
  8
LAYER_2
 10
-1.4058
 20
215.4847
 11
-1.4058
 21
215.2348
  0
LINE
  8
LAYER_2
 10
-14.4055
 20
215.4847
 11
-14.4055
 21
215.2348
  0
LINE
  8
LAYER_2
 10
-11.4058
 20
215.4847
 11
-11.4058
 21
215.2348
  0
ENDBLK
  0
BLOCK
  8
LAYER_2
  2
AIGNBL02010005
 70
64
 10
0
 20
0
 30
0
  3
AIGNBL02010005
  0
LINE
  8
LAYER_2
 10
-11.4058
 20
215.4847
 11
-1.4058
 21
215.4847
  0
ENDBLK
  0
BLOCK
  8
LAYER_2
  2
AIGNBL02010006
 70
64
 10
0
 20
0
 30
0
  3
AIGNBL02010006
  0
LINE
  8
LAYER_2
 10
-24.4056
 20
215.4847
 11
-14.4055
 21
215.4847
  0
ENDBLK
  0
BLOCK
  8
LAYER_2
  2
AIGNBL02010007
 70
64
 10
0
 20
0
 30
0
  3
AIGNBL02010007
  0
LINE
  8
LAYER_2
 10
-6.822
 20
118.9901
 11
-5.9886
 21
118.9901
  0
LINE
  8
LAYER_2
 10
-5.8219
 20
118.8234
 11
-5.8219
 21
114.772
  0
LINE
  8
LAYER_2
 10
-6.9887
 20
118.8234
 11
-6.9887
 21
114.772
  0
LINE
  8
LAYER_2
 10
-5.3637
 20
114.6569
 11
-5.3637
 21
108.3227
  0
LINE
  8
LAYER_2
 10
-7.4469
 20
114.6569
 11
-7.4469
 21
108.3227
  0
CIRCLE
  8
LAYER_2
 10
-6.4055
 20
111.4902
 40
3.3335
  0
ARC
  8
LAYER_2
 10
-6.822
 20
118.8234
 40
0.1667
 50
89.99984826
 51
180.0001517
  0
ARC
  8
LAYER_2
 10
-5.9886
 20
118.8234
 40
0.1667
 50
359.9991321
 51
90.00086791
  0
ENDBLK
  0
BLOCK
  8
LAYER_2
  2
AIGNBL02010008
 70
64
 10
0
 20
0
 30
0
  3
AIGNBL02010008
  0
LINE
  8
LAYER_2
 10
-44.1557
 20
236.231
 11
18.6778
 21
236.231
  0
LINE
  8
LAYER_2
 10
26.2826
 20
216.4182
 11
33.5889
 21
210.7706
  0
LINE
  8
LAYER_2
 10
81.1859
 20
85.1862
 11
79.7789
 21
81.141
  0
LINE
  8
LAYER_2
 10
17.2033
 20
235.8433
 11
18.6778
 21
236.2384
  0
LINE
  8
LAYER_2
 10
18.6778
 20
236.2384
 11
17.2033
 21
236.6335
  0
LINE
  8
LAYER_2
 10
17.2033
 20
236.6335
 11
17.2033
 21
235.8433
  0
LINE
  8
LAYER_2
 10
-35.6298
 20
235.8361
 11
-34.1554
 21
236.231
  0
LINE
  8
LAYER_2
 10
-34.1554
 20
236.231
 11
-35.6298
 21
236.626
  0
LINE
  8
LAYER_2
 10
-35.6298
 20
236.626
 11
-35.6298
 21
235.8361
  0
LINE
  8
LAYER_2
 10
-42.6812
 20
236.626
 11
-44.1557
 21
236.231
  0
LINE
  8
LAYER_2
 10
-44.1557
 20
236.231
 11
-42.6812
 21
235.8361
  0
LINE
  8
LAYER_2
 10
-42.6812
 20
235.8361
 11
-42.6812
 21
236.626
  0
LINE
  8
LAYER_2
 10
-32.6815
 20
236.626
 11
-34.1554
 21
236.231
  0
LINE
  8
LAYER_2
 10
-34.1554
 20
236.231
 11
-32.6815
 21
235.8361
  0
LINE
  8
LAYER_2
 10
-32.6815
 20
235.8361
 11
-32.6815
 21
236.626
  0
LINE
  8
LAYER_2
 10
44.2883
 20
85.581
 11
42.8141
 21
85.1862
  0
LINE
  8
LAYER_2
 10
42.8141
 20
85.1862
 11
44.2883
 21
84.7914
  0
LINE
  8
LAYER_2
 10
44.2883
 20
84.7914
 11
44.2883
 21
85.581
  0
LINE
  8
LAYER_2
 10
78.8391
 20
84.7914
 11
80.3136
 21
85.1862
  0
LINE
  8
LAYER_2
 10
80.3136
 20
85.1862
 11
78.8391
 21
85.581
  0
LINE
  8
LAYER_2
 10
78.8391
 20
85.581
 11
78.8391
 21
84.7914
  0
LINE
  8
LAYER_2
 10
7.7039
 20
235.8361
 11
9.1777
 21
236.231
  0
LINE
  8
LAYER_2
 10
9.1777
 20
236.231
 11
7.7039
 21
236.626
  0
LINE
  8
LAYER_2
 10
7.7039
 20
236.626
 11
7.7039
 21
235.8361
  0
LINE
  8
LAYER_2
 10
10.6522
 20
236.626
 11
9.1777
 21
236.231
  0
LINE
  8
LAYER_2
 10
9.1777
 20
236.231
 11
10.6522
 21
235.8361
  0
LINE
  8
LAYER_2
 10
10.6522
 20
235.8361
 11
10.6522
 21
236.626
  0
ENDBLK
  0
BLOCK
  8
LAYER_2
  2
AIGNBL02010009
 70
64
 10
0
 20
0
 30
0
  3
AIGNBL02010009
  0
LINE
  8
LAYER_2
 10
-51.4686
 20
212.1693
 11
-51.4686
 21
229.6514
  0
LINE
  8
LAYER_2
 10
-51.081
 20
228.1771
 11
-51.4758
 21
229.6514
  0
LINE
  8
LAYER_2
 10
-51.4758
 20
229.6514
 11
-51.871
 21
228.1771
  0
LINE
  8
LAYER_2
 10
-51.871
 20
228.1771
 11
-51.081
 21
228.1771
  0
LINE
  8
LAYER_2
 10
-3.261
 20
196.7432
 11
-8.6351
 21
208.6546
  0
LINE
  8
LAYER_2
 10
-7.676
 20
207.4702
 11
-8.6417
 21
208.6515
  0
LINE
  8
LAYER_2
 10
-8.6417
 20
208.6515
 11
-8.396
 21
207.1453
  0
LINE
  8
LAYER_2
 10
-8.396
 20
207.1453
 11
-7.676
 21
207.4702
  0
LINE
  8
LAYER_2
 10
-51.0734
 20
216.094
 11
-51.4686
 21
217.5683
  0
LINE
  8
LAYER_2
 10
-51.4686
 20
217.5683
 11
-51.8637
 21
216.094
  0
LINE
  8
LAYER_2
 10
-51.8637
 20
216.094
 11
-51.0734
 21
216.094
  0
LINE
  8
LAYER_2
 10
-51.8637
 20
219.459
 11
-51.4686
 21
217.985
  0
LINE
  8
LAYER_2
 10
-51.4686
 20
217.985
 11
-51.0734
 21
219.459
  0
LINE
  8
LAYER_2
 10
-51.0734
 20
219.459
 11
-51.8637
 21
219.459
  0
LINE
  8
LAYER_2
 10
5.3757
 20
229.6514
 11
26.6326
 21
229.6514
  0
LINE
  8
LAYER_2
 10
22.1598
 20
217.1516
 11
26.6326
 21
217.1516
  0
LINE
  8
LAYER_2
 10
22.1598
 20
215.4847
 11
26.6326
 21
215.4847
  0
LINE
  8
LAYER_2
 10
-3.261
 20
196.7432
 11
5.532
 21
196.7432
  0
LINE
  8
LAYER_2
 10
-25.1899
 20
244.1198
 11
-20.9221
 21
222.9392
  0
LINE
  8
LAYER_2
 10
-20.8328
 20
224.4607
 11
-20.9293
 21
222.9378
  0
LINE
  8
LAYER_2
 10
-20.9293
 20
222.9378
 11
-21.6069
 21
224.3053
  0
LINE
  8
LAYER_2
 10
-21.6069
 20
224.3053
 11
-20.8328
 21
224.4607
  0
LINE
  8
LAYER_2
 10
-1.1727
 20
203.7147
 11
-2.3924
 21
215.2341
  0
LINE
  8
LAYER_2
 10
-2.6226
 20
213.7275
 11
-2.3856
 21
215.2348
  0
LINE
  8
LAYER_2
 10
-2.3856
 20
215.2348
 11
-1.8371
 21
213.8105
  0
LINE
  8
LAYER_2
 10
-1.8371
 20
213.8105
 11
-2.6226
 21
213.7275
  0
INSERT
  8
LAYER_2
  2
AIGNBL0202000A
 10
0
 20
0
 30
0
  0
LINE
  8
LAYER_2
 10
-24.2872
 20
204.6104
 11
-23.1622
 21
215.2341
  0
LINE
  8
LAYER_2
 10
-22.9321
 20
213.7275
 11
-23.1691
 21
215.2348
  0
LINE
  8
LAYER_2
 10
-23.1691
 20
215.2348
 11
-23.7176
 21
213.8105
  0
LINE
  8
LAYER_2
 10
-23.7176
 20
213.8105
 11
-22.9321
 21
213.7275
  0
LINE
  8
LAYER_2
 10
-25.1899
 20
244.1198
 11
-36.6399
 21
244.1198
  0
LINE
  8
LAYER_2
 10
33.5889
 20
210.7706
 11
53.5309
 21
210.7706
  0
LINE
  8
LAYER_2
 10
26.2826
 20
211.9464
 11
26.2826
 21
229.6514
  0
LINE
  8
LAYER_2
 10
25.895
 20
228.1771
 11
26.2898
 21
229.6514
  0
LINE
  8
LAYER_2
 10
26.2898
 20
229.6514
 11
26.685
 21
228.1771
  0
LINE
  8
LAYER_2
 10
26.685
 20
228.1771
 11
25.895
 21
228.1771
  0
LINE
  8
LAYER_2
 10
25.8877
 20
214.0107
 11
26.2826
 21
215.4847
  0
LINE
  8
LAYER_2
 10
26.2826
 20
215.4847
 11
26.6777
 21
214.0107
  0
LINE
  8
LAYER_2
 10
26.6777
 20
214.0107
 11
25.8877
 21
214.0107
  0
LINE
  8
LAYER_2
 10
26.6777
 20
218.6256
 11
26.2826
 21
217.1516
  0
LINE
  8
LAYER_2
 10
26.2826
 20
217.1516
 11
25.8874
 21
218.6256
  0
LINE
  8
LAYER_2
 10
25.8874
 20
218.6256
 11
26.6777
 21
218.6256
  0
ENDBLK
  0
BLOCK
  8
LAYER_2
  2
AIGNBL0201000C
 70
64
 10
0
 20
0
 30
0
  3
AIGNBL0201000C
  0
LINE
  8
LAYER_2
 10
90.3133
 20
91.8752
 11
104.6236
 21
91.8752
  0
LINE
  8
LAYER_2
 10
93.006
 20
91.4879
 11
94.4805
 21
91.8828
  0
LINE
  8
LAYER_2
 10
94.4805
 20
91.8828
 11
93.006
 21
92.2776
  0
LINE
  8
LAYER_2
 10
93.006
 20
92.2776
 11
93.006
 21
91.4879
  0
LINE
  8
LAYER_2
 10
91.7872
 20
92.2707
 11
90.3133
 21
91.8752
  0
LINE
  8
LAYER_2
 10
90.3133
 20
91.8752
 11
91.7872
 21
91.4804
  0
LINE
  8
LAYER_2
 10
91.7872
 20
91.4804
 11
91.7872
 21
92.2707
  0
LINE
  8
LAYER_2
 10
93.006
 20
84.7693
 11
94.4805
 21
85.1642
  0
LINE
  8
LAYER_2
 10
94.4805
 20
85.1642
 11
93.006
 21
85.5589
  0
LINE
  8
LAYER_2
 10
93.006
 20
85.5589
 11
93.006
 21
84.7693
  0
LINE
  8
LAYER_2
 10
83.4542
 20
85.5817
 11
81.9804
 21
85.1862
  0
LINE
  8
LAYER_2
 10
81.9804
 20
85.1862
 11
83.4542
 21
84.7914
  0
LINE
  8
LAYER_2
 10
83.4542
 20
84.7914
 11
83.4542
 21
85.5817
  0
LINE
  8
LAYER_2
 10
53.0043
 20
110.016
 11
52.6095
 21
111.4905
  0
LINE
  8
LAYER_2
 10
52.6095
 20
111.4905
 11
52.2147
 21
110.016
  0
LINE
  8
LAYER_2
 10
52.2147
 20
110.016
 11
53.0043
 21
110.016
  0
LINE
  8
LAYER_2
 10
52.214
 20
101.7977
 11
52.6095
 21
100.3239
  0
LINE
  8
LAYER_2
 10
52.6095
 20
100.3239
 11
53.0043
 21
101.7977
  0
LINE
  8
LAYER_2
 10
53.0043
 20
101.7977
 11
52.214
 21
101.7977
  0
LINE
  8
LAYER_2
 10
63.7754
 20
108.4327
 11
63.3806
 21
109.9072
  0
LINE
  8
LAYER_2
 10
63.3806
 20
109.9072
 11
62.9858
 21
108.4327
  0
LINE
  8
LAYER_2
 10
62.9858
 20
108.4327
 11
63.7754
 21
108.4327
  0
LINE
  8
LAYER_2
 10
62.9851
 20
114.5477
 11
63.3806
 21
113.0739
  0
LINE
  8
LAYER_2
 10
63.3806
 20
113.0739
 11
63.7754
 21
114.5477
  0
LINE
  8
LAYER_2
 10
63.7754
 20
114.5477
 11
62.9851
 21
114.5477
  0
ENDBLK
  0
BLOCK
  8
LAYER_2
  2
AIGNBL0201000D
 70
64
 10
0
 20
0
 30
0
  3
AIGNBL0201000D
  0
LINE
  8
LAYER_2
 10
-44.1553
 20
133.2725
 11
18.6775
 21
133.2725
  0
LINE
  8
LAYER_2
 10
17.203
 20
132.8846
 11
18.6775
 21
133.2794
  0
LINE
  8
LAYER_2
 10
18.6775
 20
133.2794
 11
17.203
 21
133.6745
  0
LINE
  8
LAYER_2
 10
17.203
 20
133.6745
 11
17.203
 21
132.8846
  0
LINE
  8
LAYER_2
 10
-42.6808
 20
133.6673
 11
-44.1553
 21
133.2725
  0
LINE
  8
LAYER_2
 10
-44.1553
 20
133.2725
 11
-42.6808
 21
132.8773
  0
LINE
  8
LAYER_2
 10
-42.6808
 20
132.8773
 11
-42.6808
 21
133.6673
  0
ENDBLK
  0
BLOCK
  8
LAYER_2
  2
AIGNBL0201000E
 70
64
 10
0
 20
0
 30
0
  3
AIGNBL0201000E
  0
LINE
  8
LAYER_2
 10
-44.1553
 20
141.0381
 11
18.6775
 21
141.0381
  0
LINE
  8
LAYER_2
 10
17.203
 20
140.6502
 11
18.6775
 21
141.0453
  0
LINE
  8
LAYER_2
 10
18.6775
 20
141.0453
 11
17.203
 21
141.4401
  0
LINE
  8
LAYER_2
 10
17.203
 20
141.4401
 11
17.203
 21
140.6502
  0
LINE
  8
LAYER_2
 10
-42.6808
 20
141.4332
 11
-44.1553
 21
141.0381
  0
LINE
  8
LAYER_2
 10
-44.1553
 20
141.0381
 11
-42.6808
 21
140.6429
  0
LINE
  8
LAYER_2
 10
-42.6808
 20
140.6429
 11
-42.6808
 21
141.4332
  0
ENDBLK
  0
BLOCK
  8
LAYER_2
  2
AIGNBL0201000F
 70
64
 10
0
 20
0
 30
0
  3
AIGNBL0201000F
  0
LINE
  8
LAYER_2
 10
-55.9431
 20
119.4067
 11
-55.9431
 21
103.5734
  0
LINE
  8
LAYER_2
 10
-56.3379
 20
105.0478
 11
-55.9431
 21
103.5734
  0
LINE
  8
LAYER_2
 10
-55.9431
 20
103.5734
 11
-55.5476
 21
105.0478
  0
LINE
  8
LAYER_2
 10
-55.5476
 20
105.0478
 11
-56.3379
 21
105.0478
  0
LINE
  8
LAYER_2
 10
-55.5552
 20
117.9325
 11
-55.95
 21
119.4067
  0
LINE
  8
LAYER_2
 10
-55.95
 20
119.4067
 11
-56.3447
 21
117.9325
  0
LINE
  8
LAYER_2
 10
-56.3447
 20
117.9325
 11
-55.5552
 21
117.9325
  0
ENDBLK
  0
BLOCK
  8
LAYER_2
  2
AIGNBL02010010
 70
64
 10
0
 20
0
 30
0
  3
AIGNBL02010010
  0
LINE
  8
LAYER_2
 10
-49.5483
 20
111.4902
 11
-49.5483
 21
99.4072
  0
LINE
  8
LAYER_2
 10
-49.9431
 20
100.8817
 11
-49.5483
 21
99.4072
  0
LINE
  8
LAYER_2
 10
-49.5483
 20
99.4072
 11
-49.1528
 21
100.8817
  0
LINE
  8
LAYER_2
 10
-49.1528
 20
100.8817
 11
-49.9431
 21
100.8817
  0
LINE
  8
LAYER_2
 10
-49.1604
 20
110.0157
 11
-49.5552
 21
111.4902
  0
LINE
  8
LAYER_2
 10
-49.5552
 20
111.4902
 11
-49.95
 21
110.0157
  0
LINE
  8
LAYER_2
 10
-49.95
 20
110.0157
 11
-49.1604
 21
110.0157
  0
ENDBLK
  0
BLOCK
  8
LAYER_2
  2
AIGNBL02010011
 70
64
 10
0
 20
0
 30
0
  3
AIGNBL02010011
  0
LINE
  8
LAYER_2
 10
-49.5483
 20
123.9066
 11
-49.5483
 21
111.4902
  0
LINE
  8
LAYER_2
 10
-49.9431
 20
112.9647
 11
-49.5483
 21
111.4902
  0
LINE
  8
LAYER_2
 10
-49.5483
 20
111.4902
 11
-49.1528
 21
112.9647
  0
LINE
  8
LAYER_2
 10
-49.1528
 20
112.9647
 11
-49.9431
 21
112.9647
  0
LINE
  8
LAYER_2
 10
-49.1528
 20
122.4322
 11
-49.5483
 21
123.9066
  0
LINE
  8
LAYER_2
 10
-49.5483
 20
123.9066
 11
-49.9431
 21
122.4322
  0
LINE
  8
LAYER_2
 10
-49.9431
 20
122.4322
 11
-49.1528
 21
122.4322
  0
ENDBLK
  0
BLOCK
  8
LAYER_2
  2
AIGNBL02010012
 70
64
 10
0
 20
0
 30
0
  3
AIGNBL02010012
  0
LINE
  8
LAYER_2
 10
-62.3448
 20
123.9066
 11
-62.3448
 21
99.4072
  0
LINE
  8
LAYER_2
 10
-62.7402
 20
100.8817
 11
-62.3448
 21
99.4072
  0
LINE
  8
LAYER_2
 10
-62.3448
 20
99.4072
 11
-61.9499
 21
100.8817
  0
LINE
  8
LAYER_2
 10
-61.9499
 20
100.8817
 11
-62.7402
 21
100.8817
  0
LINE
  8
LAYER_2
 10
-61.9568
 20
122.4328
 11
-62.3523
 21
123.9066
  0
LINE
  8
LAYER_2
 10
-62.3523
 20
123.9066
 11
-62.7471
 21
122.4328
  0
LINE
  8
LAYER_2
 10
-62.7471
 20
122.4328
 11
-61.9568
 21
122.4328
  0
ENDBLK
  0
BLOCK
  8
LAYER_2
  2
AIGNBL02010013
 70
64
 10
0
 20
0
 30
0
  3
AIGNBL02010013
  0
LINE
  8
LAYER_2
 10
-20.8797
 20
132.8773
 11
-19.4055
 21
133.2725
  0
LINE
  8
LAYER_2
 10
-19.4055
 20
133.2725
 11
-20.8797
 21
133.6673
  0
LINE
  8
LAYER_2
 10
-20.8797
 20
133.6673
 11
-20.8797
 21
132.8773
  0
LINE
  8
LAYER_2
 10
-17.931
 20
133.6673
 11
-19.4055
 21
133.2725
  0
LINE
  8
LAYER_2
 10
-19.4055
 20
133.2725
 11
-17.931
 21
132.8773
  0
LINE
  8
LAYER_2
 10
-17.931
 20
132.8773
 11
-17.931
 21
133.6673
  0
LINE
  8
LAYER_2
 10
-7.88
 20
132.8773
 11
-6.4055
 21
133.2725
  0
LINE
  8
LAYER_2
 10
-6.4055
 20
133.2725
 11
-7.88
 21
133.6673
  0
LINE
  8
LAYER_2
 10
-7.88
 20
133.6673
 11
-7.88
 21
132.8773
  0
LINE
  8
LAYER_2
 10
-4.931
 20
133.6673
 11
-6.4055
 21
133.2725
  0
LINE
  8
LAYER_2
 10
-6.4055
 20
133.2725
 11
-4.931
 21
132.8773
  0
LINE
  8
LAYER_2
 10
-4.931
 20
132.8773
 11
-4.931
 21
133.6673
  0
ENDBLK
  0
BLOCK
  8
LAYER_2
  2
AIGNBL02010014
 70
64
 10
0
 20
0
 30
0
  3
AIGNBL02010014
  0
LINE
  8
LAYER_2
 10
-10.9055
 20
79.5862
 11
-1.9055
 21
79.5862
  0
LINE
  8
LAYER_2
 10
-3.38
 20
79.1986
 11
-1.9055
 21
79.5934
  0
LINE
  8
LAYER_2
 10
-1.9055
 20
79.5934
 11
-3.38
 21
79.9886
  0
LINE
  8
LAYER_2
 10
-3.38
 20
79.9886
 11
-3.38
 21
79.1986
  0
LINE
  8
LAYER_2
 10
-9.4313
 20
79.9814
 11
-10.9055
 21
79.5862
  0
LINE
  8
LAYER_2
 10
-10.9055
 20
79.5862
 11
-9.4313
 21
79.191
  0
LINE
  8
LAYER_2
 10
-9.4313
 20
79.191
 11
-9.4313
 21
79.9814
  0
ENDBLK
  0
BLOCK
  8
LAYER_2
  2
AIGNBL02010015
 70
64
 10
0
 20
0
 30
0
  3
AIGNBL02010015
  0
LINE
  8
LAYER_2
 10
9.7205
 20
87.8031
 11
-3.6556
 21
87.8031
  0
LINE
  8
LAYER_2
 10
-2.1818
 20
88.1979
 11
-3.6556
 21
87.8031
  0
LINE
  8
LAYER_2
 10
-3.6556
 20
87.8031
 11
-2.1818
 21
87.4079
  0
LINE
  8
LAYER_2
 10
-2.1818
 20
87.4079
 11
-2.1818
 21
88.1979
  0
LINE
  8
LAYER_2
 10
-1.6306
 20
87.4152
 11
-0.1561
 21
87.8103
  0
LINE
  8
LAYER_2
 10
-0.1561
 20
87.8103
 11
-1.6306
 21
88.2055
  0
LINE
  8
LAYER_2
 10
-1.6306
 20
88.2055
 11
-1.6306
 21
87.4152
  0
ENDBLK
  0
BLOCK
  8
LAYER_2
  2
AIGNBL02010016
 70
64
 10
0
 20
0
 30
0
  3
AIGNBL02010016
  0
LINE
  8
LAYER_2
 10
-6.6721
 20
226.3397
 11
-19.6836
 21
223.5028
  0
LINE
  8
LAYER_2
 10
-19.1375
 20
221.0645
 11
-6.1395
 21
223.8969
  0
LINE
  8
LAYER_2
 10
-21.7613
 20
224.2849
 11
-17.0501
 21
224.2849
  0
LINE
  8
LAYER_2
 10
-22.3225
 20
224.0349
 11
-17.2461
 21
224.0349
  0
LINE
  8
LAYER_2
 10
-22.3225
 20
220.3683
 11
-16.4889
 21
220.3683
  0
LINE
  8
LAYER_2
 10
-16.8224
 20
217.7014
 11
-21.989
 21
217.7014
  0
LINE
  8
LAYER_2
 10
-22.1557
 20
217.8682
 11
-16.6557
 21
217.8682
  0
LINE
  8
LAYER_2
 10
-20.2389
 20
228.9014
 11
4.594
 21
228.9014
  0
LINE
  8
LAYER_2
 10
-20.2389
 20
228.4849
 11
4.594
 21
228.4849
  0
LINE
  8
LAYER_2
 10
5.4277
 20
227.8183
 11
-31.2391
 21
227.8183
  0
LINE
  8
LAYER_2
 10
-21.7613
 20
227.8183
 11
-21.7613
 21
224.2849
  0
LINE
  8
LAYER_2
 10
-22.0724
 20
227.8183
 11
-22.0724
 21
224.0349
  0
LINE
  8
LAYER_2
 10
-30.5721
 20
227.8183
 11
-30.5721
 21
223.3183
  0
LINE
  8
LAYER_2
 10
-30.4891
 20
227.8183
 11
-30.4891
 21
223.3183
  0
LINE
  8
LAYER_2
 10
-28.6556
 20
223.3183
 11
-28.6556
 21
227.8183
  0
LINE
  8
LAYER_2
 10
-28.5722
 20
223.3183
 11
-28.5722
 21
227.8183
  0
LINE
  8
LAYER_2
 10
-30.7389
 20
228.4849
 11
-30.7389
 21
227.8183
  0
LINE
  8
LAYER_2
 10
-28.4058
 20
227.8183
 11
-28.4058
 21
228.4849
  0
LINE
  8
LAYER_2
 10
-28.822
 20
220.7348
 11
-30.3223
 21
220.7348
  0
LINE
  8
LAYER_2
 10
-30.4057
 20
220.8182
 11
-28.739
 21
220.8182
  0
LINE
  8
LAYER_2
 10
-29.5723
 20
222.985
 11
-30.6555
 21
222.985
  0
LINE
  8
LAYER_2
 10
-30.5721
 20
223.3183
 11
-28.5722
 21
223.3183
  0
LINE
  8
LAYER_2
 10
-30.6142
 20
221.7349
 11
-28.5305
 21
221.7349
  0
LINE
  8
LAYER_2
 10
-30.6555
 20
221.7766
 11
-30.6555
 21
222.985
  0
LINE
  8
LAYER_2
 10
-30.4057
 20
221.7349
 11
-30.4057
 21
220.8182
  0
ARC
  8
LAYER_2
 10
-30.3223
 20
220.8182
 40
0.0834
 50
179.9886414
 51
270.0113586
  0
LINE
  8
LAYER_2
 10
-30.6555
 20
221.7766
 11
-30.6142
 21
221.7349
  0
LINE
  8
LAYER_2
 10
-30.4057
 20
223.235
 11
-30.4057
 21
223.0682
  0
ARC
  8
LAYER_2
 10
-30.4921
 20
223.0714
 40
0.0864
 50
271.9568831
 51
357.9055521
  0
ARC
  8
LAYER_2
 10
-30.4891
 20
223.2349
 40
0.0834
 50
0.05020983727
 51
90.01853133
  0
LINE
  8
LAYER_2
 10
-28.4889
 20
221.7766
 11
-28.4889
 21
222.985
  0
LINE
  8
LAYER_2
 10
-29.5723
 20
221.9442
 11
-29.5723
 21
222.985
  0
LINE
  8
LAYER_2
 10
-28.739
 20
220.8182
 11
-28.739
 21
221.7349
  0
ARC
  8
LAYER_2
 10
-28.8224
 20
220.8182
 40
0.0834
 50
269.9925525
 51
0.007447514477
  0
LINE
  8
LAYER_2
 10
-28.5305
 20
221.7349
 11
-28.4889
 21
221.7766
  0
LINE
  8
LAYER_2
 10
-28.739
 20
223.0682
 11
-28.739
 21
223.235
  0
ARC
  8
LAYER_2
 10
-28.6524
 20
223.0716
 40
0.0867
 50
182.2736711
 51
267.8638938
  0
ARC
  8
LAYER_2
 10
-28.6556
 20
223.2349
 40
0.0834
 50
89.97755604
 51
179.9537027
  0
LINE
  8
LAYER_2
 10
-28.4889
 20
222.985
 11
-29.5723
 21
222.985
  0
LINE
  8
LAYER_2
 10
-22.1557
 20
220.3683
 11
-22.1557
 21
217.8682
  0
LINE
  8
LAYER_2
 10
-22.1557
 20
217.8682
 11
-21.989
 21
217.7014
  0
ARC
  8
LAYER_2
 10
-19.4054
 20
222.2848
 40
1.2501
 50
102.3048229
 51
192.2963895
  0
ARC
  8
LAYER_2
 10
-19.4057
 20
222.2845
 40
1.2498
 50
192.2857345
 51
282.3100231
  0
LINE
  8
LAYER_2
 10
-22.3225
 20
224.0349
 11
-22.3225
 21
220.3683
  0
LINE
  8
LAYER_2
 10
-30.4057
 20
228.4849
 11
-22.2391
 21
228.4849
  0
LINE
  8
LAYER_2
 10
-30.4057
 20
228.9014
 11
-22.2391
 21
228.9014
  0
LINE
  8
LAYER_2
 10
-30.4057
 20
228.9014
 11
-30.4057
 21
228.4849
  0
LINE
  8
LAYER_2
 10
-31.2391
 20
228.4849
 11
-31.2391
 21
228.9014
  0
LINE
  8
LAYER_2
 10
-31.2391
 20
228.3873
 11
-31.2391
 21
228.4849
  0
LINE
  8
LAYER_2
 10
-31.2391
 20
228.3873
 11
-31.2391
 21
228.0133
  0
LINE
  8
LAYER_2
 10
-31.2391
 20
227.8183
 11
-31.2391
 21
228.0133
  0
LINE
  8
LAYER_2
 10
-30.4057
 20
228.4849
 11
-31.2391
 21
228.4849
  0
LINE
  8
LAYER_2
 10
-31.2391
 20
228.9014
 11
-30.4057
 21
228.9014
  0
LINE
  8
LAYER_2
 10
-20.2389
 20
228.4849
 11
-22.2391
 21
228.4849
  0
LINE
  8
LAYER_2
 10
-20.2389
 20
228.9014
 11
-22.2391
 21
228.9014
  0
LINE
  8
LAYER_2
 10
-22.2391
 20
228.9014
 11
-22.2391
 21
228.4849
  0
LINE
  8
LAYER_2
 10
-20.2389
 20
228.4849
 11
-20.2389
 21
228.9014
  0
LINE
  8
LAYER_2
 10
0.4275
 20
225.118
 11
-4.0724
 21
225.118
  0
ARC
  8
LAYER_2
 10
-6.4057
 20
225.1188
 40
2.3328
 50
89.9943065
 51
159.9135319
  0
ARC
  8
LAYER_2
 10
-6.4057
 20
225.1183
 40
2.3333
 50
359.992809
 51
89.99491342
  0
ARC
  8
LAYER_2
 10
-6.4047
 20
225.1135
 40
2.6653
 50
10.54012928
 51
61.90194187
  0
ARC
  8
LAYER_2
 10
-4.5015
 20
225.7829
 40
0.8048
 50
302.7926656
 51
335.2334781
  0
LINE
  8
LAYER_2
 10
-5.1549
 20
227.7849
 11
-3.4888
 21
227.7849
  0
LINE
  8
LAYER_2
 10
-2.9059
 20
218.2849
 11
-9.9057
 21
218.2849
  0
LINE
  8
LAYER_2
 10
-2.9059
 20
217.4517
 11
-9.9057
 21
217.4517
  0
ARC
  8
LAYER_2
 10
-1.9061
 20
225.1204
 40
2.3312
 50
89.98581029
 51
132.2092367
  0
ARC
  8
LAYER_2
 10
-1.9056
 20
225.1181
 40
2.3331
 50
286.8613312
 51
16.87419513
  0
ARC
  8
LAYER_2
 10
-1.905
 20
225.1195
 40
2.3321
 50
16.84505361
 51
90.01123387
  0
ARC
  8
LAYER_2
 10
-6.4058
 20
225.1182
 40
2.3333
 50
224.6900024
 51
314.6883748
  0
ARC
  8
LAYER_2
 10
-6.4055
 20
225.1183
 40
2.3331
 50
314.6831024
 51
359.9937953
  0
LINE
  8
LAYER_2
 10
-5.1453
 20
227.2096
 11
-5.1556
 21
227.8183
  0
ARC
  8
LAYER_2
 10
-6.4063
 20
225.1129
 40
2.6657
 50
118.0932561
 51
164.2083051
  0
LINE
  8
LAYER_2
 10
-9.3579
 20
225.754
 11
-9.3224
 21
227.7849
  0
LINE
  8
LAYER_2
 10
-7.6664
 20
227.2096
 11
-7.6553
 21
227.8183
  0
ARC
  8
LAYER_2
 10
-6.4052
 20
225.1185
 40
1.9998
 50
90.00742169
 51
153.6242205
  0
ARC
  8
LAYER_2
 10
-6.4058
 20
225.1184
 40
1.9999
 50
359.9887454
 51
89.99120061
  0
LINE
  8
LAYER_2
 10
-12.9332
 20
226.2217
 11
-12.9057
 21
227.8183
  0
ARC
  8
LAYER_2
 10
-10.9055
 20
225.1179
 40
2.3337
 50
89.99880813
 51
179.9987366
  0
LINE
  8
LAYER_2
 10
-13.2392
 20
225.118
 11
-13.2295
 21
224.9103
  0
ARC
  8
LAYER_2
 10
-10.9057
 20
225.118
 40
2.3336
 50
47.81319592
 51
89.99421306
  0
LINE
  8
LAYER_2
 10
-17.0501
 20
224.2849
 11
-17.0501
 21
227.8183
  0
LINE
  8
LAYER_2
 10
-16.739
 20
224.1455
 11
-16.739
 21
227.8183
  0
LINE
  8
LAYER_2
 10
-11.5724
 20
222.2848
 11
-10.4755
 21
222.2848
  0
LINE
  8
LAYER_2
 10
-16.6557
 20
217.8682
 11
-16.6557
 21
220.3683
  0
LINE
  8
LAYER_2
 10
-16.8224
 20
217.7014
 11
-16.6557
 21
217.8682
  0
LINE
  8
LAYER_2
 10
-16.4889
 20
220.3683
 11
-16.4889
 21
221.6412
  0
LINE
  8
LAYER_2
 10
-11.5724
 20
222.2848
 11
-11.58
 21
222.7113
  0
LINE
  8
LAYER_2
 10
-13.2392
 20
225.118
 11
-12.2756
 21
225.118
  0
LINE
  8
LAYER_2
 10
-12.812
 20
225.0014
 11
-13.0614
 21
225.1199
  0
LINE
  8
LAYER_2
 10
-9.9057
 20
218.2849
 11
-9.989
 21
223.0579
  0
LINE
  8
LAYER_2
 10
-9.2556
 20
215.4847
 11
-9.2556
 21
217.4517
  0
LINE
  8
LAYER_2
 10
-9.3806
 20
215.4847
 11
-9.3806
 21
217.4517
  0
LINE
  8
LAYER_2
 10
-9.9057
 20
217.4517
 11
-9.9057
 21
218.2849
  0
ARC
  8
LAYER_2
 10
-6.4058
 20
225.119
 40
2.0007
 50
230.9933653
 51
320.9667594
  0
ARC
  8
LAYER_2
 10
-6.4055
 20
225.1176
 40
1.9996
 50
320.991816
 51
0.01103754268
  0
ARC
  8
LAYER_2
 10
-10.4668
 20
221.7849
 40
0.4999
 50
0.9812163835
 51
89.96713779
  0
ARC
  8
LAYER_2
 10
-7.92
 20
227.2156
 40
0.2537
 50
306.8977081
 51
358.6529752
  0
LINE
  8
LAYER_2
 10
-6.4055
 20
226.3683
 11
-6.6721
 21
226.3395
  0
ARC
  8
LAYER_2
 10
-6.4053
 20
225.1179
 40
1.2496
 50
282.2802821
 51
12.32093037
  0
ARC
  8
LAYER_2
 10
-6.4052
 20
225.1191
 40
1.2492
 50
12.26627845
 51
90.01464204
  0
ARC
  8
LAYER_2
 10
-4.8952
 20
227.2143
 40
0.2501
 50
181.0686518
 51
233.7023228
  0
LINE
  8
LAYER_2
 10
-5.1556
 20
227.8183
 11
-7.6553
 21
227.8183
  0
LINE
  8
LAYER_2
 10
-7.656
 20
227.7849
 11
-9.3224
 21
227.7849
  0
LINE
  8
LAYER_2
 10
-9.2384
 20
227.7849
 11
-9.2387
 21
227.8183
  0
LINE
  8
LAYER_2
 10
-8.9059
 20
227.8183
 11
-8.9052
 21
227.7849
  0
LINE
  8
LAYER_2
 10
-3.9057
 20
227.8183
 11
-3.9064
 21
227.7849
  0
LINE
  8
LAYER_2
 10
0.1223
 20
226.2217
 11
0.0941
 21
227.8183
  0
LINE
  8
LAYER_2
 10
-3.4482
 20
225.4457
 11
-3.4888
 21
227.7849
  0
LINE
  8
LAYER_2
 10
-2.9059
 20
218.2849
 11
-2.7861
 21
225.118
  0
LINE
  8
LAYER_2
 10
-3.5557
 20
215.4847
 11
-3.5557
 21
217.4517
  0
LINE
  8
LAYER_2
 10
-3.431
 20
215.4847
 11
-3.431
 21
217.4517
  0
LINE
  8
LAYER_2
 10
-2.9059
 20
217.4517
 11
-2.9059
 21
218.2849
  0
ARC
  8
LAYER_2
 10
3.9837
 20
216.8114
 40
9.1072
 50
114.2046309
 51
124.7250692
  0
LINE
  8
LAYER_2
 10
-1.2392
 20
222.2848
 11
-1.1896
 21
225.118
  0
LINE
  8
LAYER_2
 10
-1.2392
 20
222.2848
 11
-2.3361
 21
222.2848
  0
ARC
  8
LAYER_2
 10
-2.3445
 20
221.7846
 40
0.5002
 50
89.9920072
 51
178.9794123
  0
ARC
  8
LAYER_2
 10
-3.102
 20
225.4645
 40
0.3468
 50
183.0948277
 51
267.8928568
  0
LINE
  8
LAYER_2
 10
-3.7707
 20
225.4457
 11
-3.4482
 21
225.4458
  0
LINE
  8
LAYER_2
 10
-3.7707
 20
225.4453
 11
-3.7844
 21
225.601
  0
LINE
  8
LAYER_2
 10
-3.5729
 20
227.7849
 11
-3.5722
 21
227.8183
  0
LINE
  8
LAYER_2
 10
4.594
 20
228.9014
 11
5.4277
 21
228.9014
  0
LINE
  8
LAYER_2
 10
5.4277
 20
228.0133
 11
5.4277
 21
227.8183
  0
LINE
  8
LAYER_2
 10
5.4277
 20
228.0133
 11
5.4277
 21
228.3873
  0
LINE
  8
LAYER_2
 10
5.4277
 20
228.4849
 11
5.4277
 21
228.3873
  0
LINE
  8
LAYER_2
 10
5.4277
 20
228.4849
 11
4.594
 21
228.4849
  0
LINE
  8
LAYER_2
 10
5.4277
 20
228.9014
 11
5.4277
 21
228.4849
  0
LINE
  8
LAYER_2
 10
4.594
 20
228.4849
 11
4.594
 21
228.9014
  0
ARC
  8
LAYER_2
 10
-30.1139
 20
222.7441
 40
0.966
 50
235.897629
 51
304.102371
  0
ARC
  8
LAYER_2
 10
-29.0306
 20
222.7446
 40
0.9665
 50
235.911123
 51
304.088877
  0
ENDBLK
  0
BLOCK
  8
LAYER_2
  2
AIGNBL02010017
 70
64
 10
0
 20
0
 30
0
  3
AIGNBL02010017
  0
LINE
  8
LAYER_2
  6
AIGENLINE001
 10
20.1727
 20
111.4905
 11
-45.6133
 21
111.4905
  0
LINE
  8
LAYER_2
  6
AIGENLINE001
 10
-19.4054
 20
119.4645
 11
-19.4054
 21
99.7741
  0
LINE
  8
LAYER_2
  6
AIGENLINE001
 10
-6.4053
 20
119.755
 11
-6.4053
 21
103.2206
  0
LINE
  8
LAYER_2
 10
-17.1964
 20
107.0047
 11
-13.1203
 21
107.0047
  0
LINE
  8
LAYER_2
 10
-31.2389
 20
107.0047
 11
-21.614
 21
107.0047
  0
LINE
  8
LAYER_2
 10
-15.9802
 20
107.8497
 11
-13.0521
 21
107.8497
  0
LINE
  8
LAYER_2
 10
-31.2389
 20
107.8497
 11
-22.8305
 21
107.8497
  0
ARC
  8
LAYER_2
 10
-15.6917
 20
118.9544
 40
4.9641
 50
90.57461369
 51
180.5464089
  0
LINE
  8
LAYER_2
 10
-33.2386
 20
119.4067
 11
-33.7387
 21
119.4067
  0
LINE
  8
LAYER_2
 10
-33.2386
 20
103.5737
 11
-33.7387
 21
103.5737
  0
LINE
  8
LAYER_2
 10
-33.7387
 20
119.4067
 11
-33.7387
 21
103.5737
  0
LINE
  8
LAYER_2
 10
-21.6149
 20
115.976
 11
-31.2389
 21
115.976
  0
LINE
  8
LAYER_2
 10
-22.8312
 20
115.1306
 11
-31.2389
 21
115.1306
  0
LINE
  8
LAYER_2
 10
-30.4054
 20
119.4067
 11
-20.6349
 21
119.4067
  0
LINE
  8
LAYER_2
 10
-30.4054
 20
103.5737
 11
-20.9885
 21
103.5737
  0
LINE
  8
LAYER_2
 10
-27.9055
 20
110.807
 11
-27.9055
 21
112.1737
  0
CIRCLE
  8
LAYER_2
 10
-27.9055
 20
111.4905
 40
0.6833
  0
LINE
  8
LAYER_2
 10
-31.2389
 20
115.1306
 11
-31.2389
 21
107.8497
  0
LINE
  8
LAYER_2
 10
-29.6948
 20
105.6225
 11
-30.0364
 21
105.2835
  0
CIRCLE
  8
LAYER_2
 10
-29.572
 20
105.1571
 40
0.8334
  0
LINE
  8
LAYER_2
 10
-30.0364
 20
105.2835
 11
-29.9134
 21
104.8181
  0
CIRCLE
  8
LAYER_2
 10
-29.572
 20
110.1569
 40
0.6833
  0
CIRCLE
  8
LAYER_2
 10
-29.572
 20
105.1571
 40
1.0417
  0
LINE
  8
LAYER_2
 10
-31.2389
 20
107.3785
 11
-31.2389
 21
107.8497
  0
ARC
  8
LAYER_2
 10
-32.2384
 20
103.5736
 40
1.0002
 50
89.99904059
 51
179.9952307
  0
ARC
  8
LAYER_2
 10
-32.2387
 20
103.574
 40
0.9998
 50
359.9818646
 51
89.98375101
  0
LINE
  8
LAYER_2
 10
-31.2389
 20
106.769
 11
-31.2389
 21
107.0047
  0
LINE
  8
LAYER_2
 10
-31.2389
 20
107.0047
 11
-31.2389
 21
107.3785
  0
LINE
  8
LAYER_2
 10
-31.2389
 20
104.4071
 11
-31.2389
 21
106.769
  0
ARC
  8
LAYER_2
 10
-30.4055
 20
104.4071
 40
0.8334
 50
180.002244
 51
270.0046306
  0
LINE
  8
LAYER_2
 10
-30.4054
 20
103.5737
 11
-31.2389
 21
103.5737
  0
CIRCLE
  8
LAYER_2
 10
-27.9055
 20
104.4904
 40
0.4582
  0
LINE
  8
LAYER_2
 10
-29.2306
 20
105.496
 11
-29.6948
 21
105.6225
  0
LINE
  8
LAYER_2
 10
-29.1076
 20
105.0313
 11
-29.2306
 21
105.496
  0
LINE
  8
LAYER_2
 10
-29.9134
 20
104.8181
 11
-29.449
 21
104.6923
  0
LINE
  8
LAYER_2
 10
-29.449
 20
104.6923
 11
-29.1076
 21
105.0313
  0
CIRCLE
  8
LAYER_2
 10
-27.0719
 20
105.8237
 40
0.6835
  0
ARC
  8
LAYER_2
 10
-28.7348
 20
104.406
 40
0.8293
 50
333.8468041
 51
0.07494590296
  0
LINE
  8
LAYER_2
 10
-27.9055
 20
104.4071
 11
-27.9055
 21
104.9486
  0
CIRCLE
  8
LAYER_2
 10
-29.572
 20
117.8233
 40
0.8335
  0
LINE
  8
LAYER_2
 10
-29.6948
 20
118.2891
 11
-30.0364
 21
117.9497
  0
LINE
  8
LAYER_2
 10
-30.0364
 20
117.9497
 11
-29.9134
 21
117.4843
  0
CIRCLE
  8
LAYER_2
 10
-29.572
 20
117.8233
 40
1.0417
  0
CIRCLE
  8
LAYER_2
 10
-29.572
 20
112.8241
 40
0.683
  0
LINE
  8
LAYER_2
 10
-31.2389
 20
118.5737
 11
-31.2389
 21
116.2117
  0
LINE
  8
LAYER_2
 10
-31.2389
 20
115.976
 11
-31.2389
 21
116.2117
  0
LINE
  8
LAYER_2
 10
-31.2389
 20
115.976
 11
-31.2389
 21
115.6019
  0
LINE
  8
LAYER_2
 10
-31.2389
 20
115.1306
 11
-31.2389
 21
115.6019
  0
ARC
  8
LAYER_2
 10
-32.2387
 20
119.4071
 40
0.9999
 50
180.0205361
 51
270.019577
  0
ARC
  8
LAYER_2
 10
-32.2384
 20
119.4067
 40
0.9995
 50
269.9976285
 51
0.00237155697
  0
ARC
  8
LAYER_2
 10
-30.4055
 20
118.5736
 40
0.8331
 50
89.995174
 51
179.9910711
  0
LINE
  8
LAYER_2
 10
-30.4054
 20
119.4067
 11
-31.2389
 21
119.4067
  0
CIRCLE
  8
LAYER_2
 10
-27.9055
 20
118.4903
 40
0.4584
  0
LINE
  8
LAYER_2
 10
-29.9134
 20
117.4843
 11
-29.449
 21
117.3585
  0
LINE
  8
LAYER_2
 10
-29.449
 20
117.3585
 11
-29.1076
 21
117.6976
  0
LINE
  8
LAYER_2
 10
-29.1076
 20
117.6976
 11
-29.2306
 21
118.1623
  0
LINE
  8
LAYER_2
 10
-29.2306
 20
118.1623
 11
-29.6948
 21
118.2891
  0
CIRCLE
  8
LAYER_2
 10
-27.0719
 20
117.157
 40
0.6835
  0
ARC
  8
LAYER_2
 10
-28.7429
 20
118.5735
 40
0.8374
 50
0.01413649736
 51
26.02295466
  0
LINE
  8
LAYER_2
 10
-27.9055
 20
118.0321
 11
-27.9055
 21
118.5737
  0
LINE
  8
LAYER_2
 10
-20.6556
 20
118.9071
 11
-20.6556
 21
116.3329
  0
LINE
  8
LAYER_2
 10
0.4281
 20
99.741
 11
0.4281
 21
105.6218
  0
ARC
  8
LAYER_2
 10
-1.8742
 20
102.906
 40
0.4968
 50
92.1097564
 51
177.9740531
  0
LINE
  8
LAYER_2
 10
-2.3707
 20
102.9236
 11
-2.3666
 21
102.8609
  0
LINE
  8
LAYER_2
 10
-1.8581
 20
103.397
 11
-1.8791
 21
103.3959
  0
ARC
  8
LAYER_2
 10
-1.858
 20
103.0003
 40
0.3967
 50
12.81237897
 51
90.01624706
  0
ARC
  8
LAYER_2
 10
-1.8843
 20
103.0096
 40
0.2677
 50
9.969740017
 51
88.30565057
  0
LINE
  8
LAYER_2
 10
-4.2388
 20
105.6218
 11
-4.2388
 21
99.741
  0
LINE
  8
LAYER_2
 10
-11.1632
 20
103.3822
 11
-11.1632
 21
102.9481
  0
LINE
  8
LAYER_2
 10
-10.6476
 20
102.9481
 11
-10.6476
 21
103.3822
  0
LINE
  8
LAYER_2
 10
-10.4984
 20
103.3822
 11
-10.4984
 21
102.3238
  0
LINE
  8
LAYER_2
 10
-11.3125
 20
102.3238
 11
-11.3125
 21
103.3822
  0
LINE
  8
LAYER_2
 10
-13.2388
 20
105.6218
 11
-13.2388
 21
99.741
  0
LINE
  8
LAYER_2
 10
-8.5721
 20
99.741
 11
-8.5721
 21
105.6218
  0
LINE
  8
LAYER_2
 10
-3.9054
 20
99.4076
 11
0.0946
 21
99.4076
  0
LINE
  8
LAYER_2
 10
-8.9054
 20
99.4076
 11
-12.9053
 21
99.4076
  0
LINE
  8
LAYER_2
 10
-11.1632
 20
102.3238
 11
-11.3125
 21
102.3238
  0
ARC
  8
LAYER_2
 10
-12.9053
 20
99.7411
 40
0.3335
 50
180.0101644
 51
270.0070183
  0
LINE
  8
LAYER_2
 10
-11.1632
 20
102.9481
 11
-10.6476
 21
102.9481
  0
LINE
  8
LAYER_2
 10
-10.6476
 20
102.8258
 11
-11.1632
 21
102.8258
  0
LINE
  8
LAYER_2
 10
-11.1632
 20
102.8258
 11
-11.1632
 21
102.3238
  0
LINE
  8
LAYER_2
 10
-10.4984
 20
102.3238
 11
-10.6476
 21
102.3238
  0
LINE
  8
LAYER_2
 10
-10.6476
 20
102.3238
 11
-10.6476
 21
102.8258
  0
ARC
  8
LAYER_2
 10
-8.9055
 20
99.741
 40
0.3334
 50
270.0130085
 51
0.00417934287
  0
ARC
  8
LAYER_2
 10
-3.9054
 20
99.741
 40
0.3334
 50
180.0068001
 51
269.9932
  0
ARC
  8
LAYER_2
 10
-1.8968
 20
102.7347
 40
0.3059
 50
271.2480567
 51
352.9796159
  0
ARC
  8
LAYER_2
 10
-1.8576
 20
102.7261
 40
0.4182
 50
267.4836363
 51
351.2525575
  0
ARC
  8
LAYER_2
 10
0.0946
 20
99.7411
 40
0.3335
 50
269.9961555
 51
359.9866618
  0
LINE
  8
LAYER_2
 10
8.3444
 20
103.5737
 11
7.3446
 21
103.5737
  0
LINE
  8
LAYER_2
 10
8.3444
 20
119.4067
 11
7.3446
 21
119.4067
  0
LINE
  8
LAYER_2
 10
4.5942
 20
119.4067
 11
-5.1757
 21
119.4067
  0
LINE
  8
LAYER_2
 10
5.4277
 20
115.976
 11
-4.0721
 21
115.976
  0
LINE
  8
LAYER_2
 10
-2.6419
 20
107.9941
 11
-2.8324
 21
107.9937
  0
LINE
  8
LAYER_2
 10
-1.9022
 20
107.9875
 11
-2.6419
 21
107.9941
  0
ARC
  8
LAYER_2
 10
-10.1187
 20
118.9548
 40
2.4639
 50
358.8902248
 51
88.85559983
  0
ARC
  8
LAYER_2
 10
-10.1177
 20
118.956
 40
4.9625
 50
359.4353111
 51
89.44366631
  0
ARC
  8
LAYER_2
 10
-15.6909
 20
118.9537
 40
2.4651
 50
91.17653601
 51
181.0823824
  0
LINE
  8
LAYER_2
 10
-18.1136
 20
119.4067
 11
-7.6967
 21
119.4067
  0
LINE
  8
LAYER_2
 10
-8.7388
 20
115.976
 11
-17.196
 21
115.976
  0
LINE
  8
LAYER_2
 10
-9.8311
 20
115.1306
 11
-15.9796
 21
115.1306
  0
ARC
  8
LAYER_2
 10
-10.8957
 20
108.6625
 40
0.6764
 50
180.4714648
 51
266.2815141
  0
LINE
  8
LAYER_2
 10
-10.9396
 20
107.9875
 11
-10.9084
 21
107.9875
  0
ARC
  8
LAYER_2
 10
-10.8871
 20
112.478
 40
0.6852
 50
111.2511395
 51
178.9493097
  0
LINE
  8
LAYER_2
 10
-11.3125
 20
103.3822
 11
-11.1632
 21
103.3822
  0
LINE
  8
LAYER_2
 10
-11.5721
 20
108.6569
 11
-11.5721
 21
112.4906
  0
ARC
  8
LAYER_2
 10
-14.8238
 20
111.4912
 40
0.5184
 50
322.1264663
 51
359.9246514
  0
ARC
  8
LAYER_2
 10
-14.8235
 20
111.4895
 40
0.5181
 50
0.1079312607
 51
37.75895498
  0
LINE
  8
LAYER_2
 10
-17.8222
 20
103.5737
 11
-13.2388
 21
103.5737
  0
LINE
  8
LAYER_2
 10
-13.2369
 20
105.6218
 11
-13.061
 21
107.774
  0
ARC
  8
LAYER_2
 10
-12.9053
 20
109.5736
 40
0.5168
 50
89.9959184
 51
179.9929938
  0
ARC
  8
LAYER_2
 10
-12.9055
 20
109.5739
 40
0.5166
 50
180.018871
 51
270.0254928
  0
LINE
  8
LAYER_2
 10
-12.9053
 20
109.0573
 11
-12.7868
 21
109.071
  0
ARC
  8
LAYER_2
 10
-12.9051
 20
109.5743
 40
0.5161
 50
34.61839261
 51
90.01913753
  0
ARC
  8
LAYER_2
 10
-6.2315
 20
107.0078
 40
6.8723
 50
143.4342599
 51
173.5983741
  0
ARC
  8
LAYER_2
 10
-12.374
 20
111.6479
 40
0.8283
 50
318.7577346
 51
345.503699
  0
LINE
  8
LAYER_2
 10
-18.1555
 20
116.3329
 11
-18.1555
 21
118.9071
  0
CIRCLE
  8
LAYER_2
 10
-12.9053
 20
113.407
 40
0.5168
  0
LINE
  8
LAYER_2
 10
-4.1949
 20
107.0047
 11
-4.1346
 21
107.0047
  0
LINE
  8
LAYER_2
 10
-8.6763
 20
107.0047
 11
-8.6157
 21
107.0047
  0
LINE
  8
LAYER_2
 10
-8.5721
 20
103.5737
 11
-7.4054
 21
103.5737
  0
LINE
  8
LAYER_2
 10
-10.6476
 20
103.3822
 11
-10.4984
 21
103.3822
  0
ARC
  8
LAYER_2
 10
-27.3543
 20
104.9002
 40
18.796
 50
2.200273228
 51
6.527784133
  0
LINE
  8
LAYER_2
 10
-10.1689
 20
107.9941
 11
-10.9079
 21
107.9875
  0
LINE
  8
LAYER_2
 10
-9.9782
 20
107.9937
 11
-10.1689
 21
107.9941
  0
ARC
  8
LAYER_2
 10
-6.4053
 20
103.5737
 40
1.0001
 50
90.00104568
 51
179.9989543
  0
ARC
  8
LAYER_2
 10
-6.4054
 20
103.5738
 40
1
 50
359.9941864
 51
89.99435447
  0
LINE
  8
LAYER_2
 10
-5.4054
 20
103.5737
 11
-4.2388
 21
103.5737
  0
ARC
  8
LAYER_2
 10
14.5962
 20
104.8975
 40
18.8489
 50
173.4823266
 51
177.7976664
  0
LINE
  8
LAYER_2
 10
-5.8219
 20
118.4903
 11
-4.4054
 21
118.4903
  0
LINE
  8
LAYER_2
 10
-8.4054
 20
118.4903
 11
-6.9887
 21
118.4903
  0
LINE
  8
LAYER_2
 10
-8.7388
 20
118.1568
 11
-8.7388
 21
115.9133
  0
ARC
  8
LAYER_2
 10
-8.4053
 20
118.1569
 40
0.3334
 50
90.02326455
 51
180.0111061
  0
LINE
  8
LAYER_2
 10
-7.6553
 20
118.9071
 11
-7.6553
 21
118.4903
  0
LINE
  8
LAYER_2
 10
-4.0721
 20
115.9133
 11
-4.0721
 21
118.1568
  0
LINE
  8
LAYER_2
 10
-5.1552
 20
118.4903
 11
-5.1552
 21
118.9071
  0
ARC
  8
LAYER_2
 10
-4.4055
 20
118.1569
 40
0.3334
 50
359.9865082
 51
89.97912121
  0
LINE
  8
LAYER_2
 10
-10.0693
 20
123.907
 11
-15.7415
 21
123.907
  0
LINE
  8
LAYER_2
 10
-15.7415
 20
121.4072
 11
-10.0693
 21
121.4072
  0
LINE
  8
LAYER_2
 10
0.3092
 20
107.0047
 11
5.4277
 21
107.0047
  0
LINE
  8
LAYER_2
 10
0.241
 20
107.8497
 11
5.4277
 21
107.8497
  0
LINE
  8
LAYER_2
 10
0.4281
 20
103.5737
 11
4.5942
 21
103.5737
  0
LINE
  8
LAYER_2
 10
5.4277
 20
115.1306
 11
-2.9783
 21
115.1306
  0
LINE
  8
LAYER_2
 10
4.1022
 20
118.1623
 11
3.6386
 21
118.2891
  0
LINE
  8
LAYER_2
 10
3.4198
 20
117.4843
 11
3.8842
 21
117.3585
  0
CIRCLE
  8
LAYER_2
 10
3.7612
 20
117.8233
 40
1.0416
  0
CIRCLE
  8
LAYER_2
 10
3.7612
 20
117.8233
 40
0.8335
  0
CIRCLE
  8
LAYER_2
 10
3.7612
 20
112.8241
 40
0.683
  0
CIRCLE
  8
LAYER_2
 10
3.7612
 20
110.1569
 40
0.6833
  0
LINE
  8
LAYER_2
 10
4.1022
 20
105.496
 11
3.6386
 21
105.6225
  0
LINE
  8
LAYER_2
 10
3.4198
 20
104.8181
 11
3.8842
 21
104.6923
  0
CIRCLE
  8
LAYER_2
 10
3.7612
 20
105.1571
 40
1.0416
  0
CIRCLE
  8
LAYER_2
 10
3.7612
 20
105.1571
 40
0.8334
  0
LINE
  8
LAYER_2
 10
-1.239
 20
108.6569
 11
-1.239
 21
112.4906
  0
LINE
  8
LAYER_2
 10
2.0944
 20
110.807
 11
2.0944
 21
112.1737
  0
CIRCLE
  8
LAYER_2
 10
2.0944
 20
111.4905
 40
0.6833
  0
ARC
  8
LAYER_2
 10
-6.5806
 20
107.0071
 40
6.8739
 50
6.40568585
 51
36.81768444
  0
LINE
  8
LAYER_2
 10
-1.239
 20
111.4216
 11
-1.0778
 21
111.1264
  0
ARC
  8
LAYER_2
 10
-1.8903
 20
108.6394
 40
0.652
 50
268.9182791
 51
358.8123553
  0
LINE
  8
LAYER_2
 10
-1.2384
 20
108.6259
 11
-1.239
 21
108.6569
  0
LINE
  8
LAYER_2
 10
0.2503
 20
107.774
 11
0.4256
 21
105.6218
  0
ARC
  8
LAYER_2
 10
1.2614
 20
105.8237
 40
0.6835
 50
90.00115989
 51
179.9988401
  0
ARC
  8
LAYER_2
 10
1.2613
 20
105.8239
 40
0.6834
 50
180.0137227
 51
270.011431
  0
ARC
  8
LAYER_2
 10
1.2612
 20
105.8235
 40
0.683
 50
270.0156173
 51
0.0179380693
  0
ARC
  8
LAYER_2
 10
1.2352
 20
105.7982
 40
0.7095
 50
2.058673493
 51
87.88261751
  0
CIRCLE
  8
LAYER_2
 10
2.0944
 20
104.4904
 40
0.4582
  0
LINE
  8
LAYER_2
 10
3.6386
 20
105.6225
 11
3.2968
 21
105.2835
  0
LINE
  8
LAYER_2
 10
3.2968
 20
105.2835
 11
3.4198
 21
104.8181
  0
ARC
  8
LAYER_2
 10
2.8416
 20
104.3234
 40
0.7472
 50
179.9759826
 51
202.6438823
  0
LINE
  8
LAYER_2
 10
2.0944
 20
104.3237
 11
2.0944
 21
104.9486
  0
ARC
  8
LAYER_2
 10
-1.9232
 20
112.4789
 40
0.6843
 50
0.9806884599
 51
68.82144121
  0
ARC
  8
LAYER_2
 10
1.2614
 20
117.157
 40
0.6835
 50
90.00102052
 51
179.9989794
  0
ARC
  8
LAYER_2
 10
1.2613
 20
117.1572
 40
0.6834
 50
180.0138621
 51
270.0112916
  0
ARC
  8
LAYER_2
 10
1.2612
 20
117.1568
 40
0.683
 50
270.0157568
 51
0.01779856081
  0
ARC
  8
LAYER_2
 10
1.2352
 20
117.1315
 40
0.7095
 50
2.058673493
 51
87.88261751
  0
CIRCLE
  8
LAYER_2
 10
2.0944
 20
118.4903
 40
0.4584
  0
LINE
  8
LAYER_2
 10
3.6386
 20
118.2891
 11
3.2968
 21
117.9497
  0
LINE
  8
LAYER_2
 10
3.2968
 20
117.9497
 11
3.4198
 21
117.4843
  0
LINE
  8
LAYER_2
 10
2.0944
 20
118.0321
 11
2.0944
 21
118.657
  0
ARC
  8
LAYER_2
 10
2.8437
 20
118.6569
 40
0.7493
 50
157.3871599
 51
179.9929751
  0
LINE
  8
LAYER_2
 10
6.6776
 20
109.0738
 11
6.6776
 21
113.9072
  0
LINE
  8
LAYER_2
 10
6.761
 20
113.9903
 11
6.761
 21
108.9904
  0
LINE
  8
LAYER_2
 10
5.4277
 20
107.8497
 11
5.4277
 21
115.1306
  0
LINE
  8
LAYER_2
 10
8.3444
 20
103.5737
 11
8.3444
 21
119.4067
  0
LINE
  8
LAYER_2
 10
7.9275
 20
103.5737
 11
7.9275
 21
119.4067
  0
LINE
  8
LAYER_2
 10
6.761
 20
108.9904
 11
7.9275
 21
108.9904
  0
LINE
  8
LAYER_2
 10
7.0111
 20
105.4075
 11
7.9275
 21
105.4075
  0
LINE
  8
LAYER_2
 10
7.9275
 20
107.0739
 11
7.0111
 21
107.0739
  0
LINE
  8
LAYER_2
 10
5.4277
 20
107.8497
 11
5.4277
 21
107.3785
  0
ARC
  8
LAYER_2
 10
4.5943
 20
104.4071
 40
0.8334
 50
269.995293
 51
359.9978324
  0
ARC
  8
LAYER_2
 10
6.3443
 20
103.5739
 40
0.9999
 50
90.0131984
 51
180.0097222
  0
ARC
  8
LAYER_2
 10
6.3443
 20
103.5735
 40
1.0003
 50
0.01067913641
 51
90.01223229
  0
LINE
  8
LAYER_2
 10
5.4277
 20
107.3785
 11
5.4277
 21
107.0047
  0
LINE
  8
LAYER_2
 10
5.4277
 20
107.0047
 11
5.4277
 21
106.769
  0
LINE
  8
LAYER_2
 10
5.3444
 20
103.5737
 11
4.5942
 21
103.5737
  0
LINE
  8
LAYER_2
 10
5.4277
 20
106.769
 11
5.4277
 21
104.4071
  0
LINE
  8
LAYER_2
 10
4.2256
 20
105.0313
 11
4.1022
 21
105.496
  0
LINE
  8
LAYER_2
 10
3.8842
 20
104.6923
 11
4.2256
 21
105.0313
  0
LINE
  8
LAYER_2
 10
6.9277
 20
105.4905
 11
6.9277
 21
106.9909
  0
LINE
  8
LAYER_2
 10
7.0111
 20
107.0739
 11
7.0111
 21
105.4075
  0
ARC
  8
LAYER_2
 10
7.0141
 20
105.4939
 40
0.0865
 50
182.2759905
 51
267.9994695
  0
ARC
  8
LAYER_2
 10
7.0142
 20
106.9874
 40
0.0866
 50
92.05285101
 51
177.671689
  0
LINE
  8
LAYER_2
 10
6.6776
 20
109.0738
 11
6.761
 21
108.9904
  0
LINE
  8
LAYER_2
 10
7.9275
 20
117.5739
 11
7.0111
 21
117.5739
  0
LINE
  8
LAYER_2
 10
7.0111
 20
115.9071
 11
7.9275
 21
115.9071
  0
LINE
  8
LAYER_2
 10
7.9275
 20
113.9903
 11
6.761
 21
113.9903
  0
LINE
  8
LAYER_2
 10
6.9277
 20
115.9905
 11
6.9277
 21
117.4905
  0
LINE
  8
LAYER_2
 10
7.0111
 20
117.5739
 11
7.0111
 21
115.9071
  0
LINE
  8
LAYER_2
 10
5.4277
 20
116.2117
 11
5.4277
 21
118.5737
  0
LINE
  8
LAYER_2
 10
5.4277
 20
115.6019
 11
5.4277
 21
115.1306
  0
LINE
  8
LAYER_2
 10
5.4277
 20
115.6019
 11
5.4277
 21
115.976
  0
LINE
  8
LAYER_2
 10
5.4277
 20
116.2117
 11
5.4277
 21
115.976
  0
ARC
  8
LAYER_2
 10
7.0111
 20
115.9905
 40
0.0834
 50
180.0057245
 51
269.9942755
  0
LINE
  8
LAYER_2
 10
6.761
 20
113.9903
 11
6.6776
 21
113.9072
  0
ARC
  8
LAYER_2
 10
4.5944
 20
118.5734
 40
0.8333
 50
0.01916487849
 51
90.01521601
  0
ARC
  8
LAYER_2
 10
6.344
 20
119.4068
 40
0.9996
 50
180.0060438
 51
270.00542
  0
ARC
  8
LAYER_2
 10
6.3069
 20
119.445
 40
1.0384
 50
272.0539152
 51
357.888789
  0
LINE
  8
LAYER_2
 10
5.3444
 20
119.4067
 11
4.5942
 21
119.4067
  0
LINE
  8
LAYER_2
 10
3.8842
 20
117.3585
 11
4.2256
 21
117.6976
  0
LINE
  8
LAYER_2
 10
4.2256
 20
117.6976
 11
4.1022
 21
118.1623
  0
ARC
  8
LAYER_2
 10
7.0111
 20
117.4905
 40
0.0834
 50
90.00741171
 51
179.9925883
  0
LINE
  8
LAYER_2
 10
-29.572
 20
119.0746
 11
-28.4885
 21
118.4489
  0
LINE
  8
LAYER_2
 10
-28.4885
 20
118.4489
 11
-28.4885
 21
117.1983
  0
LINE
  8
LAYER_2
 10
-28.4885
 20
117.1983
 11
-29.572
 21
116.5727
  0
LINE
  8
LAYER_2
 10
-29.572
 20
116.5727
 11
-30.655
 21
117.1983
  0
LINE
  8
LAYER_2
 10
-30.655
 20
117.1983
 11
-30.655
 21
118.4489
  0
LINE
  8
LAYER_2
 10
-30.655
 20
118.4489
 11
-29.572
 21
119.0746
  0
LINE
  8
LAYER_2
 10
-30.655
 20
105.7827
 11
-29.572
 21
106.408
  0
LINE
  8
LAYER_2
 10
-29.572
 20
106.408
 11
-28.4885
 21
105.7827
  0
LINE
  8
LAYER_2
 10
-28.4885
 20
105.7827
 11
-28.4885
 21
104.5318
  0
LINE
  8
LAYER_2
 10
-28.4885
 20
104.5318
 11
-29.572
 21
103.9061
  0
LINE
  8
LAYER_2
 10
-29.572
 20
103.9061
 11
-30.655
 21
104.5318
  0
LINE
  8
LAYER_2
 10
-30.655
 20
104.5318
 11
-30.655
 21
105.7827
  0
LINE
  8
LAYER_2
 10
2.678
 20
118.4489
 11
3.7612
 21
119.0746
  0
LINE
  8
LAYER_2
 10
3.7612
 20
119.0746
 11
4.8448
 21
118.4489
  0
LINE
  8
LAYER_2
 10
4.8448
 20
118.4489
 11
4.8448
 21
117.1983
  0
LINE
  8
LAYER_2
 10
4.8448
 20
117.1983
 11
3.7612
 21
116.5727
  0
LINE
  8
LAYER_2
 10
3.7612
 20
116.5727
 11
2.678
 21
117.1983
  0
LINE
  8
LAYER_2
 10
2.678
 20
117.1983
 11
2.678
 21
118.4489
  0
LINE
  8
LAYER_2
 10
2.678
 20
104.5318
 11
2.678
 21
105.7827
  0
LINE
  8
LAYER_2
 10
2.678
 20
105.7827
 11
3.7612
 21
106.408
  0
LINE
  8
LAYER_2
 10
3.7612
 20
106.408
 11
4.8448
 21
105.7827
  0
LINE
  8
LAYER_2
 10
4.8448
 20
105.7827
 11
4.8448
 21
104.5318
  0
LINE
  8
LAYER_2
 10
4.8448
 20
104.5318
 11
3.7612
 21
103.9061
  0
LINE
  8
LAYER_2
 10
3.7612
 20
103.9061
 11
2.678
 21
104.5318
  0
LINE
  8
LAYER_2
 10
-1.6207
 20
103.0559
 11
-1.4712
 21
103.0883
  0
LINE
  8
LAYER_2
 10
-1.5932
 20
102.6973
 11
-1.4443
 21
102.6625
  0
ARC
  8
LAYER_2
 10
-1.8765
 20
102.804
 40
0.4934
 50
173.3731512
 51
263.4363526
  0
LINE
  8
LAYER_2
 10
-1.9329
 20
102.3138
 11
-1.876
 21
102.31
  0
ARC
  8
LAYER_2
 10
-1.8767
 20
102.9459
 40
0.3307
 50
91.72695212
 51
171.1753873
  0
ARC
  8
LAYER_2
 10
-1.8695
 20
102.7671
 40
0.3389
 50
202.7134327
 51
266.5161934
  0
ARC
  8
LAYER_2
 10
-1.6741
 20
102.8473
 40
0.5501
 50
164.2466225
 51
202.5515507
  0
LINE
  8
LAYER_2
  6
AIGENLINE001
 10
-10.9053
 20
102.9739
 11
-10.9053
 21
97.9737
  0
LINE
  8
LAYER_2
  6
AIGENLINE001
 10
-1.9053
 20
102.9739
 11
-1.9053
 21
97.9737
  0
ENDBLK
  0
BLOCK
  8
LAYER_2
  2
AIGNBL02010018
 70
64
 10
0
 20
0
 30
0
  3
AIGNBL02010018
  0
INSERT
  8
LAYER_2
  2
AIGNBL02020019
 10
0
 20
0
 30
0
  0
LINE
  8
LAYER_2
  6
AIGENLINE001
 10
50.3141
 20
111.4905
 11
85.5832
 21
111.4905
  0
LINE
  8
LAYER_2
 10
41.2307
 20
100.3239
 11
44.3975
 21
100.3239
  0
LINE
  8
LAYER_2
 10
41.2307
 20
103.3239
 11
44.3975
 21
103.3239
  0
LINE
  8
LAYER_2
 10
50.3141
 20
113.0739
 11
73.3972
 21
113.0739
  0
LINE
  8
LAYER_2
 10
50.3141
 20
109.9072
 11
73.3972
 21
109.9072
  0
LINE
  8
LAYER_2
  6
AIGENLINE001
 10
42.8141
 20
98.9803
 11
42.8141
 21
103.9906
  0
LINE
  8
LAYER_2
 10
41.2307
 20
100.3239
 11
41.2307
 21
103.9906
  0
LINE
  8
LAYER_2
 10
44.3975
 20
100.3239
 11
44.3975
 21
103.9906
  0
LINE
  8
LAYER_2
 10
80.0635
 20
114.4905
 11
80.0635
 21
108.4905
  0
LINE
  8
LAYER_2
 10
79.6473
 20
114.4905
 11
80.0635
 21
114.4905
  0
LINE
  8
LAYER_2
 10
79.6473
 20
108.4905
 11
80.0635
 21
108.4905
  0
ARC
  8
LAYER_2
  6
AIGENLINE001
 10
50.3141
 20
103.9905
 40
7.5
 50
89.99970172
 51
179.9995343
  0
ARC
  8
LAYER_2
 10
50.3141
 20
103.9906
 40
5.9166
 50
90.0001061
 51
179.9998939
  0
ARC
  8
LAYER_2
 10
50.3141
 20
103.9905
 40
9.0834
 50
89.99975372
 51
179.9996155
  0
ENDBLK
  0
BLOCK
  8
LAYER_2
  2
AIGNBL0201001C
 70
64
 10
0
 20
0
 30
0
  3
AIGNBL0201001C
  0
LINE
  8
LAYER_2
 10
-20.9885
 20
100.3239
 11
-17.8222
 21
100.3239
  0
LINE
  8
LAYER_2
 10
-20.9885
 20
103.3239
 11
-17.8222
 21
103.3239
  0
LINE
  8
LAYER_2
 10
-17.8222
 20
100.3239
 11
-17.8222
 21
111.4905
  0
LINE
  8
LAYER_2
 10
-20.9885
 20
100.3239
 11
-20.9885
 21
111.4905
  0
ARC
  8
LAYER_2
 10
-19.3431
 20
111.5243
 40
3.0625
 50
180.6325143
 51
237.4854736
  0
ARC
  8
LAYER_2
 10
-19.4055
 20
111.4905
 40
3
 50
89.99962102
 51
180.000379
  0
ARC
  8
LAYER_2
 10
-19.4055
 20
111.4905
 40
3
 50
0.0001834115046
 51
89.99981658
  0
ARC
  8
LAYER_2
 10
-19.4592
 20
111.5196
 40
3.0538
 50
302.4237514
 51
359.4548254
  0
ARC
  8
LAYER_2
 10
-19.4053
 20
111.4907
 40
1.5832
 50
90.00651991
 51
180.007956
  0
ARC
  8
LAYER_2
 10
-19.4056
 20
111.4905
 40
1.5834
 50
359.9985382
 51
89.99784318
  0
ENDBLK
  0
BLOCK
  8
LAYER_2
  2
AIGNBL0201001D
 70
64
 10
0
 20
0
 30
0
  3
AIGNBL0201001D
  0
INSERT
  8
LAYER_2
  2
AIGNBL0202001E
 10
0
 20
0
 30
0
  0
INSERT
  8
LAYER_2
  2
AIGNBL02020034
 10
0
 20
0
 30
0
  0
ENDBLK
  0
BLOCK
  8
LAYER_3
  2
AIGNBL03010002
 70
64
 10
0
 20
0
 30
0
  3
AIGNBL03010002
  0
ARC
  8
LAYER_3
 10
181.2361
 20
51.0518
 40
2.085
 50
359.9990616
 51
90.00093841
  0
ARC
  8
LAYER_3
 10
181.2364
 20
51.0522
 40
2.0846
 50
90.00927268
 51
180.0099666
  0
ARC
  8
LAYER_3
 10
181.2361
 20
51.0519
 40
2.0843
 50
180.0023133
 51
270.0004358
  0
ARC
  8
LAYER_3
 10
181.2365
 20
51.0522
 40
2.0846
 50
269.9893525
 51
359.9886593
  0
ARC
  8
LAYER_3
 10
181.2365
 20
51.0515
 40
1.2199
 50
0.01483428533
 51
90.01804168
  0
ARC
  8
LAYER_3
 10
181.2361
 20
51.0519
 40
1.2195
 50
90.00175626
 51
180.0029419
  0
ARC
  8
LAYER_3
 10
181.2361
 20
51.0518
 40
1.2195
 50
180.0016044
 51
269.9983956
  0
ARC
  8
LAYER_3
 10
181.2365
 20
51.0522
 40
1.2199
 50
269.9818051
 51
359.9806209
  0
LINE
  8
LAYER_3
 10
184.9472
 20
49.8323
 11
184.9472
 21
52.2714
  0
LINE
  8
LAYER_3
 10
190.1252
 20
48.9676
 11
190.1252
 21
53.1368
  0
LINE
  8
LAYER_3
 10
184.9472
 20
52.2714
 11
190.1252
 21
53.1368
  0
LINE
  8
LAYER_3
 10
184.9472
 20
49.8323
 11
190.1252
 21
48.9676
  0
LINE
  8
LAYER_3
 10
181.2361
 20
51.0518
 11
181.2361
 21
50.8004
  0
LINE
  8
LAYER_3
 10
181.2361
 20
50.5599
 11
181.2361
 21
48.3729
  0
LINE
  8
LAYER_3
 10
181.2361
 20
51.0518
 11
181.4883
 21
51.0518
  0
LINE
  8
LAYER_3
 10
181.7288
 20
51.0518
 11
183.9157
 21
51.0518
  0
LINE
  8
LAYER_3
 10
181.2361
 20
51.0518
 11
181.2361
 21
51.304
  0
LINE
  8
LAYER_3
 10
181.2361
 20
51.5445
 11
181.2361
 21
53.7314
  0
LINE
  8
LAYER_3
 10
181.2361
 20
51.0518
 11
180.9846
 21
51.0518
  0
LINE
  8
LAYER_3
 10
180.7442
 20
51.0518
 11
178.5572
 21
51.0518
  0
LINE
  8
LAYER_3
 10
187.1404
 20
51.0518
 11
187.3925
 21
51.0518
  0
LINE
  8
LAYER_3
 10
187.633
 20
51.0518
 11
190.5579
 21
51.0518
  0
LINE
  8
LAYER_3
 10
187.1404
 20
51.0518
 11
186.8882
 21
51.0518
  0
LINE
  8
LAYER_3
 10
186.6477
 20
51.0518
 11
184.4614
 21
51.0518
  0
ENDBLK
  0
ENDSEC
  0
SECTION
  2
ENTITIES
  0
TEXT
  8
LAYER_1
 10
1.2587
 20
95.1291
 11
1.2587
 21
95.1291
 40
3.0923
 41
0.5
  1
水側
  0
TEXT
  8
LAYER_1
 10
-12.2432
 20
95.1291
 11
-12.2432
 21
95.1291
 40
3.0923
 41
0.5
 72
2
  1
湯側
  0
TEXT
  8
LAYER_1
 10
5.532
 20
197.4432
 11
5.532
 21
197.4432
 40
3.0923
 41
0.5
 72
2
  1
VL028
  0
TEXT
  8
LAYER_1
 10
-36.64
 20
244.8199
 11
-36.64
 21
244.8199
 40
3.0923
 41
0.5
  1
VL100XA
  0
TEXT
  8
LAYER_1
 10
8.8808
 20
204.4299
 11
8.8808
 21
204.4299
 40
3.0923
 41
0.5
 72
2
  1
VL3001
  0
TEXT
  8
LAYER_1
 10
-34.6275
 20
205.3256
 11
-34.6275
 21
205.3256
 40
3.0923
 41
0.5
  1
VL001R
  0
TEXT
  8
LAYER_1
 10
61.8737
 20
85.8862
 11
61.8737
 21
85.8862
 40
3.0923
 41
0.5
 72
1
  1
225
  0
TEXT
  8
LAYER_1
 10
87.4847
 20
85.8862
 11
87.4847
 21
85.8862
 40
3.0923
 41
0.5
 72
1
  1
75～101
  0
TEXT
  8
LAYER_1
 10
13.9203
 20
236.9311
 11
13.9203
 21
236.9311
 40
3.0923
 41
0.5
 72
1
  1
57
  0
TEXT
  8
LAYER_1
 10
53.5309
 20
211.5406
 11
53.5309
 21
211.5406
 40
3.0923
 41
0.5
 72
2
  1
壁仕上厚：max.15
  0
TEXT
  8
LAYER_1
 10
80.3298
 20
78.4273
 11
80.3298
 21
78.4273
 40
3.0923
 41
0.5
 72
1
  1
max.15
  0
TEXT
  8
LAYER_1
 10
-12.4888
 20
236.9311
 11
-12.4888
 21
236.9311
 40
3.0923
 41
0.5
 72
1
  1
260
  0
TEXT
  8
LAYER_1
 10
-39.1632
 20
236.9311
 11
-39.1632
 21
236.9311
 40
3.0923
 41
0.5
 72
1
  1
60
  0
TEXT
  8
LAYER_1
 10
-52.1686
 20
223.8182
 11
-52.1686
 21
223.8182
 40
3.0923
 41
0.5
 50
89.99999999
 72
1
  1
70
  0
TEXT
  8
LAYER_1
 10
25.5826
 20
222.6964
 11
25.5826
 21
222.6964
 40
3.0923
 41
0.5
 50
89.99999999
 72
1
  1
75～101
  0
TEXT
  8
LAYER_1
 10
-52.1686
 20
212.1693
 11
-52.1686
 21
212.1693
 40
3.0923
 41
0.5
 50
89.99999999
  1
2.5
  0
TEXT
  8
LAYER_1
 10
103.1684
 20
92.5752
 11
103.1684
 21
92.5752
 40
3.0923
 41
0.5
 72
2
  1
25～51
  0
TEXT
  8
LAYER_1
 10
-31.8942
 20
133.9849
 11
-31.8942
 21
133.9849
 40
3.0923
 41
0.5
 72
1
  1
148
  0
TEXT
  8
LAYER_1
 10
-12.9057
 20
133.9849
 11
-12.9057
 21
133.9849
 40
3.0923
 41
0.5
 72
1
  1
78
  0
TEXT
  8
LAYER_1
 10
-12.7162
 20
141.7509
 11
-12.7162
 21
141.7509
 40
3.0923
 41
0.5
 72
1
  1
377
  0
TEXT
  8
LAYER_1
 10
6.2952
 20
133.9849
 11
6.2952
 21
133.9849
 40
3.0923
 41
0.5
 72
1
  1
151
  0
TEXT
  8
LAYER_1
 10
-62.9626
 20
111.6569
 11
-62.9626
 21
111.6569
 40
3.0923
 41
0.5
 50
89.99999999
 72
1
  1
147
  0
TEXT
  8
LAYER_1
 10
-56.5609
 20
111.4902
 11
-56.5609
 21
111.4902
 40
3.0923
 41
0.5
 50
89.99999999
 72
1
  1
95
  0
TEXT
  8
LAYER_1
 10
-50.1661
 20
106.8452
 11
-50.1661
 21
106.8452
 40
3.0923
 41
0.5
 50
89.99999999
 72
1
  1
72.5
  0
TEXT
  8
LAYER_1
 10
-50.1661
 20
116.1311
 11
-50.1661
 21
116.1311
 40
3.0923
 41
0.5
 50
89.99999999
 72
1
  1
74.5
  0
TEXT
  8
LAYER_1
 10
-6.4055
 20
80.2638
 11
-6.4055
 21
80.2638
 40
3.0923
 41
0.5
 72
1
  1
54
  0
TEXT
  8
LAYER_1
 10
9.7205
 20
88.4115
 11
9.7205
 21
88.4115
 40
3.0923
 41
0.5
 72
2
  1
PF 1/2
  0
TEXT
  8
LAYER_1
 10
-2.8629
 20
187.6264
 11
-2.8629
 21
187.6264
 40
3.0923
 41
0.5
 72
2
  1
VL020R
  0
TEXT
  8
LAYER_1
 10
51.9629
 20
105.8419
 11
51.9629
 21
105.8419
 40
3.0923
 41
0.5
 50
89.99999999
 72
1
  1
67
  0
TEXT
  8
LAYER_1
 10
62.6806
 20
118.3753
 11
62.6806
 21
118.3753
 40
3.0923
 41
0.5
 50
89.99999999
 72
2
  1
%%c19
  0
TEXT
  8
LAYER_1
 10
-30.8462
 20
211.5578
 11
-30.8462
 21
211.5578
 40
3.0923
 41
0.5
  1
%%c60
  0
TEXT
  8
LAYER_1
 10
3.0574
 20
211.5578
 11
3.0574
 21
211.5578
 40
3.0923
 41
0.5
 72
2
  1
%%c60
  0
TEXT
  8
LAYER_1
 10
-77.8468
 20
21.9236
 11
-77.8468
 21
21.9236
 40
3.6546
 41
0.5
  1
※壁仕上面が15mmを超え65mmまでの場合は延長部材（別売）が必要です。
  0
TEXT
  8
LAYER_1
 10
-77.8468
 20
27.4267
 11
-77.8468
 21
27.4267
 40
3.6546
 41
0.5
  1
※メンテナンスのため配管途中に、必ず止水栓（現場手配）を設置してください。
  0
INSERT
  8
LAYER_2
  2
AIGNBL02010002
 10
0
 20
0
 30
0
  0
LINE
  8
LAYER_2
 10
-9.2708
 20
215.2348
 11
-9.2708
 21
214.9016
  0
LINE
  8
LAYER_2
 10
-3.6091
 20
215.2348
 11
-3.6091
 21
214.9016
  0
LINE
  8
LAYER_2
 10
80.0635
 20
114.3551
 11
79.6473
 21
114.3551
  0
LINE
  8
LAYER_2
 10
80.0635
 20
108.6934
 11
79.6473
 21
108.6934
  0
INSERT
  8
LAYER_2
  2
AIGNBL02010004
 10
0
 20
0
 30
0
  0
INSERT
  8
LAYER_2
  2
AIGNBL02010005
 10
0
 20
0
 30
0
  0
LINE
  8
LAYER_2
 10
-24.4056
 20
215.2348
 11
-14.4055
 21
215.2348
  0
LINE
  8
LAYER_2
 10
-24.4056
 20
215.4847
 11
-24.4056
 21
215.2348
  0
INSERT
  8
LAYER_2
  2
AIGNBL02010006
 10
0
 20
0
 30
0
  0
LINE
  8
LAYER_2
 10
-5.364
 20
210.3182
 11
-5.364
 21
208.6515
  0
LINE
  8
LAYER_2
 10
-7.4476
 20
210.3182
 11
-7.4476
 21
208.6515
  0
ARC
  8
LAYER_2
 10
-6.4274
 20
209.5068
 40
0.6056
 50
272.044356
 51
357.8967078
  0
ARC
  8
LAYER_2
 10
-6.406
 20
209.4847
 40
0.5831
 50
180.0120356
 51
270.0174401
  0
ARC
  8
LAYER_2
 10
-6.4056
 20
209.4847
 40
0.5835
 50
90.01650481
 51
180.0129557
  0
ARC
  8
LAYER_2
 10
-6.4058
 20
209.4846
 40
0.5836
 50
0.002700491254
 51
89.9972995
  0
LINE
  8
LAYER_2
 10
-9.7393
 20
208.8183
 11
-9.7393
 21
214.9016
  0
LINE
  8
LAYER_2
 10
-3.0723
 20
208.8183
 11
-3.0723
 21
214.9016
  0
LINE
  8
LAYER_2
  6
AIGENLINE001
 10
-7.9713
 20
209.4846
 11
-4.9351
 21
209.4846
  0
LINE
  8
LAYER_2
 10
-9.5726
 20
208.6515
 11
-3.2391
 21
208.6515
  0
LINE
  8
LAYER_2
 10
-7.4476
 20
210.3182
 11
-5.364
 21
210.3182
  0
LINE
  8
LAYER_2
 10
-9.7393
 20
214.9016
 11
-3.0723
 21
214.9016
  0
INSERT
  8
LAYER_2
  2
AIGNBL02010007
 10
0
 20
0
 30
0
  0
ARC
  8
LAYER_2
 10
-9.5725
 20
208.8183
 40
0.1668
 50
179.9842989
 51
269.9813408
  0
ARC
  8
LAYER_2
 10
-3.2391
 20
208.8183
 40
0.1668
 50
269.9875459
 51
0.01245412022
  0
LINE
  8
LAYER_2
 10
42.8141
 20
98.4167
 11
42.8141
 21
84.6825
  0
LINE
  8
LAYER_2
 10
80.3136
 20
99.2518
 11
80.3136
 21
84.6825
  0
LINE
  8
LAYER_2
 10
42.8141
 20
85.1862
 11
94.4805
 21
85.1862
  0
LINE
  8
LAYER_2
  6
AIGENLINE002
 10
80.3136
 20
125.1028
 11
80.3136
 21
99.73
  0
LINE
  8
LAYER_2
  6
AIGENLINE002
 10
81.9804
 20
125.1028
 11
81.9804
 21
99.73
  0
LINE
  8
LAYER_2
 10
-44.1557
 20
218.51
 11
-44.1557
 21
236.5811
  0
LINE
  8
LAYER_2
  6
AIGENLINE001
 10
-6.4058
 20
206.931
 11
-6.4058
 21
230.7615
  0
LINE
  8
LAYER_2
 10
-34.1554
 20
229.3292
 11
-34.1554
 21
236.5811
  0
LINE
  8
LAYER_2
 10
9.1777
 20
223.01
 11
9.1777
 21
236.5811
  0
LINE
  8
LAYER_2
 10
18.6778
 20
218.51
 11
18.6778
 21
236.5811
  0
INSERT
  8
LAYER_2
  2
AIGNBL02010008
 10
0
 20
0
 30
0
  0
LINE
  8
LAYER_2
 10
-30.4784
 20
229.6514
 11
-51.8186
 21
229.6514
  0
LINE
  8
LAYER_2
 10
-44.9222
 20
217.985
 11
-51.8186
 21
217.985
  0
LINE
  8
LAYER_2
  6
AIGENLINE002
 10
21.436
 20
215.4847
 11
-32.7701
 21
215.4847
  0
LINE
  8
LAYER_2
  6
AIGENLINE002
 10
21.436
 20
217.1516
 11
-32.7701
 21
217.1516
  0
LINE
  8
LAYER_2
 10
-45.0307
 20
217.5683
 11
-51.8186
 21
217.5683
  0
INSERT
  8
LAYER_2
  2
AIGNBL02010009
 10
0
 20
0
 30
0
  0
LINE
  8
LAYER_2
 10
94.4805
 20
104.3947
 11
94.4805
 21
84.6825
  0
LINE
  8
LAYER_2
 10
90.3133
 20
91.4197
 11
90.3133
 21
97.6822
  0
LINE
  8
LAYER_2
 10
81.9804
 20
84.6825
 11
81.9804
 21
99.0506
  0
INSERT
  8
LAYER_2
  2
AIGNBL0201000C
 10
0
 20
0
 30
0
  0
LINE
  8
LAYER_2
 10
-44.1553
 20
119.6934
 11
-44.1553
 21
141.3881
  0
LINE
  8
LAYER_2
 10
-19.4055
 20
120.0481
 11
-19.4055
 21
133.5329
  0
LINE
  8
LAYER_2
 10
-6.4055
 20
120.3175
 11
-6.4055
 21
133.6225
  0
LINE
  8
LAYER_2
 10
18.6775
 20
119.735
 11
18.6775
 21
141.3953
  0
INSERT
  8
LAYER_2
  2
AIGNBL0201000D
 10
0
 20
0
 30
0
  0
INSERT
  8
LAYER_2
  2
AIGNBL0201000E
 10
0
 20
0
 30
0
  0
LINE
  8
LAYER_2
 10
-13.6319
 20
99.4072
 11
-62.6947
 21
99.4072
  0
LINE
  8
LAYER_2
 10
-17.765
 20
123.9066
 11
-62.6947
 21
123.9066
  0
LINE
  8
LAYER_2
 10
-56.2931
 20
103.5734
 11
-44.6173
 21
103.5734
  0
INSERT
  8
LAYER_2
  2
AIGNBL0201000F
 10
0
 20
0
 30
0
  0
LINE
  8
LAYER_2
 10
-49.8983
 20
111.4902
 11
-46.1383
 21
111.4902
  0
INSERT
  8
LAYER_2
  2
AIGNBL02010010
 10
0
 20
0
 30
0
  0
INSERT
  8
LAYER_2
  2
AIGNBL02010011
 10
0
 20
0
 30
0
  0
LINE
  8
LAYER_2
 10
-56.2931
 20
119.4067
 11
-44.6173
 21
119.4067
  0
INSERT
  8
LAYER_2
  2
AIGNBL02010012
 10
0
 20
0
 30
0
  0
INSERT
  8
LAYER_2
  2
AIGNBL02010013
 10
0
 20
0
 30
0
  0
LINE
  8
LAYER_2
 10
80.3136
 20
114.34
 11
82.2801
 21
114.34
  0
LINE
  8
LAYER_2
 10
80.3136
 20
114.465
 11
82.2801
 21
114.465
  0
LINE
  8
LAYER_2
 10
80.3136
 20
108.515
 11
82.2801
 21
108.515
  0
LINE
  8
LAYER_2
 10
80.3136
 20
108.6401
 11
82.2801
 21
108.6401
  0
LINE
  8
LAYER_2
 10
82.3972
 20
103.5734
 11
94.147
 21
103.5734
  0
LINE
  8
LAYER_2
 10
82.3972
 20
119.4067
 11
94.147
 21
119.4067
  0
LINE
  8
LAYER_2
 10
94.147
 20
103.5734
 11
94.147
 21
119.4067
  0
LINE
  8
LAYER_2
 10
82.3972
 20
103.5734
 11
82.3972
 21
119.4067
  0
LINE
  8
LAYER_2
 10
82.2801
 20
107.99
 11
82.2801
 21
114.9901
  0
LINE
  8
LAYER_2
 10
82.8134
 20
103.5734
 11
82.8134
 21
119.4067
  0
LINE
  8
LAYER_2
 10
82.3972
 20
107.99
 11
82.2801
 21
107.99
  0
LINE
  8
LAYER_2
 10
82.3972
 20
114.9901
 11
82.2801
 21
114.9901
  0
ARC
  8
LAYER_2
 10
102.2483
 20
118.947
 40
16.4352
 50
172.1905116
 51
178.3971815
  0
ARC
  8
LAYER_2
 10
83.3106
 20
120.0323
 40
5.2787
 50
2.902470972
 51
19.30707973
  0
ARC
  8
LAYER_2
 10
101.4136
 20
119.0097
 40
13.1003
 50
170.835644
 51
178.2632062
  0
ARC
  8
LAYER_2
 10
74.8872
 20
118.9605
 40
16.2599
 50
1.572518236
 51
7.846206385
  0
LINE
  8
LAYER_2
 10
88.5825
 20
120.2996
 11
88.639
 21
119.4067
  0
ARC
  8
LAYER_2
 10
89.1105
 20
122.4595
 40
1.4249
 50
43.7559941
 51
89.11839985
  0
ARC
  8
LAYER_2
 10
92.4591
 20
120.3775
 40
6.543
 50
159.3562262
 51
172.9534307
  0
LINE
  8
LAYER_2
 10
87.8618
 20
121.3848
 11
88.4158
 21
121.3848
  0
ARC
  8
LAYER_2
 10
89.1324
 20
122.6295
 40
1.2548
 50
75.24088951
 51
90.00203878
  0
ARC
  8
LAYER_2
 10
89.1326
 20
122.6334
 40
1.251
 50
139.8801549
 51
229.8617836
  0
ARC
  8
LAYER_2
 10
89.1332
 20
122.6319
 40
1.2524
 50
90.03737826
 51
139.8467669
  0
LINE
  8
LAYER_2
 10
89.0979
 20
123.8853
 11
87.8618
 21
123.8853
  0
ARC
  8
LAYER_2
 10
88.3771
 20
121.9193
 40
2.1795
 50
135.5716213
 51
159.4518851
  0
ARC
  8
LAYER_2
 10
87.8955
 20
122.6353
 40
1.251
 50
178.5112038
 51
268.4548781
  0
ARC
  8
LAYER_2
 10
87.8962
 20
122.6341
 40
1.2517
 50
91.60786702
 51
178.4580551
  0
ARC
  8
LAYER_2
 10
87.8506
 20
122.4581
 40
1.4264
 50
90.93024919
 51
136.2203802
  0
ARC
  8
LAYER_2
 10
84.5372
 20
120.3864
 40
6.5062
 50
7.007938989
 51
20.68240407
  0
ARC
  8
LAYER_2
 10
88.5829
 20
121.9191
 40
2.1799
 50
20.55020012
 51
44.42629343
  0
ARC
  8
LAYER_2
 10
88.23
 20
104.4069
 40
0.8335
 50
269.988911
 51
359.9835925
  0
ARC
  8
LAYER_2
 10
88.2299
 20
118.5731
 40
0.8336
 50
0.01184604713
 51
90.00877506
  0
LINE
  8
LAYER_2
 10
89.0635
 20
104.4067
 11
89.0635
 21
118.5733
  0
CIRCLE
  8
LAYER_2
 10
86.7304
 20
111.4902
 40
1.2499
  0
CIRCLE
  8
LAYER_2
 10
86.7304
 20
111.4902
 40
0.6668
  0
ARC
  8
LAYER_2
 10
88.3971
 20
111.4901
 40
2.4998
 50
285.4264986
 51
15.4447142
  0
ARC
  8
LAYER_2
 10
88.3963
 20
111.4894
 40
2.5008
 50
15.45383101
 51
74.5593072
  0
ARC
  8
LAYER_2
 10
91.2299
 20
108.6568
 40
0.5001
 50
269.9731571
 51
359.9810154
  0
LINE
  8
LAYER_2
 10
89.0635
 20
108.1567
 11
91.2297
 21
108.1567
  0
ARC
  8
LAYER_2
 10
91.2299
 20
114.3232
 40
0.5001
 50
0.01913218194
 51
90.02669526
  0
LINE
  8
LAYER_2
 10
91.73
 20
108.6566
 11
91.73
 21
114.3234
  0
LINE
  8
LAYER_2
 10
89.0635
 20
114.8233
 11
91.2297
 21
114.8233
  0
ARC
  8
LAYER_2
 10
85.7302
 20
106.2403
 40
0.4998
 50
90.01823025
 51
180.0161644
  0
ARC
  8
LAYER_2
 10
85.7494
 20
106.259
 40
0.5193
 50
182.0711987
 51
267.8600327
  0
ARC
  8
LAYER_2
 10
85.73
 20
106.2402
 40
0.5002
 50
269.9989681
 51
0.001031956218
  0
ARC
  8
LAYER_2
 10
85.7301
 20
106.24
 40
0.5001
 50
0.01738499756
 51
90.01698902
  0
ARC
  8
LAYER_2
 10
84.3327
 20
116.7216
 40
0.5192
 50
92.12600363
 51
177.942765
  0
ARC
  8
LAYER_2
 10
84.3329
 20
116.759
 40
0.5194
 50
182.0710155
 51
267.8487624
  0
ARC
  8
LAYER_2
 10
84.3133
 20
116.7402
 40
0.5003
 50
270.0060872
 51
0.005366213263
  0
ARC
  8
LAYER_2
 10
84.3134
 20
116.7402
 40
0.5002
 50
0.004496659493
 51
89.99550333
  0
LINE
  8
LAYER_2
 10
-1.9055
 20
79.2361
 11
-1.9055
 21
96.7486
  0
LINE
  8
LAYER_2
 10
-10.9055
 20
79.2361
 11
-10.9055
 21
96.7486
  0
INSERT
  8
LAYER_2
  2
AIGNBL02010014
 10
0
 20
0
 30
0
  0
LINE
  8
LAYER_2
 10
-3.6556
 20
87.453
 11
-3.6556
 21
98.8256
  0
LINE
  8
LAYER_2
 10
-0.1561
 20
87.453
 11
-0.1561
 21
98.8256
  0
INSERT
  8
LAYER_2
  2
AIGNBL02010015
 10
0
 20
0
 30
0
  0
ARC
  8
LAYER_2
 10
92.4736
 20
99.58
 40
0.1729
 50
271.9842452
 51
357.87819
  0
LINE
  8
LAYER_2
 10
92.6464
 20
99.5736
 11
92.6464
 21
103.5734
  0
ARC
  8
LAYER_2
 10
88.153
 20
99.58
 40
0.1729
 50
182.1075664
 51
268.0299985
  0
LINE
  8
LAYER_2
 10
87.9803
 20
99.5736
 11
87.9803
 21
103.5734
  0
LINE
  8
LAYER_2
 10
88.1471
 20
99.4072
 11
92.4796
 21
99.4072
  0
LINE
  8
LAYER_2
  6
AIGENLINE001
 10
90.3133
 20
104.4357
 11
90.3133
 21
98.383
  0
LINE
  8
LAYER_2
 10
94.3972
 20
117.3234
 11
94.3972
 21
118.3235
  0
LINE
  8
LAYER_2
 10
94.4805
 20
117.4071
 11
94.4805
 21
118.2401
  0
LINE
  8
LAYER_2
 10
94.4805
 20
117.4071
 11
94.3972
 21
117.3234
  0
LINE
  8
LAYER_2
 10
94.3972
 20
118.3235
 11
94.4805
 21
118.2401
  0
LINE
  8
LAYER_2
 10
94.3972
 20
117.3234
 11
94.147
 21
117.3234
  0
LINE
  8
LAYER_2
 10
94.3972
 20
118.3235
 11
94.147
 21
118.3235
  0
LINE
  8
LAYER_2
 10
94.3972
 20
104.6568
 11
94.3972
 21
105.6569
  0
LINE
  8
LAYER_2
 10
94.4805
 20
104.7402
 11
94.4805
 21
105.5732
  0
LINE
  8
LAYER_2
 10
94.4805
 20
104.7402
 11
94.3972
 21
104.6568
  0
LINE
  8
LAYER_2
 10
94.3972
 20
105.6569
 11
94.4805
 21
105.5732
  0
LINE
  8
LAYER_2
 10
94.3972
 20
104.6568
 11
94.147
 21
104.6568
  0
LINE
  8
LAYER_2
 10
94.3972
 20
105.6569
 11
94.147
 21
105.6569
  0
ARC
  8
LAYER_2
 10
-33.4057
 20
228.5683
 40
0.75
 50
89.99839551
 51
180.0016045
  0
ARC
  8
LAYER_2
 10
-33.4058
 20
228.5683
 40
0.3331
 50
89.98778858
 51
179.9950132
  0
ARC
  8
LAYER_2
 10
-34.4888
 20
218.3182
 40
0.7499
 50
269.9912361
 51
359.993483
  0
LINE
  8
LAYER_2
 10
-33.7389
 20
228.5683
 11
-33.7389
 21
218.3181
  0
LINE
  8
LAYER_2
 10
-34.1557
 20
218.3181
 11
-34.1557
 21
228.5683
  0
LINE
  8
LAYER_2
 10
-34.4889
 20
217.5683
 11
-44.1553
 21
217.5683
  0
LINE
  8
LAYER_2
 10
-44.1553
 20
217.985
 11
-34.4889
 21
217.985
  0
LINE
  8
LAYER_2
 10
-44.1553
 20
217.5683
 11
-44.1553
 21
217.985
  0
ARC
  8
LAYER_2
 10
-34.4888
 20
218.3181
 40
0.3331
 50
269.988872
 51
359.9939298
  0
LINE
  8
LAYER_2
 10
-28.739
 20
228.9014
 11
-31.2391
 21
228.9014
  0
LINE
  8
LAYER_2
 10
-31.2391
 20
229.3183
 11
-28.739
 21
229.3183
  0
LINE
  8
LAYER_2
 10
-33.239
 20
228.9014
 11
-31.2391
 21
228.9014
  0
LINE
  8
LAYER_2
 10
-33.239
 20
229.3183
 11
-31.2391
 21
229.3183
  0
LINE
  8
LAYER_2
 10
-33.239
 20
228.9014
 11
-33.4057
 21
228.9014
  0
LINE
  8
LAYER_2
 10
-33.239
 20
229.3183
 11
-33.239
 21
228.9014
  0
LINE
  8
LAYER_2
 10
-33.4057
 20
229.3183
 11
-33.239
 21
229.3183
  0
LINE
  8
LAYER_2
 10
-31.2391
 20
228.9014
 11
-31.2391
 21
229.3183
  0
LINE
  8
LAYER_2
 10
-27.9056
 20
228.9014
 11
-28.739
 21
228.9014
  0
LINE
  8
LAYER_2
 10
-28.739
 20
229.3183
 11
-27.9056
 21
229.3183
  0
LINE
  8
LAYER_2
 10
-27.9056
 20
229.3183
 11
-27.9056
 21
228.9014
  0
LINE
  8
LAYER_2
 10
18.6775
 20
217.5683
 11
9.094
 21
217.5683
  0
LINE
  8
LAYER_2
 10
9.094
 20
217.985
 11
18.6775
 21
217.985
  0
LINE
  8
LAYER_2
 10
7.9275
 20
218.8182
 11
7.9275
 21
228.5683
  0
LINE
  8
LAYER_2
 10
8.3444
 20
228.5683
 11
8.3444
 21
218.8182
  0
LINE
  8
LAYER_2
 10
7.9275
 20
218.068
 11
7.9275
 21
218.8182
  0
ARC
  8
LAYER_2
 10
7.0142
 20
218.8215
 40
0.0865
 50
182.1606474
 51
267.9769174
  0
LINE
  8
LAYER_2
 10
7.0111
 20
220.4015
 11
7.0111
 21
218.735
  0
LINE
  8
LAYER_2
 10
8.7612
 20
220.6932
 11
8.7612
 21
218.3181
  0
LINE
  8
LAYER_2
 10
8.3444
 20
218.3181
 11
8.3444
 21
223.4015
  0
LINE
  8
LAYER_2
 10
7.0111
 20
218.735
 11
7.9275
 21
218.735
  0
ARC
  8
LAYER_2
 10
9.1067
 20
218.3305
 40
0.3457
 50
182.0577688
 51
267.8906056
  0
LINE
  8
LAYER_2
 10
8.3444
 20
218.3181
 11
8.3444
 21
218.068
  0
ARC
  8
LAYER_2
 10
9.0941
 20
218.318
 40
0.7497
 50
179.9931657
 51
269.9915493
  0
LINE
  8
LAYER_2
 10
8.3444
 20
218.068
 11
7.9275
 21
218.068
  0
LINE
  8
LAYER_2
 10
7.9275
 20
226.0682
 11
6.761
 21
226.0682
  0
LINE
  8
LAYER_2
 10
6.761
 20
221.068
 11
7.9275
 21
221.068
  0
LINE
  8
LAYER_2
 10
7.0111
 20
220.9016
 11
7.9275
 21
220.9016
  0
LINE
  8
LAYER_2
 10
7.9275
 20
220.4015
 11
7.0111
 21
220.4015
  0
LINE
  8
LAYER_2
 10
6.6776
 20
221.1513
 11
6.6776
 21
225.9848
  0
LINE
  8
LAYER_2
 10
6.761
 20
226.0682
 11
6.761
 21
221.068
  0
ARC
  8
LAYER_2
 10
7.0111
 20
220.985
 40
0.0834
 50
179.9911184
 51
270.0088816
  0
LINE
  8
LAYER_2
 10
6.9277
 20
220.985
 11
6.9277
 21
221.068
  0
LINE
  8
LAYER_2
 10
6.6776
 20
221.1513
 11
6.761
 21
221.068
  0
ARC
  8
LAYER_2
 10
7.0111
 20
220.3181
 40
0.0834
 50
89.98540692
 51
180.0145931
  0
LINE
  8
LAYER_2
 10
6.9277
 20
218.8182
 11
6.9277
 21
219.568
  0
LINE
  8
LAYER_2
 10
6.9277
 20
219.568
 11
6.9277
 21
220.3181
  0
LINE
  8
LAYER_2
 10
6.761
 20
226.0682
 11
6.6776
 21
225.9848
  0
LINE
  8
LAYER_2
 10
8.8446
 20
223.1933
 11
8.8446
 21
220.6098
  0
LINE
  8
LAYER_2
 10
8.7612
 20
223.4015
 11
8.7612
 21
220.6932
  0
LINE
  8
LAYER_2
 10
8.961
 20
220.6098
 11
8.961
 21
223.1933
  0
LINE
  8
LAYER_2
 10
9.094
 20
222.568
 11
8.961
 21
222.568
  0
LINE
  8
LAYER_2
 10
9.1774
 20
221.9015
 11
9.1774
 21
221.3181
  0
LINE
  8
LAYER_2
 10
9.1774
 20
222.485
 11
9.1774
 21
221.9015
  0
LINE
  8
LAYER_2
 10
8.961
 20
221.2347
 11
9.094
 21
221.2347
  0
LINE
  8
LAYER_2
 10
9.094
 20
221.2347
 11
9.1774
 21
221.3181
  0
LINE
  8
LAYER_2
 10
8.928
 20
219.9848
 11
8.8446
 21
220.0682
  0
LINE
  8
LAYER_2
 10
8.8446
 20
220.0682
 11
8.7612
 21
220.0682
  0
ARC
  8
LAYER_2
 10
8.8446
 20
220.6932
 40
0.0834
 50
179.9822447
 51
270.0177553
  0
LINE
  8
LAYER_2
 10
8.8446
 20
220.6098
 11
8.961
 21
220.6098
  0
LINE
  8
LAYER_2
 10
8.8446
 20
219.0683
 11
8.928
 21
219.1515
  0
LINE
  8
LAYER_2
 10
8.7612
 20
219.0683
 11
8.8446
 21
219.0683
  0
LINE
  8
LAYER_2
 10
8.928
 20
219.9848
 11
8.928
 21
219.1515
  0
LINE
  8
LAYER_2
 10
8.8446
 20
219.0683
 11
8.8446
 21
220.0682
  0
LINE
  8
LAYER_2
 10
9.094
 20
221.2347
 11
9.094
 21
222.568
  0
LINE
  8
LAYER_2
 10
9.1774
 20
222.485
 11
9.094
 21
222.568
  0
LINE
  8
LAYER_2
 10
7.9275
 20
218.8182
 11
8.3444
 21
218.8182
  0
LINE
  8
LAYER_2
 10
8.3444
 20
224.2347
 11
8.7612
 21
224.2347
  0
ARC
  8
LAYER_2
 10
8.8446
 20
223.1099
 40
0.0834
 50
90.00250875
 51
179.9974912
  0
LINE
  8
LAYER_2
 10
8.961
 20
223.1933
 11
8.8446
 21
223.1933
  0
LINE
  8
LAYER_2
 10
8.7612
 20
223.4015
 11
8.3444
 21
223.4015
  0
LINE
  8
LAYER_2
 10
8.7612
 20
224.2347
 11
8.7612
 21
223.4015
  0
LINE
  8
LAYER_2
 10
5.3444
 20
228.9014
 11
2.0943
 21
228.9014
  0
LINE
  8
LAYER_2
 10
2.0943
 20
229.3183
 11
5.3444
 21
229.3183
  0
LINE
  8
LAYER_2
 10
2.0943
 20
228.9014
 11
2.0943
 21
229.3183
  0
LINE
  8
LAYER_2
 10
7.594
 20
228.9014
 11
7.3446
 21
228.9014
  0
LINE
  8
LAYER_2
 10
7.3446
 20
229.3183
 11
7.594
 21
229.3183
  0
LINE
  8
LAYER_2
 10
5.3444
 20
228.9014
 11
7.3446
 21
228.9014
  0
LINE
  8
LAYER_2
 10
5.3444
 20
229.3183
 11
7.3446
 21
229.3183
  0
LINE
  8
LAYER_2
 10
5.3444
 20
229.3183
 11
5.3444
 21
228.9014
  0
LINE
  8
LAYER_2
 10
7.3446
 20
229.3183
 11
7.3446
 21
228.9014
  0
ARC
  8
LAYER_2
 10
7.5942
 20
228.5681
 40
0.7502
 50
0.01335232873
 51
90.01719726
  0
ARC
  8
LAYER_2
 10
7.5819
 20
228.5558
 40
0.3458
 50
2.073315664
 51
87.99544613
  0
LINE
  8
LAYER_2
 10
18.6775
 20
217.985
 11
18.6775
 21
217.5683
  0
INSERT
  8
LAYER_2
  2
AIGNBL02010016
 10
0
 20
0
 30
0
  0
LINE
  8
LAYER_2
 10
4.2612
 20
229.5682
 11
3.2608
 21
229.5682
  0
LINE
  8
LAYER_2
 10
4.1779
 20
229.6516
 11
3.3442
 21
229.6516
  0
LINE
  8
LAYER_2
 10
4.1779
 20
229.6516
 11
4.2612
 21
229.5682
  0
LINE
  8
LAYER_2
 10
3.2608
 20
229.5682
 11
3.3442
 21
229.6516
  0
LINE
  8
LAYER_2
 10
4.2612
 20
229.5682
 11
4.2612
 21
229.3183
  0
LINE
  8
LAYER_2
 10
3.2608
 20
229.5682
 11
3.2608
 21
229.3183
  0
LINE
  8
LAYER_2
 10
-29.0721
 20
229.5682
 11
-30.0726
 21
229.5682
  0
LINE
  8
LAYER_2
 10
-29.1555
 20
229.6516
 11
-29.9892
 21
229.6516
  0
LINE
  8
LAYER_2
 10
-29.1555
 20
229.6516
 11
-29.0721
 21
229.5682
  0
LINE
  8
LAYER_2
 10
-30.0726
 20
229.5682
 11
-29.9892
 21
229.6516
  0
LINE
  8
LAYER_2
 10
-29.0721
 20
229.5682
 11
-29.0721
 21
229.3183
  0
LINE
  8
LAYER_2
 10
-30.0726
 20
229.5682
 11
-30.0726
 21
229.3183
  0
LINE
  8
LAYER_2
 10
2.7606
 20
227.8183
 11
2.7606
 21
223.3183
  0
LINE
  8
LAYER_2
 10
2.8439
 20
227.8183
 11
2.8439
 21
223.3183
  0
LINE
  8
LAYER_2
 10
4.6774
 20
223.3183
 11
4.6774
 21
227.8183
  0
LINE
  8
LAYER_2
 10
4.7608
 20
223.3183
 11
4.7608
 21
227.8183
  0
LINE
  8
LAYER_2
 10
2.5938
 20
228.4849
 11
2.5938
 21
227.8183
  0
LINE
  8
LAYER_2
 10
4.9275
 20
227.8183
 11
4.9275
 21
228.4849
  0
LINE
  8
LAYER_2
 10
4.5107
 20
220.7348
 11
3.0107
 21
220.7348
  0
LINE
  8
LAYER_2
 10
2.9273
 20
220.8182
 11
4.594
 21
220.8182
  0
LINE
  8
LAYER_2
 10
3.761
 20
222.985
 11
2.6779
 21
222.985
  0
LINE
  8
LAYER_2
 10
2.7606
 20
223.3183
 11
4.7608
 21
223.3183
  0
LINE
  8
LAYER_2
 10
2.7192
 20
221.7349
 11
4.8028
 21
221.7349
  0
LINE
  8
LAYER_2
 10
2.6779
 20
221.7766
 11
2.6779
 21
222.985
  0
LINE
  8
LAYER_2
 10
2.9273
 20
221.7349
 11
2.9273
 21
220.8182
  0
ARC
  8
LAYER_2
 10
3.0107
 20
220.8182
 40
0.0834
 50
179.9954142
 51
270.0045858
  0
LINE
  8
LAYER_2
 10
2.6779
 20
221.7766
 11
2.7192
 21
221.7349
  0
LINE
  8
LAYER_2
 10
2.9273
 20
223.235
 11
2.9273
 21
223.0682
  0
ARC
  8
LAYER_2
 10
2.8409
 20
223.0714
 40
0.0864
 50
271.9568831
 51
357.9055521
  0
ARC
  8
LAYER_2
 10
2.8439
 20
223.2349
 40
0.0834
 50
0.04343435163
 51
90.02530682
  0
LINE
  8
LAYER_2
 10
4.8441
 20
221.7766
 11
4.8441
 21
222.985
  0
LINE
  8
LAYER_2
 10
3.761
 20
221.9442
 11
3.761
 21
222.985
  0
LINE
  8
LAYER_2
 10
4.594
 20
220.8182
 11
4.594
 21
221.7349
  0
ARC
  8
LAYER_2
 10
4.5106
 20
220.8182
 40
0.0834
 50
270.0544959
 51
0.01424532527
  0
LINE
  8
LAYER_2
 10
4.8028
 20
221.7349
 11
4.8441
 21
221.7766
  0
LINE
  8
LAYER_2
 10
4.594
 20
223.0682
 11
4.594
 21
223.235
  0
ARC
  8
LAYER_2
 10
4.6804
 20
223.0714
 40
0.0865
 50
182.1230113
 51
268.0145536
  0
ARC
  8
LAYER_2
 10
4.6774
 20
223.2349
 40
0.0834
 50
89.98433153
 51
179.9469273
  0
LINE
  8
LAYER_2
 10
4.8441
 20
222.985
 11
3.761
 21
222.985
  0
ARC
  8
LAYER_2
 10
3.2191
 20
222.7449
 40
0.9668
 50
235.9099633
 51
304.0900367
  0
ARC
  8
LAYER_2
 10
4.3026
 20
222.7436
 40
0.9655
 50
235.8834232
 51
304.1165768
  0
LINE
  8
LAYER_2
 10
80.3136
 20
106.4903
 11
80.0635
 21
106.4903
  0
LINE
  8
LAYER_2
 10
80.0635
 20
106.4903
 11
80.0635
 21
116.49
  0
LINE
  8
LAYER_2
 10
80.0635
 20
116.49
 11
80.3136
 21
116.49
  0
LINE
  8
LAYER_2
 10
80.3136
 20
116.49
 11
80.3136
 21
106.4903
  0
LINE
  8
LAYER_2
 10
73.564
 20
114.8237
 11
79.6473
 21
114.8237
  0
LINE
  8
LAYER_2
 10
73.3972
 20
114.6573
 11
75.064
 21
114.6573
  0
LINE
  8
LAYER_2
 10
73.564
 20
108.1567
 11
79.6473
 21
108.1567
  0
LINE
  8
LAYER_2
 10
73.8141
 20
118.9901
 11
74.6471
 21
118.9901
  0
LINE
  8
LAYER_2
  6
AIGENLINE001
 10
74.231
 20
119.5052
 11
74.231
 21
113.7271
  0
LINE
  8
LAYER_2
 10
74.8139
 20
118.8234
 11
74.8139
 21
114.8237
  0
LINE
  8
LAYER_2
 10
73.6474
 20
118.8234
 11
73.6474
 21
114.8237
  0
LINE
  8
LAYER_2
 10
73.3972
 20
114.6569
 11
73.3972
 21
108.3234
  0
LINE
  8
LAYER_2
 10
75.064
 20
114.8237
 11
75.064
 21
114.6573
  0
LINE
  8
LAYER_2
 10
79.6473
 20
114.8237
 11
79.6473
 21
108.1567
  0
ARC
  8
LAYER_2
 10
73.564
 20
114.6569
 40
0.1668
 50
89.99478709
 51
180.0052129
  0
ARC
  8
LAYER_2
 10
73.8141
 20
118.8234
 40
0.1667
 50
89.99518266
 51
180.0048174
  0
ARC
  8
LAYER_2
 10
74.6472
 20
118.8234
 40
0.1667
 50
0.01286627668
 51
90.021494
  0
ARC
  8
LAYER_2
 10
73.564
 20
108.3235
 40
0.1668
 50
180.0205892
 51
270.0137711
  0
LINE
  8
LAYER_2
 10
-12.7062
 20
186.9264
 11
-17.8167
 21
192.7183
  0
LINE
  8
LAYER_2
 10
-16.5509
 20
191.8694
 11
-17.8222
 21
192.7135
  0
LINE
  8
LAYER_2
 10
-17.8222
 20
192.7135
 11
-17.1428
 21
191.3465
  0
LINE
  8
LAYER_2
 10
-17.1428
 20
191.3465
 11
-16.5509
 21
191.8694
  0
LINE
  8
LAYER_2
 10
-12.7062
 20
186.9264
 11
-2.8629
 21
186.9264
  0
LINE
  8
LAYER_2
  6
AIGENLINE001
 10
67.9784
 20
111.4902
 11
96.1249
 21
111.4902
  0
INSERT
  8
LAYER_2
  2
AIGNBL02010017
 10
0
 20
0
 30
0
  0
LINE
  8
LAYER_2
  6
AIGENLINE001
 10
-19.4055
 20
175.1104
 11
-19.4055
 21
230.2654
  0
LINE
  8
LAYER_2
 10
-20.9889
 20
177.9846
 11
-20.9889
 21
214.2348
  0
LINE
  8
LAYER_2
 10
-17.8222
 20
177.9846
 11
-17.8222
 21
214.2348
  0
LINE
  8
LAYER_2
 10
-22.2388
 20
214.2348
 11
-16.5723
 21
214.2348
  0
LINE
  8
LAYER_2
 10
-22.4055
 20
215.2348
 11
-16.4055
 21
215.2348
  0
LINE
  8
LAYER_2
 10
-22.4055
 20
214.4014
 11
-16.4055
 21
214.4014
  0
LINE
  8
LAYER_2
 10
-22.4055
 20
214.4014
 11
-22.4055
 21
215.2348
  0
LINE
  8
LAYER_2
 10
-16.4055
 20
214.4014
 11
-16.4055
 21
215.2348
  0
LINE
  8
LAYER_2
 10
-16.4055
 20
214.4014
 11
-16.5723
 21
214.2348
  0
LINE
  8
LAYER_2
 10
-22.4055
 20
214.4014
 11
-22.2388
 21
214.2348
  0
LINE
  8
LAYER_2
 10
-21.5718
 20
215.4844
 11
-21.5718
 21
217.7014
  0
LINE
  8
LAYER_2
 10
-17.2386
 20
215.4844
 11
-17.2386
 21
217.7014
  0
LINE
  8
LAYER_2
 10
-17.4053
 20
215.4844
 11
-17.4053
 21
217.7014
  0
LINE
  8
LAYER_2
 10
-21.4057
 20
215.4844
 11
-21.4057
 21
217.7014
  0
ARC
  8
LAYER_2
 10
-19.4055
 20
177.9846
 40
1.5833
 50
270.0012455
 51
359.9987545
  0
ARC
  8
LAYER_2
 10
-19.4055
 20
177.9847
 40
1.5834
 50
180.0019893
 51
270.0016293
  0
INSERT
  8
LAYER_2
  2
AIGNBL02010018
 10
0
 20
0
 30
0
  0
INSERT
  8
LAYER_2
  2
AIGNBL0201001C
 10
0
 20
0
 30
0
  0
ARC
  8
LAYER_2
 10
-19.2676
 20
111.5884
 40
5.1387
 50
181.0913267
 51
250.4274558
  0
ARC
  8
LAYER_2
 10
-19.4054
 20
111.4904
 40
5
 50
89.99963733
 51
179.9992167
  0
ARC
  8
LAYER_2
 10
-19.4053
 20
111.4904
 40
5
 50
0.0008182846405
 51
90.00147353
  0
ARC
  8
LAYER_2
 10
-19.5378
 20
111.5846
 40
5.1333
 50
289.5287699
 51
358.9492664
  0
ARC
  8
LAYER_2
 10
-6.5709
 20
111.3435
 40
5.1677
 50
1.630230333
 51
81.66634544
  0
ARC
  8
LAYER_2
 10
-6.4052
 20
111.4906
 40
4.9999
 50
269.9987997
 51
359.9989084
  0
ARC
  8
LAYER_2
 10
-6.4054
 20
111.4906
 40
4.9999
 50
180.0013176
 51
270.0009743
  0
ARC
  8
LAYER_2
 10
-6.237
 20
111.3411
 40
5.1705
 50
98.36529754
 51
178.344569
  0
LINE
  8
LAYER_2
 10
-24.4056
 20
210.1577
 11
-24.4056
 21
214.7449
  0
LINE
  8
LAYER_2
 10
-14.4055
 20
210.1577
 11
-14.4055
 21
214.7449
  0
LINE
  8
LAYER_2
 10
-15.88
 20
210.4622
 11
-14.4055
 21
210.8577
  0
LINE
  8
LAYER_2
 10
-14.4055
 20
210.8577
 11
-15.88
 21
211.2526
  0
LINE
  8
LAYER_2
 10
-15.88
 20
211.2526
 11
-15.88
 21
210.4622
  0
LINE
  8
LAYER_2
 10
-22.9318
 20
211.2526
 11
-24.4056
 21
210.8577
  0
LINE
  8
LAYER_2
 10
-24.4056
 20
210.8577
 11
-22.9318
 21
210.4622
  0
LINE
  8
LAYER_2
 10
-22.9318
 20
210.4622
 11
-22.9318
 21
211.2526
  0
LINE
  8
LAYER_2
 10
-14.4055
 20
210.8577
 11
-30.8462
 21
210.8577
  0
LINE
  8
LAYER_2
 10
-11.4058
 20
210.1577
 11
-11.4058
 21
214.7449
  0
LINE
  8
LAYER_2
 10
-1.4058
 20
210.1577
 11
-1.4058
 21
214.7449
  0
LINE
  8
LAYER_2
 10
-2.8803
 20
210.4622
 11
-1.4058
 21
210.8577
  0
LINE
  8
LAYER_2
 10
-1.4058
 20
210.8577
 11
-2.8803
 21
211.2526
  0
LINE
  8
LAYER_2
 10
-2.8803
 20
211.2526
 11
-2.8803
 21
210.4622
  0
LINE
  8
LAYER_2
 10
-9.932
 20
211.2526
 11
-11.4058
 21
210.8577
  0
LINE
  8
LAYER_2
 10
-11.4058
 20
210.8577
 11
-9.932
 21
210.4622
  0
LINE
  8
LAYER_2
 10
-9.932
 20
210.4622
 11
-9.932
 21
211.2526
  0
LINE
  8
LAYER_2
 10
4.1291
 20
210.8577
 11
-11.4058
 21
210.8577
  0
INSERT
  8
LAYER_2
  2
AIGNBL0201001D
 10
0
 20
0
 30
0
  0
LINE
  8
LAYER_3
 10
126.9566
 20
57.1559
 11
293.4567
 21
57.1559
  0
LINE
  8
LAYER_3
 10
126.9566
 20
75.5544
 11
290.1597
 21
75.5544
  0
LINE
  8
LAYER_3
 10
126.9566
 20
89.1284
 11
290.1597
 21
89.1284
  0
LINE
  8
LAYER_3
 10
213.4567
 20
37.1557
 11
293.4567
 21
37.1557
  0
LINE
  8
LAYER_3
 10
126.9566
 20
44.6564
 11
213.4567
 21
44.6564
  0
LINE
  8
LAYER_3
 10
126.9566
 20
30.6562
 11
213.4567
 21
30.6562
  0
LINE
  8
LAYER_3
 10
138.4563
 20
30.6562
 11
138.4563
 21
44.6564
  0
LINE
  8
LAYER_3
 10
213.4567
 20
17.1562
 11
213.4567
 21
57.1559
  0
LINE
  8
LAYER_3
 10
126.9566
 20
17.1562
 11
126.9566
 21
57.1559
  0
LINE
  8
LAYER_3
 10
194.4563
 20
30.6562
 11
194.4563
 21
57.1559
  0
LINE
  8
LAYER_3
 10
175.4566
 20
30.6562
 11
175.4566
 21
57.1559
  0
LINE
  8
LAYER_3
 10
293.4567
 20
17.1562
 11
-83.0433
 21
17.1562
  0
LINE
  8
LAYER_3
 10
-83.0433
 20
17.1562
 11
-83.0433
 21
280.1562
  0
LINE
  8
LAYER_3
 10
-83.0433
 20
280.1562
 11
293.4567
 21
280.1562
  0
LINE
  8
LAYER_3
 10
293.4567
 20
280.1562
 11
293.4567
 21
17.1562
  0
TEXT
  8
LAYER_3
 10
153.4949
 20
49.1839
 11
153.4949
 21
49.1839
 40
4.4979
 41
0.5
 72
1
  1
セラトレーディング株式会社
  0
TEXT
  8
LAYER_3
 10
127.9281
 20
40.658
 11
127.9281
 21
40.658
 40
3.0923
 41
0.5
  1
製図
  0
TEXT
  8
LAYER_3
 10
127.9281
 20
26.4587
 11
127.9281
 21
26.4587
 40
3.0923
 41
0.5
  1
備考
  0
TEXT
  8
LAYER_3
 10
139.5463
 20
40.658
 11
139.5463
 21
40.658
 40
3.0923
 41
0.5
  1
検図
  0
TEXT
  8
LAYER_3
 10
176.4998
 20
40.658
 11
176.4998
 21
40.658
 40
3.0923
 41
0.5
  1
日付
  0
TEXT
  8
LAYER_3
 10
169.5094
 20
69.912
 11
169.5094
 21
69.912
 40
3.9357
 41
0.5
  1
（1）水圧は湯水ほぼ同圧、且つ湯圧が水圧より高くならないように設定してください。
  0
TEXT
  8
LAYER_3
 10
169.5094
 20
83.6145
 11
169.5094
 21
83.6145
 40
3.9357
 41
0.5
  1
65℃
  0
LINE
  8
LAYER_3
 10
126.9566
 20
102.7024
 11
290.1597
 21
102.7024
  0
TEXT
  8
LAYER_3
 10
169.5094
 20
97.1886
 11
169.5094
 21
97.1886
 40
3.9357
 41
0.5
  1
1～40℃
  0
TEXT
  8
LAYER_3
 10
169.5094
 20
63.9148
 11
169.5094
 21
63.9148
 40
3.9357
 41
0.5
  1
（2）湯水を逆に配管しないでください。
  0
TEXT
  8
LAYER_3
 10
169.5094
 20
77.6173
 11
169.5094
 21
77.6173
 40
3.9357
 41
0.5
  1
※安全のため給湯温度は60℃以下でのご使用をおすすめします。
  0
TEXT
  8
LAYER_3
 10
169.5094
 20
91.1913
 11
169.5094
 21
91.1913
 40
3.9357
 41
0.5
  1
※寒冷地仕様ではありません、凍結が予想される場合は凍結予防をしてください。
  0
TEXT
  8
LAYER_3
 10
129.4953
 20
69.912
 11
129.4953
 21
69.912
 40
3.9357
 41
0.5
  1
特記事項
  0
TEXT
  8
LAYER_3
 10
129.4953
 20
83.6145
 11
129.4953
 21
83.6145
 40
3.9357
 41
0.5
  1
最高給湯温度
  0
TEXT
  8
LAYER_3
 10
129.4953
 20
97.1886
 11
129.4953
 21
97.1886
 40
3.9357
 41
0.5
  1
使用環境温度
  0
LINE
  8
LAYER_3
 10
145.6397
 20
124.0389
 11
290.1597
 21
124.0389
  0
TEXT
  8
LAYER_3
 10
147.4139
 20
118.5251
 11
147.4139
 21
118.5251
 40
3.9357
 41
0.5
  1
最高水圧
  0
LINE
  8
LAYER_3
 10
126.9566
 20
110.4649
 11
290.1597
 21
110.4649
  0
TEXT
  8
LAYER_3
 10
169.5094
 20
104.8105
 11
169.5094
 21
104.8105
 40
3.9357
 41
0.5
  1
水道水
  0
TEXT
  8
LAYER_3
 10
129.4953
 20
104.8105
 11
129.4953
 21
104.8105
 40
3.9357
 41
0.5
  1
使用可能水質
  0
LINE
  8
LAYER_3
 10
126.9566
 20
131.8014
 11
290.1597
 21
131.8014
  0
TEXT
  8
LAYER_3
 10
169.5094
 20
126.147
 11
169.5094
 21
126.147
 40
3.9357
 41
0.5
  1
0.1MPa（流動圧）
  0
TEXT
  8
LAYER_3
 10
147.4139
 20
126.147
 11
147.4139
 21
126.147
 40
3.9357
 41
0.5
  1
最低必要水圧
  0
LINE
  8
LAYER_3
 10
290.1597
 20
139.5639
 11
126.9566
 21
139.5639
  0
LINE
  8
LAYER_3
 10
126.9566
 20
139.5639
 11
126.9566
 21
61.9804
  0
LINE
  8
LAYER_3
 10
126.9566
 20
61.9804
 11
290.1597
 21
61.9804
  0
LINE
  8
LAYER_3
 10
290.1597
 20
61.9804
 11
290.1597
 21
139.5639
  0
LINE
  8
LAYER_3
 10
166.9707
 20
139.5639
 11
166.9707
 21
61.9804
  0
LINE
  8
LAYER_3
 10
145.6397
 20
131.8014
 11
145.6397
 21
110.4649
  0
TEXT
  8
LAYER_3
 10
169.5094
 20
133.9095
 11
169.5094
 21
133.9095
 40
3.9357
 41
0.5
  1
一般住宅用（屋内用）
  0
TEXT
  8
LAYER_3
 10
129.4953
 20
133.9095
 11
129.4953
 21
133.9095
 40
3.9357
 41
0.5
  1
用途
  0
TEXT
  8
LAYER_3
 10
129.4953
 20
126.147
 11
129.4953
 21
126.147
 40
3.9357
 41
0.5
  1
給水圧力
  0
TEXT
  8
LAYER_3
 10
253.4564
 20
20.3547
 11
253.4564
 21
20.3547
 40
3.9357
 41
0.5
 72
1
  1
VL100XA12R
  0
TEXT
  8
LAYER_3
 10
195.5498
 20
40.658
 11
195.5498
 21
40.658
 40
3.0923
 41
0.5
  1
尺度
  0
TEXT
  8
LAYER_3
 10
195.5498
 20
53.0652
 11
195.5498
 21
53.0652
 40
3.0923
 41
0.5
  1
単位
  0
TEXT
  8
LAYER_3
 10
203.2744
 20
48.0691
 11
203.2744
 21
48.0691
 40
3.6546
 41
0.5
 72
1
  1
mm
  0
TEXT
  8
LAYER_3
 10
214.5116
 20
53.0652
 11
214.5116
 21
53.0652
 40
3.0923
 41
0.5
  1
名称
  0
TEXT
  8
LAYER_3
 10
214.5116
 20
32.9265
 11
214.5116
 21
32.9265
 40
3.0923
 41
0.5
  1
品番
  0
LINE
  8
LAYER_3
 10
213.4567
 20
27.156
 11
293.4567
 21
27.156
  0
TEXT
  8
LAYER_3
 10
214.5116
 20
22.9268
 11
214.5116
 21
22.9268
 40
3.0923
 41
0.5
  1
図番
  0
INSERT
  8
LAYER_3
  2
AIGNBL03010002
 10
0
 20
0
 30
0
  0
LINE
  8
LAYER_3
 10
-83.0433
 20
148.6576
 11
-104.7936
 21
148.6576
  0
LINE
  8
LAYER_3
 10
105.2067
 20
297.1763
 11
105.2067
 21
280.1562
  0
LINE
  8
LAYER_3
 10
105.2067
 20
17.1562
 11
105.2067
 21
0.176
  0
LINE
  8
LAYER_3
 10
315.2069
 20
148.6576
 11
293.4567
 21
148.6576
  0
TEXT
  8
LAYER_3
 10
134.4938
 20
21.9546
 11
134.4938
 21
21.9546
 40
3.9357
 41
0.5
  1
（社）日本水道協会認証品
  0
TEXT
  8
LAYER_3
 10
293.4567
 20
12.8082
 11
293.4567
 21
12.8082
 40
3.3734
 41
0.5
 72
2
  1
A3
  0
TEXT
  8
LAYER_3
 10
132.6465
 20
34.8502
 11
132.6465
 21
34.8502
 40
3.6546
 41
0.5
 72
1
  1
恋塚
  0
TEXT
  8
LAYER_3
 10
151.2204
 20
34.8502
 11
151.2204
 21
34.8502
 40
3.6546
 41
0.5
 72
1
  1
井田
  0
TEXT
  8
LAYER_3
 10
253.4564
 20
30.3551
 11
253.4564
 21
30.3551
 40
3.9357
 41
0.5
 72
1
  1
図中の表参照
  0
TEXT
  8
LAYER_3
 10
203.8663
 20
34.4651
 11
203.8663
 21
34.4651
 40
3.6546
 41
0.5
 72
1
  1
1 ： 6
  0
TEXT
  8
LAYER_3
 10
219.0853
 20
45.4728
 11
219.0853
 21
45.4728
 40
3.9357
 41
0.5
  1
ボラ 湯水混合水栓（右ハンドル）
  0
LINE
  8
LAYER_3
 10
237.2279
 20
273.1563
 11
293.4567
 21
273.1563
  0
LINE
  8
LAYER_3
 10
237.2279
 20
266.1564
 11
293.4567
 21
266.1564
  0
LINE
  8
LAYER_3
 10
237.2279
 20
259.1564
 11
293.4567
 21
259.1564
  0
LINE
  8
LAYER_3
 10
237.2279
 20
238.1568
 11
293.4567
 21
238.1568
  0
TEXT
  8
LAYER_3
 10
246.6509
 20
275.3071
 11
246.6509
 21
275.3071
 40
3.3734
 41
0.5
 72
1
  1
品番
  0
TEXT
  8
LAYER_3
 10
259.7809
 20
268.3071
 11
259.7809
 21
268.3071
 40
3.3734
 41
0.5
 72
1
  1
1
  0
TEXT
  8
LAYER_3
 10
259.7809
 20
261.3072
 11
259.7809
 21
261.3072
 40
3.3734
 41
0.5
 72
1
  1
1
  0
TEXT
  8
LAYER_3
 10
259.7809
 20
240.3073
 11
259.7809
 21
240.3073
 40
3.3734
 41
0.5
 72
1
  1
1
  0
TEXT
  8
LAYER_3
 10
246.6509
 20
268.3071
 11
246.6509
 21
268.3071
 40
3.3734
 41
0.5
 72
1
  1
VL100XA
  0
TEXT
  8
LAYER_3
 10
246.6509
 20
261.3072
 11
246.6509
 21
261.3072
 40
3.3734
 41
0.5
 72
1
  1
VL028
  0
TEXT
  8
LAYER_3
 10
278.2073
 20
275.3071
 11
278.2073
 21
275.3071
 40
3.3734
 41
0.5
 72
1
  1
名称
  0
TEXT
  8
LAYER_3
 10
278.2073
 20
268.307
 11
278.2073
 21
268.307
 40
3.3734
 41
0.5
 72
1
  1
埋込形湯水混合水栓
  0
TEXT
  8
LAYER_3
 10
279.3682
 20
261.307
 11
279.3682
 21
261.307
 40
3.3734
 41
0.5
 72
1
  1
シングルレバーハンドル
  0
LINE
  8
LAYER_3
 10
237.2279
 20
252.1565
 11
293.4567
 21
252.1565
  0
TEXT
  8
LAYER_3
 10
259.7809
 20
254.3073
 11
259.7809
 21
254.3073
 40
3.3734
 41
0.5
 72
1
  1
1
  0
TEXT
  8
LAYER_3
 10
246.6509
 20
254.3073
 11
246.6509
 21
254.3073
 40
3.3734
 41
0.5
 72
1
  1
VL3001
  0
TEXT
  8
LAYER_3
 10
278.2073
 20
254.3071
 11
278.2073
 21
254.3071
 40
3.3734
 41
0.5
 72
1
  1
台座
  0
LINE
  8
LAYER_3
 10
237.2279
 20
245.1566
 11
293.4567
 21
245.1566
  0
TEXT
  8
LAYER_3
 10
259.7809
 20
247.3074
 11
259.7809
 21
247.3074
 40
3.3734
 41
0.5
 72
1
  1
1
  0
TEXT
  8
LAYER_3
 10
246.6509
 20
247.3074
 11
246.6509
 21
247.3074
 40
3.3734
 41
0.5
 72
1
  1
VL001R
  0
TEXT
  8
LAYER_3
 10
278.2073
 20
247.3072
 11
278.2073
 21
247.3072
 40
3.3734
 41
0.5
 72
1
  1
台座
  0
TEXT
  8
LAYER_3
 10
246.6509
 20
240.3073
 11
246.6509
 21
240.3073
 40
3.3734
 41
0.5
 72
1
  1
VL020R
  0
TEXT
  8
LAYER_3
 10
238.5343
 20
232.7489
 11
238.5343
 21
232.7489
 40
3.3734
 41
0.5
  1
注：色番号はカタログを参照ください
  0
TEXT
  8
LAYER_3
 10
279.2822
 20
240.3075
 11
279.2822
 21
240.3075
 40
3.3734
 41
0.5
 72
1
  1
スパウト
  0
LINE
  8
LAYER_3
 10
263.0723
 20
280.1562
 11
263.0723
 21
238.1567
  0
LINE
  8
LAYER_3
 10
256.4198
 20
280.1562
 11
256.4198
 21
238.1567
  0
LINE
  8
LAYER_3
 10
237.2279
 20
280.1562
 11
237.2279
 21
238.1567
  0
TEXT
  8
LAYER_3
 10
259.7809
 20
275.3071
 11
259.7809
 21
275.3071
 40
3.3734
 41
0.5
 72
1
  1
数
  0
TEXT
  8
LAYER_3
 10
169.5094
 20
118.5251
 11
169.5094
 21
118.5251
 40
3.9357
 41
0.5
  1
0.5MPa（静水圧）
  0
TEXT
  8
LAYER_3
 10
169.5094
 20
112.4448
 11
169.5094
 21
112.4448
 40
3.9357
 41
0.5
  1
※快適にお使いいただくためには、0.2～0.3MPa程度の圧力をおすすめします。
  0
TEXT
  8
LAYER_3
 10
177.6925
 20
34.4651
 11
177.6925
 21
34.4651
 40
3.6546
 41
0.5
  1
23.02.23
  0
ENDSEC
  0
EOF
