  0
SECTION
  2
HEADER
  9
$ACADVER
  1
AC1015
  9
$ACADMAINTVER
 70
     6
  9
$DWGCODEPAGE
  3
ANSI_932
  9
$INSBASE
 10
0.0
 20
0.0
 30
0.0
  9
$EXTMIN
 10
-4.70052
 20
-21.0714
 30
0.0
  9
$EXTMAX
 10
205.301
 20
275.9309999999999
 30
0.0
  9
$LIMMIN
 10
0.0
 20
0.0
  9
$LIMMAX
 10
12.0
 20
9.0
  9
$ORTHOMODE
 70
     0
  9
$REGENMODE
 70
     1
  9
$FILLMODE
 70
     1
  9
$QTEXTMODE
 70
     0
  9
$MIRRTEXT
 70
     1
  9
$LTSCALE
 40
1.0
  9
$ATTMODE
 70
     1
  9
$TEXTSIZE
 40
0.0
  9
$TRACEWID
 40
0.05
  9
$TEXTSTYLE
  7
STANDARD
  9
$CLAYER
  8
0
  9
$CELTYPE
  6
CONTINUOUS
  9
$CECOLOR
 62
   256
  9
$CELTSCALE
 40
1.0
  9
$DISPSILH
 70
     0
  9
$DIMSCALE
 40
1.0
  9
$DIMASZ
 40
0.18
  9
$DIMEXO
 40
0.0625
  9
$DIMDLI
 40
0.38
  9
$DIMRND
 40
0.0
  9
$DIMDLE
 40
0.0
  9
$DIMEXE
 40
0.18
  9
$DIMTP
 40
0.0
  9
$DIMTM
 40
0.0
  9
$DIMTXT
 40
0.18
  9
$DIMCEN
 40
0.09
  9
$DIMTSZ
 40
0.0
  9
$DIMTOL
 70
     0
  9
$DIMLIM
 70
     0
  9
$DIMTIH
 70
     1
  9
$DIMTOH
 70
     1
  9
$DIMSE1
 70
     0
  9
$DIMSE2
 70
     0
  9
$DIMTAD
 70
     0
  9
$DIMZIN
 70
     0
  9
$DIMBLK
  1

  9
$DIMASO
 70
     1
  9
$DIMSHO
 70
     1
  9
$DIMPOST
  1

  9
$DIMAPOST
  1

  9
$DIMALT
 70
     0
  9
$DIMALTD
 70
     2
  9
$DIMALTF
 40
25.4
  9
$DIMLFAC
 40
1.0
  9
$DIMTOFL
 70
     0
  9
$DIMTVP
 40
0.0
  9
$DIMTIX
 70
     0
  9
$DIMSOXD
 70
     0
  9
$DIMSAH
 70
     0
  9
$DIMBLK1
  1

  9
$DIMBLK2
  1

  9
$DIMSTYLE
  2
STANDARD
  9
$DIMCLRD
 70
     0
  9
$DIMCLRE
 70
     0
  9
$DIMCLRT
 70
     0
  9
$DIMTFAC
 40
1.0
  9
$DIMGAP
 40
0.09
  9
$DIMJUST
 70
     0
  9
$DIMSD1
 70
     0
  9
$DIMSD2
 70
     0
  9
$DIMTOLJ
 70
     1
  9
$DIMTZIN
 70
     0
  9
$DIMALTZ
 70
     0
  9
$DIMALTTZ
 70
     0
  9
$DIMUPT
 70
     0
  9
$DIMDEC
 70
     4
  9
$DIMTDEC
 70
     4
  9
$DIMALTU
 70
     2
  9
$DIMALTTD
 70
     2
  9
$DIMTXSTY
  7
STANDARD
  9
$DIMAUNIT
 70
     0
  9
$DIMADEC
 70
     0
  9
$DIMALTRND
 40
0.0
  9
$DIMAZIN
 70
     0
  9
$DIMDSEP
 70
    46
  9
$DIMATFIT
 70
     3
  9
$DIMFRAC
 70
     0
  9
$DIMLDRBLK
  1

  9
$DIMLUNIT
 70
     2
  9
$DIMLWD
 70
    -2
  9
$DIMLWE
 70
    -2
  9
$DIMTMOVE
 70
     0
  9
$LUNITS
 70
     2
  9
$LUPREC
 70
     4
  9
$SKETCHINC
 40
0.1
  9
$FILLETRAD
 40
0.0
  9
$AUNITS
 70
     0
  9
$AUPREC
 70
     0
  9
$MENU
  1
.
  9
$ELEVATION
 40
0.0
  9
$PELEVATION
 40
0.0
  9
$THICKNESS
 40
0.0
  9
$LIMCHECK
 70
     0
  9
$CHAMFERA
 40
0.0
  9
$CHAMFERB
 40
0.0
  9
$CHAMFERC
 40
0.0
  9
$CHAMFERD
 40
0.0
  9
$SKPOLY
 70
     0
  9
$TDCREATE
 40
2444972.375000000
  9
$TDUCREATE
 40
2444972.000000000
  9
$TDUPDATE
 40
2455352.553905254
  9
$TDUUPDATE
 40
2455352.178905254
  9
$TDINDWG
 40
0.0015223843
  9
$TDUSRTIMER
 40
0.0015223843
  9
$USRTIMER
 70
     1
  9
$ANGBASE
 50
0.0
  9
$ANGDIR
 70
     0
  9
$PDMODE
 70
     0
  9
$PDSIZE
 40
0.0
  9
$PLINEWID
 40
0.0
  9
$SPLFRAME
 70
     0
  9
$SPLINETYPE
 70
     6
  9
$SPLINESEGS
 70
     8
  9
$HANDSEED
  5
41C
  9
$SURFTAB1
 70
     6
  9
$SURFTAB2
 70
     6
  9
$SURFTYPE
 70
     6
  9
$SURFU
 70
     6
  9
$SURFV
 70
     6
  9
$UCSBASE
  2

  9
$UCSNAME
  2

  9
$UCSORG
 10
0.0
 20
0.0
 30
0.0
  9
$UCSXDIR
 10
1.0
 20
0.0
 30
0.0
  9
$UCSYDIR
 10
0.0
 20
1.0
 30
0.0
  9
$UCSORTHOREF
  2

  9
$UCSORTHOVIEW
 70
     0
  9
$UCSORGTOP
 10
0.0
 20
0.0
 30
0.0
  9
$UCSORGBOTTOM
 10
0.0
 20
0.0
 30
0.0
  9
$UCSORGLEFT
 10
0.0
 20
0.0
 30
0.0
  9
$UCSORGRIGHT
 10
0.0
 20
0.0
 30
0.0
  9
$UCSORGFRONT
 10
0.0
 20
0.0
 30
0.0
  9
$UCSORGBACK
 10
0.0
 20
0.0
 30
0.0
  9
$PUCSBASE
  2

  9
$PUCSNAME
  2

  9
$PUCSORG
 10
0.0
 20
0.0
 30
0.0
  9
$PUCSXDIR
 10
1.0
 20
0.0
 30
0.0
  9
$PUCSYDIR
 10
0.0
 20
1.0
 30
0.0
  9
$PUCSORTHOREF
  2

  9
$PUCSORTHOVIEW
 70
     0
  9
$PUCSORGTOP
 10
0.0
 20
0.0
 30
0.0
  9
$PUCSORGBOTTOM
 10
0.0
 20
0.0
 30
0.0
  9
$PUCSORGLEFT
 10
0.0
 20
0.0
 30
0.0
  9
$PUCSORGRIGHT
 10
0.0
 20
0.0
 30
0.0
  9
$PUCSORGFRONT
 10
0.0
 20
0.0
 30
0.0
  9
$PUCSORGBACK
 10
0.0
 20
0.0
 30
0.0
  9
$USERI1
 70
     0
  9
$USERI2
 70
     0
  9
$USERI3
 70
     0
  9
$USERI4
 70
     0
  9
$USERI5
 70
     0
  9
$USERR1
 40
0.0
  9
$USERR2
 40
0.0
  9
$USERR3
 40
0.0
  9
$USERR4
 40
0.0
  9
$USERR5
 40
0.0
  9
$WORLDVIEW
 70
     1
  9
$SHADEDGE
 70
     3
  9
$SHADEDIF
 70
    70
  9
$TILEMODE
 70
     1
  9
$MAXACTVP
 70
    48
  9
$PINSBASE
 10
0.0
 20
0.0
 30
0.0
  9
$PLIMCHECK
 70
     0
  9
$PEXTMIN
 10
1.000000000000000E+20
 20
1.000000000000000E+20
 30
1.000000000000000E+20
  9
$PEXTMAX
 10
-1.000000000000000E+20
 20
-1.000000000000000E+20
 30
-1.000000000000000E+20
  9
$PLIMMIN
 10
0.0
 20
0.0
  9
$PLIMMAX
 10
12.0
 20
9.0
  9
$UNITMODE
 70
     0
  9
$VISRETAIN
 70
     1
  9
$PLINEGEN
 70
     0
  9
$PSLTSCALE
 70
     1
  9
$TREEDEPTH
 70
  3020
  9
$CMLSTYLE
  2
STANDARD
  9
$CMLJUST
 70
     0
  9
$CMLSCALE
 40
1.0
  9
$PROXYGRAPHICS
 70
     1
  9
$MEASUREMENT
 70
     0
  9
$CELWEIGHT
370
    -1
  9
$ENDCAPS
280
     0
  9
$JOINSTYLE
280
     0
  9
$LWDISPLAY
290
     0
  9
$INSUNITS
 70
     0
  9
$HYPERLINKBASE
  1

  9
$STYLESHEET
  1

  9
$XEDIT
290
     1
  9
$CEPSNTYPE
380
     0
  9
$PSTYLEMODE
290
     1
  9
$FINGERPRINTGUID
  2
{F3E3CEC0-9D7B-4DB0-B399-2957840AEFE3}
  9
$VERSIONGUID
  2
{72F6848E-626C-478D-ACAA-902AADC48875}
  9
$EXTNAMES
290
     1
  9
$PSVPSCALE
 40
0.0
  9
$OLESTARTUP
290
     0
  0
ENDSEC
  0
SECTION
  2
CLASSES
  0
CLASS
  1
ACDBDICTIONARYWDFLT
  2
AcDbDictionaryWithDefault
  3
AutoCAD 2000
 90
        0
280
     0
281
     0
  0
CLASS
  1
ACDBPLACEHOLDER
  2
AcDbPlaceHolder
  3
AutoCAD 2000
 90
        0
280
     0
281
     0
  0
CLASS
  1
LAYOUT
  2
AcDbLayout
  3
AutoCAD 2000
 90
        0
280
     0
281
     0
  0
ENDSEC
  0
SECTION
  2
TABLES
  0
TABLE
  2
VPORT
  5
8
330
0
100
AcDbSymbolTable
 70
     2
  0
VPORT
  5
41B
330
8
100
AcDbSymbolTableRecord
100
AcDbViewportTableRecord
  2
*Active
 70
     0
 10
0.0
 20
0.0
 11
1.0
 21
1.0
 12
100.3002404889478
 22
132.1237254067399
 13
0.0
 23
0.0
 14
1.0
 24
1.0
 15
0.0
 25
0.0
 16
0.0
 26
0.0
 36
1.0
 17
0.0
 27
0.0
 37
0.0
 40
308.3173718521329
 41
1.87012987012987
 42
50.0
 43
0.0
 44
0.0
 50
0.0
 51
0.0
 71
     0
 72
   100
 73
     1
 74
     1
 75
     0
 76
     0
 77
     0
 78
     0
281
     0
 65
     1
110
0.0
120
0.0
130
0.0
111
1.0
121
0.0
131
0.0
112
0.0
122
1.0
132
0.0
 79
     0
146
0.0
  0
ENDTAB
  0
TABLE
  2
LTYPE
  5
5
330
0
100
AcDbSymbolTable
 70
     3
  0
LTYPE
  5
12
330
5
100
AcDbSymbolTableRecord
100
AcDbLinetypeTableRecord
  2
BYBLOCK
 70
     0
  3

 72
    65
 73
     0
 40
0.0
  0
LTYPE
  5
13
330
5
100
AcDbSymbolTableRecord
100
AcDbLinetypeTableRecord
  2
BYLAYER
 70
     0
  3

 72
    65
 73
     0
 40
0.0
  0
LTYPE
  5
14
330
5
100
AcDbSymbolTableRecord
100
AcDbLinetypeTableRecord
  2
CONTINUOUS
 70
     0
  3
Solid line
 72
    65
 73
     0
 40
0.0
  0
LTYPE
  5
1F
330
5
100
AcDbSymbolTableRecord
100
AcDbLinetypeTableRecord
  2
AIGENLINE001
 70
     0
  3
generate AI->DXF Converter
 72
    65
 73
     4
 40
5.856144999999999
 49
3.5278
 74
     0
 49
-0.776115
 74
     0
 49
0.776115
 74
     0
 49
-0.776115
 74
     0
  0
LTYPE
  5
20
330
5
100
AcDbSymbolTableRecord
100
AcDbLinetypeTableRecord
  2
AIGENLINE002
 70
     0
  3
generate AI->DXF Converter
 72
    65
 73
     6
 40
7.408375
 49
3.5278
 74
     0
 49
-0.776115
 74
     0
 49
0.776115
 74
     0
 49
-0.776115
 74
     0
 49
0.776115
 74
     0
 49
-0.776115
 74
     0
  0
ENDTAB
  0
TABLE
  2
LAYER
  5
2
330
0
100
AcDbSymbolTable
 70
     2
  0
LAYER
  5
E
330
2
100
AcDbSymbolTableRecord
100
AcDbLayerTableRecord
  2
0
 70
     0
 62
     7
  6
CONTINUOUS
370
    -3
390
40C
  0
LAYER
  5
21
330
2
100
AcDbSymbolTableRecord
100
AcDbLayerTableRecord
  2
_________2
 70
     0
 62
     7
  6
CONTINUOUS
370
    -3
390
40C
  0
ENDTAB
  0
TABLE
  2
STYLE
  5
3
330
0
100
AcDbSymbolTable
 70
     1
  0
STYLE
  5
F
330
3
100
AcDbSymbolTableRecord
100
AcDbTextStyleTableRecord
  2
STANDARD
 70
     0
 40
0.0
 41
0.0
 50
0.0
 71
     0
 42
0.0
  3
TXT
  4
BIGFONT
  0
ENDTAB
  0
TABLE
  2
VIEW
  5
6
330
0
100
AcDbSymbolTable
 70
     0
  0
ENDTAB
  0
TABLE
  2
UCS
  5
7
330
0
100
AcDbSymbolTable
 70
     0
  0
ENDTAB
  0
TABLE
  2
APPID
  5
9
330
0
100
AcDbSymbolTable
 70
     1
  0
APPID
  5
10
330
9
100
AcDbSymbolTableRecord
100
AcDbRegAppTableRecord
  2
ACAD
 70
     0
  0
ENDTAB
  0
TABLE
  2
DIMSTYLE
  5
A
330
0
100
AcDbSymbolTable
 70
     1
100
AcDbDimStyleTable
 71
     0
  0
DIMSTYLE
105
408
330
A
100
AcDbSymbolTableRecord
100
AcDbDimStyleTableRecord
  2
STANDARD
 70
     0
340
F
  0
ENDTAB
  0
TABLE
  2
BLOCK_RECORD
  5
1
330
0
100
AcDbSymbolTable
 70
     0
  0
BLOCK_RECORD
  5
18
330
1
100
AcDbSymbolTableRecord
100
AcDbBlockTableRecord
  2
*MODEL_SPACE
340
40F
  0
BLOCK_RECORD
  5
15
330
1
100
AcDbSymbolTableRecord
100
AcDbBlockTableRecord
  2
*PAPER_SPACE
340
410
  0
ENDTAB
  0
ENDSEC
  0
SECTION
  2
BLOCKS
  0
BLOCK
  5
19
330
18
100
AcDbEntity
  8
0
100
AcDbBlockBegin
  2
*MODEL_SPACE
 70
     0
 10
0.0
 20
0.0
 30
0.0
  3
*MODEL_SPACE
  1

  0
ENDBLK
  5
1A
330
18
100
AcDbEntity
  8
0
100
AcDbBlockEnd
  0
BLOCK
  5
16
330
15
100
AcDbEntity
 67
     1
  8
0
100
AcDbBlockBegin
  2
*PAPER_SPACE
 70
     0
 10
0.0
 20
0.0
 30
0.0
  3
*PAPER_SPACE
  1

  0
ENDBLK
  5
17
330
15
100
AcDbEntity
 67
     1
  8
0
100
AcDbBlockEnd
  0
ENDSEC
  0
SECTION
  2
ENTITIES
  0
TEXT
  5
23
330
18
100
AcDbEntity
  8
0
100
AcDbText
 10
92.23615500000001
 20
122.7979999999999
 30
0.0
 40
3.09234
  1
158.5
 41
0.5
 72
     1
 11
95.0708
 21
122.7979999999999
 31
0.0
100
AcDbText
  0
TEXT
  5
24
330
18
100
AcDbEntity
  8
0
100
AcDbText
 10
72.47806
 20
128.924
 30
0.0
 40
3.09234
  1
392.5
 41
0.5
 72
     1
 11
75.5704
 21
128.924
 31
0.0
100
AcDbText
  0
TEXT
  5
25
330
18
100
AcDbEntity
  8
0
100
AcDbText
 10
74.073825
 20
122.7979999999999
 30
0.0
 40
3.09234
  1
78
 41
0.5
 72
     1
 11
75.3623
 21
122.7979999999999
 31
0.0
100
AcDbText
  0
TEXT
  5
26
330
18
100
AcDbEntity
  8
0
100
AcDbText
 10
54.05833499999999
 20
122.7979999999999
 30
0.0
 40
3.09234
  1
156
 41
0.5
 72
     1
 11
55.8622
 21
122.7979999999999
 31
0.0
100
AcDbText
  0
TEXT
  5
27
330
18
100
AcDbEntity
  8
0
100
AcDbText
 10
38.42629999999999
 20
101.151745
 30
0.0
 40
3.09234
  1
55.5
 50
90.0
 41
0.5
 72
     1
 11
38.42629999999999
 21
103.471
 31
0.0
100
AcDbText
  0
TEXT
  5
28
330
18
100
AcDbEntity
  8
0
100
AcDbText
 10
33.8359
 20
106.8075249999999
 30
0.0
 40
3.09234
  1
95
 50
90.0
 41
0.5
 72
     1
 11
33.8359
 21
108.096
 31
0.0
100
AcDbText
  0
TEXT
  5
29
330
18
100
AcDbEntity
  8
0
100
AcDbText
 10
29.238
 20
105.7539825
 30
0.0
 40
3.09234
  1
103
 50
90.0
 41
0.5
 72
     1
 11
29.238
 21
107.4289999999999
 31
0.0
100
AcDbText
  0
TEXT
  5
2A
330
18
100
AcDbEntity
  8
0
100
AcDbText
 10
167.119696
 20
92.03979999999999
 30
0.0
 40
3.09234
  1
25～51
 41
0.5
 72
     2
 11
174.129
 21
92.03979999999999
 31
0.0
100
AcDbText
  0
TEXT
  5
2B
330
18
100
AcDbEntity
  8
0
100
AcDbText
 10
72.130498
 20
93.46810000000001
 30
0.0
 40
3.09234
  1
G 1/2
 41
0.5
 72
     2
 11
78.2121
 21
93.46810000000001
 31
0.0
100
AcDbText
  0
TEXT
  5
2C
330
18
100
AcDbEntity
  8
0
100
AcDbText
 10
34.8487
 20
175.609
 30
0.0
 40
3.09234
  1
2.5
 50
90.0
 41
0.5
100
AcDbText
  0
TEXT
  5
2D
330
18
100
AcDbEntity
  8
0
100
AcDbText
 10
115.1839999999999
 20
183.3028054999999
 30
0.0
 40
3.09234
  1
75～101
 50
90.0
 41
0.5
 72
     1
 11
115.1839999999999
 21
187.194
 31
0.0
100
AcDbText
  0
TEXT
  5
2E
330
18
100
AcDbEntity
  8
0
100
AcDbText
 10
34.8487
 20
186.3803725
 30
0.0
 40
3.09234
  1
70
 50
90.0
 41
0.5
 72
     1
 11
34.8487
 21
187.5399999999999
 31
0.0
100
AcDbText
  0
TEXT
  5
2F
330
18
100
AcDbEntity
  8
0
100
AcDbText
 10
46.167645
 20
200.653
 30
0.0
 40
3.09234
  1
67.5
 41
0.5
 72
     1
 11
48.4869
 21
200.653
 31
0.0
100
AcDbText
  0
TEXT
  5
30
330
18
100
AcDbEntity
  8
0
100
AcDbText
 10
73.84608750000001
 20
200.653
 30
0.0
 40
3.09234
  1
260
 41
0.5
 72
     1
 11
75.7788
 21
200.653
 31
0.0
100
AcDbText
  0
TEXT
  5
31
330
18
100
AcDbEntity
  8
0
100
AcDbText
 10
146.2272699999999
 20
77.8917
 30
0.0
 40
3.09234
  1
max.15
 41
0.5
 72
     1
 11
149.835
 21
77.8917
 31
0.0
100
AcDbText
  0
TEXT
  5
32
330
18
100
AcDbEntity
  8
0
100
AcDbText
 10
125.4436831370081
 20
175.262
 30
0.0
 40
3.09234
  1
壁仕上厚：max.15
 41
0.5
 72
     2
 11
141.9361631370082
 21
175.262
 31
0.0
100
AcDbText
  0
TEXT
  5
33
330
18
100
AcDbEntity
  8
0
100
AcDbText
 10
101.573525
 20
200.653
 30
0.0
 40
3.09234
  1
65
 41
0.5
 72
     1
 11
102.862
 21
200.653
 31
0.0
100
AcDbText
  0
TEXT
  5
34
330
18
100
AcDbEntity
  8
0
100
AcDbText
 10
138.7359999999999
 20
112.73127
 30
0.0
 40
3.09234
  1
%%c19
 50
90.0
 41
0.5
 72
     2
 11
138.7359999999999
 21
116.3389999999999
 31
0.0
100
AcDbText
  0
TEXT
  5
35
330
18
100
AcDbEntity
  8
0
100
AcDbText
 10
116.3379999999999
 20
101.1595249999999
 30
0.0
 40
3.09234
  1
67
 50
90.0
 41
0.5
 72
     1
 11
116.3379999999999
 21
102.448
 31
0.0
100
AcDbText
  0
TEXT
  5
36
330
18
100
AcDbEntity
  8
0
100
AcDbText
 10
153.8748054999999
 20
85.35070000000001
 30
0.0
 40
3.09234
  1
75～101
 41
0.5
 72
     1
 11
157.7659999999999
 21
85.35070000000001
 31
0.0
100
AcDbText
  0
TEXT
  5
37
330
18
100
AcDbEntity
  8
0
100
AcDbText
 10
134.5599825
 20
85.35070000000001
 30
0.0
 40
3.09234
  1
160
 41
0.5
 72
     1
 11
136.235
 21
85.35070000000001
 31
0.0
100
AcDbText
  0
TEXT
  5
38
330
18
100
AcDbEntity
  8
0
100
AcDbText
 10
90.17874
 20
161.706
 30
0.0
 40
3.09234
  1
VL.001
 41
0.5
 72
     2
 11
97.3942
 21
161.706
 31
0.0
100
AcDbText
  0
TEXT
  5
39
330
18
100
AcDbEntity
  8
0
100
AcDbText
 10
62.0133
 20
161.706
 30
0.0
 40
3.09234
  1
VL.001
 41
0.5
100
AcDbText
  0
TEXT
  5
3A
330
18
100
AcDbEntity
  8
0
100
AcDbText
 10
51.7412
 20
208.542
 30
0.0
 40
3.09234
  1
VL.900R
 41
0.5
100
AcDbText
  0
TEXT
  5
3B
330
18
100
AcDbEntity
  8
0
100
AcDbText
 10
51.1944
 20
167.2859999999999
 30
0.0
 40
3.09234
  1
VL.017
 41
0.5
100
AcDbText
  0
TEXT
  5
3C
330
18
100
AcDbEntity
  8
0
100
AcDbText
 10
91.53883999999999
 20
152.3479999999999
 30
0.0
 40
3.09234
  1
VL.010
 41
0.5
 72
     2
 11
98.75430000000001
 21
152.3479999999999
 31
0.0
100
AcDbText
  0
TEXT
  5
3D
330
18
100
AcDbEntity
  8
0
100
AcDbText
 10
55.1143
 20
175.0567237371797
 30
0.0
 40
3.09234
  1
%%c60
 41
0.5
100
AcDbText
  0
LINE
  5
3E
330
18
100
AcDbEntity
  8
0
100
AcDbLine
 10
83.33669999999999
 20
122.4939999999999
 30
0.0
 11
81.8622
 21
122.0979999999999
 31
0.0
  0
LINE
  5
3F
330
18
100
AcDbEntity
  8
0
100
AcDbLine
 10
81.8622
 20
122.0979999999999
 30
0.0
 11
83.33669999999999
 21
121.7029999999999
 31
0.0
  0
LINE
  5
40
330
18
100
AcDbEntity
  8
0
100
AcDbLine
 10
83.33669999999999
 20
121.7029999999999
 30
0.0
 11
83.33669999999999
 21
122.4939999999999
 31
0.0
  0
LINE
  5
41
330
18
100
AcDbEntity
  8
0
100
AcDbLine
 10
80.388
 20
121.7029999999999
 30
0.0
 11
81.8622
 21
122.0979999999999
 31
0.0
  0
LINE
  5
42
330
18
100
AcDbEntity
  8
0
100
AcDbLine
 10
81.8622
 20
122.0979999999999
 30
0.0
 11
80.388
 21
122.4939999999999
 31
0.0
  0
LINE
  5
43
330
18
100
AcDbEntity
  8
0
100
AcDbLine
 10
80.388
 20
122.4939999999999
 30
0.0
 11
80.388
 21
121.7029999999999
 31
0.0
  0
LINE
  5
44
330
18
100
AcDbEntity
  8
0
100
AcDbLine
 10
70.3365
 20
122.4939999999999
 30
0.0
 11
68.86199999999999
 21
122.0979999999999
 31
0.0
  0
LINE
  5
45
330
18
100
AcDbEntity
  8
0
100
AcDbLine
 10
68.86199999999999
 20
122.0979999999999
 30
0.0
 11
70.3365
 21
121.7029999999999
 31
0.0
  0
LINE
  5
46
330
18
100
AcDbEntity
  8
0
100
AcDbLine
 10
70.3365
 20
121.7029999999999
 30
0.0
 11
70.3365
 21
122.4939999999999
 31
0.0
  0
LINE
  5
47
330
18
100
AcDbEntity
  8
0
100
AcDbLine
 10
67.3879
 20
121.7029999999999
 30
0.0
 11
68.86199999999999
 21
122.0979999999999
 31
0.0
  0
LINE
  5
48
330
18
100
AcDbEntity
  8
0
100
AcDbLine
 10
68.86199999999999
 20
122.0979999999999
 30
0.0
 11
67.3879
 21
122.4939999999999
 31
0.0
  0
LINE
  5
49
330
18
100
AcDbEntity
  8
0
100
AcDbLine
 10
67.3879
 20
122.4939999999999
 30
0.0
 11
67.3879
 21
121.7029999999999
 31
0.0
  0
LINE
  5
4A
330
18
100
AcDbEntity
  8
0
100
AcDbLine
 10
44.33659999999999
 20
128.6189999999999
 30
0.0
 11
42.86209999999999
 21
128.2229999999999
 31
0.0
  0
LINE
  5
4B
330
18
100
AcDbEntity
  8
0
100
AcDbLine
 10
42.86209999999999
 20
128.2229999999999
 30
0.0
 11
44.33659999999999
 21
127.8289999999999
 31
0.0
  0
LINE
  5
4C
330
18
100
AcDbEntity
  8
0
100
AcDbLine
 10
44.33659999999999
 20
127.8289999999999
 30
0.0
 11
44.33659999999999
 21
128.6189999999999
 31
0.0
  0
LINE
  5
4D
330
18
100
AcDbEntity
  8
0
100
AcDbLine
 10
106.804
 20
127.8359999999999
 30
0.0
 11
108.2789999999999
 21
128.231
 31
0.0
  0
LINE
  5
4E
330
18
100
AcDbEntity
  8
0
100
AcDbLine
 10
108.2789999999999
 20
128.231
 30
0.0
 11
106.804
 21
128.626
 31
0.0
  0
LINE
  5
4F
330
18
100
AcDbEntity
  8
0
100
AcDbLine
 10
106.804
 20
128.626
 30
0.0
 11
106.804
 21
127.8359999999999
 31
0.0
  0
LINE
  5
50
330
18
100
AcDbEntity
  8
0
100
AcDbLine
 10
42.86209999999999
 20
128.2229999999999
 30
0.0
 11
108.2789999999999
 21
128.2229999999999
 31
0.0
  0
LINE
  5
51
330
18
100
AcDbEntity
  8
0
100
AcDbLine
 10
44.33659999999999
 20
122.4939999999999
 30
0.0
 11
42.86209999999999
 21
122.0979999999999
 31
0.0
  0
LINE
  5
52
330
18
100
AcDbEntity
  8
0
100
AcDbLine
 10
42.86209999999999
 20
122.0979999999999
 30
0.0
 11
44.33659999999999
 21
121.7029999999999
 31
0.0
  0
LINE
  5
53
330
18
100
AcDbEntity
  8
0
100
AcDbLine
 10
44.33659999999999
 20
121.7029999999999
 30
0.0
 11
44.33659999999999
 21
122.4939999999999
 31
0.0
  0
LINE
  5
54
330
18
100
AcDbEntity
  8
0
100
AcDbLine
 10
106.804
 20
121.7109999999999
 30
0.0
 11
108.2789999999999
 21
122.106
 31
0.0
  0
LINE
  5
55
330
18
100
AcDbEntity
  8
0
100
AcDbLine
 10
108.2789999999999
 20
122.106
 30
0.0
 11
106.804
 21
122.5
 31
0.0
  0
LINE
  5
56
330
18
100
AcDbEntity
  8
0
100
AcDbLine
 10
106.804
 20
122.5
 30
0.0
 11
106.804
 21
121.7109999999999
 31
0.0
  0
LINE
  5
57
330
18
100
AcDbEntity
  8
0
100
AcDbLine
 10
42.86209999999999
 20
122.0979999999999
 30
0.0
 11
108.2789999999999
 21
122.0979999999999
 31
0.0
  0
LINE
  5
58
330
18
100
AcDbEntity
  8
0
100
AcDbLine
 10
108.2789999999999
 20
116.439
 30
0.0
 11
108.2789999999999
 21
128.581
 31
0.0
  0
LINE
  5
59
330
18
100
AcDbEntity
  8
0
100
AcDbLine
 10
81.8622
 20
117.7679999999999
 30
0.0
 11
81.8622
 21
122.448
 31
0.0
  0
LINE
  5
5A
330
18
100
AcDbEntity
  8
0
100
AcDbLine
 10
68.86199999999999
 20
117.891
 30
0.0
 11
68.86199999999999
 21
122.3589999999999
 31
0.0
  0
LINE
  5
5B
330
18
100
AcDbEntity
  8
0
100
AcDbLine
 10
42.8617
 20
116.398
 30
0.0
 11
42.8617
 21
128.5729999999999
 31
0.0
  0
ARC
  5
5C
330
18
100
AcDbEntity
  8
0
100
AcDbCircle
 10
59.236897
 20
186.4953769999999
 30
0.0
 40
0.9906979999999999
100
AcDbArc
 50
236.8620019999999
 51
303.1380180000001
  0
ARC
  5
5D
330
18
100
AcDbEntity
  8
0
100
AcDbCircle
 10
58.153579
 20
186.496183
 30
0.0
 40
0.9914669999999999
100
AcDbArc
 50
236.87913
 51
303.1208899999999
  0
LINE
  5
5E
330
18
100
AcDbEntity
  8
0
100
AcDbLine
 10
59.7785
 20
186.707
 30
0.0
 11
58.69530000000001
 21
186.707
 31
0.0
  0
ARC
  5
5F
330
18
100
AcDbEntity
  8
0
100
AcDbCircle
 10
59.614785
 20
186.9534699999999
 30
0.0
 40
0.086307
100
AcDbArc
 50
92.03158
 51
178.086892
  0
ARC
  5
60
330
18
100
AcDbEntity
  8
0
100
AcDbCircle
 10
59.61468599999999
 20
186.7927469999999
 30
0.0
 40
0.086218
100
AcDbArc
 50
182.0867199999999
 51
268.032058
  0
LINE
  5
61
330
18
100
AcDbEntity
  8
0
100
AcDbLine
 10
59.5285
 20
186.7899999999999
 30
0.0
 11
59.5285
 21
186.9559999999999
 31
0.0
  0
LINE
  5
62
330
18
100
AcDbEntity
  8
0
100
AcDbLine
 10
59.7371
 20
185.456
 30
0.0
 11
59.7785
 21
185.4979999999999
 31
0.0
  0
ARC
  5
63
330
18
100
AcDbEntity
  8
0
100
AcDbCircle
 10
59.442027
 20
184.5430789999999
 30
0.0
 40
0.086556
100
AcDbArc
 50
271.9563459999999
 51
357.925406
  0
LINE
  5
64
330
18
100
AcDbEntity
  8
0
100
AcDbLine
 10
59.5285
 20
184.5399999999999
 30
0.0
 11
59.5285
 21
185.456
 31
0.0
  0
LINE
  5
65
330
18
100
AcDbEntity
  8
0
100
AcDbLine
 10
58.69530000000001
 20
185.6659999999999
 30
0.0
 11
58.69530000000001
 21
186.707
 31
0.0
  0
LINE
  5
66
330
18
100
AcDbEntity
  8
0
100
AcDbLine
 10
59.7785
 20
185.4979999999999
 30
0.0
 11
59.7785
 21
186.707
 31
0.0
  0
ARC
  5
67
330
18
100
AcDbEntity
  8
0
100
AcDbCircle
 10
57.775341
 20
186.953286
 30
0.0
 40
0.086491
100
AcDbArc
 50
2.030961
 51
87.969029
  0
ARC
  5
68
330
18
100
AcDbEntity
  8
0
100
AcDbCircle
 10
57.775402
 20
186.792969
 30
0.0
 40
0.086441
100
AcDbArc
 50
271.99137
 51
357.7713909999999
  0
LINE
  5
69
330
18
100
AcDbEntity
  8
0
100
AcDbLine
 10
57.8618
 20
186.9559999999999
 30
0.0
 11
57.8618
 21
186.7899999999999
 31
0.0
  0
LINE
  5
6A
330
18
100
AcDbEntity
  8
0
100
AcDbLine
 10
57.6122
 20
185.4979999999999
 30
0.0
 11
57.6535
 21
185.456
 31
0.0
  0
ARC
  5
6B
330
18
100
AcDbEntity
  8
0
100
AcDbCircle
 10
57.948242
 20
184.5430379999999
 30
0.0
 40
0.086519
100
AcDbArc
 50
182.0482669999999
 51
267.9517629999999
  0
LINE
  5
6C
330
18
100
AcDbEntity
  8
0
100
AcDbLine
 10
57.8618
 20
185.456
 30
0.0
 11
57.8618
 21
184.5399999999999
 31
0.0
  0
LINE
  5
6D
330
18
100
AcDbEntity
  8
0
100
AcDbLine
 10
57.6122
 20
185.4979999999999
 30
0.0
 11
57.6122
 21
186.707
 31
0.0
  0
LINE
  5
6E
330
18
100
AcDbEntity
  8
0
100
AcDbLine
 10
57.6535
 20
185.456
 30
0.0
 11
59.7371
 21
185.456
 31
0.0
  0
LINE
  5
6F
330
18
100
AcDbEntity
  8
0
100
AcDbLine
 10
57.69519999999999
 20
187.04
 30
0.0
 11
59.6953
 21
187.04
 31
0.0
  0
LINE
  5
70
330
18
100
AcDbEntity
  8
0
100
AcDbLine
 10
58.69530000000001
 20
186.707
 30
0.0
 11
57.6122
 21
186.707
 31
0.0
  0
LINE
  5
71
330
18
100
AcDbEntity
  8
0
100
AcDbLine
 10
57.8618
 20
184.5399999999999
 30
0.0
 11
59.5285
 21
184.5399999999999
 31
0.0
  0
LINE
  5
72
330
18
100
AcDbEntity
  8
0
100
AcDbLine
 10
59.4453
 20
184.457
 30
0.0
 11
57.94509999999999
 21
184.457
 31
0.0
  0
LINE
  5
73
330
18
100
AcDbEntity
  8
0
100
AcDbLine
 10
59.862
 20
191.5399999999999
 30
0.0
 11
59.862
 21
192.2069999999999
 31
0.0
  0
LINE
  5
74
330
18
100
AcDbEntity
  8
0
100
AcDbLine
 10
57.5285
 20
192.2069999999999
 30
0.0
 11
57.5285
 21
191.5399999999999
 31
0.0
  0
LINE
  5
75
330
18
100
AcDbEntity
  8
0
100
AcDbLine
 10
59.6953
 20
187.04
 30
0.0
 11
59.6953
 21
191.5399999999999
 31
0.0
  0
LINE
  5
76
330
18
100
AcDbEntity
  8
0
100
AcDbLine
 10
59.6117
 20
187.04
 30
0.0
 11
59.6117
 21
191.5399999999999
 31
0.0
  0
LINE
  5
77
330
18
100
AcDbEntity
  8
0
100
AcDbLine
 10
57.7784
 20
191.5399999999999
 30
0.0
 11
57.7784
 21
187.04
 31
0.0
  0
LINE
  5
78
330
18
100
AcDbEntity
  8
0
100
AcDbLine
 10
57.69519999999999
 20
191.5399999999999
 30
0.0
 11
57.69519999999999
 21
187.04
 31
0.0
  0
ARC
  5
79
330
18
100
AcDbEntity
  8
0
100
AcDbCircle
 10
92.570645
 20
186.4959159999999
 30
0.0
 40
0.9911489999999998
100
AcDbArc
 50
236.879049
 51
303.120971
  0
ARC
  5
7A
330
18
100
AcDbEntity
  8
0
100
AcDbCircle
 10
91.48750099999999
 20
186.494837
 30
0.0
 40
0.9902459999999999
100
AcDbArc
 50
236.844939
 51
303.155081
  0
LINE
  5
7B
330
18
100
AcDbEntity
  8
0
100
AcDbLine
 10
93.1122
 20
186.707
 30
0.0
 11
92.02910000000001
 21
186.707
 31
0.0
  0
ARC
  5
7C
330
18
100
AcDbEntity
  8
0
100
AcDbCircle
 10
92.94848499999998
 20
186.9533399999999
 30
0.0
 40
0.086435
100
AcDbArc
 50
91.99633100000001
 51
178.003639
  0
ARC
  5
7D
330
18
100
AcDbEntity
  8
0
100
AcDbCircle
 10
92.948269
 20
186.792759
 30
0.0
 40
0.086224
100
AcDbArc
 50
182.0947239999999
 51
268.1425549999999
  0
LINE
  5
7E
330
18
100
AcDbEntity
  8
0
100
AcDbLine
 10
92.8621
 20
186.7899999999999
 30
0.0
 11
92.8621
 21
186.9559999999999
 31
0.0
  0
LINE
  5
7F
330
18
100
AcDbEntity
  8
0
100
AcDbLine
 10
93.0709
 20
185.456
 30
0.0
 11
93.1122
 21
185.4979999999999
 31
0.0
  0
ARC
  5
80
330
18
100
AcDbEntity
  8
0
100
AcDbCircle
 10
92.77565499999999
 20
184.543021
 30
0.0
 40
0.086502
100
AcDbArc
 50
272.037416
 51
357.9625939999999
  0
LINE
  5
81
330
18
100
AcDbEntity
  8
0
100
AcDbLine
 10
92.8621
 20
184.5399999999999
 30
0.0
 11
92.8621
 21
185.456
 31
0.0
  0
LINE
  5
82
330
18
100
AcDbEntity
  8
0
100
AcDbLine
 10
92.02910000000001
 20
185.6659999999999
 30
0.0
 11
92.02910000000001
 21
186.707
 31
0.0
  0
LINE
  5
83
330
18
100
AcDbEntity
  8
0
100
AcDbLine
 10
93.1122
 20
185.4979999999999
 30
0.0
 11
93.1122
 21
186.707
 31
0.0
  0
ARC
  5
84
330
18
100
AcDbEntity
  8
0
100
AcDbCircle
 10
91.108918
 20
186.953286
 30
0.0
 40
0.086491
100
AcDbArc
 50
2.030961
 51
87.969029
  0
ARC
  5
85
330
18
100
AcDbEntity
  8
0
100
AcDbCircle
 10
91.108971
 20
186.792976
 30
0.0
 40
0.086449
100
AcDbArc
 50
271.996221
 51
357.76654
  0
LINE
  5
86
330
18
100
AcDbEntity
  8
0
100
AcDbLine
 10
91.1954
 20
186.9559999999999
 30
0.0
 11
91.1954
 21
186.7899999999999
 31
0.0
  0
LINE
  5
87
330
18
100
AcDbEntity
  8
0
100
AcDbLine
 10
90.9459
 20
185.4979999999999
 30
0.0
 11
90.98730000000001
 21
185.456
 31
0.0
  0
ARC
  5
88
330
18
100
AcDbEntity
  8
0
100
AcDbCircle
 10
91.28195500000002
 20
184.543174
 30
0.0
 40
0.08666
100
AcDbArc
 50
182.134819
 51
267.8652109999999
  0
LINE
  5
89
330
18
100
AcDbEntity
  8
0
100
AcDbLine
 10
91.1954
 20
185.456
 30
0.0
 11
91.1954
 21
184.5399999999999
 31
0.0
  0
LINE
  5
8A
330
18
100
AcDbEntity
  8
0
100
AcDbLine
 10
90.9459
 20
185.4979999999999
 30
0.0
 11
90.9459
 21
186.707
 31
0.0
  0
LINE
  5
8B
330
18
100
AcDbEntity
  8
0
100
AcDbLine
 10
90.98730000000001
 20
185.456
 30
0.0
 11
93.0709
 21
185.456
 31
0.0
  0
LINE
  5
8C
330
18
100
AcDbEntity
  8
0
100
AcDbLine
 10
91.0293
 20
187.04
 30
0.0
 11
93.0288
 21
187.04
 31
0.0
  0
LINE
  5
8D
330
18
100
AcDbEntity
  8
0
100
AcDbLine
 10
92.02910000000001
 20
186.707
 30
0.0
 11
90.9459
 21
186.707
 31
0.0
  0
LINE
  5
8E
330
18
100
AcDbEntity
  8
0
100
AcDbLine
 10
91.1954
 20
184.5399999999999
 30
0.0
 11
92.8621
 21
184.5399999999999
 31
0.0
  0
LINE
  5
8F
330
18
100
AcDbEntity
  8
0
100
AcDbLine
 10
92.77939999999999
 20
184.457
 30
0.0
 11
91.27869999999999
 21
184.457
 31
0.0
  0
LINE
  5
90
330
18
100
AcDbEntity
  8
0
100
AcDbLine
 10
93.1956
 20
191.5399999999999
 30
0.0
 11
93.1956
 21
192.2069999999999
 31
0.0
  0
LINE
  5
91
330
18
100
AcDbEntity
  8
0
100
AcDbLine
 10
90.86260000000001
 20
192.2069999999999
 30
0.0
 11
90.86260000000001
 21
191.5399999999999
 31
0.0
  0
LINE
  5
92
330
18
100
AcDbEntity
  8
0
100
AcDbLine
 10
93.0288
 20
187.04
 30
0.0
 11
93.0288
 21
191.5399999999999
 31
0.0
  0
LINE
  5
93
330
18
100
AcDbEntity
  8
0
100
AcDbLine
 10
92.94549999999999
 20
187.04
 30
0.0
 11
92.94549999999999
 21
191.5399999999999
 31
0.0
  0
LINE
  5
94
330
18
100
AcDbEntity
  8
0
100
AcDbLine
 10
91.11200000000001
 20
191.5399999999999
 30
0.0
 11
91.11200000000001
 21
187.04
 31
0.0
  0
LINE
  5
95
330
18
100
AcDbEntity
  8
0
100
AcDbLine
 10
91.0293
 20
191.5399999999999
 30
0.0
 11
91.0293
 21
187.04
 31
0.0
  0
LINE
  5
96
330
18
100
AcDbEntity
  8
0
100
AcDbLine
 10
91.5295
 20
193.29
 30
0.0
 11
91.5295
 21
193.0399999999999
 31
0.0
  0
LINE
  5
97
330
18
100
AcDbEntity
  8
0
100
AcDbLine
 10
92.5293
 20
193.29
 30
0.0
 11
92.5293
 21
193.0399999999999
 31
0.0
  0
LINE
  5
98
330
18
100
AcDbEntity
  8
0
100
AcDbLine
 10
91.5295
 20
193.29
 30
0.0
 11
91.6122
 21
193.3729999999999
 31
0.0
  0
LINE
  5
99
330
18
100
AcDbEntity
  8
0
100
AcDbLine
 10
92.4459
 20
193.3729999999999
 30
0.0
 11
92.5293
 21
193.29
 31
0.0
  0
LINE
  5
9A
330
18
100
AcDbEntity
  8
0
100
AcDbLine
 10
92.4459
 20
193.3729999999999
 30
0.0
 11
91.6122
 21
193.3729999999999
 31
0.0
  0
LINE
  5
9B
330
18
100
AcDbEntity
  8
0
100
AcDbLine
 10
92.5293
 20
193.29
 30
0.0
 11
91.5295
 21
193.29
 31
0.0
  0
LINE
  5
9C
330
18
100
AcDbEntity
  8
0
100
AcDbLine
 10
58.19539999999999
 20
193.29
 30
0.0
 11
58.19539999999999
 21
193.0399999999999
 31
0.0
  0
LINE
  5
9D
330
18
100
AcDbEntity
  8
0
100
AcDbLine
 10
59.1956
 20
193.29
 30
0.0
 11
59.1956
 21
193.0399999999999
 31
0.0
  0
LINE
  5
9E
330
18
100
AcDbEntity
  8
0
100
AcDbLine
 10
58.19539999999999
 20
193.29
 30
0.0
 11
58.2786
 21
193.3729999999999
 31
0.0
  0
LINE
  5
9F
330
18
100
AcDbEntity
  8
0
100
AcDbLine
 10
59.1118
 20
193.3729999999999
 30
0.0
 11
59.1956
 21
193.29
 31
0.0
  0
LINE
  5
A0
330
18
100
AcDbEntity
  8
0
100
AcDbLine
 10
59.1118
 20
193.3729999999999
 30
0.0
 11
58.2786
 21
193.3729999999999
 31
0.0
  0
LINE
  5
A1
330
18
100
AcDbEntity
  8
0
100
AcDbLine
 10
59.1956
 20
193.29
 30
0.0
 11
58.19539999999999
 21
193.29
 31
0.0
  0
LINE
  5
A2
330
18
100
AcDbEntity
  8
0
100
AcDbLine
 10
108.2789999999999
 20
181.707
 30
0.0
 11
108.2789999999999
 21
181.2899999999999
 31
0.0
  0
ARC
  5
A3
330
18
100
AcDbEntity
  8
0
100
AcDbCircle
 10
95.83314599999999
 20
192.2611169999999
 30
0.0
 40
0.7791610000000001
100
AcDbArc
 50
2.130412999999999
 51
87.869577
  0
ARC
  5
A4
330
18
100
AcDbEntity
  8
0
100
AcDbCircle
 10
95.849478
 20
192.2774489999999
 30
0.0
 40
0.346351
100
AcDbArc
 50
2.090276999999999
 51
87.909713
  0
LINE
  5
A5
330
18
100
AcDbEntity
  8
0
100
AcDbLine
 10
95.6127
 20
193.0399999999999
 30
0.0
 11
95.6127
 21
192.624
 31
0.0
  0
LINE
  5
A6
330
18
100
AcDbEntity
  8
0
100
AcDbLine
 10
93.6958
 20
192.624
 30
0.0
 11
93.6958
 21
192.2069999999999
 31
0.0
  0
LINE
  5
A7
330
18
100
AcDbEntity
  8
0
100
AcDbLine
 10
93.6958
 20
192.2069999999999
 30
0.0
 11
93.6958
 21
192.109
 31
0.0
  0
LINE
  5
A8
330
18
100
AcDbEntity
  8
0
100
AcDbLine
 10
93.6958
 20
191.735
 30
0.0
 11
93.6958
 21
192.109
 31
0.0
  0
LINE
  5
A9
330
18
100
AcDbEntity
  8
0
100
AcDbLine
 10
93.6958
 20
191.735
 30
0.0
 11
93.6958
 21
191.5399999999999
 31
0.0
  0
LINE
  5
AA
330
18
100
AcDbEntity
  8
0
100
AcDbLine
 10
93.6118
 20
193.0399999999999
 30
0.0
 11
93.6118
 21
192.624
 31
0.0
  0
LINE
  5
AB
330
18
100
AcDbEntity
  8
0
100
AcDbLine
 10
93.6118
 20
193.0399999999999
 30
0.0
 11
95.6127
 21
193.0399999999999
 31
0.0
  0
LINE
  5
AC
330
18
100
AcDbEntity
  8
0
100
AcDbLine
 10
93.6118
 20
192.624
 30
0.0
 11
95.6127
 21
192.624
 31
0.0
  0
LINE
  5
AD
330
18
100
AcDbEntity
  8
0
100
AcDbLine
 10
95.6127
 20
193.0399999999999
 30
0.0
 11
95.86209999999999
 21
193.0399999999999
 31
0.0
  0
LINE
  5
AE
330
18
100
AcDbEntity
  8
0
100
AcDbLine
 10
95.86209999999999
 20
192.624
 30
0.0
 11
95.6127
 21
192.624
 31
0.0
  0
LINE
  5
AF
330
18
100
AcDbEntity
  8
0
100
AcDbLine
 10
90.36230000000001
 20
192.624
 30
0.0
 11
90.36230000000001
 21
193.0399999999999
 31
0.0
  0
LINE
  5
B0
330
18
100
AcDbEntity
  8
0
100
AcDbLine
 10
92.8621
 20
192.2069999999999
 30
0.0
 11
92.8621
 21
192.624
 31
0.0
  0
LINE
  5
B1
330
18
100
AcDbEntity
  8
0
100
AcDbLine
 10
81.0205
 20
191.5399999999999
 30
0.0
 11
82.70380000000001
 21
191.5399999999999
 31
0.0
  0
ARC
  5
B2
330
18
100
AcDbEntity
  8
0
100
AcDbCircle
 10
82.60289499999998
 20
191.2120699999999
 30
0.0
 40
0.342859
100
AcDbArc
 50
1.214862
 51
72.878966
  0
LINE
  5
B3
330
18
100
AcDbEntity
  8
0
100
AcDbLine
 10
90.36230000000001
 20
193.0399999999999
 30
0.0
 11
93.6118
 21
193.0399999999999
 31
0.0
  0
LINE
  5
B4
330
18
100
AcDbEntity
  8
0
100
AcDbLine
 10
93.6118
 20
192.624
 30
0.0
 11
90.36230000000001
 21
192.624
 31
0.0
  0
LINE
  5
B5
330
18
100
AcDbEntity
  8
0
100
AcDbLine
 10
93.6958
 20
192.2069999999999
 30
0.0
 11
92.8621
 21
192.2069999999999
 31
0.0
  0
LINE
  5
B6
330
18
100
AcDbEntity
  8
0
100
AcDbLine
 10
92.8621
 20
192.624
 30
0.0
 11
93.6958
 21
192.624
 31
0.0
  0
LINE
  5
B7
330
18
100
AcDbEntity
  8
0
100
AcDbLine
 10
68.0288
 20
192.624
 30
0.0
 11
66.0288
 21
192.624
 31
0.0
  0
LINE
  5
B8
330
18
100
AcDbEntity
  8
0
100
AcDbLine
 10
68.0288
 20
192.2069999999999
 30
0.0
 11
66.0288
 21
192.2069999999999
 31
0.0
  0
LINE
  5
B9
330
18
100
AcDbEntity
  8
0
100
AcDbLine
 10
66.0288
 20
192.624
 30
0.0
 11
66.0288
 21
192.2069999999999
 31
0.0
  0
LINE
  5
BA
330
18
100
AcDbEntity
  8
0
100
AcDbLine
 10
68.0288
 20
192.2069999999999
 30
0.0
 11
68.0288
 21
192.624
 31
0.0
  0
LINE
  5
BB
330
18
100
AcDbEntity
  8
0
100
AcDbLine
 10
60.3617
 20
193.0399999999999
 30
0.0
 11
60.3617
 21
192.624
 31
0.0
  0
LINE
  5
BC
330
18
100
AcDbEntity
  8
0
100
AcDbLine
 10
59.5285
 20
193.0399999999999
 30
0.0
 11
60.3617
 21
193.0399999999999
 31
0.0
  0
LINE
  5
BD
330
18
100
AcDbEntity
  8
0
100
AcDbLine
 10
60.3617
 20
192.624
 30
0.0
 11
59.5285
 21
192.624
 31
0.0
  0
LINE
  5
BE
330
18
100
AcDbEntity
  8
0
100
AcDbLine
 10
57.0287
 20
192.624
 30
0.0
 11
57.862
 21
192.624
 31
0.0
  0
LINE
  5
BF
330
18
100
AcDbEntity
  8
0
100
AcDbLine
 10
57.862
 20
192.2069999999999
 30
0.0
 11
57.0287
 21
192.2069999999999
 31
0.0
  0
LINE
  5
C0
330
18
100
AcDbEntity
  8
0
100
AcDbLine
 10
57.0287
 20
192.624
 30
0.0
 11
57.0287
 21
193.0399999999999
 31
0.0
  0
LINE
  5
C1
330
18
100
AcDbEntity
  8
0
100
AcDbLine
 10
57.0287
 20
191.5399999999999
 30
0.0
 11
57.0287
 21
191.735
 31
0.0
  0
LINE
  5
C2
330
18
100
AcDbEntity
  8
0
100
AcDbLine
 10
57.0287
 20
192.109
 30
0.0
 11
57.0287
 21
191.735
 31
0.0
  0
LINE
  5
C3
330
18
100
AcDbEntity
  8
0
100
AcDbLine
 10
57.0287
 20
192.109
 30
0.0
 11
57.0287
 21
192.2069999999999
 31
0.0
  0
LINE
  5
C4
330
18
100
AcDbEntity
  8
0
100
AcDbLine
 10
57.0287
 20
192.2069999999999
 30
0.0
 11
57.0287
 21
192.624
 31
0.0
  0
LINE
  5
C5
330
18
100
AcDbEntity
  8
0
100
AcDbLine
 10
57.862
 20
192.624
 30
0.0
 11
57.862
 21
192.2069999999999
 31
0.0
  0
LINE
  5
C6
330
18
100
AcDbEntity
  8
0
100
AcDbLine
 10
57.0287
 20
193.0399999999999
 30
0.0
 11
59.5285
 21
193.0399999999999
 31
0.0
  0
LINE
  5
C7
330
18
100
AcDbEntity
  8
0
100
AcDbLine
 10
59.5285
 20
192.624
 30
0.0
 11
57.0287
 21
192.624
 31
0.0
  0
LINE
  5
C8
330
18
100
AcDbEntity
  8
0
100
AcDbLine
 10
57.862
 20
192.624
 30
0.0
 11
66.0288
 21
192.624
 31
0.0
  0
LINE
  5
C9
330
18
100
AcDbEntity
  8
0
100
AcDbLine
 10
57.862
 20
192.2069999999999
 30
0.0
 11
66.0288
 21
192.2069999999999
 31
0.0
  0
LINE
  5
CA
330
18
100
AcDbEntity
  8
0
100
AcDbLine
 10
67.99590000000001
 20
191.5399999999999
 30
0.0
 11
69.72809999999999
 21
191.5399999999999
 31
0.0
  0
LINE
  5
CB
330
18
100
AcDbEntity
  8
0
100
AcDbLine
 10
93.6958
 20
191.5399999999999
 30
0.0
 11
57.0287
 21
191.5399999999999
 31
0.0
  0
LINE
  5
CC
330
18
100
AcDbEntity
  8
0
100
AcDbLine
 10
68.0288
 20
192.2069999999999
 30
0.0
 11
92.8621
 21
192.2069999999999
 31
0.0
  0
LINE
  5
CD
330
18
100
AcDbEntity
  8
0
100
AcDbLine
 10
68.0288
 20
192.624
 30
0.0
 11
92.8621
 21
192.624
 31
0.0
  0
ARC
  5
CE
330
18
100
AcDbEntity
  8
0
100
AcDbCircle
 10
81.120768
 20
191.212607
 30
0.0
 40
0.342136
100
AcDbArc
 50
107.033611
 51
178.872521
  0
ARC
  5
CF
330
18
100
AcDbEntity
  8
0
100
AcDbCircle
 10
95.282026
 20
184.03617
 30
0.0
 40
0.086962
100
AcDbArc
 50
91.86420400000001
 51
177.6641989999999
  0
LINE
  5
D0
330
18
100
AcDbEntity
  8
0
100
AcDbLine
 10
95.0284
 20
189.7899999999999
 30
0.0
 11
95.0284
 21
184.7899999999999
 31
0.0
  0
LINE
  5
D1
330
18
100
AcDbEntity
  8
0
100
AcDbLine
 10
94.94570000000001
 20
184.8729999999999
 30
0.0
 11
94.94570000000001
 21
189.707
 31
0.0
  0
LINE
  5
D2
330
18
100
AcDbEntity
  8
0
100
AcDbLine
 10
97.02930000000002
 20
187.957
 30
0.0
 11
97.02930000000002
 21
187.1229999999999
 31
0.0
  0
LINE
  5
D3
330
18
100
AcDbEntity
  8
0
100
AcDbLine
 10
97.02930000000002
 20
187.1229999999999
 30
0.0
 11
96.61180000000001
 21
187.1229999999999
 31
0.0
  0
LINE
  5
D4
330
18
100
AcDbEntity
  8
0
100
AcDbLine
 10
97.2291
 20
186.9149999999999
 30
0.0
 11
97.11200000000001
 21
186.9149999999999
 31
0.0
  0
ARC
  5
D5
330
18
100
AcDbEntity
  8
0
100
AcDbCircle
 10
97.115194
 20
186.829155
 30
0.0
 40
0.085914
100
AcDbArc
 50
92.13131700000003
 51
178.344134
  0
LINE
  5
D6
330
18
100
AcDbEntity
  8
0
100
AcDbLine
 10
96.61180000000001
 20
187.957
 30
0.0
 11
97.02930000000002
 21
187.957
 31
0.0
  0
LINE
  5
D7
330
18
100
AcDbEntity
  8
0
100
AcDbLine
 10
97.4455
 20
186.2069999999999
 30
0.0
 11
97.36209999999999
 21
186.2899999999999
 31
0.0
  0
LINE
  5
D8
330
18
100
AcDbEntity
  8
0
100
AcDbLine
 10
97.36209999999999
 20
184.9569999999999
 30
0.0
 11
97.36209999999999
 21
186.2899999999999
 31
0.0
  0
LINE
  5
D9
330
18
100
AcDbEntity
  8
0
100
AcDbLine
 10
97.11200000000001
 20
184.332
 30
0.0
 11
97.2291
 21
184.332
 31
0.0
  0
ARC
  5
DA
330
18
100
AcDbEntity
  8
0
100
AcDbCircle
 10
97.11573299999999
 20
184.418249
 30
0.0
 40
0.086469
100
AcDbArc
 50
181.999329
 51
267.52522
  0
LINE
  5
DB
330
18
100
AcDbEntity
  8
0
100
AcDbLine
 10
97.36209999999999
 20
184.9569999999999
 30
0.0
 11
97.4455
 21
185.04
 31
0.0
  0
LINE
  5
DC
330
18
100
AcDbEntity
  8
0
100
AcDbLine
 10
97.2291
 20
184.9569999999999
 30
0.0
 11
97.36209999999999
 21
184.9569999999999
 31
0.0
  0
LINE
  5
DD
330
18
100
AcDbEntity
  8
0
100
AcDbLine
 10
97.4455
 20
186.2069999999999
 30
0.0
 11
97.4455
 21
185.623
 31
0.0
  0
LINE
  5
DE
330
18
100
AcDbEntity
  8
0
100
AcDbLine
 10
97.4455
 20
185.623
 30
0.0
 11
97.4455
 21
185.04
 31
0.0
  0
LINE
  5
DF
330
18
100
AcDbEntity
  8
0
100
AcDbLine
 10
97.36209999999999
 20
186.2899999999999
 30
0.0
 11
97.2291
 21
186.2899999999999
 31
0.0
  0
LINE
  5
E0
330
18
100
AcDbEntity
  8
0
100
AcDbLine
 10
97.2291
 20
184.332
 30
0.0
 11
97.2291
 21
186.9149999999999
 31
0.0
  0
LINE
  5
E1
330
18
100
AcDbEntity
  8
0
100
AcDbLine
 10
97.02930000000002
 20
187.1229999999999
 30
0.0
 11
97.02930000000002
 21
184.4149999999999
 31
0.0
  0
LINE
  5
E2
330
18
100
AcDbEntity
  8
0
100
AcDbLine
 10
97.11200000000001
 20
186.9149999999999
 30
0.0
 11
97.11200000000001
 21
184.332
 31
0.0
  0
LINE
  5
E3
330
18
100
AcDbEntity
  8
0
100
AcDbLine
 10
94.94570000000001
 20
184.8729999999999
 30
0.0
 11
95.0284
 21
184.7899999999999
 31
0.0
  0
LINE
  5
E4
330
18
100
AcDbEntity
  8
0
100
AcDbLine
 10
95.1951
 20
184.707
 30
0.0
 11
95.1951
 21
184.7899999999999
 31
0.0
  0
ARC
  5
E5
330
18
100
AcDbEntity
  8
0
100
AcDbCircle
 10
95.281599
 20
184.7098039999999
 30
0.0
 40
0.08652
100
AcDbArc
 50
182.063009
 51
268.4085889999999
  0
LINE
  5
E6
330
18
100
AcDbEntity
  8
0
100
AcDbLine
 10
95.27919999999999
 20
184.623
 30
0.0
 11
96.19559999999999
 21
184.623
 31
0.0
  0
LINE
  5
E7
330
18
100
AcDbEntity
  8
0
100
AcDbLine
 10
95.0284
 20
184.7899999999999
 30
0.0
 11
96.19559999999999
 21
184.7899999999999
 31
0.0
  0
LINE
  5
E8
330
18
100
AcDbEntity
  8
0
100
AcDbLine
 10
95.0284
 20
189.7899999999999
 30
0.0
 11
94.94570000000001
 21
189.707
 31
0.0
  0
LINE
  5
E9
330
18
100
AcDbEntity
  8
0
100
AcDbLine
 10
96.19559999999999
 20
189.7899999999999
 30
0.0
 11
95.0284
 21
189.7899999999999
 31
0.0
  0
LINE
  5
EA
330
18
100
AcDbEntity
  8
0
100
AcDbLine
 10
96.19559999999999
 20
184.1229999999999
 30
0.0
 11
95.27919999999999
 21
184.1229999999999
 31
0.0
  0
LINE
  5
EB
330
18
100
AcDbEntity
  8
0
100
AcDbLine
 10
96.19559999999999
 20
182.5399999999999
 30
0.0
 11
96.61180000000001
 21
182.5399999999999
 31
0.0
  0
LINE
  5
EC
330
18
100
AcDbEntity
  8
0
100
AcDbLine
 10
97.11200000000001
 20
182.7899999999999
 30
0.0
 11
97.11200000000001
 21
183.7899999999999
 31
0.0
  0
LINE
  5
ED
330
18
100
AcDbEntity
  8
0
100
AcDbLine
 10
97.19610000000001
 20
183.7059999999999
 30
0.0
 11
97.19610000000001
 21
182.873
 31
0.0
  0
LINE
  5
EE
330
18
100
AcDbEntity
  8
0
100
AcDbLine
 10
97.02930000000002
 20
182.7899999999999
 30
0.0
 11
97.11200000000001
 21
182.7899999999999
 31
0.0
  0
LINE
  5
EF
330
18
100
AcDbEntity
  8
0
100
AcDbLine
 10
97.11200000000001
 20
182.7899999999999
 30
0.0
 11
97.19610000000001
 21
182.873
 31
0.0
  0
LINE
  5
F0
330
18
100
AcDbEntity
  8
0
100
AcDbLine
 10
97.11200000000001
 20
183.7899999999999
 30
0.0
 11
97.02930000000002
 21
183.7899999999999
 31
0.0
  0
LINE
  5
F1
330
18
100
AcDbEntity
  8
0
100
AcDbLine
 10
97.19610000000001
 20
183.7059999999999
 30
0.0
 11
97.11200000000001
 21
183.7899999999999
 31
0.0
  0
LINE
  5
F2
330
18
100
AcDbEntity
  8
0
100
AcDbLine
 10
95.1951
 20
182.5399999999999
 30
0.0
 11
95.1951
 21
183.29
 31
0.0
  0
LINE
  5
F3
330
18
100
AcDbEntity
  8
0
100
AcDbLine
 10
96.61180000000001
 20
181.7899999999999
 30
0.0
 11
96.19559999999999
 21
181.7899999999999
 31
0.0
  0
ARC
  5
F4
330
18
100
AcDbEntity
  8
0
100
AcDbCircle
 10
97.39108900000001
 20
182.069143
 30
0.0
 40
0.7798600000000001
100
AcDbArc
 50
182.129274
 51
267.870756
  0
LINE
  5
F5
330
18
100
AcDbEntity
  8
0
100
AcDbLine
 10
96.61180000000001
 20
182.04
 30
0.0
 11
96.61180000000001
 21
181.7899999999999
 31
0.0
  0
ARC
  5
F6
330
18
100
AcDbEntity
  8
0
100
AcDbCircle
 10
97.37535300000001
 20
182.0526909999999
 30
0.0
 40
0.346263
100
AcDbArc
 50
182.07262
 51
267.808908
  0
LINE
  5
F7
330
18
100
AcDbEntity
  8
0
100
AcDbLine
 10
95.27919999999999
 20
182.4559999999999
 30
0.0
 11
96.19559999999999
 21
182.4559999999999
 31
0.0
  0
ARC
  5
F8
330
18
100
AcDbEntity
  8
0
100
AcDbCircle
 10
95.281599
 20
182.5428249999999
 30
0.0
 40
0.08652
100
AcDbArc
 50
182.063009
 51
268.4085889999999
  0
LINE
  5
F9
330
18
100
AcDbEntity
  8
0
100
AcDbLine
 10
96.19559999999999
 20
181.7899999999999
 30
0.0
 11
96.19559999999999
 21
182.5399999999999
 31
0.0
  0
LINE
  5
FA
330
18
100
AcDbEntity
  8
0
100
AcDbLine
 10
95.27919999999999
 20
184.1229999999999
 30
0.0
 11
95.27919999999999
 21
182.4559999999999
 31
0.0
  0
LINE
  5
FB
330
18
100
AcDbEntity
  8
0
100
AcDbLine
 10
96.61180000000001
 20
182.04
 30
0.0
 11
96.61180000000001
 21
187.1229999999999
 31
0.0
  0
LINE
  5
FC
330
18
100
AcDbEntity
  8
0
100
AcDbLine
 10
97.02930000000002
 20
184.4149999999999
 30
0.0
 11
97.02930000000002
 21
182.04
 31
0.0
  0
LINE
  5
FD
330
18
100
AcDbEntity
  8
0
100
AcDbLine
 10
95.1951
 20
183.29
 30
0.0
 11
95.1951
 21
184.0399999999999
 31
0.0
  0
ARC
  5
FE
330
18
100
AcDbEntity
  8
0
100
AcDbCircle
 10
83.29106499999999
 20
188.4689449999999
 30
0.0
 40
0.345617
100
AcDbArc
 50
182.0875659999999
 51
267.912463
  0
LINE
  5
FF
330
18
100
AcDbEntity
  8
0
100
AcDbLine
 10
83.27849999999999
 20
188.124
 30
0.0
 11
84.3623
 21
188.124
 31
0.0
  0
ARC
  5
100
330
18
100
AcDbEntity
  8
0
100
AcDbCircle
 10
84.349576
 20
187.777336
 30
0.0
 40
0.346455
100
AcDbArc
 50
2.106256
 51
87.893734
  0
LINE
  5
101
330
18
100
AcDbEntity
  8
0
100
AcDbLine
 10
84.6958
 20
181.4569999999999
 30
0.0
 11
84.6958
 21
187.7899999999999
 31
0.0
  0
ARC
  5
102
330
18
100
AcDbEntity
  8
0
100
AcDbCircle
 10
80.43315600000001
 20
188.469124
 30
0.0
 40
0.345778
100
AcDbArc
 50
271.9978639999999
 51
357.883644
  0
LINE
  5
103
330
18
100
AcDbEntity
  8
0
100
AcDbLine
 10
79.2787
 20
185.6979999999999
 30
0.0
 11
79.2787
 21
187.74
 31
0.0
  0
LINE
  5
104
330
18
100
AcDbEntity
  8
0
100
AcDbLine
 10
71.5286
 20
184.7899999999999
 30
0.0
 11
71.61190000000001
 21
184.7899999999999
 31
0.0
  0
ARC
  5
105
330
18
100
AcDbEntity
  8
0
100
AcDbCircle
 10
71.54119399999999
 20
184.444296
 30
0.0
 40
0.345996
100
AcDbArc
 50
92.09286
 51
177.9663299999999
  0
LINE
  5
106
330
18
100
AcDbEntity
  8
0
100
AcDbLine
 10
71.1954
 20
188.124
 30
0.0
 11
71.1954
 21
189.3729999999999
 31
0.0
  0
LINE
  5
107
330
18
100
AcDbEntity
  8
0
100
AcDbLine
 10
71.61190000000001
 20
185.6979999999999
 30
0.0
 11
71.61190000000001
 21
187.74
 31
0.0
  0
LINE
  5
108
330
18
100
AcDbEntity
  8
0
100
AcDbLine
 10
68.86199999999999
 20
185.2899999999999
 30
0.0
 11
80.2289
 21
185.2899999999999
 31
0.0
  0
LINE
  5
109
330
18
100
AcDbEntity
  8
0
100
AcDbLine
 10
70.8323
 20
188.124
 30
0.0
 11
80.4452
 21
188.124
 31
0.0
  0
LINE
  5
10A
330
18
100
AcDbEntity
  8
0
100
AcDbLine
 10
71.1954
 20
182.7899999999999
 30
0.0
 11
68.86199999999999
 21
182.7899999999999
 31
0.0
  0
LINE
  5
10B
330
18
100
AcDbEntity
  8
0
100
AcDbLine
 10
71.5286
 20
182.7899999999999
 30
0.0
 11
71.6953
 21
182.7899999999999
 31
0.0
  0
ARC
  5
10C
330
18
100
AcDbEntity
  8
0
100
AcDbCircle
 10
71.54162499999999
 20
183.136022
 30
0.0
 40
0.346443
100
AcDbArc
 50
182.102303
 51
267.838506
  0
ARC
  5
10D
330
18
100
AcDbEntity
  8
0
100
AcDbCircle
 10
71.689059
 20
182.616839
 30
0.0
 40
0.1731
100
AcDbArc
 50
2.066977999999999
 51
87.933012
  0
LINE
  5
10E
330
18
100
AcDbEntity
  8
0
100
AcDbLine
 10
71.32049999999999
 20
181.4569999999999
 30
0.0
 11
71.4872
 21
181.2899999999999
 31
0.0
  0
LINE
  5
10F
330
18
100
AcDbEntity
  8
0
100
AcDbLine
 10
71.86199999999999
 20
181.4569999999999
 30
0.0
 11
71.86199999999999
 21
182.6229999999999
 31
0.0
  0
LINE
  5
110
330
18
100
AcDbEntity
  8
0
100
AcDbLine
 10
71.1954
 20
183.1229999999999
 30
0.0
 11
71.1954
 21
184.457
 31
0.0
  0
LINE
  5
111
330
18
100
AcDbEntity
  8
0
100
AcDbLine
 10
79.0286
 20
184.7899999999999
 30
0.0
 11
79.0286
 21
181.4569999999999
 31
0.0
  0
LINE
  5
112
330
18
100
AcDbEntity
  8
0
100
AcDbLine
 10
66.11209999999999
 20
184.7899999999999
 30
0.0
 11
66.11209999999999
 21
187.957
 31
0.0
  0
LINE
  5
113
330
18
100
AcDbEntity
  8
0
100
AcDbLine
 10
66.11209999999999
 20
184.7899999999999
 30
0.0
 11
66.1955
 21
184.7899999999999
 31
0.0
  0
ARC
  5
114
330
18
100
AcDbEntity
  8
0
100
AcDbCircle
 10
66.182384
 20
184.4439769999999
 30
0.0
 40
0.346333
100
AcDbArc
 50
2.084338999999999
 51
87.826797
  0
ARC
  5
115
330
18
100
AcDbEntity
  8
0
100
AcDbCircle
 10
66.284993
 20
187.950715
 30
0.0
 40
0.172956
100
AcDbArc
 50
92.07986700000001
 51
177.979324
  0
LINE
  5
116
330
18
100
AcDbEntity
  8
0
100
AcDbLine
 10
66.2787
 20
188.124
 30
0.0
 11
66.8919
 21
188.124
 31
0.0
  0
LINE
  5
117
330
18
100
AcDbEntity
  8
0
100
AcDbLine
 10
66.52849999999999
 20
188.124
 30
0.0
 11
66.52849999999999
 21
189.3729999999999
 31
0.0
  0
LINE
  5
118
330
18
100
AcDbEntity
  8
0
100
AcDbLine
 10
66.0288
 20
182.7899999999999
 30
0.0
 11
66.1955
 21
182.7899999999999
 31
0.0
  0
ARC
  5
119
330
18
100
AcDbEntity
  8
0
100
AcDbCircle
 10
66.03510599999999
 20
182.61675
 30
0.0
 40
0.173192
100
AcDbArc
 50
92.09546100000002
 51
177.904509
  0
ARC
  5
11A
330
18
100
AcDbEntity
  8
0
100
AcDbCircle
 10
66.18284799999999
 20
183.1354469999999
 30
0.0
 40
0.345853
100
AcDbArc
 50
272.099318
 51
357.989546
  0
LINE
  5
11B
330
18
100
AcDbEntity
  8
0
100
AcDbLine
 10
66.4036
 20
181.4569999999999
 30
0.0
 11
66.2369
 21
181.2899999999999
 31
0.0
  0
LINE
  5
11C
330
18
100
AcDbEntity
  8
0
100
AcDbLine
 10
65.86199999999999
 20
181.4569999999999
 30
0.0
 11
65.86199999999999
 21
182.6229999999999
 31
0.0
  0
LINE
  5
11D
330
18
100
AcDbEntity
  8
0
100
AcDbLine
 10
66.52849999999999
 20
183.1229999999999
 30
0.0
 11
66.52849999999999
 21
184.457
 31
0.0
  0
LINE
  5
11E
330
18
100
AcDbEntity
  8
0
100
AcDbLine
 10
71.4872
 20
181.2899999999999
 30
0.0
 11
66.2369
 21
181.2899999999999
 31
0.0
  0
LINE
  5
11F
330
18
100
AcDbEntity
  8
0
100
AcDbLine
 10
71.86199999999999
 20
181.4569999999999
 30
0.0
 11
65.86199999999999
 21
181.4569999999999
 31
0.0
  0
LINE
  5
120
330
18
100
AcDbEntity
  8
0
100
AcDbLine
 10
66.52849999999999
 20
182.7899999999999
 30
0.0
 11
68.86199999999999
 21
182.7899999999999
 31
0.0
  0
LINE
  5
121
330
18
100
AcDbEntity
  8
0
100
AcDbLine
 10
66.3202
 20
181.3729999999999
 30
0.0
 11
66.3202
 21
179.206
 31
0.0
  0
LINE
  5
122
330
18
100
AcDbEntity
  8
0
100
AcDbLine
 10
66.2369
 20
179.206
 30
0.0
 11
66.2369
 21
181.2899999999999
 31
0.0
  0
LINE
  5
123
330
18
100
AcDbEntity
  8
0
100
AcDbLine
 10
71.4038
 20
181.3729999999999
 30
0.0
 11
71.4038
 21
179.206
 31
0.0
  0
LINE
  5
124
330
18
100
AcDbEntity
  8
0
100
AcDbLine
 10
71.4872
 20
181.2899999999999
 30
0.0
 11
71.4872
 21
179.206
 31
0.0
  0
LINE
  5
125
330
18
100
AcDbEntity
  8
0
100
AcDbLine
 10
79.0286
 20
181.4569999999999
 30
0.0
 11
84.6958
 21
181.4569999999999
 31
0.0
  0
LINE
  5
126
330
18
100
AcDbEntity
  8
0
100
AcDbLine
 10
71.5286
 20
184.7899999999999
 30
0.0
 11
80.99639999999999
 21
184.7899999999999
 31
0.0
  0
LINE
  5
127
330
18
100
AcDbEntity
  8
0
100
AcDbLine
 10
96.61180000000001
 20
192.29
 30
0.0
 11
96.61180000000001
 21
182.5399999999999
 31
0.0
  0
LINE
  5
128
330
18
100
AcDbEntity
  8
0
100
AcDbLine
 10
96.19559999999999
 20
182.5399999999999
 30
0.0
 11
96.19559999999999
 21
192.29
 31
0.0
  0
ARC
  5
129
330
18
100
AcDbEntity
  8
0
100
AcDbCircle
 10
68.861728
 20
189.3734419999999
 30
0.0
 40
2.333585999999999
100
AcDbArc
 50
315.5437459999999
 51
45.53298599999999
  0
ARC
  5
12A
330
18
100
AcDbEntity
  8
0
100
AcDbCircle
 10
68.856825
 20
189.363799
 30
0.0
 40
2.343904
100
AcDbArc
 50
45.612595
 51
68.17725
  0
ARC
  5
12B
330
18
100
AcDbEntity
  8
0
100
AcDbCircle
 10
68.978207
 20
189.323247
 30
0.0
 40
2.424391999999999
100
AcDbArc
 50
113.901267
 51
199.6662089999999
  0
ARC
  5
12C
330
18
100
AcDbEntity
  8
0
100
AcDbCircle
 10
68.87717099999999
 20
189.383702
 30
0.0
 40
2.351354
100
AcDbArc
 50
201.882501
 51
224.381743
  0
LINE
  5
12D
330
18
100
AcDbEntity
  8
0
100
AcDbLine
 10
80.7787
 20
188.456
 30
0.0
 11
80.7787
 21
191.219
 31
0.0
  0
LINE
  5
12E
330
18
100
AcDbEntity
  8
0
100
AcDbLine
 10
82.9457
 20
188.456
 30
0.0
 11
82.9457
 21
191.219
 31
0.0
  0
LINE
  5
12F
330
18
100
AcDbEntity
  8
0
100
AcDbLine
 10
97.36209999999999
 20
181.707
 30
0.0
 11
108.2789999999999
 21
181.707
 31
0.0
  0
LINE
  5
130
330
18
100
AcDbEntity
  8
0
100
AcDbLine
 10
108.2789999999999
 20
181.2899999999999
 30
0.0
 11
97.36209999999999
 21
181.2899999999999
 31
0.0
  0
LINE
  5
131
330
18
100
AcDbEntity
  8
0
100
AcDbLine
 10
54.8619
 20
193.0399999999999
 30
0.0
 11
55.0285
 21
193.0399999999999
 31
0.0
  0
LINE
  5
132
330
18
100
AcDbEntity
  8
0
100
AcDbLine
 10
55.0285
 20
192.624
 30
0.0
 11
54.8619
 21
192.624
 31
0.0
  0
ARC
  5
133
330
18
100
AcDbEntity
  8
0
100
AcDbCircle
 10
54.890897
 20
192.2609469999999
 30
0.0
 40
0.77933
100
AcDbArc
 50
92.12923399999999
 51
177.857572
  0
ARC
  5
134
330
18
100
AcDbEntity
  8
0
100
AcDbCircle
 10
54.87455999999999
 20
192.2774639999999
 30
0.0
 40
0.346335
100
AcDbArc
 50
92.087812
 51
177.9121579999999
  0
LINE
  5
135
330
18
100
AcDbEntity
  8
0
100
AcDbLine
 10
55.0285
 20
193.0399999999999
 30
0.0
 11
55.0285
 21
192.624
 31
0.0
  0
ARC
  5
136
330
18
100
AcDbEntity
  8
0
100
AcDbCircle
 10
53.766159
 20
182.052456
 30
0.0
 40
0.345999
100
AcDbArc
 50
272.064729
 51
357.9648839999999
  0
ARC
  5
137
330
18
100
AcDbEntity
  8
0
100
AcDbCircle
 10
53.749616
 20
182.068641
 30
0.0
 40
0.779359
100
AcDbArc
 50
272.1331339999999
 51
357.906349
  0
LINE
  5
138
330
18
100
AcDbEntity
  8
0
100
AcDbLine
 10
42.8617
 20
181.2899999999999
 30
0.0
 11
42.8617
 21
181.707
 31
0.0
  0
LINE
  5
139
330
18
100
AcDbEntity
  8
0
100
AcDbLine
 10
42.8617
 20
181.707
 30
0.0
 11
53.7786
 21
181.707
 31
0.0
  0
LINE
  5
13A
330
18
100
AcDbEntity
  8
0
100
AcDbLine
 10
53.7786
 20
181.2899999999999
 30
0.0
 11
42.8617
 21
181.2899999999999
 31
0.0
  0
LINE
  5
13B
330
18
100
AcDbEntity
  8
0
100
AcDbLine
 10
54.1121
 20
182.04
 30
0.0
 11
54.1121
 21
192.29
 31
0.0
  0
LINE
  5
13C
330
18
100
AcDbEntity
  8
0
100
AcDbLine
 10
54.5285
 20
192.29
 30
0.0
 11
54.5285
 21
182.04
 31
0.0
  0
LINE
  5
13D
330
18
100
AcDbEntity
  8
0
100
AcDbLine
 10
55.0285
 20
193.0399999999999
 30
0.0
 11
57.0287
 21
193.0399999999999
 31
0.0
  0
LINE
  5
13E
330
18
100
AcDbEntity
  8
0
100
AcDbLine
 10
55.0285
 20
192.624
 30
0.0
 11
57.0287
 21
192.624
 31
0.0
  0
LINE
  5
13F
330
18
100
AcDbEntity
  8
0
100
AcDbLine
 10
77.63379999999999
 20
110.7629999999999
 30
0.0
 11
73.0904
 21
110.7629999999999
 31
0.0
  0
LINE
  5
140
330
18
100
AcDbEntity
  8
0
100
AcDbLine
 10
77.6333
 20
105.43
 30
0.0
 11
73.0907
 21
105.43
 31
0.0
  0
ARC
  5
141
330
18
100
AcDbEntity
  8
0
100
AcDbCircle
 10
70.84958199999999
 20
99.192131
 30
0.0
 40
0.34608
100
AcDbArc
 50
272.0444109999999
 51
357.837097
  0
ARC
  5
142
330
18
100
AcDbEntity
  8
0
100
AcDbCircle
 10
66.87402900000001
 20
99.191839
 30
0.0
 40
0.345778
100
AcDbArc
 50
182.116397
 51
268.002135
  0
LINE
  5
143
330
18
100
AcDbEntity
  8
0
100
AcDbLine
 10
66.86199999999999
 20
98.84630000000001
 30
0.0
 11
70.86190000000001
 21
98.84630000000001
 31
0.0
  0
LINE
  5
144
330
18
100
AcDbEntity
  8
0
100
AcDbLine
 10
71.1954
 20
103.6729999999999
 30
0.0
 11
71.1954
 21
99.1791
 31
0.0
  0
LINE
  5
145
330
18
100
AcDbEntity
  8
0
100
AcDbLine
 10
66.52849999999999
 20
103.6739999999999
 30
0.0
 11
66.52849999999999
 21
99.1791
 31
0.0
  0
LINE
  5
146
330
18
100
AcDbEntity
  8
0
100
AcDbLine
 10
57.6122
 20
101.137
 30
0.0
 11
57.6122
 21
102.3889999999999
 31
0.0
  0
LINE
  5
147
330
18
100
AcDbEntity
  8
0
100
AcDbLine
 10
58.69530000000001
 20
100.512
 30
0.0
 11
57.6122
 21
101.137
 31
0.0
  0
LINE
  5
148
330
18
100
AcDbEntity
  8
0
100
AcDbLine
 10
59.77859999999999
 20
101.137
 30
0.0
 11
58.69530000000001
 21
100.512
 31
0.0
  0
LINE
  5
149
330
18
100
AcDbEntity
  8
0
100
AcDbLine
 10
59.77859999999999
 20
102.3889999999999
 30
0.0
 11
59.77859999999999
 21
101.137
 31
0.0
  0
LINE
  5
14A
330
18
100
AcDbEntity
  8
0
100
AcDbLine
 10
58.69530000000001
 20
103.014
 30
0.0
 11
59.77859999999999
 21
102.3889999999999
 31
0.0
  0
LINE
  5
14B
330
18
100
AcDbEntity
  8
0
100
AcDbLine
 10
57.6122
 20
102.3889999999999
 30
0.0
 11
58.69530000000001
 21
103.014
 31
0.0
  0
LINE
  5
14C
330
18
100
AcDbEntity
  8
0
100
AcDbLine
 10
57.6122
 20
113.8039999999999
 30
0.0
 11
57.6122
 21
115.055
 31
0.0
  0
LINE
  5
14D
330
18
100
AcDbEntity
  8
0
100
AcDbLine
 10
58.69530000000001
 20
113.179
 30
0.0
 11
57.6122
 21
113.8039999999999
 31
0.0
  0
LINE
  5
14E
330
18
100
AcDbEntity
  8
0
100
AcDbLine
 10
59.77859999999999
 20
113.8039999999999
 30
0.0
 11
58.69530000000001
 21
113.179
 31
0.0
  0
LINE
  5
14F
330
18
100
AcDbEntity
  8
0
100
AcDbLine
 10
59.77859999999999
 20
115.055
 30
0.0
 11
59.77859999999999
 21
113.8039999999999
 31
0.0
  0
LINE
  5
150
330
18
100
AcDbEntity
  8
0
100
AcDbLine
 10
58.69530000000001
 20
115.68
 30
0.0
 11
59.77859999999999
 21
115.055
 31
0.0
  0
LINE
  5
151
330
18
100
AcDbEntity
  8
0
100
AcDbLine
 10
57.6122
 20
115.055
 30
0.0
 11
58.69530000000001
 21
115.68
 31
0.0
  0
LINE
  5
152
330
18
100
AcDbEntity
  8
0
100
AcDbLine
 10
93.1122
 20
102.3889999999999
 30
0.0
 11
93.1122
 21
101.137
 31
0.0
  0
LINE
  5
153
330
18
100
AcDbEntity
  8
0
100
AcDbLine
 10
93.1122
 20
102.3889999999999
 30
0.0
 11
92.0284
 21
103.014
 31
0.0
  0
LINE
  5
154
330
18
100
AcDbEntity
  8
0
100
AcDbLine
 10
92.0284
 20
100.512
 30
0.0
 11
93.1122
 21
101.137
 31
0.0
  0
LINE
  5
155
330
18
100
AcDbEntity
  8
0
100
AcDbLine
 10
90.94520000000001
 20
101.137
 30
0.0
 11
92.0284
 21
100.512
 31
0.0
  0
LINE
  5
156
330
18
100
AcDbEntity
  8
0
100
AcDbLine
 10
90.94520000000001
 20
102.3889999999999
 30
0.0
 11
90.94520000000001
 21
101.137
 31
0.0
  0
LINE
  5
157
330
18
100
AcDbEntity
  8
0
100
AcDbLine
 10
92.0284
 20
103.014
 30
0.0
 11
90.94520000000001
 21
102.3889999999999
 31
0.0
  0
LINE
  5
158
330
18
100
AcDbEntity
  8
0
100
AcDbLine
 10
90.94520000000001
 20
113.8039999999999
 30
0.0
 11
90.94520000000001
 21
115.055
 31
0.0
  0
LINE
  5
159
330
18
100
AcDbEntity
  8
0
100
AcDbLine
 10
92.0284
 20
113.179
 30
0.0
 11
90.94520000000001
 21
113.8039999999999
 31
0.0
  0
LINE
  5
15A
330
18
100
AcDbEntity
  8
0
100
AcDbLine
 10
93.1122
 20
113.8039999999999
 30
0.0
 11
92.0284
 21
113.179
 31
0.0
  0
LINE
  5
15B
330
18
100
AcDbEntity
  8
0
100
AcDbLine
 10
93.1122
 20
115.055
 30
0.0
 11
93.1122
 21
113.8039999999999
 31
0.0
  0
LINE
  5
15C
330
18
100
AcDbEntity
  8
0
100
AcDbLine
 10
92.0284
 20
115.68
 30
0.0
 11
93.1122
 21
115.055
 31
0.0
  0
LINE
  5
15D
330
18
100
AcDbEntity
  8
0
100
AcDbLine
 10
90.94520000000001
 20
115.055
 30
0.0
 11
92.0284
 21
115.68
 31
0.0
  0
ARC
  5
15E
330
18
100
AcDbEntity
  8
0
100
AcDbCircle
 10
106.596886
 20
114.361222
 30
0.0
 40
0.431812
100
AcDbArc
 50
272.039597
 51
357.960413
  0
ARC
  5
15F
330
18
100
AcDbEntity
  8
0
100
AcDbCircle
 10
106.5954499999999
 20
114.330123
 30
0.0
 40
0.433261
100
AcDbArc
 50
2.080753
 51
87.77712300000001
  0
ARC
  5
160
330
18
100
AcDbEntity
  8
0
100
AcDbCircle
 10
107.4139699999999
 20
115.147927
 30
0.0
 40
0.86561
100
AcDbArc
 50
2.095064999999999
 51
87.88123399999999
  0
LINE
  5
161
330
18
100
AcDbEntity
  8
0
100
AcDbLine
 10
107.0289999999999
 20
105.596
 30
0.0
 11
107.0289999999999
 21
110.596
 31
0.0
  0
LINE
  5
162
330
18
100
AcDbEntity
  8
0
100
AcDbLine
 10
106.196
 20
110.596
 30
0.0
 11
106.196
 21
105.596
 31
0.0
  0
ARC
  5
163
330
18
100
AcDbEntity
  8
0
100
AcDbCircle
 10
106.595803
 20
110.580452
 30
0.0
 40
0.4329080000000001
100
AcDbArc
 50
2.083102999999999
 51
87.82210500000001
  0
ARC
  5
164
330
18
100
AcDbEntity
  8
0
100
AcDbCircle
 10
106.628049
 20
110.581108
 30
0.0
 40
0.4322280000000001
100
AcDbArc
 50
92.09413899999999
 51
178.0006139999999
  0
ARC
  5
165
330
18
100
AcDbEntity
  8
0
100
AcDbCircle
 10
103.2945779999999
 20
114.331106
 30
0.0
 40
0.432241
100
AcDbArc
 50
92.09731500000001
 51
178.04477
  0
ARC
  5
166
330
18
100
AcDbEntity
  8
0
100
AcDbCircle
 10
103.2945039999999
 20
114.361599
 30
0.0
 40
0.432203
100
AcDbArc
 50
182.0878189999999
 51
267.91221
  0
LINE
  5
167
330
18
100
AcDbEntity
  8
0
100
AcDbLine
 10
93.6958
 20
112.8179999999999
 30
0.0
 11
93.6958
 21
115.18
 31
0.0
  0
LINE
  5
168
330
18
100
AcDbEntity
  8
0
100
AcDbLine
 10
93.6958
 20
112.8179999999999
 30
0.0
 11
93.6958
 21
112.582
 31
0.0
  0
LINE
  5
169
330
18
100
AcDbEntity
  8
0
100
AcDbLine
 10
93.6958
 20
112.2079999999999
 30
0.0
 11
93.6958
 21
112.582
 31
0.0
  0
LINE
  5
16A
330
18
100
AcDbEntity
  8
0
100
AcDbLine
 10
93.6958
 20
112.2079999999999
 30
0.0
 11
93.6958
 21
111.737
 31
0.0
  0
LINE
  5
16B
330
18
100
AcDbEntity
  8
0
100
AcDbLine
 10
96.19559999999999
 20
114.18
 30
0.0
 11
95.27919999999999
 21
114.18
 31
0.0
  0
ARC
  5
16C
330
18
100
AcDbEntity
  8
0
100
AcDbCircle
 10
95.282241
 20
114.0926659999999
 30
0.0
 40
0.087187
100
AcDbArc
 50
92.001127
 51
177.527276
  0
LINE
  5
16D
330
18
100
AcDbEntity
  8
0
100
AcDbLine
 10
95.27919999999999
 20
112.5129999999999
 30
0.0
 11
96.19559999999999
 21
112.5129999999999
 31
0.0
  0
ARC
  5
16E
330
18
100
AcDbEntity
  8
0
100
AcDbCircle
 10
95.281599
 20
112.5995379999999
 30
0.0
 40
0.08652
100
AcDbArc
 50
182.063009
 51
268.4085889999999
  0
LINE
  5
16F
330
18
100
AcDbEntity
  8
0
100
AcDbLine
 10
95.27919999999999
 20
114.18
 30
0.0
 11
95.27919999999999
 21
112.5129999999999
 31
0.0
  0
LINE
  5
170
330
18
100
AcDbEntity
  8
0
100
AcDbLine
 10
95.1951
 20
112.596
 30
0.0
 11
95.1951
 21
114.0959999999999
 31
0.0
  0
ARC
  5
171
330
18
100
AcDbEntity
  8
0
100
AcDbCircle
 10
94.612049
 20
116.013118
 30
0.0
 40
1.000289999999999
100
AcDbArc
 50
180.0098769999999
 51
270.009887
  0
ARC
  5
172
330
18
100
AcDbEntity
  8
0
100
AcDbCircle
 10
94.612394
 20
116.013118
 30
0.0
 40
1.000289999999999
100
AcDbArc
 50
269.9901529999999
 51
359.9901229999999
  0
LINE
  5
173
330
18
100
AcDbEntity
  8
0
100
AcDbLine
 10
102.8629999999999
 20
110.596
 30
0.0
 11
102.8629999999999
 21
105.596
 31
0.0
  0
LINE
  5
174
330
18
100
AcDbEntity
  8
0
100
AcDbLine
 10
103.696
 20
105.596
 30
0.0
 11
103.696
 21
110.596
 31
0.0
  0
ARC
  5
175
330
18
100
AcDbEntity
  8
0
100
AcDbCircle
 10
103.2629739999999
 20
110.5804039999999
 30
0.0
 40
0.4329310000000001
100
AcDbArc
 50
2.089436999999999
 51
87.91055300000001
  0
ARC
  5
176
330
18
100
AcDbEntity
  8
0
100
AcDbCircle
 10
103.294553
 20
110.581108
 30
0.0
 40
0.4322280000000001
100
AcDbArc
 50
92.09413899999999
 51
178.0006139999999
  0
LINE
  5
177
330
18
100
AcDbEntity
  8
0
100
AcDbLine
 10
95.0284
 20
110.596
 30
0.0
 11
95.0284
 21
105.596
 31
0.0
  0
LINE
  5
178
330
18
100
AcDbEntity
  8
0
100
AcDbLine
 10
94.94570000000001
 20
105.679
 30
0.0
 11
94.94570000000001
 21
110.5129999999999
 31
0.0
  0
LINE
  5
179
330
18
100
AcDbEntity
  8
0
100
AcDbLine
 10
95.0284
 20
105.596
 30
0.0
 11
96.19559999999999
 21
105.596
 31
0.0
  0
LINE
  5
17A
330
18
100
AcDbEntity
  8
0
100
AcDbLine
 10
94.94570000000001
 20
105.679
 30
0.0
 11
95.0284
 21
105.596
 31
0.0
  0
LINE
  5
17B
330
18
100
AcDbEntity
  8
0
100
AcDbLine
 10
96.19559999999999
 20
110.596
 30
0.0
 11
95.0284
 21
110.596
 31
0.0
  0
LINE
  5
17C
330
18
100
AcDbEntity
  8
0
100
AcDbLine
 10
95.0284
 20
110.596
 30
0.0
 11
94.94570000000001
 21
110.5129999999999
 31
0.0
  0
LINE
  5
17D
330
18
100
AcDbEntity
  8
0
100
AcDbLine
 10
92.8621
 20
116.0129999999999
 30
0.0
 11
88.0286
 21
116.0129999999999
 31
0.0
  0
ARC
  5
17E
330
18
100
AcDbEntity
  8
0
100
AcDbCircle
 10
90.37983100000001
 20
115.077979
 30
0.0
 40
0.476744
100
AcDbArc
 50
92.10433
 51
177.8095459999999
  0
ARC
  5
17F
330
18
100
AcDbEntity
  8
0
100
AcDbCircle
 10
90.37920900000001
 20
115.113799
 30
0.0
 40
0.476099
100
AcDbArc
 50
182.1183929999999
 51
267.967731
  0
ARC
  5
180
330
18
100
AcDbEntity
  8
0
100
AcDbCircle
 10
90.345043
 20
115.1134829999999
 30
0.0
 40
0.4757970000000001
100
AcDbArc
 50
272.081628
 51
357.918382
  0
ARC
  5
181
330
18
100
AcDbEntity
  8
0
100
AcDbCircle
 10
90.34477499999999
 20
115.0786499999999
 30
0.0
 40
0.4760740000000001
100
AcDbArc
 50
2.112630999999999
 51
87.887359
  0
ARC
  5
182
330
18
100
AcDbEntity
  8
0
100
AcDbCircle
 10
89.554643
 20
113.736904
 30
0.0
 40
0.710024
100
AcDbArc
 50
92.10142199999999
 51
177.898549
  0
ARC
  5
183
330
18
100
AcDbEntity
  8
0
100
AcDbCircle
 10
89.554643
 20
113.788975
 30
0.0
 40
0.710024
100
AcDbArc
 50
182.1014509999999
 51
267.898578
  0
ARC
  5
184
330
18
100
AcDbEntity
  8
0
100
AcDbCircle
 10
89.50257099999999
 20
113.7889759999999
 30
0.0
 40
0.710025
100
AcDbArc
 50
272.1014589999999
 51
357.8985509999999
  0
ARC
  5
185
330
18
100
AcDbEntity
  8
0
100
AcDbCircle
 10
89.50257099999999
 20
113.736904
 30
0.0
 40
0.710025
100
AcDbArc
 50
2.101449
 51
87.89854100000001
  0
ARC
  5
186
330
18
100
AcDbEntity
  8
0
100
AcDbCircle
 10
91.10377300000001
 20
115.2637659999999
 30
0.0
 40
0.7414480000000001
100
AcDbArc
 50
157.211148
 51
180.0635699999999
  0
LINE
  5
187
330
18
100
AcDbEntity
  8
0
100
AcDbLine
 10
90.36230000000001
 20
114.6379999999999
 30
0.0
 11
90.36230000000001
 21
115.263
 31
0.0
  0
ARC
  5
188
330
18
100
AcDbEntity
  8
0
100
AcDbCircle
 10
92.06840600000001
 20
114.3902629999999
 30
0.0
 40
1.081851
100
AcDbArc
 50
92.12008800000001
 51
177.9177889999999
  0
ARC
  5
189
330
18
100
AcDbEntity
  8
0
100
AcDbCircle
 10
92.06868599999999
 20
114.4695139999999
 30
0.0
 40
1.082154
100
AcDbArc
 50
182.115396
 51
267.8656769999999
  0
ARC
  5
18A
330
18
100
AcDbEntity
  8
0
100
AcDbCircle
 10
91.98843399999999
 20
114.469878
 30
0.0
 40
1.082504
100
AcDbArc
 50
272.114997
 51
357.8660629999999
  0
ARC
  5
18B
330
18
100
AcDbEntity
  8
0
100
AcDbCircle
 10
91.98838999999999
 20
114.3895749999999
 30
0.0
 40
1.082537
100
AcDbArc
 50
2.11728
 51
87.88270999999999
  0
ARC
  5
18C
330
18
100
AcDbEntity
  8
0
100
AcDbCircle
 10
92.060072
 20
114.3982399999999
 30
0.0
 40
0.8652840000000001
100
AcDbArc
 50
92.09869599999999
 51
177.9249649999999
  0
ARC
  5
18D
330
18
100
AcDbEntity
  8
0
100
AcDbCircle
 10
92.06038599999999
 20
114.4612139999999
 30
0.0
 40
0.86561
100
AcDbArc
 50
182.0950679999999
 51
267.8812709999999
  0
ARC
  5
18E
330
18
100
AcDbEntity
  8
0
100
AcDbCircle
 10
91.996724
 20
114.461587
 30
0.0
 40
0.86597
100
AcDbArc
 50
272.09521
 51
357.881119
  0
ARC
  5
18F
330
18
100
AcDbEntity
  8
0
100
AcDbCircle
 10
91.99704799999999
 20
114.397877
 30
0.0
 40
0.8656349999999999
100
AcDbArc
 50
2.098234
 51
87.92543700000001
  0
LINE
  5
190
330
18
100
AcDbEntity
  8
0
100
AcDbLine
 10
92.1517
 20
113.9639999999999
 30
0.0
 11
92.4928
 21
114.3029999999999
 31
0.0
  0
LINE
  5
191
330
18
100
AcDbEntity
  8
0
100
AcDbLine
 10
91.5647
 20
114.555
 30
0.0
 11
91.6873
 21
114.091
 31
0.0
  0
LINE
  5
192
330
18
100
AcDbEntity
  8
0
100
AcDbLine
 10
91.6873
 20
114.091
 30
0.0
 11
92.1517
 21
113.9639999999999
 31
0.0
  0
LINE
  5
193
330
18
100
AcDbEntity
  8
0
100
AcDbLine
 10
92.4928
 20
114.3029999999999
 30
0.0
 11
92.37009999999999
 21
114.7689999999999
 31
0.0
  0
LINE
  5
194
330
18
100
AcDbEntity
  8
0
100
AcDbLine
 10
91.90569999999999
 20
114.8939999999999
 30
0.0
 11
91.5647
 21
114.555
 31
0.0
  0
LINE
  5
195
330
18
100
AcDbEntity
  8
0
100
AcDbLine
 10
92.37009999999999
 20
114.7689999999999
 30
0.0
 11
91.90569999999999
 21
114.8939999999999
 31
0.0
  0
ARC
  5
196
330
18
100
AcDbEntity
  8
0
100
AcDbCircle
 10
87.067416
 20
116.051174
 30
0.0
 40
1.039062
100
AcDbArc
 50
182.1084659999999
 51
267.871824
  0
ARC
  5
197
330
18
100
AcDbEntity
  8
0
100
AcDbCircle
 10
86.990186
 20
116.051232
 30
0.0
 40
1.039121999999999
100
AcDbArc
 50
272.1312689999999
 51
357.888481
  0
LINE
  5
198
330
18
100
AcDbEntity
  8
0
100
AcDbLine
 10
90.36230000000001
 20
107.413
 30
0.0
 11
90.36230000000001
 21
108.78
 31
0.0
  0
ARC
  5
199
330
18
100
AcDbEntity
  8
0
100
AcDbCircle
 10
90.38833699999999
 20
108.0700419999999
 30
0.0
 40
0.710013
100
AcDbArc
 50
92.09950800000001
 51
177.871576
  0
ARC
  5
19A
330
18
100
AcDbEntity
  8
0
100
AcDbCircle
 10
90.38836100000001
 20
108.1224469999999
 30
0.0
 40
0.710024
100
AcDbArc
 50
182.1014509999999
 51
267.898578
  0
ARC
  5
19B
330
18
100
AcDbEntity
  8
0
100
AcDbCircle
 10
90.33628900000001
 20
108.1224469999999
 30
0.0
 40
0.710025
100
AcDbArc
 50
272.1014589999999
 51
357.8985509999999
  0
ARC
  5
19C
330
18
100
AcDbEntity
  8
0
100
AcDbCircle
 10
90.33645099999999
 20
108.070179
 30
0.0
 40
0.70987
100
AcDbArc
 50
2.117723999999999
 51
87.911152
  0
ARC
  5
19D
330
18
100
AcDbEntity
  8
0
100
AcDbCircle
 10
92.054643
 20
106.7369179999999
 30
0.0
 40
0.709541
100
AcDbArc
 50
92.120884
 51
177.9368739999999
  0
ARC
  5
19E
330
18
100
AcDbEntity
  8
0
100
AcDbCircle
 10
92.054594
 20
106.7886719999999
 30
0.0
 40
0.709517
100
AcDbArc
 50
182.11705
 51
267.8829799999999
  0
ARC
  5
19F
330
18
100
AcDbEntity
  8
0
100
AcDbCircle
 10
92.002397
 20
106.7891639999999
 30
0.0
 40
0.7100010000000001
100
AcDbArc
 50
272.097597
 51
357.844626
  0
ARC
  5
1A0
330
18
100
AcDbEntity
  8
0
100
AcDbCircle
 10
92.002348
 20
106.7364259999999
 30
0.0
 40
0.710025
100
AcDbArc
 50
2.101449
 51
87.89854100000001
  0
ARC
  5
1A1
330
18
100
AcDbEntity
  8
0
100
AcDbCircle
 10
92.054594
 20
109.403461
 30
0.0
 40
0.709517
100
AcDbArc
 50
92.11702
 51
177.88295
  0
ARC
  5
1A2
330
18
100
AcDbEntity
  8
0
100
AcDbCircle
 10
92.05508700000001
 20
109.455658
 30
0.0
 40
0.7100010000000001
100
AcDbArc
 50
182.09759
 51
267.8446529999999
  0
ARC
  5
1A3
330
18
100
AcDbEntity
  8
0
100
AcDbCircle
 10
92.002348
 20
109.455707
 30
0.0
 40
0.710025
100
AcDbArc
 50
272.1014589999999
 51
357.8985509999999
  0
ARC
  5
1A4
330
18
100
AcDbEntity
  8
0
100
AcDbCircle
 10
92.00284000000001
 20
109.403412
 30
0.0
 40
0.709541
100
AcDbArc
 50
2.120910999999999
 51
87.936866
  0
ARC
  5
1A5
330
18
100
AcDbEntity
  8
0
100
AcDbCircle
 10
92.83076599999999
 20
115.147879
 30
0.0
 40
0.8656349999999999
100
AcDbArc
 50
2.098234
 51
87.92543700000001
  0
LINE
  5
1A6
330
18
100
AcDbEntity
  8
0
100
AcDbLine
 10
93.6118
 20
116.0129999999999
 30
0.0
 11
92.8621
 21
116.0129999999999
 31
0.0
  0
ARC
  5
1A7
330
18
100
AcDbEntity
  8
0
100
AcDbCircle
 10
75.362112
 20
116.013118
 30
0.0
 40
1.000289999999999
100
AcDbArc
 50
180.0098769999999
 51
270.009887
  0
ARC
  5
1A8
330
18
100
AcDbEntity
  8
0
100
AcDbCircle
 10
75.32362500000001
 20
116.051247
 30
0.0
 40
1.039137999999999
100
AcDbArc
 50
272.132089
 51
357.887661
  0
ARC
  5
1A9
330
18
100
AcDbEntity
  8
0
100
AcDbCircle
 10
63.73364200000001
 20
116.051186
 30
0.0
 40
1.039068
100
AcDbArc
 50
182.109125
 51
267.881035
  0
ARC
  5
1AA
330
18
100
AcDbEntity
  8
0
100
AcDbCircle
 10
63.69522299999999
 20
116.012946
 30
0.0
 40
1.000118
100
AcDbArc
 50
270.00002
 51
359.9999899999999
  0
ARC
  5
1AB
330
18
100
AcDbEntity
  8
0
100
AcDbCircle
 10
61.22131899999999
 20
113.7370729999999
 30
0.0
 40
0.7098560000000001
100
AcDbArc
 50
92.10268799999999
 51
177.9117229999999
  0
ARC
  5
1AC
330
18
100
AcDbEntity
  8
0
100
AcDbCircle
 10
61.221476
 20
113.7889629999999
 30
0.0
 40
0.710018
100
AcDbArc
 50
182.100486
 51
267.885102
  0
ARC
  5
1AD
330
18
100
AcDbEntity
  8
0
100
AcDbCircle
 10
61.169238
 20
113.7889759999999
 30
0.0
 40
0.710025
100
AcDbArc
 50
272.1014589999999
 51
357.8985509999999
  0
ARC
  5
1AE
330
18
100
AcDbEntity
  8
0
100
AcDbCircle
 10
61.169238
 20
113.736904
 30
0.0
 40
0.710025
100
AcDbArc
 50
2.101449
 51
87.89854100000001
  0
ARC
  5
1AF
330
18
100
AcDbEntity
  8
0
100
AcDbCircle
 10
58.727003
 20
114.3978909999999
 30
0.0
 40
0.8656319999999999
100
AcDbArc
 50
92.09724499999998
 51
177.902726
  0
ARC
  5
1B0
330
18
100
AcDbEntity
  8
0
100
AcDbCircle
 10
58.727385
 20
114.461631
 30
0.0
 40
0.866028
100
AcDbArc
 50
182.121622
 51
267.878408
  0
ARC
  5
1B1
330
18
100
AcDbEntity
  8
0
100
AcDbCircle
 10
58.66364599999999
 20
114.4610699999999
 30
0.0
 40
0.865454
100
AcDbArc
 50
272.0976959999999
 51
357.9141579999999
  0
ARC
  5
1B2
330
18
100
AcDbEntity
  8
0
100
AcDbCircle
 10
58.663097
 20
114.397521
 30
0.0
 40
0.8660219999999998
100
AcDbArc
 50
2.120811
 51
87.867335
  0
ARC
  5
1B3
330
18
100
AcDbEntity
  8
0
100
AcDbCircle
 10
58.73531800000001
 20
114.389755
 30
0.0
 40
1.082357
100
AcDbArc
 50
92.11757599999998
 51
177.8918689999999
  0
ARC
  5
1B4
330
18
100
AcDbEntity
  8
0
100
AcDbCircle
 10
58.735126
 20
114.469551
 30
0.0
 40
1.082171999999999
100
AcDbArc
 50
182.117296
 51
267.89221
  0
ARC
  5
1B5
330
18
100
AcDbEntity
  8
0
100
AcDbCircle
 10
58.655354
 20
114.469898
 30
0.0
 40
1.082524999999999
100
AcDbArc
 50
272.116024
 51
357.8650350000001
  0
ARC
  5
1B6
330
18
100
AcDbEntity
  8
0
100
AcDbCircle
 10
58.65533
 20
114.3895749999999
 30
0.0
 40
1.082537
100
AcDbArc
 50
2.11728
 51
87.88270999999999
  0
LINE
  5
1B7
330
18
100
AcDbEntity
  8
0
100
AcDbLine
 10
58.23109999999999
 20
114.555
 30
0.0
 11
58.3539
 21
114.091
 31
0.0
  0
LINE
  5
1B8
330
18
100
AcDbEntity
  8
0
100
AcDbLine
 10
58.8181
 20
113.9639999999999
 30
0.0
 11
59.1597
 21
114.3029999999999
 31
0.0
  0
LINE
  5
1B9
330
18
100
AcDbEntity
  8
0
100
AcDbLine
 10
57.0287
 20
115.18
 30
0.0
 11
57.0287
 21
112.8179999999999
 31
0.0
  0
LINE
  5
1BA
330
18
100
AcDbEntity
  8
0
100
AcDbLine
 10
57.0287
 20
112.582
 30
0.0
 11
57.0287
 21
112.8179999999999
 31
0.0
  0
LINE
  5
1BB
330
18
100
AcDbEntity
  8
0
100
AcDbLine
 10
57.0287
 20
112.582
 30
0.0
 11
57.0287
 21
112.2079999999999
 31
0.0
  0
LINE
  5
1BC
330
18
100
AcDbEntity
  8
0
100
AcDbLine
 10
57.0287
 20
111.737
 30
0.0
 11
57.0287
 21
112.2079999999999
 31
0.0
  0
LINE
  5
1BD
330
18
100
AcDbEntity
  8
0
100
AcDbLine
 10
58.3539
 20
114.091
 30
0.0
 11
58.8181
 21
113.9639999999999
 31
0.0
  0
ARC
  5
1BE
330
18
100
AcDbEntity
  8
0
100
AcDbCircle
 10
57.893628
 20
115.148073
 30
0.0
 40
0.8654530000000001
100
AcDbArc
 50
92.097659
 51
177.914156
  0
LINE
  5
1BF
330
18
100
AcDbEntity
  8
0
100
AcDbLine
 10
57.862
 20
116.0129999999999
 30
0.0
 11
57.0287
 21
116.0129999999999
 31
0.0
  0
LINE
  5
1C0
330
18
100
AcDbEntity
  8
0
100
AcDbLine
 10
58.57269999999999
 20
114.8939999999999
 30
0.0
 11
58.23109999999999
 21
114.555
 31
0.0
  0
ARC
  5
1C1
330
18
100
AcDbEntity
  8
0
100
AcDbCircle
 10
59.52132299999999
 20
115.178682
 30
0.0
 40
0.8404049999999999
100
AcDbArc
 50
0.060703
 51
25.979553
  0
LINE
  5
1C2
330
18
100
AcDbEntity
  8
0
100
AcDbLine
 10
59.1597
 20
114.3029999999999
 30
0.0
 11
59.0366
 21
114.7689999999999
 31
0.0
  0
LINE
  5
1C3
330
18
100
AcDbEntity
  8
0
100
AcDbLine
 10
60.3617
 20
114.6379999999999
 30
0.0
 11
60.3617
 21
115.18
 31
0.0
  0
LINE
  5
1C4
330
18
100
AcDbEntity
  8
0
100
AcDbLine
 10
59.0366
 20
114.7689999999999
 30
0.0
 11
58.57269999999999
 21
114.8939999999999
 31
0.0
  0
ARC
  5
1C5
330
18
100
AcDbEntity
  8
0
100
AcDbCircle
 10
60.379279
 20
115.079006
 30
0.0
 40
0.475719
100
AcDbArc
 50
92.11440999999998
 51
177.928656
  0
ARC
  5
1C6
330
18
100
AcDbEntity
  8
0
100
AcDbCircle
 10
60.379611
 20
115.113726
 30
0.0
 40
0.476062
100
AcDbArc
 50
182.109755
 51
267.8471789999999
  0
ARC
  5
1C7
330
18
100
AcDbEntity
  8
0
100
AcDbCircle
 10
60.344628
 20
115.113835
 30
0.0
 40
0.4761430000000001
100
AcDbArc
 50
272.05801
 51
357.8774169999999
  0
ARC
  5
1C8
330
18
100
AcDbEntity
  8
0
100
AcDbCircle
 10
60.344677
 20
115.0786139999999
 30
0.0
 40
0.476093
100
AcDbArc
 50
2.11695
 51
87.947623
  0
LINE
  5
1C9
330
18
100
AcDbEntity
  8
0
100
AcDbLine
 10
57.862
 20
116.0129999999999
 30
0.0
 11
62.6953
 21
116.0129999999999
 31
0.0
  0
LINE
  5
1CA
330
18
100
AcDbEntity
  8
0
100
AcDbLine
 10
60.3617
 20
107.413
 30
0.0
 11
60.3617
 21
108.78
 31
0.0
  0
ARC
  5
1CB
330
18
100
AcDbEntity
  8
0
100
AcDbCircle
 10
60.387948
 20
108.0703689999999
 30
0.0
 40
0.7096930000000001
100
AcDbArc
 50
92.117359
 51
177.89706
  0
ARC
  5
1CC
330
18
100
AcDbEntity
  8
0
100
AcDbCircle
 10
60.388263
 20
108.12241
 30
0.0
 40
0.710006
100
AcDbArc
 50
182.0985549999999
 51
267.85814
  0
ARC
  5
1CD
330
18
100
AcDbEntity
  8
0
100
AcDbCircle
 10
60.33569100000001
 20
108.1224469999999
 30
0.0
 40
0.710025
100
AcDbArc
 50
272.1014589999999
 51
357.8985509999999
  0
ARC
  5
1CE
330
18
100
AcDbEntity
  8
0
100
AcDbCircle
 10
60.33605099999999
 20
108.070377
 30
0.0
 40
0.709666
100
AcDbArc
 50
2.102381
 51
87.92649499999999
  0
ARC
  5
1CF
330
18
100
AcDbEntity
  8
0
100
AcDbCircle
 10
58.721369
 20
106.7365949999999
 30
0.0
 40
0.7098560000000001
100
AcDbArc
 50
92.10268799999999
 51
177.9117229999999
  0
ARC
  5
1D0
330
18
100
AcDbEntity
  8
0
100
AcDbCircle
 10
58.72083700000001
 20
106.78851
 30
0.0
 40
0.7093300000000001
100
AcDbArc
 50
182.1045859999999
 51
267.938789
  0
ARC
  5
1D1
330
18
100
AcDbEntity
  8
0
100
AcDbCircle
 10
58.669337
 20
106.7891639999999
 30
0.0
 40
0.7100010000000001
100
AcDbArc
 50
272.097597
 51
357.844626
  0
ARC
  5
1D2
330
18
100
AcDbEntity
  8
0
100
AcDbCircle
 10
58.669288
 20
106.7364259999999
 30
0.0
 40
0.710025
100
AcDbArc
 50
2.101449
 51
87.89854100000001
  0
ARC
  5
1D3
330
18
100
AcDbEntity
  8
0
100
AcDbCircle
 10
58.72132099999999
 20
109.4031379999999
 30
0.0
 40
0.7098320000000001
100
AcDbArc
 50
92.098843
 51
177.857782
  0
ARC
  5
1D4
330
18
100
AcDbEntity
  8
0
100
AcDbCircle
 10
58.721526
 20
109.4556949999999
 30
0.0
 40
0.710018
100
AcDbArc
 50
182.100486
 51
267.885102
  0
ARC
  5
1D5
330
18
100
AcDbEntity
  8
0
100
AcDbCircle
 10
58.669288
 20
109.455707
 30
0.0
 40
0.710025
100
AcDbArc
 50
272.1014589999999
 51
357.8985509999999
  0
ARC
  5
1D6
330
18
100
AcDbEntity
  8
0
100
AcDbCircle
 10
58.669978
 20
109.40361
 30
0.0
 40
0.7093370000000001
100
AcDbArc
 50
2.10555
 51
87.95222700000001
  0
LINE
  5
1D7
330
18
100
AcDbEntity
  8
0
100
AcDbLine
 10
64.6953
 20
116.0129999999999
 30
0.0
 11
74.3618
 21
116.0129999999999
 31
0.0
  0
LINE
  5
1D8
330
18
100
AcDbEntity
  8
0
100
AcDbLine
 10
76.3621
 20
116.0129999999999
 30
0.0
 11
86.02909999999999
 21
116.0129999999999
 31
0.0
  0
LINE
  5
1D9
330
18
100
AcDbEntity
  8
0
100
AcDbLine
 10
93.6958
 20
111.737
 30
0.0
 11
85.287
 21
111.737
 31
0.0
  0
LINE
  5
1DA
330
18
100
AcDbEntity
  8
0
100
AcDbLine
 10
78.4367
 20
111.737
 30
0.0
 11
72.2886
 21
111.737
 31
0.0
  0
LINE
  5
1DB
330
18
100
AcDbEntity
  8
0
100
AcDbLine
 10
65.4354
 20
111.737
 30
0.0
 11
57.0287
 21
111.737
 31
0.0
  0
LINE
  5
1DC
330
18
100
AcDbEntity
  8
0
100
AcDbLine
 10
93.6958
 20
112.582
 30
0.0
 11
84.07049999999999
 21
112.582
 31
0.0
  0
LINE
  5
1DD
330
18
100
AcDbEntity
  8
0
100
AcDbLine
 10
79.652
 20
112.582
 30
0.0
 11
71.06570000000001
 21
112.582
 31
0.0
  0
LINE
  5
1DE
330
18
100
AcDbEntity
  8
0
100
AcDbLine
 10
66.65600000000001
 20
112.582
 30
0.0
 11
57.0287
 21
112.582
 31
0.0
  0
LINE
  5
1DF
330
18
100
AcDbEntity
  8
0
100
AcDbLine
 10
107.4459999999999
 20
116.0129999999999
 30
0.0
 11
95.6127
 21
116.0129999999999
 31
0.0
  0
LINE
  5
1E0
330
18
100
AcDbEntity
  8
0
100
AcDbLine
 10
106.612
 20
114.7629999999999
 30
0.0
 11
103.2789999999999
 21
114.7629999999999
 31
0.0
  0
LINE
  5
1E1
330
18
100
AcDbEntity
  8
0
100
AcDbLine
 10
103.2789999999999
 20
113.93
 30
0.0
 11
106.612
 21
113.93
 31
0.0
  0
LINE
  5
1E2
330
18
100
AcDbEntity
  8
0
100
AcDbLine
 10
44.5285
 20
113.93
 30
0.0
 11
47.862
 21
113.93
 31
0.0
  0
LINE
  5
1E3
330
18
100
AcDbEntity
  8
0
100
AcDbLine
 10
47.862
 20
114.7629999999999
 30
0.0
 11
44.5285
 21
114.7629999999999
 31
0.0
  0
ARC
  5
1E4
330
18
100
AcDbEntity
  8
0
100
AcDbCircle
 10
44.544296
 20
114.330578
 30
0.0
 40
0.4327680000000001
100
AcDbArc
 50
92.09376100000001
 51
177.977223
  0
ARC
  5
1E5
330
18
100
AcDbEntity
  8
0
100
AcDbCircle
 10
44.54386399999999
 20
114.3617679999999
 30
0.0
 40
0.432358
100
AcDbArc
 50
182.10948
 51
267.9616509999999
  0
ARC
  5
1E6
330
18
100
AcDbEntity
  8
0
100
AcDbCircle
 10
47.846594
 20
114.361776
 30
0.0
 40
0.432366
100
AcDbArc
 50
272.039371
 51
357.889538
  0
ARC
  5
1E7
330
18
100
AcDbEntity
  8
0
100
AcDbCircle
 10
47.845544
 20
114.3299529999999
 30
0.0
 40
0.433416
100
AcDbArc
 50
2.102405
 51
87.826572
  0
LINE
  5
1E8
330
18
100
AcDbEntity
  8
0
100
AcDbLine
 10
44.1118
 20
110.596
 30
0.0
 11
44.1118
 21
105.596
 31
0.0
  0
LINE
  5
1E9
330
18
100
AcDbEntity
  8
0
100
AcDbLine
 10
44.9453
 20
105.596
 30
0.0
 11
44.9453
 21
110.596
 31
0.0
  0
LINE
  5
1EA
330
18
100
AcDbEntity
  8
0
100
AcDbLine
 10
47.4451
 20
110.596
 30
0.0
 11
47.4451
 21
105.596
 31
0.0
  0
LINE
  5
1EB
330
18
100
AcDbEntity
  8
0
100
AcDbLine
 10
48.2787
 20
105.596
 30
0.0
 11
48.2787
 21
110.596
 31
0.0
  0
ARC
  5
1EC
330
18
100
AcDbEntity
  8
0
100
AcDbCircle
 10
44.512568
 20
110.580271
 30
0.0
 40
0.433069
100
AcDbArc
 50
2.10634
 51
87.89365
  0
ARC
  5
1ED
330
18
100
AcDbEntity
  8
0
100
AcDbCircle
 10
44.544272
 20
110.5805799999999
 30
0.0
 40
0.4327550000000001
100
AcDbArc
 50
92.09059000000001
 51
177.933061
  0
ARC
  5
1EE
330
18
100
AcDbEntity
  8
0
100
AcDbCircle
 10
47.84589699999999
 20
110.580283
 30
0.0
 40
0.4330630000000001
100
AcDbArc
 50
2.104756999999999
 51
87.871552
  0
ARC
  5
1EF
330
18
100
AcDbEntity
  8
0
100
AcDbCircle
 10
47.877765
 20
110.5804039999999
 30
0.0
 40
0.4329310000000001
100
AcDbArc
 50
92.08941000000001
 51
177.91056
  0
ARC
  5
1F0
330
18
100
AcDbEntity
  8
0
100
AcDbCircle
 10
43.69519799999999
 20
115.179486
 30
0.0
 40
0.8334600000000001
100
AcDbArc
 50
89.99407899999999
 51
179.994049
  0
LINE
  5
1F1
330
18
100
AcDbEntity
  8
0
100
AcDbLine
 10
55.0285
 20
116.0129999999999
 30
0.0
 11
43.6953
 21
116.0129999999999
 31
0.0
  0
ARC
  5
1F2
330
18
100
AcDbEntity
  8
0
100
AcDbCircle
 10
56.02871700000001
 20
116.013032
 30
0.0
 40
1.000204
100
AcDbArc
 50
180.004944
 51
270.004954
  0
ARC
  5
1F3
330
18
100
AcDbEntity
  8
0
100
AcDbCircle
 10
55.990154
 20
116.0514169999999
 30
0.0
 40
1.039306999999999
100
AcDbArc
 50
272.1312119999999
 51
357.8786669999999
  0
ARC
  5
1F4
330
18
100
AcDbEntity
  8
0
100
AcDbCircle
 10
107.414285
 20
101.044236
 30
0.0
 40
0.865285
100
AcDbArc
 50
272.0987329999999
 51
357.924968
  0
ARC
  5
1F5
330
18
100
AcDbEntity
  8
0
100
AcDbCircle
 10
106.596601
 20
101.861219
 30
0.0
 40
0.432082
100
AcDbArc
 50
272.0762119999999
 51
358.0185799999999
  0
ARC
  5
1F6
330
18
100
AcDbEntity
  8
0
100
AcDbCircle
 10
106.596156
 20
101.830538
 30
0.0
 40
0.432555
100
AcDbArc
 50
2.085456999999999
 51
87.867122
  0
ARC
  5
1F7
330
18
100
AcDbEntity
  8
0
100
AcDbCircle
 10
103.294529
 20
101.8308669999999
 30
0.0
 40
0.432215
100
AcDbArc
 50
92.09096399999999
 51
177.956417
  0
ARC
  5
1F8
330
18
100
AcDbEntity
  8
0
100
AcDbCircle
 10
103.2952099999999
 20
101.862015
 30
0.0
 40
0.4329080000000001
100
AcDbArc
 50
182.0831049999999
 51
267.822143
  0
LINE
  5
1F9
330
18
100
AcDbEntity
  8
0
100
AcDbLine
 10
93.6958
 20
103.3749999999999
 30
0.0
 11
93.6958
 21
101.0129999999999
 31
0.0
  0
LINE
  5
1FA
330
18
100
AcDbEntity
  8
0
100
AcDbLine
 10
95.27919999999999
 20
103.68
 30
0.0
 11
95.27919999999999
 21
102.0129999999999
 31
0.0
  0
LINE
  5
1FB
330
18
100
AcDbEntity
  8
0
100
AcDbLine
 10
95.1951
 20
102.096
 30
0.0
 11
95.1951
 21
103.5959999999999
 31
0.0
  0
ARC
  5
1FC
330
18
100
AcDbEntity
  8
0
100
AcDbCircle
 10
94.612394
 20
100.1793589999999
 30
0.0
 40
1.000289999999999
100
AcDbArc
 50
0.009877
 51
90.009847
  0
ARC
  5
1FD
330
18
100
AcDbEntity
  8
0
100
AcDbCircle
 10
94.61204999999999
 20
100.1793589999999
 30
0.0
 40
1.000289999999999
100
AcDbArc
 50
89.99013299999999
 51
179.9901039999999
  0
LINE
  5
1FE
330
18
100
AcDbEntity
  8
0
100
AcDbLine
 10
95.27919999999999
 20
102.0129999999999
 30
0.0
 11
96.19559999999999
 21
102.0129999999999
 31
0.0
  0
ARC
  5
1FF
330
18
100
AcDbEntity
  8
0
100
AcDbCircle
 10
95.281599
 20
102.0995089999999
 30
0.0
 40
0.08652
100
AcDbArc
 50
182.063009
 51
268.4085889999999
  0
LINE
  5
200
330
18
100
AcDbEntity
  8
0
100
AcDbLine
 10
93.6958
 20
103.611
 30
0.0
 11
93.6958
 21
103.3749999999999
 31
0.0
  0
LINE
  5
201
330
18
100
AcDbEntity
  8
0
100
AcDbLine
 10
93.6958
 20
103.9839999999999
 30
0.0
 11
93.6958
 21
103.611
 31
0.0
  0
LINE
  5
202
330
18
100
AcDbEntity
  8
0
100
AcDbLine
 10
93.6958
 20
104.456
 30
0.0
 11
93.6958
 21
103.9839999999999
 31
0.0
  0
LINE
  5
203
330
18
100
AcDbEntity
  8
0
100
AcDbLine
 10
96.19559999999999
 20
103.68
 30
0.0
 11
95.27919999999999
 21
103.68
 31
0.0
  0
ARC
  5
204
330
18
100
AcDbEntity
  8
0
100
AcDbCircle
 10
95.282133
 20
103.5927459999999
 30
0.0
 40
0.087074
100
AcDbArc
 50
91.93265600000001
 51
177.5957469999999
  0
LINE
  5
205
330
18
100
AcDbEntity
  8
0
100
AcDbLine
 10
88.0286
 20
100.18
 30
0.0
 11
92.8621
 21
100.18
 31
0.0
  0
ARC
  5
206
330
18
100
AcDbEntity
  8
0
100
AcDbCircle
 10
90.37985500000001
 20
101.0780449999999
 30
0.0
 40
0.476755
100
AcDbArc
 50
92.10720400000001
 51
177.849735
  0
ARC
  5
207
330
18
100
AcDbEntity
  8
0
100
AcDbCircle
 10
90.37885899999999
 20
101.113538
 30
0.0
 40
0.475749
100
AcDbArc
 50
182.1207919999999
 51
268.0084279999999
  0
ARC
  5
208
330
18
100
AcDbEntity
  8
0
100
AcDbCircle
 10
90.34519000000001
 20
101.113425
 30
0.0
 40
0.475657
100
AcDbArc
 50
272.064447
 51
357.892467
  0
ARC
  5
209
330
18
100
AcDbEntity
  8
0
100
AcDbCircle
 10
90.34445500000002
 20
101.07842
 30
0.0
 40
0.4763930000000001
100
AcDbArc
 50
2.106724
 51
87.85020300000001
  0
LINE
  5
20A
330
18
100
AcDbEntity
  8
0
100
AcDbLine
 10
90.36230000000001
 20
100.929
 30
0.0
 11
90.36230000000001
 21
101.554
 31
0.0
  0
ARC
  5
20B
330
18
100
AcDbEntity
  8
0
100
AcDbCircle
 10
91.10956899999999
 20
100.929531
 30
0.0
 40
0.7472439999999999
100
AcDbArc
 50
180.02628
 51
202.6990419999999
  0
ARC
  5
20C
330
18
100
AcDbEntity
  8
0
100
AcDbCircle
 10
89.554643
 20
102.403502
 30
0.0
 40
0.710024
100
AcDbArc
 50
92.10142199999999
 51
177.898549
  0
ARC
  5
20D
330
18
100
AcDbEntity
  8
0
100
AcDbCircle
 10
89.55428299999999
 20
102.4555719999999
 30
0.0
 40
0.7096650000000001
100
AcDbArc
 50
182.102384
 51
267.926532
  0
ARC
  5
20E
330
18
100
AcDbEntity
  8
0
100
AcDbCircle
 10
89.50259499999999
 20
102.455907
 30
0.0
 40
0.710013
100
AcDbArc
 50
272.0995279999999
 51
357.871596
  0
ARC
  5
20F
330
18
100
AcDbEntity
  8
0
100
AcDbCircle
 10
89.50257099999999
 20
102.403502
 30
0.0
 40
0.710025
100
AcDbArc
 50
2.101449
 51
87.89854100000001
  0
ARC
  5
210
330
18
100
AcDbEntity
  8
0
100
AcDbCircle
 10
92.06840600000001
 20
101.7236
 30
0.0
 40
1.081851
100
AcDbArc
 50
92.12008800000001
 51
177.9177889999999
  0
ARC
  5
211
330
18
100
AcDbEntity
  8
0
100
AcDbCircle
 10
92.06903500000001
 20
101.802843
 30
0.0
 40
1.082502
100
AcDbArc
 50
182.114237
 51
267.8478859999999
  0
ARC
  5
212
330
18
100
AcDbEntity
  8
0
100
AcDbCircle
 10
91.98840999999999
 20
101.802882
 30
0.0
 40
1.082516
100
AcDbArc
 50
272.116263
 51
357.883747
  0
ARC
  5
213
330
18
100
AcDbEntity
  8
0
100
AcDbCircle
 10
91.9884
 20
101.7229229999999
 30
0.0
 40
1.082527
100
AcDbArc
 50
2.116766999999999
 51
87.883224
  0
ARC
  5
214
330
18
100
AcDbEntity
  8
0
100
AcDbCircle
 10
92.060072
 20
101.7315769999999
 30
0.0
 40
0.8652840000000001
100
AcDbArc
 50
92.09869599999999
 51
177.9249649999999
  0
ARC
  5
215
330
18
100
AcDbEntity
  8
0
100
AcDbCircle
 10
92.060735
 20
101.794543
 30
0.0
 40
0.865958
100
AcDbArc
 50
182.0936189999999
 51
267.859039
  0
ARC
  5
216
330
18
100
AcDbEntity
  8
0
100
AcDbCircle
 10
91.99670000000001
 20
101.794592
 30
0.0
 40
0.8659819999999999
100
AcDbArc
 50
272.096793
 51
357.903217
  0
ARC
  5
217
330
18
100
AcDbEntity
  8
0
100
AcDbCircle
 10
91.99704799999999
 20
101.731214
 30
0.0
 40
0.8656349999999999
100
AcDbArc
 50
2.098234
 51
87.92543700000001
  0
LINE
  5
218
330
18
100
AcDbEntity
  8
0
100
AcDbLine
 10
92.1517
 20
101.2979999999999
 30
0.0
 11
92.4928
 21
101.6369999999999
 31
0.0
  0
LINE
  5
219
330
18
100
AcDbEntity
  8
0
100
AcDbLine
 10
91.5647
 20
101.889
 30
0.0
 11
91.6873
 21
101.424
 31
0.0
  0
LINE
  5
21A
330
18
100
AcDbEntity
  8
0
100
AcDbLine
 10
91.6873
 20
101.424
 30
0.0
 11
92.1517
 21
101.2979999999999
 31
0.0
  0
LINE
  5
21B
330
18
100
AcDbEntity
  8
0
100
AcDbLine
 10
92.4928
 20
101.6369999999999
 30
0.0
 11
92.37009999999999
 21
102.102
 31
0.0
  0
LINE
  5
21C
330
18
100
AcDbEntity
  8
0
100
AcDbLine
 10
91.90569999999999
 20
102.2279999999999
 30
0.0
 11
91.5647
 21
101.889
 31
0.0
  0
LINE
  5
21D
330
18
100
AcDbEntity
  8
0
100
AcDbLine
 10
92.37009999999999
 20
102.102
 30
0.0
 11
91.90569999999999
 21
102.2279999999999
 31
0.0
  0
ARC
  5
21E
330
18
100
AcDbEntity
  8
0
100
AcDbCircle
 10
86.99024399999998
 20
100.141303
 30
0.0
 40
1.039062999999999
100
AcDbArc
 50
2.108462999999999
 51
87.871787
  0
ARC
  5
21F
330
18
100
AcDbEntity
  8
0
100
AcDbCircle
 10
87.06747299999999
 20
100.141246
 30
0.0
 40
1.039121999999999
100
AcDbArc
 50
92.13123200000001
 51
177.888478
  0
ARC
  5
220
330
18
100
AcDbEntity
  8
0
100
AcDbCircle
 10
92.830442
 20
101.044923
 30
0.0
 40
0.86597
100
AcDbArc
 50
272.09521
 51
357.881119
  0
LINE
  5
221
330
18
100
AcDbEntity
  8
0
100
AcDbLine
 10
93.6118
 20
100.18
 30
0.0
 11
92.8621
 21
100.18
 31
0.0
  0
LINE
  5
222
330
18
100
AcDbEntity
  8
0
100
AcDbLine
 10
71.1954
 20
100.18
 30
0.0
 11
74.3618
 21
100.18
 31
0.0
  0
ARC
  5
223
330
18
100
AcDbEntity
  8
0
100
AcDbCircle
 10
75.32369799999999
 20
100.141303
 30
0.0
 40
1.039062999999999
100
AcDbArc
 50
2.108462999999999
 51
87.871787
  0
ARC
  5
224
330
18
100
AcDbEntity
  8
0
100
AcDbCircle
 10
75.36211299999999
 20
100.1793589999999
 30
0.0
 40
1.000289999999999
100
AcDbArc
 50
89.99013299999999
 51
179.9901039999999
  0
LINE
  5
225
330
18
100
AcDbEntity
  8
0
100
AcDbLine
 10
64.6953
 20
100.18
 30
0.0
 11
66.52849999999999
 21
100.18
 31
0.0
  0
ARC
  5
226
330
18
100
AcDbEntity
  8
0
100
AcDbCircle
 10
63.69522299999999
 20
100.179531
 30
0.0
 40
1.000118
100
AcDbArc
 50
0.00001
 51
89.99998000000001
  0
ARC
  5
227
330
18
100
AcDbEntity
  8
0
100
AcDbCircle
 10
63.73387199999999
 20
100.1410609999999
 30
0.0
 40
1.039306999999999
100
AcDbArc
 50
92.13119200000001
 51
177.878647
  0
ARC
  5
228
330
18
100
AcDbEntity
  8
0
100
AcDbCircle
 10
61.22131899999999
 20
102.403671
 30
0.0
 40
0.7098560000000001
100
AcDbArc
 50
92.10268799999999
 51
177.9117229999999
  0
ARC
  5
229
330
18
100
AcDbEntity
  8
0
100
AcDbCircle
 10
61.195187
 20
102.429623
 30
0.0
 40
0.6832530000000001
100
AcDbArc
 50
180.007232
 51
270.007242
  0
ARC
  5
22A
330
18
100
AcDbEntity
  8
0
100
AcDbCircle
 10
61.16926199999999
 20
102.455907
 30
0.0
 40
0.710013
100
AcDbArc
 50
272.0995279999999
 51
357.871596
  0
ARC
  5
22B
330
18
100
AcDbEntity
  8
0
100
AcDbCircle
 10
61.169238
 20
102.403502
 30
0.0
 40
0.710025
100
AcDbArc
 50
2.101449
 51
87.89854100000001
  0
LINE
  5
22C
330
18
100
AcDbEntity
  8
0
100
AcDbLine
 10
57.0287
 20
101.0129999999999
 30
0.0
 11
57.0287
 21
103.3749999999999
 31
0.0
  0
ARC
  5
22D
330
18
100
AcDbEntity
  8
0
100
AcDbCircle
 10
58.727003
 20
101.731229
 30
0.0
 40
0.8656319999999999
100
AcDbArc
 50
92.09724499999998
 51
177.902726
  0
ARC
  5
22E
330
18
100
AcDbEntity
  8
0
100
AcDbCircle
 10
58.72773399999999
 20
101.7949589999999
 30
0.0
 40
0.8663770000000001
100
AcDbArc
 50
182.120174
 51
267.856175
  0
ARC
  5
22F
330
18
100
AcDbEntity
  8
0
100
AcDbCircle
 10
58.66362099999999
 20
101.794074
 30
0.0
 40
0.8654659999999999
100
AcDbArc
 50
272.0992799999999
 51
357.9362549999999
  0
ARC
  5
230
330
18
100
AcDbEntity
  8
0
100
AcDbCircle
 10
58.663097
 20
101.730859
 30
0.0
 40
0.8660219999999998
100
AcDbArc
 50
2.120811
 51
87.867335
  0
ARC
  5
231
330
18
100
AcDbEntity
  8
0
100
AcDbCircle
 10
58.73531800000001
 20
101.7230929999999
 30
0.0
 40
1.082357
100
AcDbArc
 50
92.11757599999998
 51
177.8918689999999
  0
ARC
  5
232
330
18
100
AcDbEntity
  8
0
100
AcDbCircle
 10
58.735475
 20
101.802879
 30
0.0
 40
1.08252
100
AcDbArc
 50
182.1161359999999
 51
267.8744189999999
  0
ARC
  5
233
330
18
100
AcDbEntity
  8
0
100
AcDbCircle
 10
58.65533
 20
101.8029019999999
 30
0.0
 40
1.082537
100
AcDbArc
 50
272.1172899999999
 51
357.88272
  0
ARC
  5
234
330
18
100
AcDbEntity
  8
0
100
AcDbCircle
 10
58.65534
 20
101.7229229999999
 30
0.0
 40
1.082527
100
AcDbArc
 50
2.116766999999999
 51
87.883224
  0
ARC
  5
235
330
18
100
AcDbEntity
  8
0
100
AcDbCircle
 10
57.894178
 20
101.0449539999999
 30
0.0
 40
0.8660219999999998
100
AcDbArc
 50
182.120831
 51
267.8673549999999
  0
LINE
  5
236
330
18
100
AcDbEntity
  8
0
100
AcDbLine
 10
57.862
 20
100.18
 30
0.0
 11
57.0287
 21
100.18
 31
0.0
  0
LINE
  5
237
330
18
100
AcDbEntity
  8
0
100
AcDbLine
 10
58.57269999999999
 20
102.2279999999999
 30
0.0
 11
58.23109999999999
 21
101.889
 31
0.0
  0
LINE
  5
238
330
18
100
AcDbEntity
  8
0
100
AcDbLine
 10
59.0366
 20
102.102
 30
0.0
 11
58.57269999999999
 21
102.2279999999999
 31
0.0
  0
LINE
  5
239
330
18
100
AcDbEntity
  8
0
100
AcDbLine
 10
59.1597
 20
101.6369999999999
 30
0.0
 11
59.0366
 21
102.102
 31
0.0
  0
LINE
  5
23A
330
18
100
AcDbEntity
  8
0
100
AcDbLine
 10
58.3539
 20
101.424
 30
0.0
 11
58.8181
 21
101.2979999999999
 31
0.0
  0
ARC
  5
23B
330
18
100
AcDbEntity
  8
0
100
AcDbCircle
 10
59.532006
 20
101.011668
 30
0.0
 40
0.8297219999999999
100
AcDbArc
 50
333.85072
 51
0.085407
  0
LINE
  5
23C
330
18
100
AcDbEntity
  8
0
100
AcDbLine
 10
58.23109999999999
 20
101.889
 30
0.0
 11
58.3539
 21
101.424
 31
0.0
  0
LINE
  5
23D
330
18
100
AcDbEntity
  8
0
100
AcDbLine
 10
58.8181
 20
101.2979999999999
 30
0.0
 11
59.1597
 21
101.6369999999999
 31
0.0
  0
ARC
  5
23E
330
18
100
AcDbEntity
  8
0
100
AcDbCircle
 10
60.379303
 20
101.0790709999999
 30
0.0
 40
0.4757310000000001
100
AcDbArc
 50
92.11729200000002
 51
177.968837
  0
ARC
  5
23F
330
18
100
AcDbEntity
  8
0
100
AcDbCircle
 10
60.37925999999999
 20
101.113465
 30
0.0
 40
0.475712
100
AcDbArc
 50
182.112146
 51
267.8878839999999
  0
ARC
  5
240
330
18
100
AcDbEntity
  8
0
100
AcDbCircle
 10
60.344776
 20
101.1137779999999
 30
0.0
 40
0.476003
100
AcDbArc
 50
272.0408549999999
 51
357.851476
  0
ARC
  5
241
330
18
100
AcDbEntity
  8
0
100
AcDbCircle
 10
60.34435699999999
 20
101.078383
 30
0.0
 40
0.476411
100
AcDbArc
 50
2.111038999999999
 51
87.91046999999998
  0
LINE
  5
242
330
18
100
AcDbEntity
  8
0
100
AcDbLine
 10
60.3617
 20
101.0129999999999
 30
0.0
 11
60.3617
 21
101.554
 31
0.0
  0
LINE
  5
243
330
18
100
AcDbEntity
  8
0
100
AcDbLine
 10
57.0287
 20
103.3749999999999
 30
0.0
 11
57.0287
 21
103.611
 31
0.0
  0
LINE
  5
244
330
18
100
AcDbEntity
  8
0
100
AcDbLine
 10
57.0287
 20
103.611
 30
0.0
 11
57.0287
 21
103.9839999999999
 31
0.0
  0
LINE
  5
245
330
18
100
AcDbEntity
  8
0
100
AcDbLine
 10
57.0287
 20
103.9839999999999
 30
0.0
 11
57.0287
 21
104.456
 31
0.0
  0
LINE
  5
246
330
18
100
AcDbEntity
  8
0
100
AcDbLine
 10
57.0287
 20
103.611
 30
0.0
 11
66.52849999999999
 21
103.611
 31
0.0
  0
LINE
  5
247
330
18
100
AcDbEntity
  8
0
100
AcDbLine
 10
57.0287
 20
104.456
 30
0.0
 11
65.4364
 21
104.456
 31
0.0
  0
LINE
  5
248
330
18
100
AcDbEntity
  8
0
100
AcDbLine
 10
57.862
 20
100.18
 30
0.0
 11
62.6953
 21
100.18
 31
0.0
  0
LINE
  5
249
330
18
100
AcDbEntity
  8
0
100
AcDbLine
 10
76.3621
 20
100.18
 30
0.0
 11
80.27880000000001
 21
100.18
 31
0.0
  0
LINE
  5
24A
330
18
100
AcDbEntity
  8
0
100
AcDbLine
 10
83.44559999999999
 20
100.18
 30
0.0
 11
86.02909999999999
 21
100.18
 31
0.0
  0
LINE
  5
24B
330
18
100
AcDbEntity
  8
0
100
AcDbLine
 10
72.2891
 20
104.456
 30
0.0
 11
78.43810000000001
 21
104.456
 31
0.0
  0
LINE
  5
24C
330
18
100
AcDbEntity
  8
0
100
AcDbLine
 10
85.28629999999999
 20
104.456
 30
0.0
 11
93.6958
 21
104.456
 31
0.0
  0
LINE
  5
24D
330
18
100
AcDbEntity
  8
0
100
AcDbLine
 10
71.1954
 20
103.611
 30
0.0
 11
79.6521
 21
103.611
 31
0.0
  0
LINE
  5
24E
330
18
100
AcDbEntity
  8
0
100
AcDbLine
 10
84.06879999999999
 20
103.611
 30
0.0
 11
93.6958
 21
103.611
 31
0.0
  0
LINE
  5
24F
330
18
100
AcDbEntity
  8
0
100
AcDbLine
 10
107.4459999999999
 20
100.18
 30
0.0
 11
95.6127
 21
100.18
 31
0.0
  0
LINE
  5
250
330
18
100
AcDbEntity
  8
0
100
AcDbLine
 10
106.612
 20
101.429
 30
0.0
 11
103.2789999999999
 21
101.429
 31
0.0
  0
LINE
  5
251
330
18
100
AcDbEntity
  8
0
100
AcDbLine
 10
103.2789999999999
 20
102.2629999999999
 30
0.0
 11
106.612
 21
102.2629999999999
 31
0.0
  0
LINE
  5
252
330
18
100
AcDbEntity
  8
0
100
AcDbLine
 10
44.5285
 20
102.2629999999999
 30
0.0
 11
47.862
 21
102.2629999999999
 31
0.0
  0
LINE
  5
253
330
18
100
AcDbEntity
  8
0
100
AcDbLine
 10
47.862
 20
101.429
 30
0.0
 11
44.5285
 21
101.429
 31
0.0
  0
ARC
  5
254
330
18
100
AcDbEntity
  8
0
100
AcDbCircle
 10
44.54424799999999
 20
101.830338
 30
0.0
 40
0.4327430000000001
100
AcDbArc
 50
92.087421
 51
177.888859
  0
ARC
  5
255
330
18
100
AcDbEntity
  8
0
100
AcDbCircle
 10
44.544569
 20
101.862184
 30
0.0
 40
0.4330630000000001
100
AcDbArc
 50
182.10476
 51
267.871589
  0
ARC
  5
256
330
18
100
AcDbEntity
  8
0
100
AcDbCircle
 10
47.846309
 20
101.8617719999999
 30
0.0
 40
0.432636
100
AcDbArc
 50
272.075958
 51
357.947733
  0
ARC
  5
257
330
18
100
AcDbEntity
  8
0
100
AcDbCircle
 10
47.84625
 20
101.8303689999999
 30
0.0
 40
0.432711
100
AcDbArc
 50
2.107115
 51
87.91656600000001
  0
ARC
  5
258
330
18
100
AcDbEntity
  8
0
100
AcDbCircle
 10
43.695197
 20
101.012991
 30
0.0
 40
0.8334600000000001
100
AcDbArc
 50
180.0059309999999
 51
270.005941
  0
LINE
  5
259
330
18
100
AcDbEntity
  8
0
100
AcDbLine
 10
55.0285
 20
100.18
 30
0.0
 11
43.6953
 21
100.18
 31
0.0
  0
ARC
  5
25A
330
18
100
AcDbEntity
  8
0
100
AcDbCircle
 10
55.990384
 20
100.141291
 30
0.0
 40
1.039069
100
AcDbArc
 50
2.109122999999999
 51
87.88099799999999
  0
ARC
  5
25B
330
18
100
AcDbEntity
  8
0
100
AcDbCircle
 10
56.02871700000001
 20
100.179445
 30
0.0
 40
1.000204
100
AcDbArc
 50
89.99506600000001
 51
179.995036
  0
LINE
  5
25C
330
18
100
AcDbEntity
  8
0
100
AcDbLine
 10
93.6958
 20
104.456
 30
0.0
 11
93.6958
 21
111.737
 31
0.0
  0
LINE
  5
25D
330
18
100
AcDbEntity
  8
0
100
AcDbLine
 10
57.0287
 20
111.737
 30
0.0
 11
57.0287
 21
104.456
 31
0.0
  0
LINE
  5
25E
330
18
100
AcDbEntity
  8
0
100
AcDbLine
 10
54.5285
 20
116.0129999999999
 30
0.0
 11
54.5285
 21
100.18
 31
0.0
  0
LINE
  5
25F
330
18
100
AcDbEntity
  8
0
100
AcDbLine
 10
42.8617
 20
101.0129999999999
 30
0.0
 11
42.8617
 21
115.18
 31
0.0
  0
LINE
  5
260
330
18
100
AcDbEntity
  8
0
100
AcDbLine
 10
108.2789999999999
 20
101.0129999999999
 30
0.0
 11
108.2789999999999
 21
115.18
 31
0.0
  0
LINE
  5
261
330
18
100
AcDbEntity
  8
0
100
AcDbLine
 10
96.19559999999999
 20
100.18
 30
0.0
 11
96.19559999999999
 21
116.0129999999999
 31
0.0
  0
ARC
  5
262
330
18
100
AcDbEntity
  8
0
100
AcDbCircle
 10
44.54421599999999
 20
105.612199
 30
0.0
 40
0.4327100000000001
100
AcDbArc
 50
182.1071179999999
 51
267.9166029999999
  0
ARC
  5
263
330
18
100
AcDbEntity
  8
0
100
AcDbCircle
 10
44.51295199999999
 20
105.61218
 30
0.0
 40
0.432684
100
AcDbArc
 50
272.057338
 51
357.8953
  0
ARC
  5
264
330
18
100
AcDbEntity
  8
0
100
AcDbCircle
 10
47.877545
 20
105.612211
 30
0.0
 40
0.4327170000000001
100
AcDbArc
 50
182.108702
 51
267.938699
  0
ARC
  5
265
330
18
100
AcDbEntity
  8
0
100
AcDbCircle
 10
47.84645199999999
 20
105.611997
 30
0.0
 40
0.4325010000000001
100
AcDbArc
 50
272.0576649999999
 51
357.918654
  0
ARC
  5
266
330
18
100
AcDbEntity
  8
0
100
AcDbCircle
 10
103.2948569999999
 20
105.61203
 30
0.0
 40
0.432555
100
AcDbArc
 50
182.08546
 51
267.8671589999999
  0
ARC
  5
267
330
18
100
AcDbEntity
  8
0
100
AcDbCircle
 10
103.2632199999999
 20
105.612186
 30
0.0
 40
0.43269
100
AcDbArc
 50
272.058086
 51
357.8945519999999
  0
ARC
  5
268
330
18
100
AcDbEntity
  8
0
100
AcDbCircle
 10
106.6283529999999
 20
105.61203
 30
0.0
 40
0.432555
100
AcDbArc
 50
182.08546
 51
267.8671589999999
  0
ARC
  5
269
330
18
100
AcDbEntity
  8
0
100
AcDbCircle
 10
106.5967429999999
 20
105.611443
 30
0.0
 40
0.431947
100
AcDbArc
 50
272.0579059999999
 51
357.989515
  0
LINE
  5
26A
330
18
100
AcDbEntity
  8
0
100
AcDbLine
 10
29.6811
 20
116.0129999999999
 30
0.0
 11
29.6811
 21
98.84630000000001
 31
0.0
  0
LINE
  5
26B
330
18
100
AcDbEntity
  8
0
100
AcDbLine
 10
29.1212
 20
116.0129999999999
 30
0.0
 11
42.8202
 21
116.0129999999999
 31
0.0
  0
LINE
  5
26C
330
18
100
AcDbEntity
  8
0
100
AcDbLine
 10
38.8694
 20
108.096
 30
0.0
 11
38.8694
 21
98.84630000000001
 31
0.0
  0
LINE
  5
26D
330
18
100
AcDbEntity
  8
0
100
AcDbLine
 10
38.30949999999999
 20
108.096
 30
0.0
 11
40.8787
 21
108.096
 31
0.0
  0
LINE
  5
26E
330
18
100
AcDbEntity
  8
0
  6
AIGENLINE001
100
AcDbLine
 10
81.8618
 20
117.103
 30
0.0
 11
81.8618
 21
95.74670000000001
 31
0.0
  0
LINE
  5
26F
330
18
100
AcDbEntity
  8
0
  6
AIGENLINE001
100
AcDbLine
 10
68.86199999999999
 20
117.0139999999999
 30
0.0
 11
68.86199999999999
 21
97.1578
 31
0.0
  0
LINE
  5
270
330
18
100
AcDbEntity
  8
0
100
AcDbLine
 10
34.2789
 20
116.0129999999999
 30
0.0
 11
34.2789
 21
100.18
 31
0.0
  0
LINE
  5
271
330
18
100
AcDbEntity
  8
0
100
AcDbLine
 10
33.71909999999999
 20
100.18
 30
0.0
 11
42.8202
 21
100.18
 31
0.0
  0
LINE
  5
272
330
18
100
AcDbEntity
  8
0
100
AcDbLine
 10
66.0823
 20
98.84630000000001
 30
0.0
 11
29.1212
 21
98.84630000000001
 31
0.0
  0
ARC
  5
273
330
18
100
AcDbEntity
  8
0
100
AcDbCircle
 10
72.022485
 20
172.5458659999999
 30
0.0
 40
0.172812
100
AcDbArc
 50
272.090523
 51
357.968768
  0
ARC
  5
274
330
18
100
AcDbEntity
  8
0
100
AcDbCircle
 10
65.70157900000001
 20
172.545856
 30
0.0
 40
0.172801
100
AcDbArc
 50
182.027913
 51
267.912835
  0
LINE
  5
275
330
18
100
AcDbEntity
  8
0
100
AcDbLine
 10
65.52889999999999
 20
178.6229999999999
 30
0.0
 11
72.1952
 21
178.6229999999999
 31
0.0
  0
LINE
  5
276
330
18
100
AcDbEntity
  8
0
100
AcDbLine
 10
65.6953
 20
172.3729999999999
 30
0.0
 11
72.0288
 21
172.3729999999999
 31
0.0
  0
LINE
  5
278
330
18
100
AcDbEntity
  8
0
100
AcDbLine
 10
72.1952
 20
172.54
 30
0.0
 11
72.1952
 21
178.6229999999999
 31
0.0
  0
LINE
  5
279
330
18
100
AcDbEntity
  8
0
100
AcDbLine
 10
65.52889999999999
 20
172.54
 30
0.0
 11
65.52889999999999
 21
178.6229999999999
 31
0.0
  0
ARC
  5
27A
330
18
100
AcDbEntity
  8
0
100
AcDbCircle
 10
68.862037
 20
173.3731149999999
 30
0.0
 40
0.583258
100
AcDbArc
 50
270.00002
 51
359.9999899999999
  0
ARC
  5
27B
330
18
100
AcDbEntity
  8
0
100
AcDbCircle
 10
68.862037
 20
173.3731149999999
 30
0.0
 40
0.583258
100
AcDbArc
 50
179.9999699999999
 51
270.00002
  0
ARC
  5
27C
330
18
100
AcDbEntity
  8
0
100
AcDbCircle
 10
68.884422
 20
173.350909
 30
0.0
 40
0.60605
100
AcDbArc
 50
92.11674399999999
 51
177.900145
  0
ARC
  5
27D
330
18
100
AcDbEntity
  8
0
100
AcDbCircle
 10
68.84018199999999
 20
173.351438
 30
0.0
 40
0.6055020000000001
100
AcDbArc
 50
2.051614999999999
 51
87.931456
  0
LINE
  5
27E
330
18
100
AcDbEntity
  8
0
100
AcDbLine
 10
157.3189999999999
 20
98.84630000000001
 30
0.0
 11
157.3189999999999
 21
100.1579999999999
 31
0.0
  0
LINE
  5
27F
330
18
100
AcDbEntity
  8
0
100
AcDbLine
 10
161.985
 20
100.18
 30
0.0
 11
161.985
 21
98.84630000000001
 31
0.0
  0
LINE
  5
280
330
18
100
AcDbEntity
  8
0
100
AcDbLine
 10
157.3189999999999
 20
98.84630000000001
 30
0.0
 11
161.985
 21
98.84630000000001
 31
0.0
  0
LINE
  5
281
330
18
100
AcDbEntity
  8
0
  6
AIGENLINE001
100
AcDbLine
 10
159.8189999999999
 20
101.042
 30
0.0
 11
159.8189999999999
 21
97.23880000000001
 31
0.0
  0
LINE
  5
282
330
18
100
AcDbEntity
  8
0
100
AcDbLine
 10
73.8619
 20
174.369
 30
0.0
 11
55.1143
 21
174.369
 31
0.0
  0
LINE
  5
283
330
18
100
AcDbEntity
  8
0
100
AcDbLine
 10
163.902
 20
102.2629999999999
 30
0.0
 11
163.652
 21
102.2629999999999
 31
0.0
  0
LINE
  5
284
330
18
100
AcDbEntity
  8
0
100
AcDbLine
 10
163.902
 20
101.2629999999999
 30
0.0
 11
163.652
 21
101.2629999999999
 31
0.0
  0
LINE
  5
285
330
18
100
AcDbEntity
  8
0
100
AcDbLine
 10
163.902
 20
102.2629999999999
 30
0.0
 11
163.9859999999999
 21
102.1789999999999
 31
0.0
  0
LINE
  5
286
330
18
100
AcDbEntity
  8
0
100
AcDbLine
 10
163.9859999999999
 20
101.346
 30
0.0
 11
163.902
 21
101.2629999999999
 31
0.0
  0
LINE
  5
287
330
18
100
AcDbEntity
  8
0
100
AcDbLine
 10
163.9859999999999
 20
101.346
 30
0.0
 11
163.9859999999999
 21
102.1789999999999
 31
0.0
  0
LINE
  5
288
330
18
100
AcDbEntity
  8
0
100
AcDbLine
 10
163.902
 20
101.2629999999999
 30
0.0
 11
163.902
 21
102.2629999999999
 31
0.0
  0
LINE
  5
289
330
18
100
AcDbEntity
  8
0
100
AcDbLine
 10
163.902
 20
114.929
 30
0.0
 11
163.652
 21
114.929
 31
0.0
  0
LINE
  5
28A
330
18
100
AcDbEntity
  8
0
100
AcDbLine
 10
163.902
 20
113.93
 30
0.0
 11
163.652
 21
113.93
 31
0.0
  0
LINE
  5
28B
330
18
100
AcDbEntity
  8
0
100
AcDbLine
 10
163.902
 20
114.929
 30
0.0
 11
163.9859999999999
 21
114.846
 31
0.0
  0
LINE
  5
28C
330
18
100
AcDbEntity
  8
0
100
AcDbLine
 10
163.9859999999999
 20
114.0129999999999
 30
0.0
 11
163.902
 21
113.93
 31
0.0
  0
LINE
  5
28D
330
18
100
AcDbEntity
  8
0
100
AcDbLine
 10
163.9859999999999
 20
114.0129999999999
 30
0.0
 11
163.9859999999999
 21
114.846
 31
0.0
  0
LINE
  5
28E
330
18
100
AcDbEntity
  8
0
100
AcDbLine
 10
163.902
 20
113.93
 30
0.0
 11
163.902
 21
114.929
 31
0.0
  0
ARC
  5
28F
330
18
100
AcDbEntity
  8
0
100
AcDbCircle
 10
153.837711
 20
113.327356
 30
0.0
 40
0.5193060000000001
100
AcDbArc
 50
92.10578199999998
 51
177.933662
  0
ARC
  5
290
330
18
100
AcDbEntity
  8
0
100
AcDbCircle
 10
153.838007
 20
113.3651009999999
 30
0.0
 40
0.5196130000000001
100
AcDbArc
 50
182.097777
 51
267.8627789999999
  0
ARC
  5
291
330
18
100
AcDbEntity
  8
0
100
AcDbCircle
 10
153.818629
 20
113.346081
 30
0.0
 40
0.5002310000000002
100
AcDbArc
 50
270.00002
 51
359.9999899999999
  0
ARC
  5
292
330
18
100
AcDbEntity
  8
0
100
AcDbCircle
 10
153.818629
 20
113.3460799999999
 30
0.0
 40
0.5002310000000002
100
AcDbArc
 50
0.00001
 51
89.99998000000001
  0
ARC
  5
293
330
18
100
AcDbEntity
  8
0
100
AcDbCircle
 10
155.254661
 20
102.826998
 30
0.0
 40
0.5196350000000001
100
AcDbArc
 50
92.10145199999999
 51
177.898518
  0
ARC
  5
294
330
18
100
AcDbEntity
  8
0
100
AcDbCircle
 10
155.25465
 20
102.8650969999999
 30
0.0
 40
0.519625
100
AcDbArc
 50
182.100416
 51
267.8996139999999
  0
ARC
  5
295
330
18
100
AcDbEntity
  8
0
100
AcDbCircle
 10
155.2167999999999
 20
102.8645009999999
 30
0.0
 40
0.5190200000000001
100
AcDbArc
 50
272.076487
 51
357.9629959999999
  0
ARC
  5
296
330
18
100
AcDbEntity
  8
0
100
AcDbCircle
 10
155.216228
 20
102.8270319999999
 30
0.0
 40
0.5196130000000001
100
AcDbArc
 50
2.097774999999999
 51
87.86274199999999
  0
LINE
  5
297
330
18
100
AcDbEntity
  8
0
100
AcDbLine
 10
158.5689999999999
 20
111.429
 30
0.0
 11
160.735
 21
111.429
 31
0.0
  0
LINE
  5
298
330
18
100
AcDbEntity
  8
0
100
AcDbLine
 10
161.2359999999999
 20
105.2629999999999
 30
0.0
 11
161.2359999999999
 21
110.93
 31
0.0
  0
ARC
  5
299
330
18
100
AcDbEntity
  8
0
100
AcDbCircle
 10
160.7170469999999
 20
110.9106159999999
 30
0.0
 40
0.518925
100
AcDbArc
 50
2.104802999999999
 51
87.97416099999999
  0
LINE
  5
29A
330
18
100
AcDbEntity
  8
0
100
AcDbLine
 10
158.5689999999999
 20
104.7629999999999
 30
0.0
 11
160.735
 21
104.7629999999999
 31
0.0
  0
ARC
  5
29B
330
18
100
AcDbEntity
  8
0
100
AcDbCircle
 10
160.7168249999999
 20
105.2817129999999
 30
0.0
 40
0.51913
100
AcDbArc
 50
272.049616
 51
357.950394
  0
ARC
  5
29C
330
18
100
AcDbEntity
  8
0
100
AcDbCircle
 10
157.7836399999999
 20
108.1633339999999
 30
0.0
 40
2.598257999999999
100
AcDbArc
 50
287.5641059999999
 51
13.32142399999999
  0
ARC
  5
29D
330
18
100
AcDbEntity
  8
0
100
AcDbCircle
 10
157.8624389999999
 20
108.0562389999999
 30
0.0
 40
2.549195
100
AcDbArc
 50
16.072854
 51
73.938454
  0
ARC
  5
29E
330
18
100
AcDbEntity
  8
0
100
AcDbCircle
 10
156.261054
 20
108.0703639999999
 30
0.0
 40
0.692795
100
AcDbArc
 50
92.09538
 51
177.84537
  0
ARC
  5
29F
330
18
100
AcDbEntity
  8
0
100
AcDbCircle
 10
156.261103
 20
108.1217899999999
 30
0.0
 40
0.692819
100
AcDbArc
 50
182.0993499999999
 51
267.900679
  0
ARC
  5
2A0
330
18
100
AcDbEntity
  8
0
100
AcDbCircle
 10
156.210721
 20
108.120699
 30
0.0
 40
0.691715
100
AcDbArc
 50
272.071477
 51
357.987753
  0
ARC
  5
2A1
330
18
100
AcDbEntity
  8
0
100
AcDbCircle
 10
156.235723
 20
108.096411
 30
0.0
 40
0.666286
100
AcDbArc
 50
0.00001
 51
89.99998000000001
  0
ARC
  5
2A2
330
18
100
AcDbEntity
  8
0
100
AcDbCircle
 10
156.235724
 20
108.096411
 30
0.0
 40
1.249889
100
AcDbArc
 50
90.0
 51
179.9999699999999
  0
ARC
  5
2A3
330
18
100
AcDbEntity
  8
0
100
AcDbCircle
 10
156.235723
 20
108.096411
 30
0.0
 40
1.249887999999999
100
AcDbArc
 50
179.9999699999999
 51
270.00002
  0
ARC
  5
2A4
330
18
100
AcDbEntity
  8
0
100
AcDbCircle
 10
156.235723
 20
108.096411
 30
0.0
 40
1.249889
100
AcDbArc
 50
270.00002
 51
359.9999899999999
  0
ARC
  5
2A5
330
18
100
AcDbEntity
  8
0
100
AcDbCircle
 10
156.235723
 20
108.096411
 30
0.0
 40
1.249889
100
AcDbArc
 50
0.00001
 51
89.99998000000001
  0
LINE
  5
2A6
330
18
100
AcDbEntity
  8
0
100
AcDbLine
 10
157.735
 20
116.0129999999999
 30
0.0
 11
162.902
 21
116.0129999999999
 31
0.0
  0
LINE
  5
2A7
330
18
100
AcDbEntity
  8
0
100
AcDbLine
 10
151.902
 20
116.0129999999999
 30
0.0
 11
157.735
 21
116.0129999999999
 31
0.0
  0
LINE
  5
2A8
330
18
100
AcDbEntity
  8
0
100
AcDbLine
 10
158.5689999999999
 20
101.0129999999999
 30
0.0
 11
158.5689999999999
 21
115.18
 31
0.0
  0
ARC
  5
2A9
330
18
100
AcDbEntity
  8
0
100
AcDbCircle
 10
157.704053
 20
115.147884
 30
0.0
 40
0.865285
100
AcDbArc
 50
2.098723
 51
87.92495799999999
  0
LINE
  5
2AA
330
18
100
AcDbEntity
  8
0
100
AcDbLine
 10
157.735
 20
100.18
 30
0.0
 11
162.902
 21
100.18
 31
0.0
  0
LINE
  5
2AB
330
18
100
AcDbEntity
  8
0
100
AcDbLine
 10
151.902
 20
100.18
 30
0.0
 11
157.735
 21
100.18
 31
0.0
  0
ARC
  5
2AC
330
18
100
AcDbEntity
  8
0
100
AcDbCircle
 10
157.7037379999999
 20
101.0445629999999
 30
0.0
 40
0.86561
100
AcDbArc
 50
272.095075
 51
357.881244
  0
LINE
  5
2AD
330
18
100
AcDbEntity
  8
0
100
AcDbLine
 10
152.9589999999999
 20
85.0462
 30
0.0
 11
151.4859999999999
 21
84.6507
 31
0.0
  0
LINE
  5
2AE
330
18
100
AcDbEntity
  8
0
100
AcDbLine
 10
151.4859999999999
 20
84.6507
 30
0.0
 11
152.9589999999999
 21
84.25589999999999
 31
0.0
  0
LINE
  5
2AF
330
18
100
AcDbEntity
  8
0
100
AcDbLine
 10
152.9589999999999
 20
84.25589999999999
 30
0.0
 11
152.9589999999999
 21
85.0462
 31
0.0
  0
LINE
  5
2B0
330
18
100
AcDbEntity
  8
0
100
AcDbLine
 10
162.511
 20
84.23379999999999
 30
0.0
 11
163.9859999999999
 21
84.6286
 31
0.0
  0
LINE
  5
2B1
330
18
100
AcDbEntity
  8
0
100
AcDbLine
 10
163.9859999999999
 20
84.6286
 30
0.0
 11
162.511
 21
85.0234
 31
0.0
  0
LINE
  5
2B2
330
18
100
AcDbEntity
  8
0
100
AcDbLine
 10
162.511
 20
85.0234
 30
0.0
 11
162.511
 21
84.23379999999999
 31
0.0
  0
LINE
  5
2B3
330
18
100
AcDbEntity
  8
0
100
AcDbLine
 10
161.292
 20
91.73520000000001
 30
0.0
 11
159.8189999999999
 21
91.33969999999999
 31
0.0
  0
LINE
  5
2B4
330
18
100
AcDbEntity
  8
0
100
AcDbLine
 10
159.8189999999999
 20
91.33969999999999
 30
0.0
 11
161.292
 21
90.9449
 31
0.0
  0
LINE
  5
2B5
330
18
100
AcDbEntity
  8
0
100
AcDbLine
 10
161.292
 20
90.9449
 30
0.0
 11
161.292
 21
91.73520000000001
 31
0.0
  0
LINE
  5
2B6
330
18
100
AcDbEntity
  8
0
100
AcDbLine
 10
162.511
 20
90.9525
 30
0.0
 11
163.9859999999999
 21
91.34730000000001
 31
0.0
  0
LINE
  5
2B7
330
18
100
AcDbEntity
  8
0
100
AcDbLine
 10
163.9859999999999
 20
91.34730000000001
 30
0.0
 11
162.511
 21
91.7421
 31
0.0
  0
LINE
  5
2B8
330
18
100
AcDbEntity
  8
0
100
AcDbLine
 10
162.511
 20
91.7421
 30
0.0
 11
162.511
 21
90.9525
 31
0.0
  0
LINE
  5
2B9
330
18
100
AcDbEntity
  8
0
100
AcDbLine
 10
159.8189999999999
 20
91.33969999999999
 30
0.0
 11
174.129
 21
91.33969999999999
 31
0.0
  0
LINE
  5
2BA
330
18
100
AcDbEntity
  8
0
100
AcDbLine
 10
151.4859999999999
 20
84.14700000000001
 30
0.0
 11
151.4859999999999
 21
95.6568
 31
0.0
  0
LINE
  5
2BB
330
18
100
AcDbEntity
  8
0
100
AcDbLine
 10
159.8189999999999
 20
90.8843
 30
0.0
 11
159.8189999999999
 21
96.597
 31
0.0
  0
LINE
  5
2BC
330
18
100
AcDbEntity
  8
0
100
AcDbLine
 10
163.9859999999999
 20
101.001
 30
0.0
 11
163.9859999999999
 21
84.14700000000001
 31
0.0
  0
LINE
  5
2BD
330
18
100
AcDbEntity
  8
0
100
AcDbLine
 10
116.2789999999999
 20
182.347
 30
0.0
 11
115.884
 21
180.8729999999999
 31
0.0
  0
LINE
  5
2BE
330
18
100
AcDbEntity
  8
0
100
AcDbLine
 10
115.884
 20
180.8729999999999
 30
0.0
 11
115.4889999999999
 21
182.347
 31
0.0
  0
LINE
  5
2BF
330
18
100
AcDbEntity
  8
0
100
AcDbLine
 10
115.4889999999999
 20
182.347
 30
0.0
 11
116.2789999999999
 21
182.347
 31
0.0
  0
LINE
  5
2C0
330
18
100
AcDbEntity
  8
0
100
AcDbLine
 10
115.4889999999999
 20
177.732
 30
0.0
 11
115.884
 21
179.206
 31
0.0
  0
LINE
  5
2C1
330
18
100
AcDbEntity
  8
0
100
AcDbLine
 10
115.884
 20
179.206
 30
0.0
 11
116.2789999999999
 21
177.732
 31
0.0
  0
LINE
  5
2C2
330
18
100
AcDbEntity
  8
0
100
AcDbLine
 10
116.2789999999999
 20
177.732
 30
0.0
 11
115.4889999999999
 21
177.732
 31
0.0
  0
LINE
  5
2C3
330
18
100
AcDbEntity
  8
0
100
AcDbLine
 10
115.496
 20
191.8989999999999
 30
0.0
 11
115.891
 21
193.3729999999999
 31
0.0
  0
LINE
  5
2C4
330
18
100
AcDbEntity
  8
0
100
AcDbLine
 10
115.891
 20
193.3729999999999
 30
0.0
 11
116.286
 21
191.8989999999999
 31
0.0
  0
LINE
  5
2C5
330
18
100
AcDbEntity
  8
0
100
AcDbLine
 10
116.286
 20
191.8989999999999
 30
0.0
 11
115.496
 21
191.8989999999999
 31
0.0
  0
LINE
  5
2C6
330
18
100
AcDbEntity
  8
0
100
AcDbLine
 10
115.884
 20
175.668
 30
0.0
 11
115.884
 21
193.3729999999999
 31
0.0
  0
LINE
  5
2C7
330
18
100
AcDbEntity
  8
0
100
AcDbLine
 10
123.1899999999999
 20
174.492
 30
0.0
 11
143.1522965836575
 21
174.492
 31
0.0
  0
LINE
  5
2C8
330
18
100
AcDbEntity
  8
0
100
AcDbLine
 10
63.0777
 20
207.842
 30
0.0
 11
51.7412
 21
207.842
 31
0.0
  0
LINE
  5
2C9
330
18
100
AcDbEntity
  8
0
100
AcDbLine
 10
61.3875
 20
166.5859999999999
 30
0.0
 11
51.1944
 21
166.5859999999999
 31
0.0
  0
LINE
  5
2CA
330
18
100
AcDbEntity
  8
0
100
AcDbLine
 10
85.3362
 20
177.449
 30
0.0
 11
85.5733
 21
178.9559999999999
 31
0.0
  0
LINE
  5
2CB
330
18
100
AcDbEntity
  8
0
100
AcDbLine
 10
85.5733
 20
178.9559999999999
 30
0.0
 11
86.1217
 21
177.532
 31
0.0
  0
LINE
  5
2CC
330
18
100
AcDbEntity
  8
0
100
AcDbLine
 10
86.1217
 20
177.532
 30
0.0
 11
85.3362
 21
177.449
 31
0.0
  0
LINE
  5
2CD
330
18
100
AcDbEntity
  8
0
100
AcDbLine
 10
87.4688
 20
160.991
 30
0.0
 11
85.56639999999999
 21
178.9559999999999
 31
0.0
  0
LINE
  5
2CE
330
18
100
AcDbEntity
  8
0
100
AcDbLine
 10
67.8871
 20
185.8959999999999
 30
0.0
 11
67.7906
 21
184.3729999999999
 31
0.0
  0
LINE
  5
2CF
330
18
100
AcDbEntity
  8
0
100
AcDbLine
 10
67.7906
 20
184.3729999999999
 30
0.0
 11
67.113
 21
185.7409999999999
 31
0.0
  0
LINE
  5
2D0
330
18
100
AcDbEntity
  8
0
100
AcDbLine
 10
67.113
 20
185.7409999999999
 30
0.0
 11
67.8871
 21
185.8959999999999
 31
0.0
  0
LINE
  5
2D1
330
18
100
AcDbEntity
  8
0
100
AcDbLine
 10
63.0777
 20
207.842
 30
0.0
 11
67.79779999999999
 21
184.375
 31
0.0
  0
LINE
  5
2D2
330
18
100
AcDbEntity
  8
0
100
AcDbLine
 10
70.58629999999999
 20
177.449
 30
0.0
 11
70.8237
 21
178.9559999999999
 31
0.0
  0
LINE
  5
2D3
330
18
100
AcDbEntity
  8
0
100
AcDbLine
 10
70.8237
 20
178.9559999999999
 30
0.0
 11
71.37179999999999
 21
177.532
 31
0.0
  0
LINE
  5
2D4
330
18
100
AcDbEntity
  8
0
100
AcDbLine
 10
71.37179999999999
 20
177.532
 30
0.0
 11
70.58629999999999
 21
177.449
 31
0.0
  0
LINE
  5
2D5
330
18
100
AcDbEntity
  8
0
100
AcDbLine
 10
72.7192
 20
160.991
 30
0.0
 11
70.8165
 21
178.9559999999999
 31
0.0
  0
LINE
  5
2D6
330
18
100
AcDbEntity
  8
0
100
AcDbLine
 10
65.23229999999999
 20
171.529
 30
0.0
 11
66.5035
 21
172.3729999999999
 31
0.0
  0
LINE
  5
2D7
330
18
100
AcDbEntity
  8
0
100
AcDbLine
 10
66.5035
 20
172.3729999999999
 30
0.0
 11
65.8245
 21
171.0059999999999
 31
0.0
  0
LINE
  5
2D8
330
18
100
AcDbEntity
  8
0
100
AcDbLine
 10
65.8245
 20
171.0059999999999
 30
0.0
 11
65.23229999999999
 21
171.529
 31
0.0
  0
LINE
  5
2D9
330
18
100
AcDbEntity
  8
0
100
AcDbLine
 10
61.3875
 20
166.5859999999999
 30
0.0
 11
66.498
 21
172.3779999999999
 31
0.0
  0
LINE
  5
2DA
330
18
100
AcDbEntity
  8
0
100
AcDbLine
 10
88.5612
 20
151.648
 30
0.0
 11
98.75430000000001
 21
151.648
 31
0.0
  0
LINE
  5
2DB
330
18
100
AcDbEntity
  8
0
100
AcDbLine
 10
111.761
 20
179.206
 30
0.0
 11
116.2339999999999
 21
179.206
 31
0.0
  0
LINE
  5
2DC
330
18
100
AcDbEntity
  8
0
100
AcDbLine
 10
111.761
 20
180.8729999999999
 30
0.0
 11
116.2339999999999
 21
180.8729999999999
 31
0.0
  0
LINE
  5
2DD
330
18
100
AcDbEntity
  8
0
100
AcDbLine
 10
93.64349999999999
 20
193.3729999999999
 30
0.0
 11
116.2339999999999
 21
193.3729999999999
 31
0.0
  0
LINE
  5
2DE
330
18
100
AcDbEntity
  8
0
100
AcDbLine
 10
35.15359999999999
 20
183.1809999999999
 30
0.0
 11
35.5488
 21
181.707
 31
0.0
  0
LINE
  5
2DF
330
18
100
AcDbEntity
  8
0
100
AcDbLine
 10
35.5488
 20
181.707
 30
0.0
 11
35.9439
 21
183.1809999999999
 31
0.0
  0
LINE
  5
2E0
330
18
100
AcDbEntity
  8
0
100
AcDbLine
 10
35.9439
 20
183.1809999999999
 30
0.0
 11
35.15359999999999
 21
183.1809999999999
 31
0.0
  0
LINE
  5
2E1
330
18
100
AcDbEntity
  8
0
100
AcDbLine
 10
35.9439
 20
179.8149999999999
 30
0.0
 11
35.5488
 21
181.2899999999999
 31
0.0
  0
LINE
  5
2E2
330
18
100
AcDbEntity
  8
0
100
AcDbLine
 10
35.5488
 20
181.2899999999999
 30
0.0
 11
35.15359999999999
 21
179.8149999999999
 31
0.0
  0
LINE
  5
2E3
330
18
100
AcDbEntity
  8
0
100
AcDbLine
 10
35.15359999999999
 20
179.8149999999999
 30
0.0
 11
35.9439
 21
179.8149999999999
 31
0.0
  0
LINE
  5
2E4
330
18
100
AcDbEntity
  8
0
100
AcDbLine
 10
84.7165
 20
156.591
 30
0.0
 11
83.44520000000001
 21
157.435
 31
0.0
  0
LINE
  5
2E5
330
18
100
AcDbEntity
  8
0
100
AcDbLine
 10
83.44520000000001
 20
157.435
 30
0.0
 11
84.1243
 21
156.0679999999999
 31
0.0
  0
LINE
  5
2E6
330
18
100
AcDbEntity
  8
0
100
AcDbLine
 10
84.1243
 20
156.0679999999999
 30
0.0
 11
84.7165
 21
156.591
 31
0.0
  0
LINE
  5
2E7
330
18
100
AcDbEntity
  8
0
100
AcDbLine
 10
88.5612
 20
151.648
 30
0.0
 11
83.45069999999999
 21
157.439
 31
0.0
  0
LINE
  5
2E8
330
18
100
AcDbEntity
  8
0
100
AcDbLine
 10
35.9364
 20
191.8989999999999
 30
0.0
 11
35.5416
 21
193.3729999999999
 31
0.0
  0
LINE
  5
2E9
330
18
100
AcDbEntity
  8
0
100
AcDbLine
 10
35.5416
 20
193.3729999999999
 30
0.0
 11
35.14639999999999
 21
191.8989999999999
 31
0.0
  0
LINE
  5
2EA
330
18
100
AcDbEntity
  8
0
100
AcDbLine
 10
35.14639999999999
 20
191.8989999999999
 30
0.0
 11
35.9364
 21
191.8989999999999
 31
0.0
  0
LINE
  5
2EB
330
18
100
AcDbEntity
  8
0
100
AcDbLine
 10
35.5488
 20
175.609
 30
0.0
 11
35.5488
 21
193.3729999999999
 31
0.0
  0
LINE
  5
2EC
330
18
100
AcDbEntity
  8
0
100
AcDbLine
 10
41.98669999999999
 20
181.2899999999999
 30
0.0
 11
35.1988
 21
181.2899999999999
 31
0.0
  0
LINE
  5
2ED
330
18
100
AcDbEntity
  8
0
  6
AIGENLINE002
100
AcDbLine
 10
111.037
 20
180.8729999999999
 30
0.0
 11
55.49739999999999
 21
180.8729999999999
 31
0.0
  0
LINE
  5
2EE
330
18
100
AcDbEntity
  8
0
100
AcDbLine
 10
149.8189999999999
 20
113.0959999999999
 30
0.0
 11
149.5689999999999
 21
113.0959999999999
 31
0.0
  0
LINE
  5
2EF
330
18
100
AcDbEntity
  8
0
100
AcDbLine
 10
149.8189999999999
 20
113.0959999999999
 30
0.0
 11
149.8189999999999
 21
103.096
 31
0.0
  0
LINE
  5
2F0
330
18
100
AcDbEntity
  8
0
100
AcDbLine
 10
149.8189999999999
 20
103.096
 30
0.0
 11
149.5689999999999
 21
103.096
 31
0.0
  0
LINE
  5
2F1
330
18
100
AcDbEntity
  8
0
100
AcDbLine
 10
149.5689999999999
 20
113.0959999999999
 30
0.0
 11
149.5689999999999
 21
103.096
 31
0.0
  0
LINE
  5
2F2
330
18
100
AcDbEntity
  8
0
  6
AIGENLINE002
100
AcDbLine
 10
111.037
 20
179.206
 30
0.0
 11
55.49739999999999
 21
179.206
 31
0.0
  0
LINE
  5
2F3
330
18
100
AcDbEntity
  8
0
100
AcDbLine
 10
42.04559999999999
 20
181.707
 30
0.0
 11
35.1988
 21
181.707
 31
0.0
  0
LINE
  5
2F4
330
18
100
AcDbEntity
  8
0
100
AcDbLine
 10
57.78909999999999
 20
193.3729999999999
 30
0.0
 11
35.1988
 21
193.3729999999999
 31
0.0
  0
LINE
  5
2F5
330
18
100
AcDbEntity
  8
0
100
AcDbLine
 10
98.92000000000001
 20
200.3479999999999
 30
0.0
 11
97.4455
 21
199.953
 31
0.0
  0
LINE
  5
2F6
330
18
100
AcDbEntity
  8
0
100
AcDbLine
 10
97.4455
 20
199.953
 30
0.0
 11
98.92000000000001
 21
199.5579999999999
 31
0.0
  0
LINE
  5
2F7
330
18
100
AcDbEntity
  8
0
100
AcDbLine
 10
98.92000000000001
 20
199.5579999999999
 30
0.0
 11
98.92000000000001
 21
200.3479999999999
 31
0.0
  0
LINE
  5
2F8
330
18
100
AcDbEntity
  8
0
100
AcDbLine
 10
95.9717
 20
199.5579999999999
 30
0.0
 11
97.4455
 21
199.953
 31
0.0
  0
LINE
  5
2F9
330
18
100
AcDbEntity
  8
0
100
AcDbLine
 10
97.4455
 20
199.953
 30
0.0
 11
95.9717
 21
200.3479999999999
 31
0.0
  0
LINE
  5
2FA
330
18
100
AcDbEntity
  8
0
100
AcDbLine
 10
95.9717
 20
200.3479999999999
 30
0.0
 11
95.9717
 21
199.5579999999999
 31
0.0
  0
LINE
  5
2FB
330
18
100
AcDbEntity
  8
0
100
AcDbLine
 10
116.6429999999999
 20
98.40389999999999
 30
0.0
 11
117.0379999999999
 21
96.9294
 31
0.0
  0
LINE
  5
2FC
330
18
100
AcDbEntity
  8
0
100
AcDbLine
 10
117.0379999999999
 20
96.9294
 30
0.0
 11
117.4329999999999
 21
98.40389999999999
 31
0.0
  0
LINE
  5
2FD
330
18
100
AcDbEntity
  8
0
100
AcDbLine
 10
117.4329999999999
 20
98.40389999999999
 30
0.0
 11
116.6429999999999
 21
98.40389999999999
 31
0.0
  0
LINE
  5
2FE
330
18
100
AcDbEntity
  8
0
100
AcDbLine
 10
117.4329999999999
 20
106.622
 30
0.0
 11
117.0379999999999
 21
108.096
 31
0.0
  0
LINE
  5
2FF
330
18
100
AcDbEntity
  8
0
100
AcDbLine
 10
117.0379999999999
 20
108.096
 30
0.0
 11
116.6429999999999
 21
106.622
 31
0.0
  0
LINE
  5
300
330
18
100
AcDbEntity
  8
0
100
AcDbLine
 10
116.6429999999999
 20
106.622
 30
0.0
 11
117.4329999999999
 21
106.622
 31
0.0
  0
LINE
  5
301
330
18
100
AcDbEntity
  8
0
100
AcDbLine
 10
148.3439999999999
 20
84.25589999999999
 30
0.0
 11
149.8189999999999
 21
84.6507
 31
0.0
  0
LINE
  5
302
330
18
100
AcDbEntity
  8
0
100
AcDbLine
 10
149.8189999999999
 20
84.6507
 30
0.0
 11
148.3439999999999
 21
85.0455
 31
0.0
  0
LINE
  5
303
330
18
100
AcDbEntity
  8
0
100
AcDbLine
 10
148.3439999999999
 20
85.0455
 30
0.0
 11
148.3439999999999
 21
84.25589999999999
 31
0.0
  0
LINE
  5
304
330
18
100
AcDbEntity
  8
0
100
AcDbLine
 10
124.626
 20
85.0455
 30
0.0
 11
123.1519999999999
 21
84.6507
 31
0.0
  0
LINE
  5
305
330
18
100
AcDbEntity
  8
0
100
AcDbLine
 10
123.1519999999999
 20
84.6507
 30
0.0
 11
124.626
 21
84.25589999999999
 31
0.0
  0
LINE
  5
306
330
18
100
AcDbEntity
  8
0
100
AcDbLine
 10
124.626
 20
84.25589999999999
 30
0.0
 11
124.626
 21
85.0455
 31
0.0
  0
LINE
  5
307
330
18
100
AcDbEntity
  8
0
100
AcDbLine
 10
139.5329999999999
 20
111.1539999999999
 30
0.0
 11
139.929
 21
109.6799999999999
 31
0.0
  0
LINE
  5
308
330
18
100
AcDbEntity
  8
0
100
AcDbLine
 10
139.929
 20
109.6799999999999
 30
0.0
 11
140.3229999999999
 21
111.1539999999999
 31
0.0
  0
LINE
  5
309
330
18
100
AcDbEntity
  8
0
100
AcDbLine
 10
140.3229999999999
 20
111.1539999999999
 30
0.0
 11
139.5329999999999
 21
111.1539999999999
 31
0.0
  0
LINE
  5
30A
330
18
100
AcDbEntity
  8
0
100
AcDbLine
 10
140.3229999999999
 20
105.0389999999999
 30
0.0
 11
139.929
 21
106.5129999999999
 31
0.0
  0
LINE
  5
30B
330
18
100
AcDbEntity
  8
0
100
AcDbLine
 10
139.929
 20
106.5129999999999
 30
0.0
 11
139.5329999999999
 21
105.0389999999999
 31
0.0
  0
LINE
  5
30C
330
18
100
AcDbEntity
  8
0
100
AcDbLine
 10
139.5329999999999
 20
105.0389999999999
 30
0.0
 11
140.3229999999999
 21
105.0389999999999
 31
0.0
  0
LINE
  5
30D
330
18
100
AcDbEntity
  8
0
100
AcDbLine
 10
65.3356
 20
174.764
 30
0.0
 11
63.8618
 21
174.369
 31
0.0
  0
LINE
  5
30E
330
18
100
AcDbEntity
  8
0
100
AcDbLine
 10
63.8618
 20
174.369
 30
0.0
 11
65.3356
 21
173.974
 31
0.0
  0
LINE
  5
30F
330
18
100
AcDbEntity
  8
0
100
AcDbLine
 10
65.3356
 20
173.974
 30
0.0
 11
65.3356
 21
174.764
 31
0.0
  0
LINE
  5
310
330
18
100
AcDbEntity
  8
0
100
AcDbLine
 10
72.38739999999999
 20
173.974
 30
0.0
 11
73.8619
 21
174.369
 31
0.0
  0
LINE
  5
311
330
18
100
AcDbEntity
  8
0
100
AcDbLine
 10
73.8619
 20
174.369
 30
0.0
 11
72.38739999999999
 21
174.764
 31
0.0
  0
LINE
  5
312
330
18
100
AcDbEntity
  8
0
100
AcDbLine
 10
72.38739999999999
 20
174.764
 30
0.0
 11
72.38739999999999
 21
173.974
 31
0.0
  0
LINE
  5
313
330
18
100
AcDbEntity
  8
0
100
AcDbLine
 10
55.5859
 20
200.3479999999999
 30
0.0
 11
54.1121
 21
199.953
 31
0.0
  0
LINE
  5
314
330
18
100
AcDbEntity
  8
0
100
AcDbLine
 10
54.1121
 20
199.953
 30
0.0
 11
55.5859
 21
199.5579999999999
 31
0.0
  0
LINE
  5
315
330
18
100
AcDbEntity
  8
0
100
AcDbLine
 10
55.5859
 20
199.5579999999999
 30
0.0
 11
55.5859
 21
200.3479999999999
 31
0.0
  0
LINE
  5
316
330
18
100
AcDbEntity
  8
0
100
AcDbLine
 10
44.3362
 20
200.3479999999999
 30
0.0
 11
42.8617
 21
199.953
 31
0.0
  0
LINE
  5
317
330
18
100
AcDbEntity
  8
0
100
AcDbLine
 10
42.8617
 20
199.953
 30
0.0
 11
44.3362
 21
199.5579999999999
 31
0.0
  0
LINE
  5
318
330
18
100
AcDbEntity
  8
0
100
AcDbLine
 10
44.3362
 20
199.5579999999999
 30
0.0
 11
44.3362
 21
200.3479999999999
 31
0.0
  0
LINE
  5
319
330
18
100
AcDbEntity
  8
0
100
AcDbLine
 10
52.6376
 20
199.5579999999999
 30
0.0
 11
54.1121
 21
199.953
 31
0.0
  0
LINE
  5
31A
330
18
100
AcDbEntity
  8
0
100
AcDbLine
 10
54.1121
 20
199.953
 30
0.0
 11
52.6376
 21
200.3479999999999
 31
0.0
  0
LINE
  5
31B
330
18
100
AcDbEntity
  8
0
100
AcDbLine
 10
52.6376
 20
200.3479999999999
 30
0.0
 11
52.6376
 21
199.5579999999999
 31
0.0
  0
LINE
  5
31C
330
18
100
AcDbEntity
  8
0
100
AcDbLine
 10
106.804
 20
199.5649999999999
 30
0.0
 11
108.2789999999999
 21
199.96
 31
0.0
  0
LINE
  5
31D
330
18
100
AcDbEntity
  8
0
100
AcDbLine
 10
108.2789999999999
 20
199.96
 30
0.0
 11
106.804
 21
200.3549999999999
 31
0.0
  0
LINE
  5
31E
330
18
100
AcDbEntity
  8
0
100
AcDbLine
 10
106.804
 20
200.3549999999999
 30
0.0
 11
106.804
 21
199.5649999999999
 31
0.0
  0
LINE
  5
31F
330
18
100
AcDbEntity
  8
0
100
AcDbLine
 10
150.6909999999999
 20
84.6507
 30
0.0
 11
149.2839999999999
 21
80.60540000000001
 31
0.0
  0
LINE
  5
320
330
18
100
AcDbEntity
  8
0
100
AcDbLine
 10
115.884
 20
180.1399999999999
 30
0.0
 11
123.1899999999999
 21
174.492
 31
0.0
  0
LINE
  5
321
330
18
100
AcDbEntity
  8
0
100
AcDbLine
 10
42.8617
 20
199.953
 30
0.0
 11
108.2789999999999
 21
199.953
 31
0.0
  0
LINE
  5
322
330
18
100
AcDbEntity
  8
0
100
AcDbLine
 10
108.2789999999999
 20
182.2319999999999
 30
0.0
 11
108.2789999999999
 21
200.3029999999999
 31
0.0
  0
LINE
  5
323
330
18
100
AcDbEntity
  8
0
100
AcDbLine
 10
97.4455
 20
186.732
 30
0.0
 11
97.4455
 21
200.3029999999999
 31
0.0
  0
LINE
  5
324
330
18
100
AcDbEntity
  8
0
100
AcDbLine
 10
73.8619
 20
173.669
 30
0.0
 11
73.8619
 21
178.2559999999999
 31
0.0
  0
LINE
  5
325
330
18
100
AcDbEntity
  8
0
100
AcDbLine
 10
63.8618
 20
173.669
 30
0.0
 11
63.8618
 21
178.2559999999999
 31
0.0
  0
LINE
  5
326
330
18
100
AcDbEntity
  8
0
100
AcDbLine
 10
54.1121
 20
193.0509999999999
 30
0.0
 11
54.1121
 21
200.3029999999999
 31
0.0
  0
LINE
  5
327
330
18
100
AcDbEntity
  8
0
  6
AIGENLINE001
100
AcDbLine
 10
81.8618
 20
149.4629999999999
 30
0.0
 11
81.8618
 21
194.4829999999999
 31
0.0
  0
LINE
  5
328
330
18
100
AcDbEntity
  8
0
  6
AIGENLINE001
100
AcDbLine
 10
68.86199999999999
 20
170.2749999999999
 30
0.0
 11
68.86199999999999
 21
194.4829999999999
 31
0.0
  0
LINE
  5
329
330
18
100
AcDbEntity
  8
0
100
AcDbLine
 10
42.8617
 20
182.2319999999999
 30
0.0
 11
42.8617
 21
200.3029999999999
 31
0.0
  0
LINE
  5
32A
330
18
100
AcDbEntity
  8
0
100
AcDbLine
 10
69.1376
 20
92.4497
 30
0.0
 11
70.6122
 21
92.84449999999999
 31
0.0
  0
LINE
  5
32B
330
18
100
AcDbEntity
  8
0
100
AcDbLine
 10
70.6122
 20
92.84449999999999
 30
0.0
 11
69.1376
 21
93.2393
 31
0.0
  0
LINE
  5
32C
330
18
100
AcDbEntity
  8
0
100
AcDbLine
 10
69.1376
 20
93.2393
 30
0.0
 11
69.1376
 21
92.4497
 31
0.0
  0
LINE
  5
32D
330
18
100
AcDbEntity
  8
0
100
AcDbLine
 10
68.5864
 20
93.23249999999999
 30
0.0
 11
67.11190000000001
 21
92.83700000000001
 31
0.0
  0
LINE
  5
32E
330
18
100
AcDbEntity
  8
0
100
AcDbLine
 10
67.11190000000001
 20
92.83700000000001
 30
0.0
 11
68.5864
 21
92.4421
 31
0.0
  0
LINE
  5
32F
330
18
100
AcDbEntity
  8
0
100
AcDbLine
 10
68.5864
 20
92.4421
 30
0.0
 11
68.5864
 21
93.23249999999999
 31
0.0
  0
LINE
  5
330
330
18
100
AcDbEntity
  8
0
100
AcDbLine
 10
78.2121
 20
92.83700000000001
 30
0.0
 11
67.11190000000001
 21
92.83700000000001
 31
0.0
  0
LINE
  5
331
330
18
100
AcDbEntity
  8
0
100
AcDbLine
 10
70.6122
 20
92.48690000000001
 30
0.0
 11
70.6122
 21
98.2613
 31
0.0
  0
LINE
  5
332
330
18
100
AcDbEntity
  8
0
100
AcDbLine
 10
67.11190000000001
 20
92.48690000000001
 30
0.0
 11
67.11190000000001
 21
98.2613
 31
0.0
  0
LINE
  5
333
330
18
100
AcDbEntity
  8
0
100
AcDbLine
 10
30.0759
 20
114.538
 30
0.0
 11
29.6811
 21
116.0129999999999
 31
0.0
  0
LINE
  5
334
330
18
100
AcDbEntity
  8
0
100
AcDbLine
 10
29.6811
 20
116.0129999999999
 30
0.0
 11
29.2859
 21
114.538
 31
0.0
  0
LINE
  5
335
330
18
100
AcDbEntity
  8
0
100
AcDbLine
 10
29.2859
 20
114.538
 30
0.0
 11
30.0759
 21
114.538
 31
0.0
  0
LINE
  5
336
330
18
100
AcDbEntity
  8
0
100
AcDbLine
 10
34.67369999999999
 20
114.538
 30
0.0
 11
34.2789
 21
116.0129999999999
 31
0.0
  0
LINE
  5
337
330
18
100
AcDbEntity
  8
0
100
AcDbLine
 10
34.2789
 20
116.0129999999999
 30
0.0
 11
33.8838
 21
114.538
 31
0.0
  0
LINE
  5
338
330
18
100
AcDbEntity
  8
0
100
AcDbLine
 10
33.8838
 20
114.538
 30
0.0
 11
34.67369999999999
 21
114.538
 31
0.0
  0
LINE
  5
339
330
18
100
AcDbEntity
  8
0
100
AcDbLine
 10
39.2642
 20
106.622
 30
0.0
 11
38.8694
 21
108.096
 31
0.0
  0
LINE
  5
33A
330
18
100
AcDbEntity
  8
0
100
AcDbLine
 10
38.8694
 20
108.096
 30
0.0
 11
38.4742
 21
106.622
 31
0.0
  0
LINE
  5
33B
330
18
100
AcDbEntity
  8
0
100
AcDbLine
 10
38.4742
 20
106.622
 30
0.0
 11
39.2642
 21
106.622
 31
0.0
  0
LINE
  5
33C
330
18
100
AcDbEntity
  8
0
100
AcDbLine
 10
29.2859
 20
100.3209999999999
 30
0.0
 11
29.6811
 21
98.84630000000001
 31
0.0
  0
LINE
  5
33D
330
18
100
AcDbEntity
  8
0
100
AcDbLine
 10
29.6811
 20
98.84630000000001
 30
0.0
 11
30.0759
 21
100.3209999999999
 31
0.0
  0
LINE
  5
33E
330
18
100
AcDbEntity
  8
0
100
AcDbLine
 10
30.0759
 20
100.3209999999999
 30
0.0
 11
29.2859
 21
100.3209999999999
 31
0.0
  0
LINE
  5
33F
330
18
100
AcDbEntity
  8
0
100
AcDbLine
 10
33.8838
 20
101.6539999999999
 30
0.0
 11
34.2789
 21
100.18
 31
0.0
  0
LINE
  5
340
330
18
100
AcDbEntity
  8
0
100
AcDbLine
 10
34.2789
 20
100.18
 30
0.0
 11
34.67369999999999
 21
101.6539999999999
 31
0.0
  0
LINE
  5
341
330
18
100
AcDbEntity
  8
0
100
AcDbLine
 10
34.67369999999999
 20
101.6539999999999
 30
0.0
 11
33.8838
 21
101.6539999999999
 31
0.0
  0
LINE
  5
342
330
18
100
AcDbEntity
  8
0
100
AcDbLine
 10
38.4742
 20
100.3209999999999
 30
0.0
 11
38.8694
 21
98.84630000000001
 31
0.0
  0
LINE
  5
343
330
18
100
AcDbEntity
  8
0
100
AcDbLine
 10
38.8694
 20
98.84630000000001
 30
0.0
 11
39.2642
 21
100.3209999999999
 31
0.0
  0
LINE
  5
344
330
18
100
AcDbEntity
  8
0
100
AcDbLine
 10
39.2642
 20
100.3209999999999
 30
0.0
 11
38.4742
 21
100.3209999999999
 31
0.0
  0
LINE
  5
345
330
18
100
AcDbEntity
  8
0
  6
AIGENLINE001
100
AcDbLine
 10
109.7739999999999
 20
108.096
 30
0.0
 11
41.40379999999999
 21
108.096
 31
0.0
  0
ARC
  5
346
330
18
100
AcDbEntity
  8
0
100
AcDbCircle
 10
81.862188
 20
108.096411
 30
0.0
 40
1.583376
100
AcDbArc
 50
90.0
 51
179.9999699999999
  0
ARC
  5
347
330
18
100
AcDbEntity
  8
0
100
AcDbCircle
 10
81.80154399999999
 20
108.0357669999999
 30
0.0
 40
1.645138
100
AcDbArc
 50
2.112535999999999
 51
87.88745400000001
  0
ARC
  5
348
330
18
100
AcDbEntity
  8
0
100
AcDbCircle
 10
81.92305000000001
 20
108.1294509999999
 30
0.0
 40
3.061049
100
AcDbArc
 50
180.61846
 51
237.5026169999999
  0
ARC
  5
349
330
18
100
AcDbEntity
  8
0
100
AcDbCircle
 10
81.97731199999999
 20
107.981286
 30
0.0
 40
3.117259
100
AcDbArc
 50
92.11647799999999
 51
177.8834919999999
  0
ARC
  5
34A
330
18
100
AcDbEntity
  8
0
100
AcDbCircle
 10
81.74706699999999
 20
107.9812909999999
 30
0.0
 40
3.117255
100
AcDbArc
 50
2.116416
 51
87.883574
  0
ARC
  5
34B
330
18
100
AcDbEntity
  8
0
100
AcDbCircle
 10
81.803839
 20
108.128053
 30
0.0
 40
3.05852
100
AcDbArc
 50
302.471738
 51
359.407224
  0
LINE
  5
34C
330
18
100
AcDbEntity
  8
0
100
AcDbLine
 10
80.27880000000001
 20
96.9294
 30
0.0
 11
80.27880000000001
 21
108.096
 31
0.0
  0
LINE
  5
34D
330
18
100
AcDbEntity
  8
0
100
AcDbLine
 10
83.44559999999999
 20
96.9294
 30
0.0
 11
83.44559999999999
 21
108.096
 31
0.0
  0
LINE
  5
34E
330
18
100
AcDbEntity
  8
0
100
AcDbLine
 10
80.27880000000001
 20
99.9294
 30
0.0
 11
83.44559999999999
 21
99.9294
 31
0.0
  0
LINE
  5
34F
330
18
100
AcDbEntity
  8
0
100
AcDbLine
 10
80.27880000000001
 20
96.9294
 30
0.0
 11
83.44559999999999
 21
96.9294
 31
0.0
  0
ARC
  5
350
330
18
100
AcDbEntity
  8
0
100
AcDbCircle
 10
81.996841
 20
108.191335
 30
0.0
 40
5.135443
100
AcDbArc
 50
181.066834
 51
250.4552209999999
  0
ARC
  5
351
330
18
100
AcDbEntity
  8
0
100
AcDbCircle
 10
81.862188
 20
108.0960649999999
 30
0.0
 40
4.9999
100
AcDbArc
 50
90.003948
 51
180.003958
  0
ARC
  5
352
330
18
100
AcDbEntity
  8
0
100
AcDbCircle
 10
81.86184200000001
 20
108.095721
 30
0.0
 40
5.000244
100
AcDbArc
 50
0.00001
 51
89.99998000000001
  0
ARC
  5
353
330
18
100
AcDbEntity
  8
0
100
AcDbCircle
 10
81.72402700000001
 20
108.19386
 30
0.0
 40
5.138995999999999
100
AcDbArc
 50
289.5722169999999
 51
358.905768
  0
ARC
  5
354
330
18
100
AcDbEntity
  8
0
100
AcDbCircle
 10
69.272537
 20
115.4233279999999
 30
0.0
 40
0.17322
100
AcDbArc
 50
2.103899999999999
 51
87.89609
  0
ARC
  5
355
330
18
100
AcDbEntity
  8
0
100
AcDbCircle
 10
68.45188199999999
 20
115.4233279999999
 30
0.0
 40
0.17322
100
AcDbArc
 50
92.10387299999998
 51
177.8960969999999
  0
ARC
  5
356
330
18
100
AcDbEntity
  8
0
100
AcDbCircle
 10
68.862037
 20
108.096411
 30
0.0
 40
3.333495999999999
100
AcDbArc
 50
270.00002
 51
359.9999899999999
  0
ARC
  5
357
330
18
100
AcDbEntity
  8
0
100
AcDbCircle
 10
68.86220899999999
 20
108.0962379999999
 30
0.0
 40
3.333323
100
AcDbArc
 50
179.997009
 51
269.9970589999999
  0
ARC
  5
358
330
18
100
AcDbEntity
  8
0
100
AcDbCircle
 10
68.989544
 20
107.968547
 30
0.0
 40
3.463019
100
AcDbArc
 50
92.11006400000002
 51
177.883984
  0
ARC
  5
359
330
18
100
AcDbEntity
  8
0
100
AcDbCircle
 10
68.73460699999999
 20
107.9682649999999
 30
0.0
 40
3.463298
100
AcDbArc
 50
2.120495
 51
87.89133900000001
  0
LINE
  5
35A
330
18
100
AcDbEntity
  8
0
100
AcDbLine
 10
68.2788
 20
115.43
 30
0.0
 11
68.2788
 21
111.3779999999999
 31
0.0
  0
LINE
  5
35B
330
18
100
AcDbEntity
  8
0
100
AcDbLine
 10
69.4456
 20
115.43
 30
0.0
 11
69.4456
 21
111.3779999999999
 31
0.0
  0
LINE
  5
35C
330
18
100
AcDbEntity
  8
0
100
AcDbLine
 10
68.44549999999999
 20
115.596
 30
0.0
 11
69.27889999999999
 21
115.596
 31
0.0
  0
ARC
  5
35D
330
18
100
AcDbEntity
  8
0
100
AcDbCircle
 10
68.697304
 20
107.949997
 30
0.0
 40
5.166687999999999
100
AcDbArc
 50
1.616229
 51
81.67205200000001
  0
ARC
  5
35E
330
18
100
AcDbEntity
  8
0
100
AcDbCircle
 10
68.86220899999999
 20
108.095895
 30
0.0
 40
4.999727
100
AcDbArc
 50
269.9980459999999
 51
359.998016
  0
ARC
  5
35F
330
18
100
AcDbEntity
  8
0
100
AcDbCircle
 10
68.86169200000001
 20
108.0960649999999
 30
0.0
 40
4.999897999999999
100
AcDbArc
 50
180.003958
 51
270.003968
  0
ARC
  5
360
330
18
100
AcDbEntity
  8
0
100
AcDbCircle
 10
69.03554200000001
 20
107.9424959999999
 30
0.0
 40
5.176016
100
AcDbArc
 50
98.40709200000002
 51
178.3036039999999
  0
LINE
  5
361
330
18
100
AcDbEntity
  8
0
100
AcDbLine
 10
163.652
 20
116.0129999999999
 30
0.0
 11
162.902
 21
116.0129999999999
 31
0.0
  0
LINE
  5
362
330
18
100
AcDbEntity
  8
0
100
AcDbLine
 10
162.902
 20
100.18
 30
0.0
 11
163.652
 21
100.18
 31
0.0
  0
LINE
  5
363
330
18
100
AcDbEntity
  8
0
100
AcDbLine
 10
163.652
 20
100.18
 30
0.0
 11
163.652
 21
116.0129999999999
 31
0.0
  0
LINE
  5
364
330
18
100
AcDbEntity
  8
0
100
AcDbLine
 10
151.902
 20
100.18
 30
0.0
 11
151.902
 21
116.0129999999999
 31
0.0
  0
LINE
  5
365
330
18
100
AcDbEntity
  8
0
100
AcDbLine
 10
152.3189999999999
 20
100.18
 30
0.0
 11
152.3189999999999
 21
116.0129999999999
 31
0.0
  0
LINE
  5
366
330
18
100
AcDbEntity
  8
0
100
AcDbLine
 10
151.8189999999999
 20
111.596
 30
0.0
 11
151.8189999999999
 21
104.596
 31
0.0
  0
LINE
  5
367
330
18
100
AcDbEntity
  8
0
100
AcDbLine
 10
149.8189999999999
 20
105.246
 30
0.0
 11
151.8189999999999
 21
105.246
 31
0.0
  0
LINE
  5
368
330
18
100
AcDbEntity
  8
0
100
AcDbLine
 10
149.8189999999999
 20
105.121
 30
0.0
 11
151.8189999999999
 21
105.121
 31
0.0
  0
LINE
  5
369
330
18
100
AcDbEntity
  8
0
100
AcDbLine
 10
151.8189999999999
 20
104.596
 30
0.0
 11
151.902
 21
104.596
 31
0.0
  0
LINE
  5
36A
330
18
100
AcDbEntity
  8
0
100
AcDbLine
 10
149.8189999999999
 20
110.946
 30
0.0
 11
151.8189999999999
 21
110.946
 31
0.0
  0
LINE
  5
36B
330
18
100
AcDbEntity
  8
0
100
AcDbLine
 10
149.8189999999999
 20
111.071
 30
0.0
 11
151.8189999999999
 21
111.071
 31
0.0
  0
LINE
  5
36C
330
18
100
AcDbEntity
  8
0
100
AcDbLine
 10
151.8189999999999
 20
111.596
 30
0.0
 11
151.902
 21
111.596
 31
0.0
  0
LINE
  5
36D
330
18
100
AcDbEntity
  8
0
  6
AIGENLINE002
100
AcDbLine
 10
151.4859999999999
 20
119.4649999999999
 30
0.0
 11
151.4859999999999
 21
96.3362
 31
0.0
  0
LINE
  5
36E
330
18
100
AcDbEntity
  8
0
  6
AIGENLINE002
100
AcDbLine
 10
149.8189999999999
 20
119.4649999999999
 30
0.0
 11
149.8189999999999
 21
96.3362
 31
0.0
  0
ARC
  5
36F
330
18
100
AcDbEntity
  8
0
100
AcDbCircle
 10
81.801194
 20
152.600106
 30
0.0
 40
1.645143
100
AcDbArc
 50
272.112714
 51
357.887296
  0
ARC
  5
370
330
18
100
AcDbEntity
  8
0
100
AcDbCircle
 10
81.922505
 20
152.599762
 30
0.0
 40
1.644799
100
AcDbArc
 50
182.1011699999999
 51
267.8863919999999
  0
LINE
  5
371
330
18
100
AcDbEntity
  8
0
100
AcDbLine
 10
79.8623
 20
179.206
 30
0.0
 11
79.8623
 21
181.4569999999999
 31
0.0
  0
LINE
  5
372
330
18
100
AcDbEntity
  8
0
100
AcDbLine
 10
83.8621
 20
179.206
 30
0.0
 11
83.8621
 21
181.4569999999999
 31
0.0
  0
LINE
  5
373
330
18
100
AcDbEntity
  8
0
100
AcDbLine
 10
84.02880000000001
 20
179.206
 30
0.0
 11
84.02880000000001
 21
181.4569999999999
 31
0.0
  0
LINE
  5
374
330
18
100
AcDbEntity
  8
0
100
AcDbLine
 10
79.6956
 20
179.206
 30
0.0
 11
79.6956
 21
181.4569999999999
 31
0.0
  0
LINE
  5
375
330
18
100
AcDbEntity
  8
0
100
AcDbLine
 10
78.8618
 20
178.1229999999999
 30
0.0
 11
79.0286
 21
177.956
 31
0.0
  0
LINE
  5
376
330
18
100
AcDbEntity
  8
0
100
AcDbLine
 10
84.86220000000001
 20
178.1229999999999
 30
0.0
 11
84.6958
 21
177.956
 31
0.0
  0
LINE
  5
377
330
18
100
AcDbEntity
  8
0
100
AcDbLine
 10
84.86220000000001
 20
178.1229999999999
 30
0.0
 11
84.86220000000001
 21
178.9559999999999
 31
0.0
  0
LINE
  5
378
330
18
100
AcDbEntity
  8
0
100
AcDbLine
 10
78.8618
 20
178.1229999999999
 30
0.0
 11
78.8618
 21
178.9559999999999
 31
0.0
  0
LINE
  5
379
330
18
100
AcDbEntity
  8
0
100
AcDbLine
 10
78.8618
 20
178.1229999999999
 30
0.0
 11
84.86220000000001
 21
178.1229999999999
 31
0.0
  0
LINE
  5
37A
330
18
100
AcDbEntity
  8
0
100
AcDbLine
 10
79.0286
 20
177.956
 30
0.0
 11
84.6958
 21
177.956
 31
0.0
  0
LINE
  5
37B
330
18
100
AcDbEntity
  8
0
100
AcDbLine
 10
83.44520000000001
 20
152.5389999999999
 30
0.0
 11
83.44520000000001
 21
177.956
 31
0.0
  0
LINE
  5
37C
330
18
100
AcDbEntity
  8
0
100
AcDbLine
 10
80.27880000000001
 20
152.5389999999999
 30
0.0
 11
80.27880000000001
 21
177.956
 31
0.0
  0
LINE
  5
37D
330
18
100
AcDbEntity
  8
0
100
AcDbLine
 10
149.8189999999999
 20
110.096
 30
0.0
 11
151.8189999999999
 21
110.096
 31
0.0
  0
LINE
  5
37E
330
18
100
AcDbEntity
  8
0
100
AcDbLine
 10
149.8189999999999
 20
106.096
 30
0.0
 11
151.8189999999999
 21
106.096
 31
0.0
  0
LINE
  5
37F
330
18
100
AcDbEntity
  8
0
100
AcDbLine
 10
149.8189999999999
 20
105.929
 30
0.0
 11
151.8189999999999
 21
105.929
 31
0.0
  0
LINE
  5
380
330
18
100
AcDbEntity
  8
0
100
AcDbLine
 10
149.8189999999999
 20
110.2629999999999
 30
0.0
 11
151.8189999999999
 21
110.2629999999999
 31
0.0
  0
LINE
  5
381
330
18
100
AcDbEntity
  8
0
100
AcDbLine
 10
148.735
 20
111.096
 30
0.0
 11
148.5689999999999
 21
110.93
 31
0.0
  0
LINE
  5
382
330
18
100
AcDbEntity
  8
0
100
AcDbLine
 10
148.735
 20
105.096
 30
0.0
 11
148.5689999999999
 21
105.2629999999999
 31
0.0
  0
ARC
  5
383
330
18
100
AcDbEntity
  8
0
100
AcDbCircle
 10
130.652284
 20
100.596389
 30
0.0
 40
9.083397999999998
100
AcDbArc
 50
90.0
 51
179.9999699999999
  0
ARC
  5
384
330
18
100
AcDbEntity
  8
0
100
AcDbCircle
 10
130.652284
 20
100.59639
 30
0.0
 40
5.916644999999999
100
AcDbArc
 50
90.0
 51
179.9999699999999
  0
ARC
  5
385
330
18
100
AcDbEntity
  8
0
  6
AIGENLINE001
100
AcDbCircle
 10
130.652284
 20
100.596389
 30
0.0
 40
7.500022
100
AcDbArc
 50
90.0
 51
179.9999699999999
  0
LINE
  5
386
330
18
100
AcDbEntity
  8
0
100
AcDbLine
 10
148.735
 20
105.096
 30
0.0
 11
149.5689999999999
 21
105.096
 31
0.0
  0
LINE
  5
387
330
18
100
AcDbEntity
  8
0
100
AcDbLine
 10
148.735
 20
111.096
 30
0.0
 11
149.5689999999999
 21
111.096
 31
0.0
  0
LINE
  5
388
330
18
100
AcDbEntity
  8
0
100
AcDbLine
 10
148.735
 20
111.096
 30
0.0
 11
148.735
 21
105.096
 31
0.0
  0
LINE
  5
389
330
18
100
AcDbEntity
  8
0
100
AcDbLine
 10
149.5689999999999
 20
111.096
 30
0.0
 11
149.5689999999999
 21
105.096
 31
0.0
  0
LINE
  5
38A
330
18
100
AcDbEntity
  8
0
100
AcDbLine
 10
148.5689999999999
 20
110.93
 30
0.0
 11
148.5689999999999
 21
105.2629999999999
 31
0.0
  0
LINE
  5
38B
330
18
100
AcDbEntity
  8
0
100
AcDbLine
 10
124.736
 20
96.9294
 30
0.0
 11
124.736
 21
100.5959999999999
 31
0.0
  0
LINE
  5
38C
330
18
100
AcDbEntity
  8
0
100
AcDbLine
 10
121.569
 20
96.9294
 30
0.0
 11
121.569
 21
100.5959999999999
 31
0.0
  0
LINE
  5
38D
330
18
100
AcDbEntity
  8
0
  6
AIGENLINE001
100
AcDbLine
 10
123.1519999999999
 20
95.5858
 30
0.0
 11
123.1519999999999
 21
100.5959999999999
 31
0.0
  0
LINE
  5
38E
330
18
100
AcDbEntity
  8
0
100
AcDbLine
 10
130.652
 20
106.5129999999999
 30
0.0
 11
148.5689999999999
 21
106.5129999999999
 31
0.0
  0
LINE
  5
38F
330
18
100
AcDbEntity
  8
0
100
AcDbLine
 10
130.652
 20
109.6799999999999
 30
0.0
 11
148.5689999999999
 21
109.6799999999999
 31
0.0
  0
LINE
  5
390
330
18
100
AcDbEntity
  8
0
100
AcDbLine
 10
121.569
 20
99.9294
 30
0.0
 11
124.736
 21
99.9294
 31
0.0
  0
LINE
  5
391
330
18
100
AcDbEntity
  8
0
100
AcDbLine
 10
121.569
 20
96.9294
 30
0.0
 11
124.736
 21
96.9294
 31
0.0
  0
LINE
  5
392
330
18
100
AcDbEntity
  8
0
  6
AIGENLINE001
100
AcDbLine
 10
130.652
 20
108.096
 30
0.0
 11
165.6299999999999
 21
108.096
 31
0.0
  0
LINE
  5
393
330
18
100
AcDbEntity
  8
0
100
AcDbLine
 10
139.929
 20
103.982
 30
0.0
 11
139.929
 21
116.3389999999999
 31
0.0
  0
LINE
  5
394
330
18
100
AcDbEntity
  8
0
100
AcDbLine
 10
117.0379999999999
 20
96.9294
 30
0.0
 11
117.0379999999999
 21
108.096
 31
0.0
  0
LINE
  5
395
330
18
100
AcDbEntity
  8
0
100
AcDbLine
 10
128.024
 20
108.096
 30
0.0
 11
116.3379999999999
 21
108.096
 31
0.0
  0
LINE
  5
396
330
18
100
AcDbEntity
  8
0
100
AcDbLine
 10
120.9389999999999
 20
96.9294
 30
0.0
 11
116.4099999999999
 21
96.9294
 31
0.0
  0
LINE
  5
397
330
18
100
AcDbEntity
  8
0
100
AcDbLine
 10
123.1519999999999
 20
84.6507
 30
0.0
 11
163.9859999999999
 21
84.6507
 31
0.0
  0
LINE
  5
398
330
18
100
AcDbEntity
  8
0
100
AcDbLine
 10
149.8189999999999
 20
95.85799999999998
 30
0.0
 11
149.8189999999999
 21
84.14700000000001
 31
0.0
  0
LINE
  5
399
330
18
100
AcDbEntity
  8
0
100
AcDbLine
 10
123.1519999999999
 20
95.0229
 30
0.0
 11
123.1519999999999
 21
84.14700000000001
 31
0.0
  0
ARC
  5
39A
330
18
100
AcDbEntity
  8
0
100
AcDbCircle
 10
143.158508
 20
104.9359649999999
 30
0.0
 40
0.173165
100
AcDbArc
 50
182.0870909999999
 51
267.9129389999999
  0
ARC
  5
39B
330
18
100
AcDbEntity
  8
0
100
AcDbCircle
 10
144.229332
 20
115.4233279999999
 30
0.0
 40
0.17322
100
AcDbArc
 50
2.103899999999999
 51
87.89609
  0
ARC
  5
39C
330
18
100
AcDbEntity
  8
0
100
AcDbCircle
 10
143.408676
 20
115.4233279999999
 30
0.0
 40
0.17322
100
AcDbArc
 50
92.10387299999998
 51
177.8960969999999
  0
ARC
  5
39D
330
18
100
AcDbEntity
  8
0
100
AcDbCircle
 10
143.157845
 20
111.2568049999999
 30
0.0
 40
0.172505
100
AcDbArc
 50
91.874847
 51
177.887874
  0
LINE
  5
39E
330
18
100
AcDbEntity
  8
0
100
AcDbLine
 10
149.2359999999999
 20
111.429
 30
0.0
 11
149.2359999999999
 21
111.096
 31
0.0
  0
LINE
  5
39F
330
18
100
AcDbEntity
  8
0
100
AcDbLine
 10
149.2359999999999
 20
105.096
 30
0.0
 11
149.2359999999999
 21
104.7629999999999
 31
0.0
  0
LINE
  5
3A0
330
18
100
AcDbEntity
  8
0
100
AcDbLine
 10
142.985
 20
111.263
 30
0.0
 11
142.985
 21
109.6799999999999
 31
0.0
  0
LINE
  5
3A1
330
18
100
AcDbEntity
  8
0
100
AcDbLine
 10
142.985
 20
106.5129999999999
 30
0.0
 11
142.985
 21
104.93
 31
0.0
  0
LINE
  5
3A2
330
18
100
AcDbEntity
  8
0
100
AcDbLine
 10
143.2359999999999
 20
115.43
 30
0.0
 11
143.2359999999999
 21
111.429
 31
0.0
  0
LINE
  5
3A3
330
18
100
AcDbEntity
  8
0
100
AcDbLine
 10
144.402
 20
115.43
 30
0.0
 11
144.402
 21
111.429
 31
0.0
  0
LINE
  5
3A5
330
18
100
AcDbEntity
  8
0
100
AcDbLine
 10
143.402
 20
115.596
 30
0.0
 11
144.2359999999999
 21
115.596
 31
0.0
  0
LINE
  5
3A6
330
18
100
AcDbEntity
  8
0
100
AcDbLine
 10
143.152
 20
104.7629999999999
 30
0.0
 11
149.2359999999999
 21
104.7629999999999
 31
0.0
  0
LINE
  5
3A7
330
18
100
AcDbEntity
  8
0
100
AcDbLine
 10
143.152
 20
111.429
 30
0.0
 11
149.2359999999999
 21
111.429
 31
0.0
  0
LINE
  5
3A8
330
18
100
AcDbEntity
  8
0
100
AcDbLine
 10
76.86230000000001
 20
179.206
 30
0.0
 11
76.86230000000001
 21
178.9559999999999
 31
0.0
  0
LINE
  5
3A9
330
18
100
AcDbEntity
  8
0
100
AcDbLine
 10
76.86230000000001
 20
179.206
 30
0.0
 11
86.8621
 21
179.206
 31
0.0
  0
LINE
  5
3AA
330
18
100
AcDbEntity
  8
0
100
AcDbLine
 10
86.8621
 20
179.206
 30
0.0
 11
86.8621
 21
178.9559999999999
 31
0.0
  0
LINE
  5
3AB
330
18
100
AcDbEntity
  8
0
100
AcDbLine
 10
76.86230000000001
 20
178.9559999999999
 30
0.0
 11
86.8621
 21
178.9559999999999
 31
0.0
  0
LINE
  5
3AC
330
18
100
AcDbEntity
  8
0
100
AcDbLine
 10
63.8618
 20
179.206
 30
0.0
 11
63.8618
 21
178.9559999999999
 31
0.0
  0
LINE
  5
3AD
330
18
100
AcDbEntity
  8
0
100
AcDbLine
 10
63.8618
 20
179.206
 30
0.0
 11
73.8619
 21
179.206
 31
0.0
  0
LINE
  5
3AE
330
18
100
AcDbEntity
  8
0
100
AcDbLine
 10
73.8619
 20
179.206
 30
0.0
 11
73.8619
 21
178.9559999999999
 31
0.0
  0
LINE
  5
3AF
330
18
100
AcDbEntity
  8
0
100
AcDbLine
 10
63.8618
 20
178.9559999999999
 30
0.0
 11
73.8619
 21
178.9559999999999
 31
0.0
  0
LINE
  5
3B0
330
18
100
AcDbEntity
  8
0
100
AcDbLine
 10
71.6588
 20
178.9559999999999
 30
0.0
 11
71.6588
 21
178.6229999999999
 31
0.0
  0
LINE
  5
3B1
330
18
100
AcDbEntity
  8
0
100
AcDbLine
 10
65.9971
 20
178.9559999999999
 30
0.0
 11
65.9971
 21
178.6229999999999
 31
0.0
  0
LINE
  5
3B2
330
18
100
AcDbEntity
  8
0
100
AcDbLine
 10
97.3942
 20
160.991
 30
0.0
 11
87.4688
 21
160.991
 31
0.0
  0
LINE
  5
3B3
330
18
100
AcDbEntity
  8
0
100
AcDbLine
 10
72.7192
 20
160.991
 30
0.0
 11
61.9709
 21
160.991
 31
0.0
  0
TEXT
  5
3B4
330
18
100
AcDbEntity
  8
_________2
100
AcDbText
 10
154.5088593333333
 20
254.062
 30
0.0
 40
3.373459999999999
  1
数
 41
0.5
 72
     1
 11
155.2959999999999
 21
254.062
 31
0.0
100
AcDbText
  0
LINE
  5
3B5
330
18
100
AcDbEntity
  8
_________2
100
AcDbLine
 10
132.742
 20
258.911
 30
0.0
 11
132.742
 21
223.9109999999999
 31
0.0
  0
LINE
  5
3B6
330
18
100
AcDbEntity
  8
_________2
100
AcDbLine
 10
151.9339999999999
 20
258.911
 30
0.0
 11
151.9339999999999
 21
223.9109999999999
 31
0.0
  0
LINE
  5
3B7
330
18
100
AcDbEntity
  8
_________2
100
AcDbLine
 10
158.587
 20
258.911
 30
0.0
 11
158.587
 21
223.9109999999999
 31
0.0
  0
TEXT
  5
3B8
330
18
100
AcDbEntity
  8
_________2
100
AcDbText
 10
167.301194
 20
226.062
 30
0.0
 40
3.373459999999999
  1
スパウト
 41
0.5
 72
     1
 11
171.012
 21
226.062
 31
0.0
100
AcDbText
  0
TEXT
  5
3B9
330
18
100
AcDbEntity
  8
_________2
100
AcDbText
 10
134.048
 20
218.5029999999999
 30
0.0
 40
3.373459999999999
  1
注：色番号はカタログを参照ください
 41
0.5
100
AcDbText
  0
TEXT
  5
3BA
330
18
100
AcDbEntity
  8
_________2
100
AcDbText
 10
138.2302966666666
 20
226.062
 30
0.0
 40
3.373459999999999
  1
VL.010
 41
0.5
 72
     1
 11
142.1659999999999
 21
226.062
 31
0.0
100
AcDbText
  0
LINE
  5
3BB
330
18
100
AcDbEntity
  8
_________2
100
AcDbLine
 10
132.742
 20
223.9109999999999
 30
0.0
 11
183.551
 21
223.9109999999999
 31
0.0
  0
TEXT
  5
3BC
330
18
100
AcDbEntity
  8
_________2
100
AcDbText
 10
169.2128213333333
 20
233.0609999999999
 30
0.0
 40
3.373459999999999
  1
台座
 41
0.5
 72
     1
 11
171.012
 21
233.0609999999999
 31
0.0
100
AcDbText
  0
TEXT
  5
3BD
330
18
100
AcDbEntity
  8
_________2
100
AcDbText
 10
138.2302966666666
 20
233.0609999999999
 30
0.0
 40
3.373459999999999
  1
VL.001
 41
0.5
 72
     1
 11
142.1659999999999
 21
233.0609999999999
 31
0.0
100
AcDbText
  0
TEXT
  5
3BE
330
18
100
AcDbEntity
  8
_________2
100
AcDbText
 10
164.1516313333333
 20
240.0609999999999
 30
0.0
 40
3.373459999999999
  1
単水栓ハンドル
 41
0.5
 72
     1
 11
171.011
 21
240.0609999999999
 31
0.0
100
AcDbText
  0
TEXT
  5
3BF
330
18
100
AcDbEntity
  8
_________2
100
AcDbText
 10
165.1646693333333
 20
247.0609999999999
 30
0.0
 40
3.373459999999999
  1
埋込型単水栓
 41
0.5
 72
     1
 11
171.012
 21
247.0609999999999
 31
0.0
100
AcDbText
  0
TEXT
  5
3C0
330
18
100
AcDbEntity
  8
_________2
100
AcDbText
 10
169.2128213333333
 20
254.062
 30
0.0
 40
3.373459999999999
  1
名称
 41
0.5
 72
     1
 11
171.012
 21
254.062
 31
0.0
100
AcDbText
  0
TEXT
  5
3C1
330
18
100
AcDbEntity
  8
_________2
100
AcDbText
 10
138.0897358333333
 20
240.0619999999999
 30
0.0
 40
3.373459999999999
  1
VL.017
 41
0.5
 72
     1
 11
142.1659999999999
 21
240.0619999999999
 31
0.0
100
AcDbText
  0
TEXT
  5
3C2
330
18
100
AcDbEntity
  8
_________2
100
AcDbText
 10
137.1058099999999
 20
247.062
 30
0.0
 40
3.373459999999999
  1
VL.900R
 41
0.5
 72
     1
 11
142.1659999999999
 21
247.062
 31
0.0
100
AcDbText
  0
TEXT
  5
3C3
330
18
100
AcDbEntity
  8
_________2
100
AcDbText
 10
155.0148783333333
 20
226.062
 30
0.0
 40
3.373459999999999
  1
1
 41
0.5
 72
     1
 11
155.2959999999999
 21
226.062
 31
0.0
100
AcDbText
  0
TEXT
  5
3C4
330
18
100
AcDbEntity
  8
_________2
100
AcDbText
 10
154.7337566666666
 20
233.0609999999999
 30
0.0
 40
3.373459999999999
  1
2
 41
0.5
 72
     1
 11
155.2959999999999
 21
233.0609999999999
 31
0.0
100
AcDbText
  0
TEXT
  5
3C5
330
18
100
AcDbEntity
  8
_________2
100
AcDbText
 10
155.0148783333333
 20
240.0619999999999
 30
0.0
 40
3.373459999999999
  1
1
 41
0.5
 72
     1
 11
155.2959999999999
 21
240.0619999999999
 31
0.0
100
AcDbText
  0
TEXT
  5
3C6
330
18
100
AcDbEntity
  8
_________2
100
AcDbText
 10
155.0148783333333
 20
247.062
 30
0.0
 40
3.373459999999999
  1
1
 41
0.5
 72
     1
 11
155.2959999999999
 21
247.062
 31
0.0
100
AcDbText
  0
TEXT
  5
3C7
330
18
100
AcDbEntity
  8
_________2
100
AcDbText
 10
140.3668213333333
 20
254.062
 30
0.0
 40
3.373459999999999
  1
品番
 41
0.5
 72
     1
 11
142.1659999999999
 21
254.062
 31
0.0
100
AcDbText
  0
LINE
  5
3C8
330
18
100
AcDbEntity
  8
_________2
100
AcDbLine
 10
132.742
 20
230.9109999999999
 30
0.0
 11
183.551
 21
230.9109999999999
 31
0.0
  0
LINE
  5
3C9
330
18
100
AcDbEntity
  8
_________2
100
AcDbLine
 10
132.742
 20
237.9109999999999
 30
0.0
 11
183.551
 21
237.9109999999999
 31
0.0
  0
LINE
  5
3CA
330
18
100
AcDbEntity
  8
_________2
100
AcDbLine
 10
132.742
 20
244.9109999999999
 30
0.0
 11
183.551
 21
244.9109999999999
 31
0.0
  0
LINE
  5
3CB
330
18
100
AcDbEntity
  8
_________2
100
AcDbLine
 10
132.742
 20
251.9109999999999
 30
0.0
 11
183.551
 21
251.9109999999999
 31
0.0
  0
LINE
  5
3CC
330
18
100
AcDbEntity
  8
_________2
100
AcDbLine
 10
205.301
 20
127.411
 30
0.0
 11
183.55
 21
127.411
 31
0.0
  0
LINE
  5
3CD
330
18
100
AcDbEntity
  8
_________2
100
AcDbLine
 10
100.2999999999999
 20
-4.09108
 30
0.0
 11
100.2999999999999
 21
-21.0714
 31
0.0
  0
LINE
  5
3CE
330
18
100
AcDbEntity
  8
_________2
100
AcDbLine
 10
100.2999999999999
 20
275.9309999999999
 30
0.0
 11
100.2999999999999
 21
258.911
 31
0.0
  0
LINE
  5
3CF
330
18
100
AcDbEntity
  8
_________2
100
AcDbLine
 10
17.0495
 20
127.411
 30
0.0
 11
-4.70052
 21
127.411
 31
0.0
  0
LINE
  5
3D0
330
18
100
AcDbEntity
  8
_________2
100
AcDbLine
 10
76.741
 20
29.8047
 30
0.0
 11
74.5547
 21
29.8047
 31
0.0
  0
LINE
  5
3D1
330
18
100
AcDbEntity
  8
_________2
100
AcDbLine
 10
77.2337
 20
29.8047
 30
0.0
 11
76.9815
 21
29.8047
 31
0.0
  0
LINE
  5
3D2
330
18
100
AcDbEntity
  8
_________2
100
AcDbLine
 10
77.72629999999999
 20
29.8047
 30
0.0
 11
80.6512
 21
29.8047
 31
0.0
  0
LINE
  5
3D3
330
18
100
AcDbEntity
  8
_________2
100
AcDbLine
 10
77.2337
 20
29.8047
 30
0.0
 11
77.4855
 21
29.8047
 31
0.0
  0
LINE
  5
3D4
330
18
100
AcDbEntity
  8
_________2
100
AcDbLine
 10
70.8371
 20
29.8047
 30
0.0
 11
68.6505
 21
29.8047
 31
0.0
  0
LINE
  5
3D5
330
18
100
AcDbEntity
  8
_________2
100
AcDbLine
 10
71.32940000000001
 20
29.8047
 30
0.0
 11
71.0776
 21
29.8047
 31
0.0
  0
LINE
  5
3D6
330
18
100
AcDbEntity
  8
_________2
100
AcDbLine
 10
71.32940000000001
 20
30.2974
 30
0.0
 11
71.32940000000001
 21
32.4844
 31
0.0
  0
LINE
  5
3D7
330
18
100
AcDbEntity
  8
_________2
100
AcDbLine
 10
71.32940000000001
 20
29.8047
 30
0.0
 11
71.32940000000001
 21
30.05689999999999
 31
0.0
  0
LINE
  5
3D8
330
18
100
AcDbEntity
  8
_________2
100
AcDbLine
 10
71.82210000000001
 20
29.8047
 30
0.0
 11
74.009
 21
29.8047
 31
0.0
  0
LINE
  5
3D9
330
18
100
AcDbEntity
  8
_________2
100
AcDbLine
 10
71.32940000000001
 20
29.8047
 30
0.0
 11
71.58159999999999
 21
29.8047
 31
0.0
  0
LINE
  5
3DA
330
18
100
AcDbEntity
  8
_________2
100
AcDbLine
 10
71.32940000000001
 20
29.3128
 30
0.0
 11
71.32940000000001
 21
27.1258
 31
0.0
  0
LINE
  5
3DB
330
18
100
AcDbEntity
  8
_________2
100
AcDbLine
 10
71.32940000000001
 20
29.8047
 30
0.0
 11
71.32940000000001
 21
29.5532
 31
0.0
  0
LINE
  5
3DC
330
18
100
AcDbEntity
  8
_________2
100
AcDbLine
 10
75.04049999999999
 20
28.5852
 30
0.0
 11
80.2185
 21
27.7204
 31
0.0
  0
LINE
  5
3DD
330
18
100
AcDbEntity
  8
_________2
100
AcDbLine
 10
75.04049999999999
 20
31.0243
 30
0.0
 11
80.2185
 21
31.8897
 31
0.0
  0
LINE
  5
3DE
330
18
100
AcDbEntity
  8
_________2
100
AcDbLine
 10
80.2185
 20
27.7204
 30
0.0
 11
80.2185
 21
31.8897
 31
0.0
  0
LINE
  5
3DF
330
18
100
AcDbEntity
  8
_________2
100
AcDbLine
 10
75.04049999999999
 20
28.5852
 30
0.0
 11
75.04049999999999
 21
31.0243
 31
0.0
  0
ARC
  5
3E0
330
18
100
AcDbEntity
  8
_________2
100
AcDbCircle
 10
71.28285600000001
 20
29.757811
 30
0.0
 40
1.267359
100
AcDbArc
 50
2.122214
 51
87.893959
  0
ARC
  5
3E1
330
18
100
AcDbEntity
  8
_________2
100
AcDbCircle
 10
71.37595999999999
 20
29.758213
 30
0.0
 40
1.266955999999999
100
AcDbArc
 50
92.104701
 51
177.8952689999999
  0
ARC
  5
3E2
330
18
100
AcDbEntity
  8
_________2
100
AcDbCircle
 10
71.37635799999999
 20
29.851671
 30
0.0
 40
1.267368
100
AcDbArc
 50
182.122036
 51
267.877993
  0
ARC
  5
3E3
330
18
100
AcDbEntity
  8
_________2
100
AcDbCircle
 10
71.28253199999999
 20
29.85199899999999
 30
0.0
 40
1.267695999999999
100
AcDbArc
 50
272.120153
 51
357.863674
  0
ARC
  5
3E4
330
18
100
AcDbEntity
  8
_________2
100
AcDbCircle
 10
71.32943
 20
29.804743
 30
0.0
 40
2.084984999999999
100
AcDbArc
 50
0.00001
 51
89.99998000000001
  0
ARC
  5
3E5
330
18
100
AcDbEntity
  8
_________2
100
AcDbCircle
 10
71.329603
 20
29.804915
 30
0.0
 40
2.084813
100
AcDbArc
 50
90.004734
 51
180.004744
  0
ARC
  5
3E6
330
18
100
AcDbEntity
  8
_________2
100
AcDbCircle
 10
71.40910600000001
 20
29.884776
 30
0.0
 40
2.165795
100
AcDbArc
 50
182.117766
 51
267.891734
  0
ARC
  5
3E7
330
18
100
AcDbEntity
  8
_________2
100
AcDbCircle
 10
71.249459
 20
29.88542999999999
 30
0.0
 40
2.166459
100
AcDbArc
 50
272.115468
 51
357.865604
  0
TEXT
  5
3E8
330
18
100
AcDbEntity
  8
_________2
100
AcDbText
 10
104.605
 20
1.67949
 30
0.0
 40
3.09234
  1
図番
 41
0.5
100
AcDbText
  0
LINE
  5
3E9
330
18
100
AcDbEntity
  8
_________2
100
AcDbLine
 10
103.55
 20
5.908719999999999
 30
0.0
 11
183.551
 21
5.908719999999999
 31
0.0
  0
TEXT
  5
3EA
330
18
100
AcDbEntity
  8
_________2
100
AcDbText
 10
104.605
 20
11.67929999999999
 30
0.0
 40
3.09234
  1
品番
 41
0.5
100
AcDbText
  0
TEXT
  5
3EB
330
18
100
AcDbEntity
  8
_________2
100
AcDbText
 10
104.605
 20
31.8181
 30
0.0
 40
3.09234
  1
名称
 41
0.5
100
AcDbText
  0
TEXT
  5
3EC
330
18
100
AcDbEntity
  8
_________2
100
AcDbText
 10
91.84505833333334
 20
26.82199999999999
 30
0.0
 40
3.65458
  1
mm
 41
0.5
 72
     1
 11
93.3678
 21
26.82199999999999
 31
0.0
100
AcDbText
  0
TEXT
  5
3ED
330
18
100
AcDbEntity
  8
_________2
100
AcDbText
 10
85.6432
 20
31.8181
 30
0.0
 40
3.09234
  1
単位
 41
0.5
100
AcDbText
  0
TEXT
  5
3EE
330
18
100
AcDbEntity
  8
_________2
100
AcDbText
 10
85.6432
 20
19.41079999999999
 30
0.0
 40
3.09234
  1
尺度
 41
0.5
100
AcDbText
  0
TEXT
  5
3EF
330
18
100
AcDbEntity
  8
_________2
100
AcDbText
 10
90.54875866666668
 20
13.2179
 30
0.0
 40
3.65458
  1
1 ： 6
 41
0.5
 72
     1
 11
93.9597
 21
13.2179
 31
0.0
100
AcDbText
  0
TEXT
  5
3F0
330
18
100
AcDbEntity
  8
_________2
100
AcDbText
 10
136.662525
 20
9.10786
 30
0.0
 40
3.9357
  1
図中の表参照
 41
0.5
 72
     1
 11
143.55
 21
9.10786
 31
0.0
100
AcDbText
  0
TEXT
  5
3F1
330
18
100
AcDbEntity
  8
_________2
100
AcDbText
 10
136.662525
 20
-0.8926299999999999
 30
0.0
 40
3.9357
  1
VL900R11
 41
0.5
 72
     1
 11
143.55
 21
-0.8926299999999999
 31
0.0
100
AcDbText
  0
TEXT
  5
3F2
330
18
100
AcDbEntity
  8
_________2
100
AcDbText
 10
24.5868
 20
0.707283
 30
0.0
 40
3.9357
  1
（社）日本水道協会認証品
 41
0.5
100
AcDbText
  0
TEXT
  5
3F3
330
18
100
AcDbEntity
  8
_________2
100
AcDbText
 10
109.179
 20
24.2257
 30
0.0
 40
3.9357
  1
ボラ　単水栓
 41
0.5
100
AcDbText
  0
TEXT
  5
3F4
330
18
100
AcDbEntity
  8
_________2
100
AcDbText
 10
39.30348099999999
 20
13.603
 30
0.0
 40
3.65458
  1
田尻
 41
0.5
 72
     1
 11
41.3135
 21
13.603
 31
0.0
100
AcDbText
  0
TEXT
  5
3F5
330
18
100
AcDbEntity
  8
_________2
100
AcDbText
 10
20.79009066666666
 20
13.603
 30
0.0
 40
3.65458
  1
石原
 41
0.5
 72
     1
 11
22.73919999999999
 21
13.603
 31
0.0
100
AcDbText
  0
TEXT
  5
3F6
330
18
100
AcDbEntity
  8
_________2
100
AcDbText
 10
67.78539999999999
 20
13.2179
 30
0.0
 40
3.65458
  1
10.05.10
 41
0.5
100
AcDbText
  0
TEXT
  5
3F7
330
18
100
AcDbEntity
  8
_________2
100
AcDbText
 10
66.59310000000001
 20
19.41079999999999
 30
0.0
 40
3.09234
  1
日付
 41
0.5
100
AcDbText
  0
TEXT
  5
3F8
330
18
100
AcDbEntity
  8
_________2
100
AcDbText
 10
29.6394
 20
19.41079999999999
 30
0.0
 40
3.09234
  1
検図
 41
0.5
100
AcDbText
  0
TEXT
  5
3F9
330
18
100
AcDbEntity
  8
_________2
100
AcDbText
 10
18.0211
 20
5.21143
 30
0.0
 40
3.09234
  1
備考
 41
0.5
100
AcDbText
  0
TEXT
  5
3FA
330
18
100
AcDbEntity
  8
_________2
100
AcDbText
 10
18.0211
 20
19.41079999999999
 30
0.0
 40
3.09234
  1
製図
 41
0.5
100
AcDbText
  0
TEXT
  5
3FB
330
18
100
AcDbEntity
  8
_________2
100
AcDbText
 10
23.863431
 20
27.9368
 30
0.0
 40
4.497939999999999
  1
セラトレーディング株式会社
 41
0.5
 72
     1
 11
41.1805
 21
27.9368
 31
0.0
100
AcDbText
  0
LINE
  5
3FC
330
18
100
AcDbEntity
  8
_________2
100
AcDbLine
 10
183.551
 20
-4.09108
 30
0.0
 11
17.0495
 21
-4.09108
 31
0.0
  0
LINE
  5
3FD
330
18
100
AcDbEntity
  8
_________2
100
AcDbLine
 10
17.0495
 20
-4.09108
 30
0.0
 11
17.0495
 21
258.911
 31
0.0
  0
LINE
  5
3FE
330
18
100
AcDbEntity
  8
_________2
100
AcDbLine
 10
17.0495
 20
258.911
 30
0.0
 11
183.551
 21
258.911
 31
0.0
  0
LINE
  5
3FF
330
18
100
AcDbEntity
  8
_________2
100
AcDbLine
 10
183.551
 20
258.911
 30
0.0
 11
183.551
 21
-4.09108
 31
0.0
  0
LINE
  5
400
330
18
100
AcDbEntity
  8
_________2
100
AcDbLine
 10
65.5496
 20
9.40896
 30
0.0
 11
65.5496
 21
35.9088
 31
0.0
  0
LINE
  5
401
330
18
100
AcDbEntity
  8
_________2
100
AcDbLine
 10
84.54970000000001
 20
9.40896
 30
0.0
 11
84.54970000000001
 21
35.9088
 31
0.0
  0
LINE
  5
402
330
18
100
AcDbEntity
  8
_________2
100
AcDbLine
 10
103.55
 20
-4.09108
 30
0.0
 11
103.55
 21
35.9088
 31
0.0
  0
LINE
  5
403
330
18
100
AcDbEntity
  8
_________2
100
AcDbLine
 10
28.54929999999999
 20
9.40896
 30
0.0
 11
28.54929999999999
 21
23.4092
 31
0.0
  0
LINE
  5
404
330
18
100
AcDbEntity
  8
_________2
100
AcDbLine
 10
17.0495
 20
9.40896
 30
0.0
 11
103.55
 21
9.40896
 31
0.0
  0
LINE
  5
405
330
18
100
AcDbEntity
  8
_________2
100
AcDbLine
 10
17.0495
 20
23.4092
 30
0.0
 11
103.55
 21
23.4092
 31
0.0
  0
LINE
  5
406
330
18
100
AcDbEntity
  8
_________2
100
AcDbLine
 10
103.55
 20
15.9085
 30
0.0
 11
183.551
 21
15.9085
 31
0.0
  0
LINE
  5
407
330
18
100
AcDbEntity
  8
_________2
100
AcDbLine
 10
17.0495
 20
35.9088
 30
0.0
 11
183.551
 21
35.9088
 31
0.0
  0
ENDSEC
  0
SECTION
  2
OBJECTS
  0
DICTIONARY
  5
C
330
0
100
AcDbDictionary
281
     1
  3
ACAD_GROUP
350
D
  3
ACAD_LAYOUT
350
40D
  3
ACAD_MLINESTYLE
350
1B
  3
ACAD_PLOTSETTINGS
350
40E
  3
ACAD_PLOTSTYLENAME
350
40B
  0
DICTIONARY
  5
D
102
{ACAD_REACTORS
330
C
102
}
330
C
100
AcDbDictionary
281
     1
  0
DICTIONARY
  5
40D
102
{ACAD_REACTORS
330
C
102
}
330
C
100
AcDbDictionary
281
     1
  3
Model
350
40F
  3
ﾚｲｱｳﾄ1
350
410
  0
DICTIONARY
  5
1B
102
{ACAD_REACTORS
330
C
102
}
330
C
100
AcDbDictionary
281
     1
  3
STANDARD
350
1C
  0
DICTIONARY
  5
40E
102
{ACAD_REACTORS
330
C
102
}
330
C
100
AcDbDictionary
281
     1
  0
ACDBDICTIONARYWDFLT
  5
40B
102
{ACAD_REACTORS
330
C
102
}
330
C
100
AcDbDictionary
281
     1
  3
Normal
350
40C
100
AcDbDictionaryWithDefault
340
40C
  0
LAYOUT
  5
40F
102
{ACAD_REACTORS
330
40D
102
}
330
40D
100
AcDbPlotSettings
  1

  2
PrimoPDF
  4

  6

 40
0.0
 41
0.0
 42
0.0
 43
0.0
 44
0.0
 45
0.0
 46
0.0
 47
0.0
 48
0.0
 49
0.0
140
0.0
141
0.0
142
1.0
143
1.0
 70
  1712
 72
     0
 73
     0
 74
     0
  7

 75
     0
147
1.0
148
0.0
149
0.0
100
AcDbLayout
  1
Model
 70
     1
 71
     0
 10
0.0
 20
0.0
 11
12.0
 21
9.0
 12
0.0
 22
0.0
 32
0.0
 14
0.0
 24
0.0
 34
0.0
 15
0.0
 25
0.0
 35
0.0
146
0.0
 13
0.0
 23
0.0
 33
0.0
 16
1.0
 26
0.0
 36
0.0
 17
0.0
 27
1.0
 37
0.0
 76
     0
330
18
  0
LAYOUT
  5
410
102
{ACAD_REACTORS
330
40D
102
}
330
40D
100
AcDbPlotSettings
  1

  2
PrimoPDF
  4

  6

 40
0.0
 41
0.0
 42
0.0
 43
0.0
 44
0.0
 45
0.0
 46
0.0
 47
0.0
 48
0.0
 49
0.0
140
0.0
141
0.0
142
1.0
143
1.0
 70
   688
 72
     0
 73
     0
 74
     5
  7

 75
    16
147
1.0
148
0.0
149
0.0
100
AcDbLayout
  1
ﾚｲｱｳﾄ1
 70
     1
 71
     1
 10
0.0
 20
0.0
 11
12.0
 21
9.0
 12
0.0
 22
0.0
 32
0.0
 14
1.000000000000000E+20
 24
1.000000000000000E+20
 34
1.000000000000000E+20
 15
-1.000000000000000E+20
 25
-1.000000000000000E+20
 35
-1.000000000000000E+20
146
0.0
 13
0.0
 23
0.0
 33
0.0
 16
1.0
 26
0.0
 36
0.0
 17
0.0
 27
1.0
 37
0.0
 76
     0
330
15
  0
MLINESTYLE
  5
1C
102
{ACAD_REACTORS
330
1B
102
}
330
1B
100
AcDbMlineStyle
  2
STANDARD
 70
     0
  3

 62
   256
 51
90.0
 52
90.0
 71
     2
 49
0.5
 62
   256
  6
BYLAYER
 49
-0.5
 62
   256
  6
BYLAYER
  0
ACDBPLACEHOLDER
  5
40C
102
{ACAD_REACTORS
330
40B
102
}
330
40B
  0
ENDSEC
  0
EOF
