  0
SECTION
  2
HEADER
  9
$ACADVER
  1
AC1009
  9
$INSBASE
 10
0.0
 20
0.0
 30
0.0
  9
$EXTMIN
 10
-4.70052
 20
-21.071400000000001
 30
0.0
  9
$EXTMAX
 10
205.30099999999999
 20
275.93099999999993
 30
0.0
  9
$LIMMIN
 10
0.0
 20
0.0
  9
$LIMMAX
 10
12.0
 20
9.0
  9
$ORTHOMODE
 70
     0
  9
$REGENMODE
 70
     1
  9
$FILLMODE
 70
     1
  9
$QTEXTMODE
 70
     0
  9
$MIRRTEXT
 70
     1
  9
$DRAGMODE
 70
     2
  9
$LTSCALE
 40
1.0
  9
$OSMODE
 70
    37
  9
$ATTMODE
 70
     1
  9
$TEXTSIZE
 40
0.0
  9
$TRACEWID
 40
0.05
  9
$TEXTSTYLE
  7
STANDARD
  9
$CLAYER
  8
0
  9
$CELTYPE
  6
CONTINUOUS
  9
$CECOLOR
 62
   256
  9
$DIMSCALE
 40
1.0
  9
$DIMASZ
 40
0.18
  9
$DIMEXO
 40
0.0625
  9
$DIMDLI
 40
0.38
  9
$DIMRND
 40
0.0
  9
$DIMDLE
 40
0.0
  9
$DIMEXE
 40
0.18
  9
$DIMTP
 40
0.0
  9
$DIMTM
 40
0.0
  9
$DIMTXT
 40
0.18
  9
$DIMCEN
 40
0.09
  9
$DIMTSZ
 40
0.0
  9
$DIMTOL
 70
     0
  9
$DIMLIM
 70
     0
  9
$DIMTIH
 70
     1
  9
$DIMTOH
 70
     1
  9
$DIMSE1
 70
     0
  9
$DIMSE2
 70
     0
  9
$DIMTAD
 70
     0
  9
$DIMZIN
 70
     0
  9
$DIMBLK
  1

  9
$DIMASO
 70
     1
  9
$DIMSHO
 70
     1
  9
$DIMPOST
  1

  9
$DIMAPOST
  1

  9
$DIMALT
 70
     0
  9
$DIMALTD
 70
     2
  9
$DIMALTF
 40
25.399999999999999
  9
$DIMLFAC
 40
1.0
  9
$DIMTOFL
 70
     0
  9
$DIMTVP
 40
0.0
  9
$DIMTIX
 70
     0
  9
$DIMSOXD
 70
     0
  9
$DIMSAH
 70
     0
  9
$DIMBLK1
  1

  9
$DIMBLK2
  1

  9
$DIMSTYLE
  2
STANDARD
  9
$DIMCLRD
 70
     0
  9
$DIMCLRE
 70
     0
  9
$DIMCLRT
 70
     0
  9
$DIMTFAC
 40
1.0
  9
$DIMGAP
 40
0.09
  9
$LUNITS
 70
     2
  9
$LUPREC
 70
     4
  9
$SKETCHINC
 40
0.1
  9
$FILLETRAD
 40
0.0
  9
$AUNITS
 70
     0
  9
$AUPREC
 70
     0
  9
$MENU
  1
.
  9
$ELEVATION
 40
0.0
  9
$PELEVATION
 40
0.0
  9
$THICKNESS
 40
0.0
  9
$LIMCHECK
 70
     0
  9
$BLIPMODE
 70
     0
  9
$CHAMFERA
 40
0.0
  9
$CHAMFERB
 40
0.0
  9
$SKPOLY
 70
     0
  9
$TDCREATE
 40
2444972.375
  9
$TDUPDATE
 40
2456676.2497451501
  9
$TDINDWG
 40
0.0000067708
  9
$TDUSRTIMER
 40
0.0000067708
  9
$USRTIMER
 70
     1
  9
$ANGBASE
 50
0.0
  9
$ANGDIR
 70
     0
  9
$PDMODE
 70
     0
  9
$PDSIZE
 40
0.0
  9
$PLINEWID
 40
0.0
  9
$COORDS
 70
     1
  9
$SPLFRAME
 70
     0
  9
$SPLINETYPE
 70
     6
  9
$SPLINESEGS
 70
     8
  9
$ATTDIA
 70
     0
  9
$ATTREQ
 70
     1
  9
$HANDLING
 70
     1
  9
$HANDSEED
  5
2A3
  9
$SURFTAB1
 70
     6
  9
$SURFTAB2
 70
     6
  9
$SURFTYPE
 70
     6
  9
$SURFU
 70
     6
  9
$SURFV
 70
     6
  9
$UCSNAME
  2

  9
$UCSORG
 10
0.0
 20
0.0
 30
0.0
  9
$UCSXDIR
 10
1.0
 20
0.0
 30
0.0
  9
$UCSYDIR
 10
0.0
 20
1.0
 30
0.0
  9
$PUCSNAME
  2

  9
$PUCSORG
 10
0.0
 20
0.0
 30
0.0
  9
$PUCSXDIR
 10
1.0
 20
0.0
 30
0.0
  9
$PUCSYDIR
 10
0.0
 20
1.0
 30
0.0
  9
$USERI1
 70
     0
  9
$USERI2
 70
     0
  9
$USERI3
 70
     0
  9
$USERI4
 70
     0
  9
$USERI5
 70
     0
  9
$USERR1
 40
0.0
  9
$USERR2
 40
0.0
  9
$USERR3
 40
0.0
  9
$USERR4
 40
0.0
  9
$USERR5
 40
0.0
  9
$WORLDVIEW
 70
     1
  9
$SHADEDGE
 70
     3
  9
$SHADEDIF
 70
    70
  9
$TILEMODE
 70
     1
  9
$MAXACTVP
 70
    48
  9
$PLIMCHECK
 70
     0
  9
$PEXTMIN
 10
1.0000000000000000E+020
 20
1.0000000000000000E+020
 30
1.0000000000000000E+020
  9
$PEXTMAX
 10
-1.0000000000000000E+020
 20
-1.0000000000000000E+020
 30
-1.0000000000000000E+020
  9
$PLIMMIN
 10
0.0
 20
0.0
  9
$PLIMMAX
 10
12.0
 20
9.0
  9
$UNITMODE
 70
     0
  9
$VISRETAIN
 70
     1
  9
$PLINEGEN
 70
     0
  9
$PSLTSCALE
 70
     1
  0
ENDSEC
  0
SECTION
  2
TABLES
  0
TABLE
  2
VPORT
 70
     2
  0
VPORT
  2
*ACTIVE
 70
     0
 10
0.0
 20
0.0
 11
1.0
 21
1.0
 12
202.00678374696719
 22
127.4298
 13
0.0
 23
0.0
 14
1.0
 24
1.0
 15
0.0
 25
0.0
 16
0.0
 26
0.0
 36
1.0
 17
0.0
 27
0.0
 37
0.0
 40
299.45358899587342
 41
2.2894736842105261
 42
50.0
 43
0.0
 44
0.0
 50
0.0
 51
0.0
 71
     0
 72
   100
 73
     1
 74
     1
 75
     0
 76
     0
 77
     0
 78
     0
  0
ENDTAB
  0
TABLE
  2
LTYPE
 70
     3
  0
LTYPE
  2
CONTINUOUS
 70
     0
  3
Solid line
 72
    65
 73
     0
 40
0.0
  0
LTYPE
  2
AIGENLINE001
 70
     0
  3
generate AI->DXF Converter
 72
    65
 73
     4
 40
5.8561449999999988
 49
3.5278
 49
-0.776115
 49
0.776115
 49
-0.776115
  0
LTYPE
  2
AIGENLINE002
 70
     0
  3
generate AI->DXF Converter
 72
    65
 73
     6
 40
7.4083750000000004
 49
3.5278
 49
-0.776115
 49
0.776115
 49
-0.776115
 49
0.776115
 49
-0.776115
  0
ENDTAB
  0
TABLE
  2
LAYER
 70
     3
  0
LAYER
  2
0
 70
     0
 62
     7
  6
CONTINUOUS
  0
LAYER
  2
_________4
 70
     0
 62
     7
  6
CONTINUOUS
  0
LAYER
  2
_________2
 70
     0
 62
     7
  6
CONTINUOUS
  0
ENDTAB
  0
TABLE
  2
STYLE
 70
     1
  0
STYLE
  2
STANDARD
 70
     0
 40
0.0
 41
0.0
 50
0.0
 71
     0
 42
0.0
  3
TXT
  4
EXTFONT.SHX
  0
ENDTAB
  0
TABLE
  2
VIEW
 70
     0
  0
ENDTAB
  0
TABLE
  2
UCS
 70
     0
  0
ENDTAB
  0
TABLE
  2
APPID
 70
     1
  0
APPID
  2
ACAD
 70
     0
  0
ENDTAB
  0
TABLE
  2
DIMSTYLE
 70
     1
  0
DIMSTYLE
  2
STANDARD
 70
     0
  3

  4

  5

  6

  7

 40
1.0
 41
0.18
 42
0.0625
 43
0.38
 44
0.18
 45
0.0
 46
0.0
 47
0.0
 48
0.0
140
0.18
141
0.09
142
0.0
143
25.399999999999999
144
1.0
145
0.0
146
1.0
147
0.09
 71
     0
 72
     0
 73
     1
 74
     1
 75
     0
 76
     0
 77
     0
 78
     0
170
     0
171
     2
172
     0
173
     0
174
     0
175
     0
176
     0
177
     0
178
     0
  0
ENDTAB
  0
ENDSEC
  0
SECTION
  2
BLOCKS
  0
BLOCK
  8
0
  2
$MODEL_SPACE
 70
     0
 10
0.0
 20
0.0
 30
0.0
  3
$MODEL_SPACE
  1

  0
ENDBLK
  5
1A
  8
0
  0
BLOCK
 67
     1
  8
0
  2
$PAPER_SPACE
 70
     0
 10
0.0
 20
0.0
 30
0.0
  3
$PAPER_SPACE
  1

  0
ENDBLK
  5
17
 67
     1
  8
0
  0
ENDSEC
  0
SECTION
  2
ENTITIES
  0
TEXT
  5
24
  8
0
 62
     7
 10
124.72828749999999
 20
122.3679999999999
 30
0.0
 40
3.0923400000000001
  1
%%c30
 41
0.5
 72
     1
 11
126.661
 21
122.3679999999999
 31
0.0
  0
TEXT
  5
25
  8
0
 62
     7
 10
44.444800000000001
 20
119.35337249999991
 30
0.0
 40
3.0923400000000001
  1
60
 50
90.0
 41
0.5
 72
     1
 11
44.444800000000001
 21
120.51300000000001
 31
0.0
  0
TEXT
  5
26
  8
0
 62
     7
 10
50.290300000000002
 20
120.0444225
 30
0.0
 40
3.0923400000000001
  1
max.50
 50
90.0
 41
0.5
 72
     1
 11
50.290300000000002
 21
123.78100000000001
 31
0.0
  0
TEXT
  5
27
  8
0
 62
     7
 10
50.4041
 20
45.446300000000001
 30
0.0
 40
3.0923400000000001
  1
%%c10
 41
0.5
  0
TEXT
  5
28
  8
0
 62
     7
 10
71.394400000000005
 20
232.93799999999999
 30
0.0
 40
3.0923400000000001
  1
水
 41
0.5
  0
TEXT
  5
29
  8
0
 62
     7
 10
49.520308
 20
232.93799999999999
 30
0.0
 40
3.0923400000000001
  1
湯
 41
0.5
 72
     2
 11
50.9634
 21
232.93799999999999
 31
0.0
  0
TEXT
  5
2A
  8
0
 62
     7
 10
136.5401359999999
 20
235.82400000000001
 30
0.0
 40
3.0923400000000001
  1
%%c32～35
 41
0.5
 72
     2
 11
145.6109999999999
 21
235.82400000000001
 31
0.0
  0
TEXT
  5
2B
  8
0
 62
     7
 10
113.4379859999999
 20
196.39299999999989
 30
0.0
 40
3.0923400000000001
  1
閉
 41
0.5
 72
     2
 11
114.77800000000001
 21
196.39299999999989
 31
0.0
  0
TEXT
  5
2C
  8
0
 62
     7
 10
114.064986
 20
203.39099999999999
 30
0.0
 40
3.0923400000000001
  1
開
 41
0.5
 72
     2
 11
115.405
 21
203.39099999999999
 31
0.0
  0
TEXT
  5
2D
  8
0
 62
     7
 10
122.871646
 20
228.17699999999999
 30
0.0
 40
3.0923400000000001
  1
水栓取付穴
 41
0.5
 72
     1
 11
127.3039999999999
 21
228.17699999999999
 31
0.0
  0
TEXT
  5
2E
  8
0
 62
     7
 10
149.65399999999991
 20
165.3452874999999
 30
0.0
 40
3.0923400000000001
  1
306
 50
90.0
 41
0.5
 72
     1
 11
149.65399999999991
 21
167.27799999999991
 31
0.0
  0
TEXT
  5
2F
  8
0
 62
     7
 10
143.12200000000001
 20
162.75828749999991
 30
0.0
 40
3.0923400000000001
  1
290
 50
90.0
 41
0.5
 72
     1
 11
143.12200000000001
 21
164.69099999999989
 31
0.0
  0
TEXT
  5
30
  8
0
 62
     7
 10
149.40700000000001
 20
88.354482500000003
 30
0.0
 40
3.0923400000000001
  1
310
 50
90.0
 41
0.5
 72
     1
 11
149.40700000000001
 21
90.029499999999999
 31
0.0
  0
TEXT
  5
31
  8
0
 62
     7
 10
108.7239999999999
 20
151.20213499999991
 30
0.0
 40
3.0923400000000001
  1
200
 50
90.0
 41
0.5
 72
     1
 11
108.7239999999999
 21
153.00599999999989
 31
0.0
  0
TEXT
  5
32
  8
0
 62
     7
 10
88.039500000000004
 20
152.01928749999999
 30
0.0
 40
3.0923400000000001
  1
205
 50
90.0
 41
0.5
 72
     1
 11
88.039500000000004
 21
153.95199999999991
 31
0.0
  0
TEXT
  5
33
  8
0
 62
     7
 10
111.7499825
 20
210.39699999999999
 30
0.0
 40
3.0923400000000001
  1
107
 41
0.5
 72
     1
 11
113.4249999999999
 21
210.39699999999999
 31
0.0
  0
TEXT
  5
34
  8
0
 62
     7
 10
124.93328750000001
 20
177.29900000000001
 30
0.0
 40
3.0923400000000001
  1
%%c40
 41
0.5
 72
     1
 11
126.866
 21
177.29900000000001
 31
0.0
  0
LINE
  5
35
  8
_________4
 62
     7
 10
64.087800000000001
 20
112.495
 30
0.0
 11
63.570300000000003
 21
113.01299999999991
 31
0.0
  0
LINE
  5
36
  8
_________4
 62
     7
 10
61.605200000000004
 20
113.01299999999991
 30
0.0
 11
61.087800000000001
 21
112.495
 31
0.0
  0
LINE
  5
37
  8
_________4
 62
     7
 10
64.087800000000001
 20
111.39399999999991
 30
0.0
 11
62.46929999999999
 21
113.01299999999991
 31
0.0
  0
LINE
  5
38
  8
_________4
 62
     7
 10
62.706299999999999
 20
113.01299999999991
 30
0.0
 11
61.087800000000001
 21
111.39399999999991
 31
0.0
  0
LINE
  5
39
  8
_________4
 62
     7
 10
64.087800000000001
 20
110.29299999999991
 30
0.0
 11
61.368200000000002
 21
113.01299999999991
 31
0.0
  0
LINE
  5
3A
  8
_________4
 62
     7
 10
63.807400000000001
 20
113.01299999999991
 30
0.0
 11
61.087800000000001
 21
110.29299999999991
 31
0.0
  0
LINE
  5
3B
  8
_________4
 62
     7
 10
63.366399999999999
 20
109.9129999999999
 30
0.0
 11
61.087800000000001
 21
112.19199999999999
 31
0.0
  0
LINE
  5
3C
  8
_________4
 62
     7
 10
64.087800000000001
 20
112.19199999999999
 30
0.0
 11
61.808500000000002
 21
109.9129999999999
 31
0.0
  0
LINE
  5
3D
  8
_________4
 62
     7
 10
62.265300000000003
 20
109.9129999999999
 30
0.0
 11
61.087800000000001
 21
111.09099999999999
 31
0.0
  0
LINE
  5
3E
  8
_________4
 62
     7
 10
64.087800000000001
 20
111.09099999999999
 30
0.0
 11
62.909599999999998
 21
109.9129999999999
 31
0.0
  0
LINE
  5
3F
  8
_________4
 62
     7
 10
64.087800000000001
 20
62.104100000000003
 30
0.0
 11
64.087800000000001
 21
113.01299999999991
 31
0.0
  0
LINE
  5
40
  8
_________4
 62
     7
 10
61.087800000000001
 20
62.104100000000003
 30
0.0
 11
61.087800000000001
 21
113.01299999999991
 31
0.0
  0
LINE
  5
41
  8
_________4
 62
     7
 10
63.837699999999998
 20
53.013500000000001
 30
0.0
 11
61.337899999999998
 21
53.013500000000001
 31
0.0
  0
LINE
  5
42
  8
_________4
 62
     7
 10
63.837699999999998
 20
50.513300000000001
 30
0.0
 11
61.337899999999998
 21
50.513300000000001
 31
0.0
  0
LINE
  5
43
  8
_________4
 62
     7
 10
61.294499999999999
 20
62.104100000000003
 30
0.0
 11
62.587800000000001
 21
62.104100000000003
 31
0.0
  0
LINE
  5
44
  8
_________4
 62
     7
 10
62.096499999999992
 20
60.141399999999997
 30
0.0
 11
62.096499999999992
 21
57.915199999999999
 31
0.0
  0
LINE
  5
45
  8
_________4
 62
     7
 10
61.705800000000011
 20
60.141399999999997
 30
0.0
 11
61.705800000000011
 21
57.915199999999999
 31
0.0
  0
LINE
  5
46
  8
_________4
 62
     7
 10
61.705800000000011
 20
60.141399999999997
 30
0.0
 11
61.015799999999999
 21
60.141399999999997
 31
0.0
  0
LINE
  5
47
  8
_________4
 62
     7
 10
62.587800000000001
 20
60.141399999999997
 30
0.0
 11
62.096499999999992
 21
60.141399999999997
 31
0.0
  0
LINE
  5
48
  8
_________4
 62
     7
 10
61.705800000000011
 20
57.915199999999999
 30
0.0
 11
61.015799999999999
 21
57.915199999999999
 31
0.0
  0
LINE
  5
49
  8
_________4
 62
     7
 10
62.587800000000001
 20
57.915199999999999
 30
0.0
 11
62.096499999999992
 21
57.915199999999999
 31
0.0
  0
LINE
  5
4A
  8
_________4
 62
     7
 10
61.337899999999998
 20
50.513300000000001
 30
0.0
 11
61.337899999999998
 21
57.013199999999991
 31
0.0
  0
LINE
  5
4B
  8
_________4
 62
     7
 10
62.587800000000001
 20
57.013199999999991
 30
0.0
 11
61.015799999999999
 21
57.013199999999991
 31
0.0
  0
LINE
  5
4C
  8
_________4
 62
     7
 10
64.433000000000007
 20
62.104100000000003
 30
0.0
 11
64.433000000000007
 21
60.414999999999999
 31
0.0
  0
LINE
  5
4D
  8
_________4
 62
     7
 10
64.433000000000007
 20
62.104100000000003
 30
0.0
 11
62.587800000000001
 21
62.104100000000003
 31
0.0
  0
LINE
  5
4E
  8
_________4
 62
     7
 10
64.159800000000004
 20
60.141399999999997
 30
0.0
 11
64.159800000000004
 21
57.915199999999999
 31
0.0
  0
LINE
  5
4F
  8
_________4
 62
     7
 10
64.159800000000004
 20
60.141399999999997
 30
0.0
 11
64.433000000000007
 21
60.414999999999999
 31
0.0
  0
LINE
  5
50
  8
_________4
 62
     7
 10
63.07909999999999
 20
60.141399999999997
 30
0.0
 11
63.07909999999999
 21
57.915199999999999
 31
0.0
  0
LINE
  5
51
  8
_________4
 62
     7
 10
63.469700000000003
 20
60.141399999999997
 30
0.0
 11
63.469700000000003
 21
57.915199999999999
 31
0.0
  0
LINE
  5
52
  8
_________4
 62
     7
 10
63.469700000000003
 20
60.141399999999997
 30
0.0
 11
64.159800000000004
 21
60.141399999999997
 31
0.0
  0
LINE
  5
53
  8
_________4
 62
     7
 10
62.587800000000001
 20
60.141399999999997
 30
0.0
 11
63.07909999999999
 21
60.141399999999997
 31
0.0
  0
ARC
  5
54
  8
_________4
 62
     7
 10
64.142448999999985
 20
57.446863999999991
 30
0.0
 40
0.468634
 50
2.1214019999999998
 51
87.878587999999993
  0
ARC
  5
55
  8
_________4
 62
     7
 10
64.14246
 20
57.481549000000001
 30
0.0
 40
0.468624
 50
272.12021800000002
 51
357.8797919999999
  0
LINE
  5
56
  8
_________4
 62
     7
 10
63.469700000000003
 20
57.915199999999999
 30
0.0
 11
64.159800000000004
 21
57.915199999999999
 31
0.0
  0
LINE
  5
57
  8
_________4
 62
     7
 10
62.587800000000001
 20
57.915199999999999
 30
0.0
 11
63.07909999999999
 21
57.915199999999999
 31
0.0
  0
LINE
  5
58
  8
_________4
 62
     7
 10
63.837699999999998
 20
50.513300000000001
 30
0.0
 11
63.837699999999998
 21
57.013199999999991
 31
0.0
  0
LINE
  5
59
  8
_________4
 62
     7
 10
62.587800000000001
 20
57.013199999999991
 30
0.0
 11
64.159800000000004
 21
57.013199999999991
 31
0.0
  0
LINE
  5
5A
  8
_________4
  6
AIGENLINE001
 62
     7
 10
62.587800000000001
 20
48.915199999999992
 30
0.0
 11
62.587800000000001
 21
114.3299999999999
 31
0.0
  0
LINE
  5
5B
  8
0
  6
AIGENLINE001
 62
     7
 10
126.926
 20
121.006
 30
0.0
 11
126.926
 21
106.363
 31
0.0
  0
LINE
  5
5C
  8
0
 62
     7
 10
126.2999999999999
 20
116.13799999999991
 30
0.0
 11
126.2999999999999
 21
117.38800000000001
 31
0.0
  0
LINE
  5
5D
  8
0
 62
     7
 10
127.55
 20
116.13799999999991
 30
0.0
 11
127.55
 21
117.38800000000001
 31
0.0
  0
LINE
  5
5E
  8
0
 62
     7
 10
126.2999999999999
 20
118.63799999999991
 30
0.0
 11
126.2999999999999
 21
119.88799999999991
 31
0.0
  0
LINE
  5
5F
  8
0
 62
     7
 10
127.55
 20
118.63799999999991
 30
0.0
 11
127.55
 21
119.88799999999991
 31
0.0
  0
LINE
  5
60
  8
0
 62
     7
 10
125.875
 20
114.88799999999991
 30
0.0
 11
125.875
 21
116.13799999999991
 31
0.0
  0
LINE
  5
61
  8
0
 62
     7
 10
125.875
 20
116.13799999999991
 30
0.0
 11
127.97499999999989
 21
116.13799999999991
 31
0.0
  0
LINE
  5
62
  8
0
 62
     7
 10
127.97499999999989
 20
116.13799999999991
 30
0.0
 11
127.97499999999989
 21
114.88799999999991
 31
0.0
  0
LINE
  5
63
  8
0
 62
     7
 10
127.97499999999989
 20
114.88799999999991
 30
0.0
 11
125.875
 21
114.88799999999991
 31
0.0
  0
LINE
  5
64
  8
0
 62
     7
 10
120.6749999999999
 20
117.38800000000001
 30
0.0
 11
120.6749999999999
 21
118.63799999999991
 31
0.0
  0
LINE
  5
65
  8
0
 62
     7
 10
120.6749999999999
 20
118.63799999999991
 30
0.0
 11
133.17500000000001
 21
118.63799999999991
 31
0.0
  0
LINE
  5
66
  8
0
 62
     7
 10
133.17500000000001
 20
118.63799999999991
 30
0.0
 11
133.17500000000001
 21
117.38800000000001
 31
0.0
  0
LINE
  5
67
  8
0
 62
     7
 10
133.17500000000001
 20
117.38800000000001
 30
0.0
 11
120.6749999999999
 21
117.38800000000001
 31
0.0
  0
LINE
  5
68
  8
0
 62
     7
 10
120.6749999999999
 20
119.88799999999991
 30
0.0
 11
120.6749999999999
 21
120.26299999999991
 31
0.0
  0
LINE
  5
69
  8
0
 62
     7
 10
120.6749999999999
 20
120.26299999999991
 30
0.0
 11
133.17500000000001
 21
120.26299999999991
 31
0.0
  0
LINE
  5
6A
  8
0
 62
     7
 10
133.17500000000001
 20
120.26299999999991
 30
0.0
 11
133.17500000000001
 21
119.88799999999991
 31
0.0
  0
LINE
  5
6B
  8
0
 62
     7
 10
133.17500000000001
 20
119.88799999999991
 30
0.0
 11
120.6749999999999
 21
119.88799999999991
 31
0.0
  0
LINE
  5
6C
  8
0
 62
     7
 10
121.425
 20
120.26299999999991
 30
0.0
 11
121.425
 21
120.51300000000001
 31
0.0
  0
LINE
  5
6D
  8
0
 62
     7
 10
121.425
 20
120.51300000000001
 30
0.0
 11
132.42500000000001
 21
120.51300000000001
 31
0.0
  0
LINE
  5
6E
  8
0
 62
     7
 10
132.42500000000001
 20
120.51300000000001
 30
0.0
 11
132.42500000000001
 21
120.26299999999991
 31
0.0
  0
LINE
  5
6F
  8
0
 62
     7
 10
132.42500000000001
 20
120.26299999999991
 30
0.0
 11
121.425
 21
120.26299999999991
 31
0.0
  0
LINE
  5
70
  8
0
 62
     7
 10
127.17700000000001
 20
128.01299999999989
 30
0.0
 11
127.17700000000001
 21
126.56399999999989
 31
0.0
  0
ARC
  5
71
  8
0
 62
     7
 10
126.9225559999999
 20
126.565399
 30
0.0
 40
0.254641
 50
315.05220500000001
 51
359.67665799999997
  0
ARC
  5
72
  8
0
 62
     7
 10
126.92567200000001
 20
126.5613649999999
 30
0.0
 40
0.249586
 50
269.84809100000001
 51
315.20229799999998
  0
ARC
  5
73
  8
0
 62
     7
 10
126.926436
 20
126.56807499999999
 30
0.0
 40
0.2563
 50
225.424915
 51
269.68138699999997
  0
ARC
  5
74
  8
0
 62
     7
 10
126.92682499999989
 20
126.5644379999999
 30
0.0
 40
0.253998
 50
180.10737299999991
 51
224.78638499999991
  0
LINE
  5
75
  8
0
 62
     7
 10
126.6729999999999
 20
126.56399999999989
 30
0.0
 11
126.6729999999999
 21
128.01299999999989
 31
0.0
  0
LINE
  5
76
  8
0
 62
     7
 10
130.959
 20
125.996
 30
0.0
 11
130.959
 21
128.01299999999989
 31
0.0
  0
LINE
  5
77
  8
0
 62
     7
 10
122.8279999999999
 20
125.996
 30
0.0
 11
130.959
 21
125.996
 31
0.0
  0
LINE
  5
78
  8
0
 62
     7
 10
130.959
 20
125.996
 30
0.0
 11
131.274
 21
128.01299999999989
 31
0.0
  0
LINE
  5
79
  8
0
 62
     7
 10
122.8279999999999
 20
128.01299999999989
 30
0.0
 11
122.8279999999999
 21
125.996
 31
0.0
  0
LINE
  5
7A
  8
0
 62
     7
 10
122.8279999999999
 20
125.996
 30
0.0
 11
122.51299999999991
 21
128.01299999999989
 31
0.0
  0
LINE
  5
7B
  8
0
 62
     7
 10
122.209
 20
128.2649999999999
 30
0.0
 11
131.64099999999991
 21
128.2649999999999
 31
0.0
  0
LINE
  5
7C
  8
0
 62
     7
 10
131.64099999999991
 20
128.2649999999999
 30
0.0
 11
132.08299999999991
 21
128.2649999999999
 31
0.0
  0
LINE
  5
7D
  8
0
 62
     7
 10
132.08299999999991
 20
128.2649999999999
 30
0.0
 11
132.08299999999991
 21
128.01299999999989
 31
0.0
  0
LINE
  5
7E
  8
0
 62
     7
 10
132.08299999999991
 20
128.01299999999989
 30
0.0
 11
121.70399999999989
 21
128.01299999999989
 31
0.0
  0
LINE
  5
7F
  8
0
 62
     7
 10
121.70399999999989
 20
128.01299999999989
 30
0.0
 11
121.70399999999989
 21
128.2649999999999
 31
0.0
  0
LINE
  5
80
  8
0
 62
     7
 10
121.70399999999989
 20
128.2649999999999
 30
0.0
 11
122.209
 21
128.2649999999999
 31
0.0
  0
LINE
  5
81
  8
0
 62
     7
 10
125.431
 20
122.062
 30
0.0
 11
123.2199999999999
 21
121.47
 31
0.0
  0
LINE
  5
82
  8
0
 62
     7
 10
123.2199999999999
 20
121.47
 30
0.0
 11
125.431
 21
120.8779999999999
 31
0.0
  0
LINE
  5
83
  8
0
 62
     7
 10
125.431
 20
120.8779999999999
 30
0.0
 11
125.431
 21
122.062
 31
0.0
  0
LINE
  5
84
  8
0
 62
     7
 10
128.48099999999999
 20
120.892
 30
0.0
 11
130.69200000000001
 21
121.4839999999999
 31
0.0
  0
LINE
  5
85
  8
0
 62
     7
 10
130.69200000000001
 20
121.4839999999999
 30
0.0
 11
128.48099999999999
 21
122.077
 31
0.0
  0
LINE
  5
86
  8
0
 62
     7
 10
128.48099999999999
 20
122.077
 30
0.0
 11
128.48099999999999
 21
120.892
 31
0.0
  0
LINE
  5
87
  8
0
 62
     7
 10
123.21899999999989
 20
121.47
 30
0.0
 11
130.6929999999999
 21
121.47
 31
0.0
  0
LINE
  5
88
  8
0
 62
     7
 10
130.393
 20
117.38800000000001
 30
0.0
 11
130.393
 21
113.01299999999991
 31
0.0
  0
LINE
  5
89
  8
0
 62
     7
 10
130.393
 20
125.996
 30
0.0
 11
130.393
 21
120.51300000000001
 31
0.0
  0
LINE
  5
8A
  8
0
 62
     7
 10
130.64299999999989
 20
120.51300000000001
 30
0.0
 11
130.64299999999989
 21
125.996
 31
0.0
  0
LINE
  5
8B
  8
0
 62
     7
 10
123.3929999999999
 20
125.996
 30
0.0
 11
123.3929999999999
 21
120.51300000000001
 31
0.0
  0
LINE
  5
8C
  8
0
 62
     7
 10
123.1429999999999
 20
120.51300000000001
 30
0.0
 11
123.1429999999999
 21
125.996
 31
0.0
  0
LINE
  5
8D
  8
0
 62
     7
 10
130.393
 20
119.88799999999991
 30
0.0
 11
130.393
 21
118.63799999999991
 31
0.0
  0
LINE
  5
8E
  8
0
 62
     7
 10
130.64299999999989
 20
118.63799999999991
 30
0.0
 11
130.64299999999989
 21
119.88799999999991
 31
0.0
  0
LINE
  5
8F
  8
0
 62
     7
 10
123.3929999999999
 20
119.88799999999991
 30
0.0
 11
123.3929999999999
 21
118.63799999999991
 31
0.0
  0
LINE
  5
90
  8
0
 62
     7
 10
123.1429999999999
 20
118.63799999999991
 30
0.0
 11
123.1429999999999
 21
119.88799999999991
 31
0.0
  0
LINE
  5
91
  8
0
 62
     7
 10
123.3929999999999
 20
117.38800000000001
 30
0.0
 11
123.3929999999999
 21
113.01299999999991
 31
0.0
  0
LINE
  5
92
  8
0
 62
     7
 10
123.1429999999999
 20
113.26300000000001
 30
0.0
 11
123.1429999999999
 21
117.38800000000001
 31
0.0
  0
LINE
  5
93
  8
0
 62
     7
 10
123.1429999999999
 20
113.26300000000001
 30
0.0
 11
130.64299999999989
 21
113.26300000000001
 31
0.0
  0
LINE
  5
94
  8
0
 62
     7
 10
130.64299999999989
 20
117.38800000000001
 30
0.0
 11
130.64299999999989
 21
113.26300000000001
 31
0.0
  0
LINE
  5
95
  8
0
 62
     7
 10
130.64299999999989
 20
113.26300000000001
 30
0.0
 11
130.39099999999991
 21
113.01299999999991
 31
0.0
  0
LINE
  5
96
  8
0
 62
     7
 10
130.39099999999991
 20
113.01299999999991
 30
0.0
 11
123.3929999999999
 21
113.01299999999991
 31
0.0
  0
LINE
  5
97
  8
0
 62
     7
 10
123.3929999999999
 20
113.01299999999991
 30
0.0
 11
123.1429999999999
 21
113.26300000000001
 31
0.0
  0
LINE
  5
98
  8
0
 62
     7
 10
55.213999999999992
 20
116.13799999999991
 30
0.0
 11
55.213999999999992
 21
117.38800000000001
 31
0.0
  0
LINE
  5
99
  8
0
 62
     7
 10
56.464100000000002
 20
116.13799999999991
 30
0.0
 11
56.464100000000002
 21
117.38800000000001
 31
0.0
  0
LINE
  5
9A
  8
0
 62
     7
 10
55.213999999999992
 20
118.63799999999991
 30
0.0
 11
55.213999999999992
 21
119.88799999999991
 31
0.0
  0
LINE
  5
9B
  8
0
 62
     7
 10
56.464100000000002
 20
118.63799999999991
 30
0.0
 11
56.464100000000002
 21
119.88799999999991
 31
0.0
  0
LINE
  5
9C
  8
0
  6
AIGENLINE001
 62
     7
 10
55.839100000000002
 20
113.84099999999999
 30
0.0
 11
55.839100000000002
 21
121.5349999999999
 31
0.0
  0
LINE
  5
9D
  8
0
 62
     7
 10
54.789099999999991
 20
114.88799999999991
 30
0.0
 11
54.789099999999991
 21
116.13799999999991
 31
0.0
  0
LINE
  5
9E
  8
0
 62
     7
 10
54.789099999999991
 20
116.13799999999991
 30
0.0
 11
56.889000000000003
 21
116.13799999999991
 31
0.0
  0
LINE
  5
9F
  8
0
 62
     7
 10
56.889000000000003
 20
116.13799999999991
 30
0.0
 11
56.889000000000003
 21
114.88799999999991
 31
0.0
  0
LINE
  5
A0
  8
0
 62
     7
 10
56.889000000000003
 20
114.88799999999991
 30
0.0
 11
54.789099999999991
 21
114.88799999999991
 31
0.0
  0
LINE
  5
A1
  8
0
 62
     7
 10
65.714200000000005
 20
116.13799999999991
 30
0.0
 11
65.714200000000005
 21
117.38800000000001
 31
0.0
  0
LINE
  5
A2
  8
0
 62
     7
 10
66.964100000000002
 20
116.13799999999991
 30
0.0
 11
66.964100000000002
 21
117.38800000000001
 31
0.0
  0
LINE
  5
A3
  8
0
 62
     7
 10
65.714200000000005
 20
118.63799999999991
 30
0.0
 11
65.714200000000005
 21
119.88799999999991
 31
0.0
  0
LINE
  5
A4
  8
0
 62
     7
 10
66.964100000000002
 20
118.63799999999991
 30
0.0
 11
66.964100000000002
 21
119.88799999999991
 31
0.0
  0
LINE
  5
A5
  8
0
  6
AIGENLINE001
 62
     7
 10
66.339200000000005
 20
113.84099999999999
 30
0.0
 11
66.339200000000005
 21
121.5349999999999
 31
0.0
  0
LINE
  5
A6
  8
0
 62
     7
 10
64.557500000000005
 20
117.38800000000001
 30
0.0
 11
64.557500000000005
 21
113.01299999999991
 31
0.0
  0
LINE
  5
A7
  8
0
 62
     7
 10
64.557500000000005
 20
125.996
 30
0.0
 11
64.557500000000005
 21
120.51300000000001
 31
0.0
  0
LINE
  5
A8
  8
0
 62
     7
 10
64.807500000000005
 20
120.51300000000001
 30
0.0
 11
64.807500000000005
 21
125.996
 31
0.0
  0
LINE
  5
A9
  8
0
 62
     7
 10
57.557699999999997
 20
125.996
 30
0.0
 11
57.557699999999997
 21
120.51300000000001
 31
0.0
  0
LINE
  5
AA
  8
0
 62
     7
 10
57.3078
 20
120.51300000000001
 30
0.0
 11
57.3078
 21
125.996
 31
0.0
  0
LINE
  5
AB
  8
0
 62
     7
 10
64.557500000000005
 20
119.88799999999991
 30
0.0
 11
64.557500000000005
 21
118.63799999999991
 31
0.0
  0
LINE
  5
AC
  8
0
 62
     7
 10
64.807500000000005
 20
118.63799999999991
 30
0.0
 11
64.807500000000005
 21
119.88799999999991
 31
0.0
  0
LINE
  5
AD
  8
0
 62
     7
 10
57.557699999999997
 20
119.88799999999991
 30
0.0
 11
57.557699999999997
 21
118.63799999999991
 31
0.0
  0
LINE
  5
AE
  8
0
 62
     7
 10
57.3078
 20
118.63799999999991
 30
0.0
 11
57.3078
 21
119.88799999999991
 31
0.0
  0
LINE
  5
AF
  8
0
 62
     7
 10
57.557699999999997
 20
117.38800000000001
 30
0.0
 11
57.557699999999997
 21
113.01299999999991
 31
0.0
  0
LINE
  5
B0
  8
0
 62
     7
 10
65.289100000000005
 20
114.88799999999991
 30
0.0
 11
65.289100000000005
 21
116.13799999999991
 31
0.0
  0
LINE
  5
B1
  8
0
 62
     7
 10
65.289100000000005
 20
116.13799999999991
 30
0.0
 11
67.389200000000002
 21
116.13799999999991
 31
0.0
  0
LINE
  5
B2
  8
0
 62
     7
 10
67.389200000000002
 20
116.13799999999991
 30
0.0
 11
67.389200000000002
 21
114.88799999999991
 31
0.0
  0
LINE
  5
B3
  8
0
 62
     7
 10
67.389200000000002
 20
114.88799999999991
 30
0.0
 11
65.289100000000005
 21
114.88799999999991
 31
0.0
  0
LINE
  5
B4
  8
0
 62
     7
 10
54.838999999999999
 20
117.38800000000001
 30
0.0
 11
54.838999999999999
 21
118.63799999999991
 31
0.0
  0
LINE
  5
B5
  8
0
 62
     7
 10
54.838999999999999
 20
118.63799999999991
 30
0.0
 11
67.339299999999994
 21
118.63799999999991
 31
0.0
  0
LINE
  5
B6
  8
0
 62
     7
 10
67.339299999999994
 20
118.63799999999991
 30
0.0
 11
67.339299999999994
 21
117.38800000000001
 31
0.0
  0
LINE
  5
B7
  8
0
 62
     7
 10
67.339299999999994
 20
117.38800000000001
 30
0.0
 11
54.838999999999999
 21
117.38800000000001
 31
0.0
  0
LINE
  5
B8
  8
0
 62
     7
 10
54.838999999999999
 20
119.88799999999991
 30
0.0
 11
54.838999999999999
 21
120.26299999999991
 31
0.0
  0
LINE
  5
B9
  8
0
 62
     7
 10
54.838999999999999
 20
120.26299999999991
 30
0.0
 11
67.339299999999994
 21
120.26299999999991
 31
0.0
  0
LINE
  5
BA
  8
0
 62
     7
 10
67.339299999999994
 20
120.26299999999991
 30
0.0
 11
67.339299999999994
 21
119.88799999999991
 31
0.0
  0
LINE
  5
BB
  8
0
 62
     7
 10
67.339299999999994
 20
119.88799999999991
 30
0.0
 11
54.838999999999999
 21
119.88799999999991
 31
0.0
  0
LINE
  5
BC
  8
0
 62
     7
 10
55.588999999999999
 20
120.26299999999991
 30
0.0
 11
55.588999999999999
 21
120.51300000000001
 31
0.0
  0
LINE
  5
BD
  8
0
 62
     7
 10
55.588999999999999
 20
120.51300000000001
 30
0.0
 11
66.589299999999994
 21
120.51300000000001
 31
0.0
  0
LINE
  5
BE
  8
0
 62
     7
 10
66.589299999999994
 20
120.51300000000001
 30
0.0
 11
66.589299999999994
 21
120.26299999999991
 31
0.0
  0
LINE
  5
BF
  8
0
 62
     7
 10
66.589299999999994
 20
120.26299999999991
 30
0.0
 11
55.588999999999999
 21
120.26299999999991
 31
0.0
  0
LINE
  5
C0
  8
0
 62
     7
 10
61.34129999999999
 20
128.01299999999989
 30
0.0
 11
61.34129999999999
 21
126.56399999999989
 31
0.0
  0
ARC
  5
C1
  8
0
 62
     7
 10
61.08588499999999
 20
126.565393
 30
0.0
 40
0.255465
 50
315.23841099999993
 51
359.67903200000001
  0
ARC
  5
C2
  8
0
 62
     7
 10
61.089279000000012
 20
126.5635129999999
 30
0.0
 40
0.251734
 50
269.97376000000003
 51
314.998175
  0
ARC
  5
C3
  8
0
 62
     7
 10
61.090586000000002
 20
126.567227
 30
0.0
 40
0.255452
 50
225.347014
 51
269.68109099999998
  0
ARC
  5
C4
  8
0
 62
     7
 10
61.090657999999991
 20
126.5646519999999
 30
0.0
 40
0.253677
 50
180.15589900000001
 51
224.92669699999999
  0
LINE
  5
C5
  8
0
 62
     7
 10
60.837000000000003
 20
126.56399999999989
 30
0.0
 11
60.837000000000003
 21
128.01299999999989
 31
0.0
  0
LINE
  5
C6
  8
0
 62
     7
 10
65.123400000000004
 20
125.996
 30
0.0
 11
65.123400000000004
 21
128.01299999999989
 31
0.0
  0
LINE
  5
C7
  8
0
 62
     7
 10
56.992600000000003
 20
125.996
 30
0.0
 11
65.123400000000004
 21
125.996
 31
0.0
  0
LINE
  5
C8
  8
0
 62
     7
 10
65.123400000000004
 20
125.996
 30
0.0
 11
65.438299999999984
 21
128.01299999999989
 31
0.0
  0
LINE
  5
C9
  8
0
 62
     7
 10
56.992600000000003
 20
128.01299999999989
 30
0.0
 11
56.992600000000003
 21
125.996
 31
0.0
  0
LINE
  5
CA
  8
0
 62
     7
 10
56.992600000000003
 20
125.996
 30
0.0
 11
56.677300000000002
 21
128.01299999999989
 31
0.0
  0
LINE
  5
CB
  8
0
 62
     7
 10
56.372799999999998
 20
128.2649999999999
 30
0.0
 11
65.805499999999995
 21
128.2649999999999
 31
0.0
  0
LINE
  5
CC
  8
0
 62
     7
 10
65.805499999999995
 20
128.2649999999999
 30
0.0
 11
66.247200000000007
 21
128.2649999999999
 31
0.0
  0
LINE
  5
CD
  8
0
 62
     7
 10
66.247200000000007
 20
128.2649999999999
 30
0.0
 11
66.247200000000007
 21
128.01299999999989
 31
0.0
  0
LINE
  5
CE
  8
0
 62
     7
 10
66.247200000000007
 20
128.01299999999989
 30
0.0
 11
55.868400000000001
 21
128.01299999999989
 31
0.0
  0
LINE
  5
CF
  8
0
 62
     7
 10
55.868400000000001
 20
128.01299999999989
 30
0.0
 11
55.868400000000001
 21
128.2649999999999
 31
0.0
  0
LINE
  5
D0
  8
0
 62
     7
 10
55.868400000000001
 20
128.2649999999999
 30
0.0
 11
56.372799999999998
 21
128.2649999999999
 31
0.0
  0
LINE
  5
D1
  8
0
 62
     7
 10
57.3078
 20
113.26300000000001
 30
0.0
 11
57.3078
 21
117.38800000000001
 31
0.0
  0
LINE
  5
D2
  8
0
 62
     7
 10
57.3078
 20
113.26300000000001
 30
0.0
 11
64.807500000000005
 21
113.26300000000001
 31
0.0
  0
LINE
  5
D3
  8
0
 62
     7
 10
64.807500000000005
 20
117.38800000000001
 30
0.0
 11
64.807500000000005
 21
113.26300000000001
 31
0.0
  0
LINE
  5
D4
  8
0
 62
     7
 10
64.807500000000005
 20
113.26300000000001
 30
0.0
 11
64.555599999999998
 21
113.01299999999991
 31
0.0
  0
LINE
  5
D5
  8
0
 62
     7
 10
64.555599999999998
 20
113.01299999999991
 30
0.0
 11
57.557699999999997
 21
113.01299999999991
 31
0.0
  0
LINE
  5
D6
  8
0
 62
     7
 10
57.557699999999997
 20
113.01299999999991
 30
0.0
 11
57.3078
 21
113.26300000000001
 31
0.0
  0
LINE
  5
D7
  8
0
 62
     7
 10
44.606999999999999
 20
113.01299999999991
 30
0.0
 11
56.526299999999999
 21
113.01299999999991
 31
0.0
  0
LINE
  5
D8
  8
0
 62
     7
 10
50.384300000000003
 20
120.51300000000001
 30
0.0
 11
54.455399999999997
 21
120.51300000000001
 31
0.0
  0
LINE
  5
D9
  8
0
 62
     7
 10
45.822499999999998
 20
125.8029999999999
 30
0.0
 11
45.2303
 21
128.01299999999989
 31
0.0
  0
LINE
  5
DA
  8
0
 62
     7
 10
45.2303
 20
128.01299999999989
 30
0.0
 11
44.637900000000002
 21
125.8029999999999
 31
0.0
  0
LINE
  5
DB
  8
0
 62
     7
 10
44.637900000000002
 20
125.8029999999999
 30
0.0
 11
45.822499999999998
 21
125.8029999999999
 31
0.0
  0
LINE
  5
DC
  8
0
 62
     7
 10
44.652500000000003
 20
115.22499999999989
 30
0.0
 11
45.244699999999987
 21
113.0139999999999
 31
0.0
  0
LINE
  5
DD
  8
0
 62
     7
 10
45.244699999999987
 20
113.0139999999999
 30
0.0
 11
45.837099999999992
 21
115.22499999999989
 31
0.0
  0
LINE
  5
DE
  8
0
 62
     7
 10
45.837099999999992
 20
115.22499999999989
 30
0.0
 11
44.652500000000003
 21
115.22499999999989
 31
0.0
  0
LINE
  5
DF
  8
0
 62
     7
 10
45.2303
 20
128.01299999999989
 30
0.0
 11
45.2303
 21
113.01299999999991
 31
0.0
  0
LINE
  5
E0
  8
0
 62
     7
 10
51.5929
 20
125.7889999999999
 30
0.0
 11
51.000700000000002
 21
127.9989999999999
 31
0.0
  0
LINE
  5
E1
  8
0
 62
     7
 10
51.000700000000002
 20
127.9989999999999
 30
0.0
 11
50.40829999999999
 21
125.7889999999999
 31
0.0
  0
LINE
  5
E2
  8
0
 62
     7
 10
50.40829999999999
 20
125.7889999999999
 30
0.0
 11
51.5929
 21
125.7889999999999
 31
0.0
  0
LINE
  5
E3
  8
0
 62
     7
 10
50.422899999999998
 20
122.7239999999999
 30
0.0
 11
51.015099999999997
 21
120.51300000000001
 31
0.0
  0
LINE
  5
E4
  8
0
 62
     7
 10
51.015099999999997
 20
120.51300000000001
 30
0.0
 11
51.607500000000002
 21
122.7239999999999
 31
0.0
  0
LINE
  5
E5
  8
0
 62
     7
 10
51.607500000000002
 20
122.7239999999999
 30
0.0
 11
50.422899999999998
 21
122.7239999999999
 31
0.0
  0
LINE
  5
E6
  8
0
 62
     7
 10
51.000700000000002
 20
128.0
 30
0.0
 11
51.000700000000002
 21
120.5119999999999
 31
0.0
  0
LINE
  5
E7
  8
0
 62
     7
 10
44.526799999999987
 20
128.01299999999989
 30
0.0
 11
55.265500000000003
 21
128.01299999999989
 31
0.0
  0
ARC
  5
E8
  8
0
 62
     7
 10
100.18552199999991
 20
179.25128100000001
 30
0.0
 40
9.9509880000000006
 50
269.94369799999993
 51
291.441329
  0
ARC
  5
E9
  8
0
 62
     7
 10
100.2547379999999
 20
179.42436599999999
 30
0.0
 40
10.124377000000001
 50
217.60865000000001
 51
269.55295099999989
  0
LINE
  5
EA
  8
0
 62
     7
 10
127.54299999999991
 20
112.496
 30
0.0
 11
127.026
 21
113.01299999999991
 31
0.0
  0
LINE
  5
EB
  8
0
 62
     7
 10
125.06099999999989
 20
113.01299999999991
 30
0.0
 11
124.54300000000001
 21
112.496
 31
0.0
  0
LINE
  5
EC
  8
0
 62
     7
 10
127.54299999999991
 20
111.3949999999999
 30
0.0
 11
125.9249999999999
 21
113.01299999999991
 31
0.0
  0
LINE
  5
ED
  8
0
 62
     7
 10
126.16200000000001
 20
113.01299999999991
 30
0.0
 11
124.54300000000001
 21
111.3949999999999
 31
0.0
  0
LINE
  5
EE
  8
0
 62
     7
 10
127.54299999999991
 20
110.294
 30
0.0
 11
124.82299999999989
 21
113.01299999999991
 31
0.0
  0
LINE
  5
EF
  8
0
 62
     7
 10
127.26299999999991
 20
113.01299999999991
 30
0.0
 11
124.54300000000001
 21
110.294
 31
0.0
  0
LINE
  5
F0
  8
0
 62
     7
 10
126.822
 20
109.9129999999999
 30
0.0
 11
124.54300000000001
 21
112.193
 31
0.0
  0
LINE
  5
F1
  8
0
 62
     7
 10
127.54299999999991
 20
112.193
 30
0.0
 11
125.2639999999999
 21
109.9129999999999
 31
0.0
  0
LINE
  5
F2
  8
0
 62
     7
 10
125.721
 20
109.9129999999999
 30
0.0
 11
124.54300000000001
 21
111.092
 31
0.0
  0
LINE
  5
F3
  8
0
 62
     7
 10
127.54299999999991
 20
111.092
 30
0.0
 11
126.3649999999999
 21
109.9129999999999
 31
0.0
  0
LINE
  5
F4
  8
0
 62
     7
 10
127.29299999999991
 20
53.013100000000001
 30
0.0
 11
124.79299999999991
 21
53.013100000000001
 31
0.0
  0
LINE
  5
F5
  8
0
 62
     7
 10
127.29299999999991
 20
50.513000000000012
 30
0.0
 11
124.79299999999991
 21
50.513000000000012
 31
0.0
  0
LINE
  5
F6
  8
0
 62
     7
 10
124.19799999999989
 20
62.103400000000001
 30
0.0
 11
124.19799999999989
 21
60.4146
 31
0.0
  0
LINE
  5
F7
  8
0
 62
     7
 10
124.19799999999989
 20
62.103400000000001
 30
0.0
 11
126.04299999999991
 21
62.103400000000001
 31
0.0
  0
LINE
  5
F8
  8
0
 62
     7
 10
124.4709999999999
 20
60.141100000000002
 30
0.0
 11
124.4709999999999
 21
57.914799999999993
 31
0.0
  0
LINE
  5
F9
  8
0
 62
     7
 10
124.4709999999999
 20
60.141100000000002
 30
0.0
 11
124.19799999999989
 21
60.4146
 31
0.0
  0
LINE
  5
FA
  8
0
 62
     7
 10
125.55200000000001
 20
60.141100000000002
 30
0.0
 11
125.55200000000001
 21
57.914799999999993
 31
0.0
  0
LINE
  5
FB
  8
0
 62
     7
 10
125.161
 20
60.141100000000002
 30
0.0
 11
125.161
 21
57.914799999999993
 31
0.0
  0
LINE
  5
FC
  8
0
 62
     7
 10
125.161
 20
60.141100000000002
 30
0.0
 11
124.4709999999999
 21
60.141100000000002
 31
0.0
  0
LINE
  5
FD
  8
0
 62
     7
 10
126.04299999999991
 20
60.141100000000002
 30
0.0
 11
125.55200000000001
 21
60.141100000000002
 31
0.0
  0
ARC
  5
FE
  8
0
 62
     7
 10
124.488697
 20
57.481537000000003
 30
0.0
 40
0.4689550000000001
 50
182.20157699999999
 51
267.88599399999993
  0
ARC
  5
FF
  8
0
 62
     7
 10
124.488354
 20
57.446567000000002
 30
0.0
 40
0.468573
 50
92.073751000000001
 51
177.926219
  0
LINE
  5
100
  8
0
 62
     7
 10
125.161
 20
57.914799999999993
 30
0.0
 11
124.4709999999999
 21
57.914799999999993
 31
0.0
  0
LINE
  5
101
  8
0
 62
     7
 10
126.04299999999991
 20
57.914799999999993
 30
0.0
 11
125.55200000000001
 21
57.914799999999993
 31
0.0
  0
LINE
  5
102
  8
0
 62
     7
 10
124.79299999999991
 20
50.513000000000012
 30
0.0
 11
124.79299999999991
 21
57.012900000000002
 31
0.0
  0
LINE
  5
103
  8
0
 62
     7
 10
126.04299999999991
 20
57.012900000000002
 30
0.0
 11
124.4709999999999
 21
57.012900000000002
 31
0.0
  0
LINE
  5
104
  8
0
 62
     7
 10
127.88800000000001
 20
62.103400000000001
 30
0.0
 11
127.88800000000001
 21
60.4146
 31
0.0
  0
LINE
  5
105
  8
0
 62
     7
 10
127.88800000000001
 20
62.103400000000001
 30
0.0
 11
126.04299999999991
 21
62.103400000000001
 31
0.0
  0
LINE
  5
106
  8
0
 62
     7
 10
127.6149999999999
 20
60.141100000000002
 30
0.0
 11
127.6149999999999
 21
57.914799999999993
 31
0.0
  0
LINE
  5
107
  8
0
 62
     7
 10
127.6149999999999
 20
60.141100000000002
 30
0.0
 11
127.88800000000001
 21
60.4146
 31
0.0
  0
LINE
  5
108
  8
0
 62
     7
 10
126.53399999999991
 20
60.141100000000002
 30
0.0
 11
126.53399999999991
 21
57.914799999999993
 31
0.0
  0
LINE
  5
109
  8
0
 62
     7
 10
126.9249999999999
 20
60.141100000000002
 30
0.0
 11
126.9249999999999
 21
57.914799999999993
 31
0.0
  0
LINE
  5
10A
  8
0
 62
     7
 10
126.9249999999999
 20
60.141100000000002
 30
0.0
 11
127.6149999999999
 21
60.141100000000002
 31
0.0
  0
LINE
  5
10B
  8
0
 62
     7
 10
126.04299999999991
 20
60.141100000000002
 30
0.0
 11
126.53399999999991
 21
60.141100000000002
 31
0.0
  0
ARC
  5
10C
  8
0
 62
     7
 10
127.597375
 20
57.446174999999997
 30
0.0
 40
0.468979
 50
2.119858999999999
 51
87.88013100000002
  0
ARC
  5
10D
  8
0
 62
     7
 10
127.59844799999991
 20
57.480511
 30
0.0
 40
0.4678930000000001
 50
271.99328100000002
 51
357.91918700000002
  0
LINE
  5
10E
  8
0
 62
     7
 10
126.9249999999999
 20
57.914799999999993
 30
0.0
 11
127.6149999999999
 21
57.914799999999993
 31
0.0
  0
LINE
  5
10F
  8
0
 62
     7
 10
126.04299999999991
 20
57.914799999999993
 30
0.0
 11
126.53399999999991
 21
57.914799999999993
 31
0.0
  0
LINE
  5
110
  8
0
 62
     7
 10
127.29299999999991
 20
50.513000000000012
 30
0.0
 11
127.29299999999991
 21
57.012900000000002
 31
0.0
  0
LINE
  5
111
  8
0
 62
     7
 10
126.04299999999991
 20
57.012900000000002
 30
0.0
 11
127.6149999999999
 21
57.012900000000002
 31
0.0
  0
LINE
  5
112
  8
0
  6
AIGENLINE001
 62
     7
 10
126.04299999999991
 20
114.124
 30
0.0
 11
126.04299999999991
 21
49.074300000000001
 31
0.0
  0
LINE
  5
113
  8
0
 62
     7
 10
127.54299999999991
 20
62.103400000000001
 30
0.0
 11
127.54299999999991
 21
113.01299999999991
 31
0.0
  0
LINE
  5
114
  8
0
 62
     7
 10
124.54300000000001
 20
62.103400000000001
 30
0.0
 11
124.54300000000001
 21
113.01299999999991
 31
0.0
  0
LINE
  5
115
  8
0
 62
     7
 10
60.949300000000001
 20
112.495
 30
0.0
 11
60.431800000000003
 21
113.01299999999991
 31
0.0
  0
LINE
  5
116
  8
0
 62
     7
 10
58.466700000000003
 20
113.01299999999991
 30
0.0
 11
57.949300000000001
 21
112.495
 31
0.0
  0
LINE
  5
117
  8
0
 62
     7
 10
60.949300000000001
 20
111.39399999999991
 30
0.0
 11
59.330800000000004
 21
113.01299999999991
 31
0.0
  0
LINE
  5
118
  8
0
 62
     7
 10
59.567799999999998
 20
113.01299999999991
 30
0.0
 11
57.949300000000001
 21
111.39399999999991
 31
0.0
  0
LINE
  5
119
  8
0
 62
     7
 10
60.949300000000001
 20
110.29299999999991
 30
0.0
 11
58.229700000000001
 21
113.01299999999991
 31
0.0
  0
LINE
  5
11A
  8
0
 62
     7
 10
60.668900000000001
 20
113.01299999999991
 30
0.0
 11
57.949300000000001
 21
110.29299999999991
 31
0.0
  0
LINE
  5
11B
  8
0
 62
     7
 10
60.227899999999998
 20
109.9129999999999
 30
0.0
 11
57.949300000000001
 21
112.19199999999999
 31
0.0
  0
LINE
  5
11C
  8
0
 62
     7
 10
60.949300000000001
 20
112.19199999999999
 30
0.0
 11
58.670000000000002
 21
109.9129999999999
 31
0.0
  0
LINE
  5
11D
  8
0
 62
     7
 10
59.126800000000003
 20
109.9129999999999
 30
0.0
 11
57.949300000000001
 21
111.09099999999999
 31
0.0
  0
LINE
  5
11E
  8
0
 62
     7
 10
60.949300000000001
 20
111.09099999999999
 30
0.0
 11
59.77109999999999
 21
109.9129999999999
 31
0.0
  0
LINE
  5
11F
  8
0
 62
     7
 10
60.949300000000001
 20
62.104100000000003
 30
0.0
 11
60.949300000000001
 21
113.01299999999991
 31
0.0
  0
LINE
  5
120
  8
0
 62
     7
 10
57.949300000000001
 20
62.104100000000003
 30
0.0
 11
57.949300000000001
 21
113.01299999999991
 31
0.0
  0
LINE
  5
121
  8
0
 62
     7
 10
60.69919999999999
 20
53.013500000000001
 30
0.0
 11
58.19939999999999
 21
53.013500000000001
 31
0.0
  0
LINE
  5
122
  8
0
 62
     7
 10
60.69919999999999
 20
50.513300000000001
 30
0.0
 11
58.19939999999999
 21
50.513300000000001
 31
0.0
  0
LINE
  5
123
  8
0
 62
     7
 10
57.603700000000003
 20
62.104100000000003
 30
0.0
 11
57.603700000000003
 21
60.414999999999999
 31
0.0
  0
LINE
  5
124
  8
0
 62
     7
 10
57.603700000000003
 20
62.104100000000003
 30
0.0
 11
59.449300000000001
 21
62.104100000000003
 31
0.0
  0
LINE
  5
125
  8
0
 62
     7
 10
57.877299999999991
 20
60.141399999999997
 30
0.0
 11
57.877299999999991
 21
57.915199999999999
 31
0.0
  0
LINE
  5
126
  8
0
 62
     7
 10
57.877299999999991
 20
60.141399999999997
 30
0.0
 11
57.603700000000003
 21
60.414999999999999
 31
0.0
  0
LINE
  5
127
  8
0
 62
     7
 10
58.957999999999998
 20
60.141399999999997
 30
0.0
 11
58.957999999999998
 21
57.915199999999999
 31
0.0
  0
LINE
  5
128
  8
0
 62
     7
 10
58.567300000000003
 20
60.141399999999997
 30
0.0
 11
58.567300000000003
 21
57.915199999999999
 31
0.0
  0
LINE
  5
129
  8
0
 62
     7
 10
58.567300000000003
 20
60.141399999999997
 30
0.0
 11
57.877299999999991
 21
60.141399999999997
 31
0.0
  0
LINE
  5
12A
  8
0
 62
     7
 10
59.449300000000001
 20
60.141399999999997
 30
0.0
 11
58.957999999999998
 21
60.141399999999997
 31
0.0
  0
ARC
  5
12B
  8
0
 62
     7
 10
57.877281000000004
 20
57.464210999999999
 30
0.0
 40
0.4509660000000001
 50
179.99996999999991
 51
270.00002000000001
  0
ARC
  5
12C
  8
0
 62
     7
 10
57.877281000000004
 20
57.464210999999999
 30
0.0
 40
0.4509660000000001
 50
90.0
 51
179.99996999999991
  0
LINE
  5
12D
  8
0
 62
     7
 10
58.567300000000003
 20
57.915199999999999
 30
0.0
 11
57.877299999999991
 21
57.915199999999999
 31
0.0
  0
LINE
  5
12E
  8
0
 62
     7
 10
59.449300000000001
 20
57.915199999999999
 30
0.0
 11
58.957999999999998
 21
57.915199999999999
 31
0.0
  0
LINE
  5
12F
  8
0
 62
     7
 10
58.19939999999999
 20
50.513300000000001
 30
0.0
 11
58.19939999999999
 21
57.013199999999991
 31
0.0
  0
LINE
  5
130
  8
0
 62
     7
 10
59.449300000000001
 20
57.013199999999991
 30
0.0
 11
57.877299999999991
 21
57.013199999999991
 31
0.0
  0
LINE
  5
131
  8
0
 62
     7
 10
61.294499999999999
 20
62.104100000000003
 30
0.0
 11
61.294499999999999
 21
60.414999999999999
 31
0.0
  0
LINE
  5
132
  8
0
 62
     7
 10
61.294499999999999
 20
62.104100000000003
 30
0.0
 11
59.449300000000001
 21
62.104100000000003
 31
0.0
  0
LINE
  5
133
  8
0
 62
     7
 10
61.021299999999989
 20
60.141399999999997
 30
0.0
 11
61.021299999999989
 21
57.915199999999999
 31
0.0
  0
LINE
  5
134
  8
0
 62
     7
 10
61.021299999999989
 20
60.141399999999997
 30
0.0
 11
61.294499999999999
 21
60.414999999999999
 31
0.0
  0
LINE
  5
135
  8
0
 62
     7
 10
59.940600000000011
 20
60.141399999999997
 30
0.0
 11
59.940600000000011
 21
57.915199999999999
 31
0.0
  0
LINE
  5
136
  8
0
 62
     7
 10
60.331200000000003
 20
60.141399999999997
 30
0.0
 11
60.331200000000003
 21
57.915199999999999
 31
0.0
  0
LINE
  5
137
  8
0
 62
     7
 10
60.331200000000003
 20
60.141399999999997
 30
0.0
 11
61.021299999999989
 21
60.141399999999997
 31
0.0
  0
LINE
  5
138
  8
0
 62
     7
 10
59.449300000000001
 20
60.141399999999997
 30
0.0
 11
59.940600000000011
 21
60.141399999999997
 31
0.0
  0
ARC
  5
139
  8
0
 62
     7
 10
61.003948000000001
 20
57.446863999999991
 30
0.0
 40
0.468634
 50
2.1214019999999998
 51
87.878587999999993
  0
ARC
  5
13A
  8
0
 62
     7
 10
61.003957999999997
 20
57.481549000000001
 30
0.0
 40
0.468624
 50
272.12021800000002
 51
357.8797919999999
  0
LINE
  5
13B
  8
0
 62
     7
 10
60.331200000000003
 20
57.915199999999999
 30
0.0
 11
61.021299999999989
 21
57.915199999999999
 31
0.0
  0
LINE
  5
13C
  8
0
 62
     7
 10
59.449300000000001
 20
57.915199999999999
 30
0.0
 11
59.940600000000011
 21
57.915199999999999
 31
0.0
  0
LINE
  5
13D
  8
0
 62
     7
 10
60.69919999999999
 20
50.513300000000001
 30
0.0
 11
60.69919999999999
 21
57.013199999999991
 31
0.0
  0
LINE
  5
13E
  8
0
 62
     7
 10
59.449300000000001
 20
57.013199999999991
 30
0.0
 11
61.021299999999989
 21
57.013199999999991
 31
0.0
  0
LINE
  5
13F
  8
0
  6
AIGENLINE001
 62
     7
 10
59.449300000000001
 20
114.3299999999999
 30
0.0
 11
59.449300000000001
 21
49.074699999999993
 31
0.0
  0
LINE
  5
140
  8
0
 62
     7
 10
62.909599999999998
 20
45.388000000000012
 30
0.0
 11
60.69919999999999
 21
44.7958
 31
0.0
  0
LINE
  5
141
  8
0
 62
     7
 10
60.69919999999999
 20
44.7958
 30
0.0
 11
62.909599999999998
 21
44.203600000000002
 31
0.0
  0
LINE
  5
142
  8
0
 62
     7
 10
62.909599999999998
 20
44.203600000000002
 30
0.0
 11
62.909599999999998
 21
45.388000000000012
 31
0.0
  0
LINE
  5
143
  8
0
 62
     7
 10
55.988799999999998
 20
44.218099999999993
 30
0.0
 11
58.19939999999999
 21
44.810299999999991
 31
0.0
  0
LINE
  5
144
  8
0
 62
     7
 10
58.19939999999999
 20
44.810299999999991
 30
0.0
 11
55.988799999999998
 21
45.402500000000003
 31
0.0
  0
LINE
  5
145
  8
0
 62
     7
 10
55.988799999999998
 20
45.402500000000003
 30
0.0
 11
55.988799999999998
 21
44.218099999999993
 31
0.0
  0
LINE
  5
146
  8
0
 62
     7
 10
50.4069
 20
44.7958
 30
0.0
 11
64.404399999999995
 21
44.7958
 31
0.0
  0
LINE
  5
147
  8
0
 62
     7
 10
60.69919999999999
 20
49.934899999999999
 30
0.0
 11
60.69919999999999
 21
44.304200000000002
 31
0.0
  0
LINE
  5
148
  8
0
 62
     7
 10
58.19939999999999
 20
49.934899999999999
 30
0.0
 11
58.19939999999999
 21
44.304200000000002
 31
0.0
  0
ARC
  5
149
  8
0
 62
     7
 10
61.887378000000012
 20
215.10794100000001
 30
0.0
 40
1.545504999999999
 50
323.6570779999999
 51
359.84084799999988
  0
ARC
  5
14A
  8
0
 62
     7
 10
61.499510000000001
 20
215.35737399999999
 30
0.0
 40
2.005954
 50
302.19774999999993
 51
324.48379899999998
  0
ARC
  5
14B
  8
0
 62
     7
 10
61.13389699999999
 20
215.88136
 30
0.0
 40
2.6443449999999991
 50
273.61364500000002
 51
302.85176599999988
  0
ARC
  5
14C
  8
0
 62
     7
 10
61.058918999999989
 20
216.257327
 30
0.0
 40
3.0247220000000001
 50
269.97907299999991
 51
274.58227599999992
  0
ARC
  5
14D
  8
0
 62
     7
 10
61.059480000000008
 20
216.17107599999991
 30
0.0
 40
2.9384709999999989
 50
244.65862499999989
 51
269.9675069999999
  0
ARC
  5
14E
  8
0
 62
     7
 10
60.812680000000007
 20
215.5783089999999
 30
0.0
 40
2.297315999999999
 50
218.969111
 51
243.89395999999999
  0
ARC
  5
14F
  8
0
 62
     7
 10
60.337369999999993
 20
215.14404599999989
 30
0.0
 40
1.6551130000000001
 50
181.39863099999991
 51
217.6289459999999
  0
ARC
  5
150
  8
0
 62
     7
 10
61.886775
 20
217.9749709999999
 30
0.0
 40
1.546108
 50
323.66440599999987
 51
359.84076499999998
  0
ARC
  5
151
  8
0
 62
     7
 10
61.500694999999993
 20
218.222881
 30
0.0
 40
2.0042189999999991
 50
302.18892199999999
 51
324.49493999999987
  0
ARC
  5
152
  8
0
 62
     7
 10
61.136607999999988
 20
218.7434319999999
 30
0.0
 40
2.638892999999999
 50
274.21241900000001
 51
302.85813799999988
  0
ARC
  5
153
  8
0
 62
     7
 10
61.059151999999997
 20
219.11976999999999
 30
0.0
 40
3.0203109999999991
 50
269.97461900000002
 51
275.15344700000003
  0
ARC
  5
154
  8
0
 62
     7
 10
61.059637000000002
 20
219.03479599999989
 30
0.0
 40
2.9353370000000001
 50
244.10262299999991
 51
269.964406
  0
ARC
  5
155
  8
0
 62
     7
 10
60.808217000000013
 20
218.4396899999999
 30
0.0
 40
2.2904309999999999
 50
218.93370300000001
 51
243.25839799999989
  0
ARC
  5
156
  8
0
 62
     7
 10
60.338251
 20
218.01115999999999
 30
0.0
 40
1.655996
 50
181.40092499999989
 51
217.6186459999999
  0
LINE
  5
157
  8
0
 62
     7
 10
63.432899999999989
 20
215.10400000000001
 30
0.0
 11
63.432899999999989
 21
237.453
 31
0.0
  0
LINE
  5
158
  8
0
 62
     7
 10
58.68269999999999
 20
215.10400000000001
 30
0.0
 11
58.68269999999999
 21
237.453
 31
0.0
  0
LINE
  5
159
  8
0
 62
     7
 10
51.389400000000002
 20
232.18600000000001
 30
0.0
 11
47.843000000000004
 21
228.63900000000001
 31
0.0
  0
LINE
  5
15A
  8
0
  6
AIGENLINE001
 62
     7
 10
61.0578
 20
248.577
 30
0.0
 11
61.0578
 21
211.089
 31
0.0
  0
LINE
  5
15B
  8
0
 62
     7
 10
102.333
 20
170.16099999999989
 30
0.0
 11
100.2269999999999
 21
169.26599999999999
 31
0.0
  0
LINE
  5
15C
  8
0
 62
     7
 10
100.2269999999999
 20
169.26599999999999
 30
0.0
 11
102.498
 21
168.988
 31
0.0
  0
LINE
  5
15D
  8
0
 62
     7
 10
102.498
 20
168.988
 30
0.0
 11
102.333
 21
170.16099999999989
 31
0.0
  0
LINE
  5
15E
  8
0
 62
     7
 10
92.326000000000008
 20
172.16399999999999
 30
0.0
 11
94.354399999999984
 21
171.10499999999999
 31
0.0
  0
LINE
  5
15F
  8
0
 62
     7
 10
94.354399999999984
 20
171.10499999999999
 30
0.0
 11
93.127399999999994
 21
173.03599999999989
 31
0.0
  0
LINE
  5
160
  8
0
 62
     7
 10
93.127399999999994
 20
173.03599999999989
 30
0.0
 11
92.326000000000008
 21
172.16399999999999
 31
0.0
  0
LINE
  5
161
  8
0
 62
     7
 10
104.88800000000001
 20
181.78
 30
0.0
 11
102.255
 21
178.08799999999991
 31
0.0
  0
LINE
  5
162
  8
0
 62
     7
 10
121.9249999999999
 20
185.13499999999999
 30
0.0
 11
111.401
 21
185.13499999999999
 31
0.0
  0
ARC
  5
163
  8
0
 62
     7
 10
111.472196
 20
176.99650700000001
 30
0.0
 40
8.1385529999999981
 50
90.503878000000014
 51
143.99993000000001
  0
LINE
  5
164
  8
0
 62
     7
 10
98.693299999999994
 20
177.18599999999989
 30
0.0
 11
94.109200000000001
 21
170.761
 31
0.0
  0
LINE
  5
165
  8
0
  6
AIGENLINE001
 62
     7
 10
102.9549999999999
 20
183.15899999999999
 30
0.0
 11
99.016099999999994
 21
177.63900000000001
 31
0.0
  0
LINE
  5
166
  8
0
  6
AIGENLINE001
 62
     7
 10
126.926
 20
187.50999999999991
 30
0.0
 11
111.401
 21
187.50999999999991
 31
0.0
  0
ARC
  5
167
  8
0
  6
AIGENLINE001
 62
     7
 10
111.49270300000001
 20
176.9572179999999
 30
0.0
 40
10.55299299999999
 50
90.499928999999995
 51
144.00532899999999
  0
LINE
  5
168
  8
0
 62
     7
 10
101.0199999999999
 20
184.53899999999999
 30
0.0
 11
98.387699999999995
 21
180.84699999999989
 31
0.0
  0
LINE
  5
169
  8
0
 62
     7
 10
121.9249999999999
 20
189.88499999999991
 30
0.0
 11
111.401
 21
189.88499999999991
 31
0.0
  0
ARC
  5
16A
  8
0
 62
     7
 10
111.513184
 20
176.9157889999999
 30
0.0
 40
12.96922799999999
 50
90.497270999999998
 51
144.00279399999999
  0
LINE
  5
16B
  8
0
 62
     7
 10
100.1759999999999
 20
179.26400000000001
 30
0.0
 11
98.446299999999994
 21
180.49799999999999
 31
0.0
  0
ARC
  5
16C
  8
0
 62
     7
 10
98.605743000000004
 20
180.70378500000001
 30
0.0
 40
0.260633
 50
146.77125100000001
 51
232.28177500000001
  0
LINE
  5
16D
  8
0
 62
     7
 10
101.90600000000001
 20
178.02999999999989
 30
0.0
 11
100.1759999999999
 21
179.26400000000001
 31
0.0
  0
ARC
  5
16E
  8
0
 62
     7
 10
102.04892700000001
 20
178.24627399999989
 30
0.0
 40
0.259401
 50
236.533312
 51
322.42807299999993
  0
LINE
  5
16F
  8
0
 62
     7
 10
105.01300000000001
 20
181.95500000000001
 30
0.0
 11
101.146
 21
184.71299999999991
 31
0.0
  0
LINE
  5
170
  8
0
 62
     7
 10
63.432899999999989
 20
179.26300000000001
 30
0.0
 11
63.432899999999989
 21
187.50899999999999
 31
0.0
  0
LINE
  5
171
  8
0
 62
     7
 10
58.68269999999999
 20
179.26300000000001
 30
0.0
 11
58.68269999999999
 21
187.50899999999999
 31
0.0
  0
ARC
  5
172
  8
0
 62
     7
 10
62.569637
 20
183.3315759999999
 30
0.0
 40
0.863244
 50
0.159687
 51
34.79325
  0
ARC
  5
173
  8
0
 62
     7
 10
62.20130000000001
 20
183.113857
 30
0.0
 40
1.2903439999999999
 50
33.399538999999997
 51
50.208013000000001
  0
ARC
  5
174
  8
0
 62
     7
 10
61.746631999999998
 20
182.60442399999991
 30
0.0
 40
1.9729039999999991
 50
49.530852999999993
 51
64.684528999999984
  0
ARC
  5
175
  8
0
 62
     7
 10
61.278629000000002
 20
181.697664
 30
0.0
 40
2.992913999999999
 50
64.008216000000004
 51
80.128915000000006
  0
ARC
  5
176
  8
0
 62
     7
 10
61.070348000000003
 20
180.80561399999991
 30
0.0
 40
3.9078140000000001
 50
79.362487999999999
 51
90.183767999999986
  0
ARC
  5
177
  8
0
 62
     7
 10
61.057120999999988
 20
180.75959199999991
 30
0.0
 40
3.9538150000000001
 50
89.989959999999996
 51
105.475025
  0
ARC
  5
178
  8
0
 62
     7
 10
60.815162000000001
 20
181.735997
 30
0.0
 40
2.948375
 50
106.006241
 51
117.8055709999999
  0
ARC
  5
179
  8
0
 62
     7
 10
60.398868000000007
 20
182.55883499999999
 30
0.0
 40
2.0264159999999989
 50
118.246785
 51
132.0517999999999
  0
ARC
  5
17A
  8
0
 62
     7
 10
59.893631000000013
 20
183.1388959999999
 30
0.0
 40
1.25736
 50
132.66098799999989
 51
155.4036899999999
  0
ARC
  5
17B
  8
0
 62
     7
 10
59.54376400000001
 20
183.32772999999989
 30
0.0
 40
0.8610369999999999
 50
157.13919899999991
 51
179.58395200000001
  0
ARC
  5
17C
  8
0
 62
     7
 10
62.569637
 20
179.26083700000001
 30
0.0
 40
0.8632429999999999
 50
0.158959
 51
34.793256999999997
  0
ARC
  5
17D
  8
0
 62
     7
 10
62.200445999999999
 20
179.04235299999991
 30
0.0
 40
1.2914779999999999
 50
33.406970999999992
 51
50.200580999999993
  0
ARC
  5
17E
  8
0
 62
     7
 10
61.745671999999999
 20
178.5321999999999
 30
0.0
 40
1.974656999999999
 50
49.537616999999997
 51
64.677765000000008
  0
ARC
  5
17F
  8
0
 62
     7
 10
61.277886999999993
 20
177.62463199999999
 30
0.0
 40
2.9952990000000002
 50
64.014675999999994
 51
80.122455999999985
  0
ARC
  5
180
  8
0
 62
     7
 10
61.069636000000003
 20
176.72646199999991
 30
0.0
 40
3.9162119999999998
 50
79.374966999999998
 51
90.172955999999985
  0
ARC
  5
181
  8
0
 62
     7
 10
61.057120999999988
 20
176.68884199999991
 30
0.0
 40
3.9538150000000001
 50
89.989959999999996
 51
105.475025
  0
ARC
  5
182
  8
0
 62
     7
 10
60.815002
 20
177.6657669999999
 30
0.0
 40
2.9478309999999999
 50
106.0060519999999
 51
117.807648
  0
ARC
  5
183
  8
0
 62
     7
 10
60.396681999999998
 20
178.49111999999991
 30
0.0
 40
2.0226980000000001
 50
118.233088
 51
132.0634269999999
  0
ARC
  5
184
  8
0
 62
     7
 10
59.899878000000001
 20
179.06182999999999
 30
0.0
 40
1.2662379999999991
 50
132.675195
 51
154.44556299999991
  0
ARC
  5
185
  8
0
 62
     7
 10
59.549742999999999
 20
179.2557699999999
 30
0.0
 40
0.8670250000000001
 50
156.02714800000001
 51
179.50684999999999
  0
ARC
  5
186
  8
0
 62
     7
 10
59.545223
 20
179.26563999999999
 30
0.0
 40
0.8624769999999999
 50
180.15997699999991
 51
214.79919699999999
  0
ARC
  5
187
  8
0
 62
     7
 10
59.914330999999997
 20
179.4840669999999
 30
0.0
 40
1.2906089999999999
 50
213.410089
 51
230.20730699999999
  0
ARC
  5
188
  8
0
 62
     7
 10
60.369084999999998
 20
179.99407899999991
 30
0.0
 40
1.973665999999999
 50
229.539512
 51
244.68294599999999
  0
ARC
  5
189
  8
0
 62
     7
 10
60.836432999999992
 20
180.899969
 30
0.0
 40
2.9926069999999991
 50
244.01131299999989
 51
260.13375500000001
  0
ARC
  5
18A
  8
0
 62
     7
 10
61.045483999999988
 20
181.79798299999999
 30
0.0
 40
3.9135070000000001
 50
259.37117899999993
 51
270.18051899999989
  0
ARC
  5
18B
  8
0
 62
     7
 10
61.058110999999997
 20
181.77110999999999
 30
0.0
 40
3.8866139999999989
 50
269.99561999999997
 51
288.84523100000001
  0
ARC
  5
18C
  8
0
 62
     7
 10
61.456100999999997
 20
180.47853099999989
 30
0.0
 40
2.5350980000000001
 50
289.76883900000001
 51
306.411652
  0
ARC
  5
18D
  8
0
 62
     7
 10
62.080543999999989
 20
179.58356599999991
 30
0.0
 40
1.444480999999999
 50
307.550164
 51
328.88524199999989
  0
ARC
  5
18E
  8
0
 62
     7
 10
62.53052499999999
 20
179.27941799999999
 30
0.0
 40
0.9024979999999999
 50
330.65431599999988
 51
358.97231799999997
  0
ARC
  5
18F
  8
0
 62
     7
 10
60.966844999999992
 20
187.418496
 30
0.0
 40
2.4677090000000002
 50
2.1125919999999989
 51
87.887398000000005
  0
ARC
  5
190
  8
0
 62
     7
 10
61.057814
 20
187.50946400000001
 30
0.0
 40
2.3750640000000001
 50
90.0
 51
179.99996999999991
  0
LINE
  5
191
  8
0
 62
     7
 10
145.70599999999999
 20
234.8959999999999
 30
0.0
 11
133.8839999999999
 21
234.8959999999999
 31
0.0
  0
LINE
  5
192
  8
0
 62
     7
 10
62.601900000000001
 20
246.61000000000001
 30
0.0
 11
62.601900000000001
 21
237.0979999999999
 31
0.0
  0
LINE
  5
193
  8
0
 62
     7
 10
59.5137
 20
246.61000000000001
 30
0.0
 11
59.5137
 21
237.0979999999999
 31
0.0
  0
LINE
  5
194
  8
0
 62
     7
 10
62.601900000000001
 20
200.50699999999989
 30
0.0
 11
62.601900000000001
 21
198.04899999999989
 31
0.0
  0
LINE
  5
195
  8
0
 62
     7
 10
59.5137
 20
198.04899999999989
 30
0.0
 11
62.601900000000001
 21
198.04899999999989
 31
0.0
  0
LINE
  5
196
  8
0
  6
AIGENLINE002
 62
     7
 10
58.201599999999999
 20
237.74999999999989
 30
0.0
 11
53.704000000000001
 21
233.25200000000001
 31
0.0
  0
ARC
  5
197
  8
0
  6
AIGENLINE002
 62
     7
 10
53.569775999999997
 20
233.43048399999989
 30
0.0
 40
0.2232
 50
261.98970099999991
 51
306.979783
  0
ARC
  5
198
  8
0
  6
AIGENLINE002
 62
     7
 10
53.576893999999989
 20
233.44305600000001
 30
0.0
 40
0.236701
 50
233.886787
 51
260.70755400000002
  0
LINE
  5
199
  8
0
  6
AIGENLINE002
 62
     7
 10
53.437399999999997
 20
233.25200000000001
 30
0.0
 11
52.455899999999993
 21
234.233
 31
0.0
  0
ARC
  5
19A
  8
0
  6
AIGENLINE002
 62
     7
 10
52.634323999999999
 20
234.365894
 30
0.0
 40
0.222495
 50
171.651331
 51
216.6740519999999
  0
ARC
  5
19B
  8
0
  6
AIGENLINE002
 62
     7
 10
52.633192999999999
 20
234.367583
 30
0.0
 40
0.221136
 50
143.159052
 51
172.041706
  0
LINE
  5
19C
  8
0
  6
AIGENLINE002
 62
     7
 10
52.456200000000003
 20
234.5
 30
0.0
 11
56.9542
 21
238.99799999999991
 31
0.0
  0
LINE
  5
19D
  8
0
  6
AIGENLINE001
 62
     7
 10
61.058
 20
241.85400000000001
 30
0.0
 11
51.927199999999999
 21
232.7229999999999
 31
0.0
  0
LINE
  5
19E
  8
0
  6
AIGENLINE002
 62
     7
 10
63.91429999999999
 20
237.74999999999989
 30
0.0
 11
68.411900000000003
 21
233.25200000000001
 31
0.0
  0
ARC
  5
19F
  8
0
  6
AIGENLINE002
 62
     7
 10
68.546453999999983
 20
233.43148599999989
 30
0.0
 40
0.224156
 50
233.12140999999991
 51
277.90914600000002
  0
ARC
  5
1A0
  8
0
  6
AIGENLINE002
 62
     7
 10
68.539804000000004
 20
233.44131899999991
 30
0.0
 40
0.23487
 50
279.18592200000001
 51
306.21977700000002
  0
LINE
  5
1A1
  8
0
  6
AIGENLINE002
 62
     7
 10
68.678600000000003
 20
233.25200000000001
 30
0.0
 11
69.6601
 21
234.233
 31
0.0
  0
ARC
  5
1A2
  8
0
  6
AIGENLINE002
 62
     7
 10
69.481646999999995
 20
234.365894
 30
0.0
 40
0.222495
 50
323.32598699999988
 51
8.3486299999999982
  0
ARC
  5
1A3
  8
0
  6
AIGENLINE002
 62
     7
 10
69.482777999999996
 20
234.367583
 30
0.0
 40
0.221136
 50
7.9582740000000003
 51
36.840927999999998
  0
LINE
  5
1A4
  8
0
  6
AIGENLINE002
 62
     7
 10
69.659800000000004
 20
234.5
 30
0.0
 11
65.161799999999999
 21
238.99799999999991
 31
0.0
  0
LINE
  5
1A5
  8
0
 62
     7
 10
70.726200000000006
 20
232.18600000000001
 30
0.0
 11
74.254900000000006
 21
228.65700000000001
 31
0.0
  0
LINE
  5
1A6
  8
0
  6
AIGENLINE001
 62
     7
 10
61.058
 20
241.85400000000001
 30
0.0
 11
70.188800000000001
 21
232.7229999999999
 31
0.0
  0
LINE
  5
1A7
  8
0
 62
     7
 10
60.1753
 20
236.93199999999999
 30
0.0
 11
60.1753
 21
230.57199999999989
 31
0.0
  0
ARC
  5
1A8
  8
0
 62
     7
 10
60.396858999999999
 20
230.602847
 30
0.0
 40
0.223691
 50
188.002039
 51
232.97587499999989
  0
ARC
  5
1A9
  8
0
 62
     7
 10
60.398854000000007
 20
230.61277899999999
 30
0.0
 40
0.232863
 50
234.05552900000001
 51
261.34061099999991
  0
LINE
  5
1AA
  8
0
 62
     7
 10
60.363799999999998
 20
230.38300000000001
 30
0.0
 11
61.7515
 21
230.38300000000001
 31
0.0
  0
ARC
  5
1AB
  8
0
 62
     7
 10
61.719486000000003
 20
230.60288899999989
 30
0.0
 40
0.22263
 50
278.26461499999999
 51
323.26557799999989
  0
ARC
  5
1AC
  8
0
 62
     7
 10
61.722606000000013
 20
230.60236800000001
 30
0.0
 40
0.219823
 50
322.88789600000001
 51
351.98237799999993
  0
LINE
  5
1AD
  8
0
 62
     7
 10
61.940300000000001
 20
230.57199999999989
 30
0.0
 11
61.940300000000001
 21
236.93299999999999
 31
0.0
  0
ARC
  5
1AE
  8
0
 62
     7
 10
121.32618100000001
 20
198.99216799999991
 30
0.0
 40
0.8902280000000001
 50
315.10380800000001
 51
341.80347899999998
  0
ARC
  5
1AF
  8
0
 62
     7
 10
120.9225659999999
 20
199.15128200000001
 30
0.0
 40
1.3235840000000001
 50
340.71612299999993
 51
352.69543199999993
  0
ARC
  5
1B0
  8
0
 62
     7
 10
120.357178
 20
199.23638299999999
 30
0.0
 40
1.895246
 50
352.31681200000003
 51
0.2995140000000001
  0
ARC
  5
1B1
  8
0
 62
     7
 10
121.32618100000001
 20
199.50041200000001
 30
0.0
 40
0.8902280000000001
 50
18.196521000000001
 51
44.896191999999992
  0
ARC
  5
1B2
  8
0
 62
     7
 10
120.9225659999999
 20
199.34129799999999
 30
0.0
 40
1.3235840000000001
 50
7.3045679999999997
 51
19.283877
  0
ARC
  5
1B3
  8
0
 62
     7
 10
120.357178
 20
199.2561969999999
 30
0.0
 40
1.895246
 50
359.70048600000001
 51
7.6831880000000004
  0
ARC
  5
1B4
  8
0
 62
     7
 10
61.024163999999999
 20
199.2799389999999
 30
0.0
 40
0.9167340000000001
 50
272.10354599999988
 51
357.89646299999993
  0
ARC
  5
1B5
  8
0
 62
     7
 10
61.091074999999996
 20
199.27955199999991
 30
0.0
 40
0.916333
 50
182.080264
 51
267.9197660000001
  0
ARC
  5
1B6
  8
0
 62
     7
 10
61.091462
 20
199.21264099999999
 30
0.0
 40
0.9167329999999999
 50
92.103508999999988
 51
177.89646099999999
  0
ARC
  5
1B7
  8
0
 62
     7
 10
61.024551000000002
 20
199.21302799999989
 30
0.0
 40
0.916333
 50
2.0802610000000001
 51
87.919729000000018
  0
TEXT
  5
1B8
  8
0
 62
     7
 10
95.226434999999995
 20
165.28999999999991
 30
0.0
 40
3.0923400000000001
  1
35%%d
 41
0.5
 72
     1
 11
97.030299999999997
 21
165.28999999999991
 31
0.0
  0
LINE
  5
1B9
  8
0
 62
     7
 10
72.654899999999984
 20
227.09399999999999
 30
0.0
 11
73.889799999999994
 21
229.02199999999999
 31
0.0
  0
LINE
  5
1BA
  8
0
 62
     7
 10
73.889799999999994
 20
229.02199999999999
 30
0.0
 11
71.856399999999994
 21
227.97
 31
0.0
  0
LINE
  5
1BB
  8
0
 62
     7
 10
71.856399999999994
 20
227.97
 30
0.0
 11
72.654899999999984
 21
227.09399999999999
 31
0.0
  0
LINE
  5
1BC
  8
0
 62
     7
 10
50.276000000000003
 20
228.0019999999999
 30
0.0
 11
48.226100000000002
 21
229.02199999999999
 31
0.0
  0
LINE
  5
1BD
  8
0
 62
     7
 10
48.226100000000002
 20
229.02199999999999
 30
0.0
 11
49.491199999999999
 21
227.11299999999989
 31
0.0
  0
LINE
  5
1BE
  8
0
 62
     7
 10
49.491199999999999
 20
227.11299999999989
 30
0.0
 11
50.276000000000003
 21
228.0019999999999
 31
0.0
  0
ARC
  5
1BF
  8
0
 62
     7
 10
60.967866000000001
 20
242.07171099999999
 30
0.0
 40
18.364788999999998
 50
270.27848599999987
 51
314.718796
  0
ARC
  5
1C0
  8
0
 62
     7
 10
61.145654
 20
242.06661
 30
0.0
 40
18.359684999999988
 50
225.27621499999989
 51
269.72373099999987
  0
ARC
  5
1C1
  8
0
 62
     7
 10
61.057984999999988
 20
241.85395099999991
 30
0.0
 40
5.0000720000000003
 50
269.99804599999987
 51
359.99801600000001
  0
ARC
  5
1C2
  8
0
 62
     7
 10
61.057811999999998
 20
241.85377699999989
 30
0.0
 40
4.9998979999999991
 50
179.99996999999991
 51
270.00002000000001
  0
ARC
  5
1C3
  8
0
 62
     7
 10
61.057985999999993
 20
241.853949
 30
0.0
 40
5.0000720000000003
 50
90.001974000000004
 51
180.00198399999999
  0
ARC
  5
1C4
  8
0
 62
     7
 10
61.057811999999998
 20
241.85377699999989
 30
0.0
 40
5.0002440000000004
 50
0.00001
 51
89.999980000000008
  0
LINE
  5
1C5
  8
0
  6
AIGENLINE001
 62
     7
 10
53.121299999999991
 20
241.85400000000001
 30
0.0
 11
68.724599999999995
 21
241.85400000000001
 31
0.0
  0
LINE
  5
1C6
  8
0
 62
     7
 10
121.95699999999999
 20
170.50599999999989
 30
0.0
 11
131.95599999999999
 21
170.50599999999989
 31
0.0
  0
LINE
  5
1C7
  8
0
 62
     7
 10
56.057899999999989
 20
170.50599999999989
 30
0.0
 11
66.058099999999996
 21
170.50599999999989
 31
0.0
  0
LINE
  5
1C8
  8
0
 62
     7
 10
129.73099999999991
 20
175.2299999999999
 30
0.0
 11
131.94200000000001
 21
175.82299999999989
 31
0.0
  0
LINE
  5
1C9
  8
0
 62
     7
 10
131.94200000000001
 20
175.82299999999989
 30
0.0
 11
129.73099999999991
 21
176.41499999999991
 31
0.0
  0
LINE
  5
1CA
  8
0
 62
     7
 10
129.73099999999991
 20
176.41499999999991
 30
0.0
 11
129.73099999999991
 21
175.2299999999999
 31
0.0
  0
LINE
  5
1CB
  8
0
 62
     7
 10
124.181
 20
176.40000000000001
 30
0.0
 11
121.971
 21
175.80799999999991
 31
0.0
  0
LINE
  5
1CC
  8
0
 62
     7
 10
121.971
 20
175.80799999999991
 30
0.0
 11
124.181
 21
175.21599999999989
 31
0.0
  0
LINE
  5
1CD
  8
0
 62
     7
 10
124.181
 20
175.21599999999989
 30
0.0
 11
124.181
 21
176.40000000000001
 31
0.0
  0
LINE
  5
1CE
  8
0
 62
     7
 10
131.9429999999999
 20
175.80799999999991
 30
0.0
 11
121.97
 21
175.80799999999991
 31
0.0
  0
LINE
  5
1CF
  8
0
 62
     7
 10
121.63800000000001
 20
247.142
 30
0.0
 11
124.08799999999989
 21
244.69199999999989
 31
0.0
  0
LINE
  5
1D0
  8
0
 62
     7
 10
131.7359999999999
 20
237.88099999999989
 30
0.0
 11
129.75399999999991
 21
239.02600000000001
 31
0.0
  0
LINE
  5
1D1
  8
0
 62
     7
 10
129.75399999999991
 20
239.02600000000001
 30
0.0
 11
130.898
 21
237.04400000000001
 31
0.0
  0
LINE
  5
1D2
  8
0
 62
     7
 10
130.898
 20
237.04400000000001
 30
0.0
 11
131.7359999999999
 21
237.88099999999989
 31
0.0
  0
LINE
  5
1D3
  8
0
 62
     7
 10
122.10599999999999
 20
245.8359999999999
 30
0.0
 11
124.08799999999989
 21
244.69199999999989
 31
0.0
  0
LINE
  5
1D4
  8
0
 62
     7
 10
124.08799999999989
 20
244.69199999999989
 30
0.0
 11
122.943
 21
246.67400000000001
 31
0.0
  0
LINE
  5
1D5
  8
0
 62
     7
 10
122.943
 20
246.67400000000001
 30
0.0
 11
122.10599999999999
 21
245.8359999999999
 31
0.0
  0
LINE
  5
1D6
  8
0
 62
     7
 10
124.09699999999999
 20
244.68299999999991
 30
0.0
 11
129.75399999999991
 21
239.02600000000001
 31
0.0
  0
LINE
  5
1D7
  8
0
 62
     7
 10
129.75399999999991
 20
239.02600000000001
 30
0.0
 11
133.8839999999999
 21
234.8959999999999
 31
0.0
  0
LINE
  5
1D8
  8
0
  6
AIGENLINE001
 62
     7
 10
126.926
 20
235.35400000000001
 30
0.0
 11
126.926
 21
248.346
 31
0.0
  0
LINE
  5
1D9
  8
0
  6
AIGENLINE001
 62
     7
 10
120.426
 20
241.85400000000001
 30
0.0
 11
133.42599999999999
 21
241.85400000000001
 31
0.0
  0
LINE
  5
1DA
  8
0
 62
     7
 10
110.242
 20
175.77500000000001
 30
0.0
 11
109.65000000000001
 21
177.98500000000001
 31
0.0
  0
LINE
  5
1DB
  8
0
 62
     7
 10
109.65000000000001
 20
177.98500000000001
 30
0.0
 11
109.05799999999989
 21
175.77500000000001
 31
0.0
  0
LINE
  5
1DC
  8
0
 62
     7
 10
109.05799999999989
 20
175.77500000000001
 30
0.0
 11
110.242
 21
175.77500000000001
 31
0.0
  0
LINE
  5
1DD
  8
0
 62
     7
 10
109.072
 20
130.238
 30
0.0
 11
109.66500000000001
 21
128.02699999999999
 31
0.0
  0
LINE
  5
1DE
  8
0
 62
     7
 10
109.66500000000001
 20
128.02699999999999
 30
0.0
 11
110.25700000000001
 21
130.238
 31
0.0
  0
LINE
  5
1DF
  8
0
 62
     7
 10
110.25700000000001
 20
130.238
 30
0.0
 11
109.072
 21
130.238
 31
0.0
  0
LINE
  5
1E0
  8
0
 62
     7
 10
109.65000000000001
 20
177.98599999999999
 30
0.0
 11
109.65000000000001
 21
128.02699999999999
 31
0.0
  0
LINE
  5
1E1
  8
0
 62
     7
 10
103.10599999999999
 20
177.98500000000001
 30
0.0
 11
110.34999999999989
 21
177.98500000000001
 31
0.0
  0
LINE
  5
1E2
  8
0
 62
     7
 10
89.557400000000001
 20
177.03899999999999
 30
0.0
 11
88.965199999999996
 21
179.24999999999989
 31
0.0
  0
LINE
  5
1E3
  8
0
 62
     7
 10
88.965199999999996
 20
179.24999999999989
 30
0.0
 11
88.372799999999984
 21
177.03899999999999
 31
0.0
  0
LINE
  5
1E4
  8
0
 62
     7
 10
88.372799999999984
 20
177.03899999999999
 30
0.0
 11
89.557400000000001
 21
177.03899999999999
 31
0.0
  0
LINE
  5
1E5
  8
0
 62
     7
 10
88.387399999999985
 20
130.238
 30
0.0
 11
88.979600000000005
 21
128.02699999999999
 31
0.0
  0
LINE
  5
1E6
  8
0
 62
     7
 10
88.979600000000005
 20
128.02699999999999
 30
0.0
 11
89.572000000000003
 21
130.238
 31
0.0
  0
LINE
  5
1E7
  8
0
 62
     7
 10
89.572000000000003
 20
130.238
 30
0.0
 11
88.387399999999985
 21
130.238
 31
0.0
  0
LINE
  5
1E8
  8
0
 62
     7
 10
88.965199999999996
 20
179.25099999999989
 30
0.0
 11
88.965199999999996
 21
128.02699999999999
 31
0.0
  0
LINE
  5
1E9
  8
0
 62
     7
 10
149.71199999999999
 20
130.22499999999991
 30
0.0
 11
150.304
 21
128.01400000000001
 31
0.0
  0
LINE
  5
1EA
  8
0
 62
     7
 10
150.304
 20
128.01400000000001
 30
0.0
 11
150.89599999999999
 21
130.22499999999991
 31
0.0
  0
LINE
  5
1EB
  8
0
 62
     7
 10
150.89599999999999
 20
130.22499999999991
 30
0.0
 11
149.71199999999999
 21
130.22499999999991
 31
0.0
  0
LINE
  5
1EC
  8
0
 62
     7
 10
150.88200000000001
 20
202.28899999999999
 30
0.0
 11
150.28999999999991
 21
204.49999999999989
 31
0.0
  0
LINE
  5
1ED
  8
0
 62
     7
 10
150.28999999999991
 20
204.49999999999989
 30
0.0
 11
149.69799999999989
 21
202.28899999999999
 31
0.0
  0
LINE
  5
1EE
  8
0
 62
     7
 10
149.69799999999989
 20
202.28899999999999
 30
0.0
 11
150.88200000000001
 21
202.28899999999999
 31
0.0
  0
LINE
  5
1EF
  8
0
 62
     7
 10
150.28999999999991
 20
128.01299999999989
 30
0.0
 11
150.28999999999991
 21
204.50099999999989
 31
0.0
  0
LINE
  5
1F0
  8
0
 62
     7
 10
143.18000000000001
 20
130.2239999999999
 30
0.0
 11
143.77299999999991
 21
128.01299999999989
 31
0.0
  0
LINE
  5
1F1
  8
0
 62
     7
 10
143.77299999999991
 20
128.01299999999989
 30
0.0
 11
144.36500000000001
 21
130.2239999999999
 31
0.0
  0
LINE
  5
1F2
  8
0
 62
     7
 10
144.36500000000001
 20
130.2239999999999
 30
0.0
 11
143.18000000000001
 21
130.2239999999999
 31
0.0
  0
LINE
  5
1F3
  8
0
 62
     7
 10
144.34999999999999
 20
198.28999999999991
 30
0.0
 11
143.7579999999999
 21
200.49999999999989
 31
0.0
  0
LINE
  5
1F4
  8
0
 62
     7
 10
143.7579999999999
 20
200.49999999999989
 30
0.0
 11
143.16599999999991
 21
198.28999999999991
 31
0.0
  0
LINE
  5
1F5
  8
0
 62
     7
 10
143.16599999999991
 20
198.28999999999991
 30
0.0
 11
144.34999999999999
 21
198.28999999999991
 31
0.0
  0
LINE
  5
1F6
  8
0
 62
     7
 10
143.7579999999999
 20
128.01299999999989
 30
0.0
 11
143.7579999999999
 21
200.50099999999989
 31
0.0
  0
LINE
  5
1F7
  8
0
 62
     7
 10
149.71199999999999
 20
52.724400000000003
 30
0.0
 11
150.304
 21
50.5137
 31
0.0
  0
LINE
  5
1F8
  8
0
 62
     7
 10
150.304
 20
50.5137
 30
0.0
 11
150.89599999999999
 21
52.724400000000003
 31
0.0
  0
LINE
  5
1F9
  8
0
 62
     7
 10
150.89599999999999
 20
52.724400000000003
 30
0.0
 11
149.71199999999999
 21
52.724400000000003
 31
0.0
  0
LINE
  5
1FA
  8
0
 62
     7
 10
150.88200000000001
 20
125.7889999999999
 30
0.0
 11
150.28999999999991
 21
128.0
 31
0.0
  0
LINE
  5
1FB
  8
0
 62
     7
 10
150.28999999999991
 20
128.0
 30
0.0
 11
149.69799999999989
 21
125.7889999999999
 31
0.0
  0
LINE
  5
1FC
  8
0
 62
     7
 10
149.69799999999989
 20
125.7889999999999
 30
0.0
 11
150.88200000000001
 21
125.7889999999999
 31
0.0
  0
LINE
  5
1FD
  8
0
 62
     7
 10
150.28999999999991
 20
50.513000000000012
 30
0.0
 11
150.28999999999991
 21
128.001
 31
0.0
  0
LINE
  5
1FE
  8
0
 62
     7
 10
124.70099999999999
 20
208.87299999999991
 30
0.0
 11
126.91200000000001
 21
209.46599999999989
 31
0.0
  0
LINE
  5
1FF
  8
0
 62
     7
 10
126.91200000000001
 20
209.46599999999989
 30
0.0
 11
124.70099999999999
 21
210.05799999999991
 31
0.0
  0
LINE
  5
200
  8
0
 62
     7
 10
124.70099999999999
 20
210.05799999999991
 30
0.0
 11
124.70099999999999
 21
208.87299999999991
 31
0.0
  0
LINE
  5
201
  8
0
 62
     7
 10
102.40000000000001
 20
210.04400000000001
 30
0.0
 11
100.19
 21
209.45099999999999
 31
0.0
  0
LINE
  5
202
  8
0
 62
     7
 10
100.19
 20
209.45099999999999
 30
0.0
 11
102.40000000000001
 21
208.8589999999999
 31
0.0
  0
LINE
  5
203
  8
0
 62
     7
 10
102.40000000000001
 20
208.8589999999999
 30
0.0
 11
102.40000000000001
 21
210.04400000000001
 31
0.0
  0
LINE
  5
204
  8
0
 62
     7
 10
126.91200000000001
 20
209.45099999999999
 30
0.0
 11
100.18899999999989
 21
209.45099999999999
 31
0.0
  0
LINE
  5
205
  8
0
 62
     7
 10
88.365399999999994
 20
179.26400000000001
 30
0.0
 11
99.125699999999995
 21
179.26400000000001
 31
0.0
  0
LINE
  5
206
  8
0
  6
AIGENLINE001
 62
     7
 10
126.926
 20
125.5689999999999
 30
0.0
 11
126.926
 21
174.88900000000001
 31
0.0
  0
LINE
  5
207
  8
0
  6
AIGENLINE001
 62
     7
 10
126.926
 20
180.904
 30
0.0
 11
126.926
 21
202.749
 31
0.0
  0
LINE
  5
208
  8
0
 62
     7
 10
126.926
 20
203.4199999999999
 30
0.0
 11
126.926
 21
210.0509999999999
 31
0.0
  0
LINE
  5
209
  8
0
 62
     7
 10
100.1759999999999
 20
168.72900000000001
 30
0.0
 11
100.1759999999999
 21
210.148
 31
0.0
  0
LINE
  5
20A
  8
0
 62
     7
 10
118.26900000000001
 20
204.5139999999999
 30
0.0
 11
150.8829999999999
 21
204.5139999999999
 31
0.0
  0
LINE
  5
20B
  8
0
 62
     7
 10
132.74600000000001
 20
128.01299999999989
 30
0.0
 11
150.8829999999999
 21
128.01299999999989
 31
0.0
  0
LINE
  5
20C
  8
0
 62
     7
 10
132.577
 20
200.5139999999999
 30
0.0
 11
144.35900000000001
 21
200.5139999999999
 31
0.0
  0
LINE
  5
20D
  8
0
 62
     7
 10
128.49799999999999
 20
50.513000000000012
 30
0.0
 11
150.8899999999999
 21
50.513000000000012
 31
0.0
  0
LINE
  5
20E
  8
0
 62
     7
 10
88.053600000000003
 20
128.01299999999989
 30
0.0
 11
121.029
 21
128.01299999999989
 31
0.0
  0
LINE
  5
20F
  8
0
  6
AIGENLINE002
 62
     7
 10
122.7589999999999
 20
202.00700000000001
 30
0.0
 11
116.959
 21
204.50099999999989
 31
0.0
  0
ARC
  5
210
  8
0
  6
AIGENLINE002
 62
     7
 10
116.90025199999999
 20
204.28612899999999
 30
0.0
 40
0.222467
 50
74.602609999999999
 51
119.7620509999999
  0
ARC
  5
211
  8
0
  6
AIGENLINE002
 62
     7
 10
116.9109009999999
 20
204.275991
 30
0.0
 40
0.236591
 50
120.7821049999999
 51
147.69682800000001
  0
LINE
  5
212
  8
0
  6
AIGENLINE002
 62
     7
 10
116.711
 20
204.40199999999999
 30
0.0
 11
116.1629999999999
 21
203.12700000000001
 31
0.0
  0
ARC
  5
213
  8
0
  6
AIGENLINE002
 62
     7
 10
116.37686599999989
 20
203.0698459999999
 30
0.0
 40
0.221323
 50
164.930744
 51
210.18194199999991
  0
ARC
  5
214
  8
0
  6
AIGENLINE002
 62
     7
 10
116.3748299999999
 20
203.06443100000001
 30
0.0
 40
0.216873
 50
209.21563299999991
 51
238.76537200000001
  0
LINE
  5
215
  8
0
  6
AIGENLINE002
 62
     7
 10
116.2619999999999
 20
202.87899999999999
 30
0.0
 11
122.062
 21
200.38499999999991
 31
0.0
  0
LINE
  5
216
  8
0
 62
     7
 10
121.95699999999999
 20
200.12899999999999
 30
0.0
 11
115.64399999999991
 21
200.12899999999999
 31
0.0
  0
ARC
  5
217
  8
0
 62
     7
 10
115.674604
 20
199.90752399999991
 30
0.0
 40
0.223391
 50
97.970171999999991
 51
143.00768299999999
  0
ARC
  5
218
  8
0
 62
     7
 10
115.685744
 20
199.90482099999991
 30
0.0
 40
0.233959
 50
144.1206
 51
171.27548100000001
  0
LINE
  5
219
  8
0
 62
     7
 10
115.45399999999989
 20
199.93999999999991
 30
0.0
 11
115.45399999999989
 21
198.55299999999991
 31
0.0
  0
ARC
  5
21A
  8
0
 62
     7
 10
115.6757459999999
 20
198.58517499999991
 30
0.0
 40
0.223637
 50
188.3714139999999
 51
233.15879799999999
  0
ARC
  5
21B
  8
0
 62
     7
 10
115.67443899999989
 20
198.58185599999999
 30
0.0
 40
0.220199
 50
232.9132899999999
 51
261.95700399999993
  0
LINE
  5
21C
  8
0
 62
     7
 10
115.64399999999991
 20
198.364
 30
0.0
 11
121.95699999999999
 21
198.364
 31
0.0
  0
ARC
  5
21D
  8
0
 62
     7
 10
117.86201
 20
186.78855899999999
 30
0.0
 40
5.1079369999999997
 50
29.417674999999999
 51
37.308721999999989
  0
ARC
  5
21E
  8
0
 62
     7
 10
119.283674
 20
187.63104799999991
 30
0.0
 40
3.4559549999999999
 50
7.7346289999999982
 51
28.827818000000001
  0
ARC
  5
21F
  8
0
 62
     7
 10
118.688393
 20
187.57523599999999
 30
0.0
 40
4.0534069999999991
 50
322.98072100000002
 51
7.3839110000000012
  0
LINE
  5
220
  8
0
 62
     7
 10
131.52600000000001
 20
192.13200000000001
 30
0.0
 11
131.52600000000001
 21
191.62700000000001
 31
0.0
  0
LINE
  5
221
  8
0
 62
     7
 10
122.387
 20
192.13200000000001
 30
0.0
 11
122.387
 21
191.62700000000001
 31
0.0
  0
ARC
  5
222
  8
0
 62
     7
 10
120.502135
 20
200.31742199999999
 30
0.0
 40
1.4668549999999989
 50
352.61022300000002
 51
356.64392500000002
  0
ARC
  5
223
  8
0
 62
     7
 10
122.63740899999991
 20
200.220789
 30
0.0
 40
0.671021
 50
162.108957
 51
179.081062
  0
ARC
  5
224
  8
0
 62
     7
 10
122.180127
 20
200.28868
 30
0.0
 40
0.22799
 50
98.623046999999985
 51
142.670906
  0
LINE
  5
225
  8
0
 62
     7
 10
122.1459999999999
 20
200.5139999999999
 30
0.0
 11
131.76799999999989
 21
200.5139999999999
 31
0.0
  0
ARC
  5
226
  8
0
 62
     7
 10
131.7363159999999
 20
200.29185799999999
 30
0.0
 40
0.224456
 50
53.40321999999999
 51
81.933556999999993
  0
ARC
  5
227
  8
0
 62
     7
 10
131.729457
 20
200.29101299999999
 30
0.0
 40
0.229277
 50
8.4264419999999998
 51
52.152989999999988
  0
LINE
  5
228
  8
0
 62
     7
 10
131.95599999999999
 20
200.3249999999999
 30
0.0
 11
131.95599999999999
 21
192.13200000000001
 31
0.0
  0
LINE
  5
229
  8
0
 62
     7
 10
131.95599999999999
 20
192.13200000000001
 30
0.0
 11
121.95699999999999
 21
192.13200000000001
 31
0.0
  0
LINE
  5
22A
  8
0
 62
     7
 10
121.95699999999999
 20
192.13200000000001
 30
0.0
 11
121.95699999999999
 21
198.364
 31
0.0
  0
ARC
  5
22B
  8
0
 62
     7
 10
122.1772939999999
 20
128.473862
 30
0.0
 40
0.210702
 50
261.443152
 51
278.55686800000001
  0
ARC
  5
22C
  8
0
 62
     7
 10
122.1788209999999
 20
128.48908499999999
 30
0.0
 40
0.225984
 50
217.3521329999999
 51
261.63454899999999
  0
ARC
  5
22D
  8
0
 62
     7
 10
122.1823459999999
 20
128.487089
 30
0.0
 40
0.227605
 50
172.273833
 51
216.4144269999999
  0
LINE
  5
22E
  8
0
 62
     7
 10
121.95699999999999
 20
128.51799999999989
 30
0.0
 11
121.95699999999999
 21
185.13499999999999
 31
0.0
  0
LINE
  5
22F
  8
0
 62
     7
 10
121.95699999999999
 20
189.88499999999991
 30
0.0
 11
121.95699999999999
 21
191.62700000000001
 31
0.0
  0
LINE
  5
230
  8
0
 62
     7
 10
121.95699999999999
 20
191.62700000000001
 30
0.0
 11
131.95599999999999
 21
191.62700000000001
 31
0.0
  0
LINE
  5
231
  8
0
 62
     7
 10
131.95599999999999
 20
191.62700000000001
 30
0.0
 11
131.95599999999999
 21
128.51799999999989
 31
0.0
  0
ARC
  5
232
  8
0
 62
     7
 10
131.728565
 20
128.49094099999999
 30
0.0
 40
0.22926
 50
340.66198999999989
 51
6.6998350000000002
  0
ARC
  5
233
  8
0
 62
     7
 10
131.72017099999991
 20
128.490791
 30
0.0
 40
0.237149
 50
295.95611999999988
 51
341.36775999999998
  0
ARC
  5
234
  8
0
 62
     7
 10
131.718402
 20
128.48980700000001
 30
0.0
 40
0.237048
 50
251.1260629999999
 51
296.444594
  0
LINE
  5
235
  8
0
 62
     7
 10
59.5137
 20
200.50699999999989
 30
0.0
 11
59.5137
 21
198.04899999999989
 31
0.0
  0
LINE
  5
236
  8
0
 62
     7
 10
65.627399999999994
 20
192.13200000000001
 30
0.0
 11
65.627399999999994
 21
191.62700000000001
 31
0.0
  0
LINE
  5
237
  8
0
 62
     7
 10
56.488599999999991
 20
192.13200000000001
 30
0.0
 11
56.488599999999991
 21
191.62700000000001
 31
0.0
  0
ARC
  5
238
  8
0
 62
     7
 10
65.917768000000009
 20
200.41974399999989
 30
0.0
 40
0.099407
 50
107.7131819999999
 51
119.2048409999999
  0
ARC
  5
239
  8
0
 62
     7
 10
65.931549000000004
 20
200.37864500000001
 30
0.0
 40
0.142751
 50
63.604553000000003
 51
107.96322600000001
  0
ARC
  5
23A
  8
0
 62
     7
 10
65.931286999999998
 20
200.379457
 30
0.0
 40
0.142142
 50
18.629861999999989
 51
63.364356999999998
  0
ARC
  5
23B
  8
0
 62
     7
 10
65.927542000000003
 20
200.381034
 30
0.0
 40
0.145211
 50
333.99958500000002
 51
17.568214000000001
  0
LINE
  5
23C
  8
0
 62
     7
 10
66.058099999999996
 20
200.31699999999989
 30
0.0
 11
66.058099999999996
 21
192.13200000000001
 31
0.0
  0
LINE
  5
23D
  8
0
 62
     7
 10
66.058099999999996
 20
192.13200000000001
 30
0.0
 11
56.057899999999989
 21
192.13200000000001
 31
0.0
  0
LINE
  5
23E
  8
0
 62
     7
 10
56.057899999999989
 20
192.13200000000001
 30
0.0
 11
56.057899999999989
 21
200.31699999999989
 31
0.0
  0
ARC
  5
23F
  8
0
 62
     7
 10
56.167094999999989
 20
200.372704
 30
0.0
 40
0.122399
 50
197.45932999999999
 51
206.8733959999999
  0
ARC
  5
240
  8
0
 62
     7
 10
56.183152999999997
 20
200.38062600000001
 30
0.0
 40
0.140121
 50
153.353478
 51
198.5797
  0
ARC
  5
241
  8
0
 62
     7
 10
56.185946999999999
 20
200.37862100000001
 30
0.0
 40
0.143518
 50
108.8558009999999
 51
153.138398
  0
ARC
  5
242
  8
0
 62
     7
 10
56.18348000000001
 20
200.37991599999989
 30
0.0
 40
0.141508
 50
63.460929000000007
 51
108.079835
  0
LINE
  5
243
  8
0
 62
     7
 10
56.246699999999997
 20
200.50699999999989
 30
0.0
 11
65.869299999999996
 21
200.50699999999989
 31
0.0
  0
LINE
  5
244
  8
0
  6
AIGENLINE001
 62
     7
 10
61.0578
 20
100.7149999999999
 30
0.0
 11
61.0578
 21
202.06999999999999
 31
0.0
  0
ARC
  5
245
  8
0
 62
     7
 10
56.295769999999997
 20
128.493424
 30
0.0
 40
0.240694
 50
263.80345699999992
 51
288.75115799999998
  0
ARC
  5
246
  8
0
 62
     7
 10
56.297680000000007
 20
128.495722
 30
0.0
 40
0.24319
 50
219.20965200000001
 51
263.41450800000001
  0
ARC
  5
247
  8
0
 62
     7
 10
56.298104000000002
 20
128.492512
 30
0.0
 40
0.241505
 50
174.01622299999991
 51
218.55594400000001
  0
LINE
  5
248
  8
0
 62
     7
 10
56.057899999999989
 20
128.51799999999989
 30
0.0
 11
56.057899999999989
 21
191.62700000000001
 31
0.0
  0
LINE
  5
249
  8
0
 62
     7
 10
56.057899999999989
 20
191.62700000000001
 30
0.0
 11
66.058099999999996
 21
191.62700000000001
 31
0.0
  0
LINE
  5
24A
  8
0
 62
     7
 10
66.058099999999996
 20
191.62700000000001
 30
0.0
 11
66.058099999999996
 21
128.51799999999989
 31
0.0
  0
ARC
  5
24B
  8
0
 62
     7
 10
65.842985999999996
 20
128.486165
 30
0.0
 40
0.217369
 50
351.66155600000002
 51
8.3384440000000009
  0
ARC
  5
24C
  8
0
 62
     7
 10
65.835245999999998
 20
128.48738599999999
 30
0.0
 40
0.225204
 50
307.14750699999991
 51
351.63968499999999
  0
ARC
  5
24D
  8
0
 62
     7
 10
65.836370000000002
 20
128.4905929999999
 30
0.0
 40
0.227099
 50
262.37030600000003
 51
306.43278599999991
  0
ARC
  5
24E
  8
0
 62
     7
 10
126.925871
 20
241.85395099999991
 30
0.0
 40
3.9999539999999998
 50
269.99755199999993
 51
359.997523
  0
ARC
  5
24F
  8
0
 62
     7
 10
126.9256989999999
 20
241.85377699999989
 30
0.0
 40
3.9997799999999999
 50
179.99996999999991
 51
270.00002000000001
  0
ARC
  5
250
  8
0
 62
     7
 10
126.92604399999991
 20
241.85412199999999
 30
0.0
 40
4.000125999999999
 50
90.004935000000003
 51
180.00494499999991
  0
ARC
  5
251
  8
0
 62
     7
 10
126.92552599999991
 20
241.853949
 30
0.0
 40
4.000299
 50
359.99754300000001
 51
89.997512999999984
  0
TEXT
  5
252
  8
_________2
 62
     7
 10
139.78976357142849
 20
39.068699999999993
 30
0.0
 40
3.9357000000000002
  1
注：色番号はカタログを参照ください。
 41
0.5
 72
     2
 11
180.54300000000001
 21
39.068699999999993
 31
0.0
  0
LINE
  5
253
  8
_________2
 62
     7
 10
205.30099999999999
 20
127.411
 30
0.0
 11
183.55000000000001
 21
127.411
 31
0.0
  0
LINE
  5
254
  8
_________2
 62
     7
 10
100.2999999999999
 20
-4.0910799999999998
 30
0.0
 11
100.2999999999999
 21
-21.071400000000001
 31
0.0
  0
LINE
  5
255
  8
_________2
 62
     7
 10
100.2999999999999
 20
275.93099999999993
 30
0.0
 11
100.2999999999999
 21
258.911
 31
0.0
  0
LINE
  5
256
  8
_________2
 62
     7
 10
17.049499999999998
 20
127.411
 30
0.0
 11
-4.70052
 21
127.411
 31
0.0
  0
LINE
  5
257
  8
_________2
 62
     7
 10
76.741
 20
29.8047
 30
0.0
 11
74.554699999999997
 21
29.8047
 31
0.0
  0
LINE
  5
258
  8
_________2
 62
     7
 10
77.233699999999999
 20
29.8047
 30
0.0
 11
76.981499999999997
 21
29.8047
 31
0.0
  0
LINE
  5
259
  8
_________2
 62
     7
 10
77.726299999999995
 20
29.8047
 30
0.0
 11
80.651200000000003
 21
29.8047
 31
0.0
  0
LINE
  5
25A
  8
_________2
 62
     7
 10
77.233699999999999
 20
29.8047
 30
0.0
 11
77.485500000000002
 21
29.8047
 31
0.0
  0
LINE
  5
25B
  8
_________2
 62
     7
 10
70.837100000000007
 20
29.8047
 30
0.0
 11
68.650499999999994
 21
29.8047
 31
0.0
  0
LINE
  5
25C
  8
_________2
 62
     7
 10
71.329400000000007
 20
29.8047
 30
0.0
 11
71.077600000000004
 21
29.8047
 31
0.0
  0
LINE
  5
25D
  8
_________2
 62
     7
 10
71.329400000000007
 20
30.2974
 30
0.0
 11
71.329400000000007
 21
32.484400000000001
 31
0.0
  0
LINE
  5
25E
  8
_________2
 62
     7
 10
71.329400000000007
 20
29.8047
 30
0.0
 11
71.329400000000007
 21
30.056899999999992
 31
0.0
  0
LINE
  5
25F
  8
_________2
 62
     7
 10
71.822100000000006
 20
29.8047
 30
0.0
 11
74.009
 21
29.8047
 31
0.0
  0
LINE
  5
260
  8
_________2
 62
     7
 10
71.329400000000007
 20
29.8047
 30
0.0
 11
71.581599999999995
 21
29.8047
 31
0.0
  0
LINE
  5
261
  8
_________2
 62
     7
 10
71.329400000000007
 20
29.312799999999999
 30
0.0
 11
71.329400000000007
 21
27.125800000000002
 31
0.0
  0
LINE
  5
262
  8
_________2
 62
     7
 10
71.329400000000007
 20
29.8047
 30
0.0
 11
71.329400000000007
 21
29.5532
 31
0.0
  0
LINE
  5
263
  8
_________2
 62
     7
 10
75.040499999999994
 20
28.5852
 30
0.0
 11
80.218500000000006
 21
27.720400000000001
 31
0.0
  0
LINE
  5
264
  8
_________2
 62
     7
 10
75.040499999999994
 20
31.0243
 30
0.0
 11
80.218500000000006
 21
31.889700000000001
 31
0.0
  0
LINE
  5
265
  8
_________2
 62
     7
 10
80.218500000000006
 20
27.720400000000001
 30
0.0
 11
80.218500000000006
 21
31.889700000000001
 31
0.0
  0
LINE
  5
266
  8
_________2
 62
     7
 10
75.040499999999994
 20
28.5852
 30
0.0
 11
75.040499999999994
 21
31.0243
 31
0.0
  0
ARC
  5
267
  8
_________2
 62
     7
 10
71.28285600000001
 20
29.757811
 30
0.0
 40
1.2673589999999999
 50
2.122214
 51
87.893958999999995
  0
ARC
  5
268
  8
_________2
 62
     7
 10
71.375959999999992
 20
29.758213000000001
 30
0.0
 40
1.2669559999999991
 50
92.104701000000006
 51
177.8952689999999
  0
ARC
  5
269
  8
_________2
 62
     7
 10
71.376357999999996
 20
29.851671
 30
0.0
 40
1.2673680000000001
 50
182.12203600000001
 51
267.877993
  0
ARC
  5
26A
  8
_________2
 62
     7
 10
71.282531999999989
 20
29.851998999999989
 30
0.0
 40
1.267695999999999
 50
272.12015300000002
 51
357.863674
  0
ARC
  5
26B
  8
_________2
 62
     7
 10
71.329430000000002
 20
29.804742999999998
 30
0.0
 40
2.0849849999999992
 50
0.00001
 51
89.999980000000008
  0
ARC
  5
26C
  8
_________2
 62
     7
 10
71.329603000000006
 20
29.804915000000001
 30
0.0
 40
2.084813
 50
90.004733999999999
 51
180.00474399999999
  0
ARC
  5
26D
  8
_________2
 62
     7
 10
71.409106000000008
 20
29.884775999999999
 30
0.0
 40
2.1657950000000001
 50
182.11776599999999
 51
267.89173399999999
  0
ARC
  5
26E
  8
_________2
 62
     7
 10
71.249459000000002
 20
29.885429999999989
 30
0.0
 40
2.1664590000000001
 50
272.11546800000002
 51
357.86560400000002
  0
TEXT
  5
26F
  8
_________2
 62
     7
 10
104.605
 20
1.6794899999999999
 30
0.0
 40
3.0923400000000001
  1
図番
 41
0.5
  0
LINE
  5
270
  8
_________2
 62
     7
 10
103.55
 20
5.9087199999999989
 30
0.0
 11
183.55099999999999
 21
5.9087199999999989
 31
0.0
  0
TEXT
  5
271
  8
_________2
 62
     7
 10
104.605
 20
11.679299999999991
 30
0.0
 40
3.0923400000000001
  1
品番
 41
0.5
  0
TEXT
  5
272
  8
_________2
 62
     7
 10
104.605
 20
31.818100000000001
 30
0.0
 40
3.0923400000000001
  1
名称
 41
0.5
  0
TEXT
  5
273
  8
_________2
 62
     7
 10
91.845058333333341
 20
26.821999999999989
 30
0.0
 40
3.6545800000000002
  1
mm
 41
0.5
 72
     1
 11
93.367800000000003
 21
26.821999999999989
 31
0.0
  0
TEXT
  5
274
  8
_________2
 62
     7
 10
85.643199999999993
 20
31.818100000000001
 30
0.0
 40
3.0923400000000001
  1
単位
 41
0.5
  0
TEXT
  5
275
  8
_________2
 62
     7
 10
85.643199999999993
 20
19.410799999999991
 30
0.0
 40
3.0923400000000001
  1
尺度
 41
0.5
  0
TEXT
  5
276
  8
_________2
 62
     7
 10
90.548758666666686
 20
13.2179
 30
0.0
 40
3.6545800000000002
  1
1 ： 4
 41
0.5
 72
     1
 11
93.959699999999998
 21
13.2179
 31
0.0
  0
TEXT
  5
277
  8
_________2
 62
     7
 10
133.6779525
 20
9.1078600000000005
 30
0.0
 40
3.9357000000000002
  1
VL.HV1＋170S
 41
0.5
 72
     1
 11
143.55000000000001
 21
9.1078600000000005
 31
0.0
  0
TEXT
  5
278
  8
_________2
 62
     7
 10
135.18663749999999
 20
-0.8926299999999999
 30
0.0
 40
3.9357000000000002
  1
VLHV1170S
 41
0.5
 72
     1
 11
143.55000000000001
 21
-0.8926299999999999
 31
0.0
  0
TEXT
  5
279
  8
_________2
 62
     7
 10
24.5868
 20
0.707283
 30
0.0
 40
3.9357000000000002
  1
（社）日本水道協会認証品
 41
0.5
  0
TEXT
  5
27A
  8
_________2
 62
     7
 10
109.179
 20
24.2257
 30
0.0
 40
3.9357000000000002
  1
湯水混合水栓
 41
0.5
  0
TEXT
  5
27B
  8
_________2
 62
     7
 10
39.425300333333333
 20
13.603
 30
0.0
 40
3.6545800000000002
  1
早川
 41
0.5
 72
     1
 11
41.313499999999998
 21
13.603
 31
0.0
  0
TEXT
  5
27C
  8
_________2
 62
     7
 10
20.790090666666661
 20
13.603
 30
0.0
 40
3.6545800000000002
  1
石原
 41
0.5
 72
     1
 11
22.73919999999999
 21
13.603
 31
0.0
  0
TEXT
  5
27D
  8
_________2
 62
     7
 10
67.785399999999996
 20
13.2179
 30
0.0
 40
3.6545800000000002
  1
14.01.14
 41
0.5
  0
TEXT
  5
27E
  8
_________2
 62
     7
 10
66.593100000000007
 20
19.410799999999991
 30
0.0
 40
3.0923400000000001
  1
日付
 41
0.5
  0
TEXT
  5
27F
  8
_________2
 62
     7
 10
29.639399999999998
 20
19.410799999999991
 30
0.0
 40
3.0923400000000001
  1
検図
 41
0.5
  0
TEXT
  5
280
  8
_________2
 62
     7
 10
18.021100000000001
 20
5.21143
 30
0.0
 40
3.0923400000000001
  1
備考
 41
0.5
  0
TEXT
  5
281
  8
_________2
 62
     7
 10
18.021100000000001
 20
19.410799999999991
 30
0.0
 40
3.0923400000000001
  1
製図
 41
0.5
  0
TEXT
  5
282
  8
_________2
 62
     7
 10
23.788465333333338
 20
27.936800000000002
 30
0.0
 40
4.4979399999999989
  1
セラトレーディング株式会社
 41
0.5
 72
     1
 11
41.180500000000002
 21
27.936800000000002
 31
0.0
  0
LINE
  5
283
  8
_________2
 62
     7
 10
183.55099999999999
 20
-4.0910799999999998
 30
0.0
 11
17.049499999999998
 21
-4.0910799999999998
 31
0.0
  0
LINE
  5
284
  8
_________2
 62
     7
 10
17.049499999999998
 20
-4.0910799999999998
 30
0.0
 11
17.049499999999998
 21
258.911
 31
0.0
  0
LINE
  5
285
  8
_________2
 62
     7
 10
17.049499999999998
 20
258.911
 30
0.0
 11
183.55099999999999
 21
258.911
 31
0.0
  0
LINE
  5
286
  8
_________2
 62
     7
 10
183.55099999999999
 20
258.911
 30
0.0
 11
183.55099999999999
 21
-4.0910799999999998
 31
0.0
  0
LINE
  5
287
  8
_________2
 62
     7
 10
65.549599999999998
 20
9.4089600000000004
 30
0.0
 11
65.549599999999998
 21
35.908799999999999
 31
0.0
  0
LINE
  5
288
  8
_________2
 62
     7
 10
84.549700000000016
 20
9.4089600000000004
 30
0.0
 11
84.549700000000016
 21
35.908799999999999
 31
0.0
  0
LINE
  5
289
  8
_________2
 62
     7
 10
103.55
 20
-4.0910799999999998
 30
0.0
 11
103.55
 21
35.908799999999999
 31
0.0
  0
LINE
  5
28A
  8
_________2
 62
     7
 10
28.549299999999992
 20
9.4089600000000004
 30
0.0
 11
28.549299999999992
 21
23.409199999999998
 31
0.0
  0
LINE
  5
28B
  8
_________2
 62
     7
 10
17.049499999999998
 20
9.4089600000000004
 30
0.0
 11
103.55
 21
9.4089600000000004
 31
0.0
  0
LINE
  5
28C
  8
_________2
 62
     7
 10
17.049499999999998
 20
23.409199999999998
 30
0.0
 11
103.55
 21
23.409199999999998
 31
0.0
  0
LINE
  5
28D
  8
_________2
 62
     7
 10
103.55
 20
15.9085
 30
0.0
 11
183.55099999999999
 21
15.9085
 31
0.0
  0
LINE
  5
28E
  8
_________2
 62
     7
 10
17.049499999999998
 20
35.908799999999999
 30
0.0
 11
183.55099999999999
 21
35.908799999999999
 31
0.0
  0
ENDSEC
  0
EOF
