  0
SECTION
  2
HEADER
  9
$ACADVER
  1
AC1009
  9
$INSBASE
 10
0.0
 20
0.0
 30
0.0
  9
$EXTMIN
 10
-4.7012099999999988
 20
-21.071000000000002
 30
0.0
  9
$EXTMAX
 10
205.30099999999999
 20
275.93099999999998
 30
0.0
  9
$LIMMIN
 10
0.0
 20
0.0
  9
$LIMMAX
 10
12.0
 20
9.0
  9
$ORTHOMODE
 70
     0
  9
$REGENMODE
 70
     1
  9
$FILLMODE
 70
     1
  9
$QTEXTMODE
 70
     0
  9
$MIRRTEXT
 70
     1
  9
$DRAGMODE
 70
     2
  9
$LTSCALE
 40
1.0
  9
$OSMODE
 70
    37
  9
$ATTMODE
 70
     1
  9
$TEXTSIZE
 40
0.0
  9
$TRACEWID
 40
0.05
  9
$TEXTSTYLE
  7
STANDARD
  9
$CLAYER
  8
0
  9
$CELTYPE
  6
CONTINUOUS
  9
$CECOLOR
 62
   256
  9
$DIMSCALE
 40
1.0
  9
$DIMASZ
 40
0.18
  9
$DIMEXO
 40
0.0625
  9
$DIMDLI
 40
0.38
  9
$DIMRND
 40
0.0
  9
$DIMDLE
 40
0.0
  9
$DIMEXE
 40
0.18
  9
$DIMTP
 40
0.0
  9
$DIMTM
 40
0.0
  9
$DIMTXT
 40
0.18
  9
$DIMCEN
 40
0.09
  9
$DIMTSZ
 40
0.0
  9
$DIMTOL
 70
     0
  9
$DIMLIM
 70
     0
  9
$DIMTIH
 70
     1
  9
$DIMTOH
 70
     1
  9
$DIMSE1
 70
     0
  9
$DIMSE2
 70
     0
  9
$DIMTAD
 70
     0
  9
$DIMZIN
 70
     0
  9
$DIMBLK
  1

  9
$DIMASO
 70
     1
  9
$DIMSHO
 70
     1
  9
$DIMPOST
  1

  9
$DIMAPOST
  1

  9
$DIMALT
 70
     0
  9
$DIMALTD
 70
     2
  9
$DIMALTF
 40
25.399999999999999
  9
$DIMLFAC
 40
1.0
  9
$DIMTOFL
 70
     0
  9
$DIMTVP
 40
0.0
  9
$DIMTIX
 70
     0
  9
$DIMSOXD
 70
     0
  9
$DIMSAH
 70
     0
  9
$DIMBLK1
  1

  9
$DIMBLK2
  1

  9
$DIMSTYLE
  2
STANDARD
  9
$DIMCLRD
 70
     0
  9
$DIMCLRE
 70
     0
  9
$DIMCLRT
 70
     0
  9
$DIMTFAC
 40
1.0
  9
$DIMGAP
 40
0.09
  9
$LUNITS
 70
     2
  9
$LUPREC
 70
     4
  9
$SKETCHINC
 40
0.1
  9
$FILLETRAD
 40
0.0
  9
$AUNITS
 70
     0
  9
$AUPREC
 70
     0
  9
$MENU
  1
.
  9
$ELEVATION
 40
0.0
  9
$PELEVATION
 40
0.0
  9
$THICKNESS
 40
0.0
  9
$LIMCHECK
 70
     0
  9
$BLIPMODE
 70
     0
  9
$CHAMFERA
 40
0.0
  9
$CHAMFERB
 40
0.0
  9
$SKPOLY
 70
     0
  9
$TDCREATE
 40
2444972.375
  9
$TDUPDATE
 40
2457130.2512984839
  9
$TDINDWG
 40
0.0000279051
  9
$TDUSRTIMER
 40
0.0000279051
  9
$USRTIMER
 70
     1
  9
$ANGBASE
 50
0.0
  9
$ANGDIR
 70
     0
  9
$PDMODE
 70
     0
  9
$PDSIZE
 40
0.0
  9
$PLINEWID
 40
0.0
  9
$COORDS
 70
     1
  9
$SPLFRAME
 70
     0
  9
$SPLINETYPE
 70
     6
  9
$SPLINESEGS
 70
     8
  9
$ATTDIA
 70
     1
  9
$ATTREQ
 70
     1
  9
$HANDLING
 70
     1
  9
$HANDSEED
  5
1DD
  9
$SURFTAB1
 70
     6
  9
$SURFTAB2
 70
     6
  9
$SURFTYPE
 70
     6
  9
$SURFU
 70
     6
  9
$SURFV
 70
     6
  9
$UCSNAME
  2

  9
$UCSORG
 10
0.0
 20
0.0
 30
0.0
  9
$UCSXDIR
 10
1.0
 20
0.0
 30
0.0
  9
$UCSYDIR
 10
0.0
 20
1.0
 30
0.0
  9
$PUCSNAME
  2

  9
$PUCSORG
 10
0.0
 20
0.0
 30
0.0
  9
$PUCSXDIR
 10
1.0
 20
0.0
 30
0.0
  9
$PUCSYDIR
 10
0.0
 20
1.0
 30
0.0
  9
$USERI1
 70
     0
  9
$USERI2
 70
     0
  9
$USERI3
 70
     0
  9
$USERI4
 70
     0
  9
$USERI5
 70
     0
  9
$USERR1
 40
0.0
  9
$USERR2
 40
0.0
  9
$USERR3
 40
0.0
  9
$USERR4
 40
0.0
  9
$USERR5
 40
0.0
  9
$WORLDVIEW
 70
     1
  9
$SHADEDGE
 70
     3
  9
$SHADEDIF
 70
    70
  9
$TILEMODE
 70
     1
  9
$MAXACTVP
 70
    48
  9
$PLIMCHECK
 70
     0
  9
$PEXTMIN
 10
1.0000000000000000E+020
 20
1.0000000000000000E+020
 30
1.0000000000000000E+020
  9
$PEXTMAX
 10
-1.0000000000000000E+020
 20
-1.0000000000000000E+020
 30
-1.0000000000000000E+020
  9
$PLIMMIN
 10
0.0
 20
0.0
  9
$PLIMMAX
 10
12.0
 20
9.0
  9
$UNITMODE
 70
     0
  9
$VISRETAIN
 70
     1
  9
$PLINEGEN
 70
     0
  9
$PSLTSCALE
 70
     1
  0
ENDSEC
  0
SECTION
  2
TABLES
  0
TABLE
  2
VPORT
 70
     1
  0
VPORT
  2
*ACTIVE
 70
     0
 10
0.0
 20
0.0
 11
1.0
 21
1.0
 12
162.69032485810371
 22
127.42999999999989
 13
0.0
 23
0.0
 14
1.0
 24
1.0
 15
0.0
 25
0.0
 16
0.0
 26
0.0
 36
1.0
 17
0.0
 27
0.0
 37
0.0
 40
289.76665825221693
 41
2.1063583815028899
 42
50.0
 43
0.0
 44
0.0
 50
0.0
 51
0.0
 71
     0
 72
   100
 73
     1
 74
     1
 75
     0
 76
     0
 77
     0
 78
     0
  0
ENDTAB
  0
TABLE
  2
LTYPE
 70
     4
  0
LTYPE
  2
CONTINUOUS
 70
     0
  3
Solid line
 72
    65
 73
     0
 40
0.0
  0
LTYPE
  2
AIGENLINE001
 70
     0
  3
generate AI->DXF Converter
 72
    65
 73
     2
 40
1.5522299999999991
 49
0.776115
 49
-0.776115
  0
LTYPE
  2
AIGENLINE002
 70
     0
  3
generate AI->DXF Converter
 72
    65
 73
     2
 40
0.9999879999999999
 49
0.499994
 49
-0.499994
  0
LTYPE
  2
AIGENLINE003
 70
     0
  3
generate AI->DXF Converter
 72
    65
 73
     4
 40
5.8561449999999988
 49
3.5278
 49
-0.776115
 49
0.776115
 49
-0.776115
  0
ENDTAB
  0
TABLE
  2
LAYER
 70
     2
  0
LAYER
  2
0
 70
     0
 62
     7
  6
CONTINUOUS
  0
LAYER
  2
_________2
 70
     0
 62
     7
  6
CONTINUOUS
  0
ENDTAB
  0
TABLE
  2
STYLE
 70
     1
  0
STYLE
  2
STANDARD
 70
     0
 40
0.0
 41
0.0
 50
0.0
 71
     0
 42
0.0
  3
TXT
  4
EXTFONT.SHX
  0
ENDTAB
  0
TABLE
  2
VIEW
 70
     0
  0
ENDTAB
  0
TABLE
  2
UCS
 70
     0
  0
ENDTAB
  0
TABLE
  2
APPID
 70
     3
  0
APPID
  2
ACAD
 70
     0
  0
APPID
  2
ACAD_NAV_VCDISPLAY
 70
     0
  0
APPID
  2
ACAD_MLEADERVER
 70
     0
  0
ENDTAB
  0
TABLE
  2
DIMSTYLE
 70
     1
  0
DIMSTYLE
  2
STANDARD
 70
     0
  3

  4

  5

  6

  7

 40
1.0
 41
0.18
 42
0.0625
 43
0.38
 44
0.18
 45
0.0
 46
0.0
 47
0.0
 48
0.0
140
0.18
141
0.09
142
0.0
143
25.399999999999999
144
1.0
145
0.0
146
1.0
147
0.09
 71
     0
 72
     0
 73
     1
 74
     1
 75
     0
 76
     0
 77
     0
 78
     0
170
     0
171
     2
172
     0
173
     0
174
     0
175
     0
176
     0
177
     0
178
     0
  0
ENDTAB
  0
ENDSEC
  0
SECTION
  2
BLOCKS
  0
BLOCK
  8
0
  2
$MODEL_SPACE
 70
     0
 10
0.0
 20
0.0
 30
0.0
  3
$MODEL_SPACE
  1

  0
ENDBLK
  5
1A
  8
0
  0
BLOCK
 67
     1
  8
0
  2
$PAPER_SPACE
 70
     0
 10
0.0
 20
0.0
 30
0.0
  3
$PAPER_SPACE
  1

  0
ENDBLK
  5
17
 67
     1
  8
0
  0
ENDSEC
  0
SECTION
  2
ENTITIES
  0
TEXT
  5
24
  8
0
 62
     7
 10
136.33009311662479
 20
171.25109311662479
 30
0.0
 40
3.660169999999999
  1
%%c362
 50
45.0
 41
0.5
 72
     2
 11
141.07499999999999
 21
175.9959999999999
 31
0.0
  0
TEXT
  5
25
  8
0
 62
     7
 10
98.089900833333346
 20
136.64599999999999
 30
0.0
 40
3.660169999999999
  1
10
 41
0.5
 72
     2
 11
100.22499999999999
 21
136.64599999999999
 31
0.0
  0
TEXT
  5
26
  8
0
 62
     7
 10
21.385200000000001
 20
136.64599999999999
 30
0.0
 40
3.660169999999999
  1
10
 41
0.5
  0
TEXT
  5
27
  8
0
 62
     7
 10
57.810751250000003
 20
136.64599999999999
 30
0.0
 40
3.660169999999999
  1
%%c380
 41
0.5
 72
     1
 11
61.013399999999997
 21
136.64599999999999
 31
0.0
  0
TEXT
  5
28
  8
0
 62
     7
 10
57.962858333333337
 20
129.91900000000001
 30
0.0
 40
3.660169999999999
  1
%%c400
 41
0.5
 72
     1
 11
61.013000000000012
 21
129.91900000000001
 31
0.0
  0
TEXT
  5
29
  8
0
 62
     7
 10
107.369
 20
98.988407916666674
 30
0.0
 40
3.660169999999999
  1
140
 50
90.0
 41
0.5
 72
     1
 11
107.369
 21
100.971
 31
0.0
  0
TEXT
  5
2A
  8
0
 62
     7
 10
100.429
 20
105.6959291666667
 30
0.0
 40
3.660169999999999
  1
65
 50
90.0
 41
0.5
 72
     1
 11
100.429
 21
107.221
 31
0.0
  0
TEXT
  5
2B
  8
0
 62
     7
 10
57.962858333333337
 20
79.886099999999999
 30
0.0
 40
3.660169999999999
  1
%%c200
 41
0.5
 72
     1
 11
61.013000000000012
 21
79.886099999999999
 31
0.0
  0
TEXT
  5
2C
  8
0
 62
     7
 10
142.381
 20
104.0444220833333
 30
0.0
 40
3.660169999999999
  1
110
 50
90.0
 41
0.5
 72
     1
 11
142.381
 21
105.72199999999999
 31
0.0
  0
TEXT
  5
2D
  8
0
 62
     7
 10
135.53454666666661
 20
138.244
 30
0.0
 40
3.660169999999999
  1
カウンター切込寸法
 41
0.5
 72
     1
 11
145.29499999999999
 21
138.244
 31
0.0
  0
ARC
  5
2E
  8
0
  6
AIGENLINE001
 62
     7
 10
-559.40302699999995
 20
196.47339600000001
 30
0.0
 40
741.12166200000001
 50
353.43049100000002
 51
353.50475
  0
ARC
  5
2F
  8
0
  6
AIGENLINE001
 62
     7
 10
160.50275999999999
 20
113.774626
 30
0.0
 40
16.482792
 50
346.43893800000001
 51
352.70887099999999
  0
ARC
  5
30
  8
0
  6
AIGENLINE001
 62
     7
 10
163.32261199999999
 20
113.190034
 30
0.0
 40
13.604797
 50
322.61476800000003
 51
346.04765400000002
  0
ARC
  5
31
  8
0
  6
AIGENLINE001
 62
     7
 10
161.16532699999999
 20
114.709863
 30
0.0
 40
16.242031000000001
 50
313.16748100000001
 51
322.97539699999999
  0
ARC
  5
32
  8
0
  6
AIGENLINE001
 62
     7
 10
158.57905199999999
 20
117.33823099999999
 30
0.0
 40
19.928602000000001
 50
305.64788900000002
 51
313.42095899999998
  0
ARC
  5
33
  8
0
  6
AIGENLINE001
 62
     7
 10
155.48850100000001
 20
121.484809
 30
0.0
 40
25.099527999999999
 50
298.71363400000001
 51
305.86427099999997
  0
ARC
  5
34
  8
0
  6
AIGENLINE001
 62
     7
 10
151.71196599999999
 20
128.102025
 30
0.0
 40
32.717677000000002
 50
292.56770799999998
 51
298.94657899999999
  0
ARC
  5
35
  8
0
  6
AIGENLINE001
 62
     7
 10
147.75546399999999
 20
137.171829
 30
0.0
 40
42.611733000000001
 50
288.310654
 51
292.80002400000001
  0
ARC
  5
36
  8
0
  6
AIGENLINE001
 62
     7
 10
144.10475600000001
 20
147.82670200000001
 30
0.0
 40
53.874187999999997
 50
284.43227899999999
 51
288.43660899999998
  0
ARC
  5
37
  8
0
  6
AIGENLINE001
 62
     7
 10
140.40538100000001
 20
161.652083
 30
0.0
 40
68.185431999999992
 50
280.98700700000001
 51
284.547282
  0
ARC
  5
38
  8
0
  6
AIGENLINE001
 62
     7
 10
137.45655199999999
 20
175.99635599999999
 30
0.0
 40
82.82894499999999
 50
279.50075700000002
 51
281.09834699999999
  0
LINE
  5
39
  8
0
  6
AIGENLINE001
 62
     7
 10
151.12799999999999
 20
94.3035
 30
0.0
 11
149.12799999999999
 21
90.970699999999994
 31
0.0
  0
LINE
  5
3A
  8
0
  6
AIGENLINE001
 62
     7
 10
151.12799999999999
 20
94.3035
 30
0.0
 11
145.29499999999999
 21
94.3035
 31
0.0
  0
LINE
  5
3B
  8
0
  6
AIGENLINE001
 62
     7
 10
149.12799999999999
 20
90.970699999999994
 30
0.0
 11
145.29499999999999
 21
90.970699999999994
 31
0.0
  0
LINE
  5
3C
  8
0
  6
AIGENLINE002
 62
     7
 10
149.12799999999999
 20
90.970699999999994
 30
0.0
 11
149.12799999999999
 21
89.304000000000002
 31
0.0
  0
ARC
  5
3D
  8
0
  6
AIGENLINE001
 62
     7
 10
849.99281199999984
 20
196.47339600000001
 30
0.0
 40
741.12166200000001
 50
186.49527
 51
186.56952899999999
  0
ARC
  5
3E
  8
0
  6
AIGENLINE001
 62
     7
 10
130.08702400000001
 20
113.774626
 30
0.0
 40
16.482792
 50
187.29114899999999
 51
193.561081
  0
ARC
  5
3F
  8
0
  6
AIGENLINE001
 62
     7
 10
127.267173
 20
113.190034
 30
0.0
 40
13.604797
 50
193.95236600000001
 51
217.38525100000001
  0
ARC
  5
40
  8
0
  6
AIGENLINE001
 62
     7
 10
129.42445699999999
 20
114.709863
 30
0.0
 40
16.242031000000001
 50
217.02462299999999
 51
226.832538
  0
ARC
  5
41
  8
0
  6
AIGENLINE001
 62
     7
 10
132.01073299999999
 20
117.33823099999999
 30
0.0
 40
19.928602000000001
 50
226.579061
 51
234.35212999999999
  0
ARC
  5
42
  8
0
  6
AIGENLINE001
 62
     7
 10
135.10128399999999
 20
121.484809
 30
0.0
 40
25.099527999999999
 50
234.135749
 51
241.28638599999999
  0
ARC
  5
43
  8
0
  6
AIGENLINE001
 62
     7
 10
138.87781899999999
 20
128.102025
 30
0.0
 40
32.717677000000002
 50
241.05343999999999
 51
247.432312
  0
ARC
  5
44
  8
0
  6
AIGENLINE001
 62
     7
 10
142.83431999999999
 20
137.171829
 30
0.0
 40
42.611733000000001
 50
247.19999500000009
 51
251.68936600000001
  0
ARC
  5
45
  8
0
  6
AIGENLINE001
 62
     7
 10
146.485028
 20
147.82670200000001
 30
0.0
 40
53.874187999999997
 50
251.563411
 51
255.56774100000001
  0
ARC
  5
46
  8
0
  6
AIGENLINE001
 62
     7
 10
150.184403
 20
161.652083
 30
0.0
 40
68.185431999999992
 50
255.45273800000001
 51
259.013013
  0
ARC
  5
47
  8
0
  6
AIGENLINE001
 62
     7
 10
153.13323299999999
 20
175.99635599999999
 30
0.0
 40
82.82894499999999
 50
258.90167300000002
 51
260.49926299999998
  0
LINE
  5
48
  8
0
  6
AIGENLINE001
 62
     7
 10
139.46100000000001
 20
94.3035
 30
0.0
 11
141.46199999999999
 21
90.970699999999994
 31
0.0
  0
LINE
  5
49
  8
0
  6
AIGENLINE001
 62
     7
 10
139.46100000000001
 20
94.3035
 30
0.0
 11
145.29499999999999
 21
94.3035
 31
0.0
  0
LINE
  5
4A
  8
0
  6
AIGENLINE001
 62
     7
 10
141.46199999999999
 20
90.970699999999994
 30
0.0
 11
145.29499999999999
 21
90.970699999999994
 31
0.0
  0
LINE
  5
4B
  8
0
  6
AIGENLINE002
 62
     7
 10
141.46199999999999
 20
90.970699999999994
 30
0.0
 11
141.46199999999999
 21
89.304000000000002
 31
0.0
  0
LINE
  5
4C
  8
0
 62
     7
 10
162.91499999999999
 20
94.183000000000007
 30
0.0
 11
145.29499999999999
 21
94.183000000000007
 31
0.0
  0
LINE
  5
4D
  8
0
 62
     7
 10
176.45599999999999
 20
101.804
 30
0.0
 11
145.29499999999999
 21
101.804
 31
0.0
  0
ARC
  5
4E
  8
0
 62
     7
 10
138.18301
 20
112.987303
 30
0.0
 40
40.462006000000002
 50
345.961052
 51
358.335937
  0
ARC
  5
4F
  8
0
 62
     7
 10
143.73854
 20
111.730948
 30
0.0
 40
34.767885
 50
344.41555099999999
 51
345.74873000000002
  0
ARC
  5
50
  8
0
 62
     7
 10
177.79562999999999
 20
111.804395
 30
0.0
 40
0.8332440000000001
 50
2.132210999999999
 51
87.892396000000005
  0
ARC
  5
51
  8
0
 62
     7
 10
177.97242
 20
111.833642
 30
0.0
 40
0.6558790000000001
 50
358.13653599999998
 51
0.153269
  0
ARC
  5
52
  8
0
 62
     7
 10
176.43941699999999
 20
102.62739999999999
 30
0.0
 40
0.8236589999999999
 50
271.14011299999999
 51
343.267336
  0
LINE
  5
53
  8
0
 62
     7
 10
161.96199999999999
 20
89.304000000000002
 30
0.0
 11
145.29499999999999
 21
89.304000000000002
 31
0.0
  0
LINE
  5
54
  8
0
 62
     7
 10
177.82599999999999
 20
112.637
 30
0.0
 11
145.29499999999999
 21
112.637
 31
0.0
  0
ARC
  5
55
  8
0
 62
     7
 10
175.35113000000001
 20
100.989163
 30
0.0
 40
0.814764
 50
90.424074000000005
 51
139.46863400000001
  0
ARC
  5
56
  8
0
 62
     7
 10
161.83856399999999
 20
112.39345400000001
 30
0.0
 40
16.867089
 50
301.27058899999997
 51
319.85418299999998
  0
ARC
  5
57
  8
0
 62
     7
 10
163.16203899999999
 20
93.570561999999995
 30
0.0
 40
0.6603050000000001
 50
111.95955600000001
 51
175.133871
  0
ARC
  5
58
  8
0
 62
     7
 10
145.194682
 20
139.83819
 30
0.0
 40
48.964320000000001
 50
296.79974299999998
 51
301.24710099999999
  0
ARC
  5
59
  8
0
 62
     7
 10
144.299105
 20
141.192521
 30
0.0
 40
50.577323
 50
293.34738099999998
 51
297.01356399999997
  0
ARC
  5
5A
  8
0
 62
     7
 10
150.97500500000001
 20
125.975476
 30
0.0
 40
33.960718
 50
290.58435800000001
 51
293.18088999999998
  0
LINE
  5
5B
  8
0
 62
     7
 10
161.96700000000001
 20
89.304000000000002
 30
0.0
 11
162.50399999999999
 21
93.626599999999996
 31
0.0
  0
LINE
  5
5C
  8
0
 62
     7
 10
127.675
 20
94.183000000000007
 30
0.0
 11
145.29499999999999
 21
94.183000000000007
 31
0.0
  0
LINE
  5
5D
  8
0
 62
     7
 10
114.134
 20
101.804
 30
0.0
 11
145.29499999999999
 21
101.804
 31
0.0
  0
ARC
  5
5E
  8
0
 62
     7
 10
152.40677400000001
 20
112.987303
 30
0.0
 40
40.462006000000002
 50
181.66408300000001
 51
194.03896800000001
  0
ARC
  5
5F
  8
0
 62
     7
 10
146.85124500000001
 20
111.730948
 30
0.0
 40
34.767885
 50
194.25129000000001
 51
195.58446900000001
  0
ARC
  5
60
  8
0
 62
     7
 10
112.794155
 20
111.804395
 30
0.0
 40
0.8332440000000001
 50
92.107584000000017
 51
177.86776900000001
  0
ARC
  5
61
  8
0
 62
     7
 10
112.617352
 20
111.833642
 30
0.0
 40
0.655866
 50
179.84669099999999
 51
181.86350300000001
  0
ARC
  5
62
  8
0
 62
     7
 10
114.150367
 20
102.62739999999999
 30
0.0
 40
0.8236589999999999
 50
196.73268400000001
 51
268.85990600000002
  0
LINE
  5
63
  8
0
 62
     7
 10
128.62799999999999
 20
89.304000000000002
 30
0.0
 11
145.29499999999999
 21
89.304000000000002
 31
0.0
  0
LINE
  5
64
  8
0
 62
     7
 10
112.764
 20
112.637
 30
0.0
 11
145.29499999999999
 21
112.637
 31
0.0
  0
ARC
  5
65
  8
0
 62
     7
 10
115.238654
 20
100.989163
 30
0.0
 40
0.814764
 50
40.531345999999992
 51
89.575906000000003
  0
ARC
  5
66
  8
0
 62
     7
 10
128.764276
 20
112.40870700000001
 30
0.0
 40
16.886904000000001
 50
220.156836
 51
238.71843200000001
  0
ARC
  5
67
  8
0
 62
     7
 10
127.427745
 20
93.570561999999995
 30
0.0
 40
0.6603050000000001
 50
4.8661089999999989
 51
68.040424999999999
  0
ARC
  5
68
  8
0
 62
     7
 10
145.38577000000001
 20
139.82278600000001
 30
0.0
 40
48.946309999999997
 50
238.752906
 51
243.202023
  0
ARC
  5
69
  8
0
 62
     7
 10
146.28971899999999
 20
141.19038399999999
 30
0.0
 40
50.57492899999999
 50
242.98644400000001
 51
246.65281200000001
  0
ARC
  5
6A
  8
0
 62
     7
 10
139.62237300000001
 20
125.99137
 30
0.0
 40
33.978265999999998
 50
246.81810899999999
 51
249.41309799999999
  0
LINE
  5
6B
  8
0
 62
     7
 10
128.62299999999999
 20
89.304000000000002
 30
0.0
 11
128.08600000000001
 21
93.626599999999996
 31
0.0
  0
LINE
  5
6C
  8
0
  6
AIGENLINE003
 62
     7
 10
145.29499999999999
 20
115.971
 30
0.0
 11
145.29499999999999
 21
85.970500000000015
 31
0.0
  0
LINE
  5
6D
  8
0
 62
     7
 10
78.633300000000006
 20
94.183000000000007
 30
0.0
 11
61.013399999999997
 21
94.183000000000007
 31
0.0
  0
LINE
  5
6E
  8
0
 62
     7
 10
92.174499999999995
 20
101.804
 30
0.0
 11
61.013399999999997
 21
101.804
 31
0.0
  0
ARC
  5
6F
  8
0
 62
     7
 10
53.901662000000002
 20
112.987303
 30
0.0
 40
40.462006000000002
 50
345.961052
 51
358.335937
  0
ARC
  5
70
  8
0
 62
     7
 10
59.457191000000002
 20
111.730948
 30
0.0
 40
34.767885
 50
344.41555099999999
 51
345.74873000000002
  0
ARC
  5
71
  8
0
 62
     7
 10
93.513956000000007
 20
111.804057
 30
0.0
 40
0.8335820000000001
 50
2.1546529999999988
 51
87.894559999999984
  0
ARC
  5
72
  8
0
 62
     7
 10
93.691070999999994
 20
111.833642
 30
0.0
 40
0.6558790000000001
 50
358.13653599999998
 51
0.153269
  0
ARC
  5
73
  8
0
 62
     7
 10
92.157120999999989
 20
102.628647
 30
0.0
 40
0.8249249999999999
 50
271.20415300000002
 51
343.20329700000002
  0
LINE
  5
74
  8
0
 62
     7
 10
77.680300000000003
 20
89.304000000000002
 30
0.0
 11
61.013399999999997
 21
89.304000000000002
 31
0.0
  0
LINE
  5
75
  8
0
 62
     7
 10
93.544600000000017
 20
112.637
 30
0.0
 11
61.013399999999997
 21
112.637
 31
0.0
  0
ARC
  5
76
  8
0
 62
     7
 10
91.06944
 20
100.98915
 30
0.0
 40
0.814774
 50
90.400021999999993
 51
139.46807899999999
  0
ARC
  5
77
  8
0
 62
     7
 10
77.556871000000001
 20
112.39345400000001
 30
0.0
 40
16.867089
 50
301.27058899999997
 51
319.85418299999998
  0
ARC
  5
78
  8
0
 62
     7
 10
78.879002
 20
93.571833999999996
 30
0.0
 40
0.6586870000000001
 50
111.906395
 51
175.23295100000001
  0
ARC
  5
79
  8
0
 62
     7
 10
60.964151000000001
 20
139.74520699999999
 30
0.0
 40
48.858285999999993
 50
296.79541999999998
 51
301.25236899999999
  0
ARC
  5
7A
  8
0
 62
     7
 10
60.023575000000001
 20
141.18237099999999
 30
0.0
 40
50.565511000000001
 50
293.345393
 51
297.012632
  0
ARC
  5
7B
  8
0
 62
     7
 10
66.693058999999991
 20
125.976682
 30
0.0
 40
33.961874999999999
 50
290.58377100000001
 51
293.18028199999998
  0
LINE
  5
7C
  8
0
 62
     7
 10
77.685500000000005
 20
89.304000000000002
 30
0.0
 11
78.222599999999986
 21
93.626599999999996
 31
0.0
  0
LINE
  5
7D
  8
0
 62
     7
 10
43.393500000000003
 20
94.183000000000007
 30
0.0
 11
61.013399999999997
 21
94.183000000000007
 31
0.0
  0
LINE
  5
7E
  8
0
 62
     7
 10
29.852599999999999
 20
101.804
 30
0.0
 11
61.013399999999997
 21
101.804
 31
0.0
  0
ARC
  5
7F
  8
0
 62
     7
 10
68.139436000000003
 20
112.987718
 30
0.0
 40
40.476022
 50
181.664095
 51
194.03461200000001
  0
ARC
  5
80
  8
0
 62
     7
 10
62.562798000000001
 20
111.728685
 30
0.0
 40
34.760771000000013
 50
194.25041899999999
 51
195.583866
  0
ARC
  5
81
  8
0
 62
     7
 10
28.512796000000002
 20
111.804405
 30
0.0
 40
0.833233
 50
92.106925000000004
 51
177.86842799999999
  0
ARC
  5
82
  8
0
 62
     7
 10
28.336003000000002
 20
111.833642
 30
0.0
 40
0.655866
 50
179.84669099999999
 51
181.86350300000001
  0
ARC
  5
83
  8
0
 62
     7
 10
29.869629
 20
102.62866699999999
 30
0.0
 40
0.8249379999999998
 50
196.797898
 51
268.8193
  0
LINE
  5
84
  8
0
 62
     7
 10
44.346400000000003
 20
89.304000000000002
 30
0.0
 11
61.013399999999997
 21
89.304000000000002
 31
0.0
  0
LINE
  5
85
  8
0
 62
     7
 10
28.482199999999999
 20
112.637
 30
0.0
 11
61.013399999999997
 21
112.637
 31
0.0
  0
ARC
  5
86
  8
0
 62
     7
 10
30.957892999999999
 20
100.990427
 30
0.0
 40
0.8134959999999999
 50
40.490605999999993
 51
89.616646000000003
  0
ARC
  5
87
  8
0
 62
     7
 10
44.469871999999988
 20
112.39345400000001
 30
0.0
 40
16.867089
 50
220.145837
 51
238.72943100000009
  0
ARC
  5
88
  8
0
 62
     7
 10
43.147741000000003
 20
93.571833999999996
 30
0.0
 40
0.6586870000000001
 50
4.7670300000000001
 51
68.093585000000004
  0
ARC
  5
89
  8
0
 62
     7
 10
61.107813999999998
 20
139.82838599999999
 30
0.0
 40
48.952857000000002
 50
238.75291100000001
 51
243.20138800000001
  0
ARC
  5
8A
  8
0
 62
     7
 10
62.005755000000008
 20
141.18593200000001
 30
0.0
 40
50.569794999999999
 50
242.98675
 51
246.65356199999999
  0
ARC
  5
8B
  8
0
 62
     7
 10
55.334612
 20
125.97836599999999
 30
0.0
 40
33.963777
 50
246.81945899999999
 51
249.41578200000001
  0
LINE
  5
8C
  8
0
 62
     7
 10
44.3416
 20
89.304000000000002
 30
0.0
 11
43.804099999999998
 21
93.626599999999996
 31
0.0
  0
LINE
  5
8D
  8
0
  6
AIGENLINE003
 62
     7
 10
61.013399999999997
 20
115.971
 30
0.0
 11
61.013399999999997
 21
85.970500000000015
 31
0.0
  0
LINE
  5
8E
  8
0
 62
     7
 10
92.680199999999985
 20
135.946
 30
0.0
 11
100.22499999999999
 21
135.946
 31
0.0
  0
LINE
  5
8F
  8
0
 62
     7
 10
96.558400000000006
 20
135.36000000000001
 30
0.0
 11
94.346900000000005
 21
135.953
 31
0.0
  0
LINE
  5
90
  8
0
 62
     7
 10
94.346900000000005
 20
135.953
 30
0.0
 11
96.558400000000006
 21
136.54599999999999
 31
0.0
  0
LINE
  5
91
  8
0
 62
     7
 10
96.558400000000006
 20
136.54599999999999
 30
0.0
 11
96.558400000000006
 21
135.36000000000001
 31
0.0
  0
LINE
  5
92
  8
0
 62
     7
 10
29.346900000000002
 20
135.946
 30
0.0
 11
21.802099999999999
 21
135.946
 31
0.0
  0
LINE
  5
93
  8
0
 62
     7
 10
25.468699999999998
 20
135.36000000000001
 30
0.0
 11
27.680099999999999
 21
135.953
 31
0.0
  0
LINE
  5
94
  8
0
 62
     7
 10
27.680099999999999
 20
135.953
 30
0.0
 11
25.468699999999998
 21
136.54599999999999
 31
0.0
  0
LINE
  5
95
  8
0
 62
     7
 10
25.468699999999998
 20
136.54599999999999
 30
0.0
 11
25.468699999999998
 21
135.36000000000001
 31
0.0
  0
LINE
  5
96
  8
0
 62
     7
 10
90.468799999999987
 20
135.36000000000001
 30
0.0
 11
92.680199999999985
 21
135.953
 31
0.0
  0
LINE
  5
97
  8
0
 62
     7
 10
92.680199999999985
 20
135.953
 30
0.0
 11
90.468799999999987
 21
136.54599999999999
 31
0.0
  0
LINE
  5
98
  8
0
 62
     7
 10
90.468799999999987
 20
136.54599999999999
 30
0.0
 11
90.468799999999987
 21
135.36000000000001
 31
0.0
  0
LINE
  5
99
  8
0
 62
     7
 10
31.558700000000002
 20
136.53100000000001
 30
0.0
 11
29.346900000000002
 21
135.93799999999999
 31
0.0
  0
LINE
  5
9A
  8
0
 62
     7
 10
29.346900000000002
 20
135.93799999999999
 30
0.0
 11
31.558700000000002
 21
135.346
 31
0.0
  0
LINE
  5
9B
  8
0
 62
     7
 10
31.558700000000002
 20
135.346
 30
0.0
 11
31.558700000000002
 21
136.53100000000001
 31
0.0
  0
LINE
  5
9C
  8
0
 62
     7
 10
92.680199999999985
 20
135.946
 30
0.0
 11
29.346900000000002
 21
135.946
 31
0.0
  0
LINE
  5
9D
  8
0
 62
     7
 10
92.135499999999993
 20
128.63399999999999
 30
0.0
 11
94.346900000000005
 21
129.226
 31
0.0
  0
LINE
  5
9E
  8
0
 62
     7
 10
94.346900000000005
 20
129.226
 30
0.0
 11
92.135499999999993
 21
129.81899999999999
 31
0.0
  0
LINE
  5
9F
  8
0
 62
     7
 10
92.135499999999993
 20
129.81899999999999
 30
0.0
 11
92.135499999999993
 21
128.63399999999999
 31
0.0
  0
LINE
  5
A0
  8
0
 62
     7
 10
29.8916
 20
129.804
 30
0.0
 11
27.6798
 21
129.21199999999999
 31
0.0
  0
LINE
  5
A1
  8
0
 62
     7
 10
27.6798
 20
129.21199999999999
 30
0.0
 11
29.8916
 21
128.619
 31
0.0
  0
LINE
  5
A2
  8
0
 62
     7
 10
29.8916
 20
128.619
 30
0.0
 11
29.8916
 21
129.804
 31
0.0
  0
LINE
  5
A3
  8
0
 62
     7
 10
94.346900000000005
 20
129.21899999999999
 30
0.0
 11
27.6798
 21
129.21899999999999
 31
0.0
  0
LINE
  5
A4
  8
0
 62
     7
 10
29.346499999999999
 20
174.155
 30
0.0
 11
29.346499999999999
 21
135.24600000000001
 31
0.0
  0
LINE
  5
A5
  8
0
 62
     7
 10
27.680099999999999
 20
174.155
 30
0.0
 11
27.680099999999999
 21
128.512
 31
0.0
  0
LINE
  5
A6
  8
0
 62
     7
 10
92.680199999999985
 20
174.155
 30
0.0
 11
92.680199999999985
 21
135.24600000000001
 31
0.0
  0
LINE
  5
A7
  8
0
 62
     7
 10
94.346900000000005
 20
174.155
 30
0.0
 11
94.346900000000005
 21
128.52600000000001
 31
0.0
  0
LINE
  5
A8
  8
0
 62
     7
 10
108.655
 20
110.426
 30
0.0
 11
108.062
 21
112.63800000000001
 31
0.0
  0
LINE
  5
A9
  8
0
 62
     7
 10
108.062
 20
112.63800000000001
 30
0.0
 11
107.47
 21
110.426
 31
0.0
  0
LINE
  5
AA
  8
0
 62
     7
 10
107.47
 20
110.426
 30
0.0
 11
108.655
 21
110.426
 31
0.0
  0
LINE
  5
AB
  8
0
 62
     7
 10
107.48399999999999
 20
91.5154
 30
0.0
 11
108.077
 21
89.304000000000002
 31
0.0
  0
LINE
  5
AC
  8
0
 62
     7
 10
108.077
 20
89.304000000000002
 30
0.0
 11
108.669
 21
91.5154
 31
0.0
  0
LINE
  5
AD
  8
0
 62
     7
 10
108.669
 20
91.5154
 30
0.0
 11
107.48399999999999
 21
91.5154
 31
0.0
  0
LINE
  5
AE
  8
0
 62
     7
 10
108.069
 20
112.637
 30
0.0
 11
108.069
 21
89.304699999999997
 31
0.0
  0
LINE
  5
AF
  8
0
 62
     7
 10
101.714
 20
110.426
 30
0.0
 11
101.121
 21
112.63800000000001
 31
0.0
  0
LINE
  5
B0
  8
0
 62
     7
 10
101.121
 20
112.63800000000001
 30
0.0
 11
100.529
 21
110.426
 31
0.0
  0
LINE
  5
B1
  8
0
 62
     7
 10
100.529
 20
110.426
 30
0.0
 11
101.714
 21
110.426
 31
0.0
  0
LINE
  5
B2
  8
0
 62
     7
 10
100.54300000000001
 20
104.015
 30
0.0
 11
101.136
 21
101.804
 31
0.0
  0
LINE
  5
B3
  8
0
 62
     7
 10
101.136
 20
101.804
 30
0.0
 11
101.72799999999999
 21
104.015
 31
0.0
  0
LINE
  5
B4
  8
0
 62
     7
 10
101.72799999999999
 20
104.015
 30
0.0
 11
100.54300000000001
 21
104.015
 31
0.0
  0
LINE
  5
B5
  8
0
 62
     7
 10
101.129
 20
112.637
 30
0.0
 11
101.129
 21
101.804
 31
0.0
  0
LINE
  5
B6
  8
0
 62
     7
 10
95.046700000000001
 20
112.637
 30
0.0
 11
108.762
 21
112.637
 31
0.0
  0
LINE
  5
B7
  8
0
 62
     7
 10
93.260699999999986
 20
101.804
 30
0.0
 11
101.836
 21
101.804
 31
0.0
  0
LINE
  5
B8
  8
0
 62
     7
 10
78.730400000000003
 20
89.304000000000002
 30
0.0
 11
108.777
 21
89.304000000000002
 31
0.0
  0
LINE
  5
B9
  8
0
 62
     7
 10
75.469399999999993
 20
78.600700000000003
 30
0.0
 11
77.680800000000005
 21
79.193299999999994
 31
0.0
  0
LINE
  5
BA
  8
0
 62
     7
 10
77.680800000000005
 20
79.193299999999994
 30
0.0
 11
75.469399999999993
 21
79.785799999999995
 31
0.0
  0
LINE
  5
BB
  8
0
 62
     7
 10
75.469399999999993
 20
79.785799999999995
 30
0.0
 11
75.469399999999993
 21
78.600700000000003
 31
0.0
  0
LINE
  5
BC
  8
0
 62
     7
 10
46.55769999999999
 20
79.771299999999997
 30
0.0
 11
44.3459
 21
79.178799999999995
 31
0.0
  0
LINE
  5
BD
  8
0
 62
     7
 10
44.3459
 20
79.178799999999995
 30
0.0
 11
46.55769999999999
 21
78.586200000000005
 31
0.0
  0
LINE
  5
BE
  8
0
 62
     7
 10
46.55769999999999
 20
78.586200000000005
 30
0.0
 11
46.55769999999999
 21
79.771299999999997
 31
0.0
  0
LINE
  5
BF
  8
0
 62
     7
 10
77.680800000000005
 20
79.186000000000007
 30
0.0
 11
44.3459
 21
79.186000000000007
 31
0.0
  0
LINE
  5
C0
  8
0
 62
     7
 10
44.3459
 20
88.603899999999996
 30
0.0
 11
44.3459
 21
78.486000000000004
 31
0.0
  0
LINE
  5
C1
  8
0
 62
     7
 10
77.680800000000005
 20
88.603899999999996
 30
0.0
 11
77.680800000000005
 21
78.486000000000004
 31
0.0
  0
LINE
  5
C2
  8
0
 62
     7
 10
143.666
 20
110.426
 30
0.0
 11
143.07400000000001
 21
112.63800000000001
 31
0.0
  0
LINE
  5
C3
  8
0
 62
     7
 10
143.07400000000001
 20
112.63800000000001
 30
0.0
 11
142.48099999999999
 21
110.426
 31
0.0
  0
LINE
  5
C4
  8
0
 62
     7
 10
142.48099999999999
 20
110.426
 30
0.0
 11
143.666
 21
110.426
 31
0.0
  0
LINE
  5
C5
  8
0
 62
     7
 10
142.488
 20
96.515000000000001
 30
0.0
 11
143.08099999999999
 21
94.3035
 31
0.0
  0
LINE
  5
C6
  8
0
 62
     7
 10
143.08099999999999
 20
94.3035
 30
0.0
 11
143.673
 21
96.515000000000001
 31
0.0
  0
LINE
  5
C7
  8
0
 62
     7
 10
143.673
 20
96.515000000000001
 30
0.0
 11
142.488
 21
96.515000000000001
 31
0.0
  0
LINE
  5
C8
  8
0
 62
     7
 10
143.08099999999999
 20
112.637
 30
0.0
 11
143.08099999999999
 21
94.3035
 31
0.0
  0
ARC
  5
C9
  8
0
 62
     7
 10
145.29505900000001
 20
179.05515199999999
 30
0.0
 40
30.166485999999999
 50
270.00002000000001
 51
359.99999000000003
  0
ARC
  5
CA
  8
0
 62
     7
 10
145.29488699999999
 20
179.05531400000001
 30
0.0
 40
30.166647000000001
 50
180.000337
 51
270.00034699999998
  0
ARC
  5
CB
  8
0
 62
     7
 10
145.295242
 20
179.05531400000001
 30
0.0
 40
30.167002
 50
90.000326999999999
 51
180.000337
  0
ARC
  5
CC
  8
0
 62
     7
 10
145.294715
 20
179.055486
 30
0.0
 40
30.166830000000001
 50
359.99935599999998
 51
89.999325999999996
  0
LINE
  5
CD
  8
0
 62
     7
 10
125.108
 20
159.70599999999999
 30
0.0
 11
123.964
 21
157.72499999999999
 31
0.0
  0
LINE
  5
CE
  8
0
 62
     7
 10
123.964
 20
157.72499999999999
 30
0.0
 11
125.946
 21
158.869
 31
0.0
  0
LINE
  5
CF
  8
0
 62
     7
 10
125.946
 20
158.869
 30
0.0
 11
125.108
 21
159.70599999999999
 31
0.0
  0
LINE
  5
D0
  8
0
 62
     7
 10
165.482
 20
198.405
 30
0.0
 11
166.626
 21
200.387
 31
0.0
  0
LINE
  5
D1
  8
0
 62
     7
 10
166.626
 20
200.387
 30
0.0
 11
164.64400000000001
 21
199.24299999999999
 31
0.0
  0
LINE
  5
D2
  8
0
 62
     7
 10
164.64400000000001
 20
199.24299999999999
 30
0.0
 11
165.482
 21
198.405
 31
0.0
  0
LINE
  5
D3
  8
0
 62
     7
 10
123.964
 20
157.72499999999999
 30
0.0
 11
166.626
 21
200.387
 31
0.0
  0
LINE
  5
D4
  8
0
  6
AIGENLINE003
 62
     7
 10
145.29499999999999
 20
214.22200000000001
 30
0.0
 11
145.29499999999999
 21
143.88900000000001
 31
0.0
  0
LINE
  5
D5
  8
0
  6
AIGENLINE003
 62
     7
 10
180.46199999999999
 20
179.05500000000001
 30
0.0
 11
110.128
 21
179.05500000000001
 31
0.0
  0
ARC
  5
D6
  8
0
 62
     7
 10
61.013370000000002
 20
179.05549199999999
 30
0.0
 40
5.8332739999999994
 50
270.00002000000001
 51
359.99999000000003
  0
ARC
  5
D7
  8
0
 62
     7
 10
61.013370000000002
 20
179.05548999999999
 30
0.0
 40
5.833272
 50
179.99996999999999
 51
270.00002000000001
  0
ARC
  5
D8
  8
0
 62
     7
 10
61.01337199999999
 20
179.05548999999999
 30
0.0
 40
5.8332739999999994
 50
90.0
 51
179.99996999999999
  0
ARC
  5
D9
  8
0
 62
     7
 10
61.013370000000002
 20
179.05548999999999
 30
0.0
 40
5.8332739999999994
 50
0.00001
 51
89.999980000000008
  0
ARC
  5
DA
  8
0
 62
     7
 10
61.013710000000003
 20
179.05515199999999
 30
0.0
 40
33.333238000000001
 50
270.00002000000001
 51
359.99999000000003
  0
ARC
  5
DB
  8
0
 62
     7
 10
61.013537999999997
 20
179.05531300000001
 30
0.0
 40
33.333399
 50
180.00030599999999
 51
270.000316
  0
ARC
  5
DC
  8
0
 62
     7
 10
61.013722000000001
 20
179.05514099999999
 30
0.0
 40
33.333582
 50
90.0
 51
179.99996999999999
  0
ARC
  5
DD
  8
0
 62
     7
 10
61.013537999999997
 20
179.05531300000001
 30
0.0
 40
33.333410000000001
 50
359.9997140000001
 51
89.999684000000016
  0
ARC
  5
DE
  8
0
 62
     7
 10
61.013710000000003
 20
179.05515199999999
 30
0.0
 40
31.66649
 50
270.00002000000001
 51
359.99999000000003
  0
ARC
  5
DF
  8
0
 62
     7
 10
61.013365999999998
 20
179.055486
 30
0.0
 40
31.666823000000001
 50
180.00063299999999
 51
270.00064300000003
  0
ARC
  5
E0
  8
0
 62
     7
 10
61.013548999999998
 20
179.054969
 30
0.0
 40
31.667007000000002
 50
89.999688000000006
 51
179.99965900000001
  0
ARC
  5
E1
  8
0
 62
     7
 10
61.013537999999997
 20
179.05531300000001
 30
0.0
 40
31.666661999999999
 50
359.99969800000002
 51
89.999668000000014
  0
ARC
  5
E2
  8
0
 62
     7
 10
61.013370999999999
 20
179.05549199999999
 30
0.0
 40
3.8333829999999991
 50
270.00002000000001
 51
359.99999000000003
  0
ARC
  5
E3
  8
0
 62
     7
 10
61.013370999999999
 20
179.05549099999999
 30
0.0
 40
3.8333809999999988
 50
179.99996999999999
 51
270.00002000000001
  0
ARC
  5
E4
  8
0
 62
     7
 10
61.01337199999999
 20
179.05549099999999
 30
0.0
 40
3.8333829999999991
 50
90.0
 51
179.99996999999999
  0
ARC
  5
E5
  8
0
 62
     7
 10
61.013370999999999
 20
179.05549099999999
 30
0.0
 40
3.8333829999999991
 50
0.00001
 51
89.999980000000008
  0
LINE
  5
E6
  8
0
  6
AIGENLINE003
 62
     7
 10
61.013399999999997
 20
214.22200000000001
 30
0.0
 11
61.013399999999997
 21
143.88900000000001
 31
0.0
  0
LINE
  5
E7
  8
0
  6
AIGENLINE003
 62
     7
 10
96.180099999999996
 20
179.05500000000001
 30
0.0
 11
25.846599999999999
 21
179.05500000000001
 31
0.0
  0
LINE
  5
E8
  8
_________2
 62
     7
 10
152.44999999999999
 20
258.911
 30
0.0
 11
152.44999999999999
 21
244.911
 31
0.0
  0
LINE
  5
E9
  8
_________2
 62
     7
 10
169.80600000000001
 20
258.911
 30
0.0
 11
169.80600000000001
 21
244.911
 31
0.0
  0
TEXT
  5
EA
  8
_________2
 62
     7
 10
172.13725049999991
 20
247.06100000000001
 30
0.0
 40
3.9929099999999988
  1
ホワイト
 41
0.5
 72
     1
 11
176.59599999999989
 21
247.06100000000001
 31
0.0
  0
TEXT
  5
EB
  8
_________2
 62
     7
 10
174.46644800000001
 20
254.06200000000001
 30
0.0
 40
3.9929099999999988
  1
仕上
 41
0.5
 72
     1
 11
176.59599999999989
 21
254.06200000000001
 31
0.0
  0
TEXT
  5
EC
  8
_________2
 62
     7
 10
153.98240749999999
 20
247.06200000000001
 30
0.0
 40
3.9929099999999988
  1
VR4334R
 41
0.5
 72
     1
 11
160.97
 21
247.06200000000001
 31
0.0
  0
TEXT
  5
ED
  8
_________2
 62
     7
 10
158.84044800000001
 20
254.06200000000001
 30
0.0
 40
3.9929099999999988
  1
品番
 41
0.5
 72
     1
 11
160.97
 21
254.06200000000001
 31
0.0
  0
LINE
  5
EE
  8
_________2
 62
     7
 10
152.44999999999999
 20
244.911
 30
0.0
 11
183.55099999999999
 21
244.911
 31
0.0
  0
LINE
  5
EF
  8
_________2
 62
     7
 10
152.44999999999999
 20
251.911
 30
0.0
 11
183.55099999999999
 21
251.911
 31
0.0
  0
TEXT
  5
F0
  8
_________2
 62
     7
 10
39.078280833333338
 20
13.603400000000001
 30
0.0
 40
4.3256500000000004
  1
早川
 41
0.5
 72
     1
 11
41.313200000000002
 21
13.603400000000001
 31
0.0
  0
TEXT
  5
F1
  8
_________2
 62
     7
 10
24.586400000000001
 20
0.707627
 30
0.0
 40
4.6583899999999989
  1
重量：5.6kg、オーバーフローなし
 41
0.5
  0
TEXT
  5
F2
  8
_________2
 62
     7
 10
109.179
 20
24.226099999999999
 30
0.0
 40
4.6583899999999989
  1
ウォータージュエル 洗面器
 41
0.5
  0
LINE
  5
F3
  8
_________2
 62
     7
 10
205.30099999999999
 20
127.411
 30
0.0
 11
183.55099999999999
 21
127.411
 31
0.0
  0
LINE
  5
F4
  8
_________2
 62
     7
 10
100.3
 20
-4.0910799999999998
 30
0.0
 11
100.3
 21
-21.071000000000002
 31
0.0
  0
LINE
  5
F5
  8
_________2
 62
     7
 10
100.3
 20
275.93099999999998
 30
0.0
 11
100.3
 21
258.911
 31
0.0
  0
LINE
  5
F6
  8
_________2
 62
     7
 10
17.049199999999999
 20
127.411
 30
0.0
 11
-4.7012099999999988
 21
127.411
 31
0.0
  0
LINE
  5
F7
  8
_________2
 62
     7
 10
76.740700000000004
 20
29.8047
 30
0.0
 11
74.554400000000001
 21
29.8047
 31
0.0
  0
LINE
  5
F8
  8
_________2
 62
     7
 10
77.2333
 20
29.8047
 30
0.0
 11
76.981099999999984
 21
29.8047
 31
0.0
  0
LINE
  5
F9
  8
_________2
 62
     7
 10
77.725999999999999
 20
29.8047
 30
0.0
 11
80.650899999999993
 21
29.8047
 31
0.0
  0
LINE
  5
FA
  8
_________2
 62
     7
 10
77.2333
 20
29.8047
 30
0.0
 11
77.485500000000002
 21
29.8047
 31
0.0
  0
LINE
  5
FB
  8
_________2
 62
     7
 10
70.837100000000007
 20
29.8047
 30
0.0
 11
68.650199999999998
 21
29.8047
 31
0.0
  0
LINE
  5
FC
  8
_________2
 62
     7
 10
71.329099999999997
 20
29.8047
 30
0.0
 11
71.077600000000004
 21
29.8047
 31
0.0
  0
LINE
  5
FD
  8
_________2
 62
     7
 10
71.329099999999997
 20
30.2974
 30
0.0
 11
71.329099999999997
 21
32.484400000000001
 31
0.0
  0
LINE
  5
FE
  8
_________2
 62
     7
 10
71.329099999999997
 20
29.8047
 30
0.0
 11
71.329099999999997
 21
30.057300000000001
 31
0.0
  0
LINE
  5
FF
  8
_________2
 62
     7
 10
71.821700000000007
 20
29.8047
 30
0.0
 11
74.008700000000005
 21
29.8047
 31
0.0
  0
LINE
  5
100
  8
_________2
 62
     7
 10
71.329099999999997
 20
29.8047
 30
0.0
 11
71.581299999999985
 21
29.8047
 31
0.0
  0
LINE
  5
101
  8
_________2
 62
     7
 10
71.329099999999997
 20
29.312799999999999
 30
0.0
 11
71.329099999999997
 21
27.126200000000001
 31
0.0
  0
LINE
  5
102
  8
_________2
 62
     7
 10
71.329099999999997
 20
29.8047
 30
0.0
 11
71.329099999999997
 21
29.5532
 31
0.0
  0
LINE
  5
103
  8
_________2
 62
     7
 10
75.040199999999999
 20
28.5852
 30
0.0
 11
80.218199999999996
 21
27.720400000000001
 31
0.0
  0
LINE
  5
104
  8
_________2
 62
     7
 10
75.040199999999999
 20
31.024699999999999
 30
0.0
 11
80.218199999999996
 21
31.8901
 31
0.0
  0
LINE
  5
105
  8
_________2
 62
     7
 10
80.218199999999996
 20
27.720400000000001
 30
0.0
 11
80.218199999999996
 21
31.8901
 31
0.0
  0
LINE
  5
106
  8
_________2
 62
     7
 10
75.040199999999999
 20
28.5852
 30
0.0
 11
75.040199999999999
 21
31.024699999999999
 31
0.0
  0
ARC
  5
107
  8
_________2
 62
     7
 10
71.282501999999994
 20
29.757801000000001
 30
0.0
 40
1.267714
 50
2.1220840000000001
 51
87.894083999999992
  0
ARC
  5
108
  8
_________2
 62
     7
 10
71.375640000000004
 20
29.758545999999999
 30
0.0
 40
1.2669680000000001
 50
92.105782999999988
 51
177.91037
  0
ARC
  5
109
  8
_________2
 62
     7
 10
71.376013999999998
 20
29.851671
 30
0.0
 40
1.2673680000000001
 50
182.12203600000001
 51
267.877993
  0
ARC
  5
10A
  8
_________2
 62
     7
 10
71.282195999999999
 20
29.852347999999999
 30
0.0
 40
1.2680439999999991
 50
272.11916400000001
 51
357.84848499999998
  0
ARC
  5
10B
  8
_________2
 62
     7
 10
71.248716999999985
 20
29.724731999999999
 30
0.0
 40
2.1668310000000002
 50
2.1161439999999989
 51
87.874379000000005
  0
ARC
  5
10C
  8
_________2
 62
     7
 10
71.408756000000011
 20
29.726146
 30
0.0
 40
2.165392999999999
 50
92.108508999999998
 51
177.91986499999999
  0
ARC
  5
10D
  8
_________2
 62
     7
 10
71.409094999999994
 20
29.884751999999999
 30
0.0
 40
2.1657829999999998
 50
182.117133
 51
267.88289700000001
  0
ARC
  5
10E
  8
_________2
 62
     7
 10
71.249115000000003
 20
29.885429999999999
 30
0.0
 40
2.1664590000000001
 50
272.11546800000002
 51
357.86560400000002
  0
TEXT
  5
10F
  8
_________2
 62
     7
 10
104.605
 20
1.6794899999999999
 30
0.0
 40
3.660169999999999
  1
図番
 41
0.5
  0
LINE
  5
110
  8
_________2
 62
     7
 10
103.55
 20
5.9087199999999989
 30
0.0
 11
183.55099999999999
 21
5.9087199999999989
 31
0.0
  0
TEXT
  5
111
  8
_________2
 62
     7
 10
104.605
 20
11.6793
 30
0.0
 40
3.660169999999999
  1
品番
 41
0.5
  0
TEXT
  5
112
  8
_________2
 62
     7
 10
104.605
 20
31.8184
 30
0.0
 40
3.660169999999999
  1
名称
 41
0.5
  0
TEXT
  5
113
  8
_________2
 62
     7
 10
91.565145833333347
 20
26.822299999999998
 30
0.0
 40
4.3256500000000004
  1
mm
 41
0.5
 72
     1
 11
93.367500000000007
 21
26.822299999999998
 31
0.0
  0
TEXT
  5
114
  8
_________2
 62
     7
 10
85.642899999999983
 20
31.8184
 30
0.0
 40
3.660169999999999
  1
単位
 41
0.5
  0
TEXT
  5
115
  8
_________2
 62
     7
 10
85.642899999999983
 20
19.410799999999998
 30
0.0
 40
3.660169999999999
  1
尺度
 41
0.5
  0
TEXT
  5
116
  8
_________2
 62
     7
 10
89.922126666666671
 20
13.2182
 30
0.0
 40
4.3256500000000004
  1
1 ： 6
 41
0.5
 72
     1
 11
93.959400000000016
 21
13.2182
 31
0.0
  0
TEXT
  5
117
  8
_________2
 62
     7
 10
135.3978175
 20
9.1082000000000001
 30
0.0
 40
4.6583899999999989
  1
VR4334R
 41
0.5
 72
     1
 11
143.55000000000001
 21
9.1082000000000001
 31
0.0
  0
TEXT
  5
118
  8
_________2
 62
     7
 10
135.3978175
 20
-0.8926299999999999
 30
0.0
 40
4.6583899999999989
  1
VR4334R
 41
0.5
 72
     1
 11
143.55000000000001
 21
-0.8926299999999999
 31
0.0
  0
TEXT
  5
119
  8
_________2
 62
     7
 10
20.43218666666667
 20
13.603400000000001
 30
0.0
 40
4.3256500000000004
  1
菅原
 41
0.5
 72
     1
 11
22.7392
 21
13.603400000000001
 31
0.0
  0
TEXT
  5
11A
  8
_________2
 62
     7
 10
67.785399999999996
 20
13.2182
 30
0.0
 40
4.3256500000000004
  1
15.04.16
 41
0.5
  0
TEXT
  5
11B
  8
_________2
 62
     7
 10
66.592699999999994
 20
19.410799999999998
 30
0.0
 40
3.660169999999999
  1
日付
 41
0.5
  0
TEXT
  5
11C
  8
_________2
 62
     7
 10
29.638999999999999
 20
19.410799999999998
 30
0.0
 40
3.660169999999999
  1
検図
 41
0.5
  0
TEXT
  5
11D
  8
_________2
 62
     7
 10
18.020700000000001
 20
5.21143
 30
0.0
 40
3.660169999999999
  1
備考
 41
0.5
  0
TEXT
  5
11E
  8
_________2
 62
     7
 10
18.020700000000001
 20
19.410799999999998
 30
0.0
 40
3.660169999999999
  1
製図
 41
0.5
  0
TEXT
  5
11F
  8
_________2
 62
     7
 10
20.594530666666689
 20
27.936800000000002
 30
0.0
 40
5.3238799999999991
  1
セラトレーディング株式会社
 41
0.5
 72
     1
 11
41.180199999999999
 21
27.936800000000002
 31
0.0
  0
LINE
  5
120
  8
_________2
 62
     7
 10
183.55099999999999
 20
-4.0910799999999998
 30
0.0
 11
17.049199999999999
 21
-4.0910799999999998
 31
0.0
  0
LINE
  5
121
  8
_________2
 62
     7
 10
17.049199999999999
 20
-4.0910799999999998
 30
0.0
 11
17.049199999999999
 21
258.911
 31
0.0
  0
LINE
  5
122
  8
_________2
 62
     7
 10
17.049199999999999
 20
258.911
 30
0.0
 11
183.55099999999999
 21
258.911
 31
0.0
  0
LINE
  5
123
  8
_________2
 62
     7
 10
183.55099999999999
 20
258.911
 30
0.0
 11
183.55099999999999
 21
-4.0910799999999998
 31
0.0
  0
LINE
  5
124
  8
_________2
 62
     7
 10
65.549599999999998
 20
9.4092999999999982
 30
0.0
 11
65.549599999999998
 21
35.909100000000002
 31
0.0
  0
LINE
  5
125
  8
_________2
 62
     7
 10
84.549400000000006
 20
9.4092999999999982
 30
0.0
 11
84.549400000000006
 21
35.909100000000002
 31
0.0
  0
LINE
  5
126
  8
_________2
 62
     7
 10
103.55
 20
-4.0910799999999998
 30
0.0
 11
103.55
 21
35.909100000000002
 31
0.0
  0
LINE
  5
127
  8
_________2
 62
     7
 10
28.548999999999999
 20
9.4092999999999982
 30
0.0
 11
28.548999999999999
 21
23.409199999999998
 31
0.0
  0
LINE
  5
128
  8
_________2
 62
     7
 10
17.049199999999999
 20
9.4092999999999982
 30
0.0
 11
103.55
 21
9.4092999999999982
 31
0.0
  0
LINE
  5
129
  8
_________2
 62
     7
 10
17.049199999999999
 20
23.409199999999998
 30
0.0
 11
103.55
 21
23.409199999999998
 31
0.0
  0
LINE
  5
12A
  8
_________2
 62
     7
 10
103.55
 20
15.9085
 30
0.0
 11
183.55099999999999
 21
15.9085
 31
0.0
  0
LINE
  5
12B
  8
_________2
 62
     7
 10
17.049199999999999
 20
35.909100000000002
 30
0.0
 11
183.55099999999999
 21
35.909100000000002
 31
0.0
  0
ENDSEC
  0
EOF
