  0
SECTION
  2
HEADER
  9
$ACADVER
  1
AC1009
  9
$INSBASE
 10
0.0
 20
0.0
 30
0.0
  9
$EXTMIN
 10
0.238058
 20
0.4482100000000001
 30
0.0
  9
$EXTMAX
 10
210.24000000000001
 20
297.44999999999999
 30
0.0
  9
$LIMMIN
 10
0.0
 20
0.0
  9
$LIMMAX
 10
12.0
 20
9.0
  9
$ORTHOMODE
 70
     0
  9
$REGENMODE
 70
     1
  9
$FILLMODE
 70
     1
  9
$QTEXTMODE
 70
     0
  9
$MIRRTEXT
 70
     1
  9
$DRAGMODE
 70
     2
  9
$LTSCALE
 40
1.0
  9
$OSMODE
 70
    37
  9
$ATTMODE
 70
     1
  9
$TEXTSIZE
 40
0.0
  9
$TRACEWID
 40
0.05
  9
$TEXTSTYLE
  7
STANDARD
  9
$CLAYER
  8
0
  9
$CELTYPE
  6
CONTINUOUS
  9
$CECOLOR
 62
   256
  9
$DIMSCALE
 40
1.0
  9
$DIMASZ
 40
0.18
  9
$DIMEXO
 40
0.0625
  9
$DIMDLI
 40
0.38
  9
$DIMRND
 40
0.0
  9
$DIMDLE
 40
0.0
  9
$DIMEXE
 40
0.18
  9
$DIMTP
 40
0.0
  9
$DIMTM
 40
0.0
  9
$DIMTXT
 40
0.18
  9
$DIMCEN
 40
0.09
  9
$DIMTSZ
 40
0.0
  9
$DIMTOL
 70
     0
  9
$DIMLIM
 70
     0
  9
$DIMTIH
 70
     1
  9
$DIMTOH
 70
     1
  9
$DIMSE1
 70
     0
  9
$DIMSE2
 70
     0
  9
$DIMTAD
 70
     0
  9
$DIMZIN
 70
     0
  9
$DIMBLK
  1

  9
$DIMASO
 70
     1
  9
$DIMSHO
 70
     1
  9
$DIMPOST
  1

  9
$DIMAPOST
  1

  9
$DIMALT
 70
     0
  9
$DIMALTD
 70
     2
  9
$DIMALTF
 40
25.399999999999999
  9
$DIMLFAC
 40
1.0
  9
$DIMTOFL
 70
     0
  9
$DIMTVP
 40
0.0
  9
$DIMTIX
 70
     0
  9
$DIMSOXD
 70
     0
  9
$DIMSAH
 70
     0
  9
$DIMBLK1
  1

  9
$DIMBLK2
  1

  9
$DIMSTYLE
  2
STANDARD
  9
$DIMCLRD
 70
     0
  9
$DIMCLRE
 70
     0
  9
$DIMCLRT
 70
     0
  9
$DIMTFAC
 40
1.0
  9
$DIMGAP
 40
0.09
  9
$LUNITS
 70
     2
  9
$LUPREC
 70
     4
  9
$SKETCHINC
 40
0.1
  9
$FILLETRAD
 40
0.0
  9
$AUNITS
 70
     0
  9
$AUPREC
 70
     0
  9
$MENU
  1
.
  9
$ELEVATION
 40
0.0
  9
$PELEVATION
 40
0.0
  9
$THICKNESS
 40
0.0
  9
$LIMCHECK
 70
     0
  9
$BLIPMODE
 70
     0
  9
$CHAMFERA
 40
0.0
  9
$CHAMFERB
 40
0.0
  9
$SKPOLY
 70
     0
  9
$TDCREATE
 40
2444972.375
  9
$TDUPDATE
 40
2457436.2644914822
  9
$TDINDWG
 40
0.0000446065
  9
$TDUSRTIMER
 40
0.0000446065
  9
$USRTIMER
 70
     1
  9
$ANGBASE
 50
0.0
  9
$ANGDIR
 70
     0
  9
$PDMODE
 70
     0
  9
$PDSIZE
 40
0.0
  9
$PLINEWID
 40
0.0
  9
$COORDS
 70
     1
  9
$SPLFRAME
 70
     0
  9
$SPLINETYPE
 70
     6
  9
$SPLINESEGS
 70
     8
  9
$ATTDIA
 70
     1
  9
$ATTREQ
 70
     1
  9
$HANDLING
 70
     1
  9
$HANDSEED
  5
2DC
  9
$SURFTAB1
 70
     6
  9
$SURFTAB2
 70
     6
  9
$SURFTYPE
 70
     6
  9
$SURFU
 70
     6
  9
$SURFV
 70
     6
  9
$UCSNAME
  2

  9
$UCSORG
 10
0.0
 20
0.0
 30
0.0
  9
$UCSXDIR
 10
1.0
 20
0.0
 30
0.0
  9
$UCSYDIR
 10
0.0
 20
1.0
 30
0.0
  9
$PUCSNAME
  2

  9
$PUCSORG
 10
0.0
 20
0.0
 30
0.0
  9
$PUCSXDIR
 10
1.0
 20
0.0
 30
0.0
  9
$PUCSYDIR
 10
0.0
 20
1.0
 30
0.0
  9
$USERI1
 70
     0
  9
$USERI2
 70
     0
  9
$USERI3
 70
     0
  9
$USERI4
 70
     0
  9
$USERI5
 70
     0
  9
$USERR1
 40
0.0
  9
$USERR2
 40
0.0
  9
$USERR3
 40
0.0
  9
$USERR4
 40
0.0
  9
$USERR5
 40
0.0
  9
$WORLDVIEW
 70
     1
  9
$SHADEDGE
 70
     3
  9
$SHADEDIF
 70
    70
  9
$TILEMODE
 70
     1
  9
$MAXACTVP
 70
    48
  9
$PLIMCHECK
 70
     0
  9
$PEXTMIN
 10
1.0000000000000000E+020
 20
1.0000000000000000E+020
 30
1.0000000000000000E+020
  9
$PEXTMAX
 10
-1.0000000000000000E+020
 20
-1.0000000000000000E+020
 30
-1.0000000000000000E+020
  9
$PLIMMIN
 10
0.0
 20
0.0
  9
$PLIMMAX
 10
12.0
 20
9.0
  9
$UNITMODE
 70
     0
  9
$VISRETAIN
 70
     1
  9
$PLINEGEN
 70
     0
  9
$PSLTSCALE
 70
     1
  0
ENDSEC
  0
SECTION
  2
TABLES
  0
TABLE
  2
VPORT
 70
     1
  0
VPORT
  2
*ACTIVE
 70
     0
 10
0.0
 20
0.0
 11
1.0
 21
1.0
 12
170.6464204695861
 22
148.72499999999991
 13
0.0
 23
0.0
 14
1.0
 24
1.0
 15
0.0
 25
0.0
 16
0.0
 26
0.0
 36
1.0
 17
0.0
 27
0.0
 37
0.0
 40
283.9561120433716
 41
2.1001926782273599
 42
50.0
 43
0.0
 44
0.0
 50
0.0
 51
0.0
 71
     0
 72
   100
 73
     1
 74
     1
 75
     0
 76
     0
 77
     0
 78
     0
  0
ENDTAB
  0
TABLE
  2
LTYPE
 70
     4
  0
LTYPE
  2
CONTINUOUS
 70
     0
  3
Solid line
 72
    65
 73
     0
 40
0.0
  0
LTYPE
  2
AIGENLINE001
 70
     0
  3
generate AI->DXF Converter
 72
    65
 73
     4
 40
5.8561449999999988
 49
3.5278
 49
-0.776115
 49
0.776115
 49
-0.776115
  0
LTYPE
  2
AIGENLINE002
 70
     0
  3
generate AI->DXF Converter
 72
    65
 73
     6
 40
7.4083750000000004
 49
3.5278
 49
-0.776115
 49
0.776115
 49
-0.776115
 49
0.776115
 49
-0.776115
  0
LTYPE
  2
AIGENLINE003
 70
     0
  3
generate AI->DXF Converter
 72
    65
 73
     2
 40
1.5522299999999991
 49
0.776115
 49
-0.776115
  0
ENDTAB
  0
TABLE
  2
LAYER
 70
     2
  0
LAYER
  2
0
 70
     0
 62
     7
  6
CONTINUOUS
  0
LAYER
  2
_________2
 70
     0
 62
     7
  6
CONTINUOUS
  0
ENDTAB
  0
TABLE
  2
STYLE
 70
     1
  0
STYLE
  2
STANDARD
 70
     0
 40
0.0
 41
0.0
 50
0.0
 71
     0
 42
0.0
  3
TXT
  4
EXTFONT.SHX
  0
ENDTAB
  0
TABLE
  2
VIEW
 70
     0
  0
ENDTAB
  0
TABLE
  2
UCS
 70
     0
  0
ENDTAB
  0
TABLE
  2
APPID
 70
     3
  0
APPID
  2
ACAD
 70
     0
  0
APPID
  2
ACAD_NAV_VCDISPLAY
 70
     0
  0
APPID
  2
ACAD_MLEADERVER
 70
     0
  0
ENDTAB
  0
TABLE
  2
DIMSTYLE
 70
     1
  0
DIMSTYLE
  2
STANDARD
 70
     0
  3

  4

  5

  6

  7

 40
1.0
 41
0.18
 42
0.0625
 43
0.38
 44
0.18
 45
0.0
 46
0.0
 47
0.0
 48
0.0
140
0.18
141
0.09
142
0.0
143
25.399999999999999
144
1.0
145
0.0
146
1.0
147
0.09
 71
     0
 72
     0
 73
     1
 74
     1
 75
     0
 76
     0
 77
     0
 78
     0
170
     0
171
     2
172
     0
173
     0
174
     0
175
     0
176
     0
177
     0
178
     0
  0
ENDTAB
  0
ENDSEC
  0
SECTION
  2
BLOCKS
  0
BLOCK
  8
0
  2
$MODEL_SPACE
 70
     0
 10
0.0
 20
0.0
 30
0.0
  3
$MODEL_SPACE
  1

  0
ENDBLK
  5
1A
  8
0
  0
BLOCK
 67
     1
  8
0
  2
$PAPER_SPACE
 70
     0
 10
0.0
 20
0.0
 30
0.0
  3
$PAPER_SPACE
  1

  0
ENDBLK
  5
17
 67
     1
  8
0
  0
ENDSEC
  0
SECTION
  2
ENTITIES
  0
TEXT
  5
24
  8
0
 62
     7
 10
153.9742875
 20
101.818
 30
0.0
 40
3.0923400000000001
  1
230
 41
0.5
 72
     1
 11
155.90700000000001
 21
101.818
 31
0.0
  0
TEXT
  5
25
  8
0
 62
     7
 10
136.16076000000001
 20
170.22300000000001
 30
0.0
 40
3.0923400000000001
  1
カウンター切込寸法
 41
0.5
 72
     1
 11
144.40700000000001
 21
170.22300000000001
 31
0.0
  0
TEXT
  5
26
  8
0
 62
     7
 10
142.60313500000001
 20
180.80600000000001
 30
0.0
 40
3.0923400000000001
  1
315
 41
0.5
 72
     1
 11
144.40700000000001
 21
180.80600000000001
 31
0.0
  0
TEXT
  5
27
  8
0
 62
     7
 10
135.15096500000001
 20
194.607
 30
0.0
 40
3.0923400000000001
  1
R10
 41
0.5
 72
     2
 11
138.501
 21
194.607
 31
0.0
  0
TEXT
  5
28
  8
0
 62
     7
 10
155.216454
 20
233.36199999999999
 30
0.0
 40
3.0923400000000001
  1
壁
 41
0.5
 72
     1
 11
155.93799999999999
 21
233.36199999999999
 31
0.0
  0
TEXT
  5
29
  8
0
 62
     7
 10
153.22217800000001
 20
201.34899999999999
 30
0.0
 40
3.0923400000000001
  1
排水口
 41
0.5
 72
     2
 11
158.273
 21
201.34899999999999
 31
0.0
  0
TEXT
  5
2A
  8
0
 62
     7
 10
141.72800000000001
 20
118.8386775
 30
0.0
 40
3.0923400000000001
  1
110
 50
90.0
 41
0.5
 72
     1
 11
141.72800000000001
 21
120.256
 31
0.0
  0
TEXT
  5
2B
  8
0
 62
     7
 10
133.35400000000001
 20
215.99428750000001
 30
0.0
 40
3.0923400000000001
  1
230
 50
90.0
 41
0.5
 72
     1
 11
133.35400000000001
 21
217.92699999999999
 31
0.0
  0
TEXT
  5
2C
  8
0
 62
     7
 10
165.96899999999999
 20
207.37313499999999
 30
0.0
 40
3.0923400000000001
  1
400
 50
90.0
 41
0.5
 72
     1
 11
165.96899999999999
 21
209.17699999999999
 31
0.0
  0
TEXT
  5
2D
  8
0
 62
     7
 10
64.050887500000002
 20
173.76300000000001
 30
0.0
 40
3.0923400000000001
  1
360
 41
0.5
 72
     1
 11
65.983599999999996
 21
173.76300000000001
 31
0.0
  0
TEXT
  5
2E
  8
0
 62
     7
 10
64.179734999999994
 20
164.977
 30
0.0
 40
3.0923400000000001
  1
400
 41
0.5
 72
     1
 11
65.983599999999996
 21
164.977
 31
0.0
  0
TEXT
  5
2F
  8
0
 62
     7
 10
47.017200000000003
 20
236.11600000000001
 30
0.0
 40
3.0923400000000001
  1
%%c35
 41
0.5
  0
TEXT
  5
30
  8
0
 62
     7
 10
75.243080000000006
 20
200.11799999999999
 30
0.0
 40
3.0923400000000001
  1
%%c46
 41
0.5
 72
     2
 11
79.366200000000006
 21
200.11799999999999
 31
0.0
  0
TEXT
  5
31
  8
0
 62
     7
 10
91.654899999999998
 20
218.76737249999999
 30
0.0
 40
3.0923400000000001
  1
60
 50
90.0
 41
0.5
 72
     1
 11
91.654899999999998
 21
219.92699999999999
 31
0.0
  0
TEXT
  5
32
  8
0
 62
     7
 10
91.654899999999998
 20
224.78852499999999
 30
0.0
 40
3.0923400000000001
  1
65
 50
90.0
 41
0.5
 72
     1
 11
91.654899999999998
 21
226.077
 31
0.0
  0
TEXT
  5
33
  8
0
 62
     7
 10
98.571700000000007
 20
199.37313499999999
 30
0.0
 40
3.0923400000000001
  1
315
 50
90.0
 41
0.5
 72
     1
 11
98.571700000000007
 21
201.17699999999999
 31
0.0
  0
TEXT
  5
34
  8
0
 62
     7
 10
98.571700000000007
 20
221.37313499999999
 30
0.0
 40
3.0923400000000001
  1
125
 50
90.0
 41
0.5
 72
     1
 11
98.571700000000007
 21
223.17699999999999
 31
0.0
  0
TEXT
  5
35
  8
0
 62
     7
 10
107.357
 20
204.49428750000001
 30
0.0
 40
3.0923400000000001
  1
460
 50
90.0
 41
0.5
 72
     1
 11
107.357
 21
206.42699999999999
 31
0.0
  0
TEXT
  5
36
  8
0
 62
     7
 10
98.571700000000007
 20
177.28299999999999
 30
0.0
 40
3.0923400000000001
  1
20
 50
90.0
 41
0.5
  0
TEXT
  5
37
  8
0
 62
     7
 10
64.308582499999986
 20
134.19900000000001
 30
0.0
 40
3.0923400000000001
  1
160
 41
0.5
 72
     1
 11
65.983599999999996
 21
134.19900000000001
 31
0.0
  0
TEXT
  5
38
  8
0
 62
     7
 10
91.994299999999996
 20
122.0953725
 30
0.0
 40
3.0923400000000001
  1
50
 50
90.0
 41
0.5
 72
     1
 11
91.994299999999996
 21
123.255
 31
0.0
  0
TEXT
  5
39
  8
0
 62
     7
 10
98.156199999999998
 20
120.0953725
 30
0.0
 40
3.0923400000000001
  1
90
 50
90.0
 41
0.5
 72
     1
 11
98.156199999999998
 21
121.255
 31
0.0
  0
TEXT
  5
3A
  8
0
 62
     7
 10
105.303
 20
115.70113499999999
 30
0.0
 40
3.0923400000000001
  1
165
 50
90.0
 41
0.5
 72
     1
 11
105.303
 21
117.505
 31
0.0
  0
LINE
  5
3B
  8
0
  6
AIGENLINE001
 62
     7
 10
163.93799999999999
 20
120.756
 30
0.0
 11
169.876
 21
120.756
 31
0.0
  0
LINE
  5
3C
  8
0
 62
     7
 10
154.27099999999999
 20
232.31399999999999
 30
0.0
 11
155.93799999999999
 21
229.42699999999999
 31
0.0
  0
LINE
  5
3D
  8
0
 62
     7
 10
155.93799999999999
 20
229.42699999999999
 30
0.0
 11
157.60400000000001
 21
232.31399999999999
 31
0.0
  0
LINE
  5
3E
  8
0
 62
     7
 10
157.60400000000001
 20
232.31399999999999
 30
0.0
 11
154.27099999999999
 21
232.31399999999999
 31
0.0
  0
LINE
  5
3F
  8
0
 62
     7
 10
128.65700000000001
 20
229.42699999999999
 30
0.0
 11
123.896
 21
229.42699999999999
 31
0.0
  0
LINE
  5
40
  8
0
 62
     7
 10
168.06899999999999
 20
229.42699999999999
 30
0.0
 11
160.15700000000001
 21
229.42699999999999
 31
0.0
  0
ARC
  5
41
  8
0
 62
     7
 10
159.11789200000001
 20
190.46628000000001
 30
0.0
 40
1.039806999999999
 50
272.12753900000001
 51
357.83299799999998
  0
ARC
  5
42
  8
0
 62
     7
 10
129.69593399999999
 20
190.46628000000001
 30
0.0
 40
1.039806999999999
 50
182.167022
 51
267.87248099999999
  0
LINE
  5
43
  8
0
 62
     7
 10
160.15700000000001
 20
229.42699999999999
 30
0.0
 11
160.15700000000001
 21
190.42699999999999
 31
0.0
  0
LINE
  5
44
  8
0
 62
     7
 10
128.65700000000001
 20
229.42699999999999
 30
0.0
 11
128.65700000000001
 21
190.42699999999999
 31
0.0
  0
LINE
  5
45
  8
0
 62
     7
 10
129.65700000000001
 20
189.42699999999999
 30
0.0
 11
159.15600000000001
 21
189.42699999999999
 31
0.0
  0
LINE
  5
46
  8
0
  6
AIGENLINE002
 62
     7
 10
128.65700000000001
 20
229.42699999999999
 30
0.0
 11
160.15700000000001
 21
229.42699999999999
 31
0.0
  0
ARC
  5
47
  8
0
  6
AIGENLINE003
 62
     7
 10
155.30127999999999
 20
125.240827
 30
0.0
 40
0.5146810000000001
 50
91.213099999999983
 51
163.527725
  0
ARC
  5
48
  8
0
  6
AIGENLINE003
 62
     7
 10
139.007791
 20
127.230042
 30
0.0
 40
12.400259
 50
223.30711700000001
 51
267.254346
  0
ARC
  5
49
  8
0
  6
AIGENLINE003
 62
     7
 10
123.18832
 20
125.248577
 30
0.0
 40
0.5068220000000001
 50
45.379454000000003
 51
89.714283999999978
  0
ARC
  5
4A
  8
0
 62
     7
 10
151.97623400000001
 20
115.97228800000001
 30
0.0
 40
2.2367520000000001
 50
291.08751999999998
 51
329.68644899999998
  0
ARC
  5
4B
  8
0
 62
     7
 10
152.09820400000001
 20
115.78567
 30
0.0
 40
2.0192860000000001
 50
270.04698999999999
 51
289.76351399999999
  0
LINE
  5
4C
  8
0
 62
     7
 10
167.40799999999999
 20
101.11799999999999
 30
0.0
 11
144.40700000000001
 21
101.11799999999999
 31
0.0
  0
LINE
  5
4D
  8
0
 62
     7
 10
144.40700000000001
 20
107.298
 30
0.0
 11
144.40700000000001
 21
100.41800000000001
 31
0.0
  0
LINE
  5
4E
  8
0
 62
     7
 10
167.40799999999999
 20
113.259
 30
0.0
 11
167.40799999999999
 21
100.41800000000001
 31
0.0
  0
LINE
  5
4F
  8
0
 62
     7
 10
165.197
 20
100.52500000000001
 30
0.0
 11
167.40799999999999
 21
101.11799999999999
 31
0.0
  0
LINE
  5
50
  8
0
 62
     7
 10
167.40799999999999
 20
101.11799999999999
 30
0.0
 11
165.197
 21
101.70999999999999
 31
0.0
  0
LINE
  5
51
  8
0
 62
     7
 10
165.197
 20
101.70999999999999
 30
0.0
 11
165.197
 21
100.52500000000001
 31
0.0
  0
LINE
  5
52
  8
0
 62
     7
 10
146.61799999999999
 20
101.70999999999999
 30
0.0
 11
144.40700000000001
 21
101.11799999999999
 31
0.0
  0
LINE
  5
53
  8
0
 62
     7
 10
144.40700000000001
 20
101.11799999999999
 30
0.0
 11
146.61799999999999
 21
100.52500000000001
 31
0.0
  0
LINE
  5
54
  8
0
 62
     7
 10
146.61799999999999
 20
100.52500000000001
 30
0.0
 11
146.61799999999999
 21
101.70999999999999
 31
0.0
  0
ARC
  5
55
  8
0
  6
AIGENLINE003
 62
     7
 10
150.378218
 20
116.902559
 30
0.0
 40
2.0581390000000002
 50
273.75594699999999
 51
346.51358099999999
  0
ARC
  5
56
  8
0
 62
     7
 10
131.89548400000001
 20
117.325427
 30
0.0
 40
3.5591699999999991
 50
216.538231
 51
269.514228
  0
LINE
  5
57
  8
0
  6
AIGENLINE003
 62
     7
 10
142.107
 20
113.755
 30
0.0
 11
146.703
 21
113.755
 31
0.0
  0
LINE
  5
58
  8
0
  6
AIGENLINE003
 62
     7
 10
140.40700000000001
 20
114.756
 30
0.0
 11
148.40000000000001
 21
114.756
 31
0.0
  0
ARC
  5
59
  8
0
 62
     7
 10
154.88418799999999
 20
113.782169
 30
0.0
 40
1.5231410000000001
 50
310.019946
 51
359.58768500000002
  0
ARC
  5
5A
  8
0
 62
     7
 10
151.86357000000001
 20
111.266087
 30
0.0
 40
1.51051
 50
270.102844
 51
309.43207899999999
  0
ARC
  5
5B
  8
0
 62
     7
 10
165.85037
 20
115.502022
 30
0.0
 40
1.5582290000000001
 50
272.10281700000002
 51
357.89719300000002
  0
ARC
  5
5C
  8
0
 62
     7
 10
165.90616600000001
 20
115.449218
 30
0.0
 40
1.5043770000000001
 50
263.27978000000002
 51
270.05253900000002
  0
LINE
  5
5D
  8
0
 62
     7
 10
147.90700000000001
 20
109.756
 30
0.0
 11
151.86600000000001
 21
109.756
 31
0.0
  0
LINE
  5
5E
  8
0
 62
     7
 10
140.90700000000001
 20
109.255
 30
0.0
 11
147.90700000000001
 21
109.255
 31
0.0
  0
LINE
  5
5F
  8
0
 62
     7
 10
123.449
 20
116.756
 30
0.0
 11
167.40799999999999
 21
116.756
 31
0.0
  0
ARC
  5
60
  8
0
 62
     7
 10
123.380792
 20
117.217212
 30
0.0
 40
0.4319460000000001
 50
201.65025199999999
 51
229.713392
  0
ARC
  5
61
  8
0
 62
     7
 10
123.448346
 20
117.278785
 30
0.0
 40
0.522728
 50
228.42890399999999
 51
270.09710699999999
  0
ARC
  5
62
  8
0
 62
     7
 10
148.268169
 20
127.183302
 30
0.0
 40
26.944113999999999
 50
184.81201999999999
 51
187.15892700000001
  0
ARC
  5
63
  8
0
 62
     7
 10
166.37043499999999
 20
129.30691100000001
 30
0.0
 40
45.170155000000001
 50
186.97008099999999
 51
192.75146799999999
  0
ARC
  5
64
  8
0
 62
     7
 10
145.34746100000001
 20
124.665639
 30
0.0
 40
23.641517
 50
193.02637300000001
 51
197.04013399999999
  0
ARC
  5
65
  8
0
 62
     7
 10
134.254639
 20
121.344433
 30
0.0
 40
12.062656
 50
197.39755700000001
 51
200.81551300000001
  0
ARC
  5
66
  8
0
 62
     7
 10
122.13788
 20
125.02521299999999
 30
0.0
 40
0.730876
 50
92.501499999999993
 51
178.33980199999999
  0
ARC
  5
67
  8
0
 62
     7
 10
121.96542599999999
 20
125.03716900000001
 30
0.0
 40
0.5581920000000001
 50
179.05371099999999
 51
191.79674099999991
  0
LINE
  5
68
  8
0
 62
     7
 10
165.72999999999999
 20
113.955
 30
0.0
 11
148.40700000000001
 21
115.256
 31
0.0
  0
LINE
  5
69
  8
0
 62
     7
 10
167.40799999999999
 20
125.755
 30
0.0
 11
122.10599999999999
 21
125.755
 31
0.0
  0
ARC
  5
6A
  8
0
  6
AIGENLINE003
 62
     7
 10
144.32017200000001
 20
206.51474899999999
 30
0.0
 40
2.3893490000000002
 50
272.088753
 51
357.89409499999999
  0
ARC
  5
6B
  8
0
  6
AIGENLINE003
 62
     7
 10
144.495814
 20
206.51550399999999
 30
0.0
 40
2.390158
 50
182.123334
 51
267.87669599999998
  0
ARC
  5
6C
  8
0
  6
AIGENLINE003
 62
     7
 10
144.49500900000001
 20
206.33919700000001
 30
0.0
 40
2.3893230000000001
 50
92.104730000000004
 51
177.89524
  0
ARC
  5
6D
  8
0
  6
AIGENLINE003
 62
     7
 10
144.31873999999999
 20
206.33771400000001
 30
0.0
 40
2.3908330000000002
 50
2.1389569999999991
 51
87.878194999999991
  0
LINE
  5
6E
  8
0
 62
     7
 10
138.501
 20
193.90700000000001
 30
0.0
 11
133.137
 21
193.90700000000001
 31
0.0
  0
LINE
  5
6F
  8
0
 62
     7
 10
128.94999999999999
 20
189.72
 30
0.0
 11
133.137
 21
193.90700000000001
 31
0.0
  0
LINE
  5
70
  8
0
 62
     7
 10
130.09399999999999
 20
191.702
 30
0.0
 11
128.94999999999999
 21
189.72
 31
0.0
  0
LINE
  5
71
  8
0
 62
     7
 10
128.94999999999999
 20
189.72
 30
0.0
 11
130.93100000000001
 21
190.864
 31
0.0
  0
LINE
  5
72
  8
0
 62
     7
 10
130.93100000000001
 20
190.864
 30
0.0
 11
130.09399999999999
 21
191.702
 31
0.0
  0
LINE
  5
73
  8
0
 62
     7
 10
158.273
 20
200.648
 30
0.0
 11
150.18600000000001
 21
200.648
 31
0.0
  0
LINE
  5
74
  8
0
  6
AIGENLINE001
 62
     7
 10
144.40700000000001
 20
231.608
 30
0.0
 11
144.40700000000001
 21
186.09399999999999
 31
0.0
  0
LINE
  5
75
  8
0
 62
     7
 10
146.03399999999999
 20
204.80099999999999
 30
0.0
 11
150.18600000000001
 21
200.648
 31
0.0
  0
LINE
  5
76
  8
0
 62
     7
 10
148.01599999999999
 20
203.65600000000001
 30
0.0
 11
146.03399999999999
 21
204.80099999999999
 31
0.0
  0
LINE
  5
77
  8
0
 62
     7
 10
146.03399999999999
 20
204.80099999999999
 30
0.0
 11
147.179
 21
202.81899999999999
 31
0.0
  0
LINE
  5
78
  8
0
 62
     7
 10
147.179
 20
202.81899999999999
 30
0.0
 11
148.01599999999999
 21
203.65600000000001
 31
0.0
  0
LINE
  5
79
  8
0
 62
     7
 10
134.054
 20
229.42699999999999
 30
0.0
 11
134.054
 21
206.42699999999999
 31
0.0
  0
LINE
  5
7A
  8
0
 62
     7
 10
133.35400000000001
 20
206.42699999999999
 30
0.0
 11
139.32599999999999
 21
206.42699999999999
 31
0.0
  0
LINE
  5
7B
  8
0
  6
AIGENLINE001
 62
     7
 10
140.09899999999999
 20
206.42699999999999
 30
0.0
 11
148.97999999999999
 21
206.42699999999999
 31
0.0
  0
LINE
  5
7C
  8
0
  6
AIGENLINE001
 62
     7
 10
151.40299999999999
 20
121.756
 30
0.0
 11
155.989
 21
121.756
 31
0.0
  0
LINE
  5
7D
  8
0
 62
     7
 10
160.15700000000001
 20
180.10599999999999
 30
0.0
 11
128.65700000000001
 21
180.10599999999999
 31
0.0
  0
LINE
  5
7E
  8
0
 62
     7
 10
128.65700000000001
 20
188.59099999999989
 30
0.0
 11
128.65700000000001
 21
179.40599999999989
 31
0.0
  0
LINE
  5
7F
  8
0
 62
     7
 10
160.15700000000001
 20
188.59099999999989
 30
0.0
 11
160.15700000000001
 21
179.40599999999989
 31
0.0
  0
LINE
  5
80
  8
0
 62
     7
 10
157.947
 20
179.51400000000001
 30
0.0
 11
160.15700000000001
 21
180.10599999999999
 31
0.0
  0
LINE
  5
81
  8
0
 62
     7
 10
160.15700000000001
 20
180.10599999999999
 30
0.0
 11
157.947
 21
180.69800000000001
 31
0.0
  0
LINE
  5
82
  8
0
 62
     7
 10
157.947
 20
180.69800000000001
 30
0.0
 11
157.947
 21
179.51400000000001
 31
0.0
  0
LINE
  5
83
  8
0
 62
     7
 10
130.86699999999999
 20
180.69800000000001
 30
0.0
 11
128.65700000000001
 21
180.10599999999999
 31
0.0
  0
LINE
  5
84
  8
0
 62
     7
 10
128.65700000000001
 20
180.10599999999999
 30
0.0
 11
130.86699999999999
 21
179.51400000000001
 31
0.0
  0
LINE
  5
85
  8
0
 62
     7
 10
130.86699999999999
 20
179.51400000000001
 30
0.0
 11
130.86699999999999
 21
180.69800000000001
 31
0.0
  0
LINE
  5
86
  8
0
 62
     7
 10
131.86500000000001
 20
113.76600000000001
 30
0.0
 11
152.09999999999999
 21
113.76600000000001
 31
0.0
  0
LINE
  5
87
  8
0
 62
     7
 10
138.90700000000001
 20
113.76600000000001
 30
0.0
 11
140.90700000000001
 21
112.298
 31
0.0
  0
LINE
  5
88
  8
0
  6
AIGENLINE003
 62
     7
 10
142.107
 20
113.755
 30
0.0
 11
142.107
 21
109.255
 31
0.0
  0
LINE
  5
89
  8
0
  6
AIGENLINE003
 62
     7
 10
140.40700000000001
 20
114.756
 30
0.0
 11
142.107
 21
113.755
 31
0.0
  0
LINE
  5
8A
  8
0
  6
AIGENLINE003
 62
     7
 10
148.40000000000001
 20
114.756
 30
0.0
 11
146.703
 21
113.755
 31
0.0
  0
LINE
  5
8B
  8
0
  6
AIGENLINE003
 62
     7
 10
146.703
 20
113.755
 30
0.0
 11
146.70699999999999
 21
109.255
 31
0.0
  0
LINE
  5
8C
  8
0
 62
     7
 10
140.90700000000001
 20
112.298
 30
0.0
 11
140.90700000000001
 21
109.255
 31
0.0
  0
LINE
  5
8D
  8
0
 62
     7
 10
156.40700000000001
 20
113.771
 30
0.0
 11
156.40700000000001
 21
114.655
 31
0.0
  0
LINE
  5
8E
  8
0
 62
     7
 10
152.82299999999989
 20
110.099
 30
0.0
 11
155.864
 21
112.616
 31
0.0
  0
LINE
  5
8F
  8
0
 62
     7
 10
147.90700000000001
 20
109.756
 30
0.0
 11
147.90700000000001
 21
109.255
 31
0.0
  0
LINE
  5
90
  8
0
  6
AIGENLINE001
 62
     7
 10
144.40700000000001
 20
117.681
 30
0.0
 11
144.40700000000001
 21
107.648
 31
0.0
  0
LINE
  5
91
  8
0
  6
AIGENLINE003
 62
     7
 10
148.40000000000001
 20
114.756
 30
0.0
 11
150.51300000000001
 21
114.849
 31
0.0
  0
LINE
  5
92
  8
0
  6
AIGENLINE003
 62
     7
 10
140.40700000000001
 20
114.756
 30
0.0
 11
138.41399999999999
 21
114.84399999999999
 31
0.0
  0
LINE
  5
93
  8
0
 62
     7
 10
127.907
 20
116.756
 30
0.0
 11
129.036
 21
115.206
 31
0.0
  0
LINE
  5
94
  8
0
  6
AIGENLINE003
 62
     7
 10
154.80799999999999
 20
125.387
 30
0.0
 11
152.38
 21
116.423
 31
0.0
  0
LINE
  5
95
  8
0
  6
AIGENLINE001
 62
     7
 10
160.90799999999999
 20
128.137
 30
0.0
 11
160.90799999999999
 21
123.523
 31
0.0
  0
LINE
  5
96
  8
0
  6
AIGENLINE003
 62
     7
 10
129.98400000000001
 20
118.72499999999999
 30
0.0
 11
123.544
 21
125.60899999999999
 31
0.0
  0
LINE
  5
97
  8
0
 62
     7
 10
167.40799999999999
 20
125.755
 30
0.0
 11
167.40799999999999
 21
115.44499999999999
 31
0.0
  0
LINE
  5
98
  8
0
 62
     7
 10
142.428
 20
125.755
 30
0.0
 11
142.428
 21
114.756
 31
0.0
  0
LINE
  5
99
  8
0
 62
     7
 10
143.02000000000001
 20
123.545
 30
0.0
 11
142.428
 21
125.755
 31
0.0
  0
LINE
  5
9A
  8
0
 62
     7
 10
142.428
 20
125.755
 30
0.0
 11
141.83600000000001
 21
123.545
 31
0.0
  0
LINE
  5
9B
  8
0
 62
     7
 10
141.83600000000001
 20
123.545
 30
0.0
 11
143.02000000000001
 21
123.545
 31
0.0
  0
LINE
  5
9C
  8
0
 62
     7
 10
141.83600000000001
 20
116.96599999999999
 30
0.0
 11
142.428
 21
114.756
 31
0.0
  0
LINE
  5
9D
  8
0
 62
     7
 10
142.428
 20
114.756
 30
0.0
 11
143.02000000000001
 21
116.96599999999999
 31
0.0
  0
LINE
  5
9E
  8
0
 62
     7
 10
143.02000000000001
 20
116.96599999999999
 30
0.0
 11
141.83600000000001
 21
116.96599999999999
 31
0.0
  0
LINE
  5
9F
  8
0
 62
     7
 10
134.64699999999999
 20
227.21700000000001
 30
0.0
 11
134.054
 21
229.42699999999999
 31
0.0
  0
LINE
  5
A0
  8
0
 62
     7
 10
134.054
 20
229.42699999999999
 30
0.0
 11
133.46199999999999
 21
227.21700000000001
 31
0.0
  0
LINE
  5
A1
  8
0
 62
     7
 10
133.46199999999999
 20
227.21700000000001
 30
0.0
 11
134.64699999999999
 21
227.21700000000001
 31
0.0
  0
LINE
  5
A2
  8
0
 62
     7
 10
133.46199999999999
 20
208.637
 30
0.0
 11
134.054
 21
206.42699999999999
 31
0.0
  0
LINE
  5
A3
  8
0
 62
     7
 10
134.054
 20
206.42699999999999
 30
0.0
 11
134.64699999999999
 21
208.637
 31
0.0
  0
LINE
  5
A4
  8
0
 62
     7
 10
134.64699999999999
 20
208.637
 30
0.0
 11
133.46199999999999
 21
208.637
 31
0.0
  0
LINE
  5
A5
  8
0
 62
     7
 10
166.66900000000001
 20
229.42699999999999
 30
0.0
 11
166.66900000000001
 21
189.42699999999999
 31
0.0
  0
LINE
  5
A6
  8
0
 62
     7
 10
161.24299999999999
 20
189.42699999999999
 30
0.0
 11
167.369
 21
189.42699999999999
 31
0.0
  0
LINE
  5
A7
  8
0
 62
     7
 10
167.261
 20
227.21700000000001
 30
0.0
 11
166.66900000000001
 21
229.42699999999999
 31
0.0
  0
LINE
  5
A8
  8
0
 62
     7
 10
166.66900000000001
 20
229.42699999999999
 30
0.0
 11
166.077
 21
227.21700000000001
 31
0.0
  0
LINE
  5
A9
  8
0
 62
     7
 10
166.077
 20
227.21700000000001
 30
0.0
 11
167.261
 21
227.21700000000001
 31
0.0
  0
LINE
  5
AA
  8
0
 62
     7
 10
166.077
 20
191.63800000000001
 30
0.0
 11
166.66900000000001
 21
189.42699999999999
 31
0.0
  0
LINE
  5
AB
  8
0
 62
     7
 10
166.66900000000001
 20
189.42699999999999
 30
0.0
 11
167.261
 21
191.63800000000001
 31
0.0
  0
LINE
  5
AC
  8
0
 62
     7
 10
167.261
 20
191.63800000000001
 30
0.0
 11
166.077
 21
191.63800000000001
 31
0.0
  0
LINE
  5
AD
  8
0
 62
     7
 10
69.510400000000004
 20
112.13800000000001
 30
0.0
 11
65.965699999999984
 21
112.13800000000001
 31
0.0
  0
ARC
  5
AE
  8
0
 62
     7
 10
54.274299999999997
 20
114.811196
 30
0.0
 40
0.143811
 50
154.348285
 51
167.65177
  0
ARC
  5
AF
  8
0
 62
     7
 10
54.362051000000001
 20
114.7719
 30
0.0
 40
0.239938
 50
124.301457
 51
154.96054799999999
  0
LINE
  5
B0
  8
0
 62
     7
 10
54.055300000000003
 20
113.94499999999999
 30
0.0
 11
54.133800000000001
 21
114.842
 31
0.0
  0
ARC
  5
B1
  8
0
 62
     7
 10
55.407656000000003
 20
117.960668
 30
0.0
 40
4.0271280000000003
 50
274.73711100000003
 51
286.73027000000002
  0
ARC
  5
B2
  8
0
 62
     7
 10
55.576995999999987
 20
116.385755
 30
0.0
 40
2.4439160000000002
 50
267.15939100000003
 51
273.82980900000001
  0
LINE
  5
B3
  8
0
 62
     7
 10
52.573399999999999
 20
113.94499999999999
 30
0.0
 11
55.4559
 21
113.94499999999999
 31
0.0
  0
ARC
  5
B4
  8
0
 62
     7
 10
52.555109999999999
 20
114.905427
 30
0.0
 40
0.960758
 50
224.8737129999999
 51
271.087852
  0
ARC
  5
B5
  8
0
 62
     7
 10
52.565346999999988
 20
114.942188
 30
0.0
 40
0.9941270000000001
 50
191.29051000000001
 51
225.95894699999999
  0
LINE
  5
B6
  8
0
 62
     7
 10
51.235799999999998
 20
116.75700000000001
 30
0.0
 11
51.590499999999999
 21
114.748
 31
0.0
  0
ARC
  5
B7
  8
0
 62
     7
 10
77.692982999999984
 20
114.811196
 30
0.0
 40
0.143811
 50
12.34821
 51
25.651695
  0
ARC
  5
B8
  8
0
 62
     7
 10
77.605232999999998
 20
114.7719
 30
0.0
 40
0.239938
 50
25.039432000000001
 51
55.698523999999999
  0
LINE
  5
B9
  8
0
 62
     7
 10
77.911999999999992
 20
113.94499999999999
 30
0.0
 11
77.833500000000001
 21
114.842
 31
0.0
  0
LINE
  5
BA
  8
0
 62
     7
 10
71.317400000000006
 20
113.569
 30
0.0
 11
65.965699999999984
 21
113.569
 31
0.0
  0
ARC
  5
BB
  8
0
 62
     7
 10
76.559628000000004
 20
117.960668
 30
0.0
 40
4.0271280000000003
 50
253.26974999999999
 51
265.26290899999998
  0
ARC
  5
BC
  8
0
 62
     7
 10
76.390287999999998
 20
116.385755
 30
0.0
 40
2.4439160000000002
 50
266.17021099999999
 51
272.84062899999998
  0
LINE
  5
BD
  8
0
 62
     7
 10
79.393900000000002
 20
113.94499999999999
 30
0.0
 11
76.511399999999995
 21
113.94499999999999
 31
0.0
  0
ARC
  5
BE
  8
0
 62
     7
 10
79.412172999999996
 20
114.905427
 30
0.0
 40
0.960758
 50
268.91216800000001
 51
315.126307
  0
ARC
  5
BF
  8
0
 62
     7
 10
79.401937000000004
 20
114.942188
 30
0.0
 40
0.9941270000000001
 50
314.04107299999998
 51
348.70951000000002
  0
LINE
  5
C0
  8
0
 62
     7
 10
80.731499999999997
 20
116.75700000000001
 30
0.0
 11
80.376799999999989
 21
114.748
 31
0.0
  0
LINE
  5
C1
  8
0
 62
     7
 10
69.389499999999998
 20
109.255
 30
0.0
 11
65.965699999999984
 21
109.255
 31
0.0
  0
ARC
  5
C2
  8
0
 62
     7
 10
69.846344999999999
 20
112.020894
 30
0.0
 40
0.349265
 50
126.15494099999989
 51
146.19575599999999
  0
ARC
  5
C3
  8
0
 62
     7
 10
69.974113000000003
 20
111.918661
 30
0.0
 40
0.512497
 50
144.64542900000001
 51
178.331605
  0
LINE
  5
C4
  8
0
 62
     7
 10
69.389499999999998
 20
109.255
 30
0.0
 11
69.461799999999997
 21
111.934
 31
0.0
  0
LINE
  5
C5
  8
0
 62
     7
 10
71.009
 20
113.452
 30
0.0
 11
69.638900000000007
 21
112.30200000000001
 31
0.0
  0
ARC
  5
C6
  8
0
 62
     7
 10
71.319172999999992
 20
113.266834
 30
0.0
 40
0.302495
 50
90.341060000000013
 51
99.390140000000002
  0
ARC
  5
C7
  8
0
 62
     7
 10
71.359875000000002
 20
113.00309799999999
 30
0.0
 40
0.569346
 50
99.100918000000036
 51
128.04037600000001
  0
ARC
  5
C8
  8
0
 62
     7
 10
71.25224
 20
122.12101199999999
 30
0.0
 40
8.5519359999999995
 50
270.43638700000002
 51
272.15930800000001
  0
ARC
  5
C9
  8
0
 62
     7
 10
70.771197000000001
 20
135.58251299999989
 30
0.0
 40
22.022019
 50
272.09035999999998
 51
276.99385000000001
  0
ARC
  5
CA
  8
0
 62
     7
 10
72.883682999999991
 20
120.15723800000001
 30
0.0
 40
6.4579959999999987
 50
275.054528
 51
279.76658400000002
  0
ARC
  5
CB
  8
0
 62
     7
 10
71.847347999999997
 20
126.727647
 30
0.0
 40
13.109311
 50
279.35900600000002
 51
283.13859000000002
  0
ARC
  5
CC
  8
0
 62
     7
 10
71.175291000000001
 20
129.885493
 30
0.0
 40
16.33738
 50
282.916471
 51
289.346022
  0
ARC
  5
CD
  8
0
 62
     7
 10
74.167143999999993
 20
121.15905600000001
 30
0.0
 40
7.1128859999999996
 50
289.893035
 51
293.51029299999999
  0
ARC
  5
CE
  8
0
 62
     7
 10
75.438873000000001
 20
119.071853
 30
0.0
 40
4.7034769999999986
 50
289.44375600000001
 51
294.63991900000002
  0
ARC
  5
CF
  8
0
 62
     7
 10
74.074782999999996
 20
122.14823
 30
0.0
 40
8.0685579999999995
 50
294.33669300000003
 51
299.08633800000001
  0
ARC
  5
D0
  8
0
 62
     7
 10
72.454497000000003
 20
125.145253
 30
0.0
 40
11.475358999999999
 50
298.88170500000001
 51
310.350775
  0
ARC
  5
D1
  8
0
 62
     7
 10
76.203698000000003
 20
120.6242
 30
0.0
 40
5.6028469999999988
 50
311.06639799999999
 51
316.309888
  0
LINE
  5
D2
  8
0
 62
     7
 10
83.135499999999993
 20
116.75700000000001
 30
0.0
 11
65.965699999999984
 21
116.75700000000001
 31
0.0
  0
ARC
  5
D3
  8
0
 62
     7
 10
83.148707999999985
 20
117.18605599999999
 30
0.0
 40
0.429512
 50
268.23818399999999
 51
296.15427699999998
  0
ARC
  5
D4
  8
0
 62
     7
 10
83.117539000000008
 20
117.276965
 30
0.0
 40
0.5249920000000001
 50
294.83428500000002
 51
335.90935400000001
  0
ARC
  5
D5
  8
0
 62
     7
 10
67.263312999999997
 20
124.244485
 30
0.0
 40
17.842053
 50
336.26409100000001
 51
339.07767100000001
  0
ARC
  5
D6
  8
0
 62
     7
 10
53.030481000000009
 20
129.80614
 30
0.0
 40
33.122717000000002
 50
338.883284
 51
341.1998200000001
  0
ARC
  5
D7
  8
0
 62
     7
 10
37.428632
 20
135.21704399999999
 30
0.0
 40
49.636035
 50
341.09104300000001
 51
346.65802300000001
  0
ARC
  5
D8
  8
0
 62
     7
 10
63.426307999999999
 20
128.925827
 30
0.0
 40
22.888582
 50
346.96373
 51
349.91426300000001
  0
ARC
  5
D9
  8
0
 62
     7
 10
85.242741000000009
 20
125.03504
 30
0.0
 40
0.727992
 50
350.71171600000002
 51
76.524814000000006
  0
ARC
  5
DA
  8
0
 62
     7
 10
85.314864999999983
 20
125.309423
 30
0.0
 40
0.444398
 50
77.324225999999996
 51
84.706403000000009
  0
ARC
  5
DB
  8
0
 62
     7
 10
85.276911999999996
 20
125.117938
 30
0.0
 40
0.6388850000000002
 50
82.901287999999994
 51
90.734719999999996
  0
LINE
  5
DC
  8
0
 62
     7
 10
65.983599999999996
 20
125.755
 30
0.0
 11
85.272199999999984
 21
125.75700000000001
 31
0.0
  0
LINE
  5
DD
  8
0
 62
     7
 10
62.456499999999998
 20
112.13800000000001
 30
0.0
 11
66.001199999999997
 21
112.13800000000001
 31
0.0
  0
LINE
  5
DE
  8
0
 62
     7
 10
60.6496
 20
113.569
 30
0.0
 11
66.001199999999997
 21
113.569
 31
0.0
  0
LINE
  5
DF
  8
0
 62
     7
 10
62.577500000000001
 20
109.255
 30
0.0
 11
66.001199999999997
 21
109.255
 31
0.0
  0
ARC
  5
E0
  8
0
 62
     7
 10
62.156674000000002
 20
111.947461
 30
0.0
 40
0.348709
 50
357.71900799999997
 51
17.800813000000002
  0
ARC
  5
E1
  8
0
 62
     7
 10
61.996701000000002
 20
111.91086300000001
 30
0.0
 40
0.5124050000000001
 50
16.228597000000001
 51
49.915098999999991
  0
LINE
  5
E2
  8
0
 62
     7
 10
62.577500000000001
 20
109.255
 30
0.0
 11
62.505099999999999
 21
111.934
 31
0.0
  0
LINE
  5
E3
  8
0
 62
     7
 10
60.957900000000002
 20
113.452
 30
0.0
 11
62.32800000000001
 21
112.30200000000001
 31
0.0
  0
ARC
  5
E4
  8
0
 62
     7
 10
60.760193999999991
 20
113.230385
 30
0.0
 40
0.296618
 50
48.198436000000001
 51
57.425746999999987
  0
ARC
  5
E5
  8
0
 62
     7
 10
60.613244000000002
 20
113.003866
 30
0.0
 40
0.5666240000000001
 50
57.235934999999991
 51
86.324594000000005
  0
ARC
  5
E6
  8
0
 62
     7
 10
59.71029399999999
 20
122.41814599999999
 30
0.0
 40
8.7756740000000004
 50
262.16695700000002
 51
263.845777
  0
ARC
  5
E7
  8
0
 62
     7
 10
61.155520000000003
 20
135.604187
 30
0.0
 40
22.040671
 50
263.78524800000002
 51
268.68464399999999
  0
ARC
  5
E8
  8
0
 62
     7
 10
57.576416999999999
 20
120.57549299999999
 30
0.0
 40
6.4885789999999988
 50
246.24565699999999
 51
250.93441100000001
  0
ARC
  5
E9
  8
0
 62
     7
 10
59.812282000000003
 20
126.77255
 30
0.0
 40
13.076345999999999
 50
250.544681
 51
254.33330000000001
  0
ARC
  5
EA
  8
0
 62
     7
 10
60.75617900000001
 20
129.904425
 30
0.0
 40
16.346881
 50
254.11215200000001
 51
260.53769599999998
  0
ARC
  5
EB
  8
0
 62
     7
 10
59.172013999999997
 20
120.806541
 30
0.0
 40
7.1126630000000004
 50
261.07684599999999
 51
264.69410399999998
  0
ARC
  5
EC
  8
0
 62
     7
 10
55.151983999999999
 20
119.995062
 30
0.0
 40
4.7263859999999989
 50
223.29383899999999
 51
228.463899
  0
ARC
  5
ED
  8
0
 62
     7
 10
57.399087999999999
 20
122.470707
 30
0.0
 40
8.0696380000000012
 50
228.17661000000001
 51
232.92516699999999
  0
ARC
  5
EE
  8
0
 62
     7
 10
59.481609999999989
 20
125.158706
 30
0.0
 40
11.469792999999999
 50
232.72007600000001
 51
244.195898
  0
ARC
  5
EF
  8
0
 62
     7
 10
56.864673000000003
 20
119.90634
 30
0.0
 40
5.6024449999999986
 50
244.90835100000001
 51
250.154346
  0
LINE
  5
F0
  8
0
 62
     7
 10
48.831400000000002
 20
116.75700000000001
 30
0.0
 11
66.001199999999997
 21
116.75700000000001
 31
0.0
  0
ARC
  5
F1
  8
0
 62
     7
 10
48.771987000000003
 20
117.21815100000001
 30
0.0
 40
0.4308800000000001
 50
201.151701
 51
229.57801000000001
  0
ARC
  5
F2
  8
0
 62
     7
 10
48.842123000000001
 20
117.280976
 30
0.0
 40
0.524339
 50
228.19476599999999
 51
268.83219200000002
  0
ARC
  5
F3
  8
0
 62
     7
 10
63.566153
 20
127.94241599999999
 30
0.0
 40
17.819023000000001
 50
189.773616
 51
192.59158400000001
  0
ARC
  5
F4
  8
0
 62
     7
 10
78.503304
 20
131.16337899999999
 30
0.0
 40
33.099279000000003
 50
192.39632900000001
 51
194.71484199999989
  0
ARC
  5
F5
  8
0
 62
     7
 10
94.529544000000016
 20
135.275386
 30
0.0
 40
49.644463000000002
 50
194.606754
 51
200.17262600000001
  0
ARC
  5
F6
  8
0
 62
     7
 10
69.390058999999994
 20
126.169304
 30
0.0
 40
22.907181000000001
 50
200.47738100000001
 51
203.4248
  0
ARC
  5
F7
  8
0
 62
     7
 10
46.719621999999987
 20
125.02872499999999
 30
0.0
 40
0.728361
 50
91.683827999999991
 51
177.47150199999999
  0
ARC
  5
F8
  8
0
 62
     7
 10
46.407284999999987
 20
125.04697
 30
0.0
 40
0.4155460000000001
 50
178.08489900000001
 51
185.61287300000001
  0
ARC
  5
F9
  8
0
 62
     7
 10
46.673523000000003
 20
125.053152
 30
0.0
 40
0.6814020000000001
 50
183.94038399999999
 51
191.479601
  0
LINE
  5
FA
  8
0
 62
     7
 10
65.983599999999996
 20
125.755
 30
0.0
 11
46.694800000000001
 21
125.75700000000001
 31
0.0
  0
ARC
  5
FB
  8
0
 62
     7
 10
80.846995999999976
 20
190.60656900000001
 30
0.0
 40
6.6852359999999988
 50
272.066575
 51
274.059414
  0
ARC
  5
FC
  8
0
 62
     7
 10
80.083434999999994
 20
202.37981199999999
 30
0.0
 40
18.483135000000001
 50
273.83686999999998
 51
277.73527300000001
  0
ARC
  5
FD
  8
0
 62
     7
 10
82.198261999999986
 20
187.18544499999999
 30
0.0
 40
3.1427860000000001
 50
276.8149259999999
 51
315.680949
  0
ARC
  5
FE
  8
0
 62
     7
 10
82.081110999999993
 20
187.33038199999999
 30
0.0
 40
3.3279349999999992
 50
315.30477999999999
 51
359.53329000000002
  0
ARC
  5
FF
  8
0
 62
     7
 10
-39.770965999999987
 20
196.78725600000001
 30
0.0
 40
125.53865399999999
 50
355.66738800000002
 51
356.76741900000002
  0
ARC
  5
100
  8
0
 62
     7
 10
-102.348257
 20
200.48345499999999
 30
0.0
 40
188.224872
 50
356.71821899999998
 51
357.71744000000001
  0
ARC
  5
101
  8
0
 62
     7
 10
-195.517293
 20
204.356922
 30
0.0
 40
281.47430000000003
 50
357.684934
 51
358.90325999999999
  0
ARC
  5
102
  8
0
 62
     7
 10
-322.57631400000002
 20
207.175038
 30
0.0
 40
408.564166
 50
358.84918199999998
 51
1.869435
  0
ARC
  5
103
  8
0
 62
     7
 10
-167.87251499999999
 20
211.88974200000001
 30
0.0
 40
253.78912399999999
 50
1.9449650000000001
 51
3.2246189999999988
  0
ARC
  5
104
  8
0
 62
     7
 10
-61.442424000000003
 20
217.68697000000009
 30
0.0
 40
147.201583
 50
3.3019579999999999
 51
4.575304
  0
ARC
  5
105
  8
0
 62
     7
 10
66.927777000000006
 20
275.32250399999998
 30
0.0
 40
91.898458999999988
 50
269.411361
 51
270.60794299999998
  0
ARC
  5
106
  8
0
 62
     7
 10
66.18594499999999
 20
379.02127000000002
 30
0.0
 40
195.59958700000001
 50
270.50293599999998
 51
271.462693
  0
ARC
  5
107
  8
0
 62
     7
 10
64.509517000000002
 20
456.12912999999992
 30
0.0
 40
272.72527100000002
 50
271.40127100000001
 51
272.96290599999998
  0
ARC
  5
108
  8
0
 62
     7
 10
72.146865000000005
 20
305.36998599999998
 30
0.0
 40
121.773003
 50
273.04077000000001
 51
274.21075200000001
  0
ARC
  5
109
  8
0
 62
     7
 10
65.300211000000004
 20
179.593986
 30
0.0
 40
37.339418000000002
 50
88.951234999999997
 51
91.030534999999986
  0
ARC
  5
10A
  8
0
 62
     7
 10
65.715642000000003
 20
146.677978
 30
0.0
 40
70.257795000000002
 50
90.88648000000002
 51
92.499564000000007
  0
ARC
  5
10B
  8
0
 62
     7
 10
67.219126000000003
 20
109.35029299999999
 30
0.0
 40
107.61560799999999
 50
92.432543999999993
 51
96.179108999999997
  0
ARC
  5
10C
  8
0
 62
     7
 10
62.248379
 20
156.33238600000001
 30
0.0
 40
60.371541999999998
 50
96.288388999999995
 51
97.962402999999995
  0
ARC
  5
10D
  8
0
 62
     7
 10
58.736227
 20
181.91395299999999
 30
0.0
 40
34.550148999999998
 50
98.070784000000003
 51
99.143955000000005
  0
ARC
  5
10E
  8
0
 62
     7
 10
53.798569000000001
 20
211.404675
 30
0.0
 40
4.6533340000000001
 50
96.823927000000012
 51
117.5519399999999
  0
ARC
  5
10F
  8
0
 62
     7
 10
54.222673999999991
 20
210.51709299999999
 30
0.0
 40
5.636533
 50
117.20077999999999
 51
157.82551000000001
  0
ARC
  5
110
  8
0
 62
     7
 10
53.343617999999999
 20
210.94366099999999
 30
0.0
 40
4.6619239999999991
 50
158.60272900000001
 51
172.09302099999999
  0
ARC
  5
111
  8
0
 62
     7
 10
75.367699999999999
 20
206.32819699999999
 30
0.0
 40
27.155625000000001
 50
168.77152000000001
 51
172.323678
  0
ARC
  5
112
  8
0
 62
     7
 10
89.553404999999998
 20
204.27537899999999
 30
0.0
 40
41.488647999999998
 50
172.13096300000001
 51
175.15510900000001
  0
ARC
  5
113
  8
0
 62
     7
 10
108.157488
 20
202.574378
 30
0.0
 40
60.170048999999992
 50
175.03736000000001
 51
178.63977600000001
  0
ARC
  5
114
  8
0
 62
     7
 10
123.057672
 20
202.01861099999999
 30
0.0
 40
75.079499999999996
 50
178.48568900000001
 51
184.88662500000001
  0
ARC
  5
115
  8
0
 62
     7
 10
98.570238000000003
 20
200.09302099999999
 30
0.0
 40
50.517319000000001
 50
185.076427
 51
188.714777
  0
ARC
  5
116
  8
0
 62
     7
 10
79.304954000000009
 20
197.267819
 30
0.0
 40
31.046651000000001
 50
188.94805099999999
 51
192.329847
  0
ARC
  5
117
  8
0
 62
     7
 10
59.224782999999988
 20
222.64728400000001
 30
0.0
 40
36.836683000000001
 50
261.42690399999998
 51
263.44539800000001
  0
ARC
  5
118
  8
0
 62
     7
 10
63.347698999999999
 20
256.89625899999999
 30
0.0
 40
71.332665000000006
 50
263.29564699999997
 51
264.90356000000003
  0
ARC
  5
119
  8
0
 62
     7
 10
66.902053000000009
 20
295.0977410000001
 30
0.0
 40
109.698961
 50
264.82690400000001
 51
268.55884200000003
  0
ARC
  5
11A
  8
0
 62
     7
 10
65.237657999999996
 20
235.428192
 30
0.0
 40
50.006692999999999
 50
268.74577499999998
 51
270.85476199999999
  0
LINE
  5
11B
  8
0
 62
     7
 10
46.675800000000002
 20
229.42699999999999
 30
0.0
 11
65.983599999999996
 21
229.42699999999999
 31
0.0
  0
ARC
  5
11C
  8
0
 62
     7
 10
50.434714999999997
 20
190.90996100000001
 30
0.0
 40
6.9234450000000001
 50
261.372187
 51
263.295794
  0
ARC
  5
11D
  8
0
 62
     7
 10
51.84084099999999
 20
202.370149
 30
0.0
 40
18.469518000000001
 50
263.113992
 51
267.01552099999998
  0
ARC
  5
11E
  8
0
 62
     7
 10
49.745055999999998
 20
187.27596
 30
0.0
 40
3.187168999999999
 50
179.50894099999999
 51
221.85152099999999
  0
ARC
  5
11F
  8
0
 62
     7
 10
49.840997999999999
 20
187.328383
 30
0.0
 40
3.2937059999999989
 50
221.41725500000001
 51
262.23688399999998
  0
ARC
  5
120
  8
0
 62
     7
 10
171.81188399999999
 20
219.23719399999999
 30
0.0
 40
125.549049
 50
175.34364500000001
 51
176.44358099999999
  0
ARC
  5
121
  8
0
 62
     7
 10
234.46877499999999
 20
215.182548
 30
0.0
 40
188.33685800000001
 50
176.39485500000001
 51
177.393484
  0
ARC
  5
122
  8
0
 62
     7
 10
327.34492400000011
 20
210.79347999999999
 30
0.0
 40
281.31656400000003
 50
177.36071999999999
 51
178.57972100000001
  0
ARC
  5
123
  8
0
 62
     7
 10
454.5384269999999
 20
207.25202300000001
 30
0.0
 40
408.55895299999997
 50
178.52533700000001
 51
181.54567299999999
  0
ARC
  5
124
  8
0
 62
     7
 10
299.65681000000001
 20
203.40548899999999
 30
0.0
 40
253.63015300000001
 50
181.6208
 51
182.90125599999999
  0
ARC
  5
125
  8
0
 62
     7
 10
193.40089
 20
198.21916100000001
 30
0.0
 40
147.24805499999999
 50
182.97846000000001
 51
184.251407
  0
ARC
  5
126
  8
0
 62
     7
 10
57.875948000000001
 20
275.85172499999999
 30
0.0
 40
92.191929000000016
 50
265.647469
 51
266.84021799999999
  0
ARC
  5
127
  8
0
 62
     7
 10
63.944168000000012
 20
379.27719100000002
 30
0.0
 40
195.79497000000001
 50
266.73542700000002
 51
267.694232
  0
ARC
  5
128
  8
0
 62
     7
 10
67.322987999999995
 20
455.85544399999998
 30
0.0
 40
272.44731899999999
 50
267.63216299999999
 51
269.19540699999999
  0
ARC
  5
129
  8
0
 62
     7
 10
65.037475999999998
 20
304.65760499999999
 30
0.0
 40
121.23240199999999
 50
269.27201300000002
 51
270.447183
  0
ARC
  5
12A
  8
0
 62
     7
 10
67.095359999999985
 20
215.807582
 30
0.0
 40
0.119912
 50
0.200893
 51
33.152422000000001
  0
ARC
  5
12B
  8
0
 62
     7
 10
67.015711999999994
 20
215.76108199999999
 30
0.0
 40
0.212074
 50
31.902339000000001
 51
45.800241
  0
ARC
  5
12C
  8
0
 62
     7
 10
66.910464000000005
 20
215.652435
 30
0.0
 40
0.36334
 50
45.846133000000002
 51
56.491250000000001
  0
ARC
  5
12D
  8
0
 62
     7
 10
66.755098000000004
 20
215.41752500000001
 30
0.0
 40
0.6449810000000001
 50
56.503755000000012
 51
65.121195999999998
  0
ARC
  5
12E
  8
0
 62
     7
 10
66.567635999999993
 20
215.01931099999999
 30
0.0
 40
1.0851079999999991
 50
64.987258999999995
 51
71.035749999999993
  0
ARC
  5
12F
  8
0
 62
     7
 10
66.294951999999995
 20
214.215552
 30
0.0
 40
1.933859999999999
 50
71.134152999999984
 51
80.905973000000017
  0
ARC
  5
130
  8
0
 62
     7
 10
65.998446000000001
 20
212.60707500000001
 30
0.0
 40
3.569191
 50
80.287102000000004
 51
90.530764000000005
  0
ARC
  5
131
  8
0
 62
     7
 10
65.962733
 20
212.22532799999999
 30
0.0
 40
3.9507849999999989
 50
89.961555000000004
 51
99.217054000000005
  0
ARC
  5
132
  8
0
 62
     7
 10
65.694186000000002
 20
213.983709
 30
0.0
 40
2.172156999999999
 50
99.654133999999999
 51
108.622272
  0
ARC
  5
133
  8
0
 62
     7
 10
65.278087999999997
 20
215.234725
 30
0.0
 40
0.8537829999999999
 50
108.969273
 51
123.446651
  0
ARC
  5
134
  8
0
 62
     7
 10
64.962601000000006
 20
215.72343900000001
 30
0.0
 40
0.272185
 50
124.734601
 51
148.89541500000001
  0
ARC
  5
135
  8
0
 62
     7
 10
64.837536999999998
 20
215.806433
 30
0.0
 40
0.122397
 50
151.91767300000001
 51
179.26522600000001
  0
ARC
  5
136
  8
0
 62
     7
 10
64.835060999999996
 20
215.808423
 30
0.0
 40
0.119912
 50
180.20091300000001
 51
213.15244100000001
  0
ARC
  5
137
  8
0
 62
     7
 10
64.915241000000009
 20
215.855433
 30
0.0
 40
0.212797
 50
211.94342499999999
 51
225.789366
  0
ARC
  5
138
  8
0
 62
     7
 10
65.020231999999993
 20
215.96395699999999
 30
0.0
 40
0.363794
 50
225.855356
 51
236.48780500000001
  0
ARC
  5
139
  8
0
 62
     7
 10
65.174723999999983
 20
216.198014
 30
0.0
 40
0.644241
 50
236.52466799999999
 51
245.15098900000001
  0
ARC
  5
13A
  8
0
 62
     7
 10
65.36262099999999
 20
216.59644399999999
 30
0.0
 40
1.084748
 50
244.988901
 51
251.04019800000009
  0
ARC
  5
13B
  8
0
 62
     7
 10
65.635719999999992
 20
217.40321800000001
 30
0.0
 40
1.936486999999999
 50
251.15387899999999
 51
260.91396700000001
  0
ARC
  5
13C
  8
0
 62
     7
 10
65.932608999999999
 20
219.01854499999999
 30
0.0
 40
3.5786309999999988
 50
260.30435699999998
 51
270.52474999999998
  0
ARC
  5
13D
  8
0
 62
     7
 10
65.968028000000004
 20
219.39119500000001
 30
0.0
 40
3.951131999999999
 50
269.96164599999997
 51
279.21276899999998
  0
ARC
  5
13E
  8
0
 62
     7
 10
66.237257
 20
217.62974299999999
 30
0.0
 40
2.1693579999999999
 50
279.64207099999999
 51
288.61944699999998
  0
ARC
  5
13F
  8
0
 62
     7
 10
66.651685000000001
 20
216.38293200000001
 30
0.0
 40
0.8555039999999999
 50
288.97746899999999
 51
303.422979
  0
ARC
  5
140
  8
0
 62
     7
 10
66.968245999999994
 20
215.892213
 30
0.0
 40
0.271638
 50
304.70657899999998
 51
328.912601
  0
ARC
  5
141
  8
0
 62
     7
 10
67.092883999999998
 20
215.809572
 30
0.0
 40
0.122397
 50
331.9176930000001
 51
359.26524599999999
  0
ARC
  5
142
  8
0
 62
     7
 10
72.927039000000008
 20
180.101966
 30
0.0
 40
36.387481000000001
 50
80.836277999999993
 51
82.825894999999974
  0
ARC
  5
143
  8
0
 62
     7
 10
68.927593000000002
 20
149.70291700000001
 30
0.0
 40
67.048232999999996
 50
82.679118000000003
 51
84.269366000000005
  0
ARC
  5
144
  8
0
 62
     7
 10
64.83365400000001
 20
110.192645
 30
0.0
 40
106.769909
 50
84.200507999999999
 51
87.980994999999993
  0
ARC
  5
145
  8
0
 62
     7
 10
66.425247999999996
 20
153.52520999999999
 30
0.0
 40
63.408204000000012
 50
88.038792999999998
 51
89.737139999999997
  0
ARC
  5
146
  8
0
 62
     7
 10
66.624413000000004
 20
181.01077100000001
 30
0.0
 40
35.922092999999997
 50
89.853686999999994
 51
91.022074999999987
  0
ARC
  5
147
  8
0
 62
     7
 10
78.675557999999995
 20
210.96901099999999
 30
0.0
 40
4.6070729999999998
 50
7.6834609999999994
 51
28.558564000000001
  0
ARC
  5
148
  8
0
 62
     7
 10
77.766081
 20
210.511572
 30
0.0
 40
5.6246710000000002
 50
28.222411999999998
 51
71.615601999999996
  0
ARC
  5
149
  8
0
 62
     7
 10
78.166504000000003
 20
211.450661
 30
0.0
 40
4.6079840000000001
 50
72.657706000000005
 51
83.076563000000007
  0
ARC
  5
14A
  8
0
 62
     7
 10
56.455047999999998
 20
196.545132
 30
0.0
 40
27.187290000000001
 50
347.45125999999999
 51
350.99922600000002
  0
ARC
  5
14B
  8
0
 62
     7
 10
42.319997999999991
 20
198.92378500000001
 30
0.0
 40
41.520648000000001
 50
350.80884200000003
 51
353.83059700000001
  0
ARC
  5
14C
  8
0
 62
     7
 10
23.769821
 20
201.05243999999999
 30
0.0
 40
60.192281000000008
 50
353.71373699999998
 51
357.31483700000001
  0
ARC
  5
14D
  8
0
 62
     7
 10
8.9147479999999995
 20
201.951144
 30
0.0
 40
75.073416000000009
 50
357.16083099999997
 51
3.562249
  0
ARC
  5
14E
  8
0
 62
     7
 10
33.426772
 20
203.30857700000001
 30
0.0
 40
50.52469099999999
 50
3.7529839999999992
 51
7.3908360000000011
  0
ARC
  5
14F
  8
0
 62
     7
 10
52.757975000000002
 20
205.68765200000001
 30
0.0
 40
31.048321000000001
 50
7.6259360000000003
 51
11.007581
  0
ARC
  5
150
  8
0
 62
     7
 10
54.636187
 20
192.12278599999999
 30
0.0
 40
5.9694469999999988
 50
214.822383
 51
261.28906599999999
  0
ARC
  5
151
  8
0
 62
     7
 10
53.783239000000002
 20
191.42814999999999
 30
0.0
 40
4.8732889999999989
 50
189.329331
 51
213.844348
  0
ARC
  5
152
  8
0
 62
     7
 10
77.329591000000008
 20
192.12315899999999
 30
0.0
 40
5.9697839999999989
 50
278.70836200000002
 51
325.17551700000001
  0
ARC
  5
153
  8
0
 62
     7
 10
78.179608999999999
 20
191.43017699999999
 30
0.0
 40
4.8769759999999991
 50
326.15605199999999
 51
350.65367800000001
  0
ARC
  5
154
  8
0
 62
     7
 10
66.707643000000004
 20
222.837504
 30
0.0
 40
37.417445999999998
 50
268.89130699999998
 51
270.87866600000001
  0
ARC
  5
155
  8
0
 62
     7
 10
66.358378000000002
 20
257.57102500000002
 30
0.0
 40
72.152472000000003
 50
270.73302200000001
 51
272.32277099999999
  0
ARC
  5
156
  8
0
 62
     7
 10
64.97750400000001
 20
295.16850099999999
 30
0.0
 40
109.775116
 50
272.24759299999999
 51
275.97678999999999
  0
ARC
  5
157
  8
0
 62
     7
 10
71.103432999999995
 20
235.00866600000001
 30
0.0
 40
49.304732999999999
 50
276.17613
 51
278.31477000000001
  0
LINE
  5
158
  8
0
 62
     7
 10
85.291499999999985
 20
229.42699999999999
 30
0.0
 11
65.983599999999996
 21
229.42699999999999
 31
0.0
  0
ARC
  5
159
  8
0
  6
AIGENLINE003
 62
     7
 10
73.622745999999992
 20
120.793451
 30
0.0
 40
1.039482
 50
182.11163999999999
 51
267.86865699999998
  0
ARC
  5
15A
  8
0
  6
AIGENLINE003
 62
     7
 10
73.621991000000008
 20
120.7168879999999
 30
0.0
 40
1.038726
 50
92.091222999999999
 51
177.88900699999999
  0
LINE
  5
15B
  8
0
  6
AIGENLINE003
 62
     7
 10
73.584100000000007
 20
121.755
 30
0.0
 11
74.384
 21
121.755
 31
0.0
  0
ARC
  5
15C
  8
0
  6
AIGENLINE003
 62
     7
 10
74.345418999999993
 20
120.716525
 30
0.0
 40
1.039115999999999
 50
2.1302140000000001
 51
87.869776000000002
  0
ARC
  5
15D
  8
0
  6
AIGENLINE003
 62
     7
 10
74.345118999999997
 20
120.793359
 30
0.0
 40
1.039401
 50
272.14621099999999
 51
357.89327300000002
  0
LINE
  5
15E
  8
0
  6
AIGENLINE003
 62
     7
 10
74.384
 20
119.755
 30
0.0
 11
73.584100000000007
 21
119.755
 31
0.0
  0
LINE
  5
15F
  8
0
  6
AIGENLINE001
 62
     7
 10
71.163200000000003
 20
120.755
 30
0.0
 11
77.101200000000006
 21
120.755
 31
0.0
  0
LINE
  5
160
  8
0
 62
     7
 10
73.983699999999985
 20
134.19900000000001
 30
0.0
 11
73.983699999999985
 21
123.845
 31
0.0
  0
LINE
  5
161
  8
0
  6
AIGENLINE001
 62
     7
 10
73.983699999999985
 20
123.145
 30
0.0
 11
73.983699999999985
 21
118.56699999999999
 31
0.0
  0
ARC
  5
162
  8
0
  6
AIGENLINE003
 62
     7
 10
57.621923999999993
 20
120.79311800000001
 30
0.0
 40
1.03915
 50
182.09392700000001
 51
267.86662999999999
  0
ARC
  5
163
  8
0
  6
AIGENLINE003
 62
     7
 10
57.62147800000001
 20
120.71691300000001
 30
0.0
 40
1.038713999999999
 50
92.109643999999989
 51
177.89032599999999
  0
LINE
  5
164
  8
0
  6
AIGENLINE003
 62
     7
 10
57.583199999999998
 20
121.755
 30
0.0
 11
58.383200000000002
 21
121.755
 31
0.0
  0
ARC
  5
165
  8
0
  6
AIGENLINE003
 62
     7
 10
58.344594999999998
 20
120.71583200000001
 30
0.0
 40
1.039806999999999
 50
2.1670020000000001
 51
87.872461000000001
  0
ARC
  5
166
  8
0
  6
AIGENLINE003
 62
     7
 10
58.383195999999998
 20
120.75515
 30
0.0
 40
1.000462
 50
270.00002000000001
 51
359.99999000000003
  0
LINE
  5
167
  8
0
  6
AIGENLINE003
 62
     7
 10
58.383200000000002
 20
119.755
 30
0.0
 11
57.583199999999998
 21
119.755
 31
0.0
  0
LINE
  5
168
  8
0
  6
AIGENLINE001
 62
     7
 10
55.162700000000001
 20
120.755
 30
0.0
 11
61.100700000000003
 21
120.755
 31
0.0
  0
LINE
  5
169
  8
0
  6
AIGENLINE001
 62
     7
 10
62.032800000000002
 20
121.755
 30
0.0
 11
70.331699999999998
 21
121.755
 31
0.0
  0
ARC
  5
16A
  8
0
  6
AIGENLINE003
 62
     7
 10
65.983813999999995
 20
121.755095
 30
0.0
 40
1.2500610000000001
 50
269.99212499999999
 51
359.99209500000001
  0
ARC
  5
16B
  8
0
  6
AIGENLINE003
 62
     7
 10
65.983468999999999
 20
121.755095
 30
0.0
 40
1.2500610000000001
 50
180.00790499999999
 51
270.00791500000003
  0
ARC
  5
16C
  8
0
  6
AIGENLINE003
 62
     7
 10
65.983469999999997
 20
121.75475
 30
0.0
 40
1.2500610000000001
 50
89.992105000000009
 51
179.992075
  0
ARC
  5
16D
  8
0
  6
AIGENLINE003
 62
     7
 10
65.983813999999995
 20
121.75475
 30
0.0
 40
1.2500610000000001
 50
0.007905
 51
90.007875000000013
  0
LINE
  5
16E
  8
0
 62
     7
 10
73.983699999999985
 20
133.499
 30
0.0
 11
57.983600000000003
 21
133.499
 31
0.0
  0
LINE
  5
16F
  8
0
 62
     7
 10
57.983600000000003
 20
134.19900000000001
 30
0.0
 11
57.983600000000003
 21
123.845
 31
0.0
  0
LINE
  5
170
  8
0
 62
     7
 10
71.773300000000006
 20
132.90600000000001
 30
0.0
 11
73.983699999999985
 21
133.499
 31
0.0
  0
LINE
  5
171
  8
0
 62
     7
 10
73.983699999999985
 20
133.499
 30
0.0
 11
71.773300000000006
 21
134.09100000000001
 31
0.0
  0
LINE
  5
172
  8
0
 62
     7
 10
71.773300000000006
 20
134.09100000000001
 30
0.0
 11
71.773300000000006
 21
132.90600000000001
 31
0.0
  0
LINE
  5
173
  8
0
 62
     7
 10
60.194000000000003
 20
134.09100000000001
 30
0.0
 11
57.983600000000003
 21
133.499
 31
0.0
  0
LINE
  5
174
  8
0
 62
     7
 10
57.983600000000003
 20
133.499
 30
0.0
 11
60.194000000000003
 21
132.90600000000001
 31
0.0
  0
LINE
  5
175
  8
0
 62
     7
 10
60.194000000000003
 20
132.90600000000001
 30
0.0
 11
60.194000000000003
 21
134.09100000000001
 31
0.0
  0
LINE
  5
176
  8
0
  6
AIGENLINE001
 62
     7
 10
57.983600000000003
 20
123.145
 30
0.0
 11
57.983600000000003
 21
118.56699999999999
 31
0.0
  0
LINE
  5
177
  8
0
  6
AIGENLINE001
 62
     7
 10
65.983599999999996
 20
127.873
 30
0.0
 11
65.983599999999996
 21
106.236
 31
0.0
  0
LINE
  5
178
  8
0
 62
     7
 10
92.694299999999984
 20
125.755
 30
0.0
 11
92.694299999999984
 21
120.755
 31
0.0
  0
LINE
  5
179
  8
0
 62
     7
 10
93.286199999999994
 20
123.544
 30
0.0
 11
92.694299999999984
 21
125.755
 31
0.0
  0
LINE
  5
17A
  8
0
 62
     7
 10
92.694299999999984
 20
125.755
 30
0.0
 11
92.101799999999983
 21
123.544
 31
0.0
  0
LINE
  5
17B
  8
0
 62
     7
 10
92.101799999999983
 20
123.544
 30
0.0
 11
93.286199999999994
 21
123.544
 31
0.0
  0
LINE
  5
17C
  8
0
 62
     7
 10
92.101799999999983
 20
122.96599999999999
 30
0.0
 11
92.694299999999984
 21
120.755
 31
0.0
  0
LINE
  5
17D
  8
0
 62
     7
 10
92.694299999999984
 20
120.755
 30
0.0
 11
93.286199999999994
 21
122.96599999999999
 31
0.0
  0
LINE
  5
17E
  8
0
 62
     7
 10
93.286199999999994
 20
122.96599999999999
 30
0.0
 11
92.101799999999983
 21
122.96599999999999
 31
0.0
  0
LINE
  5
17F
  8
0
 62
     7
 10
77.801299999999983
 20
120.755
 30
0.0
 11
93.394400000000005
 21
120.755
 31
0.0
  0
LINE
  5
180
  8
0
 62
     7
 10
98.856300000000005
 20
125.755
 30
0.0
 11
98.856300000000005
 21
116.755
 31
0.0
  0
LINE
  5
181
  8
0
 62
     7
 10
99.448099999999997
 20
123.544
 30
0.0
 11
98.856300000000005
 21
125.755
 31
0.0
  0
LINE
  5
182
  8
0
 62
     7
 10
98.856300000000005
 20
125.755
 30
0.0
 11
98.2637
 21
123.544
 31
0.0
  0
LINE
  5
183
  8
0
 62
     7
 10
98.2637
 20
123.544
 30
0.0
 11
99.448099999999997
 21
123.544
 31
0.0
  0
LINE
  5
184
  8
0
 62
     7
 10
98.2637
 20
118.965
 30
0.0
 11
98.856300000000005
 21
116.755
 31
0.0
  0
LINE
  5
185
  8
0
 62
     7
 10
98.856300000000005
 20
116.755
 30
0.0
 11
99.448099999999997
 21
118.965
 31
0.0
  0
LINE
  5
186
  8
0
 62
     7
 10
99.448099999999997
 20
118.965
 30
0.0
 11
98.2637
 21
118.965
 31
0.0
  0
LINE
  5
187
  8
0
 62
     7
 10
106.003
 20
125.755
 30
0.0
 11
106.003
 21
109.255
 31
0.0
  0
LINE
  5
188
  8
0
 62
     7
 10
70.107399999999998
 20
109.255
 30
0.0
 11
106.703
 21
109.255
 31
0.0
  0
LINE
  5
189
  8
0
 62
     7
 10
84.532199999999989
 20
116.755
 30
0.0
 11
99.556299999999993
 21
116.755
 31
0.0
  0
LINE
  5
18A
  8
0
 62
     7
 10
86.793199999999999
 20
125.755
 30
0.0
 11
106.703
 21
125.755
 31
0.0
  0
LINE
  5
18B
  8
0
 62
     7
 10
106.595
 20
123.544
 30
0.0
 11
106.003
 21
125.755
 31
0.0
  0
LINE
  5
18C
  8
0
 62
     7
 10
106.003
 20
125.755
 30
0.0
 11
105.411
 21
123.544
 31
0.0
  0
LINE
  5
18D
  8
0
 62
     7
 10
105.411
 20
123.544
 30
0.0
 11
106.595
 21
123.544
 31
0.0
  0
LINE
  5
18E
  8
0
 62
     7
 10
105.411
 20
111.465
 30
0.0
 11
106.003
 21
109.255
 31
0.0
  0
LINE
  5
18F
  8
0
 62
     7
 10
106.003
 20
109.255
 30
0.0
 11
106.595
 21
111.465
 31
0.0
  0
LINE
  5
190
  8
0
 62
     7
 10
106.595
 20
111.465
 30
0.0
 11
105.411
 21
111.465
 31
0.0
  0
ARC
  5
191
  8
0
 62
     7
 10
65.983641000000006
 20
206.427121
 30
0.0
 40
4.000125999999999
 50
270.00002000000001
 51
359.99999000000003
  0
ARC
  5
192
  8
0
 62
     7
 10
65.983813999999995
 20
206.42694700000001
 30
0.0
 40
3.9999530000000001
 50
179.99750299999999
 51
269.99755199999998
  0
ARC
  5
193
  8
0
 62
     7
 10
65.983728999999997
 20
206.42720600000001
 30
0.0
 40
3.9998680000000002
 50
90.001234000000011
 51
180.00124400000001
  0
ARC
  5
194
  8
0
 62
     7
 10
65.983727000000002
 20
206.42703299999999
 30
0.0
 40
4.0000400000000003
 50
0.001244
 51
90.001214000000004
  0
ARC
  5
195
  8
0
 62
     7
 10
65.983642000000003
 20
222.927165
 30
0.0
 40
1.7501199999999999
 50
270.00002000000001
 51
359.99999000000003
  0
ARC
  5
196
  8
0
 62
     7
 10
66.051261999999994
 20
222.99478500000001
 30
0.0
 40
1.818997
 50
182.13044600000001
 51
267.86958299999998
  0
ARC
  5
197
  8
0
 62
     7
 10
66.050700000000006
 20
222.859928
 30
0.0
 40
1.818420999999999
 50
92.113365999999999
 51
177.880965
  0
ARC
  5
198
  8
0
 62
     7
 10
65.983727999999985
 20
222.92707799999999
 30
0.0
 40
1.7500340000000001
 50
0.00283
 51
90.002800000000008
  0
LINE
  5
199
  8
0
  6
AIGENLINE001
 62
     7
 10
61.436399999999999
 20
222.92699999999999
 30
0.0
 11
70.144300000000001
 21
222.92699999999999
 31
0.0
  0
ARC
  5
19A
  8
0
 62
     7
 10
65.895324000000002
 20
206.51525899999999
 30
0.0
 40
2.389904
 50
272.117839
 51
357.88646199999999
  0
ARC
  5
19B
  8
0
 62
     7
 10
66.072198999999998
 20
206.51549900000001
 30
0.0
 40
2.3901520000000001
 50
182.119078
 51
267.87666100000001
  0
ARC
  5
19C
  8
0
 62
     7
 10
65.983642000000003
 20
206.42712
 30
0.0
 40
2.2999610000000001
 50
90.0
 51
179.99996999999999
  0
ARC
  5
19D
  8
0
 62
     7
 10
65.895106000000013
 20
206.338584
 30
0.0
 40
2.390136
 50
2.122844999999999
 51
87.877145999999996
  0
LINE
  5
19E
  8
0
 62
     7
 10
53.495100000000001
 20
235.416
 30
0.0
 11
47.017200000000003
 21
235.416
 31
0.0
  0
LINE
  5
19F
  8
0
 62
     7
 10
79.366200000000006
 20
199.41800000000001
 30
0.0
 11
72.993099999999998
 21
199.41800000000001
 31
0.0
  0
LINE
  5
1A0
  8
0
 62
     7
 10
83.983699999999985
 20
173.06299999999999
 30
0.0
 11
47.983600000000003
 21
173.06299999999999
 31
0.0
  0
LINE
  5
1A1
  8
0
  6
AIGENLINE001
 62
     7
 10
57.983600000000003
 20
233.60300000000001
 30
0.0
 11
57.983600000000003
 21
225.755
 31
0.0
  0
LINE
  5
1A2
  8
0
  6
AIGENLINE001
 62
     7
 10
73.983699999999985
 20
233.60300000000001
 30
0.0
 11
73.983699999999985
 21
225.755
 31
0.0
  0
LINE
  5
1A3
  8
0
 62
     7
 10
85.983199999999997
 20
164.27699999999999
 30
0.0
 11
45.983699999999999
 21
164.27699999999999
 31
0.0
  0
LINE
  5
1A4
  8
0
  6
AIGENLINE001
 62
     7
 10
65.983599999999996
 20
231.608
 30
0.0
 11
65.983599999999996
 21
180.45699999999999
 31
0.0
  0
LINE
  5
1A5
  8
0
 62
     7
 10
45.983699999999999
 20
184.244
 30
0.0
 11
45.983699999999999
 21
163.577
 31
0.0
  0
LINE
  5
1A6
  8
0
 62
     7
 10
47.983600000000003
 20
190.11600000000001
 30
0.0
 11
47.983600000000003
 21
172.36199999999999
 31
0.0
  0
LINE
  5
1A7
  8
0
 62
     7
 10
53.495100000000001
 20
235.416
 30
0.0
 11
69.811199999999999
 21
219.09999999999999
 31
0.0
  0
LINE
  5
1A8
  8
0
 62
     7
 10
62.764499999999998
 20
225.309
 30
0.0
 11
64.746200000000002
 21
224.16399999999999
 31
0.0
  0
LINE
  5
1A9
  8
0
 62
     7
 10
64.746200000000002
 20
224.16399999999999
 30
0.0
 11
63.60199999999999
 21
226.14599999999999
 31
0.0
  0
LINE
  5
1AA
  8
0
 62
     7
 10
63.60199999999999
 20
226.14599999999999
 30
0.0
 11
62.764499999999998
 21
225.309
 31
0.0
  0
LINE
  5
1AB
  8
0
 62
     7
 10
69.202799999999996
 20
220.54499999999999
 30
0.0
 11
67.221100000000007
 21
221.69
 31
0.0
  0
LINE
  5
1AC
  8
0
 62
     7
 10
67.221100000000007
 20
221.69
 30
0.0
 11
68.365600000000001
 21
219.708
 31
0.0
  0
LINE
  5
1AD
  8
0
 62
     7
 10
68.365600000000001
 20
219.708
 30
0.0
 11
69.202799999999996
 21
220.54499999999999
 31
0.0
  0
LINE
  5
1AE
  8
0
 62
     7
 10
61.5319
 20
210.87899999999999
 30
0.0
 11
72.993099999999998
 21
199.41800000000001
 31
0.0
  0
LINE
  5
1AF
  8
0
 62
     7
 10
83.983699999999985
 20
190.11600000000001
 30
0.0
 11
83.983699999999985
 21
172.36199999999999
 31
0.0
  0
LINE
  5
1B0
  8
0
 62
     7
 10
85.983199999999997
 20
184.244
 30
0.0
 11
85.983199999999997
 21
163.577
 31
0.0
  0
LINE
  5
1B1
  8
0
 62
     7
 10
81.773300000000006
 20
172.47
 30
0.0
 11
83.983699999999985
 21
173.06299999999999
 31
0.0
  0
LINE
  5
1B2
  8
0
 62
     7
 10
83.983699999999985
 20
173.06299999999999
 30
0.0
 11
81.773300000000006
 21
173.655
 31
0.0
  0
LINE
  5
1B3
  8
0
 62
     7
 10
81.773300000000006
 20
173.655
 30
0.0
 11
81.773300000000006
 21
172.47
 31
0.0
  0
LINE
  5
1B4
  8
0
 62
     7
 10
83.772800000000004
 20
163.685
 30
0.0
 11
85.983199999999997
 21
164.27699999999999
 31
0.0
  0
LINE
  5
1B5
  8
0
 62
     7
 10
85.983199999999997
 20
164.27699999999999
 30
0.0
 11
83.772800000000004
 21
164.87
 31
0.0
  0
LINE
  5
1B6
  8
0
 62
     7
 10
83.772800000000004
 20
164.87
 30
0.0
 11
83.772800000000004
 21
163.685
 31
0.0
  0
LINE
  5
1B7
  8
0
 62
     7
 10
48.194099999999999
 20
164.87
 30
0.0
 11
45.983699999999999
 21
164.27699999999999
 31
0.0
  0
LINE
  5
1B8
  8
0
 62
     7
 10
45.983699999999999
 20
164.27699999999999
 30
0.0
 11
48.194099999999999
 21
163.685
 31
0.0
  0
LINE
  5
1B9
  8
0
 62
     7
 10
48.194099999999999
 20
163.685
 30
0.0
 11
48.194099999999999
 21
164.87
 31
0.0
  0
LINE
  5
1BA
  8
0
 62
     7
 10
50.194000000000003
 20
173.655
 30
0.0
 11
47.983600000000003
 21
173.06299999999999
 31
0.0
  0
LINE
  5
1BB
  8
0
 62
     7
 10
47.983600000000003
 20
173.06299999999999
 30
0.0
 11
50.194000000000003
 21
172.47
 31
0.0
  0
LINE
  5
1BC
  8
0
 62
     7
 10
50.194000000000003
 20
172.47
 30
0.0
 11
50.194000000000003
 21
173.655
 31
0.0
  0
LINE
  5
1BD
  8
0
 62
     7
 10
92.355000000000004
 20
229.42699999999999
 30
0.0
 11
92.355000000000004
 21
216.92699999999999
 31
0.0
  0
LINE
  5
1BE
  8
0
 62
     7
 10
62.375599999999999
 20
209.19800000000001
 30
0.0
 11
64.357500000000002
 21
208.054
 31
0.0
  0
LINE
  5
1BF
  8
0
 62
     7
 10
64.357500000000002
 20
208.054
 30
0.0
 11
63.213099999999997
 21
210.035
 31
0.0
  0
LINE
  5
1C0
  8
0
 62
     7
 10
63.213099999999997
 20
210.035
 30
0.0
 11
62.375599999999999
 21
209.19800000000001
 31
0.0
  0
LINE
  5
1C1
  8
0
 62
     7
 10
69.592100000000002
 20
203.65600000000001
 30
0.0
 11
67.610399999999998
 21
204.80099999999999
 31
0.0
  0
LINE
  5
1C2
  8
0
 62
     7
 10
67.610399999999998
 20
204.80099999999999
 30
0.0
 11
68.754499999999993
 21
202.81899999999999
 31
0.0
  0
LINE
  5
1C3
  8
0
 62
     7
 10
68.754499999999993
 20
202.81899999999999
 30
0.0
 11
69.592100000000002
 21
203.65600000000001
 31
0.0
  0
LINE
  5
1C4
  8
0
 62
     7
 10
91.762799999999999
 20
219.13800000000001
 30
0.0
 11
92.355000000000004
 21
216.92699999999999
 31
0.0
  0
LINE
  5
1C5
  8
0
 62
     7
 10
92.355000000000004
 20
216.92699999999999
 30
0.0
 11
92.947199999999995
 21
219.13800000000001
 31
0.0
  0
LINE
  5
1C6
  8
0
 62
     7
 10
92.947199999999995
 20
219.13800000000001
 30
0.0
 11
91.762799999999999
 21
219.13800000000001
 31
0.0
  0
LINE
  5
1C7
  8
0
 62
     7
 10
70.844399999999993
 20
222.92699999999999
 30
0.0
 11
93.055000000000007
 21
222.92699999999999
 31
0.0
  0
LINE
  5
1C8
  8
0
 62
     7
 10
92.947199999999995
 20
227.21700000000001
 30
0.0
 11
92.355000000000004
 21
229.42699999999999
 31
0.0
  0
LINE
  5
1C9
  8
0
 62
     7
 10
92.355000000000004
 20
229.42699999999999
 30
0.0
 11
91.762799999999999
 21
227.21700000000001
 31
0.0
  0
LINE
  5
1CA
  8
0
 62
     7
 10
91.762799999999999
 20
227.21700000000001
 30
0.0
 11
92.947199999999995
 21
227.21700000000001
 31
0.0
  0
LINE
  5
1CB
  8
0
 62
     7
 10
92.947199999999995
 20
220.71700000000001
 30
0.0
 11
92.355000000000004
 21
222.92699999999999
 31
0.0
  0
LINE
  5
1CC
  8
0
 62
     7
 10
92.355000000000004
 20
222.92699999999999
 30
0.0
 11
91.762799999999999
 21
220.71700000000001
 31
0.0
  0
LINE
  5
1CD
  8
0
 62
     7
 10
91.762799999999999
 20
220.71700000000001
 30
0.0
 11
92.947199999999995
 21
220.71700000000001
 31
0.0
  0
LINE
  5
1CE
  8
0
 62
     7
 10
91.762799999999999
 20
225.13800000000001
 30
0.0
 11
92.355000000000004
 21
222.92699999999999
 31
0.0
  0
LINE
  5
1CF
  8
0
 62
     7
 10
92.355000000000004
 20
222.92699999999999
 30
0.0
 11
92.947199999999995
 21
225.13800000000001
 31
0.0
  0
LINE
  5
1D0
  8
0
 62
     7
 10
92.947199999999995
 20
225.13800000000001
 30
0.0
 11
91.762799999999999
 21
225.13800000000001
 31
0.0
  0
LINE
  5
1D1
  8
0
  6
AIGENLINE001
 62
     7
 10
59.2254
 20
206.42699999999999
 30
0.0
 11
72.621999999999986
 21
206.42699999999999
 31
0.0
  0
LINE
  5
1D2
  8
0
 62
     7
 10
99.271699999999996
 20
229.42699999999999
 30
0.0
 11
99.271699999999996
 21
177.28299999999999
 31
0.0
  0
LINE
  5
1D3
  8
0
 62
     7
 10
108.057
 20
229.42699999999999
 30
0.0
 11
108.057
 21
183.42699999999999
 31
0.0
  0
LINE
  5
1D4
  8
0
 62
     7
 10
80.550600000000003
 20
183.42699999999999
 30
0.0
 11
108.75700000000001
 21
183.42699999999999
 31
0.0
  0
LINE
  5
1D5
  8
0
 62
     7
 10
75.691999999999993
 20
185.42699999999999
 30
0.0
 11
99.971800000000002
 21
185.42699999999999
 31
0.0
  0
LINE
  5
1D6
  8
0
 62
     7
 10
74.789400000000001
 20
216.92699999999999
 30
0.0
 11
99.971800000000002
 21
216.92699999999999
 31
0.0
  0
LINE
  5
1D7
  8
0
 62
     7
 10
85.990099999999984
 20
229.42699999999999
 30
0.0
 11
108.75700000000001
 21
229.42699999999999
 31
0.0
  0
LINE
  5
1D8
  8
0
 62
     7
 10
99.8643
 20
227.21700000000001
 30
0.0
 11
99.271699999999996
 21
229.42699999999999
 31
0.0
  0
LINE
  5
1D9
  8
0
 62
     7
 10
99.271699999999996
 20
229.42699999999999
 30
0.0
 11
98.679900000000004
 21
227.21700000000001
 31
0.0
  0
LINE
  5
1DA
  8
0
 62
     7
 10
98.679900000000004
 20
227.21700000000001
 30
0.0
 11
99.8643
 21
227.21700000000001
 31
0.0
  0
LINE
  5
1DB
  8
0
 62
     7
 10
99.8643
 20
181.21600000000001
 30
0.0
 11
99.271699999999996
 21
183.42699999999999
 31
0.0
  0
LINE
  5
1DC
  8
0
 62
     7
 10
99.271699999999996
 20
183.42699999999999
 30
0.0
 11
98.679900000000004
 21
181.21600000000001
 31
0.0
  0
LINE
  5
1DD
  8
0
 62
     7
 10
98.679900000000004
 20
181.21600000000001
 30
0.0
 11
99.8643
 21
181.21600000000001
 31
0.0
  0
LINE
  5
1DE
  8
0
 62
     7
 10
108.649
 20
227.21700000000001
 30
0.0
 11
108.057
 21
229.42699999999999
 31
0.0
  0
LINE
  5
1DF
  8
0
 62
     7
 10
108.057
 20
229.42699999999999
 30
0.0
 11
107.465
 21
227.21700000000001
 31
0.0
  0
LINE
  5
1E0
  8
0
 62
     7
 10
107.465
 20
227.21700000000001
 30
0.0
 11
108.649
 21
227.21700000000001
 31
0.0
  0
LINE
  5
1E1
  8
0
 62
     7
 10
99.8643
 20
214.71700000000001
 30
0.0
 11
99.271699999999996
 21
216.92699999999999
 31
0.0
  0
LINE
  5
1E2
  8
0
 62
     7
 10
99.271699999999996
 20
216.92699999999999
 30
0.0
 11
98.679900000000004
 21
214.71700000000001
 31
0.0
  0
LINE
  5
1E3
  8
0
 62
     7
 10
98.679900000000004
 20
214.71700000000001
 30
0.0
 11
99.8643
 21
214.71700000000001
 31
0.0
  0
LINE
  5
1E4
  8
0
 62
     7
 10
107.465
 20
185.637
 30
0.0
 11
108.057
 21
183.42699999999999
 31
0.0
  0
LINE
  5
1E5
  8
0
 62
     7
 10
108.057
 20
183.42699999999999
 30
0.0
 11
108.649
 21
185.637
 31
0.0
  0
LINE
  5
1E6
  8
0
 62
     7
 10
108.649
 20
185.637
 30
0.0
 11
107.465
 21
185.637
 31
0.0
  0
LINE
  5
1E7
  8
0
 62
     7
 10
98.679900000000004
 20
187.637
 30
0.0
 11
99.271699999999996
 21
185.42699999999999
 31
0.0
  0
LINE
  5
1E8
  8
0
 62
     7
 10
99.271699999999996
 20
185.42699999999999
 30
0.0
 11
99.8643
 21
187.637
 31
0.0
  0
LINE
  5
1E9
  8
0
 62
     7
 10
99.8643
 20
187.637
 30
0.0
 11
98.679900000000004
 21
187.637
 31
0.0
  0
LINE
  5
1EA
  8
0
 62
     7
 10
98.679900000000004
 20
219.13800000000001
 30
0.0
 11
99.271699999999996
 21
216.92699999999999
 31
0.0
  0
LINE
  5
1EB
  8
0
 62
     7
 10
99.271699999999996
 20
216.92699999999999
 30
0.0
 11
99.8643
 21
219.13800000000001
 31
0.0
  0
LINE
  5
1EC
  8
0
 62
     7
 10
99.8643
 20
219.13800000000001
 30
0.0
 11
98.679900000000004
 21
219.13800000000001
 31
0.0
  0
TEXT
  5
1ED
  8
_________2
 62
     7
 10
28.2286
 20
68.212999999999994
 30
0.0
 40
4.2168199999999993
  1
※壁取付部には厚さ30mm以上の補強材を入れてください。
 41
0.5
  0
TEXT
  5
1EE
  8
_________2
 62
     7
 10
28.2286
 20
62.941899999999997
 30
0.0
 40
4.2168199999999993
  1
　カウンターを設ける場合も壁固定が必要です。
 41
0.5
  0
LINE
  5
1EF
  8
_________2
 62
     7
 10
210.24000000000001
 20
148.93100000000001
 30
0.0
 11
188.49000000000001
 21
148.93100000000001
 31
0.0
  0
LINE
  5
1F0
  8
_________2
 62
     7
 10
105.239
 20
17.4285
 30
0.0
 11
105.239
 21
0.4482100000000001
 31
0.0
  0
LINE
  5
1F1
  8
_________2
 62
     7
 10
105.239
 20
297.44999999999999
 30
0.0
 11
105.239
 21
280.43000000000001
 31
0.0
  0
LINE
  5
1F2
  8
_________2
 62
     7
 10
21.988499999999998
 20
148.93100000000001
 30
0.0
 11
0.238058
 21
148.93100000000001
 31
0.0
  0
LINE
  5
1F3
  8
_________2
 62
     7
 10
81.679900000000004
 20
51.324300000000001
 30
0.0
 11
79.493700000000004
 21
51.324300000000001
 31
0.0
  0
LINE
  5
1F4
  8
_________2
 62
     7
 10
82.172600000000017
 20
51.324300000000001
 30
0.0
 11
81.920400000000001
 21
51.324300000000001
 31
0.0
  0
LINE
  5
1F5
  8
_________2
 62
     7
 10
82.665199999999984
 20
51.324300000000001
 30
0.0
 11
85.590100000000007
 21
51.324300000000001
 31
0.0
  0
LINE
  5
1F6
  8
_________2
 62
     7
 10
82.172600000000017
 20
51.324300000000001
 30
0.0
 11
82.424800000000005
 21
51.324300000000001
 31
0.0
  0
LINE
  5
1F7
  8
_________2
 62
     7
 10
75.776399999999995
 20
51.324300000000001
 30
0.0
 11
73.589399999999998
 21
51.324300000000001
 31
0.0
  0
LINE
  5
1F8
  8
_________2
 62
     7
 10
76.2684
 20
51.324300000000001
 30
0.0
 11
76.016900000000007
 21
51.324300000000001
 31
0.0
  0
LINE
  5
1F9
  8
_________2
 62
     7
 10
76.2684
 20
51.817
 30
0.0
 11
76.2684
 21
54.003900000000002
 31
0.0
  0
LINE
  5
1FA
  8
_________2
 62
     7
 10
76.2684
 20
51.324300000000001
 30
0.0
 11
76.2684
 21
51.576500000000003
 31
0.0
  0
LINE
  5
1FB
  8
_________2
 62
     7
 10
76.76100000000001
 20
51.324300000000001
 30
0.0
 11
78.947999999999993
 21
51.324300000000001
 31
0.0
  0
LINE
  5
1FC
  8
_________2
 62
     7
 10
76.2684
 20
51.324300000000001
 30
0.0
 11
76.520499999999998
 21
51.324300000000001
 31
0.0
  0
LINE
  5
1FD
  8
_________2
 62
     7
 10
76.2684
 20
50.832399999999993
 30
0.0
 11
76.2684
 21
48.645400000000002
 31
0.0
  0
LINE
  5
1FE
  8
_________2
 62
     7
 10
76.2684
 20
51.324300000000001
 30
0.0
 11
76.2684
 21
51.072800000000001
 31
0.0
  0
LINE
  5
1FF
  8
_________2
 62
     7
 10
79.979399999999984
 20
50.104799999999997
 30
0.0
 11
85.157399999999996
 21
49.240000000000002
 31
0.0
  0
LINE
  5
200
  8
_________2
 62
     7
 10
79.979399999999984
 20
52.543900000000001
 30
0.0
 11
85.157399999999996
 21
53.409300000000002
 31
0.0
  0
LINE
  5
201
  8
_________2
 62
     7
 10
85.157399999999996
 20
49.240000000000002
 30
0.0
 11
85.157399999999996
 21
53.409300000000002
 31
0.0
  0
LINE
  5
202
  8
_________2
 62
     7
 10
79.979399999999984
 20
50.104799999999997
 30
0.0
 11
79.979399999999984
 21
52.543900000000001
 31
0.0
  0
ARC
  5
203
  8
_________2
 62
     7
 10
76.222110000000001
 20
51.277366999999991
 30
0.0
 40
1.2673709999999989
 50
2.1232950000000002
 51
87.909056000000007
  0
ARC
  5
204
  8
_________2
 62
     7
 10
76.315273000000005
 20
51.277400999999998
 30
0.0
 40
1.267363
 50
92.121785999999986
 51
177.878185
  0
ARC
  5
205
  8
_________2
 62
     7
 10
76.315273000000005
 20
51.371245999999992
 30
0.0
 40
1.267363
 50
182.121815
 51
267.87821400000001
  0
ARC
  5
206
  8
_________2
 62
     7
 10
76.221461000000005
 20
51.371928999999987
 30
0.0
 40
1.2680439999999991
 50
272.11916400000001
 51
357.84848499999998
  0
ARC
  5
207
  8
_________2
 62
     7
 10
76.268349999999984
 20
51.324323
 30
0.0
 40
2.0849849999999992
 50
0.00001
 51
89.999980000000008
  0
ARC
  5
208
  8
_________2
 62
     7
 10
76.348388
 20
51.245001999999992
 30
0.0
 40
2.1657860000000002
 50
92.117855000000034
 51
177.90105299999999
  0
ARC
  5
209
  8
_________2
 62
     7
 10
76.348354
 20
51.404327000000002
 30
0.0
 40
2.1657779999999991
 50
182.11700400000001
 51
267.88302499999998
  0
ARC
  5
20A
  8
_________2
 62
     7
 10
76.188378999999983
 20
51.405009999999997
 30
0.0
 40
2.1664590000000001
 50
272.11546800000002
 51
357.86560400000002
  0
TEXT
  5
20B
  8
_________2
 62
     7
 10
109.544
 20
23.199100000000001
 30
0.0
 40
3.0923400000000001
  1
図番
 41
0.5
  0
LINE
  5
20C
  8
_________2
 62
     7
 10
108.489
 20
27.4283
 30
0.0
 11
188.49000000000001
 21
27.4283
 31
0.0
  0
TEXT
  5
20D
  8
_________2
 62
     7
 10
109.544
 20
33.198900000000002
 30
0.0
 40
3.0923400000000001
  1
品番
 41
0.5
  0
TEXT
  5
20E
  8
_________2
 62
     7
 10
109.544
 20
53.337699999999998
 30
0.0
 40
3.0923400000000001
  1
名称
 41
0.5
  0
TEXT
  5
20F
  8
_________2
 62
     7
 10
96.784058333333334
 20
48.341500000000011
 30
0.0
 40
3.6545800000000002
  1
mm
 41
0.5
 72
     1
 11
98.306799999999996
 21
48.341500000000011
 31
0.0
  0
TEXT
  5
210
  8
_________2
 62
     7
 10
90.582099999999997
 20
53.337699999999998
 30
0.0
 40
3.0923400000000001
  1
単位
 41
0.5
  0
TEXT
  5
211
  8
_________2
 62
     7
 10
90.582099999999997
 20
40.930399999999999
 30
0.0
 40
3.0923400000000001
  1
尺度
 41
0.5
  0
TEXT
  5
212
  8
_________2
 62
     7
 10
95.030836166666674
 20
34.737499999999997
 30
0.0
 40
3.6545800000000002
  1
1 ： 10
 41
0.5
 72
     1
 11
98.898600000000002
 21
34.737499999999997
 31
0.0
  0
TEXT
  5
213
  8
_________2
 62
     7
 10
142.7494375
 20
30.627400000000002
 30
0.0
 40
3.9357000000000002
  1
VR5660
 41
0.5
 72
     1
 11
148.489
 21
30.627400000000002
 31
0.0
  0
TEXT
  5
214
  8
_________2
 62
     7
 10
142.7494375
 20
20.626999999999999
 30
0.0
 40
3.9357000000000002
  1
VR5660
 41
0.5
 72
     1
 11
148.489
 21
20.626999999999999
 31
0.0
  0
TEXT
  5
215
  8
_________2
 62
     7
 10
29.525700000000001
 20
22.226900000000001
 30
0.0
 40
3.9357000000000002
  1
実容量3.0L、重量10.9kg、オーバーフロー付
 41
0.5
  0
TEXT
  5
216
  8
_________2
 62
     7
 10
114.11799999999999
 20
45.7453
 30
0.0
 40
3.9357000000000002
  1
メトロポール　洗面器
 41
0.5
  0
TEXT
  5
217
  8
_________2
 62
     7
 10
44.364200333333329
 20
35.122599999999998
 30
0.0
 40
3.6545800000000002
  1
早川
 41
0.5
 72
     1
 11
46.252400000000002
 21
35.122599999999998
 31
0.0
  0
TEXT
  5
218
  8
_________2
 62
     7
 10
25.729290666666671
 20
35.122599999999998
 30
0.0
 40
3.6545800000000002
  1
菅原
 41
0.5
 72
     1
 11
27.6784
 21
35.122599999999998
 31
0.0
  0
TEXT
  5
219
  8
_________2
 62
     7
 10
72.724699999999999
 20
34.737499999999997
 30
0.0
 40
3.6545800000000002
  1
15.12.24
 41
0.5
  0
TEXT
  5
21A
  8
_________2
 62
     7
 10
71.531999999999996
 20
40.930399999999999
 30
0.0
 40
3.0923400000000001
  1
日付
 41
0.5
  0
TEXT
  5
21B
  8
_________2
 62
     7
 10
34.578299999999999
 20
40.930399999999999
 30
0.0
 40
3.0923400000000001
  1
検図
 41
0.5
  0
TEXT
  5
21C
  8
_________2
 62
     7
 10
22.960000000000001
 20
26.731000000000002
 30
0.0
 40
3.0923400000000001
  1
備考
 41
0.5
  0
TEXT
  5
21D
  8
_________2
 62
     7
 10
22.960000000000001
 20
40.930399999999999
 30
0.0
 40
3.0923400000000001
  1
製図
 41
0.5
  0
TEXT
  5
21E
  8
_________2
 62
     7
 10
28.727365333333339
 20
49.456400000000002
 30
0.0
 40
4.4979399999999989
  1
セラトレーディング株式会社
 41
0.5
 72
     1
 11
46.119399999999992
 21
49.456400000000002
 31
0.0
  0
LINE
  5
21F
  8
_________2
 62
     7
 10
188.49000000000001
 20
17.4285
 30
0.0
 11
21.988499999999998
 21
17.4285
 31
0.0
  0
LINE
  5
220
  8
_________2
 62
     7
 10
21.988499999999998
 20
17.4285
 30
0.0
 11
21.988499999999998
 21
280.43000000000001
 31
0.0
  0
LINE
  5
221
  8
_________2
 62
     7
 10
21.988499999999998
 20
280.43000000000001
 30
0.0
 11
188.49000000000001
 21
280.43000000000001
 31
0.0
  0
LINE
  5
222
  8
_________2
 62
     7
 10
188.49000000000001
 20
280.43000000000001
 30
0.0
 11
188.49000000000001
 21
17.4285
 31
0.0
  0
LINE
  5
223
  8
_________2
 62
     7
 10
70.488799999999998
 20
30.9285
 30
0.0
 11
70.488799999999998
 21
57.428400000000011
 31
0.0
  0
LINE
  5
224
  8
_________2
 62
     7
 10
89.488600000000005
 20
30.9285
 30
0.0
 11
89.488600000000005
 21
57.428400000000011
 31
0.0
  0
LINE
  5
225
  8
_________2
 62
     7
 10
108.489
 20
17.4285
 30
0.0
 11
108.489
 21
57.428400000000011
 31
0.0
  0
LINE
  5
226
  8
_________2
 62
     7
 10
33.488300000000002
 20
30.9285
 30
0.0
 11
33.488300000000002
 21
44.928800000000003
 31
0.0
  0
LINE
  5
227
  8
_________2
 62
     7
 10
21.988499999999998
 20
30.9285
 30
0.0
 11
108.489
 21
30.9285
 31
0.0
  0
LINE
  5
228
  8
_________2
 62
     7
 10
21.988499999999998
 20
44.928800000000003
 30
0.0
 11
108.489
 21
44.928800000000003
 31
0.0
  0
LINE
  5
229
  8
_________2
 62
     7
 10
108.489
 20
37.428100000000001
 30
0.0
 11
188.49000000000001
 21
37.428100000000001
 31
0.0
  0
LINE
  5
22A
  8
_________2
 62
     7
 10
21.988499999999998
 20
57.428400000000011
 30
0.0
 11
188.49000000000001
 21
57.428400000000011
 31
0.0
  0
ENDSEC
  0
EOF
