  0
SECTION
  2
HEADER
  9
$ACADVER
  1
AC1009
  9
$INSBASE
 10
0.0
 20
0.0
 30
0.0
  9
$EXTMIN
 10
-4.7010300000000003
 20
-21.071000000000002
 30
0.0
  9
$EXTMAX
 10
205.30099999999999
 20
275.93099999999998
 30
0.0
  9
$LIMMIN
 10
0.0
 20
0.0
  9
$LIMMAX
 10
12.0
 20
9.0
  9
$ORTHOMODE
 70
     0
  9
$REGENMODE
 70
     1
  9
$FILLMODE
 70
     1
  9
$QTEXTMODE
 70
     0
  9
$MIRRTEXT
 70
     1
  9
$DRAGMODE
 70
     2
  9
$LTSCALE
 40
1.0
  9
$OSMODE
 70
    37
  9
$ATTMODE
 70
     1
  9
$TEXTSIZE
 40
0.0
  9
$TRACEWID
 40
0.05
  9
$TEXTSTYLE
  7
STANDARD
  9
$CLAYER
  8
0
  9
$CELTYPE
  6
CONTINUOUS
  9
$CECOLOR
 62
   256
  9
$DIMSCALE
 40
1.0
  9
$DIMASZ
 40
0.18
  9
$DIMEXO
 40
0.0625
  9
$DIMDLI
 40
0.38
  9
$DIMRND
 40
0.0
  9
$DIMDLE
 40
0.0
  9
$DIMEXE
 40
0.18
  9
$DIMTP
 40
0.0
  9
$DIMTM
 40
0.0
  9
$DIMTXT
 40
0.18
  9
$DIMCEN
 40
0.09
  9
$DIMTSZ
 40
0.0
  9
$DIMTOL
 70
     0
  9
$DIMLIM
 70
     0
  9
$DIMTIH
 70
     1
  9
$DIMTOH
 70
     1
  9
$DIMSE1
 70
     0
  9
$DIMSE2
 70
     0
  9
$DIMTAD
 70
     0
  9
$DIMZIN
 70
     0
  9
$DIMBLK
  1

  9
$DIMASO
 70
     1
  9
$DIMSHO
 70
     1
  9
$DIMPOST
  1

  9
$DIMAPOST
  1

  9
$DIMALT
 70
     0
  9
$DIMALTD
 70
     2
  9
$DIMALTF
 40
25.399999999999999
  9
$DIMLFAC
 40
1.0
  9
$DIMTOFL
 70
     0
  9
$DIMTVP
 40
0.0
  9
$DIMTIX
 70
     0
  9
$DIMSOXD
 70
     0
  9
$DIMSAH
 70
     0
  9
$DIMBLK1
  1

  9
$DIMBLK2
  1

  9
$DIMSTYLE
  2
STANDARD
  9
$DIMCLRD
 70
     0
  9
$DIMCLRE
 70
     0
  9
$DIMCLRT
 70
     0
  9
$DIMTFAC
 40
1.0
  9
$DIMGAP
 40
0.09
  9
$LUNITS
 70
     2
  9
$LUPREC
 70
     4
  9
$SKETCHINC
 40
0.1
  9
$FILLETRAD
 40
0.0
  9
$AUNITS
 70
     0
  9
$AUPREC
 70
     0
  9
$MENU
  1
.
  9
$ELEVATION
 40
0.0
  9
$PELEVATION
 40
0.0
  9
$THICKNESS
 40
0.0
  9
$LIMCHECK
 70
     0
  9
$BLIPMODE
 70
     0
  9
$CHAMFERA
 40
0.0
  9
$CHAMFERB
 40
0.0
  9
$SKPOLY
 70
     0
  9
$TDCREATE
 40
2444972.375
  9
$TDUPDATE
 40
2457436.2656490048
  9
$TDINDWG
 40
0.0000259491
  9
$TDUSRTIMER
 40
0.0000259491
  9
$USRTIMER
 70
     1
  9
$ANGBASE
 50
0.0
  9
$ANGDIR
 70
     0
  9
$PDMODE
 70
     0
  9
$PDSIZE
 40
0.0
  9
$PLINEWID
 40
0.0
  9
$COORDS
 70
     1
  9
$SPLFRAME
 70
     0
  9
$SPLINETYPE
 70
     6
  9
$SPLINESEGS
 70
     8
  9
$ATTDIA
 70
     1
  9
$ATTREQ
 70
     1
  9
$HANDLING
 70
     1
  9
$HANDSEED
  5
311
  9
$SURFTAB1
 70
     6
  9
$SURFTAB2
 70
     6
  9
$SURFTYPE
 70
     6
  9
$SURFU
 70
     6
  9
$SURFV
 70
     6
  9
$UCSNAME
  2

  9
$UCSORG
 10
0.0
 20
0.0
 30
0.0
  9
$UCSXDIR
 10
1.0
 20
0.0
 30
0.0
  9
$UCSYDIR
 10
0.0
 20
1.0
 30
0.0
  9
$PUCSNAME
  2

  9
$PUCSORG
 10
0.0
 20
0.0
 30
0.0
  9
$PUCSXDIR
 10
1.0
 20
0.0
 30
0.0
  9
$PUCSYDIR
 10
0.0
 20
1.0
 30
0.0
  9
$USERI1
 70
     0
  9
$USERI2
 70
     0
  9
$USERI3
 70
     0
  9
$USERI4
 70
     0
  9
$USERI5
 70
     0
  9
$USERR1
 40
0.0
  9
$USERR2
 40
0.0
  9
$USERR3
 40
0.0
  9
$USERR4
 40
0.0
  9
$USERR5
 40
0.0
  9
$WORLDVIEW
 70
     1
  9
$SHADEDGE
 70
     3
  9
$SHADEDIF
 70
    70
  9
$TILEMODE
 70
     1
  9
$MAXACTVP
 70
    48
  9
$PLIMCHECK
 70
     0
  9
$PEXTMIN
 10
1.0000000000000000E+020
 20
1.0000000000000000E+020
 30
1.0000000000000000E+020
  9
$PEXTMAX
 10
-1.0000000000000000E+020
 20
-1.0000000000000000E+020
 30
-1.0000000000000000E+020
  9
$PLIMMIN
 10
0.0
 20
0.0
  9
$PLIMMAX
 10
12.0
 20
9.0
  9
$UNITMODE
 70
     0
  9
$VISRETAIN
 70
     1
  9
$PLINEGEN
 70
     0
  9
$PSLTSCALE
 70
     1
  0
ENDSEC
  0
SECTION
  2
TABLES
  0
TABLE
  2
VPORT
 70
     1
  0
VPORT
  2
*ACTIVE
 70
     0
 10
0.0
 20
0.0
 11
1.0
 21
1.0
 12
165.7277138025147
 22
127.42999999999989
 13
0.0
 23
0.0
 14
1.0
 24
1.0
 15
0.0
 25
0.0
 16
0.0
 26
0.0
 36
1.0
 17
0.0
 27
0.0
 37
0.0
 40
283.528435666853
 41
2.1001926782273599
 42
50.0
 43
0.0
 44
0.0
 50
0.0
 51
0.0
 71
     0
 72
   100
 73
     1
 74
     1
 75
     0
 76
     0
 77
     0
 78
     0
  0
ENDTAB
  0
TABLE
  2
LTYPE
 70
     4
  0
LTYPE
  2
CONTINUOUS
 70
     0
  3
Solid line
 72
    65
 73
     0
 40
0.0
  0
LTYPE
  2
AIGENLINE001
 70
     0
  3
generate AI->DXF Converter
 72
    65
 73
     6
 40
7.4083750000000004
 49
3.5278
 49
-0.776115
 49
0.776115
 49
-0.776115
 49
0.776115
 49
-0.776115
  0
LTYPE
  2
AIGENLINE002
 70
     0
  3
generate AI->DXF Converter
 72
    65
 73
     4
 40
5.8561449999999988
 49
3.5278
 49
-0.776115
 49
0.776115
 49
-0.776115
  0
LTYPE
  2
AIGENLINE003
 70
     0
  3
generate AI->DXF Converter
 72
    65
 73
     2
 40
1.5522299999999991
 49
0.776115
 49
-0.776115
  0
ENDTAB
  0
TABLE
  2
LAYER
 70
     2
  0
LAYER
  2
0
 70
     0
 62
     7
  6
CONTINUOUS
  0
LAYER
  2
_________2
 70
     0
 62
     7
  6
CONTINUOUS
  0
ENDTAB
  0
TABLE
  2
STYLE
 70
     1
  0
STYLE
  2
STANDARD
 70
     0
 40
0.0
 41
0.0
 50
0.0
 71
     0
 42
0.0
  3
TXT
  4
EXTFONT.SHX
  0
ENDTAB
  0
TABLE
  2
VIEW
 70
     0
  0
ENDTAB
  0
TABLE
  2
UCS
 70
     0
  0
ENDTAB
  0
TABLE
  2
APPID
 70
     3
  0
APPID
  2
ACAD
 70
     0
  0
APPID
  2
ACAD_NAV_VCDISPLAY
 70
     0
  0
APPID
  2
ACAD_MLEADERVER
 70
     0
  0
ENDTAB
  0
TABLE
  2
DIMSTYLE
 70
     1
  0
DIMSTYLE
  2
STANDARD
 70
     0
  3

  4

  5

  6

  7

 40
1.0
 41
0.18
 42
0.0625
 43
0.38
 44
0.18
 45
0.0
 46
0.0
 47
0.0
 48
0.0
140
0.18
141
0.09
142
0.0
143
25.399999999999999
144
1.0
145
0.0
146
1.0
147
0.09
 71
     0
 72
     0
 73
     1
 74
     1
 75
     0
 76
     0
 77
     0
 78
     0
170
     0
171
     2
172
     0
173
     0
174
     0
175
     0
176
     0
177
     0
178
     0
  0
ENDTAB
  0
ENDSEC
  0
SECTION
  2
BLOCKS
  0
BLOCK
  8
0
  2
$MODEL_SPACE
 70
     0
 10
0.0
 20
0.0
 30
0.0
  3
$MODEL_SPACE
  1

  0
ENDBLK
  5
1A
  8
0
  0
BLOCK
 67
     1
  8
0
  2
$PAPER_SPACE
 70
     0
 10
0.0
 20
0.0
 30
0.0
  3
$PAPER_SPACE
  1

  0
ENDBLK
  5
17
 67
     1
  8
0
  0
ENDSEC
  0
SECTION
  2
ENTITIES
  0
TEXT
  5
24
  8
0
 62
     7
 10
133.11976000000001
 20
140.83199999999999
 30
0.0
 40
3.0923400000000001
  1
カウンター切込寸法
 41
0.5
 72
     1
 11
141.36600000000001
 21
140.83199999999999
 31
0.0
  0
TEXT
  5
25
  8
0
 62
     7
 10
125.161
 20
169.28700000000001
 30
0.0
 40
3.0923400000000001
  1
排水口
 41
0.5
  0
TEXT
  5
26
  8
0
 62
     7
 10
131.74700000000001
 20
203.41200000000001
 30
0.0
 40
3.0923400000000001
  1
R37
 41
0.5
  0
TEXT
  5
27
  8
0
 62
     7
 10
171.68604999999999
 20
155.221
 30
0.0
 40
3.0923400000000001
  1
R5
 41
0.5
 72
     2
 11
174.26300000000001
 21
155.221
 31
0.0
  0
TEXT
  5
28
  8
0
 62
     7
 10
65.363829999999993
 20
208.58099999999999
 30
0.0
 40
3.0923400000000001
  1
100
 41
0.5
 72
     1
 11
66.909999999999997
 21
208.58099999999999
 31
0.0
  0
TEXT
  5
29
  8
0
 62
     7
 10
55.363730000000011
 20
208.58099999999999
 30
0.0
 40
3.0923400000000001
  1
100
 41
0.5
 72
     1
 11
56.9099
 21
208.58099999999999
 31
0.0
  0
TEXT
  5
2A
  8
0
 62
     7
 10
59.848739999999999
 20
142.42400000000001
 30
0.0
 40
3.0923400000000001
  1
495
 41
0.5
 72
     1
 11
61.910299999999999
 21
142.42400000000001
 31
0.0
  0
TEXT
  5
2B
  8
0
 62
     7
 10
59.848739999999999
 20
135.36799999999999
 30
0.0
 40
3.0923400000000001
  1
595
 41
0.5
 72
     1
 11
61.910299999999999
 21
135.36799999999999
 31
0.0
  0
TEXT
  5
2C
  8
0
 62
     7
 10
44.900700000000001
 20
204.24100000000001
 30
0.0
 40
3.0923400000000001
  1
%%c35
 41
0.5
  0
TEXT
  5
2D
  8
0
 62
     7
 10
68.766480000000001
 20
170.72499999999999
 30
0.0
 40
3.0923400000000001
  1
%%c46
 41
0.5
 72
     2
 11
72.889600000000002
 21
170.72499999999999
 31
0.0
  0
TEXT
  5
2E
  8
0
 62
     7
 10
139.43328750000001
 20
149.72
 30
0.0
 40
3.0923400000000001
  1
490
 41
0.5
 72
     1
 11
141.36600000000001
 21
149.72
 31
0.0
  0
TEXT
  5
2F
  8
0
 62
     7
 10
151.05444
 20
80.305999999999983
 30
0.0
 40
3.0923400000000001
  1
235
 41
0.5
 72
     1
 11
153.11600000000001
 21
80.305999999999983
 31
0.0
  0
TEXT
  5
30
  8
0
 62
     7
 10
104.152
 20
97.776172500000001
 30
0.0
 40
3.0923400000000001
  1
50
 50
90.0
 41
0.5
 72
     1
 11
104.152
 21
98.9358
 31
0.0
  0
TEXT
  5
31
  8
0
 62
     7
 10
97.910600000000017
 20
90.887399999999985
 30
0.0
 40
3.0923400000000001
  1
20
 50
90.0
 41
0.5
  0
TEXT
  5
32
  8
0
 62
     7
 10
97.910600000000017
 20
104.57174500000001
 30
0.0
 40
3.0923400000000001
  1
30
 50
90.0
 41
0.5
 72
     2
 11
97.910600000000017
 21
106.89100000000001
 31
0.0
  0
TEXT
  5
33
  8
0
 62
     7
 10
110.45
 20
92.381834999999995
 30
0.0
 40
3.0923400000000001
  1
145
 50
90.0
 41
0.5
 72
     1
 11
110.45
 21
94.185699999999997
 31
0.0
  0
TEXT
  5
34
  8
0
 62
     7
 10
138.59100000000001
 20
102.97166
 30
0.0
 40
3.0923400000000001
  1
100
 50
90.0
 41
0.5
 72
     2
 11
138.59100000000001
 21
106.06399999999999
 31
0.0
  0
TEXT
  5
35
  8
0
 62
     7
 10
26.6435
 20
99.329300000000003
 30
0.0
 40
3.0923400000000001
  1
カウンター上面
 50
90.0
 41
0.5
  0
TEXT
  5
36
  8
0
 62
     7
 10
146.335454
 20
204.28399999999999
 30
0.0
 40
3.0923400000000001
  1
壁
 41
0.5
 72
     1
 11
147.05699999999999
 21
204.28399999999999
 31
0.0
  0
TEXT
  5
37
  8
0
 62
     7
 10
85.627353999999997
 20
204.28399999999999
 30
0.0
 40
3.0923400000000001
  1
壁
 41
0.5
 72
     1
 11
86.3489
 21
204.28399999999999
 31
0.0
  0
TEXT
  5
38
  8
0
 62
     7
 10
155.591646
 20
202.28399999999999
 30
0.0
 40
3.0923400000000001
  1
洗面器後端
 41
0.5
 72
     1
 11
160.024
 21
202.28399999999999
 31
0.0
  0
TEXT
  5
39
  8
0
 62
     7
 10
126.145
 20
202.70143999999999
 30
0.0
 40
3.0923400000000001
  1
12
 50
90.0
 41
0.5
 72
     2
 11
126.145
 21
204.76300000000001
 31
0.0
  0
TEXT
  5
3A
  8
0
 62
     7
 10
147.58099999999999
 20
185.31399999999999
 30
0.0
 40
3.0923400000000001
  1
25
 50
90.0
 41
0.5
  0
TEXT
  5
3B
  8
0
 62
     7
 10
126.145
 20
183.39398249999999
 30
0.0
 40
3.0923400000000001
  1
190
 50
90.0
 41
0.5
 72
     1
 11
126.145
 21
185.06899999999999
 31
0.0
  0
TEXT
  5
3C
  8
0
 62
     7
 10
25.799099999999999
 20
184.87644
 30
0.0
 40
3.0923400000000001
  1
235
 50
90.0
 41
0.5
 72
     1
 11
25.799099999999999
 21
186.9379999999999
 31
0.0
  0
TEXT
  5
3D
  8
0
 62
     7
 10
175.935
 20
195.1495249999999
 30
0.0
 40
3.0923400000000001
  1
45
 50
90.0
 41
0.5
 72
     1
 11
175.935
 21
196.43799999999999
 31
0.0
  0
TEXT
  5
3E
  8
0
 62
     7
 10
175.935
 20
174.75528750000001
 30
0.0
 40
3.0923400000000001
  1
350
 50
90.0
 41
0.5
 72
     1
 11
175.935
 21
176.68799999999999
 31
0.0
  0
TEXT
  5
3F
  8
0
 62
     7
 10
98.077299999999994
 20
190.63413499999999
 30
0.0
 40
3.0923400000000001
  1
125
 50
90.0
 41
0.5
 72
     1
 11
98.077299999999994
 21
192.43799999999999
 31
0.0
  0
TEXT
  5
40
  8
0
 62
     7
 10
104.011
 20
174.37644
 30
0.0
 40
3.0923400000000001
  1
445
 50
90.0
 41
0.5
 72
     1
 11
104.011
 21
176.43799999999999
 31
0.0
  0
TEXT
  5
41
  8
0
 62
     7
 10
98.077800000000011
 20
169.87644
 30
0.0
 40
3.0923400000000001
  1
285
 50
90.0
 41
0.5
 72
     1
 11
98.077800000000011
 21
171.93799999999999
 31
0.0
  0
TEXT
  5
42
  8
0
 62
     7
 10
39.294499999999999
 20
187.14952500000001
 30
0.0
 40
3.0923400000000001
  1
45
 50
90.0
 41
0.5
 72
     1
 11
39.294499999999999
 21
188.43799999999999
 31
0.0
  0
TEXT
  5
43
  8
0
 62
     7
 10
175.935
 20
204.14101500000001
 30
0.0
 40
3.0923400000000001
  1
min20
 50
90.0
 41
0.5
 72
     2
 11
175.935
 21
210.06800000000001
 31
0.0
  0
TEXT
  5
44
  8
0
 62
     7
 10
104.012
 20
204.14101500000001
 30
0.0
 40
3.0923400000000001
  1
min20
 50
90.0
 41
0.5
 72
     2
 11
104.012
 21
210.06800000000001
 31
0.0
  0
TEXT
  5
45
  8
0
 62
     7
 10
39.294499999999999
 20
193.65737250000001
 30
0.0
 40
3.0923400000000001
  1
80
 50
90.0
 41
0.5
 72
     1
 11
39.294499999999999
 21
194.81700000000001
 31
0.0
  0
TEXT
  5
46
  8
0
 62
     7
 10
81.695800000000006
 20
187.6495249999999
 30
0.0
 40
3.0923400000000001
  1
55
 50
90.0
 41
0.5
 72
     1
 11
81.695800000000006
 21
188.93799999999999
 31
0.0
  0
TEXT
  5
47
  8
0
 62
     7
 10
98.077800000000011
 20
148.453
 30
0.0
 40
3.0923400000000001
  1
35
 50
90.0
 41
0.5
  0
TEXT
  5
48
  8
0
 62
     7
 10
81.695800000000006
 20
194.02837249999999
 30
0.0
 40
3.0923400000000001
  1
70
 50
90.0
 41
0.5
 72
     1
 11
81.695800000000006
 21
195.18799999999999
 31
0.0
  0
ARC
  5
49
  8
0
 62
     7
 10
176.62514300000001
 20
198.698162
 30
0.0
 40
0.275958
 50
272.10848099999998
 51
357.89152899999999
  0
ARC
  5
4A
  8
0
 62
     7
 10
176.64545899999999
 20
198.698171
 30
0.0
 40
0.275969
 50
182.110465
 51
267.889565
  0
ARC
  5
4B
  8
0
 62
     7
 10
176.64546899999999
 20
198.67783600000001
 30
0.0
 40
0.275979
 50
92.112432999999996
 51
177.88753800000001
  0
ARC
  5
4C
  8
0
 62
     7
 10
176.62513300000001
 20
198.67784599999999
 30
0.0
 40
0.275969
 50
2.1104620000000001
 51
87.889527999999999
  0
ARC
  5
4D
  8
0
 62
     7
 10
141.37732399999999
 20
191.67645300000001
 30
0.0
 40
0.321341
 50
92.035864000000004
 51
177.932231
  0
ARC
  5
4E
  8
0
 62
     7
 10
141.354321
 20
191.67628199999999
 30
0.0
 40
0.321518
 50
2.0971449999999998
 51
87.934720999999996
  0
ARC
  5
4F
  8
0
 62
     7
 10
141.35449199999999
 20
191.69964200000001
 30
0.0
 40
0.321341
 50
272.03590100000002
 51
357.93223399999999
  0
ARC
  5
50
  8
0
 62
     7
 10
141.37749500000001
 20
191.69981299999989
 30
0.0
 40
0.321518
 50
182.09714700000001
 51
267.93475799999999
  0
ARC
  5
51
  8
0
 62
     7
 10
98.623097000000001
 20
98.448416000000023
 30
0.0
 40
0.338941
 50
182.048292
 51
267.89126700000003
  0
ARC
  5
52
  8
0
 62
     7
 10
98.598477000000017
 20
98.448093000000014
 30
0.0
 40
0.338606
 50
272.05606299999999
 51
358.00441699999999
  0
ARC
  5
53
  8
0
 62
     7
 10
98.598839999999996
 20
98.424160000000001
 30
0.0
 40
0.338256
 50
2.0571929999999989
 51
88.003332
  0
ARC
  5
54
  8
0
 62
     7
 10
98.622724000000005
 20
98.423845000000014
 30
0.0
 40
0.338581
 50
92.047916999999984
 51
177.89151899999999
  0
ARC
  5
55
  8
0
 62
     7
 10
141.38843899999989
 20
191.63839200000001
 30
0.0
 40
3.7497790000000002
 50
90.344254000000006
 51
137.13990799999999
  0
ARC
  5
56
  8
0
 62
     7
 10
141.34425899999999
 20
191.64028099999999
 30
0.0
 40
3.7478849999999988
 50
42.833182000000001
 51
89.669027
  0
LINE
  5
57
  8
0
 62
     7
 10
125.161
 20
168.58699999999999
 30
0.0
 11
134.81200000000001
 21
168.58699999999999
 31
0.0
  0
LINE
  5
58
  8
0
 62
     7
 10
139.74000000000001
 20
173.51400000000001
 30
0.0
 11
134.81200000000001
 21
168.58699999999999
 31
0.0
  0
LINE
  5
59
  8
0
 62
     7
 10
138.595
 20
171.53100000000001
 30
0.0
 11
139.74000000000001
 21
173.51400000000001
 31
0.0
  0
LINE
  5
5A
  8
0
 62
     7
 10
139.74000000000001
 20
173.51400000000001
 30
0.0
 11
137.75700000000001
 21
172.37
 31
0.0
  0
LINE
  5
5B
  8
0
 62
     7
 10
137.75700000000001
 20
172.37
 30
0.0
 11
138.595
 21
171.53100000000001
 31
0.0
  0
LINE
  5
5C
  8
0
 62
     7
 10
131.74700000000001
 20
202.71199999999999
 30
0.0
 11
137.25299999999999
 21
202.71199999999999
 31
0.0
  0
LINE
  5
5D
  8
0
 62
     7
 10
139.85599999999999
 20
197.43100000000001
 30
0.0
 11
140.07400000000001
 21
195.15199999999999
 31
0.0
  0
LINE
  5
5E
  8
0
 62
     7
 10
140.07400000000001
 20
195.15199999999999
 30
0.0
 11
138.74600000000001
 21
197.017
 31
0.0
  0
LINE
  5
5F
  8
0
 62
     7
 10
138.74600000000001
 20
197.017
 30
0.0
 11
139.85599999999999
 21
197.43100000000001
 31
0.0
  0
LINE
  5
60
  8
0
 62
     7
 10
141.36600000000001
 20
191.68799999999999
 30
0.0
 11
137.25299999999999
 21
202.71199999999999
 31
0.0
  0
LINE
  5
61
  8
0
 62
     7
 10
170.53299999999999
 20
154.52099999999999
 30
0.0
 11
174.26300000000001
 21
154.52099999999999
 31
0.0
  0
LINE
  5
62
  8
0
 62
     7
 10
166.864
 20
157.352
 30
0.0
 11
165.71899999999999
 21
159.334
 31
0.0
  0
LINE
  5
63
  8
0
 62
     7
 10
165.71899999999999
 20
159.334
 30
0.0
 11
167.702
 21
158.19
 31
0.0
  0
LINE
  5
64
  8
0
 62
     7
 10
167.702
 20
158.19
 30
0.0
 11
166.864
 21
157.352
 31
0.0
  0
LINE
  5
65
  8
0
 62
     7
 10
170.53299999999999
 20
154.52099999999999
 30
0.0
 11
165.71899999999999
 21
159.334
 31
0.0
  0
ARC
  5
66
  8
0
 62
     7
 10
165.34631999999999
 20
159.707199
 30
0.0
 40
0.519898
 50
272.16646700000001
 51
357.873017
  0
ARC
  5
67
  8
0
 62
     7
 10
117.38515200000001
 20
159.707199
 30
0.0
 40
0.519898
 50
182.127003
 51
267.83355299999999
  0
LINE
  5
68
  8
0
  6
AIGENLINE001
 62
     7
 10
20.717600000000001
 20
96.420199999999994
 30
0.0
 11
35.405000000000001
 21
96.420199999999994
 31
0.0
  0
LINE
  5
69
  8
0
  6
AIGENLINE001
 62
     7
 10
24.435500000000001
 20
200.68799999999999
 30
0.0
 11
106.02200000000001
 21
200.68799999999999
 31
0.0
  0
LINE
  5
6A
  8
0
  6
AIGENLINE001
 62
     7
 10
109.34099999999999
 20
200.68799999999999
 30
0.0
 11
178.50399999999999
 21
200.68799999999999
 31
0.0
  0
LINE
  5
6B
  8
0
  6
AIGENLINE001
 62
     7
 10
117.12
 20
198.68799999999999
 30
0.0
 11
165.613
 21
198.68799999999999
 31
0.0
  0
LINE
  5
6C
  8
0
 62
     7
 10
117.36499999999999
 20
159.18799999999999
 30
0.0
 11
165.36600000000001
 21
159.18799999999999
 31
0.0
  0
ARC
  5
6D
  8
0
 62
     7
 10
165.346484
 20
193.66862699999999
 30
0.0
 40
0.5197350000000001
 50
2.1292810000000002
 51
87.850968999999992
  0
ARC
  5
6E
  8
0
 62
     7
 10
117.38498800000001
 20
193.66862699999999
 30
0.0
 40
0.5197350000000001
 50
92.149011000000002
 51
177.870699
  0
LINE
  5
6F
  8
0
 62
     7
 10
141.36600000000001
 20
191.68799999999999
 30
0.0
 11
148.98099999999999
 21
191.68799999999999
 31
0.0
  0
LINE
  5
70
  8
0
 62
     7
 10
117.36499999999999
 20
194.18799999999999
 30
0.0
 11
138.63999999999999
 21
194.18799999999999
 31
0.0
  0
LINE
  5
71
  8
0
 62
     7
 10
144.0929999999999
 20
194.18799999999999
 30
0.0
 11
165.36600000000001
 21
194.18799999999999
 31
0.0
  0
LINE
  5
72
  8
0
  6
AIGENLINE002
 62
     7
 10
141.36600000000001
 20
199.01599999999999
 30
0.0
 11
141.36600000000001
 21
156.15299999999999
 31
0.0
  0
LINE
  5
73
  8
0
 62
     7
 10
165.86600000000001
 20
193.68799999999999
 30
0.0
 11
165.86600000000001
 21
159.68799999999999
 31
0.0
  0
LINE
  5
74
  8
0
 62
     7
 10
116.866
 20
193.68799999999999
 30
0.0
 11
116.866
 21
159.68799999999999
 31
0.0
  0
ARC
  5
75
  8
0
  6
AIGENLINE003
 62
     7
 10
144.386931
 20
94.487581999999975
 30
0.0
 40
3.035841
 50
288.13639499999999
 51
327.48825099999999
  0
ARC
  5
76
  8
0
  6
AIGENLINE003
 62
     7
 10
155.177663
 20
96.335825999999997
 30
0.0
 40
5.1014660000000003
 50
90.614495000000005
 51
147.09197800000001
  0
ARC
  5
77
  8
0
  6
AIGENLINE003
 62
     7
 10
121.11409399999999
 20
96.316745999999995
 30
0.0
 40
5.1200330000000003
 50
27.057446000000009
 51
89.224641000000005
  0
ARC
  5
78
  8
0
  6
AIGENLINE003
 62
     7
 10
137.495755
 20
104.731998
 30
0.0
 40
13.296697999999999
 50
207.24042800000001
 51
269.22616399999998
  0
ARC
  5
79
  8
0
  6
AIGENLINE003
 62
     7
 10
65.242974000000004
 20
111.705451
 30
0.0
 40
20.269275
 50
270.33053999999998
 51
317.22518400000001
  0
ARC
  5
7A
  8
0
  6
AIGENLINE003
 62
     7
 10
87.782938999999985
 20
91.295482000000007
 30
0.0
 40
10.141726999999999
 50
90.368668
 51
139.06618800000001
  0
ARC
  5
7B
  8
0
  6
AIGENLINE003
 62
     7
 10
57.976813
 20
111.705451
 30
0.0
 40
20.269275
 50
222.774835
 51
269.66947999999991
  0
ARC
  5
7C
  8
0
  6
AIGENLINE003
 62
     7
 10
35.436847999999998
 20
91.295482000000007
 30
0.0
 40
10.141726999999999
 50
40.933791999999997
 51
89.631311999999994
  0
ARC
  5
7D
  8
0
 62
     7
 10
74.511282999999992
 20
170.827156
 30
0.0
 40
12.002342000000001
 50
294.25652700000001
 51
326.00021700000002
  0
ARC
  5
7E
  8
0
 62
     7
 10
72.704615000000004
 20
174.467343
 30
0.0
 40
16.064093
 50
286.47287499999999
 51
294.79758799999991
  0
ARC
  5
7F
  8
0
 62
     7
 10
70.871996999999993
 20
180.23125200000001
 30
0.0
 40
22.111419000000001
 50
281.244822
 51
286.79153400000001
  0
ARC
  5
80
  8
0
 62
     7
 10
69.125235000000004
 20
188.484284
 30
0.0
 40
30.546814999999999
 50
277.500992
 51
281.43965800000001
  0
ARC
  5
81
  8
0
 62
     7
 10
67.351872
 20
201.180396
 30
0.0
 40
43.365898999999992
 50
274.38754299999999
 51
277.63416699999999
  0
ARC
  5
82
  8
0
 62
     7
 10
65.495689999999996
 20
223.29782499999999
 30
0.0
 40
65.560704999999999
 50
272.21737400000001
 51
274.52624800000001
  0
ARC
  5
83
  8
0
 62
     7
 10
63.871529000000002
 20
259.92663700000003
 30
0.0
 40
102.225138
 50
271.01685600000002
 51
272.332695
  0
ARC
  5
84
  8
0
 62
     7
 10
62.314090999999998
 20
340.66576700000002
 30
0.0
 40
182.97923399999999
 50
269.87346600000001
 51
271.05579799999998
  0
ARC
  5
85
  8
0
 62
     7
 10
71.558336999999995
 20
171.96190100000001
 30
0.0
 40
15.101713
 50
328.69687599999997
 51
359.90690000000001
  0
ARC
  5
86
  8
0
 62
     7
 10
74.511009000000001
 20
173.047383
 30
0.0
 40
12.002673
 50
33.999786999999998
 51
65.742750999999998
  0
ARC
  5
87
  8
0
 62
     7
 10
72.790968000000007
 20
169.59494000000001
 30
0.0
 40
15.857659
 50
65.201506000000023
 51
72.394514000000001
  0
ARC
  5
88
  8
0
 62
     7
 10
71.206879000000001
 20
164.88733400000001
 30
0.0
 40
20.824072999999999
 50
72.157820999999998
 51
77.981581999999989
  0
ARC
  5
89
  8
0
 62
     7
 10
69.607204999999993
 20
157.96064999999999
 30
0.0
 40
27.932289999999998
 50
77.730725000000007
 51
81.191391000000024
  0
ARC
  5
8A
  8
0
 62
     7
 10
67.983734999999996
 20
147.90670900000001
 30
0.0
 40
38.116312000000001
 50
81.094104999999999
 51
84.698732000000007
  0
ARC
  5
8B
  8
0
 62
     7
 10
66.11034699999999
 20
129.35402400000001
 30
0.0
 40
56.762930000000011
 50
84.546064999999999
 51
87.149722999999994
  0
ARC
  5
8C
  8
0
 62
     7
 10
64.199716000000009
 20
94.775194999999997
 30
0.0
 40
91.394184999999993
 50
87.031362999999999
 51
89.068400999999994
  0
ARC
  5
8D
  8
0
 62
     7
 10
62.311458999999999
 20
2.8845849999999991
 30
0.0
 40
183.30377200000001
 50
88.945249000000004
 51
90.125487000000007
  0
ARC
  5
8E
  8
0
 62
     7
 10
71.558336999999995
 20
171.912823
 30
0.0
 40
15.101713
 50
0.0931
 51
31.303124
  0
ARC
  5
8F
  8
0
 62
     7
 10
49.309404000000001
 20
170.828058
 30
0.0
 40
12.003477999999999
 50
214.00134399999999
 51
245.741952
  0
ARC
  5
90
  8
0
 62
     7
 10
51.115310999999998
 20
174.467343
 30
0.0
 40
16.064093
 50
245.20243099999999
 51
253.52714399999999
  0
ARC
  5
91
  8
0
 62
     7
 10
52.947929000000002
 20
180.23125200000001
 30
0.0
 40
22.111419000000001
 50
253.20848599999999
 51
258.75519800000001
  0
ARC
  5
92
  8
0
 62
     7
 10
54.694691000000013
 20
188.484284
 30
0.0
 40
30.546814999999999
 50
258.560361
 51
262.49902800000001
  0
ARC
  5
93
  8
0
 62
     7
 10
56.468055000000007
 20
201.180396
 30
0.0
 40
43.365898999999992
 50
262.36585300000002
 51
265.61247700000001
  0
ARC
  5
94
  8
0
 62
     7
 10
58.324235999999999
 20
223.29782499999999
 30
0.0
 40
65.560704999999999
 50
265.473772
 51
267.782646
  0
ARC
  5
95
  8
0
 62
     7
 10
59.948396999999993
 20
259.92663700000003
 30
0.0
 40
102.225138
 50
267.66732500000001
 51
268.98316399999999
  0
ARC
  5
96
  8
0
 62
     7
 10
61.50583499999999
 20
340.66576700000002
 30
0.0
 40
182.97923399999999
 50
268.94422200000002
 51
270.126553
  0
ARC
  5
97
  8
0
 62
     7
 10
52.265878000000001
 20
171.96310600000001
 30
0.0
 40
15.106004
 50
180.09766499999989
 51
211.298598
  0
ARC
  5
98
  8
0
 62
     7
 10
49.309678000000012
 20
173.04648
 30
0.0
 40
12.003809
 50
114.258771
 51
145.998651
  0
ARC
  5
99
  8
0
 62
     7
 10
51.028958000000003
 20
169.59494000000001
 30
0.0
 40
15.857659
 50
107.60546600000001
 51
114.798474
  0
ARC
  5
9A
  8
0
 62
     7
 10
52.613047000000002
 20
164.88733400000001
 30
0.0
 40
20.824072999999999
 50
102.018398
 51
107.842159
  0
ARC
  5
9B
  8
0
 62
     7
 10
54.212720999999988
 20
157.96064999999999
 30
0.0
 40
27.932289999999998
 50
98.808588999999984
 51
102.269255
  0
ARC
  5
9C
  8
0
 62
     7
 10
55.836190999999999
 20
147.90670900000001
 30
0.0
 40
38.116312000000001
 50
95.301247999999987
 51
98.905875000000023
  0
ARC
  5
9D
  8
0
 62
     7
 10
57.709578999999998
 20
129.35402400000001
 30
0.0
 40
56.762930000000011
 50
92.850257000000013
 51
95.453914999999995
  0
ARC
  5
9E
  8
0
 62
     7
 10
59.62021
 20
94.775194999999997
 30
0.0
 40
91.394184999999993
 50
90.931579000000013
 51
92.968616999999995
  0
ARC
  5
9F
  8
0
 62
     7
 10
61.508467000000003
 20
2.8845849999999991
 30
0.0
 40
183.30377200000001
 50
89.874492999999987
 51
91.054732000000001
  0
ARC
  5
A0
  8
0
 62
     7
 10
52.265878000000001
 20
171.911618
 30
0.0
 40
15.106004
 50
148.701402
 51
179.90233499999999
  0
LINE
  5
A1
  8
0
  6
AIGENLINE002
 62
     7
 10
56.340899999999998
 20
175.18799999999999
 30
0.0
 11
67.387
 21
175.18799999999999
 31
0.0
  0
LINE
  5
A2
  8
0
  6
AIGENLINE002
 62
     7
 10
58.146500000000003
 20
97.93610000000001
 30
0.0
 11
65.659300000000002
 21
97.93610000000001
 31
0.0
  0
ARC
  5
A3
  8
0
  6
AIGENLINE003
 62
     7
 10
61.862069999999989
 20
97.983964000000014
 30
0.0
 40
1.2986649999999991
 50
272.11346300000002
 51
357.88654700000012
  0
ARC
  5
A4
  8
0
  6
AIGENLINE003
 62
     7
 10
61.957473
 20
97.983581000000015
 30
0.0
 40
1.2982679999999991
 50
182.09723
 51
267.90280000000001
  0
ARC
  5
A5
  8
0
  6
AIGENLINE003
 62
     7
 10
61.957855000000002
 20
97.888179000000008
 30
0.0
 40
1.298664
 50
92.113426000000004
 51
177.88654500000001
  0
ARC
  5
A6
  8
0
  6
AIGENLINE003
 62
     7
 10
61.862451999999998
 20
97.888559999999998
 30
0.0
 40
1.2982689999999999
 50
2.0972270000000002
 51
87.902762999999993
  0
LINE
  5
A7
  8
0
  6
AIGENLINE002
 62
     7
 10
58.146500000000003
 20
191.68799999999999
 30
0.0
 11
65.659300000000002
 21
191.68799999999999
 31
0.0
  0
ARC
  5
A8
  8
0
 62
     7
 10
61.766259999999988
 20
175.33153300000001
 30
0.0
 40
3.8963640000000002
 50
272.11363399999999
 51
357.88637599999998
  0
ARC
  5
A9
  8
0
 62
     7
 10
62.053282999999993
 20
175.33115000000001
 30
0.0
 40
3.8959669999999988
 50
182.10821899999999
 51
267.89181000000002
  0
ARC
  5
AA
  8
0
 62
     7
 10
62.053665000000002
 20
175.044128
 30
0.0
 40
3.8963629999999991
 50
92.113596999999999
 51
177.88637299999999
  0
ARC
  5
AB
  8
0
 62
     7
 10
61.766642000000012
 20
175.04450900000001
 30
0.0
 40
3.895967999999999
 50
2.1082169999999989
 51
87.891773000000001
  0
ARC
  5
AC
  8
0
 62
     7
 10
61.821808999999988
 20
175.27598399999999
 30
0.0
 40
2.389740999999999
 50
272.11404199999998
 51
357.88596799999999
  0
ARC
  5
AD
  8
0
 62
     7
 10
61.997729000000007
 20
175.27559600000001
 30
0.0
 40
2.3893390000000001
 50
182.10510199999999
 51
267.894927
  0
ARC
  5
AE
  8
0
 62
     7
 10
61.998116000000003
 20
175.09967700000001
 30
0.0
 40
2.3897400000000002
 50
92.114005000000006
 51
177.885965
  0
ARC
  5
AF
  8
0
 62
     7
 10
61.822195999999991
 20
175.10006300000001
 30
0.0
 40
2.3893399999999998
 50
2.1051000000000002
 51
87.894890000000004
  0
ARC
  5
B0
  8
0
 62
     7
 10
61.842905000000002
 20
191.755112
 30
0.0
 40
1.818422
 50
272.11340300000001
 51
357.880968
  0
ARC
  5
B1
  8
0
 62
     7
 10
61.977570999999998
 20
191.755662
 30
0.0
 40
1.818991
 50
182.13570999999999
 51
267.86995999999999
  0
ARC
  5
B2
  8
0
 62
     7
 10
61.977020999999993
 20
191.62063800000001
 30
0.0
 40
1.818420999999999
 50
92.113365999999999
 51
177.880965
  0
ARC
  5
B3
  8
0
 62
     7
 10
61.842354999999998
 20
191.62008800000001
 30
0.0
 40
1.818991
 50
2.1356899999999999
 51
87.869939999999986
  0
ARC
  5
B4
  8
0
 62
     7
 10
62.933636999999997
 20
183.977756
 30
0.0
 40
0.226217
 50
320.48038600000001
 51
359.72475700000001
  0
ARC
  5
B5
  8
0
 62
     7
 10
62.746059000000002
 20
184.10811699999999
 30
0.0
 40
0.4542600000000001
 50
303.12262600000003
 51
322.852577
  0
ARC
  5
B6
  8
0
 62
     7
 10
62.458929000000012
 20
184.50819000000001
 30
0.0
 40
0.9464719999999999
 50
290.72102000000001
 51
304.44601
  0
ARC
  5
B7
  8
0
 62
     7
 10
62.15043399999999
 20
185.249831
 30
0.0
 40
1.7494860000000001
 50
281.71915999999999
 51
291.57695200000001
  0
ARC
  5
B8
  8
0
 62
     7
 10
61.935105999999998
 20
186.19841400000001
 30
0.0
 40
2.7220919999999991
 50
269.47079200000002
 51
282.10158699999999
  0
ARC
  5
B9
  8
0
 62
     7
 10
61.910045999999987
 20
186.3695919999999
 30
0.0
 40
2.893154
 50
255.76613399999999
 51
269.99837100000002
  0
ARC
  5
BA
  8
0
 62
     7
 10
61.610059
 20
185.07112799999999
 30
0.0
 40
1.5610520000000001
 50
244.41705699999989
 51
254.72042400000009
  0
ARC
  5
BB
  8
0
 62
     7
 10
61.282004000000001
 20
184.37448599999999
 30
0.0
 40
0.791063
 50
229.122255
 51
244.05999299999999
  0
ARC
  5
BC
  8
0
 62
     7
 10
61.008692000000003
 20
184.04957200000001
 30
0.0
 40
0.3665739999999999
 50
206.13381200000001
 51
228.186688
  0
ARC
  5
BD
  8
0
 62
     7
 10
60.880242000000003
 20
183.97876199999999
 30
0.0
 40
0.220177
 50
180.544702
 51
204.31375
  0
ARC
  5
BE
  8
0
 62
     7
 10
60.886288999999991
 20
183.975582
 30
0.0
 40
0.226217
 50
140.480366
 51
179.724737
  0
ARC
  5
BF
  8
0
 62
     7
 10
61.073867000000007
 20
183.84522000000001
 30
0.0
 40
0.4542600000000001
 50
123.122607
 51
142.85255699999999
  0
ARC
  5
C0
  8
0
 62
     7
 10
61.36099699999999
 20
183.44514799999999
 30
0.0
 40
0.9464719999999999
 50
110.721
 51
124.44599100000001
  0
ARC
  5
C1
  8
0
 62
     7
 10
61.669492000000012
 20
182.703507
 30
0.0
 40
1.7494860000000001
 50
101.71914
 51
111.576932
  0
ARC
  5
C2
  8
0
 62
     7
 10
61.884820999999988
 20
181.75492399999999
 30
0.0
 40
2.7220919999999991
 50
89.470771999999997
 51
102.101567
  0
ARC
  5
C3
  8
0
 62
     7
 10
61.909880000000001
 20
181.58374599999999
 30
0.0
 40
2.893154
 50
75.766114000000002
 51
89.998351
  0
ARC
  5
C4
  8
0
 62
     7
 10
62.209868000000007
 20
182.88220999999999
 30
0.0
 40
1.5610520000000001
 50
64.417036999999993
 51
74.720404000000002
  0
ARC
  5
C5
  8
0
 62
     7
 10
62.537921999999988
 20
183.57885200000001
 30
0.0
 40
0.791063
 50
49.122234999999989
 51
64.059972999999999
  0
ARC
  5
C6
  8
0
 62
     7
 10
62.811233999999999
 20
183.90376499999999
 30
0.0
 40
0.3665739999999999
 50
26.13379200000001
 51
48.18666799999999
  0
ARC
  5
C7
  8
0
 62
     7
 10
62.939684
 20
183.97457600000001
 30
0.0
 40
0.220177
 50
0.544682
 51
24.313731000000001
  0
ARC
  5
C8
  8
0
 62
     7
 10
137.52775299999999
 20
102.472202
 30
0.0
 40
14.257130999999999
 50
296.19037800000001
 51
302.65357799999998
  0
ARC
  5
C9
  8
0
 62
     7
 10
142.98400699999999
 20
91.907956999999996
 30
0.0
 40
2.3808220000000002
 50
271.469404
 51
290.562231
  0
LINE
  5
CA
  8
0
 62
     7
 10
150.613
 20
91.854100000000003
 30
0.0
 11
152.97200000000001
 21
96.420900000000003
 31
0.0
  0
ARC
  5
CB
  8
0
 62
     7
 10
151.52355800000001
 20
91.408140000000003
 30
0.0
 40
1.013622
 50
153.90070499999999
 51
179.87621799999999
  0
LINE
  5
CC
  8
0
 62
     7
 10
150.50999999999999
 20
88.714899999999986
 30
0.0
 11
150.50999999999999
 21
91.410300000000007
 31
0.0
  0
ARC
  5
CD
  8
0
 62
     7
 10
149.48788400000001
 20
88.725452000000004
 30
0.0
 40
1.022108999999999
 50
315.736897
 51
359.40681300000011
  0
ARC
  5
CE
  8
0
 62
     7
 10
149.49657999999999
 20
88.731482000000014
 30
0.0
 40
1.020143
 50
271.42107600000003
 51
315.15348499999999
  0
LINE
  5
CF
  8
0
 62
     7
 10
143.024
 20
87.619299999999996
 30
0.0
 11
149.52199999999999
 21
87.711699999999993
 31
0.0
  0
LINE
  5
D0
  8
0
 62
     7
 10
143.04499999999999
 20
89.527199999999993
 30
0.0
 11
143.024
 21
87.618600000000001
 31
0.0
  0
LINE
  5
D1
  8
0
 62
     7
 10
144.84999999999999
 20
86.936499999999995
 30
0.0
 11
144.88499999999999
 21
87.645499999999984
 31
0.0
  0
LINE
  5
D2
  8
0
 62
     7
 10
137.83500000000001
 20
86.936499999999995
 30
0.0
 11
144.84999999999999
 21
86.936499999999995
 31
0.0
  0
LINE
  5
D3
  8
0
 62
     7
 10
137.70500000000001
 20
89.540300000000016
 30
0.0
 11
137.834
 21
86.936499999999995
 31
0.0
  0
ARC
  5
D4
  8
0
 62
     7
 10
137.19764599999999
 20
89.511978999999997
 30
0.0
 40
0.50831
 50
3.274019
 51
48.220465000000011
  0
LINE
  5
D5
  8
0
 62
     7
 10
136.89599999999999
 20
90.456000000000003
 30
0.0
 11
137.536
 21
89.891000000000005
 31
0.0
  0
LINE
  5
D6
  8
0
 62
     7
 10
148.75999999999999
 20
92.406000000000006
 30
0.0
 11
150.965
 21
96.420900000000003
 31
0.0
  0
ARC
  5
D7
  8
0
 62
     7
 10
145.36012500000001
 20
94.403221000000016
 30
0.0
 40
3.9429599999999989
 50
298.77971700000001
 51
329.56662
  0
ARC
  5
D8
  8
0
 62
     7
 10
145.37091599999999
 20
94.404545999999996
 30
0.0
 40
3.9389389999999991
 50
267.82875200000001
 51
298.632858
  0
LINE
  5
D9
  8
0
 62
     7
 10
136.89599999999999
 20
90.456000000000003
 30
0.0
 11
145.22200000000001
 21
90.468400000000017
 31
0.0
  0
ARC
  5
DA
  8
0
 62
     7
 10
137.90745000000001
 20
105.95053299999999
 30
0.0
 40
15.527509
 50
239.85936899999999
 51
266.26340199999999
  0
ARC
  5
DB
  8
0
 62
     7
 10
141.64428899999999
 20
111.79368100000001
 30
0.0
 40
22.441006000000002
 50
234.185529
 51
239.10135099999999
  0
ARC
  5
DC
  8
0
 62
     7
 10
137.027872
 20
105.237765
 30
0.0
 40
14.423653
 50
225.05657500000001
 51
233.81708699999999
  0
ARC
  5
DD
  8
0
 62
     7
 10
135.13566900000001
 20
103.22351500000001
 30
0.0
 40
11.661588999999999
 50
215.68543099999991
 51
224.64595800000001
  0
LINE
  5
DE
  8
0
 62
     7
 10
162.786
 20
96.420900000000003
 30
0.0
 11
162.857
 21
98.427999999999997
 31
0.0
  0
LINE
  5
DF
  8
0
 62
     7
 10
123.65900000000001
 20
96.420900000000003
 30
0.0
 11
162.786
 21
96.420900000000003
 31
0.0
  0
LINE
  5
E0
  8
0
 62
     7
 10
123.59
 20
98.427300000000017
 30
0.0
 11
123.65900000000001
 21
96.420900000000003
 31
0.0
  0
ARC
  5
E1
  8
0
 62
     7
 10
164.216328
 20
98.941625000000002
 30
0.0
 40
0.5200130000000001
 50
313.395984
 51
354.72465999999997
  0
ARC
  5
E2
  8
0
 62
     7
 10
164.22850600000001
 20
98.931875000000005
 30
0.0
 40
0.504567
 50
270.69168999999999
 51
313.151882
  0
LINE
  5
E3
  8
0
 62
     7
 10
120.999
 20
98.427300000000017
 30
0.0
 11
164.23500000000001
 21
98.427300000000017
 31
0.0
  0
ARC
  5
E4
  8
0
 62
     7
 10
121.00747800000001
 20
98.942065000000014
 30
0.0
 40
0.514783
 50
227.29535100000001
 51
269.101854
  0
ARC
  5
E5
  8
0
 62
     7
 10
121.012822
 20
98.938120999999995
 30
0.0
 40
0.515552
 50
184.93021899999999
 51
226.56163000000001
  0
LINE
  5
E6
  8
0
 62
     7
 10
164.86699999999999
 20
100.792
 30
0.0
 11
164.73400000000001
 21
98.893799999999999
 31
0.0
  0
ARC
  5
E7
  8
0
 62
     7
 10
164.263859
 20
100.82825200000001
 30
0.0
 40
0.6073770000000001
 50
43.205474000000002
 51
89.705465000000004
  0
ARC
  5
E8
  8
0
 62
     7
 10
164.26623799999999
 20
100.834076
 30
0.0
 40
0.601661
 50
355.99681299999997
 51
42.956333000000001
  0
LINE
  5
E9
  8
0
 62
     7
 10
120.367
 20
100.792
 30
0.0
 11
120.498
 21
98.893799999999999
 31
0.0
  0
ARC
  5
EA
  8
0
 62
     7
 10
120.97748
 20
100.831028
 30
0.0
 40
0.611837
 50
137.45129900000001
 51
183.65038999999999
  0
ARC
  5
EB
  8
0
 62
     7
 10
120.969813
 20
100.828126
 30
0.0
 40
0.6081940000000001
 50
90.327563999999995
 51
136.76145700000001
  0
LINE
  5
EC
  8
0
 62
     7
 10
164.27000000000001
 20
101.437
 30
0.0
 11
120.96599999999999
 21
101.43600000000001
 31
0.0
  0
ARC
  5
ED
  8
0
 62
     7
 10
66.057653999999999
 20
89.496376999999995
 30
0.0
 40
0.5139780000000001
 50
131.95111
 51
176.63569100000001
  0
LINE
  5
EE
  8
0
 62
     7
 10
65.418499999999995
 20
86.936499999999995
 30
0.0
 11
65.544899999999998
 21
89.526499999999999
 31
0.0
  0
LINE
  5
EF
  8
0
 62
     7
 10
61.909999999999989
 20
86.936499999999995
 30
0.0
 11
65.418499999999995
 21
86.936499999999995
 31
0.0
  0
LINE
  5
F0
  8
0
 62
     7
 10
66.374099999999999
 20
90.463599999999985
 30
0.0
 11
65.713700000000003
 21
89.879300000000001
 31
0.0
  0
LINE
  5
F1
  8
0
 62
     7
 10
66.235699999999994
 20
90.462199999999996
 30
0.0
 11
61.909999999999989
 21
90.453299999999984
 31
0.0
  0
ARC
  5
F2
  8
0
 62
     7
 10
64.218547999999998
 20
153.50575699999999
 30
0.0
 40
63.075783999999999
 50
271.83258699999999
 51
276.40737799999999
  0
ARC
  5
F3
  8
0
 62
     7
 10
68.116389999999996
 20
116.98140600000001
 30
0.0
 40
26.345372000000001
 50
276.84778699999998
 51
291.77722
  0
ARC
  5
F4
  8
0
 62
     7
 10
64.85924
 20
123.22644200000001
 30
0.0
 40
33.360492999999998
 50
292.99238800000001
 51
297.12833599999999
  0
ARC
  5
F5
  8
0
 62
     7
 10
70.020771999999994
 20
112.907489
 30
0.0
 40
21.823459
 50
297.4213049999999
 51
304.41413899999998
  0
ARC
  5
F6
  8
0
 62
     7
 10
72.59762099999999
 20
108.97480299999999
 30
0.0
 40
17.123009
 50
304.73806200000001
 51
312.76326999999998
  0
LINE
  5
F7
  8
0
 62
     7
 10
91.025700000000001
 20
98.427300000000017
 30
0.0
 11
61.909599999999998
 21
98.427300000000017
 31
0.0
  0
ARC
  5
F8
  8
0
 62
     7
 10
91.015745999999993
 20
98.943046999999993
 30
0.0
 40
0.5157980000000001
 50
271.10380199999997
 51
312.77871800000008
  0
ARC
  5
F9
  8
0
 62
     7
 10
91.012959999999993
 20
98.939215000000004
 30
0.0
 40
0.514899
 50
313.29592500000001
 51
355.01833399999998
  0
LINE
  5
FA
  8
0
 62
     7
 10
91.658900000000003
 20
100.79300000000001
 30
0.0
 11
91.525899999999993
 21
98.893799999999999
 31
0.0
  0
ARC
  5
FB
  8
0
 62
     7
 10
91.046441999999999
 20
100.830372
 30
0.0
 40
0.6136070000000001
 50
356.48594600000001
 51
42.567369999999997
  0
ARC
  5
FC
  8
0
 62
     7
 10
91.054605000000009
 20
100.825069
 30
0.0
 40
0.611255
 50
43.451087000000001
 51
89.610889
  0
LINE
  5
FD
  8
0
 62
     7
 10
61.909999999999989
 20
101.43600000000001
 30
0.0
 11
91.058800000000005
 21
101.43600000000001
 31
0.0
  0
ARC
  5
FE
  8
0
 62
     7
 10
57.770589000000001
 20
89.500709999999984
 30
0.0
 40
0.5054350000000002
 50
2.929357
 51
48.392738999999999
  0
LINE
  5
FF
  8
0
 62
     7
 10
58.401800000000001
 20
86.936499999999995
 30
0.0
 11
58.275399999999991
 21
89.526499999999999
 31
0.0
  0
LINE
  5
100
  8
0
 62
     7
 10
61.909999999999989
 20
86.936499999999995
 30
0.0
 11
58.401800000000001
 21
86.936499999999995
 31
0.0
  0
LINE
  5
101
  8
0
 62
     7
 10
57.4465
 20
90.463599999999985
 30
0.0
 11
58.1066
 21
89.879300000000001
 31
0.0
  0
LINE
  5
102
  8
0
 62
     7
 10
57.584600000000002
 20
90.462199999999996
 30
0.0
 11
61.909999999999989
 21
90.453299999999984
 31
0.0
  0
ARC
  5
103
  8
0
 62
     7
 10
49.120362999999998
 20
60.294693000000002
 30
0.0
 40
30.940472
 50
82.736770999999976
 51
83.612277000000006
  0
ARC
  5
104
  8
0
 62
     7
 10
45.937052000000001
 20
35.438110000000002
 30
0.0
 40
56.000062
 50
81.872246999999987
 51
82.721215999999998
  0
ARC
  5
105
  8
0
 62
     7
 10
76.037812000000002
 20
243.11027100000001
 30
0.0
 40
153.84238400000001
 50
261.709294
 51
262.26975900000002
  0
ARC
  5
106
  8
0
 62
     7
 10
59.498738000000003
 20
121.700834
 30
0.0
 40
31.311668999999998
 50
262.37600400000002
 51
264.69067699999999
  0
ARC
  5
107
  8
0
 62
     7
 10
58.212057999999999
 20
108.44775
 30
0.0
 40
17.996469999999999
 50
264.86519299999998
 51
268.00091400000002
  0
ARC
  5
108
  8
0
 62
     7
 10
52.246994000000001
 20
108.317588
 30
0.0
 40
17.017233000000001
 50
248.21012999999999
 51
256.27535599999999
  0
ARC
  5
109
  8
0
 62
     7
 10
54.048398999999989
 20
115.090985
 30
0.0
 40
24.02505
 50
255.93446599999999
 51
260.10694599999999
  0
ARC
  5
10A
  8
0
 62
     7
 10
56.215068999999993
 20
126.875411
 30
0.0
 40
36.006666000000003
 50
259.93227200000013
 51
262.13521400000002
  0
ARC
  5
10B
  8
0
 62
     7
 10
59.830417000000011
 20
152.43107499999999
 30
0.0
 40
61.816713
 50
262.05698000000001
 51
263.24817200000001
  0
ARC
  5
10C
  8
0
 62
     7
 10
51.025722999999999
 20
108.701469
 30
0.0
 40
16.788913999999998
 50
227.095935
 51
238.047123
  0
ARC
  5
10D
  8
0
 62
     7
 10
53.699660999999999
 20
112.760385
 30
0.0
 40
21.648281000000001
 50
237.72760299999999
 51
243.55873199999999
  0
ARC
  5
10E
  8
0
 62
     7
 10
57.703572999999999
 20
120.559783
 30
0.0
 40
30.414863
 50
243.347464
 51
247.22544500000001
  0
LINE
  5
10F
  8
0
 62
     7
 10
88.415700000000001
 20
96.420199999999994
 30
0.0
 11
88.485299999999995
 21
98.427300000000017
 31
0.0
  0
LINE
  5
110
  8
0
 62
     7
 10
61.909999999999989
 20
96.420199999999994
 30
0.0
 11
88.415000000000006
 21
96.420199999999994
 31
0.0
  0
LINE
  5
111
  8
0
 62
     7
 10
35.405000000000001
 20
96.420199999999994
 30
0.0
 11
61.909999999999989
 21
96.420199999999994
 31
0.0
  0
LINE
  5
112
  8
0
 62
     7
 10
35.334699999999998
 20
98.427300000000017
 30
0.0
 11
35.405000000000001
 21
96.420199999999994
 31
0.0
  0
LINE
  5
113
  8
0
 62
     7
 10
32.794600000000003
 20
98.427300000000017
 30
0.0
 11
61.910299999999999
 21
98.427300000000017
 31
0.0
  0
ARC
  5
114
  8
0
 62
     7
 10
32.805495000000001
 20
98.938428000000016
 30
0.0
 40
0.5130819999999999
 50
184.98839899999999
 51
226.791394
  0
ARC
  5
115
  8
0
 62
     7
 10
32.802979000000001
 20
98.939188999999999
 30
0.0
 40
0.511919
 50
227.054991
 51
269.02229499999999
  0
LINE
  5
116
  8
0
 62
     7
 10
32.161700000000003
 20
100.79300000000001
 30
0.0
 11
32.293999999999997
 21
98.893799999999999
 31
0.0
  0
ARC
  5
117
  8
0
 62
     7
 10
32.764645999999999
 20
100.82812300000001
 30
0.0
 40
0.6081949999999999
 50
90.295001999999997
 51
136.76115300000001
  0
ARC
  5
118
  8
0
 62
     7
 10
32.767955999999998
 20
100.83309
 30
0.0
 40
0.607233
 50
137.31653600000001
 51
183.80796799999999
  0
LINE
  5
119
  8
0
 62
     7
 10
61.909999999999989
 20
101.43600000000001
 30
0.0
 11
32.761499999999998
 21
101.43600000000001
 31
0.0
  0
LINE
  5
11A
  8
0
 62
     7
 10
86.156699999999987
 20
154.18700000000001
 30
0.0
 11
61.910299999999999
 21
154.18700000000001
 31
0.0
  0
ARC
  5
11B
  8
0
 62
     7
 10
86.122018999999995
 20
159.763713
 30
0.0
 40
5.5763920000000002
 50
270.35633200000001
 51
314.72621099999998
  0
ARC
  5
11C
  8
0
 62
     7
 10
86.083189999999988
 20
159.726009
 30
0.0
 40
5.577191
 50
315.28221100000002
 51
359.64392400000003
  0
LINE
  5
11D
  8
0
  6
AIGENLINE003
 62
     7
 10
144.816
 20
91.436499999999995
 30
0.0
 11
143.36600000000001
 21
90.436099999999996
 31
0.0
  0
LINE
  5
11E
  8
0
  6
AIGENLINE003
 62
     7
 10
137.316
 20
91.436499999999995
 30
0.0
 11
144.816
 21
91.436499999999995
 31
0.0
  0
LINE
  5
11F
  8
0
  6
AIGENLINE003
 62
     7
 10
138.76599999999999
 20
90.436099999999996
 30
0.0
 11
143.36600000000001
 21
90.436099999999996
 31
0.0
  0
LINE
  5
120
  8
0
  6
AIGENLINE003
 62
     7
 10
137.316
 20
91.436499999999995
 30
0.0
 11
138.76599999999999
 21
90.436099999999996
 31
0.0
  0
LINE
  5
121
  8
0
  6
AIGENLINE003
 62
     7
 10
143.36600000000001
 20
90.436099999999996
 30
0.0
 11
143.36600000000001
 21
86.936499999999995
 31
0.0
  0
LINE
  5
122
  8
0
  6
AIGENLINE003
 62
     7
 10
138.76599999999999
 20
90.436099999999996
 30
0.0
 11
138.76599999999999
 21
86.936499999999995
 31
0.0
  0
LINE
  5
123
  8
0
  6
AIGENLINE003
 62
     7
 10
65.359899999999996
 20
91.436499999999995
 30
0.0
 11
63.9099
 21
90.436099999999996
 31
0.0
  0
LINE
  5
124
  8
0
  6
AIGENLINE003
 62
     7
 10
57.859900000000003
 20
91.436499999999995
 30
0.0
 11
65.359899999999996
 21
91.436499999999995
 31
0.0
  0
LINE
  5
125
  8
0
  6
AIGENLINE003
 62
     7
 10
59.309899999999999
 20
90.436099999999996
 30
0.0
 11
63.9099
 21
90.436099999999996
 31
0.0
  0
LINE
  5
126
  8
0
  6
AIGENLINE003
 62
     7
 10
57.859900000000003
 20
91.436499999999995
 30
0.0
 11
59.309899999999999
 21
90.436099999999996
 31
0.0
  0
LINE
  5
127
  8
0
  6
AIGENLINE003
 62
     7
 10
63.9099
 20
90.436099999999996
 30
0.0
 11
63.9099
 21
86.936499999999995
 31
0.0
  0
LINE
  5
128
  8
0
  6
AIGENLINE003
 62
     7
 10
59.309899999999999
 20
90.436099999999996
 30
0.0
 11
59.309899999999999
 21
86.936499999999995
 31
0.0
  0
LINE
  5
129
  8
0
  6
AIGENLINE002
 62
     7
 10
141.36600000000001
 20
104.08199999999999
 30
0.0
 11
141.36600000000001
 21
84.664100000000005
 31
0.0
  0
LINE
  5
12A
  8
0
  6
AIGENLINE003
 62
     7
 10
145.33199999999999
 20
91.602599999999995
 30
0.0
 11
144.816
 21
91.436499999999995
 31
0.0
  0
LINE
  5
12B
  8
0
  6
AIGENLINE002
 62
     7
 10
148.471
 20
98.999899999999997
 30
0.0
 11
151.745
 21
96.932199999999995
 31
0.0
  0
LINE
  5
12C
  8
0
  6
AIGENLINE003
 62
     7
 10
150.89500000000001
 20
99.107399999999998
 30
0.0
 11
146.947
 21
92.855900000000005
 31
0.0
  0
LINE
  5
12D
  8
0
  6
AIGENLINE002
 62
     7
 10
61.909999999999989
 20
104.08199999999999
 30
0.0
 11
61.909999999999989
 21
84.664100000000005
 31
0.0
  0
LINE
  5
12E
  8
0
  6
AIGENLINE002
 62
     7
 10
61.909999999999989
 20
201.637
 30
0.0
 11
61.909999999999989
 21
150.994
 31
0.0
  0
LINE
  5
12F
  8
0
  6
AIGENLINE001
 62
     7
 10
171.11600000000001
 20
193.18700000000001
 30
0.0
 11
171.11600000000001
 21
184.27000000000001
 31
0.0
  0
ARC
  5
130
  8
0
  6
AIGENLINE001
 62
     7
 10
165.53741299999999
 20
193.14675600000001
 30
0.0
 40
5.5789479999999996
 50
0.4099510000000001
 51
44.741045
  0
ARC
  5
131
  8
0
  6
AIGENLINE001
 62
     7
 10
165.573455
 20
193.10487000000001
 30
0.0
 40
5.5831039999999996
 50
45.30673199999999
 51
89.597814999999997
  0
LINE
  5
132
  8
0
 62
     7
 10
91.660300000000007
 20
193.18700000000001
 30
0.0
 11
91.660300000000007
 21
159.691
 31
0.0
  0
ARC
  5
133
  8
0
 62
     7
 10
86.081468000000001
 20
193.14675600000001
 30
0.0
 40
5.5789479999999996
 50
0.4099510000000001
 51
44.741045
  0
ARC
  5
134
  8
0
 62
     7
 10
86.118118999999993
 20
193.10633799999999
 30
0.0
 40
5.581631999999999
 50
45.300578999999999
 51
89.603968000000009
  0
LINE
  5
135
  8
0
 62
     7
 10
61.909999999999989
 20
198.68799999999999
 30
0.0
 11
86.156699999999987
 21
198.68799999999999
 31
0.0
  0
LINE
  5
136
  8
0
 62
     7
 10
37.66360000000001
 20
154.18700000000001
 30
0.0
 11
61.909999999999989
 21
154.18700000000001
 31
0.0
  0
ARC
  5
137
  8
0
 62
     7
 10
37.739161000000003
 20
159.72687199999999
 30
0.0
 40
5.5792769999999994
 50
180.36482799999999
 51
224.70907600000001
  0
ARC
  5
138
  8
0
 62
     7
 10
37.697839999999999
 20
159.762721
 30
0.0
 40
5.5753969999999988
 50
225.26964300000009
 51
269.647854
  0
LINE
  5
139
  8
0
  6
AIGENLINE001
 62
     7
 10
111.616
 20
193.18700000000001
 30
0.0
 11
111.616
 21
184.27000000000001
 31
0.0
  0
ARC
  5
13A
  8
0
  6
AIGENLINE001
 62
     7
 10
117.157656
 20
193.108237
 30
0.0
 40
5.5797290000000004
 50
90.391622000000012
 51
134.70738800000001
  0
ARC
  5
13B
  8
0
  6
AIGENLINE001
 62
     7
 10
117.198212
 20
193.14496500000001
 30
0.0
 40
5.5824249999999989
 50
135.26840899999999
 51
179.57189700000001
  0
LINE
  5
13C
  8
0
 62
     7
 10
32.159999999999997
 20
193.18700000000001
 30
0.0
 11
32.159999999999997
 21
159.691
 31
0.0
  0
ARC
  5
13D
  8
0
 62
     7
 10
37.701703999999999
 20
193.10825399999999
 30
0.0
 40
5.5797119999999998
 50
90.391551000000021
 51
134.707459
  0
ARC
  5
13E
  8
0
 62
     7
 10
37.743753000000012
 20
193.14434700000001
 30
0.0
 40
5.5839160000000003
 50
135.27463700000001
 51
179.56566900000001
  0
LINE
  5
13F
  8
0
 62
     7
 10
61.909999999999989
 20
198.68799999999999
 30
0.0
 11
37.66360000000001
 21
198.68799999999999
 31
0.0
  0
LINE
  5
140
  8
0
 62
     7
 10
61.909999999999989
 20
208.58099999999999
 30
0.0
 11
61.909999999999989
 21
202.33699999999999
 31
0.0
  0
LINE
  5
141
  8
0
 62
     7
 10
71.9101
 20
208.58099999999999
 30
0.0
 11
71.9101
 21
194.74700000000001
 31
0.0
  0
LINE
  5
142
  8
0
 62
     7
 10
51.90979999999999
 20
208.58099999999999
 30
0.0
 11
51.90979999999999
 21
194.74700000000001
 31
0.0
  0
LINE
  5
143
  8
0
 62
     7
 10
64.121000000000009
 20
208.47300000000001
 30
0.0
 11
61.909999999999989
 21
207.881
 31
0.0
  0
LINE
  5
144
  8
0
 62
     7
 10
61.909999999999989
 20
207.881
 30
0.0
 11
64.121000000000009
 21
207.28800000000001
 31
0.0
  0
LINE
  5
145
  8
0
 62
     7
 10
64.121000000000009
 20
207.28800000000001
 30
0.0
 11
64.121000000000009
 21
208.47300000000001
 31
0.0
  0
LINE
  5
146
  8
0
 62
     7
 10
54.120899999999999
 20
208.47300000000001
 30
0.0
 11
51.90979999999999
 21
207.881
 31
0.0
  0
LINE
  5
147
  8
0
 62
     7
 10
51.90979999999999
 20
207.881
 30
0.0
 11
54.120899999999999
 21
207.28800000000001
 31
0.0
  0
LINE
  5
148
  8
0
 62
     7
 10
54.120899999999999
 20
207.28800000000001
 30
0.0
 11
54.120899999999999
 21
208.47300000000001
 31
0.0
  0
LINE
  5
149
  8
0
 62
     7
 10
59.698500000000003
 20
207.28800000000001
 30
0.0
 11
61.909999999999989
 21
207.881
 31
0.0
  0
LINE
  5
14A
  8
0
 62
     7
 10
61.909999999999989
 20
207.881
 30
0.0
 11
59.698500000000003
 21
208.47300000000001
 31
0.0
  0
LINE
  5
14B
  8
0
 62
     7
 10
59.698500000000003
 20
208.47300000000001
 30
0.0
 11
59.698500000000003
 21
207.28800000000001
 31
0.0
  0
LINE
  5
14C
  8
0
 62
     7
 10
69.698700000000002
 20
207.28800000000001
 30
0.0
 11
71.9101
 21
207.881
 31
0.0
  0
LINE
  5
14D
  8
0
 62
     7
 10
71.9101
 20
207.881
 30
0.0
 11
69.698700000000002
 21
208.47300000000001
 31
0.0
  0
LINE
  5
14E
  8
0
 62
     7
 10
69.698700000000002
 20
208.47300000000001
 30
0.0
 11
69.698700000000002
 21
207.28800000000001
 31
0.0
  0
LINE
  5
14F
  8
0
 62
     7
 10
51.90979999999999
 20
207.881
 30
0.0
 11
71.9101
 21
207.881
 31
0.0
  0
LINE
  5
150
  8
0
 62
     7
 10
86.660200000000003
 20
166.89099999999999
 30
0.0
 11
86.660200000000003
 21
141.024
 31
0.0
  0
LINE
  5
151
  8
0
 62
     7
 10
37.1601
 20
166.89099999999999
 30
0.0
 11
37.1601
 21
141.024
 31
0.0
  0
LINE
  5
152
  8
0
 62
     7
 10
39.371099999999998
 20
142.31700000000001
 30
0.0
 11
37.1601
 21
141.72399999999999
 31
0.0
  0
LINE
  5
153
  8
0
 62
     7
 10
37.1601
 20
141.72399999999999
 30
0.0
 11
39.371099999999998
 21
141.131
 31
0.0
  0
LINE
  5
154
  8
0
 62
     7
 10
39.371099999999998
 20
141.131
 30
0.0
 11
39.371099999999998
 21
142.31700000000001
 31
0.0
  0
LINE
  5
155
  8
0
 62
     7
 10
84.448800000000006
 20
141.131
 30
0.0
 11
86.660200000000003
 21
141.72399999999999
 31
0.0
  0
LINE
  5
156
  8
0
 62
     7
 10
86.660200000000003
 20
141.72399999999999
 30
0.0
 11
84.448800000000006
 21
142.31700000000001
 31
0.0
  0
LINE
  5
157
  8
0
 62
     7
 10
84.448800000000006
 20
142.31700000000001
 30
0.0
 11
84.448800000000006
 21
141.131
 31
0.0
  0
LINE
  5
158
  8
0
 62
     7
 10
37.1601
 20
141.72399999999999
 30
0.0
 11
86.660200000000003
 21
141.72399999999999
 31
0.0
  0
LINE
  5
159
  8
0
 62
     7
 10
91.660300000000007
 20
156.30699999999999
 30
0.0
 11
91.660300000000007
 21
133.96799999999999
 31
0.0
  0
LINE
  5
15A
  8
0
 62
     7
 10
32.159999999999997
 20
156.30699999999999
 30
0.0
 11
32.159999999999997
 21
133.96799999999999
 31
0.0
  0
LINE
  5
15B
  8
0
 62
     7
 10
34.371099999999998
 20
135.25999999999999
 30
0.0
 11
32.159999999999997
 21
134.66800000000001
 31
0.0
  0
LINE
  5
15C
  8
0
 62
     7
 10
32.159999999999997
 20
134.66800000000001
 30
0.0
 11
34.371099999999998
 21
134.07499999999999
 31
0.0
  0
LINE
  5
15D
  8
0
 62
     7
 10
34.371099999999998
 20
134.07499999999999
 30
0.0
 11
34.371099999999998
 21
135.25999999999999
 31
0.0
  0
LINE
  5
15E
  8
0
 62
     7
 10
89.448899999999995
 20
134.07499999999999
 30
0.0
 11
91.660300000000007
 21
134.66800000000001
 31
0.0
  0
LINE
  5
15F
  8
0
 62
     7
 10
91.660300000000007
 20
134.66800000000001
 30
0.0
 11
89.448899999999995
 21
135.25999999999999
 31
0.0
  0
LINE
  5
160
  8
0
 62
     7
 10
89.448899999999995
 20
135.25999999999999
 30
0.0
 11
89.448899999999995
 21
134.07499999999999
 31
0.0
  0
LINE
  5
161
  8
0
 62
     7
 10
32.159999999999997
 20
134.66800000000001
 30
0.0
 11
91.660300000000007
 21
134.66800000000001
 31
0.0
  0
LINE
  5
162
  8
0
 62
     7
 10
44.900700000000001
 20
203.24100000000001
 30
0.0
 11
50.35499999999999
 21
203.24100000000001
 31
0.0
  0
LINE
  5
163
  8
0
 62
     7
 10
59.527999999999992
 20
194.90700000000001
 30
0.0
 11
60.672499999999999
 21
192.92500000000001
 31
0.0
  0
LINE
  5
164
  8
0
 62
     7
 10
60.672499999999999
 20
192.92500000000001
 30
0.0
 11
58.690800000000003
 21
194.06899999999999
 31
0.0
  0
LINE
  5
165
  8
0
 62
     7
 10
58.690800000000003
 20
194.06899999999999
 30
0.0
 11
59.527999999999992
 21
194.90700000000001
 31
0.0
  0
LINE
  5
166
  8
0
 62
     7
 10
64.291899999999998
 20
188.46899999999999
 30
0.0
 11
63.147399999999998
 21
190.44999999999999
 31
0.0
  0
LINE
  5
167
  8
0
 62
     7
 10
63.147399999999998
 20
190.44999999999999
 30
0.0
 11
65.129800000000003
 21
189.30600000000001
 31
0.0
  0
LINE
  5
168
  8
0
 62
     7
 10
65.129800000000003
 20
189.30600000000001
 30
0.0
 11
64.291899999999998
 21
188.46899999999999
 31
0.0
  0
LINE
  5
169
  8
0
 62
     7
 10
65.990999999999985
 20
187.607
 30
0.0
 11
50.35499999999999
 21
203.24100000000001
 31
0.0
  0
LINE
  5
16A
  8
0
 62
     7
 10
67.435199999999995
 20
169.72499999999999
 30
0.0
 11
72.889600000000002
 21
169.72499999999999
 31
0.0
  0
LINE
  5
16B
  8
0
 62
     7
 10
59.169699999999999
 20
178.828
 30
0.0
 11
60.3142
 21
176.84599999999989
 31
0.0
  0
LINE
  5
16C
  8
0
 62
     7
 10
60.3142
 20
176.84599999999989
 30
0.0
 11
58.332599999999999
 21
177.99000000000001
 31
0.0
  0
LINE
  5
16D
  8
0
 62
     7
 10
58.332599999999999
 20
177.99000000000001
 30
0.0
 11
59.169699999999999
 21
178.828
 31
0.0
  0
LINE
  5
16E
  8
0
 62
     7
 10
64.711200000000005
 20
171.61199999999999
 30
0.0
 11
63.566699999999997
 21
173.59299999999999
 31
0.0
  0
LINE
  5
16F
  8
0
 62
     7
 10
63.566699999999997
 20
173.59299999999999
 30
0.0
 11
65.548999999999992
 21
172.44900000000001
 31
0.0
  0
LINE
  5
170
  8
0
 62
     7
 10
65.548999999999992
 20
172.44900000000001
 30
0.0
 11
64.711200000000005
 21
171.61199999999999
 31
0.0
  0
LINE
  5
171
  8
0
 62
     7
 10
67.435199999999995
 20
169.72499999999999
 30
0.0
 11
57.524700000000003
 21
179.63499999999999
 31
0.0
  0
LINE
  5
172
  8
0
 62
     7
 10
26.628900000000002
 20
98.897900000000007
 30
0.0
 11
25.1981
 21
96.420199999999994
 31
0.0
  0
LINE
  5
173
  8
0
 62
     7
 10
25.1981
 20
96.420199999999994
 30
0.0
 11
23.767700000000001
 21
98.897900000000007
 31
0.0
  0
LINE
  5
174
  8
0
 62
     7
 10
23.767700000000001
 20
98.897900000000007
 30
0.0
 11
26.628900000000002
 21
98.897900000000007
 31
0.0
  0
LINE
  5
175
  8
0
 62
     7
 10
148.488
 20
203.166
 30
0.0
 11
147.05699999999999
 21
200.68799999999999
 31
0.0
  0
LINE
  5
176
  8
0
 62
     7
 10
147.05699999999999
 20
200.68799999999999
 30
0.0
 11
145.626
 21
203.166
 31
0.0
  0
LINE
  5
177
  8
0
 62
     7
 10
145.626
 20
203.166
 30
0.0
 11
148.488
 21
203.166
 31
0.0
  0
LINE
  5
178
  8
0
 62
     7
 10
87.779899999999998
 20
203.166
 30
0.0
 11
86.3489
 21
200.68799999999999
 31
0.0
  0
LINE
  5
179
  8
0
 62
     7
 10
86.3489
 20
200.68799999999999
 30
0.0
 11
84.918499999999995
 21
203.166
 31
0.0
  0
LINE
  5
17A
  8
0
 62
     7
 10
84.918499999999995
 20
203.166
 30
0.0
 11
87.779899999999998
 21
203.166
 31
0.0
  0
LINE
  5
17B
  8
0
 62
     7
 10
161.45500000000001
 20
201.166
 30
0.0
 11
160.024
 21
198.68799999999999
 31
0.0
  0
LINE
  5
17C
  8
0
 62
     7
 10
160.024
 20
198.68799999999999
 30
0.0
 11
158.59399999999999
 21
201.166
 31
0.0
  0
LINE
  5
17D
  8
0
 62
     7
 10
158.59399999999999
 20
201.166
 30
0.0
 11
161.45500000000001
 21
201.166
 31
0.0
  0
ARC
  5
17E
  8
0
  6
AIGENLINE003
 62
     7
 10
141.278156
 20
175.27558200000001
 30
0.0
 40
2.3893239999999998
 50
272.10476699999998
 51
357.89524299999999
  0
ARC
  5
17F
  8
0
  6
AIGENLINE003
 62
     7
 10
141.45366000000001
 20
175.27558099999999
 30
0.0
 40
2.3893230000000001
 50
182.10476
 51
267.89526999999998
  0
ARC
  5
180
  8
0
  6
AIGENLINE003
 62
     7
 10
141.453699
 20
175.1000389999999
 30
0.0
 40
2.389364
 50
92.105643999999984
 51
177.89432600000001
  0
ARC
  5
181
  8
0
  6
AIGENLINE003
 62
     7
 10
141.27737200000001
 20
175.09929399999999
 30
0.0
 40
2.390136
 50
2.122844999999999
 51
87.877145999999996
  0
LINE
  5
182
  8
0
  6
AIGENLINE002
 62
     7
 10
137.227
 20
175.18799999999999
 30
0.0
 11
145.60499999999999
 21
175.18799999999999
 31
0.0
  0
ARC
  5
183
  8
0
  6
AIGENLINE003
 62
     7
 10
71.843411000000003
 20
190.754974
 30
0.0
 40
1.818400999999999
 50
272.11279000000002
 51
357.88158099999998
  0
ARC
  5
184
  8
0
  6
AIGENLINE003
 62
     7
 10
71.978047000000004
 20
190.75553400000001
 30
0.0
 40
1.8189799999999989
 50
182.13539700000001
 51
267.870272
  0
ARC
  5
185
  8
0
  6
AIGENLINE003
 62
     7
 10
71.977506999999989
 20
190.620521
 30
0.0
 40
1.818420999999999
 50
92.113365999999999
 51
177.880965
  0
ARC
  5
186
  8
0
  6
AIGENLINE003
 62
     7
 10
71.842852000000008
 20
190.619981
 30
0.0
 40
1.8189799999999989
 50
2.1353779999999989
 51
87.870251999999994
  0
LINE
  5
187
  8
0
  6
AIGENLINE002
 62
     7
 10
68.573499999999996
 20
190.68799999999999
 30
0.0
 11
75.281499999999994
 21
190.68799999999999
 31
0.0
  0
LINE
  5
188
  8
0
  6
AIGENLINE002
 62
     7
 10
71.910399999999996
 20
194.047
 30
0.0
 11
71.910399999999996
 21
187.06700000000001
 31
0.0
  0
ARC
  5
189
  8
0
  6
AIGENLINE003
 62
     7
 10
51.842782999999997
 20
190.754974
 30
0.0
 40
1.818400999999999
 50
272.11279000000002
 51
357.88158099999998
  0
ARC
  5
18A
  8
0
  6
AIGENLINE003
 62
     7
 10
51.977418999999998
 20
190.75553400000001
 30
0.0
 40
1.8189799999999989
 50
182.13539700000001
 51
267.870272
  0
ARC
  5
18B
  8
0
  6
AIGENLINE003
 62
     7
 10
51.976878999999997
 20
190.620521
 30
0.0
 40
1.818420999999999
 50
92.113365999999999
 51
177.880965
  0
ARC
  5
18C
  8
0
  6
AIGENLINE003
 62
     7
 10
51.842224000000002
 20
190.619981
 30
0.0
 40
1.8189799999999989
 50
2.1353779999999989
 51
87.870251999999994
  0
LINE
  5
18D
  8
0
  6
AIGENLINE002
 62
     7
 10
48.57289999999999
 20
190.68799999999999
 30
0.0
 11
55.280900000000003
 21
190.68799999999999
 31
0.0
  0
LINE
  5
18E
  8
0
  6
AIGENLINE002
 62
     7
 10
51.90979999999999
 20
194.047
 30
0.0
 11
51.90979999999999
 21
187.06700000000001
 31
0.0
  0
LINE
  5
18F
  8
0
  6
AIGENLINE002
 62
     7
 10
157.86600000000001
 20
99.084000000000003
 30
0.0
 11
157.86600000000001
 21
104.288
 31
0.0
  0
LINE
  5
190
  8
0
 62
     7
 10
165.86600000000001
 20
148.31999999999999
 30
0.0
 11
165.86600000000001
 21
158.488
 31
0.0
  0
LINE
  5
191
  8
0
 62
     7
 10
116.866
 20
148.31999999999999
 30
0.0
 11
116.866
 21
158.459
 31
0.0
  0
LINE
  5
192
  8
0
 62
     7
 10
119.077
 20
149.60599999999999
 30
0.0
 11
116.86499999999999
 21
149.01300000000001
 31
0.0
  0
LINE
  5
193
  8
0
 62
     7
 10
116.86499999999999
 20
149.01300000000001
 30
0.0
 11
119.077
 21
148.42099999999999
 31
0.0
  0
LINE
  5
194
  8
0
 62
     7
 10
119.077
 20
148.42099999999999
 30
0.0
 11
119.077
 21
149.60599999999999
 31
0.0
  0
LINE
  5
195
  8
0
 62
     7
 10
163.655
 20
148.435
 30
0.0
 11
165.86699999999999
 21
149.02799999999999
 31
0.0
  0
LINE
  5
196
  8
0
 62
     7
 10
165.86699999999999
 20
149.02799999999999
 30
0.0
 11
163.655
 21
149.62
 31
0.0
  0
LINE
  5
197
  8
0
 62
     7
 10
163.655
 20
149.62
 30
0.0
 11
163.655
 21
148.435
 31
0.0
  0
LINE
  5
198
  8
0
 62
     7
 10
116.866
 20
149.02000000000001
 30
0.0
 11
165.86600000000001
 21
149.02000000000001
 31
0.0
  0
LINE
  5
199
  8
0
 62
     7
 10
164.86600000000001
 20
78.905900000000003
 30
0.0
 11
164.86600000000001
 21
97.996700000000004
 31
0.0
  0
LINE
  5
19A
  8
0
 62
     7
 10
141.36600000000001
 20
78.905900000000003
 30
0.0
 11
141.36600000000001
 21
83.964100000000016
 31
0.0
  0
LINE
  5
19B
  8
0
 62
     7
 10
143.577
 20
80.191699999999997
 30
0.0
 11
141.36600000000001
 21
79.599100000000007
 31
0.0
  0
LINE
  5
19C
  8
0
 62
     7
 10
141.36600000000001
 20
79.599100000000007
 30
0.0
 11
143.577
 21
79.006500000000003
 31
0.0
  0
LINE
  5
19D
  8
0
 62
     7
 10
143.577
 20
79.006500000000003
 30
0.0
 11
143.577
 21
80.191699999999997
 31
0.0
  0
LINE
  5
19E
  8
0
 62
     7
 10
162.65600000000001
 20
79.021000000000001
 30
0.0
 11
164.86799999999999
 21
79.613600000000005
 31
0.0
  0
LINE
  5
19F
  8
0
 62
     7
 10
164.86799999999999
 20
79.613600000000005
 30
0.0
 11
162.65600000000001
 21
80.206100000000006
 31
0.0
  0
LINE
  5
1A0
  8
0
 62
     7
 10
162.65600000000001
 20
80.206100000000006
 30
0.0
 11
162.65600000000001
 21
79.021000000000001
 31
0.0
  0
LINE
  5
1A1
  8
0
 62
     7
 10
141.36600000000001
 20
79.606000000000009
 30
0.0
 11
164.86600000000001
 21
79.606000000000009
 31
0.0
  0
LINE
  5
1A2
  8
0
 62
     7
 10
105.437
 20
99.225200000000001
 30
0.0
 11
104.845
 21
101.437
 31
0.0
  0
LINE
  5
1A3
  8
0
 62
     7
 10
104.845
 20
101.437
 30
0.0
 11
104.252
 21
99.225200000000001
 31
0.0
  0
LINE
  5
1A4
  8
0
 62
     7
 10
104.252
 20
99.225200000000001
 30
0.0
 11
105.437
 21
99.225200000000001
 31
0.0
  0
LINE
  5
1A5
  8
0
 62
     7
 10
104.267
 20
98.646500000000003
 30
0.0
 11
104.85899999999999
 21
96.435400000000016
 31
0.0
  0
LINE
  5
1A6
  8
0
 62
     7
 10
104.85899999999999
 20
96.435400000000016
 30
0.0
 11
105.452
 21
98.646500000000003
 31
0.0
  0
LINE
  5
1A7
  8
0
 62
     7
 10
105.452
 20
98.646500000000003
 30
0.0
 11
104.267
 21
98.646500000000003
 31
0.0
  0
LINE
  5
1A8
  8
0
 62
     7
 10
104.852
 20
101.43600000000001
 30
0.0
 11
104.852
 21
96.436099999999996
 31
0.0
  0
LINE
  5
1A9
  8
0
 62
     7
 10
105.559
 20
96.436099999999996
 30
0.0
 11
89.364599999999996
 21
96.436099999999996
 31
0.0
  0
LINE
  5
1AA
  8
0
 62
     7
 10
99.203199999999995
 20
94.224299999999999
 30
0.0
 11
98.610600000000005
 21
96.436099999999996
 31
0.0
  0
LINE
  5
1AB
  8
0
 62
     7
 10
98.610600000000005
 20
96.436099999999996
 30
0.0
 11
98.018100000000004
 21
94.224299999999999
 31
0.0
  0
LINE
  5
1AC
  8
0
 62
     7
 10
98.018100000000004
 20
94.224299999999999
 30
0.0
 11
99.203199999999995
 21
94.224299999999999
 31
0.0
  0
LINE
  5
1AD
  8
0
 62
     7
 10
98.018100000000004
 20
103.64700000000001
 30
0.0
 11
98.610600000000005
 21
101.43600000000001
 31
0.0
  0
LINE
  5
1AE
  8
0
 62
     7
 10
98.610600000000005
 20
101.43600000000001
 30
0.0
 11
99.203199999999995
 21
103.64700000000001
 31
0.0
  0
LINE
  5
1AF
  8
0
 62
     7
 10
99.203199999999995
 20
103.64700000000001
 30
0.0
 11
98.018100000000004
 21
103.64700000000001
 31
0.0
  0
LINE
  5
1B0
  8
0
 62
     7
 10
98.610600000000005
 20
106.89100000000001
 30
0.0
 11
98.610600000000005
 21
90.887399999999985
 31
0.0
  0
LINE
  5
1B1
  8
0
 62
     7
 10
99.303100000000001
 20
98.436300000000003
 30
0.0
 11
92.7209
 21
98.436300000000003
 31
0.0
  0
LINE
  5
1B2
  8
0
 62
     7
 10
111.735
 20
99.225200000000001
 30
0.0
 11
111.143
 21
101.437
 31
0.0
  0
LINE
  5
1B3
  8
0
 62
     7
 10
111.143
 20
101.437
 30
0.0
 11
110.55
 21
99.225200000000001
 31
0.0
  0
LINE
  5
1B4
  8
0
 62
     7
 10
110.55
 20
99.225200000000001
 30
0.0
 11
111.735
 21
99.225200000000001
 31
0.0
  0
LINE
  5
1B5
  8
0
 62
     7
 10
110.56399999999999
 20
89.146199999999993
 30
0.0
 11
111.157
 21
86.935100000000006
 31
0.0
  0
LINE
  5
1B6
  8
0
 62
     7
 10
111.157
 20
86.935100000000006
 30
0.0
 11
111.75
 21
89.146199999999993
 31
0.0
  0
LINE
  5
1B7
  8
0
 62
     7
 10
111.75
 20
89.146199999999993
 30
0.0
 11
110.56399999999999
 21
89.146199999999993
 31
0.0
  0
LINE
  5
1B8
  8
0
 62
     7
 10
111.15000000000001
 20
101.43600000000001
 30
0.0
 11
111.15000000000001
 21
86.9358
 31
0.0
  0
LINE
  5
1B9
  8
0
 62
     7
 10
111.857
 20
86.9358
 30
0.0
 11
66.118499999999997
 21
86.9358
 31
0.0
  0
LINE
  5
1BA
  8
0
 62
     7
 10
111.843
 20
101.43600000000001
 30
0.0
 11
92.827299999999994
 21
101.43600000000001
 31
0.0
  0
LINE
  5
1BB
  8
0
 62
     7
 10
138.70599999999999
 20
93.648300000000006
 30
0.0
 11
139.298
 21
91.437200000000004
 31
0.0
  0
LINE
  5
1BC
  8
0
 62
     7
 10
139.298
 20
91.437200000000004
 30
0.0
 11
139.89099999999999
 21
93.648300000000006
 31
0.0
  0
LINE
  5
1BD
  8
0
 62
     7
 10
139.89099999999999
 20
93.648300000000006
 30
0.0
 11
138.70599999999999
 21
93.648300000000006
 31
0.0
  0
LINE
  5
1BE
  8
0
 62
     7
 10
139.876
 20
99.225200000000001
 30
0.0
 11
139.28399999999999
 21
101.43600000000001
 31
0.0
  0
LINE
  5
1BF
  8
0
 62
     7
 10
139.28399999999999
 20
101.43600000000001
 30
0.0
 11
138.691
 21
99.225200000000001
 31
0.0
  0
LINE
  5
1C0
  8
0
 62
     7
 10
138.691
 20
99.225200000000001
 30
0.0
 11
139.876
 21
99.225200000000001
 31
0.0
  0
LINE
  5
1C1
  8
0
 62
     7
 10
139.291
 20
91.437899999999999
 30
0.0
 11
139.291
 21
106.06399999999999
 31
0.0
  0
LINE
  5
1C2
  8
0
 62
     7
 10
148.874
 20
189.476
 30
0.0
 11
148.28100000000001
 21
191.68799999999999
 31
0.0
  0
LINE
  5
1C3
  8
0
 62
     7
 10
148.28100000000001
 20
191.68799999999999
 30
0.0
 11
147.68899999999999
 21
189.476
 31
0.0
  0
LINE
  5
1C4
  8
0
 62
     7
 10
147.68899999999999
 20
189.476
 30
0.0
 11
148.874
 21
189.476
 31
0.0
  0
LINE
  5
1C5
  8
0
 62
     7
 10
147.68899999999999
 20
196.40000000000001
 30
0.0
 11
148.28100000000001
 21
194.18799999999999
 31
0.0
  0
LINE
  5
1C6
  8
0
 62
     7
 10
148.28100000000001
 20
194.18799999999999
 30
0.0
 11
148.874
 21
196.40000000000001
 31
0.0
  0
LINE
  5
1C7
  8
0
 62
     7
 10
148.874
 20
196.40000000000001
 30
0.0
 11
147.68899999999999
 21
196.40000000000001
 31
0.0
  0
LINE
  5
1C8
  8
0
 62
     7
 10
148.28100000000001
 20
197.70599999999999
 30
0.0
 11
148.28100000000001
 21
185.31399999999999
 31
0.0
  0
LINE
  5
1C9
  8
0
 62
     7
 10
127.437
 20
191.976
 30
0.0
 11
126.845
 21
194.18799999999999
 31
0.0
  0
LINE
  5
1CA
  8
0
 62
     7
 10
126.845
 20
194.18799999999999
 30
0.0
 11
126.252
 21
191.976
 31
0.0
  0
LINE
  5
1CB
  8
0
 62
     7
 10
126.252
 20
191.976
 30
0.0
 11
127.437
 21
191.976
 31
0.0
  0
LINE
  5
1CC
  8
0
 62
     7
 10
126.252
 20
197.59999999999999
 30
0.0
 11
126.845
 21
195.38800000000001
 31
0.0
  0
LINE
  5
1CD
  8
0
 62
     7
 10
126.845
 20
195.38800000000001
 30
0.0
 11
127.437
 21
197.59999999999999
 31
0.0
  0
LINE
  5
1CE
  8
0
 62
     7
 10
127.437
 20
197.59999999999999
 30
0.0
 11
126.252
 21
197.59999999999999
 31
0.0
  0
LINE
  5
1CF
  8
0
 62
     7
 10
126.252
 20
177.40000000000001
 30
0.0
 11
126.845
 21
175.18799999999999
 31
0.0
  0
LINE
  5
1D0
  8
0
 62
     7
 10
126.845
 20
175.18799999999999
 30
0.0
 11
127.437
 21
177.40000000000001
 31
0.0
  0
LINE
  5
1D1
  8
0
 62
     7
 10
127.437
 20
177.40000000000001
 30
0.0
 11
126.252
 21
177.40000000000001
 31
0.0
  0
LINE
  5
1D2
  8
0
 62
     7
 10
27.091699999999999
 20
196.476
 30
0.0
 11
26.499199999999998
 21
198.68799999999999
 31
0.0
  0
LINE
  5
1D3
  8
0
 62
     7
 10
26.499199999999998
 20
198.68799999999999
 30
0.0
 11
25.906600000000001
 21
196.476
 31
0.0
  0
LINE
  5
1D4
  8
0
 62
     7
 10
25.906600000000001
 20
196.476
 30
0.0
 11
27.091699999999999
 21
196.476
 31
0.0
  0
LINE
  5
1D5
  8
0
 62
     7
 10
25.906600000000001
 20
177.40000000000001
 30
0.0
 11
26.499199999999998
 21
175.18799999999999
 31
0.0
  0
LINE
  5
1D6
  8
0
 62
     7
 10
26.499199999999998
 20
175.18799999999999
 30
0.0
 11
27.091699999999999
 21
177.40000000000001
 31
0.0
  0
LINE
  5
1D7
  8
0
 62
     7
 10
27.091699999999999
 20
177.40000000000001
 30
0.0
 11
25.906600000000001
 21
177.40000000000001
 31
0.0
  0
LINE
  5
1D8
  8
0
 62
     7
 10
26.499199999999998
 20
198.68799999999999
 30
0.0
 11
26.499199999999998
 21
175.18799999999999
 31
0.0
  0
LINE
  5
1D9
  8
0
 62
     7
 10
177.22800000000001
 20
191.976
 30
0.0
 11
176.63499999999999
 21
194.18799999999999
 31
0.0
  0
LINE
  5
1DA
  8
0
 62
     7
 10
176.63499999999999
 20
194.18799999999999
 30
0.0
 11
176.04300000000001
 21
191.976
 31
0.0
  0
LINE
  5
1DB
  8
0
 62
     7
 10
176.04300000000001
 20
191.976
 30
0.0
 11
177.22800000000001
 21
191.976
 31
0.0
  0
LINE
  5
1DC
  8
0
 62
     7
 10
126.145
 20
175.18799999999999
 30
0.0
 11
136.52699999999999
 21
175.18799999999999
 31
0.0
  0
LINE
  5
1DD
  8
0
 62
     7
 10
126.145
 20
195.38800000000001
 30
0.0
 11
139.053
 21
195.38800000000001
 31
0.0
  0
LINE
  5
1DE
  8
0
 62
     7
 10
168.08099999999999
 20
198.68799999999999
 30
0.0
 11
177.33500000000001
 21
198.68799999999999
 31
0.0
  0
LINE
  5
1DF
  8
0
 62
     7
 10
166.649
 20
194.18799999999999
 30
0.0
 11
177.33500000000001
 21
194.18799999999999
 31
0.0
  0
LINE
  5
1E0
  8
0
 62
     7
 10
99.370400000000004
 20
183.976
 30
0.0
 11
98.777900000000002
 21
186.18799999999999
 31
0.0
  0
LINE
  5
1E1
  8
0
 62
     7
 10
98.777900000000002
 20
186.18799999999999
 30
0.0
 11
98.185299999999998
 21
183.976
 31
0.0
  0
LINE
  5
1E2
  8
0
 62
     7
 10
98.185299999999998
 20
183.976
 30
0.0
 11
99.370400000000004
 21
183.976
 31
0.0
  0
LINE
  5
1E3
  8
0
 62
     7
 10
99.370400000000004
 20
151.976
 30
0.0
 11
98.777900000000002
 21
154.18700000000001
 31
0.0
  0
LINE
  5
1E4
  8
0
 62
     7
 10
98.777900000000002
 20
154.18700000000001
 30
0.0
 11
98.185299999999998
 21
151.976
 31
0.0
  0
LINE
  5
1E5
  8
0
 62
     7
 10
98.185299999999998
 20
151.976
 30
0.0
 11
99.370400000000004
 21
151.976
 31
0.0
  0
LINE
  5
1E6
  8
0
 62
     7
 10
40.5871
 20
196.476
 30
0.0
 11
39.994500000000002
 21
198.68799999999999
 31
0.0
  0
LINE
  5
1E7
  8
0
 62
     7
 10
39.994500000000002
 20
198.68799999999999
 30
0.0
 11
39.402000000000001
 21
196.476
 31
0.0
  0
LINE
  5
1E8
  8
0
 62
     7
 10
39.402000000000001
 20
196.476
 30
0.0
 11
40.5871
 21
196.476
 31
0.0
  0
LINE
  5
1E9
  8
0
 62
     7
 10
40.5871
 20
183.976
 30
0.0
 11
39.994500000000002
 21
186.18799999999999
 31
0.0
  0
LINE
  5
1EA
  8
0
 62
     7
 10
39.994500000000002
 20
186.18799999999999
 30
0.0
 11
39.402000000000001
 21
183.976
 31
0.0
  0
LINE
  5
1EB
  8
0
 62
     7
 10
39.402000000000001
 20
183.976
 30
0.0
 11
40.5871
 21
183.976
 31
0.0
  0
LINE
  5
1EC
  8
0
 62
     7
 10
176.04300000000001
 20
202.899
 30
0.0
 11
176.63499999999999
 21
200.68799999999999
 31
0.0
  0
LINE
  5
1ED
  8
0
 62
     7
 10
176.63499999999999
 20
200.68799999999999
 30
0.0
 11
177.22800000000001
 21
202.899
 31
0.0
  0
LINE
  5
1EE
  8
0
 62
     7
 10
177.22800000000001
 20
202.899
 30
0.0
 11
176.04300000000001
 21
202.899
 31
0.0
  0
LINE
  5
1EF
  8
0
 62
     7
 10
104.119
 20
202.899
 30
0.0
 11
104.712
 21
200.68799999999999
 31
0.0
  0
LINE
  5
1F0
  8
0
 62
     7
 10
104.712
 20
200.68799999999999
 30
0.0
 11
105.304
 21
202.899
 31
0.0
  0
LINE
  5
1F1
  8
0
 62
     7
 10
105.304
 20
202.899
 30
0.0
 11
104.119
 21
202.899
 31
0.0
  0
LINE
  5
1F2
  8
0
 62
     7
 10
39.402000000000001
 20
192.899
 30
0.0
 11
39.994500000000002
 21
190.68799999999999
 31
0.0
  0
LINE
  5
1F3
  8
0
 62
     7
 10
39.994500000000002
 20
190.68799999999999
 30
0.0
 11
40.5871
 21
192.899
 31
0.0
  0
LINE
  5
1F4
  8
0
 62
     7
 10
40.5871
 20
192.899
 30
0.0
 11
39.402000000000001
 21
192.899
 31
0.0
  0
LINE
  5
1F5
  8
0
 62
     7
 10
82.988399999999999
 20
189.476
 30
0.0
 11
82.395799999999994
 21
191.68799999999999
 31
0.0
  0
LINE
  5
1F6
  8
0
 62
     7
 10
82.395799999999994
 20
191.68799999999999
 30
0.0
 11
81.803299999999993
 21
189.476
 31
0.0
  0
LINE
  5
1F7
  8
0
 62
     7
 10
81.803299999999993
 20
189.476
 30
0.0
 11
82.988399999999999
 21
189.476
 31
0.0
  0
LINE
  5
1F8
  8
0
 62
     7
 10
82.988399999999999
 20
196.476
 30
0.0
 11
82.395799999999994
 21
198.68799999999999
 31
0.0
  0
LINE
  5
1F9
  8
0
 62
     7
 10
82.395799999999994
 20
198.68799999999999
 30
0.0
 11
81.803299999999993
 21
196.476
 31
0.0
  0
LINE
  5
1FA
  8
0
 62
     7
 10
81.803299999999993
 20
196.476
 30
0.0
 11
82.988399999999999
 21
196.476
 31
0.0
  0
LINE
  5
1FB
  8
0
 62
     7
 10
176.04300000000001
 20
161.399
 30
0.0
 11
176.63499999999999
 21
159.18799999999999
 31
0.0
  0
LINE
  5
1FC
  8
0
 62
     7
 10
176.63499999999999
 20
159.18799999999999
 30
0.0
 11
177.22800000000001
 21
161.399
 31
0.0
  0
LINE
  5
1FD
  8
0
 62
     7
 10
177.22800000000001
 20
161.399
 30
0.0
 11
176.04300000000001
 21
161.399
 31
0.0
  0
LINE
  5
1FE
  8
0
 62
     7
 10
126.845
 20
204.76300000000001
 30
0.0
 11
126.845
 21
175.18799999999999
 31
0.0
  0
LINE
  5
1FF
  8
0
 62
     7
 10
176.63499999999999
 20
210.06800000000001
 30
0.0
 11
176.63499999999999
 21
159.18799999999999
 31
0.0
  0
LINE
  5
200
  8
0
 62
     7
 10
166.572
 20
159.18799999999999
 30
0.0
 11
177.33500000000001
 21
159.18799999999999
 31
0.0
  0
LINE
  5
201
  8
0
 62
     7
 10
99.3703
 20
196.476
 30
0.0
 11
98.777699999999996
 21
198.68799999999999
 31
0.0
  0
LINE
  5
202
  8
0
 62
     7
 10
98.777699999999996
 20
198.68799999999999
 30
0.0
 11
98.185199999999995
 21
196.476
 31
0.0
  0
LINE
  5
203
  8
0
 62
     7
 10
98.185199999999995
 20
196.476
 30
0.0
 11
99.3703
 21
196.476
 31
0.0
  0
LINE
  5
204
  8
0
 62
     7
 10
98.185199999999995
 20
188.40000000000001
 30
0.0
 11
98.777699999999996
 21
186.18799999999999
 31
0.0
  0
LINE
  5
205
  8
0
 62
     7
 10
98.777699999999996
 20
186.18799999999999
 30
0.0
 11
99.3703
 21
188.40000000000001
 31
0.0
  0
LINE
  5
206
  8
0
 62
     7
 10
99.3703
 20
188.40000000000001
 30
0.0
 11
98.185199999999995
 21
188.40000000000001
 31
0.0
  0
LINE
  5
207
  8
0
 62
     7
 10
98.777699999999996
 20
198.68799999999999
 30
0.0
 11
98.777699999999996
 21
186.18799999999999
 31
0.0
  0
LINE
  5
208
  8
0
 62
     7
 10
105.304
 20
196.476
 30
0.0
 11
104.712
 21
198.68799999999999
 31
0.0
  0
LINE
  5
209
  8
0
 62
     7
 10
104.712
 20
198.68799999999999
 30
0.0
 11
104.119
 21
196.476
 31
0.0
  0
LINE
  5
20A
  8
0
 62
     7
 10
104.119
 20
196.476
 30
0.0
 11
105.304
 21
196.476
 31
0.0
  0
LINE
  5
20B
  8
0
 62
     7
 10
98.185299999999998
 20
159.899
 30
0.0
 11
98.777900000000002
 21
157.68700000000001
 31
0.0
  0
LINE
  5
20C
  8
0
 62
     7
 10
98.777900000000002
 20
157.68700000000001
 30
0.0
 11
99.370400000000004
 21
159.899
 31
0.0
  0
LINE
  5
20D
  8
0
 62
     7
 10
99.370400000000004
 20
159.899
 30
0.0
 11
98.185299999999998
 21
159.899
 31
0.0
  0
LINE
  5
20E
  8
0
 62
     7
 10
81.803299999999993
 20
188.40000000000001
 30
0.0
 11
82.395799999999994
 21
186.18799999999999
 31
0.0
  0
LINE
  5
20F
  8
0
 62
     7
 10
82.395799999999994
 20
186.18799999999999
 30
0.0
 11
82.988399999999999
 21
188.40000000000001
 31
0.0
  0
LINE
  5
210
  8
0
 62
     7
 10
82.988399999999999
 20
188.40000000000001
 30
0.0
 11
81.803299999999993
 21
188.40000000000001
 31
0.0
  0
LINE
  5
211
  8
0
 62
     7
 10
81.803299999999993
 20
193.90000000000001
 30
0.0
 11
82.395799999999994
 21
191.68799999999999
 31
0.0
  0
LINE
  5
212
  8
0
 62
     7
 10
82.395799999999994
 20
191.68799999999999
 30
0.0
 11
82.988399999999999
 21
193.90000000000001
 31
0.0
  0
LINE
  5
213
  8
0
 62
     7
 10
82.988399999999999
 20
193.90000000000001
 30
0.0
 11
81.803299999999993
 21
193.90000000000001
 31
0.0
  0
LINE
  5
214
  8
0
 62
     7
 10
104.119
 20
156.399
 30
0.0
 11
104.712
 21
154.18700000000001
 31
0.0
  0
LINE
  5
215
  8
0
 62
     7
 10
104.712
 20
154.18700000000001
 30
0.0
 11
105.304
 21
156.399
 31
0.0
  0
LINE
  5
216
  8
0
 62
     7
 10
105.304
 20
156.399
 30
0.0
 11
104.119
 21
156.399
 31
0.0
  0
LINE
  5
217
  8
0
 62
     7
 10
39.994500000000002
 20
198.68799999999999
 30
0.0
 11
39.994500000000002
 21
182.851
 31
0.0
  0
LINE
  5
218
  8
0
 62
     7
 10
104.712
 20
210.06800000000001
 30
0.0
 11
104.712
 21
154.18700000000001
 31
0.0
  0
LINE
  5
219
  8
0
 62
     7
 10
98.777900000000002
 20
198.68799999999999
 30
0.0
 11
98.777900000000002
 21
148.453
 31
0.0
  0
LINE
  5
21A
  8
0
 62
     7
 10
82.395799999999994
 20
198.68799999999999
 30
0.0
 11
82.395799999999994
 21
186.18799999999999
 31
0.0
  0
LINE
  5
21B
  8
0
 62
     7
 10
66.600099999999983
 20
191.68799999999999
 30
0.0
 11
83.0959
 21
191.68799999999999
 31
0.0
  0
LINE
  5
21C
  8
0
 62
     7
 10
25.799099999999999
 20
198.68799999999999
 30
0.0
 11
35.2134
 21
198.68799999999999
 31
0.0
  0
LINE
  5
21D
  8
0
 62
     7
 10
39.294499999999999
 20
190.68799999999999
 30
0.0
 11
47.872799999999991
 21
190.68799999999999
 31
0.0
  0
LINE
  5
21E
  8
0
 62
     7
 10
25.799099999999999
 20
175.18799999999999
 30
0.0
 11
55.640900000000002
 21
175.18799999999999
 31
0.0
  0
LINE
  5
21F
  8
0
 62
     7
 10
39.294499999999999
 20
186.18799999999999
 30
0.0
 11
52.504399999999997
 21
186.18799999999999
 31
0.0
  0
LINE
  5
220
  8
0
 62
     7
 10
72.396199999999993
 20
186.18799999999999
 30
0.0
 11
99.477800000000016
 21
186.18799999999999
 31
0.0
  0
LINE
  5
221
  8
0
 62
     7
 10
90.706800000000015
 20
157.68700000000001
 30
0.0
 11
99.477900000000005
 21
157.68700000000001
 31
0.0
  0
LINE
  5
222
  8
0
 62
     7
 10
89.106199999999987
 20
154.18700000000001
 30
0.0
 11
105.41200000000001
 21
154.18700000000001
 31
0.0
  0
LINE
  5
223
  8
0
 62
     7
 10
89.201499999999996
 20
198.68799999999999
 30
0.0
 11
105.41200000000001
 21
198.68799999999999
 31
0.0
  0
TEXT
  5
224
  8
_________2
 62
     7
 10
24.586600000000001
 20
0.707627
 30
0.0
 40
3.9357000000000002
  1
実容量：5.0L、重量11.7kg、オーバーフロー付
 41
0.5
  0
LINE
  5
225
  8
_________2
 62
     7
 10
205.30099999999999
 20
127.411
 30
0.0
 11
183.55099999999999
 21
127.411
 31
0.0
  0
LINE
  5
226
  8
_________2
 62
     7
 10
100.3
 20
-4.0910799999999998
 30
0.0
 11
100.3
 21
-21.071000000000002
 31
0.0
  0
LINE
  5
227
  8
_________2
 62
     7
 10
100.3
 20
275.93099999999998
 30
0.0
 11
100.3
 21
258.911
 31
0.0
  0
LINE
  5
228
  8
_________2
 62
     7
 10
17.049399999999999
 20
127.411
 30
0.0
 11
-4.7010300000000003
 21
127.411
 31
0.0
  0
LINE
  5
229
  8
_________2
 62
     7
 10
76.740799999999993
 20
29.8047
 30
0.0
 11
74.554599999999994
 21
29.8047
 31
0.0
  0
LINE
  5
22A
  8
_________2
 62
     7
 10
77.233500000000006
 20
29.8047
 30
0.0
 11
76.981300000000005
 21
29.8047
 31
0.0
  0
LINE
  5
22B
  8
_________2
 62
     7
 10
77.726200000000006
 20
29.8047
 30
0.0
 11
80.6511
 21
29.8047
 31
0.0
  0
LINE
  5
22C
  8
_________2
 62
     7
 10
77.233500000000006
 20
29.8047
 30
0.0
 11
77.485699999999994
 21
29.8047
 31
0.0
  0
LINE
  5
22D
  8
_________2
 62
     7
 10
70.837299999999999
 20
29.8047
 30
0.0
 11
68.650300000000001
 21
29.8047
 31
0.0
  0
LINE
  5
22E
  8
_________2
 62
     7
 10
71.329300000000003
 20
29.8047
 30
0.0
 11
71.077799999999996
 21
29.8047
 31
0.0
  0
LINE
  5
22F
  8
_________2
 62
     7
 10
71.329300000000003
 20
30.2974
 30
0.0
 11
71.329300000000003
 21
32.484400000000001
 31
0.0
  0
LINE
  5
230
  8
_________2
 62
     7
 10
71.329300000000003
 20
29.8047
 30
0.0
 11
71.329300000000003
 21
30.057300000000001
 31
0.0
  0
LINE
  5
231
  8
_________2
 62
     7
 10
71.821899999999999
 20
29.8047
 30
0.0
 11
74.008899999999997
 21
29.8047
 31
0.0
  0
LINE
  5
232
  8
_________2
 62
     7
 10
71.329300000000003
 20
29.8047
 30
0.0
 11
71.581400000000002
 21
29.8047
 31
0.0
  0
LINE
  5
233
  8
_________2
 62
     7
 10
71.329300000000003
 20
29.312799999999999
 30
0.0
 11
71.329300000000003
 21
27.126200000000001
 31
0.0
  0
LINE
  5
234
  8
_________2
 62
     7
 10
71.329300000000003
 20
29.8047
 30
0.0
 11
71.329300000000003
 21
29.5532
 31
0.0
  0
LINE
  5
235
  8
_________2
 62
     7
 10
75.040300000000002
 20
28.5852
 30
0.0
 11
80.218299999999985
 21
27.720400000000001
 31
0.0
  0
LINE
  5
236
  8
_________2
 62
     7
 10
75.040300000000002
 20
31.024699999999999
 30
0.0
 11
80.218299999999985
 21
31.8901
 31
0.0
  0
LINE
  5
237
  8
_________2
 62
     7
 10
80.218299999999985
 20
27.720400000000001
 30
0.0
 11
80.218299999999985
 21
31.8901
 31
0.0
  0
LINE
  5
238
  8
_________2
 62
     7
 10
75.040300000000002
 20
28.5852
 30
0.0
 11
75.040300000000002
 21
31.024699999999999
 31
0.0
  0
ARC
  5
239
  8
_________2
 62
     7
 10
71.282674
 20
29.757801000000001
 30
0.0
 40
1.267714
 50
2.1220840000000001
 51
87.894083999999992
  0
ARC
  5
23A
  8
_________2
 62
     7
 10
71.375812999999994
 20
29.758545999999999
 30
0.0
 40
1.2669680000000001
 50
92.105782999999988
 51
177.91037
  0
ARC
  5
23B
  8
_________2
 62
     7
 10
71.376186000000004
 20
29.851671
 30
0.0
 40
1.2673680000000001
 50
182.12203600000001
 51
267.877993
  0
ARC
  5
23C
  8
_________2
 62
     7
 10
71.282368999999989
 20
29.852347999999999
 30
0.0
 40
1.2680439999999991
 50
272.11916400000001
 51
357.84848499999998
  0
ARC
  5
23D
  8
_________2
 62
     7
 10
71.248890000000003
 20
29.724731999999999
 30
0.0
 40
2.1668310000000002
 50
2.1161439999999989
 51
87.874379000000005
  0
ARC
  5
23E
  8
_________2
 62
     7
 10
71.408928000000003
 20
29.726146
 30
0.0
 40
2.165392999999999
 50
92.108508999999998
 51
177.91986499999999
  0
ARC
  5
23F
  8
_________2
 62
     7
 10
71.409267
 20
29.884751999999999
 30
0.0
 40
2.1657829999999998
 50
182.117133
 51
267.88289700000001
  0
ARC
  5
240
  8
_________2
 62
     7
 10
71.249286999999995
 20
29.885429999999999
 30
0.0
 40
2.1664590000000001
 50
272.11546800000002
 51
357.86560400000002
  0
TEXT
  5
241
  8
_________2
 62
     7
 10
104.605
 20
1.6794899999999999
 30
0.0
 40
3.0923400000000001
  1
図番
 41
0.5
  0
LINE
  5
242
  8
_________2
 62
     7
 10
103.55
 20
5.9087199999999989
 30
0.0
 11
183.55099999999999
 21
5.9087199999999989
 31
0.0
  0
TEXT
  5
243
  8
_________2
 62
     7
 10
104.605
 20
11.6793
 30
0.0
 40
3.0923400000000001
  1
品番
 41
0.5
  0
TEXT
  5
244
  8
_________2
 62
     7
 10
104.605
 20
31.8184
 30
0.0
 40
3.0923400000000001
  1
名称
 41
0.5
  0
TEXT
  5
245
  8
_________2
 62
     7
 10
91.844958333333338
 20
26.822299999999998
 30
0.0
 40
3.6545800000000002
  1
mm
 41
0.5
 72
     1
 11
93.367699999999985
 21
26.822299999999998
 31
0.0
  0
TEXT
  5
246
  8
_________2
 62
     7
 10
85.642999999999986
 20
31.8184
 30
0.0
 40
3.0923400000000001
  1
単位
 41
0.5
  0
TEXT
  5
247
  8
_________2
 62
     7
 10
85.642999999999986
 20
19.410799999999998
 30
0.0
 40
3.0923400000000001
  1
尺度
 41
0.5
  0
TEXT
  5
248
  8
_________2
 62
     7
 10
90.091736166666678
 20
13.2182
 30
0.0
 40
3.6545800000000002
  1
1 ： 10
 41
0.5
 72
     1
 11
93.959500000000006
 21
13.2182
 31
0.0
  0
TEXT
  5
249
  8
_________2
 62
     7
 10
137.64644999999999
 20
9.1082000000000001
 30
0.0
 40
3.9357000000000002
  1
VR5685
 41
0.5
 72
     1
 11
143.55000000000001
 21
9.1082000000000001
 31
0.0
  0
TEXT
  5
24A
  8
_________2
 62
     7
 10
137.64644999999999
 20
-0.8926299999999999
 30
0.0
 40
3.9357000000000002
  1
VR5685
 41
0.5
 72
     1
 11
143.55000000000001
 21
-0.8926299999999999
 31
0.0
  0
TEXT
  5
24B
  8
_________2
 62
     7
 10
109.179
 20
24.226099999999999
 30
0.0
 40
3.9357000000000002
  1
ネストトレンディ　洗面器
 41
0.5
  0
TEXT
  5
24C
  8
_________2
 62
     7
 10
39.425100333333333
 20
13.603400000000001
 30
0.0
 40
3.6545800000000002
  1
早川
 41
0.5
 72
     1
 11
41.313299999999998
 21
13.603400000000001
 31
0.0
  0
TEXT
  5
24D
  8
_________2
 62
     7
 10
20.790190666666671
 20
13.603400000000001
 30
0.0
 40
3.6545800000000002
  1
菅原
 41
0.5
 72
     1
 11
22.7393
 21
13.603400000000001
 31
0.0
  0
TEXT
  5
24E
  8
_________2
 62
     7
 10
67.785600000000002
 20
13.2182
 30
0.0
 40
3.6545800000000002
  1
16.01.21
 41
0.5
  0
TEXT
  5
24F
  8
_________2
 62
     7
 10
66.5929
 20
19.410799999999998
 30
0.0
 40
3.0923400000000001
  1
日付
 41
0.5
  0
TEXT
  5
250
  8
_________2
 62
     7
 10
29.639199999999999
 20
19.410799999999998
 30
0.0
 40
3.0923400000000001
  1
検図
 41
0.5
  0
TEXT
  5
251
  8
_________2
 62
     7
 10
18.020900000000001
 20
5.21143
 30
0.0
 40
3.0923400000000001
  1
備考
 41
0.5
  0
TEXT
  5
252
  8
_________2
 62
     7
 10
18.020900000000001
 20
19.410799999999998
 30
0.0
 40
3.0923400000000001
  1
製図
 41
0.5
  0
TEXT
  5
253
  8
_________2
 62
     7
 10
23.788265333333339
 20
27.936800000000002
 30
0.0
 40
4.4979399999999989
  1
セラトレーディング株式会社
 41
0.5
 72
     1
 11
41.180300000000003
 21
27.936800000000002
 31
0.0
  0
LINE
  5
254
  8
_________2
 62
     7
 10
183.55099999999999
 20
-4.0910799999999998
 30
0.0
 11
17.049399999999999
 21
-4.0910799999999998
 31
0.0
  0
LINE
  5
255
  8
_________2
 62
     7
 10
17.049399999999999
 20
-4.0910799999999998
 30
0.0
 11
17.049399999999999
 21
258.911
 31
0.0
  0
LINE
  5
256
  8
_________2
 62
     7
 10
17.049399999999999
 20
258.911
 30
0.0
 11
183.55099999999999
 21
258.911
 31
0.0
  0
LINE
  5
257
  8
_________2
 62
     7
 10
183.55099999999999
 20
258.911
 30
0.0
 11
183.55099999999999
 21
-4.0910799999999998
 31
0.0
  0
LINE
  5
258
  8
_________2
 62
     7
 10
65.549700000000001
 20
9.4092999999999982
 30
0.0
 11
65.549700000000001
 21
35.909100000000002
 31
0.0
  0
LINE
  5
259
  8
_________2
 62
     7
 10
84.549599999999984
 20
9.4092999999999982
 30
0.0
 11
84.549599999999984
 21
35.909100000000002
 31
0.0
  0
LINE
  5
25A
  8
_________2
 62
     7
 10
103.55
 20
-4.0910799999999998
 30
0.0
 11
103.55
 21
35.909100000000002
 31
0.0
  0
LINE
  5
25B
  8
_________2
 62
     7
 10
28.549199999999999
 20
9.4092999999999982
 30
0.0
 11
28.549199999999999
 21
23.409199999999998
 31
0.0
  0
LINE
  5
25C
  8
_________2
 62
     7
 10
17.049399999999999
 20
9.4092999999999982
 30
0.0
 11
103.55
 21
9.4092999999999982
 31
0.0
  0
LINE
  5
25D
  8
_________2
 62
     7
 10
17.049399999999999
 20
23.409199999999998
 30
0.0
 11
103.55
 21
23.409199999999998
 31
0.0
  0
LINE
  5
25E
  8
_________2
 62
     7
 10
103.55
 20
15.9085
 30
0.0
 11
183.55099999999999
 21
15.9085
 31
0.0
  0
LINE
  5
25F
  8
_________2
 62
     7
 10
17.049399999999999
 20
35.909100000000002
 30
0.0
 11
183.55099999999999
 21
35.909100000000002
 31
0.0
  0
ENDSEC
  0
EOF
