  0
SECTION
  2
HEADER
  9
$ACADVER
  1
AC1009
  9
$INSBASE
 10
0.0
 20
0.0
 30
0.0
  9
$EXTMIN
 10
-4.7008599999999987
 20
-21.071400000000001
 30
0.0
  9
$EXTMAX
 10
205.30099999999999
 20
275.93099999999993
 30
0.0
  9
$LIMMIN
 10
0.0
 20
0.0
  9
$LIMMAX
 10
12.0
 20
9.0
  9
$ORTHOMODE
 70
     0
  9
$REGENMODE
 70
     1
  9
$FILLMODE
 70
     1
  9
$QTEXTMODE
 70
     0
  9
$MIRRTEXT
 70
     1
  9
$DRAGMODE
 70
     2
  9
$LTSCALE
 40
1.0
  9
$OSMODE
 70
    37
  9
$ATTMODE
 70
     1
  9
$TEXTSIZE
 40
0.0
  9
$TRACEWID
 40
0.05
  9
$TEXTSTYLE
  7
STANDARD
  9
$CLAYER
  8
0
  9
$CELTYPE
  6
CONTINUOUS
  9
$CECOLOR
 62
   256
  9
$DIMSCALE
 40
1.0
  9
$DIMASZ
 40
0.18
  9
$DIMEXO
 40
0.0625
  9
$DIMDLI
 40
0.38
  9
$DIMRND
 40
0.0
  9
$DIMDLE
 40
0.0
  9
$DIMEXE
 40
0.18
  9
$DIMTP
 40
0.0
  9
$DIMTM
 40
0.0
  9
$DIMTXT
 40
0.18
  9
$DIMCEN
 40
0.09
  9
$DIMTSZ
 40
0.0
  9
$DIMTOL
 70
     0
  9
$DIMLIM
 70
     0
  9
$DIMTIH
 70
     1
  9
$DIMTOH
 70
     1
  9
$DIMSE1
 70
     0
  9
$DIMSE2
 70
     0
  9
$DIMTAD
 70
     0
  9
$DIMZIN
 70
     0
  9
$DIMBLK
  1

  9
$DIMASO
 70
     1
  9
$DIMSHO
 70
     1
  9
$DIMPOST
  1

  9
$DIMAPOST
  1

  9
$DIMALT
 70
     0
  9
$DIMALTD
 70
     2
  9
$DIMALTF
 40
25.399999999999999
  9
$DIMLFAC
 40
1.0
  9
$DIMTOFL
 70
     0
  9
$DIMTVP
 40
0.0
  9
$DIMTIX
 70
     0
  9
$DIMSOXD
 70
     0
  9
$DIMSAH
 70
     0
  9
$DIMBLK1
  1

  9
$DIMBLK2
  1

  9
$DIMSTYLE
  2
STANDARD
  9
$DIMCLRD
 70
     0
  9
$DIMCLRE
 70
     0
  9
$DIMCLRT
 70
     0
  9
$DIMTFAC
 40
1.0
  9
$DIMGAP
 40
0.09
  9
$LUNITS
 70
     2
  9
$LUPREC
 70
     4
  9
$SKETCHINC
 40
0.1
  9
$FILLETRAD
 40
0.0
  9
$AUNITS
 70
     0
  9
$AUPREC
 70
     0
  9
$MENU
  1
.
  9
$ELEVATION
 40
0.0
  9
$PELEVATION
 40
0.0
  9
$THICKNESS
 40
0.0
  9
$LIMCHECK
 70
     0
  9
$BLIPMODE
 70
     0
  9
$CHAMFERA
 40
0.0
  9
$CHAMFERB
 40
0.0
  9
$SKPOLY
 70
     0
  9
$TDCREATE
 40
2444972.375
  9
$TDUPDATE
 40
2454862.3927162848
  9
$TDINDWG
 40
0.0064202315
  9
$TDUSRTIMER
 40
0.0064202315
  9
$USRTIMER
 70
     1
  9
$ANGBASE
 50
0.0
  9
$ANGDIR
 70
     0
  9
$PDMODE
 70
     0
  9
$PDSIZE
 40
0.0
  9
$PLINEWID
 40
0.0
  9
$COORDS
 70
     1
  9
$SPLFRAME
 70
     0
  9
$SPLINETYPE
 70
     6
  9
$SPLINESEGS
 70
     8
  9
$ATTDIA
 70
     0
  9
$ATTREQ
 70
     1
  9
$HANDLING
 70
     1
  9
$HANDSEED
  5
235
  9
$SURFTAB1
 70
     6
  9
$SURFTAB2
 70
     6
  9
$SURFTYPE
 70
     6
  9
$SURFU
 70
     6
  9
$SURFV
 70
     6
  9
$UCSNAME
  2

  9
$UCSORG
 10
0.0
 20
0.0
 30
0.0
  9
$UCSXDIR
 10
1.0
 20
0.0
 30
0.0
  9
$UCSYDIR
 10
0.0
 20
1.0
 30
0.0
  9
$PUCSNAME
  2

  9
$PUCSORG
 10
0.0
 20
0.0
 30
0.0
  9
$PUCSXDIR
 10
1.0
 20
0.0
 30
0.0
  9
$PUCSYDIR
 10
0.0
 20
1.0
 30
0.0
  9
$USERI1
 70
     0
  9
$USERI2
 70
     0
  9
$USERI3
 70
     0
  9
$USERI4
 70
     0
  9
$USERI5
 70
     0
  9
$USERR1
 40
0.0
  9
$USERR2
 40
0.0
  9
$USERR3
 40
0.0
  9
$USERR4
 40
0.0
  9
$USERR5
 40
0.0
  9
$WORLDVIEW
 70
     1
  9
$SHADEDGE
 70
     3
  9
$SHADEDIF
 70
    70
  9
$TILEMODE
 70
     1
  9
$MAXACTVP
 70
    48
  9
$PLIMCHECK
 70
     0
  9
$PEXTMIN
 10
1.0000000000000000E+020
 20
1.0000000000000000E+020
 30
1.0000000000000000E+020
  9
$PEXTMAX
 10
-1.0000000000000000E+020
 20
-1.0000000000000000E+020
 30
-1.0000000000000000E+020
  9
$PLIMMIN
 10
0.0
 20
0.0
  9
$PLIMMAX
 10
12.0
 20
9.0
  9
$UNITMODE
 70
     0
  9
$VISRETAIN
 70
     1
  9
$PLINEGEN
 70
     0
  9
$PSLTSCALE
 70
     1
  0
ENDSEC
  0
SECTION
  2
TABLES
  0
TABLE
  2
VPORT
 70
     2
  0
VPORT
  2
*ACTIVE
 70
     0
 10
0.0
 20
0.0
 11
1.0
 21
1.0
 12
185.463325451999
 22
126.02292456262499
 13
0.0
 23
0.0
 14
1.0
 24
1.0
 15
0.0
 25
0.0
 16
0.0
 26
0.0
 36
1.0
 17
0.0
 27
0.0
 37
0.0
 40
266.43174124420671
 41
2.2894736842105261
 42
50.0
 43
0.0
 44
0.0
 50
0.0
 51
0.0
 71
     0
 72
   100
 73
     1
 74
     1
 75
     0
 76
     0
 77
     0
 78
     0
  0
ENDTAB
  0
TABLE
  2
LTYPE
 70
     4
  0
LTYPE
  2
CONTINUOUS
 70
     0
  3
Solid line
 72
    65
 73
     0
 40
0.0
  0
LTYPE
  2
AIGENLINE001
 70
     0
  3
generate AI->DXF Converter
 72
    65
 73
     4
 40
5.8561449999999988
 49
3.5278
 49
-0.776115
 49
0.776115
 49
-0.776115
  0
LTYPE
  2
AIGENLINE002
 70
     0
  3
generate AI->DXF Converter
 72
    65
 73
     6
 40
7.4083750000000004
 49
3.5278
 49
-0.776115
 49
0.776115
 49
-0.776115
 49
0.776115
 49
-0.776115
  0
LTYPE
  2
AIGENLINE003
 70
     0
  3
generate AI->DXF Converter
 72
    65
 73
     2
 40
1.5522299999999991
 49
0.776115
 49
-0.776115
  0
ENDTAB
  0
TABLE
  2
LAYER
 70
     2
  0
LAYER
  2
0
 70
     0
 62
     7
  6
CONTINUOUS
  0
LAYER
  2
_________2
 70
     0
 62
     7
  6
CONTINUOUS
  0
ENDTAB
  0
TABLE
  2
STYLE
 70
     1
  0
STYLE
  2
STANDARD
 70
     0
 40
0.0
 41
0.0
 50
0.0
 71
     0
 42
0.0
  3
TXT
  4
EXTFONT.SHX
  0
ENDTAB
  0
TABLE
  2
VIEW
 70
     0
  0
ENDTAB
  0
TABLE
  2
UCS
 70
     0
  0
ENDTAB
  0
TABLE
  2
APPID
 70
     1
  0
APPID
  2
ACAD
 70
     0
  0
ENDTAB
  0
TABLE
  2
DIMSTYLE
 70
     1
  0
DIMSTYLE
  2
STANDARD
 70
     0
  3

  4

  5

  6

  7

 40
1.0
 41
0.18
 42
0.0625
 43
0.38
 44
0.18
 45
0.0
 46
0.0
 47
0.0
 48
0.0
140
0.18
141
0.09
142
0.0
143
25.399999999999999
144
1.0
145
0.0
146
1.0
147
0.09
 71
     0
 72
     0
 73
     1
 74
     1
 75
     0
 76
     0
 77
     0
 78
     0
170
     0
171
     2
172
     0
173
     0
174
     0
175
     0
176
     0
177
     0
178
     0
  0
ENDTAB
  0
ENDSEC
  0
SECTION
  2
BLOCKS
  0
BLOCK
  8
0
  2
$MODEL_SPACE
 70
     0
 10
0.0
 20
0.0
 30
0.0
  3
$MODEL_SPACE
  1

  0
ENDBLK
  5
1A
  8
0
  0
BLOCK
 67
     1
  8
0
  2
$PAPER_SPACE
 70
     0
 10
0.0
 20
0.0
 30
0.0
  3
$PAPER_SPACE
  1

  0
ENDBLK
  5
17
 67
     1
  8
0
  0
ENDSEC
  0
SECTION
  2
ENTITIES
  0
TEXT
  5
24
  8
0
 62
     7
 10
130.11600000000001
 20
64.623900000000006
 30
0.0
 40
3.0923400000000001
  1
〈付属品〉
 41
0.5
  0
TEXT
  5
25
  8
0
 62
     7
 10
130.11600000000001
 20
60.758400000000002
 30
0.0
 40
3.0923400000000001
  1
洗面器固定金具×4
 41
0.5
  0
TEXT
  5
26
  8
0
 62
     7
 10
130.11600000000001
 20
56.893000000000001
 30
0.0
 40
3.0923400000000001
  1
%%c5×20SUSねじ付
 41
0.5
  0
TEXT
  5
27
  8
0
 62
     7
 10
130.11600000000001
 20
53.0276
 30
0.0
 40
3.0923400000000001
  1
（尺度 1：3）
 41
0.5
  0
TEXT
  5
28
  8
0
 62
     7
 10
84.054000000000002
 20
59.930179999999993
 30
0.0
 40
3.0923400000000001
  1
12.5
 50
90.0
 41
0.5
 72
     2
 11
84.054000000000002
 21
64.053299999999993
 31
0.0
  0
TEXT
  5
29
  8
0
 62
     7
 10
131.2598879999999
 20
76.838499999999996
 30
0.0
 40
3.0923400000000001
  1
両面テープ付
 41
0.5
 72
     2
 11
141.9799999999999
 21
76.838499999999996
 31
0.0
  0
TEXT
  5
2A
  8
0
 62
     7
 10
79.286999999999992
 20
60.693672499999991
 30
0.0
 40
3.0923400000000001
  1
50
 50
90.0
 41
0.5
 72
     1
 11
79.286999999999992
 21
61.853299999999997
 31
0.0
  0
TEXT
  5
2B
  8
0
 62
     7
 10
115.33405
 20
49.037100000000002
 30
0.0
 40
3.0923400000000001
  1
1.5
 41
0.5
 72
     2
 11
117.911
 21
49.037100000000002
 31
0.0
  0
TEXT
  5
2C
  8
0
 62
     7
 10
114.16222
 20
75.078800000000001
 30
0.0
 40
3.0923400000000001
  1
19
 41
0.5
 72
     1
 11
115.1929999999999
 21
75.078800000000001
 31
0.0
  0
TEXT
  5
2D
  8
0
 62
     7
 10
93.898372499999994
 20
48.109699999999997
 30
0.0
 40
3.0923400000000001
  1
30
 41
0.5
 72
     1
 11
95.057999999999979
 21
48.109699999999997
 31
0.0
  0
TEXT
  5
2E
  8
0
 62
     7
 10
151.34636588516591
 20
200.616365885166
 30
0.0
 40
3.0923400000000001
  1
220
 50
45.0
 41
0.5
 72
     1
 11
152.71299999999991
 21
201.983
 31
0.0
  0
TEXT
  5
2F
  8
0
 62
     7
 10
155.10283000000001
 20
96.516000000000005
 30
0.0
 40
3.0923400000000001
  1
100
 41
0.5
 72
     1
 11
156.64899999999989
 21
96.516000000000005
 31
0.0
  0
TEXT
  5
30
  8
0
 62
     7
 10
56.024887499999998
 20
154.084
 30
0.0
 40
3.0923400000000001
  1
580
 41
0.5
 72
     1
 11
57.957599999999999
 21
154.084
 31
0.0
  0
TEXT
  5
31
  8
0
 62
     7
 10
168.1481228612223
 20
214.380290097402
 30
0.0
 40
3.0923400000000001
  1
80
 50
2.06128
 41
0.5
 72
     1
 11
169.30699999999999
 21
214.422
 31
0.0
  0
TEXT
  5
32
  8
0
 62
     7
 10
156.3260195310996
 20
215.49101953109951
 30
0.0
 40
3.0923400000000001
  1
50
 50
45.0
 41
0.5
 72
     1
 11
157.14599999999999
 21
216.31099999999989
 31
0.0
  0
TEXT
  5
33
  8
0
 62
     7
 10
120.30283883886609
 20
195.3689131760768
 30
0.0
 40
3.0922200000000002
  1
R150
 50
344.87099999999992
 41
0.5
 72
     1
 11
122.666
 21
194.72999999999999
 31
0.0
  0
TEXT
  5
34
  8
0
 62
     7
 10
133.3829999999999
 20
183.54513499999999
 30
0.0
 40
3.0923400000000001
  1
125
 50
90.0
 41
0.5
 72
     1
 11
133.3829999999999
 21
185.34899999999999
 31
0.0
  0
TEXT
  5
35
  8
0
 62
     7
 10
132.81282999999999
 20
198.95500000000001
 30
0.0
 40
3.0923400000000001
  1
100
 41
0.5
 72
     1
 11
134.35900000000001
 21
198.95500000000001
 31
0.0
  0
TEXT
  5
36
  8
0
 62
     7
 10
153.83899999999991
 20
194.70500000000001
 30
0.0
 40
3.0923400000000001
  1
45%%d
 41
0.5
  0
TEXT
  5
37
  8
0
 62
     7
 10
153.83899999999991
 20
187.38499999999999
 30
0.0
 40
3.0923400000000001
  1
45%%d
 41
0.5
  0
TEXT
  5
38
  8
0
 62
     7
 10
142.05337249999999
 20
178.29400000000001
 30
0.0
 40
3.0923400000000001
  1
70
 41
0.5
 72
     1
 11
143.21299999999991
 21
178.29400000000001
 31
0.0
  0
TEXT
  5
39
  8
0
 62
     7
 10
143.7427389085251
 20
196.22643933614751
 30
0.0
 40
3.0923400000000001
  1
R310
 50
74.110200000000006
 41
0.5
 72
     1
 11
144.4129999999999
 21
198.5809999999999
 31
0.0
  0
TEXT
  5
3A
  8
0
 62
     7
 10
147.38926299999989
 20
221.62599999999989
 30
0.0
 40
3.0923400000000001
  1
t30～40
 41
0.5
 72
     1
 11
151.66699999999989
 21
221.62599999999989
 31
0.0
  0
TEXT
  5
3B
  8
0
 62
     7
 10
141.7879999999999
 20
226.21199999999999
 30
0.0
 40
3.0923400000000001
  1
洗面器固定用補強木
 41
0.5
  0
TEXT
  5
3C
  8
0
 62
     7
 10
131.42475999999991
 20
153.596
 30
0.0
 40
3.0923400000000001
  1
カウンター切込寸法
 41
0.5
 72
     1
 11
139.67099999999991
 21
153.596
 31
0.0
  0
TEXT
  5
3D
  8
0
 62
     7
 10
137.86713499999991
 20
165.59099999999989
 30
0.0
 40
3.0923400000000001
  1
500
 41
0.5
 72
     1
 11
139.67099999999991
 21
165.59099999999989
 31
0.0
  0
TEXT
  5
3E
  8
0
 62
     7
 10
56.024887499999998
 20
160.36799999999991
 30
0.0
 40
3.0923400000000001
  1
520
 41
0.5
 72
     1
 11
57.957599999999999
 21
160.36799999999991
 31
0.0
  0
TEXT
  5
3F
  8
0
 62
     7
 10
38.830300000000001
 20
218.69499999999991
 30
0.0
 40
3.0923400000000001
  1
%%c46
 41
0.5
  0
TEXT
  5
40
  8
0
 62
     7
 10
28.171099999999988
 20
207.46983
 30
0.0
 40
3.0923400000000001
  1
100
 50
90.0
 41
0.5
 72
     1
 11
28.171099999999988
 21
209.01599999999999
 31
0.0
  0
TEXT
  5
41
  8
0
 62
     7
 10
175.851
 20
189.98728749999989
 30
0.0
 40
3.0923400000000001
  1
370
 50
90.0
 41
0.5
 72
     1
 11
175.851
 21
191.91999999999999
 31
0.0
  0
TEXT
  5
42
  8
0
 62
     7
 10
100.907
 20
189.98728749999989
 30
0.0
 40
3.0923400000000001
  1
450
 50
90.0
 41
0.5
 72
     1
 11
100.907
 21
191.91999999999999
 31
0.0
  0
TEXT
  5
43
  8
0
 62
     7
 10
94.291499999999985
 20
189.98728749999989
 30
0.0
 40
3.0923400000000001
  1
390
 50
90.0
 41
0.5
 72
     1
 11
94.291499999999985
 21
191.91999999999999
 31
0.0
  0
TEXT
  5
44
  8
0
 62
     7
 10
92.420799999999986
 20
110.7461349999999
 30
0.0
 40
3.0923400000000001
  1
200
 50
90.0
 41
0.5
 72
     1
 11
92.420799999999986
 21
112.5499999999999
 31
0.0
  0
ARC
  5
45
  8
0
 62
     7
 10
149.672968
 20
191.92028099999999
 30
0.0
 40
14.998125999999999
 50
359.99789900000002
 51
48.768915999999997
  0
ARC
  5
46
  8
0
 62
     7
 10
149.67258799999991
 20
191.91900899999999
 30
0.0
 40
14.998506000000001
 50
311.231742
 51
0.002759
  0
ARC
  5
47
  8
0
 62
     7
 10
139.67134300000001
 20
204.4179629999999
 30
0.0
 40
30.99851099999999
 50
269.99984799999999
 51
309.90691600000002
  0
ARC
  5
48
  8
0
 62
     7
 10
139.67176299999991
 20
204.4214989999999
 30
0.0
 40
31.002047999999998
 50
230.09547599999999
 51
269.99907200000001
  0
ARC
  5
49
  8
0
 62
     7
 10
139.67104499999999
 20
179.41938699999989
 30
0.0
 40
31.00028
 50
50.094270000000009
 51
89.999602000000024
  0
ARC
  5
4A
  8
0
 62
     7
 10
139.67176299999991
 20
179.41761899999989
 30
0.0
 40
31.002047999999998
 50
90.000928000000002
 51
129.90452400000001
  0
ARC
  5
4B
  8
0
 62
     7
 10
129.6707669999999
 20
191.91987199999991
 30
0.0
 40
14.999694999999999
 50
131.23553100000001
 51
180.00055800000001
  0
ARC
  5
4C
  8
0
 62
     7
 10
129.67111199999999
 20
191.91966199999999
 30
0.0
 40
15.00004
 50
179.9997149999999
 51
228.767371
  0
LINE
  5
4D
  8
0
  6
AIGENLINE001
 62
     7
 10
112.04000000000001
 20
191.91999999999999
 30
0.0
 11
166.8129999999999
 21
191.91999999999999
 31
0.0
  0
LINE
  5
4E
  8
0
  6
AIGENLINE001
 62
     7
 10
139.67099999999991
 20
212.35900000000001
 30
0.0
 11
139.67099999999991
 21
170.922
 31
0.0
  0
ARC
  5
4F
  8
0
 62
     7
 10
95.019718999999995
 20
56.895496999999999
 30
0.0
 40
1.039137999999999
 50
272.11234899999999
 51
357.86792100000002
  0
ARC
  5
50
  8
0
 62
     7
 10
95.096249
 20
56.895423999999998
 30
0.0
 40
1.039062999999999
 50
182.12822299999991
 51
267.891547
  0
ARC
  5
51
  8
0
 62
     7
 10
95.096306000000013
 20
58.484940999999999
 30
0.0
 40
1.039121999999999
 50
92.111508999999984
 51
177.86872099999999
  0
ARC
  5
52
  8
0
 62
     7
 10
95.019791999999995
 20
58.484999000000002
 30
0.0
 40
1.039062999999999
 50
2.1282030000000001
 51
87.891526999999996
  0
LINE
  5
53
  8
0
  6
AIGENLINE001
 62
     7
 10
95.057999999999979
 20
60.1008
 30
0.0
 11
95.057999999999979
 21
55.279699999999991
 31
0.0
  0
LINE
  5
54
  8
0
  6
AIGENLINE001
 62
     7
 10
93.673100000000005
 20
57.689900000000002
 30
0.0
 11
96.459800000000016
 21
57.689900000000002
 31
0.0
  0
LINE
  5
55
  8
0
  6
AIGENLINE001
 62
     7
 10
96.616900000000001
 20
56.8568
 30
0.0
 11
93.429500000000004
 21
56.8568
 31
0.0
  0
LINE
  5
56
  8
0
  6
AIGENLINE001
 62
     7
 10
96.616900000000001
 20
58.523600000000002
 30
0.0
 11
93.429500000000004
 21
58.523600000000002
 31
0.0
  0
LINE
  5
57
  8
0
 62
     7
 10
96.058099999999996
 20
56.8568
 30
0.0
 11
96.058099999999996
 21
58.523600000000002
 31
0.0
  0
LINE
  5
58
  8
0
 62
     7
 10
94.057900000000004
 20
56.8568
 30
0.0
 11
94.057900000000004
 21
58.523600000000002
 31
0.0
  0
LINE
  5
59
  8
0
  6
AIGENLINE001
 62
     7
 10
113.792
 20
57.689900000000002
 30
0.0
 11
110.90899999999991
 21
57.689900000000002
 31
0.0
  0
LINE
  5
5A
  8
0
 62
     7
 10
90.058099999999996
 20
65.190600000000003
 30
0.0
 11
100.05800000000001
 21
65.190600000000003
 31
0.0
  0
LINE
  5
5B
  8
0
 62
     7
 10
90.391599999999997
 20
68.524100000000004
 30
0.0
 11
99.724800000000002
 21
68.524100000000004
 31
0.0
  0
LINE
  5
5C
  8
0
 62
     7
 10
112.1299999999999
 20
52.895600000000002
 30
0.0
 11
112.1299999999999
 21
47.849899999999991
 31
0.0
  0
LINE
  5
5D
  8
0
 62
     7
 10
112.63
 20
52.895600000000002
 30
0.0
 11
112.63
 21
47.849899999999991
 31
0.0
  0
LINE
  5
5E
  8
0
 62
     7
 10
100.05800000000001
 20
53.523299999999999
 30
0.0
 11
100.05800000000001
 21
70.190100000000001
 31
0.0
  0
LINE
  5
5F
  8
0
 62
     7
 10
90.058099999999996
 20
70.190100000000001
 30
0.0
 11
100.05800000000001
 21
70.190100000000001
 31
0.0
  0
LINE
  5
60
  8
0
 62
     7
 10
90.058099999999996
 20
53.523299999999999
 30
0.0
 11
90.058099999999996
 21
70.190100000000001
 31
0.0
  0
LINE
  5
61
  8
0
 62
     7
 10
90.058099999999996
 20
53.523299999999999
 30
0.0
 11
100.05800000000001
 21
53.523299999999999
 31
0.0
  0
LINE
  5
62
  8
0
 62
     7
 10
112.1299999999999
 20
53.523299999999999
 30
0.0
 11
112.1299999999999
 21
65.094099999999983
 31
0.0
  0
LINE
  5
63
  8
0
 62
     7
 10
112.46299999999999
 20
65.671499999999995
 30
0.0
 11
117.96299999999989
 21
68.846500000000006
 31
0.0
  0
ARC
  5
64
  8
0
 62
     7
 10
112.809873
 20
65.086628000000005
 30
0.0
 40
0.67996
 50
120.663439
 51
179.369303
  0
LINE
  5
65
  8
0
 62
     7
 10
112.63
 20
65.156099999999995
 30
0.0
 11
118.13
 21
68.331100000000006
 31
0.0
  0
LINE
  5
66
  8
0
 62
     7
 10
118.46299999999999
 20
68.908500000000004
 30
0.0
 11
118.46299999999999
 21
70.190100000000001
 31
0.0
  0
ARC
  5
67
  8
0
 62
     7
 10
117.783079
 20
68.916098000000005
 30
0.0
 40
0.6800760000000001
 50
300.66897499999999
 51
359.36380700000001
  0
LINE
  5
68
  8
0
 62
     7
 10
117.96299999999989
 20
68.846500000000006
 30
0.0
 11
117.96299999999989
 21
70.190100000000001
 31
0.0
  0
LINE
  5
69
  8
0
 62
     7
 10
117.96299999999989
 20
70.190100000000001
 30
0.0
 11
118.46299999999999
 21
70.190100000000001
 31
0.0
  0
LINE
  5
6A
  8
0
 62
     7
 10
112.63
 20
53.523299999999999
 30
0.0
 11
112.63
 21
65.156099999999995
 31
0.0
  0
LINE
  5
6B
  8
0
 62
     7
 10
112.1299999999999
 20
53.523299999999999
 30
0.0
 11
112.63
 21
53.523299999999999
 31
0.0
  0
LINE
  5
6C
  8
0
 62
     7
 10
93.437799999999996
 20
57.689900000000002
 30
0.0
 11
84.4636
 21
57.690600000000003
 31
0.0
  0
LINE
  5
6D
  8
0
 62
     7
 10
84.489099999999993
 20
54.997900000000001
 30
0.0
 11
84.884200000000007
 21
53.523299999999999
 31
0.0
  0
LINE
  5
6E
  8
0
 62
     7
 10
84.884200000000007
 20
53.523299999999999
 30
0.0
 11
85.279399999999995
 21
54.997900000000001
 31
0.0
  0
LINE
  5
6F
  8
0
 62
     7
 10
85.279399999999995
 20
54.997900000000001
 30
0.0
 11
84.489099999999993
 21
54.997900000000001
 31
0.0
  0
LINE
  5
70
  8
0
 62
     7
 10
85.269800000000004
 20
56.216000000000001
 30
0.0
 11
84.874600000000001
 21
57.690600000000003
 31
0.0
  0
LINE
  5
71
  8
0
 62
     7
 10
84.874600000000001
 20
57.690600000000003
 30
0.0
 11
84.479399999999998
 21
56.216000000000001
 31
0.0
  0
LINE
  5
72
  8
0
 62
     7
 10
84.479399999999998
 20
56.216000000000001
 30
0.0
 11
85.269800000000004
 21
56.216000000000001
 31
0.0
  0
LINE
  5
73
  8
0
 62
     7
 10
84.874600000000001
 20
53.523299999999999
 30
0.0
 11
84.874600000000001
 21
64.1584
 31
0.0
  0
LINE
  5
74
  8
0
 62
     7
 10
89.415999999999997
 20
70.190100000000001
 30
0.0
 11
79.533600000000007
 21
70.190100000000001
 31
0.0
  0
LINE
  5
75
  8
0
 62
     7
 10
89.415999999999997
 20
53.523299999999999
 30
0.0
 11
79.533600000000007
 21
53.523299999999999
 31
0.0
  0
LINE
  5
76
  8
0
 62
     7
 10
119.345
 20
70.592200000000005
 30
0.0
 11
118.46299999999999
 21
69.346400000000003
 31
0.0
  0
LINE
  5
77
  8
0
 62
     7
 10
118.46299999999999
 20
69.346400000000003
 30
0.0
 11
119.8489999999999
 21
69.984499999999997
 31
0.0
  0
LINE
  5
78
  8
0
 62
     7
 10
119.8489999999999
 20
69.984499999999997
 30
0.0
 11
119.345
 21
70.592200000000005
 31
0.0
  0
LINE
  5
79
  8
0
 62
     7
 10
126.33
 20
75.880399999999995
 30
0.0
 11
118.46299999999999
 21
69.346400000000003
 31
0.0
  0
LINE
  5
7A
  8
0
 62
     7
 10
141.98500000000001
 20
75.880399999999995
 30
0.0
 11
126.33
 21
75.880399999999995
 31
0.0
  0
LINE
  5
7B
  8
0
 62
     7
 10
79.559100000000001
 20
54.997900000000001
 30
0.0
 11
79.954300000000003
 21
53.523299999999999
 31
0.0
  0
LINE
  5
7C
  8
0
 62
     7
 10
79.954300000000003
 20
53.523299999999999
 30
0.0
 11
80.349400000000003
 21
54.997900000000001
 31
0.0
  0
LINE
  5
7D
  8
0
 62
     7
 10
80.349400000000003
 20
54.997900000000001
 30
0.0
 11
79.559100000000001
 21
54.997900000000001
 31
0.0
  0
LINE
  5
7E
  8
0
 62
     7
 10
80.339799999999997
 20
68.715599999999995
 30
0.0
 11
79.944599999999994
 21
70.190100000000001
 31
0.0
  0
LINE
  5
7F
  8
0
 62
     7
 10
79.944599999999994
 20
70.190100000000001
 30
0.0
 11
79.549499999999995
 21
68.715599999999995
 31
0.0
  0
LINE
  5
80
  8
0
 62
     7
 10
79.549499999999995
 20
68.715599999999995
 30
0.0
 11
80.339799999999997
 21
68.715599999999995
 31
0.0
  0
LINE
  5
81
  8
0
 62
     7
 10
79.944599999999994
 20
53.523299999999999
 30
0.0
 11
79.944599999999994
 21
70.190100000000001
 31
0.0
  0
LINE
  5
82
  8
0
 62
     7
 10
112.1299999999999
 20
66.124899999999997
 30
0.0
 11
112.1299999999999
 21
74.373199999999997
 31
0.0
  0
LINE
  5
83
  8
0
 62
     7
 10
118.46299999999999
 20
70.806100000000001
 30
0.0
 11
118.46299999999999
 21
74.373199999999997
 31
0.0
  0
LINE
  5
84
  8
0
 62
     7
 10
116.9889999999999
 20
73.568399999999997
 30
0.0
 11
118.46299999999999
 21
73.963200000000001
 31
0.0
  0
LINE
  5
85
  8
0
 62
     7
 10
118.46299999999999
 20
73.963200000000001
 30
0.0
 11
116.9889999999999
 21
74.358699999999999
 31
0.0
  0
LINE
  5
86
  8
0
 62
     7
 10
116.9889999999999
 20
74.358699999999999
 30
0.0
 11
116.9889999999999
 21
73.568399999999997
 31
0.0
  0
LINE
  5
87
  8
0
 62
     7
 10
113.6039999999999
 20
74.349100000000007
 30
0.0
 11
112.1299999999999
 21
73.953599999999994
 31
0.0
  0
LINE
  5
88
  8
0
 62
     7
 10
112.1299999999999
 20
73.953599999999994
 30
0.0
 11
113.6039999999999
 21
73.558800000000005
 31
0.0
  0
LINE
  5
89
  8
0
 62
     7
 10
113.6039999999999
 20
73.558800000000005
 30
0.0
 11
113.6039999999999
 21
74.349100000000007
 31
0.0
  0
LINE
  5
8A
  8
0
 62
     7
 10
118.46299999999999
 20
73.963200000000001
 30
0.0
 11
112.1299999999999
 21
73.963200000000001
 31
0.0
  0
LINE
  5
8B
  8
0
 62
     7
 10
90.058099999999996
 20
52.895600000000002
 30
0.0
 11
90.058099999999996
 21
46.710299999999997
 31
0.0
  0
LINE
  5
8C
  8
0
 62
     7
 10
100.05800000000001
 20
52.895600000000002
 30
0.0
 11
100.05800000000001
 21
46.710299999999997
 31
0.0
  0
LINE
  5
8D
  8
0
 62
     7
 10
110.655
 20
47.865799999999993
 30
0.0
 11
112.1299999999999
 21
48.260599999999997
 31
0.0
  0
LINE
  5
8E
  8
0
 62
     7
 10
112.1299999999999
 20
48.260599999999997
 30
0.0
 11
110.655
 21
48.656100000000002
 31
0.0
  0
LINE
  5
8F
  8
0
 62
     7
 10
110.655
 20
48.656100000000002
 30
0.0
 11
110.655
 21
47.865799999999993
 31
0.0
  0
LINE
  5
90
  8
0
 62
     7
 10
114.104
 20
48.656100000000002
 30
0.0
 11
112.63
 21
48.260599999999997
 31
0.0
  0
LINE
  5
91
  8
0
 62
     7
 10
112.63
 20
48.260599999999997
 30
0.0
 11
114.104
 21
47.865799999999993
 31
0.0
  0
LINE
  5
92
  8
0
 62
     7
 10
114.104
 20
47.865799999999993
 30
0.0
 11
114.104
 21
48.656100000000002
 31
0.0
  0
LINE
  5
93
  8
0
 62
     7
 10
117.9699999999999
 20
48.260599999999997
 30
0.0
 11
109.67700000000001
 21
48.260599999999997
 31
0.0
  0
LINE
  5
94
  8
0
 62
     7
 10
98.583799999999997
 20
46.726100000000002
 30
0.0
 11
100.05800000000001
 21
47.121599999999987
 31
0.0
  0
LINE
  5
95
  8
0
 62
     7
 10
100.05800000000001
 20
47.121599999999987
 30
0.0
 11
98.583799999999997
 21
47.516399999999997
 31
0.0
  0
LINE
  5
96
  8
0
 62
     7
 10
98.583799999999997
 20
47.516399999999997
 30
0.0
 11
98.583799999999997
 21
46.726100000000002
 31
0.0
  0
LINE
  5
97
  8
0
 62
     7
 10
91.532300000000006
 20
47.506799999999998
 30
0.0
 11
90.057799999999986
 21
47.111999999999988
 31
0.0
  0
LINE
  5
98
  8
0
 62
     7
 10
90.057799999999986
 20
47.111999999999988
 30
0.0
 11
91.532300000000006
 21
46.716500000000003
 31
0.0
  0
LINE
  5
99
  8
0
 62
     7
 10
91.532300000000006
 20
46.716500000000003
 30
0.0
 11
91.532300000000006
 21
47.506799999999998
 31
0.0
  0
LINE
  5
9A
  8
0
 62
     7
 10
100.05800000000001
 20
47.121599999999987
 30
0.0
 11
90.058099999999996
 21
47.121599999999987
 31
0.0
  0
LINE
  5
9B
  8
0
 62
     7
 10
60.627499999999998
 20
214.41999999999999
 30
0.0
 11
102.51000000000001
 21
214.41999999999999
 31
0.0
  0
LINE
  5
9C
  8
0
 62
     7
 10
57.957599999999999
 20
213.02000000000001
 30
0.0
 11
61.301000000000002
 21
213.02000000000001
 31
0.0
  0
LINE
  5
9D
  8
0
 62
     7
 10
62.6967
 20
213.87999999999991
 30
0.0
 11
61.585900000000002
 21
213.1089999999999
 31
0.0
  0
ARC
  5
9E
  8
0
 62
     7
 10
61.30040799999999
 20
213.52136399999989
 30
0.0
 40
0.5014950000000001
 50
270.07203099999998
 51
304.70702799999992
  0
ARC
  5
9F
  8
0
 62
     7
 10
63.155478000000002
 20
213.2124
 30
0.0
 40
0.810161
 50
81.559038999999999
 51
124.49503899999991
  0
ARC
  5
A0
  8
0
 62
     7
 10
57.889935999999999
 20
179.26134400000001
 30
0.0
 40
35.167043
 50
52.722410000000004
 51
81.193294999999992
  0
LINE
  5
A1
  8
0
 62
     7
 10
57.957599999999999
 20
213.02000000000001
 30
0.0
 11
54.613700000000001
 21
213.02000000000001
 31
0.0
  0
LINE
  5
A2
  8
0
 62
     7
 10
53.2181
 20
213.87999999999991
 30
0.0
 11
54.328800000000001
 21
213.1089999999999
 31
0.0
  0
ARC
  5
A3
  8
0
 62
     7
 10
54.614462000000003
 20
213.521716
 30
0.0
 40
0.501848
 50
235.30553999999989
 51
269.91543999999988
  0
ARC
  5
A4
  8
0
 62
     7
 10
52.759092000000003
 20
213.211581
 30
0.0
 40
0.8109439999999999
 50
55.526686999999988
 51
98.419193999999976
  0
ARC
  5
A5
  8
0
 62
     7
 10
58.024742000000003
 20
179.26234700000001
 30
0.0
 40
35.165987000000001
 50
98.806248999999994
 51
127.278006
  0
LINE
  5
A6
  8
0
 62
     7
 10
147.73400000000001
 20
106.81699999999999
 30
0.0
 11
156.27399999999989
 21
106.81699999999999
 31
0.0
  0
LINE
  5
A7
  8
0
 62
     7
 10
148.643
 20
103.0799999999999
 30
0.0
 11
148.2299999999999
 21
106.38
 31
0.0
  0
ARC
  5
A8
  8
0
 62
     7
 10
147.72025799999989
 20
106.301405
 30
0.0
 40
0.516022
 50
8.7280519999999981
 51
88.450931000000011
  0
LINE
  5
A9
  8
0
 62
     7
 10
151.92599999999999
 20
102.81699999999999
 30
0.0
 11
148.94
 21
102.81699999999999
 31
0.0
  0
ARC
  5
AA
  8
0
 62
     7
 10
148.94935599999991
 20
103.127343
 30
0.0
 40
0.31036
 50
188.84313399999999
 51
268.33588800000001
  0
LINE
  5
AB
  8
0
 62
     7
 10
151.92599999999999
 20
102.81699999999999
 30
0.0
 11
154.91099999999989
 21
102.81699999999999
 31
0.0
  0
LINE
  5
AC
  8
0
 62
     7
 10
155.208
 20
103.0799999999999
 30
0.0
 11
155.67599999999999
 21
106.81699999999999
 31
0.0
  0
ARC
  5
AD
  8
0
 62
     7
 10
154.901985
 20
103.12703999999999
 30
0.0
 40
0.31005
 50
271.61643299999997
 51
351.20458400000001
  0
LINE
  5
AE
  8
0
  6
AIGENLINE001
 62
     7
 10
151.92599999999999
 20
101.651
 30
0.0
 11
151.92599999999999
 21
108.006
 31
0.0
  0
LINE
  5
AF
  8
0
 62
     7
 10
159.125
 20
119.81699999999999
 30
0.0
 11
158.268
 21
108.664
 31
0.0
  0
ARC
  5
B0
  8
0
 62
     7
 10
156.20701999999989
 20
108.889078
 30
0.0
 40
2.0729090000000001
 50
271.84116699999998
 51
353.76154200000002
  0
LINE
  5
B1
  8
0
 62
     7
 10
161.125
 20
119.81699999999999
 30
0.0
 11
161.92599999999999
 21
122.818
 31
0.0
  0
LINE
  5
B2
  8
0
 62
     7
 10
117.7789999999999
 20
119.81699999999999
 30
0.0
 11
161.125
 21
119.81699999999999
 31
0.0
  0
LINE
  5
B3
  8
0
 62
     7
 10
116.9249999999999
 20
122.818
 30
0.0
 11
161.92599999999999
 21
122.818
 31
0.0
  0
LINE
  5
B4
  8
0
 62
     7
 10
116.88199999999991
 20
165.31
 30
0.0
 11
114.67100000000001
 21
164.71700000000001
 31
0.0
  0
LINE
  5
B5
  8
0
 62
     7
 10
114.67100000000001
 20
164.71700000000001
 30
0.0
 11
116.88199999999991
 21
164.125
 31
0.0
  0
LINE
  5
B6
  8
0
 62
     7
 10
116.88199999999991
 20
164.125
 30
0.0
 11
116.88199999999991
 21
165.31
 31
0.0
  0
LINE
  5
B7
  8
0
 62
     7
 10
162.46000000000001
 20
164.13900000000001
 30
0.0
 11
164.67099999999991
 21
164.732
 31
0.0
  0
LINE
  5
B8
  8
0
 62
     7
 10
164.67099999999991
 20
164.732
 30
0.0
 11
162.46000000000001
 21
165.32400000000001
 31
0.0
  0
LINE
  5
B9
  8
0
 62
     7
 10
162.46000000000001
 20
165.32400000000001
 30
0.0
 11
162.46000000000001
 21
164.13900000000001
 31
0.0
  0
LINE
  5
BA
  8
0
 62
     7
 10
114.67100000000001
 20
164.71700000000001
 30
0.0
 11
164.67099999999991
 21
164.71700000000001
 31
0.0
  0
LINE
  5
BB
  8
0
 62
     7
 10
164.67099999999991
 20
170.2579999999999
 30
0.0
 11
164.67099999999991
 21
164.01699999999991
 31
0.0
  0
LINE
  5
BC
  8
0
 62
     7
 10
164.67099999999991
 20
186.48199999999991
 30
0.0
 11
164.67099999999991
 21
180.24199999999999
 31
0.0
  0
LINE
  5
BD
  8
0
 62
     7
 10
114.67100000000001
 20
170.2579999999999
 30
0.0
 11
114.67100000000001
 21
164.01699999999991
 31
0.0
  0
LINE
  5
BE
  8
0
 62
     7
 10
114.67100000000001
 20
186.48199999999991
 30
0.0
 11
114.67100000000001
 21
180.24199999999999
 31
0.0
  0
LINE
  5
BF
  8
0
 62
     7
 10
177.21000000000001
 20
208.20799999999991
 30
0.0
 11
176.61699999999999
 21
210.41999999999999
 31
0.0
  0
LINE
  5
C0
  8
0
 62
     7
 10
176.61699999999999
 20
210.41999999999999
 30
0.0
 11
176.02500000000001
 21
208.20799999999991
 31
0.0
  0
LINE
  5
C1
  8
0
 62
     7
 10
176.02500000000001
 20
208.20799999999991
 30
0.0
 11
177.21000000000001
 21
208.20799999999991
 31
0.0
  0
LINE
  5
C2
  8
0
 62
     7
 10
176.03899999999999
 20
175.63099999999989
 30
0.0
 11
176.63200000000001
 21
173.4199999999999
 31
0.0
  0
LINE
  5
C3
  8
0
 62
     7
 10
176.63200000000001
 20
173.4199999999999
 30
0.0
 11
177.22399999999999
 21
175.63099999999989
 31
0.0
  0
LINE
  5
C4
  8
0
 62
     7
 10
177.22399999999999
 20
175.63099999999989
 30
0.0
 11
176.03899999999999
 21
175.63099999999989
 31
0.0
  0
LINE
  5
C5
  8
0
 62
     7
 10
176.61699999999999
 20
210.41999999999999
 30
0.0
 11
176.61699999999999
 21
173.4199999999999
 31
0.0
  0
LINE
  5
C6
  8
0
 62
     7
 10
147.12399999999991
 20
173.4199999999999
 30
0.0
 11
157.941
 21
173.4199999999999
 31
0.0
  0
LINE
  5
C7
  8
0
 62
     7
 10
167.92500000000001
 20
173.4199999999999
 30
0.0
 11
177.31700000000001
 21
173.4199999999999
 31
0.0
  0
LINE
  5
C8
  8
0
 62
     7
 10
172.6399999999999
 20
210.41999999999999
 30
0.0
 11
177.31700000000001
 21
210.41999999999999
 31
0.0
  0
LINE
  5
C9
  8
0
 62
     7
 10
146.43100000000001
 20
210.41999999999999
 30
0.0
 11
157.38599999999991
 21
210.41999999999999
 31
0.0
  0
LINE
  5
CA
  8
0
 62
     7
 10
141.36699999999999
 20
225.12700000000001
 30
0.0
 11
162.79499999999999
 21
225.12700000000001
 31
0.0
  0
LINE
  5
CB
  8
0
 62
     7
 10
163.334
 20
213.42400000000001
 30
0.0
 11
164.137
 21
211.279
 31
0.0
  0
LINE
  5
CC
  8
0
 62
     7
 10
164.137
 20
211.279
 30
0.0
 11
164.51400000000001
 21
213.53800000000001
 31
0.0
  0
LINE
  5
CD
  8
0
 62
     7
 10
164.51400000000001
 20
213.53800000000001
 30
0.0
 11
163.334
 21
213.42400000000001
 31
0.0
  0
LINE
  5
CE
  8
0
 62
     7
 10
162.79499999999999
 20
225.12700000000001
 30
0.0
 11
164.137
 21
211.279
 31
0.0
  0
LINE
  5
CF
  8
0
 62
     7
 10
169.42099999999991
 20
212.1399999999999
 30
0.0
 11
171.40299999999991
 21
210.99499999999989
 31
0.0
  0
LINE
  5
D0
  8
0
 62
     7
 10
171.40299999999991
 20
210.99499999999989
 30
0.0
 11
170.25899999999999
 21
212.97799999999989
 31
0.0
  0
LINE
  5
D1
  8
0
 62
     7
 10
170.25899999999999
 20
212.97799999999989
 30
0.0
 11
169.42099999999991
 21
212.1399999999999
 31
0.0
  0
LINE
  5
D2
  8
0
 62
     7
 10
167.72900000000001
 20
215.50700000000001
 30
0.0
 11
165.7459999999999
 21
216.65199999999999
 31
0.0
  0
LINE
  5
D3
  8
0
 62
     7
 10
165.7459999999999
 20
216.65199999999999
 30
0.0
 11
166.89099999999991
 21
214.6689999999999
 31
0.0
  0
LINE
  5
D4
  8
0
 62
     7
 10
166.89099999999991
 20
214.6689999999999
 30
0.0
 11
167.72900000000001
 21
215.50700000000001
 31
0.0
  0
LINE
  5
D5
  8
0
 62
     7
 10
171.40299999999991
 20
210.99499999999989
 30
0.0
 11
165.7459999999999
 21
216.65199999999999
 31
0.0
  0
LINE
  5
D6
  8
0
 62
     7
 10
171.886
 20
211.477
 30
0.0
 11
168.92500000000001
 21
208.51599999999999
 31
0.0
  0
LINE
  5
D7
  8
0
 62
     7
 10
166.22900000000001
 20
217.13399999999999
 30
0.0
 11
163.268
 21
214.17299999999989
 31
0.0
  0
LINE
  5
D8
  8
0
 62
     7
 10
157.18299999999999
 20
215.648
 30
0.0
 11
156.0389999999999
 21
213.66499999999991
 31
0.0
  0
LINE
  5
D9
  8
0
 62
     7
 10
156.0389999999999
 20
213.66499999999991
 30
0.0
 11
158.02199999999999
 21
214.80999999999989
 31
0.0
  0
LINE
  5
DA
  8
0
 62
     7
 10
158.02199999999999
 20
214.80999999999989
 30
0.0
 11
157.18299999999999
 21
215.648
 31
0.0
  0
LINE
  5
DB
  8
0
 62
     7
 10
158.429
 20
215.2179999999999
 30
0.0
 11
159.5739999999999
 21
217.20099999999991
 31
0.0
  0
LINE
  5
DC
  8
0
 62
     7
 10
159.5739999999999
 20
217.20099999999991
 30
0.0
 11
157.59100000000001
 21
216.0559999999999
 31
0.0
  0
LINE
  5
DD
  8
0
 62
     7
 10
157.59100000000001
 20
216.0559999999999
 30
0.0
 11
158.429
 21
215.2179999999999
 31
0.0
  0
LINE
  5
DE
  8
0
 62
     7
 10
156.0389999999999
 20
213.66499999999991
 30
0.0
 11
159.5739999999999
 21
217.20099999999991
 31
0.0
  0
LINE
  5
DF
  8
0
 62
     7
 10
162.48400000000001
 20
214.291
 30
0.0
 11
159.17500000000001
 21
217.59999999999999
 31
0.0
  0
LINE
  5
E0
  8
0
 62
     7
 10
158.94799999999989
 20
210.75499999999991
 30
0.0
 11
155.63900000000001
 21
214.06399999999999
 31
0.0
  0
LINE
  5
E1
  8
0
 62
     7
 10
152.90299999999991
 20
189.76599999999991
 30
0.0
 11
153.67699999999999
 21
191.91999999999999
 31
0.0
  0
LINE
  5
E2
  8
0
 62
     7
 10
153.67699999999999
 20
191.91999999999999
 30
0.0
 11
154.084
 21
189.667
 31
0.0
  0
LINE
  5
E3
  8
0
 62
     7
 10
154.084
 20
189.667
 30
0.0
 11
152.90299999999991
 21
189.76599999999991
 31
0.0
  0
LINE
  5
E4
  8
0
 62
     7
 10
153.45699999999991
 20
188.339
 30
0.0
 11
151.625
 21
186.96599999999989
 31
0.0
  0
LINE
  5
E5
  8
0
 62
     7
 10
151.625
 20
186.96599999999989
 30
0.0
 11
152.52499999999989
 21
189.071
 31
0.0
  0
LINE
  5
E6
  8
0
 62
     7
 10
152.52499999999989
 20
189.071
 30
0.0
 11
153.45699999999991
 21
188.339
 31
0.0
  0
LINE
  5
E7
  8
0
 62
     7
 10
152.90299999999991
 20
194.07400000000001
 30
0.0
 11
153.67699999999999
 21
191.91999999999999
 31
0.0
  0
LINE
  5
E8
  8
0
 62
     7
 10
153.67699999999999
 20
191.91999999999999
 30
0.0
 11
154.084
 21
194.17299999999989
 31
0.0
  0
LINE
  5
E9
  8
0
 62
     7
 10
154.084
 20
194.17299999999989
 30
0.0
 11
152.90299999999991
 21
194.07400000000001
 31
0.0
  0
LINE
  5
EA
  8
0
 62
     7
 10
153.45699999999991
 20
195.50099999999989
 30
0.0
 11
151.625
 21
196.874
 31
0.0
  0
LINE
  5
EB
  8
0
 62
     7
 10
151.625
 20
196.874
 30
0.0
 11
152.52499999999989
 21
194.76900000000001
 31
0.0
  0
LINE
  5
EC
  8
0
 62
     7
 10
152.52499999999989
 20
194.76900000000001
 30
0.0
 11
153.45699999999991
 21
195.50099999999989
 31
0.0
  0
LINE
  5
ED
  8
0
 62
     7
 10
146.30699999999999
 20
195.41099999999989
 30
0.0
 11
145.16200000000001
 21
193.429
 31
0.0
  0
LINE
  5
EE
  8
0
 62
     7
 10
145.16200000000001
 20
193.429
 30
0.0
 11
147.14500000000001
 21
194.57299999999989
 31
0.0
  0
LINE
  5
EF
  8
0
 62
     7
 10
147.14500000000001
 20
194.57299999999989
 30
0.0
 11
146.30699999999999
 21
195.41099999999989
 31
0.0
  0
LINE
  5
F0
  8
0
 62
     7
 10
159.5739999999999
 20
207.0019999999999
 30
0.0
 11
160.71899999999991
 21
208.98500000000001
 31
0.0
  0
LINE
  5
F1
  8
0
 62
     7
 10
160.71899999999991
 20
208.98500000000001
 30
0.0
 11
158.7359999999999
 21
207.84
 31
0.0
  0
LINE
  5
F2
  8
0
 62
     7
 10
158.7359999999999
 20
207.84
 30
0.0
 11
159.5739999999999
 21
207.0019999999999
 31
0.0
  0
LINE
  5
F3
  8
0
 62
     7
 10
145.16200000000001
 20
193.429
 30
0.0
 11
160.71899999999991
 21
208.98500000000001
 31
0.0
  0
LINE
  5
F4
  8
0
 62
     7
 10
146.27499999999989
 20
192.31599999999989
 30
0.0
 11
144.76300000000001
 21
193.82799999999989
 31
0.0
  0
LINE
  5
F5
  8
0
 62
     7
 10
133.18899999999999
 20
179.41999999999999
 30
0.0
 11
138.989
 21
179.41999999999999
 31
0.0
  0
LINE
  5
F6
  8
0
 62
     7
 10
139.67099999999991
 20
177.2949999999999
 30
0.0
 11
146.67099999999991
 21
177.2949999999999
 31
0.0
  0
LINE
  5
F7
  8
0
 62
     7
 10
146.67099999999991
 20
190.869
 30
0.0
 11
146.67099999999991
 21
176.595
 31
0.0
  0
LINE
  5
F8
  8
0
 62
     7
 10
148.31700000000001
 20
206.89400000000001
 30
0.0
 11
148.36899999999989
 21
209.18299999999991
 31
0.0
  0
LINE
  5
F9
  8
0
 62
     7
 10
148.36899999999989
 20
209.18299999999991
 30
0.0
 11
147.17999999999989
 21
207.22599999999991
 31
0.0
  0
LINE
  5
FA
  8
0
 62
     7
 10
147.17999999999989
 20
207.22599999999991
 30
0.0
 11
148.31700000000001
 21
206.89400000000001
 31
0.0
  0
LINE
  5
FB
  8
0
 62
     7
 10
139.67099999999991
 20
179.41999999999999
 30
0.0
 11
148.36899999999989
 21
209.18299999999991
 31
0.0
  0
LINE
  5
FC
  8
0
 62
     7
 10
144.46000000000001
 20
176.71700000000001
 30
0.0
 11
146.67099999999991
 21
177.31
 31
0.0
  0
LINE
  5
FD
  8
0
 62
     7
 10
146.67099999999991
 20
177.31
 30
0.0
 11
144.46000000000001
 21
177.90199999999999
 31
0.0
  0
LINE
  5
FE
  8
0
 62
     7
 10
144.46000000000001
 20
177.90199999999999
 30
0.0
 11
144.46000000000001
 21
176.71700000000001
 31
0.0
  0
LINE
  5
FF
  8
0
 62
     7
 10
141.8829999999999
 20
177.88800000000001
 30
0.0
 11
139.67099999999991
 21
177.2949999999999
 31
0.0
  0
LINE
  5
100
  8
0
 62
     7
 10
139.67099999999991
 20
177.2949999999999
 30
0.0
 11
141.8829999999999
 21
176.702
 31
0.0
  0
LINE
  5
101
  8
0
 62
     7
 10
141.8829999999999
 20
176.702
 30
0.0
 11
141.8829999999999
 21
177.88800000000001
 31
0.0
  0
ARC
  5
102
  8
0
 62
     7
 10
146.58868200000001
 20
191.95376999999999
 30
0.0
 40
7.089124
 50
315.27519399999989
 51
359.724895
  0
ARC
  5
103
  8
0
 62
     7
 10
146.58500799999999
 20
191.88399799999991
 30
0.0
 40
7.0928059999999986
 50
0.288656
 51
44.712662999999992
  0
LINE
  5
104
  8
0
  6
AIGENLINE001
 62
     7
 10
146.67099999999991
 20
191.91999999999999
 30
0.0
 11
167.09499999999991
 21
171.4959999999999
 31
0.0
  0
LINE
  5
105
  8
0
  6
AIGENLINE002
 62
     7
 10
162.935
 20
169.999
 30
0.0
 11
165.0559999999999
 21
179.19200000000001
 31
0.0
  0
LINE
  5
106
  8
0
  6
AIGENLINE002
 62
     7
 10
159.39899999999989
 20
173.53499999999991
 30
0.0
 11
168.59200000000001
 21
175.65599999999989
 31
0.0
  0
LINE
  5
107
  8
0
  6
AIGENLINE002
 62
     7
 10
168.59200000000001
 20
175.65599999999989
 30
0.0
 11
165.0559999999999
 21
179.19200000000001
 31
0.0
  0
LINE
  5
108
  8
0
  6
AIGENLINE002
 62
     7
 10
165.0559999999999
 20
179.19200000000001
 30
0.0
 11
159.39899999999989
 21
173.53499999999991
 31
0.0
  0
LINE
  5
109
  8
0
  6
AIGENLINE002
 62
     7
 10
159.39899999999989
 20
173.53499999999991
 30
0.0
 11
162.935
 21
169.999
 31
0.0
  0
LINE
  5
10A
  8
0
  6
AIGENLINE002
 62
     7
 10
162.935
 20
169.999
 30
0.0
 11
168.59200000000001
 21
175.65599999999989
 31
0.0
  0
LINE
  5
10B
  8
0
  6
AIGENLINE001
 62
     7
 10
146.67099999999991
 20
191.91999999999999
 30
0.0
 11
167.09499999999991
 21
212.3429999999999
 31
0.0
  0
LINE
  5
10C
  8
0
  6
AIGENLINE002
 62
     7
 10
162.935
 20
213.84
 30
0.0
 11
165.0559999999999
 21
204.64799999999991
 31
0.0
  0
LINE
  5
10D
  8
0
  6
AIGENLINE002
 62
     7
 10
159.39899999999989
 20
210.304
 30
0.0
 11
168.59200000000001
 21
208.18299999999999
 31
0.0
  0
LINE
  5
10E
  8
0
  6
AIGENLINE002
 62
     7
 10
168.59200000000001
 20
208.18299999999999
 30
0.0
 11
165.0559999999999
 21
204.64799999999991
 31
0.0
  0
LINE
  5
10F
  8
0
  6
AIGENLINE002
 62
     7
 10
165.0559999999999
 20
204.64799999999991
 30
0.0
 11
159.39899999999989
 21
210.304
 31
0.0
  0
LINE
  5
110
  8
0
  6
AIGENLINE002
 62
     7
 10
159.39899999999989
 20
210.304
 30
0.0
 11
162.935
 21
213.84
 31
0.0
  0
LINE
  5
111
  8
0
  6
AIGENLINE002
 62
     7
 10
162.935
 20
213.84
 30
0.0
 11
168.59200000000001
 21
208.18299999999999
 31
0.0
  0
LINE
  5
112
  8
0
 62
     7
 10
117.4889999999999
 20
195.86500000000001
 30
0.0
 11
115.2
 21
195.87700000000001
 31
0.0
  0
LINE
  5
113
  8
0
 62
     7
 10
115.2
 20
195.87700000000001
 30
0.0
 11
117.176
 21
194.72200000000001
 31
0.0
  0
LINE
  5
114
  8
0
 62
     7
 10
117.176
 20
194.72200000000001
 30
0.0
 11
117.4889999999999
 21
195.86500000000001
 31
0.0
  0
LINE
  5
115
  8
0
 62
     7
 10
115.2
 20
195.87700000000001
 30
0.0
 11
129.67099999999999
 21
191.91999999999999
 31
0.0
  0
LINE
  5
116
  8
0
 62
     7
 10
133.62
 20
181.63099999999989
 30
0.0
 11
134.21199999999999
 21
179.41999999999999
 31
0.0
  0
LINE
  5
117
  8
0
 62
     7
 10
134.21199999999999
 20
179.41999999999999
 30
0.0
 11
134.80500000000001
 21
181.63099999999989
 31
0.0
  0
LINE
  5
118
  8
0
 62
     7
 10
134.80500000000001
 20
181.63099999999989
 30
0.0
 11
133.62
 21
181.63099999999989
 31
0.0
  0
LINE
  5
119
  8
0
 62
     7
 10
134.79099999999991
 20
189.708
 30
0.0
 11
134.19799999999989
 21
191.91999999999999
 31
0.0
  0
LINE
  5
11A
  8
0
 62
     7
 10
134.19799999999989
 20
191.91999999999999
 30
0.0
 11
133.6049999999999
 21
189.708
 31
0.0
  0
LINE
  5
11B
  8
0
 62
     7
 10
133.6049999999999
 20
189.708
 30
0.0
 11
134.79099999999991
 21
189.708
 31
0.0
  0
LINE
  5
11C
  8
0
 62
     7
 10
134.21199999999999
 20
179.41999999999999
 30
0.0
 11
134.21199999999999
 21
191.91999999999999
 31
0.0
  0
LINE
  5
11D
  8
0
 62
     7
 10
131.8829999999999
 20
198.578
 30
0.0
 11
129.67099999999999
 21
197.98500000000001
 31
0.0
  0
LINE
  5
11E
  8
0
 62
     7
 10
129.67099999999999
 20
197.98500000000001
 30
0.0
 11
131.8829999999999
 21
197.393
 31
0.0
  0
LINE
  5
11F
  8
0
 62
     7
 10
131.8829999999999
 20
197.393
 30
0.0
 11
131.8829999999999
 21
198.578
 31
0.0
  0
LINE
  5
120
  8
0
 62
     7
 10
137.46000000000001
 20
197.40700000000001
 30
0.0
 11
139.67099999999991
 21
198.0
 31
0.0
  0
LINE
  5
121
  8
0
 62
     7
 10
139.67099999999991
 20
198.0
 30
0.0
 11
137.46000000000001
 21
198.59200000000001
 31
0.0
  0
LINE
  5
122
  8
0
 62
     7
 10
137.46000000000001
 20
198.59200000000001
 30
0.0
 11
137.46000000000001
 21
197.40700000000001
 31
0.0
  0
LINE
  5
123
  8
0
 62
     7
 10
129.67099999999999
 20
197.98500000000001
 30
0.0
 11
139.67099999999991
 21
197.98500000000001
 31
0.0
  0
LINE
  5
124
  8
0
 62
     7
 10
129.67099999999999
 20
198.685
 30
0.0
 11
129.67099999999999
 21
192.9859999999999
 31
0.0
  0
LINE
  5
125
  8
0
  6
AIGENLINE001
 62
     7
 10
132.67099999999999
 20
191.91999999999999
 30
0.0
 11
112.247
 21
171.4959999999999
 31
0.0
  0
LINE
  5
126
  8
0
  6
AIGENLINE002
 62
     7
 10
116.407
 20
169.999
 30
0.0
 11
114.2859999999999
 21
179.19200000000001
 31
0.0
  0
LINE
  5
127
  8
0
  6
AIGENLINE002
 62
     7
 10
119.9429999999999
 20
173.53499999999991
 30
0.0
 11
110.75099999999991
 21
175.65599999999989
 31
0.0
  0
LINE
  5
128
  8
0
  6
AIGENLINE002
 62
     7
 10
110.75099999999991
 20
175.65599999999989
 30
0.0
 11
114.2859999999999
 21
179.19200000000001
 31
0.0
  0
LINE
  5
129
  8
0
  6
AIGENLINE002
 62
     7
 10
114.2859999999999
 20
179.19200000000001
 30
0.0
 11
119.9429999999999
 21
173.53499999999991
 31
0.0
  0
LINE
  5
12A
  8
0
  6
AIGENLINE002
 62
     7
 10
119.9429999999999
 20
173.53499999999991
 30
0.0
 11
116.407
 21
169.999
 31
0.0
  0
LINE
  5
12B
  8
0
  6
AIGENLINE002
 62
     7
 10
116.407
 20
169.999
 30
0.0
 11
110.75099999999991
 21
175.65599999999989
 31
0.0
  0
LINE
  5
12C
  8
0
  6
AIGENLINE001
 62
     7
 10
132.67099999999999
 20
191.91999999999999
 30
0.0
 11
112.247
 21
212.3429999999999
 31
0.0
  0
LINE
  5
12D
  8
0
  6
AIGENLINE002
 62
     7
 10
116.407
 20
213.84
 30
0.0
 11
114.2859999999999
 21
204.64799999999991
 31
0.0
  0
LINE
  5
12E
  8
0
  6
AIGENLINE002
 62
     7
 10
119.9429999999999
 20
210.304
 30
0.0
 11
110.75099999999991
 21
208.18299999999999
 31
0.0
  0
LINE
  5
12F
  8
0
  6
AIGENLINE002
 62
     7
 10
110.75099999999991
 20
208.18299999999999
 30
0.0
 11
114.2859999999999
 21
204.64799999999991
 31
0.0
  0
LINE
  5
130
  8
0
  6
AIGENLINE002
 62
     7
 10
114.2859999999999
 20
204.64799999999991
 30
0.0
 11
119.9429999999999
 21
210.304
 31
0.0
  0
LINE
  5
131
  8
0
  6
AIGENLINE002
 62
     7
 10
119.9429999999999
 20
210.304
 30
0.0
 11
116.407
 21
213.84
 31
0.0
  0
LINE
  5
132
  8
0
  6
AIGENLINE002
 62
     7
 10
116.407
 20
213.84
 30
0.0
 11
110.75099999999991
 21
208.18299999999999
 31
0.0
  0
LINE
  5
133
  8
0
 62
     7
 10
62.26189999999999
 20
102.81699999999999
 30
0.0
 11
93.787800000000004
 21
102.81699999999999
 31
0.0
  0
LINE
  5
134
  8
0
 62
     7
 10
87.868099999999998
 20
122.818
 30
0.0
 11
93.787800000000004
 21
122.818
 31
0.0
  0
LINE
  5
135
  8
0
 62
     7
 10
92.510000000000005
 20
105.0289999999999
 30
0.0
 11
93.102599999999995
 21
102.81699999999999
 31
0.0
  0
LINE
  5
136
  8
0
 62
     7
 10
93.102599999999995
 20
102.81699999999999
 30
0.0
 11
93.695099999999996
 21
105.0289999999999
 31
0.0
  0
LINE
  5
137
  8
0
 62
     7
 10
93.695099999999996
 20
105.0289999999999
 30
0.0
 11
92.510000000000005
 21
105.0289999999999
 31
0.0
  0
LINE
  5
138
  8
0
 62
     7
 10
93.680700000000016
 20
120.60599999999999
 30
0.0
 11
93.088099999999983
 21
122.818
 31
0.0
  0
LINE
  5
139
  8
0
 62
     7
 10
93.088099999999983
 20
122.818
 30
0.0
 11
92.495500000000007
 21
120.60599999999999
 31
0.0
  0
LINE
  5
13A
  8
0
 62
     7
 10
92.495500000000007
 20
120.60599999999999
 30
0.0
 11
93.680700000000016
 21
120.60599999999999
 31
0.0
  0
LINE
  5
13B
  8
0
 62
     7
 10
93.088099999999983
 20
102.81699999999999
 30
0.0
 11
93.088099999999983
 21
122.818
 31
0.0
  0
LINE
  5
13C
  8
0
 62
     7
 10
57.957599999999999
 20
104.617
 30
0.0
 11
59.690800000000003
 21
104.617
 31
0.0
  0
ARC
  5
13D
  8
0
 62
     7
 10
59.673480000000012
 20
105.13575400000001
 30
0.0
 40
0.5188560000000001
 50
271.91193700000002
 51
354.16075799999987
  0
LINE
  5
13E
  8
0
 62
     7
 10
62.607100000000003
 20
119.81699999999999
 30
0.0
 11
85.597000000000008
 21
119.81699999999999
 31
0.0
  0
ARC
  5
13F
  8
0
 62
     7
 10
62.095680000000002
 20
150.459158
 30
0.0
 40
43.641925000000001
 50
269.97125599999998
 51
275.98064299999999
  0
ARC
  5
140
  8
0
 62
     7
 10
63.774756999999987
 20
132.05415899999991
 30
0.0
 40
25.163372999999989
 50
276.54470199999997
 51
288.11427900000001
  0
ARC
  5
141
  8
0
 62
     7
 10
65.34956600000001
 20
126.485777
 30
0.0
 40
19.382760000000001
 50
288.80755399999993
 51
319.84525500000001
  0
ARC
  5
142
  8
0
 62
     7
 10
60.804806000000013
 20
130.598535
 30
0.0
 40
25.509361999999999
 50
319.36751900000002
 51
331.09598499999993
  0
ARC
  5
143
  8
0
 62
     7
 10
54.094335999999991
 20
134.65760700000001
 30
0.0
 40
33.347281000000002
 50
330.56339800000001
 51
333.57536199999993
  0
ARC
  5
144
  8
0
 62
     7
 10
1450.542999999999
 20
37.498280000000001
 30
0.0
 40
1391.9949999999999
 50
176.956422
 51
177.21704
  0
ARC
  5
145
  8
0
 62
     7
 10
216.68492800000001
 20
101.5929859999999
 30
0.0
 40
156.48150499999991
 50
173.8265529999999
 51
176.40441000000001
  0
ARC
  5
146
  8
0
 62
     7
 10
62.657516000000001
 20
118.2635969999999
 30
0.0
 40
1.55461
 50
91.859047000000004
 51
174.198576
  0
LINE
  5
147
  8
0
 62
     7
 10
60.266500000000001
 20
106.81699999999999
 30
0.0
 11
62.073799999999999
 21
106.81699999999999
 31
0.0
  0
LINE
  5
148
  8
0
 62
     7
 10
61.381300000000003
 20
103.09099999999989
 30
0.0
 11
61.6755
 21
106.452
 31
0.0
  0
ARC
  5
149
  8
0
 62
     7
 10
62.086649000000001
 20
106.40344899999999
 30
0.0
 40
0.41399
 50
91.781626000000003
 51
173.25719199999989
  0
LINE
  5
14A
  8
0
 62
     7
 10
57.957599999999999
 20
102.81699999999999
 30
0.0
 11
61.082299999999989
 21
102.81699999999999
 31
0.0
  0
ARC
  5
14B
  8
0
 62
     7
 10
61.073335
 20
103.1271089999999
 30
0.0
 40
0.310124
 50
271.651589
 51
353.24963799999989
  0
LINE
  5
14C
  8
0
 62
     7
 10
86.957499999999996
 20
122.818
 30
0.0
 11
86.071399999999997
 21
120.15899999999991
 31
0.0
  0
ARC
  5
14D
  8
0
 62
     7
 10
85.587721999999985
 20
120.33045300000001
 30
0.0
 40
0.513149
 50
271.04037599999992
 51
340.49809699999997
  0
LINE
  5
14E
  8
0
 62
     7
 10
57.957599999999999
 20
122.818
 30
0.0
 11
86.957499999999996
 21
122.818
 31
0.0
  0
LINE
  5
14F
  8
0
 62
     7
 10
57.957599999999999
 20
104.617
 30
0.0
 11
56.22399999999999
 21
104.617
 31
0.0
  0
ARC
  5
150
  8
0
 62
     7
 10
56.241280000000003
 20
105.13575400000001
 30
0.0
 40
0.5188560000000001
 50
185.83926199999999
 51
268.08808299999993
  0
LINE
  5
151
  8
0
 62
     7
 10
53.307299999999991
 20
119.81699999999999
 30
0.0
 11
30.317699999999991
 21
119.81699999999999
 31
0.0
  0
ARC
  5
152
  8
0
 62
     7
 10
157.18155200000001
 20
315.36876199999989
 30
0.0
 40
208.7653949999999
 50
266.61530699999992
 51
267.406295
  0
ARC
  5
153
  8
0
 62
     7
 10
150.25657599999991
 20
196.95452800000001
 30
0.0
 40
90.148904000000002
 50
263.65874300000002
 51
266.56556399999999
  0
ARC
  5
154
  8
0
 62
     7
 10
146.35504299999991
 20
160.72378199999989
 30
0.0
 40
53.709047999999989
 50
257.64609000000002
 51
263.52643
  0
ARC
  5
155
  8
0
 62
     7
 10
142.32151599999989
 20
141.442196
 30
0.0
 40
34.011465999999999
 50
247.17516599999999
 51
257.33416399999987
  0
ARC
  5
156
  8
0
 62
     7
 10
138.0663769999999
 20
130.69016499999989
 30
0.0
 40
22.452117999999992
 50
229.33671000000001
 51
246.53988799999991
  0
ARC
  5
157
  8
0
 62
     7
 10
135.51633499999991
 20
127.2395919999999
 30
0.0
 40
18.175754999999999
 50
204.10170600000001
 51
228.34652199999999
  0
ARC
  5
158
  8
0
 62
     7
 10
183.08550399999999
 20
543.41592400000002
 30
0.0
 40
440.16351299999991
 50
265.01461499999988
 51
265.48692399999999
  0
ARC
  5
159
  8
0
 62
     7
 10
152.814592
 20
193.4814669999999
 30
0.0
 40
88.922663999999997
 50
260.52211199999988
 51
264.851247
  0
ARC
  5
15A
  8
0
 62
     7
 10
146.3418519999999
 20
152.60515599999991
 30
0.0
 40
47.539763999999991
 50
251.898549
 51
260.104376
  0
ARC
  5
15B
  8
0
 62
     7
 10
140.958147
 20
135.25373400000001
 30
0.0
 40
29.375658000000001
 50
238.67789799999991
 51
251.36441899999991
  0
ARC
  5
15C
  8
0
 62
     7
 10
136.602473
 20
127.57163899999991
 30
0.0
 40
20.550681000000001
 50
220.61866399999991
 51
237.917698
  0
ARC
  5
15D
  8
0
 62
     7
 10
135.26532900000001
 20
126.135837
 30
0.0
 40
18.602264999999989
 50
196.06447600000001
 51
219.94304199999999
  0
ARC
  5
15E
  8
0
 62
     7
 10
138.8760879999999
 20
127.414317
 30
0.0
 40
22.42698
 50
191.82702499999999
 51
196.650532
  0
ARC
  5
15F
  8
0
 62
     7
 10
53.818741000000003
 20
150.4566899999999
 30
0.0
 40
43.639457
 50
264.01920799999988
 51
270.02875799999993
  0
ARC
  5
160
  8
0
 62
     7
 10
52.139835999999988
 20
132.054081
 30
0.0
 40
25.163301000000001
 50
251.88567599999999
 51
263.45520199999999
  0
ARC
  5
161
  8
0
 62
     7
 10
50.564951999999998
 20
126.48558
 30
0.0
 40
19.382550999999999
 50
220.15452300000001
 51
251.19247200000001
  0
ARC
  5
162
  8
0
 62
     7
 10
55.108524000000003
 20
130.597159
 30
0.0
 40
25.507482
 50
208.90283400000001
 51
220.63204899999999
  0
ARC
  5
163
  8
0
 62
     7
 10
61.811571000000001
 20
134.652107
 30
0.0
 40
33.336905000000002
 50
206.4229629999999
 51
209.43583000000001
  0
ARC
  5
164
  8
0
 62
     7
 10
-1290.6610000000001
 20
40.022368
 30
0.0
 40
1347.95678
 50
2.766518
 51
3.0305149999999998
  0
ARC
  5
165
  8
0
 62
     7
 10
-101.925937
 20
101.49014
 30
0.0
 40
157.64163300000001
 50
3.5626180000000001
 51
6.1654169999999988
  0
ARC
  5
166
  8
0
 62
     7
 10
53.256820999999988
 20
118.263131
 30
0.0
 40
1.5550790000000001
 50
5.8169250000000003
 51
88.138571999999996
  0
LINE
  5
167
  8
0
 62
     7
 10
55.648299999999999
 20
106.81699999999999
 30
0.0
 11
53.840600000000002
 21
106.81699999999999
 31
0.0
  0
LINE
  5
168
  8
0
  6
AIGENLINE001
 62
     7
 10
60.0274
 20
118.31699999999999
 30
0.0
 11
55.865699999999997
 21
118.31699999999999
 31
0.0
  0
ARC
  5
169
  8
0
  6
AIGENLINE003
 62
     7
 10
57.957552
 20
118.317385
 30
0.0
 40
1.249889
 50
0.00001
 51
89.999980000000008
  0
ARC
  5
16A
  8
0
  6
AIGENLINE003
 62
     7
 10
57.957380000000001
 20
118.317212
 30
0.0
 40
1.2500610000000001
 50
89.992105000000009
 51
179.992075
  0
ARC
  5
16B
  8
0
  6
AIGENLINE003
 62
     7
 10
57.957380000000001
 20
118.31755699999999
 30
0.0
 40
1.2500610000000001
 50
180.00790499999991
 51
270.00791499999991
  0
ARC
  5
16C
  8
0
  6
AIGENLINE003
 62
     7
 10
57.957552
 20
118.317385
 30
0.0
 40
1.249889
 50
270.00002000000001
 51
359.99998999999991
  0
LINE
  5
16D
  8
0
 62
     7
 10
54.533499999999997
 20
103.09099999999989
 30
0.0
 11
54.23919999999999
 21
106.452
 31
0.0
  0
ARC
  5
16E
  8
0
 62
     7
 10
53.827393000000001
 20
106.402653
 30
0.0
 40
0.414797
 50
6.8402589999999996
 51
88.170237999999983
  0
LINE
  5
16F
  8
0
 62
     7
 10
57.957599999999999
 20
102.81699999999999
 30
0.0
 11
54.83209999999999
 21
102.81699999999999
 31
0.0
  0
ARC
  5
170
  8
0
 62
     7
 10
54.841611999999991
 20
103.127691
 30
0.0
 40
0.310722
 50
186.84541599999989
 51
268.25339700000001
  0
LINE
  5
171
  8
0
  6
AIGENLINE001
 62
     7
 10
57.957599999999999
 20
125.1779999999999
 30
0.0
 11
57.957599999999999
 21
100.95099999999999
 31
0.0
  0
LINE
  5
172
  8
0
 62
     7
 10
28.9572
 20
122.818
 30
0.0
 11
29.843299999999989
 21
120.15899999999991
 31
0.0
  0
ARC
  5
173
  8
0
 62
     7
 10
30.327860999999999
 20
120.33159499999989
 30
0.0
 40
0.5143060000000002
 50
199.59125499999999
 51
268.8703129999999
  0
LINE
  5
174
  8
0
 62
     7
 10
57.957599999999999
 20
122.818
 30
0.0
 11
28.9572
 21
122.818
 31
0.0
  0
LINE
  5
175
  8
0
 62
     7
 10
38.689700000000002
 20
217.9609999999999
 30
0.0
 11
44.416899999999998
 21
217.9609999999999
 31
0.0
  0
LINE
  5
176
  8
0
 62
     7
 10
54.3536
 20
207.19599999999991
 30
0.0
 11
56.336300000000001
 21
206.0509999999999
 31
0.0
  0
LINE
  5
177
  8
0
 62
     7
 10
56.336300000000001
 20
206.0509999999999
 30
0.0
 11
55.191800000000001
 21
208.03399999999999
 31
0.0
  0
LINE
  5
178
  8
0
 62
     7
 10
55.191800000000001
 20
208.03399999999999
 30
0.0
 11
54.3536
 21
207.19599999999991
 31
0.0
  0
LINE
  5
179
  8
0
 62
     7
 10
61.566699999999997
 20
201.648
 30
0.0
 11
59.58359999999999
 21
202.79300000000001
 31
0.0
  0
LINE
  5
17A
  8
0
 62
     7
 10
59.58359999999999
 20
202.79300000000001
 30
0.0
 11
60.72849999999999
 21
200.81
 31
0.0
  0
LINE
  5
17B
  8
0
 62
     7
 10
60.72849999999999
 20
200.81
 30
0.0
 11
61.566699999999997
 21
201.648
 31
0.0
  0
LINE
  5
17C
  8
0
 62
     7
 10
62.131700000000002
 20
200.2459999999999
 30
0.0
 11
44.416899999999998
 21
217.9609999999999
 31
0.0
  0
ARC
  5
17D
  8
0
 62
     7
 10
59.024181999999989
 20
173.91903199999999
 30
0.0
 40
0.18326
 50
0.149458
 51
26.685130999999998
  0
ARC
  5
17E
  8
0
 62
     7
 10
58.898070999999987
 20
173.85061200000001
 30
0.0
 40
0.326696
 50
27.474001999999999
 51
52.478850999999999
  0
ARC
  5
17F
  8
0
 62
     7
 10
58.601773000000001
 20
173.47660400000001
 30
0.0
 40
0.8038260000000002
 50
51.964838
 51
68.015653
  0
ARC
  5
180
  8
0
 62
     7
 10
58.231579000000004
 20
172.599717
 30
0.0
 40
1.7555989999999999
 50
67.525784000000002
 51
78.561571000000001
  0
ARC
  5
181
  8
0
 62
     7
 10
57.978729000000001
 20
171.40488400000001
 30
0.0
 40
2.9768639999999991
 50
78.352246999999991
 51
90.407583000000017
  0
ARC
  5
182
  8
0
 62
     7
 10
57.958182999999998
 20
171.29540600000001
 30
0.0
 40
3.0862660000000002
 50
90.011695000000003
 51
104.264993
  0
ARC
  5
183
  8
0
 62
     7
 10
57.533630000000002
 20
173.02769799999999
 30
0.0
 40
1.3028660000000001
 50
104.9416539999999
 51
118.87139999999999
  0
ARC
  5
184
  8
0
 62
     7
 10
57.136070999999987
 20
173.73481299999989
 30
0.0
 40
0.4917270000000001
 50
118.0887
 51
141.55479700000001
  0
ARC
  5
185
  8
0
 62
     7
 10
56.913978
 20
173.913993
 30
0.0
 40
0.206388
 50
142.17782700000001
 51
178.468008
  0
ARC
  5
186
  8
0
 62
     7
 10
56.890712000000001
 20
173.91999199999989
 30
0.0
 40
0.183049
 50
180.1508739999999
 51
206.70078100000001
  0
ARC
  5
187
  8
0
 62
     7
 10
57.016818000000008
 20
173.98841100000001
 30
0.0
 40
0.326481
 50
207.4833689999999
 51
232.4975499999999
  0
ARC
  5
188
  8
0
 62
     7
 10
57.313285999999998
 20
174.36273099999991
 30
0.0
 40
0.8039609999999999
 50
231.97650599999989
 51
248.023065
  0
ARC
  5
189
  8
0
 62
     7
 10
57.683179000000003
 20
175.238507
 30
0.0
 40
1.754591
 50
247.52442499999989
 51
258.56646499999999
  0
ARC
  5
18A
  8
0
 62
     7
 10
57.936465000000013
 20
176.43572800000001
 30
0.0
 40
2.9782829999999998
 50
258.35613999999993
 51
270.40569299999999
  0
ARC
  5
18B
  8
0
 62
     7
 10
57.956921000000001
 20
176.54413099999991
 30
0.0
 40
3.0866109999999991
 50
270.01172800000001
 51
284.26340099999987
  0
ARC
  5
18C
  8
0
 62
     7
 10
58.381571000000001
 20
174.81166200000001
 30
0.0
 40
1.3030120000000001
 50
284.93556999999998
 51
298.86303299999997
  0
ARC
  5
18D
  8
0
 62
     7
 10
58.779120999999989
 20
174.10432399999991
 30
0.0
 40
0.4916840000000001
 50
298.07984799999991
 51
321.544735
  0
ARC
  5
18E
  8
0
 62
     7
 10
59.001382999999997
 20
173.925015
 30
0.0
 40
0.206131
 50
322.153524
 51
358.469718
  0
LINE
  5
18F
  8
0
  6
AIGENLINE001
 62
     7
 10
25.416699999999992
 20
191.91999999999999
 30
0.0
 11
90.314099999999996
 21
191.91999999999999
 31
0.0
  0
LINE
  5
190
  8
0
 62
     7
 10
81.746099999999984
 20
158.98099999999991
 30
0.0
 11
83.957499999999996
 21
159.57299999999989
 31
0.0
  0
LINE
  5
191
  8
0
 62
     7
 10
83.957499999999996
 20
159.57299999999989
 30
0.0
 11
81.746099999999984
 21
160.166
 31
0.0
  0
LINE
  5
192
  8
0
 62
     7
 10
81.746099999999984
 20
160.166
 30
0.0
 11
81.746099999999984
 21
158.98099999999991
 31
0.0
  0
LINE
  5
193
  8
0
 62
     7
 10
34.168999999999997
 20
160.15100000000001
 30
0.0
 11
31.9573
 21
159.559
 31
0.0
  0
LINE
  5
194
  8
0
 62
     7
 10
31.9573
 20
159.559
 30
0.0
 11
34.168999999999997
 21
158.96600000000001
 31
0.0
  0
LINE
  5
195
  8
0
 62
     7
 10
34.168999999999997
 20
158.96600000000001
 30
0.0
 11
34.168999999999997
 21
160.15100000000001
 31
0.0
  0
LINE
  5
196
  8
0
 62
     7
 10
83.957499999999996
 20
159.559
 30
0.0
 11
31.9573
 21
159.559
 31
0.0
  0
LINE
  5
197
  8
0
 62
     7
 10
154.137
 20
96.228700000000003
 30
0.0
 11
151.92599999999999
 21
95.636099999999999
 31
0.0
  0
LINE
  5
198
  8
0
 62
     7
 10
151.92599999999999
 20
95.636099999999999
 30
0.0
 11
154.137
 21
95.043599999999998
 31
0.0
  0
LINE
  5
199
  8
0
 62
     7
 10
154.137
 20
95.043599999999998
 30
0.0
 11
154.137
 21
96.228700000000003
 31
0.0
  0
LINE
  5
19A
  8
0
 62
     7
 10
159.714
 20
95.057999999999979
 30
0.0
 11
161.92599999999999
 21
95.650599999999997
 31
0.0
  0
LINE
  5
19B
  8
0
 62
     7
 10
161.92599999999999
 20
95.650599999999997
 30
0.0
 11
159.714
 21
96.243100000000013
 31
0.0
  0
LINE
  5
19C
  8
0
 62
     7
 10
159.714
 20
96.243100000000013
 30
0.0
 11
159.714
 21
95.057999999999979
 31
0.0
  0
LINE
  5
19D
  8
0
 62
     7
 10
151.92599999999999
 20
95.636099999999999
 30
0.0
 11
161.92599999999999
 21
95.636099999999999
 31
0.0
  0
LINE
  5
19E
  8
0
 62
     7
 10
151.92599999999999
 20
94.936099999999996
 30
0.0
 11
151.92599999999999
 21
100.8359999999999
 31
0.0
  0
LINE
  5
19F
  8
0
 62
     7
 10
161.92599999999999
 20
94.936099999999996
 30
0.0
 11
161.92599999999999
 21
120.8029999999999
 31
0.0
  0
LINE
  5
1A0
  8
0
 62
     7
 10
31.169
 20
153.797
 30
0.0
 11
28.9572
 21
153.20500000000001
 31
0.0
  0
LINE
  5
1A1
  8
0
 62
     7
 10
28.9572
 20
153.20500000000001
 30
0.0
 11
31.169
 21
152.61199999999991
 31
0.0
  0
LINE
  5
1A2
  8
0
 62
     7
 10
31.169
 20
152.61199999999991
 30
0.0
 11
31.169
 21
153.797
 31
0.0
  0
LINE
  5
1A3
  8
0
 62
     7
 10
84.746099999999998
 20
152.62700000000001
 30
0.0
 11
86.957499999999996
 21
153.21899999999991
 31
0.0
  0
LINE
  5
1A4
  8
0
 62
     7
 10
86.957499999999996
 20
153.21899999999991
 30
0.0
 11
84.746099999999998
 21
153.81200000000001
 31
0.0
  0
LINE
  5
1A5
  8
0
 62
     7
 10
84.746099999999998
 20
153.81200000000001
 30
0.0
 11
84.746099999999998
 21
152.62700000000001
 31
0.0
  0
LINE
  5
1A6
  8
0
 62
     7
 10
28.9572
 20
153.20500000000001
 30
0.0
 11
86.957499999999996
 21
153.20500000000001
 31
0.0
  0
LINE
  5
1A7
  8
0
 62
     7
 10
28.9572
 20
152.505
 30
0.0
 11
28.9572
 21
187.50599999999989
 31
0.0
  0
LINE
  5
1A8
  8
0
 62
     7
 10
86.957499999999996
 20
152.505
 30
0.0
 11
86.957499999999996
 21
187.50599999999989
 31
0.0
  0
LINE
  5
1A9
  8
0
 62
     7
 10
31.9573
 20
158.85900000000001
 30
0.0
 11
31.9573
 21
187.50599999999989
 31
0.0
  0
LINE
  5
1AA
  8
0
 62
     7
 10
83.957499999999996
 20
158.85900000000001
 30
0.0
 11
83.957499999999996
 21
187.50599999999989
 31
0.0
  0
LINE
  5
1AB
  8
0
 62
     7
 10
28.516300000000001
 20
206.63099999999989
 30
0.0
 11
29.108799999999999
 21
204.41999999999999
 31
0.0
  0
LINE
  5
1AC
  8
0
 62
     7
 10
29.108799999999999
 20
204.41999999999999
 30
0.0
 11
29.7014
 21
206.63099999999989
 31
0.0
  0
LINE
  5
1AD
  8
0
 62
     7
 10
29.7014
 20
206.63099999999989
 30
0.0
 11
28.516300000000001
 21
206.63099999999989
 31
0.0
  0
LINE
  5
1AE
  8
0
 62
     7
 10
29.686900000000001
 20
212.20799999999991
 30
0.0
 11
29.0944
 21
214.41999999999999
 31
0.0
  0
LINE
  5
1AF
  8
0
 62
     7
 10
29.0944
 20
214.41999999999999
 30
0.0
 11
28.501799999999989
 21
212.20799999999991
 31
0.0
  0
LINE
  5
1B0
  8
0
 62
     7
 10
28.501799999999989
 20
212.20799999999991
 30
0.0
 11
29.686900000000001
 21
212.20799999999991
 31
0.0
  0
LINE
  5
1B1
  8
0
 62
     7
 10
29.0944
 20
204.41999999999999
 30
0.0
 11
29.0944
 21
214.41999999999999
 31
0.0
  0
LINE
  5
1B2
  8
0
 62
     7
 10
52.594499999999996
 20
214.41999999999999
 30
0.0
 11
28.394300000000001
 21
214.41999999999999
 31
0.0
  0
LINE
  5
1B3
  8
0
 62
     7
 10
51.626100000000001
 20
204.41999999999999
 30
0.0
 11
28.394300000000001
 21
204.41999999999999
 31
0.0
  0
LINE
  5
1B4
  8
0
  6
AIGENLINE001
 62
     7
 10
57.957599999999999
 20
216.92699999999999
 30
0.0
 11
57.957599999999999
 21
166.6329999999999
 31
0.0
  0
ARC
  5
1B5
  8
0
 62
     7
 10
57.957552
 20
204.41982200000001
 30
0.0
 40
2.2999610000000001
 50
0.00001
 51
89.999980000000008
  0
ARC
  5
1B6
  8
0
 62
     7
 10
58.046087999999997
 20
204.331287
 30
0.0
 40
2.390136
 50
92.122834999999995
 51
177.87713600000001
  0
ARC
  5
1B7
  8
0
 62
     7
 10
58.045869999999987
 20
204.50796099999999
 30
0.0
 40
2.389902999999999
 50
182.113541
 51
267.88219800000002
  0
ARC
  5
1B8
  8
0
 62
     7
 10
57.957466000000011
 20
204.419737
 30
0.0
 40
2.3000470000000002
 50
270.00216499999999
 51
0.002136
  0
ARC
  5
1B9
  8
0
 62
     7
 10
57.957552
 20
204.41982200000001
 30
0.0
 40
3.7500110000000002
 50
0.00001
 51
89.999980000000008
  0
ARC
  5
1BA
  8
0
 62
     7
 10
57.957552999999997
 20
204.41982200000001
 30
0.0
 40
3.7500110000000002
 50
90.0
 51
179.99996999999991
  0
ARC
  5
1BB
  8
0
 62
     7
 10
57.957552
 20
204.41982200000001
 30
0.0
 40
3.750008999999999
 50
179.99996999999991
 51
270.00002000000001
  0
ARC
  5
1BC
  8
0
 62
     7
 10
57.957552
 20
204.41982300000001
 30
0.0
 40
3.7500110000000002
 50
270.00002000000001
 51
359.99998999999991
  0
LINE
  5
1BD
  8
0
  6
AIGENLINE001
 62
     7
 10
52.594499999999996
 20
204.41999999999999
 30
0.0
 11
63.139699999999998
 21
204.41999999999999
 31
0.0
  0
LINE
  5
1BE
  8
0
 62
     7
 10
101.232
 20
171.63099999999989
 30
0.0
 11
101.824
 21
169.41900000000001
 31
0.0
  0
LINE
  5
1BF
  8
0
 62
     7
 10
101.824
 20
169.41900000000001
 30
0.0
 11
102.417
 21
171.63099999999989
 31
0.0
  0
LINE
  5
1C0
  8
0
 62
     7
 10
102.417
 20
171.63099999999989
 30
0.0
 11
101.232
 21
171.63099999999989
 31
0.0
  0
LINE
  5
1C1
  8
0
 62
     7
 10
102.4019999999999
 20
212.20799999999991
 30
0.0
 11
101.81
 21
214.41999999999999
 31
0.0
  0
LINE
  5
1C2
  8
0
 62
     7
 10
101.81
 20
214.41999999999999
 30
0.0
 11
101.217
 21
212.20799999999991
 31
0.0
  0
LINE
  5
1C3
  8
0
 62
     7
 10
101.217
 20
212.20799999999991
 30
0.0
 11
102.4019999999999
 21
212.20799999999991
 31
0.0
  0
LINE
  5
1C4
  8
0
 62
     7
 10
101.81
 20
169.41900000000001
 30
0.0
 11
101.81
 21
214.41999999999999
 31
0.0
  0
LINE
  5
1C5
  8
0
 62
     7
 10
65.919200000000004
 20
169.41900000000001
 30
0.0
 11
102.51000000000001
 21
169.41900000000001
 31
0.0
  0
LINE
  5
1C6
  8
0
 62
     7
 10
94.571200000000005
 20
174.63099999999989
 30
0.0
 11
95.163799999999995
 21
172.4199999999999
 31
0.0
  0
LINE
  5
1C7
  8
0
 62
     7
 10
95.163799999999995
 20
172.4199999999999
 30
0.0
 11
95.756299999999996
 21
174.63099999999989
 31
0.0
  0
LINE
  5
1C8
  8
0
 62
     7
 10
95.756299999999996
 20
174.63099999999989
 30
0.0
 11
94.571200000000005
 21
174.63099999999989
 31
0.0
  0
LINE
  5
1C9
  8
0
 62
     7
 10
95.741899999999987
 20
209.208
 30
0.0
 11
95.149299999999997
 21
211.4199999999999
 31
0.0
  0
LINE
  5
1CA
  8
0
 62
     7
 10
95.149299999999997
 20
211.4199999999999
 30
0.0
 11
94.556799999999996
 21
209.208
 31
0.0
  0
LINE
  5
1CB
  8
0
 62
     7
 10
94.556799999999996
 20
209.208
 30
0.0
 11
95.741899999999987
 21
209.208
 31
0.0
  0
LINE
  5
1CC
  8
0
 62
     7
 10
95.149299999999997
 20
172.4199999999999
 30
0.0
 11
95.149299999999997
 21
211.4199999999999
 31
0.0
  0
LINE
  5
1CD
  8
0
 62
     7
 10
63.714300000000001
 20
211.4199999999999
 30
0.0
 11
95.849400000000017
 21
211.4199999999999
 31
0.0
  0
LINE
  5
1CE
  8
0
 62
     7
 10
63.714300000000001
 20
172.4199999999999
 30
0.0
 11
95.849400000000017
 21
172.4199999999999
 31
0.0
  0
ARC
  5
1CF
  8
0
 62
     7
 10
57.864525999999998
 20
179.14479199999991
 30
0.0
 40
32.275126
 50
52.771615999999987
 51
89.834847999999994
  0
ARC
  5
1D0
  8
0
 62
     7
 10
67.689121
 20
191.78347600000001
 30
0.0
 40
16.268957
 50
0.479868
 51
53.389550000000007
  0
ARC
  5
1D1
  8
0
 62
     7
 10
67.640185999999986
 20
191.75901999999999
 30
0.0
 40
19.317999
 50
0.4766640000000001
 51
53.281321999999989
  0
ARC
  5
1D2
  8
0
 62
     7
 10
58.050975999999991
 20
179.14361700000001
 30
0.0
 40
32.276302000000001
 50
90.165831999999995
 51
127.2276649999999
  0
ARC
  5
1D3
  8
0
 62
     7
 10
48.225465
 20
191.78330600000001
 30
0.0
 40
16.268784
 50
126.60860599999999
 51
179.519508
  0
ARC
  5
1D4
  8
0
 62
     7
 10
48.276688
 20
191.75794899999991
 30
0.0
 40
19.320121
 50
126.721782
 51
179.52019199999989
  0
ARC
  5
1D5
  8
0
 62
     7
 10
57.866219000000001
 20
204.6894979999999
 30
0.0
 40
32.270121000000003
 50
270.16217399999999
 51
307.23136299999999
  0
ARC
  5
1D6
  8
0
 62
     7
 10
67.689288000000005
 20
192.05572799999999
 30
0.0
 40
16.268788000000001
 50
306.61016000000001
 51
359.52103799999992
  0
ARC
  5
1D7
  8
0
 62
     7
 10
57.857087
 20
204.7169429999999
 30
0.0
 40
35.29758799999999
 50
270.16308700000002
 51
307.18336299999987
  0
ARC
  5
1D8
  8
0
 62
     7
 10
67.641156999999993
 20
192.07977600000001
 30
0.0
 40
19.317022000000001
 50
306.71724399999999
 51
359.52528899999987
  0
ARC
  5
1D9
  8
0
 62
     7
 10
58.049542000000002
 20
204.69143500000001
 30
0.0
 40
32.272059999999989
 50
232.76981099999989
 51
269.83669199999991
  0
ARC
  5
1DA
  8
0
 62
     7
 10
48.225484999999992
 20
192.05599299999989
 30
0.0
 40
16.268802999999991
 50
180.47991399999989
 51
233.39135499999989
  0
ARC
  5
1DB
  8
0
 62
     7
 10
58.058627999999999
 20
204.71875
 30
0.0
 40
35.299396000000002
 50
232.81763900000001
 51
269.83595000000003
  0
ARC
  5
1DC
  8
0
 62
     7
 10
48.274861999999999
 20
192.08041499999999
 30
0.0
 40
19.31828599999999
 50
180.47659299999989
 51
233.280913
  0
TEXT
  5
1DD
  8
_________2
 62
     7
 10
24.5868
 20
0.707283
 30
0.0
 40
3.9357000000000002
  1
実容量9.2L、重量：9kg、オーバーフロー付
 41
0.5
  0
LINE
  5
1DE
  8
_________2
 62
     7
 10
205.30099999999999
 20
127.411
 30
0.0
 11
183.55099999999999
 21
127.411
 31
0.0
  0
LINE
  5
1DF
  8
_________2
 62
     7
 10
100.2999999999999
 20
-4.0910799999999998
 30
0.0
 11
100.2999999999999
 21
-21.071400000000001
 31
0.0
  0
LINE
  5
1E0
  8
_________2
 62
     7
 10
100.2999999999999
 20
275.93099999999993
 30
0.0
 11
100.2999999999999
 21
258.911
 31
0.0
  0
LINE
  5
1E1
  8
_________2
 62
     7
 10
17.049499999999998
 20
127.411
 30
0.0
 11
-4.7008599999999987
 21
127.411
 31
0.0
  0
LINE
  5
1E2
  8
_________2
 62
     7
 10
76.741
 20
29.8047
 30
0.0
 11
74.554699999999997
 21
29.8047
 31
0.0
  0
LINE
  5
1E3
  8
_________2
 62
     7
 10
77.233699999999999
 20
29.8047
 30
0.0
 11
76.981499999999997
 21
29.8047
 31
0.0
  0
LINE
  5
1E4
  8
_________2
 62
     7
 10
77.726299999999995
 20
29.8047
 30
0.0
 11
80.651200000000003
 21
29.8047
 31
0.0
  0
LINE
  5
1E5
  8
_________2
 62
     7
 10
77.233699999999999
 20
29.8047
 30
0.0
 11
77.485900000000001
 21
29.8047
 31
0.0
  0
LINE
  5
1E6
  8
_________2
 62
     7
 10
70.837500000000006
 20
29.8047
 30
0.0
 11
68.650499999999994
 21
29.8047
 31
0.0
  0
LINE
  5
1E7
  8
_________2
 62
     7
 10
71.329400000000007
 20
29.8047
 30
0.0
 11
71.0779
 21
29.8047
 31
0.0
  0
LINE
  5
1E8
  8
_________2
 62
     7
 10
71.329400000000007
 20
30.2974
 30
0.0
 11
71.329400000000007
 21
32.484400000000001
 31
0.0
  0
LINE
  5
1E9
  8
_________2
 62
     7
 10
71.329400000000007
 20
29.8047
 30
0.0
 11
71.329400000000007
 21
30.056899999999992
 31
0.0
  0
LINE
  5
1EA
  8
_________2
 62
     7
 10
71.822100000000006
 20
29.8047
 30
0.0
 11
74.009
 21
29.8047
 31
0.0
  0
LINE
  5
1EB
  8
_________2
 62
     7
 10
71.329400000000007
 20
29.8047
 30
0.0
 11
71.581599999999995
 21
29.8047
 31
0.0
  0
LINE
  5
1EC
  8
_________2
 62
     7
 10
71.329400000000007
 20
29.312799999999999
 30
0.0
 11
71.329400000000007
 21
27.125800000000002
 31
0.0
  0
LINE
  5
1ED
  8
_________2
 62
     7
 10
71.329400000000007
 20
29.8047
 30
0.0
 11
71.329400000000007
 21
29.5532
 31
0.0
  0
LINE
  5
1EE
  8
_________2
 62
     7
 10
75.040499999999994
 20
28.5852
 30
0.0
 11
80.218500000000006
 21
27.720400000000001
 31
0.0
  0
LINE
  5
1EF
  8
_________2
 62
     7
 10
75.040499999999994
 20
31.0243
 30
0.0
 11
80.218500000000006
 21
31.889700000000001
 31
0.0
  0
LINE
  5
1F0
  8
_________2
 62
     7
 10
80.218500000000006
 20
27.720400000000001
 30
0.0
 11
80.218500000000006
 21
31.889700000000001
 31
0.0
  0
LINE
  5
1F1
  8
_________2
 62
     7
 10
75.040499999999994
 20
28.5852
 30
0.0
 11
75.040499999999994
 21
31.0243
 31
0.0
  0
ARC
  5
1F2
  8
_________2
 62
     7
 10
71.283190000000005
 20
29.757787
 30
0.0
 40
1.2673709999999989
 50
2.1232950000000002
 51
87.909056000000007
  0
ARC
  5
1F3
  8
_________2
 62
     7
 10
71.375959999999992
 20
29.758213000000001
 30
0.0
 40
1.2669559999999991
 50
92.104701000000006
 51
177.8952689999999
  0
ARC
  5
1F4
  8
_________2
 62
     7
 10
71.376357999999996
 20
29.851671
 30
0.0
 40
1.2673680000000001
 50
182.12203600000001
 51
267.877993
  0
ARC
  5
1F5
  8
_________2
 62
     7
 10
71.282541000000009
 20
29.852347999999999
 30
0.0
 40
1.2680439999999991
 50
272.11916400000001
 51
357.84848499999993
  0
ARC
  5
1F6
  8
_________2
 62
     7
 10
71.329430000000002
 20
29.804742999999998
 30
0.0
 40
2.0849849999999992
 50
0.00001
 51
89.999980000000008
  0
ARC
  5
1F7
  8
_________2
 62
     7
 10
71.409075999999999
 20
29.725812999999992
 30
0.0
 40
2.165379999999999
 50
92.107876000000005
 51
177.91103200000001
  0
ARC
  5
1F8
  8
_________2
 62
     7
 10
71.409439000000006
 20
29.884751999999999
 30
0.0
 40
2.1657829999999998
 50
182.117133
 51
267.88289700000001
  0
ARC
  5
1F9
  8
_________2
 62
     7
 10
71.249459000000002
 20
29.885429999999989
 30
0.0
 40
2.1664590000000001
 50
272.11546800000002
 51
357.86560400000002
  0
TEXT
  5
1FA
  8
_________2
 62
     7
 10
104.605
 20
1.6794899999999999
 30
0.0
 40
3.0923400000000001
  1
図番
 41
0.5
  0
LINE
  5
1FB
  8
_________2
 62
     7
 10
103.55
 20
5.9087199999999989
 30
0.0
 11
183.55099999999999
 21
5.9087199999999989
 31
0.0
  0
TEXT
  5
1FC
  8
_________2
 62
     7
 10
104.605
 20
11.679299999999991
 30
0.0
 40
3.0923400000000001
  1
品番
 41
0.5
  0
TEXT
  5
1FD
  8
_________2
 62
     7
 10
104.605
 20
31.818100000000001
 30
0.0
 40
3.0923400000000001
  1
名称
 41
0.5
  0
TEXT
  5
1FE
  8
_________2
 62
     7
 10
91.845058333333341
 20
26.821999999999989
 30
0.0
 40
3.6545800000000002
  1
mm
 41
0.5
 72
     1
 11
93.367800000000003
 21
26.821999999999989
 31
0.0
  0
TEXT
  5
1FF
  8
_________2
 62
     7
 10
85.643199999999993
 20
31.818100000000001
 30
0.0
 40
3.0923400000000001
  1
単位
 41
0.5
  0
TEXT
  5
200
  8
_________2
 62
     7
 10
85.643199999999993
 20
19.410799999999991
 30
0.0
 40
3.0923400000000001
  1
尺度
 41
0.5
  0
TEXT
  5
201
  8
_________2
 62
     7
 10
90.09193616666667
 20
13.2179
 30
0.0
 40
3.6545800000000002
  1
1 ： 10
 41
0.5
 72
     1
 11
93.959699999999998
 21
13.2179
 31
0.0
  0
TEXT
  5
202
  8
_________2
 62
     7
 10
137.81043750000001
 20
9.1078600000000005
 30
0.0
 40
3.9357000000000002
  1
VR6069
 41
0.5
 72
     1
 11
143.55000000000001
 21
9.1078600000000005
 31
0.0
  0
TEXT
  5
203
  8
_________2
 62
     7
 10
137.81043750000001
 20
-0.8926299999999999
 30
0.0
 40
3.9357000000000002
  1
VR6069
 41
0.5
 72
     1
 11
143.55000000000001
 21
-0.8926299999999999
 31
0.0
  0
TEXT
  5
204
  8
_________2
 62
     7
 10
109.179
 20
24.2257
 30
0.0
 40
3.9357000000000002
  1
アンダーカウンター式洗面器
 41
0.5
  0
TEXT
  5
205
  8
_________2
 62
     7
 10
39.364390666666658
 20
13.603
 30
0.0
 40
3.6545800000000002
  1
高橋
 41
0.5
 72
     1
 11
41.313499999999998
 21
13.603
 31
0.0
  0
TEXT
  5
206
  8
_________2
 62
     7
 10
20.79039066666666
 20
13.603
 30
0.0
 40
3.6545800000000002
  1
石原
 41
0.5
 72
     1
 11
22.7395
 21
13.603
 31
0.0
  0
TEXT
  5
207
  8
_________2
 62
     7
 10
67.785799999999995
 20
13.2179
 30
0.0
 40
3.6545800000000002
  1
09.01.29
 41
0.5
  0
TEXT
  5
208
  8
_________2
 62
     7
 10
66.593100000000007
 20
19.410799999999991
 30
0.0
 40
3.0923400000000001
  1
日付
 41
0.5
  0
TEXT
  5
209
  8
_________2
 62
     7
 10
29.639399999999998
 20
19.410799999999991
 30
0.0
 40
3.0923400000000001
  1
検図
 41
0.5
  0
TEXT
  5
20A
  8
_________2
 62
     7
 10
18.021100000000001
 20
5.21143
 30
0.0
 40
3.0923400000000001
  1
備考
 41
0.5
  0
TEXT
  5
20B
  8
_________2
 62
     7
 10
18.021100000000001
 20
19.410799999999991
 30
0.0
 40
3.0923400000000001
  1
製図
 41
0.5
  0
TEXT
  5
20C
  8
_________2
 62
     7
 10
23.788465333333338
 20
27.936800000000002
 30
0.0
 40
4.4979399999999989
  1
セラトレーディング株式会社
 41
0.5
 72
     1
 11
41.180500000000002
 21
27.936800000000002
 31
0.0
  0
LINE
  5
20D
  8
_________2
 62
     7
 10
183.55099999999999
 20
-4.0910799999999998
 30
0.0
 11
17.049499999999998
 21
-4.0910799999999998
 31
0.0
  0
LINE
  5
20E
  8
_________2
 62
     7
 10
17.049499999999998
 20
-4.0910799999999998
 30
0.0
 11
17.049499999999998
 21
258.911
 31
0.0
  0
LINE
  5
20F
  8
_________2
 62
     7
 10
17.049499999999998
 20
258.911
 30
0.0
 11
183.55099999999999
 21
258.911
 31
0.0
  0
LINE
  5
210
  8
_________2
 62
     7
 10
183.55099999999999
 20
258.911
 30
0.0
 11
183.55099999999999
 21
-4.0910799999999998
 31
0.0
  0
LINE
  5
211
  8
_________2
 62
     7
 10
65.549899999999994
 20
9.4089600000000004
 30
0.0
 11
65.549899999999994
 21
35.908799999999999
 31
0.0
  0
LINE
  5
212
  8
_________2
 62
     7
 10
84.549700000000016
 20
9.4089600000000004
 30
0.0
 11
84.549700000000016
 21
35.908799999999999
 31
0.0
  0
LINE
  5
213
  8
_________2
 62
     7
 10
103.55
 20
-4.0910799999999998
 30
0.0
 11
103.55
 21
35.908799999999999
 31
0.0
  0
LINE
  5
214
  8
_________2
 62
     7
 10
28.549299999999992
 20
9.4089600000000004
 30
0.0
 11
28.549299999999992
 21
23.409199999999998
 31
0.0
  0
LINE
  5
215
  8
_________2
 62
     7
 10
17.049499999999998
 20
9.4089600000000004
 30
0.0
 11
103.55
 21
9.4089600000000004
 31
0.0
  0
LINE
  5
216
  8
_________2
 62
     7
 10
17.049499999999998
 20
23.409199999999998
 30
0.0
 11
103.55
 21
23.409199999999998
 31
0.0
  0
LINE
  5
217
  8
_________2
 62
     7
 10
103.55
 20
15.9085
 30
0.0
 11
183.55099999999999
 21
15.9085
 31
0.0
  0
LINE
  5
218
  8
_________2
 62
     7
 10
17.049499999999998
 20
35.908799999999999
 30
0.0
 11
183.55099999999999
 21
35.908799999999999
 31
0.0
  0
TEXT
  5
225
  8
0
 62
     7
 10
25.43072826285746
 20
39.177233555890211
 30
0.0
 40
3.0923400000000001
  1
＊オーバーフロー穴位置が、左右にずれている場合があります。
 41
0.5
 72
     1
 11
51.80028947714316
 21
39.177233555890211
 31
0.0
  0
ENDSEC
  0
EOF
