  0
SECTION
  2
HEADER
  9
$ACADVER
  1
AC1009
  9
$INSBASE
 10
0.0
 20
0.0
 30
0.0
  9
$EXTMIN
 10
0.238402
 20
0.4485540000000001
 30
0.0
  9
$EXTMAX
 10
210.24000000000001
 20
297.45099999999991
 30
0.0
  9
$LIMMIN
 10
0.0
 20
0.0
  9
$LIMMAX
 10
12.0
 20
9.0
  9
$ORTHOMODE
 70
     0
  9
$REGENMODE
 70
     1
  9
$FILLMODE
 70
     1
  9
$QTEXTMODE
 70
     0
  9
$MIRRTEXT
 70
     1
  9
$DRAGMODE
 70
     2
  9
$LTSCALE
 40
1.0
  9
$OSMODE
 70
    37
  9
$ATTMODE
 70
     1
  9
$TEXTSIZE
 40
0.0
  9
$TRACEWID
 40
0.05
  9
$TEXTSTYLE
  7
STANDARD
  9
$CLAYER
  8
0
  9
$CELTYPE
  6
CONTINUOUS
  9
$CECOLOR
 62
   256
  9
$DIMSCALE
 40
1.0
  9
$DIMASZ
 40
0.18
  9
$DIMEXO
 40
0.0625
  9
$DIMDLI
 40
0.38
  9
$DIMRND
 40
0.0
  9
$DIMDLE
 40
0.0
  9
$DIMEXE
 40
0.18
  9
$DIMTP
 40
0.0
  9
$DIMTM
 40
0.0
  9
$DIMTXT
 40
0.18
  9
$DIMCEN
 40
0.09
  9
$DIMTSZ
 40
0.0
  9
$DIMTOL
 70
     0
  9
$DIMLIM
 70
     0
  9
$DIMTIH
 70
     1
  9
$DIMTOH
 70
     1
  9
$DIMSE1
 70
     0
  9
$DIMSE2
 70
     0
  9
$DIMTAD
 70
     0
  9
$DIMZIN
 70
     0
  9
$DIMBLK
  1

  9
$DIMASO
 70
     1
  9
$DIMSHO
 70
     1
  9
$DIMPOST
  1

  9
$DIMAPOST
  1

  9
$DIMALT
 70
     0
  9
$DIMALTD
 70
     2
  9
$DIMALTF
 40
25.399999999999999
  9
$DIMLFAC
 40
1.0
  9
$DIMTOFL
 70
     0
  9
$DIMTVP
 40
0.0
  9
$DIMTIX
 70
     0
  9
$DIMSOXD
 70
     0
  9
$DIMSAH
 70
     0
  9
$DIMBLK1
  1

  9
$DIMBLK2
  1

  9
$DIMSTYLE
  2
STANDARD
  9
$DIMCLRD
 70
     0
  9
$DIMCLRE
 70
     0
  9
$DIMCLRT
 70
     0
  9
$DIMTFAC
 40
1.0
  9
$DIMGAP
 40
0.09
  9
$LUNITS
 70
     2
  9
$LUPREC
 70
     4
  9
$SKETCHINC
 40
0.1
  9
$FILLETRAD
 40
0.0
  9
$AUNITS
 70
     0
  9
$AUPREC
 70
     0
  9
$MENU
  1
.
  9
$ELEVATION
 40
0.0
  9
$PELEVATION
 40
0.0
  9
$THICKNESS
 40
0.0
  9
$LIMCHECK
 70
     0
  9
$BLIPMODE
 70
     0
  9
$CHAMFERA
 40
0.0
  9
$CHAMFERB
 40
0.0
  9
$SKPOLY
 70
     0
  9
$TDCREATE
 40
2444972.375
  9
$TDUPDATE
 40
2456723.2499243398
  9
$TDINDWG
 40
0.0000066667
  9
$TDUSRTIMER
 40
0.0000066667
  9
$USRTIMER
 70
     1
  9
$ANGBASE
 50
0.0
  9
$ANGDIR
 70
     0
  9
$PDMODE
 70
     0
  9
$PDSIZE
 40
0.0
  9
$PLINEWID
 40
0.0
  9
$COORDS
 70
     1
  9
$SPLFRAME
 70
     0
  9
$SPLINETYPE
 70
     6
  9
$SPLINESEGS
 70
     8
  9
$ATTDIA
 70
     0
  9
$ATTREQ
 70
     1
  9
$HANDLING
 70
     1
  9
$HANDSEED
  5
281
  9
$SURFTAB1
 70
     6
  9
$SURFTAB2
 70
     6
  9
$SURFTYPE
 70
     6
  9
$SURFU
 70
     6
  9
$SURFV
 70
     6
  9
$UCSNAME
  2

  9
$UCSORG
 10
0.0
 20
0.0
 30
0.0
  9
$UCSXDIR
 10
1.0
 20
0.0
 30
0.0
  9
$UCSYDIR
 10
0.0
 20
1.0
 30
0.0
  9
$PUCSNAME
  2

  9
$PUCSORG
 10
0.0
 20
0.0
 30
0.0
  9
$PUCSXDIR
 10
1.0
 20
0.0
 30
0.0
  9
$PUCSYDIR
 10
0.0
 20
1.0
 30
0.0
  9
$USERI1
 70
     0
  9
$USERI2
 70
     0
  9
$USERI3
 70
     0
  9
$USERI4
 70
     0
  9
$USERI5
 70
     0
  9
$USERR1
 40
0.0
  9
$USERR2
 40
0.0
  9
$USERR3
 40
0.0
  9
$USERR4
 40
0.0
  9
$USERR5
 40
0.0
  9
$WORLDVIEW
 70
     1
  9
$SHADEDGE
 70
     3
  9
$SHADEDIF
 70
    70
  9
$TILEMODE
 70
     1
  9
$MAXACTVP
 70
    48
  9
$PLIMCHECK
 70
     0
  9
$PEXTMIN
 10
1.0000000000000000E+020
 20
1.0000000000000000E+020
 30
1.0000000000000000E+020
  9
$PEXTMAX
 10
-1.0000000000000000E+020
 20
-1.0000000000000000E+020
 30
-1.0000000000000000E+020
  9
$PLIMMIN
 10
0.0
 20
0.0
  9
$PLIMMAX
 10
12.0
 20
9.0
  9
$UNITMODE
 70
     0
  9
$VISRETAIN
 70
     1
  9
$PLINEGEN
 70
     0
  9
$PSLTSCALE
 70
     1
  0
ENDSEC
  0
SECTION
  2
TABLES
  0
TABLE
  2
VPORT
 70
     2
  0
VPORT
  2
*ACTIVE
 70
     0
 10
0.0
 20
0.0
 11
1.0
 21
1.0
 12
206.98016390466589
 22
148.7254999999999
 13
0.0
 23
0.0
 14
1.0
 24
1.0
 15
0.0
 25
0.0
 16
0.0
 26
0.0
 36
1.0
 17
0.0
 27
0.0
 37
0.0
 40
299.90589133425021
 41
2.2894736842105261
 42
50.0
 43
0.0
 44
0.0
 50
0.0
 51
0.0
 71
     0
 72
   100
 73
     1
 74
     1
 75
     0
 76
     0
 77
     0
 78
     0
  0
ENDTAB
  0
TABLE
  2
LTYPE
 70
     6
  0
LTYPE
  2
CONTINUOUS
 70
     0
  3
Solid line
 72
    65
 73
     0
 40
0.0
  0
LTYPE
  2
AIGENLINE001
 70
     0
  3
generate AI->DXF Converter
 72
    65
 73
     2
 40
1.5999879999999991
 49
0.799994
 49
-0.799994
  0
LTYPE
  2
AIGENLINE002
 70
     0
  3
generate AI->DXF Converter
 72
    65
 73
     2
 40
1.5522299999999991
 49
0.776115
 49
-0.776115
  0
LTYPE
  2
AIGENLINE003
 70
     0
  3
generate AI->DXF Converter
 72
    65
 73
     4
 40
5.8561449999999988
 49
3.5278
 49
-0.776115
 49
0.776115
 49
-0.776115
  0
LTYPE
  2
AIGENLINE004
 70
     0
  3
generate AI->DXF Converter
 72
    65
 73
     2
 40
1.400042
 49
0.700021
 49
-0.700021
  0
LTYPE
  2
AIGENLINE005
 70
     0
  3
generate AI->DXF Converter
 72
    65
 73
     2
 40
1.6399939999999991
 49
0.819997
 49
-0.819997
  0
ENDTAB
  0
TABLE
  2
LAYER
 70
     2
  0
LAYER
  2
0
 70
     0
 62
     7
  6
CONTINUOUS
  0
LAYER
  2
_________2
 70
     0
 62
     7
  6
CONTINUOUS
  0
ENDTAB
  0
TABLE
  2
STYLE
 70
     1
  0
STYLE
  2
STANDARD
 70
     0
 40
0.0
 41
0.0
 50
0.0
 71
     0
 42
0.0
  3
TXT
  4
EXTFONT.SHX
  0
ENDTAB
  0
TABLE
  2
VIEW
 70
     0
  0
ENDTAB
  0
TABLE
  2
UCS
 70
     0
  0
ENDTAB
  0
TABLE
  2
APPID
 70
     1
  0
APPID
  2
ACAD
 70
     0
  0
ENDTAB
  0
TABLE
  2
DIMSTYLE
 70
     1
  0
DIMSTYLE
  2
STANDARD
 70
     0
  3

  4

  5

  6

  7

 40
1.0
 41
0.18
 42
0.0625
 43
0.38
 44
0.18
 45
0.0
 46
0.0
 47
0.0
 48
0.0
140
0.18
141
0.09
142
0.0
143
25.399999999999999
144
1.0
145
0.0
146
1.0
147
0.09
 71
     0
 72
     0
 73
     1
 74
     1
 75
     0
 76
     0
 77
     0
 78
     0
170
     0
171
     2
172
     0
173
     0
174
     0
175
     0
176
     0
177
     0
178
     0
  0
ENDTAB
  0
ENDSEC
  0
SECTION
  2
BLOCKS
  0
BLOCK
  8
0
  2
$MODEL_SPACE
 70
     0
 10
0.0
 20
0.0
 30
0.0
  3
$MODEL_SPACE
  1

  0
ENDBLK
  5
1A
  8
0
  0
BLOCK
 67
     1
  8
0
  2
$PAPER_SPACE
 70
     0
 10
0.0
 20
0.0
 30
0.0
  3
$PAPER_SPACE
  1

  0
ENDBLK
  5
17
 67
     1
  8
0
  0
ENDSEC
  0
SECTION
  2
ENTITIES
  0
TEXT
  5
26
  8
0
 62
     7
 10
83.939580000000007
 20
209.82699999999991
 30
0.0
 40
3.0923400000000001
  1
%%c46
 41
0.5
 72
     2
 11
88.062700000000007
 21
209.82699999999991
 31
0.0
  0
TEXT
  5
27
  8
0
 62
     7
 10
58.189799999999991
 20
240.905
 30
0.0
 40
3.0923400000000001
  1
%%c35
 41
0.5
  0
TEXT
  5
28
  8
0
 62
     7
 10
73.617987500000012
 20
171.8429999999999
 30
0.0
 40
3.0923400000000001
  1
480
 41
0.5
 72
     1
 11
75.550700000000006
 21
171.8429999999999
 31
0.0
  0
TEXT
  5
29
  8
0
 62
     7
 10
73.617987500000012
 20
137.92500000000001
 30
0.0
 40
3.0923400000000001
  1
280
 41
0.5
 72
     1
 11
75.550700000000006
 21
137.92500000000001
 31
0.0
  0
TEXT
  5
2A
  8
0
 62
     7
 10
151.55099999999999
 20
124.5749825
 30
0.0
 40
3.0923400000000001
  1
105
 50
90.0
 41
0.5
 72
     1
 11
151.55099999999999
 21
126.2499999999999
 31
0.0
  0
TEXT
  5
2B
  8
0
 62
     7
 10
73.617987500000012
 20
164.7879999999999
 30
0.0
 40
3.0923400000000001
  1
650
 41
0.5
 72
     1
 11
75.550700000000006
 21
164.7879999999999
 31
0.0
  0
TEXT
  5
2C
  8
0
 62
     7
 10
130.64400000000001
 20
205.5172874999999
 30
0.0
 40
3.0923400000000001
  1
560
 50
90.0
 41
0.5
 72
     1
 11
130.64400000000001
 21
207.44999999999999
 31
0.0
  0
TEXT
  5
2D
  8
0
 62
     7
 10
123.154
 20
205.5172874999999
 30
0.0
 40
3.0923400000000001
  1
520
 50
90.0
 41
0.5
 72
     1
 11
123.154
 21
207.44999999999999
 31
0.0
  0
TEXT
  5
2E
  8
0
 62
     7
 10
115.663
 20
227.27498249999999
 30
0.0
 40
3.0923400000000001
  1
130
 50
90.0
 41
0.5
 72
     1
 11
115.663
 21
228.9499999999999
 31
0.0
  0
TEXT
  5
2F
  8
0
 62
     7
 10
115.663
 20
202.0172874999999
 30
0.0
 40
3.0923400000000001
  1
370
 50
90.0
 41
0.5
 72
     1
 11
115.663
 21
203.9499999999999
 31
0.0
  0
TEXT
  5
30
  8
0
 62
     7
 10
29.794799999999999
 20
223.6461349999999
 30
0.0
 40
3.0923400000000001
  1
200
 50
90.0
 41
0.5
 72
     1
 11
29.794799999999999
 21
225.4499999999999
 31
0.0
  0
TEXT
  5
31
  8
0
 62
     7
 10
36.307699999999997
 20
224.29037249999999
 30
0.0
 40
3.0923400000000001
  1
60
 50
90.0
 41
0.5
 72
     1
 11
36.307699999999997
 21
225.4499999999999
 31
0.0
  0
TEXT
  5
32
  8
0
 62
     7
 10
36.307699999999997
 20
230.79037249999999
 30
0.0
 40
3.0923400000000001
  1
70
 50
90.0
 41
0.5
 72
     1
 11
36.307699999999997
 21
231.94999999999999
 31
0.0
  0
TEXT
  5
33
  8
0
 62
     7
 10
36.923400000000001
 20
126.42837249999999
 30
0.0
 40
3.0923400000000001
  1
50
 50
90.0
 41
0.5
 72
     1
 11
36.923400000000001
 21
127.58799999999989
 31
0.0
  0
TEXT
  5
34
  8
0
 62
     7
 10
113.886
 20
125.5495249999999
 30
0.0
 40
3.0923400000000001
  1
65
 50
90.0
 41
0.5
 72
     1
 11
113.886
 21
126.83799999999999
 31
0.0
  0
TEXT
  5
35
  8
0
 62
     7
 10
180.85699999999991
 20
120.533135
 30
0.0
 40
3.0923400000000001
  1
155
 50
90.0
 41
0.5
 72
     1
 11
180.85699999999991
 21
122.337
 31
0.0
  0
TEXT
  5
36
  8
0
 62
     7
 10
162.22713499999989
 20
106.678
 30
0.0
 40
3.0923400000000001
  1
200
 41
0.5
 72
     1
 11
164.03099999999989
 21
106.678
 31
0.0
  0
ARC
  5
37
  8
0
 62
     7
 10
-79.755566000000002
 20
-490.16033999999991
 30
0.0
 40
693.64409899999998
 50
74.977075999999997
 51
75.157747000000001
  0
ARC
  5
38
  8
0
 62
     7
 10
67.515173000000004
 20
64.427140000000009
 30
0.0
 40
119.836257
 50
75.298652000000018
 51
77.656839000000005
  0
ARC
  5
39
  8
0
 62
     7
 10
74.134857999999994
 20
93.687756000000007
 30
0.0
 40
89.837188999999995
 50
77.791881000000004
 51
84.487611999999984
  0
ARC
  5
3A
  8
0
 62
     7
 10
75.451761000000005
 20
104.703813
 30
0.0
 40
78.745977999999994
 50
84.671406000000005
 51
89.933492000000001
  0
ARC
  5
3B
  8
0
 62
     7
 10
230.841872
 20
-490.16033999999991
 30
0.0
 40
693.64409899999998
 50
104.84223299999989
 51
105.022904
  0
ARC
  5
3C
  8
0
 62
     7
 10
83.567436999999998
 20
64.442509999999999
 30
0.0
 40
119.8204519999999
 50
102.3429859999999
 51
104.70148399999989
  0
ARC
  5
3D
  8
0
 62
     7
 10
76.951448999999997
 20
93.687756000000007
 30
0.0
 40
89.837188999999995
 50
95.512368000000009
 51
102.2081
  0
ARC
  5
3E
  8
0
 62
     7
 10
75.634546
 20
104.703813
 30
0.0
 40
78.745977999999994
 50
90.066488000000021
 51
95.328574000000003
  0
ARC
  5
3F
  8
0
 62
     7
 10
110.7618379999999
 20
309.98689200000001
 30
0.0
 40
127.0642629999999
 50
263.04109999999991
 51
263.44988899999993
  0
ARC
  5
40
  8
0
 62
     7
 10
98.572585000000004
 20
204.37228899999999
 30
0.0
 40
20.748701999999991
 50
263.62104900000003
 51
266.43760400000002
  0
ARC
  5
41
  8
0
 62
     7
 10
97.677295000000015
 20
190.4681919999999
 30
0.0
 40
6.815906
 50
266.68659100000002
 51
272.23671200000001
  0
ARC
  5
42
  8
0
 62
     7
 10
83.604244999999977
 20
113.5492659999999
 30
0.0
 40
71.286579000000003
 50
80.502336
 51
81.971873000000016
  0
ARC
  5
43
  8
0
 62
     7
 10
78.580432000000002
 20
78.515466000000004
 30
0.0
 40
106.67868799999989
 50
81.927944999999994
 51
83.925856999999993
  0
ARC
  5
44
  8
0
 62
     7
 10
73.318883
 20
31.386339
 30
0.0
 40
154.10016899999991
 50
83.834750999999997
 51
88.018412999999995
  0
ARC
  5
45
  8
0
 62
     7
 10
75.306927000000002
 20
85.297041000000007
 30
0.0
 40
100.15303900000001
 50
88.088621000000003
 51
89.864848999999978
  0
ARC
  5
46
  8
0
 62
     7
 10
40.184883999999997
 20
311.16617400000001
 30
0.0
 40
128.25176999999991
 50
276.55198200000001
 51
276.95698900000002
  0
ARC
  5
47
  8
0
 62
     7
 10
52.513677000000001
 20
204.37265999999991
 30
0.0
 40
20.749074
 50
273.56247499999989
 51
276.378964
  0
ARC
  5
48
  8
0
 62
     7
 10
53.409010999999992
 20
190.4681919999999
 30
0.0
 40
6.815906
 50
267.76330799999999
 51
273.31342899999993
  0
ARC
  5
49
  8
0
 62
     7
 10
67.482061999999999
 20
113.5492659999999
 30
0.0
 40
71.286579000000003
 50
98.028107000000006
 51
99.497643999999994
  0
ARC
  5
4A
  8
0
 62
     7
 10
72.505874000000006
 20
78.515466000000004
 30
0.0
 40
106.67868799999989
 50
96.074123999999983
 51
98.072034999999985
  0
ARC
  5
4B
  8
0
 62
     7
 10
77.767424000000005
 20
31.386339
 30
0.0
 40
154.10016899999991
 50
91.981566999999998
 51
96.165228999999997
  0
ARC
  5
4C
  8
0
 62
     7
 10
75.779380000000003
 20
85.297041000000007
 30
0.0
 40
100.15303900000001
 50
90.135130999999987
 51
91.911360000000002
  0
ARC
  5
4D
  8
0
  6
AIGENLINE001
 62
     7
 10
150.69566199999991
 20
133.32273299999989
 30
0.0
 40
13.738631
 50
266.90791400000001
 51
268.27119799999991
  0
ARC
  5
4E
  8
0
  6
AIGENLINE001
 62
     7
 10
151.64914899999991
 20
152.0744139999999
 30
0.0
 40
32.514497999999989
 50
264.475638
 51
267.012564
  0
ARC
  5
4F
  8
0
  6
AIGENLINE001
 62
     7
 10
151.6025009999999
 20
155.98223100000001
 30
0.0
 40
36.402127
 50
264.28704499999998
 51
265.14086499999991
  0
ARC
  5
50
  8
0
  6
AIGENLINE001
 62
     7
 10
154.591734
 20
185.94031299999989
 30
0.0
 40
66.508972999999997
 50
260.37601399999988
 51
264.29375499999992
  0
ARC
  5
51
  8
0
  6
AIGENLINE001
 62
     7
 10
147.99874099999991
 20
146.6108909999999
 30
0.0
 40
26.630946999999988
 50
257.20607100000001
 51
260.21474999999998
  0
ARC
  5
52
  8
0
  6
AIGENLINE001
 62
     7
 10
148.31973199999999
 20
150.10984899999991
 30
0.0
 40
30.117659
 50
257.14647400000001
 51
258.08464399999991
  0
ARC
  5
53
  8
0
  6
AIGENLINE001
 62
     7
 10
153.5645669999999
 20
173.13066399999991
 30
0.0
 40
53.728380000000001
 50
255.33717200000001
 51
257.15478200000001
  0
ARC
  5
54
  8
0
  6
AIGENLINE001
 62
     7
 10
158.4832889999999
 20
192.60766399999989
 30
0.0
 40
73.816333999999998
 50
252.42497499999999
 51
255.47043999999991
  0
ARC
  5
55
  8
0
  6
AIGENLINE001
 62
     7
 10
145.64318599999999
 20
151.72648699999999
 30
0.0
 40
30.966440999999989
 50
249.32496
 51
252.23347000000001
  0
ARC
  5
56
  8
0
  6
AIGENLINE001
 62
     7
 10
138.72102299999989
 20
134.90187199999991
 30
0.0
 40
12.792616000000001
 50
248.203318
 51
251.72691399999999
  0
ARC
  5
57
  8
0
  6
AIGENLINE001
 62
     7
 10
143.18389899999991
 20
146.39835099999999
 30
0.0
 40
25.12462
 50
245.827631
 51
248.48836399999999
  0
ARC
  5
58
  8
0
  6
AIGENLINE001
 62
     7
 10
146.9211489999999
 20
154.9217889999999
 30
0.0
 40
34.431139000000002
 50
240.42992299999989
 51
245.96183300000001
  0
ARC
  5
59
  8
0
  6
AIGENLINE001
 62
     7
 10
137.585207
 20
138.25802999999991
 30
0.0
 40
15.330965000000001
 50
236.93524599999989
 51
240.04347599999991
  0
ARC
  5
5A
  8
0
  6
AIGENLINE001
 62
     7
 10
134.26450899999989
 20
133.543802
 30
0.0
 40
9.5707810000000002
 50
236.588966
 51
238.19793799999999
  0
ARC
  5
5B
  8
0
  6
AIGENLINE001
 62
     7
 10
138.41766000000001
 20
139.86437499999991
 30
0.0
 40
17.133729999999989
 50
235.08004500000001
 51
236.63432399999999
  0
ARC
  5
5C
  8
0
  6
AIGENLINE001
 62
     7
 10
144.61503400000001
 20
148.75312
 30
0.0
 40
27.969652
 50
230.169127
 51
235.09366
  0
ARC
  5
5D
  8
0
  6
AIGENLINE001
 62
     7
 10
133.3437889999999
 20
135.13457099999991
 30
0.0
 40
10.292166
 50
228.02972700000001
 51
229.79400899999999
  0
ARC
  5
5E
  8
0
  6
AIGENLINE001
 62
     7
 10
133.48868799999991
 20
136.01347599999991
 30
0.0
 40
11.052953999999991
 50
229.0273149999999
 51
230.51887999999991
  0
ARC
  5
5F
  8
0
  6
AIGENLINE001
 62
     7
 10
140.9100389999999
 20
144.60578599999999
 30
0.0
 40
22.406534000000001
 50
227.7460449999999
 51
229.10578599999999
  0
ARC
  5
60
  8
0
  6
AIGENLINE001
 62
     7
 10
148.69603699999999
 20
153.20867999999999
 30
0.0
 40
34.009605000000001
 50
224.421314
 51
227.78271599999999
  0
ARC
  5
61
  8
0
  6
AIGENLINE001
 62
     7
 10
133.216376
 20
137.96340499999991
 30
0.0
 40
12.283346
 50
222.61991299999991
 51
224.17080799999991
  0
ARC
  5
62
  8
0
  6
AIGENLINE001
 62
     7
 10
122.69833300000001
 20
128.231461
 30
0.0
 40
2.0466660000000001
 50
43.719284999999999
 51
47.222072999999988
  0
ARC
  5
63
  8
0
  6
AIGENLINE001
 62
     7
 10
121.8175189999999
 20
127.368026
 30
0.0
 40
3.279182
 50
46.171886000000008
 51
48.602341000000003
  0
ARC
  5
64
  8
0
  6
AIGENLINE001
 62
     7
 10
123.5244239999999
 20
129.34480500000001
 30
0.0
 40
0.6681189999999999
 50
46.304138000000009
 51
52.301845
  0
ARC
  5
65
  8
0
  6
AIGENLINE001
 62
     7
 10
123.073049
 20
128.78317300000001
 30
0.0
 40
1.3885899999999991
 50
51.736171999999989
 51
63.412868000000003
  0
LINE
  5
66
  8
0
 62
     7
 10
170.93700000000001
 20
123.5889999999999
 30
0.0
 11
171.53099999999989
 21
115.08799999999989
 31
0.0
  0
ARC
  5
67
  8
0
  6
AIGENLINE002
 62
     7
 10
99.941726000000003
 20
129.57263999999989
 30
0.0
 40
0.515104
 50
91.216064000000003
 51
161.96769499999991
  0
LINE
  5
68
  8
0
  6
AIGENLINE002
 62
     7
 10
99.451899999999995
 20
129.732
 30
0.0
 11
99.451899999999995
 21
129.73099999999991
 31
0.0
  0
ARC
  5
69
  8
0
  6
AIGENLINE002
 62
     7
 10
91.753119999999996
 20
132.089336
 30
0.0
 40
8.0519970000000001
 50
305.42984899999999
 51
342.96691499999991
  0
ARC
  5
6A
  8
0
  6
AIGENLINE002
 62
     7
 10
77.137694999999994
 20
153.4758929999999
 30
0.0
 40
33.954483000000003
 50
273.65188899999998
 51
304.60487000000001
  0
ARC
  5
6B
  8
0
  6
AIGENLINE002
 62
     7
 10
51.159056
 20
129.5726469999999
 30
0.0
 40
0.515096
 50
18.031677999999989
 51
88.784522999999993
  0
LINE
  5
6C
  8
0
  6
AIGENLINE002
 62
     7
 10
51.64889999999999
 20
129.732
 30
0.0
 11
51.64889999999999
 21
129.73099999999991
 31
0.0
  0
ARC
  5
6D
  8
0
  6
AIGENLINE002
 62
     7
 10
59.347656000000008
 20
132.089336
 30
0.0
 40
8.0519970000000001
 50
197.03310500000001
 51
234.57017099999999
  0
ARC
  5
6E
  8
0
  6
AIGENLINE002
 62
     7
 10
73.963081000000003
 20
153.4758929999999
 30
0.0
 40
33.954483000000003
 50
235.39515
 51
266.34813100000002
  0
ARC
  5
6F
  8
0
  6
AIGENLINE002
 62
     7
 10
75.504155000000011
 20
126.433447
 30
0.0
 40
1.2470110000000001
 50
272.12473699999998
 51
357.89172100000002
  0
ARC
  5
70
  8
0
  6
AIGENLINE002
 62
     7
 10
75.596306000000013
 20
126.433133
 30
0.0
 40
1.246685
 50
182.09438099999991
 51
267.8892009999999
  0
ARC
  5
71
  8
0
  6
AIGENLINE002
 62
     7
 10
75.595922999999999
 20
126.3416789999999
 30
0.0
 40
1.2463150000000001
 50
92.093812999999997
 51
177.88970399999991
  0
ARC
  5
72
  8
0
  6
AIGENLINE002
 62
     7
 10
75.504518000000004
 20
126.34134399999991
 30
0.0
 40
1.2466619999999999
 50
2.1250800000000001
 51
87.891362999999998
  0
ARC
  5
73
  8
0
 62
     7
 10
75.550387000000001
 20
215.449883
 30
0.0
 40
3.7500110000000002
 50
270.00002000000001
 51
359.99998999999991
  0
ARC
  5
74
  8
0
 62
     7
 10
75.550387000000001
 20
215.44988199999989
 30
0.0
 40
3.750008999999999
 50
179.99996999999991
 51
270.00002000000001
  0
ARC
  5
75
  8
0
 62
     7
 10
75.550388999999996
 20
215.44988199999989
 30
0.0
 40
3.7500110000000002
 50
90.0
 51
179.99996999999991
  0
ARC
  5
76
  8
0
 62
     7
 10
75.550387000000001
 20
215.44988199999989
 30
0.0
 40
3.7500110000000002
 50
0.00001
 51
89.999980000000008
  0
ARC
  5
77
  8
0
 62
     7
 10
75.550302000000002
 20
228.4499459999999
 30
0.0
 40
1.7498610000000001
 50
270.00283999999988
 51
0.00281
  0
ARC
  5
78
  8
0
 62
     7
 10
75.550473999999994
 20
228.4499459999999
 30
0.0
 40
1.7498610000000001
 50
179.99715
 51
269.99720000000002
  0
ARC
  5
79
  8
0
 62
     7
 10
75.550475000000006
 20
228.45011799999989
 30
0.0
 40
1.7498610000000001
 50
90.002820000000014
 51
180.00282999999999
  0
ARC
  5
7A
  8
0
 62
     7
 10
75.550302000000002
 20
228.45011799999989
 30
0.0
 40
1.7498610000000001
 50
359.99718999999988
 51
89.997159999999994
  0
ARC
  5
7B
  8
0
 62
     7
 10
75.550387999999998
 20
215.449883
 30
0.0
 40
2.2999610000000001
 50
270.00002000000001
 51
359.99998999999991
  0
ARC
  5
7C
  8
0
 62
     7
 10
75.550387999999998
 20
215.44988199999989
 30
0.0
 40
2.29996
 50
179.99996999999991
 51
270.00002000000001
  0
ARC
  5
7D
  8
0
 62
     7
 10
75.550387999999998
 20
215.44988199999989
 30
0.0
 40
2.2999610000000001
 50
90.0
 51
179.99996999999991
  0
ARC
  5
7E
  8
0
 62
     7
 10
75.550387999999998
 20
215.44988199999989
 30
0.0
 40
2.2999610000000001
 50
0.00001
 51
89.999980000000008
  0
LINE
  5
7F
  8
0
  6
AIGENLINE002
 62
     7
 10
156.9739999999999
 20
117.62899999999991
 30
0.0
 11
156.33099999999999
 21
117.62899999999991
 31
0.0
  0
LINE
  5
80
  8
0
  6
AIGENLINE002
 62
     7
 10
158.19200000000001
 20
116.2349999999999
 30
0.0
 11
156.33099999999999
 21
116.2349999999999
 31
0.0
  0
LINE
  5
81
  8
0
  6
AIGENLINE002
 62
     7
 10
73.250100000000003
 20
118.395
 30
0.0
 11
77.849999999999994
 21
118.395
 31
0.0
  0
LINE
  5
82
  8
0
  6
AIGENLINE002
 62
     7
 10
151.73099999999991
 20
118.395
 30
0.0
 11
156.33099999999999
 21
118.395
 31
0.0
  0
LINE
  5
83
  8
0
  6
AIGENLINE002
 62
     7
 10
77.849999999999994
 20
118.395
 30
0.0
 11
77.849999999999994
 21
114.587
 31
0.0
  0
LINE
  5
84
  8
0
  6
AIGENLINE002
 62
     7
 10
73.250100000000003
 20
118.395
 30
0.0
 11
73.250100000000003
 21
114.587
 31
0.0
  0
LINE
  5
85
  8
0
  6
AIGENLINE002
 62
     7
 10
79.299700000000001
 20
119.5899999999999
 30
0.0
 11
77.849999999999994
 21
118.395
 31
0.0
  0
LINE
  5
86
  8
0
  6
AIGENLINE002
 62
     7
 10
71.800399999999996
 20
119.5899999999999
 30
0.0
 11
73.250100000000003
 21
118.395
 31
0.0
  0
LINE
  5
87
  8
0
  6
AIGENLINE002
 62
     7
 10
71.800399999999996
 20
119.59099999999999
 30
0.0
 11
79.299700000000001
 21
119.5899999999999
 31
0.0
  0
LINE
  5
88
  8
0
  6
AIGENLINE003
 62
     7
 10
154.03100000000001
 20
120.682
 30
0.0
 11
154.03100000000001
 21
113.58199999999999
 31
0.0
  0
LINE
  5
89
  8
0
  6
AIGENLINE004
 62
     7
 10
156.33099999999999
 20
116.2349999999999
 30
0.0
 11
156.33099999999999
 21
114.587
 31
0.0
  0
LINE
  5
8A
  8
0
  6
AIGENLINE002
 62
     7
 10
156.33099999999999
 20
118.395
 30
0.0
 11
156.33099999999999
 21
117.62899999999991
 31
0.0
  0
LINE
  5
8B
  8
0
  6
AIGENLINE002
 62
     7
 10
151.73099999999991
 20
118.395
 30
0.0
 11
151.73099999999991
 21
114.587
 31
0.0
  0
LINE
  5
8C
  8
0
  6
AIGENLINE002
 62
     7
 10
157.78100000000001
 20
119.5899999999999
 30
0.0
 11
156.33099999999999
 21
118.395
 31
0.0
  0
LINE
  5
8D
  8
0
  6
AIGENLINE002
 62
     7
 10
150.28100000000001
 20
119.5899999999999
 30
0.0
 11
151.73099999999991
 21
118.395
 31
0.0
  0
LINE
  5
8E
  8
0
  6
AIGENLINE002
 62
     7
 10
150.28100000000001
 20
119.58799999999999
 30
0.0
 11
157.78100000000001
 21
119.58799999999999
 31
0.0
  0
ARC
  5
8F
  8
0
  6
AIGENLINE005
 62
     7
 10
157.81411299999991
 20
121.35429999999999
 30
0.0
 40
1.764265
 50
268.90880399999998
 51
278.12690600000002
  0
ARC
  5
90
  8
0
  6
AIGENLINE005
 62
     7
 10
157.5943429999999
 20
123.2150249999999
 30
0.0
 40
3.6376559999999989
 50
277.41052999999988
 51
287.75583799999993
  0
ARC
  5
91
  8
0
  6
AIGENLINE005
 62
     7
 10
157.5156409999999
 20
123.612628
 30
0.0
 40
4.0405839999999991
 50
287.099287
 51
296.82718899999998
  0
ARC
  5
92
  8
0
  6
AIGENLINE005
 62
     7
 10
158.286674
 20
122.0431449999999
 30
0.0
 40
2.2921439999999991
 50
297.33365099999992
 51
305.83761399999997
  0
ARC
  5
93
  8
0
  6
AIGENLINE005
 62
     7
 10
158.923271
 20
121.149682
 30
0.0
 40
1.1951309999999991
 50
306.17499500000002
 51
318.02357000000001
  0
ARC
  5
94
  8
0
  6
AIGENLINE005
 62
     7
 10
157.41994099999999
 20
122.9859049999999
 30
0.0
 40
3.5590629999999992
 50
312.22430600000001
 51
342.69319000000002
  0
ARC
  5
95
  8
0
  6
AIGENLINE005
 62
     7
 10
158.42927399999991
 20
122.62373100000001
 30
0.0
 40
2.488100999999999
 50
343.741285
 51
357.26310000000001
  0
ARC
  5
96
  8
0
  6
AIGENLINE005
 62
     7
 10
156.12473199999991
 20
123.16463400000001
 30
0.0
 40
4.8350229999999996
 50
352.15787599999999
 51
354.42659300000003
  0
ARC
  5
97
  8
0
  6
AIGENLINE005
 62
     7
 10
149.34127100000001
 20
123.87070199999999
 30
0.0
 40
11.655073
 50
354.21071599999999
 51
358.71887599999991
  0
ARC
  5
98
  8
0
  6
AIGENLINE005
 62
     7
 10
317.61892999999992
 20
123.78707799999999
 30
0.0
 40
156.62559899999991
 50
179.68683300000001
 51
180.06475399999991
  0
ARC
  5
99
  8
0
  6
AIGENLINE005
 62
     7
 10
529.94105999999988
 20
122.8884909999999
 30
0.0
 40
368.94956300000001
 50
179.06492600000001
 51
179.727498
  0
ARC
  5
9A
  8
0
  6
AIGENLINE005
 62
     7
 10
239.1409459999999
 20
130.81559499999989
 30
0.0
 40
78.123576999999983
 50
181.06962200000001
 51
181.39816200000001
  0
ARC
  5
9B
  8
0
  6
AIGENLINE005
 62
     7
 10
161.846484
 20
129.26741100000001
 30
0.0
 40
0.820437
 50
91.326346000000015
 51
173.71247099999999
  0
LINE
  5
9C
  8
0
 62
     7
 10
123.7389999999999
 20
123.5889999999999
 30
0.0
 11
133.89599999999999
 21
121.788
 31
0.0
  0
LINE
  5
9D
  8
0
 62
     7
 10
159.83299999999991
 20
115.92400000000001
 30
0.0
 11
160.90899999999991
 21
116.979
 31
0.0
  0
ARC
  5
9E
  8
0
  6
AIGENLINE002
 62
     7
 10
158.413105
 20
117.528526
 30
0.0
 40
1.1545119999999991
 50
302.33947499999999
 51
313.2418009999999
  0
ARC
  5
9F
  8
0
  6
AIGENLINE002
 62
     7
 10
157.86078299999991
 20
118.345236
 30
0.0
 40
2.1402079999999999
 50
280.98347199999989
 51
303.13641000000001
  0
ARC
  5
A0
  8
0
  6
AIGENLINE002
 62
     7
 10
158.11073699999989
 20
117.209079
 30
0.0
 40
0.9776679999999998
 50
274.77997999999991
 51
279.28904199999988
  0
ARC
  5
A1
  8
0
 62
     7
 10
158.105628
 20
117.74849499999991
 30
0.0
 40
2.5127589999999991
 50
306.064347
 51
313.44226299999991
  0
ARC
  5
A2
  8
0
 62
     7
 10
157.2466719999999
 20
118.857568
 30
0.0
 40
3.9151660000000001
 50
293.50853599999999
 51
306.67078299999997
  0
ARC
  5
A3
  8
0
 62
     7
 10
157.957751
 20
117.27235
 30
0.0
 40
2.177970999999999
 50
284.17676
 51
292.9892549999999
  0
ARC
  5
A4
  8
0
 62
     7
 10
158.20831100000001
 20
116.3212409999999
 30
0.0
 40
1.194504
 50
275.21672100000001
 51
283.69760799999989
  0
ARC
  5
A5
  8
0
 62
     7
 10
158.37027199999989
 20
113.46387799999999
 30
0.0
 40
1.6649400000000001
 50
97.153390000000002
 51
101.17800200000001
  0
ARC
  5
A6
  8
0
 62
     7
 10
158.44091299999999
 20
113.168369
 30
0.0
 40
1.9672270000000001
 50
93.613733999999965
 51
98.123074000000017
  0
ARC
  5
A7
  8
0
 62
     7
 10
158.18553199999999
 20
114.59992699999999
 30
0.0
 40
0.516104
 50
105.511371
 51
181.39575300000001
  0
LINE
  5
A8
  8
0
 62
     7
 10
150.55500000000001
 20
114.587
 30
0.0
 11
157.6699999999999
 21
114.587
 31
0.0
  0
LINE
  5
A9
  8
0
 62
     7
 10
150.29499999999999
 20
117.669
 30
0.0
 11
150.55500000000001
 21
114.587
 31
0.0
  0
ARC
  5
AA
  8
0
 62
     7
 10
154.82914700000001
 20
118.48200300000001
 30
0.0
 40
4.6062139999999987
 50
189.04020199999991
 51
190.170244
  0
ARC
  5
AB
  8
0
 62
     7
 10
149.81168700000001
 20
117.668682
 30
0.0
 40
0.455599
 50
50.385119000000003
 51
88.449320999999983
  0
ARC
  5
AC
  8
0
 62
     7
 10
149.78973799999989
 20
117.615661
 30
0.0
 40
0.510718
 50
16.211141000000001
 51
52.281292000000001
  0
ARC
  5
AD
  8
0
 62
     7
 10
150.41442499999991
 20
132.59721999999999
 30
0.0
 40
14.485144
 50
266.38164199999989
 51
267.66400699999991
  0
ARC
  5
AE
  8
0
 62
     7
 10
151.109793
 20
143.8589659999999
 30
0.0
 40
25.768330999999989
 50
265.17367799999988
 51
266.41889199999991
  0
ARC
  5
AF
  8
0
 62
     7
 10
152.72617299999999
 20
162.88137900000001
 30
0.0
 40
44.859292000000003
 50
260.37270499999988
 51
265.16067299999992
  0
ARC
  5
B0
  8
0
 62
     7
 10
147.91193100000001
 20
133.8929959999999
 30
0.0
 40
15.474375
 50
258.00243999999992
 51
259.99674599999992
  0
ARC
  5
B1
  8
0
 62
     7
 10
146.8429449999999
 20
148.35608699999989
 30
0.0
 40
29.314474000000001
 50
253.46972099999999
 51
254.3920949999999
  0
ARC
  5
B2
  8
0
 62
     7
 10
154.79260400000001
 20
176.640345
 30
0.0
 40
58.694658999999987
 50
254.3466479999999
 51
255.174892
  0
ARC
  5
B3
  8
0
 62
     7
 10
163.82315399999999
 20
210.6748309999999
 30
0.0
 40
93.906827000000007
 50
255.1617479999999
 51
257.21711599999998
  0
ARC
  5
B4
  8
0
 62
     7
 10
151.90582800000001
 20
158.0515959999999
 30
0.0
 40
39.951044000000003
 50
257.18654099999998
 51
259.60200900000001
  0
ARC
  5
B5
  8
0
 62
     7
 10
143.66292999999999
 20
139.52543499999999
 30
0.0
 40
19.951215999999999
 50
253.86860799999991
 51
255.00937999999991
  0
ARC
  5
B6
  8
0
 62
     7
 10
148.33766199999999
 20
155.77236600000001
 30
0.0
 40
36.857298
 50
252.85364100000001
 51
253.90497400000001
  0
ARC
  5
B7
  8
0
 62
     7
 10
155.32647600000001
 20
178.47324900000001
 30
0.0
 40
60.609633000000002
 50
250.33263400000001
 51
252.86719600000001
  0
ARC
  5
B8
  8
0
 62
     7
 10
144.92979199999999
 20
149.43883700000001
 30
0.0
 40
29.769928
 50
248.519497
 51
250.367985
  0
ARC
  5
B9
  8
0
 62
     7
 10
72.620413999999997
 20
-44.54927
 30
0.0
 40
177.262416
 50
69.731201999999996
 51
69.781406000000004
  0
ARC
  5
BA
  8
0
  6
AIGENLINE002
 62
     7
 10
123.429165
 20
129.57952800000001
 30
0.0
 40
0.5082370000000001
 50
78.622290000000007
 51
88.669758000000002
  0
ARC
  5
BB
  8
0
  6
AIGENLINE002
 62
     7
 10
123.4037269999999
 20
129.400814
 30
0.0
 40
0.688534
 50
65.017479000000009
 51
79.480960999999994
  0
LINE
  5
BC
  8
0
 62
     7
 10
122.869
 20
123.5889999999999
 30
0.0
 11
123.852
 21
123.5889999999999
 31
0.0
  0
ARC
  5
BD
  8
0
 62
     7
 10
132.09201799999991
 20
132.98564799999991
 30
0.0
 40
13.166293
 50
222.3989509999999
 51
225.53315199999989
  0
ARC
  5
BE
  8
0
 62
     7
 10
140.32930400000001
 20
140.6277959999999
 30
0.0
 40
24.402441
 50
219.900215
 51
222.6083229999999
  0
ARC
  5
BF
  8
0
 62
     7
 10
149.81103400000001
 20
148.66258300000001
 30
0.0
 40
36.830495999999997
 50
214.69923900000001
 51
220.0276439999999
  0
ARC
  5
C0
  8
0
 62
     7
 10
136.0178159999999
 20
139.08785499999991
 30
0.0
 40
20.039798000000001
 50
210.53402500000001
 51
214.64252499999989
  0
ARC
  5
C1
  8
0
 62
     7
 10
119.0533749999999
 20
129.1224169999999
 30
0.0
 40
0.366618
 50
207.81208899999999
 51
216.054779
  0
ARC
  5
C2
  8
0
 62
     7
 10
119.36950299999999
 20
129.29976999999991
 30
0.0
 40
0.729035
 50
192.75253699999999
 51
208.54841099999999
  0
ARC
  5
C3
  8
0
 62
     7
 10
119.1478519999999
 20
129.28053899999989
 30
0.0
 40
0.5095
 50
179.47628099999989
 51
196.14732900000001
  0
ARC
  5
C4
  8
0
 62
     7
 10
119.450727
 20
129.30237500000001
 30
0.0
 40
0.8125359999999998
 50
155.94604200000001
 51
181.21148500000001
  0
ARC
  5
C5
  8
0
 62
     7
 10
119.3358029999999
 20
129.37567300000001
 30
0.0
 40
0.678013
 50
126.34796
 51
157.64407800000001
  0
ARC
  5
C6
  8
0
 62
     7
 10
119.42176599999991
 20
129.29139199999989
 30
0.0
 40
0.797079
 50
87.365189000000001
 51
127.73432699999999
  0
LINE
  5
C7
  8
0
 62
     7
 10
174.03099999999989
 20
130.08799999999999
 30
0.0
 11
119.425
 21
130.08799999999999
 31
0.0
  0
LINE
  5
C8
  8
0
 62
     7
 10
160.78399999999991
 20
117.00099999999991
 30
0.0
 11
133.89599999999999
 21
121.788
 31
0.0
  0
LINE
  5
C9
  8
0
 62
     7
 10
171.53099999999989
 20
115.08799999999989
 30
0.0
 11
160.78399999999991
 21
117.00099999999991
 31
0.0
  0
LINE
  5
CA
  8
0
 62
     7
 10
174.03099999999989
 20
115.08799999999989
 30
0.0
 11
171.53099999999989
 21
115.08799999999989
 31
0.0
  0
LINE
  5
CB
  8
0
 62
     7
 10
174.03099999999989
 20
130.08799999999999
 30
0.0
 11
174.03099999999989
 21
115.08799999999989
 31
0.0
  0
LINE
  5
CC
  8
0
 62
     7
 10
174.03099999999989
 20
130.0379999999999
 30
0.0
 11
173.98099999999999
 21
130.08799999999999
 31
0.0
  0
ARC
  5
CD
  8
0
  6
AIGENLINE002
 62
     7
 10
89.042210999999995
 20
125.04895999999999
 30
0.0
 40
1.038683
 50
91.751657999999978
 51
177.537553
  0
ARC
  5
CE
  8
0
  6
AIGENLINE002
 62
     7
 10
89.042295999999979
 20
125.124951
 30
0.0
 40
1.038281999999999
 50
181.73112499999991
 51
267.55814600000002
  0
LINE
  5
CF
  8
0
  6
AIGENLINE002
 62
     7
 10
88.998099999999994
 20
124.08799999999989
 30
0.0
 11
89.004300000000001
 21
124.08799999999989
 31
0.0
  0
ARC
  5
D0
  8
0
  6
AIGENLINE002
 62
     7
 10
89.965744000000001
 20
125.12566099999999
 30
0.0
 40
1.0387679999999999
 50
272.1314319999999
 51
357.88832500000001
  0
ARC
  5
D1
  8
0
  6
AIGENLINE002
 62
     7
 10
89.965424999999996
 20
125.0487899999999
 30
0.0
 40
1.0390989999999991
 50
2.1286230000000002
 51
87.851619999999997
  0
LINE
  5
D2
  8
0
  6
AIGENLINE002
 62
     7
 10
90.004400000000004
 20
126.087
 30
0.0
 11
89.998500000000007
 21
126.087
 31
0.0
  0
LINE
  5
D3
  8
0
  6
AIGENLINE002
 62
     7
 10
89.004300000000001
 20
124.08799999999989
 30
0.0
 11
90.004400000000004
 21
124.08799999999989
 31
0.0
  0
LINE
  5
D4
  8
0
  6
AIGENLINE002
 62
     7
 10
88.997699999999995
 20
126.087
 30
0.0
 11
90.009899999999988
 21
126.087
 31
0.0
  0
ARC
  5
D5
  8
0
  6
AIGENLINE002
 62
     7
 10
62.055480000000003
 20
125.126009
 30
0.0
 40
1.039115999999999
 50
272.13022399999988
 51
357.86978599999992
  0
ARC
  5
D6
  8
0
  6
AIGENLINE002
 62
     7
 10
62.055877000000002
 20
125.04915699999999
 30
0.0
 40
1.0387040000000001
 50
2.109141999999999
 51
87.890847999999991
  0
LINE
  5
D7
  8
0
  6
AIGENLINE002
 62
     7
 10
62.094099999999997
 20
126.087
 30
0.0
 11
62.087899999999998
 21
126.087
 31
0.0
  0
ARC
  5
D8
  8
0
  6
AIGENLINE002
 62
     7
 10
61.131667
 20
125.04963499999999
 30
0.0
 40
1.038011
 50
91.756851999999995
 51
177.61133100000001
  0
ARC
  5
D9
  8
0
  6
AIGENLINE002
 62
     7
 10
61.132083000000002
 20
125.124723
 30
0.0
 40
1.038012999999999
 50
181.75699900000001
 51
267.611244
  0
LINE
  5
DA
  8
0
  6
AIGENLINE002
 62
     7
 10
61.088799999999999
 20
124.08799999999989
 30
0.0
 11
61.09429999999999
 21
124.08799999999989
 31
0.0
  0
LINE
  5
DB
  8
0
  6
AIGENLINE002
 62
     7
 10
62.094099999999997
 20
124.08799999999989
 30
0.0
 11
61.09429999999999
 21
124.08799999999989
 31
0.0
  0
LINE
  5
DC
  8
0
  6
AIGENLINE002
 62
     7
 10
62.10029999999999
 20
126.087
 30
0.0
 11
61.088799999999999
 21
126.087
 31
0.0
  0
ARC
  5
DD
  8
0
 62
     7
 10
75.797281999999996
 20
127.377605
 30
0.0
 40
9.5998359999999998
 50
268.518056
 51
270.0959279999999
  0
ARC
  5
DE
  8
0
 62
     7
 10
75.79621800000001
 20
133.811589
 30
0.0
 40
16.033816000000002
 50
270.06124199999999
 51
271.66641399999997
  0
ARC
  5
DF
  8
0
 62
     7
 10
75.437370999999999
 20
145.82422700000001
 30
0.0
 40
28.051811000000001
 50
271.685542
 51
277.79822899999999
  0
ARC
  5
E0
  8
0
 62
     7
 10
77.650037999999995
 20
129.22305700000001
 30
0.0
 40
11.304102
 50
278.10397799999993
 51
280.16973499999989
  0
LINE
  5
E1
  8
0
 62
     7
 10
79.103700000000003
 20
114.587
 30
0.0
 11
75.548999999999992
 21
114.587
 31
0.0
  0
LINE
  5
E2
  8
0
 62
     7
 10
79.365499999999997
 20
117.693
 30
0.0
 11
79.103700000000003
 21
114.587
 31
0.0
  0
ARC
  5
E3
  8
0
 62
     7
 10
79.853402000000003
 20
117.6537839999999
 30
0.0
 40
0.489447
 50
99.978677000000019
 51
175.42957799999991
  0
ARC
  5
E4
  8
0
 62
     7
 10
78.945892999999984
 20
130.48536699999991
 30
0.0
 40
12.37691199999999
 50
273.811286
 51
275.31966599999998
  0
ARC
  5
E5
  8
0
 62
     7
 10
78.103887
 20
139.52191499999989
 30
0.0
 40
21.452604000000001
 50
275.32121699999988
 51
278.15213
  0
ARC
  5
E6
  8
0
 62
     7
 10
75.924265000000005
 20
155.644508
 30
0.0
 40
37.721572999999992
 50
277.956774
 51
283.21789899999999
  0
ARC
  5
E7
  8
0
 62
     7
 10
80.609431999999998
 20
135.40748600000001
 30
0.0
 40
16.949522000000002
 50
283.44184399999989
 51
286.18100099999992
  0
ARC
  5
E8
  8
0
 62
     7
 10
81.492192000000003
 20
135.809372
 30
0.0
 40
17.116417999999989
 50
282.96651700000001
 51
285.74925200000001
  0
ARC
  5
E9
  8
0
 62
     7
 10
77.523854
 20
150.276669
 30
0.0
 40
32.117891999999998
 50
285.55754399999989
 51
287.939595
  0
ARC
  5
EA
  8
0
 62
     7
 10
72.520420000000001
 20
166.049104
 30
0.0
 40
48.664726999999999
 50
287.82426700000002
 51
292.4995649999999
  0
ARC
  5
EB
  8
0
 62
     7
 10
80.026881000000003
 20
147.80600699999991
 30
0.0
 40
28.937740999999988
 50
292.590868
 51
294.9883779999999
  0
ARC
  5
EC
  8
0
 62
     7
 10
85.341678999999985
 20
136.30465799999999
 30
0.0
 40
16.267892
 50
295.13371699999999
 51
296.71945499999993
  0
ARC
  5
ED
  8
0
 62
     7
 10
92.857274000000004
 20
121.406175
 30
0.0
 40
0.4039050000000001
 50
39.472085
 51
78.849160000000012
  0
ARC
  5
EE
  8
0
 62
     7
 10
92.838199000000003
 20
121.37322999999989
 30
0.0
 40
0.4400890000000001
 50
77.241934000000001
 51
114.44462900000001
  0
ARC
  5
EF
  8
0
 62
     7
 10
93.040694999999999
 20
121.4103759999999
 30
0.0
 40
0.236895
 50
0.42515
 51
10.644011000000001
  0
ARC
  5
F0
  8
0
 62
     7
 10
92.862223
 20
121.3789189999999
 30
0.0
 40
0.418111
 50
10.363158
 51
42.788206999999993
  0
ARC
  5
F1
  8
0
 62
     7
 10
92.911438999999987
 20
121.573812
 30
0.0
 40
0.5098380000000001
 50
336.95545399999997
 51
344.06379900000002
  0
ARC
  5
F2
  8
0
 62
     7
 10
92.367071999999993
 20
121.73825600000001
 30
0.0
 40
1.07847
 50
343.60373799999991
 51
1.0502199999999999
  0
ARC
  5
F3
  8
0
 62
     7
 10
77.722577999999999
 20
122.0583729999999
 30
0.0
 40
15.725650999999999
 50
358.90562099999988
 51
0.156392
  0
ARC
  5
F4
  8
0
 62
     7
 10
54.861395000000002
 20
122.0842669999999
 30
0.0
 40
38.586778999999993
 50
0.025287
 51
2.234518
  0
LINE
  5
F5
  8
0
 62
     7
 10
95.971999999999994
 20
123.5889999999999
 30
0.0
 11
95.971999999999994
 21
115.087
 31
0.0
  0
LINE
  5
F6
  8
0
 62
     7
 10
90.721999999999994
 20
115.6959999999999
 30
0.0
 11
86.410799999999995
 21
119.42
 31
0.0
  0
ARC
  5
F7
  8
0
 62
     7
 10
91.792151000000004
 20
116.814517
 30
0.0
 40
1.5480059999999991
 50
226.26596399999991
 51
236.07450299999991
  0
ARC
  5
F8
  8
0
 62
     7
 10
92.272281999999976
 20
117.498862
 30
0.0
 40
2.383877
 50
235.67906899999991
 51
248.6447269999999
  0
ARC
  5
F9
  8
0
 62
     7
 10
92.472064000000003
 20
117.9216649999999
 30
0.0
 40
2.8505820000000002
 50
247.99948499999999
 51
263.195719
  0
ARC
  5
FA
  8
0
 62
     7
 10
92.336192999999994
 20
116.9236249999999
 30
0.0
 40
1.843548
 50
263.71375699999987
 51
275.17359599999992
  0
LINE
  5
FB
  8
0
 62
     7
 10
95.960300000000004
 20
115.08799999999989
 30
0.0
 11
92.502399999999994
 21
115.08799999999989
 31
0.0
  0
ARC
  5
FC
  8
0
 62
     7
 10
95.967516000000003
 20
115.61295699999999
 30
0.0
 40
0.525419
 50
269.21266200000002
 51
353.41222999999991
  0
LINE
  5
FD
  8
0
 62
     7
 10
96.921499999999995
 20
121.73
 30
0.0
 11
96.489500000000007
 21
115.5529999999999
 31
0.0
  0
ARC
  5
FE
  8
0
 62
     7
 10
98.882840999999985
 20
121.66937299999999
 30
0.0
 40
1.917122999999999
 50
94.268096000000014
 51
133.23132699999991
  0
ARC
  5
FF
  8
0
 62
     7
 10
98.946460000000016
 20
121.573404
 30
0.0
 40
2.0307140000000001
 50
132.6844889999999
 51
175.56420499999999
  0
LINE
  5
100
  8
0
 62
     7
 10
154.47499999999999
 20
118.124
 30
0.0
 11
149.8239999999999
 21
118.124
 31
0.0
  0
LINE
  5
101
  8
0
 62
     7
 10
174.03099999999989
 20
123.5889999999999
 30
0.0
 11
122.869
 21
123.5889999999999
 31
0.0
  0
LINE
  5
102
  8
0
 62
     7
 10
106.3209999999999
 20
123.5889999999999
 30
0.0
 11
75.544499999999999
 21
123.5889999999999
 31
0.0
  0
ARC
  5
103
  8
0
 62
     7
 10
93.664970999999994
 20
129.17035799999999
 30
0.0
 40
13.831721
 50
336.20369399999993
 51
339.305542
  0
ARC
  5
104
  8
0
 62
     7
 10
80.441935999999984
 20
134.2957419999999
 30
0.0
 40
28.013078
 50
339.05627700000002
 51
341.6372629999999
  0
ARC
  5
105
  8
0
 62
     7
 10
70.591853999999998
 20
137.671988
 30
0.0
 40
38.42536299999999
 50
341.48630299999991
 51
345.60704299999998
  0
ARC
  5
106
  8
0
 62
     7
 10
89.503934999999998
 20
132.7600679999999
 30
0.0
 40
18.885987
 50
345.77924399999989
 51
348.990298
  0
ARC
  5
107
  8
0
 62
     7
 10
107.23813699999999
 20
129.28041099999999
 30
0.0
 40
0.814384
 50
350.92309999999992
 51
76.763052000000002
  0
ARC
  5
108
  8
0
 62
     7
 10
107.3238429999999
 20
129.63642200000001
 30
0.0
 40
0.448212
 50
77.007318999999995
 51
84.454715000000007
  0
ARC
  5
109
  8
0
 62
     7
 10
107.27393499999999
 20
129.3340729999999
 30
0.0
 40
0.7542450000000001
 50
82.900457999999986
 51
89.885722999999984
  0
LINE
  5
10A
  8
0
 62
     7
 10
75.548999999999992
 20
130.08799999999999
 30
0.0
 11
107.27500000000001
 21
130.08799999999999
 31
0.0
  0
ARC
  5
10B
  8
0
 62
     7
 10
73.203481000000011
 20
127.7742439999999
 30
0.0
 40
9.8348320000000005
 50
259.74400000000003
 51
261.28340400000002
  0
ARC
  5
10C
  8
0
 62
     7
 10
74.540160999999998
 20
136.55396999999999
 30
0.0
 40
18.715724999999999
 50
261.31188199999991
 51
264.41652699999992
  0
ARC
  5
10D
  8
0
 62
     7
 10
75.744982999999991
 20
147.4533209999999
 30
0.0
 40
29.680911999999989
 50
264.14889299999999
 51
268.83478599999989
  0
ARC
  5
10E
  8
0
 62
     7
 10
75.278369999999995
 20
128.97658799999999
 30
0.0
 40
11.198878999999989
 50
269.29924699999998
 51
271.38479399999989
  0
LINE
  5
10F
  8
0
 62
     7
 10
71.994699999999995
 20
114.587
 30
0.0
 11
75.548999999999992
 21
114.587
 31
0.0
  0
LINE
  5
110
  8
0
 62
     7
 10
71.732900000000001
 20
117.693
 30
0.0
 11
71.994699999999995
 21
114.587
 31
0.0
  0
ARC
  5
111
  8
0
 62
     7
 10
71.244437000000005
 20
117.65337199999991
 30
0.0
 40
0.490004
 50
4.6134829999999996
 51
79.929450000000003
  0
ARC
  5
112
  8
0
 62
     7
 10
69.253679000000005
 20
130.95147299999991
 30
0.0
 40
12.325923
 50
253.561271
 51
255.0762509999999
  0
ARC
  5
113
  8
0
 62
     7
 10
71.611735999999993
 20
139.79682600000001
 30
0.0
 40
21.480194999999998
 50
255.07480099999989
 51
257.90242799999999
  0
ARC
  5
114
  8
0
 62
     7
 10
75.138300000000001
 20
155.636729
 30
0.0
 40
37.707633999999999
 50
257.70708100000002
 51
262.97022500000003
  0
ARC
  5
115
  8
0
 62
     7
 10
72.530535999999998
 20
135.03500700000001
 30
0.0
 40
16.941762000000001
 50
263.19618199999991
 51
265.93688700000001
  0
ARC
  5
116
  8
0
 62
     7
 10
66.125566000000006
 20
137.0177789999999
 30
0.0
 40
17.070723999999991
 50
243.25084299999989
 51
246.04169099999999
  0
ARC
  5
117
  8
0
 62
     7
 10
72.320391999999998
 20
150.68959399999989
 30
0.0
 40
32.080320999999998
 50
245.84639799999991
 51
248.23155199999999
  0
ARC
  5
118
  8
0
 62
     7
 10
78.56032900000001
 20
166.05055999999999
 30
0.0
 40
48.660120999999997
 50
248.11586399999999
 51
252.79154399999999
  0
ARC
  5
119
  8
0
 62
     7
 10
72.68910799999999
 20
147.2484429999999
 30
0.0
 40
28.962727000000001
 50
252.88215299999999
 51
255.27719200000001
  0
ARC
  5
11A
  8
0
 62
     7
 10
69.430161999999996
 20
135.008591
 30
0.0
 40
16.296564
 50
255.42228700000001
 51
257.00482199999999
  0
ARC
  5
11B
  8
0
 62
     7
 10
58.264604000000013
 20
121.41237700000001
 30
0.0
 40
0.402799
 50
63.825558999999991
 51
103.327392
  0
ARC
  5
11C
  8
0
 62
     7
 10
58.26118499999999
 20
121.371595
 30
0.0
 40
0.441878
 50
101.676907
 51
138.75123500000001
  0
ARC
  5
11D
  8
0
 62
     7
 10
58.08886600000001
 20
121.4944669999999
 30
0.0
 40
0.232278
 50
133.50631100000001
 51
143.95443899999989
  0
ARC
  5
11E
  8
0
 62
     7
 10
58.235478000000001
 20
121.3850019999999
 30
0.0
 40
0.41524
 50
143.64566999999991
 51
176.25358499999999
  0
ARC
  5
11F
  8
0
 62
     7
 10
58.168969999999987
 20
121.72327799999999
 30
0.0
 40
0.5171350000000001
 50
176.14752899999991
 51
182.82899399999999
  0
ARC
  5
120
  8
0
 62
     7
 10
58.727164999999999
 20
121.745272
 30
0.0
 40
1.0757490000000001
 50
182.5316599999999
 51
200.17623
  0
ARC
  5
121
  8
0
 62
     7
 10
73.586417999999995
 20
122.8217139999999
 30
0.0
 40
15.925368999999989
 50
177.23926399999991
 51
178.4751709999999
  0
ARC
  5
122
  8
0
 62
     7
 10
95.343828000000016
 20
122.1550889999999
 30
0.0
 40
37.692914999999999
 50
178.34227300000001
 51
180.60359700000001
  0
LINE
  5
123
  8
0
 62
     7
 10
55.126699999999992
 20
123.5889999999999
 30
0.0
 11
55.126699999999992
 21
115.087
 31
0.0
  0
LINE
  5
124
  8
0
 62
     7
 10
60.376000000000012
 20
115.6959999999999
 30
0.0
 11
64.687200000000004
 21
119.42
 31
0.0
  0
ARC
  5
125
  8
0
 62
     7
 10
58.757358000000004
 20
116.6298909999999
 30
0.0
 40
1.5506919999999991
 50
264.03755399999989
 51
273.827178
  0
ARC
  5
126
  8
0
 62
     7
 10
58.717945999999998
 20
117.4667669999999
 30
0.0
 40
2.3883899999999998
 50
273.43050099999988
 51
286.370249
  0
ARC
  5
127
  8
0
 62
     7
 10
58.619544999999988
 20
117.9157749999999
 30
0.0
 40
2.8471109999999991
 50
285.7235
 51
300.9326299999999
  0
ARC
  5
128
  8
0
 62
     7
 10
59.126086999999991
 20
117.038479
 30
0.0
 40
1.8342869999999989
 50
301.44673499999988
 51
312.95549199999988
  0
LINE
  5
129
  8
0
 62
     7
 10
55.138399999999997
 20
115.08799999999989
 30
0.0
 11
58.596299999999999
 21
115.08799999999989
 31
0.0
  0
ARC
  5
12A
  8
0
 62
     7
 10
55.130970999999988
 20
115.6130909999999
 30
0.0
 40
0.525556
 50
186.6007459999999
 51
270.81138199999992
  0
LINE
  5
12B
  8
0
 62
     7
 10
54.608899999999998
 20
115.5529999999999
 30
0.0
 11
54.176900000000003
 21
121.73
 31
0.0
  0
ARC
  5
12C
  8
0
 62
     7
 10
52.262805
 20
121.62123699999999
 30
0.0
 40
1.9171899999999999
 50
3.2660139999999989
 51
42.220663000000002
  0
ARC
  5
12D
  8
0
 62
     7
 10
52.165129
 20
121.558902
 30
0.0
 40
2.0315059999999998
 50
41.671407000000002
 51
84.536620999999997
  0
LINE
  5
12E
  8
0
 62
     7
 10
44.777599999999993
 20
123.5889999999999
 30
0.0
 11
75.553799999999995
 21
123.5889999999999
 31
0.0
  0
ARC
  5
12F
  8
0
 62
     7
 10
56.628606000000012
 20
131.689966
 30
0.0
 40
13.807235999999991
 50
190.58648500000001
 51
193.69476
  0
ARC
  5
130
  8
0
 62
     7
 10
70.440415999999985
 20
134.92764600000001
 30
0.0
 40
27.993181
 50
193.44035199999999
 51
196.02352300000001
  0
ARC
  5
131
  8
0
 62
     7
 10
80.543385999999984
 20
137.72318599999991
 30
0.0
 40
38.475428000000001
 50
195.8719119999999
 51
199.98703699999999
  0
ARC
  5
132
  8
0
 62
     7
 10
61.92874599999999
 20
131.0057699999999
 30
0.0
 40
18.685950999999999
 50
200.13971299999989
 51
203.38410300000001
  0
ARC
  5
133
  8
0
 62
     7
 10
43.856008000000003
 20
129.27445900000001
 30
0.0
 40
0.814516
 50
92.303550000000016
 51
178.149349
  0
ARC
  5
134
  8
0
 62
     7
 10
43.503962000000001
 20
129.289501
 30
0.0
 40
0.462182
 50
178.60364300000001
 51
185.949682
  0
ARC
  5
135
  8
0
 62
     7
 10
43.792045000000002
 20
129.29700399999999
 30
0.0
 40
0.7498260000000001
 50
184.23794399999991
 51
191.15547599999991
  0
LINE
  5
136
  8
0
 62
     7
 10
75.548999999999992
 20
130.08799999999999
 30
0.0
 11
43.823300000000003
 21
130.08799999999999
 31
0.0
  0
ARC
  5
137
  8
0
 62
     7
 10
101.3322889999999
 20
183.992637
 30
0.0
 40
4.406070999999999
 50
253.1132209999999
 51
255.44969599999999
  0
ARC
  5
138
  8
0
 62
     7
 10
102.509039
 20
188.45629700000001
 30
0.0
 40
9.022221
 50
255.33790899999991
 51
257.44470499999989
  0
ARC
  5
139
  8
0
 62
     7
 10
103.373098
 20
192.2638729999999
 30
0.0
 40
12.926586
 50
257.37512500000003
 51
261.06987299999992
  0
ARC
  5
13A
  8
0
 62
     7
 10
102.31198599999991
 20
185.47895
 30
0.0
 40
6.0591919999999986
 50
261.02283399999988
 51
264.293542
  0
ARC
  5
13B
  8
0
 62
     7
 10
102.16075600000001
 20
182.48560699999999
 30
0.0
 40
3.0691759999999988
 50
261.54540600000001
 51
264.35796299999998
  0
ARC
  5
13C
  8
0
 62
     7
 10
102.44578199999989
 20
185.39970400000001
 30
0.0
 40
5.997177999999999
 50
264.38517999999988
 51
269.86023999999992
  0
ARC
  5
13D
  8
0
 62
     7
 10
102.525243
 20
187.78545399999999
 30
0.0
 40
8.3834379999999982
 50
269.356944
 51
276.13730199999992
  0
ARC
  5
13E
  8
0
 62
     7
 10
103.02225899999991
 20
182.80048600000001
 30
0.0
 40
3.3741269999999992
 50
276.79586
 51
280.04059000000001
  0
ARC
  5
13F
  8
0
 62
     7
 10
103.4227189999999
 20
182.6454489999999
 30
0.0
 40
3.172976999999999
 50
273.39326399999987
 51
284.19253399999991
  0
ARC
  5
140
  8
0
 62
     7
 10
103.050207
 20
184.3179649999999
 30
0.0
 40
4.8860209999999986
 50
283.61877599999991
 51
295.39382299999988
  0
ARC
  5
141
  8
0
 62
     7
 10
102.70762499999989
 20
185.16595399999991
 30
0.0
 40
5.799243999999999
 50
294.85865200000001
 51
310.053449
  0
ARC
  5
142
  8
0
 62
     7
 10
103.95611099999989
 20
183.62552799999989
 30
0.0
 40
3.816895999999999
 50
310.58814999999993
 51
322.28980899999999
  0
ARC
  5
143
  8
0
 62
     7
 10
104.9705679999999
 20
183.03303700000001
 30
0.0
 40
2.6562770000000002
 50
319.01409100000001
 51
326.20651600000002
  0
ARC
  5
144
  8
0
 62
     7
 10
103.5942279999999
 20
183.98055500000001
 30
0.0
 40
4.3271470000000001
 50
325.91639600000002
 51
335.56133899999998
  0
ARC
  5
145
  8
0
 62
     7
 10
102.37545900000001
 20
184.59479899999991
 30
0.0
 40
5.6911100000000001
 50
335.007789
 51
348.83259299999997
  0
ARC
  5
146
  8
0
 62
     7
 10
104.656019
 20
184.11098599999991
 30
0.0
 40
3.3601899999999998
 50
349.39464600000002
 51
358.53197399999999
  0
ARC
  5
147
  8
0
 62
     7
 10
104.13895599999999
 20
184.44382300000001
 30
0.0
 40
3.8987229999999999
 50
353.83159000000001
 51
356.23969199999988
  0
ARC
  5
148
  8
0
 62
     7
 10
99.293739000000016
 20
184.8035659999999
 30
0.0
 40
8.7571979999999972
 50
355.97008899999997
 51
359.96348299999988
  0
LINE
  5
149
  8
0
 62
     7
 10
108.051
 20
235.4499999999999
 30
0.0
 11
108.051
 21
184.79799999999989
 31
0.0
  0
LINE
  5
14A
  8
0
  6
AIGENLINE003
 62
     7
 10
71.492000000000004
 20
228.4499999999999
 30
0.0
 11
79.801000000000002
 21
228.4499999999999
 31
0.0
  0
LINE
  5
14B
  8
0
  6
AIGENLINE003
 62
     7
 10
170.7649999999999
 20
125.0929999999999
 30
0.0
 11
176.60299999999989
 21
125.0929999999999
 31
0.0
  0
LINE
  5
14C
  8
0
  6
AIGENLINE003
 62
     7
 10
86.456599999999995
 20
125.0929999999999
 30
0.0
 11
92.294700000000006
 21
125.0929999999999
 31
0.0
  0
LINE
  5
14D
  8
0
  6
AIGENLINE003
 62
     7
 10
58.456400000000002
 20
125.0929999999999
 30
0.0
 11
64.294799999999995
 21
125.0929999999999
 31
0.0
  0
LINE
  5
14E
  8
0
  6
AIGENLINE003
 62
     7
 10
158.2649999999999
 20
126.38799999999991
 30
0.0
 11
164.10400000000001
 21
126.38799999999991
 31
0.0
  0
LINE
  5
14F
  8
0
  6
AIGENLINE003
 62
     7
 10
72.510400000000004
 20
126.38799999999991
 30
0.0
 11
78.3489
 21
126.38799999999991
 31
0.0
  0
LINE
  5
150
  8
0
 62
     7
 10
61.5505
 20
137.22499999999991
 30
0.0
 11
89.550299999999979
 21
137.22499999999991
 31
0.0
  0
LINE
  5
151
  8
0
  6
AIGENLINE003
 62
     7
 10
69.375399999999999
 20
215.44999999999999
 30
0.0
 11
81.741299999999995
 21
215.44999999999999
 31
0.0
  0
LINE
  5
152
  8
0
 62
     7
 10
75.548999999999992
 20
235.4499999999999
 30
0.0
 11
108.0479999999999
 21
235.4499999999999
 31
0.0
  0
ARC
  5
153
  8
0
 62
     7
 10
52.914243999999997
 20
184.278571
 30
0.0
 40
0.571974
 50
224.40996699999999
 51
240.47828199999989
  0
ARC
  5
154
  8
0
 62
     7
 10
53.102960000000003
 20
184.57705100000001
 30
0.0
 40
0.9248509999999999
 50
239.41657299999989
 51
266.52112699999992
  0
ARC
  5
155
  8
0
 62
     7
 10
53.073822
 20
184.22329500000001
 30
0.0
 40
0.5700300000000002
 50
267.28681
 51
276.97058700000002
  0
ARC
  5
156
  8
0
 62
     7
 10
52.788060999999999
 20
184.64266399999991
 30
0.0
 40
0.702807
 50
199.9382829999999
 51
205.79324800000001
  0
ARC
  5
157
  8
0
 62
     7
 10
53.456481999999987
 20
184.967985
 30
0.0
 40
1.4461889999999991
 50
205.874968
 51
228.89272399999999
  0
ARC
  5
158
  8
0
 62
     7
 10
53.675257999999992
 20
185.93417600000001
 30
0.0
 40
1.863402999999999
 50
176.91035099999991
 51
180.69096499999989
  0
ARC
  5
159
  8
0
 62
     7
 10
55.092877999999999
 20
185.95155399999999
 30
0.0
 40
3.2811289999999991
 50
180.695887
 51
187.94987800000001
  0
ARC
  5
15A
  8
0
 62
     7
 10
56.579875999999999
 20
186.11442500000001
 30
0.0
 40
4.7765690000000003
 50
187.41782000000001
 51
199.12246999999999
  0
ARC
  5
15B
  8
0
 62
     7
 10
54.003009999999989
 20
185.26252999999991
 30
0.0
 40
2.063194999999999
 50
200.21288199999989
 51
204.62016600000001
  0
ARC
  5
15C
  8
0
 62
     7
 10
-811.93662900000004
 20
149.419118
 30
0.0
 40
864.52693199999999
 50
2.4273859999999998
 51
2.6868470000000002
  0
ARC
  5
15D
  8
0
 62
     7
 10
261.93846999999988
 20
210.77400600000001
 30
0.0
 40
210.47928300000001
 50
178.32663600000001
 51
179.150701
  0
ARC
  5
15E
  8
0
 62
     7
 10
476.99657999999999
 20
207.085802
 30
0.0
 40
425.56872900000002
 50
179.08336199999999
 51
179.7395479999999
  0
ARC
  5
15F
  8
0
 62
     7
 10
694.30612699999995
 20
205.6832379999999
 30
0.0
 40
642.88254099999995
 50
179.70258000000001
 51
180.98927800000001
  0
ARC
  5
160
  8
0
 62
     7
 10
348.04439100000002
 20
199.966082
 30
0.0
 40
296.57382399999989
 50
181.039872
 51
181.93625299999999
  0
LINE
  5
161
  8
0
 62
     7
 10
51.6678
 20
218.32199999999989
 30
0.0
 11
51.548900000000003
 21
216.91999999999999
 31
0.0
  0
ARC
  5
162
  8
0
 62
     7
 10
55.284399000000001
 20
218.821597
 30
0.0
 40
3.0923029999999989
 50
126.83963
 51
137.23833400000001
  0
ARC
  5
163
  8
0
 62
     7
 10
56.729123000000001
 20
217.41299699999999
 30
0.0
 40
5.1096430000000002
 50
136.64092099999999
 51
148.82915499999999
  0
ARC
  5
164
  8
0
 62
     7
 10
57.331092000000012
 20
216.97567100000001
 30
0.0
 40
5.8513960000000003
 50
148.21603300000001
 51
159.28028399999999
  0
ARC
  5
165
  8
0
 62
     7
 10
55.409224999999999
 20
217.72534899999999
 30
0.0
 40
3.7886559999999991
 50
159.601517
 51
170.94323199999999
  0
LINE
  5
166
  8
0
 62
     7
 10
57.732599999999998
 20
222.41699999999989
 30
0.0
 11
58.841900000000003
 21
222.4609999999999
 31
0.0
  0
LINE
  5
167
  8
0
 62
     7
 10
56.623899999999999
 20
222.37299999999991
 30
0.0
 11
57.732599999999998
 21
222.41699999999989
 31
0.0
  0
ARC
  5
168
  8
0
 62
     7
 10
56.674154999999999
 20
219.028085
 30
0.0
 40
3.3456529999999991
 50
90.859852000000004
 51
97.357947999999993
  0
ARC
  5
169
  8
0
 62
     7
 10
56.943548
 20
216.71464700000001
 30
0.0
 40
5.6746169999999987
 50
97.064097000000004
 51
105.5248229999999
  0
ARC
  5
16A
  8
0
 62
     7
 10
57.385502999999993
 20
214.87126799999999
 30
0.0
 40
7.5693330000000003
 50
105.0134149999999
 51
116.99864700000001
  0
ARC
  5
16B
  8
0
 62
     7
 10
55.930818999999993
 20
217.81337199999999
 30
0.0
 40
4.287666999999999
 50
117.5261909999999
 51
125.6747249999999
  0
LINE
  5
16C
  8
0
 62
     7
 10
75.541799999999995
 20
222.43100000000001
 30
0.0
 11
58.841900000000003
 21
222.4609999999999
 31
0.0
  0
ARC
  5
16D
  8
0
 62
     7
 10
98.028103999999999
 20
184.2416769999999
 30
0.0
 40
0.5887090000000002
 50
262.90242000000001
 51
278.55924499999998
  0
ARC
  5
16E
  8
0
 62
     7
 10
97.992166000000012
 20
184.57688599999989
 30
0.0
 40
0.9256450000000001
 50
277.67084399999987
 51
304.73462499999988
  0
ARC
  5
16F
  8
0
 62
     7
 10
98.190796000000006
 20
184.27514500000001
 30
0.0
 40
0.5645670000000002
 50
305.61666600000001
 51
315.33982300000002
  0
ARC
  5
170
  8
0
 62
     7
 10
98.170665000000014
 20
184.41227399999991
 30
0.0
 40
0.680403
 50
308.30018799999988
 51
314.37276299999991
  0
ARC
  5
171
  8
0
 62
     7
 10
97.633921999999998
 20
184.9625659999999
 30
0.0
 40
1.449112
 50
314.32665900000001
 51
337.28531299999997
  0
ARC
  5
172
  8
0
 62
     7
 10
97.274896999999996
 20
185.18701899999991
 30
0.0
 40
1.868214
 50
335.18682499999989
 51
338.96105399999999
  0
ARC
  5
173
  8
0
 62
     7
 10
95.953423000000001
 20
185.69448799999989
 30
0.0
 40
3.2837769999999988
 50
338.97454299999998
 51
346.225976
  0
ARC
  5
174
  8
0
 62
     7
 10
94.529282999999992
 20
186.088807
 30
0.0
 40
4.76105
 50
345.69763999999992
 51
357.4390029999999
  0
ARC
  5
175
  8
0
 62
     7
 10
97.243741999999983
 20
185.9280389999999
 30
0.0
 40
2.042497
 50
358.54201399999999
 51
2.990866
  0
ARC
  5
176
  8
0
 62
     7
 10
1104.346
 20
143.10817
 30
0.0
 40
1005.978999999999
 50
177.33137400000001
 51
177.55435199999999
  0
ARC
  5
177
  8
0
 62
     7
 10
-111.04230200000001
 20
197.52170100000001
 30
0.0
 40
210.63671400000001
 50
357.93878399999988
 51
358.76224699999989
  0
ARC
  5
178
  8
0
 62
     7
 10
-325.14385699999991
 20
202.6409249999999
 30
0.0
 40
424.79917999999992
 50
358.69572799999997
 51
359.35310900000002
  0
ARC
  5
179
  8
0
 62
     7
 10
-542.86375599999985
 20
205.51975499999989
 30
0.0
 40
642.53784199999996
 50
359.315607
 51
0.602953
  0
ARC
  5
17A
  8
0
 62
     7
 10
-197.58371699999989
 20
208.89358599999991
 30
0.0
 40
297.24153199999989
 50
0.653041
 51
1.547396
  0
LINE
  5
17B
  8
0
 62
     7
 10
99.430199999999999
 20
218.32199999999989
 30
0.0
 11
99.549400000000006
 21
216.91999999999999
 31
0.0
  0
ARC
  5
17C
  8
0
 62
     7
 10
96.412823000000003
 20
217.898189
 30
0.0
 40
3.046975999999999
 50
7.990232999999999
 51
18.502065999999989
  0
ARC
  5
17D
  8
0
 62
     7
 10
94.638423000000003
 20
217.36258900000001
 30
0.0
 40
4.8999379999999988
 50
17.856939999999991
 51
27.107544999999998
  0
ARC
  5
17E
  8
0
 62
     7
 10
93.706638999999996
 20
216.92957499999989
 30
0.0
 40
5.926806
 50
26.729258000000002
 51
40.505980999999998
  0
ARC
  5
17F
  8
0
 62
     7
 10
95.319131999999996
 20
218.274181
 30
0.0
 40
3.827488999999999
 50
40.880285000000001
 51
52.149415999999988
  0
LINE
  5
180
  8
0
 62
     7
 10
93.365399999999994
 20
222.41699999999989
 30
0.0
 11
92.256100000000004
 21
222.4609999999999
 31
0.0
  0
LINE
  5
181
  8
0
 62
     7
 10
94.474800000000002
 20
222.37299999999991
 30
0.0
 11
93.365399999999994
 21
222.41699999999989
 31
0.0
  0
ARC
  5
182
  8
0
 62
     7
 10
95.674751999999998
 20
218.59646799999999
 30
0.0
 40
3.3558249999999989
 50
53.567439
 51
60.029330999999999
  0
ARC
  5
183
  8
0
 62
     7
 10
94.509309999999999
 20
216.62769800000001
 30
0.0
 40
5.643597999999999
 50
59.764462000000009
 51
68.259692999999999
  0
ARC
  5
184
  8
0
 62
     7
 10
93.731994999999998
 20
214.86416500000001
 30
0.0
 40
7.5699249999999987
 50
67.738849000000002
 51
79.725647999999993
  0
ARC
  5
185
  8
0
 62
     7
 10
94.350920000000002
 20
218.06146499999991
 30
0.0
 40
4.313674999999999
 50
80.240021999999996
 51
88.354861
  0
LINE
  5
186
  8
0
 62
     7
 10
75.556200000000004
 20
222.43100000000001
 30
0.0
 11
92.256100000000004
 21
222.4609999999999
 31
0.0
  0
ARC
  5
187
  8
0
 62
     7
 10
48.966509000000002
 20
183.90440100000001
 30
0.0
 40
4.4745609999999996
 50
275.41171099999991
 51
277.71231599999987
  0
ARC
  5
188
  8
0
 62
     7
 10
48.381878999999998
 20
188.312973
 30
0.0
 40
8.9217200000000005
 50
277.63342599999999
 51
279.76391299999989
  0
ARC
  5
189
  8
0
 62
     7
 10
47.723168999999992
 20
192.23552900000001
 30
0.0
 40
12.89917599999999
 50
279.692612
 51
283.39523500000001
  0
ARC
  5
18A
  8
0
 62
     7
 10
49.295338999999998
 20
185.65696399999999
 30
0.0
 40
6.135364
 50
283.34514100000001
 51
286.57538399999987
  0
ARC
  5
18B
  8
0
 62
     7
 10
48.025587000000002
 20
182.48400499999991
 30
0.0
 40
3.0537519999999998
 50
259.85114599999991
 51
262.67772200000002
  0
ARC
  5
18C
  8
0
 62
     7
 10
48.402934999999999
 20
185.4352419999999
 30
0.0
 40
6.0290140000000001
 50
262.69545099999999
 51
268.1407529999999
  0
ARC
  5
18D
  8
0
 62
     7
 10
48.551291999999997
 20
187.77822399999991
 30
0.0
 40
8.3758879999999998
 50
267.64643299999989
 51
274.43285900000001
  0
ARC
  5
18E
  8
0
 62
     7
 10
48.90153699999999
 20
182.762282
 30
0.0
 40
3.3481010000000002
 50
275.09151800000001
 51
278.36323799999991
  0
ARC
  5
18F
  8
0
 62
     7
 10
46.670628999999998
 20
183.19661899999991
 30
0.0
 40
3.181843999999999
 50
216.794704
 51
227.56943099999989
  0
ARC
  5
190
  8
0
 62
     7
 10
47.859749000000001
 20
184.4257969999999
 30
0.0
 40
4.891629
 50
227.00295600000001
 51
238.76730099999989
  0
ARC
  5
191
  8
0
 62
     7
 10
48.375796000000001
 20
185.172616
 30
0.0
 40
5.7980400000000003
 50
238.23349099999999
 51
253.42821499999999
  0
ARC
  5
192
  8
0
 62
     7
 10
47.775100999999992
 20
183.28140699999989
 30
0.0
 40
3.8142299999999998
 50
253.974099
 51
265.67562199999998
  0
ARC
  5
193
  8
0
 62
     7
 10
45.758172999999992
 20
184.05900800000001
 30
0.0
 40
2.672000999999999
 50
180.67969599999989
 51
187.83426700000001
  0
ARC
  5
194
  8
0
 62
     7
 10
47.406528000000002
 20
184.26442700000001
 30
0.0
 40
4.3330239999999991
 50
187.55416700000001
 51
197.18955600000001
  0
ARC
  5
195
  8
0
 62
     7
 10
48.718043000000002
 20
184.61242899999991
 30
0.0
 40
5.6890710000000002
 50
196.63423499999999
 51
210.46230299999991
  0
ARC
  5
196
  8
0
 62
     7
 10
46.687725999999991
 20
183.45688000000001
 30
0.0
 40
3.3533469999999999
 50
211.030799
 51
220.18143800000001
  0
ARC
  5
197
  8
0
 62
     7
 10
46.82591699999999
 20
184.74100899999999
 30
0.0
 40
3.7761979999999999
 50
179.09886599999999
 51
181.677842
  0
ARC
  5
198
  8
0
 62
     7
 10
51.666142999999991
 20
184.82809299999991
 30
0.0
 40
8.6170729999999995
 50
181.31431900000001
 51
185.3321839999999
  0
LINE
  5
199
  8
0
 62
     7
 10
89.550299999999979
 20
137.92500000000001
 30
0.0
 11
89.550299999999979
 21
127.886
 31
0.0
  0
LINE
  5
19A
  8
0
  6
AIGENLINE003
 62
     7
 10
167.03099999999989
 20
132.49899999999991
 30
0.0
 11
167.03099999999989
 21
128.09
 31
0.0
  0
LINE
  5
19B
  8
0
  6
AIGENLINE003
 62
     7
 10
89.550299999999979
 20
238.65299999999999
 30
0.0
 11
89.550299999999979
 21
232.494
 31
0.0
  0
LINE
  5
19C
  8
0
  6
AIGENLINE003
 62
     7
 10
61.5505
 20
238.65299999999999
 30
0.0
 11
61.5505
 21
232.494
 31
0.0
  0
LINE
  5
19D
  8
0
  6
AIGENLINE003
 62
     7
 10
89.550299999999979
 20
127.185
 30
0.0
 11
89.550299999999979
 21
122.776
 31
0.0
  0
LINE
  5
19E
  8
0
 62
     7
 10
61.5505
 20
137.92500000000001
 30
0.0
 11
61.5505
 21
127.886
 31
0.0
  0
LINE
  5
19F
  8
0
  6
AIGENLINE003
 62
     7
 10
61.5505
 20
127.185
 30
0.0
 11
61.5505
 21
122.776
 31
0.0
  0
LINE
  5
1A0
  8
0
  6
AIGENLINE003
 62
     7
 10
75.550399999999996
 20
132.07299999999989
 30
0.0
 11
75.550399999999996
 21
112.053
 31
0.0
  0
LINE
  5
1A1
  8
0
  6
AIGENLINE003
 62
     7
 10
75.550399999999996
 20
238.97800000000001
 30
0.0
 11
75.550399999999996
 21
179.51300000000001
 31
0.0
  0
LINE
  5
1A2
  8
0
 62
     7
 10
43.05019999999999
 20
235.4499999999999
 30
0.0
 11
43.05019999999999
 21
184.80000000000001
 31
0.0
  0
LINE
  5
1A3
  8
0
 62
     7
 10
75.548999999999992
 20
235.4499999999999
 30
0.0
 11
43.05019999999999
 21
235.4499999999999
 31
0.0
  0
LINE
  5
1A4
  8
0
 62
     7
 10
78.770200000000003
 20
226.0679999999999
 30
0.0
 11
76.787499999999994
 21
227.21299999999999
 31
0.0
  0
LINE
  5
1A5
  8
0
 62
     7
 10
76.787499999999994
 20
227.21299999999999
 30
0.0
 11
77.932299999999998
 21
225.2299999999999
 31
0.0
  0
LINE
  5
1A6
  8
0
 62
     7
 10
77.932299999999998
 20
225.2299999999999
 30
0.0
 11
78.770200000000003
 21
226.0679999999999
 31
0.0
  0
LINE
  5
1A7
  8
0
 62
     7
 10
72.329899999999995
 20
230.83199999999999
 30
0.0
 11
74.312899999999999
 21
229.68700000000001
 31
0.0
  0
LINE
  5
1A8
  8
0
 62
     7
 10
74.312899999999999
 20
229.68700000000001
 30
0.0
 11
73.167699999999996
 21
231.6699999999999
 31
0.0
  0
LINE
  5
1A9
  8
0
 62
     7
 10
73.167699999999996
 20
231.6699999999999
 30
0.0
 11
72.329899999999995
 21
230.83199999999999
 31
0.0
  0
LINE
  5
1AA
  8
0
 62
     7
 10
63.795000000000002
 20
240.20500000000001
 30
0.0
 11
79.402699999999996
 21
224.5979999999999
 31
0.0
  0
LINE
  5
1AB
  8
0
 62
     7
 10
63.795000000000002
 20
240.20500000000001
 30
0.0
 11
58.189799999999991
 21
240.20500000000001
 31
0.0
  0
LINE
  5
1AC
  8
0
 62
     7
 10
79.159099999999995
 20
212.679
 30
0.0
 11
77.176500000000004
 21
213.82400000000001
 31
0.0
  0
LINE
  5
1AD
  8
0
 62
     7
 10
77.176500000000004
 20
213.82400000000001
 30
0.0
 11
78.321299999999994
 21
211.84099999999989
 31
0.0
  0
LINE
  5
1AE
  8
0
 62
     7
 10
78.321299999999994
 20
211.84099999999989
 30
0.0
 11
79.159099999999995
 21
212.679
 31
0.0
  0
LINE
  5
1AF
  8
0
 62
     7
 10
71.940899999999999
 20
218.22099999999989
 30
0.0
 11
73.923900000000003
 21
217.07599999999999
 31
0.0
  0
LINE
  5
1B0
  8
0
 62
     7
 10
73.923900000000003
 20
217.07599999999999
 30
0.0
 11
72.7791
 21
219.059
 31
0.0
  0
LINE
  5
1B1
  8
0
 62
     7
 10
72.7791
 20
219.059
 30
0.0
 11
71.940899999999999
 21
218.22099999999989
 31
0.0
  0
LINE
  5
1B2
  8
0
 62
     7
 10
71.176500000000004
 20
219.82400000000001
 30
0.0
 11
81.872500000000002
 21
209.12700000000001
 31
0.0
  0
LINE
  5
1B3
  8
0
 62
     7
 10
81.872500000000002
 20
209.12700000000001
 30
0.0
 11
88.062700000000007
 21
209.12700000000001
 31
0.0
  0
LINE
  5
1B4
  8
0
 62
     7
 10
70.374399999999994
 20
228.4499999999999
 30
0.0
 11
36.448300000000003
 21
228.4499999999999
 31
0.0
  0
LINE
  5
1B5
  8
0
 62
     7
 10
54.100099999999991
 20
222.4499999999999
 30
0.0
 11
36.448300000000003
 21
222.4499999999999
 31
0.0
  0
LINE
  5
1B6
  8
0
 62
     7
 10
132.05099999999999
 20
179.44999999999999
 30
0.0
 11
106.864
 21
179.44999999999999
 31
0.0
  0
LINE
  5
1B7
  8
0
 62
     7
 10
130.7589999999999
 20
233.239
 30
0.0
 11
131.35099999999991
 21
235.45099999999991
 31
0.0
  0
LINE
  5
1B8
  8
0
 62
     7
 10
131.35099999999991
 20
235.45099999999991
 30
0.0
 11
131.9439999999999
 21
233.239
 31
0.0
  0
LINE
  5
1B9
  8
0
 62
     7
 10
131.9439999999999
 20
233.239
 30
0.0
 11
130.7589999999999
 21
233.239
 31
0.0
  0
LINE
  5
1BA
  8
0
 62
     7
 10
131.929
 20
181.66099999999989
 30
0.0
 11
131.33699999999999
 21
179.44900000000001
 31
0.0
  0
LINE
  5
1BB
  8
0
 62
     7
 10
131.33699999999999
 20
179.44900000000001
 30
0.0
 11
130.74399999999989
 21
181.66099999999989
 31
0.0
  0
LINE
  5
1BC
  8
0
 62
     7
 10
130.74399999999989
 20
181.66099999999989
 30
0.0
 11
131.929
 21
181.66099999999989
 31
0.0
  0
LINE
  5
1BD
  8
0
 62
     7
 10
131.34399999999991
 20
235.4499999999999
 30
0.0
 11
131.34399999999991
 21
179.44999999999999
 31
0.0
  0
LINE
  5
1BE
  8
0
 62
     7
 10
124.56100000000001
 20
183.44999999999999
 30
0.0
 11
83.493799999999993
 21
183.44999999999999
 31
0.0
  0
LINE
  5
1BF
  8
0
 62
     7
 10
132.05099999999999
 20
235.4499999999999
 30
0.0
 11
108.75099999999991
 21
235.4499999999999
 31
0.0
  0
LINE
  5
1C0
  8
0
 62
     7
 10
123.26899999999991
 20
233.239
 30
0.0
 11
123.8609999999999
 21
235.45099999999991
 31
0.0
  0
LINE
  5
1C1
  8
0
 62
     7
 10
123.8609999999999
 20
235.45099999999991
 30
0.0
 11
124.45399999999989
 21
233.239
 31
0.0
  0
LINE
  5
1C2
  8
0
 62
     7
 10
124.45399999999989
 20
233.239
 30
0.0
 11
123.26899999999991
 21
233.239
 31
0.0
  0
LINE
  5
1C3
  8
0
 62
     7
 10
124.43899999999989
 20
185.66
 30
0.0
 11
123.84699999999999
 21
183.44900000000001
 31
0.0
  0
LINE
  5
1C4
  8
0
 62
     7
 10
123.84699999999999
 20
183.44900000000001
 30
0.0
 11
123.25399999999991
 21
185.66
 31
0.0
  0
LINE
  5
1C5
  8
0
 62
     7
 10
123.25399999999991
 20
185.66
 30
0.0
 11
124.43899999999989
 21
185.66
 31
0.0
  0
LINE
  5
1C6
  8
0
 62
     7
 10
123.8539999999999
 20
235.4499999999999
 30
0.0
 11
123.8539999999999
 21
183.44999999999999
 31
0.0
  0
LINE
  5
1C7
  8
0
 62
     7
 10
117.06999999999989
 20
185.4499999999999
 30
0.0
 11
85.145399999999995
 21
185.4499999999999
 31
0.0
  0
LINE
  5
1C8
  8
0
 62
     7
 10
117.06999999999989
 20
222.4499999999999
 30
0.0
 11
96.720299999999995
 21
222.4499999999999
 31
0.0
  0
LINE
  5
1C9
  8
0
 62
     7
 10
115.77800000000001
 20
233.238
 30
0.0
 11
116.37
 21
235.4499999999999
 31
0.0
  0
LINE
  5
1CA
  8
0
 62
     7
 10
116.37
 20
235.4499999999999
 30
0.0
 11
116.96299999999989
 21
233.238
 31
0.0
  0
LINE
  5
1CB
  8
0
 62
     7
 10
116.96299999999989
 20
233.238
 30
0.0
 11
115.77800000000001
 21
233.238
 31
0.0
  0
LINE
  5
1CC
  8
0
 62
     7
 10
116.94799999999989
 20
224.6629999999999
 30
0.0
 11
116.35599999999999
 21
222.45099999999991
 31
0.0
  0
LINE
  5
1CD
  8
0
 62
     7
 10
116.35599999999999
 20
222.45099999999991
 30
0.0
 11
115.76299999999991
 21
224.6629999999999
 31
0.0
  0
LINE
  5
1CE
  8
0
 62
     7
 10
115.76299999999991
 20
224.6629999999999
 30
0.0
 11
116.94799999999989
 21
224.6629999999999
 31
0.0
  0
LINE
  5
1CF
  8
0
 62
     7
 10
116.3629999999999
 20
235.44900000000001
 30
0.0
 11
116.3629999999999
 21
222.452
 31
0.0
  0
LINE
  5
1D0
  8
0
 62
     7
 10
115.77800000000001
 20
220.239
 30
0.0
 11
116.37
 21
222.45099999999991
 31
0.0
  0
LINE
  5
1D1
  8
0
 62
     7
 10
116.37
 20
222.45099999999991
 30
0.0
 11
116.96299999999989
 21
220.239
 31
0.0
  0
LINE
  5
1D2
  8
0
 62
     7
 10
116.96299999999989
 20
220.239
 30
0.0
 11
115.77800000000001
 21
220.239
 31
0.0
  0
LINE
  5
1D3
  8
0
 62
     7
 10
116.94799999999989
 20
187.66099999999989
 30
0.0
 11
116.35599999999999
 21
185.44900000000001
 31
0.0
  0
LINE
  5
1D4
  8
0
 62
     7
 10
116.35599999999999
 20
185.44900000000001
 30
0.0
 11
115.76299999999991
 21
187.66099999999989
 31
0.0
  0
LINE
  5
1D5
  8
0
 62
     7
 10
115.76299999999991
 20
187.66099999999989
 30
0.0
 11
116.94799999999989
 21
187.66099999999989
 31
0.0
  0
LINE
  5
1D6
  8
0
 62
     7
 10
116.3629999999999
 20
222.4499999999999
 30
0.0
 11
116.3629999999999
 21
185.4499999999999
 31
0.0
  0
LINE
  5
1D7
  8
0
 62
     7
 10
68.659499999999994
 20
215.44999999999999
 30
0.0
 11
29.794799999999999
 21
215.44999999999999
 31
0.0
  0
LINE
  5
1D8
  8
0
 62
     7
 10
42.350099999999991
 20
235.4499999999999
 30
0.0
 11
29.794799999999999
 21
235.4499999999999
 31
0.0
  0
LINE
  5
1D9
  8
0
 62
     7
 10
29.909099999999992
 20
233.239
 30
0.0
 11
30.5017
 21
235.45099999999991
 31
0.0
  0
LINE
  5
1DA
  8
0
 62
     7
 10
30.5017
 20
235.45099999999991
 30
0.0
 11
31.0946
 21
233.239
 31
0.0
  0
LINE
  5
1DB
  8
0
 62
     7
 10
31.0946
 20
233.239
 30
0.0
 11
29.909099999999992
 21
233.239
 31
0.0
  0
LINE
  5
1DC
  8
0
 62
     7
 10
31.079799999999992
 20
217.66099999999989
 30
0.0
 11
30.487200000000001
 21
215.44900000000001
 31
0.0
  0
LINE
  5
1DD
  8
0
 62
     7
 10
30.487200000000001
 20
215.44900000000001
 30
0.0
 11
29.8947
 21
217.66099999999989
 31
0.0
  0
LINE
  5
1DE
  8
0
 62
     7
 10
29.8947
 20
217.66099999999989
 30
0.0
 11
31.079799999999992
 21
217.66099999999989
 31
0.0
  0
LINE
  5
1DF
  8
0
 62
     7
 10
30.494800000000001
 20
235.4499999999999
 30
0.0
 11
30.494800000000001
 21
215.44999999999999
 31
0.0
  0
LINE
  5
1E0
  8
0
 62
     7
 10
36.555799999999998
 20
226.23799999999989
 30
0.0
 11
37.148400000000002
 21
228.4499999999999
 31
0.0
  0
LINE
  5
1E1
  8
0
 62
     7
 10
37.148400000000002
 20
228.4499999999999
 30
0.0
 11
37.740900000000003
 21
226.23799999999989
 31
0.0
  0
LINE
  5
1E2
  8
0
 62
     7
 10
37.740900000000003
 20
226.23799999999989
 30
0.0
 11
36.555799999999998
 21
226.23799999999989
 31
0.0
  0
LINE
  5
1E3
  8
0
 62
     7
 10
36.555799999999998
 20
233.238
 30
0.0
 11
37.148400000000002
 21
235.4499999999999
 31
0.0
  0
LINE
  5
1E4
  8
0
 62
     7
 10
37.148400000000002
 20
235.4499999999999
 30
0.0
 11
37.740900000000003
 21
233.238
 31
0.0
  0
LINE
  5
1E5
  8
0
 62
     7
 10
37.740900000000003
 20
233.238
 30
0.0
 11
36.555799999999998
 21
233.238
 31
0.0
  0
LINE
  5
1E6
  8
0
 62
     7
 10
37.740900000000003
 20
224.66200000000001
 30
0.0
 11
37.148400000000002
 21
222.4499999999999
 31
0.0
  0
LINE
  5
1E7
  8
0
 62
     7
 10
37.148400000000002
 20
222.4499999999999
 30
0.0
 11
36.555500000000002
 21
224.66200000000001
 31
0.0
  0
LINE
  5
1E8
  8
0
 62
     7
 10
36.555500000000002
 20
224.66200000000001
 30
0.0
 11
37.740900000000003
 21
224.66200000000001
 31
0.0
  0
LINE
  5
1E9
  8
0
 62
     7
 10
37.740900000000003
 20
230.66200000000001
 30
0.0
 11
37.148400000000002
 21
228.4499999999999
 31
0.0
  0
LINE
  5
1EA
  8
0
 62
     7
 10
37.148400000000002
 20
228.4499999999999
 30
0.0
 11
36.555500000000002
 21
230.66200000000001
 31
0.0
  0
LINE
  5
1EB
  8
0
 62
     7
 10
36.555500000000002
 20
230.66200000000001
 30
0.0
 11
37.740900000000003
 21
230.66200000000001
 31
0.0
  0
LINE
  5
1EC
  8
0
 62
     7
 10
37.148400000000002
 20
235.4499999999999
 30
0.0
 11
37.148400000000002
 21
222.4499999999999
 31
0.0
  0
LINE
  5
1ED
  8
0
 62
     7
 10
51.5503
 20
184.76900000000001
 30
0.0
 11
51.5503
 21
170.4429999999999
 31
0.0
  0
LINE
  5
1EE
  8
0
 62
     7
 10
99.550499999999985
 20
184.76900000000001
 30
0.0
 11
99.550499999999985
 21
170.4429999999999
 31
0.0
  0
LINE
  5
1EF
  8
0
 62
     7
 10
97.338700000000017
 20
170.5509999999999
 30
0.0
 11
99.550499999999985
 21
171.143
 31
0.0
  0
LINE
  5
1F0
  8
0
 62
     7
 10
99.550499999999985
 20
171.143
 30
0.0
 11
97.338700000000017
 21
171.73599999999999
 31
0.0
  0
LINE
  5
1F1
  8
0
 62
     7
 10
97.338700000000017
 20
171.73599999999999
 30
0.0
 11
97.338700000000017
 21
170.5509999999999
 31
0.0
  0
LINE
  5
1F2
  8
0
 62
     7
 10
53.762099999999997
 20
171.73599999999999
 30
0.0
 11
51.5503
 21
171.143
 31
0.0
  0
LINE
  5
1F3
  8
0
 62
     7
 10
51.5503
 20
171.143
 30
0.0
 11
53.762099999999997
 21
170.5509999999999
 31
0.0
  0
LINE
  5
1F4
  8
0
 62
     7
 10
53.762099999999997
 20
170.5509999999999
 30
0.0
 11
53.762099999999997
 21
171.73599999999999
 31
0.0
  0
LINE
  5
1F5
  8
0
 62
     7
 10
99.550499999999985
 20
171.143
 30
0.0
 11
51.5503
 21
171.143
 31
0.0
  0
LINE
  5
1F6
  8
0
 62
     7
 10
43.05019999999999
 20
180.9129999999999
 30
0.0
 11
43.05019999999999
 21
163.38799999999989
 31
0.0
  0
LINE
  5
1F7
  8
0
 62
     7
 10
108.051
 20
180.9129999999999
 30
0.0
 11
108.051
 21
163.38799999999989
 31
0.0
  0
LINE
  5
1F8
  8
0
 62
     7
 10
87.338499999999996
 20
136.63199999999989
 30
0.0
 11
89.550299999999979
 21
137.22499999999991
 31
0.0
  0
LINE
  5
1F9
  8
0
 62
     7
 10
89.550299999999979
 20
137.22499999999991
 30
0.0
 11
87.338499999999996
 21
137.81700000000001
 31
0.0
  0
LINE
  5
1FA
  8
0
 62
     7
 10
87.338499999999996
 20
137.81700000000001
 30
0.0
 11
87.338499999999996
 21
136.63199999999989
 31
0.0
  0
LINE
  5
1FB
  8
0
 62
     7
 10
63.762199999999993
 20
137.81700000000001
 30
0.0
 11
61.5505
 21
137.22499999999991
 31
0.0
  0
LINE
  5
1FC
  8
0
 62
     7
 10
61.5505
 20
137.22499999999991
 30
0.0
 11
63.762199999999993
 21
136.63199999999989
 31
0.0
  0
LINE
  5
1FD
  8
0
 62
     7
 10
63.762199999999993
 20
136.63199999999989
 30
0.0
 11
63.762199999999993
 21
137.81700000000001
 31
0.0
  0
LINE
  5
1FE
  8
0
 62
     7
 10
153.011
 20
127.876
 30
0.0
 11
152.4189999999999
 21
130.08799999999999
 31
0.0
  0
LINE
  5
1FF
  8
0
 62
     7
 10
152.4189999999999
 20
130.08799999999999
 30
0.0
 11
151.82599999999991
 21
127.876
 31
0.0
  0
LINE
  5
200
  8
0
 62
     7
 10
151.82599999999991
 20
127.876
 30
0.0
 11
153.011
 21
127.876
 31
0.0
  0
LINE
  5
201
  8
0
 62
     7
 10
151.82599999999991
 20
121.79899999999989
 30
0.0
 11
152.4189999999999
 21
119.58799999999999
 31
0.0
  0
LINE
  5
202
  8
0
 62
     7
 10
152.4189999999999
 20
119.58799999999999
 30
0.0
 11
153.011
 21
121.79899999999989
 31
0.0
  0
LINE
  5
203
  8
0
 62
     7
 10
153.011
 20
121.79899999999989
 30
0.0
 11
151.82599999999991
 21
121.79899999999989
 31
0.0
  0
LINE
  5
204
  8
0
 62
     7
 10
152.4189999999999
 20
130.08799999999999
 30
0.0
 11
152.4189999999999
 21
119.58799999999999
 31
0.0
  0
LINE
  5
205
  8
0
 62
     7
 10
105.8389999999999
 20
163.495
 30
0.0
 11
108.051
 21
164.08799999999991
 31
0.0
  0
LINE
  5
206
  8
0
 62
     7
 10
108.051
 20
164.08799999999991
 30
0.0
 11
105.8389999999999
 21
164.67999999999989
 31
0.0
  0
LINE
  5
207
  8
0
 62
     7
 10
105.8389999999999
 20
164.67999999999989
 30
0.0
 11
105.8389999999999
 21
163.495
 31
0.0
  0
LINE
  5
208
  8
0
 62
     7
 10
45.262
 20
164.67999999999989
 30
0.0
 11
43.05019999999999
 21
164.08799999999991
 31
0.0
  0
LINE
  5
209
  8
0
 62
     7
 10
43.05019999999999
 20
164.08799999999991
 30
0.0
 11
45.262
 21
163.495
 31
0.0
  0
LINE
  5
20A
  8
0
 62
     7
 10
45.262
 20
163.495
 30
0.0
 11
45.262
 21
164.67999999999989
 31
0.0
  0
LINE
  5
20B
  8
0
 62
     7
 10
108.051
 20
164.08799999999991
 30
0.0
 11
43.05019999999999
 21
164.08799999999991
 31
0.0
  0
LINE
  5
20C
  8
0
 62
     7
 10
37.140799999999999
 20
125.087
 30
0.0
 11
57.756399999999999
 21
125.087
 31
0.0
  0
LINE
  5
20D
  8
0
 62
     7
 10
37.126300000000001
 20
130.08799999999999
 30
0.0
 11
42.602699999999999
 21
130.08799999999999
 31
0.0
  0
LINE
  5
20E
  8
0
 62
     7
 10
38.418900000000001
 20
127.877
 30
0.0
 11
37.8264
 21
130.08799999999999
 31
0.0
  0
LINE
  5
20F
  8
0
 62
     7
 10
37.8264
 20
130.08799999999999
 30
0.0
 11
37.233400000000003
 21
127.877
 31
0.0
  0
LINE
  5
210
  8
0
 62
     7
 10
37.233400000000003
 20
127.877
 30
0.0
 11
38.418900000000001
 21
127.877
 31
0.0
  0
LINE
  5
211
  8
0
 62
     7
 10
37.2483
 20
127.298
 30
0.0
 11
37.840800000000002
 21
125.086
 31
0.0
  0
LINE
  5
212
  8
0
 62
     7
 10
37.840800000000002
 20
125.086
 30
0.0
 11
38.433399999999992
 21
127.298
 31
0.0
  0
LINE
  5
213
  8
0
 62
     7
 10
38.433399999999992
 20
127.298
 30
0.0
 11
37.2483
 21
127.298
 31
0.0
  0
LINE
  5
214
  8
0
 62
     7
 10
37.833199999999991
 20
130.08799999999999
 30
0.0
 11
37.833199999999991
 21
125.087
 31
0.0
  0
LINE
  5
215
  8
0
 62
     7
 10
107.169
 20
123.58799999999989
 30
0.0
 11
115.636
 21
123.58799999999989
 31
0.0
  0
LINE
  5
216
  8
0
 62
     7
 10
109.1599999999999
 20
130.08799999999999
 30
0.0
 11
115.636
 21
130.08799999999999
 31
0.0
  0
LINE
  5
217
  8
0
 62
     7
 10
115.52200000000001
 20
127.877
 30
0.0
 11
114.929
 21
130.08799999999999
 31
0.0
  0
LINE
  5
218
  8
0
 62
     7
 10
114.929
 20
130.08799999999999
 30
0.0
 11
114.3359999999999
 21
127.877
 31
0.0
  0
LINE
  5
219
  8
0
 62
     7
 10
114.3359999999999
 20
127.877
 30
0.0
 11
115.52200000000001
 21
127.877
 31
0.0
  0
LINE
  5
21A
  8
0
 62
     7
 10
114.351
 20
125.79899999999989
 30
0.0
 11
114.944
 21
123.58799999999989
 31
0.0
  0
LINE
  5
21B
  8
0
 62
     7
 10
114.944
 20
123.58799999999989
 30
0.0
 11
115.5359999999999
 21
125.79899999999989
 31
0.0
  0
LINE
  5
21C
  8
0
 62
     7
 10
115.5359999999999
 20
125.79899999999989
 30
0.0
 11
114.351
 21
125.79899999999989
 31
0.0
  0
LINE
  5
21D
  8
0
 62
     7
 10
114.93600000000001
 20
130.08799999999999
 30
0.0
 11
114.93600000000001
 21
123.5889999999999
 31
0.0
  0
LINE
  5
21E
  8
0
 62
     7
 10
158.37
 20
114.587
 30
0.0
 11
182.25699999999989
 21
114.587
 31
0.0
  0
LINE
  5
21F
  8
0
 62
     7
 10
174.73099999999991
 20
130.08799999999999
 30
0.0
 11
182.25699999999989
 21
130.08799999999999
 31
0.0
  0
LINE
  5
220
  8
0
 62
     7
 10
182.143
 20
127.877
 30
0.0
 11
181.55000000000001
 21
130.08799999999999
 31
0.0
  0
LINE
  5
221
  8
0
 62
     7
 10
181.55000000000001
 20
130.08799999999999
 30
0.0
 11
180.95699999999991
 21
127.877
 31
0.0
  0
LINE
  5
222
  8
0
 62
     7
 10
180.95699999999991
 20
127.877
 30
0.0
 11
182.143
 21
127.877
 31
0.0
  0
LINE
  5
223
  8
0
 62
     7
 10
180.97200000000001
 20
116.7979999999999
 30
0.0
 11
181.56499999999991
 21
114.586
 31
0.0
  0
LINE
  5
224
  8
0
 62
     7
 10
181.56499999999991
 20
114.586
 30
0.0
 11
182.15700000000001
 21
116.7979999999999
 31
0.0
  0
LINE
  5
225
  8
0
 62
     7
 10
182.15700000000001
 20
116.7979999999999
 30
0.0
 11
180.97200000000001
 21
116.7979999999999
 31
0.0
  0
LINE
  5
226
  8
0
 62
     7
 10
181.55699999999999
 20
130.08799999999999
 30
0.0
 11
181.55699999999999
 21
114.587
 31
0.0
  0
LINE
  5
227
  8
0
 62
     7
 10
154.03100000000001
 20
112.88200000000001
 30
0.0
 11
154.03100000000001
 21
105.27799999999991
 31
0.0
  0
LINE
  5
228
  8
0
 62
     7
 10
174.03099999999989
 20
114.0379999999999
 30
0.0
 11
174.03099999999989
 21
105.27799999999991
 31
0.0
  0
LINE
  5
229
  8
0
 62
     7
 10
171.821
 20
105.392
 30
0.0
 11
174.0329999999999
 21
105.9849999999999
 31
0.0
  0
LINE
  5
22A
  8
0
 62
     7
 10
174.0329999999999
 20
105.9849999999999
 30
0.0
 11
171.821
 21
106.577
 31
0.0
  0
LINE
  5
22B
  8
0
 62
     7
 10
171.821
 20
106.577
 30
0.0
 11
171.821
 21
105.392
 31
0.0
  0
LINE
  5
22C
  8
0
 62
     7
 10
156.24199999999999
 20
106.5629999999999
 30
0.0
 11
154.03
 21
105.97
 31
0.0
  0
LINE
  5
22D
  8
0
 62
     7
 10
154.03
 20
105.97
 30
0.0
 11
156.24199999999999
 21
105.3779999999999
 31
0.0
  0
LINE
  5
22E
  8
0
 62
     7
 10
156.24199999999999
 20
105.3779999999999
 30
0.0
 11
156.24199999999999
 21
106.5629999999999
 31
0.0
  0
LINE
  5
22F
  8
0
 62
     7
 10
174.03099999999989
 20
105.97799999999989
 30
0.0
 11
154.03100000000001
 21
105.97799999999989
 31
0.0
  0
TEXT
  5
230
  8
_________2
 62
     7
 10
29.525700000000001
 20
22.2272
 30
0.0
 40
3.9357000000000002
  1
実容量：4.0L、重量18.9kg、オーバーフロー付
 41
0.5
  0
LINE
  5
231
  8
_________2
 62
     7
 10
105.2389999999999
 20
17.428499999999989
 30
0.0
 11
105.2389999999999
 21
0.4485540000000001
 31
0.0
  0
LINE
  5
232
  8
_________2
 62
     7
 10
81.679900000000004
 20
51.324300000000001
 30
0.0
 11
79.493700000000004
 21
51.324300000000001
 31
0.0
  0
LINE
  5
233
  8
_________2
 62
     7
 10
82.172600000000017
 20
51.324300000000001
 30
0.0
 11
81.920400000000001
 21
51.324300000000001
 31
0.0
  0
LINE
  5
234
  8
_________2
 62
     7
 10
82.665199999999984
 20
51.324300000000001
 30
0.0
 11
85.590100000000007
 21
51.324300000000001
 31
0.0
  0
LINE
  5
235
  8
_________2
 62
     7
 10
82.172600000000017
 20
51.324300000000001
 30
0.0
 11
82.424800000000005
 21
51.324300000000001
 31
0.0
  0
LINE
  5
236
  8
_________2
 62
     7
 10
75.776399999999995
 20
51.324300000000001
 30
0.0
 11
73.589399999999998
 21
51.324300000000001
 31
0.0
  0
LINE
  5
237
  8
_________2
 62
     7
 10
76.2684
 20
51.324300000000001
 30
0.0
 11
76.016900000000007
 21
51.324300000000001
 31
0.0
  0
LINE
  5
238
  8
_________2
 62
     7
 10
76.2684
 20
51.817
 30
0.0
 11
76.2684
 21
54.003900000000002
 31
0.0
  0
LINE
  5
239
  8
_________2
 62
     7
 10
76.2684
 20
51.324300000000001
 30
0.0
 11
76.2684
 21
51.576900000000002
 31
0.0
  0
LINE
  5
23A
  8
_________2
 62
     7
 10
76.76100000000001
 20
51.324300000000001
 30
0.0
 11
78.947999999999993
 21
51.324300000000001
 31
0.0
  0
LINE
  5
23B
  8
_________2
 62
     7
 10
76.2684
 20
51.324300000000001
 30
0.0
 11
76.520499999999998
 21
51.324300000000001
 31
0.0
  0
LINE
  5
23C
  8
_________2
 62
     7
 10
76.2684
 20
50.832399999999993
 30
0.0
 11
76.2684
 21
48.645699999999998
 31
0.0
  0
LINE
  5
23D
  8
_________2
 62
     7
 10
76.2684
 20
51.324300000000001
 30
0.0
 11
76.2684
 21
51.072800000000001
 31
0.0
  0
LINE
  5
23E
  8
_________2
 62
     7
 10
79.979399999999984
 20
50.104799999999997
 30
0.0
 11
85.157399999999996
 21
49.240000000000002
 31
0.0
  0
LINE
  5
23F
  8
_________2
 62
     7
 10
79.979399999999984
 20
52.544199999999989
 30
0.0
 11
85.157399999999996
 21
53.409700000000001
 31
0.0
  0
LINE
  5
240
  8
_________2
 62
     7
 10
85.157399999999996
 20
49.240000000000002
 30
0.0
 11
85.157399999999996
 21
53.409700000000001
 31
0.0
  0
LINE
  5
241
  8
_________2
 62
     7
 10
79.979399999999984
 20
50.104799999999997
 30
0.0
 11
79.979399999999984
 21
52.544199999999989
 31
0.0
  0
ARC
  5
242
  8
_________2
 62
     7
 10
76.221766000000002
 20
51.277380999999998
 30
0.0
 40
1.267714
 50
2.1220840000000001
 51
87.894083999999992
  0
ARC
  5
243
  8
_________2
 62
     7
 10
76.315297000000001
 20
51.277734999999993
 30
0.0
 40
1.267374999999999
 50
92.122849999999985
 51
177.893304
  0
ARC
  5
244
  8
_________2
 62
     7
 10
76.315273000000005
 20
51.371245999999992
 30
0.0
 40
1.267363
 50
182.12181499999991
 51
267.87821400000001
  0
ARC
  5
245
  8
_________2
 62
     7
 10
76.221461000000005
 20
51.371928999999987
 30
0.0
 40
1.2680439999999991
 50
272.11916400000001
 51
357.84848499999993
  0
ARC
  5
246
  8
_________2
 62
     7
 10
76.187981999999991
 20
51.244312999999998
 30
0.0
 40
2.1668310000000002
 50
2.1161439999999989
 51
87.874379000000005
  0
ARC
  5
247
  8
_________2
 62
     7
 10
76.348411999999996
 20
51.245334999999997
 30
0.0
 40
2.1657980000000001
 50
92.118487999999999
 51
177.90988599999989
  0
ARC
  5
248
  8
_________2
 62
     7
 10
76.348354
 20
51.404327000000002
 30
0.0
 40
2.1657779999999991
 50
182.11700400000001
 51
267.88302499999992
  0
ARC
  5
249
  8
_________2
 62
     7
 10
76.188378999999983
 20
51.405009999999997
 30
0.0
 40
2.1664590000000001
 50
272.11546800000002
 51
357.86560400000002
  0
TEXT
  5
24A
  8
_________2
 62
     7
 10
109.5439999999999
 20
23.199100000000001
 30
0.0
 40
3.0923400000000001
  1
図番
 41
0.5
  0
LINE
  5
24B
  8
_________2
 62
     7
 10
108.4889999999999
 20
27.4283
 30
0.0
 11
188.49000000000001
 21
27.4283
 31
0.0
  0
TEXT
  5
24C
  8
_________2
 62
     7
 10
109.5439999999999
 20
33.198900000000002
 30
0.0
 40
3.0923400000000001
  1
品番
 41
0.5
  0
TEXT
  5
24D
  8
_________2
 62
     7
 10
109.5439999999999
 20
53.338000000000001
 30
0.0
 40
3.0923400000000001
  1
名称
 41
0.5
  0
TEXT
  5
24E
  8
_________2
 62
     7
 10
96.784058333333334
 20
48.341900000000003
 30
0.0
 40
3.6545800000000002
  1
mm
 41
0.5
 72
     1
 11
98.306799999999996
 21
48.341900000000003
 31
0.0
  0
TEXT
  5
24F
  8
_________2
 62
     7
 10
90.582099999999997
 20
53.338000000000001
 30
0.0
 40
3.0923400000000001
  1
単位
 41
0.5
  0
TEXT
  5
250
  8
_________2
 62
     7
 10
90.582099999999997
 20
40.930399999999999
 30
0.0
 40
3.0923400000000001
  1
尺度
 41
0.5
  0
TEXT
  5
251
  8
_________2
 62
     7
 10
95.030836166666674
 20
34.7378
 30
0.0
 40
3.6545800000000002
  1
1 ： 10
 41
0.5
 72
     1
 11
98.898600000000002
 21
34.7378
 31
0.0
  0
TEXT
  5
252
  8
_________2
 62
     7
 10
142.9134249999999
 20
30.627800000000001
 30
0.0
 40
3.9357000000000002
  1
VR5291
 41
0.5
 72
     1
 11
148.489
 21
30.627800000000001
 31
0.0
  0
TEXT
  5
253
  8
_________2
 62
     7
 10
142.9134249999999
 20
20.626999999999988
 30
0.0
 40
3.9357000000000002
  1
VR5291
 41
0.5
 72
     1
 11
148.489
 21
20.626999999999988
 31
0.0
  0
TEXT
  5
254
  8
_________2
 62
     7
 10
30.861000000000001
 20
61.679299999999998
 30
0.0
 40
4.2168199999999993
  1
※壁取付部には厚さ30mm以上の補強木を入れてください。
 41
0.5
  0
TEXT
  5
255
  8
_________2
 62
     7
 10
114.11799999999999
 20
45.745600000000003
 30
0.0
 40
3.9357000000000002
  1
S20 ユニバーサル洗面器
 41
0.5
  0
TEXT
  5
256
  8
_________2
 62
     7
 10
44.364200333333329
 20
35.122999999999998
 30
0.0
 40
3.6545800000000002
  1
早川
 41
0.5
 72
     1
 11
46.252400000000002
 21
35.122999999999998
 31
0.0
  0
TEXT
  5
257
  8
_________2
 62
     7
 10
25.790200333333331
 20
35.122999999999998
 30
0.0
 40
3.6545800000000002
  1
福田
 41
0.5
 72
     1
 11
27.6784
 21
35.122999999999998
 31
0.0
  0
TEXT
  5
258
  8
_________2
 62
     7
 10
72.724699999999999
 20
34.7378
 30
0.0
 40
3.6545800000000002
  1
13.11.11
 41
0.5
  0
TEXT
  5
259
  8
_________2
 62
     7
 10
71.531999999999996
 20
40.930399999999999
 30
0.0
 40
3.0923400000000001
  1
日付
 41
0.5
  0
TEXT
  5
25A
  8
_________2
 62
     7
 10
34.578299999999992
 20
40.930399999999999
 30
0.0
 40
3.0923400000000001
  1
検図
 41
0.5
  0
TEXT
  5
25B
  8
_________2
 62
     7
 10
22.96019999999999
 20
26.730999999999991
 30
0.0
 40
3.0923400000000001
  1
備考
 41
0.5
  0
TEXT
  5
25C
  8
_________2
 62
     7
 10
22.96019999999999
 20
40.930399999999999
 30
0.0
 40
3.0923400000000001
  1
製図
 41
0.5
  0
TEXT
  5
25D
  8
_________2
 62
     7
 10
28.727365333333339
 20
49.456400000000002
 30
0.0
 40
4.4979399999999989
  1
セラトレーディング株式会社
 41
0.5
 72
     1
 11
46.119399999999992
 21
49.456400000000002
 31
0.0
  0
LINE
  5
25E
  8
_________2
 62
     7
 10
188.49000000000001
 20
17.428499999999989
 30
0.0
 11
21.988499999999991
 21
17.428499999999989
 31
0.0
  0
LINE
  5
25F
  8
_________2
 62
     7
 10
21.988499999999991
 20
17.428499999999989
 30
0.0
 11
21.988499999999991
 21
280.42999999999989
 31
0.0
  0
LINE
  5
260
  8
_________2
 62
     7
 10
21.988499999999991
 20
280.42999999999989
 30
0.0
 11
188.49000000000001
 21
280.42999999999989
 31
0.0
  0
LINE
  5
261
  8
_________2
 62
     7
 10
188.49000000000001
 20
280.42999999999989
 30
0.0
 11
188.49000000000001
 21
17.428499999999989
 31
0.0
  0
LINE
  5
262
  8
_________2
 62
     7
 10
70.488799999999998
 20
30.928899999999999
 30
0.0
 11
70.488799999999998
 21
57.428699999999992
 31
0.0
  0
LINE
  5
263
  8
_________2
 62
     7
 10
89.488600000000005
 20
30.928899999999999
 30
0.0
 11
89.488600000000005
 21
57.428699999999992
 31
0.0
  0
LINE
  5
264
  8
_________2
 62
     7
 10
108.4889999999999
 20
17.428499999999989
 30
0.0
 11
108.4889999999999
 21
57.428699999999992
 31
0.0
  0
LINE
  5
265
  8
_________2
 62
     7
 10
33.488300000000002
 20
30.928899999999999
 30
0.0
 11
33.488300000000002
 21
44.928800000000003
 31
0.0
  0
LINE
  5
266
  8
_________2
 62
     7
 10
21.988499999999991
 20
30.928899999999999
 30
0.0
 11
108.4889999999999
 21
30.928899999999999
 31
0.0
  0
LINE
  5
267
  8
_________2
 62
     7
 10
21.988499999999991
 20
44.928800000000003
 30
0.0
 11
108.4889999999999
 21
44.928800000000003
 31
0.0
  0
LINE
  5
268
  8
_________2
 62
     7
 10
108.4889999999999
 20
37.428100000000001
 30
0.0
 11
188.49000000000001
 21
37.428100000000001
 31
0.0
  0
LINE
  5
269
  8
_________2
 62
     7
 10
21.988499999999991
 20
57.428699999999992
 30
0.0
 11
188.49000000000001
 21
57.428699999999992
 31
0.0
  0
LINE
  5
26A
  8
_________2
 62
     7
 10
210.24000000000001
 20
148.93100000000001
 30
0.0
 11
188.489
 21
148.93100000000001
 31
0.0
  0
LINE
  5
26B
  8
_________2
 62
     7
 10
105.2389999999999
 20
297.45099999999991
 30
0.0
 11
105.2389999999999
 21
280.42999999999989
 31
0.0
  0
LINE
  5
26C
  8
_________2
 62
     7
 10
21.988499999999991
 20
148.93100000000001
 30
0.0
 11
0.238402
 21
148.93100000000001
 31
0.0
  0
ENDSEC
  0
EOF
