  0
SECTION
  2
HEADER
  9
$ACADVER
  1
AC1009
  9
$INSBASE
 10
0.0
 20
0.0
 30
0.0
  9
$EXTMIN
 10
-4.7012099999999988
 20
-21.070999999999991
 30
0.0
  9
$EXTMAX
 10
205.30099999999999
 20
275.93099999999993
 30
0.0
  9
$LIMMIN
 10
0.0
 20
0.0
  9
$LIMMAX
 10
12.0
 20
9.0
  9
$ORTHOMODE
 70
     0
  9
$REGENMODE
 70
     1
  9
$FILLMODE
 70
     1
  9
$QTEXTMODE
 70
     0
  9
$MIRRTEXT
 70
     1
  9
$DRAGMODE
 70
     2
  9
$LTSCALE
 40
1.0
  9
$OSMODE
 70
    37
  9
$ATTMODE
 70
     1
  9
$TEXTSIZE
 40
0.0
  9
$TRACEWID
 40
0.05
  9
$TEXTSTYLE
  7
STANDARD
  9
$CLAYER
  8
0
  9
$CELTYPE
  6
CONTINUOUS
  9
$CECOLOR
 62
   256
  9
$DIMSCALE
 40
1.0
  9
$DIMASZ
 40
0.18
  9
$DIMEXO
 40
0.0625
  9
$DIMDLI
 40
0.38
  9
$DIMRND
 40
0.0
  9
$DIMDLE
 40
0.0
  9
$DIMEXE
 40
0.18
  9
$DIMTP
 40
0.0
  9
$DIMTM
 40
0.0
  9
$DIMTXT
 40
0.18
  9
$DIMCEN
 40
0.09
  9
$DIMTSZ
 40
0.0
  9
$DIMTOL
 70
     0
  9
$DIMLIM
 70
     0
  9
$DIMTIH
 70
     1
  9
$DIMTOH
 70
     1
  9
$DIMSE1
 70
     0
  9
$DIMSE2
 70
     0
  9
$DIMTAD
 70
     0
  9
$DIMZIN
 70
     0
  9
$DIMBLK
  1

  9
$DIMASO
 70
     1
  9
$DIMSHO
 70
     1
  9
$DIMPOST
  1

  9
$DIMAPOST
  1

  9
$DIMALT
 70
     0
  9
$DIMALTD
 70
     2
  9
$DIMALTF
 40
25.399999999999999
  9
$DIMLFAC
 40
1.0
  9
$DIMTOFL
 70
     0
  9
$DIMTVP
 40
0.0
  9
$DIMTIX
 70
     0
  9
$DIMSOXD
 70
     0
  9
$DIMSAH
 70
     0
  9
$DIMBLK1
  1

  9
$DIMBLK2
  1

  9
$DIMSTYLE
  2
STANDARD
  9
$DIMCLRD
 70
     0
  9
$DIMCLRE
 70
     0
  9
$DIMCLRT
 70
     0
  9
$DIMTFAC
 40
1.0
  9
$DIMGAP
 40
0.09
  9
$LUNITS
 70
     2
  9
$LUPREC
 70
     4
  9
$SKETCHINC
 40
0.1
  9
$FILLETRAD
 40
0.0
  9
$AUNITS
 70
     0
  9
$AUPREC
 70
     0
  9
$MENU
  1
.
  9
$ELEVATION
 40
0.0
  9
$PELEVATION
 40
0.0
  9
$THICKNESS
 40
0.0
  9
$LIMCHECK
 70
     0
  9
$BLIPMODE
 70
     0
  9
$CHAMFERA
 40
0.0
  9
$CHAMFERB
 40
0.0
  9
$SKPOLY
 70
     0
  9
$TDCREATE
 40
2444972.375
  9
$TDUPDATE
 40
2456676.2516249181
  9
$TDINDWG
 40
0.0000111111
  9
$TDUSRTIMER
 40
0.0000111111
  9
$USRTIMER
 70
     1
  9
$ANGBASE
 50
0.0
  9
$ANGDIR
 70
     0
  9
$PDMODE
 70
     0
  9
$PDSIZE
 40
0.0
  9
$PLINEWID
 40
0.0
  9
$COORDS
 70
     1
  9
$SPLFRAME
 70
     0
  9
$SPLINETYPE
 70
     6
  9
$SPLINESEGS
 70
     8
  9
$ATTDIA
 70
     0
  9
$ATTREQ
 70
     1
  9
$HANDLING
 70
     1
  9
$HANDSEED
  5
7B4
  9
$SURFTAB1
 70
     6
  9
$SURFTAB2
 70
     6
  9
$SURFTYPE
 70
     6
  9
$SURFU
 70
     6
  9
$SURFV
 70
     6
  9
$UCSNAME
  2

  9
$UCSORG
 10
0.0
 20
0.0
 30
0.0
  9
$UCSXDIR
 10
1.0
 20
0.0
 30
0.0
  9
$UCSYDIR
 10
0.0
 20
1.0
 30
0.0
  9
$PUCSNAME
  2

  9
$PUCSORG
 10
0.0
 20
0.0
 30
0.0
  9
$PUCSXDIR
 10
1.0
 20
0.0
 30
0.0
  9
$PUCSYDIR
 10
0.0
 20
1.0
 30
0.0
  9
$USERI1
 70
     0
  9
$USERI2
 70
     0
  9
$USERI3
 70
     0
  9
$USERI4
 70
     0
  9
$USERI5
 70
     0
  9
$USERR1
 40
0.0
  9
$USERR2
 40
0.0
  9
$USERR3
 40
0.0
  9
$USERR4
 40
0.0
  9
$USERR5
 40
0.0
  9
$WORLDVIEW
 70
     1
  9
$SHADEDGE
 70
     3
  9
$SHADEDIF
 70
    70
  9
$TILEMODE
 70
     1
  9
$MAXACTVP
 70
    48
  9
$PLIMCHECK
 70
     0
  9
$PEXTMIN
 10
1.0000000000000000E+020
 20
1.0000000000000000E+020
 30
1.0000000000000000E+020
  9
$PEXTMAX
 10
-1.0000000000000000E+020
 20
-1.0000000000000000E+020
 30
-1.0000000000000000E+020
  9
$PLIMMIN
 10
0.0
 20
0.0
  9
$PLIMMAX
 10
12.0
 20
9.0
  9
$UNITMODE
 70
     0
  9
$VISRETAIN
 70
     1
  9
$PLINEGEN
 70
     0
  9
$PSLTSCALE
 70
     1
  0
ENDSEC
  0
SECTION
  2
TABLES
  0
TABLE
  2
VPORT
 70
     2
  0
VPORT
  2
*ACTIVE
 70
     0
 10
0.0
 20
0.0
 11
1.0
 21
1.0
 12
202.006301769564
 22
127.42999999999989
 13
0.0
 23
0.0
 14
1.0
 24
1.0
 15
0.0
 25
0.0
 16
0.0
 26
0.0
 36
1.0
 17
0.0
 27
0.0
 37
0.0
 40
299.45318569463541
 41
2.2894736842105261
 42
50.0
 43
0.0
 44
0.0
 50
0.0
 51
0.0
 71
     0
 72
   100
 73
     1
 74
     1
 75
     0
 76
     0
 77
     0
 78
     0
  0
ENDTAB
  0
TABLE
  2
LTYPE
 70
     3
  0
LTYPE
  2
CONTINUOUS
 70
     0
  3
Solid line
 72
    65
 73
     0
 40
0.0
  0
LTYPE
  2
AIGENLINE001
 70
     0
  3
generate AI->DXF Converter
 72
    65
 73
     4
 40
5.8561449999999988
 49
3.5278
 49
-0.776115
 49
0.776115
 49
-0.776115
  0
LTYPE
  2
AIGENLINE002
 70
     0
  3
generate AI->DXF Converter
 72
    65
 73
     6
 40
7.4083750000000004
 49
3.5278
 49
-0.776115
 49
0.776115
 49
-0.776115
 49
0.776115
 49
-0.776115
  0
ENDTAB
  0
TABLE
  2
LAYER
 70
     2
  0
LAYER
  2
0
 70
     0
 62
     7
  6
CONTINUOUS
  0
LAYER
  2
_________2
 70
     0
 62
     7
  6
CONTINUOUS
  0
ENDTAB
  0
TABLE
  2
STYLE
 70
     1
  0
STYLE
  2
STANDARD
 70
     0
 40
0.0
 41
0.0
 50
0.0
 71
     0
 42
0.0
  3
TXT
  4
EXTFONT.SHX
  0
ENDTAB
  0
TABLE
  2
VIEW
 70
     0
  0
ENDTAB
  0
TABLE
  2
UCS
 70
     0
  0
ENDTAB
  0
TABLE
  2
APPID
 70
     1
  0
APPID
  2
ACAD
 70
     0
  0
ENDTAB
  0
TABLE
  2
DIMSTYLE
 70
     1
  0
DIMSTYLE
  2
STANDARD
 70
     0
  3

  4

  5

  6

  7

 40
1.0
 41
0.18
 42
0.0625
 43
0.38
 44
0.18
 45
0.0
 46
0.0
 47
0.0
 48
0.0
140
0.18
141
0.09
142
0.0
143
25.399999999999999
144
1.0
145
0.0
146
1.0
147
0.09
 71
     0
 72
     0
 73
     1
 74
     1
 75
     0
 76
     0
 77
     0
 78
     0
170
     0
171
     2
172
     0
173
     0
174
     0
175
     0
176
     0
177
     0
178
     0
  0
ENDTAB
  0
ENDSEC
  0
SECTION
  2
BLOCKS
  0
BLOCK
  8
0
  2
$MODEL_SPACE
 70
     0
 10
0.0
 20
0.0
 30
0.0
  3
$MODEL_SPACE
  1

  0
ENDBLK
  5
1A
  8
0
  0
BLOCK
 67
     1
  8
0
  2
$PAPER_SPACE
 70
     0
 10
0.0
 20
0.0
 30
0.0
  3
$PAPER_SPACE
  1

  0
ENDBLK
  5
17
 67
     1
  8
0
  0
ENDSEC
  0
SECTION
  2
ENTITIES
  0
TEXT
  5
23
  8
0
 62
     7
 10
145.10487999999989
 20
248.28999999999991
 30
0.0
 40
3.0923400000000001
  1
%%c35
 41
0.5
 72
     2
 11
149.22799999999989
 21
248.28999999999991
 31
0.0
  0
TEXT
  5
24
  8
0
 62
     7
 10
149.14099999999991
 20
191.11199999999999
 30
0.0
 40
3.0923400000000001
  1
開
 41
0.5
  0
TEXT
  5
25
  8
0
 62
     7
 10
135.723454
 20
199.489
 30
0.0
 40
3.0923400000000001
  1
閉
 41
0.5
 72
     1
 11
136.44499999999991
 21
199.489
 31
0.0
  0
TEXT
  5
26
  8
0
 62
     7
 10
132.01264599999999
 20
225.97200000000001
 30
0.0
 40
3.0923400000000001
  1
水栓取付穴
 41
0.5
 72
     1
 11
136.44499999999991
 21
225.97200000000001
 31
0.0
  0
TEXT
  5
27
  8
0
 62
     7
 10
20.139500000000002
 20
39.087299999999999
 30
0.0
 40
3.6545800000000002
  1
・国産洗面器とのセットの場合は国産の排水ヘッド部を別途準備してください。
 41
0.5
  0
TEXT
  5
28
  8
0
 62
     7
 10
94.298582499999995
 20
48.781799999999997
 30
0.0
 40
3.0923400000000001
  1
180
 41
0.5
 72
     1
 11
95.973600000000005
 21
48.781799999999997
 31
0.0
  0
TEXT
  5
29
  8
0
 62
     7
 10
99.189700000000016
 20
66.737424999999988
 30
0.0
 40
3.0923400000000001
  1
%%c5
 50
90.0
 41
0.5
 72
     1
 11
99.189700000000016
 21
68.025899999999993
 31
0.0
  0
TEXT
  5
2A
  8
0
 62
     7
 10
84.207518000000007
 20
54.440100000000001
 30
0.0
 40
3.0923400000000001
  1
G1 1/4
 41
0.5
 72
     2
 11
91.319900000000004
 21
54.440100000000001
 31
0.0
  0
TEXT
  5
2B
  8
0
 62
     7
 10
67.8352
 20
62.974972500000007
 30
0.0
 40
3.0923400000000001
  1
50
 50
90.0
 41
0.5
 72
     1
 11
67.8352
 21
64.134600000000006
 31
0.0
  0
TEXT
  5
2C
  8
0
 62
     7
 10
67.494799999999998
 20
70.215322499999985
 30
0.0
 40
3.0923400000000001
  1
max.50
 50
90.0
 41
0.5
 72
     1
 11
67.494799999999998
 21
73.951899999999995
 31
0.0
  0
TEXT
  5
2D
  8
0
 62
     7
 10
76.957239999999999
 20
83.068299999999994
 30
0.0
 40
3.0923400000000001
  1
%%c63
 41
0.5
 72
     1
 11
79.018799999999999
 21
83.068299999999994
 31
0.0
  0
TEXT
  5
2E
  8
0
 62
     7
 10
103.557
 20
87.401899999999998
 30
0.0
 40
3.0923400000000001
  1
G 3/8
 41
0.5
  0
TEXT
  5
2F
  8
0
 62
     7
 10
123.824
 20
136.50315000000001
 30
0.0
 40
3.0923400000000001
  1
max.35
 50
90.0
 41
0.5
 72
     2
 11
123.824
 21
144.23400000000001
 31
0.0
  0
TEXT
  5
30
  8
0
 62
     7
 10
141.4290499999999
 20
85.434099999999987
 30
0.0
 40
3.0923400000000001
  1
%%c5
 41
0.5
 72
     2
 11
144.006
 21
85.434099999999987
 31
0.0
  0
TEXT
  5
31
  8
0
 62
     7
 10
142.30600000000001
 20
162.35299999999989
 30
0.0
 40
3.0923400000000001
  1
max.40
 41
0.5
  0
TEXT
  5
32
  8
0
 62
     7
 10
120.5238299999999
 20
149.80000000000001
 30
0.0
 40
3.0923400000000001
  1
115
 41
0.5
 72
     1
 11
122.06999999999989
 21
149.80000000000001
 31
0.0
  0
TEXT
  5
33
  8
0
 62
     7
 10
103.9039649999999
 20
149.1939999999999
 30
0.0
 40
3.0923400000000001
  1
30%%d
 41
0.5
 72
     2
 11
107.25399999999991
 21
149.1939999999999
 31
0.0
  0
TEXT
  5
34
  8
0
 62
     7
 10
123.92700000000001
 20
158.8609999999999
 30
0.0
 40
3.0923400000000001
  1
%%c44
 41
0.5
  0
TEXT
  5
35
  8
0
 62
     7
 10
134.38344000000001
 20
152.65100000000001
 30
0.0
 40
3.0923400000000001
  1
%%c54
 41
0.5
 72
     1
 11
136.44499999999991
 21
152.65100000000001
 31
0.0
  0
TEXT
  5
36
  8
0
 62
     7
 10
115.806
 20
151.44052499999989
 30
0.0
 40
3.0923400000000001
  1
55
 50
90.0
 41
0.5
 72
     1
 11
115.806
 21
152.7289999999999
 31
0.0
  0
TEXT
  5
37
  8
0
 62
     7
 10
97.867900000000006
 20
151.1593724999999
 30
0.0
 40
3.0923400000000001
  1
60
 50
90.0
 41
0.5
 72
     1
 11
97.867900000000006
 21
152.3189999999999
 31
0.0
  0
TEXT
  5
38
  8
0
 62
     7
 10
97.867900000000006
 20
119.3972875
 30
0.0
 40
3.0923400000000001
  1
370
 50
90.0
 41
0.5
 72
     1
 11
97.867900000000006
 21
121.33
 31
0.0
  0
TEXT
  5
39
  8
0
 62
     7
 10
163.166
 20
168.38628750000001
 30
0.0
 40
3.0923400000000001
  1
204
 50
90.0
 41
0.5
 72
     1
 11
163.166
 21
170.31899999999999
 31
0.0
  0
TEXT
  5
3A
  8
0
 62
     7
 10
156.52000000000001
 20
159.7651349999999
 30
0.0
 40
3.0923400000000001
  1
134
 50
90.0
 41
0.5
 72
     1
 11
156.52000000000001
 21
161.5689999999999
 31
0.0
  0
TEXT
  5
3B
  8
0
 62
     7
 10
156.52000000000001
 20
105.515135
 30
0.0
 40
3.0923400000000001
  1
300
 50
90.0
 41
0.5
 72
     1
 11
156.52000000000001
 21
107.319
 31
0.0
  0
LINE
  5
3C
  8
0
 62
     7
 10
144.15600000000001
 20
161.8839999999999
 30
0.0
 11
141.94499999999991
 21
161.291
 31
0.0
  0
LINE
  5
3D
  8
0
 62
     7
 10
141.94499999999991
 20
161.291
 30
0.0
 11
144.15600000000001
 21
160.69799999999989
 31
0.0
  0
LINE
  5
3E
  8
0
 62
     7
 10
144.15600000000001
 20
160.69799999999989
 30
0.0
 11
144.15600000000001
 21
161.8839999999999
 31
0.0
  0
LINE
  5
3F
  8
0
 62
     7
 10
145.2949999999999
 20
160.71299999999991
 30
0.0
 11
147.50700000000001
 21
161.30600000000001
 31
0.0
  0
LINE
  5
40
  8
0
 62
     7
 10
147.50700000000001
 20
161.30600000000001
 30
0.0
 11
145.2949999999999
 21
161.898
 31
0.0
  0
LINE
  5
41
  8
0
 62
     7
 10
145.2949999999999
 20
161.898
 30
0.0
 11
145.2949999999999
 21
160.71299999999991
 31
0.0
  0
LINE
  5
42
  8
0
 62
     7
 10
141.94499999999991
 20
161.291
 30
0.0
 11
147.50700000000001
 21
161.291
 31
0.0
  0
LINE
  5
43
  8
0
 62
     7
 10
147.50700000000001
 20
156.6049999999999
 30
0.0
 11
147.50700000000001
 21
161.99100000000001
 31
0.0
  0
LINE
  5
44
  8
0
 62
     7
 10
117.0979999999999
 20
156.357
 30
0.0
 11
116.5059999999999
 21
158.5689999999999
 31
0.0
  0
LINE
  5
45
  8
0
 62
     7
 10
116.5059999999999
 20
158.5689999999999
 30
0.0
 11
115.9129999999999
 21
156.357
 31
0.0
  0
LINE
  5
46
  8
0
 62
     7
 10
115.9129999999999
 20
156.357
 30
0.0
 11
117.0979999999999
 21
156.357
 31
0.0
  0
LINE
  5
47
  8
0
 62
     7
 10
115.9129999999999
 20
147.03100000000001
 30
0.0
 11
116.5059999999999
 21
144.8189999999999
 31
0.0
  0
LINE
  5
48
  8
0
 62
     7
 10
116.5059999999999
 20
144.8189999999999
 30
0.0
 11
117.0979999999999
 21
147.03100000000001
 31
0.0
  0
LINE
  5
49
  8
0
 62
     7
 10
117.0979999999999
 20
147.03100000000001
 30
0.0
 11
115.9129999999999
 21
147.03100000000001
 31
0.0
  0
LINE
  5
4A
  8
0
 62
     7
 10
116.5059999999999
 20
158.5689999999999
 30
0.0
 11
116.5059999999999
 21
144.8189999999999
 31
0.0
  0
LINE
  5
4B
  8
0
 62
     7
 10
99.211799999999997
 20
157.607
 30
0.0
 11
98.619200000000006
 21
159.8189999999999
 31
0.0
  0
LINE
  5
4C
  8
0
 62
     7
 10
98.619200000000006
 20
159.8189999999999
 30
0.0
 11
98.026700000000005
 21
157.607
 31
0.0
  0
LINE
  5
4D
  8
0
 62
     7
 10
98.026700000000005
 20
157.607
 30
0.0
 11
99.211799999999997
 21
157.607
 31
0.0
  0
LINE
  5
4E
  8
0
 62
     7
 10
98.041100000000014
 20
147.03100000000001
 30
0.0
 11
98.633700000000005
 21
144.8189999999999
 31
0.0
  0
LINE
  5
4F
  8
0
 62
     7
 10
98.633700000000005
 20
144.8189999999999
 30
0.0
 11
99.226299999999995
 21
147.03100000000001
 31
0.0
  0
LINE
  5
50
  8
0
 62
     7
 10
99.226299999999995
 20
147.03100000000001
 30
0.0
 11
98.041100000000014
 21
147.03100000000001
 31
0.0
  0
LINE
  5
51
  8
0
 62
     7
 10
98.619200000000006
 20
159.8189999999999
 30
0.0
 11
98.619200000000006
 21
144.8189999999999
 31
0.0
  0
LINE
  5
52
  8
0
 62
     7
 10
110.56
 20
158.5689999999999
 30
0.0
 11
117.206
 21
158.5689999999999
 31
0.0
  0
LINE
  5
53
  8
0
 62
     7
 10
97.919200000000004
 20
159.8189999999999
 30
0.0
 11
106.995
 21
159.8189999999999
 31
0.0
  0
LINE
  5
54
  8
0
 62
     7
 10
97.919200000000004
 20
144.8189999999999
 30
0.0
 11
128.995
 21
144.8189999999999
 31
0.0
  0
LINE
  5
55
  8
0
 62
     7
 10
134.233
 20
148.52199999999999
 30
0.0
 11
136.44499999999991
 21
149.114
 31
0.0
  0
LINE
  5
56
  8
0
 62
     7
 10
136.44499999999991
 20
149.114
 30
0.0
 11
134.233
 21
149.70699999999991
 31
0.0
  0
LINE
  5
57
  8
0
 62
     7
 10
134.233
 20
149.70699999999991
 30
0.0
 11
134.233
 21
148.52199999999999
 31
0.0
  0
LINE
  5
58
  8
0
 62
     7
 10
102.16
 20
154.756
 30
0.0
 11
104.2979999999999
 21
153.93600000000001
 31
0.0
  0
LINE
  5
59
  8
0
 62
     7
 10
104.2979999999999
 20
153.93600000000001
 30
0.0
 11
102.857
 21
155.715
 31
0.0
  0
LINE
  5
5A
  8
0
 62
     7
 10
102.857
 20
155.715
 30
0.0
 11
102.16
 21
154.756
 31
0.0
  0
LINE
  5
5B
  8
0
 62
     7
 10
109.857
 20
153.78100000000001
 30
0.0
 11
107.69499999999989
 21
153.02600000000001
 31
0.0
  0
LINE
  5
5C
  8
0
 62
     7
 10
107.69499999999989
 20
153.02600000000001
 30
0.0
 11
109.94499999999999
 21
152.59899999999999
 31
0.0
  0
LINE
  5
5D
  8
0
 62
     7
 10
109.94499999999999
 20
152.59899999999999
 30
0.0
 11
109.857
 21
153.78100000000001
 31
0.0
  0
LINE
  5
5E
  8
0
 62
     7
 10
109.90600000000001
 20
149.69200000000001
 30
0.0
 11
107.694
 21
149.09999999999991
 31
0.0
  0
LINE
  5
5F
  8
0
 62
     7
 10
107.694
 20
149.09999999999991
 30
0.0
 11
109.90600000000001
 21
148.50700000000001
 31
0.0
  0
LINE
  5
60
  8
0
 62
     7
 10
109.90600000000001
 20
148.50700000000001
 30
0.0
 11
109.90600000000001
 21
149.69200000000001
 31
0.0
  0
LINE
  5
61
  8
0
 62
     7
 10
136.44499999999991
 20
149.09999999999991
 30
0.0
 11
107.69499999999989
 21
149.09999999999991
 31
0.0
  0
LINE
  5
62
  8
0
 62
     7
 10
164.45899999999989
 20
193.60699999999991
 30
0.0
 11
163.8659999999999
 21
195.81899999999999
 31
0.0
  0
LINE
  5
63
  8
0
 62
     7
 10
163.8659999999999
 20
195.81899999999999
 30
0.0
 11
163.274
 21
193.60699999999991
 31
0.0
  0
LINE
  5
64
  8
0
 62
     7
 10
163.274
 20
193.60699999999991
 30
0.0
 11
164.45899999999989
 21
193.60699999999991
 31
0.0
  0
LINE
  5
65
  8
0
 62
     7
 10
163.2879999999999
 20
147.03100000000001
 30
0.0
 11
163.88099999999989
 21
144.8189999999999
 31
0.0
  0
LINE
  5
66
  8
0
 62
     7
 10
163.88099999999989
 20
144.8189999999999
 30
0.0
 11
164.4729999999999
 21
147.03100000000001
 31
0.0
  0
LINE
  5
67
  8
0
 62
     7
 10
164.4729999999999
 20
147.03100000000001
 30
0.0
 11
163.2879999999999
 21
147.03100000000001
 31
0.0
  0
LINE
  5
68
  8
0
 62
     7
 10
163.8659999999999
 20
195.81899999999999
 30
0.0
 11
163.8659999999999
 21
144.8189999999999
 31
0.0
  0
LINE
  5
69
  8
0
 62
     7
 10
156.905
 20
147.02999999999989
 30
0.0
 11
157.49700000000001
 21
144.8179999999999
 31
0.0
  0
LINE
  5
6A
  8
0
 62
     7
 10
157.49700000000001
 20
144.8179999999999
 30
0.0
 11
158.08999999999989
 21
147.02999999999989
 31
0.0
  0
LINE
  5
6B
  8
0
 62
     7
 10
158.08999999999989
 20
147.02999999999989
 30
0.0
 11
156.905
 21
147.02999999999989
 31
0.0
  0
LINE
  5
6C
  8
0
 62
     7
 10
158.0749999999999
 20
176.107
 30
0.0
 11
157.483
 21
178.31899999999999
 31
0.0
  0
LINE
  5
6D
  8
0
 62
     7
 10
157.483
 20
178.31899999999999
 30
0.0
 11
156.88999999999999
 21
176.107
 31
0.0
  0
LINE
  5
6E
  8
0
 62
     7
 10
156.88999999999999
 20
176.107
 30
0.0
 11
158.0749999999999
 21
176.107
 31
0.0
  0
LINE
  5
6F
  8
0
 62
     7
 10
157.483
 20
144.8189999999999
 30
0.0
 11
157.483
 21
178.31899999999999
 31
0.0
  0
LINE
  5
70
  8
0
 62
     7
 10
142.64500000000001
 20
178.31899999999999
 30
0.0
 11
158.18299999999999
 21
178.31899999999999
 31
0.0
  0
LINE
  5
71
  8
0
 62
     7
 10
138.77000000000001
 20
195.81899999999999
 30
0.0
 11
164.56599999999989
 21
195.81899999999999
 31
0.0
  0
LINE
  5
72
  8
0
 62
     7
 10
143.89500000000001
 20
144.8189999999999
 30
0.0
 11
164.56599999999989
 21
144.8189999999999
 31
0.0
  0
LINE
  5
73
  8
0
 62
     7
 10
141.94499999999991
 20
153.071
 30
0.0
 11
141.94499999999991
 21
172.39399999999989
 31
0.0
  0
LINE
  5
74
  8
0
 62
     7
 10
130.94499999999999
 20
171.90000000000001
 30
0.0
 11
130.94499999999999
 21
172.39399999999989
 31
0.0
  0
ARC
  5
75
  8
0
 62
     7
 10
107.7636659999999
 20
159.95065700000001
 30
0.0
 40
6.9254369999999987
 50
214.5733129999999
 51
269.42951299999987
  0
ARC
  5
76
  8
0
 62
     7
 10
107.68863899999999
 20
159.86496699999989
 30
0.0
 40
6.8394069999999996
 50
270.05087099999992
 51
294.68390699999992
  0
LINE
  5
77
  8
0
 62
     7
 10
107.69499999999989
 20
159.119
 30
0.0
 11
107.69499999999989
 21
148.39999999999989
 31
0.0
  0
LINE
  5
78
  8
0
 62
     7
 10
106.246
 20
157.31
 30
0.0
 11
103.895
 21
153.23699999999999
 31
0.0
  0
LINE
  5
79
  8
0
  6
AIGENLINE001
 62
     7
 10
106.508
 20
157.76400000000001
 30
0.0
 11
110.1079999999999
 21
164.0
 31
0.0
  0
LINE
  5
7A
  8
0
  6
AIGENLINE001
 62
     7
 10
115.997
 20
167.40000000000001
 30
0.0
 11
136.44499999999991
 21
167.40000000000001
 31
0.0
  0
ARC
  5
7B
  8
0
  6
AIGENLINE001
 62
     7
 10
116.077037
 20
160.461556
 30
0.0
 40
6.9385259999999986
 50
90.657262000000003
 51
149.341577
  0
LINE
  5
7C
  8
0
 62
     7
 10
52.9422
 20
160.11799999999999
 30
0.0
 11
52.9422
 21
160.09999999999991
 31
0.0
  0
LINE
  5
7D
  8
0
 62
     7
 10
48.942399999999992
 20
160.11799999999999
 30
0.0
 11
48.942399999999992
 21
160.09999999999991
 31
0.0
  0
LINE
  5
7E
  8
0
 62
     7
 10
52.56730000000001
 20
160.209
 30
0.0
 11
52.56730000000001
 21
160.4739999999999
 31
0.0
  0
LINE
  5
7F
  8
0
 62
     7
 10
49.3172
 20
160.209
 30
0.0
 11
49.3172
 21
160.4739999999999
 31
0.0
  0
LINE
  5
80
  8
0
 62
     7
 10
50.214300000000001
 20
159.827
 30
0.0
 11
50.214300000000001
 21
159.94099999999989
 31
0.0
  0
LINE
  5
81
  8
0
 62
     7
 10
50.095500000000001
 20
159.846
 30
0.0
 11
50.095500000000001
 21
159.9189999999999
 31
0.0
  0
LINE
  5
82
  8
0
 62
     7
 10
50.07
 20
159.9079999999999
 30
0.0
 11
50.095500000000001
 21
159.846
 31
0.0
  0
LINE
  5
83
  8
0
 62
     7
 10
50.095500000000001
 20
159.846
 30
0.0
 11
50.214300000000001
 21
159.827
 31
0.0
  0
LINE
  5
84
  8
0
 62
     7
 10
50.214300000000001
 20
159.827
 30
0.0
 11
50.307299999999998
 21
159.86899999999989
 31
0.0
  0
LINE
  5
85
  8
0
 62
     7
 10
50.307299999999998
 20
159.86899999999989
 30
0.0
 11
50.28179999999999
 21
159.93000000000001
 31
0.0
  0
LINE
  5
86
  8
0
 62
     7
 10
50.28179999999999
 20
159.93000000000001
 30
0.0
 11
50.163000000000011
 21
159.9489999999999
 31
0.0
  0
LINE
  5
87
  8
0
 62
     7
 10
50.163000000000011
 20
159.9489999999999
 30
0.0
 11
50.07
 21
159.9079999999999
 31
0.0
  0
LINE
  5
88
  8
0
 62
     7
 10
50.034100000000002
 20
159.928
 30
0.0
 11
50.034100000000002
 21
160.041
 31
0.0
  0
LINE
  5
89
  8
0
 62
     7
 10
49.915300000000002
 20
159.947
 30
0.0
 11
49.915300000000002
 21
160.01900000000001
 31
0.0
  0
LINE
  5
8A
  8
0
 62
     7
 10
50.101300000000002
 20
160.03
 30
0.0
 11
49.982500000000002
 21
160.05000000000001
 31
0.0
  0
LINE
  5
8B
  8
0
 62
     7
 10
49.982500000000002
 20
160.05000000000001
 30
0.0
 11
49.889400000000002
 21
160.0079999999999
 31
0.0
  0
LINE
  5
8C
  8
0
 62
     7
 10
49.889400000000002
 20
160.0079999999999
 30
0.0
 11
49.915300000000002
 21
159.947
 31
0.0
  0
LINE
  5
8D
  8
0
 62
     7
 10
49.915300000000002
 20
159.947
 30
0.0
 11
50.034100000000002
 21
159.928
 31
0.0
  0
LINE
  5
8E
  8
0
 62
     7
 10
50.034100000000002
 20
159.928
 30
0.0
 11
50.127099999999999
 21
159.96899999999999
 31
0.0
  0
LINE
  5
8F
  8
0
 62
     7
 10
50.127099999999999
 20
159.96899999999999
 30
0.0
 11
50.101300000000002
 21
160.03
 31
0.0
  0
LINE
  5
90
  8
0
 62
     7
 10
51.333999999999989
 20
159.715
 30
0.0
 11
51.333999999999989
 21
159.82900000000001
 31
0.0
  0
LINE
  5
91
  8
0
 62
     7
 10
51.215499999999999
 20
159.73500000000001
 30
0.0
 11
51.215499999999999
 21
159.80699999999999
 31
0.0
  0
LINE
  5
92
  8
0
 62
     7
 10
51.215499999999999
 20
159.73500000000001
 30
0.0
 11
51.333999999999989
 21
159.715
 31
0.0
  0
LINE
  5
93
  8
0
 62
     7
 10
51.333999999999989
 20
159.715
 30
0.0
 11
51.427
 21
159.75700000000001
 31
0.0
  0
LINE
  5
94
  8
0
 62
     7
 10
51.427
 20
159.75700000000001
 30
0.0
 11
51.401499999999999
 21
159.8179999999999
 31
0.0
  0
LINE
  5
95
  8
0
 62
     7
 10
51.401499999999999
 20
159.8179999999999
 30
0.0
 11
51.282600000000002
 21
159.83699999999999
 31
0.0
  0
LINE
  5
96
  8
0
 62
     7
 10
51.282600000000002
 20
159.83699999999999
 30
0.0
 11
51.189599999999999
 21
159.79599999999999
 31
0.0
  0
LINE
  5
97
  8
0
 62
     7
 10
51.189599999999999
 20
159.79599999999999
 30
0.0
 11
51.215499999999999
 21
159.73500000000001
 31
0.0
  0
LINE
  5
98
  8
0
 62
     7
 10
51.070099999999989
 20
159.68700000000001
 30
0.0
 11
51.070099999999989
 21
159.80099999999999
 31
0.0
  0
LINE
  5
99
  8
0
 62
     7
 10
50.9512
 20
159.70699999999991
 30
0.0
 11
50.9512
 21
159.77899999999991
 31
0.0
  0
LINE
  5
9A
  8
0
 62
     7
 10
51.0184
 20
159.809
 30
0.0
 11
50.925400000000003
 21
159.76799999999989
 31
0.0
  0
LINE
  5
9B
  8
0
 62
     7
 10
50.925400000000003
 20
159.76799999999989
 30
0.0
 11
50.9512
 21
159.70699999999991
 31
0.0
  0
LINE
  5
9C
  8
0
 62
     7
 10
50.9512
 20
159.70699999999991
 30
0.0
 11
51.070099999999989
 21
159.68700000000001
 31
0.0
  0
LINE
  5
9D
  8
0
 62
     7
 10
51.070099999999989
 20
159.68700000000001
 30
0.0
 11
51.1631
 21
159.7289999999999
 31
0.0
  0
LINE
  5
9E
  8
0
 62
     7
 10
51.1631
 20
159.7289999999999
 30
0.0
 11
51.137300000000003
 21
159.78999999999991
 31
0.0
  0
LINE
  5
9F
  8
0
 62
     7
 10
51.137300000000003
 20
159.78999999999991
 30
0.0
 11
51.0184
 21
159.809
 31
0.0
  0
LINE
  5
A0
  8
0
 62
     7
 10
51.968899999999991
 20
160.1639999999999
 30
0.0
 11
51.968899999999991
 21
160.23599999999999
 31
0.0
  0
LINE
  5
A1
  8
0
 62
     7
 10
52.087800000000001
 20
160.14400000000001
 30
0.0
 11
52.087800000000001
 21
160.2579999999999
 31
0.0
  0
LINE
  5
A2
  8
0
 62
     7
 10
52.087800000000001
 20
160.14400000000001
 30
0.0
 11
52.180799999999998
 21
160.18600000000001
 31
0.0
  0
LINE
  5
A3
  8
0
 62
     7
 10
52.180799999999998
 20
160.18600000000001
 30
0.0
 11
52.154899999999991
 21
160.24700000000001
 31
0.0
  0
LINE
  5
A4
  8
0
 62
     7
 10
52.154899999999991
 20
160.24700000000001
 30
0.0
 11
52.036099999999998
 21
160.26599999999999
 31
0.0
  0
LINE
  5
A5
  8
0
 62
     7
 10
52.036099999999998
 20
160.26599999999999
 30
0.0
 11
51.943100000000001
 21
160.2239999999999
 31
0.0
  0
LINE
  5
A6
  8
0
 62
     7
 10
51.943100000000001
 20
160.2239999999999
 30
0.0
 11
51.968899999999991
 21
160.1639999999999
 31
0.0
  0
LINE
  5
A7
  8
0
 62
     7
 10
51.968899999999991
 20
160.1639999999999
 30
0.0
 11
52.087800000000001
 21
160.14400000000001
 31
0.0
  0
LINE
  5
A8
  8
0
 62
     7
 10
52.003999999999998
 20
160.01599999999991
 30
0.0
 11
52.003999999999998
 21
160.12899999999991
 31
0.0
  0
LINE
  5
A9
  8
0
 62
     7
 10
51.885199999999998
 20
160.03499999999991
 30
0.0
 11
51.885199999999998
 21
160.108
 31
0.0
  0
LINE
  5
AA
  8
0
 62
     7
 10
51.859400000000001
 20
160.096
 30
0.0
 11
51.885199999999998
 21
160.03499999999991
 31
0.0
  0
LINE
  5
AB
  8
0
 62
     7
 10
51.885199999999998
 20
160.03499999999991
 30
0.0
 11
52.003999999999998
 21
160.01599999999991
 31
0.0
  0
LINE
  5
AC
  8
0
 62
     7
 10
52.003999999999998
 20
160.01599999999991
 30
0.0
 11
52.097099999999998
 21
160.05699999999999
 31
0.0
  0
LINE
  5
AD
  8
0
 62
     7
 10
52.097099999999998
 20
160.05699999999999
 30
0.0
 11
52.07119999999999
 21
160.11799999999999
 31
0.0
  0
LINE
  5
AE
  8
0
 62
     7
 10
52.07119999999999
 20
160.11799999999999
 30
0.0
 11
51.952399999999997
 21
160.13799999999989
 31
0.0
  0
LINE
  5
AF
  8
0
 62
     7
 10
51.952399999999997
 20
160.13799999999989
 30
0.0
 11
51.859400000000001
 21
160.096
 31
0.0
  0
LINE
  5
B0
  8
0
 62
     7
 10
51.603000000000002
 20
160.70400000000001
 30
0.0
 11
51.603000000000002
 21
160.77699999999999
 31
0.0
  0
LINE
  5
B1
  8
0
 62
     7
 10
51.721899999999998
 20
160.685
 30
0.0
 11
51.721899999999998
 21
160.78700000000001
 31
0.0
  0
LINE
  5
B2
  8
0
 62
     7
 10
51.814900000000002
 20
160.726
 30
0.0
 11
51.7956
 21
160.77199999999999
 31
0.0
  0
LINE
  5
B3
  8
0
 62
     7
 10
51.654699999999998
 20
160.80000000000001
 30
0.0
 11
51.577199999999998
 21
160.7649999999999
 31
0.0
  0
LINE
  5
B4
  8
0
 62
     7
 10
51.577199999999998
 20
160.7649999999999
 30
0.0
 11
51.603000000000002
 21
160.70400000000001
 31
0.0
  0
LINE
  5
B5
  8
0
 62
     7
 10
51.603000000000002
 20
160.70400000000001
 30
0.0
 11
51.721899999999998
 21
160.685
 31
0.0
  0
LINE
  5
B6
  8
0
 62
     7
 10
51.721899999999998
 20
160.685
 30
0.0
 11
51.814900000000002
 21
160.726
 31
0.0
  0
LINE
  5
B7
  8
0
 62
     7
 10
51.902099999999997
 20
160.584
 30
0.0
 11
51.902099999999997
 21
160.69799999999989
 31
0.0
  0
LINE
  5
B8
  8
0
 62
     7
 10
51.783200000000001
 20
160.6039999999999
 30
0.0
 11
51.783200000000001
 21
160.67599999999999
 31
0.0
  0
LINE
  5
B9
  8
0
 62
     7
 10
51.783200000000001
 20
160.6039999999999
 30
0.0
 11
51.902099999999997
 21
160.584
 31
0.0
  0
LINE
  5
BA
  8
0
 62
     7
 10
51.902099999999997
 20
160.584
 30
0.0
 11
51.995100000000001
 21
160.62599999999989
 31
0.0
  0
LINE
  5
BB
  8
0
 62
     7
 10
51.995100000000001
 20
160.62599999999989
 30
0.0
 11
51.969200000000001
 21
160.68700000000001
 31
0.0
  0
LINE
  5
BC
  8
0
 62
     7
 10
51.969200000000001
 20
160.68700000000001
 30
0.0
 11
51.8504
 21
160.70599999999999
 31
0.0
  0
LINE
  5
BD
  8
0
 62
     7
 10
51.8504
 20
160.70599999999999
 30
0.0
 11
51.757399999999997
 21
160.66499999999991
 31
0.0
  0
LINE
  5
BE
  8
0
 62
     7
 10
51.757399999999997
 20
160.66499999999991
 30
0.0
 11
51.783200000000001
 21
160.6039999999999
 31
0.0
  0
LINE
  5
BF
  8
0
 62
     7
 10
50.602200000000011
 20
160.79699999999991
 30
0.0
 11
50.602200000000011
 21
160.8489999999999
 31
0.0
  0
LINE
  5
C0
  8
0
 62
     7
 10
50.483400000000003
 20
160.81599999999989
 30
0.0
 11
50.483400000000003
 21
160.83699999999999
 31
0.0
  0
LINE
  5
C1
  8
0
 62
     7
 10
50.474800000000002
 20
160.83600000000001
 30
0.0
 11
50.483400000000003
 21
160.81599999999989
 31
0.0
  0
LINE
  5
C2
  8
0
 62
     7
 10
50.483400000000003
 20
160.81599999999989
 30
0.0
 11
50.602200000000011
 21
160.79699999999991
 31
0.0
  0
LINE
  5
C3
  8
0
 62
     7
 10
50.602200000000011
 20
160.79699999999991
 30
0.0
 11
50.6952
 21
160.83799999999991
 31
0.0
  0
LINE
  5
C4
  8
0
 62
     7
 10
50.6952
 20
160.83799999999991
 30
0.0
 11
50.688000000000002
 21
160.8549999999999
 31
0.0
  0
LINE
  5
C5
  8
0
 62
     7
 10
50.747300000000003
 20
160.84399999999991
 30
0.0
 11
50.747300000000003
 21
160.858
 31
0.0
  0
LINE
  5
C6
  8
0
 62
     7
 10
50.866100000000003
 20
160.8249999999999
 30
0.0
 11
50.866100000000003
 21
160.86199999999991
 31
0.0
  0
LINE
  5
C7
  8
0
 62
     7
 10
50.866100000000003
 20
160.8249999999999
 30
0.0
 11
50.951599999999992
 21
160.86299999999989
 31
0.0
  0
LINE
  5
C8
  8
0
 62
     7
 10
50.741399999999992
 20
160.858
 30
0.0
 11
50.747300000000003
 21
160.84399999999991
 31
0.0
  0
LINE
  5
C9
  8
0
 62
     7
 10
50.747300000000003
 20
160.84399999999991
 30
0.0
 11
50.866100000000003
 21
160.8249999999999
 31
0.0
  0
LINE
  5
CA
  8
0
 62
     7
 10
49.848399999999998
 20
160.36799999999991
 30
0.0
 11
49.848399999999998
 21
160.48099999999999
 31
0.0
  0
LINE
  5
CB
  8
0
 62
     7
 10
49.729599999999998
 20
160.387
 30
0.0
 11
49.729599999999998
 21
160.46000000000001
 31
0.0
  0
LINE
  5
CC
  8
0
 62
     7
 10
49.941499999999998
 20
160.40899999999999
 30
0.0
 11
49.915599999999991
 21
160.47
 31
0.0
  0
LINE
  5
CD
  8
0
 62
     7
 10
49.848399999999998
 20
160.36799999999991
 30
0.0
 11
49.941499999999998
 21
160.40899999999999
 31
0.0
  0
LINE
  5
CE
  8
0
 62
     7
 10
49.729599999999998
 20
160.387
 30
0.0
 11
49.848399999999998
 21
160.36799999999991
 31
0.0
  0
LINE
  5
CF
  8
0
 62
     7
 10
49.703699999999991
 20
160.44799999999989
 30
0.0
 11
49.729599999999998
 21
160.387
 31
0.0
  0
LINE
  5
D0
  8
0
 62
     7
 10
49.796799999999998
 20
160.49000000000001
 30
0.0
 11
49.703699999999991
 21
160.44799999999989
 31
0.0
  0
LINE
  5
D1
  8
0
 62
     7
 10
49.915599999999991
 20
160.47
 30
0.0
 11
49.796799999999998
 21
160.49000000000001
 31
0.0
  0
LINE
  5
D2
  8
0
 62
     7
 10
49.813299999999991
 20
160.51599999999991
 30
0.0
 11
49.813299999999991
 21
160.58799999999991
 31
0.0
  0
LINE
  5
D3
  8
0
 62
     7
 10
49.932200000000002
 20
160.49600000000001
 30
0.0
 11
49.932200000000002
 21
160.61000000000001
 31
0.0
  0
LINE
  5
D4
  8
0
 62
     7
 10
49.813299999999991
 20
160.51599999999991
 30
0.0
 11
49.932200000000002
 21
160.49600000000001
 31
0.0
  0
LINE
  5
D5
  8
0
 62
     7
 10
49.787799999999997
 20
160.57699999999991
 30
0.0
 11
49.813299999999991
 21
160.51599999999991
 31
0.0
  0
LINE
  5
D6
  8
0
 62
     7
 10
49.880800000000001
 20
160.61799999999991
 30
0.0
 11
49.787799999999997
 21
160.57699999999991
 31
0.0
  0
LINE
  5
D7
  8
0
 62
     7
 10
49.999299999999991
 20
160.59899999999999
 30
0.0
 11
49.880800000000001
 21
160.61799999999991
 31
0.0
  0
LINE
  5
D8
  8
0
 62
     7
 10
50.025199999999998
 20
160.5379999999999
 30
0.0
 11
49.999299999999991
 21
160.59899999999999
 31
0.0
  0
LINE
  5
D9
  8
0
 62
     7
 10
49.932200000000002
 20
160.49600000000001
 30
0.0
 11
50.025199999999998
 21
160.5379999999999
 31
0.0
  0
LINE
  5
DA
  8
0
 62
     7
 10
50.465499999999992
 20
159.8489999999999
 30
0.0
 11
50.465499999999992
 21
159.96299999999991
 31
0.0
  0
LINE
  5
DB
  8
0
 62
     7
 10
50.346600000000002
 20
159.86799999999991
 30
0.0
 11
50.346600000000002
 21
159.94099999999989
 31
0.0
  0
LINE
  5
DC
  8
0
 62
     7
 10
51.421500000000002
 20
159.83500000000001
 30
0.0
 11
51.421500000000002
 21
159.9489999999999
 31
0.0
  0
LINE
  5
DD
  8
0
 62
     7
 10
51.302999999999997
 20
159.8539999999999
 30
0.0
 11
51.302999999999997
 21
159.92699999999999
 31
0.0
  0
LINE
  5
DE
  8
0
 62
     7
 10
51.924100000000003
 20
160.24199999999999
 30
0.0
 11
51.924100000000003
 21
160.35499999999999
 31
0.0
  0
LINE
  5
DF
  8
0
 62
     7
 10
51.805300000000003
 20
160.261
 30
0.0
 11
51.805300000000003
 21
160.334
 31
0.0
  0
LINE
  5
E0
  8
0
 62
     7
 10
51.470700000000001
 20
160.6629999999999
 30
0.0
 11
51.470700000000001
 21
160.77699999999999
 31
0.0
  0
LINE
  5
E1
  8
0
 62
     7
 10
51.351900000000001
 20
160.68199999999999
 30
0.0
 11
51.351900000000001
 21
160.75499999999991
 31
0.0
  0
LINE
  5
E2
  8
0
 62
     7
 10
50.395899999999997
 20
160.69599999999991
 30
0.0
 11
50.395899999999997
 21
160.76900000000001
 31
0.0
  0
LINE
  5
E3
  8
0
 62
     7
 10
50.514699999999998
 20
160.67699999999999
 30
0.0
 11
50.514699999999998
 21
160.79099999999991
 31
0.0
  0
LINE
  5
E4
  8
0
 62
     7
 10
50.558500000000002
 20
159.89099999999999
 30
0.0
 11
50.532600000000002
 21
159.952
 31
0.0
  0
LINE
  5
E5
  8
0
 62
     7
 10
50.465499999999992
 20
159.8489999999999
 30
0.0
 11
50.558500000000002
 21
159.89099999999999
 31
0.0
  0
LINE
  5
E6
  8
0
 62
     7
 10
50.346600000000002
 20
159.86799999999991
 30
0.0
 11
50.465499999999992
 21
159.8489999999999
 31
0.0
  0
LINE
  5
E7
  8
0
 62
     7
 10
50.320799999999998
 20
159.93000000000001
 30
0.0
 11
50.346600000000002
 21
159.86799999999991
 31
0.0
  0
LINE
  5
E8
  8
0
 62
     7
 10
50.413800000000002
 20
159.97099999999989
 30
0.0
 11
50.320799999999998
 21
159.93000000000001
 31
0.0
  0
LINE
  5
E9
  8
0
 62
     7
 10
50.532600000000002
 20
159.952
 30
0.0
 11
50.413800000000002
 21
159.97099999999989
 31
0.0
  0
LINE
  5
EA
  8
0
 62
     7
 10
51.488999999999997
 20
159.93799999999999
 30
0.0
 11
51.370100000000001
 21
159.95699999999991
 31
0.0
  0
LINE
  5
EB
  8
0
 62
     7
 10
51.514499999999998
 20
159.87700000000001
 30
0.0
 11
51.488999999999997
 21
159.93799999999999
 31
0.0
  0
LINE
  5
EC
  8
0
 62
     7
 10
51.421500000000002
 20
159.83500000000001
 30
0.0
 11
51.514499999999998
 21
159.87700000000001
 31
0.0
  0
LINE
  5
ED
  8
0
 62
     7
 10
51.302999999999997
 20
159.8539999999999
 30
0.0
 11
51.421500000000002
 21
159.83500000000001
 31
0.0
  0
LINE
  5
EE
  8
0
 62
     7
 10
51.277099999999997
 20
159.91499999999991
 30
0.0
 11
51.302999999999997
 21
159.8539999999999
 31
0.0
  0
LINE
  5
EF
  8
0
 62
     7
 10
51.370100000000001
 20
159.95699999999991
 30
0.0
 11
51.277099999999997
 21
159.91499999999991
 31
0.0
  0
LINE
  5
F0
  8
0
 62
     7
 10
51.872799999999998
 20
160.364
 30
0.0
 11
51.779800000000002
 21
160.322
 31
0.0
  0
LINE
  5
F1
  8
0
 62
     7
 10
51.991300000000003
 20
160.345
 30
0.0
 11
51.872799999999998
 21
160.364
 31
0.0
  0
LINE
  5
F2
  8
0
 62
     7
 10
52.017099999999999
 20
160.2829999999999
 30
0.0
 11
51.991300000000003
 21
160.345
 31
0.0
  0
LINE
  5
F3
  8
0
 62
     7
 10
51.924100000000003
 20
160.24199999999999
 30
0.0
 11
52.017099999999999
 21
160.2829999999999
 31
0.0
  0
LINE
  5
F4
  8
0
 62
     7
 10
51.805300000000003
 20
160.261
 30
0.0
 11
51.924100000000003
 21
160.24199999999999
 31
0.0
  0
LINE
  5
F5
  8
0
 62
     7
 10
51.779800000000002
 20
160.322
 30
0.0
 11
51.805300000000003
 21
160.261
 31
0.0
  0
LINE
  5
F6
  8
0
 62
     7
 10
51.326000000000001
 20
160.74299999999991
 30
0.0
 11
51.351900000000001
 21
160.68199999999999
 31
0.0
  0
LINE
  5
F7
  8
0
 62
     7
 10
51.4191
 20
160.785
 30
0.0
 11
51.326000000000001
 21
160.74299999999991
 31
0.0
  0
LINE
  5
F8
  8
0
 62
     7
 10
51.5379
 20
160.76599999999991
 30
0.0
 11
51.4191
 21
160.785
 31
0.0
  0
LINE
  5
F9
  8
0
 62
     7
 10
51.563800000000001
 20
160.70400000000001
 30
0.0
 11
51.5379
 21
160.76599999999991
 31
0.0
  0
LINE
  5
FA
  8
0
 62
     7
 10
51.470700000000001
 20
160.6629999999999
 30
0.0
 11
51.563800000000001
 21
160.70400000000001
 31
0.0
  0
LINE
  5
FB
  8
0
 62
     7
 10
51.351900000000001
 20
160.68199999999999
 30
0.0
 11
51.470700000000001
 21
160.6629999999999
 31
0.0
  0
LINE
  5
FC
  8
0
 62
     7
 10
50.395899999999997
 20
160.69599999999991
 30
0.0
 11
50.514699999999998
 21
160.67699999999999
 31
0.0
  0
LINE
  5
FD
  8
0
 62
     7
 10
50.36999999999999
 20
160.75700000000001
 30
0.0
 11
50.395899999999997
 21
160.69599999999991
 31
0.0
  0
LINE
  5
FE
  8
0
 62
     7
 10
50.463000000000001
 20
160.79900000000001
 30
0.0
 11
50.36999999999999
 21
160.75700000000001
 31
0.0
  0
LINE
  5
FF
  8
0
 62
     7
 10
50.58189999999999
 20
160.78
 30
0.0
 11
50.463000000000001
 21
160.79900000000001
 31
0.0
  0
LINE
  5
100
  8
0
 62
     7
 10
50.607700000000001
 20
160.71899999999991
 30
0.0
 11
50.58189999999999
 21
160.78
 31
0.0
  0
LINE
  5
101
  8
0
 62
     7
 10
50.514699999999998
 20
160.67699999999999
 30
0.0
 11
50.607700000000001
 21
160.71899999999991
 31
0.0
  0
LINE
  5
102
  8
0
 62
     7
 10
50.012099999999997
 20
160.27000000000001
 30
0.0
 11
50.012099999999997
 21
160.3839999999999
 31
0.0
  0
LINE
  5
103
  8
0
 62
     7
 10
49.8932
 20
160.2889999999999
 30
0.0
 11
49.8932
 21
160.36199999999999
 31
0.0
  0
LINE
  5
104
  8
0
 62
     7
 10
50.012099999999997
 20
160.27000000000001
 30
0.0
 11
50.1051
 21
160.31200000000001
 31
0.0
  0
LINE
  5
105
  8
0
 62
     7
 10
49.8932
 20
160.2889999999999
 30
0.0
 11
50.012099999999997
 21
160.27000000000001
 31
0.0
  0
LINE
  5
106
  8
0
 62
     7
 10
49.867400000000011
 20
160.35099999999991
 30
0.0
 11
49.8932
 21
160.2889999999999
 31
0.0
  0
LINE
  5
107
  8
0
 62
     7
 10
49.9604
 20
160.392
 30
0.0
 11
49.867400000000011
 21
160.35099999999991
 31
0.0
  0
LINE
  5
108
  8
0
 62
     7
 10
50.079300000000003
 20
160.37299999999991
 30
0.0
 11
49.9604
 21
160.392
 31
0.0
  0
LINE
  5
109
  8
0
 62
     7
 10
50.1051
 20
160.31200000000001
 30
0.0
 11
50.079300000000003
 21
160.37299999999991
 31
0.0
  0
LINE
  5
10A
  8
0
 62
     7
 10
50.893300000000004
 20
159.77899999999991
 30
0.0
 11
50.893300000000004
 21
159.893
 31
0.0
  0
LINE
  5
10B
  8
0
 62
     7
 10
50.774500000000003
 20
159.79799999999989
 30
0.0
 11
50.774500000000003
 21
159.87100000000001
 31
0.0
  0
LINE
  5
10C
  8
0
 62
     7
 10
51.637799999999999
 20
160.00399999999991
 30
0.0
 11
51.637799999999999
 21
160.07699999999991
 31
0.0
  0
LINE
  5
10D
  8
0
 62
     7
 10
51.756700000000002
 20
159.98500000000001
 30
0.0
 11
51.756700000000002
 21
160.0989999999999
 31
0.0
  0
LINE
  5
10E
  8
0
 62
     7
 10
51.831400000000002
 20
160.46199999999999
 30
0.0
 11
51.831400000000002
 21
160.57599999999999
 31
0.0
  0
LINE
  5
10F
  8
0
 62
     7
 10
51.712600000000002
 20
160.48099999999999
 30
0.0
 11
51.712600000000002
 21
160.55399999999989
 31
0.0
  0
LINE
  5
110
  8
0
 62
     7
 10
51.042900000000003
 20
160.733
 30
0.0
 11
51.042900000000003
 21
160.84700000000001
 31
0.0
  0
LINE
  5
111
  8
0
 62
     7
 10
50.923999999999999
 20
160.75200000000001
 30
0.0
 11
50.923999999999999
 21
160.8249999999999
 31
0.0
  0
LINE
  5
112
  8
0
 62
     7
 10
50.17949999999999
 20
160.52699999999999
 30
0.0
 11
50.17949999999999
 21
160.64099999999991
 31
0.0
  0
LINE
  5
113
  8
0
 62
     7
 10
50.061
 20
160.54599999999991
 30
0.0
 11
50.061
 21
160.61899999999989
 31
0.0
  0
LINE
  5
114
  8
0
 62
     7
 10
50.74860000000001
 20
159.86000000000001
 30
0.0
 11
50.774500000000003
 21
159.79799999999989
 31
0.0
  0
LINE
  5
115
  8
0
 62
     7
 10
50.841700000000003
 20
159.9009999999999
 30
0.0
 11
50.74860000000001
 21
159.86000000000001
 31
0.0
  0
LINE
  5
116
  8
0
 62
     7
 10
50.960500000000003
 20
159.88200000000001
 30
0.0
 11
50.841700000000003
 21
159.9009999999999
 31
0.0
  0
LINE
  5
117
  8
0
 62
     7
 10
50.986400000000003
 20
159.82099999999991
 30
0.0
 11
50.960500000000003
 21
159.88200000000001
 31
0.0
  0
LINE
  5
118
  8
0
 62
     7
 10
50.893300000000004
 20
159.77899999999991
 30
0.0
 11
50.986400000000003
 21
159.82099999999991
 31
0.0
  0
LINE
  5
119
  8
0
 62
     7
 10
50.774500000000003
 20
159.79799999999989
 30
0.0
 11
50.893300000000004
 21
159.77899999999991
 31
0.0
  0
LINE
  5
11A
  8
0
 62
     7
 10
51.637799999999999
 20
160.00399999999991
 30
0.0
 11
51.756700000000002
 21
159.98500000000001
 31
0.0
  0
LINE
  5
11B
  8
0
 62
     7
 10
51.612000000000002
 20
160.06599999999989
 30
0.0
 11
51.637799999999999
 21
160.00399999999991
 31
0.0
  0
LINE
  5
11C
  8
0
 62
     7
 10
51.704999999999998
 20
160.10699999999991
 30
0.0
 11
51.612000000000002
 21
160.06599999999989
 31
0.0
  0
LINE
  5
11D
  8
0
 62
     7
 10
51.823900000000002
 20
160.08799999999999
 30
0.0
 11
51.704999999999998
 21
160.10699999999991
 31
0.0
  0
LINE
  5
11E
  8
0
 62
     7
 10
51.849699999999991
 20
160.02699999999999
 30
0.0
 11
51.823900000000002
 21
160.08799999999999
 31
0.0
  0
LINE
  5
11F
  8
0
 62
     7
 10
51.756700000000002
 20
159.98500000000001
 30
0.0
 11
51.849699999999991
 21
160.02699999999999
 31
0.0
  0
LINE
  5
120
  8
0
 62
     7
 10
51.831400000000002
 20
160.46199999999999
 30
0.0
 11
51.924500000000002
 21
160.50399999999991
 31
0.0
  0
LINE
  5
121
  8
0
 62
     7
 10
51.712600000000002
 20
160.48099999999999
 30
0.0
 11
51.831400000000002
 21
160.46199999999999
 31
0.0
  0
LINE
  5
122
  8
0
 62
     7
 10
51.686700000000002
 20
160.542
 30
0.0
 11
51.712600000000002
 21
160.48099999999999
 31
0.0
  0
LINE
  5
123
  8
0
 62
     7
 10
51.779800000000002
 20
160.584
 30
0.0
 11
51.686700000000002
 21
160.542
 31
0.0
  0
LINE
  5
124
  8
0
 62
     7
 10
51.898600000000002
 20
160.56499999999991
 30
0.0
 11
51.779800000000002
 21
160.584
 31
0.0
  0
LINE
  5
125
  8
0
 62
     7
 10
51.924500000000002
 20
160.50399999999991
 30
0.0
 11
51.898600000000002
 21
160.56499999999991
 31
0.0
  0
LINE
  5
126
  8
0
 62
     7
 10
51.135899999999999
 20
160.77399999999989
 30
0.0
 11
51.109999999999999
 21
160.83600000000001
 31
0.0
  0
LINE
  5
127
  8
0
 62
     7
 10
51.042900000000003
 20
160.733
 30
0.0
 11
51.135899999999999
 21
160.77399999999989
 31
0.0
  0
LINE
  5
128
  8
0
 62
     7
 10
50.923999999999999
 20
160.75200000000001
 30
0.0
 11
51.042900000000003
 21
160.733
 31
0.0
  0
LINE
  5
129
  8
0
 62
     7
 10
50.898499999999999
 20
160.8129999999999
 30
0.0
 11
50.923999999999999
 21
160.75200000000001
 31
0.0
  0
LINE
  5
12A
  8
0
 62
     7
 10
50.991500000000002
 20
160.8549999999999
 30
0.0
 11
50.898499999999999
 21
160.8129999999999
 31
0.0
  0
LINE
  5
12B
  8
0
 62
     7
 10
51.109999999999999
 20
160.83600000000001
 30
0.0
 11
50.991500000000002
 21
160.8549999999999
 31
0.0
  0
LINE
  5
12C
  8
0
 62
     7
 10
50.247
 20
160.63
 30
0.0
 11
50.1282
 21
160.64899999999989
 31
0.0
  0
LINE
  5
12D
  8
0
 62
     7
 10
50.272500000000001
 20
160.5679999999999
 30
0.0
 11
50.247
 21
160.63
 31
0.0
  0
LINE
  5
12E
  8
0
 62
     7
 10
50.17949999999999
 20
160.52699999999999
 30
0.0
 11
50.272500000000001
 21
160.5679999999999
 31
0.0
  0
LINE
  5
12F
  8
0
 62
     7
 10
50.061
 20
160.54599999999991
 30
0.0
 11
50.17949999999999
 21
160.52699999999999
 31
0.0
  0
LINE
  5
130
  8
0
 62
     7
 10
50.035200000000003
 20
160.607
 30
0.0
 11
50.061
 21
160.54599999999991
 31
0.0
  0
LINE
  5
131
  8
0
 62
     7
 10
50.1282
 20
160.64899999999989
 30
0.0
 11
50.035200000000003
 21
160.607
 31
0.0
  0
LINE
  5
132
  8
0
 62
     7
 10
50.104799999999997
 20
160.05000000000001
 30
0.0
 11
50.104799999999997
 21
160.1639999999999
 31
0.0
  0
LINE
  5
133
  8
0
 62
     7
 10
49.985900000000001
 20
160.0689999999999
 30
0.0
 11
49.985900000000001
 21
160.142
 31
0.0
  0
LINE
  5
134
  8
0
 62
     7
 10
50.053100000000001
 20
160.172
 30
0.0
 11
49.960099999999997
 21
160.12999999999991
 31
0.0
  0
LINE
  5
135
  8
0
 62
     7
 10
50.171900000000001
 20
160.15299999999991
 30
0.0
 11
50.053100000000001
 21
160.172
 31
0.0
  0
LINE
  5
136
  8
0
 62
     7
 10
50.197800000000001
 20
160.09100000000001
 30
0.0
 11
50.171900000000001
 21
160.15299999999991
 31
0.0
  0
LINE
  5
137
  8
0
 62
     7
 10
50.104799999999997
 20
160.05000000000001
 30
0.0
 11
50.197800000000001
 21
160.09100000000001
 31
0.0
  0
LINE
  5
138
  8
0
 62
     7
 10
49.985900000000001
 20
160.0689999999999
 30
0.0
 11
50.104799999999997
 21
160.05000000000001
 31
0.0
  0
LINE
  5
139
  8
0
 62
     7
 10
49.960099999999997
 20
160.12999999999991
 30
0.0
 11
49.985900000000001
 21
160.0689999999999
 31
0.0
  0
LINE
  5
13A
  8
0
 62
     7
 10
50.9771
 20
159.90700000000001
 30
0.0
 11
50.9771
 21
160.02099999999999
 31
0.0
  0
LINE
  5
13B
  8
0
 62
     7
 10
50.858199999999997
 20
159.92699999999999
 30
0.0
 11
50.858199999999997
 21
160.0
 31
0.0
  0
LINE
  5
13C
  8
0
 62
     7
 10
51.5762
 20
160.08500000000001
 30
0.0
 11
51.5762
 21
160.1989999999999
 31
0.0
  0
LINE
  5
13D
  8
0
 62
     7
 10
51.457299999999996
 20
160.1049999999999
 30
0.0
 11
51.457299999999996
 21
160.17799999999991
 31
0.0
  0
LINE
  5
13E
  8
0
 62
     7
 10
51.567199999999993
 20
160.434
 30
0.0
 11
51.567199999999993
 21
160.548
 31
0.0
  0
LINE
  5
13F
  8
0
 62
     7
 10
51.448300000000003
 20
160.453
 30
0.0
 11
51.448300000000003
 21
160.52600000000001
 31
0.0
  0
LINE
  5
140
  8
0
 62
     7
 10
50.840299999999999
 20
160.62399999999991
 30
0.0
 11
50.840299999999999
 21
160.69599999999991
 31
0.0
  0
LINE
  5
141
  8
0
 62
     7
 10
50.959099999999992
 20
160.6039999999999
 30
0.0
 11
50.959099999999992
 21
160.7179999999999
 31
0.0
  0
LINE
  5
142
  8
0
 62
     7
 10
50.359999999999999
 20
160.42599999999999
 30
0.0
 11
50.359999999999999
 21
160.53999999999991
 31
0.0
  0
LINE
  5
143
  8
0
 62
     7
 10
50.241199999999992
 20
160.44599999999991
 30
0.0
 11
50.241199999999992
 21
160.518
 31
0.0
  0
LINE
  5
144
  8
0
 62
     7
 10
51.044199999999996
 20
160.00999999999991
 30
0.0
 11
50.925400000000003
 21
160.029
 31
0.0
  0
LINE
  5
145
  8
0
 62
     7
 10
51.070099999999989
 20
159.9489999999999
 30
0.0
 11
51.044199999999996
 21
160.00999999999991
 31
0.0
  0
LINE
  5
146
  8
0
 62
     7
 10
50.9771
 20
159.90700000000001
 30
0.0
 11
51.070099999999989
 21
159.9489999999999
 31
0.0
  0
LINE
  5
147
  8
0
 62
     7
 10
50.858199999999997
 20
159.92699999999999
 30
0.0
 11
50.9771
 21
159.90700000000001
 31
0.0
  0
LINE
  5
148
  8
0
 62
     7
 10
50.832399999999993
 20
159.98799999999989
 30
0.0
 11
50.858199999999997
 21
159.92699999999999
 31
0.0
  0
LINE
  5
149
  8
0
 62
     7
 10
50.925400000000003
 20
160.029
 30
0.0
 11
50.832399999999993
 21
159.98799999999989
 31
0.0
  0
LINE
  5
14A
  8
0
 62
     7
 10
51.524500000000003
 20
160.20799999999991
 30
0.0
 11
51.4315
 21
160.166
 31
0.0
  0
LINE
  5
14B
  8
0
 62
     7
 10
51.643300000000004
 20
160.1879999999999
 30
0.0
 11
51.524500000000003
 21
160.20799999999991
 31
0.0
  0
LINE
  5
14C
  8
0
 62
     7
 10
51.669199999999996
 20
160.12700000000001
 30
0.0
 11
51.643300000000004
 21
160.1879999999999
 31
0.0
  0
LINE
  5
14D
  8
0
 62
     7
 10
51.5762
 20
160.08500000000001
 30
0.0
 11
51.669199999999996
 21
160.12700000000001
 31
0.0
  0
LINE
  5
14E
  8
0
 62
     7
 10
51.457299999999996
 20
160.1049999999999
 30
0.0
 11
51.5762
 21
160.08500000000001
 31
0.0
  0
LINE
  5
14F
  8
0
 62
     7
 10
51.4315
 20
160.166
 30
0.0
 11
51.457299999999996
 21
160.1049999999999
 31
0.0
  0
LINE
  5
150
  8
0
 62
     7
 10
51.422499999999999
 20
160.5149999999999
 30
0.0
 11
51.448300000000003
 21
160.453
 31
0.0
  0
LINE
  5
151
  8
0
 62
     7
 10
51.515500000000003
 20
160.55600000000001
 30
0.0
 11
51.422499999999999
 21
160.5149999999999
 31
0.0
  0
LINE
  5
152
  8
0
 62
     7
 10
51.634399999999999
 20
160.53700000000001
 30
0.0
 11
51.515500000000003
 21
160.55600000000001
 31
0.0
  0
LINE
  5
153
  8
0
 62
     7
 10
51.660200000000003
 20
160.47599999999991
 30
0.0
 11
51.634399999999999
 21
160.53700000000001
 31
0.0
  0
LINE
  5
154
  8
0
 62
     7
 10
51.567199999999993
 20
160.434
 30
0.0
 11
51.660200000000003
 21
160.47599999999991
 31
0.0
  0
LINE
  5
155
  8
0
 62
     7
 10
51.448300000000003
 20
160.453
 30
0.0
 11
51.567199999999993
 21
160.434
 31
0.0
  0
LINE
  5
156
  8
0
 62
     7
 10
50.840299999999999
 20
160.62399999999991
 30
0.0
 11
50.959099999999992
 21
160.6039999999999
 31
0.0
  0
LINE
  5
157
  8
0
 62
     7
 10
50.814399999999999
 20
160.685
 30
0.0
 11
50.840299999999999
 21
160.62399999999991
 31
0.0
  0
LINE
  5
158
  8
0
 62
     7
 10
50.907499999999992
 20
160.72699999999989
 30
0.0
 11
50.814399999999999
 21
160.685
 31
0.0
  0
LINE
  5
159
  8
0
 62
     7
 10
51.026299999999999
 20
160.70699999999999
 30
0.0
 11
50.907499999999992
 21
160.72699999999989
 31
0.0
  0
LINE
  5
15A
  8
0
 62
     7
 10
51.052199999999999
 20
160.64599999999999
 30
0.0
 11
51.026299999999999
 21
160.70699999999999
 31
0.0
  0
LINE
  5
15B
  8
0
 62
     7
 10
50.959099999999992
 20
160.6039999999999
 30
0.0
 11
51.052199999999999
 21
160.64599999999999
 31
0.0
  0
LINE
  5
15C
  8
0
 62
     7
 10
50.359999999999999
 20
160.42599999999999
 30
0.0
 11
50.453099999999999
 21
160.4679999999999
 31
0.0
  0
LINE
  5
15D
  8
0
 62
     7
 10
50.241199999999992
 20
160.44599999999991
 30
0.0
 11
50.359999999999999
 21
160.42599999999999
 31
0.0
  0
LINE
  5
15E
  8
0
 62
     7
 10
50.215299999999999
 20
160.50699999999989
 30
0.0
 11
50.241199999999992
 21
160.44599999999991
 31
0.0
  0
LINE
  5
15F
  8
0
 62
     7
 10
50.308399999999999
 20
160.548
 30
0.0
 11
50.215299999999999
 21
160.50699999999989
 31
0.0
  0
LINE
  5
160
  8
0
 62
     7
 10
50.427199999999999
 20
160.529
 30
0.0
 11
50.308399999999999
 21
160.548
 31
0.0
  0
LINE
  5
161
  8
0
 62
     7
 10
50.453099999999999
 20
160.4679999999999
 30
0.0
 11
50.427199999999999
 21
160.529
 31
0.0
  0
LINE
  5
162
  8
0
 62
     7
 10
50.369
 20
160.078
 30
0.0
 11
50.369
 21
160.191
 31
0.0
  0
LINE
  5
163
  8
0
 62
     7
 10
50.250100000000003
 20
160.09700000000001
 30
0.0
 11
50.250100000000003
 21
160.1699999999999
 31
0.0
  0
LINE
  5
164
  8
0
 62
     7
 10
50.461999999999989
 20
160.119
 30
0.0
 11
50.436199999999999
 21
160.18100000000001
 31
0.0
  0
LINE
  5
165
  8
0
 62
     7
 10
50.369
 20
160.078
 30
0.0
 11
50.461999999999989
 21
160.119
 31
0.0
  0
LINE
  5
166
  8
0
 62
     7
 10
50.250100000000003
 20
160.09700000000001
 30
0.0
 11
50.369
 21
160.078
 31
0.0
  0
LINE
  5
167
  8
0
 62
     7
 10
50.224299999999992
 20
160.15799999999999
 30
0.0
 11
50.250100000000003
 21
160.09700000000001
 31
0.0
  0
LINE
  5
168
  8
0
 62
     7
 10
50.317300000000003
 20
160.1999999999999
 30
0.0
 11
50.224299999999992
 21
160.15799999999999
 31
0.0
  0
LINE
  5
169
  8
0
 62
     7
 10
50.436199999999999
 20
160.18100000000001
 30
0.0
 11
50.317300000000003
 21
160.1999999999999
 31
0.0
  0
LINE
  5
16A
  8
0
 62
     7
 10
51.972700000000003
 20
160.70699999999999
 30
0.0
 11
51.972700000000003
 21
160.72699999999989
 31
0.0
  0
LINE
  5
16B
  8
0
 62
     7
 10
51.8538
 20
160.726
 30
0.0
 11
51.8538
 21
160.7579999999999
 31
0.0
  0
LINE
  5
16C
  8
0
 62
     7
 10
51.637799999999999
 20
160.55600000000001
 30
0.0
 11
51.637799999999999
 21
160.66999999999999
 31
0.0
  0
LINE
  5
16D
  8
0
 62
     7
 10
51.518999999999998
 20
160.57599999999999
 30
0.0
 11
51.518999999999998
 21
160.64899999999989
 31
0.0
  0
LINE
  5
16E
  8
0
 62
     7
 10
51.302999999999997
 20
160.40600000000001
 30
0.0
 11
51.302999999999997
 21
160.52000000000001
 31
0.0
  0
LINE
  5
16F
  8
0
 62
     7
 10
51.184100000000001
 20
160.42599999999999
 30
0.0
 11
51.184100000000001
 21
160.49799999999991
 31
0.0
  0
LINE
  5
170
  8
0
 62
     7
 10
51.838999999999999
 20
160.762
 30
0.0
 11
51.8538
 21
160.726
 31
0.0
  0
LINE
  5
171
  8
0
 62
     7
 10
51.972700000000003
 20
160.70699999999999
 30
0.0
 11
51.99989999999999
 21
160.71899999999991
 31
0.0
  0
LINE
  5
172
  8
0
 62
     7
 10
51.8538
 20
160.726
 30
0.0
 11
51.972700000000003
 21
160.70699999999999
 31
0.0
  0
LINE
  5
173
  8
0
 62
     7
 10
51.493099999999991
 20
160.637
 30
0.0
 11
51.518999999999998
 21
160.57599999999999
 31
0.0
  0
LINE
  5
174
  8
0
 62
     7
 10
51.586199999999991
 20
160.679
 30
0.0
 11
51.493099999999991
 21
160.637
 31
0.0
  0
LINE
  5
175
  8
0
 62
     7
 10
51.704999999999998
 20
160.65899999999991
 30
0.0
 11
51.586199999999991
 21
160.679
 31
0.0
  0
LINE
  5
176
  8
0
 62
     7
 10
51.730800000000002
 20
160.5979999999999
 30
0.0
 11
51.704999999999998
 21
160.65899999999991
 31
0.0
  0
LINE
  5
177
  8
0
 62
     7
 10
51.637799999999999
 20
160.55600000000001
 30
0.0
 11
51.730800000000002
 21
160.5979999999999
 31
0.0
  0
LINE
  5
178
  8
0
 62
     7
 10
51.518999999999998
 20
160.57599999999999
 30
0.0
 11
51.637799999999999
 21
160.55600000000001
 31
0.0
  0
LINE
  5
179
  8
0
 62
     7
 10
51.15829999999999
 20
160.48699999999999
 30
0.0
 11
51.184100000000001
 21
160.42599999999999
 31
0.0
  0
LINE
  5
17A
  8
0
 62
     7
 10
51.251300000000001
 20
160.52799999999999
 30
0.0
 11
51.15829999999999
 21
160.48699999999999
 31
0.0
  0
LINE
  5
17B
  8
0
 62
     7
 10
51.370100000000001
 20
160.5089999999999
 30
0.0
 11
51.251300000000001
 21
160.52799999999999
 31
0.0
  0
LINE
  5
17C
  8
0
 62
     7
 10
51.396000000000001
 20
160.44799999999989
 30
0.0
 11
51.370100000000001
 21
160.5089999999999
 31
0.0
  0
LINE
  5
17D
  8
0
 62
     7
 10
51.302999999999997
 20
160.40600000000001
 30
0.0
 11
51.396000000000001
 21
160.44799999999989
 31
0.0
  0
LINE
  5
17E
  8
0
 62
     7
 10
51.184100000000001
 20
160.42599999999999
 30
0.0
 11
51.302999999999997
 21
160.40600000000001
 31
0.0
  0
LINE
  5
17F
  8
0
 62
     7
 10
49.963500000000003
 20
159.80500000000001
 30
0.0
 11
49.963500000000003
 21
159.9189999999999
 31
0.0
  0
LINE
  5
180
  8
0
 62
     7
 10
49.8446
 20
159.8249999999999
 30
0.0
 11
49.8446
 21
159.89699999999999
 31
0.0
  0
LINE
  5
181
  8
0
 62
     7
 10
50.298400000000001
 20
159.95500000000001
 30
0.0
 11
50.298400000000001
 21
160.0689999999999
 31
0.0
  0
LINE
  5
182
  8
0
 62
     7
 10
50.17949999999999
 20
159.97499999999999
 30
0.0
 11
50.17949999999999
 21
160.047
 31
0.0
  0
LINE
  5
183
  8
0
 62
     7
 10
50.633200000000002
 20
160.10599999999991
 30
0.0
 11
50.633200000000002
 21
160.21899999999999
 31
0.0
  0
LINE
  5
184
  8
0
 62
     7
 10
50.514400000000002
 20
160.125
 30
0.0
 11
50.514400000000002
 21
160.19799999999989
 31
0.0
  0
LINE
  5
185
  8
0
 62
     7
 10
49.818800000000003
 20
159.88499999999991
 30
0.0
 11
49.8446
 21
159.8249999999999
 31
0.0
  0
LINE
  5
186
  8
0
 62
     7
 10
49.911799999999992
 20
159.92699999999999
 30
0.0
 11
49.818800000000003
 21
159.88499999999991
 31
0.0
  0
LINE
  5
187
  8
0
 62
     7
 10
50.03070000000001
 20
159.9079999999999
 30
0.0
 11
49.911799999999992
 21
159.92699999999999
 31
0.0
  0
LINE
  5
188
  8
0
 62
     7
 10
50.0565
 20
159.84700000000001
 30
0.0
 11
50.03070000000001
 21
159.9079999999999
 31
0.0
  0
LINE
  5
189
  8
0
 62
     7
 10
49.963500000000003
 20
159.80500000000001
 30
0.0
 11
50.0565
 21
159.84700000000001
 31
0.0
  0
LINE
  5
18A
  8
0
 62
     7
 10
49.8446
 20
159.8249999999999
 30
0.0
 11
49.963500000000003
 21
159.80500000000001
 31
0.0
  0
LINE
  5
18B
  8
0
 62
     7
 10
50.153700000000001
 20
160.036
 30
0.0
 11
50.17949999999999
 21
159.97499999999999
 31
0.0
  0
LINE
  5
18C
  8
0
 62
     7
 10
50.246699999999997
 20
160.078
 30
0.0
 11
50.153700000000001
 21
160.036
 31
0.0
  0
LINE
  5
18D
  8
0
 62
     7
 10
50.365499999999997
 20
160.05799999999991
 30
0.0
 11
50.246699999999997
 21
160.078
 31
0.0
  0
LINE
  5
18E
  8
0
 62
     7
 10
50.39139999999999
 20
159.99700000000001
 30
0.0
 11
50.365499999999997
 21
160.05799999999991
 31
0.0
  0
LINE
  5
18F
  8
0
 62
     7
 10
50.298400000000001
 20
159.95500000000001
 30
0.0
 11
50.39139999999999
 21
159.99700000000001
 31
0.0
  0
LINE
  5
190
  8
0
 62
     7
 10
50.17949999999999
 20
159.97499999999999
 30
0.0
 11
50.298400000000001
 21
159.95500000000001
 31
0.0
  0
LINE
  5
191
  8
0
 62
     7
 10
50.488500000000002
 20
160.18600000000001
 30
0.0
 11
50.514400000000002
 21
160.125
 31
0.0
  0
LINE
  5
192
  8
0
 62
     7
 10
50.581600000000002
 20
160.22799999999989
 30
0.0
 11
50.488500000000002
 21
160.18600000000001
 31
0.0
  0
LINE
  5
193
  8
0
 62
     7
 10
50.700400000000002
 20
160.20799999999991
 30
0.0
 11
50.581600000000002
 21
160.22799999999989
 31
0.0
  0
LINE
  5
194
  8
0
 62
     7
 10
50.726300000000002
 20
160.14699999999999
 30
0.0
 11
50.700400000000002
 21
160.20799999999991
 31
0.0
  0
LINE
  5
195
  8
0
 62
     7
 10
50.633200000000002
 20
160.10599999999991
 30
0.0
 11
50.726300000000002
 21
160.14699999999999
 31
0.0
  0
LINE
  5
196
  8
0
 62
     7
 10
50.514400000000002
 20
160.125
 30
0.0
 11
50.633200000000002
 21
160.10599999999991
 31
0.0
  0
LINE
  5
197
  8
0
 62
     7
 10
50.782400000000003
 20
160.69599999999991
 30
0.0
 11
50.782400000000003
 21
160.81
 31
0.0
  0
LINE
  5
198
  8
0
 62
     7
 10
50.663499999999992
 20
160.715
 30
0.0
 11
50.663499999999992
 21
160.7879999999999
 31
0.0
  0
LINE
  5
199
  8
0
 62
     7
 10
50.875100000000003
 20
160.47599999999991
 30
0.0
 11
50.875100000000003
 21
160.59
 31
0.0
  0
LINE
  5
19A
  8
0
 62
     7
 10
50.756599999999999
 20
160.495
 30
0.0
 11
50.756599999999999
 21
160.5679999999999
 31
0.0
  0
LINE
  5
19B
  8
0
 62
     7
 10
50.637700000000002
 20
160.77699999999999
 30
0.0
 11
50.663499999999992
 21
160.715
 31
0.0
  0
LINE
  5
19C
  8
0
 62
     7
 10
50.730699999999999
 20
160.8179999999999
 30
0.0
 11
50.637700000000002
 21
160.77699999999999
 31
0.0
  0
LINE
  5
19D
  8
0
 62
     7
 10
50.849600000000002
 20
160.79900000000001
 30
0.0
 11
50.730699999999999
 21
160.8179999999999
 31
0.0
  0
LINE
  5
19E
  8
0
 62
     7
 10
50.875399999999999
 20
160.738
 30
0.0
 11
50.849600000000002
 21
160.79900000000001
 31
0.0
  0
LINE
  5
19F
  8
0
 62
     7
 10
50.782400000000003
 20
160.69599999999991
 30
0.0
 11
50.875399999999999
 21
160.738
 31
0.0
  0
LINE
  5
1A0
  8
0
 62
     7
 10
50.663499999999992
 20
160.715
 30
0.0
 11
50.782400000000003
 21
160.69599999999991
 31
0.0
  0
LINE
  5
1A1
  8
0
 62
     7
 10
50.730699999999999
 20
160.55699999999999
 30
0.0
 11
50.756599999999999
 21
160.495
 31
0.0
  0
LINE
  5
1A2
  8
0
 62
     7
 10
50.823700000000002
 20
160.5979999999999
 30
0.0
 11
50.730699999999999
 21
160.55699999999999
 31
0.0
  0
LINE
  5
1A3
  8
0
 62
     7
 10
50.942599999999999
 20
160.57900000000001
 30
0.0
 11
50.823700000000002
 21
160.5979999999999
 31
0.0
  0
LINE
  5
1A4
  8
0
 62
     7
 10
50.968400000000003
 20
160.518
 30
0.0
 11
50.942599999999999
 21
160.57900000000001
 31
0.0
  0
LINE
  5
1A5
  8
0
 62
     7
 10
50.875100000000003
 20
160.47599999999991
 30
0.0
 11
50.968400000000003
 21
160.518
 31
0.0
  0
LINE
  5
1A6
  8
0
 62
     7
 10
50.756599999999999
 20
160.495
 30
0.0
 11
50.875100000000003
 21
160.47599999999991
 31
0.0
  0
LINE
  5
1A7
  8
0
 62
     7
 10
51.24649999999999
 20
159.595
 30
0.0
 11
51.24649999999999
 21
159.709
 31
0.0
  0
LINE
  5
1A8
  8
0
 62
     7
 10
51.128
 20
159.61500000000001
 30
0.0
 11
51.128
 21
159.68700000000001
 31
0.0
  0
LINE
  5
1A9
  8
0
 62
     7
 10
51.153799999999997
 20
159.816
 30
0.0
 11
51.153799999999997
 21
159.929
 31
0.0
  0
LINE
  5
1AA
  8
0
 62
     7
 10
51.0349
 20
159.83500000000001
 30
0.0
 11
51.0349
 21
159.9079999999999
 31
0.0
  0
LINE
  5
1AB
  8
0
 62
     7
 10
51.0608
 20
160.036
 30
0.0
 11
51.0608
 21
160.15000000000001
 31
0.0
  0
LINE
  5
1AC
  8
0
 62
     7
 10
50.942300000000003
 20
160.05500000000001
 30
0.0
 11
50.942300000000003
 21
160.1279999999999
 31
0.0
  0
LINE
  5
1AD
  8
0
 62
     7
 10
51.1021
 20
159.67599999999999
 30
0.0
 11
51.128
 21
159.61500000000001
 31
0.0
  0
LINE
  5
1AE
  8
0
 62
     7
 10
51.195099999999996
 20
159.7179999999999
 30
0.0
 11
51.1021
 21
159.67599999999999
 31
0.0
  0
LINE
  5
1AF
  8
0
 62
     7
 10
51.313999999999993
 20
159.69799999999989
 30
0.0
 11
51.195099999999996
 21
159.7179999999999
 31
0.0
  0
LINE
  5
1B0
  8
0
 62
     7
 10
51.339799999999997
 20
159.637
 30
0.0
 11
51.313999999999993
 21
159.69799999999989
 31
0.0
  0
LINE
  5
1B1
  8
0
 62
     7
 10
51.24649999999999
 20
159.595
 30
0.0
 11
51.339799999999997
 21
159.637
 31
0.0
  0
LINE
  5
1B2
  8
0
 62
     7
 10
51.128
 20
159.61500000000001
 30
0.0
 11
51.24649999999999
 21
159.595
 31
0.0
  0
LINE
  5
1B3
  8
0
 62
     7
 10
51.009099999999989
 20
159.89599999999999
 30
0.0
 11
51.0349
 21
159.83500000000001
 31
0.0
  0
LINE
  5
1B4
  8
0
 62
     7
 10
51.1021
 20
159.93799999999999
 30
0.0
 11
51.009099999999989
 21
159.89599999999999
 31
0.0
  0
LINE
  5
1B5
  8
0
 62
     7
 10
51.220999999999997
 20
159.9189999999999
 30
0.0
 11
51.1021
 21
159.93799999999999
 31
0.0
  0
LINE
  5
1B6
  8
0
 62
     7
 10
51.2468
 20
159.857
 30
0.0
 11
51.220999999999997
 21
159.9189999999999
 31
0.0
  0
LINE
  5
1B7
  8
0
 62
     7
 10
51.153799999999997
 20
159.816
 30
0.0
 11
51.2468
 21
159.857
 31
0.0
  0
LINE
  5
1B8
  8
0
 62
     7
 10
51.0349
 20
159.83500000000001
 30
0.0
 11
51.153799999999997
 21
159.816
 31
0.0
  0
LINE
  5
1B9
  8
0
 62
     7
 10
50.916400000000003
 20
160.11600000000001
 30
0.0
 11
50.942300000000003
 21
160.05500000000001
 31
0.0
  0
LINE
  5
1BA
  8
0
 62
     7
 10
51.009399999999999
 20
160.15799999999999
 30
0.0
 11
50.916400000000003
 21
160.11600000000001
 31
0.0
  0
LINE
  5
1BB
  8
0
 62
     7
 10
51.128300000000003
 20
160.13900000000001
 30
0.0
 11
51.009399999999999
 21
160.15799999999999
 31
0.0
  0
LINE
  5
1BC
  8
0
 62
     7
 10
51.1541
 20
160.07699999999991
 30
0.0
 11
51.128300000000003
 21
160.13900000000001
 31
0.0
  0
LINE
  5
1BD
  8
0
 62
     7
 10
51.0608
 20
160.036
 30
0.0
 11
51.1541
 21
160.07699999999991
 31
0.0
  0
LINE
  5
1BE
  8
0
 62
     7
 10
50.942300000000003
 20
160.05500000000001
 30
0.0
 11
51.0608
 21
160.036
 31
0.0
  0
LINE
  5
1BF
  8
0
 62
     7
 10
52.25139999999999
 20
160.04599999999991
 30
0.0
 11
52.25139999999999
 21
160.15999999999991
 31
0.0
  0
LINE
  5
1C0
  8
0
 62
     7
 10
52.1325
 20
160.06599999999989
 30
0.0
 11
52.1325
 21
160.13799999999989
 31
0.0
  0
LINE
  5
1C1
  8
0
 62
     7
 10
51.823500000000003
 20
160.11600000000001
 30
0.0
 11
51.823500000000003
 21
160.2299999999999
 31
0.0
  0
LINE
  5
1C2
  8
0
 62
     7
 10
51.704700000000003
 20
160.13599999999991
 30
0.0
 11
51.704700000000003
 21
160.20799999999991
 31
0.0
  0
LINE
  5
1C3
  8
0
 62
     7
 10
51.396000000000001
 20
160.18600000000001
 30
0.0
 11
51.396000000000001
 21
160.30000000000001
 31
0.0
  0
LINE
  5
1C4
  8
0
 62
     7
 10
51.277099999999997
 20
160.20599999999999
 30
0.0
 11
51.277099999999997
 21
160.27799999999991
 31
0.0
  0
LINE
  5
1C5
  8
0
 62
     7
 10
52.106699999999996
 20
160.12700000000001
 30
0.0
 11
52.1325
 21
160.06599999999989
 31
0.0
  0
LINE
  5
1C6
  8
0
 62
     7
 10
52.199699999999993
 20
160.1689999999999
 30
0.0
 11
52.106699999999996
 21
160.12700000000001
 31
0.0
  0
LINE
  5
1C7
  8
0
 62
     7
 10
52.318600000000011
 20
160.149
 30
0.0
 11
52.199699999999993
 21
160.1689999999999
 31
0.0
  0
LINE
  5
1C8
  8
0
 62
     7
 10
52.3444
 20
160.08799999999999
 30
0.0
 11
52.318600000000011
 21
160.149
 31
0.0
  0
LINE
  5
1C9
  8
0
 62
     7
 10
52.25139999999999
 20
160.04599999999991
 30
0.0
 11
52.3444
 21
160.08799999999999
 31
0.0
  0
LINE
  5
1CA
  8
0
 62
     7
 10
52.1325
 20
160.06599999999989
 30
0.0
 11
52.25139999999999
 21
160.04599999999991
 31
0.0
  0
LINE
  5
1CB
  8
0
 62
     7
 10
51.678800000000003
 20
160.197
 30
0.0
 11
51.704700000000003
 21
160.13599999999991
 31
0.0
  0
LINE
  5
1CC
  8
0
 62
     7
 10
51.771799999999992
 20
160.238
 30
0.0
 11
51.678800000000003
 21
160.197
 31
0.0
  0
LINE
  5
1CD
  8
0
 62
     7
 10
51.890700000000002
 20
160.21899999999999
 30
0.0
 11
51.771799999999992
 21
160.238
 31
0.0
  0
LINE
  5
1CE
  8
0
 62
     7
 10
51.916499999999999
 20
160.15799999999999
 30
0.0
 11
51.890700000000002
 21
160.21899999999999
 31
0.0
  0
LINE
  5
1CF
  8
0
 62
     7
 10
51.823500000000003
 20
160.11600000000001
 30
0.0
 11
51.916499999999999
 21
160.15799999999999
 31
0.0
  0
LINE
  5
1D0
  8
0
 62
     7
 10
51.704700000000003
 20
160.13599999999991
 30
0.0
 11
51.823500000000003
 21
160.11600000000001
 31
0.0
  0
LINE
  5
1D1
  8
0
 62
     7
 10
51.251300000000001
 20
160.26699999999991
 30
0.0
 11
51.277099999999997
 21
160.20599999999999
 31
0.0
  0
LINE
  5
1D2
  8
0
 62
     7
 10
51.344299999999997
 20
160.30799999999999
 30
0.0
 11
51.251300000000001
 21
160.26699999999991
 31
0.0
  0
LINE
  5
1D3
  8
0
 62
     7
 10
51.463200000000001
 20
160.2889999999999
 30
0.0
 11
51.344299999999997
 21
160.30799999999999
 31
0.0
  0
LINE
  5
1D4
  8
0
 62
     7
 10
51.488999999999997
 20
160.22799999999989
 30
0.0
 11
51.463200000000001
 21
160.2889999999999
 31
0.0
  0
LINE
  5
1D5
  8
0
 62
     7
 10
51.396000000000001
 20
160.18600000000001
 30
0.0
 11
51.488999999999997
 21
160.22799999999989
 31
0.0
  0
LINE
  5
1D6
  8
0
 62
     7
 10
51.277099999999997
 20
160.20599999999999
 30
0.0
 11
51.396000000000001
 21
160.18600000000001
 31
0.0
  0
LINE
  5
1D7
  8
0
 62
     7
 10
49.684800000000003
 20
160.465
 30
0.0
 11
49.684800000000003
 21
160.57900000000001
 31
0.0
  0
LINE
  5
1D8
  8
0
 62
     7
 10
49.565899999999999
 20
160.48500000000001
 30
0.0
 11
49.565899999999999
 21
160.5449999999999
 31
0.0
  0
LINE
  5
1D9
  8
0
 62
     7
 10
50.11269999999999
 20
160.39599999999999
 30
0.0
 11
50.11269999999999
 21
160.5089999999999
 31
0.0
  0
LINE
  5
1DA
  8
0
 62
     7
 10
49.9938
 20
160.41499999999991
 30
0.0
 11
49.9938
 21
160.488
 31
0.0
  0
LINE
  5
1DB
  8
0
 62
     7
 10
50.540199999999999
 20
160.32599999999991
 30
0.0
 11
50.540199999999999
 21
160.43899999999991
 31
0.0
  0
LINE
  5
1DC
  8
0
 62
     7
 10
50.421399999999991
 20
160.345
 30
0.0
 11
50.421399999999991
 21
160.41800000000001
 31
0.0
  0
LINE
  5
1DD
  8
0
 62
     7
 10
49.54869999999999
 20
160.52600000000001
 30
0.0
 11
49.565899999999999
 21
160.48500000000001
 31
0.0
  0
LINE
  5
1DE
  8
0
 62
     7
 10
49.633099999999992
 20
160.58799999999991
 30
0.0
 11
49.59109999999999
 21
160.5689999999999
 31
0.0
  0
LINE
  5
1DF
  8
0
 62
     7
 10
49.752000000000002
 20
160.5679999999999
 30
0.0
 11
49.633099999999992
 21
160.58799999999991
 31
0.0
  0
LINE
  5
1E0
  8
0
 62
     7
 10
49.777799999999999
 20
160.50699999999989
 30
0.0
 11
49.752000000000002
 21
160.5679999999999
 31
0.0
  0
LINE
  5
1E1
  8
0
 62
     7
 10
49.684800000000003
 20
160.465
 30
0.0
 11
49.777799999999999
 21
160.50699999999989
 31
0.0
  0
LINE
  5
1E2
  8
0
 62
     7
 10
49.565899999999999
 20
160.48500000000001
 30
0.0
 11
49.684800000000003
 21
160.465
 31
0.0
  0
LINE
  5
1E3
  8
0
 62
     7
 10
49.968000000000004
 20
160.47599999999991
 30
0.0
 11
49.9938
 21
160.41499999999991
 31
0.0
  0
LINE
  5
1E4
  8
0
 62
     7
 10
50.061
 20
160.518
 30
0.0
 11
49.968000000000004
 21
160.47599999999991
 31
0.0
  0
LINE
  5
1E5
  8
0
 62
     7
 10
50.179900000000011
 20
160.49799999999991
 30
0.0
 11
50.061
 21
160.518
 31
0.0
  0
LINE
  5
1E6
  8
0
 62
     7
 10
50.2057
 20
160.43700000000001
 30
0.0
 11
50.179900000000011
 21
160.49799999999991
 31
0.0
  0
LINE
  5
1E7
  8
0
 62
     7
 10
50.11269999999999
 20
160.39599999999999
 30
0.0
 11
50.2057
 21
160.43700000000001
 31
0.0
  0
LINE
  5
1E8
  8
0
 62
     7
 10
49.9938
 20
160.41499999999991
 30
0.0
 11
50.11269999999999
 21
160.39599999999999
 31
0.0
  0
LINE
  5
1E9
  8
0
 62
     7
 10
50.395899999999997
 20
160.40600000000001
 30
0.0
 11
50.421399999999991
 21
160.345
 31
0.0
  0
LINE
  5
1EA
  8
0
 62
     7
 10
50.488900000000001
 20
160.44799999999989
 30
0.0
 11
50.395899999999997
 21
160.40600000000001
 31
0.0
  0
LINE
  5
1EB
  8
0
 62
     7
 10
50.607700000000001
 20
160.42899999999989
 30
0.0
 11
50.488900000000001
 21
160.44799999999989
 31
0.0
  0
LINE
  5
1EC
  8
0
 62
     7
 10
50.633200000000002
 20
160.36699999999999
 30
0.0
 11
50.607700000000001
 21
160.42899999999989
 31
0.0
  0
LINE
  5
1ED
  8
0
 62
     7
 10
50.540199999999999
 20
160.32599999999991
 30
0.0
 11
50.633200000000002
 21
160.36699999999999
 31
0.0
  0
LINE
  5
1EE
  8
0
 62
     7
 10
50.421399999999991
 20
160.345
 30
0.0
 11
50.540199999999999
 21
160.32599999999991
 31
0.0
  0
LINE
  5
1EF
  8
0
 62
     7
 10
50.066499999999998
 20
160.7579999999999
 30
0.0
 11
50.066499999999998
 21
160.76599999999991
 31
0.0
  0
LINE
  5
1F0
  8
0
 62
     7
 10
50.246699999999997
 20
160.6579999999999
 30
0.0
 11
50.246699999999997
 21
160.77199999999999
 31
0.0
  0
LINE
  5
1F1
  8
0
 62
     7
 10
50.127800000000001
 20
160.67699999999999
 30
0.0
 11
50.127800000000001
 21
160.74999999999989
 31
0.0
  0
LINE
  5
1F2
  8
0
 62
     7
 10
50.427199999999999
 20
160.55699999999999
 30
0.0
 11
50.427199999999999
 21
160.67099999999991
 31
0.0
  0
LINE
  5
1F3
  8
0
 62
     7
 10
50.308399999999999
 20
160.57699999999991
 30
0.0
 11
50.308399999999999
 21
160.64899999999989
 31
0.0
  0
LINE
  5
1F4
  8
0
 62
     7
 10
50.607399999999998
 20
160.45699999999999
 30
0.0
 11
50.607399999999998
 21
160.571
 31
0.0
  0
LINE
  5
1F5
  8
0
 62
     7
 10
50.488500000000002
 20
160.47599999999991
 30
0.0
 11
50.488500000000002
 21
160.54900000000001
 31
0.0
  0
LINE
  5
1F6
  8
0
 62
     7
 10
50.7879
 20
160.35599999999991
 30
0.0
 11
50.7879
 21
160.47
 31
0.0
  0
LINE
  5
1F7
  8
0
 62
     7
 10
50.6691
 20
160.376
 30
0.0
 11
50.6691
 21
160.44799999999989
 31
0.0
  0
LINE
  5
1F8
  8
0
 62
     7
 10
50.066499999999998
 20
160.7579999999999
 30
0.0
 11
50.103400000000001
 21
160.77500000000001
 31
0.0
  0
LINE
  5
1F9
  8
0
 62
     7
 10
50.045499999999997
 20
160.762
 30
0.0
 11
50.066499999999998
 21
160.7579999999999
 31
0.0
  0
LINE
  5
1FA
  8
0
 62
     7
 10
50.101999999999997
 20
160.738
 30
0.0
 11
50.127800000000001
 21
160.67699999999999
 31
0.0
  0
LINE
  5
1FB
  8
0
 62
     7
 10
50.195
 20
160.78
 30
0.0
 11
50.101999999999997
 21
160.738
 31
0.0
  0
LINE
  5
1FC
  8
0
 62
     7
 10
50.313899999999997
 20
160.761
 30
0.0
 11
50.195
 21
160.78
 31
0.0
  0
LINE
  5
1FD
  8
0
 62
     7
 10
50.339700000000001
 20
160.69999999999999
 30
0.0
 11
50.313899999999997
 21
160.761
 31
0.0
  0
LINE
  5
1FE
  8
0
 62
     7
 10
50.246699999999997
 20
160.6579999999999
 30
0.0
 11
50.339700000000001
 21
160.69999999999999
 31
0.0
  0
LINE
  5
1FF
  8
0
 62
     7
 10
50.127800000000001
 20
160.67699999999999
 30
0.0
 11
50.246699999999997
 21
160.6579999999999
 31
0.0
  0
LINE
  5
200
  8
0
 62
     7
 10
50.282499999999992
 20
160.63800000000001
 30
0.0
 11
50.308399999999999
 21
160.57699999999991
 31
0.0
  0
LINE
  5
201
  8
0
 62
     7
 10
50.375500000000002
 20
160.67999999999989
 30
0.0
 11
50.282499999999992
 21
160.63800000000001
 31
0.0
  0
LINE
  5
202
  8
0
 62
     7
 10
50.494399999999999
 20
160.66
 30
0.0
 11
50.375500000000002
 21
160.67999999999989
 31
0.0
  0
LINE
  5
203
  8
0
 62
     7
 10
50.520200000000003
 20
160.59899999999999
 30
0.0
 11
50.494399999999999
 21
160.66
 31
0.0
  0
LINE
  5
204
  8
0
 62
     7
 10
50.427199999999999
 20
160.55699999999999
 30
0.0
 11
50.520200000000003
 21
160.59899999999999
 31
0.0
  0
LINE
  5
205
  8
0
 62
     7
 10
50.308399999999999
 20
160.57699999999991
 30
0.0
 11
50.427199999999999
 21
160.55699999999999
 31
0.0
  0
LINE
  5
206
  8
0
 62
     7
 10
50.462699999999991
 20
160.53700000000001
 30
0.0
 11
50.488500000000002
 21
160.47599999999991
 31
0.0
  0
LINE
  5
207
  8
0
 62
     7
 10
50.555700000000002
 20
160.57900000000001
 30
0.0
 11
50.462699999999991
 21
160.53700000000001
 31
0.0
  0
LINE
  5
208
  8
0
 62
     7
 10
50.674599999999998
 20
160.56
 30
0.0
 11
50.555700000000002
 21
160.57900000000001
 31
0.0
  0
LINE
  5
209
  8
0
 62
     7
 10
50.700400000000002
 20
160.49799999999991
 30
0.0
 11
50.674599999999998
 21
160.56
 31
0.0
  0
LINE
  5
20A
  8
0
 62
     7
 10
50.607399999999998
 20
160.45699999999999
 30
0.0
 11
50.700400000000002
 21
160.49799999999991
 31
0.0
  0
LINE
  5
20B
  8
0
 62
     7
 10
50.488500000000002
 20
160.47599999999991
 30
0.0
 11
50.607399999999998
 21
160.45699999999999
 31
0.0
  0
LINE
  5
20C
  8
0
 62
     7
 10
50.6432
 20
160.43700000000001
 30
0.0
 11
50.6691
 21
160.376
 31
0.0
  0
LINE
  5
20D
  8
0
 62
     7
 10
50.736199999999997
 20
160.4789999999999
 30
0.0
 11
50.6432
 21
160.43700000000001
 31
0.0
  0
LINE
  5
20E
  8
0
 62
     7
 10
50.8551
 20
160.45899999999989
 30
0.0
 11
50.736199999999997
 21
160.4789999999999
 31
0.0
  0
LINE
  5
20F
  8
0
 62
     7
 10
50.880899999999997
 20
160.39799999999991
 30
0.0
 11
50.8551
 21
160.45899999999989
 31
0.0
  0
LINE
  5
210
  8
0
 62
     7
 10
50.7879
 20
160.35599999999991
 30
0.0
 11
50.880899999999997
 21
160.39799999999991
 31
0.0
  0
LINE
  5
211
  8
0
 62
     7
 10
50.6691
 20
160.376
 30
0.0
 11
50.7879
 21
160.35599999999991
 31
0.0
  0
LINE
  5
212
  8
0
 62
     7
 10
51.869700000000002
 20
159.75399999999991
 30
0.0
 11
51.869700000000002
 21
159.86699999999999
 31
0.0
  0
LINE
  5
213
  8
0
 62
     7
 10
51.750799999999998
 20
159.773
 30
0.0
 11
51.750799999999998
 21
159.846
 31
0.0
  0
LINE
  5
214
  8
0
 62
     7
 10
51.689500000000002
 20
159.8539999999999
 30
0.0
 11
51.689500000000002
 21
159.96799999999999
 31
0.0
  0
LINE
  5
215
  8
0
 62
     7
 10
51.570599999999999
 20
159.87299999999991
 30
0.0
 11
51.570599999999999
 21
159.946
 31
0.0
  0
LINE
  5
216
  8
0
 62
     7
 10
51.509
 20
159.95400000000001
 30
0.0
 11
51.509
 21
160.0679999999999
 31
0.0
  0
LINE
  5
217
  8
0
 62
     7
 10
51.39009999999999
 20
159.9739999999999
 30
0.0
 11
51.39009999999999
 21
160.047
 31
0.0
  0
LINE
  5
218
  8
0
 62
     7
 10
51.328800000000001
 20
160.05500000000001
 30
0.0
 11
51.328800000000001
 21
160.1689999999999
 31
0.0
  0
LINE
  5
219
  8
0
 62
     7
 10
51.20989999999999
 20
160.0739999999999
 30
0.0
 11
51.20989999999999
 21
160.14699999999999
 31
0.0
  0
LINE
  5
21A
  8
0
 62
     7
 10
51.148299999999999
 20
160.155
 30
0.0
 11
51.148299999999999
 21
160.26900000000001
 31
0.0
  0
LINE
  5
21B
  8
0
 62
     7
 10
51.029800000000002
 20
160.17500000000001
 30
0.0
 11
51.029800000000002
 21
160.24799999999991
 31
0.0
  0
LINE
  5
21C
  8
0
 62
     7
 10
51.725299999999997
 20
159.834
 30
0.0
 11
51.750799999999998
 21
159.773
 31
0.0
  0
LINE
  5
21D
  8
0
 62
     7
 10
51.818399999999997
 20
159.876
 30
0.0
 11
51.725299999999997
 21
159.834
 31
0.0
  0
LINE
  5
21E
  8
0
 62
     7
 10
51.936900000000001
 20
159.857
 30
0.0
 11
51.818399999999997
 21
159.876
 31
0.0
  0
LINE
  5
21F
  8
0
 62
     7
 10
51.962699999999998
 20
159.7949999999999
 30
0.0
 11
51.936900000000001
 21
159.857
 31
0.0
  0
LINE
  5
220
  8
0
 62
     7
 10
51.869700000000002
 20
159.75399999999991
 30
0.0
 11
51.962699999999998
 21
159.7949999999999
 31
0.0
  0
LINE
  5
221
  8
0
 62
     7
 10
51.750799999999998
 20
159.773
 30
0.0
 11
51.869700000000002
 21
159.75399999999991
 31
0.0
  0
LINE
  5
222
  8
0
 62
     7
 10
51.544800000000002
 20
159.93399999999991
 30
0.0
 11
51.570599999999999
 21
159.87299999999991
 31
0.0
  0
LINE
  5
223
  8
0
 62
     7
 10
51.637799999999999
 20
159.976
 30
0.0
 11
51.544800000000002
 21
159.93399999999991
 31
0.0
  0
LINE
  5
224
  8
0
 62
     7
 10
51.756700000000002
 20
159.95699999999991
 30
0.0
 11
51.637799999999999
 21
159.976
 31
0.0
  0
LINE
  5
225
  8
0
 62
     7
 10
51.782499999999999
 20
159.89599999999999
 30
0.0
 11
51.756700000000002
 21
159.95699999999991
 31
0.0
  0
LINE
  5
226
  8
0
 62
     7
 10
51.689500000000002
 20
159.8539999999999
 30
0.0
 11
51.782499999999999
 21
159.89599999999999
 31
0.0
  0
LINE
  5
227
  8
0
 62
     7
 10
51.570599999999999
 20
159.87299999999991
 30
0.0
 11
51.689500000000002
 21
159.8539999999999
 31
0.0
  0
LINE
  5
228
  8
0
 62
     7
 10
51.364600000000003
 20
160.03499999999991
 30
0.0
 11
51.39009999999999
 21
159.9739999999999
 31
0.0
  0
LINE
  5
229
  8
0
 62
     7
 10
51.457599999999999
 20
160.07699999999991
 30
0.0
 11
51.364600000000003
 21
160.03499999999991
 31
0.0
  0
LINE
  5
22A
  8
0
 62
     7
 10
51.576500000000003
 20
160.05699999999999
 30
0.0
 11
51.457599999999999
 21
160.07699999999991
 31
0.0
  0
LINE
  5
22B
  8
0
 62
     7
 10
51.60199999999999
 20
159.99600000000001
 30
0.0
 11
51.576500000000003
 21
160.05699999999999
 31
0.0
  0
LINE
  5
22C
  8
0
 62
     7
 10
51.509
 20
159.95400000000001
 30
0.0
 11
51.60199999999999
 21
159.99600000000001
 31
0.0
  0
LINE
  5
22D
  8
0
 62
     7
 10
51.39009999999999
 20
159.9739999999999
 30
0.0
 11
51.509
 21
159.95400000000001
 31
0.0
  0
LINE
  5
22E
  8
0
 62
     7
 10
51.184100000000001
 20
160.13599999999991
 30
0.0
 11
51.20989999999999
 21
160.0739999999999
 31
0.0
  0
LINE
  5
22F
  8
0
 62
     7
 10
51.277099999999997
 20
160.17699999999999
 30
0.0
 11
51.184100000000001
 21
160.13599999999991
 31
0.0
  0
LINE
  5
230
  8
0
 62
     7
 10
51.396000000000001
 20
160.15799999999999
 30
0.0
 11
51.277099999999997
 21
160.17699999999999
 31
0.0
  0
LINE
  5
231
  8
0
 62
     7
 10
51.42179999999999
 20
160.09700000000001
 30
0.0
 11
51.396000000000001
 21
160.15799999999999
 31
0.0
  0
LINE
  5
232
  8
0
 62
     7
 10
51.328800000000001
 20
160.05500000000001
 30
0.0
 11
51.42179999999999
 21
160.09700000000001
 31
0.0
  0
LINE
  5
233
  8
0
 62
     7
 10
51.20989999999999
 20
160.0739999999999
 30
0.0
 11
51.328800000000001
 21
160.05500000000001
 31
0.0
  0
LINE
  5
234
  8
0
 62
     7
 10
51.003900000000002
 20
160.23599999999999
 30
0.0
 11
51.029800000000002
 21
160.17500000000001
 31
0.0
  0
LINE
  5
235
  8
0
 62
     7
 10
51.096899999999998
 20
160.27799999999991
 30
0.0
 11
51.003900000000002
 21
160.23599999999999
 31
0.0
  0
LINE
  5
236
  8
0
 62
     7
 10
51.215800000000002
 20
160.2579999999999
 30
0.0
 11
51.096899999999998
 21
160.27799999999991
 31
0.0
  0
LINE
  5
237
  8
0
 62
     7
 10
51.241300000000003
 20
160.197
 30
0.0
 11
51.215800000000002
 21
160.2579999999999
 31
0.0
  0
LINE
  5
238
  8
0
 62
     7
 10
51.148299999999999
 20
160.155
 30
0.0
 11
51.241300000000003
 21
160.197
 31
0.0
  0
LINE
  5
239
  8
0
 62
     7
 10
51.029800000000002
 20
160.17500000000001
 30
0.0
 11
51.148299999999999
 21
160.155
 31
0.0
  0
LINE
  5
23A
  8
0
 62
     7
 10
49.647199999999991
 20
160.11699999999999
 30
0.0
 11
49.647199999999991
 21
160.2299999999999
 31
0.0
  0
LINE
  5
23B
  8
0
 62
     7
 10
49.528399999999998
 20
160.13599999999991
 30
0.0
 11
49.528399999999998
 21
160.209
 31
0.0
  0
LINE
  5
23C
  8
0
 62
     7
 10
49.911499999999997
 20
160.1449999999999
 30
0.0
 11
49.911499999999997
 21
160.2579999999999
 31
0.0
  0
LINE
  5
23D
  8
0
 62
     7
 10
49.7926
 20
160.1639999999999
 30
0.0
 11
49.7926
 21
160.23699999999999
 31
0.0
  0
LINE
  5
23E
  8
0
 62
     7
 10
50.175400000000003
 20
160.172
 30
0.0
 11
50.175400000000003
 21
160.28599999999989
 31
0.0
  0
LINE
  5
23F
  8
0
 62
     7
 10
50.056899999999999
 20
160.19199999999989
 30
0.0
 11
50.056899999999999
 21
160.26400000000001
 31
0.0
  0
LINE
  5
240
  8
0
 62
     7
 10
50.439599999999999
 20
160.1999999999999
 30
0.0
 11
50.439599999999999
 21
160.31399999999991
 31
0.0
  0
LINE
  5
241
  8
0
 62
     7
 10
50.320799999999998
 20
160.22
 30
0.0
 11
50.320799999999998
 21
160.292
 31
0.0
  0
LINE
  5
242
  8
0
 62
     7
 10
50.70389999999999
 20
160.22799999999989
 30
0.0
 11
50.70389999999999
 21
160.34200000000001
 31
0.0
  0
LINE
  5
243
  8
0
 62
     7
 10
50.585000000000001
 20
160.24799999999991
 30
0.0
 11
50.585000000000001
 21
160.31999999999999
 31
0.0
  0
LINE
  5
244
  8
0
 62
     7
 10
49.502499999999998
 20
160.197
 30
0.0
 11
49.528399999999998
 21
160.13599999999991
 31
0.0
  0
LINE
  5
245
  8
0
 62
     7
 10
49.59559999999999
 20
160.23899999999989
 30
0.0
 11
49.502499999999998
 21
160.197
 31
0.0
  0
LINE
  5
246
  8
0
 62
     7
 10
49.714399999999998
 20
160.21899999999999
 30
0.0
 11
49.59559999999999
 21
160.23899999999989
 31
0.0
  0
LINE
  5
247
  8
0
 62
     7
 10
49.740299999999991
 20
160.15799999999999
 30
0.0
 11
49.714399999999998
 21
160.21899999999999
 31
0.0
  0
LINE
  5
248
  8
0
 62
     7
 10
49.647199999999991
 20
160.11699999999999
 30
0.0
 11
49.740299999999991
 21
160.15799999999999
 31
0.0
  0
LINE
  5
249
  8
0
 62
     7
 10
49.528399999999998
 20
160.13599999999991
 30
0.0
 11
49.647199999999991
 21
160.11699999999999
 31
0.0
  0
LINE
  5
24A
  8
0
 62
     7
 10
49.766800000000003
 20
160.22499999999991
 30
0.0
 11
49.7926
 21
160.1639999999999
 31
0.0
  0
LINE
  5
24B
  8
0
 62
     7
 10
49.8598
 20
160.26699999999991
 30
0.0
 11
49.766800000000003
 21
160.22499999999991
 31
0.0
  0
LINE
  5
24C
  8
0
 62
     7
 10
49.978700000000003
 20
160.24700000000001
 30
0.0
 11
49.8598
 21
160.26699999999991
 31
0.0
  0
LINE
  5
24D
  8
0
 62
     7
 10
50.0045
 20
160.18600000000001
 30
0.0
 11
49.978700000000003
 21
160.24700000000001
 31
0.0
  0
LINE
  5
24E
  8
0
 62
     7
 10
49.911499999999997
 20
160.1449999999999
 30
0.0
 11
50.0045
 21
160.18600000000001
 31
0.0
  0
LINE
  5
24F
  8
0
 62
     7
 10
49.7926
 20
160.1639999999999
 30
0.0
 11
49.911499999999997
 21
160.1449999999999
 31
0.0
  0
LINE
  5
250
  8
0
 62
     7
 10
50.030999999999999
 20
160.2529999999999
 30
0.0
 11
50.056899999999999
 21
160.19199999999989
 31
0.0
  0
LINE
  5
251
  8
0
 62
     7
 10
50.123999999999988
 20
160.2939999999999
 30
0.0
 11
50.030999999999999
 21
160.2529999999999
 31
0.0
  0
LINE
  5
252
  8
0
 62
     7
 10
50.242899999999999
 20
160.27500000000001
 30
0.0
 11
50.123999999999988
 21
160.2939999999999
 31
0.0
  0
LINE
  5
253
  8
0
 62
     7
 10
50.268399999999993
 20
160.214
 30
0.0
 11
50.242899999999999
 21
160.27500000000001
 31
0.0
  0
LINE
  5
254
  8
0
 62
     7
 10
50.175400000000003
 20
160.172
 30
0.0
 11
50.268399999999993
 21
160.214
 31
0.0
  0
LINE
  5
255
  8
0
 62
     7
 10
50.056899999999999
 20
160.19199999999989
 30
0.0
 11
50.175400000000003
 21
160.172
 31
0.0
  0
LINE
  5
256
  8
0
 62
     7
 10
50.294899999999998
 20
160.28100000000001
 30
0.0
 11
50.320799999999998
 21
160.22
 31
0.0
  0
LINE
  5
257
  8
0
 62
     7
 10
50.388300000000001
 20
160.322
 30
0.0
 11
50.294899999999998
 21
160.28100000000001
 31
0.0
  0
LINE
  5
258
  8
0
 62
     7
 10
50.506799999999991
 20
160.30299999999991
 30
0.0
 11
50.388300000000001
 21
160.322
 31
0.0
  0
LINE
  5
259
  8
0
 62
     7
 10
50.532600000000002
 20
160.24199999999999
 30
0.0
 11
50.506799999999991
 21
160.30299999999991
 31
0.0
  0
LINE
  5
25A
  8
0
 62
     7
 10
50.439599999999999
 20
160.1999999999999
 30
0.0
 11
50.532600000000002
 21
160.24199999999999
 31
0.0
  0
LINE
  5
25B
  8
0
 62
     7
 10
50.320799999999998
 20
160.22
 30
0.0
 11
50.439599999999999
 21
160.1999999999999
 31
0.0
  0
LINE
  5
25C
  8
0
 62
     7
 10
50.559199999999997
 20
160.30899999999991
 30
0.0
 11
50.585000000000001
 21
160.24799999999991
 31
0.0
  0
LINE
  5
25D
  8
0
 62
     7
 10
50.652200000000001
 20
160.34999999999991
 30
0.0
 11
50.559199999999997
 21
160.30899999999991
 31
0.0
  0
LINE
  5
25E
  8
0
 62
     7
 10
50.771000000000001
 20
160.33099999999999
 30
0.0
 11
50.652200000000001
 21
160.34999999999991
 31
0.0
  0
LINE
  5
25F
  8
0
 62
     7
 10
50.796900000000001
 20
160.27000000000001
 30
0.0
 11
50.771000000000001
 21
160.33099999999999
 31
0.0
  0
LINE
  5
260
  8
0
 62
     7
 10
50.70389999999999
 20
160.22799999999989
 30
0.0
 11
50.796900000000001
 21
160.27000000000001
 31
0.0
  0
LINE
  5
261
  8
0
 62
     7
 10
50.585000000000001
 20
160.24799999999991
 30
0.0
 11
50.70389999999999
 21
160.22799999999989
 31
0.0
  0
LINE
  5
262
  8
0
 62
     7
 10
52.288999999999987
 20
160.39500000000001
 30
0.0
 11
52.288999999999987
 21
160.5089999999999
 31
0.0
  0
LINE
  5
263
  8
0
 62
     7
 10
52.170099999999998
 20
160.41499999999991
 30
0.0
 11
52.170099999999998
 21
160.48699999999999
 31
0.0
  0
LINE
  5
264
  8
0
 62
     7
 10
52.024700000000003
 20
160.36699999999999
 30
0.0
 11
52.024700000000003
 21
160.48099999999999
 31
0.0
  0
LINE
  5
265
  8
0
 62
     7
 10
51.906199999999998
 20
160.387
 30
0.0
 11
51.906199999999998
 21
160.45899999999989
 31
0.0
  0
LINE
  5
266
  8
0
 62
     7
 10
51.760800000000003
 20
160.34
 30
0.0
 11
51.760800000000003
 21
160.453
 31
0.0
  0
LINE
  5
267
  8
0
 62
     7
 10
51.642000000000003
 20
160.35900000000001
 30
0.0
 11
51.642000000000003
 21
160.43199999999999
 31
0.0
  0
LINE
  5
268
  8
0
 62
     7
 10
51.496600000000001
 20
160.31200000000001
 30
0.0
 11
51.496600000000001
 21
160.42500000000001
 31
0.0
  0
LINE
  5
269
  8
0
 62
     7
 10
51.37769999999999
 20
160.33099999999999
 30
0.0
 11
51.37769999999999
 21
160.40399999999991
 31
0.0
  0
LINE
  5
26A
  8
0
 62
     7
 10
51.232300000000002
 20
160.28399999999999
 30
0.0
 11
51.232300000000002
 21
160.39699999999999
 31
0.0
  0
LINE
  5
26B
  8
0
 62
     7
 10
51.113500000000002
 20
160.30299999999991
 30
0.0
 11
51.113500000000002
 21
160.376
 31
0.0
  0
LINE
  5
26C
  8
0
 62
     7
 10
52.14459999999999
 20
160.47599999999991
 30
0.0
 11
52.170099999999998
 21
160.41499999999991
 31
0.0
  0
LINE
  5
26D
  8
0
 62
     7
 10
52.2376
 20
160.517
 30
0.0
 11
52.14459999999999
 21
160.47599999999991
 31
0.0
  0
LINE
  5
26E
  8
0
 62
     7
 10
52.356099999999998
 20
160.49799999999991
 30
0.0
 11
52.2376
 21
160.517
 31
0.0
  0
LINE
  5
26F
  8
0
 62
     7
 10
52.381999999999991
 20
160.43700000000001
 30
0.0
 11
52.356099999999998
 21
160.49799999999991
 31
0.0
  0
LINE
  5
270
  8
0
 62
     7
 10
52.288999999999987
 20
160.39500000000001
 30
0.0
 11
52.381999999999991
 21
160.43700000000001
 31
0.0
  0
LINE
  5
271
  8
0
 62
     7
 10
52.170099999999998
 20
160.41499999999991
 30
0.0
 11
52.288999999999987
 21
160.39500000000001
 31
0.0
  0
LINE
  5
272
  8
0
 62
     7
 10
51.880400000000002
 20
160.44799999999989
 30
0.0
 11
51.906199999999998
 21
160.387
 31
0.0
  0
LINE
  5
273
  8
0
 62
     7
 10
51.973399999999998
 20
160.489
 30
0.0
 11
51.880400000000002
 21
160.44799999999989
 31
0.0
  0
LINE
  5
274
  8
0
 62
     7
 10
52.092199999999998
 20
160.47
 30
0.0
 11
51.973399999999998
 21
160.489
 31
0.0
  0
LINE
  5
275
  8
0
 62
     7
 10
52.117699999999999
 20
160.40899999999999
 30
0.0
 11
52.092199999999998
 21
160.47
 31
0.0
  0
LINE
  5
276
  8
0
 62
     7
 10
52.024700000000003
 20
160.36699999999999
 30
0.0
 11
52.117699999999999
 21
160.40899999999999
 31
0.0
  0
LINE
  5
277
  8
0
 62
     7
 10
51.906199999999998
 20
160.387
 30
0.0
 11
52.024700000000003
 21
160.36699999999999
 31
0.0
  0
LINE
  5
278
  8
0
 62
     7
 10
51.616100000000003
 20
160.4199999999999
 30
0.0
 11
51.642000000000003
 21
160.35900000000001
 31
0.0
  0
LINE
  5
279
  8
0
 62
     7
 10
51.709099999999999
 20
160.46199999999999
 30
0.0
 11
51.616100000000003
 21
160.4199999999999
 31
0.0
  0
LINE
  5
27A
  8
0
 62
     7
 10
51.828000000000003
 20
160.44200000000001
 30
0.0
 11
51.709099999999999
 21
160.46199999999999
 31
0.0
  0
LINE
  5
27B
  8
0
 62
     7
 10
51.8538
 20
160.381
 30
0.0
 11
51.828000000000003
 21
160.44200000000001
 31
0.0
  0
LINE
  5
27C
  8
0
 62
     7
 10
51.760800000000003
 20
160.34
 30
0.0
 11
51.8538
 21
160.381
 31
0.0
  0
LINE
  5
27D
  8
0
 62
     7
 10
51.642000000000003
 20
160.35900000000001
 30
0.0
 11
51.760800000000003
 21
160.34
 31
0.0
  0
LINE
  5
27E
  8
0
 62
     7
 10
51.351900000000001
 20
160.392
 30
0.0
 11
51.37769999999999
 21
160.33099999999999
 31
0.0
  0
LINE
  5
27F
  8
0
 62
     7
 10
51.444899999999997
 20
160.434
 30
0.0
 11
51.351900000000001
 21
160.392
 31
0.0
  0
LINE
  5
280
  8
0
 62
     7
 10
51.563800000000001
 20
160.4139999999999
 30
0.0
 11
51.444899999999997
 21
160.434
 31
0.0
  0
LINE
  5
281
  8
0
 62
     7
 10
51.589599999999997
 20
160.35299999999989
 30
0.0
 11
51.563800000000001
 21
160.4139999999999
 31
0.0
  0
LINE
  5
282
  8
0
 62
     7
 10
51.496600000000001
 20
160.31200000000001
 30
0.0
 11
51.589599999999997
 21
160.35299999999989
 31
0.0
  0
LINE
  5
283
  8
0
 62
     7
 10
51.37769999999999
 20
160.33099999999999
 30
0.0
 11
51.496600000000001
 21
160.31200000000001
 31
0.0
  0
LINE
  5
284
  8
0
 62
     7
 10
51.087600000000002
 20
160.364
 30
0.0
 11
51.113500000000002
 21
160.30299999999991
 31
0.0
  0
LINE
  5
285
  8
0
 62
     7
 10
51.180700000000002
 20
160.40600000000001
 30
0.0
 11
51.087600000000002
 21
160.364
 31
0.0
  0
LINE
  5
286
  8
0
 62
     7
 10
51.299500000000002
 20
160.387
 30
0.0
 11
51.180700000000002
 21
160.40600000000001
 31
0.0
  0
LINE
  5
287
  8
0
 62
     7
 10
51.325400000000002
 20
160.3249999999999
 30
0.0
 11
51.299500000000002
 21
160.387
 31
0.0
  0
LINE
  5
288
  8
0
 62
     7
 10
51.232300000000002
 20
160.28399999999999
 30
0.0
 11
51.325400000000002
 21
160.3249999999999
 31
0.0
  0
LINE
  5
289
  8
0
 62
     7
 10
51.113500000000002
 20
160.30299999999991
 30
0.0
 11
51.232300000000002
 21
160.28399999999999
 31
0.0
  0
LINE
  5
28A
  8
0
 62
     7
 10
50.5488
 20
159.614
 30
0.0
 11
50.5488
 21
159.72799999999989
 31
0.0
  0
LINE
  5
28B
  8
0
 62
     7
 10
50.43
 20
159.6339999999999
 30
0.0
 11
50.43
 21
159.70599999999999
 31
0.0
  0
LINE
  5
28C
  8
0
 62
     7
 10
50.6325
 20
159.74299999999991
 30
0.0
 11
50.6325
 21
159.857
 31
0.0
  0
LINE
  5
28D
  8
0
 62
     7
 10
50.514000000000003
 20
159.762
 30
0.0
 11
50.514000000000003
 21
159.83500000000001
 31
0.0
  0
LINE
  5
28E
  8
0
 62
     7
 10
50.7166
 20
159.87100000000001
 30
0.0
 11
50.7166
 21
159.98500000000001
 31
0.0
  0
LINE
  5
28F
  8
0
 62
     7
 10
50.597700000000003
 20
159.8899999999999
 30
0.0
 11
50.597700000000003
 21
159.96299999999991
 31
0.0
  0
LINE
  5
290
  8
0
 62
     7
 10
50.8003
 20
159.999
 30
0.0
 11
50.8003
 21
160.11299999999989
 31
0.0
  0
LINE
  5
291
  8
0
 62
     7
 10
50.6815
 20
160.01799999999989
 30
0.0
 11
50.6815
 21
160.09100000000001
 31
0.0
  0
LINE
  5
292
  8
0
 62
     7
 10
50.884399999999999
 20
160.12700000000001
 30
0.0
 11
50.884399999999999
 21
160.24100000000001
 31
0.0
  0
LINE
  5
293
  8
0
 62
     7
 10
50.76550000000001
 20
160.14699999999999
 30
0.0
 11
50.76550000000001
 21
160.22
 31
0.0
  0
LINE
  5
294
  8
0
 62
     7
 10
50.4041
 20
159.69499999999991
 30
0.0
 11
50.43
 21
159.6339999999999
 31
0.0
  0
LINE
  5
295
  8
0
 62
     7
 10
50.497199999999999
 20
159.73699999999991
 30
0.0
 11
50.4041
 21
159.69499999999991
 31
0.0
  0
LINE
  5
296
  8
0
 62
     7
 10
50.616000000000007
 20
159.71700000000001
 30
0.0
 11
50.497199999999999
 21
159.73699999999991
 31
0.0
  0
LINE
  5
297
  8
0
 62
     7
 10
50.641800000000003
 20
159.65600000000001
 30
0.0
 11
50.616000000000007
 21
159.71700000000001
 31
0.0
  0
LINE
  5
298
  8
0
 62
     7
 10
50.5488
 20
159.614
 30
0.0
 11
50.641800000000003
 21
159.65600000000001
 31
0.0
  0
LINE
  5
299
  8
0
 62
     7
 10
50.43
 20
159.6339999999999
 30
0.0
 11
50.5488
 21
159.614
 31
0.0
  0
LINE
  5
29A
  8
0
 62
     7
 10
50.488199999999999
 20
159.82299999999989
 30
0.0
 11
50.514000000000003
 21
159.762
 31
0.0
  0
LINE
  5
29B
  8
0
 62
     7
 10
50.581200000000003
 20
159.86500000000001
 30
0.0
 11
50.488199999999999
 21
159.82299999999989
 31
0.0
  0
LINE
  5
29C
  8
0
 62
     7
 10
50.700099999999992
 20
159.846
 30
0.0
 11
50.581200000000003
 21
159.86500000000001
 31
0.0
  0
LINE
  5
29D
  8
0
 62
     7
 10
50.7256
 20
159.78399999999991
 30
0.0
 11
50.700099999999992
 21
159.846
 31
0.0
  0
LINE
  5
29E
  8
0
 62
     7
 10
50.6325
 20
159.74299999999991
 30
0.0
 11
50.7256
 21
159.78399999999991
 31
0.0
  0
LINE
  5
29F
  8
0
 62
     7
 10
50.514000000000003
 20
159.762
 30
0.0
 11
50.6325
 21
159.74299999999991
 31
0.0
  0
LINE
  5
2A0
  8
0
 62
     7
 10
50.571899999999999
 20
159.95099999999991
 30
0.0
 11
50.597700000000003
 21
159.8899999999999
 31
0.0
  0
LINE
  5
2A1
  8
0
 62
     7
 10
50.664900000000003
 20
159.99299999999999
 30
0.0
 11
50.571899999999999
 21
159.95099999999991
 31
0.0
  0
LINE
  5
2A2
  8
0
 62
     7
 10
50.783799999999999
 20
159.9739999999999
 30
0.0
 11
50.664900000000003
 21
159.99299999999999
 31
0.0
  0
LINE
  5
2A3
  8
0
 62
     7
 10
50.80960000000001
 20
159.9129999999999
 30
0.0
 11
50.783799999999999
 21
159.9739999999999
 31
0.0
  0
LINE
  5
2A4
  8
0
 62
     7
 10
50.7166
 20
159.87100000000001
 30
0.0
 11
50.80960000000001
 21
159.9129999999999
 31
0.0
  0
LINE
  5
2A5
  8
0
 62
     7
 10
50.597700000000003
 20
159.8899999999999
 30
0.0
 11
50.7166
 21
159.87100000000001
 31
0.0
  0
LINE
  5
2A6
  8
0
 62
     7
 10
50.6556
 20
160.08000000000001
 30
0.0
 11
50.6815
 21
160.01799999999989
 31
0.0
  0
LINE
  5
2A7
  8
0
 62
     7
 10
50.74860000000001
 20
160.12100000000001
 30
0.0
 11
50.6556
 21
160.08000000000001
 31
0.0
  0
LINE
  5
2A8
  8
0
 62
     7
 10
50.8675
 20
160.102
 30
0.0
 11
50.74860000000001
 21
160.12100000000001
 31
0.0
  0
LINE
  5
2A9
  8
0
 62
     7
 10
50.893300000000004
 20
160.041
 30
0.0
 11
50.8675
 21
160.102
 31
0.0
  0
LINE
  5
2AA
  8
0
 62
     7
 10
50.8003
 20
159.999
 30
0.0
 11
50.893300000000004
 21
160.041
 31
0.0
  0
LINE
  5
2AB
  8
0
 62
     7
 10
50.6815
 20
160.01799999999989
 30
0.0
 11
50.8003
 21
159.999
 31
0.0
  0
LINE
  5
2AC
  8
0
 62
     7
 10
50.739699999999999
 20
160.20799999999991
 30
0.0
 11
50.76550000000001
 21
160.14699999999999
 31
0.0
  0
LINE
  5
2AD
  8
0
 62
     7
 10
50.832700000000003
 20
160.25
 30
0.0
 11
50.739699999999999
 21
160.20799999999991
 31
0.0
  0
LINE
  5
2AE
  8
0
 62
     7
 10
50.951599999999992
 20
160.2299999999999
 30
0.0
 11
50.832700000000003
 21
160.25
 31
0.0
  0
LINE
  5
2AF
  8
0
 62
     7
 10
50.977400000000003
 20
160.1689999999999
 30
0.0
 11
50.951599999999992
 21
160.2299999999999
 31
0.0
  0
LINE
  5
2B0
  8
0
 62
     7
 10
50.884399999999999
 20
160.12700000000001
 30
0.0
 11
50.977400000000003
 21
160.1689999999999
 31
0.0
  0
LINE
  5
2B1
  8
0
 62
     7
 10
50.76550000000001
 20
160.14699999999999
 30
0.0
 11
50.884399999999999
 21
160.12700000000001
 31
0.0
  0
LINE
  5
2B2
  8
0
 62
     7
 10
51.303699999999999
 20
160.76900000000001
 30
0.0
 11
51.303699999999999
 21
160.84700000000001
 31
0.0
  0
LINE
  5
2B3
  8
0
 62
     7
 10
51.184800000000003
 20
160.7879999999999
 30
0.0
 11
51.184800000000003
 21
160.85599999999991
 31
0.0
  0
LINE
  5
2B4
  8
0
 62
     7
 10
51.2196
 20
160.64099999999991
 30
0.0
 11
51.2196
 21
160.75499999999991
 31
0.0
  0
LINE
  5
2B5
  8
0
 62
     7
 10
51.100700000000003
 20
160.66
 30
0.0
 11
51.100700000000003
 21
160.733
 31
0.0
  0
LINE
  5
2B6
  8
0
 62
     7
 10
51.135899999999999
 20
160.512
 30
0.0
 11
51.135899999999999
 21
160.62700000000001
 31
0.0
  0
LINE
  5
2B7
  8
0
 62
     7
 10
51.017000000000003
 20
160.53200000000001
 30
0.0
 11
51.017000000000003
 21
160.6039999999999
 31
0.0
  0
LINE
  5
2B8
  8
0
 62
     7
 10
51.0518
 20
160.3839999999999
 30
0.0
 11
51.0518
 21
160.49799999999991
 31
0.0
  0
LINE
  5
2B9
  8
0
 62
     7
 10
50.933
 20
160.40399999999991
 30
0.0
 11
50.933
 21
160.47599999999991
 31
0.0
  0
LINE
  5
2BA
  8
0
 62
     7
 10
51.158999999999992
 20
160.84999999999999
 30
0.0
 11
51.184800000000003
 21
160.7879999999999
 31
0.0
  0
LINE
  5
2BB
  8
0
 62
     7
 10
51.1738
 20
160.85599999999991
 30
0.0
 11
51.158999999999992
 21
160.84999999999999
 31
0.0
  0
LINE
  5
2BC
  8
0
 62
     7
 10
51.396700000000003
 20
160.81100000000001
 30
0.0
 11
51.384599999999999
 21
160.83899999999991
 31
0.0
  0
LINE
  5
2BD
  8
0
 62
     7
 10
51.303699999999999
 20
160.76900000000001
 30
0.0
 11
51.396700000000003
 21
160.81100000000001
 31
0.0
  0
LINE
  5
2BE
  8
0
 62
     7
 10
51.184800000000003
 20
160.7879999999999
 30
0.0
 11
51.303699999999999
 21
160.76900000000001
 31
0.0
  0
LINE
  5
2BF
  8
0
 62
     7
 10
51.0749
 20
160.721
 30
0.0
 11
51.100700000000003
 21
160.66
 31
0.0
  0
LINE
  5
2C0
  8
0
 62
     7
 10
51.167900000000003
 20
160.76300000000001
 30
0.0
 11
51.0749
 21
160.721
 31
0.0
  0
LINE
  5
2C1
  8
0
 62
     7
 10
51.286799999999999
 20
160.74399999999989
 30
0.0
 11
51.167900000000003
 21
160.76300000000001
 31
0.0
  0
LINE
  5
2C2
  8
0
 62
     7
 10
51.31260000000001
 20
160.68299999999991
 30
0.0
 11
51.286799999999999
 21
160.74399999999989
 31
0.0
  0
LINE
  5
2C3
  8
0
 62
     7
 10
51.2196
 20
160.64099999999991
 30
0.0
 11
51.31260000000001
 21
160.68299999999991
 31
0.0
  0
LINE
  5
2C4
  8
0
 62
     7
 10
51.100700000000003
 20
160.66
 30
0.0
 11
51.2196
 21
160.64099999999991
 31
0.0
  0
LINE
  5
2C5
  8
0
 62
     7
 10
50.991199999999999
 20
160.5929999999999
 30
0.0
 11
51.017000000000003
 21
160.53200000000001
 31
0.0
  0
LINE
  5
2C6
  8
0
 62
     7
 10
51.084200000000003
 20
160.63499999999991
 30
0.0
 11
50.991199999999999
 21
160.5929999999999
 31
0.0
  0
LINE
  5
2C7
  8
0
 62
     7
 10
51.203099999999992
 20
160.61600000000001
 30
0.0
 11
51.084200000000003
 21
160.63499999999991
 31
0.0
  0
LINE
  5
2C8
  8
0
 62
     7
 10
51.228900000000003
 20
160.55399999999989
 30
0.0
 11
51.203099999999992
 21
160.61600000000001
 31
0.0
  0
LINE
  5
2C9
  8
0
 62
     7
 10
51.135899999999999
 20
160.512
 30
0.0
 11
51.228900000000003
 21
160.55399999999989
 31
0.0
  0
LINE
  5
2CA
  8
0
 62
     7
 10
51.017000000000003
 20
160.53200000000001
 30
0.0
 11
51.135899999999999
 21
160.512
 31
0.0
  0
LINE
  5
2CB
  8
0
 62
     7
 10
50.907499999999992
 20
160.465
 30
0.0
 11
50.933
 21
160.40399999999991
 31
0.0
  0
LINE
  5
2CC
  8
0
 62
     7
 10
51.000500000000002
 20
160.50599999999989
 30
0.0
 11
50.907499999999992
 21
160.465
 31
0.0
  0
LINE
  5
2CD
  8
0
 62
     7
 10
51.119300000000003
 20
160.48699999999999
 30
0.0
 11
51.000500000000002
 21
160.50599999999989
 31
0.0
  0
LINE
  5
2CE
  8
0
 62
     7
 10
51.144799999999996
 20
160.42599999999999
 30
0.0
 11
51.119300000000003
 21
160.48699999999999
 31
0.0
  0
LINE
  5
2CF
  8
0
 62
     7
 10
51.0518
 20
160.3839999999999
 30
0.0
 11
51.144799999999996
 21
160.42599999999999
 31
0.0
  0
LINE
  5
2D0
  8
0
 62
     7
 10
50.933
 20
160.40399999999991
 30
0.0
 11
51.0518
 21
160.3839999999999
 31
0.0
  0
LINE
  5
2D1
  8
0
 62
     7
 10
50.9681
 20
160.25599999999989
 30
0.0
 11
50.9681
 21
160.37
 31
0.0
  0
LINE
  5
2D2
  8
0
 62
     7
 10
50.849200000000003
 20
160.27500000000001
 30
0.0
 11
50.849200000000003
 21
160.3479999999999
 31
0.0
  0
LINE
  5
2D3
  8
0
 62
     7
 10
50.823399999999999
 20
160.33600000000001
 30
0.0
 11
50.849200000000003
 21
160.27500000000001
 31
0.0
  0
LINE
  5
2D4
  8
0
 62
     7
 10
50.916400000000003
 20
160.3779999999999
 30
0.0
 11
50.823399999999999
 21
160.33600000000001
 31
0.0
  0
LINE
  5
2D5
  8
0
 62
     7
 10
51.035299999999999
 20
160.35900000000001
 30
0.0
 11
50.916400000000003
 21
160.3779999999999
 31
0.0
  0
LINE
  5
2D6
  8
0
 62
     7
 10
51.06110000000001
 20
160.298
 30
0.0
 11
51.035299999999999
 21
160.35900000000001
 31
0.0
  0
LINE
  5
2D7
  8
0
 62
     7
 10
50.9681
 20
160.25599999999989
 30
0.0
 11
51.06110000000001
 21
160.298
 31
0.0
  0
LINE
  5
2D8
  8
0
 62
     7
 10
50.849200000000003
 20
160.27500000000001
 30
0.0
 11
50.9681
 21
160.25599999999989
 31
0.0
  0
ARC
  5
2D9
  8
0
 62
     7
 10
49.849336999999998
 20
160.32505699999999
 30
0.0
 40
0.438748
 50
188.168027
 51
216.40764100000001
  0
ARC
  5
2DA
  8
0
 62
     7
 10
50.064213000000002
 20
160.46457099999989
 30
0.0
 40
0.6946560000000001
 50
215.14958599999991
 51
230.44161999999989
  0
ARC
  5
2DB
  8
0
 62
     7
 10
50.337803999999998
 20
160.78103899999999
 30
0.0
 40
1.1129260000000001
 50
229.95846599999999
 51
243.00115799999989
  0
ARC
  5
2DC
  8
0
 62
     7
 10
50.677180999999997
 20
161.41473099999999
 30
0.0
 40
1.8316819999999989
 50
242.54096799999999
 51
257.34612599999991
  0
ARC
  5
2DD
  8
0
 62
     7
 10
50.926561
 20
162.34083699999999
 30
0.0
 40
2.790216
 50
256.51548700000001
 51
272.54456499999992
  0
ARC
  5
2DE
  8
0
 62
     7
 10
50.95105499999999
 20
162.38112599999999
 30
0.0
 40
2.829501
 50
272.01284299999998
 51
286.68417399999998
  0
ARC
  5
2DF
  8
0
 62
     7
 10
51.248578000000002
 20
161.313401
 30
0.0
 40
1.721441999999999
 50
287.40117199999997
 51
302.27634
  0
ARC
  5
2E0
  8
0
 62
     7
 10
51.687390999999991
 20
160.58940699999991
 30
0.0
 40
0.87513
 50
303.29817200000002
 51
323.97100699999999
  0
ARC
  5
2E1
  8
0
 62
     7
 10
52.004173000000002
 20
160.33881700000001
 30
0.0
 40
0.471829
 50
325.95405299999987
 51
350.71880800000002
  0
ARC
  5
2E2
  8
0
 62
     7
 10
50.213903000000002
 20
159.91512299999991
 30
0.0
 40
0.901918
 50
124.3673169999999
 51
142.4966969999999
  0
ARC
  5
2E3
  8
0
 62
     7
 10
49.872122999999988
 20
160.19603499999999
 30
0.0
 40
0.459994
 50
144.33720899999989
 51
182.96870699999999
  0
ARC
  5
2E4
  8
0
 62
     7
 10
49.848636999999997
 20
160.217209
 30
0.0
 40
0.438207
 50
185.893901
 51
216.52740399999999
  0
ARC
  5
2E5
  8
0
 62
     7
 10
50.066334000000012
 20
160.357291
 30
0.0
 40
0.6967280000000001
 50
215.12850800000001
 51
230.191992
  0
ARC
  5
2E6
  8
0
 62
     7
 10
50.326628999999997
 20
160.65597199999991
 30
0.0
 40
1.0928530000000001
 50
229.73397900000001
 51
242.53050499999989
  0
ARC
  5
2E7
  8
0
 62
     7
 10
50.600287999999999
 20
161.150689
 30
0.0
 40
1.6580900000000001
 50
242.0258399999999
 51
250.2750299999999
  0
ARC
  5
2E8
  8
0
 62
     7
 10
50.813940000000002
 20
161.7144669999999
 30
0.0
 40
2.2609219999999999
 50
250.00038199999989
 51
262.09331099999991
  0
ARC
  5
2E9
  8
0
 62
     7
 10
50.937466000000001
 20
162.40992299999991
 30
0.0
 40
2.9668799999999989
 50
261.57797399999998
 51
284.23522800000001
  0
ARC
  5
2EA
  8
0
 62
     7
 10
51.200396999999988
 20
161.30341899999999
 30
0.0
 40
1.8297769999999991
 50
284.77495099999987
 51
302.37219900000002
  0
ARC
  5
2EB
  8
0
 62
     7
 10
51.676501000000002
 20
160.492842
 30
0.0
 40
0.890831
 50
304.42340300000001
 51
323.34541799999988
  0
ARC
  5
2EC
  8
0
 62
     7
 10
52.00951400000001
 20
160.22563500000001
 30
0.0
 40
0.464412
 50
325.26558899999998
 51
357.90188999999992
  0
ARC
  5
2ED
  8
0
 62
     7
 10
52.068973
 20
160.208259
 30
0.0
 40
0.4046420000000001
 50
0.052908
 51
29.303768999999999
  0
ARC
  5
2EE
  8
0
 62
     7
 10
51.896731000000003
 20
160.12238899999991
 30
0.0
 40
0.596946
 50
28.399545
 51
45.75394099999999
  0
ARC
  5
2EF
  8
0
 62
     7
 10
51.670296
 20
159.90448499999999
 30
0.0
 40
0.911091
 50
45.114657000000001
 51
55.975819999999999
  0
ARC
  5
2F0
  8
0
 62
     7
 10
49.957516999999989
 20
160.101258
 30
0.0
 40
0.6642050000000001
 50
135.7765959999999
 51
157.30793799999989
  0
ARC
  5
2F1
  8
0
 62
     7
 10
49.747997999999988
 20
160.20594199999991
 30
0.0
 40
0.430808
 50
159.40339800000001
 51
179.64210199999991
  0
ARC
  5
2F2
  8
0
 62
     7
 10
49.750548999999992
 20
160.20952600000001
 30
0.0
 40
0.4333520000000001
 50
180.11806799999999
 51
209.529348
  0
ARC
  5
2F3
  8
0
 62
     7
 10
49.927455999999999
 20
160.299735
 30
0.0
 40
0.6318000000000001
 50
208.74030099999999
 51
225.68983999999989
  0
ARC
  5
2F4
  8
0
 62
     7
 10
50.183691000000003
 20
160.547235
 30
0.0
 40
0.98795
 50
225.08295000000001
 51
238.2498019999999
  0
ARC
  5
2F5
  8
0
 62
     7
 10
50.492986000000002
 20
161.02181999999999
 30
0.0
 40
1.5543269999999989
 50
237.76046799999989
 51
249.11931899999999
  0
ARC
  5
2F6
  8
0
 62
     7
 10
50.794996999999988
 20
161.76730800000001
 30
0.0
 40
2.3585560000000001
 50
248.71930199999991
 51
261.81070299999999
  0
ARC
  5
2F7
  8
0
 62
     7
 10
50.934609000000002
 20
162.5095189999999
 30
0.0
 40
3.1132550000000001
 50
261.21321
 51
270.14081800000002
  0
ARC
  5
2F8
  8
0
 62
     7
 10
50.942540000000001
 20
162.43831
 30
0.0
 40
3.0420359999999991
 50
269.99472900000001
 51
287.37229500000001
  0
ARC
  5
2F9
  8
0
 62
     7
 10
51.294493000000003
 20
161.20338099999989
 30
0.0
 40
1.7586589999999991
 50
288.44178499999992
 51
303.59116899999992
  0
ARC
  5
2FA
  8
0
 62
     7
 10
51.757674000000002
 20
160.47252700000001
 30
0.0
 40
0.8937839999999999
 50
304.77860600000002
 51
324.8203529999999
  0
ARC
  5
2FB
  8
0
 62
     7
 10
52.084982000000011
 20
160.2226399999999
 30
0.0
 40
0.4825430000000001
 50
326.68114100000003
 51
358.33652999999998
  0
ARC
  5
2FC
  8
0
 62
     7
 10
52.139583999999999
 20
160.20797400000001
 30
0.0
 40
0.4277390000000001
 50
0.088261
 51
27.896890999999989
  0
ARC
  5
2FD
  8
0
 62
     7
 10
51.969527999999997
 20
160.1266399999999
 30
0.0
 40
0.616135
 50
27.182348999999991
 51
45.290089000000002
  0
ARC
  5
2FE
  8
0
 62
     7
 10
51.134830000000001
 20
161.96994599999991
 30
0.0
 40
2.5335869999999989
 50
288.73456800000002
 51
291.45591000000002
  0
LINE
  5
2FF
  8
0
 62
     7
 10
51.419400000000003
 20
159.233
 30
0.0
 11
51.419400000000003
 21
159.43199999999999
 31
0.0
  0
LINE
  5
300
  8
0
 62
     7
 10
52.061599999999999
 20
159.39599999999999
 30
0.0
 11
52.061599999999999
 21
159.61199999999991
 31
0.0
  0
ARC
  5
301
  8
0
 62
     7
 10
51.947521999999992
 20
160.508127
 30
0.0
 40
0.8471439999999999
 50
311.33551
 51
330.28040600000003
  0
ARC
  5
302
  8
0
 62
     7
 10
52.216296999999997
 20
160.33548500000001
 30
0.0
 40
0.528398
 50
332.09000800000001
 51
346.10934800000001
  0
LINE
  5
303
  8
0
 62
     7
 10
52.506999999999998
 20
159.655
 30
0.0
 11
52.506999999999998
 21
159.87200000000001
 31
0.0
  0
LINE
  5
304
  8
0
 62
     7
 10
52.730600000000003
 20
159.99799999999991
 30
0.0
 11
52.730600000000003
 21
160.203
 31
0.0
  0
LINE
  5
305
  8
0
 62
     7
 10
52.677900000000001
 20
160.339
 30
0.0
 11
52.677900000000001
 21
160.399
 31
0.0
  0
LINE
  5
306
  8
0
 62
     7
 10
49.1539
 20
160.203
 30
0.0
 11
49.1539
 21
160.35699999999991
 31
0.0
  0
ARC
  5
307
  8
0
 62
     7
 10
49.797189000000003
 20
160.40457499999999
 30
0.0
 40
0.674662
 50
208.91118299999991
 51
222.890038
  0
ARC
  5
308
  8
0
 62
     7
 10
50.071691999999992
 20
160.64981299999999
 30
0.0
 40
1.0427120000000001
 50
222.497231
 51
238.862864
  0
LINE
  5
309
  8
0
 62
     7
 10
49.206600000000002
 20
159.86199999999991
 30
0.0
 11
49.206600000000002
 21
160.078
 31
0.0
  0
LINE
  5
30A
  8
0
 62
     7
 10
49.532499999999999
 20
159.541
 30
0.0
 11
49.532499999999999
 21
159.75700000000001
 31
0.0
  0
ARC
  5
30B
  8
0
 62
     7
 10
51.012106000000003
 20
162.705307
 30
0.0
 40
3.3839019999999991
 50
277.81896799999998
 51
288.06748399999992
  0
LINE
  5
30C
  8
0
 62
     7
 10
51.472499999999989
 20
159.35299999999989
 30
0.0
 11
51.472499999999989
 21
159.13599999999991
 31
0.0
  0
ARC
  5
30D
  8
0
 62
     7
 10
52.014457
 20
160.57741799999999
 30
0.0
 40
1.006893
 50
311.425701
 51
324.44565499999999
  0
LINE
  5
30E
  8
0
 62
     7
 10
52.680700000000002
 20
159.82199999999989
 30
0.0
 11
52.680700000000002
 21
159.60599999999999
 31
0.0
  0
ARC
  5
30F
  8
0
 62
     7
 10
50.009974
 20
160.73231299999989
 30
0.0
 40
1.215563999999999
 50
226.09290200000001
 51
238.55094199999991
  0
LINE
  5
310
  8
0
 62
     7
 10
49.375799999999998
 20
159.69499999999991
 30
0.0
 11
49.375799999999998
 21
159.4789999999999
 31
0.0
  0
LINE
  5
311
  8
0
 62
     7
 10
51.428000000000011
 20
159.43299999999999
 30
0.0
 11
51.472499999999989
 21
159.35299999999989
 31
0.0
  0
LINE
  5
312
  8
0
 62
     7
 10
52.506999999999998
 20
159.87200000000001
 30
0.0
 11
52.680700000000002
 21
159.82199999999989
 31
0.0
  0
LINE
  5
313
  8
0
 62
     7
 10
49.375799999999998
 20
159.69499999999991
 30
0.0
 11
49.532499999999999
 21
159.75700000000001
 31
0.0
  0
LINE
  5
314
  8
0
 62
     7
 10
51.419400000000003
 20
159.233
 30
0.0
 11
51.472499999999989
 21
159.13599999999991
 31
0.0
  0
ARC
  5
315
  8
0
 62
     7
 10
50.941051999999999
 20
162.793631
 30
0.0
 40
3.5929859999999998
 50
266.74323199999992
 51
277.65087599999998
  0
LINE
  5
316
  8
0
 62
     7
 10
52.18589999999999
 20
159.31700000000001
 30
0.0
 11
52.061599999999999
 21
159.39599999999999
 31
0.0
  0
ARC
  5
317
  8
0
 62
     7
 10
51.393987000000003
 20
161.07866899999991
 30
0.0
 40
1.8106500000000001
 50
291.6356419999999
 51
304.666875
  0
ARC
  5
318
  8
0
 62
     7
 10
51.76400499999999
 20
160.50310200000001
 30
0.0
 40
1.1270290000000001
 50
305.83903800000002
 51
311.244956
  0
LINE
  5
319
  8
0
 62
     7
 10
52.506999999999998
 20
159.655
 30
0.0
 11
52.680700000000002
 21
159.60599999999999
 31
0.0
  0
LINE
  5
31A
  8
0
 62
     7
 10
52.929099999999998
 20
159.9859999999999
 30
0.0
 11
52.730600000000003
 21
159.99799999999991
 31
0.0
  0
ARC
  5
31B
  8
0
 62
     7
 10
52.270972999999998
 20
160.101361
 30
0.0
 40
0.471171
 50
347.30190099999987
 51
30.268694
  0
LINE
  5
31C
  8
0
 62
     7
 10
52.677900000000001
 20
160.339
 30
0.0
 11
52.741999999999997
 21
160.3479999999999
 31
0.0
  0
LINE
  5
31D
  8
0
 62
     7
 10
49.008200000000002
 20
160.21199999999999
 30
0.0
 11
49.1539
 21
160.203
 31
0.0
  0
ARC
  5
31E
  8
0
 62
     7
 10
49.613545999999992
 20
160.09954999999991
 30
0.0
 40
0.471171
 50
167.301862
 51
210.26873299999991
  0
LINE
  5
31F
  8
0
 62
     7
 10
49.206600000000002
 20
159.86199999999991
 30
0.0
 11
49.0137
 21
159.83600000000001
 31
0.0
  0
LINE
  5
320
  8
0
 62
     7
 10
49.375799999999998
 20
159.4789999999999
 30
0.0
 11
49.532499999999999
 21
159.541
 31
0.0
  0
ARC
  5
321
  8
0
 62
     7
 10
50.395181999999991
 20
160.91277599999989
 30
0.0
 40
1.620506999999999
 50
237.83619400000001
 51
246.8825709999999
  0
ARC
  5
322
  8
0
 62
     7
 10
50.674275999999999
 20
161.53221799999989
 30
0.0
 40
2.299825999999999
 50
246.5467439999999
 51
254.311508
  0
ARC
  5
323
  8
0
 62
     7
 10
49.471556
 20
160.10076000000001
 30
0.0
 40
0.5291470000000002
 50
178.05545599999991
 51
210.08262099999999
  0
ARC
  5
324
  8
0
 62
     7
 10
50.38586200000001
 20
161.082775
 30
0.0
 40
1.8956879999999989
 50
237.802537
 51
251.42415500000001
  0
ARC
  5
325
  8
0
 62
     7
 10
50.70457600000001
 20
161.88795400000001
 30
0.0
 40
2.7608259999999989
 50
250.47750699999989
 51
254.21410599999999
  0
ARC
  5
326
  8
0
 62
     7
 10
50.939832000000003
 20
163.093525
 30
0.0
 40
3.9930400000000001
 50
266.75566400000002
 51
277.66553999999991
  0
ARC
  5
327
  8
0
 62
     7
 10
51.419542
 20
161.23964599999999
 30
0.0
 40
2.069415999999999
 50
291.73713600000002
 51
303.817296
  0
ARC
  5
328
  8
0
 62
     7
 10
51.844451999999997
 20
160.56036900000001
 30
0.0
 40
1.268826
 50
304.94748900000002
 51
311.22714200000001
  0
ARC
  5
329
  8
0
 62
     7
 10
52.424374999999998
 20
160.10184499999991
 30
0.0
 40
0.518051
 50
347.12642
 51
1.866188
  0
LINE
  5
32A
  8
0
 62
     7
 10
50.052399999999999
 20
159.3179999999999
 30
0.0
 11
50.052399999999999
 21
159.529
 31
0.0
  0
LINE
  5
32B
  8
0
 62
     7
 10
50.736899999999999
 20
159.20599999999999
 30
0.0
 11
50.736899999999999
 21
159.40299999999999
 31
0.0
  0
ARC
  5
32C
  8
0
 62
     7
 10
50.887481000000001
 20
162.782286
 30
0.0
 40
3.46306
 50
256.04595899999993
 51
267.126082
  0
LINE
  5
32D
  8
0
 62
     7
 10
50.713799999999999
 20
159.3239999999999
 30
0.0
 11
50.713799999999999
 21
159.107
 31
0.0
  0
LINE
  5
32E
  8
0
 62
     7
 10
50.713799999999999
 20
159.3239999999999
 30
0.0
 11
50.732100000000003
 21
159.40299999999999
 31
0.0
  0
LINE
  5
32F
  8
0
 62
     7
 10
50.052399999999999
 20
159.3179999999999
 30
0.0
 11
49.953499999999998
 21
159.23099999999991
 31
0.0
  0
LINE
  5
330
  8
0
 62
     7
 10
50.713799999999999
 20
159.107
 30
0.0
 11
50.736899999999999
 21
159.20599999999999
 31
0.0
  0
ARC
  5
331
  8
0
 62
     7
 10
49.697026000000001
 20
160.5631909999999
 30
0.0
 40
0.5592760000000001
 50
199.99746099999999
 51
215.637821
  0
ARC
  5
332
  8
0
 62
     7
 10
49.87471
 20
160.68097899999989
 30
0.0
 40
0.7723520000000002
 50
215.059068
 51
224.41798600000001
  0
ARC
  5
333
  8
0
 62
     7
 10
52.009298999999999
 20
160.67565500000001
 30
0.0
 40
0.7690020000000001
 50
315.89203300000003
 51
332.21277099999992
  0
LINE
  5
334
  8
0
 62
     7
 10
53.442399999999999
 20
159.8189999999999
 30
0.0
 11
53.442399999999999
 21
164.0
 31
0.0
  0
LINE
  5
335
  8
0
 62
     7
 10
48.442100000000003
 20
164.0019999999999
 30
0.0
 11
48.442100000000003
 21
167.40299999999991
 31
0.0
  0
LINE
  5
336
  8
0
 62
     7
 10
53.442399999999999
 20
164.00099999999989
 30
0.0
 11
53.442399999999999
 21
167.40299999999991
 31
0.0
  0
ARC
  5
337
  8
0
 62
     7
 10
50.94225999999999
 20
167.3996249999999
 30
0.0
 40
2.5001220000000002
 50
0.00001
 51
89.999980000000008
  0
ARC
  5
338
  8
0
 62
     7
 10
50.94225999999999
 20
167.3996249999999
 30
0.0
 40
2.5001220000000002
 50
90.0
 51
179.99996999999991
  0
LINE
  5
339
  8
0
 62
     7
 10
48.442100000000003
 20
159.8189999999999
 30
0.0
 11
48.442100000000003
 21
164.0
 31
0.0
  0
ARC
  5
33A
  8
0
 62
     7
 10
52.772405999999997
 20
159.81755299999989
 30
0.0
 40
0.669977
 50
0.122907
 51
30.858550000000001
  0
ARC
  5
33B
  8
0
 62
     7
 10
52.465418999999997
 20
159.654347
 30
0.0
 40
1.0173659999999991
 50
29.880949999999999
 51
49.507452999999998
  0
ARC
  5
33C
  8
0
 62
     7
 10
52.039651999999997
 20
159.20686499999991
 30
0.0
 40
1.634479999999999
 50
48.342849000000001
 51
58.631995999999987
  0
ARC
  5
33D
  8
0
 62
     7
 10
51.582015999999989
 20
158.47715299999999
 30
0.0
 40
2.495776999999999
 50
58.381549999999997
 51
71.717608999999996
  0
ARC
  5
33E
  8
0
 62
     7
 10
51.099375999999999
 20
157.16918799999991
 30
0.0
 40
3.8894190000000002
 50
71.010956999999991
 51
84.434629999999984
  0
ARC
  5
33F
  8
0
 62
     7
 10
50.947628999999999
 20
156.16463100000001
 30
0.0
 40
4.9042500000000002
 50
83.808320999999992
 51
90.062718000000004
  0
ARC
  5
340
  8
0
 62
     7
 10
50.941155999999999
 20
156.271862
 30
0.0
 40
4.7970169999999994
 50
89.986805000000004
 51
103.7119909999999
  0
ARC
  5
341
  8
0
 62
     7
 10
50.635294999999999
 20
157.6612989999999
 30
0.0
 40
3.374830999999999
 50
104.258854
 51
114.84485100000001
  0
ARC
  5
342
  8
0
 62
     7
 10
50.120809999999999
 20
158.81108499999999
 30
0.0
 40
2.1153550000000001
 50
115.2844189999999
 51
129.03475700000001
  0
ARC
  5
343
  8
0
 62
     7
 10
49.564796999999999
 20
159.52910600000001
 30
0.0
 40
1.2076189999999991
 50
129.9985629999999
 51
146.77996799999991
  0
ARC
  5
344
  8
0
 62
     7
 10
49.179375999999998
 20
159.79892100000001
 30
0.0
 40
0.737511
 50
147.91156000000001
 51
178.44070500000001
  0
ARC
  5
345
  8
0
 62
     7
 10
49.112113999999998
 20
159.820427
 30
0.0
 40
0.669977
 50
180.122927
 51
210.85856999999999
  0
ARC
  5
346
  8
0
 62
     7
 10
49.419100999999998
 20
159.983633
 30
0.0
 40
1.0173659999999991
 50
209.88096999999999
 51
229.507473
  0
ARC
  5
347
  8
0
 62
     7
 10
49.844867999999991
 20
160.43111399999989
 30
0.0
 40
1.634479999999999
 50
228.34286900000001
 51
238.632015
  0
ARC
  5
348
  8
0
 62
     7
 10
50.302503999999992
 20
161.16082599999999
 30
0.0
 40
2.495776999999999
 50
238.38157000000001
 51
251.71762899999999
  0
ARC
  5
349
  8
0
 62
     7
 10
50.785144000000003
 20
162.4687909999999
 30
0.0
 40
3.8894190000000002
 50
251.01097699999991
 51
264.43464999999992
  0
ARC
  5
34A
  8
0
 62
     7
 10
50.936890999999989
 20
163.47334900000001
 30
0.0
 40
4.9042500000000002
 50
263.80834099999998
 51
270.06273700000003
  0
ARC
  5
34B
  8
0
 62
     7
 10
50.943364000000003
 20
163.366118
 30
0.0
 40
4.7970169999999994
 50
269.98682500000001
 51
283.7120109999999
  0
ARC
  5
34C
  8
0
 62
     7
 10
51.249225000000003
 20
161.97668100000001
 30
0.0
 40
3.374830999999999
 50
284.25887299999999
 51
294.84487100000001
  0
ARC
  5
34D
  8
0
 62
     7
 10
51.763709000000013
 20
160.82689500000001
 30
0.0
 40
2.1153550000000001
 50
295.28443900000002
 51
309.03477700000002
  0
ARC
  5
34E
  8
0
 62
     7
 10
52.319722999999989
 20
160.1088729999999
 30
0.0
 40
1.2076189999999991
 50
309.998582
 51
326.779988
  0
ARC
  5
34F
  8
0
 62
     7
 10
52.70514399999999
 20
159.83905799999999
 30
0.0
 40
0.737511
 50
327.91157900000002
 51
358.44072499999987
  0
ARC
  5
350
  8
0
 62
     7
 10
52.467072999999999
 20
159.81756399999989
 30
0.0
 40
0.562585
 50
0.145212
 51
32.165770000000002
  0
ARC
  5
351
  8
0
 62
     7
 10
52.222681000000001
 20
159.68380500000001
 30
0.0
 40
0.840845
 50
31.015573
 51
45.433492000000001
  0
ARC
  5
352
  8
0
 62
     7
 10
51.924978000000003
 20
159.3936249999999
 30
0.0
 40
1.2565170000000001
 50
45.047535000000003
 51
57.51135699999999
  0
ARC
  5
353
  8
0
 62
     7
 10
51.515945000000002
 20
158.77757800000001
 30
0.0
 40
1.995906
 50
57.106012999999997
 51
70.837407999999996
  0
ARC
  5
354
  8
0
 62
     7
 10
51.113739000000002
 20
157.74613699999989
 30
0.0
 40
3.1024949999999998
 50
70.073740999999984
 51
81.672408000000004
  0
ARC
  5
355
  8
0
 62
     7
 10
50.952914999999997
 20
156.87485000000001
 30
0.0
 40
3.9880249999999999
 50
81.199197999999996
 51
90.153069999999985
  0
ARC
  5
356
  8
0
 62
     7
 10
50.942216999999999
 20
156.9024629999999
 30
0.0
 40
3.9603969999999999
 50
89.999368000000004
 51
105.53493899999989
  0
ARC
  5
357
  8
0
 62
     7
 10
50.607042999999997
 20
158.24476499999989
 30
0.0
 40
2.5776249999999989
 50
106.3479449999999
 51
117.99378299999999
  0
ARC
  5
358
  8
0
 62
     7
 10
50.119168000000002
 20
159.19481399999989
 30
0.0
 40
1.5098119999999999
 50
118.568246
 51
134.51100600000001
  0
ARC
  5
359
  8
0
 62
     7
 10
49.642853000000002
 20
159.70354900000001
 30
0.0
 40
0.813283
 50
135.707258
 51
157.36437699999991
  0
ARC
  5
35A
  8
0
 62
     7
 10
49.413497999999997
 20
159.815687
 30
0.0
 40
0.558644
 50
158.926421
 51
179.661227
  0
ARC
  5
35B
  8
0
 62
     7
 10
49.417293999999991
 20
159.82041399999989
 30
0.0
 40
0.5624319999999999
 50
180.145138
 51
212.17542999999989
  0
ARC
  5
35C
  8
0
 62
     7
 10
49.662134000000002
 20
159.95450099999991
 30
0.0
 40
0.841243
 50
211.02522200000001
 51
225.43765999999999
  0
ARC
  5
35D
  8
0
 62
     7
 10
49.959766999999992
 20
160.24473299999991
 30
0.0
 40
1.2569030000000001
 50
225.054361
 51
237.515885
  0
ARC
  5
35E
  8
0
 62
     7
 10
50.369011999999991
 20
160.861223
 30
0.0
 40
1.9967779999999991
 50
237.11075399999999
 51
250.837245
  0
ARC
  5
35F
  8
0
 62
     7
 10
50.771306000000003
 20
161.89330299999989
 30
0.0
 40
3.1039979999999989
 50
250.07636299999999
 51
261.669105
  0
ARC
  5
360
  8
0
 62
     7
 10
50.931635
 20
162.761842
 30
0.0
 40
3.9867370000000002
 50
261.19779999999992
 51
270.152714
  0
ARC
  5
361
  8
0
 62
     7
 10
50.942304999999998
 20
162.736648
 30
0.0
 40
3.9615290000000001
 50
269.99936300000002
 51
285.53272500000003
  0
ARC
  5
362
  8
0
 62
     7
 10
51.277897000000003
 20
161.39236999999989
 30
0.0
 40
2.57674
 50
286.34762699999987
 51
297.99681199999998
  0
ARC
  5
363
  8
0
 62
     7
 10
51.765315999999999
 20
160.44310699999991
 30
0.0
 40
1.5098370000000001
 50
298.574658
 51
314.51515999999998
  0
ARC
  5
364
  8
0
 62
     7
 10
52.241715999999997
 20
159.93429499999999
 30
0.0
 40
0.8131959999999999
 50
315.71463999999992
 51
337.37219199999993
  0
ARC
  5
365
  8
0
 62
     7
 10
52.470750999999993
 20
159.822316
 30
0.0
 40
0.558916
 50
338.93465400000002
 51
359.659063
  0
LINE
  5
366
  8
0
 62
     7
 10
127.69499999999999
 20
169.90000000000001
 30
0.0
 11
128.94499999999991
 21
169.90000000000001
 31
0.0
  0
ARC
  5
367
  8
0
 62
     7
 10
128.94470999999999
 20
162.89978600000001
 30
0.0
 40
2.000062999999999
 50
359.99507499999999
 51
89.995045999999988
  0
ARC
  5
368
  8
0
 62
     7
 10
128.94488200000001
 20
171.8996379999999
 30
0.0
 40
1.9998910000000001
 50
270.00002000000001
 51
359.99998999999991
  0
LINE
  5
369
  8
0
 62
     7
 10
127.69499999999999
 20
164.90000000000001
 30
0.0
 11
128.94499999999991
 21
164.90000000000001
 31
0.0
  0
LINE
  5
36A
  8
0
 62
     7
 10
127.69499999999999
 20
169.90000000000001
 30
0.0
 11
127.69499999999999
 21
164.90000000000001
 31
0.0
  0
LINE
  5
36B
  8
0
 62
     7
 10
126.56999999999999
 20
164.90000000000001
 30
0.0
 11
125.727
 21
164.90000000000001
 31
0.0
  0
LINE
  5
36C
  8
0
 62
     7
 10
105.53
 20
161.0689999999999
 30
0.0
 11
107.943
 21
165.25
 31
0.0
  0
LINE
  5
36D
  8
0
 62
     7
 10
109.86
 20
158.5689999999999
 30
0.0
 11
112.274
 21
162.74999999999989
 31
0.0
  0
ARC
  5
36E
  8
0
 62
     7
 10
116.1061889999999
 20
160.41133600000001
 30
0.0
 40
9.4890350000000012
 50
90.65662300000001
 51
149.34226699999991
  0
ARC
  5
36F
  8
0
 62
     7
 10
116.047898
 20
160.51270400000001
 30
0.0
 40
4.3874349999999991
 50
90.658895999999984
 51
149.344424
  0
LINE
  5
370
  8
0
 62
     7
 10
115.997
 20
169.90000000000001
 30
0.0
 11
127.69499999999999
 21
169.90000000000001
 31
0.0
  0
LINE
  5
371
  8
0
 62
     7
 10
126.56999999999999
 20
164.90000000000001
 30
0.0
 11
127.69499999999999
 21
164.90000000000001
 31
0.0
  0
LINE
  5
372
  8
0
 62
     7
 10
115.997
 20
164.90000000000001
 30
0.0
 11
125.72
 21
164.90000000000001
 31
0.0
  0
LINE
  5
373
  8
0
 62
     7
 10
107.69499999999989
 20
159.8189999999999
 30
0.0
 11
109.86
 21
158.5689999999999
 31
0.0
  0
LINE
  5
374
  8
0
 62
     7
 10
105.53
 20
161.0689999999999
 30
0.0
 11
107.69499999999989
 21
159.8189999999999
 31
0.0
  0
LINE
  5
375
  8
0
  6
AIGENLINE001
 62
     7
 10
59.965400000000002
 20
240.31700000000001
 30
0.0
 11
42.1496
 21
240.31700000000001
 31
0.0
  0
LINE
  5
376
  8
0
  6
AIGENLINE001
 62
     7
 10
50.942300000000003
 20
198.84099999999989
 30
0.0
 11
50.942300000000003
 21
68.103099999999998
 31
0.0
  0
LINE
  5
377
  8
0
  6
AIGENLINE001
 62
     7
 10
50.942300000000003
 20
206.5139999999999
 30
0.0
 11
50.942300000000003
 21
252.965
 31
0.0
  0
LINE
  5
378
  8
0
  6
AIGENLINE001
 62
     7
 10
136.44499999999991
 20
139.68100000000001
 30
0.0
 11
143.37200000000001
 21
154.536
 31
0.0
  0
LINE
  5
379
  8
0
  6
AIGENLINE001
 62
     7
 10
144.61799999999999
 20
155.33000000000001
 30
0.0
 11
148.36799999999991
 21
155.33000000000001
 31
0.0
  0
ARC
  5
37A
  8
0
  6
AIGENLINE001
 62
     7
 10
144.63818699999999
 20
153.92347699999999
 30
0.0
 40
1.4066689999999991
 50
90.818236000000013
 51
154.17535599999999
  0
LINE
  5
37B
  8
0
  6
AIGENLINE001
 62
     7
 10
137.16499999999999
 20
176.6329999999999
 30
0.0
 11
147.68100000000001
 21
194.84700000000001
 31
0.0
  0
LINE
  5
37C
  8
0
  6
AIGENLINE002
 62
     7
 10
137.55299999999991
 20
179.50499999999991
 30
0.0
 11
138.3489999999999
 21
180.88399999999999
 31
0.0
  0
LINE
  5
37D
  8
0
  6
AIGENLINE002
 62
     7
 10
139.45799999999991
 20
178.405
 30
0.0
 11
140.25499999999991
 21
179.78399999999999
 31
0.0
  0
LINE
  5
37E
  8
0
  6
AIGENLINE002
 62
     7
 10
145.51599999999999
 20
194.34699999999989
 30
0.0
 11
137.90700000000001
 21
181.16800000000001
 31
0.0
  0
LINE
  5
37F
  8
0
  6
AIGENLINE002
 62
     7
 10
148.33099999999999
 20
192.72200000000001
 30
0.0
 11
140.72200000000001
 21
179.54300000000001
 31
0.0
  0
LINE
  5
380
  8
0
  6
AIGENLINE002
 62
     7
 10
145.51599999999999
 20
194.34699999999989
 30
0.0
 11
145.55000000000001
 21
194.35599999999991
 31
0.0
  0
LINE
  5
381
  8
0
  6
AIGENLINE002
 62
     7
 10
148.33099999999999
 20
192.72200000000001
 30
0.0
 11
148.32099999999991
 21
192.75599999999989
 31
0.0
  0
LINE
  5
382
  8
0
  6
AIGENLINE002
 62
     7
 10
137.90700000000001
 20
181.16800000000001
 30
0.0
 11
137.91599999999991
 21
181.13399999999999
 31
0.0
  0
LINE
  5
383
  8
0
  6
AIGENLINE002
 62
     7
 10
140.72200000000001
 20
179.54300000000001
 30
0.0
 11
140.6879999999999
 21
179.53399999999999
 31
0.0
  0
LINE
  5
384
  8
0
  6
AIGENLINE002
 62
     7
 10
140.6879999999999
 20
179.53399999999999
 30
0.0
 11
137.91599999999991
 21
181.13399999999999
 31
0.0
  0
LINE
  5
385
  8
0
  6
AIGENLINE002
 62
     7
 10
148.32099999999991
 20
192.75599999999989
 30
0.0
 11
145.55000000000001
 21
194.35599999999991
 31
0.0
  0
LINE
  5
386
  8
0
  6
AIGENLINE002
 62
     7
 10
148.33099999999999
 20
192.72200000000001
 30
0.0
 11
145.51599999999999
 21
194.34699999999989
 31
0.0
  0
LINE
  5
387
  8
0
  6
AIGENLINE001
 62
     7
 10
136.44499999999991
 20
156.35099999999991
 30
0.0
 11
136.44499999999991
 21
198.3129999999999
 31
0.0
  0
ARC
  5
388
  8
0
 62
     7
 10
50.942172999999997
 20
240.31751299999999
 30
0.0
 40
3.2109359999999998
 50
359.99847299999999
 51
89.998443000000009
  0
ARC
  5
389
  8
0
 62
     7
 10
50.942346999999998
 20
240.31751299999999
 30
0.0
 40
3.2109359999999998
 50
90.001536999999999
 51
180.0015469999999
  0
ARC
  5
38A
  8
0
 62
     7
 10
50.942259
 20
240.31742700000001
 30
0.0
 40
3.2108490000000001
 50
179.99996999999991
 51
270.00002000000001
  0
ARC
  5
38B
  8
0
 62
     7
 10
50.942259
 20
240.31742799999989
 30
0.0
 40
3.2108500000000002
 50
270.00002000000001
 51
359.99998999999991
  0
ARC
  5
38C
  8
0
 62
     7
 10
50.942172999999997
 20
240.31751299999999
 30
0.0
 40
3.328069999999999
 50
359.99852700000002
 51
89.998497
  0
ARC
  5
38D
  8
0
 62
     7
 10
50.942346999999998
 20
240.31751299999999
 30
0.0
 40
3.328069999999999
 50
90.001482999999993
 51
180.00149300000001
  0
ARC
  5
38E
  8
0
 62
     7
 10
50.942259
 20
240.31742700000001
 30
0.0
 40
3.3279830000000001
 50
179.99996999999991
 51
270.00002000000001
  0
ARC
  5
38F
  8
0
 62
     7
 10
50.942259
 20
240.31742799999989
 30
0.0
 40
3.3279839999999989
 50
270.00002000000001
 51
359.99998999999991
  0
ARC
  5
390
  8
0
 62
     7
 10
50.942172999999997
 20
240.31751299999999
 30
0.0
 40
5.4375159999999996
 50
359.99910199999999
 51
89.999072999999996
  0
ARC
  5
391
  8
0
 62
     7
 10
50.942346999999998
 20
240.31751299999999
 30
0.0
 40
5.4375159999999996
 50
90.000907999999995
 51
180.0009169999999
  0
ARC
  5
392
  8
0
 62
     7
 10
50.942259
 20
240.31742700000001
 30
0.0
 40
5.4374279999999988
 50
179.99996999999991
 51
270.00002000000001
  0
ARC
  5
393
  8
0
 62
     7
 10
50.942259
 20
240.31742899999989
 30
0.0
 40
5.4374299999999991
 50
270.00002000000001
 51
359.99998999999991
  0
ARC
  5
394
  8
0
 62
     7
 10
50.942259
 20
240.31742700000001
 30
0.0
 40
5.5001309999999988
 50
0.00001
 51
89.999980000000008
  0
ARC
  5
395
  8
0
 62
     7
 10
50.942261000000002
 20
240.31742700000001
 30
0.0
 40
5.5001309999999988
 50
90.0
 51
179.99996999999991
  0
ARC
  5
396
  8
0
 62
     7
 10
50.942172999999997
 20
240.31751299999999
 30
0.0
 40
5.5000429999999989
 50
180.00090700000001
 51
270.00091700000002
  0
ARC
  5
397
  8
0
 62
     7
 10
50.942345000000003
 20
240.31751499999999
 30
0.0
 40
5.5000450000000001
 50
269.999123
 51
359.99909300000002
  0
LINE
  5
398
  8
0
 62
     7
 10
48.442100000000003
 20
231.5679999999999
 30
0.0
 11
48.442100000000003
 21
234.31700000000001
 31
0.0
  0
LINE
  5
399
  8
0
 62
     7
 10
53.442399999999999
 20
231.5679999999999
 30
0.0
 11
53.442399999999999
 21
234.31700000000001
 31
0.0
  0
ARC
  5
39A
  8
0
 62
     7
 10
56.496006999999992
 20
234.3185839999999
 30
0.0
 40
3.0536259999999991
 50
177.89156800000001
 51
180.02201799999989
  0
ARC
  5
39B
  8
0
 62
     7
 10
54.648564999999998
 20
234.36479299999999
 30
0.0
 40
1.205932
 50
173.24933100000001
 51
176.85620599999999
  0
ARC
  5
39C
  8
0
 62
     7
 10
71.440449999999998
 20
232.52008399999991
 30
0.0
 40
18.098800000000001
 50
173.369407
 51
173.69869099999991
  0
ARC
  5
39D
  8
0
 62
     7
 10
54.681854999999999
 20
234.4750359999999
 30
0.0
 40
1.226585
 50
167.485703
 51
173.687431
  0
ARC
  5
39E
  8
0
 62
     7
 10
54.726826000000003
 20
234.4755439999999
 30
0.0
 40
1.270418
 50
161.95966300000001
 51
167.947517
  0
ARC
  5
39F
  8
0
 62
     7
 10
77.689443000000011
 20
227.13955299999989
 30
0.0
 40
25.376384999999988
 50
162.0531399999999
 51
162.26641499999999
  0
ARC
  5
3A0
  8
0
 62
     7
 10
54.848216000000001
 20
234.53884099999999
 30
0.0
 40
1.366573
 50
159.71416599999989
 51
162.098815
  0
ARC
  5
3A1
  8
0
 62
     7
 10
54.972098000000003
 20
234.49366099999989
 30
0.0
 40
1.498434
 50
157.56487899999991
 51
159.7360689999999
  0
ARC
  5
3A2
  8
0
 62
     7
 10
49.893731000000002
 20
236.6678859999999
 30
0.0
 40
4.0259640000000001
 50
336.54627199999999
 51
337.22064499999999
  0
ARC
  5
3A3
  8
0
 62
     7
 10
54.423915000000001
 20
234.77333999999999
 30
0.0
 40
0.884444
 50
155.23048199999991
 51
157.68940499999991
  0
ARC
  5
3A4
  8
0
 62
     7
 10
55.816980000000008
 20
234.1442009999999
 30
0.0
 40
2.4129700000000001
 50
154.63170099999991
 51
155.52472399999991
  0
ARC
  5
3A5
  8
0
 62
     7
 10
52.319910999999998
 20
235.85485600000001
 30
0.0
 40
1.4805509999999991
 50
332.79573299999993
 51
334.63224100000002
  0
ARC
  5
3A6
  8
0
 62
     7
 10
54.843201000000001
 20
234.645487
 30
0.0
 40
1.317612999999999
 50
151.65712500000001
 51
154.122906
  0
ARC
  5
3A7
  8
0
 62
     7
 10
54.592889999999997
 20
234.78230600000001
 30
0.0
 40
1.0323560000000001
 50
148.59275400000001
 51
151.745003
  0
ARC
  5
3A8
  8
0
 62
     7
 10
62.812232999999999
 20
229.949196
 30
0.0
 40
10.567244000000001
 50
149.19456199999999
 51
149.4508449999999
  0
ARC
  5
3A9
  8
0
 62
     7
 10
54.846451999999999
 20
234.69434599999991
 30
0.0
 40
1.2952449999999991
 50
147.349367
 51
149.02621999999991
  0
ARC
  5
3AA
  8
0
 62
     7
 10
55.085532999999991
 20
234.5343509999999
 30
0.0
 40
1.582875
 50
145.76558299999999
 51
147.14216799999991
  0
LINE
  5
3AB
  8
0
 62
     7
 10
53.776899999999998
 20
235.4249999999999
 30
0.0
 11
53.797899999999991
 21
235.4559999999999
 31
0.0
  0
ARC
  5
3AC
  8
0
 62
     7
 10
55.845418999999993
 20
234.04604399999999
 30
0.0
 40
2.4861189999999991
 50
144.57183499999999
 51
145.4440919999999
  0
LINE
  5
3AD
  8
0
 62
     7
 10
53.819600000000001
 20
235.48699999999999
 30
0.0
 11
53.842399999999998
 21
235.518
 31
0.0
  0
LINE
  5
3AE
  8
0
 62
     7
 10
53.842399999999998
 20
235.518
 30
0.0
 11
53.8596
 21
235.53999999999991
 31
0.0
  0
ARC
  5
3AF
  8
0
 62
     7
 10
54.134864
 20
235.33699399999989
 30
0.0
 40
0.342087
 50
140.39537999999999
 51
143.581568
  0
ARC
  5
3B0
  8
0
 62
     7
 10
54.225005000000003
 20
235.28743299999999
 30
0.0
 40
0.4435510000000001
 50
140.446789
 51
142.8864989999999
  0
ARC
  5
3B1
  8
0
 62
     7
 10
54.344652000000004
 20
235.21310399999999
 30
0.0
 40
0.583441
 50
139.51105200000001
 51
142.301199
  0
ARC
  5
3B2
  8
0
 62
     7
 10
54.959648000000001
 20
234.73942999999991
 30
0.0
 40
1.359283999999999
 50
139.56481099999999
 51
141.15829600000001
  0
ARC
  5
3B3
  8
0
 62
     7
 10
55.406475999999991
 20
234.32752599999989
 30
0.0
 40
1.9666809999999999
 50
137.77214900000001
 51
138.87406100000001
  0
ARC
  5
3B4
  8
0
 62
     7
 10
53.01779599999999
 20
236.50902799999989
 30
0.0
 40
1.2682690000000001
 50
317.32176900000002
 51
318.60011299999991
  0
LINE
  5
3B5
  8
0
 62
     7
 10
53.969099999999997
 20
235.66999999999999
 30
0.0
 11
53.982199999999999
 21
235.684
 31
0.0
  0
ARC
  5
3B6
  8
0
 62
     7
 10
54.233451000000002
 20
235.45871099999999
 30
0.0
 40
0.337616
 50
134.85571399999989
 51
138.08185700000001
  0
ARC
  5
3B7
  8
0
 62
     7
 10
54.375582999999999
 20
235.34532400000001
 30
0.0
 40
0.5186600000000001
 50
135.06574499999991
 51
137.15185
  0
ARC
  5
3B8
  8
0
 62
     7
 10
54.319369999999992
 20
235.421764
 30
0.0
 40
0.4251210000000001
 50
134.4797979999999
 51
137.0082899999999
  0
LINE
  5
3B9
  8
0
 62
     7
 10
54.021500000000003
 20
235.72499999999999
 30
0.0
 11
54.0349
 21
235.739
 31
0.0
  0
LINE
  5
3BA
  8
0
 62
     7
 10
54.0349
 20
235.739
 30
0.0
 11
54.048400000000001
 21
235.75200000000001
 31
0.0
  0
LINE
  5
3BB
  8
0
 62
     7
 10
54.048400000000001
 20
235.75200000000001
 30
0.0
 11
54.062199999999997
 21
235.76499999999999
 31
0.0
  0
ARC
  5
3BC
  8
0
 62
     7
 10
54.389549000000002
 20
235.4294689999999
 30
0.0
 40
0.468704
 50
131.99775299999999
 51
134.30699699999991
  0
LINE
  5
3BD
  8
0
 62
     7
 10
54.07589999999999
 20
235.77799999999991
 30
0.0
 11
54.089700000000001
 21
235.79099999999991
 31
0.0
  0
ARC
  5
3BE
  8
0
 62
     7
 10
53.722107000000001
 20
236.21244100000001
 30
0.0
 40
0.559326
 50
311.089786
 51
313.0388779999999
  0
ARC
  5
3BF
  8
0
 62
     7
 10
54.433413999999999
 20
235.44253699999999
 30
0.0
 40
0.488885
 50
130.18314099999989
 51
132.38625200000001
  0
ARC
  5
3C0
  8
0
 62
     7
 10
54.792431000000008
 20
235.0664919999999
 30
0.0
 40
1.0083239999999991
 50
131.1704969999999
 51
131.98173199999999
  0
ARC
  5
3C1
  8
0
 62
     7
 10
54.049545999999992
 20
235.92033199999989
 30
0.0
 40
0.123483
 50
309.83611699999989
 51
314.13831800000003
  0
LINE
  5
3C2
  8
0
 62
     7
 10
54.1355
 20
235.83199999999991
 30
0.0
 11
54.142800000000001
 21
235.83799999999991
 31
0.0
  0
LINE
  5
3C3
  8
0
 62
     7
 10
54.142800000000001
 20
235.83799999999991
 30
0.0
 11
54.149999999999999
 21
235.84399999999999
 31
0.0
  0
LINE
  5
3C4
  8
0
 62
     7
 10
54.149999999999999
 20
235.84399999999999
 30
0.0
 11
54.157200000000003
 21
235.84999999999991
 31
0.0
  0
LINE
  5
3C5
  8
0
 62
     7
 10
54.157200000000003
 20
235.84999999999991
 30
0.0
 11
54.164499999999997
 21
235.85599999999999
 31
0.0
  0
ARC
  5
3C6
  8
0
 62
     7
 10
54.131794999999997
 20
235.90202999999991
 30
0.0
 40
0.056312
 50
305.47826099999992
 51
312.70946800000002
  0
LINE
  5
3C7
  8
0
 62
     7
 10
54.170000000000002
 20
235.86099999999999
 30
0.0
 11
54.1738
 21
235.864
 31
0.0
  0
LINE
  5
3C8
  8
0
 62
     7
 10
54.1738
 20
235.864
 30
0.0
 11
54.177199999999999
 21
235.86699999999999
 31
0.0
  0
LINE
  5
3C9
  8
0
 62
     7
 10
54.177199999999999
 20
235.86699999999999
 30
0.0
 11
54.180999999999997
 21
235.87
 31
0.0
  0
LINE
  5
3CA
  8
0
 62
     7
 10
54.180999999999997
 20
235.87
 30
0.0
 11
54.184800000000003
 21
235.87299999999991
 31
0.0
  0
LINE
  5
3CB
  8
0
 62
     7
 10
54.184800000000003
 20
235.87299999999991
 30
0.0
 11
54.188600000000001
 21
235.87599999999989
 31
0.0
  0
LINE
  5
3CC
  8
0
 62
     7
 10
54.188600000000001
 20
235.87599999999989
 30
0.0
 11
54.192
 21
235.87899999999999
 31
0.0
  0
LINE
  5
3CD
  8
0
 62
     7
 10
54.192
 20
235.87899999999999
 30
0.0
 11
54.195799999999991
 21
235.88099999999989
 31
0.0
  0
LINE
  5
3CE
  8
0
 62
     7
 10
54.195799999999991
 20
235.88099999999989
 30
0.0
 11
54.19959999999999
 21
235.88399999999999
 31
0.0
  0
LINE
  5
3CF
  8
0
 62
     7
 10
54.19959999999999
 20
235.88399999999999
 30
0.0
 11
54.203400000000002
 21
235.887
 31
0.0
  0
LINE
  5
3D0
  8
0
 62
     7
 10
54.203400000000002
 20
235.887
 30
0.0
 11
54.2072
 21
235.8899999999999
 31
0.0
  0
LINE
  5
3D1
  8
0
 62
     7
 10
54.2072
 20
235.8899999999999
 30
0.0
 11
54.210999999999999
 21
235.89299999999989
 31
0.0
  0
LINE
  5
3D2
  8
0
 62
     7
 10
54.210999999999999
 20
235.89299999999989
 30
0.0
 11
54.212400000000002
 21
235.89500000000001
 31
0.0
  0
LINE
  5
3D3
  8
0
 62
     7
 10
54.212400000000002
 20
235.89500000000001
 30
0.0
 11
54.214399999999998
 21
235.8959999999999
 31
0.0
  0
LINE
  5
3D4
  8
0
 62
     7
 10
54.214399999999998
 20
235.8959999999999
 30
0.0
 11
54.216200000000001
 21
235.89799999999991
 31
0.0
  0
LINE
  5
3D5
  8
0
 62
     7
 10
54.216200000000001
 20
235.89799999999991
 30
0.0
 11
54.2179
 21
235.89899999999989
 31
0.0
  0
LINE
  5
3D6
  8
0
 62
     7
 10
54.2179
 20
235.89899999999989
 30
0.0
 11
54.219900000000003
 21
235.89999999999989
 31
0.0
  0
LINE
  5
3D7
  8
0
 62
     7
 10
54.219900000000003
 20
235.89999999999989
 30
0.0
 11
54.221699999999998
 21
235.90199999999999
 31
0.0
  0
LINE
  5
3D8
  8
0
 62
     7
 10
54.221699999999998
 20
235.90199999999999
 30
0.0
 11
54.223399999999998
 21
235.90299999999999
 31
0.0
  0
LINE
  5
3D9
  8
0
 62
     7
 10
54.223399999999998
 20
235.90299999999999
 30
0.0
 11
54.225499999999997
 21
235.90499999999989
 31
0.0
  0
LINE
  5
3DA
  8
0
 62
     7
 10
54.225499999999997
 20
235.90499999999989
 30
0.0
 11
54.227200000000003
 21
235.90599999999989
 31
0.0
  0
LINE
  5
3DB
  8
0
 62
     7
 10
54.227200000000003
 20
235.90599999999989
 30
0.0
 11
54.228900000000003
 21
235.90700000000001
 31
0.0
  0
LINE
  5
3DC
  8
0
 62
     7
 10
54.228900000000003
 20
235.90700000000001
 30
0.0
 11
54.2303
 21
235.90799999999999
 31
0.0
  0
LINE
  5
3DD
  8
0
 62
     7
 10
54.2303
 20
235.90799999999999
 30
0.0
 11
54.231699999999989
 21
235.90899999999999
 31
0.0
  0
LINE
  5
3DE
  8
0
 62
     7
 10
54.231699999999989
 20
235.90899999999999
 30
0.0
 11
54.233000000000011
 21
235.91099999999989
 31
0.0
  0
LINE
  5
3DF
  8
0
 62
     7
 10
54.233000000000011
 20
235.91099999999989
 30
0.0
 11
54.234099999999998
 21
235.91099999999989
 31
0.0
  0
LINE
  5
3E0
  8
0
 62
     7
 10
54.234099999999998
 20
235.91099999999989
 30
0.0
 11
54.235100000000003
 21
235.91200000000001
 31
0.0
  0
LINE
  5
3E1
  8
0
 62
     7
 10
54.235100000000003
 20
235.91200000000001
 30
0.0
 11
54.236499999999999
 21
235.9129999999999
 31
0.0
  0
LINE
  5
3E2
  8
0
 62
     7
 10
54.236499999999999
 20
235.9129999999999
 30
0.0
 11
54.237499999999997
 21
235.91399999999999
 31
0.0
  0
LINE
  5
3E3
  8
0
 62
     7
 10
54.237499999999997
 20
235.91399999999999
 30
0.0
 11
54.237900000000003
 21
235.91399999999999
 31
0.0
  0
LINE
  5
3E4
  8
0
 62
     7
 10
54.237900000000003
 20
235.91399999999999
 30
0.0
 11
54.238199999999999
 21
235.91399999999999
 31
0.0
  0
LINE
  5
3E5
  8
0
 62
     7
 10
54.238199999999999
 20
235.91399999999999
 30
0.0
 11
54.238500000000002
 21
235.91499999999999
 31
0.0
  0
ARC
  5
3E6
  8
0
 62
     7
 10
45.388455999999998
 20
234.31858299999999
 30
0.0
 40
3.0536829999999999
 50
359.9780219999999
 51
2.1083919999999989
  0
ARC
  5
3E7
  8
0
 62
     7
 10
47.024855000000002
 20
234.35293799999999
 30
0.0
 40
1.417362999999999
 50
3.1542650000000001
 51
6.2217839999999978
  0
ARC
  5
3E8
  8
0
 62
     7
 10
56.234457999999989
 20
235.468997
 30
0.0
 40
7.8597380000000001
 50
186.27517399999999
 51
187.033714
  0
ARC
  5
3E9
  8
0
 62
     7
 10
47.141221999999999
 20
234.46816299999989
 30
0.0
 40
1.2884100000000001
 50
6.3159189999999992
 51
12.217293
  0
ARC
  5
3EA
  8
0
 62
     7
 10
46.916441999999989
 20
234.41059899999999
 30
0.0
 40
1.520305999999999
 50
12.54491
 51
17.547871000000001
  0
ARC
  5
3EB
  8
0
 62
     7
 10
62.625805000000007
 20
239.56269900000001
 30
0.0
 40
15.01242999999999
 50
197.85846100000001
 51
198.21937700000001
  0
ARC
  5
3EC
  8
0
 62
     7
 10
47.036302999999997
 20
234.53884099999999
 30
0.0
 40
1.366573
 50
17.901166
 51
20.285813999999998
  0
ARC
  5
3ED
  8
0
 62
     7
 10
46.912421999999999
 20
234.49366099999989
 30
0.0
 40
1.498434
 50
20.263911
 51
22.435100999999989
  0
ARC
  5
3EE
  8
0
 62
     7
 10
49.947600999999999
 20
235.78250399999999
 30
0.0
 40
1.7991909999999991
 50
201.97996699999999
 51
203.48473899999991
  0
ARC
  5
3EF
  8
0
 62
     7
 10
53.469141
 20
237.39077
 30
0.0
 40
5.6693629999999988
 50
203.3482699999999
 51
203.731843
  0
LINE
  5
3F0
  8
0
 62
     7
 10
48.263999999999989
 20
235.14400000000001
 30
0.0
 11
48.247799999999998
 21
235.178
 31
0.0
  0
LINE
  5
3F1
  8
0
 62
     7
 10
48.247799999999998
 20
235.178
 30
0.0
 11
48.227200000000003
 21
235.22099999999989
 31
0.0
  0
ARC
  5
3F2
  8
0
 62
     7
 10
45.899066999999988
 20
234.04482699999991
 30
0.0
 40
2.608131999999999
 50
26.794440000000002
 51
28.043534000000001
  0
ARC
  5
3F3
  8
0
 62
     7
 10
47.291629999999991
 20
234.78230600000001
 30
0.0
 40
1.0323560000000001
 50
28.25497699999999
 51
31.407226999999999
  0
ARC
  5
3F4
  8
0
 62
     7
 10
42.604165000000002
 20
232.04437799999991
 30
0.0
 40
6.4606879999999993
 50
30.467684999999989
 51
30.88686899999999
  0
ARC
  5
3F5
  8
0
 62
     7
 10
46.910709999999987
 20
234.615343
 30
0.0
 40
1.445101
 50
31.06071
 51
32.563662999999991
  0
ARC
  5
3F6
  8
0
 62
     7
 10
45.428246999999992
 20
233.654616
 30
0.0
 40
3.2116310000000001
 50
32.773803000000001
 51
33.448874000000004
  0
LINE
  5
3F7
  8
0
 62
     7
 10
48.107999999999997
 20
235.4249999999999
 30
0.0
 11
48.08659999999999
 21
235.4559999999999
 31
0.0
  0
ARC
  5
3F8
  8
0
 62
     7
 10
46.522407000000001
 20
234.38435799999999
 30
0.0
 40
1.8961909999999991
 50
34.420198999999997
 51
35.563834
  0
ARC
  5
3F9
  8
0
 62
     7
 10
47.379896999999993
 20
235.00007599999989
 30
0.0
 40
0.8405459999999999
 50
35.417786999999997
 51
38.010610999999997
  0
LINE
  5
3FA
  8
0
 62
     7
 10
48.042200000000001
 20
235.518
 30
0.0
 11
48.024900000000002
 21
235.53999999999991
 31
0.0
  0
ARC
  5
3FB
  8
0
 62
     7
 10
47.436576999999993
 20
235.105549
 30
0.0
 40
0.7314270000000001
 50
36.447924
 51
37.921481
  0
LINE
  5
3FC
  8
0
 62
     7
 10
48.01359999999999
 20
235.55500000000001
 30
0.0
 11
48.0015
 21
235.56999999999999
 31
0.0
  0
ARC
  5
3FD
  8
0
 62
     7
 10
47.520766999999992
 20
235.19758399999989
 30
0.0
 40
0.608045
 50
37.755241999999988
 51
40.432468
  0
ARC
  5
3FE
  8
0
 62
     7
 10
46.617435999999998
 20
234.48474899999999
 30
0.0
 40
1.7584770000000001
 50
39.022560999999989
 51
40.254292
  0
ARC
  5
3FF
  8
0
 62
     7
 10
46.320613999999999
 20
234.18737499999989
 30
0.0
 40
2.1774480000000001
 50
41.179250000000003
 51
42.174500000000002
  0
LINE
  5
400
  8
0
 62
     7
 10
47.934299999999993
 20
235.64899999999989
 30
0.0
 11
47.915399999999998
 21
235.66999999999999
 31
0.0
  0
LINE
  5
401
  8
0
 62
     7
 10
47.915399999999998
 20
235.66999999999999
 30
0.0
 11
47.902299999999997
 21
235.684
 31
0.0
  0
LINE
  5
402
  8
0
 62
     7
 10
47.902299999999997
 20
235.684
 30
0.0
 11
47.889499999999991
 21
235.69799999999989
 31
0.0
  0
ARC
  5
403
  8
0
 62
     7
 10
48.256577999999998
 20
236.06424200000001
 30
0.0
 40
0.5184770000000001
 50
222.847782
 51
224.93462400000001
  0
LINE
  5
404
  8
0
 62
     7
 10
47.8765
 20
235.71199999999999
 30
0.0
 11
47.862999999999992
 21
235.72499999999999
 31
0.0
  0
LINE
  5
405
  8
0
 62
     7
 10
47.862999999999992
 20
235.72499999999999
 30
0.0
 11
47.849600000000002
 21
235.739
 31
0.0
  0
LINE
  5
406
  8
0
 62
     7
 10
47.849600000000002
 20
235.739
 30
0.0
 11
47.836100000000002
 21
235.75200000000001
 31
0.0
  0
ARC
  5
407
  8
0
 62
     7
 10
47.181705999999991
 20
235.07670499999989
 30
0.0
 40
0.940224
 50
45.889639999999993
 51
47.047951000000012
  0
ARC
  5
408
  8
0
 62
     7
 10
47.461331999999999
 20
235.39358899999999
 30
0.0
 40
0.517878
 50
45.802629999999994
 51
47.892579999999988
  0
ARC
  5
409
  8
0
 62
     7
 10
47.533453999999992
 20
235.50198700000001
 30
0.0
 40
0.389572
 50
45.070900000000002
 51
47.866690999999989
  0
ARC
  5
40A
  8
0
 62
     7
 10
49.648746000000003
 20
237.808975
 30
0.0
 40
2.740399
 50
227.03494900000001
 51
227.42742999999999
  0
LINE
  5
40B
  8
0
 62
     7
 10
47.781000000000013
 20
235.80399999999989
 30
0.0
 11
47.76659999999999
 21
235.81599999999989
 31
0.0
  0
ARC
  5
40C
  8
0
 62
     7
 10
47.63865599999999
 20
235.68262200000001
 30
0.0
 40
0.184816
 50
46.210350999999989
 51
50.637380999999998
  0
ARC
  5
40D
  8
0
 62
     7
 10
47.669964999999998
 20
235.73698899999999
 30
0.0
 40
0.123353
 50
45.859414000000001
 51
50.166150000000002
  0
LINE
  5
40E
  8
0
 62
     7
 10
47.748999999999988
 20
235.83199999999991
 30
0.0
 11
47.741700000000002
 21
235.83799999999991
 31
0.0
  0
LINE
  5
40F
  8
0
 62
     7
 10
47.741700000000002
 20
235.83799999999991
 30
0.0
 11
47.73449999999999
 21
235.84399999999999
 31
0.0
  0
LINE
  5
410
  8
0
 62
     7
 10
47.73449999999999
 20
235.84399999999999
 30
0.0
 11
47.7273
 21
235.84999999999991
 31
0.0
  0
LINE
  5
411
  8
0
 62
     7
 10
47.7273
 20
235.84999999999991
 30
0.0
 11
47.719999999999999
 21
235.85599999999999
 31
0.0
  0
ARC
  5
412
  8
0
 62
     7
 10
49.101284
 20
237.56179399999999
 30
0.0
 40
2.19476
 50
230.8134499999999
 51
230.99886099999989
  0
LINE
  5
413
  8
0
 62
     7
 10
47.714500000000001
 20
235.86099999999999
 30
0.0
 11
47.710700000000003
 21
235.864
 31
0.0
  0
LINE
  5
414
  8
0
 62
     7
 10
47.710700000000003
 20
235.864
 30
0.0
 11
47.707299999999989
 21
235.86699999999999
 31
0.0
  0
ARC
  5
415
  8
0
 62
     7
 10
47.686345000000003
 20
235.84348499999999
 30
0.0
 40
0.031256
 50
47.911802999999999
 51
56.699705000000002
  0
ARC
  5
416
  8
0
 62
     7
 10
47.688540000000003
 20
235.8541589999999
 30
0.0
 40
0.021509
 50
45.913837999999998
 51
58.697668999999998
  0
LINE
  5
417
  8
0
 62
     7
 10
47.699699999999993
 20
235.87299999999991
 30
0.0
 11
47.696300000000001
 21
235.87599999999989
 31
0.0
  0
LINE
  5
418
  8
0
 62
     7
 10
47.696300000000001
 20
235.87599999999989
 30
0.0
 11
47.692500000000003
 21
235.87899999999999
 31
0.0
  0
LINE
  5
419
  8
0
 62
     7
 10
47.692500000000003
 20
235.87899999999999
 30
0.0
 11
47.68869999999999
 21
235.88099999999989
 31
0.0
  0
ARC
  5
41A
  8
0
 62
     7
 10
47.643684999999991
 20
235.83203700000001
 30
0.0
 40
0.06687
 50
47.698011999999999
 51
51.572904000000001
  0
ARC
  5
41B
  8
0
 62
     7
 10
47.699319999999993
 20
235.90655299999989
 30
0.0
 40
0.026226
 50
227.06707299999991
 51
237.54447400000001
  0
LINE
  5
41C
  8
0
 62
     7
 10
47.6815
 20
235.887
 30
0.0
 11
47.677300000000002
 21
235.8899999999999
 31
0.0
  0
ARC
  5
41D
  8
0
 62
     7
 10
48.053420000000003
 20
236.336411
 30
0.0
 40
0.5833770000000002
 50
229.4134389999999
 51
229.85751599999989
  0
LINE
  5
41E
  8
0
 62
     7
 10
47.673900000000003
 20
235.89299999999989
 30
0.0
 11
47.672199999999997
 21
235.89500000000001
 31
0.0
  0
LINE
  5
41F
  8
0
 62
     7
 10
47.672199999999997
 20
235.89500000000001
 30
0.0
 11
47.670400000000001
 21
235.8959999999999
 31
0.0
  0
LINE
  5
420
  8
0
 62
     7
 10
47.670400000000001
 20
235.8959999999999
 30
0.0
 11
47.668399999999998
 21
235.89799999999991
 31
0.0
  0
LINE
  5
421
  8
0
 62
     7
 10
47.668399999999998
 20
235.89799999999991
 30
0.0
 11
47.666600000000003
 21
235.89899999999989
 31
0.0
  0
LINE
  5
422
  8
0
 62
     7
 10
47.666600000000003
 20
235.89899999999989
 30
0.0
 11
47.6646
 21
235.89999999999989
 31
0.0
  0
LINE
  5
423
  8
0
 62
     7
 10
47.6646
 20
235.89999999999989
 30
0.0
 11
47.6629
 21
235.90199999999999
 31
0.0
  0
LINE
  5
424
  8
0
 62
     7
 10
47.6629
 20
235.90199999999999
 30
0.0
 11
47.661099999999998
 21
235.90299999999999
 31
0.0
  0
LINE
  5
425
  8
0
 62
     7
 10
47.661099999999998
 20
235.90299999999999
 30
0.0
 11
47.659100000000002
 21
235.90499999999989
 31
0.0
  0
LINE
  5
426
  8
0
 62
     7
 10
47.659100000000002
 20
235.90499999999989
 30
0.0
 11
47.657299999999999
 21
235.90599999999989
 31
0.0
  0
LINE
  5
427
  8
0
 62
     7
 10
47.657299999999999
 20
235.90599999999989
 30
0.0
 11
47.655999999999999
 21
235.90700000000001
 31
0.0
  0
LINE
  5
428
  8
0
 62
     7
 10
47.655999999999999
 20
235.90700000000001
 30
0.0
 11
47.654200000000003
 21
235.90799999999999
 31
0.0
  0
LINE
  5
429
  8
0
 62
     7
 10
47.654200000000003
 20
235.90799999999999
 30
0.0
 11
47.652900000000002
 21
235.90899999999999
 31
0.0
  0
LINE
  5
42A
  8
0
 62
     7
 10
47.652900000000002
 20
235.90899999999999
 30
0.0
 11
47.651499999999999
 21
235.91099999999989
 31
0.0
  0
LINE
  5
42B
  8
0
 62
     7
 10
47.651499999999999
 20
235.91099999999989
 30
0.0
 11
47.650500000000001
 21
235.91099999999989
 31
0.0
  0
LINE
  5
42C
  8
0
 62
     7
 10
47.650500000000001
 20
235.91099999999989
 30
0.0
 11
47.6494
 21
235.91200000000001
 31
0.0
  0
LINE
  5
42D
  8
0
 62
     7
 10
47.6494
 20
235.91200000000001
 30
0.0
 11
47.648400000000002
 21
235.9129999999999
 31
0.0
  0
LINE
  5
42E
  8
0
 62
     7
 10
47.648400000000002
 20
235.9129999999999
 30
0.0
 11
47.646999999999998
 21
235.91399999999999
 31
0.0
  0
LINE
  5
42F
  8
0
 62
     7
 10
47.646999999999998
 20
235.91399999999999
 30
0.0
 11
47.646700000000003
 21
235.91399999999999
 31
0.0
  0
LINE
  5
430
  8
0
 62
     7
 10
47.646700000000003
 20
235.91399999999999
 30
0.0
 11
47.646299999999989
 21
235.91399999999999
 31
0.0
  0
LINE
  5
431
  8
0
 62
     7
 10
47.646299999999989
 20
235.91399999999999
 30
0.0
 11
47.646299999999989
 21
235.91499999999999
 31
0.0
  0
LINE
  5
432
  8
0
 62
     7
 10
47.646299999999989
 20
235.91499999999999
 30
0.0
 11
47.646000000000001
 21
235.91499999999999
 31
0.0
  0
LINE
  5
433
  8
0
 62
     7
 10
53.442399999999999
 20
231.5679999999999
 30
0.0
 11
48.442100000000003
 21
231.5679999999999
 31
0.0
  0
ARC
  5
434
  8
0
 62
     7
 10
50.942174000000001
 20
240.31751299999999
 30
0.0
 40
1.5999989999999991
 50
359.99692599999992
 51
89.996895999999992
  0
ARC
  5
435
  8
0
 62
     7
 10
50.942346000000001
 20
240.31751299999999
 30
0.0
 40
1.5999989999999991
 50
90.003084000000015
 51
180.003094
  0
ARC
  5
436
  8
0
 62
     7
 10
50.94225999999999
 20
240.31742700000001
 30
0.0
 40
1.5999119999999989
 50
179.99996999999991
 51
270.00002000000001
  0
ARC
  5
437
  8
0
 62
     7
 10
50.94225999999999
 20
240.31742799999989
 30
0.0
 40
1.599912999999999
 50
270.00002000000001
 51
359.99998999999991
  0
ARC
  5
438
  8
0
 62
     7
 10
50.94225999999999
 20
240.31742700000001
 30
0.0
 40
1.6250619999999989
 50
0.00001
 51
89.999980000000008
  0
ARC
  5
439
  8
0
 62
     7
 10
50.94225999999999
 20
240.31742700000001
 30
0.0
 40
1.6250619999999989
 50
90.0
 51
179.99996999999991
  0
ARC
  5
43A
  8
0
 62
     7
 10
50.942174000000001
 20
240.31751299999999
 30
0.0
 40
1.6249750000000001
 50
180.00304700000001
 51
270.0030569999999
  0
ARC
  5
43B
  8
0
 62
     7
 10
50.942346000000001
 20
240.31751399999999
 30
0.0
 40
1.624976
 50
269.996983
 51
359.99695299999991
  0
LINE
  5
43C
  8
0
 62
     7
 10
51.567199999999993
 20
245.78200000000001
 30
0.0
 11
51.567199999999993
 21
247.25999999999991
 31
0.0
  0
LINE
  5
43D
  8
0
 62
     7
 10
51.567199999999993
 20
247.25999999999991
 30
0.0
 11
51.567199999999993
 21
248.50599999999989
 31
0.0
  0
LINE
  5
43E
  8
0
 62
     7
 10
51.567199999999993
 20
248.50599999999989
 30
0.0
 11
51.567199999999993
 21
251.33000000000001
 31
0.0
  0
LINE
  5
43F
  8
0
 62
     7
 10
51.567199999999993
 20
251.33000000000001
 30
0.0
 11
51.517299999999999
 21
251.37999999999991
 31
0.0
  0
LINE
  5
440
  8
0
 62
     7
 10
50.317300000000003
 20
251.33000000000001
 30
0.0
 11
50.3673
 21
251.37999999999991
 31
0.0
  0
LINE
  5
441
  8
0
 62
     7
 10
50.317300000000003
 20
248.50599999999989
 30
0.0
 11
50.317300000000003
 21
251.33000000000001
 31
0.0
  0
LINE
  5
442
  8
0
 62
     7
 10
51.517299999999999
 20
251.37999999999991
 30
0.0
 11
50.3673
 21
251.37999999999991
 31
0.0
  0
LINE
  5
443
  8
0
 62
     7
 10
51.567199999999993
 20
251.33000000000001
 30
0.0
 11
50.317300000000003
 21
251.33000000000001
 31
0.0
  0
LINE
  5
444
  8
0
 62
     7
 10
50.317300000000003
 20
247.25999999999991
 30
0.0
 11
50.317300000000003
 21
248.50599999999989
 31
0.0
  0
LINE
  5
445
  8
0
 62
     7
 10
50.317300000000003
 20
245.78200000000001
 30
0.0
 11
50.317300000000003
 21
247.25999999999991
 31
0.0
  0
LINE
  5
446
  8
0
 62
     7
 10
56.04140000000001
 20
235.4859999999999
 30
0.0
 11
55.406799999999997
 21
235.25499999999991
 31
0.0
  0
ARC
  5
447
  8
0
 62
     7
 10
50.923473999999999
 20
239.52653299999989
 30
0.0
 40
6.5208649999999997
 50
321.70686000000001
 51
345.0895569999999
  0
ARC
  5
448
  8
0
 62
     7
 10
50.953720000000011
 20
239.52194700000001
 30
0.0
 40
6.5122730000000004
 50
194.88883399999989
 51
218.30143100000001
  0
LINE
  5
449
  8
0
 62
     7
 10
46.477699999999999
 20
235.25499999999991
 30
0.0
 11
45.8431
 21
235.4859999999999
 31
0.0
  0
ARC
  5
44A
  8
0
 62
     7
 10
50.97260099999999
 20
240.35600199999999
 30
0.0
 40
6.7969749999999989
 50
214.89977300000001
 51
248.146073
  0
ARC
  5
44B
  8
0
 62
     7
 10
50.772331999999999
 20
240.4326069999999
 30
0.0
 40
6.9209050000000003
 50
292.693106
 51
359.04642799999988
  0
ARC
  5
44C
  8
0
 62
     7
 10
50.704174999999999
 20
240.1005089999999
 30
0.0
 40
6.9914690000000004
 50
1.7779549999999991
 51
82.909299000000004
  0
ARC
  5
44D
  8
0
 62
     7
 10
50.942242999999998
 20
240.317442
 30
0.0
 40
6.7500559999999989
 50
95.312100000000015
 51
185.31239500000001
  0
ARC
  5
44E
  8
0
 62
     7
 10
50.980668999999999
 20
240.33151699999991
 30
0.0
 40
6.7896279999999987
 50
185.4006389999999
 51
214.6913549999999
  0
LINE
  5
44F
  8
0
 62
     7
 10
53.442399999999999
 20
211.56700000000001
 30
0.0
 11
53.442399999999999
 21
231.5679999999999
 31
0.0
  0
LINE
  5
450
  8
0
 62
     7
 10
48.442100000000003
 20
211.56700000000001
 30
0.0
 11
48.442100000000003
 21
231.5679999999999
 31
0.0
  0
ARC
  5
451
  8
0
 62
     7
 10
50.400744000000003
 20
211.57525099999989
 30
0.0
 40
1.9586220000000001
 50
180.234523
 51
221.72
  0
ARC
  5
452
  8
0
 62
     7
 10
50.784776000000001
 20
211.8765149999999
 30
0.0
 40
2.4459469999999999
 50
221.00073499999999
 51
253.317498
  0
ARC
  5
453
  8
0
 62
     7
 10
50.934049999999999
 20
212.22676200000001
 30
0.0
 40
2.824622999999999
 50
252.45645999999999
 51
270.166539
  0
ARC
  5
454
  8
0
 62
     7
 10
50.936114000000003
 20
212.21727000000001
 30
0.0
 40
2.8151259999999989
 50
270.1251069999999
 51
306.25635699999998
  0
ARC
  5
455
  8
0
 62
     7
 10
51.220708999999999
 20
211.74257800000001
 30
0.0
 40
2.264613999999999
 50
307.55288300000001
 51
336.72485799999998
  0
ARC
  5
456
  8
0
 62
     7
 10
51.522334999999998
 20
211.57081099999991
 30
0.0
 40
1.9200499999999989
 50
337.87684499999989
 51
359.89330299999989
  0
LINE
  5
457
  8
0
 62
     7
 10
45.442100000000003
 20
145.8189999999999
 30
0.0
 11
45.442100000000003
 21
172.39399999999989
 31
0.0
  0
LINE
  5
458
  8
0
 62
     7
 10
56.442399999999992
 20
145.8189999999999
 30
0.0
 11
56.442399999999992
 21
172.39399999999989
 31
0.0
  0
LINE
  5
459
  8
0
 62
     7
 10
44.1922
 20
144.8189999999999
 30
0.0
 11
44.1922
 21
145.8189999999999
 31
0.0
  0
LINE
  5
45A
  8
0
 62
     7
 10
57.692300000000003
 20
144.8189999999999
 30
0.0
 11
57.692300000000003
 21
145.8189999999999
 31
0.0
  0
LINE
  5
45B
  8
0
 62
     7
 10
45.398000000000003
 20
145.8189999999999
 30
0.0
 11
57.692300000000003
 21
145.8189999999999
 31
0.0
  0
LINE
  5
45C
  8
0
 62
     7
 10
44.1922
 20
145.8189999999999
 30
0.0
 11
45.398000000000003
 21
145.8189999999999
 31
0.0
  0
LINE
  5
45D
  8
0
 62
     7
 10
45.398000000000003
 20
144.8189999999999
 30
0.0
 11
57.692300000000003
 21
144.8189999999999
 31
0.0
  0
LINE
  5
45E
  8
0
 62
     7
 10
44.1922
 20
144.8189999999999
 30
0.0
 11
45.398000000000003
 21
144.8189999999999
 31
0.0
  0
LINE
  5
45F
  8
0
 62
     7
 10
141.94499999999991
 20
145.8189999999999
 30
0.0
 11
141.94499999999991
 21
149.81700000000001
 31
0.0
  0
LINE
  5
460
  8
0
 62
     7
 10
141.94499999999991
 20
153.071
 30
0.0
 11
141.94499999999991
 21
153.0689999999999
 31
0.0
  0
LINE
  5
461
  8
0
 62
     7
 10
141.94499999999991
 20
153.0689999999999
 30
0.0
 11
141.94499999999991
 21
153.0679999999999
 31
0.0
  0
LINE
  5
462
  8
0
 62
     7
 10
141.94499999999991
 20
153.0679999999999
 30
0.0
 11
141.94499999999991
 21
153.065
 31
0.0
  0
LINE
  5
463
  8
0
 62
     7
 10
141.94499999999991
 20
153.065
 30
0.0
 11
141.9439999999999
 21
153.05600000000001
 31
0.0
  0
ARC
  5
464
  8
0
 62
     7
 10
142.147313
 20
153.0390919999999
 30
0.0
 40
0.203663
 50
175.2717889999999
 51
179.63856299999989
  0
ARC
  5
465
  8
0
 62
     7
 10
143.18680900000001
 20
152.96785800000001
 30
0.0
 40
1.245268
 50
176.66143799999989
 51
177.6137129999999
  0
ARC
  5
466
  8
0
 62
     7
 10
140.34003300000001
 20
153.08720700000001
 30
0.0
 40
1.604009
 50
356.6147049999999
 51
357.58814199999989
  0
ARC
  5
467
  8
0
 62
     7
 10
138.48624599999991
 20
153.12156999999991
 30
0.0
 40
3.457406999999999
 50
357.317542
 51
357.86039899999997
  0
ARC
  5
468
  8
0
 62
     7
 10
140.4992399999999
 20
153.005674
 30
0.0
 40
1.441355999999999
 50
356.89977399999998
 51
358.17459300000002
  0
ARC
  5
469
  8
0
 62
     7
 10
140.26589599999991
 20
152.98753300000001
 30
0.0
 40
1.6736589999999989
 50
356.901273
 51
357.95200899999992
  0
ARC
  5
46A
  8
0
 62
     7
 10
139.23164800000001
 20
152.99458100000001
 30
0.0
 40
2.7072169999999991
 50
357.24232599999988
 51
357.93561499999998
  0
ARC
  5
46B
  8
0
 62
     7
 10
138.06218000000001
 20
152.99492299999989
 30
0.0
 40
3.8757510000000002
 50
357.42176999999998
 51
358.06908099999998
  0
ARC
  5
46C
  8
0
 62
     7
 10
143.77116699999991
 20
152.7132379999999
 30
0.0
 40
1.8402919999999989
 50
176.6561219999999
 51
178.39542999999989
  0
ARC
  5
46D
  8
0
 62
     7
 10
133.71063699999999
 20
153.07612
 30
0.0
 40
8.2268539999999994
 50
357.42523899999998
 51
357.83107699999988
  0
LINE
  5
46E
  8
0
 62
     7
 10
141.92899999999989
 20
152.70699999999991
 30
0.0
 11
141.92699999999999
 21
152.66200000000001
 31
0.0
  0
LINE
  5
46F
  8
0
 62
     7
 10
141.92699999999999
 20
152.66200000000001
 30
0.0
 11
141.92599999999999
 21
152.631
 31
0.0
  0
LINE
  5
470
  8
0
 62
     7
 10
141.92599999999999
 20
152.631
 30
0.0
 11
141.92500000000001
 21
152.59999999999991
 31
0.0
  0
ARC
  5
471
  8
0
 62
     7
 10
99.132867000000005
 20
154.12674299999989
 30
0.0
 40
42.819752000000001
 50
357.893145
 51
357.95680199999993
  0
ARC
  5
472
  8
0
 62
     7
 10
135.859227
 20
152.743202
 30
0.0
 40
6.0674419999999989
 50
357.58078499999999
 51
358.19932999999997
  0
LINE
  5
473
  8
0
 62
     7
 10
141.92099999999991
 20
152.48699999999991
 30
0.0
 11
141.9189999999999
 21
152.42099999999999
 31
0.0
  0
ARC
  5
474
  8
0
 62
     7
 10
174.72117
 20
151.41145800000001
 30
0.0
 40
32.817495000000001
 50
178.23784900000001
 51
178.3594019999999
  0
ARC
  5
475
  8
0
 62
     7
 10
271.291697
 20
148.652917
 30
0.0
 40
129.427413
 50
178.36266199999989
 51
178.39500699999991
  0
LINE
  5
476
  8
0
 62
     7
 10
141.91499999999991
 20
152.27799999999999
 30
0.0
 11
141.9129999999999
 21
152.20400000000001
 31
0.0
  0
ARC
  5
477
  8
0
 62
     7
 10
148.34935300000001
 20
152.021502
 30
0.0
 40
6.438953999999999
 50
178.373638
 51
179.057436
  0
LINE
  5
478
  8
0
 62
     7
 10
141.911
 20
152.12700000000001
 30
0.0
 11
141.90899999999991
 21
152.04699999999991
 31
0.0
  0
LINE
  5
479
  8
0
 62
     7
 10
141.90899999999991
 20
152.04699999999991
 30
0.0
 11
141.9079999999999
 21
151.96600000000001
 31
0.0
  0
ARC
  5
47A
  8
0
 62
     7
 10
148.51028400000001
 20
151.7884
 30
0.0
 40
6.6048339999999994
 50
178.46347900000001
 51
179.44689700000001
  0
ARC
  5
47B
  8
0
 62
     7
 10
150.76192399999991
 20
151.65365800000001
 30
0.0
 40
8.8583899999999982
 50
178.715992
 51
179.6586649999999
  0
ARC
  5
47C
  8
0
 62
     7
 10
164.76653099999999
 20
151.41803300000001
 30
0.0
 40
22.864659
 50
179.27728200000001
 51
179.6442009999999
  0
LINE
  5
47D
  8
0
 62
     7
 10
141.90199999999999
 20
151.56
 30
0.0
 11
141.90199999999999
 21
151.4379999999999
 31
0.0
  0
ARC
  5
47E
  8
0
 62
     7
 10
148.537102
 20
151.365948
 30
0.0
 40
6.6355250000000003
 50
179.37735799999999
 51
180.21629100000001
  0
LINE
  5
47F
  8
0
 62
     7
 10
141.90199999999999
 20
151.34100000000001
 30
0.0
 11
141.90199999999999
 21
151.24399999999989
 31
0.0
  0
ARC
  5
480
  8
0
 62
     7
 10
129.02645000000001
 20
151.10525899999999
 30
0.0
 40
12.876264000000001
 50
0.16861
 51
0.6162520000000001
  0
ARC
  5
481
  8
0
 62
     7
 10
149.511763
 20
151.1415189999999
 30
0.0
 40
7.6091049999999996
 50
179.98768999999999
 51
180.77118300000001
  0
ARC
  5
482
  8
0
 62
     7
 10
156.92538300000001
 20
151.18771599999999
 30
0.0
 40
15.022771999999989
 50
180.56680900000001
 51
180.961028
  0
ARC
  5
483
  8
0
 62
     7
 10
132.68087600000001
 20
150.749053
 30
0.0
 40
9.2257379999999998
 50
0.6032260000000002
 51
1.1595809999999991
  0
LINE
  5
484
  8
0
 62
     7
 10
141.90599999999989
 20
150.846
 30
0.0
 11
141.90700000000001
 21
150.77099999999999
 31
0.0
  0
LINE
  5
485
  8
0
 62
     7
 10
141.90700000000001
 20
150.77099999999999
 30
0.0
 11
141.90899999999991
 21
150.696
 31
0.0
  0
ARC
  5
486
  8
0
 62
     7
 10
127.569187
 20
150.29467
 30
0.0
 40
14.345629999999989
 50
1.3346
 51
1.6030009999999999
  0
ARC
  5
487
  8
0
 62
     7
 10
149.87015400000001
 20
150.7842489999999
 30
0.0
 40
7.9607460000000003
 50
181.11894000000001
 51
181.54553899999991
  0
ARC
  5
488
  8
0
 62
     7
 10
134.29418100000001
 20
150.31730599999989
 30
0.0
 40
7.6222979999999989
 50
1.453328
 51
1.896347999999999
  0
ARC
  5
489
  8
0
 62
     7
 10
133.2240229999999
 20
150.217412
 30
0.0
 40
8.6949490000000011
 50
1.560039999999999
 51
1.932523
  0
LINE
  5
48A
  8
0
 62
     7
 10
141.91599999999991
 20
150.45400000000001
 30
0.0
 11
141.91800000000001
 21
150.40000000000001
 31
0.0
  0
ARC
  5
48B
  8
0
 62
     7
 10
143.79712499999991
 20
150.43484499999991
 30
0.0
 40
1.8796250000000001
 50
181.050543
 51
182.6686949999999
  0
ARC
  5
48C
  8
0
 62
     7
 10
150.20620099999991
 20
150.67497299999991
 30
0.0
 40
8.2931369999999998
 50
182.26424499999999
 51
182.5477349999999
  0
ARC
  5
48D
  8
0
 62
     7
 10
150.83714299999991
 20
150.60634999999991
 30
0.0
 40
8.9209279999999982
 50
181.92728799999989
 51
182.11548199999999
  0
ARC
  5
48E
  8
0
 62
     7
 10
148.74061199999991
 20
150.5060719999999
 30
0.0
 40
6.8221619999999987
 50
181.92382900000001
 51
182.16702699999999
  0
ARC
  5
48F
  8
0
 62
     7
 10
144.29661499999989
 20
150.33830800000001
 30
0.0
 40
2.375
 50
182.17653899999991
 51
183.23325199999991
  0
ARC
  5
490
  8
0
 62
     7
 10
147.61810700000001
 20
150.41576499999991
 30
0.0
 40
5.6966359999999989
 50
182.12682100000001
 51
182.70253099999999
  0
ARC
  5
491
  8
0
 62
     7
 10
146.368089
 20
150.31521000000001
 30
0.0
 40
4.4434610000000001
 50
182.16734199999999
 51
182.87435199999999
  0
ARC
  5
492
  8
0
 62
     7
 10
139.64071200000001
 20
149.95562499999991
 30
0.0
 40
2.2935880000000002
 50
2.1863599999999992
 51
3.4185430000000001
  0
ARC
  5
493
  8
0
 62
     7
 10
144.495304
 20
150.15989899999991
 30
0.0
 40
2.5653329999999999
 50
182.60901200000001
 51
183.603081
  0
ARC
  5
494
  8
0
 62
     7
 10
148.32702800000001
 20
150.3033209999999
 30
0.0
 40
6.3992420000000001
 50
182.72863100000001
 51
183.093084
  0
LINE
  5
495
  8
0
 62
     7
 10
141.93700000000001
 20
149.95799999999991
 30
0.0
 11
141.93899999999991
 21
149.9199999999999
 31
0.0
  0
ARC
  5
496
  8
0
 62
     7
 10
137.90366199999991
 20
149.70504700000001
 30
0.0
 40
4.0412600000000003
 50
2.5569660000000001
 51
3.055772999999999
  0
ARC
  5
497
  8
0
 62
     7
 10
136.33926199999999
 20
149.51714199999989
 30
0.0
 40
5.6137239999999986
 50
3.482316
 51
3.760653
  0
ARC
  5
498
  8
0
 62
     7
 10
142.48298799999989
 20
149.8835949999999
 30
0.0
 40
0.5409670000000001
 50
182.69888700000001
 51
184.45382099999989
  0
LINE
  5
499
  8
0
 62
     7
 10
141.9439999999999
 20
149.84200000000001
 30
0.0
 11
141.9439999999999
 21
149.83199999999991
 31
0.0
  0
ARC
  5
49A
  8
0
 62
     7
 10
141.89282099999991
 20
149.82592700000001
 30
0.0
 40
0.05153
 50
359.02418
 51
6.7006299999999994
  0
ARC
  5
49B
  8
0
 62
     7
 10
141.9235699999999
 20
149.821237
 30
0.0
 40
0.021121
 50
359.1276509999999
 51
10.399630999999999
  0
LINE
  5
49C
  8
0
 62
     7
 10
141.94499999999991
 20
149.821
 30
0.0
 11
141.94499999999991
 21
149.8179999999999
 31
0.0
  0
LINE
  5
49D
  8
0
 62
     7
 10
141.94499999999991
 20
149.8179999999999
 30
0.0
 11
141.94499999999991
 21
149.81700000000001
 31
0.0
  0
LINE
  5
49E
  8
0
 62
     7
 10
130.94499999999999
 20
145.8189999999999
 30
0.0
 11
130.94499999999999
 21
162.90000000000001
 31
0.0
  0
LINE
  5
49F
  8
0
 62
     7
 10
141.93700000000001
 20
152.90700000000001
 30
0.0
 11
142.81999999999991
 21
154.80000000000001
 31
0.0
  0
LINE
  5
4A0
  8
0
 62
     7
 10
141.93700000000001
 20
149.9489999999999
 30
0.0
 11
143.95400000000001
 21
154.27199999999999
 31
0.0
  0
ARC
  5
4A1
  8
0
 62
     7
 10
144.66331700000001
 20
153.90781000000001
 30
0.0
 40
2.0477009999999991
 50
90.841100999999995
 51
154.154787
  0
ARC
  5
4A2
  8
0
 62
     7
 10
144.644532
 20
153.937387
 30
0.0
 40
0.7677540000000001
 50
90.841399999999993
 51
154.161067
  0
LINE
  5
4A3
  8
0
 62
     7
 10
144.6329999999999
 20
155.95500000000001
 30
0.0
 11
147.45699999999991
 21
155.95500000000001
 31
0.0
  0
LINE
  5
4A4
  8
0
 62
     7
 10
144.6329999999999
 20
154.70500000000001
 30
0.0
 11
147.45699999999991
 21
154.70500000000001
 31
0.0
  0
LINE
  5
4A5
  8
0
 62
     7
 10
147.45699999999991
 20
155.95500000000001
 30
0.0
 11
147.50700000000001
 21
155.905
 31
0.0
  0
LINE
  5
4A6
  8
0
 62
     7
 10
147.45699999999991
 20
154.70500000000001
 30
0.0
 11
147.50700000000001
 21
154.755
 31
0.0
  0
LINE
  5
4A7
  8
0
 62
     7
 10
147.50700000000001
 20
155.33000000000001
 30
0.0
 11
147.50700000000001
 21
154.755
 31
0.0
  0
LINE
  5
4A8
  8
0
 62
     7
 10
147.50700000000001
 20
155.905
 30
0.0
 11
147.50700000000001
 21
155.33000000000001
 31
0.0
  0
LINE
  5
4A9
  8
0
 62
     7
 10
147.45699999999991
 20
155.33000000000001
 30
0.0
 11
147.45699999999991
 21
154.70500000000001
 31
0.0
  0
LINE
  5
4AA
  8
0
 62
     7
 10
147.45699999999991
 20
155.95500000000001
 30
0.0
 11
147.45699999999991
 21
155.33000000000001
 31
0.0
  0
LINE
  5
4AB
  8
0
 62
     7
 10
143.19499999999999
 20
144.8189999999999
 30
0.0
 11
143.19499999999999
 21
145.8189999999999
 31
0.0
  0
LINE
  5
4AC
  8
0
 62
     7
 10
129.69499999999999
 20
144.8189999999999
 30
0.0
 11
129.69499999999999
 21
145.8189999999999
 31
0.0
  0
LINE
  5
4AD
  8
0
 62
     7
 10
132.59499999999991
 20
145.8189999999999
 30
0.0
 11
129.69499999999999
 21
145.8189999999999
 31
0.0
  0
LINE
  5
4AE
  8
0
 62
     7
 10
143.19499999999999
 20
145.8189999999999
 30
0.0
 11
132.59499999999991
 21
145.8189999999999
 31
0.0
  0
LINE
  5
4AF
  8
0
 62
     7
 10
132.59499999999991
 20
144.8189999999999
 30
0.0
 11
129.69499999999999
 21
144.8189999999999
 31
0.0
  0
LINE
  5
4B0
  8
0
 62
     7
 10
143.19499999999999
 20
144.8189999999999
 30
0.0
 11
132.59499999999991
 21
144.8189999999999
 31
0.0
  0
LINE
  5
4B1
  8
0
 62
     7
 10
50.085099999999997
 20
178.88599999999991
 30
0.0
 11
51.799399999999999
 21
178.88599999999991
 31
0.0
  0
ARC
  5
4B2
  8
0
 62
     7
 10
50.944733999999997
 20
174.08084199999999
 30
0.0
 40
4.866630999999999
 50
60.557014000000002
 51
75.378844999999998
  0
ARC
  5
4B3
  8
0
 62
     7
 10
50.946879000000003
 20
174.06331399999991
 30
0.0
 40
4.885383
 50
104.649739
 51
119.414362
  0
ARC
  5
4B4
  8
0
 62
     7
 10
52.222327
 20
178.96313000000001
 30
0.0
 40
0.180088
 50
181.30529999999999
 51
254.169511
  0
ARC
  5
4B5
  8
0
 62
     7
 10
49.663004000000001
 20
178.96240299999991
 30
0.0
 40
0.179261
 50
285.75029299999989
 51
358.92103900000001
  0
LINE
  5
4B6
  8
0
 62
     7
 10
52.04229999999999
 20
178.959
 30
0.0
 11
52.04229999999999
 21
180.55199999999999
 31
0.0
  0
LINE
  5
4B7
  8
0
 62
     7
 10
49.842199999999998
 20
178.959
 30
0.0
 11
49.842199999999998
 21
180.55199999999999
 31
0.0
  0
LINE
  5
4B8
  8
0
 62
     7
 10
56.442399999999992
 20
172.39399999999989
 30
0.0
 11
56.442399999999992
 21
178.25699999999989
 31
0.0
  0
LINE
  5
4B9
  8
0
 62
     7
 10
45.442100000000003
 20
172.39399999999989
 30
0.0
 11
45.442100000000003
 21
178.25699999999989
 31
0.0
  0
ARC
  5
4BA
  8
0
 62
     7
 10
56.377657999999997
 20
178.25418099999999
 30
0.0
 40
0.064776
 50
2.1122070000000002
 51
88.203461000000004
  0
ARC
  5
4BB
  8
0
 62
     7
 10
45.50729299999999
 20
178.253748
 30
0.0
 40
0.065223
 50
92.162641000000008
 51
177.52164999999991
  0
LINE
  5
4BC
  8
0
 62
     7
 10
45.504800000000003
 20
178.31899999999999
 30
0.0
 11
56.3797
 21
178.31899999999999
 31
0.0
  0
LINE
  5
4BD
  8
0
 62
     7
 10
45.442100000000003
 20
178.25699999999989
 30
0.0
 11
56.442399999999992
 21
178.25699999999989
 31
0.0
  0
LINE
  5
4BE
  8
0
 62
     7
 10
45.442100000000003
 20
172.39399999999989
 30
0.0
 11
56.442399999999992
 21
172.39399999999989
 31
0.0
  0
LINE
  5
4BF
  8
0
 62
     7
 10
52.56730000000001
 20
195.79400000000001
 30
0.0
 11
52.56730000000001
 21
180.577
 31
0.0
  0
LINE
  5
4C0
  8
0
 62
     7
 10
49.3172
 20
195.79400000000001
 30
0.0
 11
49.3172
 21
180.577
 31
0.0
  0
LINE
  5
4C1
  8
0
 62
     7
 10
52.56730000000001
 20
195.79400000000001
 30
0.0
 11
52.542200000000001
 21
195.81899999999999
 31
0.0
  0
LINE
  5
4C2
  8
0
 62
     7
 10
49.3172
 20
195.79400000000001
 30
0.0
 11
49.342300000000002
 21
195.81899999999999
 31
0.0
  0
LINE
  5
4C3
  8
0
 62
     7
 10
52.56730000000001
 20
180.577
 30
0.0
 11
52.542200000000001
 21
180.55199999999999
 31
0.0
  0
LINE
  5
4C4
  8
0
 62
     7
 10
49.3172
 20
180.577
 30
0.0
 11
49.342300000000002
 21
180.55199999999999
 31
0.0
  0
LINE
  5
4C5
  8
0
 62
     7
 10
51.280900000000003
 20
180.55199999999999
 30
0.0
 11
49.342300000000002
 21
180.55199999999999
 31
0.0
  0
LINE
  5
4C6
  8
0
 62
     7
 10
52.542200000000001
 20
180.55199999999999
 30
0.0
 11
51.280900000000003
 21
180.55199999999999
 31
0.0
  0
LINE
  5
4C7
  8
0
 62
     7
 10
51.286099999999998
 20
180.577
 30
0.0
 11
49.3172
 21
180.577
 31
0.0
  0
LINE
  5
4C8
  8
0
 62
     7
 10
52.56730000000001
 20
180.577
 30
0.0
 11
51.286099999999998
 21
180.577
 31
0.0
  0
LINE
  5
4C9
  8
0
 62
     7
 10
51.280900000000003
 20
195.81899999999999
 30
0.0
 11
49.342300000000002
 21
195.81899999999999
 31
0.0
  0
LINE
  5
4CA
  8
0
 62
     7
 10
52.542200000000001
 20
195.81899999999999
 30
0.0
 11
51.280900000000003
 21
195.81899999999999
 31
0.0
  0
LINE
  5
4CB
  8
0
 62
     7
 10
51.286099999999998
 20
195.79400000000001
 30
0.0
 11
49.3172
 21
195.79400000000001
 31
0.0
  0
LINE
  5
4CC
  8
0
 62
     7
 10
52.56730000000001
 20
195.79400000000001
 30
0.0
 11
51.286099999999998
 21
195.79400000000001
 31
0.0
  0
ARC
  5
4CD
  8
0
 62
     7
 10
136.4473769999999
 20
174.08084199999999
 30
0.0
 40
4.866630999999999
 50
60.557014000000002
 51
75.378844999999998
  0
ARC
  5
4CE
  8
0
 62
     7
 10
136.44753199999991
 20
174.06823199999991
 30
0.0
 40
4.880120999999999
 50
104.641735
 51
119.422366
  0
ARC
  5
4CF
  8
0
 62
     7
 10
137.7249699999999
 20
178.96313000000001
 30
0.0
 40
0.180088
 50
181.30529999999999
 51
254.169511
  0
ARC
  5
4D0
  8
0
 62
     7
 10
135.16550099999989
 20
178.96260799999999
 30
0.0
 40
0.179405
 50
285.67154199999999
 51
358.96650499999993
  0
LINE
  5
4D1
  8
0
 62
     7
 10
137.5449999999999
 20
178.959
 30
0.0
 11
137.5449999999999
 21
180.55199999999999
 31
0.0
  0
LINE
  5
4D2
  8
0
 62
     7
 10
135.345
 20
178.959
 30
0.0
 11
135.345
 21
180.55199999999999
 31
0.0
  0
LINE
  5
4D3
  8
0
 62
     7
 10
137.30199999999999
 20
178.88599999999991
 30
0.0
 11
135.58799999999991
 21
178.88599999999991
 31
0.0
  0
LINE
  5
4D4
  8
0
 62
     7
 10
130.94499999999999
 20
172.39399999999989
 30
0.0
 11
130.94499999999999
 21
178.25699999999989
 31
0.0
  0
LINE
  5
4D5
  8
0
 62
     7
 10
141.94499999999991
 20
172.39399999999989
 30
0.0
 11
141.94499999999991
 21
178.25699999999989
 31
0.0
  0
ARC
  5
4D6
  8
0
 62
     7
 10
131.00993600000001
 20
178.253748
 30
0.0
 40
0.065223
 50
92.162641000000008
 51
177.52164999999991
  0
ARC
  5
4D7
  8
0
 62
     7
 10
141.880201
 20
178.25408100000001
 30
0.0
 40
0.064879
 50
2.1974990000000001
 51
88.118169999999992
  0
LINE
  5
4D8
  8
0
 62
     7
 10
141.88200000000001
 20
178.31899999999999
 30
0.0
 11
131.00700000000001
 21
178.31899999999999
 31
0.0
  0
LINE
  5
4D9
  8
0
 62
     7
 10
141.94499999999991
 20
178.25699999999989
 30
0.0
 11
130.94499999999999
 21
178.25699999999989
 31
0.0
  0
LINE
  5
4DA
  8
0
 62
     7
 10
141.94499999999991
 20
172.39399999999989
 30
0.0
 11
130.94499999999999
 21
172.39399999999989
 31
0.0
  0
LINE
  5
4DB
  8
0
 62
     7
 10
138.06999999999999
 20
195.79400000000001
 30
0.0
 11
138.06999999999999
 21
180.577
 31
0.0
  0
LINE
  5
4DC
  8
0
 62
     7
 10
134.81999999999999
 20
195.79400000000001
 30
0.0
 11
134.81999999999999
 21
180.577
 31
0.0
  0
LINE
  5
4DD
  8
0
 62
     7
 10
138.06999999999999
 20
195.79400000000001
 30
0.0
 11
138.0449999999999
 21
195.81899999999999
 31
0.0
  0
LINE
  5
4DE
  8
0
 62
     7
 10
134.81999999999999
 20
195.79400000000001
 30
0.0
 11
134.84499999999991
 21
195.81899999999999
 31
0.0
  0
LINE
  5
4DF
  8
0
 62
     7
 10
138.06999999999999
 20
180.577
 30
0.0
 11
138.0449999999999
 21
180.55199999999999
 31
0.0
  0
LINE
  5
4E0
  8
0
 62
     7
 10
134.81999999999999
 20
180.577
 30
0.0
 11
134.84499999999991
 21
180.55199999999999
 31
0.0
  0
LINE
  5
4E1
  8
0
 62
     7
 10
134.84499999999991
 20
180.55199999999999
 30
0.0
 11
138.0449999999999
 21
180.55199999999999
 31
0.0
  0
LINE
  5
4E2
  8
0
 62
     7
 10
134.81999999999999
 20
180.577
 30
0.0
 11
138.06999999999999
 21
180.577
 31
0.0
  0
LINE
  5
4E3
  8
0
 62
     7
 10
134.84499999999991
 20
195.81899999999999
 30
0.0
 11
138.0449999999999
 21
195.81899999999999
 31
0.0
  0
LINE
  5
4E4
  8
0
 62
     7
 10
134.81999999999999
 20
195.79400000000001
 30
0.0
 11
138.06999999999999
 21
195.79400000000001
 31
0.0
  0
LINE
  5
4E5
  8
0
  6
AIGENLINE001
 62
     7
 10
48.692300000000003
 20
106.301
 30
0.0
 11
36.810400000000001
 21
123.5689999999999
 31
0.0
  0
LINE
  5
4E6
  8
0
 62
     7
 10
35.497799999999998
 20
101.5029999999999
 30
0.0
 11
35.497799999999998
 21
119.5599999999999
 31
0.0
  0
LINE
  5
4E7
  8
0
 62
     7
 10
38.122999999999998
 20
119.5599999999999
 30
0.0
 11
38.122999999999998
 21
101.5029999999999
 31
0.0
  0
LINE
  5
4E8
  8
0
  6
AIGENLINE001
 62
     7
 10
36.810400000000001
 20
123.5689999999999
 30
0.0
 11
36.810400000000001
 21
92.539299999999997
 31
0.0
  0
LINE
  5
4E9
  8
0
 62
     7
 10
47.380000000000003
 20
110.877
 30
0.0
 11
47.380000000000003
 21
134.1939999999999
 31
0.0
  0
LINE
  5
4EA
  8
0
 62
     7
 10
50.004800000000003
 20
110.877
 30
0.0
 11
50.004800000000003
 21
127.5689999999999
 31
0.0
  0
LINE
  5
4EB
  8
0
  6
AIGENLINE001
 62
     7
 10
48.692300000000003
 20
106.301
 30
0.0
 11
48.692300000000003
 21
147.3539999999999
 31
0.0
  0
LINE
  5
4EC
  8
0
 62
     7
 10
34.057099999999998
 20
96.627300000000005
 30
0.0
 11
34.057099999999998
 21
94.001400000000004
 31
0.0
  0
LINE
  5
4ED
  8
0
 62
     7
 10
35.43269999999999
 20
96.627300000000005
 30
0.0
 11
35.43269999999999
 21
94.001400000000004
 31
0.0
  0
ARC
  5
4EE
  8
0
 62
     7
 10
37.644992999999999
 20
102.35739
 30
0.0
 40
9.0937260000000002
 50
246.76201699999999
 51
248.304193
  0
ARC
  5
4EF
  8
0
 62
     7
 10
34.970449000000002
 20
95.673383000000015
 30
0.0
 40
1.894547
 50
248.73187899999991
 51
258.21704999999992
  0
ARC
  5
4F0
  8
0
 62
     7
 10
34.764938999999991
 20
94.766167999999993
 30
0.0
 40
0.9646139999999999
 50
259.16278199999988
 51
269.53432299999992
  0
ARC
  5
4F1
  8
0
 62
     7
 10
34.756019999999999
 20
94.71616800000001
 30
0.0
 40
0.914583
 50
270.06759299999999
 51
282.410505
  0
ARC
  5
4F2
  8
0
 62
     7
 10
34.634180000000001
 20
95.332334999999986
 30
0.0
 40
1.542595999999999
 50
281.9117
 51
292.82020699999993
  0
ARC
  5
4F3
  8
0
 62
     7
 10
34.17640999999999
 20
96.502104000000003
 30
0.0
 40
2.798524
 50
292.17024500000002
 51
296.67357099999998
  0
ARC
  5
4F4
  8
0
 62
     7
 10
34.67892299999999
 20
95.515033000000003
 30
0.0
 40
1.343588999999999
 50
55.874502
 51
82.665598000000017
  0
ARC
  5
4F5
  8
0
 62
     7
 10
34.756213000000002
 20
95.953671999999997
 30
0.0
 40
0.89891
 50
83.982656000000006
 51
89.943540999999996
  0
ARC
  5
4F6
  8
0
 62
     7
 10
34.757899000000002
 20
95.933498999999983
 30
0.0
 40
0.919083
 50
90.049867000000006
 51
102.1874309999999
  0
ARC
  5
4F7
  8
0
 62
     7
 10
34.849296000000002
 20
95.463053999999985
 30
0.0
 40
1.398255
 50
101.77851699999999
 51
113.39099899999999
  0
ARC
  5
4F8
  8
0
 62
     7
 10
35.078122999999991
 20
94.890304999999998
 30
0.0
 40
2.0148540000000001
 50
112.8972649999999
 51
120.449034
  0
LINE
  5
4F9
  8
0
 62
     7
 10
39.557499999999997
 20
96.627300000000005
 30
0.0
 11
39.557499999999997
 21
94.001400000000004
 31
0.0
  0
LINE
  5
4FA
  8
0
 62
     7
 10
38.182899999999989
 20
96.627300000000005
 30
0.0
 11
38.182899999999989
 21
94.001400000000004
 31
0.0
  0
ARC
  5
4FB
  8
0
 62
     7
 10
41.294753
 20
101.21601
 30
0.0
 40
7.8571009999999992
 50
246.66834600000001
 51
248.45265599999999
  0
ARC
  5
4FC
  8
0
 62
     7
 10
39.136786999999998
 20
95.777293999999998
 30
0.0
 40
2.0059399999999998
 50
248.72905600000001
 51
257.77933399999989
  0
ARC
  5
4FD
  8
0
 62
     7
 10
38.868355999999991
 20
94.606728000000004
 30
0.0
 40
0.805211
 50
258.81581
 51
269.25042200000001
  0
ARC
  5
4FE
  8
0
 62
     7
 10
38.857013999999999
 20
94.707138
 30
0.0
 40
0.9055530000000001
 50
270.05111199999988
 51
282.20139799999993
  0
ARC
  5
4FF
  8
0
 62
     7
 10
38.757776
 20
95.241225999999997
 30
0.0
 40
1.448637
 50
281.57321899999988
 51
287.0671089999999
  0
ARC
  5
500
  8
0
 62
     7
 10
38.511175000000001
 20
96.042282999999998
 30
0.0
 40
2.2867919999999988
 50
287.08310499999988
 51
291.468053
  0
ARC
  5
501
  8
0
 62
     7
 10
37.046085999999988
 20
99.734065000000015
 30
0.0
 40
6.2586539999999991
 50
291.58080399999989
 51
293.65789499999988
  0
ARC
  5
502
  8
0
 62
     7
 10
38.548836999999999
 20
94.899297000000004
 30
0.0
 40
2.0008369999999989
 50
59.726160000000007
 51
72.065153000000009
  0
ARC
  5
503
  8
0
 62
     7
 10
38.833328000000002
 20
95.726738999999995
 30
0.0
 40
1.1261099999999991
 50
72.872534999999999
 51
88.753631999999996
  0
ARC
  5
504
  8
0
 62
     7
 10
38.858547999999999
 20
96.084405000000004
 30
0.0
 40
0.7681770000000001
 50
90.054118000000003
 51
103.848376
  0
ARC
  5
505
  8
0
 62
     7
 10
39.000976000000001
 20
95.410504000000003
 30
0.0
 40
1.4567619999999999
 50
102.943254
 51
114.174971
  0
ARC
  5
506
  8
0
 62
     7
 10
39.245090999999988
 20
94.805944999999994
 30
0.0
 40
2.108417999999999
 50
113.49893299999999
 51
120.250004
  0
ARC
  5
507
  8
0
 62
     7
 10
34.177138999999997
 20
87.693569999999994
 30
0.0
 40
6.4315739999999986
 50
76.755169999999993
 51
78.742637000000002
  0
ARC
  5
508
  8
0
 62
     7
 10
37.138086999999992
 20
99.607485000000011
 30
0.0
 40
5.8458110000000003
 50
255.25974999999991
 51
261.37602799999991
  0
ARC
  5
509
  8
0
 62
     7
 10
36.607711000000002
 20
96.091814999999997
 30
0.0
 40
2.2903630000000001
 50
261.30614700000001
 51
269.38209499999999
  0
LINE
  5
50A
  8
0
 62
     7
 10
36.582999999999998
 20
93.801599999999993
 30
0.0
 11
37.032299999999999
 21
93.801599999999993
 31
0.0
  0
ARC
  5
50B
  8
0
 62
     7
 10
37.031933999999993
 20
95.762411999999998
 30
0.0
 40
1.9608259999999991
 50
270.00938500000001
 51
278.46042699999992
  0
ARC
  5
50C
  8
0
 62
     7
 10
36.818486
 20
97.414118000000016
 30
0.0
 40
3.6261009999999998
 50
277.95661499999989
 51
281.44856099999993
  0
ARC
  5
50D
  8
0
 62
     7
 10
35.41261699999999
 20
104.24828100000001
 30
0.0
 40
10.603358
 50
281.564188
 51
283.46529900000002
  0
ARC
  5
50E
  8
0
 62
     7
 10
39.301214999999999
 20
88.088449999999995
 30
0.0
 40
6.017771999999999
 50
100.709598
 51
103.64415199999991
  0
ARC
  5
50F
  8
0
 62
     7
 10
36.931298999999989
 20
92.931712000000005
 30
0.0
 40
3.9017589999999989
 50
71.289594999999991
 51
77.158928000000003
  0
ARC
  5
510
  8
0
 62
     7
 10
36.701864
 20
92.106088999999997
 30
0.0
 40
4.7578949999999987
 50
76.67477199999999
 51
85.667164
  0
ARC
  5
511
  8
0
 62
     7
 10
36.914734000000003
 20
94.570910999999995
 30
0.0
 40
2.2841830000000001
 50
86.320479000000006
 51
92.687475000000006
  0
ARC
  5
512
  8
0
 62
     7
 10
36.724291999999991
 20
95.43611700000001
 30
0.0
 40
1.418914
 50
86.632760000000005
 51
91.035753000000014
  0
ARC
  5
513
  8
0
 62
     7
 10
36.738768
 20
94.268338
 30
0.0
 40
2.5867729999999991
 50
90.888774999999995
 51
94.809208000000012
  0
ARC
  5
514
  8
0
 62
     7
 10
36.934846
 20
91.968355000000003
 30
0.0
 40
4.8950979999999991
 50
94.83918899999999
 51
107.870707
  0
LINE
  5
515
  8
0
 62
     7
 10
35.557400000000001
 20
97.028300000000002
 30
0.0
 11
36.807600000000001
 21
97.028300000000002
 31
0.0
  0
LINE
  5
516
  8
0
 62
     7
 10
38.05749999999999
 20
97.028300000000002
 30
0.0
 11
36.807600000000001
 21
97.028300000000002
 31
0.0
  0
LINE
  5
517
  8
0
 62
     7
 10
39.1083
 20
93.75200000000001
 30
0.0
 11
36.807600000000001
 21
93.75200000000001
 31
0.0
  0
LINE
  5
518
  8
0
 62
     7
 10
36.807600000000001
 20
93.75200000000001
 30
0.0
 11
34.506999999999991
 21
93.75200000000001
 31
0.0
  0
LINE
  5
519
  8
0
 62
     7
 10
34.206899999999997
 20
93.951800000000006
 30
0.0
 11
34.506999999999991
 21
93.776799999999994
 31
0.0
  0
LINE
  5
51A
  8
0
 62
     7
 10
34.506999999999991
 20
93.776799999999994
 30
0.0
 11
34.506999999999991
 21
93.75200000000001
 31
0.0
  0
LINE
  5
51B
  8
0
 62
     7
 10
34.057099999999998
 20
94.001400000000004
 30
0.0
 11
34.506999999999991
 21
93.776799999999994
 31
0.0
  0
LINE
  5
51C
  8
0
 62
     7
 10
39.557499999999997
 20
94.001400000000004
 30
0.0
 11
39.1083
 21
93.75200000000001
 31
0.0
  0
LINE
  5
51D
  8
0
 62
     7
 10
39.1083
 20
96.877399999999994
 30
0.0
 11
34.506999999999991
 21
96.877399999999994
 31
0.0
  0
LINE
  5
51E
  8
0
 62
     7
 10
38.357900000000001
 20
97.002099999999999
 30
0.0
 11
35.257300000000001
 21
97.002099999999999
 31
0.0
  0
ARC
  5
51F
  8
0
 62
     7
 10
35.810675000000003
 20
97.700993000000011
 30
0.0
 40
0.7188100000000001
 50
213.53475299999991
 51
249.36870799999991
  0
ARC
  5
520
  8
0
 62
     7
 10
35.640624000000003
 20
97.56170400000002
 30
0.0
 40
0.500605
 50
198.55279999999999
 51
210.99751599999999
  0
LINE
  5
521
  8
0
 62
     7
 10
35.16599999999999
 20
97.4024
 30
0.0
 11
35.132599999999989
 21
97.502300000000005
 31
0.0
  0
LINE
  5
522
  8
0
 62
     7
 10
35.132599999999989
 20
97.502300000000005
 30
0.0
 11
35.132599999999989
 21
97.652500000000003
 31
0.0
  0
LINE
  5
523
  8
0
 62
     7
 10
35.132599999999989
 20
97.652500000000003
 30
0.0
 11
35.182200000000002
 21
97.827500000000001
 31
0.0
  0
LINE
  5
524
  8
0
 62
     7
 10
38.457799999999992
 20
97.827500000000001
 30
0.0
 11
38.433
 21
97.827500000000001
 31
0.0
  0
ARC
  5
525
  8
0
 62
     7
 10
8.6204470000000004
 20
93.509364000000005
 30
0.0
 40
30.148250000000001
 50
7.8989659999999997
 51
8.2348949999999999
  0
LINE
  5
526
  8
0
 62
     7
 10
38.482599999999991
 20
97.652500000000003
 30
0.0
 11
38.482599999999991
 21
97.502300000000005
 31
0.0
  0
LINE
  5
527
  8
0
 62
     7
 10
38.482599999999991
 20
97.502300000000005
 30
0.0
 11
38.450299999999991
 21
97.4024
 31
0.0
  0
ARC
  5
528
  8
0
 62
     7
 10
37.388432000000002
 20
97.757523000000006
 30
0.0
 40
1.1196360000000001
 50
336.69833199999999
 51
341.50892799999991
  0
ARC
  5
529
  8
0
 62
     7
 10
37.978726000000002
 20
97.502129000000011
 30
0.0
 40
0.4764640000000001
 50
317.68752799999987
 51
336.825649
  0
ARC
  5
52A
  8
0
 62
     7
 10
38.048358999999998
 20
97.457385000000016
 30
0.0
 40
0.395092
 50
305.28519899999998
 51
315.687634
  0
ARC
  5
52B
  8
0
 62
     7
 10
37.856665
 20
97.733435000000014
 30
0.0
 40
0.731165
 50
297.59963099999987
 51
305.05149899999998
  0
ARC
  5
52C
  8
0
 62
     7
 10
36.103628999999998
 20
101.0811829999999
 30
0.0
 40
4.5101269999999989
 50
296.022446
 51
297.632317
  0
LINE
  5
52D
  8
0
 62
     7
 10
38.082299999999996
 20
97.028300000000002
 30
0.0
 11
38.05749999999999
 21
97.028300000000002
 31
0.0
  0
LINE
  5
52E
  8
0
 62
     7
 10
38.2577
 20
98.252700000000004
 30
0.0
 11
35.381999999999991
 21
98.252700000000004
 31
0.0
  0
LINE
  5
52F
  8
0
 62
     7
 10
38.2577
 20
100.2529999999999
 30
0.0
 11
36.807600000000001
 21
100.2529999999999
 31
0.0
  0
LINE
  5
530
  8
0
 62
     7
 10
36.807600000000001
 20
100.2529999999999
 30
0.0
 11
35.381999999999991
 21
100.2529999999999
 31
0.0
  0
LINE
  5
531
  8
0
 62
     7
 10
35.132599999999989
 20
100.8029999999999
 30
0.0
 11
35.132599999999989
 21
100.678
 31
0.0
  0
LINE
  5
532
  8
0
 62
     7
 10
35.132599999999989
 20
100.678
 30
0.0
 11
35.207399999999993
 21
100.553
 31
0.0
  0
LINE
  5
533
  8
0
 62
     7
 10
38.507800000000003
 20
100.8029999999999
 30
0.0
 11
38.482599999999991
 21
100.678
 31
0.0
  0
LINE
  5
534
  8
0
 62
     7
 10
38.482599999999991
 20
100.678
 30
0.0
 11
38.433
 21
100.553
 31
0.0
  0
LINE
  5
535
  8
0
 62
     7
 10
38.507800000000003
 20
101.5029999999999
 30
0.0
 11
35.132599999999989
 21
101.5029999999999
 31
0.0
  0
LINE
  5
536
  8
0
 62
     7
 10
38.507800000000003
 20
101.5029999999999
 30
0.0
 11
38.507800000000003
 21
100.8029999999999
 31
0.0
  0
LINE
  5
537
  8
0
 62
     7
 10
35.132599999999989
 20
101.5029999999999
 30
0.0
 11
35.132599999999989
 21
100.8029999999999
 31
0.0
  0
LINE
  5
538
  8
0
 62
     7
 10
34.506999999999991
 20
96.877399999999994
 30
0.0
 11
34.057099999999998
 21
96.627300000000005
 31
0.0
  0
LINE
  5
539
  8
0
 62
     7
 10
39.1083
 20
96.877399999999994
 30
0.0
 11
39.557499999999997
 21
96.627300000000005
 31
0.0
  0
LINE
  5
53A
  8
0
 62
     7
 10
38.433
 20
100.553
 30
0.0
 11
38.2577
 21
100.2529999999999
 31
0.0
  0
LINE
  5
53B
  8
0
 62
     7
 10
38.2577
 20
98.252700000000004
 30
0.0
 11
38.433
 21
97.827500000000001
 31
0.0
  0
LINE
  5
53C
  8
0
 62
     7
 10
35.207399999999993
 20
100.553
 30
0.0
 11
35.381999999999991
 21
100.2529999999999
 31
0.0
  0
LINE
  5
53D
  8
0
 62
     7
 10
35.381999999999991
 20
98.252700000000004
 30
0.0
 11
35.182200000000002
 21
97.827500000000001
 31
0.0
  0
LINE
  5
53E
  8
0
 62
     7
 10
38.2577
 20
100.2529999999999
 30
0.0
 11
38.2577
 21
98.252700000000004
 31
0.0
  0
LINE
  5
53F
  8
0
 62
     7
 10
35.381999999999991
 20
100.2529999999999
 30
0.0
 11
35.381999999999991
 21
98.252700000000004
 31
0.0
  0
LINE
  5
540
  8
0
 62
     7
 10
38.357900000000001
 20
97.002099999999999
 30
0.0
 11
38.357900000000001
 21
96.877399999999994
 31
0.0
  0
LINE
  5
541
  8
0
 62
     7
 10
35.257300000000001
 20
97.002099999999999
 30
0.0
 11
35.257300000000001
 21
96.877399999999994
 31
0.0
  0
LINE
  5
542
  8
0
 62
     7
 10
39.557499999999997
 20
94.001400000000004
 30
0.0
 11
39.1083
 21
93.75200000000001
 31
0.0
  0
LINE
  5
543
  8
0
 62
     7
 10
34.057099999999998
 20
94.001400000000004
 30
0.0
 11
34.506999999999991
 21
93.75200000000001
 31
0.0
  0
LINE
  5
544
  8
0
  6
AIGENLINE001
 62
     7
 10
53.19230000000001
 20
106.301
 30
0.0
 11
65.074100000000001
 21
123.5689999999999
 31
0.0
  0
LINE
  5
545
  8
0
 62
     7
 10
66.386700000000005
 20
101.5029999999999
 30
0.0
 11
66.386700000000005
 21
119.5599999999999
 31
0.0
  0
LINE
  5
546
  8
0
 62
     7
 10
63.761499999999991
 20
119.5599999999999
 30
0.0
 11
63.761499999999991
 21
101.5029999999999
 31
0.0
  0
LINE
  5
547
  8
0
  6
AIGENLINE001
 62
     7
 10
65.074100000000001
 20
123.5689999999999
 30
0.0
 11
65.074100000000001
 21
92.539299999999997
 31
0.0
  0
LINE
  5
548
  8
0
 62
     7
 10
54.5045
 20
110.877
 30
0.0
 11
54.5045
 21
134.1939999999999
 31
0.0
  0
LINE
  5
549
  8
0
 62
     7
 10
51.879699999999993
 20
110.877
 30
0.0
 11
51.879699999999993
 21
127.5689999999999
 31
0.0
  0
LINE
  5
54A
  8
0
 62
     7
 10
54.5045
 20
136.0689999999999
 30
0.0
 11
54.5045
 21
144.81999999999991
 31
0.0
  0
LINE
  5
54B
  8
0
 62
     7
 10
51.879699999999993
 20
136.0689999999999
 30
0.0
 11
51.879699999999993
 21
144.81999999999991
 31
0.0
  0
LINE
  5
54C
  8
0
  6
AIGENLINE001
 62
     7
 10
53.19230000000001
 20
106.301
 30
0.0
 11
53.19230000000001
 21
147.3539999999999
 31
0.0
  0
LINE
  5
54D
  8
0
 62
     7
 10
67.827500000000001
 20
96.627300000000005
 30
0.0
 11
67.827500000000001
 21
94.001400000000004
 31
0.0
  0
LINE
  5
54E
  8
0
 62
     7
 10
66.451800000000006
 20
96.627300000000005
 30
0.0
 11
66.451800000000006
 21
94.001400000000004
 31
0.0
  0
ARC
  5
54F
  8
0
 62
     7
 10
64.239526999999995
 20
102.35739
 30
0.0
 40
9.0937260000000002
 50
291.69582700000001
 51
293.23800299999999
  0
ARC
  5
550
  8
0
 62
     7
 10
66.914070999999993
 20
95.673383000000015
 30
0.0
 40
1.894547
 50
281.78296999999998
 51
291.26814100000001
  0
ARC
  5
551
  8
0
 62
     7
 10
67.119581000000011
 20
94.766167999999993
 30
0.0
 40
0.9646139999999999
 50
270.46569699999998
 51
280.83723800000001
  0
ARC
  5
552
  8
0
 62
     7
 10
67.128500000000003
 20
94.71616800000001
 30
0.0
 40
0.914583
 50
257.58951500000001
 51
269.93242700000002
  0
ARC
  5
553
  8
0
 62
     7
 10
67.25047099999999
 20
95.332753999999994
 30
0.0
 40
1.543032
 50
247.18136200000001
 51
258.086771
  0
ARC
  5
554
  8
0
 62
     7
 10
67.708109999999991
 20
96.502104000000003
 30
0.0
 40
2.798524
 50
243.326449
 51
247.82977500000001
  0
ARC
  5
555
  8
0
 62
     7
 10
67.206739999999996
 20
95.512012999999996
 30
0.0
 40
1.346730999999999
 50
97.366204999999994
 51
124.0936549999999
  0
ARC
  5
556
  8
0
 62
     7
 10
67.128306999999992
 20
95.953671999999997
 30
0.0
 40
0.89891
 50
90.056438999999997
 51
96.017324000000016
  0
ARC
  5
557
  8
0
 62
     7
 10
67.126626999999999
 20
95.933557999999991
 30
0.0
 40
0.919024
 50
77.812161000000003
 51
89.950501000000003
  0
ARC
  5
558
  8
0
 62
     7
 10
67.03519399999999
 20
95.462923000000004
 30
0.0
 40
1.39839
 50
66.609766000000008
 51
78.221337000000005
  0
ARC
  5
559
  8
0
 62
     7
 10
66.806007999999991
 20
94.889565000000005
 30
0.0
 40
2.0156900000000002
 50
59.552059999999997
 51
67.100557999999992
  0
LINE
  5
55A
  8
0
 62
     7
 10
62.326999999999998
 20
96.627300000000005
 30
0.0
 11
62.326999999999998
 21
94.001400000000004
 31
0.0
  0
LINE
  5
55B
  8
0
 62
     7
 10
63.701599999999999
 20
96.627300000000005
 30
0.0
 11
63.701599999999999
 21
94.001400000000004
 31
0.0
  0
ARC
  5
55C
  8
0
 62
     7
 10
60.589767000000002
 20
101.21601
 30
0.0
 40
7.8571009999999992
 50
291.54736400000002
 51
293.33167400000002
  0
ARC
  5
55D
  8
0
 62
     7
 10
62.74773299999999
 20
95.777293999999998
 30
0.0
 40
2.0059399999999998
 50
282.220686
 51
291.27096399999999
  0
ARC
  5
55E
  8
0
 62
     7
 10
63.016164000000003
 20
94.606728000000004
 30
0.0
 40
0.805211
 50
270.74959799999999
 51
281.18421000000001
  0
ARC
  5
55F
  8
0
 62
     7
 10
63.027505000000012
 20
94.707138
 30
0.0
 40
0.9055530000000001
 50
257.79862099999991
 51
269.94890800000002
  0
ARC
  5
560
  8
0
 62
     7
 10
63.127028000000003
 20
95.242339000000001
 30
0.0
 40
1.449784
 50
252.93508600000001
 51
258.42462499999999
  0
ARC
  5
561
  8
0
 62
     7
 10
63.372953000000003
 20
96.041084000000012
 30
0.0
 40
2.2855310000000002
 50
248.53023799999991
 51
252.91747899999999
  0
ARC
  5
562
  8
0
 62
     7
 10
64.836101999999997
 20
99.728611000000015
 30
0.0
 40
6.2527229999999996
 50
246.3416399999999
 51
248.42074599999989
  0
ARC
  5
563
  8
0
 62
     7
 10
63.335682999999989
 20
94.899297000000004
 30
0.0
 40
2.0008369999999989
 50
107.934827
 51
120.27382
  0
ARC
  5
564
  8
0
 62
     7
 10
63.051221999999989
 20
95.726553999999993
 30
0.0
 40
1.126295
 50
91.247660999999979
 51
107.126132
  0
ARC
  5
565
  8
0
 62
     7
 10
63.025972000000003
 20
96.084405000000004
 30
0.0
 40
0.7681770000000001
 50
76.151604000000006
 51
89.945862000000005
  0
ARC
  5
566
  8
0
 62
     7
 10
62.883543999999993
 20
95.410504000000003
 30
0.0
 40
1.4567619999999999
 50
65.825008999999994
 51
77.056725999999983
  0
ARC
  5
567
  8
0
 62
     7
 10
62.639429
 20
94.805944999999994
 30
0.0
 40
2.108417999999999
 50
59.749975999999997
 51
66.501046999999986
  0
ARC
  5
568
  8
0
 62
     7
 10
67.717434999999995
 20
87.647269999999978
 30
0.0
 40
6.4789459999999988
 50
101.26460999999991
 51
103.237543
  0
ARC
  5
569
  8
0
 62
     7
 10
64.746432999999996
 20
99.607485000000011
 30
0.0
 40
5.8458110000000003
 50
278.62399199999987
 51
284.7402699999999
  0
ARC
  5
56A
  8
0
 62
     7
 10
65.276826999999983
 20
96.091583999999997
 30
0.0
 40
2.2901310000000001
 50
270.61751499999991
 51
278.69428199999987
  0
LINE
  5
56B
  8
0
 62
     7
 10
65.301500000000004
 20
93.801599999999993
 30
0.0
 11
64.8523
 21
93.801599999999993
 31
0.0
  0
ARC
  5
56C
  8
0
 62
     7
 10
64.852586000000002
 20
95.762411999999998
 30
0.0
 40
1.9608259999999991
 50
261.53959300000002
 51
269.990634
  0
ARC
  5
56D
  8
0
 62
     7
 10
65.065871999999999
 20
97.413071000000002
 30
0.0
 40
3.6250429999999998
 50
258.55075499999992
 51
262.04363799999999
  0
ARC
  5
56E
  8
0
 62
     7
 10
66.470018999999994
 20
104.23976999999989
 30
0.0
 40
10.594639999999989
 50
256.53393899999998
 51
258.43661400000002
  0
ARC
  5
56F
  8
0
 62
     7
 10
62.565153000000002
 20
88.004211999999995
 30
0.0
 40
6.103917
 50
76.376726000000005
 51
79.269905000000008
  0
ARC
  5
570
  8
0
 62
     7
 10
64.953220999999999
 20
92.931712000000005
 30
0.0
 40
3.9017589999999989
 50
102.8410529999999
 51
108.710385
  0
ARC
  5
571
  8
0
 62
     7
 10
65.182656000000009
 20
92.106088999999997
 30
0.0
 40
4.7578949999999987
 50
94.332815999999994
 51
103.325208
  0
ARC
  5
572
  8
0
 62
     7
 10
64.969785999999999
 20
94.570910999999995
 30
0.0
 40
2.2841830000000001
 50
87.312504999999987
 51
93.679501000000016
  0
ARC
  5
573
  8
0
 62
     7
 10
65.160255000000006
 20
95.434779000000006
 30
0.0
 40
1.4202520000000001
 50
88.966301999999999
 51
93.365144999999984
  0
ARC
  5
574
  8
0
 62
     7
 10
65.145752000000002
 20
94.268338
 30
0.0
 40
2.5867729999999991
 50
85.190771999999996
 51
89.111204999999998
  0
ARC
  5
575
  8
0
 62
     7
 10
64.949725000000001
 20
91.968611999999979
 30
0.0
 40
4.894836999999999
 50
72.128924999999995
 51
85.161139999999989
  0
LINE
  5
576
  8
0
 62
     7
 10
66.327100000000002
 20
97.028300000000002
 30
0.0
 11
65.076899999999995
 21
97.028300000000002
 31
0.0
  0
LINE
  5
577
  8
0
 62
     7
 10
63.826999999999991
 20
97.028300000000002
 30
0.0
 11
65.076899999999995
 21
97.028300000000002
 31
0.0
  0
LINE
  5
578
  8
0
 62
     7
 10
62.776200000000003
 20
93.75200000000001
 30
0.0
 11
65.076899999999995
 21
93.75200000000001
 31
0.0
  0
LINE
  5
579
  8
0
 62
     7
 10
65.076899999999995
 20
93.75200000000001
 30
0.0
 11
67.377499999999998
 21
93.75200000000001
 31
0.0
  0
LINE
  5
57A
  8
0
 62
     7
 10
67.677599999999984
 20
93.951800000000006
 30
0.0
 11
67.377499999999998
 21
93.776799999999994
 31
0.0
  0
LINE
  5
57B
  8
0
 62
     7
 10
67.377499999999998
 20
93.776799999999994
 30
0.0
 11
67.377499999999998
 21
93.75200000000001
 31
0.0
  0
LINE
  5
57C
  8
0
 62
     7
 10
67.827500000000001
 20
94.001400000000004
 30
0.0
 11
67.377499999999998
 21
93.776799999999994
 31
0.0
  0
LINE
  5
57D
  8
0
 62
     7
 10
62.326999999999998
 20
94.001400000000004
 30
0.0
 11
62.776200000000003
 21
93.75200000000001
 31
0.0
  0
LINE
  5
57E
  8
0
 62
     7
 10
62.776200000000003
 20
96.877399999999994
 30
0.0
 11
67.377499999999998
 21
96.877399999999994
 31
0.0
  0
LINE
  5
57F
  8
0
 62
     7
 10
63.526600000000002
 20
97.002099999999999
 30
0.0
 11
66.627200000000002
 21
97.002099999999999
 31
0.0
  0
ARC
  5
580
  8
0
 62
     7
 10
66.073844999999992
 20
97.700993000000011
 30
0.0
 40
0.7188100000000001
 50
290.63131199999998
 51
326.46526699999993
  0
ARC
  5
581
  8
0
 62
     7
 10
66.244669999999999
 20
97.561346999999998
 30
0.0
 40
0.4997580000000001
 50
328.991919
 51
341.45780500000001
  0
LINE
  5
582
  8
0
 62
     7
 10
66.718500000000006
 20
97.4024
 30
0.0
 11
66.751900000000006
 21
97.502300000000005
 31
0.0
  0
LINE
  5
583
  8
0
 62
     7
 10
66.751900000000006
 20
97.502300000000005
 30
0.0
 11
66.751900000000006
 21
97.652500000000003
 31
0.0
  0
LINE
  5
584
  8
0
 62
     7
 10
66.751900000000006
 20
97.652500000000003
 30
0.0
 11
66.702299999999994
 21
97.827500000000001
 31
0.0
  0
LINE
  5
585
  8
0
 62
     7
 10
63.426699999999997
 20
97.827500000000001
 30
0.0
 11
63.451500000000003
 21
97.827500000000001
 31
0.0
  0
ARC
  5
586
  8
0
 62
     7
 10
170.61501200000001
 20
82.546238000000002
 30
0.0
 40
108.272147
 50
171.88628
 51
171.97981899999991
  0
LINE
  5
587
  8
0
 62
     7
 10
63.401899999999991
 20
97.652500000000003
 30
0.0
 11
63.401899999999991
 21
97.502300000000005
 31
0.0
  0
LINE
  5
588
  8
0
 62
     7
 10
63.401899999999991
 20
97.502300000000005
 30
0.0
 11
63.4343
 21
97.4024
 31
0.0
  0
ARC
  5
589
  8
0
 62
     7
 10
64.494674000000003
 20
97.757046000000003
 30
0.0
 40
1.118144
 50
198.49089599999991
 51
203.3080149999999
  0
ARC
  5
58A
  8
0
 62
     7
 10
63.905509000000002
 20
97.501928000000007
 30
0.0
 40
0.476119
 50
203.16589999999991
 51
222.31768700000001
  0
ARC
  5
58B
  8
0
 62
     7
 10
63.836160999999997
 20
97.457385000000016
 30
0.0
 40
0.395092
 50
224.31238599999989
 51
234.71482099999989
  0
ARC
  5
58C
  8
0
 62
     7
 10
64.028564000000003
 20
97.7346
 30
0.0
 40
0.732526
 50
234.9554499999999
 51
242.39345900000001
  0
ARC
  5
58D
  8
0
 62
     7
 10
65.792738
 20
101.104608
 30
0.0
 40
4.5363749999999987
 50
242.37235999999999
 51
243.972916
  0
LINE
  5
58E
  8
0
 62
     7
 10
63.802199999999999
 20
97.028300000000002
 30
0.0
 11
63.826999999999991
 21
97.028300000000002
 31
0.0
  0
LINE
  5
58F
  8
0
 62
     7
 10
63.62680000000001
 20
98.252700000000004
 30
0.0
 11
66.502499999999984
 21
98.252700000000004
 31
0.0
  0
LINE
  5
590
  8
0
 62
     7
 10
63.62680000000001
 20
100.2529999999999
 30
0.0
 11
65.076899999999995
 21
100.2529999999999
 31
0.0
  0
LINE
  5
591
  8
0
 62
     7
 10
65.076899999999995
 20
100.2529999999999
 30
0.0
 11
66.502499999999984
 21
100.2529999999999
 31
0.0
  0
LINE
  5
592
  8
0
 62
     7
 10
66.751900000000006
 20
100.8029999999999
 30
0.0
 11
66.751900000000006
 21
100.678
 31
0.0
  0
LINE
  5
593
  8
0
 62
     7
 10
66.751900000000006
 20
100.678
 30
0.0
 11
66.677099999999996
 21
100.553
 31
0.0
  0
LINE
  5
594
  8
0
 62
     7
 10
63.3767
 20
100.8029999999999
 30
0.0
 11
63.401899999999991
 21
100.678
 31
0.0
  0
LINE
  5
595
  8
0
 62
     7
 10
63.401899999999991
 20
100.678
 30
0.0
 11
63.451500000000003
 21
100.553
 31
0.0
  0
LINE
  5
596
  8
0
 62
     7
 10
63.3767
 20
101.5029999999999
 30
0.0
 11
66.751900000000006
 21
101.5029999999999
 31
0.0
  0
LINE
  5
597
  8
0
 62
     7
 10
63.3767
 20
101.5029999999999
 30
0.0
 11
63.3767
 21
100.8029999999999
 31
0.0
  0
LINE
  5
598
  8
0
 62
     7
 10
66.751900000000006
 20
101.5029999999999
 30
0.0
 11
66.751900000000006
 21
100.8029999999999
 31
0.0
  0
LINE
  5
599
  8
0
 62
     7
 10
67.377499999999998
 20
96.877399999999994
 30
0.0
 11
67.827500000000001
 21
96.627300000000005
 31
0.0
  0
LINE
  5
59A
  8
0
 62
     7
 10
62.776200000000003
 20
96.877399999999994
 30
0.0
 11
62.326999999999998
 21
96.627300000000005
 31
0.0
  0
LINE
  5
59B
  8
0
 62
     7
 10
63.451500000000003
 20
100.553
 30
0.0
 11
63.62680000000001
 21
100.2529999999999
 31
0.0
  0
LINE
  5
59C
  8
0
 62
     7
 10
63.62680000000001
 20
98.252700000000004
 30
0.0
 11
63.451500000000003
 21
97.827500000000001
 31
0.0
  0
LINE
  5
59D
  8
0
 62
     7
 10
66.677099999999996
 20
100.553
 30
0.0
 11
66.502499999999984
 21
100.2529999999999
 31
0.0
  0
LINE
  5
59E
  8
0
 62
     7
 10
66.502499999999984
 20
98.252700000000004
 30
0.0
 11
66.702299999999994
 21
97.827500000000001
 31
0.0
  0
LINE
  5
59F
  8
0
 62
     7
 10
63.62680000000001
 20
100.2529999999999
 30
0.0
 11
63.62680000000001
 21
98.252700000000004
 31
0.0
  0
LINE
  5
5A0
  8
0
 62
     7
 10
66.502499999999984
 20
100.2529999999999
 30
0.0
 11
66.502499999999984
 21
98.252700000000004
 31
0.0
  0
LINE
  5
5A1
  8
0
 62
     7
 10
63.526600000000002
 20
97.002099999999999
 30
0.0
 11
63.526600000000002
 21
96.877399999999994
 31
0.0
  0
LINE
  5
5A2
  8
0
 62
     7
 10
66.627200000000002
 20
97.002099999999999
 30
0.0
 11
66.627200000000002
 21
96.877399999999994
 31
0.0
  0
LINE
  5
5A3
  8
0
 62
     7
 10
62.326999999999998
 20
94.001400000000004
 30
0.0
 11
62.776200000000003
 21
93.75200000000001
 31
0.0
  0
LINE
  5
5A4
  8
0
 62
     7
 10
67.827500000000001
 20
94.001400000000004
 30
0.0
 11
67.377499999999998
 21
93.75200000000001
 31
0.0
  0
LINE
  5
5A5
  8
0
 62
     7
 10
50.0045
 20
136.0689999999999
 30
0.0
 11
50.0045
 21
144.81999999999991
 31
0.0
  0
LINE
  5
5A6
  8
0
 62
     7
 10
47.379699999999993
 20
136.0689999999999
 30
0.0
 11
47.379699999999993
 21
144.81999999999991
 31
0.0
  0
LINE
  5
5A7
  8
0
 62
     7
 10
50.942300000000003
 20
130.3189999999999
 30
0.0
 11
50.942300000000003
 21
127.5689999999999
 31
0.0
  0
LINE
  5
5A8
  8
0
 62
     7
 10
51.567199999999993
 20
127.5689999999999
 30
0.0
 11
51.567199999999993
 21
120.819
 31
0.0
  0
LINE
  5
5A9
  8
0
 62
     7
 10
50.192300000000003
 20
120.819
 30
0.0
 11
50.192300000000003
 21
117.31999999999999
 31
0.0
  0
LINE
  5
5AA
  8
0
 62
     7
 10
51.692300000000003
 20
120.819
 30
0.0
 11
51.692300000000003
 21
117.31999999999999
 31
0.0
  0
LINE
  5
5AB
  8
0
 62
     7
 10
51.692300000000003
 20
120.819
 30
0.0
 11
50.192300000000003
 21
120.819
 31
0.0
  0
LINE
  5
5AC
  8
0
 62
     7
 10
51.692300000000003
 20
117.31999999999999
 30
0.0
 11
50.192300000000003
 21
117.31999999999999
 31
0.0
  0
LINE
  5
5AD
  8
0
 62
     7
 10
51.567199999999993
 20
117.31999999999999
 30
0.0
 11
51.567199999999993
 21
69.818700000000007
 31
0.0
  0
LINE
  5
5AE
  8
0
 62
     7
 10
51.567199999999993
 20
69.818700000000007
 30
0.0
 11
50.317300000000003
 21
69.818700000000007
 31
0.0
  0
LINE
  5
5AF
  8
0
 62
     7
 10
50.317300000000003
 20
117.31999999999999
 30
0.0
 11
50.317300000000003
 21
69.818700000000007
 31
0.0
  0
LINE
  5
5B0
  8
0
 62
     7
 10
50.317300000000003
 20
127.5689999999999
 30
0.0
 11
50.317300000000003
 21
120.81999999999989
 31
0.0
  0
LINE
  5
5B1
  8
0
 62
     7
 10
49.44230000000001
 20
133.8189999999999
 30
0.0
 11
49.44230000000001
 21
127.5689999999999
 31
0.0
  0
LINE
  5
5B2
  8
0
 62
     7
 10
52.442300000000003
 20
133.8189999999999
 30
0.0
 11
52.442300000000003
 21
127.5689999999999
 31
0.0
  0
LINE
  5
5B3
  8
0
 62
     7
 10
49.44230000000001
 20
127.5689999999999
 30
0.0
 11
52.442300000000003
 21
127.5689999999999
 31
0.0
  0
LINE
  5
5B4
  8
0
 62
     7
 10
49.44230000000001
 20
130.3189999999999
 30
0.0
 11
52.442300000000003
 21
130.3189999999999
 31
0.0
  0
LINE
  5
5B5
  8
0
 62
     7
 10
52.442300000000003
 20
133.8189999999999
 30
0.0
 11
53.442
 21
134.1939999999999
 31
0.0
  0
LINE
  5
5B6
  8
0
 62
     7
 10
48.442100000000003
 20
134.1939999999999
 30
0.0
 11
49.44230000000001
 21
133.8189999999999
 31
0.0
  0
LINE
  5
5B7
  8
0
 62
     7
 10
49.44230000000001
 20
133.8189999999999
 30
0.0
 11
52.442300000000003
 21
133.8189999999999
 31
0.0
  0
LINE
  5
5B8
  8
0
 62
     7
 10
44.442
 20
136.0689999999999
 30
0.0
 11
44.442
 21
134.1939999999999
 31
0.0
  0
LINE
  5
5B9
  8
0
 62
     7
 10
57.4422
 20
136.0689999999999
 30
0.0
 11
57.4422
 21
134.1939999999999
 31
0.0
  0
LINE
  5
5BA
  8
0
 62
     7
 10
44.442
 20
134.1939999999999
 30
0.0
 11
57.4422
 21
134.1939999999999
 31
0.0
  0
LINE
  5
5BB
  8
0
 62
     7
 10
44.442
 20
135.5689999999999
 30
0.0
 11
57.4422
 21
135.5689999999999
 31
0.0
  0
LINE
  5
5BC
  8
0
 62
     7
 10
44.442
 20
136.0689999999999
 30
0.0
 11
57.4422
 21
136.0689999999999
 31
0.0
  0
LINE
  5
5BD
  8
0
  6
AIGENLINE001
 62
     7
 10
114.741
 20
123.5689999999999
 30
0.0
 11
136.44499999999991
 21
105.91200000000001
 31
0.0
  0
LINE
  5
5BE
  8
0
 62
     7
 10
134.69499999999991
 20
133.8189999999999
 30
0.0
 11
135.19499999999991
 21
134.45599999999999
 31
0.0
  0
LINE
  5
5BF
  8
0
 62
     7
 10
130.69499999999999
 20
136.0689999999999
 30
0.0
 11
130.69499999999999
 21
134.1939999999999
 31
0.0
  0
LINE
  5
5C0
  8
0
 62
     7
 10
130.69499999999999
 20
134.1939999999999
 30
0.0
 11
141.44499999999991
 21
134.8189999999999
 31
0.0
  0
LINE
  5
5C1
  8
0
 62
     7
 10
132.94499999999999
 20
128.0689999999999
 30
0.0
 11
133.44499999999991
 21
128.0689999999999
 31
0.0
  0
LINE
  5
5C2
  8
0
 62
     7
 10
132.44499999999991
 20
127.5679999999999
 30
0.0
 11
132.44499999999991
 21
130.3189999999999
 31
0.0
  0
LINE
  5
5C3
  8
0
 62
     7
 10
133.94499999999999
 20
127.5679999999999
 30
0.0
 11
133.94499999999999
 21
130.3189999999999
 31
0.0
  0
LINE
  5
5C4
  8
0
 62
     7
 10
132.94499999999999
 20
127.5679999999999
 30
0.0
 11
132.94499999999999
 21
128.0689999999999
 31
0.0
  0
LINE
  5
5C5
  8
0
 62
     7
 10
133.44499999999991
 20
127.5679999999999
 30
0.0
 11
133.44499999999991
 21
128.0689999999999
 31
0.0
  0
LINE
  5
5C6
  8
0
 62
     7
 10
134.81999999999999
 20
127.5679999999999
 30
0.0
 11
134.81999999999999
 21
130.3189999999999
 31
0.0
  0
LINE
  5
5C7
  8
0
 62
     7
 10
131.56999999999991
 20
127.5679999999999
 30
0.0
 11
131.56999999999991
 21
130.3189999999999
 31
0.0
  0
LINE
  5
5C8
  8
0
 62
     7
 10
133.44499999999991
 20
127.5679999999999
 30
0.0
 11
134.81999999999999
 21
127.5679999999999
 31
0.0
  0
LINE
  5
5C9
  8
0
 62
     7
 10
131.56999999999991
 20
127.5679999999999
 30
0.0
 11
132.94499999999999
 21
127.5679999999999
 31
0.0
  0
LINE
  5
5CA
  8
0
 62
     7
 10
131.56999999999991
 20
130.3189999999999
 30
0.0
 11
134.81999999999999
 21
130.3189999999999
 31
0.0
  0
LINE
  5
5CB
  8
0
 62
     7
 10
130.94499999999999
 20
133.8189999999999
 30
0.0
 11
130.69499999999999
 21
134.1939999999999
 31
0.0
  0
LINE
  5
5CC
  8
0
 62
     7
 10
134.69499999999991
 20
133.8189999999999
 30
0.0
 11
134.69499999999991
 21
130.3189999999999
 31
0.0
  0
LINE
  5
5CD
  8
0
 62
     7
 10
131.69499999999999
 20
133.8189999999999
 30
0.0
 11
131.69499999999999
 21
130.3189999999999
 31
0.0
  0
LINE
  5
5CE
  8
0
 62
     7
 10
134.69499999999991
 20
133.8189999999999
 30
0.0
 11
130.94499999999999
 21
133.8189999999999
 31
0.0
  0
LINE
  5
5CF
  8
0
 62
     7
 10
134.06999999999999
 20
144.8189999999999
 30
0.0
 11
134.06999999999999
 21
136.0689999999999
 31
0.0
  0
LINE
  5
5D0
  8
0
 62
     7
 10
132.31999999999991
 20
144.8189999999999
 30
0.0
 11
132.31999999999991
 21
136.0689999999999
 31
0.0
  0
LINE
  5
5D1
  8
0
 62
     7
 10
130.69499999999999
 20
135.5689999999999
 30
0.0
 11
141.44499999999991
 21
135.5689999999999
 31
0.0
  0
LINE
  5
5D2
  8
0
 62
     7
 10
130.69499999999999
 20
136.0689999999999
 30
0.0
 11
141.44499999999991
 21
136.0689999999999
 31
0.0
  0
LINE
  5
5D3
  8
0
  6
AIGENLINE001
 62
     7
 10
133.19499999999991
 20
147.80999999999989
 30
0.0
 11
133.19499999999991
 21
125.991
 31
0.0
  0
LINE
  5
5D4
  8
0
 62
     7
 10
141.44499999999991
 20
136.0689999999999
 30
0.0
 11
141.44499999999991
 21
134.8189999999999
 31
0.0
  0
LINE
  5
5D5
  8
0
 62
     7
 10
116.053
 20
101.5029999999999
 30
0.0
 11
116.053
 21
119.5599999999999
 31
0.0
  0
LINE
  5
5D6
  8
0
 62
     7
 10
113.4279999999999
 20
119.5599999999999
 30
0.0
 11
113.4279999999999
 21
101.5029999999999
 31
0.0
  0
LINE
  5
5D7
  8
0
 62
     7
 10
137.75700000000001
 20
110.877
 30
0.0
 11
137.75700000000001
 21
134.61600000000001
 31
0.0
  0
LINE
  5
5D8
  8
0
 62
     7
 10
137.75700000000001
 20
136.0689999999999
 30
0.0
 11
137.75700000000001
 21
144.8189999999999
 31
0.0
  0
LINE
  5
5D9
  8
0
 62
     7
 10
135.13200000000001
 20
144.8189999999999
 30
0.0
 11
135.13200000000001
 21
136.0689999999999
 31
0.0
  0
LINE
  5
5DA
  8
0
 62
     7
 10
135.13200000000001
 20
134.376
 30
0.0
 11
135.13200000000001
 21
110.877
 31
0.0
  0
LINE
  5
5DB
  8
0
 62
     7
 10
99.211799999999997
 20
142.60799999999989
 30
0.0
 11
98.619200000000006
 21
144.8189999999999
 31
0.0
  0
LINE
  5
5DC
  8
0
 62
     7
 10
98.619200000000006
 20
144.8189999999999
 30
0.0
 11
98.026700000000005
 21
142.60799999999989
 31
0.0
  0
LINE
  5
5DD
  8
0
 62
     7
 10
98.026700000000005
 20
142.60799999999989
 30
0.0
 11
99.211799999999997
 21
142.60799999999989
 31
0.0
  0
LINE
  5
5DE
  8
0
 62
     7
 10
98.041100000000014
 20
96.962800000000016
 30
0.0
 11
98.633700000000005
 21
94.751099999999994
 31
0.0
  0
LINE
  5
5DF
  8
0
 62
     7
 10
98.633700000000005
 20
94.751099999999994
 30
0.0
 11
99.226299999999995
 21
96.962800000000016
 31
0.0
  0
LINE
  5
5E0
  8
0
 62
     7
 10
99.226299999999995
 20
96.962800000000016
 30
0.0
 11
98.041100000000014
 21
96.962800000000016
 31
0.0
  0
LINE
  5
5E1
  8
0
 62
     7
 10
98.619200000000006
 20
144.8189999999999
 30
0.0
 11
98.619200000000006
 21
94.751099999999994
 31
0.0
  0
LINE
  5
5E2
  8
0
 62
     7
 10
111.29600000000001
 20
94.751099999999994
 30
0.0
 11
97.919200000000004
 21
94.751099999999994
 31
0.0
  0
LINE
  5
5E3
  8
0
 62
     7
 10
137.77000000000001
 20
69.818700000000007
 30
0.0
 11
158.18299999999999
 21
69.818700000000007
 31
0.0
  0
LINE
  5
5E4
  8
0
 62
     7
 10
158.0749999999999
 20
142.60799999999989
 30
0.0
 11
157.483
 21
144.8189999999999
 31
0.0
  0
LINE
  5
5E5
  8
0
 62
     7
 10
157.483
 20
144.8189999999999
 30
0.0
 11
156.88999999999999
 21
142.60799999999989
 31
0.0
  0
LINE
  5
5E6
  8
0
 62
     7
 10
156.88999999999999
 20
142.60799999999989
 30
0.0
 11
158.0749999999999
 21
142.60799999999989
 31
0.0
  0
LINE
  5
5E7
  8
0
 62
     7
 10
156.905
 20
72.030500000000004
 30
0.0
 11
157.49700000000001
 21
69.818700000000007
 31
0.0
  0
LINE
  5
5E8
  8
0
 62
     7
 10
157.49700000000001
 20
69.818700000000007
 30
0.0
 11
158.08999999999989
 21
72.030500000000004
 31
0.0
  0
LINE
  5
5E9
  8
0
 62
     7
 10
158.08999999999989
 20
72.030500000000004
 30
0.0
 11
156.905
 21
72.030500000000004
 31
0.0
  0
LINE
  5
5EA
  8
0
 62
     7
 10
157.483
 20
144.8189999999999
 30
0.0
 11
157.483
 21
69.818700000000007
 31
0.0
  0
LINE
  5
5EB
  8
0
 62
     7
 10
143.19499999999999
 20
151.89500000000001
 30
0.0
 11
143.19499999999999
 21
146.51899999999989
 31
0.0
  0
LINE
  5
5EC
  8
0
 62
     7
 10
129.69499999999999
 20
151.89500000000001
 30
0.0
 11
129.69499999999999
 21
146.51899999999989
 31
0.0
  0
LINE
  5
5ED
  8
0
 62
     7
 10
131.90600000000001
 20
151.7879999999999
 30
0.0
 11
129.69499999999999
 21
151.19499999999991
 31
0.0
  0
LINE
  5
5EE
  8
0
 62
     7
 10
129.69499999999999
 20
151.19499999999991
 30
0.0
 11
131.90600000000001
 21
150.60299999999989
 31
0.0
  0
LINE
  5
5EF
  8
0
 62
     7
 10
131.90600000000001
 20
150.60299999999989
 30
0.0
 11
131.90600000000001
 21
151.7879999999999
 31
0.0
  0
LINE
  5
5F0
  8
0
 62
     7
 10
140.98400000000001
 20
150.61699999999999
 30
0.0
 11
143.19499999999999
 21
151.21000000000001
 31
0.0
  0
LINE
  5
5F1
  8
0
 62
     7
 10
143.19499999999999
 20
151.21000000000001
 30
0.0
 11
140.98400000000001
 21
151.80199999999999
 31
0.0
  0
LINE
  5
5F2
  8
0
 62
     7
 10
140.98400000000001
 20
151.80199999999999
 30
0.0
 11
140.98400000000001
 21
150.61699999999999
 31
0.0
  0
LINE
  5
5F3
  8
0
 62
     7
 10
133.15700000000001
 20
158.17599999999999
 30
0.0
 11
130.94499999999999
 21
157.584
 31
0.0
  0
LINE
  5
5F4
  8
0
 62
     7
 10
130.94499999999999
 20
157.584
 30
0.0
 11
133.15700000000001
 21
156.99100000000001
 31
0.0
  0
LINE
  5
5F5
  8
0
 62
     7
 10
133.15700000000001
 20
156.99100000000001
 30
0.0
 11
133.15700000000001
 21
158.17599999999999
 31
0.0
  0
LINE
  5
5F6
  8
0
 62
     7
 10
139.73299999999989
 20
156.99100000000001
 30
0.0
 11
141.94499999999991
 21
157.584
 31
0.0
  0
LINE
  5
5F7
  8
0
 62
     7
 10
141.94499999999991
 20
157.584
 30
0.0
 11
139.73299999999989
 21
158.17599999999999
 31
0.0
  0
LINE
  5
5F8
  8
0
 62
     7
 10
139.73299999999989
 20
158.17599999999999
 30
0.0
 11
139.73299999999989
 21
156.99100000000001
 31
0.0
  0
LINE
  5
5F9
  8
0
 62
     7
 10
123.92700000000001
 20
157.584
 30
0.0
 11
141.94499999999991
 21
157.584
 31
0.0
  0
LINE
  5
5FA
  8
0
 62
     7
 10
129.69499999999999
 20
151.19499999999991
 30
0.0
 11
143.19499999999999
 21
151.19499999999991
 31
0.0
  0
LINE
  5
5FB
  8
0
 62
     7
 10
125.37899999999991
 20
142.60799999999989
 30
0.0
 11
124.78700000000001
 21
144.8189999999999
 31
0.0
  0
LINE
  5
5FC
  8
0
 62
     7
 10
124.78700000000001
 20
144.8189999999999
 30
0.0
 11
124.194
 21
142.60799999999989
 31
0.0
  0
LINE
  5
5FD
  8
0
 62
     7
 10
124.194
 20
142.60799999999989
 30
0.0
 11
125.37899999999991
 21
142.60799999999989
 31
0.0
  0
LINE
  5
5FE
  8
0
 62
     7
 10
124.209
 20
138.28
 30
0.0
 11
124.801
 21
136.0689999999999
 31
0.0
  0
LINE
  5
5FF
  8
0
 62
     7
 10
124.801
 20
136.0689999999999
 30
0.0
 11
125.39399999999991
 21
138.28
 31
0.0
  0
LINE
  5
600
  8
0
 62
     7
 10
125.39399999999991
 20
138.28
 30
0.0
 11
124.209
 21
138.28
 31
0.0
  0
LINE
  5
601
  8
0
 62
     7
 10
124.78700000000001
 20
144.8189999999999
 30
0.0
 11
124.78700000000001
 21
136.0689999999999
 31
0.0
  0
LINE
  5
602
  8
0
 62
     7
 10
129.88900000000001
 20
136.0689999999999
 30
0.0
 11
124.087
 21
136.0689999999999
 31
0.0
  0
LINE
  5
603
  8
0
 62
     7
 10
133.60900000000001
 20
83.467600000000004
 30
0.0
 11
135.81999999999991
 21
84.060199999999995
 31
0.0
  0
LINE
  5
604
  8
0
 62
     7
 10
135.81999999999991
 20
84.060199999999995
 30
0.0
 11
133.60900000000001
 21
84.652699999999996
 31
0.0
  0
LINE
  5
605
  8
0
 62
     7
 10
133.60900000000001
 20
84.652699999999996
 30
0.0
 11
133.60900000000001
 21
83.467600000000004
 31
0.0
  0
LINE
  5
606
  8
0
 62
     7
 10
139.28200000000001
 20
84.638299999999987
 30
0.0
 11
137.06999999999999
 21
84.045699999999997
 31
0.0
  0
LINE
  5
607
  8
0
 62
     7
 10
137.06999999999999
 20
84.045699999999997
 30
0.0
 11
139.28200000000001
 21
83.453100000000006
 31
0.0
  0
LINE
  5
608
  8
0
 62
     7
 10
139.28200000000001
 20
83.453100000000006
 30
0.0
 11
139.28200000000001
 21
84.638299999999987
 31
0.0
  0
LINE
  5
609
  8
0
 62
     7
 10
144.09
 20
84.045699999999997
 30
0.0
 11
131.22200000000001
 21
84.045699999999997
 31
0.0
  0
LINE
  5
60A
  8
0
 62
     7
 10
135.81999999999991
 20
104.1849999999999
 30
0.0
 11
135.81999999999991
 21
69.818700000000007
 31
0.0
  0
LINE
  5
60B
  8
0
 62
     7
 10
137.06999999999999
 20
104.1849999999999
 30
0.0
 11
137.06999999999999
 21
69.818700000000007
 31
0.0
  0
LINE
  5
60C
  8
0
 62
     7
 10
135.81999999999991
 20
69.818700000000007
 30
0.0
 11
137.06999999999999
 21
69.818700000000007
 31
0.0
  0
LINE
  5
60D
  8
0
 62
     7
 10
138.15299999999991
 20
144.8189999999999
 30
0.0
 11
137.75700000000001
 21
143.97
 31
0.0
  0
LINE
  5
60E
  8
0
 62
     7
 10
139.53100000000001
 20
144.8189999999999
 30
0.0
 11
137.75700000000001
 21
141.01599999999991
 31
0.0
  0
LINE
  5
60F
  8
0
  6
AIGENLINE001
 62
     7
 10
136.44499999999991
 20
67.700699999999998
 30
0.0
 11
136.44499999999991
 21
150.215
 31
0.0
  0
LINE
  5
610
  8
0
  6
AIGENLINE001
 62
     7
 10
114.741
 20
123.5689999999999
 30
0.0
 11
114.741
 21
92.539299999999997
 31
0.0
  0
LINE
  5
611
  8
0
 62
     7
 10
119.0139999999999
 20
87.286900000000003
 30
0.0
 11
116.8029999999999
 21
86.694299999999998
 31
0.0
  0
LINE
  5
612
  8
0
 62
     7
 10
116.8029999999999
 20
86.694299999999998
 30
0.0
 11
119.0139999999999
 21
86.102400000000003
 31
0.0
  0
LINE
  5
613
  8
0
 62
     7
 10
119.0139999999999
 20
86.102400000000003
 30
0.0
 11
119.0139999999999
 21
87.286900000000003
 31
0.0
  0
LINE
  5
614
  8
0
 62
     7
 10
110.4679999999999
 20
86.116200000000006
 30
0.0
 11
112.6779999999999
 21
86.708799999999997
 31
0.0
  0
LINE
  5
615
  8
0
 62
     7
 10
112.6779999999999
 20
86.708799999999997
 30
0.0
 11
110.4679999999999
 21
87.301299999999998
 31
0.0
  0
LINE
  5
616
  8
0
 62
     7
 10
110.4679999999999
 20
87.301299999999998
 30
0.0
 11
110.4679999999999
 21
86.116200000000006
 31
0.0
  0
LINE
  5
617
  8
0
 62
     7
 10
103.557
 20
86.701899999999995
 30
0.0
 11
120.51899999999991
 21
86.701899999999995
 31
0.0
  0
LINE
  5
618
  8
0
 62
     7
 10
114.741
 20
94.001400000000004
 30
0.0
 11
114.741
 21
96.626599999999996
 31
0.0
  0
LINE
  5
619
  8
0
 62
     7
 10
112.36499999999999
 20
94.001400000000004
 30
0.0
 11
112.36499999999999
 21
96.626599999999996
 31
0.0
  0
ARC
  5
61A
  8
0
 62
     7
 10
117.98060700000001
 20
116.417017
 30
0.0
 40
23.10826599999999
 50
255.9362319999999
 51
256.951503
  0
ARC
  5
61B
  8
0
 62
     7
 10
113.85919199999989
 20
98.751030000000014
 30
0.0
 40
4.9679809999999991
 50
257.25647300000003
 51
263.09825199999989
  0
ARC
  5
61C
  8
0
 62
     7
 10
113.576009
 20
96.626986999999986
 30
0.0
 40
2.8254189999999988
 50
263.62327399999998
 51
269.79458499999993
  0
ARC
  5
61D
  8
0
 62
     7
 10
113.56455800000001
 20
96.322560999999993
 30
0.0
 40
2.5209749999999991
 50
270.03002299999991
 51
277.20703900000001
  0
ARC
  5
61E
  8
0
 62
     7
 10
113.352683
 20
98.117498000000012
 30
0.0
 40
4.3283379999999987
 50
277.008714
 51
283.59966600000001
  0
ARC
  5
61F
  8
0
 62
     7
 10
110.570562
 20
110.1890419999999
 30
0.0
 40
16.716142999999992
 50
283.13919599999991
 51
284.445897
  0
ARC
  5
620
  8
0
 62
     7
 10
113.132633
 20
91.932828999999984
 30
0.0
 40
4.9615599999999986
 50
71.089064000000008
 51
78.901968999999994
  0
ARC
  5
621
  8
0
 62
     7
 10
113.53477700000001
 20
93.838210000000004
 30
0.0
 40
3.0145319999999991
 50
79.431502000000009
 51
89.408833000000016
  0
ARC
  5
622
  8
0
 62
     7
 10
113.567894
 20
93.951846000000003
 30
0.0
 40
2.9007360000000002
 50
90.039796999999993
 51
100.818844
  0
ARC
  5
623
  8
0
 62
     7
 10
113.811635
 20
92.498292000000006
 30
0.0
 40
4.374333
 50
100.380957
 51
109.3082999999999
  0
ARC
  5
624
  8
0
 62
     7
 10
120.31024499999999
 20
116.234151
 30
0.0
 40
22.919758999999999
 50
255.93613500000001
 51
256.96007200000003
  0
ARC
  5
625
  8
0
 62
     7
 10
116.2366809999999
 20
98.761403999999999
 30
0.0
 40
4.9785309999999994
 50
257.26090699999992
 51
263.08882899999992
  0
ARC
  5
626
  8
0
 62
     7
 10
115.950953
 20
96.618506999999994
 30
0.0
 40
2.8169400000000002
 50
263.61351500000001
 51
269.78940799999992
  0
ARC
  5
627
  8
0
 62
     7
 10
115.939284
 20
96.325023000000002
 30
0.0
 40
2.523436999999999
 50
270.02984600000002
 51
277.20351699999992
  0
ARC
  5
628
  8
0
 62
     7
 10
115.727305
 20
98.120396
 30
0.0
 40
4.3312460000000002
 50
277.00742700000001
 51
283.59563300000002
  0
ARC
  5
629
  8
0
 62
     7
 10
112.88186
 20
110.467136
 30
0.0
 40
17.001439000000001
 50
283.13524999999993
 51
284.42132700000002
  0
LINE
  5
62A
  8
0
 62
     7
 10
117.1159999999999
 20
94.001400000000004
 30
0.0
 11
117.1159999999999
 21
96.626599999999996
 31
0.0
  0
ARC
  5
62B
  8
0
 62
     7
 10
115.502351
 20
91.910357999999988
 30
0.0
 40
4.9846629999999994
 50
71.110900000000001
 51
78.890051999999983
  0
ARC
  5
62C
  8
0
 62
     7
 10
115.9097269999999
 20
93.835550999999995
 30
0.0
 40
3.0171890000000001
 50
79.436428000000006
 51
89.413736
  0
ARC
  5
62D
  8
0
 62
     7
 10
115.94261399999991
 20
93.957526999999999
 30
0.0
 40
2.8950559999999999
 50
90.039878000000002
 51
100.82948399999999
  0
ARC
  5
62E
  8
0
 62
     7
 10
116.18893199999999
 20
92.491845999999995
 30
0.0
 40
4.3810409999999997
 50
100.3920109999999
 51
109.303746
  0
LINE
  5
62F
  8
0
 62
     7
 10
117.1159999999999
 20
93.801599999999993
 30
0.0
 11
117.1159999999999
 21
94.001400000000004
 31
0.0
  0
LINE
  5
630
  8
0
 62
     7
 10
117.1159999999999
 20
96.626599999999996
 30
0.0
 11
117.1159999999999
 21
96.852599999999995
 31
0.0
  0
LINE
  5
631
  8
0
 62
     7
 10
112.36499999999999
 20
93.801599999999993
 30
0.0
 11
112.36499999999999
 21
94.001400000000004
 31
0.0
  0
LINE
  5
632
  8
0
 62
     7
 10
112.36499999999999
 20
96.626599999999996
 30
0.0
 11
112.36499999999999
 21
96.852599999999995
 31
0.0
  0
LINE
  5
633
  8
0
 62
     7
 10
115.9909999999999
 20
97.026899999999998
 30
0.0
 11
114.741
 21
97.026899999999998
 31
0.0
  0
LINE
  5
634
  8
0
 62
     7
 10
114.741
 20
97.026899999999998
 30
0.0
 11
113.491
 21
97.026899999999998
 31
0.0
  0
LINE
  5
635
  8
0
 62
     7
 10
117.1159999999999
 20
93.801599999999993
 30
0.0
 11
117.0409999999999
 21
93.75200000000001
 31
0.0
  0
LINE
  5
636
  8
0
 62
     7
 10
117.0409999999999
 20
93.75200000000001
 30
0.0
 11
112.44
 21
93.75200000000001
 31
0.0
  0
LINE
  5
637
  8
0
 62
     7
 10
112.44
 20
93.75200000000001
 30
0.0
 11
112.36499999999999
 21
93.801599999999993
 31
0.0
  0
ARC
  5
638
  8
0
 62
     7
 10
117.097576
 20
96.818840000000009
 30
0.0
 40
0.038479
 50
61.269488000000003
 51
90.14337900000001
  0
ARC
  5
639
  8
0
 62
     7
 10
116.93619199999991
 20
95.501784000000001
 30
0.0
 40
1.365095999999999
 50
83.214589000000004
 51
88.388773
  0
ARC
  5
63A
  8
0
 62
     7
 10
116.3943669999999
 20
82.164226999999997
 30
0.0
 40
14.71355799999999
 50
87.740026000000015
 51
89.360946999999996
  0
ARC
  5
63B
  8
0
 62
     7
 10
115.45639199999989
 20
14.82823599999999
 30
0.0
 40
82.056034999999994
 50
89.230439000000004
 51
89.925376
  0
ARC
  5
63C
  8
0
 62
     7
 10
114.8749379999999
 20
-303.2294839999999
 30
0.0
 40
400.1142779999999
 50
89.901425000000003
 51
90.348620000000025
  0
LINE
  5
63D
  8
0
 62
     7
 10
112.44
 20
96.877399999999994
 30
0.0
 11
112.36499999999999
 21
96.852599999999995
 31
0.0
  0
LINE
  5
63E
  8
0
 62
     7
 10
116.2909999999999
 20
96.877399999999994
 30
0.0
 11
116.2909999999999
 21
97.002099999999999
 31
0.0
  0
LINE
  5
63F
  8
0
 62
     7
 10
116.2909999999999
 20
97.002099999999999
 30
0.0
 11
113.1899999999999
 21
97.002099999999999
 31
0.0
  0
LINE
  5
640
  8
0
 62
     7
 10
113.1899999999999
 20
96.877399999999994
 30
0.0
 11
113.1899999999999
 21
97.002099999999999
 31
0.0
  0
LINE
  5
641
  8
0
 62
     7
 10
113.491
 20
97.026899999999998
 30
0.0
 11
113.1159999999999
 21
97.327999999999989
 31
0.0
  0
LINE
  5
642
  8
0
 62
     7
 10
113.1159999999999
 20
97.327999999999989
 30
0.0
 11
113.09
 21
97.827500000000001
 31
0.0
  0
LINE
  5
643
  8
0
 62
     7
 10
116.392
 20
97.827500000000001
 30
0.0
 11
116.3659999999999
 21
97.327999999999989
 31
0.0
  0
LINE
  5
644
  8
0
 62
     7
 10
116.3659999999999
 20
97.327999999999989
 30
0.0
 11
115.9909999999999
 21
97.026899999999998
 31
0.0
  0
LINE
  5
645
  8
0
 62
     7
 10
116.1909999999999
 20
98.252700000000004
 30
0.0
 11
113.291
 21
98.252700000000004
 31
0.0
  0
LINE
  5
646
  8
0
 62
     7
 10
113.291
 20
98.252700000000004
 30
0.0
 11
113.09
 21
97.827500000000001
 31
0.0
  0
LINE
  5
647
  8
0
 62
     7
 10
116.392
 20
97.827500000000001
 30
0.0
 11
116.1909999999999
 21
98.252700000000004
 31
0.0
  0
LINE
  5
648
  8
0
 62
     7
 10
116.1909999999999
 20
100.2529999999999
 30
0.0
 11
113.291
 21
100.2529999999999
 31
0.0
  0
LINE
  5
649
  8
0
 62
     7
 10
112.6779999999999
 20
86.312600000000003
 30
0.0
 11
112.6779999999999
 21
93.311700000000002
 31
0.0
  0
LINE
  5
64A
  8
0
 62
     7
 10
116.8029999999999
 20
86.312600000000003
 30
0.0
 11
116.8029999999999
 21
93.311700000000002
 31
0.0
  0
LINE
  5
64B
  8
0
 62
     7
 10
113.291
 20
98.252700000000004
 30
0.0
 11
113.291
 21
100.2529999999999
 31
0.0
  0
LINE
  5
64C
  8
0
 62
     7
 10
116.1909999999999
 20
98.252700000000004
 30
0.0
 11
116.1909999999999
 21
100.2529999999999
 31
0.0
  0
LINE
  5
64D
  8
0
 62
     7
 10
113.291
 20
100.2529999999999
 30
0.0
 11
113.1159999999999
 21
100.553
 31
0.0
  0
LINE
  5
64E
  8
0
 62
     7
 10
116.3659999999999
 20
100.553
 30
0.0
 11
116.1909999999999
 21
100.2529999999999
 31
0.0
  0
LINE
  5
64F
  8
0
 62
     7
 10
113.1159999999999
 20
100.553
 30
0.0
 11
113.0649999999999
 21
100.678
 31
0.0
  0
LINE
  5
650
  8
0
 62
     7
 10
113.0649999999999
 20
100.678
 30
0.0
 11
113.0649999999999
 21
100.8029999999999
 31
0.0
  0
ARC
  5
651
  8
0
 62
     7
 10
115.8231159999999
 20
100.861576
 30
0.0
 40
0.620508
 50
339.65783999999991
 51
354.56034599999992
  0
ARC
  5
652
  8
0
 62
     7
 10
115.74683999999991
 20
100.870042
 30
0.0
 40
0.6952180000000001
 50
332.89890400000002
 51
341.18907200000001
  0
LINE
  5
653
  8
0
 62
     7
 10
116.4409999999999
 20
100.8029999999999
 30
0.0
 11
116.4409999999999
 21
101.5029999999999
 31
0.0
  0
LINE
  5
654
  8
0
 62
     7
 10
116.4409999999999
 20
101.5029999999999
 30
0.0
 11
113.0649999999999
 21
101.5029999999999
 31
0.0
  0
LINE
  5
655
  8
0
 62
     7
 10
113.0649999999999
 20
100.8029999999999
 30
0.0
 11
113.0649999999999
 21
101.5029999999999
 31
0.0
  0
LINE
  5
656
  8
0
 62
     7
 10
143.55799999999991
 20
247.42999999999989
 30
0.0
 11
149.34499999999991
 21
247.42999999999989
 31
0.0
  0
LINE
  5
657
  8
0
 62
     7
 10
132.20699999999991
 20
235.2409999999999
 30
0.0
 11
133.35099999999991
 21
237.22399999999999
 31
0.0
  0
LINE
  5
658
  8
0
 62
     7
 10
133.35099999999991
 20
237.22399999999999
 30
0.0
 11
131.36799999999991
 21
236.07900000000001
 31
0.0
  0
LINE
  5
659
  8
0
 62
     7
 10
131.36799999999991
 20
236.07900000000001
 30
0.0
 11
132.20699999999991
 21
235.2409999999999
 31
0.0
  0
LINE
  5
65A
  8
0
 62
     7
 10
140.684
 20
245.39400000000001
 30
0.0
 11
139.5389999999999
 21
243.41099999999989
 31
0.0
  0
LINE
  5
65B
  8
0
 62
     7
 10
139.5389999999999
 20
243.41099999999989
 30
0.0
 11
141.52199999999999
 21
244.5559999999999
 31
0.0
  0
LINE
  5
65C
  8
0
 62
     7
 10
141.52199999999999
 20
244.5559999999999
 30
0.0
 11
140.684
 21
245.39400000000001
 31
0.0
  0
LINE
  5
65D
  8
0
 62
     7
 10
143.55799999999991
 20
247.42999999999989
 30
0.0
 11
129.37200000000001
 21
233.245
 31
0.0
  0
LINE
  5
65E
  8
0
  6
AIGENLINE001
 62
     7
 10
136.44499999999991
 20
246.63800000000001
 30
0.0
 11
136.44499999999991
 21
233.4859999999999
 31
0.0
  0
ARC
  5
65F
  8
0
 62
     7
 10
136.44507400000001
 20
240.3172549999999
 30
0.0
 40
4.3751269999999991
 50
0.002266
 51
90.002235999999996
  0
ARC
  5
660
  8
0
 62
     7
 10
136.44507599999989
 20
240.317599
 30
0.0
 40
4.374782999999999
 50
90.002256000000017
 51
180.00226599999991
  0
ARC
  5
661
  8
0
 62
     7
 10
136.44507400000001
 20
240.3172549999999
 30
0.0
 40
4.3747809999999987
 50
179.997714
 51
269.99776400000002
  0
ARC
  5
662
  8
0
 62
     7
 10
136.44507400000001
 20
240.31760099999991
 30
0.0
 40
4.3751269999999991
 50
269.99776400000002
 51
359.99773399999992
  0
LINE
  5
663
  8
0
  6
AIGENLINE001
 62
     7
 10
129.506
 20
240.31700000000001
 30
0.0
 11
143.22200000000001
 21
240.31700000000001
 31
0.0
  0
ARC
  5
664
  8
0
 62
     7
 10
79.748762999999997
 20
71.596100000000007
 30
0.0
 40
0.519555
 50
272.12995100000001
 51
357.87005899999991
  0
ARC
  5
665
  8
0
 62
     7
 10
77.787482999999995
 20
71.596448999999993
 30
0.0
 40
0.519904
 50
182.167022
 51
267.87248099999988
  0
ARC
  5
666
  8
0
 62
     7
 10
79.748757999999995
 20
72.957571000000002
 30
0.0
 40
0.5195610000000001
 50
2.130487
 51
87.869502999999995
  0
ARC
  5
667
  8
0
 62
     7
 10
77.787159000000003
 20
72.957550999999995
 30
0.0
 40
0.519567
 50
92.093094999999977
 51
177.86740199999991
  0
LINE
  5
668
  8
0
 62
     7
 10
80.536699999999996
 20
48.542000000000002
 30
0.0
 11
78.768000000000001
 21
48.068300000000001
 31
0.0
  0
LINE
  5
669
  8
0
 62
     7
 10
78.768000000000001
 20
48.068300000000001
 30
0.0
 11
80.536699999999996
 21
47.594599999999993
 31
0.0
  0
LINE
  5
66A
  8
0
 62
     7
 10
80.536699999999996
 20
47.594599999999993
 30
0.0
 11
80.536699999999996
 21
48.542000000000002
 31
0.0
  0
LINE
  5
66B
  8
0
 62
     7
 10
113.0
 20
47.606400000000001
 30
0.0
 11
114.76899999999991
 21
48.079700000000003
 31
0.0
  0
LINE
  5
66C
  8
0
 62
     7
 10
114.76899999999991
 20
48.079700000000003
 30
0.0
 11
113.0
 21
48.553800000000003
 31
0.0
  0
LINE
  5
66D
  8
0
 62
     7
 10
113.0
 20
48.553800000000003
 30
0.0
 11
113.0
 21
47.606400000000001
 31
0.0
  0
LINE
  5
66E
  8
0
 62
     7
 10
78.789299999999997
 20
48.074199999999998
 30
0.0
 11
114.747
 21
48.074199999999998
 31
0.0
  0
LINE
  5
66F
  8
0
 62
     7
 10
114.76899999999991
 20
62.440300000000001
 30
0.0
 11
114.76899999999991
 21
47.379300000000001
 31
0.0
  0
LINE
  5
670
  8
0
 62
     7
 10
82.529300000000006
 20
53.6036
 30
0.0
 11
91.578599999999994
 21
53.6036
 31
0.0
  0
LINE
  5
671
  8
0
 62
     7
 10
76.77600000000001
 20
54.0715
 30
0.0
 11
75.007999999999996
 21
53.598100000000002
 31
0.0
  0
LINE
  5
672
  8
0
 62
     7
 10
75.007999999999996
 20
53.598100000000002
 30
0.0
 11
76.77600000000001
 21
53.124099999999991
 31
0.0
  0
LINE
  5
673
  8
0
 62
     7
 10
76.77600000000001
 20
53.124099999999991
 30
0.0
 11
76.77600000000001
 21
54.0715
 31
0.0
  0
LINE
  5
674
  8
0
 62
     7
 10
80.760599999999997
 20
53.135800000000003
 30
0.0
 11
82.529300000000006
 21
53.60949999999999
 31
0.0
  0
LINE
  5
675
  8
0
 62
     7
 10
82.529300000000006
 20
53.60949999999999
 30
0.0
 11
80.760599999999997
 21
54.083500000000001
 31
0.0
  0
LINE
  5
676
  8
0
 62
     7
 10
80.760599999999997
 20
54.083500000000001
 30
0.0
 11
80.760599999999997
 21
53.135800000000003
 31
0.0
  0
LINE
  5
677
  8
0
 62
     7
 10
75.029300000000006
 20
53.6036
 30
0.0
 11
82.507300000000001
 21
53.6036
 31
0.0
  0
LINE
  5
678
  8
0
 62
     7
 10
75.007999999999996
 20
59.366300000000003
 30
0.0
 11
75.007999999999996
 21
53.082700000000003
 31
0.0
  0
LINE
  5
679
  8
0
 62
     7
 10
82.529300000000006
 20
59.366300000000003
 30
0.0
 11
82.529300000000006
 21
53.139600000000002
 31
0.0
  0
LINE
  5
67A
  8
0
 62
     7
 10
69.180199999999999
 20
75.989599999999996
 30
0.0
 11
68.706100000000006
 21
77.757999999999996
 31
0.0
  0
LINE
  5
67B
  8
0
 62
     7
 10
68.706100000000006
 20
77.757999999999996
 30
0.0
 11
68.232100000000003
 21
75.989599999999996
 31
0.0
  0
LINE
  5
67C
  8
0
 62
     7
 10
68.232100000000003
 20
75.989599999999996
 30
0.0
 11
69.180199999999999
 21
75.989599999999996
 31
0.0
  0
LINE
  5
67D
  8
0
 62
     7
 10
68.243799999999993
 20
71.516499999999994
 30
0.0
 11
68.7179
 21
69.748099999999994
 31
0.0
  0
LINE
  5
67E
  8
0
 62
     7
 10
68.7179
 20
69.748099999999994
 30
0.0
 11
69.191900000000004
 21
71.516499999999994
 31
0.0
  0
LINE
  5
67F
  8
0
 62
     7
 10
69.191900000000004
 20
71.516499999999994
 30
0.0
 11
68.243799999999993
 21
71.516499999999994
 31
0.0
  0
LINE
  5
680
  8
0
 62
     7
 10
68.711699999999993
 20
77.757999999999996
 30
0.0
 11
68.711699999999993
 21
69.748099999999994
 31
0.0
  0
LINE
  5
681
  8
0
 62
     7
 10
69.180199999999999
 20
67.979399999999998
 30
0.0
 11
68.706100000000006
 21
69.748099999999994
 31
0.0
  0
LINE
  5
682
  8
0
 62
     7
 10
68.706100000000006
 20
69.748099999999994
 30
0.0
 11
68.232100000000003
 21
67.979399999999998
 31
0.0
  0
LINE
  5
683
  8
0
 62
     7
 10
68.232100000000003
 20
67.979399999999998
 30
0.0
 11
69.180199999999999
 21
67.979399999999998
 31
0.0
  0
LINE
  5
684
  8
0
 62
     7
 10
68.243799999999993
 20
61.4495
 30
0.0
 11
68.7179
 21
59.6815
 31
0.0
  0
LINE
  5
685
  8
0
 62
     7
 10
68.7179
 20
59.6815
 30
0.0
 11
69.191900000000004
 21
61.4495
 31
0.0
  0
LINE
  5
686
  8
0
 62
     7
 10
69.191900000000004
 20
61.4495
 30
0.0
 11
68.243799999999993
 21
61.4495
 31
0.0
  0
LINE
  5
687
  8
0
 62
     7
 10
68.711699999999993
 20
69.769499999999994
 30
0.0
 11
68.711699999999993
 21
59.6815
 31
0.0
  0
LINE
  5
688
  8
0
 62
     7
 10
74.404399999999995
 20
59.6815
 30
0.0
 11
68.369200000000006
 21
59.6815
 31
0.0
  0
LINE
  5
689
  8
0
 62
     7
 10
72.257400000000004
 20
69.748099999999994
 30
0.0
 11
68.369200000000006
 21
69.748099999999994
 31
0.0
  0
LINE
  5
68A
  8
0
 62
     7
 10
72.180199999999999
 20
77.757999999999996
 30
0.0
 11
68.366500000000002
 21
77.757999999999996
 31
0.0
  0
LINE
  5
68B
  8
0
 62
     7
 10
85.058099999999996
 20
77.511300000000006
 30
0.0
 11
85.058099999999996
 21
77.410799999999995
 31
0.0
  0
ARC
  5
68C
  8
0
 62
     7
 10
87.393341000000007
 20
64.533909999999992
 30
0.0
 40
5.1192349999999989
 50
197.7938509999999
 51
205.456209
  0
ARC
  5
68D
  8
0
 62
     7
 10
84.519111999999993
 20
63.189618999999993
 30
0.0
 40
1.9463680000000001
 50
206.09278499999999
 51
211.00056599999999
  0
ARC
  5
68E
  8
0
 62
     7
 10
83.453622999999993
 20
62.539062999999999
 30
0.0
 40
0.698061
 50
210.27364900000001
 51
225.39328699999999
  0
ARC
  5
68F
  8
0
 62
     7
 10
84.860760999999997
 20
63.601616999999997
 30
0.0
 40
2.302220999999999
 50
149.52437900000001
 51
157.20595499999999
  0
ARC
  5
690
  8
0
 62
     7
 10
86.497568000000001
 20
62.880611000000002
 30
0.0
 40
4.0906459999999987
 50
156.7778129999999
 51
168.87007099999991
  0
LINE
  5
691
  8
0
 62
     7
 10
88.465299999999985
 20
65.319100000000006
 30
0.0
 11
88.000900000000001
 21
65.319100000000006
 31
0.0
  0
LINE
  5
692
  8
0
 62
     7
 10
86.915700000000001
 20
61.356200000000001
 30
0.0
 11
86.207300000000004
 21
61.356200000000001
 31
0.0
  0
LINE
  5
693
  8
0
 62
     7
 10
88.472899999999996
 20
61.356200000000001
 30
0.0
 11
88.053899999999999
 21
61.356200000000001
 31
0.0
  0
ARC
  5
694
  8
0
 62
     7
 10
87.465962000000005
 20
61.287374
 30
0.0
 40
0.856685
 50
71.079227000000003
 51
90.030982999999992
  0
ARC
  5
695
  8
0
 62
     7
 10
87.548855999999986
 20
61.586977000000012
 30
0.0
 40
0.546712
 50
15.048963000000001
 51
69.115506000000011
  0
ARC
  5
696
  8
0
 62
     7
 10
87.212172999999993
 20
61.482266000000003
 30
0.0
 40
0.8991399999999998
 50
358.79156799999998
 51
15.922105
  0
ARC
  5
697
  8
0
 62
     7
 10
88.034219999999991
 20
61.463731999999993
 30
0.0
 40
0.076894
 50
340.23881299999988
 51
359.68055299999992
  0
ARC
  5
698
  8
0
 62
     7
 10
87.943167000000017
 20
61.493867000000002
 30
0.0
 40
0.172791
 50
326.44246900000002
 51
341.04307299999999
  0
ARC
  5
699
  8
0
 62
     7
 10
87.777668999999989
 20
61.600973000000003
 30
0.0
 40
0.369918
 50
315.87787099999991
 51
326.78745299999991
  0
ARC
  5
69A
  8
0
 62
     7
 10
87.532551999999995
 20
61.837814999999999
 30
0.0
 40
0.7107640000000001
 50
299.99903499999999
 51
315.92864899999989
  0
ARC
  5
69B
  8
0
 62
     7
 10
87.423356999999996
 20
61.99716999999999
 30
0.0
 40
0.903489
 50
271.49285400000002
 51
300.94344699999999
  0
ARC
  5
69C
  8
0
 62
     7
 10
87.448452999999986
 20
61.730047999999996
 30
0.0
 40
0.6360630000000001
 50
238.0169599999999
 51
269.859666
  0
ARC
  5
69D
  8
0
 62
     7
 10
87.508392999999998
 20
61.856782999999993
 30
0.0
 40
0.7754800000000001
 50
216.71406300000001
 51
239.2203439999999
  0
ARC
  5
69E
  8
0
 62
     7
 10
87.174665999999988
 20
61.603693000000007
 30
0.0
 40
0.356667
 50
203.97207299999991
 51
216.171798
  0
ARC
  5
69F
  8
0
 62
     7
 10
86.947348000000005
 20
61.505320999999988
 30
0.0
 40
0.109018
 50
183.07270700000001
 51
205.27071000000001
  0
ARC
  5
6A0
  8
0
 62
     7
 10
87.956400000000002
 20
61.500531999999993
 30
0.0
 40
1.117912999999999
 50
169.31603299999989
 51
180.05405699999989
  0
ARC
  5
6A1
  8
0
 62
     7
 10
87.456816000000003
 20
61.588406999999989
 30
0.0
 40
0.610731
 50
143.50345200000001
 51
168.72816599999999
  0
ARC
  5
6A2
  8
0
 62
     7
 10
87.337345999999997
 20
61.651209999999999
 30
0.0
 40
0.4777790000000001
 50
101.71068199999991
 51
141.035741
  0
ARC
  5
6A3
  8
0
 62
     7
 10
87.449597999999995
 20
61.261603999999998
 30
0.0
 40
0.8825979999999999
 50
88.967709999999997
 51
103.712953
  0
ARC
  5
6A4
  8
0
 62
     7
 10
87.410810999999995
 20
63.680002999999999
 30
0.0
 40
1.7637890000000001
 50
76.622818999999993
 51
90.014088999999984
  0
ARC
  5
6A5
  8
0
 62
     7
 10
87.649401999999995
 20
64.726271999999994
 30
0.0
 40
0.690778
 50
59.890551000000002
 51
75.797769999999986
  0
ARC
  5
6A6
  8
0
 62
     7
 10
87.895493999999999
 20
65.160464000000005
 30
0.0
 40
0.191783
 50
29.411314999999998
 51
58.418089999999999
  0
ARC
  5
6A7
  8
0
 62
     7
 10
87.984756000000004
 20
65.218695999999994
 30
0.0
 40
0.085707
 50
0.317384
 51
24.799139
  0
ARC
  5
6A8
  8
0
 62
     7
 10
86.832071999999997
 20
65.218743000000003
 30
0.0
 40
1.2383889999999991
 50
344.521458
 51
0.019753
  0
ARC
  5
6A9
  8
0
 62
     7
 10
87.335988000000015
 20
65.094515000000001
 30
0.0
 40
0.719747
 50
319.05866800000001
 51
343.34634499999999
  0
ARC
  5
6AA
  8
0
 62
     7
 10
87.478634999999997
 20
64.995268999999993
 30
0.0
 40
0.5472730000000001
 50
268.62459499999989
 51
317.12087300000002
  0
ARC
  5
6AB
  8
0
 62
     7
 10
87.471807999999996
 20
65.068128000000002
 30
0.0
 40
0.6200070000000001
 50
212.58928399999991
 51
269.41688399999992
  0
ARC
  5
6AC
  8
0
 62
     7
 10
87.619431000000006
 20
65.170613000000003
 30
0.0
 40
0.799616
 50
190.5786479999999
 51
213.079275
  0
ARC
  5
6AD
  8
0
 62
     7
 10
87.885083999999992
 20
65.235636999999997
 30
0.0
 40
1.072797999999999
 50
179.6650689999999
 51
191.38775000000001
  0
ARC
  5
6AE
  8
0
 62
     7
 10
86.869747999999987
 20
65.241855999999999
 30
0.0
 40
0.057444
 50
159.6352169999999
 51
179.948408
  0
ARC
  5
6AF
  8
0
 62
     7
 10
86.904349999999994
 20
65.22846899999999
 30
0.0
 40
0.094543
 50
138.68355500000001
 51
159.326448
  0
ARC
  5
6B0
  8
0
 62
     7
 10
86.980443999999977
 20
65.162518000000006
 30
0.0
 40
0.195239
 50
124.2858139999999
 51
138.89040800000001
  0
ARC
  5
6B1
  8
0
 62
     7
 10
87.095054000000005
 20
64.998187999999985
 30
0.0
 40
0.395583
 50
114.19512399999989
 51
124.59347099999999
  0
ARC
  5
6B2
  8
0
 62
     7
 10
87.266247000000007
 20
64.615594999999985
 30
0.0
 40
0.8147300000000001
 50
99.289972999999975
 51
114.149432
  0
ARC
  5
6B3
  8
0
 62
     7
 10
87.400254000000004
 20
63.974295999999988
 30
0.0
 40
1.469530999999999
 50
89.605311999999998
 51
100.409947
  0
ARC
  5
6B4
  8
0
 62
     7
 10
87.464105000000004
 20
63.747455000000002
 30
0.0
 40
0.4791790000000001
 50
54.511673999999999
 51
89.833435999999992
  0
ARC
  5
6B5
  8
0
 62
     7
 10
87.351680999999999
 20
63.571365999999998
 30
0.0
 40
0.6879070000000001
 50
30.722599999999989
 51
55.401756000000013
  0
ARC
  5
6B6
  8
0
 62
     7
 10
87.048928000000004
 20
63.369402000000001
 30
0.0
 40
1.0515190000000001
 50
4.3951299999999991
 51
31.755082999999999
  0
ARC
  5
6B7
  8
0
 62
     7
 10
86.816526999999994
 20
63.324013999999998
 30
0.0
 40
1.287007
 50
359.98454800000002
 51
5.6170159999999996
  0
ARC
  5
6B8
  8
0
 62
     7
 10
86.892962999999995
 20
63.324914999999997
 30
0.0
 40
1.2105719999999991
 50
331.61258500000002
 51
359.94094899999999
  0
ARC
  5
6B9
  8
0
 62
     7
 10
87.282393999999996
 20
63.139594999999993
 30
0.0
 40
0.780175
 50
307.38971800000002
 51
329.988471
  0
ARC
  5
6BA
  8
0
 62
     7
 10
87.452562999999984
 20
62.936501
 30
0.0
 40
0.515617
 50
271.43757499999992
 51
306.06975999999997
  0
ARC
  5
6BB
  8
0
 62
     7
 10
87.466905000000011
 20
62.900027000000001
 30
0.0
 40
0.4789830000000001
 50
234.517503
 51
269.83175099999988
  0
ARC
  5
6BC
  8
0
 62
     7
 10
87.580092000000008
 20
63.077880999999998
 30
0.0
 40
0.6895970000000001
 50
210.80902
 51
235.437174
  0
ARC
  5
6BD
  8
0
 62
     7
 10
87.879615999999999
 20
63.278492000000007
 30
0.0
 40
1.0497700000000001
 50
184.43253000000001
 51
211.840114
  0
ARC
  5
6BE
  8
0
 62
     7
 10
88.105610999999996
 20
63.323256000000001
 30
0.0
 40
1.278837
 50
179.981582
 51
185.6496909999999
  0
ARC
  5
6BF
  8
0
 62
     7
 10
88.034229000000011
 20
63.322423999999998
 30
0.0
 40
1.207455999999999
 50
151.52532500000001
 51
179.94099800000001
  0
ARC
  5
6C0
  8
0
 62
     7
 10
87.650265000000005
 20
63.505889000000003
 30
0.0
 40
0.782774
 50
127.383118
 51
149.93007299999991
  0
ARC
  5
6C1
  8
0
 62
     7
 10
87.478875000000002
 20
63.710677000000011
 30
0.0
 40
0.516129
 50
91.485153999999994
 51
126.0675379999999
  0
LINE
  5
6C2
  8
0
 62
     7
 10
101.1149999999999
 20
61.032299999999992
 30
0.0
 11
100.642
 21
62.800699999999999
 31
0.0
  0
LINE
  5
6C3
  8
0
 62
     7
 10
100.642
 20
62.800699999999999
 30
0.0
 11
100.167
 21
61.032299999999992
 31
0.0
  0
LINE
  5
6C4
  8
0
 62
     7
 10
100.167
 20
61.032299999999992
 30
0.0
 11
101.1149999999999
 21
61.032299999999992
 31
0.0
  0
LINE
  5
6C5
  8
0
 62
     7
 10
100.1789999999999
 20
65.567800000000005
 30
0.0
 11
100.65299999999991
 21
63.799799999999991
 31
0.0
  0
LINE
  5
6C6
  8
0
 62
     7
 10
100.65299999999991
 20
63.799799999999991
 30
0.0
 11
101.127
 21
65.567800000000005
 31
0.0
  0
LINE
  5
6C7
  8
0
 62
     7
 10
101.127
 20
65.567800000000005
 30
0.0
 11
100.1789999999999
 21
65.567800000000005
 31
0.0
  0
LINE
  5
6C8
  8
0
 62
     7
 10
100.64699999999991
 20
69.7226
 30
0.0
 11
100.64699999999991
 21
59.766199999999998
 31
0.0
  0
LINE
  5
6C9
  8
0
 62
     7
 10
112.84099999999999
 20
62.941299999999998
 30
0.0
 11
112.30799999999989
 21
62.941299999999998
 31
0.0
  0
LINE
  5
6CA
  8
0
 62
     7
 10
112.84099999999999
 20
63.646799999999992
 30
0.0
 11
112.30799999999989
 21
63.646799999999992
 31
0.0
  0
LINE
  5
6CB
  8
0
 62
     7
 10
112.93000000000001
 20
62.830300000000001
 30
0.0
 11
112.934
 21
62.830300000000001
 31
0.0
  0
LINE
  5
6CC
  8
0
 62
     7
 10
112.30799999999989
 20
62.820700000000002
 30
0.0
 11
112.84099999999999
 21
62.820700000000002
 31
0.0
  0
LINE
  5
6CD
  8
0
 62
     7
 10
112.30799999999989
 20
63.765999999999998
 30
0.0
 11
112.84099999999999
 21
63.765999999999998
 31
0.0
  0
ARC
  5
6CE
  8
0
 62
     7
 10
113.096326
 20
62.656927000000003
 30
0.0
 40
0.253579
 50
157.15717599999991
 51
179.74174999999991
  0
ARC
  5
6CF
  8
0
 62
     7
 10
113.03207399999989
 20
62.674057999999988
 30
0.0
 40
0.187939
 50
106.63170599999999
 51
154.3649659999999
  0
ARC
  5
6D0
  8
0
 62
     7
 10
113.10904499999999
 20
62.474545999999997
 30
0.0
 40
0.401481
 50
88.080568000000014
 51
109.008132
  0
ARC
  5
6D1
  8
0
 62
     7
 10
113.1287249999999
 20
62.469244999999987
 30
0.0
 40
0.406605
 50
73.499137000000005
 51
90.878256000000022
  0
ARC
  5
6D2
  8
0
 62
     7
 10
113.1736919999999
 20
62.640680000000003
 30
0.0
 40
0.229525
 50
25.086769
 51
72.1066
  0
ARC
  5
6D3
  8
0
 62
     7
 10
113.080821
 20
63.914882999999989
 30
0.0
 40
0.239085
 50
182.98161500000001
 51
206.05611399999989
  0
ARC
  5
6D4
  8
0
 62
     7
 10
113.030252
 20
63.900300999999999
 30
0.0
 40
0.187473
 50
208.84238199999999
 51
256.26913500000001
  0
ARC
  5
6D5
  8
0
 62
     7
 10
113.10977699999999
 20
64.132730000000009
 30
0.0
 40
0.432698
 50
253.343772
 51
271.68390499999992
  0
ARC
  5
6D6
  8
0
 62
     7
 10
113.1229229999999
 20
64.136837999999997
 30
0.0
 40
0.43662
 50
269.94350600000001
 51
286.72206799999998
  0
ARC
  5
6D7
  8
0
 62
     7
 10
113.180001
 20
63.930315
 30
0.0
 40
0.222459
 50
287.94761199999988
 51
335.39102700000001
  0
ARC
  5
6D8
  8
0
 62
     7
 10
113.14014399999991
 20
63.403111000000003
 30
0.0
 40
0.297631
 50
93.399935000000013
 51
177.7179659999999
  0
ARC
  5
6D9
  8
0
 62
     7
 10
113.122523
 20
63.439591999999998
 30
0.0
 40
0.260627
 50
26.767737
 51
90.006745999999993
  0
ARC
  5
6DA
  8
0
 62
     7
 10
113.053804
 20
63.386763999999999
 30
0.0
 40
0.346154
 50
8.6347919999999991
 51
29.45307
  0
ARC
  5
6DB
  8
0
 62
     7
 10
113.13793099999999
 20
63.172330000000002
 30
0.0
 40
0.29693
 50
184.84000999999989
 51
267.01964500000003
  0
ARC
  5
6DC
  8
0
 62
     7
 10
113.12250899999999
 20
63.307104000000002
 30
0.0
 40
0.431302
 50
269.99778700000002
 51
286.72141099999988
  0
ARC
  5
6DD
  8
0
 62
     7
 10
113.1766139999999
 20
63.106803999999997
 30
0.0
 40
0.223981
 50
288.20853799999998
 51
348.41860700000001
  0
LINE
  5
6DE
  8
0
 62
     7
 10
113.19799999999989
 20
62.616700000000002
 30
0.0
 11
112.84099999999999
 21
62.616700000000002
 31
0.0
  0
LINE
  5
6DF
  8
0
 62
     7
 10
113.396
 20
63.765999999999998
 30
0.0
 11
113.396
 21
62.814500000000002
 31
0.0
  0
ARC
  5
6E0
  8
0
 62
     7
 10
113.19110499999999
 20
62.821657999999999
 30
0.0
 40
0.205055
 50
272.00650999999988
 51
357.99349999999993
  0
LINE
  5
6E1
  8
0
 62
     7
 10
113.19799999999989
 20
63.96309999999999
 30
0.0
 11
112.84099999999999
 21
63.96309999999999
 31
0.0
  0
ARC
  5
6E2
  8
0
 62
     7
 10
113.1907639999999
 20
63.757781999999992
 30
0.0
 40
0.205436
 50
2.2980629999999991
 51
87.901911999999996
  0
LINE
  5
6E3
  8
0
 62
     7
 10
112.84099999999999
 20
63.96309999999999
 30
0.0
 11
112.84099999999999
 21
62.616700000000002
 31
0.0
  0
LINE
  5
6E4
  8
0
 62
     7
 10
112.221
 20
62.848199999999991
 30
0.0
 11
112.22199999999999
 21
62.848199999999991
 31
0.0
  0
LINE
  5
6E5
  8
0
 62
     7
 10
112.30799999999989
 20
63.9786
 30
0.0
 11
112.107
 21
64.151899999999983
 31
0.0
  0
LINE
  5
6E6
  8
0
 62
     7
 10
112.30799999999989
 20
62.631900000000002
 30
0.0
 11
112.107
 21
62.460299999999997
 31
0.0
  0
LINE
  5
6E7
  8
0
 62
     7
 10
109.57299999999989
 20
62.460299999999997
 30
0.0
 11
109.371
 21
62.631900000000002
 31
0.0
  0
LINE
  5
6E8
  8
0
 62
     7
 10
109.57299999999989
 20
64.150499999999994
 30
0.0
 11
109.371
 21
63.978200000000001
 31
0.0
  0
LINE
  5
6E9
  8
0
 62
     7
 10
109.371
 20
63.978200000000001
 30
0.0
 11
109.371
 21
62.631900000000002
 31
0.0
  0
ARC
  5
6EA
  8
0
 62
     7
 10
109.9763779999999
 20
62.812936000000001
 30
0.0
 40
0.352616
 50
239.63459199999991
 51
269.89340399999992
  0
ARC
  5
6EB
  8
0
 62
     7
 10
110.0506919999999
 20
62.955117999999999
 30
0.0
 40
0.5129190000000001
 50
222.37375099999991
 51
240.50099900000001
  0
ARC
  5
6EC
  8
0
 62
     7
 10
110.2723059999999
 20
63.166297
 30
0.0
 40
0.818993
 50
200.653401
 51
222.839123
  0
ARC
  5
6ED
  8
0
 62
     7
 10
110.5795659999999
 20
63.309046000000002
 30
0.0
 40
1.1571290000000001
 50
179.95834699999989
 51
201.901252
  0
ARC
  5
6EE
  8
0
 62
     7
 10
110.6067899999999
 20
63.308694999999993
 30
0.0
 40
1.1843539999999999
 50
151.675263
 51
179.94234
  0
ARC
  5
6EF
  8
0
 62
     7
 10
110.1966169999999
 20
63.519781999999992
 30
0.0
 40
0.72319
 50
128.09494699999991
 51
150.9780649999999
  0
ARC
  5
6F0
  8
0
 62
     7
 10
109.9842739999999
 20
63.766390000000001
 30
0.0
 40
0.398384
 50
105.3867
 51
125.94253999999999
  0
ARC
  5
6F1
  8
0
 62
     7
 10
111.7433679999999
 20
63.785255999999997
 30
0.0
 40
0.36975
 50
50.165275000000001
 51
81.041458000000006
  0
ARC
  5
6F2
  8
0
 62
     7
 10
111.60268499999999
 20
63.590973999999989
 30
0.0
 40
0.6092770000000001
 50
34.482365999999992
 51
51.70975
  0
ARC
  5
6F3
  8
0
 62
     7
 10
111.30598500000001
 20
63.375934999999998
 30
0.0
 40
0.975636
 50
14.163016999999989
 51
35.027301999999999
  0
ARC
  5
6F4
  8
0
 62
     7
 10
111.08892999999991
 20
63.298008999999993
 30
0.0
 40
1.2053700000000001
 50
0.269828
 51
15.230138999999999
  0
ARC
  5
6F5
  8
0
 62
     7
 10
111.12240300000001
 20
63.304621999999988
 30
0.0
 40
1.171883
 50
331.61580800000002
 51
359.95419800000002
  0
ARC
  5
6F6
  8
0
 62
     7
 10
111.5139419999999
 20
63.102431000000003
 30
0.0
 40
0.731344
 50
308.34638299999989
 51
330.96968599999991
  0
ARC
  5
6F7
  8
0
 62
     7
 10
111.7291529999999
 20
62.852738000000002
 30
0.0
 40
0.4022360000000001
 50
282.68533100000002
 51
306.37019099999998
  0
LINE
  5
6F8
  8
0
 62
     7
 10
109.562
 20
63.391199999999998
 30
0.0
 11
110.758
 21
63.391199999999998
 31
0.0
  0
LINE
  5
6F9
  8
0
 62
     7
 10
109.562
 20
63.218899999999991
 30
0.0
 11
110.758
 21
63.218899999999991
 31
0.0
  0
ARC
  5
6FA
  8
0
 62
     7
 10
110.270449
 20
63.290907999999988
 30
0.0
 40
0.7144560000000002
 50
112.7291009999999
 51
178.97529199999991
  0
ARC
  5
6FB
  8
0
 62
     7
 10
110.16130699999999
 20
63.472926999999999
 30
0.0
 40
0.5053140000000002
 50
90.183098000000001
 51
109.286952
  0
ARC
  5
6FC
  8
0
 62
     7
 10
110.1580419999999
 20
63.459484000000003
 30
0.0
 40
0.5187580000000001
 50
54.287735999999988
 51
89.817802000000015
  0
ARC
  5
6FD
  8
0
 62
     7
 10
110.0456929999999
 20
63.29362299999999
 30
0.0
 40
0.7190310000000001
 50
0.80181
 51
54.733416000000013
  0
ARC
  5
6FE
  8
0
 62
     7
 10
110.05481
 20
63.316583999999999
 30
0.0
 40
0.709961
 50
292.39747799999992
 51
358.95896499999992
  0
ARC
  5
6FF
  8
0
 62
     7
 10
110.158129
 20
63.140014999999998
 30
0.0
 40
0.50813
 50
270.17618099999987
 51
289.21076499999992
  0
ARC
  5
700
  8
0
 62
     7
 10
110.16134099999989
 20
63.149647999999999
 30
0.0
 40
0.517763
 50
234.2982329999999
 51
269.81753399999991
  0
ARC
  5
701
  8
0
 62
     7
 10
110.272586
 20
63.314478999999999
 30
0.0
 40
0.7165600000000002
 50
180.863148
 51
234.76613499999999
  0
LINE
  5
702
  8
0
 62
     7
 10
109.569
 20
62.460299999999997
 30
0.0
 11
112.1099999999999
 21
62.460299999999997
 31
0.0
  0
LINE
  5
703
  8
0
 62
     7
 10
109.57299999999989
 20
64.150499999999994
 30
0.0
 11
112.1079999999999
 21
64.150499999999994
 31
0.0
  0
LINE
  5
704
  8
0
 62
     7
 10
112.30799999999989
 20
63.9786
 30
0.0
 11
112.30799999999989
 21
62.631900000000002
 31
0.0
  0
LINE
  5
705
  8
0
 62
     7
 10
72.479200000000006
 20
78.137
 30
0.0
 11
72.479200000000006
 21
82.249099999999984
 31
0.0
  0
LINE
  5
706
  8
0
 62
     7
 10
72.725899999999996
 20
77.757999999999996
 30
0.0
 11
84.810699999999997
 21
77.757999999999996
 31
0.0
  0
ARC
  5
707
  8
0
 62
     7
 10
84.801176999999996
 20
77.501118000000005
 30
0.0
 40
0.257077
 50
2.280692999999999
 51
87.879118000000005
  0
ARC
  5
708
  8
0
 62
     7
 10
72.734743000000009
 20
77.501799000000005
 30
0.0
 40
0.255684
 50
91.980152000000004
 51
177.85955000000001
  0
LINE
  5
709
  8
0
 62
     7
 10
72.479200000000006
 20
77.410799999999995
 30
0.0
 11
72.479200000000006
 21
77.511300000000006
 31
0.0
  0
LINE
  5
70A
  8
0
 62
     7
 10
82.689899999999994
 20
71.076899999999995
 30
0.0
 11
82.762900000000016
 21
71.076899999999995
 31
0.0
  0
LINE
  5
70B
  8
0
 62
     7
 10
82.368799999999993
 20
71.3994
 30
0.0
 11
82.368799999999993
 21
73.155699999999996
 31
0.0
  0
ARC
  5
70C
  8
0
 62
     7
 10
82.702314999999984
 20
71.410375999999999
 30
0.0
 40
0.333705
 50
181.89070599999991
 51
267.86394599999988
  0
LINE
  5
70D
  8
0
 62
     7
 10
75.177499999999995
 20
71.3994
 30
0.0
 11
75.177499999999995
 21
73.155699999999996
 31
0.0
  0
LINE
  5
70E
  8
0
 62
     7
 10
74.773700000000005
 20
71.076899999999995
 30
0.0
 11
74.856399999999994
 21
71.076899999999995
 31
0.0
  0
ARC
  5
70F
  8
0
 62
     7
 10
74.842619999999997
 20
71.411681000000002
 30
0.0
 40
0.33506
 50
272.35174199999989
 51
357.89364599999988
  0
LINE
  5
710
  8
0
 62
     7
 10
82.689899999999994
 20
73.476799999999997
 30
0.0
 11
82.762900000000016
 21
73.476799999999997
 31
0.0
  0
ARC
  5
711
  8
0
 62
     7
 10
82.702217000000005
 20
73.143346999999991
 30
0.0
 40
0.333654
 50
92.119619999999983
 51
177.88035099999991
  0
LINE
  5
712
  8
0
 62
     7
 10
74.773700000000005
 20
73.476799999999997
 30
0.0
 11
74.856399999999994
 21
73.476799999999997
 31
0.0
  0
ARC
  5
713
  8
0
 62
     7
 10
74.844029000000006
 20
73.143345999999994
 30
0.0
 40
0.333654
 50
2.1196470000000001
 51
87.880343000000011
  0
LINE
  5
714
  8
0
 62
     7
 10
74.773700000000005
 20
73.476799999999997
 30
0.0
 11
74.773700000000005
 21
75.546899999999994
 31
0.0
  0
LINE
  5
715
  8
0
 62
     7
 10
74.773700000000005
 20
70.676900000000003
 30
0.0
 11
74.773700000000005
 21
71.076899999999995
 31
0.0
  0
LINE
  5
716
  8
0
 62
     7
 10
74.773700000000005
 20
75.546899999999994
 30
0.0
 11
74.624899999999997
 21
75.702699999999993
 31
0.0
  0
LINE
  5
717
  8
0
 62
     7
 10
82.875200000000007
 20
75.702699999999993
 30
0.0
 11
82.762900000000016
 21
75.546899999999994
 31
0.0
  0
LINE
  5
718
  8
0
 62
     7
 10
82.762900000000016
 20
71.076899999999995
 30
0.0
 11
82.762900000000016
 21
70.676900000000003
 31
0.0
  0
LINE
  5
719
  8
0
 62
     7
 10
82.762900000000016
 20
75.546899999999994
 30
0.0
 11
82.762900000000016
 21
73.476799999999997
 31
0.0
  0
LINE
  5
71A
  8
0
 62
     7
 10
72.479200000000006
 20
77.410799999999995
 30
0.0
 11
85.078699999999998
 21
77.410799999999995
 31
0.0
  0
LINE
  5
71B
  8
0
 62
     7
 10
88.7119
 20
61.603200000000001
 30
0.0
 11
88.7119
 21
65.074100000000001
 31
0.0
  0
ARC
  5
71C
  8
0
 62
     7
 10
88.462953999999996
 20
61.612713999999997
 30
0.0
 40
0.256744
 50
272.209045
 51
357.87093099999993
  0
ARC
  5
71D
  8
0
 62
     7
 10
88.455845999999994
 20
65.062910000000002
 30
0.0
 40
0.256342
 50
2.508769
 51
87.892731999999995
  0
LINE
  5
71E
  8
0
 62
     7
 10
82.935900000000004
 20
61.486699999999999
 30
0.0
 11
74.600700000000003
 21
61.486699999999999
 31
0.0
  0
LINE
  5
71F
  8
0
 62
     7
 10
84.792800000000014
 20
69.758099999999999
 30
0.0
 11
72.743799999999993
 21
69.758099999999999
 31
0.0
  0
LINE
  5
720
  8
0
 62
     7
 10
85.3523
 20
64.941500000000005
 30
0.0
 11
85.3523
 21
61.658999999999999
 31
0.0
  0
LINE
  5
721
  8
0
 62
     7
 10
85.058099999999996
 20
77.941000000000003
 30
0.0
 11
85.058099999999996
 21
82.249099999999984
 31
0.0
  0
LINE
  5
722
  8
0
 62
     7
 10
83.290000000000006
 20
81.436000000000007
 30
0.0
 11
85.058099999999996
 21
81.909700000000001
 31
0.0
  0
LINE
  5
723
  8
0
 62
     7
 10
85.058099999999996
 20
81.909700000000001
 30
0.0
 11
83.290000000000006
 21
82.383799999999994
 31
0.0
  0
LINE
  5
724
  8
0
 62
     7
 10
83.290000000000006
 20
82.383799999999994
 30
0.0
 11
83.290000000000006
 21
81.436000000000007
 31
0.0
  0
LINE
  5
725
  8
0
 62
     7
 10
74.247299999999996
 20
82.372399999999985
 30
0.0
 11
72.479200000000006
 21
81.898399999999995
 31
0.0
  0
LINE
  5
726
  8
0
 62
     7
 10
72.479200000000006
 20
81.898399999999995
 30
0.0
 11
74.247299999999996
 21
81.424300000000002
 31
0.0
  0
LINE
  5
727
  8
0
 62
     7
 10
74.247299999999996
 20
81.424300000000002
 30
0.0
 11
74.247299999999996
 21
82.372399999999985
 31
0.0
  0
LINE
  5
728
  8
0
 62
     7
 10
85.036699999999996
 20
81.904200000000003
 30
0.0
 11
72.559200000000004
 21
81.904200000000003
 31
0.0
  0
LINE
  5
729
  8
0
 62
     7
 10
78.768000000000001
 20
57.238900000000001
 30
0.0
 11
78.768000000000001
 21
47.261200000000002
 31
0.0
  0
LINE
  5
72A
  8
0
 62
     7
 10
113.3979999999999
 20
62.786200000000001
 30
0.0
 11
114.5559999999999
 21
62.786200000000001
 31
0.0
  0
LINE
  5
72B
  8
0
 62
     7
 10
88.712599999999995
 20
62.800699999999999
 30
0.0
 11
110.5229999999999
 21
62.800699999999999
 31
0.0
  0
LINE
  5
72C
  8
0
  6
AIGENLINE001
 62
     7
 10
81.265699999999995
 20
63.300199999999997
 30
0.0
 11
116.45699999999999
 21
63.300199999999997
 31
0.0
  0
LINE
  5
72D
  8
0
 62
     7
 10
113.3979999999999
 20
63.785699999999991
 30
0.0
 11
114.5559999999999
 21
63.785699999999991
 31
0.0
  0
LINE
  5
72E
  8
0
 62
     7
 10
88.712599999999995
 20
63.799799999999991
 30
0.0
 11
110.5229999999999
 21
63.799799999999991
 31
0.0
  0
ARC
  5
72F
  8
0
 62
     7
 10
83.239758999999978
 20
61.304850000000002
 30
0.0
 40
0.35417
 50
90.787019999999984
 51
149.10000999999991
  0
LINE
  5
730
  8
0
 62
     7
 10
86.121200000000002
 20
61.443000000000012
 30
0.0
 11
86.121200000000002
 21
65.157200000000003
 31
0.0
  0
ARC
  5
731
  8
0
 62
     7
 10
83.294135999999995
 20
65.299798999999993
 30
0.0
 40
0.358543
 50
182.20471900000001
 51
267.90978799999999
  0
LINE
  5
732
  8
0
 62
     7
 10
86.121200000000002
 20
61.443000000000012
 30
0.0
 11
86.207300000000004
 21
61.356200000000001
 31
0.0
  0
LINE
  5
733
  8
0
 62
     7
 10
86.207300000000004
 20
65.241900000000001
 30
0.0
 11
86.121200000000002
 21
65.157200000000003
 31
0.0
  0
LINE
  5
734
  8
0
 62
     7
 10
83.281099999999995
 20
64.941500000000005
 30
0.0
 11
86.121200000000002
 21
64.941500000000005
 31
0.0
  0
LINE
  5
735
  8
0
 62
     7
 10
86.121200000000002
 20
61.658999999999999
 30
0.0
 11
83.234899999999996
 21
61.658999999999999
 31
0.0
  0
LINE
  5
736
  8
0
 62
     7
 10
85.700199999999995
 20
64.7393
 30
0.0
 11
86.121200000000002
 21
64.7393
 31
0.0
  0
LINE
  5
737
  8
0
 62
     7
 10
86.121200000000002
 20
61.858800000000002
 30
0.0
 11
85.700199999999995
 21
61.858800000000002
 31
0.0
  0
LINE
  5
738
  8
0
 62
     7
 10
114.5559999999999
 20
63.785699999999991
 30
0.0
 11
114.5559999999999
 21
62.786200000000001
 31
0.0
  0
ARC
  5
739
  8
0
 62
     7
 10
84.138424000000001
 20
75.700524000000001
 30
0.0
 40
1.263201
 50
152.342443
 51
179.90299899999999
  0
ARC
  5
73A
  8
0
 62
     7
 10
84.588510999999997
 20
75.491400999999996
 30
0.0
 40
1.759093
 50
131.91711599999999
 51
153.11427900000001
  0
ARC
  5
73B
  8
0
 62
     7
 10
85.055012000000005
 20
75.025190000000009
 30
0.0
 40
2.4179169999999992
 50
98.762539000000004
 51
132.7624889999999
  0
ARC
  5
73C
  8
0
 62
     7
 10
72.532145
 20
75.282172000000003
 30
0.0
 40
2.1510910000000001
 50
60.907572999999992
 51
82.505166000000003
  0
ARC
  5
73D
  8
0
 62
     7
 10
72.451975000000004
 20
75.057978000000006
 30
0.0
 40
2.386298
 50
41.047313000000003
 51
61.842871999999993
  0
ARC
  5
73E
  8
0
 62
     7
 10
72.944192000000001
 20
75.514617999999999
 30
0.0
 40
1.715347
 50
19.775463999999999
 51
40.340727999999999
  0
ARC
  5
73F
  8
0
 62
     7
 10
73.354091999999994
 20
75.68911700000001
 30
0.0
 40
1.2708369999999991
 50
0.610684
 51
18.624625000000002
  0
LINE
  5
740
  8
0
 62
     7
 10
80.267999999999986
 20
71.576800000000006
 30
0.0
 11
80.267999999999986
 21
72.976900000000001
 31
0.0
  0
LINE
  5
741
  8
0
 62
     7
 10
77.268000000000001
 20
71.576800000000006
 30
0.0
 11
77.268000000000001
 21
72.976900000000001
 31
0.0
  0
LINE
  5
742
  8
0
  6
AIGENLINE001
 62
     7
 10
78.768000000000001
 20
58.061300000000003
 30
0.0
 11
78.768000000000001
 21
78.883499999999984
 31
0.0
  0
ARC
  5
743
  8
0
 62
     7
 10
73.571942000000007
 20
70.163139999999999
 30
0.0
 40
0.526354
 50
180.58722700000001
 51
230.30881600000001
  0
ARC
  5
744
  8
0
 62
     7
 10
73.584714000000005
 20
70.137839999999997
 30
0.0
 40
0.539466
 50
92.152704999999997
 51
177.88529700000001
  0
ARC
  5
745
  8
0
 62
     7
 10
83.953493000000009
 20
70.140210999999994
 30
0.0
 40
0.537088
 50
1.8709919999999991
 51
87.862240999999997
  0
ARC
  5
746
  8
0
 62
     7
 10
83.967179999999985
 20
70.161038000000005
 30
0.0
 40
0.523125
 50
309.62571400000002
 51
359.63948299999993
  0
LINE
  5
747
  8
0
 62
     7
 10
82.935900000000004
 20
68.013499999999993
 30
0.0
 11
82.935900000000004
 21
65.286000000000001
 31
0.0
  0
ARC
  5
748
  8
0
 62
     7
 10
73.71951
 20
68.003928999999999
 30
0.0
 40
0.8812829999999999
 50
0.6226010000000001
 51
59.354366000000013
  0
ARC
  5
749
  8
0
 62
     7
 10
83.818039999999996
 20
68.003380000000007
 30
0.0
 40
0.8822399999999998
 50
120.6805539999999
 51
179.3424399999999
  0
LINE
  5
74A
  8
0
 62
     7
 10
74.600700000000003
 20
61.486699999999999
 30
0.0
 11
74.600700000000003
 21
68.013499999999993
 31
0.0
  0
LINE
  5
74B
  8
0
 62
     7
 10
85.700199999999995
 20
61.858800000000002
 30
0.0
 11
85.3523
 21
61.658999999999999
 31
0.0
  0
LINE
  5
74C
  8
0
 62
     7
 10
82.529300000000006
 20
59.758000000000003
 30
0.0
 11
82.529300000000006
 21
60.9679
 31
0.0
  0
LINE
  5
74D
  8
0
 62
     7
 10
74.773700000000005
 20
59.992199999999997
 30
0.0
 11
82.762900000000016
 21
59.992199999999997
 31
0.0
  0
LINE
  5
74E
  8
0
 62
     7
 10
84.792800000000014
 20
69.584500000000006
 30
0.0
 11
83.367900000000006
 21
68.762100000000004
 31
0.0
  0
LINE
  5
74F
  8
0
 62
     7
 10
84.792800000000014
 20
69.584500000000006
 30
0.0
 11
84.792800000000014
 21
69.758099999999999
 31
0.0
  0
LINE
  5
750
  8
0
 62
     7
 10
82.762900000000016
 20
60.9679
 30
0.0
 11
74.816400000000002
 21
60.9679
 31
0.0
  0
LINE
  5
751
  8
0
 62
     7
 10
82.719499999999996
 20
60.9679
 30
0.0
 11
82.719499999999996
 21
61.486699999999999
 31
0.0
  0
LINE
  5
752
  8
0
 62
     7
 10
74.816400000000002
 20
60.9679
 30
0.0
 11
74.816400000000002
 21
61.486699999999999
 31
0.0
  0
LINE
  5
753
  8
0
 62
     7
 10
74.773700000000005
 20
59.992199999999997
 30
0.0
 11
75.007999999999996
 21
59.758000000000003
 31
0.0
  0
LINE
  5
754
  8
0
 62
     7
 10
82.762900000000016
 20
59.992199999999997
 30
0.0
 11
82.529300000000006
 21
59.758000000000003
 31
0.0
  0
LINE
  5
755
  8
0
 62
     7
 10
82.762900000000016
 20
60.9679
 30
0.0
 11
82.762900000000016
 21
59.992199999999997
 31
0.0
  0
LINE
  5
756
  8
0
 62
     7
 10
74.773700000000005
 20
59.992199999999997
 30
0.0
 11
74.773700000000005
 21
60.9679
 31
0.0
  0
LINE
  5
757
  8
0
 62
     7
 10
82.529300000000006
 20
59.758000000000003
 30
0.0
 11
75.007999999999996
 21
59.758000000000003
 31
0.0
  0
LINE
  5
758
  8
0
 62
     7
 10
72.743799999999993
 20
69.584500000000006
 30
0.0
 11
74.168700000000001
 21
68.762100000000004
 31
0.0
  0
LINE
  5
759
  8
0
 62
     7
 10
72.743799999999993
 20
69.584500000000006
 30
0.0
 11
72.743799999999993
 21
69.758099999999999
 31
0.0
  0
LINE
  5
75A
  8
0
 62
     7
 10
114.727
 20
62.957799999999999
 30
0.0
 11
114.5559999999999
 21
62.786200000000001
 31
0.0
  0
LINE
  5
75B
  8
0
 62
     7
 10
114.5559999999999
 20
63.785699999999991
 30
0.0
 11
114.727
 21
63.611699999999999
 31
0.0
  0
LINE
  5
75C
  8
0
 62
     7
 10
114.727
 20
62.957799999999999
 30
0.0
 11
114.727
 21
63.611699999999999
 31
0.0
  0
LINE
  5
75D
  8
0
 62
     7
 10
75.007999999999996
 20
59.758000000000003
 30
0.0
 11
75.007999999999996
 21
60.9679
 31
0.0
  0
LINE
  5
75E
  8
0
 62
     7
 10
77.768199999999993
 20
73.476799999999997
 30
0.0
 11
79.768100000000004
 21
73.476799999999997
 31
0.0
  0
LINE
  5
75F
  8
0
 62
     7
 10
77.768199999999993
 20
71.076899999999995
 30
0.0
 11
79.768100000000004
 21
71.076899999999995
 31
0.0
  0
LINE
  5
760
  8
0
 62
     7
 10
73.564499999999995
 20
70.676900000000003
 30
0.0
 11
83.973500000000016
 21
70.676900000000003
 31
0.0
  0
LINE
  5
761
  8
0
 62
     7
 10
85.700199999999995
 20
61.658999999999999
 30
0.0
 11
85.700199999999995
 21
64.941500000000005
 31
0.0
  0
LINE
  5
762
  8
0
 62
     7
 10
85.3523
 20
64.941500000000005
 30
0.0
 11
85.700199999999995
 21
64.7393
 31
0.0
  0
LINE
  5
763
  8
0
 62
     7
 10
86.812299999999993
 20
65.241900000000001
 30
0.0
 11
86.207300000000004
 21
65.241900000000001
 31
0.0
  0
TEXT
  5
764
  8
_________2
 62
     7
 10
24.586400000000001
 20
0.707627
 30
0.0
 40
3.9357000000000002
  1
（社）日本水道協会認証品
 41
0.5
  0
TEXT
  5
765
  8
_________2
 62
     7
 10
109.179
 20
24.226099999999999
 30
0.0
 40
3.9357000000000002
  1
パンプラス 湯水混合水栓
 41
0.5
  0
LINE
  5
766
  8
_________2
 62
     7
 10
205.30099999999999
 20
127.411
 30
0.0
 11
183.55099999999999
 21
127.411
 31
0.0
  0
LINE
  5
767
  8
_________2
 62
     7
 10
100.2999999999999
 20
-4.0910799999999998
 30
0.0
 11
100.2999999999999
 21
-21.070999999999991
 31
0.0
  0
LINE
  5
768
  8
_________2
 62
     7
 10
100.2999999999999
 20
275.93099999999993
 30
0.0
 11
100.2999999999999
 21
258.911
 31
0.0
  0
LINE
  5
769
  8
_________2
 62
     7
 10
17.049199999999988
 20
127.411
 30
0.0
 11
-4.7012099999999988
 21
127.411
 31
0.0
  0
LINE
  5
76A
  8
_________2
 62
     7
 10
76.740700000000004
 20
29.8047
 30
0.0
 11
74.554400000000001
 21
29.8047
 31
0.0
  0
LINE
  5
76B
  8
_________2
 62
     7
 10
77.2333
 20
29.8047
 30
0.0
 11
76.981099999999984
 21
29.8047
 31
0.0
  0
LINE
  5
76C
  8
_________2
 62
     7
 10
77.725999999999999
 20
29.8047
 30
0.0
 11
80.650899999999993
 21
29.8047
 31
0.0
  0
LINE
  5
76D
  8
_________2
 62
     7
 10
77.2333
 20
29.8047
 30
0.0
 11
77.485500000000002
 21
29.8047
 31
0.0
  0
LINE
  5
76E
  8
_________2
 62
     7
 10
70.837100000000007
 20
29.8047
 30
0.0
 11
68.650199999999998
 21
29.8047
 31
0.0
  0
LINE
  5
76F
  8
_________2
 62
     7
 10
71.329099999999997
 20
29.8047
 30
0.0
 11
71.077600000000004
 21
29.8047
 31
0.0
  0
LINE
  5
770
  8
_________2
 62
     7
 10
71.329099999999997
 20
30.2974
 30
0.0
 11
71.329099999999997
 21
32.484400000000001
 31
0.0
  0
LINE
  5
771
  8
_________2
 62
     7
 10
71.329099999999997
 20
29.8047
 30
0.0
 11
71.329099999999997
 21
30.057300000000001
 31
0.0
  0
LINE
  5
772
  8
_________2
 62
     7
 10
71.821700000000007
 20
29.8047
 30
0.0
 11
74.008700000000005
 21
29.8047
 31
0.0
  0
LINE
  5
773
  8
_________2
 62
     7
 10
71.329099999999997
 20
29.8047
 30
0.0
 11
71.581299999999985
 21
29.8047
 31
0.0
  0
LINE
  5
774
  8
_________2
 62
     7
 10
71.329099999999997
 20
29.312799999999999
 30
0.0
 11
71.329099999999997
 21
27.126200000000001
 31
0.0
  0
LINE
  5
775
  8
_________2
 62
     7
 10
71.329099999999997
 20
29.8047
 30
0.0
 11
71.329099999999997
 21
29.5532
 31
0.0
  0
LINE
  5
776
  8
_________2
 62
     7
 10
75.040199999999999
 20
28.5852
 30
0.0
 11
80.218199999999996
 21
27.720400000000001
 31
0.0
  0
LINE
  5
777
  8
_________2
 62
     7
 10
75.040199999999999
 20
31.024699999999999
 30
0.0
 11
80.218199999999996
 21
31.8901
 31
0.0
  0
LINE
  5
778
  8
_________2
 62
     7
 10
80.218199999999996
 20
27.720400000000001
 30
0.0
 11
80.218199999999996
 21
31.8901
 31
0.0
  0
LINE
  5
779
  8
_________2
 62
     7
 10
75.040199999999999
 20
28.5852
 30
0.0
 11
75.040199999999999
 21
31.024699999999999
 31
0.0
  0
ARC
  5
77A
  8
_________2
 62
     7
 10
71.282501999999994
 20
29.757801000000001
 30
0.0
 40
1.267714
 50
2.1220840000000001
 51
87.894083999999992
  0
ARC
  5
77B
  8
_________2
 62
     7
 10
71.375640000000004
 20
29.758545999999999
 30
0.0
 40
1.2669680000000001
 50
92.105782999999988
 51
177.91037
  0
ARC
  5
77C
  8
_________2
 62
     7
 10
71.376013999999998
 20
29.851671
 30
0.0
 40
1.2673680000000001
 50
182.12203600000001
 51
267.877993
  0
ARC
  5
77D
  8
_________2
 62
     7
 10
71.282195999999999
 20
29.852347999999999
 30
0.0
 40
1.2680439999999991
 50
272.11916400000001
 51
357.84848499999993
  0
ARC
  5
77E
  8
_________2
 62
     7
 10
71.248716999999985
 20
29.724731999999989
 30
0.0
 40
2.1668310000000002
 50
2.1161439999999989
 51
87.874379000000005
  0
ARC
  5
77F
  8
_________2
 62
     7
 10
71.408756000000011
 20
29.726146
 30
0.0
 40
2.165392999999999
 50
92.108508999999998
 51
177.91986499999999
  0
ARC
  5
780
  8
_________2
 62
     7
 10
71.409094999999994
 20
29.884751999999999
 30
0.0
 40
2.1657829999999998
 50
182.117133
 51
267.88289700000001
  0
ARC
  5
781
  8
_________2
 62
     7
 10
71.249115000000003
 20
29.885429999999989
 30
0.0
 40
2.1664590000000001
 50
272.11546800000002
 51
357.86560400000002
  0
TEXT
  5
782
  8
_________2
 62
     7
 10
104.605
 20
1.6794899999999999
 30
0.0
 40
3.0923400000000001
  1
図番
 41
0.5
  0
LINE
  5
783
  8
_________2
 62
     7
 10
103.55
 20
5.9087199999999989
 30
0.0
 11
183.55099999999999
 21
5.9087199999999989
 31
0.0
  0
TEXT
  5
784
  8
_________2
 62
     7
 10
104.605
 20
11.679299999999991
 30
0.0
 40
3.0923400000000001
  1
品番
 41
0.5
  0
TEXT
  5
785
  8
_________2
 62
     7
 10
104.605
 20
31.8184
 30
0.0
 40
3.0923400000000001
  1
名称
 41
0.5
  0
TEXT
  5
786
  8
_________2
 62
     7
 10
91.844758333333345
 20
26.822299999999998
 30
0.0
 40
3.6545800000000002
  1
mm
 41
0.5
 72
     1
 11
93.367500000000007
 21
26.822299999999998
 31
0.0
  0
TEXT
  5
787
  8
_________2
 62
     7
 10
85.642899999999983
 20
31.8184
 30
0.0
 40
3.0923400000000001
  1
単位
 41
0.5
  0
TEXT
  5
788
  8
_________2
 62
     7
 10
85.642899999999983
 20
19.410799999999991
 30
0.0
 40
3.0923400000000001
  1
尺度
 41
0.5
  0
TEXT
  5
789
  8
_________2
 62
     7
 10
90.548458666666676
 20
13.218199999999991
 30
0.0
 40
3.6545800000000002
  1
1 ： 4
 41
0.5
 72
     1
 11
93.959400000000016
 21
13.218199999999991
 31
0.0
  0
TEXT
  5
78A
  8
_________2
 62
     7
 10
138.30240000000001
 20
9.1082000000000001
 30
0.0
 40
3.9357000000000002
  1
ZU8214
 41
0.5
 72
     1
 11
143.55000000000001
 21
9.1082000000000001
 31
0.0
  0
TEXT
  5
78B
  8
_________2
 62
     7
 10
138.30240000000001
 20
-0.8926299999999999
 30
0.0
 40
3.9357000000000002
  1
ZU8214
 41
0.5
 72
     1
 11
143.55000000000001
 21
-0.8926299999999999
 31
0.0
  0
TEXT
  5
78C
  8
_________2
 62
     7
 10
39.42500033333333
 20
13.603400000000001
 30
0.0
 40
3.6545800000000002
  1
早川
 41
0.5
 72
     1
 11
41.313200000000002
 21
13.603400000000001
 31
0.0
  0
TEXT
  5
78D
  8
_________2
 62
     7
 10
20.790090666666661
 20
13.603400000000001
 30
0.0
 40
3.6545800000000002
  1
菅原
 41
0.5
 72
     1
 11
22.73919999999999
 21
13.603400000000001
 31
0.0
  0
TEXT
  5
78E
  8
_________2
 62
     7
 10
67.785399999999996
 20
13.218199999999991
 30
0.0
 40
3.6545800000000002
  1
14.01.14
 41
0.5
  0
TEXT
  5
78F
  8
_________2
 62
     7
 10
66.592699999999994
 20
19.410799999999991
 30
0.0
 40
3.0923400000000001
  1
日付
 41
0.5
  0
TEXT
  5
790
  8
_________2
 62
     7
 10
29.638999999999999
 20
19.410799999999991
 30
0.0
 40
3.0923400000000001
  1
検図
 41
0.5
  0
TEXT
  5
791
  8
_________2
 62
     7
 10
18.020700000000001
 20
5.21143
 30
0.0
 40
3.0923400000000001
  1
備考
 41
0.5
  0
TEXT
  5
792
  8
_________2
 62
     7
 10
18.020700000000001
 20
19.410799999999991
 30
0.0
 40
3.0923400000000001
  1
製図
 41
0.5
  0
TEXT
  5
793
  8
_________2
 62
     7
 10
23.788165333333328
 20
27.936800000000002
 30
0.0
 40
4.4979399999999989
  1
セラトレーディング株式会社
 41
0.5
 72
     1
 11
41.180199999999999
 21
27.936800000000002
 31
0.0
  0
LINE
  5
794
  8
_________2
 62
     7
 10
183.55099999999999
 20
-4.0910799999999998
 30
0.0
 11
17.049199999999988
 21
-4.0910799999999998
 31
0.0
  0
LINE
  5
795
  8
_________2
 62
     7
 10
17.049199999999988
 20
-4.0910799999999998
 30
0.0
 11
17.049199999999988
 21
258.911
 31
0.0
  0
LINE
  5
796
  8
_________2
 62
     7
 10
17.049199999999988
 20
258.911
 30
0.0
 11
183.55099999999999
 21
258.911
 31
0.0
  0
LINE
  5
797
  8
_________2
 62
     7
 10
183.55099999999999
 20
258.911
 30
0.0
 11
183.55099999999999
 21
-4.0910799999999998
 31
0.0
  0
LINE
  5
798
  8
_________2
 62
     7
 10
65.549599999999998
 20
9.4092999999999982
 30
0.0
 11
65.549599999999998
 21
35.909100000000002
 31
0.0
  0
LINE
  5
799
  8
_________2
 62
     7
 10
84.549400000000006
 20
9.4092999999999982
 30
0.0
 11
84.549400000000006
 21
35.909100000000002
 31
0.0
  0
LINE
  5
79A
  8
_________2
 62
     7
 10
103.55
 20
-4.0910799999999998
 30
0.0
 11
103.55
 21
35.909100000000002
 31
0.0
  0
LINE
  5
79B
  8
_________2
 62
     7
 10
28.548999999999999
 20
9.4092999999999982
 30
0.0
 11
28.548999999999999
 21
23.409199999999998
 31
0.0
  0
LINE
  5
79C
  8
_________2
 62
     7
 10
17.049199999999988
 20
9.4092999999999982
 30
0.0
 11
103.55
 21
9.4092999999999982
 31
0.0
  0
LINE
  5
79D
  8
_________2
 62
     7
 10
17.049199999999988
 20
23.409199999999998
 30
0.0
 11
103.55
 21
23.409199999999998
 31
0.0
  0
LINE
  5
79E
  8
_________2
 62
     7
 10
103.55
 20
15.9085
 30
0.0
 11
183.55099999999999
 21
15.9085
 31
0.0
  0
LINE
  5
79F
  8
_________2
 62
     7
 10
17.049199999999988
 20
35.909100000000002
 30
0.0
 11
183.55099999999999
 21
35.909100000000002
 31
0.0
  0
ENDSEC
  0
EOF
