  0
SECTION
  2
HEADER
  9
$ACADVER
  1
AC1015
  9
$ACADMAINTVER
 70
     6
  9
$DWGCODEPAGE
  3
ANSI_932
  9
$INSBASE
 10
0.0
 20
0.0
 30
0.0
  9
$EXTMIN
 10
23.283333
 20
26.811111
 30
1.000000E+20
  9
$EXTMAX
 10
198.966667
 20
276.930556
 30
-1.000000E+20
  9
$LIMMIN
 10
23.283333
 20
26.811111
  9
$LIMMAX
 10
198.966667
 20
276.930556
  9
$ORTHOMODE
 70
     0
  9
$REGENMODE
 70
     1
  9
$FILLMODE
 70
     1
  9
$QTEXTMODE
 70
     0
  9
$MIRRTEXT
 70
     1
  9
$LTSCALE
 40
1.0
  9
$ATTMODE
 70
     1
  9
$TEXTSIZE
 40
0.2
  9
$TRACEWID
 40
0.05
  9
$TEXTSTYLE
  7
Standard
  9
$CLAYER
  8
0
  9
$CELTYPE
  6
Continuous
  9
$CECOLOR
 62
   256
  9
$CELTSCALE
 40
1.0
  9
$DISPSILH
 70
     0
  9
$DIMSCALE
 40
1.0
  9
$DIMASZ
 40
0.18
  9
$DIMEXO
 40
0.0625
  9
$DIMDLI
 40
0.38
  9
$DIMRND
 40
0.0
  9
$DIMDLE
 40
0.0
  9
$DIMEXE
 40
0.18
  9
$DIMTP
 40
0.0
  9
$DIMTM
 40
0.0
  9
$DIMTXT
 40
0.18
  9
$DIMCEN
 40
0.09
  9
$DIMTSZ
 40
0.0
  9
$DIMTOL
 70
     0
  9
$DIMLIM
 70
     0
  9
$DIMTIH
 70
     1
  9
$DIMTOH
 70
     1
  9
$DIMSE1
 70
     0
  9
$DIMSE2
 70
     0
  9
$DIMTAD
 70
     0
  9
$DIMZIN
 70
     0
  9
$DIMBLK
  1

  9
$DIMASO
 70
     1
  9
$DIMSHO
 70
     1
  9
$DIMPOST
  1

  9
$DIMAPOST
  1

  9
$DIMALT
 70
     0
  9
$DIMALTD
 70
     2
  9
$DIMALTF
 40
25.4
  9
$DIMLFAC
 40
1.0
  9
$DIMTOFL
 70
     0
  9
$DIMTVP
 40
0.0
  9
$DIMTIX
 70
     0
  9
$DIMSOXD
 70
     0
  9
$DIMSAH
 70
     0
  9
$DIMBLK1
  1

  9
$DIMBLK2
  1

  9
$DIMSTYLE
  2
Standard
  9
$DIMCLRD
 70
     0
  9
$DIMCLRE
 70
     0
  9
$DIMCLRT
 70
     0
  9
$DIMTFAC
 40
1.0
  9
$DIMGAP
 40
0.09
  9
$DIMJUST
 70
     0
  9
$DIMSD1
 70
     0
  9
$DIMSD2
 70
     0
  9
$DIMTOLJ
 70
     1
  9
$DIMTZIN
 70
     0
  9
$DIMALTZ
 70
     0
  9
$DIMALTTZ
 70
     0
  9
$DIMUPT
 70
     0
  9
$DIMDEC
 70
     4
  9
$DIMTDEC
 70
     4
  9
$DIMALTU
 70
     2
  9
$DIMALTTD
 70
     2
  9
$DIMTXSTY
  7
Standard
  9
$DIMAUNIT
 70
     0
  9
$DIMADEC
 70
     0
  9
$DIMALTRND
 40
0.0
  9
$DIMAZIN
 70
     0
  9
$DIMDSEP
 70
     0
  9
$DIMATFIT
 70
     3
  9
$DIMFRAC
 70
     0
  9
$DIMLDRBLK
  1

  9
$DIMLUNIT
 70
     2
  9
$DIMLWD
 70
     0
  9
$DIMLWE
 70
     0
  9
$DIMTMOVE
 70
     0
  9
$LUNITS
 70
     2
  9
$LUPREC
 70
     4
  9
$SKETCHINC
 40
0.1
  9
$FILLETRAD
 40
0.0
  9
$AUNITS
 70
     0
  9
$AUPREC
 70
     0
  9
$MENU
  1
acad
  9
$ELEVATION
 40
0.0
  9
$PELEVATION
 40
0.0
  9
$THICKNESS
 40
0.0
  9
$LIMCHECK
 70
     0
  9
$CHAMFERA
 40
0.0
  9
$CHAMFERB
 40
0.0
  9
$CHAMFERC
 40
0.0
  9
$CHAMFERD
 40
0.0
  9
$SKPOLY
 70
     0
  9
$TDCREATE
 40
0.000000000
  9
$TDUCREATE
 40
0.000000000
  9
$TDUPDATE
 40
0.000000000
  9
$TDUUPDATE
 40
0.000000000
  9
$TDINDWG
 40
0.0000000000
  9
$TDUSRTIMER
 40
0.0000000000
  9
$USRTIMER
 70
     1
  9
$ANGBASE
 50
0.0
  9
$ANGDIR
 70
     0
  9
$PDMODE
 70
     0
  9
$PDSIZE
 40
0.0
  9
$PLINEWID
 40
0.0
  9
$SPLFRAME
 70
     0
  9
$SPLINETYPE
 70
     6
  9
$SPLINESEGS
 70
     8
  9
$HANDSEED
  5
126
  9
$SURFTAB1
 70
     6
  9
$SURFTAB2
 70
     6
  9
$SURFTYPE
 70
     6
  9
$SURFU
 70
     6
  9
$SURFV
 70
     6
  9
$UCSBASE
  2

  9
$UCSNAME
  2

  9
$UCSORG
 10
0.0
 20
0.0
 30
0.0
  9
$UCSXDIR
 10
1.0
 20
0.0
 30
0.0
  9
$UCSYDIR
 10
0.0
 20
1.0
 30
0.0
  9
$UCSORTHOREF
  2

  9
$UCSORTHOVIEW
 70
     0
  9
$UCSORGTOP
 10
0.0
 20
0.0
 30
0.0
  9
$UCSORGBOTTOM
 10
0.0
 20
0.0
 30
0.0
  9
$UCSORGLEFT
 10
0.0
 20
0.0
 30
0.0
  9
$UCSORGRIGHT
 10
0.0
 20
0.0
 30
0.0
  9
$UCSORGFRONT
 10
0.0
 20
0.0
 30
0.0
  9
$UCSORGBACK
 10
0.0
 20
0.0
 30
0.0
  9
$PUCSBASE
  2

  9
$PUCSNAME
  2

  9
$PUCSORG
 10
0.0
 20
0.0
 30
0.0
  9
$PUCSXDIR
 10
1.0
 20
0.0
 30
0.0
  9
$PUCSYDIR
 10
0.0
 20
1.0
 30
0.0
  9
$PUCSORTHOREF
  2

  9
$PUCSORTHOVIEW
 70
     0
  9
$PUCSORGTOP
 10
0.0
 20
0.0
 30
0.0
  9
$PUCSORGBOTTOM
 10
0.0
 20
0.0
 30
0.0
  9
$PUCSORGLEFT
 10
0.0
 20
0.0
 30
0.0
  9
$PUCSORGRIGHT
 10
0.0
 20
0.0
 30
0.0
  9
$PUCSORGFRONT
 10
0.0
 20
0.0
 30
0.0
  9
$PUCSORGBACK
 10
0.0
 20
0.0
 30
0.0
  9
$USERI1
 70
     0
  9
$USERI2
 70
     0
  9
$USERI3
 70
     0
  9
$USERI4
 70
     0
  9
$USERI5
 70
     0
  9
$USERR1
 40
0.0
  9
$USERR2
 40
0.0
  9
$USERR3
 40
0.0
  9
$USERR4
 40
0.0
  9
$USERR5
 40
0.0
  9
$WORLDVIEW
 70
     1
  9
$SHADEDGE
 70
     3
  9
$SHADEDIF
 70
    70
  9
$TILEMODE
 70
     1
  9
$MAXACTVP
 70
    16
  9
$PINSBASE
 10
0.0
 20
0.0
 30
0.0
  9
$PLIMCHECK
 70
     0
  9
$PEXTMIN
 10
1.000000E+20
 20
1.000000E+20
 30
1.000000E+20
  9
$PEXTMAX
 10
-1.000000E+20
 20
-1.000000E+20
 30
-1.000000E+20
  9
$PLIMMIN
 10
0.0
 20
0.0
  9
$PLIMMAX
 10
12.0
 20
9.0
  9
$UNITMODE
 70
     0
  9
$VISRETAIN
 70
     0
  9
$PLINEGEN
 70
     1
  9
$PSLTSCALE
 70
     0
  9
$TREEDEPTH
 70
  3020
  9
$CMLSTYLE
  2
Standard
  9
$CMLJUST
 70
     0
  9
$CMLSCALE
 40
1.0
  9
$PROXYGRAPHICS
 70
     0
  9
$MEASUREMENT
 70
     1
  9
$CELWEIGHT
370
     0
  9
$ENDCAPS
280
     0
  9
$JOINSTYLE
280
     0
  9
$LWDISPLAY
290
     0
  9
$INSUNITS
 70
     0
  9
$HYPERLINKBASE
  1

  9
$STYLESHEET
  1

  9
$XEDIT
290
     1
  9
$CEPSNTYPE
380
     0
  9
$PSTYLEMODE
290
     1
  9
$FINGERPRINTGUID
  2

  9
$VERSIONGUID
  2

  9
$EXTNAMES
290
     1
  9
$PSVPSCALE
 40
0.0
  0
ENDSEC
  0
SECTION
  2
CLASSES
  0
CLASS
  1
LWPOLYLINE
  2
AcDbPolyline
  3
AutoCAD 2000
 90
    32768
280
     0
281
     1
  0
CLASS
  1
IMAGE
  2
AcDbRasterImage
  3
ISM
 90
      127
280
     0
281
     1
  0
CLASS
  1
OLE2FRAME
  2
AcDbOle2Frame
  3
AutoCAD 2000
 90
    32768
280
     0
281
     1
  0
CLASS
  1
HATCH
  2
AcDbHatch
  3
AutoCAD 2000
 90
    32768
280
     0
281
     1
  0
CLASS
  1
DICTIONARYVAR
  2
AcDbDictionaryVar
  3
AutoCAD 2000
 90
    32768
280
     0
281
     0
  0
CLASS
  1
RASTERVARIABLES
  2
AcDbRasterVariables
  3
ISM
 90
    32768
280
     0
281
     0
  0
CLASS
  1
IMAGEDEF
  2
AcDbRasterImageDef
  3
ISM
 90
        0
280
     0
281
     0
  0
CLASS
  1
IMAGEDEF_REACTOR
  2
AcDbRasterImageDefReactor
  3
ISM
 90
        1
280
     0
281
     0
  0
CLASS
  1
IDBUFFER
  2
AcDbIdBuffer
  3
AutoCAD 2000
 90
    32768
280
     0
281
     0
  0
CLASS
  1
SPATIAL_FILTER
  2
AcDbSpatialFilter
  3
AutoCAD 2000
 90
    32768
280
     0
281
     0
  0
CLASS
  1
XRECORD
  2
AcDbXrecord
  3
AutoCAD 2000
 90
    32768
280
     0
281
     0
  0
CLASS
  1
SORTENTSTABLE
  2
AcDbSortentsTable
  3
AutoCAD 2000
 90
    32768
280
     0
281
     0
  0
CLASS
  1
LAYER_INDEX
  2
AcDbLayerIndex
  3
AutoCAD 2000
 90
    32768
280
     0
281
     0
  0
CLASS
  1
SPATIAL_INDEX
  2
AcDbSpatialIndex
  3
AutoCAD 2000
 90
    32768
280
     0
281
     0
  0
CLASS
  1
OBJECT_PTR
  2
CAseDLPNTableRecord
  3
"ASE-LPNTableRecord"
 90
    32769
280
     0
281
     0
  0
CLASS
  1
LAYOUT
  2
AcDbLayout
  3
AutoCAD 2000
 90
        0
280
     0
281
     0
  0
CLASS
  1
PLOTSETTINGS
  2
AcDbPlotSettings
  3
AutoCAD 2000
 90
    32768
280
     0
281
     0
  0
CLASS
  1
ACDBDICTIONARYWDFLT
  2
AcDbDictionaryWithDefault
  3
AutoCAD 2000
 90
        0
280
     0
281
     0
  0
CLASS
  1
ACDBPLACEHOLDER
  2
AcDbPlaceHolder
  3
AutoCAD 2000
 90
        0
280
     0
281
     0
  0
CLASS
  1
VBA_PROJECT
  2
AcDbVbaProject
  3
acadvba
 90
    32768
280
     0
281
     0
  0
CLASS
  1
WIPEOUT
  2
AcDbWipeout
  3
WipeOut|AutoCAD Express Tool|expresstools@autodesk.com
 90
    32895
280
     0
281
     1
  0
CLASS
  1
WIPEOUTVARIABLES
  2
AcDbWipeoutVariables
  3
WipeOut|AutoCAD Express Tool|expresstools@autodesk.com
 90
        0
280
     0
281
     0
  0
CLASS
  1
RTEXT
  2
RText
  3
RText|AutoCAD Express Tool|expresstools@autodesk.com
 90
    32768
280
     0
281
     1
  0
CLASS
  1
ARCALIGNEDTEXT
  2
AcDbArcAlignedText
  3
ATEXT|AutoCAD Express Tool|expresstools@autodesk.com
 90
    32768
280
     0
281
     1
  0
ENDSEC
  0
SECTION
  2
TABLES
  0
TABLE
  2
VPORT
  5
7
100
AcDbSymbolTable
 70
     1
  0
VPORT
  5
15
100
AcDbSymbolTableRecord
100
AcDbViewportTableRecord
  2
*ACTIVE
 70
     0
 10
0.0
 20
0.0
 11
1.0
 21
1.0
 12
6.591288
 22
4.579184
 13
0.0
 23
0.0
 14
1.0
 24
1.0
 15
0.0
 25
0.0
 16
0.0
 26
0.0
 36
1.0
 17
0.0
 27
0.0
 37
0.0
 40
9.158369
 41
0.688564
 42
50.0
 43
0.0
 44
0.0
 50
0.0
 51
0.0
 71
     0
 72
   100
 73
     1
 74
     1
 75
     0
 76
     0
 77
     0
 78
     0
281
     0
 65
     0
110
0.0
120
0.0
130
0.0
111
1.0
121
0.0
131
0.0
112
0.0
122
1.0
132
0.0
345
0
346
0
 79
     0
146
0.0
  0
ENDTAB
  0
TABLE
  2
LTYPE
  5
4
100
AcDbSymbolTable
 70
     4
  0
LTYPE
  5
11
100
AcDbSymbolTableRecord
100
AcDbLinetypeTableRecord
  2
ByBlock
 70
    64
  3

 72
    65
 73
     0
 40
0.0
  0
LTYPE
  5
12
100
AcDbSymbolTableRecord
100
AcDbLinetypeTableRecord
  2
ByLayer
 70
    64
  3

 72
    65
 73
     0
 40
0.0
  0
LTYPE
  5
13
100
AcDbSymbolTableRecord
100
AcDbLinetypeTableRecord
  2
Continuous
 70
    64
  3
Solid line
 72
    65
 73
     0
 40
0.0
  0
LTYPE
  5
109
100
AcDbSymbolTableRecord
100
AcDbLinetypeTableRecord
  2
AI9-LType1
 70
    64
  3
Illustrator Dash Style No.1
 72
    65
 73
     4
 40
18.071712
 49
7.857243
 74
     0
 49
-3.928639
 74
     0
 49
2.357191
 74
     0
 49
-3.928639
 74
     0
  0
ENDTAB
  0
TABLE
  2
LAYER
  5
2
100
AcDbSymbolTable
 70
     2
  0
LAYER
  5
14
100
AcDbSymbolTableRecord
100
AcDbLayerTableRecord
  2
0
 70
     0
 62
     7
  6
Continuous
290
     1
370
    -3
390
1D
  0
LAYER
  5
28
100
AcDbSymbolTableRecord
100
AcDbLayerTableRecord
  2
レイヤー_1
 70
     0
 62
   160
  6
Continuous
290
     1
370
    -3
390
1D
  0
ENDTAB
  0
TABLE
  2
STYLE
  5
3
100
AcDbSymbolTable
 70
     5
  0
STYLE
  5
17
100
AcDbSymbolTableRecord
100
AcDbTextStyleTableRecord
  2
Standard
 70
     0
 40
0.0
 41
1.0
 50
0.0
 71
     0
 42
0.0
  3
txt
  4

  0
STYLE
  5
24
100
AcDbSymbolTableRecord
100
AcDbTextStyleTableRecord
  2
STD
 70
     0
 40
0.0
 41
1.0
 50
0.0
 71
     0
 42
0.0
  3
txt
  4

  0
STYLE
  5
25
100
AcDbSymbolTableRecord
100
AcDbTextStyleTableRecord
  2
TATESTD
 70
     4
 40
0.0
 41
1.0
 50
0.0
 71
     0
 42
0.0
  3
txt
  4

  0
STYLE
  5
26
100
AcDbSymbolTableRecord
100
AcDbTextStyleTableRecord
  2
KANJISTD
 70
     0
 40
0.0
 41
1.0
 50
0.0
 71
     0
 42
0.0
  3
txt
  4
extfont
  0
STYLE
  5
27
100
AcDbSymbolTableRecord
100
AcDbTextStyleTableRecord
  2
KANJITATE
 70
     4
 40
0.0
 41
1.0
 50
0.0
 71
     0
 42
0.0
  3
txt
  4
extfont
  0
ENDTAB
  0
TABLE
  2
VIEW
  5
5
100
AcDbSymbolTable
 70
     0
  0
ENDTAB
  0
TABLE
  2
UCS
  5
6
100
AcDbSymbolTable
 70
     0
  0
ENDTAB
  0
TABLE
  2
APPID
  5
8
100
AcDbSymbolTable
 70
     1
  0
APPID
  5
16
100
AcDbSymbolTableRecord
100
AcDbRegAppTableRecord
  2
ACAD
 70
     0
  0
ENDTAB
  0
TABLE
  2
DIMSTYLE
  5
9
100
AcDbSymbolTable
 70
     1
100
AcDbDimStyleTable
 71
     0
  0
DIMSTYLE
105
18
100
AcDbSymbolTableRecord
100
AcDbDimStyleTableRecord
  2
Standard
 70
     0
  3

  4

 40
1.0
 41
0.18
 42
0.0625
 43
0.38
 44
0.18
 45
0.0
 46
0.0
 47
0.0
 48
0.0
 71
     0
 72
     0
 73
     1
 74
     1
 75
     0
 76
     0
 77
     0
 78
     0
 79
     0
140
0.18
141
0.09
142
0.0
143
25.4
144
1.0
145
0.0
146
1.0
147
0.09
148
0.0
170
     0
171
     2
172
     0
173
     0
174
     0
175
     0
176
     0
177
     0
178
     0
179
     0
271
     4
272
     4
273
     2
274
     2
275
     0
276
     0
277
     2
278
    46
279
     0
280
     0
281
     0
282
     0
283
     1
284
     0
285
     0
286
     0
288
     0
340
17
341
0
342
0
343
0
344
0
371
    -2
372
    -2
  0
ENDTAB
  0
TABLE
  2
BLOCK_RECORD
  5
1
100
AcDbSymbolTable
 70
    14
  0
BLOCK_RECORD
  5
A
100
AcDbSymbolTableRecord
100
AcDbBlockTableRecord
  2
*MODEL_SPACE
340
20
  0
BLOCK_RECORD
  5
B
100
AcDbSymbolTableRecord
100
AcDbBlockTableRecord
  2
*PAPER_SPACE
340
21
  0
BLOCK_RECORD
  5
30
100
AcDbSymbolTableRecord
100
AcDbBlockTableRecord
  2
AI9-BLK1
340
0
102
{BLKREFS
331
31
102
}
  0
BLOCK_RECORD
  5
37
100
AcDbSymbolTableRecord
100
AcDbBlockTableRecord
  2
AI9-BLK2
340
0
102
{BLKREFS
331
38
102
}
  0
BLOCK_RECORD
  5
44
100
AcDbSymbolTableRecord
100
AcDbBlockTableRecord
  2
AI9-BLK3
340
0
102
{BLKREFS
331
45
102
}
  0
BLOCK_RECORD
  5
4A
100
AcDbSymbolTableRecord
100
AcDbBlockTableRecord
  2
AI9-BLK4
340
0
102
{BLKREFS
331
4B
102
}
  0
BLOCK_RECORD
  5
52
100
AcDbSymbolTableRecord
100
AcDbBlockTableRecord
  2
AI9-BLK5
340
0
102
{BLKREFS
331
53
102
}
  0
BLOCK_RECORD
  5
59
100
AcDbSymbolTableRecord
100
AcDbBlockTableRecord
  2
AI9-BLK6
340
0
102
{BLKREFS
331
5A
102
}
  0
BLOCK_RECORD
  5
74
100
AcDbSymbolTableRecord
100
AcDbBlockTableRecord
  2
AI9-BLK7
340
0
102
{BLKREFS
331
75
102
}
  0
BLOCK_RECORD
  5
7B
100
AcDbSymbolTableRecord
100
AcDbBlockTableRecord
  2
AI9-BLK8
340
0
102
{BLKREFS
331
7C
102
}
  0
BLOCK_RECORD
  5
82
100
AcDbSymbolTableRecord
100
AcDbBlockTableRecord
  2
AI9-BLK9
340
0
102
{BLKREFS
331
83
102
}
  0
BLOCK_RECORD
  5
88
100
AcDbSymbolTableRecord
100
AcDbBlockTableRecord
  2
AI9-BLK10
340
0
102
{BLKREFS
331
89
102
}
  0
BLOCK_RECORD
  5
8F
100
AcDbSymbolTableRecord
100
AcDbBlockTableRecord
  2
AI9-BLK11
340
0
102
{BLKREFS
331
90
102
}
  0
BLOCK_RECORD
  5
95
100
AcDbSymbolTableRecord
100
AcDbBlockTableRecord
  2
AI9-BLK12
340
0
102
{BLKREFS
331
96
102
}
  0
BLOCK_RECORD
  5
9C
100
AcDbSymbolTableRecord
100
AcDbBlockTableRecord
  2
AI9-BLK13
340
0
102
{BLKREFS
331
9D
102
}
  0
BLOCK_RECORD
  5
A2
100
AcDbSymbolTableRecord
100
AcDbBlockTableRecord
  2
AI9-BLK14
340
0
102
{BLKREFS
331
A3
102
}
  0
ENDTAB
  0
ENDSEC
  0
SECTION
  2
BLOCKS
  0
BLOCK
  5
D
100
AcDbEntity
  8
0
100
AcDbBlockBegin
  2
*MODEL_SPACE
 70
     0
 10
0.0
 20
0.0
 30
0.0
  3
*MODEL_SPACE
  1

  0
ENDBLK
  5
E
100
AcDbEntity
  8
0
100
AcDbBlockEnd
  0
BLOCK
  5
F
100
AcDbEntity
 67
     1
  8
0
100
AcDbBlockBegin
  2
*PAPER_SPACE
 70
     0
 10
0.0
 20
0.0
 30
0.0
  3
*PAPER_SPACE
  1

  0
ENDBLK
  5
10
100
AcDbEntity
 67
     1
  8
0
100
AcDbBlockEnd
  0
BLOCK
  5
32
100
AcDbEntity
  8
レイヤー_1
 62
     7
100
AcDbBlockBegin
  2
AI9-BLK1
 70
     0
 10
0.0
 20
0.0
 30
0.0
  3
AI9-BLK1
  1

  0
LINE
  5
34
100
AcDbEntity
  8
レイヤー_1
 62
     7
100
AcDbLine
 10
-1.53324
 20
0.0
 30
0.0
 11
1.53324
 21
-0.821655
 31
0.0
  0
LINE
  5
33
100
AcDbEntity
  8
レイヤー_1
 62
     7
100
AcDbLine
 10
-1.53324
 20
0.0
 30
0.0
 11
1.53324
 21
0.821655
 31
0.0
  0
ENDBLK
  5
35
100
AcDbEntity
  8
レイヤー_1
100
AcDbBlockEnd
  0
BLOCK
  5
39
100
AcDbEntity
  8
レイヤー_1
 62
     7
100
AcDbBlockBegin
  2
AI9-BLK2
 70
     0
 10
0.0
 20
0.0
 30
0.0
  3
AI9-BLK2
  1

  0
LINE
  5
3B
100
AcDbEntity
  8
レイヤー_1
 62
     7
100
AcDbLine
 10
1.533154
 20
0.0
 30
0.0
 11
-1.533154
 21
0.821655
 31
0.0
  0
LINE
  5
3A
100
AcDbEntity
  8
レイヤー_1
 62
     7
100
AcDbLine
 10
1.533154
 20
0.0
 30
0.0
 11
-1.533154
 21
-0.821655
 31
0.0
  0
ENDBLK
  5
3C
100
AcDbEntity
  8
レイヤー_1
100
AcDbBlockEnd
  0
BLOCK
  5
46
100
AcDbEntity
  8
レイヤー_1
 62
     7
100
AcDbBlockBegin
  2
AI9-BLK3
 70
     0
 10
0.0
 20
0.0
 30
0.0
  3
AI9-BLK3
  1

  0
LINE
  5
48
100
AcDbEntity
  8
レイヤー_1
 62
     7
100
AcDbLine
 10
0.000172
 20
1.53324
 30
0.0
 11
-0.821655
 21
-1.53324
 31
0.0
  0
LINE
  5
47
100
AcDbEntity
  8
レイヤー_1
 62
     7
100
AcDbLine
 10
0.000172
 20
1.53324
 30
0.0
 11
0.821655
 21
-1.53324
 31
0.0
  0
ENDBLK
  5
49
100
AcDbEntity
  8
レイヤー_1
100
AcDbBlockEnd
  0
BLOCK
  5
4C
100
AcDbEntity
  8
レイヤー_1
 62
     7
100
AcDbBlockBegin
  2
AI9-BLK4
 70
     0
 10
0.0
 20
0.0
 30
0.0
  3
AI9-BLK4
  1

  0
LINE
  5
4E
100
AcDbEntity
  8
レイヤー_1
 62
     7
100
AcDbLine
 10
0.000172
 20
-1.53324
 30
0.0
 11
0.821655
 21
1.53324
 31
0.0
  0
LINE
  5
4D
100
AcDbEntity
  8
レイヤー_1
 62
     7
100
AcDbLine
 10
0.000172
 20
-1.53324
 30
0.0
 11
-0.821655
 21
1.53324
 31
0.0
  0
ENDBLK
  5
4F
100
AcDbEntity
  8
レイヤー_1
100
AcDbBlockEnd
  0
BLOCK
  5
54
100
AcDbEntity
  8
レイヤー_1
 62
     7
100
AcDbBlockBegin
  2
AI9-BLK5
 70
     0
 10
0.0
 20
0.0
 30
0.0
  3
AI9-BLK5
  1

  0
LINE
  5
56
100
AcDbEntity
  8
レイヤー_1
 62
     7
100
AcDbLine
 10
1.239718
 20
1.478463
 30
0.0
 11
-1.239718
 21
-0.503845
 31
0.0
  0
LINE
  5
55
100
AcDbEntity
  8
レイヤー_1
 62
     7
100
AcDbLine
 10
1.239718
 20
1.478463
 30
0.0
 11
0.083544
 21
-1.478463
 31
0.0
  0
ENDBLK
  5
57
100
AcDbEntity
  8
レイヤー_1
100
AcDbBlockEnd
  0
BLOCK
  5
5B
100
AcDbEntity
  8
レイヤー_1
 62
     7
100
AcDbBlockBegin
  2
AI9-BLK6
 70
     0
 10
0.0
 20
0.0
 30
0.0
  3
AI9-BLK6
  1

  0
LINE
  5
72
100
AcDbEntity
  8
レイヤー_1
 62
     7
100
AcDbLine
 10
-1.5875
 20
0.000345
 30
0.0
 11
1.5875
 21
0.000345
 31
0.0
  0
LINE
  5
71
100
AcDbEntity
  8
レイヤー_1
 62
     7
100
AcDbLine
 10
-1.5875
 20
0.528822
 30
0.0
 11
1.5875
 21
0.528822
 31
0.0
  0
LINE
  5
70
100
AcDbEntity
  8
レイヤー_1
 62
     7
100
AcDbLine
 10
-1.5875
 20
1.057989
 30
0.0
 11
1.5875
 21
1.057989
 31
0.0
  0
LINE
  5
6F
100
AcDbEntity
  8
レイヤー_1
 62
     7
100
AcDbLine
 10
-1.5875
 20
1.587155
 30
0.0
 11
1.5875
 21
1.587155
 31
0.0
  0
LINE
  5
6E
100
AcDbEntity
  8
レイヤー_1
 62
     7
100
AcDbLine
 10
-1.5875
 20
2.116322
 30
0.0
 11
1.5875
 21
2.116322
 31
0.0
  0
LINE
  5
6D
100
AcDbEntity
  8
レイヤー_1
 62
     7
100
AcDbLine
 10
-1.5875
 20
2.645489
 30
0.0
 11
1.5875
 21
2.645489
 31
0.0
  0
LINE
  5
6C
100
AcDbEntity
  8
レイヤー_1
 62
     7
100
AcDbLine
 10
-1.5875
 20
3.174655
 30
0.0
 11
1.5875
 21
3.174655
 31
0.0
  0
LINE
  5
6B
100
AcDbEntity
  8
レイヤー_1
 62
     7
100
AcDbLine
 10
-1.5875
 20
3.703822
 30
0.0
 11
1.5875
 21
3.703822
 31
0.0
  0
LINE
  5
6A
100
AcDbEntity
  8
レイヤー_1
 62
     7
100
AcDbLine
 10
-1.5875
 20
4.232817
 30
0.0
 11
1.5875
 21
4.232817
 31
0.0
  0
LINE
  5
69
100
AcDbEntity
  8
レイヤー_1
 62
     7
100
AcDbLine
 10
-1.5875
 20
4.761983
 30
0.0
 11
1.5875
 21
4.761983
 31
0.0
  0
LINE
  5
68
100
AcDbEntity
  8
レイヤー_1
 62
     7
100
AcDbLine
 10
-1.5875
 20
5.290978
 30
0.0
 11
1.5875
 21
5.290978
 31
0.0
  0
LINE
  5
67
100
AcDbEntity
  8
レイヤー_1
 62
     7
100
AcDbLine
 10
-1.5875
 20
5.820144
 30
0.0
 11
1.5875
 21
5.820144
 31
0.0
  0
LINE
  5
66
100
AcDbEntity
  8
レイヤー_1
 62
     7
100
AcDbLine
 10
-1.5875
 20
-0.528822
 30
0.0
 11
1.5875
 21
-0.528822
 31
0.0
  0
LINE
  5
65
100
AcDbEntity
  8
レイヤー_1
 62
     7
100
AcDbLine
 10
-1.5875
 20
-1.057989
 30
0.0
 11
1.5875
 21
-1.057989
 31
0.0
  0
LINE
  5
64
100
AcDbEntity
  8
レイヤー_1
 62
     7
100
AcDbLine
 10
-1.5875
 20
-1.587155
 30
0.0
 11
1.5875
 21
-1.587155
 31
0.0
  0
LINE
  5
63
100
AcDbEntity
  8
レイヤー_1
 62
     7
100
AcDbLine
 10
-1.5875
 20
-2.116322
 30
0.0
 11
1.5875
 21
-2.116322
 31
0.0
  0
LINE
  5
62
100
AcDbEntity
  8
レイヤー_1
 62
     7
100
AcDbLine
 10
-1.5875
 20
-2.645489
 30
0.0
 11
1.5875
 21
-2.645489
 31
0.0
  0
LINE
  5
61
100
AcDbEntity
  8
レイヤー_1
 62
     7
100
AcDbLine
 10
-1.5875
 20
-3.174655
 30
0.0
 11
1.5875
 21
-3.174655
 31
0.0
  0
LINE
  5
60
100
AcDbEntity
  8
レイヤー_1
 62
     7
100
AcDbLine
 10
-1.5875
 20
-3.703822
 30
0.0
 11
1.5875
 21
-3.703822
 31
0.0
  0
LINE
  5
5F
100
AcDbEntity
  8
レイヤー_1
 62
     7
100
AcDbLine
 10
-1.5875
 20
-4.232989
 30
0.0
 11
1.5875
 21
-4.232989
 31
0.0
  0
LINE
  5
5E
100
AcDbEntity
  8
レイヤー_1
 62
     7
100
AcDbLine
 10
-1.5875
 20
-4.761811
 30
0.0
 11
1.5875
 21
-4.761811
 31
0.0
  0
LINE
  5
5D
100
AcDbEntity
  8
レイヤー_1
 62
     7
100
AcDbLine
 10
-1.5875
 20
-5.290978
 30
0.0
 11
1.5875
 21
-5.290978
 31
0.0
  0
LINE
  5
5C
100
AcDbEntity
  8
レイヤー_1
 62
     7
100
AcDbLine
 10
-1.5875
 20
-5.820144
 30
0.0
 11
1.5875
 21
-5.820144
 31
0.0
  0
ENDBLK
  5
73
100
AcDbEntity
  8
レイヤー_1
100
AcDbBlockEnd
  0
BLOCK
  5
76
100
AcDbEntity
  8
レイヤー_1
 62
     7
100
AcDbBlockBegin
  2
AI9-BLK7
 70
     0
 10
0.0
 20
0.0
 30
0.0
  3
AI9-BLK7
  1

  0
LINE
  5
78
100
AcDbEntity
  8
レイヤー_1
 62
     7
100
AcDbLine
 10
-1.53324
 20
-0.000086
 30
0.0
 11
1.53324
 21
-0.821569
 31
0.0
  0
LINE
  5
77
100
AcDbEntity
  8
レイヤー_1
 62
     7
100
AcDbLine
 10
-1.53324
 20
-0.000086
 30
0.0
 11
1.53324
 21
0.821569
 31
0.0
  0
ENDBLK
  5
79
100
AcDbEntity
  8
レイヤー_1
100
AcDbBlockEnd
  0
BLOCK
  5
7D
100
AcDbEntity
  8
レイヤー_1
 62
     7
100
AcDbBlockBegin
  2
AI9-BLK8
 70
     0
 10
0.0
 20
0.0
 30
0.0
  3
AI9-BLK8
  1

  0
LINE
  5
7F
100
AcDbEntity
  8
レイヤー_1
 62
     7
100
AcDbLine
 10
1.533326
 20
-0.000086
 30
0.0
 11
-1.533326
 21
0.821569
 31
0.0
  0
LINE
  5
7E
100
AcDbEntity
  8
レイヤー_1
 62
     7
100
AcDbLine
 10
1.533326
 20
-0.000086
 30
0.0
 11
-1.533326
 21
-0.821569
 31
0.0
  0
ENDBLK
  5
80
100
AcDbEntity
  8
レイヤー_1
100
AcDbBlockEnd
  0
BLOCK
  5
84
100
AcDbEntity
  8
レイヤー_1
 62
     7
100
AcDbBlockBegin
  2
AI9-BLK9
 70
     0
 10
0.0
 20
0.0
 30
0.0
  3
AI9-BLK9
  1

  0
LINE
  5
86
100
AcDbEntity
  8
レイヤー_1
 62
     7
100
AcDbLine
 10
0.0
 20
1.53324
 30
0.0
 11
-0.821655
 21
-1.53324
 31
0.0
  0
LINE
  5
85
100
AcDbEntity
  8
レイヤー_1
 62
     7
100
AcDbLine
 10
0.0
 20
1.53324
 30
0.0
 11
0.821655
 21
-1.53324
 31
0.0
  0
ENDBLK
  5
87
100
AcDbEntity
  8
レイヤー_1
100
AcDbBlockEnd
  0
BLOCK
  5
8A
100
AcDbEntity
  8
レイヤー_1
 62
     7
100
AcDbBlockBegin
  2
AI9-BLK10
 70
     0
 10
0.0
 20
0.0
 30
0.0
  3
AI9-BLK10
  1

  0
LINE
  5
8C
100
AcDbEntity
  8
レイヤー_1
 62
     7
100
AcDbLine
 10
0.0
 20
-1.53324
 30
0.0
 11
0.821655
 21
1.53324
 31
0.0
  0
LINE
  5
8B
100
AcDbEntity
  8
レイヤー_1
 62
     7
100
AcDbLine
 10
0.0
 20
-1.53324
 30
0.0
 11
-0.821655
 21
1.53324
 31
0.0
  0
ENDBLK
  5
8D
100
AcDbEntity
  8
レイヤー_1
100
AcDbBlockEnd
  0
BLOCK
  5
91
100
AcDbEntity
  8
レイヤー_1
 62
     7
100
AcDbBlockBegin
  2
AI9-BLK11
 70
     0
 10
0.0
 20
0.0
 30
0.0
  3
AI9-BLK11
  1

  0
LINE
  5
93
100
AcDbEntity
  8
レイヤー_1
 62
     7
100
AcDbLine
 10
1.53324
 20
0.000172
 30
0.0
 11
-1.53324
 21
0.821828
 31
0.0
  0
LINE
  5
92
100
AcDbEntity
  8
レイヤー_1
 62
     7
100
AcDbLine
 10
1.53324
 20
0.000172
 30
0.0
 11
-1.53324
 21
-0.821828
 31
0.0
  0
ENDBLK
  5
94
100
AcDbEntity
  8
レイヤー_1
100
AcDbBlockEnd
  0
BLOCK
  5
97
100
AcDbEntity
  8
レイヤー_1
 62
     7
100
AcDbBlockBegin
  2
AI9-BLK12
 70
     0
 10
0.0
 20
0.0
 30
0.0
  3
AI9-BLK12
  1

  0
LINE
  5
99
100
AcDbEntity
  8
レイヤー_1
 62
     7
100
AcDbLine
 10
-1.53324
 20
0.000172
 30
0.0
 11
1.53324
 21
-0.821828
 31
0.0
  0
LINE
  5
98
100
AcDbEntity
  8
レイヤー_1
 62
     7
100
AcDbLine
 10
-1.53324
 20
0.000172
 30
0.0
 11
1.53324
 21
0.821828
 31
0.0
  0
ENDBLK
  5
9A
100
AcDbEntity
  8
レイヤー_1
100
AcDbBlockEnd
  0
BLOCK
  5
9E
100
AcDbEntity
  8
レイヤー_1
 62
     7
100
AcDbBlockBegin
  2
AI9-BLK13
 70
     0
 10
0.0
 20
0.0
 30
0.0
  3
AI9-BLK13
  1

  0
LINE
  5
A0
100
AcDbEntity
  8
レイヤー_1
 62
     7
100
AcDbLine
 10
1.53324
 20
0.0
 30
0.0
 11
-1.53324
 21
0.821655
 31
0.0
  0
LINE
  5
9F
100
AcDbEntity
  8
レイヤー_1
 62
     7
100
AcDbLine
 10
1.53324
 20
0.0
 30
0.0
 11
-1.53324
 21
-0.821655
 31
0.0
  0
ENDBLK
  5
A1
100
AcDbEntity
  8
レイヤー_1
100
AcDbBlockEnd
  0
BLOCK
  5
A4
100
AcDbEntity
  8
レイヤー_1
 62
     7
100
AcDbBlockBegin
  2
AI9-BLK14
 70
     0
 10
0.0
 20
0.0
 30
0.0
  3
AI9-BLK14
  1

  0
LINE
  5
A6
100
AcDbEntity
  8
レイヤー_1
 62
     7
100
AcDbLine
 10
-1.53324
 20
0.0
 30
0.0
 11
1.53324
 21
-0.821655
 31
0.0
  0
LINE
  5
A5
100
AcDbEntity
  8
レイヤー_1
 62
     7
100
AcDbLine
 10
-1.53324
 20
0.0
 30
0.0
 11
1.53324
 21
0.821655
 31
0.0
  0
ENDBLK
  5
A7
100
AcDbEntity
  8
レイヤー_1
100
AcDbBlockEnd
  0
ENDSEC
  0
SECTION
  2
ENTITIES
  0
MTEXT
  5
125
100
AcDbEntity
  8
レイヤー_1
 62
     7
100
AcDbMText
 10
47.801389
 20
54.655042
 30
0.0
 40
3.149486
 41
0.0
 71
     1
 72
     2
  1
\fOsaka|b0|i0|c128;\H3.1495;\C7;\U+0030\U+0034\U+002E\U+0031\U+0031\U+002E\U+0030\U+0031\U+002E\U+0030\U+0030\U+0031\U+002E\U+0030\U+0030\U+002E\U+0030\U+0030
  7
STD
210
0.0
220
0.0
230
1.0
 73
     1
 44
1.0
  0
MTEXT
  5
124
100
AcDbEntity
  8
レイヤー_1
 62
     7
100
AcDbMText
 10
39.6875
 20
57.666567
 30
0.0
 40
1.574901
 41
0.0
 71
     1
 72
     2
  1
\fOsaka|b0|i0|c128;\H1.5749;\C7;\U+54C1\U+756A
  7
STD
210
0.0
220
0.0
230
1.0
 73
     1
 44
1.0
  0
MTEXT
  5
123
100
AcDbEntity
  8
レイヤー_1
 62
     7
100
AcDbMText
 10
47.801389
 20
34.193931
 30
0.0
 40
3.149801
 41
0.0
 71
     1
 72
     2
  1
\fOsaka|b0|i0|c128;\H3.1498;\C7;\U+30DD\U+30C3\U+30D7\U+30A2\U+30C3\U+30D7\U+FF08\U+6B27\U+5DDE\U+9676\U+5668\U+7528\U+FF09
  7
STD
210
0.0
220
0.0
230
1.0
 11
0.9999
 21
0.0
 31
0.0
 73
     1
 44
1.0
  0
MTEXT
  5
122
100
AcDbEntity
  8
レイヤー_1
 62
     7
100
AcDbMText
 10
39.6875
 20
36.499901
 30
0.0
 40
1.574901
 41
0.0
 71
     1
 72
     2
  1
\fOsaka|b0|i0|c128;\H1.5749;\C7;\U+54C1
  7
STD
210
0.0
220
0.0
230
1.0
 73
     1
 44
1.0
  0
MTEXT
  5
121
100
AcDbEntity
  8
レイヤー_1
 62
     7
100
AcDbMText
 10
47.801389
 20
44.777264
 30
0.0
 40
3.149801
 41
0.0
 71
     1
 72
     2
  1
\fOsaka|b0|i0|c128;\H3.1498;\C7;\U+30B7\U+30EA\U+30FC\U+30BA\U+5171\U+901A
  7
STD
210
0.0
220
0.0
230
1.0
 11
0.9999
 21
0.0
 31
0.0
 73
     1
 44
1.0
  0
POLYLINE
  5
11B
100
AcDbEntity
  8
レイヤー_1
 62
     7
100
AcDb2dPolyline
 66
     1
 10
0.0
 20
0.0
 30
0.0
 70
     1
  0
VERTEX
  5
11C
100
AcDbEntity
  8
レイヤー_1
 62
     7
100
AcDbVertex
100
AcDb2dVertex
 10
23.636111
 20
27.163889
 30
0.0
  0
VERTEX
  5
11D
100
AcDbEntity
  8
レイヤー_1
 62
     7
100
AcDbVertex
100
AcDb2dVertex
 10
198.613889
 20
27.163889
 30
0.0
  0
VERTEX
  5
11E
100
AcDbEntity
  8
レイヤー_1
 62
     7
100
AcDbVertex
100
AcDb2dVertex
 10
198.613889
 20
276.577778
 30
0.0
  0
VERTEX
  5
11F
100
AcDbEntity
  8
レイヤー_1
 62
     7
100
AcDbVertex
100
AcDb2dVertex
 10
23.636111
 20
276.577778
 30
0.0
  0
SEQEND
  5
120
100
AcDbEntity
  8
レイヤー_1
 62
     7
  0
LINE
  5
11A
100
AcDbEntity
  8
レイヤー_1
 62
     7
100
AcDbLine
 10
170.568056
 20
37.570833
 30
0.0
 11
27.693056
 21
37.570833
 31
0.0
  0
LINE
  5
119
100
AcDbEntity
  8
レイヤー_1
 62
     7
100
AcDbLine
 10
170.568056
 20
48.154167
 30
0.0
 11
27.693056
 21
48.154167
 31
0.0
  0
LINE
  5
118
100
AcDbEntity
  8
レイヤー_1
 62
     7
100
AcDbLine
 10
23.636111
 20
58.913889
 30
0.0
 11
198.261111
 21
58.913889
 31
0.0
  0
LINE
  5
117
100
AcDbEntity
  8
レイヤー_1
 62
     7
100
AcDbLine
 10
170.744444
 20
58.913889
 30
0.0
 11
170.744444
 21
27.516667
 31
0.0
  0
MTEXT
  5
116
100
AcDbEntity
  8
レイヤー_1
 62
     7
100
AcDbMText
 10
29.104167
 20
47.083234
 30
0.0
 40
1.574901
 41
0.0
 71
     1
 72
     2
  1
\fOsaka|b0|i0|c128;\H1.5749;\C7;\U+30BB\U+30EC\U+30AF\U+30B7\U+30E7\U+30F3
  7
STD
210
0.0
220
0.0
230
1.0
 73
     1
 44
1.0
  0
MTEXT
  5
115
100
AcDbEntity
  8
レイヤー_1
 62
     7
100
AcDbMText
 10
174.095833
 20
55.713375
 30
0.0
 40
3.149801
 41
0.0
 71
     1
 72
     2
  1
\fHeiseiKakuGothicCAN W9|b0|i0|c128;\H3.1498;\C253;\U+5BF8\U+6CD5\U+53C2\U+8003\U+56F3
  7
STD
210
0.0
220
0.0
230
1.0
 11
0.9999
 21
0.0
 31
0.0
 73
     1
 44
1.0
  0
LINE
  5
114
100
AcDbEntity
  8
レイヤー_1
 62
     7
100
AcDbLine
 10
27.516667
 20
58.913889
 30
0.0
 11
27.516667
 21
27.516667
 31
0.0
  0
IMAGE
  5
111
100
AcDbEntity
  8
レイヤー_1
  6
AI9-LType1
 62
     7
 92
        0
100
AcDbRasterImage
 90
        0
 10
172.155556
 20
29.633016
 30
0.0
 11
0.352531
 21
0.0
 31
0.0
 12
0.0
 22
0.352813
 32
0.0
 13
70.0
 23
9.0
340
113
 70
     7
280
     0
281
    50
282
    50
283
     0
360
112
 71
     1
 91
        2
 14
-0.5
 24
-0.5
 14
69.5
 24
8.5
  0
IMAGE
  5
10E
100
AcDbEntity
  8
レイヤー_1
  6
AI9-LType1
 62
     7
 92
        0
100
AcDbRasterImage
 90
        0
 10
172.155556
 20
29.633016
 30
0.0
 11
0.352531
 21
0.0
 31
0.0
 12
0.0
 22
0.352813
 32
0.0
 13
70.0
 23
9.0
340
110
 70
     7
280
     0
281
    50
282
    50
283
     0
360
10F
 71
     1
 91
        2
 14
-0.5
 24
-0.5
 14
69.5
 24
8.5
  0
MTEXT
  5
10D
100
AcDbEntity
  8
レイヤー_1
  6
AI9-LType1
 62
     7
100
AcDbMText
 10
113.418056
 20
47.083234
 30
0.0
 40
1.574901
 41
0.0
 71
     1
 72
     2
  1
\fOsaka|b0|i0|c128;\H1.5749;\C7;\U+4ED5\U+4E0A
  7
STD
210
0.0
220
0.0
230
1.0
 73
     1
 44
1.0
  0
MTEXT
  5
10C
100
AcDbEntity
  8
レイヤー_1
  6
AI9-LType1
 62
     7
100
AcDbMText
 10
119.768056
 20
44.777264
 30
0.0
 40
3.149801
 41
0.0
 71
     1
 72
     2
  1
\fOsaka|b0|i0|c128;\H3.1498;\C7;\U+30AF\U+30ED\U+30FC\U+30E0
  7
STD
210
0.0
220
0.0
230
1.0
 11
0.9999
 21
0.0
 31
0.0
 73
     1
 44
1.0
  0
LINE
  5
10B
100
AcDbEntity
  8
レイヤー_1
  6
AI9-LType1
 62
     7
100
AcDbLine
 10
90.271837
 20
200.263228
 30
0.0
 11
90.271837
 21
137.765234
 31
0.0
  0
LINE
  5
10A
100
AcDbEntity
  8
レイヤー_1
  6
AI9-LType1
 62
     7
100
AcDbLine
 10
97.313268
 20
154.346479
 30
0.0
 11
194.691648
 21
154.346479
 31
0.0
  0
SPLINE
  5
108
100
AcDbEntity
  8
レイヤー_1
 62
     7
100
AcDbSpline
210
0.0
220
0.0
230
1.0
 70
     8
 71
     3
 72
     8
 73
     4
 74
     0
 42
0.00000001
 43
0.00000001
 40
0.0
 40
0.0
 40
0.0
 40
0.0
 40
1.0
 40
1.0
 40
1.0
 40
1.0
 10
105.47263183593749
 20
191.38366699218747
 30
0.0
 10
103.35768771701387
 20
190.60283610026039
 30
0.0
 10
101.91247016059027
 20
188.24036187065971
 30
0.0
 10
101.91247016059027
 20
185.56352267795137
 30
0.0
  0
SPLINE
  5
107
100
AcDbEntity
  8
レイヤー_1
 62
     7
100
AcDbSpline
210
0.0
220
0.0
230
1.0
 70
     8
 71
     3
 72
     8
 73
     4
 74
     0
 42
0.00000001
 43
0.00000001
 40
0.0
 40
0.0
 40
0.0
 40
0.0
 40
1.0
 40
1.0
 40
1.0
 40
1.0
 10
106.93886447482637
 20
191.64825032552082
 30
0.0
 10
106.33769531249999
 20
191.64825032552082
 30
0.0
 10
105.73962673611111
 20
191.55902235243053
 30
0.0
 10
105.16395128038194
 20
191.38366699218747
 30
0.0
  0
LINE
  5
106
100
AcDbEntity
  8
レイヤー_1
 62
     7
100
AcDbLine
 10
106.938864
 20
192.441828
 30
0.0
 11
106.938864
 21
191.64825
 31
0.0
  0
LINE
  5
105
100
AcDbEntity
  8
レイヤー_1
 62
     7
100
AcDbLine
 10
107.203448
 20
169.596539
 30
0.0
 11
107.203448
 21
167.838334
 31
0.0
  0
LINE
  5
104
100
AcDbEntity
  8
レイヤー_1
 62
     7
100
AcDbLine
 10
104.84149
 20
170.899474
 30
0.0
 11
106.870996
 21
170.087809
 31
0.0
  0
SPLINE
  5
103
100
AcDbEntity
  8
レイヤー_1
 62
     7
100
AcDbSpline
210
0.0
220
0.0
230
1.0
 70
     8
 71
     3
 72
     8
 73
     4
 74
     0
 42
0.00000001
 43
0.00000001
 40
0.0
 40
0.0
 40
0.0
 40
0.0
 40
1.0
 40
1.0
 40
1.0
 40
1.0
 10
104.84149034288194
 20
170.89947374131944
 30
0.0
 10
104.65407714843749
 20
170.97440456814235
 30
0.0
 10
104.45391710069444
 20
171.0129896375868
 30
0.0
 10
104.25237901475694
 20
171.0129896375868
 30
0.0
  0
SPLINE
  5
102
100
AcDbEntity
  8
レイヤー_1
 62
     7
100
AcDbSpline
210
0.0
220
0.0
230
1.0
 70
     8
 71
     3
 72
     8
 73
     4
 74
     0
 42
0.00000001
 43
0.00000001
 40
0.0
 40
0.0
 40
0.0
 40
0.0
 40
1.0
 40
1.0
 40
1.0
 40
1.0
 10
107.20344780815971
 20
169.59653862847222
 30
0.0
 10
107.20344780815971
 20
169.81289062499999
 30
0.0
 10
107.07184516059027
 20
170.00753851996527
 30
0.0
 10
106.87099609374999
 20
170.08780924479166
 30
0.0
  0
LINE
  5
101
100
AcDbEntity
  8
レイヤー_1
 62
     7
100
AcDbLine
 10
106.145114
 20
167.838334
 30
0.0
 11
106.145114
 21
167.573751
 31
0.0
  0
LINE
  5
100
100
AcDbEntity
  8
レイヤー_1
 62
     7
100
AcDbLine
 10
78.631721
 20
167.309167
 30
0.0
 11
78.631721
 21
142.705846
 31
0.0
  0
LINE
  5
FF
100
AcDbEntity
  8
レイヤー_1
 62
     7
100
AcDbLine
 10
101.91247
 20
142.705846
 30
0.0
 11
78.631721
 21
142.705846
 31
0.0
  0
LINE
  5
FE
100
AcDbEntity
  8
レイヤー_1
 62
     7
100
AcDbLine
 10
101.91247
 20
148.790573
 30
0.0
 11
78.631721
 21
148.790573
 31
0.0
  0
LINE
  5
FD
100
AcDbEntity
  8
レイヤー_1
 62
     7
100
AcDbLine
 10
101.91247
 20
148.261407
 30
0.0
 11
78.631721
 21
148.261407
 31
0.0
  0
LINE
  5
FC
100
AcDbEntity
  8
レイヤー_1
 62
     7
100
AcDbLine
 10
101.383303
 20
148.261407
 30
0.0
 11
101.383303
 21
142.705846
 31
0.0
  0
LINE
  5
FB
100
AcDbEntity
  8
レイヤー_1
 62
     7
100
AcDbLine
 10
79.160543
 20
148.261407
 30
0.0
 11
79.160543
 21
142.705846
 31
0.0
  0
LINE
  5
FA
100
AcDbEntity
  8
レイヤー_1
 62
     7
100
AcDbLine
 10
90.271837
 20
192.441828
 30
0.0
 11
106.938864
 21
192.441828
 31
0.0
  0
LINE
  5
F9
100
AcDbEntity
  8
レイヤー_1
 62
     7
100
AcDbLine
 10
90.271837
 20
191.64825
 30
0.0
 11
106.938864
 21
191.64825
 31
0.0
  0
LINE
  5
F8
100
AcDbEntity
  8
レイヤー_1
 62
     7
100
AcDbLine
 10
90.271837
 20
191.383667
 30
0.0
 11
105.472632
 21
191.383667
 31
0.0
  0
LINE
  5
F7
100
AcDbEntity
  8
レイヤー_1
 62
     7
100
AcDbLine
 10
90.271837
 20
185.563523
 30
0.0
 11
101.91247
 21
185.563523
 31
0.0
  0
LINE
  5
F6
100
AcDbEntity
  8
レイヤー_1
 62
     7
100
AcDbLine
 10
90.271837
 20
171.01299
 30
0.0
 11
104.252379
 21
171.01299
 31
0.0
  0
LINE
  5
F5
100
AcDbEntity
  8
レイヤー_1
 62
     7
100
AcDbLine
 10
90.271837
 20
167.573751
 30
0.0
 11
106.145114
 21
167.573751
 31
0.0
  0
LINE
  5
F4
100
AcDbEntity
  8
レイヤー_1
 62
     7
100
AcDbLine
 10
90.271837
 20
167.838334
 30
0.0
 11
107.203448
 21
167.838334
 31
0.0
  0
SPLINE
  5
F3
100
AcDbEntity
  8
レイヤー_1
 62
     7
100
AcDbSpline
210
0.0
220
0.0
230
1.0
 70
     8
 71
     3
 72
     8
 73
     4
 74
     0
 42
0.00000001
 43
0.00000001
 40
0.0
 40
0.0
 40
0.0
 40
0.0
 40
1.0
 40
1.0
 40
1.0
 40
1.0
 10
78.631720648871521
 20
185.56352267795137
 30
0.0
 10
78.631720648871521
 20
188.24036187065971
 30
0.0
 10
77.186330837673609
 20
190.60283610026039
 30
0.0
 10
75.07104220920138
 20
191.38366699218747
 30
0.0
  0
SPLINE
  5
F2
100
AcDbEntity
  8
レイヤー_1
 62
     7
100
AcDbSpline
210
0.0
220
0.0
230
1.0
 70
     8
 71
     3
 72
     8
 73
     4
 74
     0
 42
0.00000001
 43
0.00000001
 40
0.0
 40
0.0
 40
0.0
 40
0.0
 40
1.0
 40
1.0
 40
1.0
 40
1.0
 10
75.379722764756934
 20
191.38366699218747
 30
0.0
 10
74.80456407335069
 20
191.55902235243053
 30
0.0
 10
74.206495496961793
 20
191.64825032552082
 30
0.0
 10
73.605154079861109
 20
191.64825032552082
 30
0.0
  0
LINE
  5
F1
100
AcDbEntity
  8
レイヤー_1
 62
     7
100
AcDbLine
 10
73.605154
 20
192.441828
 30
0.0
 11
73.605154
 21
191.64825
 31
0.0
  0
LINE
  5
F0
100
AcDbEntity
  8
レイヤー_1
 62
     7
100
AcDbLine
 10
73.340571
 20
169.596539
 30
0.0
 11
73.340571
 21
167.838334
 31
0.0
  0
LINE
  5
EF
100
AcDbEntity
  8
レイヤー_1
 62
     7
100
AcDbLine
 10
75.702184
 20
170.899474
 30
0.0
 11
73.673195
 21
170.087809
 31
0.0
  0
SPLINE
  5
EE
100
AcDbEntity
  8
レイヤー_1
 62
     7
100
AcDbSpline
210
0.0
220
0.0
230
1.0
 70
     8
 71
     3
 72
     8
 73
     4
 74
     0
 42
0.00000001
 43
0.00000001
 40
0.0
 40
0.0
 40
0.0
 40
0.0
 40
1.0
 40
1.0
 40
1.0
 40
1.0
 10
76.291984049479154
 20
171.0129896375868
 30
0.0
 10
76.089929199218744
 20
171.0129896375868
 30
0.0
 10
75.88976915147569
 20
170.97440456814235
 30
0.0
 10
75.702183702256931
 20
170.89947374131944
 30
0.0
  0
SPLINE
  5
ED
100
AcDbEntity
  8
レイヤー_1
 62
     7
100
AcDbSpline
210
0.0
220
0.0
230
1.0
 70
     8
 71
     3
 72
     8
 73
     4
 74
     0
 42
0.00000001
 43
0.00000001
 40
0.0
 40
0.0
 40
0.0
 40
0.0
 40
1.0
 40
1.0
 40
1.0
 40
1.0
 10
73.673194715711801
 20
170.08780924479166
 30
0.0
 10
73.472345648871524
 20
170.00753851996527
 30
0.0
 10
73.340570746527774
 20
169.81289062499999
 30
0.0
 10
73.340570746527774
 20
169.59653862847222
 30
0.0
  0
LINE
  5
EC
100
AcDbEntity
  8
レイヤー_1
 62
     7
100
AcDbLine
 10
74.398732
 20
167.838334
 30
0.0
 11
74.398732
 21
167.573751
 31
0.0
  0
LINE
  5
EB
100
AcDbEntity
  8
レイヤー_1
 62
     7
100
AcDbLine
 10
90.271837
 20
192.441828
 30
0.0
 11
73.605154
 21
192.441828
 31
0.0
  0
LINE
  5
EA
100
AcDbEntity
  8
レイヤー_1
 62
     7
100
AcDbLine
 10
90.271837
 20
191.64825
 30
0.0
 11
73.605154
 21
191.64825
 31
0.0
  0
LINE
  5
E9
100
AcDbEntity
  8
レイヤー_1
 62
     7
100
AcDbLine
 10
90.271837
 20
191.383667
 30
0.0
 11
75.071042
 21
191.383667
 31
0.0
  0
LINE
  5
E8
100
AcDbEntity
  8
レイヤー_1
 62
     7
100
AcDbLine
 10
90.271837
 20
185.563523
 30
0.0
 11
78.631721
 21
185.563523
 31
0.0
  0
LINE
  5
E7
100
AcDbEntity
  8
レイヤー_1
 62
     7
100
AcDbLine
 10
90.271837
 20
171.01299
 30
0.0
 11
76.291984
 21
171.01299
 31
0.0
  0
LINE
  5
E6
100
AcDbEntity
  8
レイヤー_1
 62
     7
100
AcDbLine
 10
90.271837
 20
167.573751
 30
0.0
 11
74.398732
 21
167.573751
 31
0.0
  0
LINE
  5
E5
100
AcDbEntity
  8
レイヤー_1
 62
     7
100
AcDbLine
 10
90.271837
 20
167.838334
 30
0.0
 11
73.340571
 21
167.838334
 31
0.0
  0
SPLINE
  5
E4
100
AcDbEntity
  8
レイヤー_1
 62
     7
100
AcDbSpline
210
0.0
220
0.0
230
1.0
 70
     8
 71
     3
 72
     8
 73
     4
 74
     0
 42
0.00000001
 43
0.00000001
 40
0.0
 40
0.0
 40
0.0
 40
0.0
 40
1.0
 40
1.0
 40
1.0
 40
1.0
 10
102.07128906249999
 20
149.05515679253472
 30
0.0
 10
101.98343912760416
 20
149.05515679253472
 30
0.0
 10
101.91247016059027
 20
148.98418782552082
 30
0.0
 10
101.91247016059027
 20
148.89633789062498
 30
0.0
  0
LINE
  5
E3
100
AcDbEntity
  8
レイヤー_1
 62
     7
100
AcDbLine
 10
101.91247
 20
167.309167
 30
0.0
 11
101.91247
 21
160.166279
 31
0.0
  0
LINE
  5
E2
100
AcDbEntity
  8
レイヤー_1
 62
     7
100
AcDbLine
 10
101.91247
 20
148.896338
 30
0.0
 11
101.91247
 21
142.705846
 31
0.0
  0
LINE
  5
E1
100
AcDbEntity
  8
レイヤー_1
 62
     7
100
AcDbLine
 10
101.383303
 20
148.261407
 30
0.0
 11
101.91247
 21
148.790573
 31
0.0
  0
LINE
  5
E0
100
AcDbEntity
  8
レイヤー_1
 62
     7
100
AcDbLine
 10
79.160543
 20
148.261407
 30
0.0
 11
78.631721
 21
148.790573
 31
0.0
  0
LINE
  5
DF
100
AcDbEntity
  8
レイヤー_1
 62
     7
100
AcDbLine
 10
102.441637
 20
159.637112
 30
0.0
 11
107.732614
 21
159.637112
 31
0.0
  0
LINE
  5
DE
100
AcDbEntity
  8
レイヤー_1
 62
     7
100
AcDbLine
 10
102.071289
 20
149.055157
 30
0.0
 11
107.732614
 21
149.055157
 31
0.0
  0
LINE
  5
DD
100
AcDbEntity
  8
レイヤー_1
 62
     7
100
AcDbLine
 10
106.145114
 20
159.637112
 30
0.0
 11
106.145114
 21
149.055157
 31
0.0
  0
LINE
  5
DC
100
AcDbEntity
  8
レイヤー_1
 62
     7
100
AcDbLine
 10
106.145114
 20
159.108118
 30
0.0
 11
107.732614
 21
159.108118
 31
0.0
  0
LINE
  5
DB
100
AcDbEntity
  8
レイヤー_1
 62
     7
100
AcDbLine
 10
106.145114
 20
149.584323
 30
0.0
 11
107.732614
 21
149.584323
 31
0.0
  0
LINE
  5
DA
100
AcDbEntity
  8
レイヤー_1
 62
     7
100
AcDbLine
 10
106.145114
 20
159.108118
 30
0.0
 11
107.732614
 21
159.108118
 31
0.0
  0
LINE
  5
D9
100
AcDbEntity
  8
レイヤー_1
 62
     7
100
AcDbLine
 10
106.145114
 20
149.584323
 30
0.0
 11
107.732614
 21
149.584323
 31
0.0
  0
LINE
  5
D8
100
AcDbEntity
  8
レイヤー_1
 62
     7
100
AcDbLine
 10
107.732614
 20
160.166279
 30
0.0
 11
107.732614
 21
148.52599
 31
0.0
  0
LINE
  5
D7
100
AcDbEntity
  8
レイヤー_1
 62
     7
100
AcDbLine
 10
114.611437
 20
159.372701
 30
0.0
 11
114.611437
 21
149.319396
 31
0.0
  0
LINE
  5
D6
100
AcDbEntity
  8
レイヤー_1
 62
     7
100
AcDbLine
 10
107.732614
 20
160.166279
 30
0.0
 11
109.584353
 21
160.166279
 31
0.0
  0
LINE
  5
D5
100
AcDbEntity
  8
レイヤー_1
 62
     7
100
AcDbLine
 10
112.759353
 20
160.166279
 30
0.0
 11
113.817687
 21
160.166279
 31
0.0
  0
LINE
  5
D4
100
AcDbEntity
  8
レイヤー_1
 62
     7
100
AcDbLine
 10
107.732614
 20
148.52599
 30
0.0
 11
109.584353
 21
148.52599
 31
0.0
  0
LINE
  5
D3
100
AcDbEntity
  8
レイヤー_1
 62
     7
100
AcDbLine
 10
113.817687
 20
148.52599
 30
0.0
 11
112.759353
 21
148.52599
 31
0.0
  0
LINE
  5
D2
100
AcDbEntity
  8
レイヤー_1
 62
     7
100
AcDbLine
 10
109.584353
 20
160.430862
 30
0.0
 11
112.759353
 21
160.430862
 31
0.0
  0
LINE
  5
D1
100
AcDbEntity
  8
レイヤー_1
 62
     7
100
AcDbLine
 10
109.584353
 20
148.261407
 30
0.0
 11
112.759353
 21
148.261407
 31
0.0
  0
LINE
  5
D0
100
AcDbEntity
  8
レイヤー_1
 62
     7
100
AcDbLine
 10
112.759353
 20
160.430862
 30
0.0
 11
112.759353
 21
148.261407
 31
0.0
  0
LINE
  5
CF
100
AcDbEntity
  8
レイヤー_1
 62
     7
100
AcDbLine
 10
109.584353
 20
160.430862
 30
0.0
 11
109.584353
 21
148.261407
 31
0.0
  0
SPLINE
  5
CE
100
AcDbEntity
  8
レイヤー_1
 62
     7
100
AcDbSpline
210
0.0
220
0.0
230
1.0
 70
     8
 71
     3
 72
     8
 73
     4
 74
     0
 42
0.00000001
 43
0.00000001
 40
0.0
 40
0.0
 40
0.0
 40
0.0
 40
1.0
 40
1.0
 40
1.0
 40
1.0
 10
114.61143663194443
 20
159.37270100911456
 30
0.0
 10
114.61143663194443
 20
159.8109171549479
 30
0.0
 10
114.25590277777776
 20
160.16627875434025
 30
0.0
 10
113.81768663194444
 20
160.16627875434025
 30
0.0
  0
SPLINE
  5
CD
100
AcDbEntity
  8
レイヤー_1
 62
     7
100
AcDbSpline
210
0.0
220
0.0
230
1.0
 70
     8
 71
     3
 72
     8
 73
     4
 74
     0
 42
0.00000001
 43
0.00000001
 40
0.0
 40
0.0
 40
0.0
 40
0.0
 40
1.0
 40
1.0
 40
1.0
 40
1.0
 10
113.81768663194444
 20
148.52599012586805
 30
0.0
 10
114.25590277777776
 20
148.52599012586805
 30
0.0
 10
114.61143663194443
 20
148.8811794704861
 30
0.0
 10
114.61143663194443
 20
149.31939561631944
 30
0.0
  0
LINE
  5
CC
100
AcDbEntity
  8
レイヤー_1
 62
     7
100
AcDbLine
 10
189.744146
 20
155.668707
 30
0.0
 11
190.273313
 21
155.271832
 31
0.0
  0
LINE
  5
CB
100
AcDbEntity
  8
レイヤー_1
 62
     7
100
AcDbLine
 10
189.744146
 20
153.023562
 30
0.0
 11
190.273313
 21
153.420437
 31
0.0
  0
LINE
  5
CA
100
AcDbEntity
  8
レイヤー_1
 62
     7
100
AcDbLine
 10
190.273313
 20
155.271832
 30
0.0
 11
190.273313
 21
153.420437
 31
0.0
  0
SPLINE
  5
C9
100
AcDbEntity
  8
レイヤー_1
 62
     7
100
AcDbSpline
210
0.0
220
0.0
230
1.0
 70
     8
 71
     3
 72
     8
 73
     4
 74
     0
 42
0.00000001
 43
0.00000001
 40
0.0
 40
0.0
 40
0.0
 40
0.0
 40
1.0
 40
1.0
 40
1.0
 40
1.0
 10
101.91247016059027
 20
160.16627875434025
 30
0.0
 10
101.91247016059027
 20
159.87413465711805
 30
0.0
 10
102.14949273003471
 20
159.63711208767359
 30
0.0
 10
102.44163682725693
 20
159.63711208767359
 30
0.0
  0
SPLINE
  5
C8
100
AcDbEntity
  8
レイヤー_1
 62
     7
100
AcDbSpline
210
0.0
220
0.0
230
1.0
 70
     8
 71
     3
 72
     8
 73
     4
 74
     0
 42
0.00000001
 43
0.00000001
 40
0.0
 40
0.0
 40
0.0
 40
0.0
 40
1.0
 40
1.0
 40
1.0
 40
1.0
 10
78.631720648871521
 20
167.30916748046874
 30
0.0
 10
78.631720648871521
 20
167.45541178385415
 30
0.0
 10
78.513209364149304
 20
167.57375081380206
 30
0.0
 10
78.367137315538187
 20
167.57375081380206
 30
0.0
  0
SPLINE
  5
C7
100
AcDbEntity
  8
レイヤー_1
 62
     7
100
AcDbSpline
210
0.0
220
0.0
230
1.0
 70
     8
 71
     3
 72
     8
 73
     4
 74
     0
 42
0.00000001
 43
0.00000001
 40
0.0
 40
0.0
 40
0.0
 40
0.0
 40
1.0
 40
1.0
 40
1.0
 40
1.0
 10
102.17705349392361
 20
167.57375081380206
 30
0.0
 10
102.03098144531249
 20
167.57375081380206
 30
0.0
 10
101.91247016059027
 20
167.45541178385415
 30
0.0
 10
101.91247016059027
 20
167.30916748046874
 30
0.0
  0
LINE
  5
C6
100
AcDbEntity
  8
レイヤー_1
 62
     7
100
AcDbLine
 10
73.605154
 20
193.499989
 30
0.0
 11
73.605154
 21
209.373267
 31
0.0
  0
LINE
  5
C5
100
AcDbEntity
  8
レイヤー_1
 62
     7
100
AcDbLine
 10
106.938864
 20
193.499989
 30
0.0
 11
106.938864
 21
209.373267
 31
0.0
  0
LINE
  5
C4
100
AcDbEntity
  8
レイヤー_1
 62
     7
100
AcDbLine
 10
90.271837
 20
135.383984
 30
0.0
 11
90.271837
 21
125.774235
 31
0.0
  0
LINE
  5
C3
100
AcDbEntity
  8
レイヤー_1
 62
     7
100
AcDbLine
 10
190.273313
 20
151.700646
 30
0.0
 11
190.273313
 21
125.774235
 31
0.0
  0
LINE
  5
C2
100
AcDbEntity
  8
レイヤー_1
 62
     7
100
AcDbLine
 10
78.631721
 20
163.516979
 30
0.0
 11
101.91247
 21
163.516979
 31
0.0
  0
LINE
  5
C1
100
AcDbEntity
  8
レイヤー_1
 62
     7
100
AcDbLine
 10
77.573387
 20
142.705846
 30
0.0
 11
35.244877
 21
142.705846
 31
0.0
  0
LINE
  5
C0
100
AcDbEntity
  8
レイヤー_1
 62
     7
100
AcDbLine
 10
72.546993
 20
192.441828
 30
0.0
 11
35.244877
 21
192.441828
 31
0.0
  0
LINE
  5
BF
100
AcDbEntity
  8
レイヤー_1
 62
     7
100
AcDbLine
 10
87.889553
 20
181.330706
 30
0.0
 11
92.652053
 21
181.330706
 31
0.0
  0
LINE
  5
BE
100
AcDbEntity
  8
レイヤー_1
 62
     7
100
AcDbLine
 10
87.889553
 20
174.981223
 30
0.0
 11
92.652053
 21
174.981223
 31
0.0
  0
LINE
  5
BD
100
AcDbEntity
  8
レイヤー_1
 62
     7
100
AcDbLine
 10
86.302398
 20
179.743378
 30
0.0
 11
86.302398
 21
176.568551
 31
0.0
  0
LINE
  5
BC
100
AcDbEntity
  8
レイヤー_1
 62
     7
100
AcDbLine
 10
94.238864
 20
179.743378
 30
0.0
 11
94.238864
 21
176.568551
 31
0.0
  0
SPLINE
  5
BB
100
AcDbEntity
  8
レイヤー_1
 62
     7
100
AcDbSpline
210
0.0
220
0.0
230
1.0
 70
     8
 71
     3
 72
     8
 73
     4
 74
     0
 42
0.00000001
 43
0.00000001
 40
0.0
 40
0.0
 40
0.0
 40
0.0
 40
1.0
 40
1.0
 40
1.0
 40
1.0
 10
87.8895534939236
 20
181.33070610894094
 30
0.0
 10
87.01312120225694
 20
181.33070610894094
 30
0.0
 10
86.30239800347222
 20
180.61981065538194
 30
0.0
 10
86.30239800347222
 20
179.74337836371527
 30
0.0
  0
SPLINE
  5
BA
100
AcDbEntity
  8
レイヤー_1
 62
     7
100
AcDbSpline
210
0.0
220
0.0
230
1.0
 70
     8
 71
     3
 72
     8
 73
     4
 74
     0
 42
0.00000001
 43
0.00000001
 40
0.0
 40
0.0
 40
0.0
 40
0.0
 40
1.0
 40
1.0
 40
1.0
 40
1.0
 10
86.30239800347222
 20
176.56855061848958
 30
0.0
 10
86.30239800347222
 20
175.69194607204861
 30
0.0
 10
87.01312120225694
 20
174.98122287326387
 30
0.0
 10
87.8895534939236
 20
174.98122287326387
 30
0.0
  0
SPLINE
  5
B9
100
AcDbEntity
  8
レイヤー_1
 62
     7
100
AcDbSpline
210
0.0
220
0.0
230
1.0
 70
     8
 71
     3
 72
     8
 73
     4
 74
     0
 42
0.00000001
 43
0.00000001
 40
0.0
 40
0.0
 40
0.0
 40
0.0
 40
1.0
 40
1.0
 40
1.0
 40
1.0
 10
92.652053493923603
 20
174.98122287326387
 30
0.0
 10
93.528485785590263
 20
174.98122287326387
 30
0.0
 10
94.238864474826386
 20
175.69194607204861
 30
0.0
 10
94.238864474826386
 20
176.56855061848958
 30
0.0
  0
SPLINE
  5
B8
100
AcDbEntity
  8
レイヤー_1
 62
     7
100
AcDbSpline
210
0.0
220
0.0
230
1.0
 70
     8
 71
     3
 72
     8
 73
     4
 74
     0
 42
0.00000001
 43
0.00000001
 40
0.0
 40
0.0
 40
0.0
 40
0.0
 40
1.0
 40
1.0
 40
1.0
 40
1.0
 10
94.238864474826386
 20
179.74337836371527
 30
0.0
 10
94.238864474826386
 20
180.61981065538194
 30
0.0
 10
93.528485785590263
 20
181.33070610894094
 30
0.0
 10
92.652053493923603
 20
181.33070610894094
 30
0.0
  0
LINE
  5
B7
100
AcDbEntity
  8
レイヤー_1
 62
     7
100
AcDbLine
 10
100.059353
 20
179.743378
 30
0.0
 11
100.059353
 21
176.568551
 31
0.0
  0
LINE
  5
B6
100
AcDbEntity
  8
レイヤー_1
 62
     7
100
AcDbLine
 10
80.482426
 20
179.743378
 30
0.0
 11
80.482426
 21
176.568551
 31
0.0
  0
LINE
  5
B5
100
AcDbEntity
  8
レイヤー_1
 62
     7
100
AcDbLine
 10
79.689709
 20
185.563523
 30
0.0
 11
79.689709
 21
181.117282
 31
0.0
  0
LINE
  5
B4
100
AcDbEntity
  8
レイヤー_1
 62
     7
100
AcDbLine
 10
79.689709
 20
175.194647
 30
0.0
 11
79.689709
 21
171.01299
 31
0.0
  0
SPLINE
  5
B3
100
AcDbEntity
  8
レイヤー_1
 62
     7
100
AcDbSpline
210
0.0
220
0.0
230
1.0
 70
     8
 71
     3
 72
     8
 73
     4
 74
     0
 42
0.00000001
 43
0.00000001
 40
0.0
 40
0.0
 40
0.0
 40
0.0
 40
1.0
 40
1.0
 40
1.0
 40
1.0
 10
80.482425944010416
 20
179.74337836371527
 30
0.0
 10
80.482425944010416
 20
180.30975206163194
 30
0.0
 10
80.180291069878464
 20
180.83340657552083
 30
0.0
 10
79.689709472656247
 20
181.11728244357639
 30
0.0
  0
SPLINE
  5
B2
100
AcDbEntity
  8
レイヤー_1
 62
     7
100
AcDbSpline
210
0.0
220
0.0
230
1.0
 70
     8
 71
     3
 72
     8
 73
     4
 74
     0
 42
0.00000001
 43
0.00000001
 40
0.0
 40
0.0
 40
0.0
 40
0.0
 40
1.0
 40
1.0
 40
1.0
 40
1.0
 10
79.689709472656247
 20
175.19464653862846
 30
0.0
 10
80.180291069878464
 20
175.47835015190969
 30
0.0
 10
80.482425944010416
 20
176.00200466579861
 30
0.0
 10
80.482425944010416
 20
176.56855061848958
 30
0.0
  0
SPLINE
  5
B1
100
AcDbEntity
  8
レイヤー_1
 62
     7
100
AcDbSpline
210
0.0
220
0.0
230
1.0
 70
     8
 71
     3
 72
     8
 73
     4
 74
     0
 42
0.00000001
 43
0.00000001
 40
0.0
 40
0.0
 40
0.0
 40
0.0
 40
1.0
 40
1.0
 40
1.0
 40
1.0
 10
100.85413682725694
 20
181.1186604817708
 30
0.0
 10
100.36252170138889
 20
180.83530137803817
 30
0.0
 10
100.0593532986111
 20
180.31095784505206
 30
0.0
 10
100.0593532986111
 20
179.74337836371527
 30
0.0
  0
SPLINE
  5
B0
100
AcDbEntity
  8
レイヤー_1
 62
     7
100
AcDbSpline
210
0.0
220
0.0
230
1.0
 70
     8
 71
     3
 72
     8
 73
     4
 74
     0
 42
0.00000001
 43
0.00000001
 40
0.0
 40
0.0
 40
0.0
 40
0.0
 40
1.0
 40
1.0
 40
1.0
 40
1.0
 10
100.0593532986111
 20
176.56855061848958
 30
0.0
 10
100.0593532986111
 20
176.00097113715276
 30
0.0
 10
100.36252170138889
 20
175.47662760416665
 30
0.0
 10
100.85413682725694
 20
175.19309624565972
 30
0.0
  0
SPLINE
  5
AF
100
AcDbEntity
  8
レイヤー_1
 62
     7
100
AcDbSpline
210
0.0
220
0.0
230
1.0
 70
     8
 71
     3
 72
     8
 73
     4
 74
     0
 42
0.00000001
 43
0.00000001
 40
0.0
 40
0.0
 40
0.0
 40
0.0
 40
1.0
 40
1.0
 40
1.0
 40
1.0
 10
100.0593532986111
 20
176.56855061848958
 30
0.0
 10
100.0593532986111
 20
176.00097113715276
 30
0.0
 10
100.36252170138889
 20
175.47662760416665
 30
0.0
 10
100.85413682725694
 20
175.19309624565972
 30
0.0
  0
LINE
  5
AE
100
AcDbEntity
  8
レイヤー_1
 62
     7
100
AcDbLine
 10
100.854137
 20
185.563523
 30
0.0
 11
100.854137
 21
181.11866
 31
0.0
  0
LINE
  5
AD
100
AcDbEntity
  8
レイヤー_1
 62
     7
100
AcDbLine
 10
100.854137
 20
175.193096
 30
0.0
 11
100.854137
 21
171.01299
 31
0.0
  0
SPLINE
  5
AC
100
AcDbEntity
  8
レイヤー_1
 62
     7
100
AcDbSpline
210
0.0
220
0.0
230
1.0
 70
     8
 71
     3
 72
     8
 73
     4
 74
     0
 42
0.00000001
 43
0.00000001
 40
0.0
 40
0.0
 40
0.0
 40
0.0
 40
1.0
 40
1.0
 40
1.0
 40
1.0
 10
100.85413682725694
 20
181.1186604817708
 30
0.0
 10
100.36252170138889
 20
180.83530137803817
 30
0.0
 10
100.0593532986111
 20
180.31095784505206
 30
0.0
 10
100.0593532986111
 20
179.74337836371527
 30
0.0
  0
SPLINE
  5
AB
100
AcDbEntity
  8
レイヤー_1
 62
     7
100
AcDbSpline
210
0.0
220
0.0
230
1.0
 70
     8
 71
     3
 72
     8
 73
     4
 74
     0
 42
0.00000001
 43
0.00000001
 40
0.0
 40
0.0
 40
0.0
 40
0.0
 40
1.0
 40
1.0
 40
1.0
 40
1.0
 10
101.92728407118055
 20
159.57613389756943
 30
0.0
 10
100.14065755208333
 20
156.3692667643229
 30
0.0
 10
100.14341362847222
 20
152.46614583333331
 30
0.0
 10
101.93451877170138
 20
149.26186252170137
 30
0.0
  0
LINE
  5
AA
100
AcDbEntity
  8
レイヤー_1
 62
     7
100
AcDbLine
 10
114.611437
 20
153.023562
 30
0.0
 11
189.692814
 21
153.023562
 31
0.0
  0
LINE
  5
A9
100
AcDbEntity
  8
レイヤー_1
 62
     7
100
AcDbLine
 10
114.611437
 20
155.668707
 30
0.0
 11
189.692814
 21
155.668707
 31
0.0
  0
LINE
  5
A8
100
AcDbEntity
  8
レイヤー_1
 62
     7
100
AcDbLine
 10
73.605154
 20
208.315106
 30
0.0
 11
106.938864
 21
208.315106
 31
0.0
  0
INSERT
  5
A3
100
AcDbEntity
  8
レイヤー_1
 62
     7
100
AcDbBlockReference
  2
AI9-BLK14
 10
75.138394
 20
208.315106
 30
0.0
  0
INSERT
  5
9D
100
AcDbEntity
  8
レイヤー_1
 62
     7
100
AcDbBlockReference
  2
AI9-BLK13
 10
105.405625
 20
208.315106
 30
0.0
  0
LINE
  5
9B
100
AcDbEntity
  8
レイヤー_1
 62
     7
100
AcDbLine
 10
90.271837
 20
126.832568
 30
0.0
 11
190.273313
 21
126.832568
 31
0.0
  0
INSERT
  5
96
100
AcDbEntity
  8
レイヤー_1
 62
     7
100
AcDbBlockReference
  2
AI9-BLK12
 10
91.805077
 20
126.832396
 30
0.0
  0
INSERT
  5
90
100
AcDbEntity
  8
レイヤー_1
 62
     7
100
AcDbBlockReference
  2
AI9-BLK11
 10
188.740073
 20
126.832396
 30
0.0
  0
LINE
  5
8E
100
AcDbEntity
  8
レイヤー_1
 62
     7
100
AcDbLine
 10
36.303038
 20
142.705846
 30
0.0
 11
36.303038
 21
192.441828
 31
0.0
  0
INSERT
  5
89
100
AcDbEntity
  8
レイヤー_1
 62
     7
100
AcDbBlockReference
  2
AI9-BLK10
 10
36.303038
 20
144.239086
 30
0.0
  0
INSERT
  5
83
100
AcDbEntity
  8
レイヤー_1
 62
     7
100
AcDbBlockReference
  2
AI9-BLK9
 10
36.303038
 20
190.908588
 30
0.0
  0
LINE
  5
81
100
AcDbEntity
  8
レイヤー_1
 62
     7
100
AcDbLine
 10
55.49222
 20
163.516979
 30
0.0
 11
78.631721
 21
163.516979
 31
0.0
  0
INSERT
  5
7C
100
AcDbEntity
  8
レイヤー_1
 62
     7
100
AcDbBlockReference
  2
AI9-BLK8
 10
77.098395
 20
163.517065
 30
0.0
  0
LINE
  5
7A
100
AcDbEntity
  8
レイヤー_1
 62
     7
100
AcDbLine
 10
107.203448
 20
163.516979
 30
0.0
 11
101.91247
 21
163.516979
 31
0.0
  0
INSERT
  5
75
100
AcDbEntity
  8
レイヤー_1
 62
     7
100
AcDbBlockReference
  2
AI9-BLK7
 10
103.44571
 20
163.517065
 30
0.0
  0
INSERT
  5
5A
100
AcDbEntity
  8
レイヤー_1
 62
     7
100
AcDbBlockReference
  2
AI9-BLK6
 10
111.171853
 20
154.346134
 30
0.0
  0
LINE
  5
58
100
AcDbEntity
  8
レイヤー_1
 62
     7
100
AcDbLine
 10
87.172629
 20
142.705846
 30
0.0
 11
75.628114
 21
127.025838
 31
0.0
  0
INSERT
  5
53
100
AcDbEntity
  8
レイヤー_1
 62
     7
100
AcDbBlockReference
  2
AI9-BLK5
 10
85.932912
 20
141.227383
 30
0.0
  0
LINE
  5
51
100
AcDbEntity
  8
レイヤー_1
 62
     7
100
AcDbLine
 10
75.628114
 20
127.025838
 30
0.0
 11
55.310319
 21
127.025838
 31
0.0
  0
LINE
  5
50
100
AcDbEntity
  8
レイヤー_1
 62
     7
100
AcDbLine
 10
46.885338
 20
171.01299
 30
0.0
 11
46.885338
 21
191.64825
 31
0.0
  0
INSERT
  5
4B
100
AcDbEntity
  8
レイヤー_1
 62
     7
100
AcDbBlockReference
  2
AI9-BLK4
 10
46.885166
 20
172.546229
 30
0.0
  0
INSERT
  5
45
100
AcDbEntity
  8
レイヤー_1
 62
     7
100
AcDbBlockReference
  2
AI9-BLK3
 10
46.885166
 20
190.115011
 30
0.0
  0
LINE
  5
43
100
AcDbEntity
  8
レイヤー_1
 62
     7
100
AcDbLine
 10
90.271837
 20
136.706901
 30
0.0
 11
90.271837
 21
138.472857
 31
0.0
  0
LINE
  5
42
100
AcDbEntity
  8
レイヤー_1
 62
     7
100
AcDbLine
 10
72.546993
 20
191.64825
 30
0.0
 11
45.827005
 21
191.64825
 31
0.0
  0
LINE
  5
41
100
AcDbEntity
  8
レイヤー_1
 62
     7
100
AcDbLine
 10
75.233651
 20
171.01299
 30
0.0
 11
45.827005
 21
171.01299
 31
0.0
  0
LINE
  5
40
100
AcDbEntity
  8
レイヤー_1
 62
     7
100
AcDbLine
 10
79.689709
 20
180.058949
 30
0.0
 11
79.689709
 21
176.055748
 31
0.0
  0
LINE
  5
3F
100
AcDbEntity
  8
レイヤー_1
 62
     7
100
AcDbLine
 10
100.854137
 20
180.060327
 30
0.0
 11
100.854137
 21
176.055748
 31
0.0
  0
LINE
  5
3E
100
AcDbEntity
  8
レイヤー_1
 62
     7
100
AcDbLine
 10
79.689709
 20
177.113909
 30
0.0
 11
100.854137
 21
177.113909
 31
0.0
  0
LINE
  5
3D
100
AcDbEntity
  8
レイヤー_1
 62
     7
100
AcDbLine
 10
55.090177
 20
177.113909
 30
0.0
 11
79.689709
 21
177.113909
 31
0.0
  0
INSERT
  5
38
100
AcDbEntity
  8
レイヤー_1
 62
     7
100
AcDbBlockReference
  2
AI9-BLK2
 10
78.156556
 20
177.113909
 30
0.0
  0
LINE
  5
36
100
AcDbEntity
  8
レイヤー_1
 62
     7
100
AcDbLine
 10
106.145114
 20
177.113909
 30
0.0
 11
100.854137
 21
177.113909
 31
0.0
  0
INSERT
  5
31
100
AcDbEntity
  8
レイヤー_1
 62
     7
100
AcDbBlockReference
  2
AI9-BLK1
 10
102.387377
 20
177.113909
 30
0.0
  0
MTEXT
  5
2F
100
AcDbEntity
  8
レイヤー_1
 62
     7
100
AcDbMText
 10
85.60735
 20
213.052579
 30
0.0
 40
3.149801
 41
0.0
 71
     1
 72
     2
  1
\fMS Gothic|b0|i0|c128;\H3.1498;\C7;\U+03C6\U+0036\U+0033
  7
STD
210
0.0
220
0.0
230
1.0
 73
     1
 44
1.0
  0
MTEXT
  5
2E
100
AcDbEntity
  8
レイヤー_1
 62
     7
100
AcDbMText
 10
137.583333
 20
130.620401
 30
0.0
 40
3.149801
 41
0.0
 71
     1
 72
     2
  1
\fMS Gothic|b0|i0|c128;\H3.1498;\C7;\U+0031\U+0038\U+0039
  7
STD
210
0.0
220
0.0
230
1.0
 73
     1
 44
1.0
  0
MTEXT
  5
2D
100
AcDbEntity
  8
レイヤー_1
 62
     7
100
AcDbMText
 10
56.561922
 20
130.973524
 30
0.0
 40
3.149801
 41
0.0
 71
     1
 72
     2
  1
\fMS Gothic|b0|i0|c128;\H3.1498;\C7;\U+0047\U+0020\U+0031\U+002D\U+0031\U+002F\U+0034
  7
STD
210
0.0
220
0.0
230
1.0
 73
     1
 44
1.0
  0
MTEXT
  5
2C
100
AcDbEntity
  8
レイヤー_1
 62
     7
100
AcDbMText
 10
55.621239
 20
181.302579
 30
0.0
 40
3.149801
 41
0.0
 71
     1
 72
     2
  1
\fMS Gothic|b0|i0|c128;\H3.1498;\C7;\U+03C6\U+0034\U+0030
  7
STD
210
0.0
220
0.0
230
1.0
 73
     1
 44
1.0
  0
MTEXT
  5
2B
100
AcDbEntity
  8
レイヤー_1
 62
     7
100
AcDbMText
 10
55.738717
 20
167.426596
 30
0.0
 40
3.149801
 41
0.0
 71
     1
 72
     2
  1
\fMS Gothic|b0|i0|c128;\H3.1498;\C7;\U+03C6\U+0034\U+0034
  7
STD
210
0.0
220
0.0
230
1.0
 73
     1
 44
1.0
  0
MTEXT
  5
2A
100
AcDbEntity
  8
レイヤー_1
 62
     7
100
AcDbMText
 10
32.304365
 20
160.925233
 30
0.0
 40
3.149801
 41
0.0
 71
     1
 72
     2
  1
\fMS Gothic|b0|i0|c128;\H3.1498;\C7;\U+0038\U+0037\U+FF5E\U+0031\U+0030\U+0031
  7
STD
210
0.0
220
0.0
230
1.0
 11
0.0
 21
1.0
 31
0.0
 73
     1
 44
1.0
  0
MTEXT
  5
29
100
AcDbEntity
  8
レイヤー_1
 62
     7
100
AcDbMText
 10
42.887699
 20
175.153994
 30
0.0
 40
3.149801
 41
0.0
 71
     1
 72
     2
  1
\fMS Gothic|b0|i0|c128;\H3.1498;\C7;\U+006D\U+0061\U+0078\U+002E\U+0035\U+0030
  7
STD
210
0.0
220
0.0
230
1.0
 11
0.0
 21
1.0
 31
0.0
 73
     1
 44
1.0
  0
ENDSEC
  0
SECTION
  2
OBJECTS
  0
DICTIONARY
  5
19
100
AcDbDictionary
280
     0
281
     1
  3
ACAD_GROUP
350
1A
  3
ACAD_MLINESTYLE
350
1B
  3
ACAD_LAYOUT
350
1E
  3
ACAD_PLOTSETTINGS
350
22
  3
ACAD_PLOTSTYLENAME
350
1F
  3
ACAD_WIPEOUT_VARS
350
23
  0
DICTIONARY
  5
1A
102
{ACAD_REACTORS
330
19
102
}
100
AcDbDictionary
280
     0
281
     1
  0
DICTIONARY
  5
1B
102
{ACAD_REACTORS
330
19
102
}
100
AcDbDictionary
280
     0
281
     1
  3
Standard
350
1C
  0
MLINESTYLE
  5
1C
102
{ACAD_REACTORS
330
1B
102
}
100
AcDbMlineStyle
  2
Standard
 70
     0
  3

 62
     0
 51
90.0
 52
90.0
 71
     2
 49
0.5
 62
   256
  6
ByLayer
 49
-0.5
 62
   256
  6
ByLayer
  0
ACDBDICTIONARYWDFLT
  5
1F
102
{ACAD_REACTORS
330
19
102
}
100
AcDbDictionary
281
     1
  3
Normal
350
1D
100
AcDbDictionaryWithDefault
340
1D
  0
ACDBPLACEHOLDER
  5
1D
102
{ACAD_REACTORS
330
1F
102
}
  0
LAYOUT
  5
20
102
{ACAD_REACTORS
330
1E
102
}
100
AcDbPlotSettings
  1

  2

  4

  6

 40
0.0
 41
0.0
 42
0.0
 43
0.0
 44
0.0
 45
0.0
 46
0.0
 47
0.0
 48
0.0
 49
0.0
140
0.0
141
0.0
142
1.0
143
1.0
 70
  1024
 72
     0
 73
     0
 74
     0
  7

 75
     0
147
1.0
148
0.0
149
0.0
100
AcDbLayout
  1
Model
 70
     0
 71
     0
 10
0.0
 20
0.0
 11
0.0
 21
0.0
 12
0.0
 22
0.0
 32
0.0
 14
0.0
 24
0.0
 34
0.0
 15
0.0
 25
0.0
 35
0.0
146
0.0
 13
0.0
 23
0.0
 33
0.0
 16
0.0
 26
0.0
 36
0.0
 17
0.0
 27
0.0
 37
0.0
 76
     0
330
A
331
0
345
0
346
0
  0
LAYOUT
  5
21
102
{ACAD_REACTORS
330
1E
102
}
100
AcDbPlotSettings
  1

  2

  4

  6

 40
0.0
 41
0.0
 42
0.0
 43
0.0
 44
0.0
 45
0.0
 46
0.0
 47
0.0
 48
0.0
 49
0.0
140
0.0
141
0.0
142
1.0
143
1.0
 70
     0
 72
     0
 73
     0
 74
     0
  7

 75
     0
147
1.0
148
0.0
149
0.0
100
AcDbLayout
  1
Layout1
 70
     0
 71
     0
 10
0.0
 20
0.0
 11
0.0
 21
0.0
 12
0.0
 22
0.0
 32
0.0
 14
0.0
 24
0.0
 34
0.0
 15
0.0
 25
0.0
 35
0.0
146
0.0
 13
0.0
 23
0.0
 33
0.0
 16
0.0
 26
0.0
 36
0.0
 17
0.0
 27
0.0
 37
0.0
 76
     0
330
B
331
0
345
0
346
0
  0
DICTIONARY
  5
1E
102
{ACAD_REACTORS
330
19
102
}
100
AcDbDictionary
280
     0
281
     1
  3
Layout1
350
21
  3
Model
350
20
  0
DICTIONARY
  5
22
102
{ACAD_REACTORS
330
19
102
}
100
AcDbDictionary
280
     0
281
     1
  0
WIPEOUTVARIABLES
  5
23
100
AcDbWipeoutVariables
 70
     1
  0
IMAGEDEF_REACTOR
  5
10F
100
AcDbRasterImageDefReactor
 90
        2
330
10E
  0
IMAGEDEF
  5
110
100
AcDbRasterImageDef
 90
        0
  1
C:\Documents and Settings\marumo\デスクトップ\0411010010000_1.bmp
 10
70.0
 20
9.0
 11
0.352778
 21
0.352778
280
     1
281
     0
  0
IMAGEDEF_REACTOR
  5
112
100
AcDbRasterImageDefReactor
 90
        2
330
111
  0
IMAGEDEF
  5
113
100
AcDbRasterImageDef
 90
        0
  1
C:\Documents and Settings\marumo\デスクトップ\0411010010000_2.bmp
 10
70.0
 20
9.0
 11
0.352778
 21
0.352778
280
     1
281
     0
  0
ENDSEC
  0
EOF
