  0
SECTION
  2
HEADER
  9
$ACADVER
  1
AC1015
  9
$ACADMAINTVER
 70
     6
  9
$DWGCODEPAGE
  3
ANSI_932
  9
$INSBASE
 10
0.0
 20
0.0
 30
0.0
  9
$EXTMIN
 10
23.283333
 20
26.811111
 30
1.000000E+20
  9
$EXTMAX
 10
198.966667
 20
276.930556
 30
-1.000000E+20
  9
$LIMMIN
 10
23.283333
 20
26.811111
  9
$LIMMAX
 10
198.966667
 20
276.930556
  9
$ORTHOMODE
 70
     0
  9
$REGENMODE
 70
     1
  9
$FILLMODE
 70
     1
  9
$QTEXTMODE
 70
     0
  9
$MIRRTEXT
 70
     1
  9
$LTSCALE
 40
1.0
  9
$ATTMODE
 70
     1
  9
$TEXTSIZE
 40
0.2
  9
$TRACEWID
 40
0.05
  9
$TEXTSTYLE
  7
Standard
  9
$CLAYER
  8
0
  9
$CELTYPE
  6
Continuous
  9
$CECOLOR
 62
   256
  9
$CELTSCALE
 40
1.0
  9
$DISPSILH
 70
     0
  9
$DIMSCALE
 40
1.0
  9
$DIMASZ
 40
0.18
  9
$DIMEXO
 40
0.0625
  9
$DIMDLI
 40
0.38
  9
$DIMRND
 40
0.0
  9
$DIMDLE
 40
0.0
  9
$DIMEXE
 40
0.18
  9
$DIMTP
 40
0.0
  9
$DIMTM
 40
0.0
  9
$DIMTXT
 40
0.18
  9
$DIMCEN
 40
0.09
  9
$DIMTSZ
 40
0.0
  9
$DIMTOL
 70
     0
  9
$DIMLIM
 70
     0
  9
$DIMTIH
 70
     1
  9
$DIMTOH
 70
     1
  9
$DIMSE1
 70
     0
  9
$DIMSE2
 70
     0
  9
$DIMTAD
 70
     0
  9
$DIMZIN
 70
     0
  9
$DIMBLK
  1

  9
$DIMASO
 70
     1
  9
$DIMSHO
 70
     1
  9
$DIMPOST
  1

  9
$DIMAPOST
  1

  9
$DIMALT
 70
     0
  9
$DIMALTD
 70
     2
  9
$DIMALTF
 40
25.4
  9
$DIMLFAC
 40
1.0
  9
$DIMTOFL
 70
     0
  9
$DIMTVP
 40
0.0
  9
$DIMTIX
 70
     0
  9
$DIMSOXD
 70
     0
  9
$DIMSAH
 70
     0
  9
$DIMBLK1
  1

  9
$DIMBLK2
  1

  9
$DIMSTYLE
  2
Standard
  9
$DIMCLRD
 70
     0
  9
$DIMCLRE
 70
     0
  9
$DIMCLRT
 70
     0
  9
$DIMTFAC
 40
1.0
  9
$DIMGAP
 40
0.09
  9
$DIMJUST
 70
     0
  9
$DIMSD1
 70
     0
  9
$DIMSD2
 70
     0
  9
$DIMTOLJ
 70
     1
  9
$DIMTZIN
 70
     0
  9
$DIMALTZ
 70
     0
  9
$DIMALTTZ
 70
     0
  9
$DIMUPT
 70
     0
  9
$DIMDEC
 70
     4
  9
$DIMTDEC
 70
     4
  9
$DIMALTU
 70
     2
  9
$DIMALTTD
 70
     2
  9
$DIMTXSTY
  7
Standard
  9
$DIMAUNIT
 70
     0
  9
$DIMADEC
 70
     0
  9
$DIMALTRND
 40
0.0
  9
$DIMAZIN
 70
     0
  9
$DIMDSEP
 70
     0
  9
$DIMATFIT
 70
     3
  9
$DIMFRAC
 70
     0
  9
$DIMLDRBLK
  1

  9
$DIMLUNIT
 70
     2
  9
$DIMLWD
 70
     0
  9
$DIMLWE
 70
     0
  9
$DIMTMOVE
 70
     0
  9
$LUNITS
 70
     2
  9
$LUPREC
 70
     4
  9
$SKETCHINC
 40
0.1
  9
$FILLETRAD
 40
0.0
  9
$AUNITS
 70
     0
  9
$AUPREC
 70
     0
  9
$MENU
  1
acad
  9
$ELEVATION
 40
0.0
  9
$PELEVATION
 40
0.0
  9
$THICKNESS
 40
0.0
  9
$LIMCHECK
 70
     0
  9
$CHAMFERA
 40
0.0
  9
$CHAMFERB
 40
0.0
  9
$CHAMFERC
 40
0.0
  9
$CHAMFERD
 40
0.0
  9
$SKPOLY
 70
     0
  9
$TDCREATE
 40
0.000000000
  9
$TDUCREATE
 40
0.000000000
  9
$TDUPDATE
 40
0.000000000
  9
$TDUUPDATE
 40
0.000000000
  9
$TDINDWG
 40
0.0000000000
  9
$TDUSRTIMER
 40
0.0000000000
  9
$USRTIMER
 70
     1
  9
$ANGBASE
 50
0.0
  9
$ANGDIR
 70
     0
  9
$PDMODE
 70
     0
  9
$PDSIZE
 40
0.0
  9
$PLINEWID
 40
0.0
  9
$SPLFRAME
 70
     0
  9
$SPLINETYPE
 70
     6
  9
$SPLINESEGS
 70
     8
  9
$HANDSEED
  5
38D
  9
$SURFTAB1
 70
     6
  9
$SURFTAB2
 70
     6
  9
$SURFTYPE
 70
     6
  9
$SURFU
 70
     6
  9
$SURFV
 70
     6
  9
$UCSBASE
  2

  9
$UCSNAME
  2

  9
$UCSORG
 10
0.0
 20
0.0
 30
0.0
  9
$UCSXDIR
 10
1.0
 20
0.0
 30
0.0
  9
$UCSYDIR
 10
0.0
 20
1.0
 30
0.0
  9
$UCSORTHOREF
  2

  9
$UCSORTHOVIEW
 70
     0
  9
$UCSORGTOP
 10
0.0
 20
0.0
 30
0.0
  9
$UCSORGBOTTOM
 10
0.0
 20
0.0
 30
0.0
  9
$UCSORGLEFT
 10
0.0
 20
0.0
 30
0.0
  9
$UCSORGRIGHT
 10
0.0
 20
0.0
 30
0.0
  9
$UCSORGFRONT
 10
0.0
 20
0.0
 30
0.0
  9
$UCSORGBACK
 10
0.0
 20
0.0
 30
0.0
  9
$PUCSBASE
  2

  9
$PUCSNAME
  2

  9
$PUCSORG
 10
0.0
 20
0.0
 30
0.0
  9
$PUCSXDIR
 10
1.0
 20
0.0
 30
0.0
  9
$PUCSYDIR
 10
0.0
 20
1.0
 30
0.0
  9
$PUCSORTHOREF
  2

  9
$PUCSORTHOVIEW
 70
     0
  9
$PUCSORGTOP
 10
0.0
 20
0.0
 30
0.0
  9
$PUCSORGBOTTOM
 10
0.0
 20
0.0
 30
0.0
  9
$PUCSORGLEFT
 10
0.0
 20
0.0
 30
0.0
  9
$PUCSORGRIGHT
 10
0.0
 20
0.0
 30
0.0
  9
$PUCSORGFRONT
 10
0.0
 20
0.0
 30
0.0
  9
$PUCSORGBACK
 10
0.0
 20
0.0
 30
0.0
  9
$USERI1
 70
     0
  9
$USERI2
 70
     0
  9
$USERI3
 70
     0
  9
$USERI4
 70
     0
  9
$USERI5
 70
     0
  9
$USERR1
 40
0.0
  9
$USERR2
 40
0.0
  9
$USERR3
 40
0.0
  9
$USERR4
 40
0.0
  9
$USERR5
 40
0.0
  9
$WORLDVIEW
 70
     1
  9
$SHADEDGE
 70
     3
  9
$SHADEDIF
 70
    70
  9
$TILEMODE
 70
     1
  9
$MAXACTVP
 70
    16
  9
$PINSBASE
 10
0.0
 20
0.0
 30
0.0
  9
$PLIMCHECK
 70
     0
  9
$PEXTMIN
 10
1.000000E+20
 20
1.000000E+20
 30
1.000000E+20
  9
$PEXTMAX
 10
-1.000000E+20
 20
-1.000000E+20
 30
-1.000000E+20
  9
$PLIMMIN
 10
0.0
 20
0.0
  9
$PLIMMAX
 10
12.0
 20
9.0
  9
$UNITMODE
 70
     0
  9
$VISRETAIN
 70
     0
  9
$PLINEGEN
 70
     1
  9
$PSLTSCALE
 70
     0
  9
$TREEDEPTH
 70
  3020
  9
$CMLSTYLE
  2
Standard
  9
$CMLJUST
 70
     0
  9
$CMLSCALE
 40
1.0
  9
$PROXYGRAPHICS
 70
     0
  9
$MEASUREMENT
 70
     0
  9
$CELWEIGHT
370
     0
  9
$ENDCAPS
280
     0
  9
$JOINSTYLE
280
     0
  9
$LWDISPLAY
290
     0
  9
$INSUNITS
 70
     0
  9
$HYPERLINKBASE
  1

  9
$XEDIT
290
     1
  9
$CEPSNTYPE
380
     0
  9
$PSTYLEMODE
290
     1
  9
$FINGERPRINTGUID
  2

  9
$VERSIONGUID
  2

  9
$EXTNAMES
290
     1
  9
$PSVPSCALE
 40
0.0
  0
ENDSEC
  0
SECTION
  2
CLASSES
  0
CLASS
  1
LWPOLYLINE
  2
AcDbPolyline
  3
"AutoCAD"
 90
        0
280
     0
281
     1
  0
CLASS
  1
IMAGE
  2
AcDbRasterImage
  3
ISM
 90
      127
280
     0
281
     1
  0
CLASS
  1
OLE2FRAME
  2
AcDbOle2Frame
  3
""
 90
        0
280
     0
281
     1
  0
CLASS
  1
HATCH
  2
AcDbHatch
  3
"ACAD_SEDONA"
 90
        0
280
     0
281
     1
  0
CLASS
  1
DICTIONARYVAR
  2
AcDbDictionaryVar
  3
"AutoCAD"
 90
        0
280
     0
281
     0
  0
CLASS
  1
RASTERVARIABLES
  2
AcDbRasterVariables
  3
ISM
 90
        0
280
     0
281
     0
  0
CLASS
  1
IMAGEDEF
  2
AcDbRasterImageDef
  3
ISM
 90
        0
280
     0
281
     0
  0
CLASS
  1
IMAGEDEF_REACTOR
  2
AcDbRasterImageDefReactor
  3
ISM
 90
        1
280
     0
281
     0
  0
CLASS
  1
IDBUFFER
  2
AcDbIdBuffer
  3
"Acad"
 90
        0
280
     0
281
     0
  0
CLASS
  1
SPATIAL_FILTER
  2
AcDbSpatialFilter
  3
"Acad"
 90
        0
280
     0
281
     0
  0
CLASS
  1
XRECORD
  2
AcDbXrecord
  3
"<Built In>"
 90
        0
280
     0
281
     0
  0
CLASS
  1
SORTENTSTABLE
  2
AcDbSortentsTable
  3
"AutoCAD"
 90
        0
280
     0
281
     0
  0
CLASS
  1
LAYER_INDEX
  2
AcDbLayerIndex
  3
"Acad"
 90
        0
280
     0
281
     0
  0
CLASS
  1
SPATIAL_INDEX
  2
AcDbSpatialIndex
  3
"Acad"
 90
        0
280
     0
281
     0
  0
CLASS
  1
OBJECT_PTR
  2
CAseDLPNTableRecord
  3
"ASE-LPNTableRecord"
 90
        1
280
     0
281
     0
  0
CLASS
  1
LAYOUT
  2
AcDbLayout
  3
"AutoCAD 2000"
 90
        1
280
     0
281
     0
  0
CLASS
  1
PLOTSETTINGS
  2
AcDbPlotSettings
  3
"AutoCAD 2000"
 90
        1
280
     0
281
     0
  0
CLASS
  1
ACDBDICTIONARYWDFLT
  2
AcDbDictionaryWithDefault
  3
"AutoCAD 2000"
 90
        1
280
     0
281
     0
  0
CLASS
  1
ACDBPLACEHOLDER
  2
AcDbPlaceHolder
  3
"AutoCAD 2000"
 90
        1
280
     0
281
     0
  0
CLASS
  1
VBA_PROJECT
  2
AcDbVbaProject
  3
"acadvba"
 90
        1
280
     0
281
     0
  0
CLASS
  1
WIPEOUT
  2
AcDbWipeout
  3
WipeOut|AutoCAD Express Tool|expresstools@autodesk.com
 90
      127
280
     0
281
     1
  0
CLASS
  1
WIPEOUTVARIABLES
  2
AcDbWipeoutVariables
  3
WipeOut|AutoCAD Express Tool|expresstools@autodesk.com
 90
        0
280
     0
281
     0
  0
CLASS
  1
RTEXT
  2
RText
  3
RText|AutoCAD Express Tool|expresstools@autodesk.com
 90
        0
280
     0
281
     1
  0
CLASS
  1
ARCALIGNEDTEXT
  2
AcDbArcAlignedText
  3
ATEXT|AutoCAD Express Tool|expresstools@autodesk.com
 90
        0
280
     0
281
     1
  0
ENDSEC
  0
SECTION
  2
TABLES
  0
TABLE
  2
VPORT
  5
7
100
AcDbSymbolTable
 70
     1
  0
VPORT
  5
15
100
AcDbSymbolTableRecord
100
AcDbViewportTableRecord
  2
*ACTIVE
 70
     0
 10
0.0
 20
0.0
 11
1.0
 21
1.0
 12
6.591288
 22
4.579184
 13
0.0
 23
0.0
 14
1.0
 24
1.0
 15
0.0
 25
0.0
 16
0.0
 26
0.0
 36
1.0
 17
0.0
 27
0.0
 37
0.0
 40
9.158369
 41
0.688564
 42
50.0
 43
0.0
 44
0.0
 50
0.0
 51
0.0
 71
     0
 72
   100
 73
     1
 74
     1
 75
     0
 76
     0
 77
     0
 78
     0
281
     0
 65
     0
110
0.0
120
0.0
130
0.0
111
1.0
121
0.0
131
0.0
112
0.0
122
1.0
132
0.0
345
0
346
0
 79
     0
146
0.0
  0
ENDTAB
  0
TABLE
  2
LTYPE
  5
4
100
AcDbSymbolTable
 70
     4
  0
LTYPE
  5
11
100
AcDbSymbolTableRecord
100
AcDbLinetypeTableRecord
  2
ByBlock
 70
    64
  3

 72
    65
 73
     0
 40
0.0
  0
LTYPE
  5
12
100
AcDbSymbolTableRecord
100
AcDbLinetypeTableRecord
  2
ByLayer
 70
    64
  3

 72
    65
 73
     0
 40
0.0
  0
LTYPE
  5
13
100
AcDbSymbolTableRecord
100
AcDbLinetypeTableRecord
  2
Continuous
 70
    64
  3
Solid line
 72
    65
 73
     0
 40
0.0
  0
LTYPE
  5
140
100
AcDbSymbolTableRecord
100
AcDbLinetypeTableRecord
  2
AI9-LType1
 70
    64
  3
Illustrator Dash Style No.1
 72
    65
 73
     4
 40
13.187327
 49
5.733627
 74
     0
 49
-2.866813
 74
     0
 49
1.720074
 74
     0
 49
-2.866813
 74
     0
  0
ENDTAB
  0
TABLE
  2
LAYER
  5
2
100
AcDbSymbolTable
 70
     2
  0
LAYER
  5
14
100
AcDbSymbolTableRecord
100
AcDbLayerTableRecord
  2
0
 70
     0
 62
     7
  6
Continuous
290
     1
370
    -3
390
1D
  0
LAYER
  5
28
100
AcDbSymbolTableRecord
100
AcDbLayerTableRecord
  2
レイヤー_1
 70
     0
 62
   160
  6
Continuous
290
     1
370
    -3
390
1F
  0
ENDTAB
  0
TABLE
  2
STYLE
  5
3
100
AcDbSymbolTable
 70
     5
  0
STYLE
  5
17
100
AcDbSymbolTableRecord
100
AcDbTextStyleTableRecord
  2
Standard
 70
     0
 40
0.0
 41
1.0
 50
0.0
 71
     0
 42
0.0
  3
txt
  4

  0
STYLE
  5
24
100
AcDbSymbolTableRecord
100
AcDbTextStyleTableRecord
  2
STD
 70
     0
 40
0.0
 41
1.0
 50
0.0
 71
     0
 42
0.0
  3
txt
  4

  0
STYLE
  5
25
100
AcDbSymbolTableRecord
100
AcDbTextStyleTableRecord
  2
TATESTD
 70
     4
 40
0.0
 41
1.0
 50
0.0
 71
     0
 42
0.0
  3
txt
  4

  0
STYLE
  5
26
100
AcDbSymbolTableRecord
100
AcDbTextStyleTableRecord
  2
KANJISTD
 70
     0
 40
0.0
 41
1.0
 50
0.0
 71
     0
 42
0.0
  3
txt
  4
extfont
  0
STYLE
  5
27
100
AcDbSymbolTableRecord
100
AcDbTextStyleTableRecord
  2
KANJITATE
 70
     4
 40
0.0
 41
1.0
 50
0.0
 71
     0
 42
0.0
  3
txt
  4
extfont
  0
ENDTAB
  0
TABLE
  2
VIEW
  5
5
100
AcDbSymbolTable
 70
     0
  0
ENDTAB
  0
TABLE
  2
UCS
  5
6
100
AcDbSymbolTable
 70
     0
  0
ENDTAB
  0
TABLE
  2
APPID
  5
8
100
AcDbSymbolTable
 70
     1
  0
APPID
  5
16
100
AcDbSymbolTableRecord
100
AcDbRegAppTableRecord
  2
ACAD
 70
     0
  0
ENDTAB
  0
TABLE
  2
DIMSTYLE
  5
9
100
AcDbSymbolTable
 70
     1
100
AcDbDimStyleTable
 71
     0
  0
DIMSTYLE
105
18
100
AcDbSymbolTableRecord
100
AcDbDimStyleTableRecord
  2
Standard
 70
     0
  3

  4

 40
1.0
 41
0.18
 42
0.0625
 43
0.38
 44
0.18
 45
0.0
 46
0.0
 47
0.0
 48
0.0
 71
     0
 72
     0
 73
     1
 74
     1
 75
     0
 76
     0
 77
     0
 78
     0
 79
     0
140
0.18
141
0.09
142
0.0
143
25.4
144
1.0
145
0.0
146
1.0
147
0.09
148
0.0
170
     0
171
     2
172
     0
173
     0
174
     0
175
     0
176
     0
177
     0
178
     0
179
     0
271
     4
272
     4
273
     2
274
     2
275
     0
276
     0
277
     2
278
    46
279
     0
280
     0
281
     0
282
     0
283
     1
284
     0
285
     0
286
     0
288
     0
340
17
341
0
342
0
343
0
344
0
371
    -2
372
    -2
  0
ENDTAB
  0
TABLE
  2
BLOCK_RECORD
  5
1
100
AcDbSymbolTable
 70
    38
  0
BLOCK_RECORD
  5
A
100
AcDbSymbolTableRecord
100
AcDbBlockTableRecord
  2
*MODEL_SPACE
340
20
  0
BLOCK_RECORD
  5
B
100
AcDbSymbolTableRecord
100
AcDbBlockTableRecord
  2
*PAPER_SPACE
340
21
  0
BLOCK_RECORD
  5
3A
100
AcDbSymbolTableRecord
100
AcDbBlockTableRecord
  2
AI9-BLK1
340
0
  0
BLOCK_RECORD
  5
6B
100
AcDbSymbolTableRecord
100
AcDbBlockTableRecord
  2
AI9-BLK2
340
0
  0
BLOCK_RECORD
  5
78
100
AcDbSymbolTableRecord
100
AcDbBlockTableRecord
  2
AI9-BLK3
340
0
  0
BLOCK_RECORD
  5
7D
100
AcDbSymbolTableRecord
100
AcDbBlockTableRecord
  2
AI9-BLK4
340
0
  0
BLOCK_RECORD
  5
83
100
AcDbSymbolTableRecord
100
AcDbBlockTableRecord
  2
AI9-BLK5
340
0
  0
BLOCK_RECORD
  5
8B
100
AcDbSymbolTableRecord
100
AcDbBlockTableRecord
  2
AI9-BLK6
340
0
  0
BLOCK_RECORD
  5
93
100
AcDbSymbolTableRecord
100
AcDbBlockTableRecord
  2
AI9-BLK7
340
0
  0
BLOCK_RECORD
  5
9B
100
AcDbSymbolTableRecord
100
AcDbBlockTableRecord
  2
AI9-BLK8
340
0
  0
BLOCK_RECORD
  5
A3
100
AcDbSymbolTableRecord
100
AcDbBlockTableRecord
  2
AI9-BLK9
340
0
  0
BLOCK_RECORD
  5
AB
100
AcDbSymbolTableRecord
100
AcDbBlockTableRecord
  2
AI9-BLK10
340
0
  0
BLOCK_RECORD
  5
B3
100
AcDbSymbolTableRecord
100
AcDbBlockTableRecord
  2
AI9-BLK11
340
0
  0
BLOCK_RECORD
  5
BA
100
AcDbSymbolTableRecord
100
AcDbBlockTableRecord
  2
AI9-BLK12
340
0
  0
BLOCK_RECORD
  5
C2
100
AcDbSymbolTableRecord
100
AcDbBlockTableRecord
  2
AI9-BLK13
340
0
  0
BLOCK_RECORD
  5
C9
100
AcDbSymbolTableRecord
100
AcDbBlockTableRecord
  2
AI9-BLK14
340
0
  0
BLOCK_RECORD
  5
D1
100
AcDbSymbolTableRecord
100
AcDbBlockTableRecord
  2
AI9-BLK15
340
0
  0
BLOCK_RECORD
  5
D8
100
AcDbSymbolTableRecord
100
AcDbBlockTableRecord
  2
AI9-BLK16
340
0
  0
BLOCK_RECORD
  5
E0
100
AcDbSymbolTableRecord
100
AcDbBlockTableRecord
  2
AI9-BLK17
340
0
  0
BLOCK_RECORD
  5
E7
100
AcDbSymbolTableRecord
100
AcDbBlockTableRecord
  2
AI9-BLK18
340
0
  0
BLOCK_RECORD
  5
EF
100
AcDbSymbolTableRecord
100
AcDbBlockTableRecord
  2
AI9-BLK19
340
0
  0
BLOCK_RECORD
  5
F6
100
AcDbSymbolTableRecord
100
AcDbBlockTableRecord
  2
AI9-BLK20
340
0
  0
BLOCK_RECORD
  5
FE
100
AcDbSymbolTableRecord
100
AcDbBlockTableRecord
  2
AI9-BLK21
340
0
  0
BLOCK_RECORD
  5
105
100
AcDbSymbolTableRecord
100
AcDbBlockTableRecord
  2
AI9-BLK22
340
0
  0
BLOCK_RECORD
  5
10D
100
AcDbSymbolTableRecord
100
AcDbBlockTableRecord
  2
AI9-BLK23
340
0
  0
BLOCK_RECORD
  5
114
100
AcDbSymbolTableRecord
100
AcDbBlockTableRecord
  2
AI9-BLK24
340
0
  0
BLOCK_RECORD
  5
1B7
100
AcDbSymbolTableRecord
100
AcDbBlockTableRecord
  2
AI9-BLK25
340
0
  0
BLOCK_RECORD
  5
1CA
100
AcDbSymbolTableRecord
100
AcDbBlockTableRecord
  2
AI9-BLK26
340
0
  0
BLOCK_RECORD
  5
1EE
100
AcDbSymbolTableRecord
100
AcDbBlockTableRecord
  2
AI9-BLK27
340
0
  0
BLOCK_RECORD
  5
21C
100
AcDbSymbolTableRecord
100
AcDbBlockTableRecord
  2
AI9-BLK28
340
0
  0
BLOCK_RECORD
  5
26D
100
AcDbSymbolTableRecord
100
AcDbBlockTableRecord
  2
AI9-BLK29
340
0
  0
BLOCK_RECORD
  5
274
100
AcDbSymbolTableRecord
100
AcDbBlockTableRecord
  2
AI9-BLK30
340
0
  0
BLOCK_RECORD
  5
2FC
100
AcDbSymbolTableRecord
100
AcDbBlockTableRecord
  2
AI9-BLK31
340
0
  0
BLOCK_RECORD
  5
304
100
AcDbSymbolTableRecord
100
AcDbBlockTableRecord
  2
AI9-BLK32
340
0
  0
BLOCK_RECORD
  5
30C
100
AcDbSymbolTableRecord
100
AcDbBlockTableRecord
  2
AI9-BLK33
340
0
  0
BLOCK_RECORD
  5
314
100
AcDbSymbolTableRecord
100
AcDbBlockTableRecord
  2
AI9-BLK34
340
0
  0
BLOCK_RECORD
  5
31E
100
AcDbSymbolTableRecord
100
AcDbBlockTableRecord
  2
AI9-BLK35
340
0
  0
BLOCK_RECORD
  5
32F
100
AcDbSymbolTableRecord
100
AcDbBlockTableRecord
  2
AI9-BLK36
340
0
  0
BLOCK_RECORD
  5
337
100
AcDbSymbolTableRecord
100
AcDbBlockTableRecord
  2
AI9-BLK37
340
0
  0
BLOCK_RECORD
  5
340
100
AcDbSymbolTableRecord
100
AcDbBlockTableRecord
  2
AI9-BLK38
340
0
  0
ENDTAB
  0
ENDSEC
  0
SECTION
  2
BLOCKS
  0
BLOCK
  5
D
100
AcDbEntity
  8
0
100
AcDbBlockBegin
  2
*MODEL_SPACE
 70
     0
 10
0.0
 20
0.0
 30
0.0
  3
*MODEL_SPACE
  1

  0
ENDBLK
  5
E
100
AcDbEntity
  8
0
100
AcDbBlockEnd
  0
BLOCK
  5
F
100
AcDbEntity
 67
     1
  8
0
100
AcDbBlockBegin
  2
*PAPER_SPACE
 70
     0
 10
0.0
 20
0.0
 30
0.0
  3
*PAPER_SPACE
  1

  0
ENDBLK
  5
10
100
AcDbEntity
 67
     1
  8
0
100
AcDbBlockEnd
  0
BLOCK
  5
3C
100
AcDbEntity
  8
レイヤー_1
 62
     7
100
AcDbBlockBegin
  2
AI9-BLK1
 70
     0
 10
0.0
 20
0.0
 30
0.0
  3
AI9-BLK1
  1

  0
LINE
  5
69
100
AcDbEntity
  8
レイヤー_1
 62
     7
100
AcDbLine
 10
-3.493671
 20
-3.505729
 30
0.0
 11
1.644344
 21
1.632114
 31
0.0
  0
LINE
  5
68
100
AcDbEntity
  8
レイヤー_1
 62
     7
100
AcDbLine
 10
2.030884
 20
2.018654
 30
0.0
 11
3.225643
 21
3.212724
 31
0.0
  0
LINE
  5
67
100
AcDbEntity
  8
レイヤー_1
 62
     7
100
AcDbLine
 10
-3.947735
 20
-3.505729
 30
0.0
 11
2.771579
 21
3.212724
 31
0.0
  0
LINE
  5
66
100
AcDbEntity
  8
レイヤー_1
 62
     7
100
AcDbLine
 10
-4.401799
 20
-3.505729
 30
0.0
 11
-0.067179
 21
0.829234
 31
0.0
  0
LINE
  5
65
100
AcDbEntity
  8
レイヤー_1
 62
     7
100
AcDbLine
 10
0.265617
 20
1.161686
 30
0.0
 11
2.316827
 21
3.212724
 31
0.0
  0
LINE
  5
64
100
AcDbEntity
  8
レイヤー_1
 62
     7
100
AcDbLine
 10
-4.856551
 20
-3.505729
 30
0.0
 11
-0.640443
 21
0.709001
 31
0.0
  0
LINE
  5
63
100
AcDbEntity
  8
レイヤー_1
 62
     7
100
AcDbLine
 10
0.537779
 20
1.888946
 30
0.0
 11
1.862074
 21
3.212724
 31
0.0
  0
LINE
  5
62
100
AcDbEntity
  8
レイヤー_1
 62
     7
100
AcDbLine
 10
-5.311304
 20
-3.505729
 30
0.0
 11
-1.216463
 21
0.589973
 31
0.0
  0
LINE
  5
61
100
AcDbEntity
  8
レイヤー_1
 62
     7
100
AcDbLine
 10
0.810631
 20
2.615861
 30
0.0
 11
1.407322
 21
3.212724
 31
0.0
  0
LINE
  5
60
100
AcDbEntity
  8
レイヤー_1
 62
     7
100
AcDbLine
 10
-5.765367
 20
-3.505729
 30
0.0
 11
-1.789727
 21
0.470083
 31
0.0
  0
LINE
  5
5F
100
AcDbEntity
  8
レイヤー_1
 62
     7
100
AcDbLine
 10
-6.219431
 20
-3.505729
 30
0.0
 11
-2.362991
 21
0.350538
 31
0.0
  0
LINE
  5
5E
100
AcDbEntity
  8
レイヤー_1
 62
     7
100
AcDbLine
 10
-6.674183
 20
-3.505729
 30
0.0
 11
-2.937633
 21
0.23151
 31
0.0
  0
LINE
  5
5D
100
AcDbEntity
  8
レイヤー_1
 62
     7
100
AcDbLine
 10
-7.128247
 20
-3.505729
 30
0.0
 11
-3.511586
 21
0.111104
 31
0.0
  0
LINE
  5
5C
100
AcDbEntity
  8
レイヤー_1
 62
     7
100
AcDbLine
 10
-7.583
 20
-3.505729
 30
0.0
 11
-4.08485
 21
-0.007751
 31
0.0
  0
LINE
  5
5B
100
AcDbEntity
  8
レイヤー_1
 62
     7
100
AcDbLine
 10
-8.037752
 20
-3.505729
 30
0.0
 11
-4.660181
 21
-0.127296
 31
0.0
  0
LINE
  5
5A
100
AcDbEntity
  8
レイヤー_1
 62
     7
100
AcDbLine
 10
-8.491816
 20
-3.505729
 30
0.0
 11
-5.234134
 21
-0.247186
 31
0.0
  0
LINE
  5
59
100
AcDbEntity
  8
レイヤー_1
 62
     7
100
AcDbLine
 10
-8.605504
 20
-3.163976
 30
0.0
 11
-5.807397
 21
-0.36673
 31
0.0
  0
LINE
  5
58
100
AcDbEntity
  8
レイヤー_1
 62
     7
100
AcDbLine
 10
-8.605504
 20
-2.710257
 30
0.0
 11
-6.38135
 21
-0.486447
 31
0.0
  0
LINE
  5
57
100
AcDbEntity
  8
レイヤー_1
 62
     7
100
AcDbLine
 10
-8.605504
 20
-2.256193
 30
0.0
 11
-6.933944
 21
-0.584116
 31
0.0
  0
LINE
  5
56
100
AcDbEntity
  8
レイヤー_1
 62
     7
100
AcDbLine
 10
-8.605504
 20
-1.80144
 30
0.0
 11
-7.388696
 21
-0.584116
 31
0.0
  0
LINE
  5
55
100
AcDbEntity
  8
レイヤー_1
 62
     7
100
AcDbLine
 10
-8.605504
 20
-1.34686
 30
0.0
 11
-7.842071
 21
-0.584116
 31
0.0
  0
LINE
  5
54
100
AcDbEntity
  8
レイヤー_1
 62
     7
100
AcDbLine
 10
-8.605504
 20
-0.892969
 30
0.0
 11
-8.297512
 21
-0.584116
 31
0.0
  0
LINE
  5
53
100
AcDbEntity
  8
レイヤー_1
 62
     7
100
AcDbLine
 10
-3.039608
 20
-3.505729
 30
0.0
 11
1.61885
 21
1.152212
 31
0.0
  0
LINE
  5
52
100
AcDbEntity
  8
レイヤー_1
 62
     7
100
AcDbLine
 10
2.511819
 20
2.044664
 30
0.0
 11
3.679706
 21
3.212724
 31
0.0
  0
LINE
  5
51
100
AcDbEntity
  8
レイヤー_1
 62
     7
100
AcDbLine
 10
3.956003
 20
3.488848
 30
0.0
 11
4.263306
 21
3.79684
 31
0.0
  0
LINE
  5
50
100
AcDbEntity
  8
レイヤー_1
 62
     7
100
AcDbLine
 10
-2.584166
 20
-3.505729
 30
0.0
 11
1.61885
 21
0.69746
 31
0.0
  0
LINE
  5
4F
100
AcDbEntity
  8
レイヤー_1
 62
     7
100
AcDbLine
 10
2.965883
 20
2.044664
 30
0.0
 11
4.539602
 21
3.618556
 31
0.0
  0
LINE
  5
4E
100
AcDbEntity
  8
レイヤー_1
 62
     7
100
AcDbLine
 10
-2.130103
 20
-3.505729
 30
0.0
 11
1.61885
 21
0.243051
 31
0.0
  0
LINE
  5
4D
100
AcDbEntity
  8
レイヤー_1
 62
     7
100
AcDbLine
 10
3.419946
 20
2.044664
 30
0.0
 11
4.880667
 21
3.504868
 31
0.0
  0
LINE
  5
4C
100
AcDbEntity
  8
レイヤー_1
 62
     7
100
AcDbLine
 10
-1.67535
 20
-3.505729
 30
0.0
 11
1.61885
 21
-0.211873
 31
0.0
  0
LINE
  5
4B
100
AcDbEntity
  8
レイヤー_1
 62
     7
100
AcDbLine
 10
3.87401
 20
2.044664
 30
0.0
 11
5.335419
 21
3.504868
 31
0.0
  0
LINE
  5
4A
100
AcDbEntity
  8
レイヤー_1
 62
     7
100
AcDbLine
 10
-1.221975
 20
-3.505729
 30
0.0
 11
1.61885
 21
-0.665592
 31
0.0
  0
LINE
  5
49
100
AcDbEntity
  8
レイヤー_1
 62
     7
100
AcDbLine
 10
4.329451
 20
2.044664
 30
0.0
 11
5.789483
 21
3.504868
 31
0.0
  0
LINE
  5
48
100
AcDbEntity
  8
レイヤー_1
 62
     7
100
AcDbLine
 10
-0.766534
 20
-3.505729
 30
0.0
 11
1.61885
 21
-1.120173
 31
0.0
  0
LINE
  5
47
100
AcDbEntity
  8
レイヤー_1
 62
     7
100
AcDbLine
 10
4.784204
 20
2.044664
 30
0.0
 11
6.238034
 21
3.499528
 31
0.0
  0
LINE
  5
46
100
AcDbEntity
  8
レイヤー_1
 62
     7
100
AcDbLine
 10
-0.311781
 20
-3.505729
 30
0.0
 11
1.61885
 21
-1.574925
 31
0.0
  0
LINE
  5
45
100
AcDbEntity
  8
レイヤー_1
 62
     7
100
AcDbLine
 10
5.238268
 20
2.044664
 30
0.0
 11
6.804408
 21
3.610632
 31
0.0
  0
LINE
  5
44
100
AcDbEntity
  8
レイヤー_1
 62
     7
100
AcDbLine
 10
-0.280086
 20
-3.92827
 30
0.0
 11
1.61885
 21
-2.029506
 31
0.0
  0
LINE
  5
43
100
AcDbEntity
  8
レイヤー_1
 62
     7
100
AcDbLine
 10
5.692331
 20
2.044664
 30
0.0
 11
8.028795
 21
4.382161
 31
0.0
  0
LINE
  5
42
100
AcDbEntity
  8
レイヤー_1
 62
     7
100
AcDbLine
 10
-0.280086
 20
-4.382161
 30
0.0
 11
1.61885
 21
-2.484086
 31
0.0
  0
LINE
  5
41
100
AcDbEntity
  8
レイヤー_1
 62
     7
100
AcDbLine
 10
6.145706
 20
2.044664
 30
0.0
 11
8.483548
 21
4.382161
 31
0.0
  0
LINE
  5
40
100
AcDbEntity
  8
レイヤー_1
 62
     7
100
AcDbLine
 10
0.174666
 20
-4.382161
 30
0.0
 11
1.61885
 21
-2.937461
 31
0.0
  0
LINE
  5
3F
100
AcDbEntity
  8
レイヤー_1
 62
     7
100
AcDbLine
 10
6.624574
 20
2.067919
 30
0.0
 11
8.605504
 21
4.049021
 31
0.0
  0
LINE
  5
3E
100
AcDbEntity
  8
レイヤー_1
 62
     7
100
AcDbLine
 10
0.62873
 20
-4.382161
 30
0.0
 11
1.61885
 21
-3.391869
 31
0.0
  0
LINE
  5
3D
100
AcDbEntity
  8
レイヤー_1
 62
     7
100
AcDbLine
 10
7.269496
 20
2.257916
 30
0.0
 11
8.416024
 21
3.404443
 31
0.0
  0
ENDBLK
  5
6A
100
AcDbEntity
  8
レイヤー_1
100
AcDbBlockEnd
  0
BLOCK
  5
6D
100
AcDbEntity
  8
レイヤー_1
 62
     7
100
AcDbBlockBegin
  2
AI9-BLK2
 70
     0
 10
0.0
 20
0.0
 30
0.0
  3
AI9-BLK2
  1

  0
SPLINE
  5
76
100
AcDbEntity
  8
レイヤー_1
 62
     7
100
AcDbSpline
210
0.0
220
0.0
230
1.0
 70
     8
 71
     3
 72
     8
 73
     4
 74
     0
 42
0.00000001
 43
0.00000001
 40
0.0
 40
0.0
 40
0.0
 40
0.0
 40
1.0
 40
1.0
 40
1.0
 40
1.0
 10
-22.747879367404511
 20
-4.8820448133680552
 30
0.0
 10
-20.279123942057289
 20
-3.3110812717013887
 30
0.0
 10
-19.451095241970485
 20
-0.0961181640625
 30
0.0
 10
-20.854799397786458
 20
2.4708224826388885
 30
0.0
  0
SPLINE
  5
75
100
AcDbEntity
  8
レイヤー_1
 62
     7
100
AcDbSpline
210
0.0
220
0.0
230
1.0
 70
     8
 71
     3
 72
    11
 73
     7
 74
     0
 42
0.00000001
 43
0.00000001
 40
0.0
 40
0.0
 40
0.0
 40
0.0
 40
1.0
 40
1.0
 40
1.0
 40
2.0
 40
2.0
 40
2.0
 40
2.0
 10
-18.923823377821179
 20
7.52546657986111
 30
0.0
 10
-20.612436930338539
 20
7.2918891059027775
 30
0.0
 10
-21.792382134331596
 20
5.7340169270833332
 30
0.0
 10
-21.558976915147568
 20
4.0448866102430552
 30
0.0
 10
-21.478533935546874
 20
3.4636990017361109
 30
0.0
 10
-21.234621175130208
 20
2.9176513671874997
 30
0.0
 10
-20.854799397786458
 20
2.4708224826388885
 30
0.0
  0
SPLINE
  5
74
100
AcDbEntity
  8
レイヤー_1
 62
     7
100
AcDbSpline
210
0.0
220
0.0
230
1.0
 70
     8
 71
     3
 72
     8
 73
     4
 74
     0
 42
0.00000001
 43
0.00000001
 40
0.0
 40
0.0
 40
0.0
 40
0.0
 40
1.0
 40
1.0
 40
1.0
 40
1.0
 10
-10.095077175564235
 20
5.850461154513888
 30
0.0
 10
-12.959157307942707
 20
6.765134006076388
 30
0.0
 10
-15.924350992838541
 20
7.3263400607638882
 30
0.0
 10
-18.923823377821179
 20
7.52546657986111
 30
0.0
  0
SPLINE
  5
73
100
AcDbEntity
  8
レイヤー_1
 62
     7
100
AcDbSpline
210
0.0
220
0.0
230
1.0
 70
     8
 71
     3
 72
     8
 73
     4
 74
     0
 42
0.00000001
 43
0.00000001
 40
0.0
 40
0.0
 40
0.0
 40
0.0
 40
1.0
 40
1.0
 40
1.0
 40
1.0
 10
-10.095077175564235
 20
5.850461154513888
 30
0.0
 10
-7.3047220865885407
 20
5.1135552300347218
 30
0.0
 10
-4.4180765787760414
 20
4.806597222222222
 30
0.0
 10
-1.5348761664496526
 20
4.9406114366319436
 30
0.0
  0
SPLINE
  5
72
100
AcDbEntity
  8
レイヤー_1
 62
     7
100
AcDbSpline
210
0.0
220
0.0
230
1.0
 70
     8
 71
     3
 72
     8
 73
     4
 74
     0
 42
0.00000001
 43
0.00000001
 40
0.0
 40
0.0
 40
0.0
 40
0.0
 40
1.0
 40
1.0
 40
1.0
 40
1.0
 10
-1.5348761664496526
 20
4.9406114366319436
 30
0.0
 10
0.8257032606336805
 20
5.1159667968749991
 30
0.0
 10
3.1793924967447915
 20
5.3784830729166666
 30
0.0
 10
5.521023898654513
 20
5.7285047743055548
 30
0.0
  0
SPLINE
  5
71
100
AcDbEntity
  8
レイヤー_1
 62
     7
100
AcDbSpline
210
0.0
220
0.0
230
1.0
 70
     8
 71
     3
 72
     8
 73
     4
 74
     0
 42
0.00000001
 43
0.00000001
 40
0.0
 40
0.0
 40
0.0
 40
0.0
 40
1.0
 40
1.0
 40
1.0
 40
1.0
 10
12.79430948893229
 20
5.9669053819444438
 30
0.0
 10
10.367756483289929
 20
6.1078097873263886
 30
0.0
 10
7.9329352484809021
 20
6.0278835720486104
 30
0.0
 10
5.521023898654513
 20
5.7285047743055548
 30
0.0
  0
SPLINE
  5
70
100
AcDbEntity
  8
レイヤー_1
 62
     7
100
AcDbSpline
210
0.0
220
0.0
230
1.0
 70
     8
 71
     3
 72
     8
 73
     4
 74
     0
 42
0.00000001
 43
0.00000001
 40
0.0
 40
0.0
 40
0.0
 40
0.0
 40
1.0
 40
1.0
 40
1.0
 40
1.0
 10
20.808807373046871
 20
4.3704481336805552
 30
0.0
 10
18.234459771050346
 20
5.3082031249999995
 30
0.0
 10
15.531782362196179
 20
5.8459825303819439
 30
0.0
 10
12.79430948893229
 20
5.9669053819444438
 30
0.0
  0
SPLINE
  5
6F
100
AcDbEntity
  8
レイヤー_1
 62
     7
100
AcDbSpline
210
0.0
220
0.0
230
1.0
 70
     8
 71
     3
 72
    11
 73
     7
 74
     0
 42
0.00000001
 43
0.00000001
 40
0.0
 40
0.0
 40
0.0
 40
0.0
 40
1.0
 40
1.0
 40
1.0
 40
2.0
 40
2.0
 40
2.0
 40
2.0
 10
21.81856486002604
 20
-1.950613064236111
 30
0.0
 10
23.314769829644096
 20
-0.1123101128472222
 30
0.0
 10
23.037784152560761
 20
2.5917453342013888
 30
0.0
 10
21.198792182074651
 20
4.0886393229166664
 30
0.0
 10
21.074079725477429
 20
4.1906141493055555
 30
0.0
 10
20.944199625651041
 20
4.2836317274305555
 30
0.0
 10
20.808807373046871
 20
4.3704481336805552
 30
0.0
  0
SPLINE
  5
6E
100
AcDbEntity
  8
レイヤー_1
 62
     7
100
AcDbSpline
210
0.0
220
0.0
230
1.0
 70
     8
 71
     3
 72
     8
 73
     4
 74
     0
 42
0.00000001
 43
0.00000001
 40
0.0
 40
0.0
 40
0.0
 40
0.0
 40
1.0
 40
1.0
 40
1.0
 40
1.0
 10
21.81856486002604
 20
-1.950613064236111
 30
0.0
 10
20.808118353949652
 20
-3.6207953559027772
 30
0.0
 10
20.421750895182289
 20
-5.5917344835069436
 30
0.0
 10
20.727503119574649
 20
-7.5182318793402771
 30
0.0
  0
ENDBLK
  5
77
100
AcDbEntity
  8
レイヤー_1
100
AcDbBlockEnd
  0
BLOCK
  5
7A
100
AcDbEntity
  8
レイヤー_1
 62
     7
100
AcDbBlockBegin
  2
AI9-BLK3
 70
     0
 10
0.0
 20
0.0
 30
0.0
  3
AI9-BLK3
  1

  0
CIRCLE
  5
7B
100
AcDbEntity
  8
レイヤー_1
 62
     7
100
AcDbCircle
 10
0.0
 20
0.0
 30
0.0
 40
0.858862
  0
ENDBLK
  5
7C
100
AcDbEntity
  8
レイヤー_1
100
AcDbBlockEnd
  0
BLOCK
  5
7F
100
AcDbEntity
  8
レイヤー_1
 62
     7
100
AcDbBlockBegin
  2
AI9-BLK4
 70
     0
 10
0.0
 20
0.0
 30
0.0
  3
AI9-BLK4
  1

  0
CIRCLE
  5
80
100
AcDbEntity
  8
レイヤー_1
 62
     7
100
AcDbCircle
 10
0.000345
 20
0.0
 30
0.0
 40
0.858862
  0
ENDBLK
  5
81
100
AcDbEntity
  8
レイヤー_1
100
AcDbBlockEnd
  0
BLOCK
  5
85
100
AcDbEntity
  8
レイヤー_1
 62
     7
100
AcDbBlockBegin
  2
AI9-BLK5
 70
     0
 10
0.0
 20
0.0
 30
0.0
  3
AI9-BLK5
  1

  0
LINE
  5
88
100
AcDbEntity
  8
レイヤー_1
 62
     7
100
AcDbLine
 10
0.84646
 20
-0.005598
 30
0.0
 11
-0.84646
 21
0.448121
 31
0.0
  0
LINE
  5
87
100
AcDbEntity
  8
レイヤー_1
 62
     7
100
AcDbLine
 10
0.84646
 20
-0.005598
 30
0.0
 11
-0.84646
 21
-0.459662
 31
0.0
  0
LINE
  5
86
100
AcDbEntity
  8
レイヤー_1
 62
     7
100
AcDbLine
 10
0.84646
 20
-0.005598
 30
0.0
 11
-0.84646
 21
-0.005598
 31
0.0
  0
ENDBLK
  5
89
100
AcDbEntity
  8
レイヤー_1
100
AcDbBlockEnd
  0
BLOCK
  5
8D
100
AcDbEntity
  8
レイヤー_1
 62
     7
100
AcDbBlockBegin
  2
AI9-BLK6
 70
     0
 10
0.0
 20
0.0
 30
0.0
  3
AI9-BLK6
  1

  0
LINE
  5
90
100
AcDbEntity
  8
レイヤー_1
 62
     7
100
AcDbLine
 10
-0.84646
 20
0.005943
 30
0.0
 11
0.84646
 21
-0.448121
 31
0.0
  0
LINE
  5
8F
100
AcDbEntity
  8
レイヤー_1
 62
     7
100
AcDbLine
 10
-0.84646
 20
0.005943
 30
0.0
 11
0.84646
 21
0.459662
 31
0.0
  0
LINE
  5
8E
100
AcDbEntity
  8
レイヤー_1
 62
     7
100
AcDbLine
 10
-0.84646
 20
0.005943
 30
0.0
 11
0.84646
 21
0.005943
 31
0.0
  0
ENDBLK
  5
91
100
AcDbEntity
  8
レイヤー_1
100
AcDbBlockEnd
  0
BLOCK
  5
95
100
AcDbEntity
  8
レイヤー_1
 62
     7
100
AcDbBlockBegin
  2
AI9-BLK7
 70
     0
 10
0.0
 20
0.0
 30
0.0
  3
AI9-BLK7
  1

  0
LINE
  5
98
100
AcDbEntity
  8
レイヤー_1
 62
     7
100
AcDbLine
 10
0.0
 20
0.846718
 30
0.0
 11
-0.453547
 21
-0.846718
 31
0.0
  0
LINE
  5
97
100
AcDbEntity
  8
レイヤー_1
 62
     7
100
AcDbLine
 10
0.0
 20
0.846718
 30
0.0
 11
0.453547
 21
-0.846718
 31
0.0
  0
LINE
  5
96
100
AcDbEntity
  8
レイヤー_1
 62
     7
100
AcDbLine
 10
0.0
 20
0.846718
 30
0.0
 11
0.0
 21
-0.846718
 31
0.0
  0
ENDBLK
  5
99
100
AcDbEntity
  8
レイヤー_1
100
AcDbBlockEnd
  0
BLOCK
  5
9D
100
AcDbEntity
  8
レイヤー_1
 62
     7
100
AcDbBlockBegin
  2
AI9-BLK8
 70
     0
 10
0.0
 20
0.0
 30
0.0
  3
AI9-BLK8
  1

  0
LINE
  5
A0
100
AcDbEntity
  8
レイヤー_1
 62
     7
100
AcDbLine
 10
0.0
 20
-0.84646
 30
0.0
 11
0.453547
 21
0.84646
 31
0.0
  0
LINE
  5
9F
100
AcDbEntity
  8
レイヤー_1
 62
     7
100
AcDbLine
 10
0.0
 20
-0.84646
 30
0.0
 11
-0.453547
 21
0.84646
 31
0.0
  0
LINE
  5
9E
100
AcDbEntity
  8
レイヤー_1
 62
     7
100
AcDbLine
 10
0.0
 20
-0.84646
 30
0.0
 11
0.0
 21
0.84646
 31
0.0
  0
ENDBLK
  5
A1
100
AcDbEntity
  8
レイヤー_1
100
AcDbBlockEnd
  0
BLOCK
  5
A5
100
AcDbEntity
  8
レイヤー_1
 62
     7
100
AcDbBlockBegin
  2
AI9-BLK9
 70
     0
 10
0.0
 20
0.0
 30
0.0
  3
AI9-BLK9
  1

  0
LINE
  5
A8
100
AcDbEntity
  8
レイヤー_1
 62
     7
100
AcDbLine
 10
-0.000345
 20
0.846374
 30
0.0
 11
-0.453719
 21
-0.846374
 31
0.0
  0
LINE
  5
A7
100
AcDbEntity
  8
レイヤー_1
 62
     7
100
AcDbLine
 10
-0.000345
 20
0.846374
 30
0.0
 11
0.453719
 21
-0.846374
 31
0.0
  0
LINE
  5
A6
100
AcDbEntity
  8
レイヤー_1
 62
     7
100
AcDbLine
 10
-0.000345
 20
0.846374
 30
0.0
 11
-0.000345
 21
-0.846374
 31
0.0
  0
ENDBLK
  5
A9
100
AcDbEntity
  8
レイヤー_1
100
AcDbBlockEnd
  0
BLOCK
  5
AD
100
AcDbEntity
  8
レイヤー_1
 62
     7
100
AcDbBlockBegin
  2
AI9-BLK10
 70
     0
 10
0.0
 20
0.0
 30
0.0
  3
AI9-BLK10
  1

  0
LINE
  5
B0
100
AcDbEntity
  8
レイヤー_1
 62
     7
100
AcDbLine
 10
-0.000345
 20
-0.84646
 30
0.0
 11
0.453719
 21
0.84646
 31
0.0
  0
LINE
  5
AF
100
AcDbEntity
  8
レイヤー_1
 62
     7
100
AcDbLine
 10
-0.000345
 20
-0.84646
 30
0.0
 11
-0.453719
 21
0.84646
 31
0.0
  0
LINE
  5
AE
100
AcDbEntity
  8
レイヤー_1
 62
     7
100
AcDbLine
 10
-0.000345
 20
-0.84646
 30
0.0
 11
-0.000345
 21
0.84646
 31
0.0
  0
ENDBLK
  5
B1
100
AcDbEntity
  8
レイヤー_1
100
AcDbBlockEnd
  0
BLOCK
  5
B5
100
AcDbEntity
  8
レイヤー_1
 62
     7
100
AcDbBlockBegin
  2
AI9-BLK11
 70
     0
 10
0.0
 20
0.0
 30
0.0
  3
AI9-BLK11
  1

  0
LINE
  5
B8
100
AcDbEntity
  8
レイヤー_1
 62
     7
100
AcDbLine
 10
-0.995633
 20
0.004995
 30
0.0
 11
0.995633
 21
-0.527961
 31
0.0
  0
LINE
  5
B7
100
AcDbEntity
  8
レイヤー_1
 62
     7
100
AcDbLine
 10
-0.995633
 20
0.004995
 30
0.0
 11
0.995633
 21
0.53933
 31
0.0
  0
LINE
  5
B6
100
AcDbEntity
  8
レイヤー_1
 62
     7
100
AcDbLine
 10
-0.995633
 20
0.004995
 30
0.0
 11
0.995633
 21
0.004995
 31
0.0
  0
ENDBLK
  5
B9
100
AcDbEntity
  8
レイヤー_1
100
AcDbBlockEnd
  0
BLOCK
  5
BC
100
AcDbEntity
  8
レイヤー_1
 62
     7
100
AcDbBlockBegin
  2
AI9-BLK12
 70
     0
 10
0.0
 20
0.0
 30
0.0
  3
AI9-BLK12
  1

  0
LINE
  5
BF
100
AcDbEntity
  8
レイヤー_1
 62
     7
100
AcDbLine
 10
0.995288
 20
-0.006373
 30
0.0
 11
-0.995288
 21
0.527961
 31
0.0
  0
LINE
  5
BE
100
AcDbEntity
  8
レイヤー_1
 62
     7
100
AcDbLine
 10
0.995288
 20
-0.006373
 30
0.0
 11
-0.995288
 21
-0.53933
 31
0.0
  0
LINE
  5
BD
100
AcDbEntity
  8
レイヤー_1
 62
     7
100
AcDbLine
 10
0.995288
 20
-0.006373
 30
0.0
 11
-0.995288
 21
-0.006373
 31
0.0
  0
ENDBLK
  5
C0
100
AcDbEntity
  8
レイヤー_1
100
AcDbBlockEnd
  0
BLOCK
  5
C4
100
AcDbEntity
  8
レイヤー_1
 62
     7
100
AcDbBlockBegin
  2
AI9-BLK13
 70
     0
 10
0.0
 20
0.0
 30
0.0
  3
AI9-BLK13
  1

  0
LINE
  5
C7
100
AcDbEntity
  8
レイヤー_1
 62
     7
100
AcDbLine
 10
-0.000689
 20
0.995805
 30
0.0
 11
-0.533301
 21
-0.995805
 31
0.0
  0
LINE
  5
C6
100
AcDbEntity
  8
レイヤー_1
 62
     7
100
AcDbLine
 10
-0.000689
 20
0.995805
 30
0.0
 11
0.533301
 21
-0.995805
 31
0.0
  0
LINE
  5
C5
100
AcDbEntity
  8
レイヤー_1
 62
     7
100
AcDbLine
 10
-0.000689
 20
0.995805
 30
0.0
 11
-0.000689
 21
-0.995805
 31
0.0
  0
ENDBLK
  5
C8
100
AcDbEntity
  8
レイヤー_1
100
AcDbBlockEnd
  0
BLOCK
  5
CB
100
AcDbEntity
  8
レイヤー_1
 62
     7
100
AcDbBlockBegin
  2
AI9-BLK14
 70
     0
 10
0.0
 20
0.0
 30
0.0
  3
AI9-BLK14
  1

  0
LINE
  5
CE
100
AcDbEntity
  8
レイヤー_1
 62
     7
100
AcDbLine
 10
-0.000689
 20
-0.995633
 30
0.0
 11
0.533301
 21
0.995633
 31
0.0
  0
LINE
  5
CD
100
AcDbEntity
  8
レイヤー_1
 62
     7
100
AcDbLine
 10
-0.000689
 20
-0.995633
 30
0.0
 11
-0.533301
 21
0.995633
 31
0.0
  0
LINE
  5
CC
100
AcDbEntity
  8
レイヤー_1
 62
     7
100
AcDbLine
 10
-0.000689
 20
-0.995633
 30
0.0
 11
-0.000689
 21
0.995633
 31
0.0
  0
ENDBLK
  5
CF
100
AcDbEntity
  8
レイヤー_1
100
AcDbBlockEnd
  0
BLOCK
  5
D3
100
AcDbEntity
  8
レイヤー_1
 62
     7
100
AcDbBlockBegin
  2
AI9-BLK15
 70
     0
 10
0.0
 20
0.0
 30
0.0
  3
AI9-BLK15
  1

  0
LINE
  5
D6
100
AcDbEntity
  8
レイヤー_1
 62
     7
100
AcDbLine
 10
0.0
 20
-0.846374
 30
0.0
 11
0.454064
 21
0.846374
 31
0.0
  0
LINE
  5
D5
100
AcDbEntity
  8
レイヤー_1
 62
     7
100
AcDbLine
 10
0.0
 20
-0.846374
 30
0.0
 11
-0.454064
 21
0.846374
 31
0.0
  0
LINE
  5
D4
100
AcDbEntity
  8
レイヤー_1
 62
     7
100
AcDbLine
 10
0.0
 20
-0.846374
 30
0.0
 11
0.0
 21
0.846374
 31
0.0
  0
ENDBLK
  5
D7
100
AcDbEntity
  8
レイヤー_1
100
AcDbBlockEnd
  0
BLOCK
  5
DA
100
AcDbEntity
  8
レイヤー_1
 62
     7
100
AcDbBlockBegin
  2
AI9-BLK16
 70
     0
 10
0.0
 20
0.0
 30
0.0
  3
AI9-BLK16
  1

  0
LINE
  5
DD
100
AcDbEntity
  8
レイヤー_1
 62
     7
100
AcDbLine
 10
0.0
 20
0.846804
 30
0.0
 11
-0.454064
 21
-0.846804
 31
0.0
  0
LINE
  5
DC
100
AcDbEntity
  8
レイヤー_1
 62
     7
100
AcDbLine
 10
0.0
 20
0.846804
 30
0.0
 11
0.454064
 21
-0.846804
 31
0.0
  0
LINE
  5
DB
100
AcDbEntity
  8
レイヤー_1
 62
     7
100
AcDbLine
 10
0.0
 20
0.846804
 30
0.0
 11
0.0
 21
-0.846804
 31
0.0
  0
ENDBLK
  5
DE
100
AcDbEntity
  8
レイヤー_1
100
AcDbBlockEnd
  0
BLOCK
  5
E2
100
AcDbEntity
  8
レイヤー_1
 62
     7
100
AcDbBlockBegin
  2
AI9-BLK17
 70
     0
 10
0.0
 20
0.0
 30
0.0
  3
AI9-BLK17
  1

  0
LINE
  5
E5
100
AcDbEntity
  8
レイヤー_1
 62
     7
100
AcDbLine
 10
0.84646
 20
-0.006201
 30
0.0
 11
-0.84646
 21
0.447862
 31
0.0
  0
LINE
  5
E4
100
AcDbEntity
  8
レイヤー_1
 62
     7
100
AcDbLine
 10
0.84646
 20
-0.006201
 30
0.0
 11
-0.84646
 21
-0.459403
 31
0.0
  0
LINE
  5
E3
100
AcDbEntity
  8
レイヤー_1
 62
     7
100
AcDbLine
 10
0.84646
 20
-0.006201
 30
0.0
 11
-0.84646
 21
-0.006201
 31
0.0
  0
ENDBLK
  5
E6
100
AcDbEntity
  8
レイヤー_1
100
AcDbBlockEnd
  0
BLOCK
  5
E9
100
AcDbEntity
  8
レイヤー_1
 62
     7
100
AcDbBlockBegin
  2
AI9-BLK18
 70
     0
 10
0.0
 20
0.0
 30
0.0
  3
AI9-BLK18
  1

  0
LINE
  5
EC
100
AcDbEntity
  8
レイヤー_1
 62
     7
100
AcDbLine
 10
-0.846288
 20
0.00534
 30
0.0
 11
0.846288
 21
-0.447862
 31
0.0
  0
LINE
  5
EB
100
AcDbEntity
  8
レイヤー_1
 62
     7
100
AcDbLine
 10
-0.846288
 20
0.00534
 30
0.0
 11
0.846288
 21
0.459403
 31
0.0
  0
LINE
  5
EA
100
AcDbEntity
  8
レイヤー_1
 62
     7
100
AcDbLine
 10
-0.846288
 20
0.00534
 30
0.0
 11
0.846288
 21
0.00534
 31
0.0
  0
ENDBLK
  5
ED
100
AcDbEntity
  8
レイヤー_1
100
AcDbBlockEnd
  0
BLOCK
  5
F1
100
AcDbEntity
  8
レイヤー_1
 62
     7
100
AcDbBlockBegin
  2
AI9-BLK19
 70
     0
 10
0.0
 20
0.0
 30
0.0
  3
AI9-BLK19
  1

  0
LINE
  5
F4
100
AcDbEntity
  8
レイヤー_1
 62
     7
100
AcDbLine
 10
0.846804
 20
-0.005857
 30
0.0
 11
-0.846804
 21
0.448207
 31
0.0
  0
LINE
  5
F3
100
AcDbEntity
  8
レイヤー_1
 62
     7
100
AcDbLine
 10
0.846804
 20
-0.005857
 30
0.0
 11
-0.846804
 21
-0.459748
 31
0.0
  0
LINE
  5
F2
100
AcDbEntity
  8
レイヤー_1
 62
     7
100
AcDbLine
 10
0.846804
 20
-0.005857
 30
0.0
 11
-0.846804
 21
-0.005857
 31
0.0
  0
ENDBLK
  5
F5
100
AcDbEntity
  8
レイヤー_1
100
AcDbBlockEnd
  0
BLOCK
  5
F8
100
AcDbEntity
  8
レイヤー_1
 62
     7
100
AcDbBlockBegin
  2
AI9-BLK20
 70
     0
 10
0.0
 20
0.0
 30
0.0
  3
AI9-BLK20
  1

  0
LINE
  5
FB
100
AcDbEntity
  8
レイヤー_1
 62
     7
100
AcDbLine
 10
-0.84646
 20
0.005684
 30
0.0
 11
0.84646
 21
-0.448207
 31
0.0
  0
LINE
  5
FA
100
AcDbEntity
  8
レイヤー_1
 62
     7
100
AcDbLine
 10
-0.84646
 20
0.005684
 30
0.0
 11
0.84646
 21
0.459748
 31
0.0
  0
LINE
  5
F9
100
AcDbEntity
  8
レイヤー_1
 62
     7
100
AcDbLine
 10
-0.84646
 20
0.005684
 30
0.0
 11
0.84646
 21
0.005684
 31
0.0
  0
ENDBLK
  5
FC
100
AcDbEntity
  8
レイヤー_1
100
AcDbBlockEnd
  0
BLOCK
  5
100
100
AcDbEntity
  8
レイヤー_1
 62
     7
100
AcDbBlockBegin
  2
AI9-BLK21
 70
     0
 10
0.0
 20
0.0
 30
0.0
  3
AI9-BLK21
  1

  0
LINE
  5
103
100
AcDbEntity
  8
レイヤー_1
 62
     7
100
AcDbLine
 10
0.84646
 20
-0.005943
 30
0.0
 11
-0.84646
 21
0.447949
 31
0.0
  0
LINE
  5
102
100
AcDbEntity
  8
レイヤー_1
 62
     7
100
AcDbLine
 10
0.84646
 20
-0.005943
 30
0.0
 11
-0.84646
 21
-0.45949
 31
0.0
  0
LINE
  5
101
100
AcDbEntity
  8
レイヤー_1
 62
     7
100
AcDbLine
 10
0.84646
 20
-0.005943
 30
0.0
 11
-0.84646
 21
-0.005943
 31
0.0
  0
ENDBLK
  5
104
100
AcDbEntity
  8
レイヤー_1
100
AcDbBlockEnd
  0
BLOCK
  5
107
100
AcDbEntity
  8
レイヤー_1
 62
     7
100
AcDbBlockBegin
  2
AI9-BLK22
 70
     0
 10
0.0
 20
0.0
 30
0.0
  3
AI9-BLK22
  1

  0
LINE
  5
10A
100
AcDbEntity
  8
レイヤー_1
 62
     7
100
AcDbLine
 10
-0.846374
 20
0.005598
 30
0.0
 11
0.846374
 21
-0.447949
 31
0.0
  0
LINE
  5
109
100
AcDbEntity
  8
レイヤー_1
 62
     7
100
AcDbLine
 10
-0.846374
 20
0.005598
 30
0.0
 11
0.846374
 21
0.45949
 31
0.0
  0
LINE
  5
108
100
AcDbEntity
  8
レイヤー_1
 62
     7
100
AcDbLine
 10
-0.846374
 20
0.005598
 30
0.0
 11
0.846374
 21
0.005598
 31
0.0
  0
ENDBLK
  5
10B
100
AcDbEntity
  8
レイヤー_1
100
AcDbBlockEnd
  0
BLOCK
  5
10F
100
AcDbEntity
  8
レイヤー_1
 62
     7
100
AcDbBlockBegin
  2
AI9-BLK23
 70
     0
 10
0.0
 20
0.0
 30
0.0
  3
AI9-BLK23
  1

  0
LINE
  5
112
100
AcDbEntity
  8
レイヤー_1
 62
     7
100
AcDbLine
 10
0.84646
 20
-0.006201
 30
0.0
 11
-0.84646
 21
0.447862
 31
0.0
  0
LINE
  5
111
100
AcDbEntity
  8
レイヤー_1
 62
     7
100
AcDbLine
 10
0.84646
 20
-0.006201
 30
0.0
 11
-0.84646
 21
-0.459403
 31
0.0
  0
LINE
  5
110
100
AcDbEntity
  8
レイヤー_1
 62
     7
100
AcDbLine
 10
0.84646
 20
-0.006201
 30
0.0
 11
-0.84646
 21
-0.006201
 31
0.0
  0
ENDBLK
  5
113
100
AcDbEntity
  8
レイヤー_1
100
AcDbBlockEnd
  0
BLOCK
  5
116
100
AcDbEntity
  8
レイヤー_1
 62
     7
100
AcDbBlockBegin
  2
AI9-BLK24
 70
     0
 10
0.0
 20
0.0
 30
0.0
  3
AI9-BLK24
  1

  0
LINE
  5
119
100
AcDbEntity
  8
レイヤー_1
 62
     7
100
AcDbLine
 10
-0.84646
 20
0.005254
 30
0.0
 11
0.84646
 21
-0.447949
 31
0.0
  0
LINE
  5
118
100
AcDbEntity
  8
レイヤー_1
 62
     7
100
AcDbLine
 10
-0.84646
 20
0.005254
 30
0.0
 11
0.84646
 21
0.459317
 31
0.0
  0
LINE
  5
117
100
AcDbEntity
  8
レイヤー_1
 62
     7
100
AcDbLine
 10
-0.84646
 20
0.005254
 30
0.0
 11
0.84646
 21
0.005254
 31
0.0
  0
ENDBLK
  5
11A
100
AcDbEntity
  8
レイヤー_1
100
AcDbBlockEnd
  0
BLOCK
  5
1B9
100
AcDbEntity
  8
レイヤー_1
 62
     7
100
AcDbBlockBegin
  2
AI9-BLK25
 70
     0
 10
0.0
 20
0.0
 30
0.0
  3
AI9-BLK25
  1

  0
LINE
  5
1C8
100
AcDbEntity
  8
レイヤー_1
 62
     7
100
AcDbLine
 10
-1.460376
 20
-1.45383
 30
0.0
 11
0.792716
 21
0.798573
 31
0.0
  0
LINE
  5
1C7
100
AcDbEntity
  8
レイヤー_1
 62
     7
100
AcDbLine
 10
-1.915129
 20
-1.45383
 30
0.0
 11
0.570852
 21
1.032323
 31
0.0
  0
LINE
  5
1C6
100
AcDbEntity
  8
レイヤー_1
 62
     7
100
AcDbLine
 10
-2.336808
 20
-1.421791
 30
0.0
 11
0.307647
 21
1.223009
 31
0.0
  0
LINE
  5
1C5
100
AcDbEntity
  8
レイヤー_1
 62
     7
100
AcDbLine
 10
-2.336808
 20
-0.967211
 30
0.0
 11
-0.002412
 21
1.367703
 31
0.0
  0
LINE
  5
1C4
100
AcDbEntity
  8
レイヤー_1
 62
     7
100
AcDbLine
 10
-2.336808
 20
-0.512458
 30
0.0
 11
-0.369659
 21
1.45383
 31
0.0
  0
LINE
  5
1C3
100
AcDbEntity
  8
レイヤー_1
 62
     7
100
AcDbLine
 10
-2.319583
 20
-0.041169
 30
0.0
 11
-0.828545
 21
1.449696
 31
0.0
  0
LINE
  5
1C2
100
AcDbEntity
  8
レイヤー_1
 62
     7
100
AcDbLine
 10
-2.034329
 20
0.698321
 30
0.0
 11
-1.567863
 21
1.164787
 31
0.0
  0
LINE
  5
1C1
100
AcDbEntity
  8
レイヤー_1
 62
     7
100
AcDbLine
 10
-1.005623
 20
-1.45383
 30
0.0
 11
0.971172
 21
0.522449
 31
0.0
  0
LINE
  5
1C0
100
AcDbEntity
  8
レイヤー_1
 62
     7
100
AcDbLine
 10
-0.55156
 20
-1.45383
 30
0.0
 11
1.100708
 21
0.198265
 31
0.0
  0
LINE
  5
1BF
100
AcDbEntity
  8
レイヤー_1
 62
     7
100
AcDbLine
 10
-0.096807
 20
-1.45383
 30
0.0
 11
1.166165
 21
-0.190858
 31
0.0
  0
LINE
  5
1BE
100
AcDbEntity
  8
レイヤー_1
 62
     7
100
AcDbLine
 10
0.357256
 20
-1.45383
 30
0.0
 11
1.525144
 21
-0.285771
 31
0.0
  0
LINE
  5
1BD
100
AcDbEntity
  8
レイヤー_1
 62
     7
100
AcDbLine
 10
0.81132
 20
-1.45383
 30
0.0
 11
1.980585
 21
-0.285771
 31
0.0
  0
LINE
  5
1BC
100
AcDbEntity
  8
レイヤー_1
 62
     7
100
AcDbLine
 10
1.266073
 20
-1.45383
 30
0.0
 11
2.336808
 21
-0.38275
 31
0.0
  0
LINE
  5
1BB
100
AcDbEntity
  8
レイヤー_1
 62
     7
100
AcDbLine
 10
1.720825
 20
-1.45383
 30
0.0
 11
2.336808
 21
-0.837503
 31
0.0
  0
LINE
  5
1BA
100
AcDbEntity
  8
レイヤー_1
 62
     7
100
AcDbLine
 10
2.174889
 20
-1.45383
 30
0.0
 11
2.336808
 21
-1.291911
 31
0.0
  0
ENDBLK
  5
1C9
100
AcDbEntity
  8
レイヤー_1
100
AcDbBlockEnd
  0
BLOCK
  5
1CC
100
AcDbEntity
  8
レイヤー_1
 62
     7
100
AcDbBlockBegin
  2
AI9-BLK26
 70
     0
 10
0.0
 20
0.0
 30
0.0
  3
AI9-BLK26
  1

  0
LINE
  5
1EC
100
AcDbEntity
  8
レイヤー_1
 62
     7
100
AcDbLine
 10
6.269729
 20
-0.376032
 30
0.0
 11
6.6747
 21
0.029111
 31
0.0
  0
LINE
  5
1EB
100
AcDbEntity
  8
レイヤー_1
 62
     7
100
AcDbLine
 10
8.836498
 20
2.190908
 30
0.0
 11
9.195477
 21
2.549887
 31
0.0
  0
LINE
  5
1EA
100
AcDbEntity
  8
レイヤー_1
 62
     7
100
AcDbLine
 10
6.35913
 20
0.247875
 30
0.0
 11
6.768751
 21
0.658185
 31
0.0
  0
LINE
  5
1E9
100
AcDbEntity
  8
レイヤー_1
 62
     7
100
AcDbLine
 10
8.115095
 20
2.004184
 30
0.0
 11
8.557273
 21
2.445846
 31
0.0
  0
LINE
  5
1E8
100
AcDbEntity
  8
レイヤー_1
 62
     7
100
AcDbLine
 10
6.47678
 20
0.90072
 30
0.0
 11
7.844655
 21
2.269112
 31
0.0
  0
LINE
  5
1E7
100
AcDbEntity
  8
レイヤー_1
 62
     7
100
AcDbLine
 10
2.297362
 20
-2.209512
 30
0.0
 11
2.490976
 21
-2.016931
 31
0.0
  0
LINE
  5
1E6
100
AcDbEntity
  8
レイヤー_1
 62
     7
100
AcDbLine
 10
1.36443
 20
-2.60811
 30
0.0
 11
2.0848
 21
-1.88774
 31
0.0
  0
LINE
  5
1E5
100
AcDbEntity
  8
レイヤー_1
 62
     7
100
AcDbLine
 10
-1.735295
 20
-2.501312
 30
0.0
 11
-1.489487
 21
-2.256021
 31
0.0
  0
LINE
  5
1E4
100
AcDbEntity
  8
レイヤー_1
 62
     7
100
AcDbLine
 10
-2.05431
 20
-2.285649
 30
0.0
 11
-1.798168
 21
-2.030023
 31
0.0
  0
LINE
  5
1E3
100
AcDbEntity
  8
レイヤー_1
 62
     7
100
AcDbLine
 10
-2.491321
 20
-2.188152
 30
0.0
 11
-2.171271
 21
-1.868792
 31
0.0
  0
LINE
  5
1E2
100
AcDbEntity
  8
レイヤー_1
 62
     7
100
AcDbLine
 10
-5.629114
 20
-2.11925
 30
0.0
 11
-5.411728
 21
-1.902209
 31
0.0
  0
LINE
  5
1E1
100
AcDbEntity
  8
レイヤー_1
 62
     7
100
AcDbLine
 10
-5.977757
 20
-1.933215
 30
0.0
 11
-5.731261
 21
-1.686891
 31
0.0
  0
LINE
  5
1E0
100
AcDbEntity
  8
レイヤー_1
 62
     7
100
AcDbLine
 10
-6.248714
 20
-1.670355
 30
0.0
 11
-6.003423
 21
-1.425064
 31
0.0
  0
LINE
  5
1DF
100
AcDbEntity
  8
レイヤー_1
 62
     7
100
AcDbLine
 10
-6.442845
 20
-1.329979
 30
0.0
 11
-6.169305
 21
-1.056094
 31
0.0
  0
LINE
  5
1DE
100
AcDbEntity
  8
レイヤー_1
 62
     7
100
AcDbLine
 10
-6.542753
 20
-0.894519
 30
0.0
 11
-6.23924
 21
-0.591006
 31
0.0
  0
LINE
  5
1DD
100
AcDbEntity
  8
レイヤー_1
 62
     7
100
AcDbLine
 10
-6.60976
 20
-0.427709
 30
0.0
 11
-6.305903
 21
-0.124196
 31
0.0
  0
LINE
  5
1DC
100
AcDbEntity
  8
レイヤー_1
 62
     7
100
AcDbLine
 10
-6.676423
 20
0.041169
 30
0.0
 11
-6.372738
 21
0.343993
 31
0.0
  0
LINE
  5
1DB
100
AcDbEntity
  8
レイヤー_1
 62
     7
100
AcDbLine
 10
-6.743258
 20
0.508324
 30
0.0
 11
-6.449391
 21
0.801501
 31
0.0
  0
LINE
  5
1DA
100
AcDbEntity
  8
レイヤー_1
 62
     7
100
AcDbLine
 10
-6.852467
 20
0.933449
 30
0.0
 11
-6.59219
 21
1.193553
 31
0.0
  0
LINE
  5
1D9
100
AcDbEntity
  8
レイヤー_1
 62
     7
100
AcDbLine
 10
-7.039708
 20
1.280714
 30
0.0
 11
-6.793728
 21
1.526694
 31
0.0
  0
LINE
  5
1D8
100
AcDbEntity
  8
レイヤー_1
 62
     7
100
AcDbLine
 10
-7.289478
 20
1.564935
 30
0.0
 11
-7.046426
 21
1.807814
 31
0.0
  0
LINE
  5
1D7
100
AcDbEntity
  8
レイヤー_1
 62
     7
100
AcDbLine
 10
-7.598675
 20
1.790933
 30
0.0
 11
-7.348389
 21
2.041047
 31
0.0
  0
LINE
  5
1D6
100
AcDbEntity
  8
レイヤー_1
 62
     7
100
AcDbLine
 10
-7.970573
 20
1.953541
 30
0.0
 11
-7.70375
 21
2.220192
 31
0.0
  0
LINE
  5
1D5
100
AcDbEntity
  8
レイヤー_1
 62
     7
100
AcDbLine
 10
-8.375027
 20
2.083077
 30
0.0
 11
-8.114578
 21
2.343526
 31
0.0
  0
LINE
  5
1D4
100
AcDbEntity
  8
レイヤー_1
 62
     7
100
AcDbLine
 10
-8.807559
 20
2.184707
 30
0.0
 11
-8.548143
 21
2.444123
 31
0.0
  0
LINE
  5
1D3
100
AcDbEntity
  8
レイヤー_1
 62
     7
100
AcDbLine
 10
-9.27213
 20
2.254643
 30
0.0
 11
-9.00324
 21
2.523705
 31
0.0
  0
LINE
  5
1D2
100
AcDbEntity
  8
レイヤー_1
 62
     7
100
AcDbLine
 10
-9.777009
 20
2.284271
 30
0.0
 11
-9.482109
 21
2.579171
 31
0.0
  0
LINE
  5
1D1
100
AcDbEntity
  8
レイヤー_1
 62
     7
100
AcDbLine
 10
-10.307381
 20
2.288405
 30
0.0
 11
-9.987849
 21
2.60811
 31
0.0
  0
LINE
  5
1D0
100
AcDbEntity
  8
レイヤー_1
 62
     7
100
AcDbLine
 10
6.179985
 20
-0.998905
 30
0.0
 11
6.5853
 21
-0.594107
 31
0.0
  0
LINE
  5
1CF
100
AcDbEntity
  8
レイヤー_1
 62
     7
100
AcDbLine
 10
9.451103
 20
2.271179
 30
0.0
 11
9.780454
 21
2.600875
 31
0.0
  0
LINE
  5
1CE
100
AcDbEntity
  8
レイヤー_1
 62
     7
100
AcDbLine
 10
5.578126
 20
-2.136131
 30
0.0
 11
6.474712
 21
-1.240062
 31
0.0
  0
LINE
  5
1CD
100
AcDbEntity
  8
レイヤー_1
 62
     7
100
AcDbLine
 10
9.997839
 20
2.282548
 30
0.0
 11
10.307381
 21
2.59364
 31
0.0
  0
ENDBLK
  5
1ED
100
AcDbEntity
  8
レイヤー_1
100
AcDbBlockEnd
  0
BLOCK
  5
1F0
100
AcDbEntity
  8
レイヤー_1
 62
     7
100
AcDbBlockBegin
  2
AI9-BLK27
 70
     0
 10
0.0
 20
0.0
 30
0.0
  3
AI9-BLK27
  1

  0
LINE
  5
21A
100
AcDbEntity
  8
レイヤー_1
 62
     7
100
AcDbLine
 10
6.36378
 20
0.172083
 30
0.0
 11
7.051077
 21
0.85869
 31
0.0
  0
LINE
  5
219
100
AcDbEntity
  8
レイヤー_1
 62
     7
100
AcDbLine
 10
5.829446
 20
0.172083
 30
0.0
 11
6.51657
 21
0.85869
 31
0.0
  0
LINE
  5
218
100
AcDbEntity
  8
レイヤー_1
 62
     7
100
AcDbLine
 10
5.29494
 20
0.172083
 30
0.0
 11
5.981892
 21
0.85869
 31
0.0
  0
LINE
  5
217
100
AcDbEntity
  8
レイヤー_1
 62
     7
100
AcDbLine
 10
4.760433
 20
0.172083
 30
0.0
 11
5.447729
 21
0.85869
 31
0.0
  0
LINE
  5
216
100
AcDbEntity
  8
レイヤー_1
 62
     7
100
AcDbLine
 10
4.225582
 20
0.172083
 30
0.0
 11
4.913051
 21
0.85869
 31
0.0
  0
LINE
  5
215
100
AcDbEntity
  8
レイヤー_1
 62
     7
100
AcDbLine
 10
3.69142
 20
0.172083
 30
0.0
 11
4.378544
 21
0.85869
 31
0.0
  0
LINE
  5
214
100
AcDbEntity
  8
レイヤー_1
 62
     7
100
AcDbLine
 10
3.157086
 20
0.172083
 30
0.0
 11
3.843865
 21
0.85869
 31
0.0
  0
LINE
  5
213
100
AcDbEntity
  8
レイヤー_1
 62
     7
100
AcDbLine
 10
2.622234
 20
0.172083
 30
0.0
 11
3.309531
 21
0.85869
 31
0.0
  0
LINE
  5
212
100
AcDbEntity
  8
レイヤー_1
 62
     7
100
AcDbLine
 10
2.0879
 20
0.172083
 30
0.0
 11
2.775197
 21
0.85869
 31
0.0
  0
LINE
  5
211
100
AcDbEntity
  8
レイヤー_1
 62
     7
100
AcDbLine
 10
1.553566
 20
0.172083
 30
0.0
 11
2.240518
 21
0.85869
 31
0.0
  0
LINE
  5
210
100
AcDbEntity
  8
レイヤー_1
 62
     7
100
AcDbLine
 10
1.045586
 20
0.199299
 30
0.0
 11
1.706184
 21
0.85869
 31
0.0
  0
LINE
  5
20F
100
AcDbEntity
  8
レイヤー_1
 62
     7
100
AcDbLine
 10
1.045586
 20
0.733633
 30
0.0
 11
1.171849
 21
0.85869
 31
0.0
  0
LINE
  5
20E
100
AcDbEntity
  8
レイヤー_1
 62
     7
100
AcDbLine
 10
-1.119139
 20
0.172083
 30
0.0
 11
-1.015786
 21
0.275091
 31
0.0
  0
LINE
  5
20D
100
AcDbEntity
  8
レイヤー_1
 62
     7
100
AcDbLine
 10
-1.653646
 20
0.172083
 30
0.0
 11
-1.015786
 21
0.809081
 31
0.0
  0
LINE
  5
20C
100
AcDbEntity
  8
レイヤー_1
 62
     7
100
AcDbLine
 10
-2.187808
 20
0.172083
 30
0.0
 11
-1.500856
 21
0.85869
 31
0.0
  0
LINE
  5
20B
100
AcDbEntity
  8
レイヤー_1
 62
     7
100
AcDbLine
 10
-2.722659
 20
0.172083
 30
0.0
 11
-2.035362
 21
0.85869
 31
0.0
  0
LINE
  5
20A
100
AcDbEntity
  8
レイヤー_1
 62
     7
100
AcDbLine
 10
-3.256821
 20
0.172083
 30
0.0
 11
-2.569524
 21
0.85869
 31
0.0
  0
LINE
  5
209
100
AcDbEntity
  8
レイヤー_1
 62
     7
100
AcDbLine
 10
-3.791155
 20
0.172083
 30
0.0
 11
-3.104548
 21
0.85869
 31
0.0
  0
LINE
  5
208
100
AcDbEntity
  8
レイヤー_1
 62
     7
100
AcDbLine
 10
-4.326006
 20
0.172083
 30
0.0
 11
-3.63871
 21
0.85869
 31
0.0
  0
LINE
  5
207
100
AcDbEntity
  8
レイヤー_1
 62
     7
100
AcDbLine
 10
-4.860341
 20
0.172083
 30
0.0
 11
-4.172872
 21
0.85869
 31
0.0
  0
LINE
  5
206
100
AcDbEntity
  8
レイヤー_1
 62
     7
100
AcDbLine
 10
-5.395192
 20
0.172083
 30
0.0
 11
-4.707723
 21
0.85869
 31
0.0
  0
LINE
  5
205
100
AcDbEntity
  8
レイヤー_1
 62
     7
100
AcDbLine
 10
-5.929182
 20
0.172083
 30
0.0
 11
-5.242402
 21
0.85869
 31
0.0
  0
LINE
  5
204
100
AcDbEntity
  8
レイヤー_1
 62
     7
100
AcDbLine
 10
-6.464033
 20
0.172083
 30
0.0
 11
-5.776908
 21
0.85869
 31
0.0
  0
LINE
  5
203
100
AcDbEntity
  8
レイヤー_1
 62
     7
100
AcDbLine
 10
-6.998367
 20
0.172083
 30
0.0
 11
-6.31107
 21
0.85869
 31
0.0
  0
LINE
  5
202
100
AcDbEntity
  8
レイヤー_1
 62
     7
100
AcDbLine
 10
-7.532701
 20
0.172083
 30
0.0
 11
-6.845921
 21
0.85869
 31
0.0
  0
LINE
  5
201
100
AcDbEntity
  8
レイヤー_1
 62
     7
100
AcDbLine
 10
-8.06738
 20
0.172083
 30
0.0
 11
-7.380084
 21
0.85869
 31
0.0
  0
LINE
  5
200
100
AcDbEntity
  8
レイヤー_1
 62
     7
100
AcDbLine
 10
-9.63197
 20
-0.858001
 30
0.0
 11
-7.914418
 21
0.85869
 31
0.0
  0
LINE
  5
1FF
100
AcDbEntity
  8
レイヤー_1
 62
     7
100
AcDbLine
 10
-10.056061
 20
-0.748102
 30
0.0
 11
-8.449097
 21
0.85869
 31
0.0
  0
LINE
  5
1FE
100
AcDbEntity
  8
レイヤー_1
 62
     7
100
AcDbLine
 10
-10.358541
 20
-0.515903
 30
0.0
 11
-8.983603
 21
0.85869
 31
0.0
  0
LINE
  5
1FD
100
AcDbEntity
  8
レイヤー_1
 62
     7
100
AcDbLine
 10
-10.559045
 20
-0.181384
 30
0.0
 11
-9.518282
 21
0.85869
 31
0.0
  0
LINE
  5
1FC
100
AcDbEntity
  8
レイヤー_1
 62
     7
100
AcDbLine
 10
-10.739741
 20
0.172083
 30
0.0
 11
-10.052616
 21
0.85869
 31
0.0
  0
LINE
  5
1FB
100
AcDbEntity
  8
レイヤー_1
 62
     7
100
AcDbLine
 10
-11.274247
 20
0.172083
 30
0.0
 11
-10.587295
 21
0.85869
 31
0.0
  0
LINE
  5
1FA
100
AcDbEntity
  8
レイヤー_1
 62
     7
100
AcDbLine
 10
-11.338154
 20
0.642683
 30
0.0
 11
-11.121457
 21
0.85869
 31
0.0
  0
LINE
  5
1F9
100
AcDbEntity
  8
レイヤー_1
 62
     7
100
AcDbLine
 10
6.898287
 20
0.172083
 30
0.0
 11
7.585411
 21
0.85869
 31
0.0
  0
LINE
  5
1F8
100
AcDbEntity
  8
レイヤー_1
 62
     7
100
AcDbLine
 10
7.432794
 20
0.172083
 30
0.0
 11
8.12009
 21
0.85869
 31
0.0
  0
LINE
  5
1F7
100
AcDbEntity
  8
レイヤー_1
 62
     7
100
AcDbLine
 10
7.966956
 20
0.172083
 30
0.0
 11
8.654597
 21
0.85869
 31
0.0
  0
LINE
  5
1F6
100
AcDbEntity
  8
レイヤー_1
 62
     7
100
AcDbLine
 10
8.501979
 20
0.172083
 30
0.0
 11
9.188586
 21
0.85869
 31
0.0
  0
LINE
  5
1F5
100
AcDbEntity
  8
レイヤー_1
 62
     7
100
AcDbLine
 10
8.660798
 20
-0.202744
 30
0.0
 11
9.723437
 21
0.85869
 31
0.0
  0
LINE
  5
1F4
100
AcDbEntity
  8
レイヤー_1
 62
     7
100
AcDbLine
 10
8.866987
 20
-0.53175
 30
0.0
 11
10.258116
 21
0.85869
 31
0.0
  0
LINE
  5
1F3
100
AcDbEntity
  8
レイヤー_1
 62
     7
100
AcDbLine
 10
9.175495
 20
-0.75706
 30
0.0
 11
10.792451
 21
0.85869
 31
0.0
  0
LINE
  5
1F2
100
AcDbEntity
  8
レイヤー_1
 62
     7
100
AcDbLine
 10
9.608888
 20
-0.859035
 30
0.0
 11
11.326957
 21
0.85869
 31
0.0
  0
LINE
  5
1F1
100
AcDbEntity
  8
レイヤー_1
 62
     7
100
AcDbLine
 10
11.174167
 20
0.172083
 30
0.0
 11
11.338154
 21
0.336414
 31
0.0
  0
ENDBLK
  5
21B
100
AcDbEntity
  8
レイヤー_1
100
AcDbBlockEnd
  0
BLOCK
  5
21E
100
AcDbEntity
  8
レイヤー_1
 62
     7
100
AcDbBlockBegin
  2
AI9-BLK28
 70
     0
 10
0.0
 20
0.0
 30
0.0
  3
AI9-BLK28
  1

  0
LINE
  5
257
100
AcDbEntity
  8
レイヤー_1
 62
     7
100
AcDbLine
 10
5.66701
 20
0.412033
 30
0.0
 11
7.023861
 21
-0.944301
 31
0.0
  0
LINE
  5
256
100
AcDbEntity
  8
レイヤー_1
 62
     7
100
AcDbLine
 10
6.069225
 20
0.496438
 30
0.0
 11
7.023861
 21
-0.458198
 31
0.0
  0
LINE
  5
255
100
AcDbEntity
  8
レイヤー_1
 62
     7
100
AcDbLine
 10
6.26594
 20
0.786171
 30
0.0
 11
7.023861
 21
0.026527
 31
0.0
  0
LINE
  5
254
100
AcDbEntity
  8
レイヤー_1
 62
     7
100
AcDbLine
 10
6.398404
 20
1.138604
 30
0.0
 11
7.023861
 21
0.51263
 31
0.0
  0
LINE
  5
253
100
AcDbEntity
  8
レイヤー_1
 62
     7
100
AcDbLine
 10
6.53104
 20
1.491726
 30
0.0
 11
7.023861
 21
0.999767
 31
0.0
  0
LINE
  5
252
100
AcDbEntity
  8
レイヤー_1
 62
     7
100
AcDbLine
 10
6.663331
 20
1.845882
 30
0.0
 11
7.305842
 21
1.203372
 31
0.0
  0
LINE
  5
251
100
AcDbEntity
  8
レイヤー_1
 62
     7
100
AcDbLine
 10
7.104648
 20
1.890324
 30
0.0
 11
7.791945
 21
1.203372
 31
0.0
  0
LINE
  5
250
100
AcDbEntity
  8
レイヤー_1
 62
     7
100
AcDbLine
 10
7.590579
 20
1.890324
 30
0.0
 11
8.277875
 21
1.203372
 31
0.0
  0
LINE
  5
24F
100
AcDbEntity
  8
レイヤー_1
 62
     7
100
AcDbLine
 10
8.07651
 20
1.890324
 30
0.0
 11
8.763978
 21
1.203372
 31
0.0
  0
LINE
  5
24E
100
AcDbEntity
  8
レイヤー_1
 62
     7
100
AcDbLine
 10
8.398109
 20
2.054655
 30
0.0
 11
9.249737
 21
1.203372
 31
0.0
  0
LINE
  5
24D
100
AcDbEntity
  8
レイヤー_1
 62
     7
100
AcDbLine
 10
8.704895
 20
2.234144
 30
0.0
 11
8.74193
 21
2.196593
 31
0.0
  0
LINE
  5
24C
100
AcDbEntity
  8
レイヤー_1
 62
     7
100
AcDbLine
 10
8.876633
 20
2.061545
 30
0.0
 11
9.735495
 21
1.203372
 31
0.0
  0
LINE
  5
24B
100
AcDbEntity
  8
レイヤー_1
 62
     7
100
AcDbLine
 10
9.362391
 20
2.061545
 30
0.0
 11
10.16441
 21
1.259527
 31
0.0
  0
LINE
  5
24A
100
AcDbEntity
  8
レイヤー_1
 62
     7
100
AcDbLine
 10
9.843155
 20
2.067402
 30
0.0
 11
10.499273
 21
1.410767
 31
0.0
  0
LINE
  5
249
100
AcDbEntity
  8
レイヤー_1
 62
     7
100
AcDbLine
 10
10.211091
 20
2.185224
 30
0.0
 11
10.766957
 21
1.628497
 31
0.0
  0
LINE
  5
248
100
AcDbEntity
  8
レイヤー_1
 62
     7
100
AcDbLine
 10
10.488249
 20
2.393652
 30
0.0
 11
10.97349
 21
1.908583
 31
0.0
  0
LINE
  5
247
100
AcDbEntity
  8
レイヤー_1
 62
     7
100
AcDbLine
 10
10.790556
 20
2.576931
 30
0.0
 11
11.109572
 21
2.259294
 31
0.0
  0
LINE
  5
246
100
AcDbEntity
  8
レイヤー_1
 62
     7
100
AcDbLine
 10
5.265139
 20
0.328662
 30
0.0
 11
7.023861
 21
-1.430404
 31
0.0
  0
LINE
  5
245
100
AcDbEntity
  8
レイヤー_1
 62
     7
100
AcDbLine
 10
4.863269
 20
0.244602
 30
0.0
 11
7.023861
 21
-1.916162
 31
0.0
  0
LINE
  5
244
100
AcDbEntity
  8
レイヤー_1
 62
     7
100
AcDbLine
 10
4.461226
 20
0.160541
 30
0.0
 11
6.939111
 21
-2.317171
 31
0.0
  0
LINE
  5
243
100
AcDbEntity
  8
レイヤー_1
 62
     7
100
AcDbLine
 10
4.059012
 20
0.07717
 30
0.0
 11
6.696577
 21
-2.56005
 31
0.0
  0
LINE
  5
242
100
AcDbEntity
  8
レイヤー_1
 62
     7
100
AcDbLine
 10
3.656969
 20
-0.007235
 30
0.0
 11
5.711279
 21
-2.06189
 31
0.0
  0
LINE
  5
241
100
AcDbEntity
  8
レイヤー_1
 62
     7
100
AcDbLine
 10
5.907477
 20
-2.257571
 30
0.0
 11
6.226666
 21
-2.576931
 31
0.0
  0
LINE
  5
240
100
AcDbEntity
  8
レイヤー_1
 62
     7
100
AcDbLine
 10
3.254754
 20
-0.089917
 30
0.0
 11
5.225176
 21
-2.06189
 31
0.0
  0
LINE
  5
23F
100
AcDbEntity
  8
レイヤー_1
 62
     7
100
AcDbLine
 10
2.852711
 20
-0.174666
 30
0.0
 11
4.739246
 21
-2.06189
 31
0.0
  0
LINE
  5
23E
100
AcDbEntity
  8
レイヤー_1
 62
     7
100
AcDbLine
 10
2.450669
 20
-0.257693
 30
0.0
 11
4.253315
 21
-2.06189
 31
0.0
  0
LINE
  5
23D
100
AcDbEntity
  8
レイヤー_1
 62
     7
100
AcDbLine
 10
2.048454
 20
-0.341409
 30
0.0
 11
3.767384
 21
-2.06189
 31
0.0
  0
LINE
  5
23C
100
AcDbEntity
  8
レイヤー_1
 62
     7
100
AcDbLine
 10
1.563557
 20
-0.343476
 30
0.0
 11
3.281798
 21
-2.06189
 31
0.0
  0
LINE
  5
23B
100
AcDbEntity
  8
レイヤー_1
 62
     7
100
AcDbLine
 10
1.077626
 20
-0.343476
 30
0.0
 11
2.795867
 21
-2.06189
 31
0.0
  0
LINE
  5
23A
100
AcDbEntity
  8
レイヤー_1
 62
     7
100
AcDbLine
 10
1.011136
 20
-0.762744
 30
0.0
 11
2.309937
 21
-2.06189
 31
0.0
  0
LINE
  5
239
100
AcDbEntity
  8
レイヤー_1
 62
     7
100
AcDbLine
 10
1.011136
 20
-1.248503
 30
0.0
 11
1.823834
 21
-2.06189
 31
0.0
  0
LINE
  5
238
100
AcDbEntity
  8
レイヤー_1
 62
     7
100
AcDbLine
 10
1.011136
 20
-1.733572
 30
0.0
 11
1.337903
 21
-2.06189
 31
0.0
  0
LINE
  5
237
100
AcDbEntity
  8
レイヤー_1
 62
     7
100
AcDbLine
 10
-1.351683
 20
-0.343476
 30
0.0
 11
-1.050237
 21
-0.644922
 31
0.0
  0
LINE
  5
236
100
AcDbEntity
  8
レイヤー_1
 62
     7
100
AcDbLine
 10
-1.837786
 20
-0.343476
 30
0.0
 11
-1.050237
 21
-1.13068
 31
0.0
  0
LINE
  5
235
100
AcDbEntity
  8
レイヤー_1
 62
     7
100
AcDbLine
 10
-2.387451
 20
-0.279397
 30
0.0
 11
-1.050237
 21
-1.616439
 31
0.0
  0
LINE
  5
234
100
AcDbEntity
  8
レイヤー_1
 62
     7
100
AcDbLine
 10
-3.001195
 20
-0.150895
 30
0.0
 11
-1.091406
 21
-2.06189
 31
0.0
  0
LINE
  5
233
100
AcDbEntity
  8
レイヤー_1
 62
     7
100
AcDbLine
 10
-3.614939
 20
-0.024116
 30
0.0
 11
-1.577509
 21
-2.06189
 31
0.0
  0
LINE
  5
232
100
AcDbEntity
  8
レイヤー_1
 62
     7
100
AcDbLine
 10
-4.228682
 20
0.104042
 30
0.0
 11
-2.063612
 21
-2.06189
 31
0.0
  0
LINE
  5
231
100
AcDbEntity
  8
レイヤー_1
 62
     7
100
AcDbLine
 10
-4.842598
 20
0.231855
 30
0.0
 11
-2.549371
 21
-2.06189
 31
0.0
  0
LINE
  5
230
100
AcDbEntity
  8
レイヤー_1
 62
     7
100
AcDbLine
 10
-6.985792
 20
1.890324
 30
0.0
 11
-6.558945
 21
1.463477
 31
0.0
  0
LINE
  5
22F
100
AcDbEntity
  8
レイヤー_1
 62
     7
100
AcDbLine
 10
-5.45617
 20
0.360012
 30
0.0
 11
-3.035129
 21
-2.06189
 31
0.0
  0
LINE
  5
22E
100
AcDbEntity
  8
レイヤー_1
 62
     7
100
AcDbLine
 10
-7.472584
 20
1.890324
 30
0.0
 11
-6.267834
 21
0.685919
 31
0.0
  0
LINE
  5
22D
100
AcDbEntity
  8
レイヤー_1
 62
     7
100
AcDbLine
 10
-6.069914
 20
0.488515
 30
0.0
 11
-3.52106
 21
-2.06189
 31
0.0
  0
LINE
  5
22C
100
AcDbEntity
  8
レイヤー_1
 62
     7
100
AcDbLine
 10
-7.957998
 20
1.890324
 30
0.0
 11
-7.271046
 21
1.203372
 31
0.0
  0
LINE
  5
22B
100
AcDbEntity
  8
レイヤー_1
 62
     7
100
AcDbLine
 10
-7.063135
 20
0.994944
 30
0.0
 11
-4.006991
 21
-2.06189
 31
0.0
  0
LINE
  5
22A
100
AcDbEntity
  8
レイヤー_1
 62
     7
100
AcDbLine
 10
-8.781032
 20
2.22691
 30
0.0
 11
-7.756632
 21
1.203372
 31
0.0
  0
LINE
  5
229
100
AcDbEntity
  8
レイヤー_1
 62
     7
100
AcDbLine
 10
-7.063135
 20
0.508841
 30
0.0
 11
-4.492921
 21
-2.06189
 31
0.0
  0
LINE
  5
228
100
AcDbEntity
  8
レイヤー_1
 62
     7
100
AcDbLine
 10
-9.101598
 20
2.061545
 30
0.0
 11
-8.242563
 21
1.203372
 31
0.0
  0
LINE
  5
227
100
AcDbEntity
  8
レイヤー_1
 62
     7
100
AcDbLine
 10
-7.063135
 20
0.022738
 30
0.0
 11
-4.978852
 21
-2.06189
 31
0.0
  0
LINE
  5
226
100
AcDbEntity
  8
レイヤー_1
 62
     7
100
AcDbLine
 10
-9.587701
 20
2.061545
 30
0.0
 11
-8.728666
 21
1.203372
 31
0.0
  0
LINE
  5
225
100
AcDbEntity
  8
レイヤー_1
 62
     7
100
AcDbLine
 10
-7.063135
 20
-0.463365
 30
0.0
 11
-5.464955
 21
-2.06189
 31
0.0
  0
LINE
  5
224
100
AcDbEntity
  8
レイヤー_1
 62
     7
100
AcDbLine
 10
-10.14994
 20
2.138026
 30
0.0
 11
-9.214425
 21
1.203372
 31
0.0
  0
LINE
  5
223
100
AcDbEntity
  8
レイヤー_1
 62
     7
100
AcDbLine
 10
-7.063135
 20
-0.94809
 30
0.0
 11
-5.946063
 21
-2.065335
 31
0.0
  0
LINE
  5
222
100
AcDbEntity
  8
レイヤー_1
 62
     7
100
AcDbLine
 10
-11.074604
 20
2.576931
 30
0.0
 11
-9.700528
 21
1.203372
 31
0.0
  0
LINE
  5
221
100
AcDbEntity
  8
レイヤー_1
 62
     7
100
AcDbLine
 10
-7.063135
 20
-1.433849
 30
0.0
 11
-5.946063
 21
-2.551782
 31
0.0
  0
LINE
  5
220
100
AcDbEntity
  8
レイヤー_1
 62
     7
100
AcDbLine
 10
-11.109572
 20
2.127346
 30
0.0
 11
-10.26225
 21
1.278819
 31
0.0
  0
LINE
  5
21F
100
AcDbEntity
  8
レイヤー_1
 62
     7
100
AcDbLine
 10
-7.063135
 20
-1.920641
 30
0.0
 11
-6.407016
 21
-2.576931
 31
0.0
  0
ENDBLK
  5
258
100
AcDbEntity
  8
レイヤー_1
100
AcDbBlockEnd
  0
BLOCK
  5
26F
100
AcDbEntity
  8
レイヤー_1
 62
     7
100
AcDbBlockBegin
  2
AI9-BLK29
 70
     0
 10
0.0
 20
0.0
 30
0.0
  3
AI9-BLK29
  1

  0
LINE
  5
272
100
AcDbEntity
  8
レイヤー_1
 62
     7
100
AcDbLine
 10
0.000345
 20
-0.995805
 30
0.0
 11
0.533473
 21
0.995805
 31
0.0
  0
LINE
  5
271
100
AcDbEntity
  8
レイヤー_1
 62
     7
100
AcDbLine
 10
0.000345
 20
-0.995805
 30
0.0
 11
-0.533473
 21
0.995805
 31
0.0
  0
LINE
  5
270
100
AcDbEntity
  8
レイヤー_1
 62
     7
100
AcDbLine
 10
0.000345
 20
-0.995805
 30
0.0
 11
0.000345
 21
0.995805
 31
0.0
  0
ENDBLK
  5
273
100
AcDbEntity
  8
レイヤー_1
100
AcDbBlockEnd
  0
BLOCK
  5
276
100
AcDbEntity
  8
レイヤー_1
 62
     7
100
AcDbBlockBegin
  2
AI9-BLK30
 70
     0
 10
0.0
 20
0.0
 30
0.0
  3
AI9-BLK30
  1

  0
LINE
  5
279
100
AcDbEntity
  8
レイヤー_1
 62
     7
100
AcDbLine
 10
0.000345
 20
0.995977
 30
0.0
 11
-0.533473
 21
-0.995977
 31
0.0
  0
LINE
  5
278
100
AcDbEntity
  8
レイヤー_1
 62
     7
100
AcDbLine
 10
0.000345
 20
0.995977
 30
0.0
 11
0.533473
 21
-0.995977
 31
0.0
  0
LINE
  5
277
100
AcDbEntity
  8
レイヤー_1
 62
     7
100
AcDbLine
 10
0.000345
 20
0.995977
 30
0.0
 11
0.000345
 21
-0.995977
 31
0.0
  0
ENDBLK
  5
27A
100
AcDbEntity
  8
レイヤー_1
100
AcDbBlockEnd
  0
BLOCK
  5
2FE
100
AcDbEntity
  8
レイヤー_1
 62
     7
100
AcDbBlockBegin
  2
AI9-BLK31
 70
     0
 10
0.0
 20
0.0
 30
0.0
  3
AI9-BLK31
  1

  0
CIRCLE
  5
2FF
100
AcDbEntity
  8
レイヤー_1
 62
     7
100
AcDbCircle
 10
-0.000086
 20
0.000517
 30
0.0
 40
0.85913
  0
ENDBLK
  5
300
100
AcDbEntity
  8
レイヤー_1
100
AcDbBlockEnd
  0
BLOCK
  5
306
100
AcDbEntity
  8
レイヤー_1
 62
     7
100
AcDbBlockBegin
  2
AI9-BLK32
 70
     0
 10
0.0
 20
0.0
 30
0.0
  3
AI9-BLK32
  1

  0
CIRCLE
  5
307
100
AcDbEntity
  8
レイヤー_1
 62
     7
100
AcDbCircle
 10
-0.006373
 20
-0.006718
 30
0.0
 40
0.85901
  0
ENDBLK
  5
308
100
AcDbEntity
  8
レイヤー_1
100
AcDbBlockEnd
  0
BLOCK
  5
30E
100
AcDbEntity
  8
レイヤー_1
 62
     7
100
AcDbBlockBegin
  2
AI9-BLK33
 70
     0
 10
0.0
 20
0.0
 30
0.0
  3
AI9-BLK33
  1

  0
CIRCLE
  5
30F
100
AcDbEntity
  8
レイヤー_1
 62
     7
100
AcDbCircle
 10
-0.02291
 20
-0.022565
 30
0.0
 40
0.858985
  0
ENDBLK
  5
310
100
AcDbEntity
  8
レイヤー_1
100
AcDbBlockEnd
  0
BLOCK
  5
316
100
AcDbEntity
  8
レイヤー_1
 62
     7
100
AcDbBlockBegin
  2
AI9-BLK34
 70
     0
 10
0.0
 20
0.0
 30
0.0
  3
AI9-BLK34
  1

  0
LINE
  5
319
100
AcDbEntity
  8
レイヤー_1
 62
     7
100
AcDbLine
 10
-1.020954
 20
-0.327973
 30
0.0
 11
1.031462
 21
-0.521932
 31
0.0
  0
LINE
  5
318
100
AcDbEntity
  8
レイヤー_1
 62
     7
100
AcDbLine
 10
-1.020954
 20
-0.327973
 30
0.0
 11
0.853867
 21
0.529856
 31
0.0
  0
LINE
  5
317
100
AcDbEntity
  8
レイヤー_1
 62
     7
100
AcDbLine
 10
-1.020954
 20
-0.327973
 30
0.0
 11
0.94275
 21
0.003101
 31
0.0
  0
ENDBLK
  5
31A
100
AcDbEntity
  8
レイヤー_1
100
AcDbBlockEnd
  0
BLOCK
  5
320
100
AcDbEntity
  8
レイヤー_1
 62
     7
100
AcDbBlockBegin
  2
AI9-BLK35
 70
     0
 10
0.0
 20
0.0
 30
0.0
  3
AI9-BLK35
  1

  0
LINE
  5
323
100
AcDbEntity
  8
レイヤー_1
 62
     7
100
AcDbLine
 10
-1.022849
 20
-0.525377
 30
0.0
 11
1.038524
 21
-0.496094
 31
0.0
  0
LINE
  5
322
100
AcDbEntity
  8
レイヤー_1
 62
     7
100
AcDbLine
 10
-1.022849
 20
-0.525377
 30
0.0
 11
0.747758
 21
0.531578
 31
0.0
  0
LINE
  5
321
100
AcDbEntity
  8
レイヤー_1
 62
     7
100
AcDbLine
 10
-1.022849
 20
-0.525377
 30
0.0
 11
0.893313
 21
0.017914
 31
0.0
  0
ENDBLK
  5
324
100
AcDbEntity
  8
レイヤー_1
100
AcDbBlockEnd
  0
BLOCK
  5
331
100
AcDbEntity
  8
レイヤー_1
 62
     7
100
AcDbBlockBegin
  2
AI9-BLK36
 70
     0
 10
0.0
 20
0.0
 30
0.0
  3
AI9-BLK36
  1

  0
LINE
  5
334
100
AcDbEntity
  8
レイヤー_1
 62
     7
100
AcDbLine
 10
0.853006
 20
0.576451
 30
0.0
 11
-0.863341
 21
0.225223
 31
0.0
  0
LINE
  5
333
100
AcDbEntity
  8
レイヤー_1
 62
     7
100
AcDbLine
 10
0.853006
 20
0.576451
 30
0.0
 11
-0.457509
 21
-0.586786
 31
0.0
  0
LINE
  5
332
100
AcDbEntity
  8
レイヤー_1
 62
     7
100
AcDbLine
 10
0.853006
 20
0.576451
 30
0.0
 11
-0.660769
 21
-0.180954
 31
0.0
  0
ENDBLK
  5
335
100
AcDbEntity
  8
レイヤー_1
100
AcDbBlockEnd
  0
BLOCK
  5
339
100
AcDbEntity
  8
レイヤー_1
 62
     7
100
AcDbBlockBegin
  2
AI9-BLK37
 70
     0
 10
0.0
 20
0.0
 30
0.0
  3
AI9-BLK37
  1

  0
LINE
  5
33C
100
AcDbEntity
  8
レイヤー_1
 62
     7
100
AcDbLine
 10
-0.85335
 20
-0.576537
 30
0.0
 11
0.863685
 21
-0.22462
 31
0.0
  0
LINE
  5
33B
100
AcDbEntity
  8
レイヤー_1
 62
     7
100
AcDbLine
 10
-0.85335
 20
-0.576537
 30
0.0
 11
0.458542
 21
0.5867
 31
0.0
  0
LINE
  5
33A
100
AcDbEntity
  8
レイヤー_1
 62
     7
100
AcDbLine
 10
-0.85335
 20
-0.576537
 30
0.0
 11
0.661114
 21
0.180868
 31
0.0
  0
ENDBLK
  5
33D
100
AcDbEntity
  8
レイヤー_1
100
AcDbBlockEnd
  0
BLOCK
  5
342
100
AcDbEntity
  8
レイヤー_1
 62
     7
100
AcDbBlockBegin
  2
AI9-BLK38
 70
     0
 10
0.0
 20
0.0
 30
0.0
  3
AI9-BLK38
  1

  0
LINE
  5
371
100
AcDbEntity
  8
レイヤー_1
 62
     7
100
AcDbLine
 10
-6.969256
 20
-3.541903
 30
0.0
 11
-6.551021
 21
-3.959793
 31
0.0
  0
LINE
  5
370
100
AcDbEntity
  8
レイヤー_1
 62
     7
100
AcDbLine
 10
-6.730166
 20
-3.367409
 30
0.0
 11
-6.285232
 21
-3.812687
 31
0.0
  0
LINE
  5
36F
100
AcDbEntity
  8
レイヤー_1
 62
     7
100
AcDbLine
 10
-6.462482
 20
-3.222542
 30
0.0
 11
-5.967078
 21
-3.717947
 31
0.0
  0
LINE
  5
36E
100
AcDbEntity
  8
レイヤー_1
 62
     7
100
AcDbLine
 10
-6.140883
 20
-3.130731
 30
0.0
 11
-5.606204
 21
-3.665409
 31
0.0
  0
LINE
  5
36D
100
AcDbEntity
  8
レイヤー_1
 62
     7
100
AcDbLine
 10
-5.747453
 20
-3.111266
 30
0.0
 11
-5.606204
 21
-3.252342
 31
0.0
  0
LINE
  5
36C
100
AcDbEntity
  8
レイヤー_1
 62
     7
100
AcDbLine
 10
-0.639926
 20
-3.261127
 30
0.0
 11
-0.324356
 21
-3.576698
 31
0.0
  0
LINE
  5
36B
100
AcDbEntity
  8
レイヤー_1
 62
     7
100
AcDbLine
 10
-0.476973
 20
-3.011186
 30
0.0
 11
-0.031178
 21
-3.456981
 31
0.0
  0
LINE
  5
36A
100
AcDbEntity
  8
レイヤー_1
 62
     7
100
AcDbLine
 10
-0.193098
 20
-2.882167
 30
0.0
 11
0.231166
 21
-3.305914
 31
0.0
  0
LINE
  5
369
100
AcDbEntity
  8
レイヤー_1
 62
     7
100
AcDbLine
 10
0.051676
 20
-2.71284
 30
0.0
 11
0.466121
 21
-3.128147
 31
0.0
  0
LINE
  5
368
100
AcDbEntity
  8
レイヤー_1
 62
     7
100
AcDbLine
 10
0.26131
 20
-2.50958
 30
0.0
 11
0.675066
 21
-2.924197
 31
0.0
  0
LINE
  5
367
100
AcDbEntity
  8
レイヤー_1
 62
     7
100
AcDbLine
 10
0.435977
 20
-2.271868
 30
0.0
 11
0.857829
 21
-2.692859
 31
0.0
  0
LINE
  5
366
100
AcDbEntity
  8
レイヤー_1
 62
     7
100
AcDbLine
 10
0.572747
 20
-1.995572
 30
0.0
 11
1.013375
 21
-2.436372
 31
0.0
  0
LINE
  5
365
100
AcDbEntity
  8
レイヤー_1
 62
     7
100
AcDbLine
 10
0.664214
 20
-1.673283
 30
0.0
 11
1.139121
 21
-2.148706
 31
0.0
  0
LINE
  5
364
100
AcDbEntity
  8
レイヤー_1
 62
     7
100
AcDbLine
 10
0.716924
 20
-1.313098
 30
0.0
 11
1.229555
 21
-1.825728
 31
0.0
  0
LINE
  5
363
100
AcDbEntity
  8
レイヤー_1
 62
     7
100
AcDbLine
 10
0.768429
 20
-0.951191
 30
0.0
 11
1.284848
 21
-1.468127
 31
0.0
  0
LINE
  5
362
100
AcDbEntity
  8
レイヤー_1
 62
     7
100
AcDbLine
 10
0.820105
 20
-0.589456
 30
0.0
 11
1.336353
 21
-1.106392
 31
0.0
  0
LINE
  5
361
100
AcDbEntity
  8
レイヤー_1
 62
     7
100
AcDbLine
 10
0.871609
 20
-0.228582
 30
0.0
 11
1.388029
 21
-0.74483
 31
0.0
  0
LINE
  5
360
100
AcDbEntity
  8
レイヤー_1
 62
     7
100
AcDbLine
 10
0.923458
 20
0.132292
 30
0.0
 11
1.439705
 21
-0.383784
 31
0.0
  0
LINE
  5
35F
100
AcDbEntity
  8
レイヤー_1
 62
     7
100
AcDbLine
 10
0.974962
 20
0.494199
 30
0.0
 11
1.491554
 21
-0.022049
 31
0.0
  0
LINE
  5
35E
100
AcDbEntity
  8
レイヤー_1
 62
     7
100
AcDbLine
 10
1.026638
 20
0.855762
 30
0.0
 11
1.543058
 21
0.339859
 31
0.0
  0
LINE
  5
35D
100
AcDbEntity
  8
レイヤー_1
 62
     7
100
AcDbLine
 10
1.081932
 20
1.213535
 30
0.0
 11
1.594562
 21
0.70056
 31
0.0
  0
LINE
  5
35C
100
AcDbEntity
  8
レイヤー_1
 62
     7
100
AcDbLine
 10
1.162892
 20
1.545642
 30
0.0
 11
1.647961
 21
1.061089
 31
0.0
  0
LINE
  5
35B
100
AcDbEntity
  8
レイヤー_1
 62
     7
100
AcDbLine
 10
1.269345
 20
1.852772
 30
0.0
 11
1.727371
 21
1.394747
 31
0.0
  0
LINE
  5
35A
100
AcDbEntity
  8
レイヤー_1
 62
     7
100
AcDbLine
 10
1.397847
 20
2.13682
 30
0.0
 11
1.837269
 21
1.697571
 31
0.0
  0
LINE
  5
359
100
AcDbEntity
  8
レイヤー_1
 62
     7
100
AcDbLine
 10
1.546848
 20
2.401576
 30
0.0
 11
1.973006
 21
1.974556
 31
0.0
  0
LINE
  5
358
100
AcDbEntity
  8
レイヤー_1
 62
     7
100
AcDbLine
 10
1.71428
 20
2.647039
 30
0.0
 11
2.132686
 21
2.228288
 31
0.0
  0
LINE
  5
357
100
AcDbEntity
  8
レイヤー_1
 62
     7
100
AcDbLine
 10
1.899453
 20
2.87476
 30
0.0
 11
2.313554
 21
2.460315
 31
0.0
  0
LINE
  5
356
100
AcDbEntity
  8
レイヤー_1
 62
     7
100
AcDbLine
 10
2.102197
 20
3.085255
 30
0.0
 11
2.515436
 21
2.672361
 31
0.0
  0
LINE
  5
355
100
AcDbEntity
  8
レイヤー_1
 62
     7
100
AcDbLine
 10
2.321994
 20
3.278008
 30
0.0
 11
2.737817
 21
2.862185
 31
0.0
  0
LINE
  5
354
100
AcDbEntity
  8
レイヤー_1
 62
     7
100
AcDbLine
 10
2.559361
 20
3.45388
 30
0.0
 11
2.98173
 21
3.032201
 31
0.0
  0
LINE
  5
353
100
AcDbEntity
  8
レイヤー_1
 62
     7
100
AcDbLine
 10
2.814988
 20
3.611666
 30
0.0
 11
3.248036
 21
3.178962
 31
0.0
  0
LINE
  5
352
100
AcDbEntity
  8
レイヤー_1
 62
     7
100
AcDbLine
 10
3.089906
 20
3.749814
 30
0.0
 11
3.537596
 21
3.302124
 31
0.0
  0
LINE
  5
351
100
AcDbEntity
  8
レイヤー_1
 62
     7
100
AcDbLine
 10
3.386012
 20
3.866431
 30
0.0
 11
3.839731
 21
3.413228
 31
0.0
  0
LINE
  5
350
100
AcDbEntity
  8
レイヤー_1
 62
     7
100
AcDbLine
 10
3.70365
 20
3.962032
 30
0.0
 11
4.150996
 21
3.515203
 31
0.0
  0
LINE
  5
34F
100
AcDbEntity
  8
レイヤー_1
 62
     7
100
AcDbLine
 10
4.029728
 20
4.049365
 30
0.0
 11
4.471045
 21
3.608393
 31
0.0
  0
LINE
  5
34E
100
AcDbEntity
  8
レイヤー_1
 62
     7
100
AcDbLine
 10
4.362008
 20
4.130325
 30
0.0
 11
4.80143
 21
3.690386
 31
0.0
  0
LINE
  5
34D
100
AcDbEntity
  8
レイヤー_1
 62
     7
100
AcDbLine
 10
4.701866
 20
4.203878
 30
0.0
 11
5.142494
 21
3.763422
 31
0.0
  0
LINE
  5
34C
100
AcDbEntity
  8
レイヤー_1
 62
     7
100
AcDbLine
 10
5.048615
 20
4.270196
 30
0.0
 11
5.494755
 21
3.823711
 31
0.0
  0
LINE
  5
34B
100
AcDbEntity
  8
レイヤー_1
 62
     7
100
AcDbLine
 10
5.403805
 20
4.327557
 30
0.0
 11
5.859074
 21
3.872287
 31
0.0
  0
LINE
  5
34A
100
AcDbEntity
  8
レイヤー_1
 62
     7
100
AcDbLine
 10
5.76709
 20
4.378372
 30
0.0
 11
6.237173
 21
3.907772
 31
0.0
  0
LINE
  5
349
100
AcDbEntity
  8
レイヤー_1
 62
     7
100
AcDbLine
 10
6.138471
 20
4.418507
 30
0.0
 11
6.630259
 21
3.927926
 31
0.0
  0
LINE
  5
348
100
AcDbEntity
  8
レイヤー_1
 62
     7
100
AcDbLine
 10
6.519843
 20
4.451236
 30
0.0
 11
7.040053
 21
3.930682
 31
0.0
  0
LINE
  5
347
100
AcDbEntity
  8
レイヤー_1
 62
     7
100
AcDbLine
 10
6.911206
 20
4.472767
 30
0.0
 11
7.468967
 21
3.914317
 31
0.0
  0
LINE
  5
346
100
AcDbEntity
  8
レイヤー_1
 62
     7
100
AcDbLine
 10
7.313593
 20
4.483275
 30
0.0
 11
7.685147
 21
4.111549
 31
0.0
  0
LINE
  5
345
100
AcDbEntity
  8
レイヤー_1
 62
     7
100
AcDbLine
 10
-7.207829
 20
-3.715708
 30
0.0
 11
-6.789422
 21
-4.134287
 31
0.0
  0
LINE
  5
344
100
AcDbEntity
  8
レイヤー_1
 62
     7
100
AcDbLine
 10
-7.446402
 20
-3.890891
 30
0.0
 11
-7.028512
 21
-4.308781
 31
0.0
  0
LINE
  5
343
100
AcDbEntity
  8
レイヤー_1
 62
     7
100
AcDbLine
 10
-7.685147
 20
-4.065385
 30
0.0
 11
-7.266912
 21
-4.483275
 31
0.0
  0
ENDBLK
  5
372
100
AcDbEntity
  8
レイヤー_1
100
AcDbBlockEnd
  0
ENDSEC
  0
SECTION
  2
ENTITIES
  0
MTEXT
  5
38C
100
AcDbEntity
  8
レイヤー_1
 62
     7
100
AcDbMText
 10
47.801389
 20
54.655042
 30
0.0
 40
3.149487
 41
0.0
 71
     1
 72
     2
  1
\fOsaka|b0|i0|c128;10.100.970.00
  7
STD
210
0.0
220
0.0
230
1.0
 11
1.000001
 21
0.0
 31
0.0
 73
     1
 44
1.0
  0
MTEXT
  5
38B
100
AcDbEntity
  8
レイヤー_1
 62
     7
100
AcDbMText
 10
39.6875
 20
57.666567
 30
0.0
 40
1.574901
 41
0.0
 71
     1
 72
     2
  1
\fOsaka|b0|i0|c128;品番
  7
KANJISTD
210
0.0
220
0.0
230
1.0
 11
1.000001
 21
0.0
 31
0.0
 73
     1
 44
1.0
  0
MTEXT
  5
38A
100
AcDbEntity
  8
レイヤー_1
 62
     7
100
AcDbMText
 10
47.801389
 20
34.193931
 30
0.0
 40
3.149802
 41
0.0
 71
     1
 72
     2
  1
\fOsaka|b0|i0|c128;ｵｰﾊﾞｰﾌﾛｰ無し排水口金具
  7
KANJISTD
210
0.0
220
0.0
230
1.0
 11
0.9999
 21
0.0
 31
0.0
 73
     1
 44
1.0
  0
MTEXT
  5
389
100
AcDbEntity
  8
レイヤー_1
 62
     7
100
AcDbMText
 10
39.6875
 20
36.499901
 30
0.0
 40
1.574901
 41
0.0
 71
     1
 72
     2
  1
\fOsaka|b0|i0|c128;品名
  7
KANJISTD
210
0.0
220
0.0
230
1.0
 11
1.000001
 21
0.0
 31
0.0
 73
     1
 44
1.0
  0
MTEXT
  5
388
100
AcDbEntity
  8
レイヤー_1
 62
     7
100
AcDbMText
 10
47.801389
 20
44.777264
 30
0.0
 40
3.149802
 41
0.0
 71
     1
 72
     2
  1
\fOsaka|b0|i0|c128;―
  7
KANJISTD
210
0.0
220
0.0
230
1.0
 11
0.9999
 21
0.0
 31
0.0
 73
     1
 44
1.0
  0
POLYLINE
  5
382
100
AcDbEntity
  8
レイヤー_1
 62
     7
100
AcDb2dPolyline
 66
     1
 10
0.0
 20
0.0
 30
0.0
 70
     1
  0
VERTEX
  5
383
100
AcDbEntity
  8
レイヤー_1
 62
     7
100
AcDbVertex
100
AcDb2dVertex
 10
23.636111
 20
27.163889
 30
0.0
  0
VERTEX
  5
384
100
AcDbEntity
  8
レイヤー_1
 62
     7
100
AcDbVertex
100
AcDb2dVertex
 10
198.613889
 20
27.163889
 30
0.0
  0
VERTEX
  5
385
100
AcDbEntity
  8
レイヤー_1
 62
     7
100
AcDbVertex
100
AcDb2dVertex
 10
198.613889
 20
276.577778
 30
0.0
  0
VERTEX
  5
386
100
AcDbEntity
  8
レイヤー_1
 62
     7
100
AcDbVertex
100
AcDb2dVertex
 10
23.636111
 20
276.577778
 30
0.0
  0
SEQEND
  5
387
100
AcDbEntity
  8
レイヤー_1
 62
     7
  0
LINE
  5
381
100
AcDbEntity
  8
レイヤー_1
 62
     7
100
AcDbLine
 10
170.568056
 20
37.570833
 30
0.0
 11
27.693056
 21
37.570833
 31
0.0
  0
LINE
  5
380
100
AcDbEntity
  8
レイヤー_1
 62
     7
100
AcDbLine
 10
170.568056
 20
48.154167
 30
0.0
 11
27.693056
 21
48.154167
 31
0.0
  0
LINE
  5
37F
100
AcDbEntity
  8
レイヤー_1
 62
     7
100
AcDbLine
 10
23.636111
 20
58.913889
 30
0.0
 11
198.261111
 21
58.913889
 31
0.0
  0
LINE
  5
37E
100
AcDbEntity
  8
レイヤー_1
 62
     7
100
AcDbLine
 10
170.744444
 20
58.913889
 30
0.0
 11
170.744444
 21
27.516667
 31
0.0
  0
MTEXT
  5
37D
100
AcDbEntity
  8
レイヤー_1
 62
     7
100
AcDbMText
 10
29.104167
 20
47.083234
 30
0.0
 40
1.574901
 41
0.0
 71
     1
 72
     2
  1
\fOsaka|b0|i0|c128;セレクション名
  7
KANJISTD
210
0.0
220
0.0
230
1.0
 11
1.000001
 21
0.0
 31
0.0
 73
     1
 44
1.0
  0
MTEXT
  5
37C
100
AcDbEntity
  8
レイヤー_1
 62
   253
100
AcDbMText
 10
174.095833
 20
55.713375
 30
0.0
 40
3.149802
 41
0.0
 71
     1
 72
     2
  1
\fHeiseiKakuGothicCAN W9|b0|i0|c128;寸法参考図
  7
KANJISTD
210
0.0
220
0.0
230
1.0
 11
0.9999
 21
0.0
 31
0.0
 73
     1
 44
1.0
  0
LINE
  5
37B
100
AcDbEntity
  8
レイヤー_1
 62
     7
100
AcDbLine
 10
27.516667
 20
58.913889
 30
0.0
 11
27.516667
 21
27.516667
 31
0.0
  0
IMAGE
  5
378
100
AcDbEntity
  8
レイヤー_1
 62
     7
 92
        0
100
AcDbRasterImage
 90
        0
 10
172.155556
 20
29.633016
 30
0.0
 11
0.352531
 21
0.0
 31
0.0
 12
0.0
 22
0.352813
 32
0.0
 13
70.0
 23
9.0
340
37A
 70
     7
280
     0
281
    50
282
    50
283
     0
360
379
 71
     1
 91
        2
 14
-0.5
 24
-0.5
 14
69.5
 24
8.5
  0
IMAGE
  5
375
100
AcDbEntity
  8
レイヤー_1
 62
     7
 92
        0
100
AcDbRasterImage
 90
        0
 10
172.155556
 20
29.633016
 30
0.0
 11
0.352531
 21
0.0
 31
0.0
 12
0.0
 22
0.352813
 32
0.0
 13
70.0
 23
9.0
340
377
 70
     7
280
     0
281
    50
282
    50
283
     0
360
376
 71
     1
 91
        2
 14
-0.5
 24
-0.5
 14
69.5
 24
8.5
  0
MTEXT
  5
374
100
AcDbEntity
  8
レイヤー_1
 62
     7
100
AcDbMText
 10
113.418056
 20
47.083234
 30
0.0
 40
1.574901
 41
0.0
 71
     1
 72
     2
  1
\fOsaka|b0|i0|c128;仕上
  7
KANJISTD
210
0.0
220
0.0
230
1.0
 11
1.000001
 21
0.0
 31
0.0
 73
     1
 44
1.0
  0
MTEXT
  5
373
100
AcDbEntity
  8
レイヤー_1
 62
     7
100
AcDbMText
 10
119.768056
 20
44.777264
 30
0.0
 40
3.149802
 41
0.0
 71
     1
 72
     2
  1
\fOsaka|b0|i0|c128;―
  7
KANJISTD
210
0.0
220
0.0
230
1.0
 11
0.9999
 21
0.0
 31
0.0
 73
     1
 44
1.0
  0
INSERT
  5
341
100
AcDbEntity
  8
レイヤー_1
 62
     7
100
AcDbBlockReference
  2
AI9-BLK38
 10
64.014353
 20
179.646054
 30
0.0
  0
LINE
  5
33F
100
AcDbEntity
  8
レイヤー_1
 62
     7
100
AcDbLine
 10
159.049034
 20
222.305983
 30
0.0
 11
162.184071
 21
223.874535
 31
0.0
  0
LINE
  5
33E
100
AcDbEntity
  8
レイヤー_1
 62
     7
100
AcDbLine
 10
194.51767
 20
240.050981
 30
0.0
 11
163.698535
 21
224.631939
 31
0.0
  0
INSERT
  5
338
100
AcDbEntity
  8
レイヤー_1
 62
     7
100
AcDbBlockReference
  2
AI9-BLK37
 10
163.037421
 20
224.451072
 30
0.0
  0
LINE
  5
336
100
AcDbEntity
  8
レイヤー_1
 62
     7
100
AcDbLine
 10
156.437652
 20
220.999258
 30
0.0
 11
157.535259
 21
221.548579
 31
0.0
  0
INSERT
  5
330
100
AcDbEntity
  8
レイヤー_1
 62
     7
100
AcDbBlockReference
  2
AI9-BLK36
 10
158.196029
 20
221.729532
 30
0.0
  0
MTEXT
  5
32E
100
AcDbEntity
  8
レイヤー_1
 62
     7
100
AcDbMText
 10
178.483438
 20
236.061049
 30
0.0
 40
3.021736
 41
0.0
 71
     1
 72
     2
  1
\W0.60;\fMS Gothic|b0|i0|c128;M6×1.0貫通
  7
KANJISTD
210
0.0
220
0.0
230
1.0
 11
0.8943
 21
0.4474
 31
0.0
 73
     1
 44
1.0
  0
CIRCLE
  5
32D
100
AcDbEntity
  8
レイヤー_1
 62
     7
100
AcDbCircle
 10
34.803474
 20
249.791471
 30
0.0
 40
2.482794
  0
MTEXT
  5
32C
100
AcDbEntity
  8
レイヤー_1
 62
     7
100
AcDbMText
 10
33.869078
 20
251.644631
 30
0.0
 40
3.021736
 41
0.0
 71
     1
 72
     2
  1
\W0.60;\fMS Gothic|b0|i0|c128;1
  7
STD
210
0.0
220
0.0
230
1.0
 11
1.000001
 21
0.0
 31
0.0
 73
     1
 44
1.0
  0
CIRCLE
  5
32B
100
AcDbEntity
  8
レイヤー_1
 62
     7
100
AcDbCircle
 10
85.053379
 20
249.791471
 30
0.0
 40
2.482708
  0
MTEXT
  5
32A
100
AcDbEntity
  8
レイヤー_1
 62
     7
100
AcDbMText
 10
84.11838
 20
251.644631
 30
0.0
 40
3.021736
 41
0.0
 71
     1
 72
     2
  1
\W0.60;\fMS Gothic|b0|i0|c128;2
  7
STD
210
0.0
220
0.0
230
1.0
 11
1.000001
 21
0.0
 31
0.0
 73
     1
 44
1.0
  0
CIRCLE
  5
329
100
AcDbEntity
  8
レイヤー_1
 62
     7
100
AcDbCircle
 10
141.247537
 20
249.791471
 30
0.0
 40
2.483225
  0
MTEXT
  5
328
100
AcDbEntity
  8
レイヤー_1
 62
     7
100
AcDbMText
 10
140.313227
 20
251.644631
 30
0.0
 40
3.021736
 41
0.0
 71
     1
 72
     2
  1
\W0.60;\fMS Gothic|b0|i0|c128;3
  7
STD
210
0.0
220
0.0
230
1.0
 11
1.000001
 21
0.0
 31
0.0
 73
     1
 44
1.0
  0
CIRCLE
  5
327
100
AcDbEntity
  8
レイヤー_1
 62
     7
100
AcDbCircle
 10
142.611106
 20
154.724578
 30
0.0
 40
2.920063
  0
MTEXT
  5
326
100
AcDbEntity
  8
レイヤー_1
 62
     7
100
AcDbMText
 10
141.510053
 20
156.099667
 30
0.0
 40
2.748648
 41
0.0
 71
     1
 72
     2
  1
\W0.60;\fMS Gothic|b0|i0|c128;4
  7
STD
210
0.0
220
0.0
230
1.0
 11
1.000001
 21
0.0
 31
0.0
 73
     1
 44
1.0
  0
LINE
  5
325
100
AcDbEntity
  8
レイヤー_1
 62
     7
100
AcDbLine
 10
87.909191
 20
127.37207
 30
0.0
 11
112.355588
 21
134.30188
 31
0.0
  0
INSERT
  5
31F
100
AcDbEntity
  8
レイヤー_1
 62
     7
100
AcDbBlockReference
  2
AI9-BLK35
 10
87.015877
 20
127.354156
 30
0.0
  0
CIRCLE
  5
31D
100
AcDbEntity
  8
レイヤー_1
 62
     7
100
AcDbCircle
 10
115.165408
 20
135.098386
 30
0.0
 40
2.920752
  0
MTEXT
  5
31C
100
AcDbEntity
  8
レイヤー_1
 62
     7
100
AcDbMText
 10
114.066423
 20
136.745184
 30
0.0
 40
3.021736
 41
0.0
 71
     1
 72
     2
  1
\W0.60;\fMS Gothic|b0|i0|c128;1
  7
STD
210
0.0
220
0.0
230
1.0
 11
1.000001
 21
0.0
 31
0.0
 73
     1
 44
1.0
  0
LINE
  5
31B
100
AcDbEntity
  8
レイヤー_1
 62
     7
100
AcDbLine
 10
87.956733
 20
123.631041
 30
0.0
 11
112.285997
 21
127.739662
 31
0.0
  0
INSERT
  5
315
100
AcDbEntity
  8
レイヤー_1
 62
     7
100
AcDbBlockReference
  2
AI9-BLK34
 10
87.013982
 20
123.627941
 30
0.0
  0
CIRCLE
  5
313
100
AcDbEntity
  8
レイヤー_1
 62
     7
100
AcDbCircle
 10
115.165408
 20
128.226454
 30
0.0
 40
2.920752
  0
MTEXT
  5
312
100
AcDbEntity
  8
レイヤー_1
 62
     7
100
AcDbMText
 10
114.066423
 20
129.873252
 30
0.0
 40
3.021736
 41
0.0
 71
     1
 72
     2
  1
\W0.60;\fMS Gothic|b0|i0|c128;4
  7
STD
210
0.0
220
0.0
230
1.0
 11
1.000001
 21
0.0
 31
0.0
 73
     1
 44
1.0
  0
LINE
  5
311
100
AcDbEntity
  8
レイヤー_1
 62
     7
100
AcDbLine
 10
95.652904
 20
114.621772
 30
0.0
 11
112.405197
 21
120.401953
 31
0.0
  0
INSERT
  5
30D
100
AcDbEntity
  8
レイヤー_1
 62
     7
100
AcDbBlockReference
  2
AI9-BLK33
 10
95.675383
 20
114.644682
 30
0.0
  0
CIRCLE
  5
30B
100
AcDbEntity
  8
レイヤー_1
 62
     7
100
AcDbCircle
 10
115.165408
 20
121.354522
 30
0.0
 40
2.920752
  0
MTEXT
  5
30A
100
AcDbEntity
  8
レイヤー_1
 62
     7
100
AcDbMText
 10
114.066423
 20
123.002354
 30
0.0
 40
3.021736
 41
0.0
 71
     1
 72
     2
  1
\W0.60;\fMS Gothic|b0|i0|c128;2
  7
STD
210
0.0
220
0.0
230
1.0
 11
1.000001
 21
0.0
 31
0.0
 73
     1
 44
1.0
  0
LINE
  5
309
100
AcDbEntity
  8
レイヤー_1
 62
     7
100
AcDbLine
 10
91.802493
 20
110.359844
 30
0.0
 11
112.289442
 21
113.975127
 31
0.0
  0
INSERT
  5
305
100
AcDbEntity
  8
レイヤー_1
 62
     7
100
AcDbBlockReference
  2
AI9-BLK32
 10
91.808436
 20
110.366734
 30
0.0
  0
CIRCLE
  5
303
100
AcDbEntity
  8
レイヤー_1
 62
     7
100
AcDbCircle
 10
115.165408
 20
114.483279
 30
0.0
 40
2.920752
  0
MTEXT
  5
302
100
AcDbEntity
  8
レイヤー_1
 62
     7
100
AcDbMText
 10
114.066423
 20
116.130766
 30
0.0
 40
3.021736
 41
0.0
 71
     1
 72
     2
  1
\W0.60;\fMS Gothic|b0|i0|c128;3
  7
STD
210
0.0
220
0.0
230
1.0
 11
1.000001
 21
0.0
 31
0.0
 73
     1
 44
1.0
  0
LINE
  5
301
100
AcDbEntity
  8
レイヤー_1
 62
     7
100
AcDbLine
 10
65.764978
 20
128.565107
 30
0.0
 11
50.33319
 21
137.970562
 31
0.0
  0
INSERT
  5
2FD
100
AcDbEntity
  8
レイヤー_1
 62
     7
100
AcDbBlockReference
  2
AI9-BLK31
 10
65.76515
 20
128.564418
 30
0.0
  0
LINE
  5
2FB
100
AcDbEntity
  8
レイヤー_1
 62
     7
100
AcDbLine
 10
50.33319
 20
137.970562
 30
0.0
 11
29.855887
 21
137.970562
 31
0.0
  0
MTEXT
  5
2FA
100
AcDbEntity
  8
レイヤー_1
 62
     7
100
AcDbMText
 10
30.199535
 20
141.335774
 30
0.0
 40
3.021736
 41
0.0
 71
     1
 72
     2
  1
\W0.60;\fMS Gothic|b0|i0|c128;洗面カウンター本体
  7
KANJISTD
210
0.0
220
0.0
230
1.0
 11
1.000001
 21
0.0
 31
0.0
 73
     1
 44
1.0
  0
LINE
  5
2F9
100
AcDbEntity
  8
レイヤー_1
 62
     7
100
AcDbLine
 10
83.56527
 20
122.019081
 30
0.0
 11
80.829003
 21
122.019081
 31
0.0
  0
LINE
  5
2F8
100
AcDbEntity
  8
レイヤー_1
 62
     7
100
AcDbLine
 10
84.072388
 20
121.853027
 30
0.0
 11
84.55005
 21
121.504039
 31
0.0
  0
SPLINE
  5
2F7
100
AcDbEntity
  8
レイヤー_1
 62
     7
100
AcDbSpline
210
0.0
220
0.0
230
1.0
 70
     8
 71
     3
 72
     8
 73
     4
 74
     0
 42
0.00000001
 43
0.00000001
 40
0.0
 40
0.0
 40
0.0
 40
0.0
 40
1.0
 40
1.0
 40
1.0
 40
1.0
 10
84.072387695312486
 20
121.85302734374999
 30
0.0
 10
83.925454372829847
 20
121.96085883246526
 30
0.0
 10
83.747687445746521
 20
122.01908094618055
 30
0.0
 10
83.565269639756934
 20
122.01908094618055
 30
0.0
  0
LINE
  5
2F6
100
AcDbEntity
  8
レイヤー_1
 62
     7
100
AcDbLine
 10
88.421304
 20
122.019081
 30
0.0
 11
91.157743
 21
122.019081
 31
0.0
  0
LINE
  5
2F5
100
AcDbEntity
  8
レイヤー_1
 62
     7
100
AcDbLine
 10
87.914014
 20
121.853027
 30
0.0
 11
87.436007
 21
121.504039
 31
0.0
  0
SPLINE
  5
2F4
100
AcDbEntity
  8
レイヤー_1
 62
     7
100
AcDbSpline
210
0.0
220
0.0
230
1.0
 70
     8
 71
     3
 72
     8
 73
     4
 74
     0
 42
0.00000001
 43
0.00000001
 40
0.0
 40
0.0
 40
0.0
 40
0.0
 40
1.0
 40
1.0
 40
1.0
 40
1.0
 10
91.15774332682291
 20
122.36255696614582
 30
0.0
 10
91.670718044704856
 20
122.36255696614582
 30
0.0
 10
92.105489095052079
 20
122.73979492187499
 30
0.0
 10
92.178352864583331
 20
123.24725748697915
 30
0.0
  0
SPLINE
  5
2F3
100
AcDbEntity
  8
レイヤー_1
 62
     7
100
AcDbSpline
210
0.0
220
0.0
230
1.0
 70
     8
 71
     3
 72
     8
 73
     4
 74
     0
 42
0.00000001
 43
0.00000001
 40
0.0
 40
0.0
 40
0.0
 40
0.0
 40
1.0
 40
1.0
 40
1.0
 40
1.0
 10
91.15774332682291
 20
122.36255696614582
 30
0.0
 10
91.670718044704856
 20
122.36255696614582
 30
0.0
 10
92.105489095052079
 20
122.73979492187499
 30
0.0
 10
92.178352864583331
 20
123.24725748697915
 30
0.0
  0
LINE
  5
2F2
100
AcDbEntity
  8
レイヤー_1
 62
     7
100
AcDbLine
 10
91.157743
 20
122.362557
 30
0.0
 11
88.309166
 21
122.362557
 31
0.0
  0
SPLINE
  5
2F1
100
AcDbEntity
  8
レイヤー_1
 62
     7
100
AcDbSpline
210
0.0
220
0.0
230
1.0
 70
     8
 71
     3
 72
     8
 73
     4
 74
     0
 42
0.00000001
 43
0.00000001
 40
0.0
 40
0.0
 40
0.0
 40
0.0
 40
1.0
 40
1.0
 40
1.0
 40
1.0
 10
88.309166124131934
 20
122.36255696614582
 30
0.0
 10
88.126576063368049
 20
122.36255696614582
 30
0.0
 10
87.94915364583332
 20
122.30399034288193
 30
0.0
 10
87.80187581380207
 20
122.19684787326388
 30
0.0
  0
SPLINE
  5
2F0
100
AcDbEntity
  8
レイヤー_1
 62
     7
100
AcDbSpline
210
0.0
220
0.0
230
1.0
 70
     8
 71
     3
 72
     8
 73
     4
 74
     0
 42
0.00000001
 43
0.00000001
 40
0.0
 40
0.0
 40
0.0
 40
0.0
 40
1.0
 40
1.0
 40
1.0
 40
1.0
 10
88.421303982204847
 20
122.01908094618055
 30
0.0
 10
88.238886176215274
 20
122.01908094618055
 30
0.0
 10
88.061636013454859
 20
121.96085883246526
 30
0.0
 10
87.914013671874997
 20
121.85302734374999
 30
0.0
  0
LINE
  5
2EF
100
AcDbEntity
  8
レイヤー_1
 62
     7
100
AcDbLine
 10
88.484349
 20
122.019081
 30
0.0
 11
88.484349
 21
122.362557
 31
0.0
  0
LINE
  5
2EE
100
AcDbEntity
  8
レイヤー_1
 62
     7
100
AcDbLine
 10
91.404584
 20
122.040785
 30
0.0
 11
91.404584
 21
122.392529
 31
0.0
  0
LINE
  5
2ED
100
AcDbEntity
  8
レイヤー_1
 62
     7
100
AcDbLine
 10
75.685992
 20
126.485303
 30
0.0
 11
75.685992
 21
126.828779
 31
0.0
  0
LINE
  5
2EC
100
AcDbEntity
  8
レイヤー_1
 62
     7
100
AcDbLine
 10
96.300754
 20
126.485303
 30
0.0
 11
96.300754
 21
126.828779
 31
0.0
  0
LINE
  5
2EB
100
AcDbEntity
  8
レイヤー_1
 62
     7
100
AcDbLine
 10
96.300754
 20
126.485303
 30
0.0
 11
96.300754
 21
126.828779
 31
0.0
  0
SPLINE
  5
2EA
100
AcDbEntity
  8
レイヤー_1
 62
     7
100
AcDbSpline
210
0.0
220
0.0
230
1.0
 70
     8
 71
     3
 72
     8
 73
     4
 74
     0
 42
0.00000001
 43
0.00000001
 40
0.0
 40
0.0
 40
0.0
 40
0.0
 40
1.0
 40
1.0
 40
1.0
 40
1.0
 10
79.468189832899299
 20
123.19833713107637
 30
0.0
 10
79.565169270833323
 20
122.52206488715277
 30
0.0
 10
80.145151095920127
 20
122.01908094618055
 30
0.0
 10
80.829002549913184
 20
122.01908094618055
 30
0.0
  0
LINE
  5
2E9
100
AcDbEntity
  8
レイヤー_1
 62
     7
100
AcDbLine
 10
79.46819
 20
123.198337
 30
0.0
 11
79.245464
 21
124.75931
 31
0.0
  0
LINE
  5
2E8
100
AcDbEntity
  8
レイヤー_1
 62
     7
100
AcDbLine
 10
87.801876
 20
122.196848
 30
0.0
 11
87.233435
 21
121.78068
 31
0.0
  0
LINE
  5
2E7
100
AcDbEntity
  8
レイヤー_1
 62
     7
100
AcDbLine
 10
87.436007
 20
121.504039
 30
0.0
 11
87.233435
 21
121.78068
 31
0.0
  0
SPLINE
  5
2E6
100
AcDbEntity
  8
レイヤー_1
 62
     7
100
AcDbSpline
210
0.0
220
0.0
230
1.0
 70
     8
 71
     3
 72
     8
 73
     4
 74
     0
 42
0.00000001
 43
0.00000001
 40
0.0
 40
0.0
 40
0.0
 40
0.0
 40
1.0
 40
1.0
 40
1.0
 40
1.0
 10
91.15774332682291
 20
122.01908094618055
 30
0.0
 10
91.841594780815967
 20
122.01908094618055
 30
0.0
 10
92.421576605902771
 20
122.52206488715277
 30
0.0
 10
92.518556043836796
 20
123.19833713107637
 30
0.0
  0
LINE
  5
2E5
100
AcDbEntity
  8
レイヤー_1
 62
     7
100
AcDbLine
 10
92.178353
 20
123.247257
 30
0.0
 11
92.401078
 21
124.80823
 31
0.0
  0
SPLINE
  5
2E4
100
AcDbEntity
  8
レイヤー_1
 62
     7
100
AcDbSpline
210
0.0
220
0.0
230
1.0
 70
     8
 71
     3
 72
     8
 73
     4
 74
     0
 42
0.00000001
 43
0.00000001
 40
0.0
 40
0.0
 40
0.0
 40
0.0
 40
1.0
 40
1.0
 40
1.0
 40
1.0
 10
91.15774332682291
 20
122.01908094618055
 30
0.0
 10
91.841594780815967
 20
122.01908094618055
 30
0.0
 10
92.421576605902771
 20
122.52206488715277
 30
0.0
 10
92.518556043836796
 20
123.19833713107637
 30
0.0
  0
LINE
  5
2E3
100
AcDbEntity
  8
レイヤー_1
 62
     7
100
AcDbLine
 10
92.178353
 20
123.247257
 30
0.0
 11
92.401078
 21
124.80823
 31
0.0
  0
LINE
  5
2E2
100
AcDbEntity
  8
レイヤー_1
 62
     7
100
AcDbLine
 10
92.518556
 20
123.198337
 30
0.0
 11
92.741281
 21
124.75931
 31
0.0
  0
SPLINE
  5
2E1
100
AcDbEntity
  8
レイヤー_1
 62
     7
100
AcDbSpline
210
0.0
220
0.0
230
1.0
 70
     8
 71
     3
 72
     8
 73
     4
 74
     0
 42
0.00000001
 43
0.00000001
 40
0.0
 40
0.0
 40
0.0
 40
0.0
 40
1.0
 40
1.0
 40
1.0
 40
1.0
 10
93.803748914930551
 20
126.11185438368054
 30
0.0
 10
93.233068847656241
 20
125.88310004340276
 30
0.0
 10
92.828097873263886
 20
125.36702473958333
 30
0.0
 10
92.741281467013877
 20
124.75930989583333
 30
0.0
  0
SPLINE
  5
2E0
100
AcDbEntity
  8
レイヤー_1
 62
     7
100
AcDbSpline
210
0.0
220
0.0
230
1.0
 70
     8
 71
     3
 72
     8
 73
     4
 74
     0
 42
0.00000001
 43
0.00000001
 40
0.0
 40
0.0
 40
0.0
 40
0.0
 40
1.0
 40
1.0
 40
1.0
 40
1.0
 10
93.831654188368049
 20
126.48530273437498
 30
0.0
 10
93.070632595486103
 20
126.24965820312499
 30
0.0
 10
92.513560655381937
 20
125.5957790798611
 30
0.0
 10
92.401078287760413
 20
124.80823025173611
 30
0.0
  0
LINE
  5
2DF
100
AcDbEntity
  8
レイヤー_1
 62
     7
100
AcDbLine
 10
92.518556
 20
123.198337
 30
0.0
 11
92.741281
 21
124.75931
 31
0.0
  0
SPLINE
  5
2DE
100
AcDbEntity
  8
レイヤー_1
 62
     7
100
AcDbSpline
210
0.0
220
0.0
230
1.0
 70
     8
 71
     3
 72
     8
 73
     4
 74
     0
 42
0.00000001
 43
0.00000001
 40
0.0
 40
0.0
 40
0.0
 40
0.0
 40
1.0
 40
1.0
 40
1.0
 40
1.0
 10
93.803748914930551
 20
126.11185438368054
 30
0.0
 10
93.233068847656241
 20
125.88310004340276
 30
0.0
 10
92.828097873263886
 20
125.36702473958333
 30
0.0
 10
92.741281467013877
 20
124.75930989583333
 30
0.0
  0
SPLINE
  5
2DD
100
AcDbEntity
  8
レイヤー_1
 62
     7
100
AcDbSpline
210
0.0
220
0.0
230
1.0
 70
     8
 71
     3
 72
     8
 73
     4
 74
     0
 42
0.00000001
 43
0.00000001
 40
0.0
 40
0.0
 40
0.0
 40
0.0
 40
1.0
 40
1.0
 40
1.0
 40
1.0
 10
93.831654188368049
 20
126.48530273437498
 30
0.0
 10
93.070632595486103
 20
126.24965820312499
 30
0.0
 10
92.513560655381937
 20
125.5957790798611
 30
0.0
 10
92.401078287760413
 20
124.80823025173611
 30
0.0
  0
SPLINE
  5
2DC
100
AcDbEntity
  8
レイヤー_1
 62
     7
100
AcDbSpline
210
0.0
220
0.0
230
1.0
 70
     8
 71
     3
 72
     8
 73
     4
 74
     0
 42
0.00000001
 43
0.00000001
 40
0.0
 40
0.0
 40
0.0
 40
0.0
 40
1.0
 40
1.0
 40
1.0
 40
1.0
 10
79.245464409722217
 20
124.75930989583333
 30
0.0
 10
79.158648003472209
 20
125.36702473958333
 30
0.0
 10
78.753677029079853
 20
125.88310004340276
 30
0.0
 10
78.183169216579856
 20
126.11185438368054
 30
0.0
  0
LINE
  5
2DB
100
AcDbEntity
  8
レイヤー_1
 62
     7
100
AcDbLine
 10
96.300754
 20
126.828779
 30
0.0
 11
75.685992
 21
126.828779
 31
0.0
  0
SPLINE
  5
2DA
100
AcDbEntity
  8
レイヤー_1
 62
     7
100
AcDbSpline
210
0.0
220
0.0
230
1.0
 70
     8
 71
     3
 72
     8
 73
     4
 74
     0
 42
0.00000001
 43
0.00000001
 40
0.0
 40
0.0
 40
0.0
 40
0.0
 40
1.0
 40
1.0
 40
1.0
 40
1.0
 10
78.183169216579856
 20
126.11185438368054
 30
0.0
 10
77.390969509548597
 20
126.42776963975693
 30
0.0
 10
76.53606906467013
 20
126.55592719184027
 30
0.0
 10
75.685991753472209
 20
126.48530273437498
 30
0.0
  0
SPLINE
  5
2D9
100
AcDbEntity
  8
レイヤー_1
 62
     7
100
AcDbSpline
210
0.0
220
0.0
230
1.0
 70
     8
 71
     3
 72
     8
 73
     4
 74
     0
 42
0.00000001
 43
0.00000001
 40
0.0
 40
0.0
 40
0.0
 40
0.0
 40
1.0
 40
1.0
 40
1.0
 40
1.0
 10
96.300754123263886
 20
126.48530273437498
 30
0.0
 10
95.451021321614576
 20
126.55592719184027
 30
0.0
 10
94.595776367187497
 20
126.42776963975693
 30
0.0
 10
93.803748914930551
 20
126.11185438368054
 30
0.0
  0
SPLINE
  5
2D8
100
AcDbEntity
  8
レイヤー_1
 62
     7
100
AcDbSpline
210
0.0
220
0.0
230
1.0
 70
     8
 71
     3
 72
     8
 73
     4
 74
     0
 42
0.00000001
 43
0.00000001
 40
0.0
 40
0.0
 40
0.0
 40
0.0
 40
1.0
 40
1.0
 40
1.0
 40
1.0
 10
96.300754123263886
 20
126.82877875434026
 30
0.0
 10
95.464973958333331
 20
126.83980305989583
 30
0.0
 10
94.632983398437489
 20
126.72370334201388
 30
0.0
 10
93.831654188368049
 20
126.48530273437498
 30
0.0
  0
SPLINE
  5
2D7
100
AcDbEntity
  8
レイヤー_1
 62
     7
100
AcDbSpline
210
0.0
220
0.0
230
1.0
 70
     8
 71
     3
 72
     8
 73
     4
 74
     0
 42
0.00000001
 43
0.00000001
 40
0.0
 40
0.0
 40
0.0
 40
0.0
 40
1.0
 40
1.0
 40
1.0
 40
1.0
 10
96.300754123263886
 20
126.48530273437498
 30
0.0
 10
95.451021321614576
 20
126.55592719184027
 30
0.0
 10
94.595776367187497
 20
126.42776963975693
 30
0.0
 10
93.803748914930551
 20
126.11185438368054
 30
0.0
  0
SPLINE
  5
2D6
100
AcDbEntity
  8
レイヤー_1
 62
     7
100
AcDbSpline
210
0.0
220
0.0
230
1.0
 70
     8
 71
     3
 72
     8
 73
     4
 74
     0
 42
0.00000001
 43
0.00000001
 40
0.0
 40
0.0
 40
0.0
 40
0.0
 40
1.0
 40
1.0
 40
1.0
 40
1.0
 10
96.300754123263886
 20
126.82877875434026
 30
0.0
 10
95.464973958333331
 20
126.83980305989583
 30
0.0
 10
94.632983398437489
 20
126.72370334201388
 30
0.0
 10
93.831654188368049
 20
126.48530273437498
 30
0.0
  0
LINE
  5
2D5
100
AcDbEntity
  8
レイヤー_1
 62
     7
100
AcDbLine
 10
88.192205
 20
122.818688
 30
0.0
 11
83.794541
 21
122.818688
 31
0.0
  0
SPLINE
  5
2D4
100
AcDbEntity
  8
レイヤー_1
 62
     7
100
AcDbSpline
210
0.0
220
0.0
230
1.0
 70
     8
 71
     3
 72
     8
 73
     4
 74
     0
 42
0.00000001
 43
0.00000001
 40
0.0
 40
0.0
 40
0.0
 40
0.0
 40
1.0
 40
1.0
 40
1.0
 40
1.0
 10
88.192205132378461
 20
122.81868760850693
 30
0.0
 10
86.79608018663194
 20
123.46016438802083
 30
0.0
 10
85.190148925781244
 20
123.46016438802083
 30
0.0
 10
83.794540744357633
 20
122.81868760850693
 30
0.0
  0
LINE
  5
2D3
100
AcDbEntity
  8
レイヤー_1
 62
     7
100
AcDbLine
 10
85.993028
 20
123.299967
 30
0.0
 11
85.993028
 21
122.818688
 31
0.0
  0
LINE
  5
2D2
100
AcDbEntity
  8
レイヤー_1
 62
     7
100
AcDbLine
 10
88.192205
 20
122.818688
 30
0.0
 11
87.023973
 21
121.649767
 31
0.0
  0
LINE
  5
2D1
100
AcDbEntity
  8
レイヤー_1
 62
     7
100
AcDbLine
 10
83.794541
 20
122.818688
 30
0.0
 11
84.9626
 21
121.649767
 31
0.0
  0
LINE
  5
2D0
100
AcDbEntity
  8
レイヤー_1
 62
     7
100
AcDbLine
 10
87.023973
 20
121.649767
 30
0.0
 11
84.9626
 21
121.649767
 31
0.0
  0
LINE
  5
2CF
100
AcDbEntity
  8
レイヤー_1
 62
     7
100
AcDbLine
 10
87.023973
 20
121.649767
 30
0.0
 11
87.023973
 21
103.920961
 31
0.0
  0
LINE
  5
2CE
100
AcDbEntity
  8
レイヤー_1
 62
     7
100
AcDbLine
 10
84.9626
 20
121.649767
 30
0.0
 11
84.9626
 21
103.920961
 31
0.0
  0
LINE
  5
2CD
100
AcDbEntity
  8
レイヤー_1
 62
     7
100
AcDbLine
 10
87.023973
 20
103.920961
 30
0.0
 11
84.9626
 21
103.920961
 31
0.0
  0
LINE
  5
2CC
100
AcDbEntity
  8
レイヤー_1
 62
     7
100
AcDbLine
 10
78.949703
 20
109.305645
 30
0.0
 11
78.949703
 21
112.742472
 31
0.0
  0
LINE
  5
2CB
100
AcDbEntity
  8
レイヤー_1
 62
     7
100
AcDbLine
 10
83.931828
 20
111.195624
 30
0.0
 11
79.808738
 21
112.054487
 31
0.0
  0
LINE
  5
2CA
100
AcDbEntity
  8
レイヤー_1
 62
     7
100
AcDbLine
 10
79.808738
 20
112.054487
 30
0.0
 11
79.293351
 21
113.429424
 31
0.0
  0
LINE
  5
2C9
100
AcDbEntity
  8
レイヤー_1
 62
     7
100
AcDbLine
 10
80.066775
 20
108.962169
 30
0.0
 11
80.066775
 21
109.477211
 31
0.0
  0
LINE
  5
2C8
100
AcDbEntity
  8
レイヤー_1
 62
     7
100
AcDbLine
 10
94.410947
 20
113.429424
 30
0.0
 11
94.410947
 21
113.773245
 31
0.0
  0
LINE
  5
2C7
100
AcDbEntity
  8
レイヤー_1
 62
     7
100
AcDbLine
 10
94.754768
 20
113.773245
 30
0.0
 11
94.754768
 21
113.600646
 31
0.0
  0
LINE
  5
2C6
100
AcDbEntity
  8
レイヤー_1
 62
     7
100
AcDbLine
 10
93.036698
 20
109.305645
 30
0.0
 11
93.036698
 21
112.742472
 31
0.0
  0
LINE
  5
2C5
100
AcDbEntity
  8
レイヤー_1
 62
     7
100
AcDbLine
 10
91.920315
 20
108.962169
 30
0.0
 11
91.920315
 21
109.477211
 31
0.0
  0
LINE
  5
2C4
100
AcDbEntity
  8
レイヤー_1
 62
     7
100
AcDbLine
 10
77.575627
 20
113.429424
 30
0.0
 11
77.575627
 21
113.773245
 31
0.0
  0
LINE
  5
2C3
100
AcDbEntity
  8
レイヤー_1
 62
     7
100
AcDbLine
 10
77.231806
 20
113.773245
 30
0.0
 11
77.231806
 21
113.600646
 31
0.0
  0
LINE
  5
2C2
100
AcDbEntity
  8
レイヤー_1
 62
     7
100
AcDbLine
 10
76.372772
 20
113.600646
 30
0.0
 11
77.231806
 21
113.600646
 31
0.0
  0
LINE
  5
2C1
100
AcDbEntity
  8
レイヤー_1
 62
     7
100
AcDbLine
 10
76.201034
 20
112.742472
 30
0.0
 11
78.949703
 21
112.742472
 31
0.0
  0
SPLINE
  5
2C0
100
AcDbEntity
  8
レイヤー_1
 62
     7
100
AcDbSpline
210
0.0
220
0.0
230
1.0
 70
     8
 71
     3
 72
     8
 73
     4
 74
     0
 42
0.00000001
 43
0.00000001
 40
0.0
 40
0.0
 40
0.0
 40
0.0
 40
1.0
 40
1.0
 40
1.0
 40
1.0
 10
75.342515733506943
 20
114.11603190104165
 30
0.0
 10
75.561279296875
 20
113.7639431423611
 30
0.0
 10
75.959704589843739
 20
113.56516113281249
 30
0.0
 10
76.37277153862847
 20
113.60064561631944
 30
0.0
  0
SPLINE
  5
2BF
100
AcDbEntity
  8
レイヤー_1
 62
     7
100
AcDbSpline
210
0.0
220
0.0
230
1.0
 70
     8
 71
     3
 72
     8
 73
     4
 74
     0
 42
0.00000001
 43
0.00000001
 40
0.0
 40
0.0
 40
0.0
 40
0.0
 40
1.0
 40
1.0
 40
1.0
 40
1.0
 10
74.826784939236106
 20
114.11603190104165
 30
0.0
 10
74.826784939236106
 20
113.35707736545137
 30
0.0
 10
75.442251247829859
 20
112.74247233072916
 30
0.0
 10
76.201033528645823
 20
112.74247233072916
 30
0.0
  0
SPLINE
  5
2BE
100
AcDbEntity
  8
レイヤー_1
 62
     7
100
AcDbSpline
210
0.0
220
0.0
230
1.0
 70
     8
 71
     3
 72
     8
 73
     4
 74
     0
 42
0.00000001
 43
0.00000001
 40
0.0
 40
0.0
 40
0.0
 40
0.0
 40
1.0
 40
1.0
 40
1.0
 40
1.0
 10
95.613802083333326
 20
113.60064561631944
 30
0.0
 10
96.027041286892356
 20
113.56516113281249
 30
0.0
 10
96.425638834635407
 20
113.7639431423611
 30
0.0
 10
96.644057888454853
 20
114.11603190104165
 30
0.0
  0
SPLINE
  5
2BD
100
AcDbEntity
  8
レイヤー_1
 62
     7
100
AcDbSpline
210
0.0
220
0.0
230
1.0
 70
     8
 71
     3
 72
     8
 73
     4
 74
     0
 42
0.00000001
 43
0.00000001
 40
0.0
 40
0.0
 40
0.0
 40
0.0
 40
1.0
 40
1.0
 40
1.0
 40
1.0
 10
95.785712348090271
 20
112.74247233072916
 30
0.0
 10
96.544494628906236
 20
112.74247233072916
 30
0.0
 10
97.159444173177079
 20
113.35707736545137
 30
0.0
 10
97.159444173177079
 20
114.11603190104165
 30
0.0
  0
LINE
  5
2BC
100
AcDbEntity
  8
レイヤー_1
 62
     7
100
AcDbLine
 10
95.613802
 20
113.600646
 30
0.0
 11
94.754768
 21
113.600646
 31
0.0
  0
LINE
  5
2BB
100
AcDbEntity
  8
レイヤー_1
 62
     7
100
AcDbLine
 10
95.785712
 20
112.742472
 30
0.0
 11
93.036698
 21
112.742472
 31
0.0
  0
LINE
  5
2BA
100
AcDbEntity
  8
レイヤー_1
 62
     7
100
AcDbLine
 10
88.054746
 20
111.195624
 30
0.0
 11
92.178008
 21
112.054487
 31
0.0
  0
LINE
  5
2B9
100
AcDbEntity
  8
レイヤー_1
 62
     7
100
AcDbLine
 10
92.178008
 20
112.054487
 30
0.0
 11
92.693222
 21
113.429424
 31
0.0
  0
LINE
  5
2B8
100
AcDbEntity
  8
レイヤー_1
 62
     7
100
AcDbLine
 10
80.829003
 20
122.362557
 30
0.0
 11
83.677407
 21
122.362557
 31
0.0
  0
SPLINE
  5
2B7
100
AcDbEntity
  8
レイヤー_1
 62
     7
100
AcDbSpline
210
0.0
220
0.0
230
1.0
 70
     8
 71
     3
 72
     8
 73
     4
 74
     0
 42
0.00000001
 43
0.00000001
 40
0.0
 40
0.0
 40
0.0
 40
0.0
 40
1.0
 40
1.0
 40
1.0
 40
1.0
 10
84.184697808159711
 20
122.19684787326388
 30
0.0
 10
84.037419976128461
 20
122.30399034288193
 30
0.0
 10
83.859653049045136
 20
122.36255696614582
 30
0.0
 10
83.677407497829847
 20
122.36255696614582
 30
0.0
  0
LINE
  5
2B6
100
AcDbEntity
  8
レイヤー_1
 62
     7
100
AcDbLine
 10
83.502052
 20
122.019081
 30
0.0
 11
83.502052
 21
122.362557
 31
0.0
  0
SPLINE
  5
2B5
100
AcDbEntity
  8
レイヤー_1
 62
     7
100
AcDbSpline
210
0.0
220
0.0
230
1.0
 70
     8
 71
     3
 72
     8
 73
     4
 74
     0
 42
0.00000001
 43
0.00000001
 40
0.0
 40
0.0
 40
0.0
 40
0.0
 40
1.0
 40
1.0
 40
1.0
 40
1.0
 10
79.808393012152777
 20
123.24725748697915
 30
0.0
 10
79.881256781684016
 20
122.73979492187499
 30
0.0
 10
80.316027832031239
 20
122.36255696614582
 30
0.0
 10
80.829002549913184
 20
122.36255696614582
 30
0.0
  0
SPLINE
  5
2B4
100
AcDbEntity
  8
レイヤー_1
 62
     7
100
AcDbSpline
210
0.0
220
0.0
230
1.0
 70
     8
 71
     3
 72
     8
 73
     4
 74
     0
 42
0.00000001
 43
0.00000001
 40
0.0
 40
0.0
 40
0.0
 40
0.0
 40
1.0
 40
1.0
 40
1.0
 40
1.0
 10
79.808393012152777
 20
123.24725748697915
 30
0.0
 10
79.881256781684016
 20
122.73979492187499
 30
0.0
 10
80.316027832031239
 20
122.36255696614582
 30
0.0
 10
80.829002549913184
 20
122.36255696614582
 30
0.0
  0
LINE
  5
2B3
100
AcDbEntity
  8
レイヤー_1
 62
     7
100
AcDbLine
 10
80.581645
 20
122.040785
 30
0.0
 11
80.581645
 21
122.392529
 31
0.0
  0
LINE
  5
2B2
100
AcDbEntity
  8
レイヤー_1
 62
     7
100
AcDbLine
 10
79.808393
 20
123.247257
 30
0.0
 11
79.58584
 21
124.80823
 31
0.0
  0
LINE
  5
2B1
100
AcDbEntity
  8
レイヤー_1
 62
     7
100
AcDbLine
 10
79.808393
 20
123.247257
 30
0.0
 11
79.58584
 21
124.80823
 31
0.0
  0
SPLINE
  5
2B0
100
AcDbEntity
  8
レイヤー_1
 62
     7
100
AcDbSpline
210
0.0
220
0.0
230
1.0
 70
     8
 71
     3
 72
     8
 73
     4
 74
     0
 42
0.00000001
 43
0.00000001
 40
0.0
 40
0.0
 40
0.0
 40
0.0
 40
1.0
 40
1.0
 40
1.0
 40
1.0
 10
79.585839843749994
 20
124.80823025173611
 30
0.0
 10
79.473185221354157
 20
125.5957790798611
 30
0.0
 10
78.915941026475693
 20
126.24965820312499
 30
0.0
 10
78.154747178819434
 20
126.48530273437498
 30
0.0
  0
SPLINE
  5
2AF
100
AcDbEntity
  8
レイヤー_1
 62
     7
100
AcDbSpline
210
0.0
220
0.0
230
1.0
 70
     8
 71
     3
 72
     8
 73
     4
 74
     0
 42
0.00000001
 43
0.00000001
 40
0.0
 40
0.0
 40
0.0
 40
0.0
 40
1.0
 40
1.0
 40
1.0
 40
1.0
 10
79.585839843749994
 20
124.80823025173611
 30
0.0
 10
79.473185221354157
 20
125.5957790798611
 30
0.0
 10
78.915941026475693
 20
126.24965820312499
 30
0.0
 10
78.154747178819434
 20
126.48530273437498
 30
0.0
  0
SPLINE
  5
2AE
100
AcDbEntity
  8
レイヤー_1
 62
     7
100
AcDbSpline
210
0.0
220
0.0
230
1.0
 70
     8
 71
     3
 72
     8
 73
     4
 74
     0
 42
0.00000001
 43
0.00000001
 40
0.0
 40
0.0
 40
0.0
 40
0.0
 40
1.0
 40
1.0
 40
1.0
 40
1.0
 10
78.154747178819434
 20
126.48530273437498
 30
0.0
 10
77.353934733072904
 20
126.72370334201388
 30
0.0
 10
76.521255154079853
 20
126.83980305989583
 30
0.0
 10
75.685991753472209
 20
126.82877875434026
 30
0.0
  0
SPLINE
  5
2AD
100
AcDbEntity
  8
レイヤー_1
 62
     7
100
AcDbSpline
210
0.0
220
0.0
230
1.0
 70
     8
 71
     3
 72
     8
 73
     4
 74
     0
 42
0.00000001
 43
0.00000001
 40
0.0
 40
0.0
 40
0.0
 40
0.0
 40
1.0
 40
1.0
 40
1.0
 40
1.0
 10
78.154747178819434
 20
126.48530273437498
 30
0.0
 10
77.353934733072904
 20
126.72370334201388
 30
0.0
 10
76.521255154079853
 20
126.83980305989583
 30
0.0
 10
75.685991753472209
 20
126.82877875434026
 30
0.0
  0
LINE
  5
2AC
100
AcDbEntity
  8
レイヤー_1
 62
     7
100
AcDbLine
 10
84.55005
 20
121.504039
 30
0.0
 11
84.752966
 21
121.78068
 31
0.0
  0
LINE
  5
2AB
100
AcDbEntity
  8
レイヤー_1
 62
     7
100
AcDbLine
 10
84.752966
 20
121.78068
 30
0.0
 11
84.832031
 21
121.78068
 31
0.0
  0
LINE
  5
2AA
100
AcDbEntity
  8
レイヤー_1
 62
     7
100
AcDbLine
 10
87.233435
 20
121.78068
 30
0.0
 11
87.15437
 21
121.78068
 31
0.0
  0
LINE
  5
2A9
100
AcDbEntity
  8
レイヤー_1
 62
     7
100
AcDbLine
 10
84.55005
 20
121.504039
 30
0.0
 11
84.9626
 21
121.504039
 31
0.0
  0
LINE
  5
2A8
100
AcDbEntity
  8
レイヤー_1
 62
     7
100
AcDbLine
 10
87.023973
 20
121.504039
 30
0.0
 11
87.436007
 21
121.504039
 31
0.0
  0
LINE
  5
2A7
100
AcDbEntity
  8
レイヤー_1
 62
     7
100
AcDbLine
 10
84.184698
 20
122.196848
 30
0.0
 11
84.752966
 21
121.78068
 31
0.0
  0
LINE
  5
2A6
100
AcDbEntity
  8
レイヤー_1
 62
     7
100
AcDbLine
 10
79.808738
 20
112.054487
 30
0.0
 11
84.9626
 21
112.054487
 31
0.0
  0
LINE
  5
2A5
100
AcDbEntity
  8
レイヤー_1
 62
     7
100
AcDbLine
 10
87.023973
 20
112.054487
 30
0.0
 11
92.178008
 21
112.054487
 31
0.0
  0
LINE
  5
2A4
100
AcDbEntity
  8
レイヤー_1
 62
     7
100
AcDbLine
 10
83.931828
 20
111.195624
 30
0.0
 11
84.9626
 21
111.195624
 31
0.0
  0
LINE
  5
2A3
100
AcDbEntity
  8
レイヤー_1
 62
     7
100
AcDbLine
 10
87.023973
 20
111.195624
 30
0.0
 11
88.054746
 21
111.195624
 31
0.0
  0
LINE
  5
2A2
100
AcDbEntity
  8
レイヤー_1
 62
     7
100
AcDbLine
 10
91.920315
 20
109.477211
 30
0.0
 11
87.023973
 21
109.477211
 31
0.0
  0
LINE
  5
2A1
100
AcDbEntity
  8
レイヤー_1
 62
     7
100
AcDbLine
 10
84.9626
 20
109.477211
 30
0.0
 11
80.066775
 21
109.477211
 31
0.0
  0
LINE
  5
2A0
100
AcDbEntity
  8
レイヤー_1
 62
     7
100
AcDbLine
 10
87.023973
 20
108.962169
 30
0.0
 11
92.693222
 21
108.962169
 31
0.0
  0
LINE
  5
29F
100
AcDbEntity
  8
レイヤー_1
 62
     7
100
AcDbLine
 10
79.293351
 20
108.962169
 30
0.0
 11
84.9626
 21
108.962169
 31
0.0
  0
LINE
  5
29E
100
AcDbEntity
  8
レイヤー_1
 62
     7
100
AcDbLine
 10
94.410947
 20
113.429424
 30
0.0
 11
87.023973
 21
113.429424
 31
0.0
  0
LINE
  5
29D
100
AcDbEntity
  8
レイヤー_1
 62
     7
100
AcDbLine
 10
84.9626
 20
113.429424
 30
0.0
 11
77.575627
 21
113.429424
 31
0.0
  0
LINE
  5
29C
100
AcDbEntity
  8
レイヤー_1
 62
     7
100
AcDbLine
 10
94.754768
 20
113.773245
 30
0.0
 11
87.023973
 21
113.773245
 31
0.0
  0
LINE
  5
29B
100
AcDbEntity
  8
レイヤー_1
 62
     7
100
AcDbLine
 10
84.9626
 20
113.773245
 30
0.0
 11
77.231806
 21
113.773245
 31
0.0
  0
LINE
  5
29A
100
AcDbEntity
  8
レイヤー_1
 62
     7
100
AcDbLine
 10
97.159444
 20
114.116032
 30
0.0
 11
96.506599
 21
114.116032
 31
0.0
  0
LINE
  5
299
100
AcDbEntity
  8
レイヤー_1
 62
     7
100
AcDbLine
 10
75.465333
 20
114.116032
 30
0.0
 11
74.826785
 21
114.116032
 31
0.0
  0
LINE
  5
298
100
AcDbEntity
  8
レイヤー_1
 62
     7
100
AcDbLine
 10
74.640233
 20
114.631763
 30
0.0
 11
74.640233
 21
115.31837
 31
0.0
  0
SPLINE
  5
297
100
AcDbEntity
  8
レイヤー_1
 62
     7
100
AcDbSpline
210
0.0
220
0.0
230
1.0
 70
     8
 71
     3
 72
    11
 73
     7
 74
     0
 42
0.00000001
 43
0.00000001
 40
0.0
 40
0.0
 40
0.0
 40
0.0
 40
1.0
 40
1.0
 40
1.0
 40
2.0
 40
2.0
 40
2.0
 40
2.0
 10
94.56838785807291
 20
114.63176269531249
 30
0.0
 10
94.56838785807291
 20
114.06194390190971
 30
0.0
 10
95.029341634114573
 20
113.60064561631944
 30
0.0
 10
95.598815917968736
 20
113.60064561631944
 30
0.0
 10
96.168290201822913
 20
113.60064561631944
 30
0.0
 10
96.629243977864576
 20
114.06194390190971
 30
0.0
 10
96.629243977864576
 20
114.63176269531249
 30
0.0
  0
LINE
  5
296
100
AcDbEntity
  8
レイヤー_1
 62
     7
100
AcDbLine
 10
97.316541
 20
114.631763
 30
0.0
 11
96.629244
 21
114.631763
 31
0.0
  0
LINE
  5
295
100
AcDbEntity
  8
レイヤー_1
 62
     7
100
AcDbLine
 10
94.568388
 20
114.631763
 30
0.0
 11
87.023973
 21
114.631763
 31
0.0
  0
LINE
  5
294
100
AcDbEntity
  8
レイヤー_1
 62
     7
100
AcDbLine
 10
97.316541
 20
114.631763
 30
0.0
 11
97.316541
 21
115.31837
 31
0.0
  0
SPLINE
  5
293
100
AcDbEntity
  8
レイヤー_1
 62
     7
100
AcDbSpline
210
0.0
220
0.0
230
1.0
 70
     8
 71
     3
 72
    11
 73
     7
 74
     0
 42
0.00000001
 43
0.00000001
 40
0.0
 40
0.0
 40
0.0
 40
0.0
 40
1.0
 40
1.0
 40
1.0
 40
2.0
 40
2.0
 40
2.0
 40
2.0
 10
75.356812879774296
 20
114.63176269531249
 30
0.0
 10
75.356812879774296
 20
114.06194390190971
 30
0.0
 10
75.818455674913181
 20
113.60064561631944
 30
0.0
 10
76.387929958767359
 20
113.60064561631944
 30
0.0
 10
76.95705973307291
 20
113.60064561631944
 30
0.0
 10
77.418874782986109
 20
114.06194390190971
 30
0.0
 10
77.418874782986109
 20
114.63176269531249
 30
0.0
  0
LINE
  5
292
100
AcDbEntity
  8
レイヤー_1
 62
     7
100
AcDbLine
 10
74.640233
 20
115.31837
 30
0.0
 11
84.9626
 21
115.31837
 31
0.0
  0
LINE
  5
291
100
AcDbEntity
  8
レイヤー_1
 62
     7
100
AcDbLine
 10
87.023973
 20
115.31837
 30
0.0
 11
97.316541
 21
115.31837
 31
0.0
  0
LINE
  5
290
100
AcDbEntity
  8
レイヤー_1
 62
     7
100
AcDbLine
 10
78.949703
 20
109.305645
 30
0.0
 11
79.293351
 21
108.962169
 31
0.0
  0
LINE
  5
28F
100
AcDbEntity
  8
レイヤー_1
 62
     7
100
AcDbLine
 10
93.036698
 20
109.305645
 30
0.0
 11
92.693222
 21
108.962169
 31
0.0
  0
LINE
  5
28E
100
AcDbEntity
  8
レイヤー_1
 62
     7
100
AcDbLine
 10
84.9626
 20
114.631763
 30
0.0
 11
77.418875
 21
114.631763
 31
0.0
  0
LINE
  5
28D
100
AcDbEntity
  8
レイヤー_1
 62
     7
100
AcDbLine
 10
75.356813
 20
114.631763
 30
0.0
 11
74.640233
 21
114.631763
 31
0.0
  0
LINE
  5
28C
100
AcDbEntity
  8
レイヤー_1
 62
     7
100
AcDbLine
 10
79.843016
 20
92.789857
 30
0.0
 11
91.772693
 21
92.789857
 31
0.0
  0
LINE
  5
28B
100
AcDbEntity
  8
レイヤー_1
 62
     7
100
AcDbLine
 10
71.6995
 20
184.129329
 30
0.0
 11
71.6995
 21
183.545903
 31
0.0
  0
LINE
  5
28A
100
AcDbEntity
  8
レイヤー_1
 62
     7
100
AcDbLine
 10
36.645825
 20
183.545903
 30
0.0
 11
54.172576
 21
183.545903
 31
0.0
  0
LINE
  5
289
100
AcDbEntity
  8
レイヤー_1
 62
     7
100
AcDbLine
 10
119.028049
 20
182.549064
 30
0.0
 11
119.028049
 21
181.381005
 31
0.0
  0
CIRCLE
  5
288
100
AcDbEntity
  8
レイヤー_1
 62
     7
100
AcDbCircle
 10
160.616553
 20
223.090603
 30
0.0
 40
3.505729
  0
LINE
  5
287
100
AcDbEntity
  8
レイヤー_1
 62
     7
100
AcDbLine
 10
91.511727
 20
122.818688
 30
0.0
 11
88.2804
 21
122.818688
 31
0.0
  0
LINE
  5
286
100
AcDbEntity
  8
レイヤー_1
 62
     7
100
AcDbLine
 10
92.128743
 20
125.902737
 30
0.0
 11
85.993028
 21
125.902737
 31
0.0
  0
LINE
  5
285
100
AcDbEntity
  8
レイヤー_1
 62
     7
100
AcDbLine
 10
86.903739
 20
121.649767
 30
0.0
 11
86.903739
 21
103.920961
 31
0.0
  0
LINE
  5
284
100
AcDbEntity
  8
レイヤー_1
 62
     7
100
AcDbLine
 10
85.082834
 20
121.649767
 30
0.0
 11
85.082834
 21
103.920961
 31
0.0
  0
LINE
  5
283
100
AcDbEntity
  8
レイヤー_1
 62
     7
100
AcDbLine
 10
84.9626
 20
109.477211
 30
0.0
 11
84.9626
 21
111.195624
 31
0.0
  0
LINE
  5
282
100
AcDbEntity
  8
レイヤー_1
 62
     7
100
AcDbLine
 10
87.023973
 20
111.195624
 30
0.0
 11
87.023973
 21
109.477211
 31
0.0
  0
LINE
  5
281
100
AcDbEntity
  8
レイヤー_1
 62
     7
100
AcDbLine
 10
80.47433
 20
122.818688
 30
0.0
 11
83.639856
 21
122.818688
 31
0.0
  0
LINE
  5
280
100
AcDbEntity
  8
レイヤー_1
 62
     7
100
AcDbLine
 10
79.85783
 20
125.902737
 30
0.0
 11
85.993028
 21
125.902737
 31
0.0
  0
LINE
  5
27F
100
AcDbEntity
  8
レイヤー_1
 62
     7
100
AcDbLine
 10
73.953281
 20
115.31837
 30
0.0
 11
59.086488
 21
115.31837
 31
0.0
  0
LINE
  5
27E
100
AcDbEntity
  8
レイヤー_1
 62
     7
100
AcDbLine
 10
74.998695
 20
126.485303
 30
0.0
 11
59.086488
 21
126.485303
 31
0.0
  0
LINE
  5
27D
100
AcDbEntity
  8
レイヤー_1
 62
     7
100
AcDbLine
 10
51.625273
 20
175.669036
 30
0.0
 11
53.721441
 21
175.669036
 31
0.0
  0
LINE
  5
27C
100
AcDbEntity
  8
レイヤー_1
  6
AI9-LType1
 62
     7
100
AcDbLine
 10
85.993028
 20
132.043275
 30
0.0
 11
85.993028
 21
101.288908
 31
0.0
  0
LINE
  5
27B
100
AcDbEntity
  8
レイヤー_1
 62
     7
100
AcDbLine
 10
59.773785
 20
124.493349
 30
0.0
 11
59.773785
 21
117.30998
 31
0.0
  0
INSERT
  5
275
100
AcDbEntity
  8
レイヤー_1
 62
     7
100
AcDbBlockReference
  2
AI9-BLK30
 10
59.77344
 20
125.489326
 30
0.0
  0
INSERT
  5
26E
100
AcDbEntity
  8
レイヤー_1
 62
     7
100
AcDbBlockReference
  2
AI9-BLK29
 10
59.77344
 20
116.314175
 30
0.0
  0
LINE
  5
26C
100
AcDbEntity
  8
レイヤー_1
 62
     7
100
AcDbLine
 10
96.644058
 20
127.009646
 30
0.0
 11
85.993028
 21
127.009646
 31
0.0
  0
SPLINE
  5
26B
100
AcDbEntity
  8
レイヤー_1
 62
     7
100
AcDbSpline
210
0.0
220
0.0
230
1.0
 70
     8
 71
     3
 72
     8
 73
     4
 74
     0
 42
0.00000001
 43
0.00000001
 40
0.0
 40
0.0
 40
0.0
 40
0.0
 40
1.0
 40
1.0
 40
1.0
 40
1.0
 10
95.613802083333326
 20
126.4949490017361
 30
0.0
 10
94.285201009114573
 20
126.4949490017361
 30
0.0
 10
93.208264160156247
 20
125.41801215277776
 30
0.0
 10
93.208264160156247
 20
124.08923882378471
 30
0.0
  0
LINE
  5
26A
100
AcDbEntity
  8
レイヤー_1
 62
     7
100
AcDbLine
 10
96.644058
 20
127.009646
 30
0.0
 11
96.47232
 21
126.494949
 31
0.0
  0
LINE
  5
269
100
AcDbEntity
  8
レイヤー_1
 62
     7
100
AcDbLine
 10
75.342516
 20
127.009646
 30
0.0
 11
85.993028
 21
127.009646
 31
0.0
  0
SPLINE
  5
268
100
AcDbEntity
  8
レイヤー_1
 62
     7
100
AcDbSpline
210
0.0
220
0.0
230
1.0
 70
     8
 71
     3
 72
     8
 73
     4
 74
     0
 42
0.00000001
 43
0.00000001
 40
0.0
 40
0.0
 40
0.0
 40
0.0
 40
1.0
 40
1.0
 40
1.0
 40
1.0
 10
78.778481716579847
 20
124.08923882378471
 30
0.0
 10
78.778481716579847
 20
125.41801215277776
 30
0.0
 10
77.70120035807291
 20
126.4949490017361
 30
0.0
 10
76.37277153862847
 20
126.4949490017361
 30
0.0
  0
LINE
  5
267
100
AcDbEntity
  8
レイヤー_1
 62
     7
100
AcDbLine
 10
75.342516
 20
127.009646
 30
0.0
 11
75.514254
 21
126.494949
 31
0.0
  0
SPLINE
  5
266
100
AcDbEntity
  8
レイヤー_1
 62
     7
100
AcDbSpline
210
0.0
220
0.0
230
1.0
 70
     8
 71
     3
 72
     8
 73
     4
 74
     0
 42
0.00000001
 43
0.00000001
 40
0.0
 40
0.0
 40
0.0
 40
0.0
 40
1.0
 40
1.0
 40
1.0
 40
1.0
 10
74.826784939236106
 20
121.42480197482638
 30
0.0
 10
74.826784939236106
 20
122.49794921874999
 30
0.0
 10
74.115717230902774
 20
123.44156087239583
 30
0.0
 10
73.083566623263877
 20
123.73646104600694
 30
0.0
  0
SPLINE
  5
265
100
AcDbEntity
  8
レイヤー_1
 62
     7
100
AcDbSpline
210
0.0
220
0.0
230
1.0
 70
     8
 71
     3
 72
     8
 73
     4
 74
     0
 42
0.00000001
 43
0.00000001
 40
0.0
 40
0.0
 40
0.0
 40
0.0
 40
1.0
 40
1.0
 40
1.0
 40
1.0
 10
61.739211697048603
 20
128.67982855902775
 30
0.0
 10
65.28576524522569
 20
126.53870171440971
 30
0.0
 10
69.100519476996524
 20
124.87713216145832
 30
0.0
 10
73.083566623263877
 20
123.73646104600694
 30
0.0
  0
LINE
  5
264
100
AcDbEntity
  8
レイヤー_1
 62
     7
100
AcDbLine
 10
93.208264
 20
124.089239
 30
0.0
 11
93.208264
 21
115.156451
 31
0.0
  0
LINE
  5
263
100
AcDbEntity
  8
レイヤー_1
 62
     7
100
AcDbLine
 10
78.778482
 20
124.089239
 30
0.0
 11
78.778482
 21
115.156451
 31
0.0
  0
SPLINE
  5
262
100
AcDbEntity
  8
レイヤー_1
 62
     7
100
AcDbSpline
210
0.0
220
0.0
230
1.0
 70
     8
 71
     3
 72
     8
 73
     4
 74
     0
 42
0.00000001
 43
0.00000001
 40
0.0
 40
0.0
 40
0.0
 40
0.0
 40
1.0
 40
1.0
 40
1.0
 40
1.0
 10
64.142510308159714
 20
131.9988335503472
 30
0.0
 10
67.617578124999994
 20
129.80878634982636
 30
0.0
 10
71.389957682291666
 20
128.12895779079861
 30
0.0
 10
75.342515733506943
 20
127.00964626736111
 30
0.0
  0
LINE
  5
261
100
AcDbEntity
  8
レイヤー_1
 62
     7
100
AcDbLine
 10
74.826785
 20
121.424802
 30
0.0
 11
74.826785
 21
115.31837
 31
0.0
  0
LINE
  5
260
100
AcDbEntity
  8
レイヤー_1
 62
     7
100
AcDbLine
 10
95.613802
 20
126.494949
 30
0.0
 11
96.47232
 21
126.494949
 31
0.0
  0
LINE
  5
25F
100
AcDbEntity
  8
レイヤー_1
 62
     7
100
AcDbLine
 10
75.514254
 20
126.494949
 30
0.0
 11
76.372772
 21
126.494949
 31
0.0
  0
SPLINE
  5
25E
100
AcDbEntity
  8
レイヤー_1
 62
     7
100
AcDbSpline
210
0.0
220
0.0
230
1.0
 70
     8
 71
     3
 72
     8
 73
     4
 74
     0
 42
0.00000001
 43
0.00000001
 40
0.0
 40
0.0
 40
0.0
 40
0.0
 40
1.0
 40
1.0
 40
1.0
 40
1.0
 10
98.902834743923606
 20
123.73646104600694
 30
0.0
 10
97.87102864583332
 20
123.44156087239583
 30
0.0
 10
97.159444173177079
 20
122.49794921874999
 30
0.0
 10
97.159444173177079
 20
121.42480197482638
 30
0.0
  0
SPLINE
  5
25D
100
AcDbEntity
  8
レイヤー_1
 62
     7
100
AcDbSpline
210
0.0
220
0.0
230
1.0
 70
     8
 71
     3
 72
     8
 73
     4
 74
     0
 42
0.00000001
 43
0.00000001
 40
0.0
 40
0.0
 40
0.0
 40
0.0
 40
1.0
 40
1.0
 40
1.0
 40
1.0
 10
98.902834743923606
 20
123.73646104600694
 30
0.0
 10
101.05912000868055
 20
124.35382215711805
 30
0.0
 10
103.16855197482639
 20
125.12483452690971
 30
0.0
 10
105.21459418402777
 20
126.04364149305555
 30
0.0
  0
LINE
  5
25C
100
AcDbEntity
  8
レイヤー_1
 62
     7
100
AcDbLine
 10
97.159444
 20
121.424802
 30
0.0
 11
97.159444
 21
115.31837
 31
0.0
  0
SPLINE
  5
25B
100
AcDbEntity
  8
レイヤー_1
 62
     7
100
AcDbSpline
210
0.0
220
0.0
230
1.0
 70
     8
 71
     3
 72
     8
 73
     4
 74
     0
 42
0.00000001
 43
0.00000001
 40
0.0
 40
0.0
 40
0.0
 40
0.0
 40
1.0
 40
1.0
 40
1.0
 40
1.0
 10
96.644057888454853
 20
127.00964626736111
 30
0.0
 10
99.866255696614573
 20
127.92190755208333
 30
0.0
 10
102.96994222005208
 20
129.20692816840275
 30
0.0
 10
105.89362250434027
 20
130.84024793836804
 30
0.0
  0
LINE
  5
25A
100
AcDbEntity
  8
レイヤー_1
 62
     7
100
AcDbLine
 10
76.372772
 20
126.494949
 30
0.0
 11
95.613802
 21
126.494949
 31
0.0
  0
MTEXT
  5
259
100
AcDbEntity
  8
レイヤー_1
 62
     7
100
AcDbMText
 10
55.376939
 20
117.447095
 30
0.0
 40
3.021736
 41
0.0
 71
     1
 72
     2
  1
\W0.60;\fMS Gothic|b0|i0|c128;MAX 50㎜
  7
KANJISTD
210
0.0
220
0.0
230
1.0
 11
0.0
 21
1.0
 31
0.0
 73
     1
 44
1.0
  0
INSERT
  5
21D
100
AcDbEntity
  8
レイヤー_1
 62
     7
100
AcDbBlockReference
  2
AI9-BLK28
 10
86.012838
 20
111.5391
 30
0.0
  0
INSERT
  5
1EF
100
AcDbEntity
  8
レイヤー_1
 62
     7
100
AcDbBlockReference
  2
AI9-BLK27
 10
85.978387
 20
114.45968
 30
0.0
  0
INSERT
  5
1CB
100
AcDbEntity
  8
レイヤー_1
 62
     7
100
AcDbBlockReference
  2
AI9-BLK26
 10
85.993373
 20
124.218947
 30
0.0
  0
INSERT
  5
1B8
100
AcDbEntity
  8
レイヤー_1
 62
     7
100
AcDbBlockReference
  2
AI9-BLK25
 10
121.364857
 20
182.834835
 30
0.0
  0
CIRCLE
  5
1B6
100
AcDbEntity
  8
レイヤー_1
 62
     7
100
AcDbCircle
 10
104.422394
 20
223.090603
 30
0.0
 40
19.279271
  0
CIRCLE
  5
1B5
100
AcDbEntity
  8
レイヤー_1
 62
     7
100
AcDbCircle
 10
104.422481
 20
223.090603
 30
0.0
 40
18.111298
  0
CIRCLE
  5
1B4
100
AcDbEntity
  8
レイヤー_1
 62
     7
100
AcDbCircle
 10
104.422136
 20
223.090603
 30
0.0
 40
14.584553
  0
LINE
  5
1B3
100
AcDbEntity
  8
レイヤー_1
 62
     7
100
AcDbLine
 10
85.143123
 20
182.549064
 30
0.0
 11
85.143123
 21
181.381005
 31
0.0
  0
LINE
  5
1B2
100
AcDbEntity
  8
レイヤー_1
 62
     7
100
AcDbLine
 10
85.143123
 20
181.381005
 30
0.0
 11
123.701666
 21
181.381005
 31
0.0
  0
SPLINE
  5
1B1
100
AcDbEntity
  8
レイヤー_1
 62
     7
100
AcDbSpline
210
0.0
220
0.0
230
1.0
 70
     8
 71
     3
 72
     8
 73
     4
 74
     0
 42
0.00000001
 43
0.00000001
 40
0.0
 40
0.0
 40
0.0
 40
0.0
 40
1.0
 40
1.0
 40
1.0
 40
1.0
 10
88.063875325520826
 20
184.30192871093749
 30
0.0
 10
87.095803493923597
 20
184.30192871093749
 30
0.0
 10
86.311182996961804
 20
183.51696370442707
 30
0.0
 10
86.311182996961804
 20
182.54906412760414
 30
0.0
  0
LINE
  5
1B0
100
AcDbEntity
  8
レイヤー_1
 62
     7
100
AcDbLine
 10
123.701666
 20
182.549064
 30
0.0
 11
123.701666
 21
181.381005
 31
0.0
  0
SPLINE
  5
1AF
100
AcDbEntity
  8
レイヤー_1
 62
     7
100
AcDbSpline
210
0.0
220
0.0
230
1.0
 70
     8
 71
     3
 72
    11
 73
     7
 74
     0
 42
0.00000001
 43
0.00000001
 40
0.0
 40
0.0
 40
0.0
 40
0.0
 40
1.0
 40
1.0
 40
1.0
 40
2.0
 40
2.0
 40
2.0
 40
2.0
 10
122.53377821180554
 20
182.54906412760414
 30
0.0
 10
122.53377821180554
 20
183.51696370442707
 30
0.0
 10
121.74898546006943
 20
184.30192871093749
 30
0.0
 10
120.78091362847221
 20
184.30192871093749
 30
0.0
 10
119.81284179687499
 20
184.30192871093749
 30
0.0
 10
119.02804904513887
 20
183.51696370442707
 30
0.0
 10
119.02804904513887
 20
182.54906412760414
 30
0.0
  0
LINE
  5
1AE
100
AcDbEntity
  8
レイヤー_1
 62
     7
100
AcDbLine
 10
120.780914
 20
184.301929
 30
0.0
 11
88.063875
 21
184.301929
 31
0.0
  0
LINE
  5
1AD
100
AcDbEntity
  8
レイヤー_1
 62
     7
100
AcDbLine
 10
104.422222
 20
182.549064
 30
0.0
 11
85.143123
 21
182.549064
 31
0.0
  0
LINE
  5
1AC
100
AcDbEntity
  8
レイヤー_1
 62
     7
100
AcDbLine
 10
123.701666
 20
182.549064
 30
0.0
 11
122.533778
 21
182.549064
 31
0.0
  0
LINE
  5
1AB
100
AcDbEntity
  8
レイヤー_1
 62
     7
100
AcDbLine
 10
119.028049
 20
182.549064
 30
0.0
 11
104.422222
 21
182.549064
 31
0.0
  0
LINE
  5
1AA
100
AcDbEntity
  8
レイヤー_1
 62
     7
100
AcDbLine
 10
50.043974
 20
175.951017
 30
0.0
 11
45.391372
 21
175.951017
 31
0.0
  0
LINE
  5
1A9
100
AcDbEntity
  8
レイヤー_1
 62
     7
100
AcDbLine
 10
50.906453
 20
175.669036
 30
0.0
 11
51.719324
 21
175.073896
 31
0.0
  0
SPLINE
  5
1A8
100
AcDbEntity
  8
レイヤー_1
 62
     7
100
AcDbSpline
210
0.0
220
0.0
230
1.0
 70
     8
 71
     3
 72
     8
 73
     4
 74
     0
 42
0.00000001
 43
0.00000001
 40
0.0
 40
0.0
 40
0.0
 40
0.0
 40
1.0
 40
1.0
 40
1.0
 40
1.0
 10
50.906453450520829
 20
175.66903618706596
 30
0.0
 10
50.656167263454854
 20
175.85214301215277
 30
0.0
 10
50.354376898871521
 20
175.95101725260415
 30
0.0
 10
50.04397379557291
 20
175.95101725260415
 30
0.0
  0
LINE
  5
1A7
100
AcDbEntity
  8
レイヤー_1
 62
     7
100
AcDbLine
 10
58.301351
 20
175.951017
 30
0.0
 11
62.954297
 21
175.951017
 31
0.0
  0
LINE
  5
1A6
100
AcDbEntity
  8
レイヤー_1
 62
     7
100
AcDbLine
 10
57.439044
 20
175.669036
 30
0.0
 11
56.626173
 21
175.073896
 31
0.0
  0
SPLINE
  5
1A5
100
AcDbEntity
  8
レイヤー_1
 62
     7
100
AcDbSpline
210
0.0
220
0.0
230
1.0
 70
     8
 71
     3
 72
     8
 73
     4
 74
     0
 42
0.00000001
 43
0.00000001
 40
0.0
 40
0.0
 40
0.0
 40
0.0
 40
1.0
 40
1.0
 40
1.0
 40
1.0
 10
62.954296874999997
 20
176.53478868272569
 30
0.0
 10
63.826250542534716
 20
176.53478868272569
 30
0.0
 10
64.565912543402774
 20
177.17592095269094
 30
0.0
 10
64.689074707031239
 20
178.03943413628471
 30
0.0
  0
SPLINE
  5
1A4
100
AcDbEntity
  8
レイヤー_1
 62
     7
100
AcDbSpline
210
0.0
220
0.0
230
1.0
 70
     8
 71
     3
 72
     8
 73
     4
 74
     0
 42
0.00000001
 43
0.00000001
 40
0.0
 40
0.0
 40
0.0
 40
0.0
 40
1.0
 40
1.0
 40
1.0
 40
1.0
 10
62.954296874999997
 20
176.53478868272569
 30
0.0
 10
63.826250542534716
 20
176.53478868272569
 30
0.0
 10
64.565912543402774
 20
177.17592095269094
 30
0.0
 10
64.689074707031239
 20
178.03943413628471
 30
0.0
  0
LINE
  5
1A3
100
AcDbEntity
  8
レイヤー_1
 62
     7
100
AcDbLine
 10
62.954297
 20
176.534789
 30
0.0
 11
58.110493
 21
176.534789
 31
0.0
  0
SPLINE
  5
1A2
100
AcDbEntity
  8
レイヤー_1
 62
     7
100
AcDbSpline
210
0.0
220
0.0
230
1.0
 70
     8
 71
     3
 72
     8
 73
     4
 74
     0
 42
0.00000001
 43
0.00000001
 40
0.0
 40
0.0
 40
0.0
 40
0.0
 40
1.0
 40
1.0
 40
1.0
 40
1.0
 10
58.110492621527776
 20
176.53478868272569
 30
0.0
 10
57.80026177300347
 20
176.53478868272569
 30
0.0
 10
57.49795464409722
 20
176.43643120659721
 30
0.0
 10
57.248185221354163
 20
176.2531521267361
 30
0.0
  0
SPLINE
  5
1A1
100
AcDbEntity
  8
レイヤー_1
 62
     7
100
AcDbSpline
210
0.0
220
0.0
230
1.0
 70
     8
 71
     3
 72
     8
 73
     4
 74
     0
 42
0.00000001
 43
0.00000001
 40
0.0
 40
0.0
 40
0.0
 40
0.0
 40
1.0
 40
1.0
 40
1.0
 40
1.0
 10
58.301350911458329
 20
175.95101725260415
 30
0.0
 10
57.991464572482634
 20
175.95101725260415
 30
0.0
 10
57.68932969835069
 20
175.85214301215277
 30
0.0
 10
57.439043511284716
 20
175.66903618706596
 30
0.0
  0
LINE
  5
1A0
100
AcDbEntity
  8
レイヤー_1
 62
     7
100
AcDbLine
 10
58.408149
 20
175.951017
 30
0.0
 11
58.408149
 21
176.534789
 31
0.0
  0
LINE
  5
19F
100
AcDbEntity
  8
レイヤー_1
 62
     7
100
AcDbLine
 10
63.374426
 20
175.988397
 30
0.0
 11
63.374426
 21
176.585432
 31
0.0
  0
LINE
  5
19E
100
AcDbEntity
  8
レイヤー_1
 62
     7
100
AcDbLine
 10
36.645825
 20
183.545903
 30
0.0
 11
36.645825
 21
184.129329
 31
0.0
  0
LINE
  5
19D
100
AcDbEntity
  8
レイヤー_1
 62
     7
100
AcDbLine
 10
51.719324
 20
175.073896
 30
0.0
 11
56.626173
 21
175.073896
 31
0.0
  0
LINE
  5
19C
100
AcDbEntity
  8
レイヤー_1
 62
     7
100
AcDbLine
 10
56.281664
 20
175.545874
 30
0.0
 11
54.172576
 21
175.545874
 31
0.0
  0
SPLINE
  5
19B
100
AcDbEntity
  8
レイヤー_1
 62
     7
100
AcDbSpline
210
0.0
220
0.0
230
1.0
 70
     8
 71
     3
 72
     8
 73
     4
 74
     0
 42
0.00000001
 43
0.00000001
 40
0.0
 40
0.0
 40
0.0
 40
0.0
 40
1.0
 40
1.0
 40
1.0
 40
1.0
 10
43.077990722656246
 20
177.95744086371525
 30
0.0
 10
43.242494032118053
 20
176.80557318793402
 30
0.0
 10
44.227963595920137
 20
175.95101725260415
 30
0.0
 10
45.39137234157986
 20
175.95101725260415
 30
0.0
  0
LINE
  5
19A
100
AcDbEntity
  8
レイヤー_1
 62
     7
100
AcDbLine
 10
43.077991
 20
177.957441
 30
0.0
 11
42.698686
 21
180.610337
 31
0.0
  0
LINE
  5
199
100
AcDbEntity
  8
レイヤー_1
 62
     7
100
AcDbLine
 10
57.248185
 20
176.253152
 30
0.0
 11
56.281664
 21
175.545874
 31
0.0
  0
LINE
  5
198
100
AcDbEntity
  8
レイヤー_1
 62
     7
100
AcDbLine
 10
56.626173
 20
175.073896
 30
0.0
 11
56.281664
 21
175.545874
 31
0.0
  0
SPLINE
  5
197
100
AcDbEntity
  8
レイヤー_1
 62
     7
100
AcDbSpline
210
0.0
220
0.0
230
1.0
 70
     8
 71
     3
 72
     8
 73
     4
 74
     0
 42
0.00000001
 43
0.00000001
 40
0.0
 40
0.0
 40
0.0
 40
0.0
 40
1.0
 40
1.0
 40
1.0
 40
1.0
 10
62.954296874999997
 20
175.95101725260415
 30
0.0
 10
64.117361111111109
 20
175.95101725260415
 30
0.0
 10
65.102830674913193
 20
176.80557318793402
 30
0.0
 10
65.267678493923611
 20
177.95744086371525
 30
0.0
  0
LINE
  5
196
100
AcDbEntity
  8
レイヤー_1
 62
     7
100
AcDbLine
 10
64.689075
 20
178.039434
 30
0.0
 11
65.06838
 21
180.693191
 31
0.0
  0
SPLINE
  5
195
100
AcDbEntity
  8
レイヤー_1
 62
     7
100
AcDbSpline
210
0.0
220
0.0
230
1.0
 70
     8
 71
     3
 72
     8
 73
     4
 74
     0
 42
0.00000001
 43
0.00000001
 40
0.0
 40
0.0
 40
0.0
 40
0.0
 40
1.0
 40
1.0
 40
1.0
 40
1.0
 10
62.954296874999997
 20
175.95101725260415
 30
0.0
 10
64.117361111111109
 20
175.95101725260415
 30
0.0
 10
65.102830674913193
 20
176.80557318793402
 30
0.0
 10
65.267678493923611
 20
177.95744086371525
 30
0.0
  0
LINE
  5
194
100
AcDbEntity
  8
レイヤー_1
 62
     7
100
AcDbLine
 10
64.689075
 20
178.039434
 30
0.0
 11
65.06838
 21
180.693191
 31
0.0
  0
LINE
  5
193
100
AcDbEntity
  8
レイヤー_1
 62
     7
100
AcDbLine
 10
65.267678
 20
177.957441
 30
0.0
 11
65.646467
 21
180.610337
 31
0.0
  0
SPLINE
  5
192
100
AcDbEntity
  8
レイヤー_1
 62
     7
100
AcDbSpline
210
0.0
220
0.0
230
1.0
 70
     8
 71
     3
 72
     8
 73
     4
 74
     0
 42
0.00000001
 43
0.00000001
 40
0.0
 40
0.0
 40
0.0
 40
0.0
 40
1.0
 40
1.0
 40
1.0
 40
1.0
 10
67.453591579861111
 20
182.90924886067705
 30
0.0
 10
66.483624945746527
 20
182.52150336371525
 30
0.0
 10
65.794261338975687
 20
181.64455430772568
 30
0.0
 10
65.646466742621527
 20
180.61033664279512
 30
0.0
  0
SPLINE
  5
191
100
AcDbEntity
  8
レイヤー_1
 62
     7
100
AcDbSpline
210
0.0
220
0.0
230
1.0
 70
     8
 71
     3
 72
     8
 73
     4
 74
     0
 42
0.00000001
 43
0.00000001
 40
0.0
 40
0.0
 40
0.0
 40
0.0
 40
1.0
 40
1.0
 40
1.0
 40
1.0
 10
67.501478407118043
 20
183.5459025065104
 30
0.0
 10
66.207328287760404
 20
183.14489339192707
 30
0.0
 10
65.26009928385416
 20
182.0333333333333
 30
0.0
 10
65.068379720052079
 20
180.6931911892361
 30
0.0
  0
LINE
  5
190
100
AcDbEntity
  8
レイヤー_1
 62
     7
100
AcDbLine
 10
65.267678
 20
177.957441
 30
0.0
 11
65.646467
 21
180.610337
 31
0.0
  0
SPLINE
  5
18F
100
AcDbEntity
  8
レイヤー_1
 62
     7
100
AcDbSpline
210
0.0
220
0.0
230
1.0
 70
     8
 71
     3
 72
     8
 73
     4
 74
     0
 42
0.00000001
 43
0.00000001
 40
0.0
 40
0.0
 40
0.0
 40
0.0
 40
1.0
 40
1.0
 40
1.0
 40
1.0
 10
67.453591579861111
 20
182.90924886067705
 30
0.0
 10
66.483624945746527
 20
182.52150336371525
 30
0.0
 10
65.794261338975687
 20
181.64455430772568
 30
0.0
 10
65.646466742621527
 20
180.61033664279512
 30
0.0
  0
SPLINE
  5
18E
100
AcDbEntity
  8
レイヤー_1
 62
     7
100
AcDbSpline
210
0.0
220
0.0
230
1.0
 70
     8
 71
     3
 72
     8
 73
     4
 74
     0
 42
0.00000001
 43
0.00000001
 40
0.0
 40
0.0
 40
0.0
 40
0.0
 40
1.0
 40
1.0
 40
1.0
 40
1.0
 10
67.501478407118043
 20
183.5459025065104
 30
0.0
 10
66.207328287760404
 20
183.14489339192707
 30
0.0
 10
65.26009928385416
 20
182.0333333333333
 30
0.0
 10
65.068379720052079
 20
180.6931911892361
 30
0.0
  0
SPLINE
  5
18D
100
AcDbEntity
  8
レイヤー_1
 62
     7
100
AcDbSpline
210
0.0
220
0.0
230
1.0
 70
     8
 71
     3
 72
     8
 73
     4
 74
     0
 42
0.00000001
 43
0.00000001
 40
0.0
 40
0.0
 40
0.0
 40
0.0
 40
1.0
 40
1.0
 40
1.0
 40
1.0
 10
42.698685709635413
 20
180.61033664279512
 30
0.0
 10
42.551235622829857
 20
181.64455430772568
 30
0.0
 10
41.86204427083333
 20
182.52150336371525
 30
0.0
 10
40.89190538194444
 20
182.90924886067705
 30
0.0
  0
SPLINE
  5
18C
100
AcDbEntity
  8
レイヤー_1
 62
     7
100
AcDbSpline
210
0.0
220
0.0
230
1.0
 70
     8
 71
     3
 72
     8
 73
     4
 74
     0
 42
0.00000001
 43
0.00000001
 40
0.0
 40
0.0
 40
0.0
 40
0.0
 40
1.0
 40
1.0
 40
1.0
 40
1.0
 10
40.89190538194444
 20
182.90924886067705
 30
0.0
 10
39.544873046874997
 20
183.44754503038192
 30
0.0
 10
38.09121500651041
 20
183.66630859374999
 30
0.0
 10
36.645825195312497
 20
183.5459025065104
 30
0.0
  0
CIRCLE
  5
18B
100
AcDbEntity
  8
レイヤー_1
 62
     7
100
AcDbCircle
 10
60.891288
 20
223.090603
 30
0.0
 40
2.483139
  0
CIRCLE
  5
18A
100
AcDbEntity
  8
レイヤー_1
 62
     7
100
AcDbCircle
 10
57.531975
 20
228.909025
 30
0.0
 40
2.482794
  0
CIRCLE
  5
189
100
AcDbEntity
  8
レイヤー_1
 62
     7
100
AcDbCircle
 10
50.813436
 20
228.909025
 30
0.0
 40
2.48288
  0
CIRCLE
  5
188
100
AcDbEntity
  8
レイヤー_1
 62
     7
100
AcDbCircle
 10
47.454209
 20
223.090603
 30
0.0
 40
2.482966
  0
CIRCLE
  5
187
100
AcDbEntity
  8
レイヤー_1
 62
     7
100
AcDbCircle
 10
50.813436
 20
217.271148
 30
0.0
 40
2.48288
  0
CIRCLE
  5
186
100
AcDbEntity
  8
レイヤー_1
 62
     7
100
AcDbCircle
 10
57.531975
 20
217.271148
 30
0.0
 40
2.482794
  0
CIRCLE
  5
185
100
AcDbEntity
  8
レイヤー_1
 62
     7
100
AcDbCircle
 10
54.172748
 20
223.090603
 30
0.0
 40
2.453425
  0
LINE
  5
184
100
AcDbEntity
  8
レイヤー_1
 62
     7
100
AcDbLine
 10
71.6995
 20
184.129329
 30
0.0
 11
36.645825
 21
184.129329
 31
0.0
  0
SPLINE
  5
183
100
AcDbEntity
  8
レイヤー_1
 62
     7
100
AcDbSpline
210
0.0
220
0.0
230
1.0
 70
     8
 71
     3
 72
     8
 73
     4
 74
     0
 42
0.00000001
 43
0.00000001
 40
0.0
 40
0.0
 40
0.0
 40
0.0
 40
1.0
 40
1.0
 40
1.0
 40
1.0
 10
71.699499511718741
 20
183.5459025065104
 30
0.0
 10
70.253937445746516
 20
183.66630859374999
 30
0.0
 10
68.800451660156241
 20
183.44754503038192
 30
0.0
 10
67.453591579861111
 20
182.90924886067705
 30
0.0
  0
SPLINE
  5
182
100
AcDbEntity
  8
レイヤー_1
 62
     7
100
AcDbSpline
210
0.0
220
0.0
230
1.0
 70
     8
 71
     3
 72
     8
 73
     4
 74
     0
 42
0.00000001
 43
0.00000001
 40
0.0
 40
0.0
 40
0.0
 40
0.0
 40
1.0
 40
1.0
 40
1.0
 40
1.0
 10
71.699499511718741
 20
184.12932942708332
 30
0.0
 10
70.278742133246524
 20
184.14879421657983
 30
0.0
 10
68.862807888454853
 20
183.95173475477429
 30
0.0
 10
67.501478407118043
 20
183.5459025065104
 30
0.0
  0
SPLINE
  5
181
100
AcDbEntity
  8
レイヤー_1
 62
     7
100
AcDbSpline
210
0.0
220
0.0
230
1.0
 70
     8
 71
     3
 72
     8
 73
     4
 74
     0
 42
0.00000001
 43
0.00000001
 40
0.0
 40
0.0
 40
0.0
 40
0.0
 40
1.0
 40
1.0
 40
1.0
 40
1.0
 10
71.699499511718741
 20
183.5459025065104
 30
0.0
 10
70.253937445746516
 20
183.66630859374999
 30
0.0
 10
68.800451660156241
 20
183.44754503038192
 30
0.0
 10
67.453591579861111
 20
182.90924886067705
 30
0.0
  0
SPLINE
  5
180
100
AcDbEntity
  8
レイヤー_1
 62
     7
100
AcDbSpline
210
0.0
220
0.0
230
1.0
 70
     8
 71
     3
 72
     8
 73
     4
 74
     0
 42
0.00000001
 43
0.00000001
 40
0.0
 40
0.0
 40
0.0
 40
0.0
 40
1.0
 40
1.0
 40
1.0
 40
1.0
 10
71.699499511718741
 20
184.12932942708332
 30
0.0
 10
70.278742133246524
 20
184.14879421657983
 30
0.0
 10
68.862807888454853
 20
183.95173475477429
 30
0.0
 10
67.501478407118043
 20
183.5459025065104
 30
0.0
  0
CIRCLE
  5
17F
100
AcDbEntity
  8
レイヤー_1
 62
     7
100
AcDbCircle
 10
54.172662
 20
223.090603
 30
0.0
 40
17.526837
  0
LINE
  5
17E
100
AcDbEntity
  8
レイヤー_1
 62
     7
100
AcDbLine
 10
148.640023
 20
175.774628
 30
0.0
 11
148.640023
 21
181.032016
 31
0.0
  0
LINE
  5
17D
100
AcDbEntity
  8
レイヤー_1
 62
     7
100
AcDbLine
 10
174.930924
 20
182.785053
 30
0.0
 11
174.930924
 21
183.369169
 31
0.0
  0
LINE
  5
17C
100
AcDbEntity
  8
レイヤー_1
 62
     7
100
AcDbLine
 10
175.514524
 20
183.369169
 30
0.0
 11
175.514524
 21
183.077197
 31
0.0
  0
LINE
  5
17B
100
AcDbEntity
  8
レイヤー_1
 62
     7
100
AcDbLine
 10
172.593772
 20
175.774628
 30
0.0
 11
172.593772
 21
181.032016
 31
0.0
  0
LINE
  5
17A
100
AcDbEntity
  8
レイヤー_1
 62
     7
100
AcDbLine
 10
170.694835
 20
175.190168
 30
0.0
 11
170.694835
 21
176.0666
 31
0.0
  0
LINE
  5
179
100
AcDbEntity
  8
レイヤー_1
 62
     7
100
AcDbLine
 10
149.224311
 20
175.190168
 30
0.0
 11
172.009484
 21
175.190168
 31
0.0
  0
LINE
  5
178
100
AcDbEntity
  8
レイヤー_1
 62
     7
100
AcDbLine
 10
170.694835
 20
176.0666
 30
0.0
 11
160.617242
 21
176.0666
 31
0.0
  0
LINE
  5
177
100
AcDbEntity
  8
レイヤー_1
 62
     7
100
AcDbLine
 10
160.617242
 20
178.988213
 30
0.0
 11
164.122282
 21
178.988213
 31
0.0
  0
LINE
  5
176
100
AcDbEntity
  8
レイヤー_1
 62
     7
100
AcDbLine
 10
175.514524
 20
183.369169
 30
0.0
 11
160.617242
 21
183.369169
 31
0.0
  0
LINE
  5
175
100
AcDbEntity
  8
レイヤー_1
 62
     7
100
AcDbLine
 10
174.930924
 20
182.785053
 30
0.0
 11
160.617242
 21
182.785053
 31
0.0
  0
LINE
  5
174
100
AcDbEntity
  8
レイヤー_1
 62
     7
100
AcDbLine
 10
160.617242
 20
180.448245
 30
0.0
 11
171.133051
 21
180.448245
 31
0.0
  0
LINE
  5
173
100
AcDbEntity
  8
レイヤー_1
 62
     7
100
AcDbLine
 10
143.966406
 20
181.616994
 30
0.0
 11
160.617242
 21
181.616994
 31
0.0
  0
LINE
  5
172
100
AcDbEntity
  8
レイヤー_1
 62
     7
100
AcDbLine
 10
179.604541
 20
183.954491
 30
0.0
 11
141.629253
 21
183.954491
 31
0.0
  0
SPLINE
  5
171
100
AcDbEntity
  8
レイヤー_1
 62
     7
100
AcDbSpline
210
0.0
220
0.0
230
1.0
 70
     8
 71
     3
 72
     8
 73
     4
 74
     0
 42
0.00000001
 43
0.00000001
 40
0.0
 40
0.0
 40
0.0
 40
0.0
 40
1.0
 40
1.0
 40
1.0
 40
1.0
 10
141.62925347222222
 20
183.95449083116318
 30
0.0
 10
141.62925347222222
 20
182.66326904296872
 30
0.0
 10
142.67587348090277
 20
181.6169935438368
 30
0.0
 10
143.96640624999998
 20
181.6169935438368
 30
0.0
  0
SPLINE
  5
170
100
AcDbEntity
  8
レイヤー_1
 62
     7
100
AcDbSpline
210
0.0
220
0.0
230
1.0
 70
     8
 71
     3
 72
     8
 73
     4
 74
     0
 42
0.00000001
 43
0.00000001
 40
0.0
 40
0.0
 40
0.0
 40
0.0
 40
1.0
 40
1.0
 40
1.0
 40
1.0
 10
176.97593315972222
 20
183.07719726562499
 30
0.0
 10
177.67873263888887
 20
183.01501329210069
 30
0.0
 10
178.35603841145831
 20
183.35383843315969
 30
0.0
 10
178.72879774305554
 20
183.95449083116318
 30
0.0
  0
SPLINE
  5
16F
100
AcDbEntity
  8
レイヤー_1
 62
     7
100
AcDbSpline
210
0.0
220
0.0
230
1.0
 70
     8
 71
     3
 72
     8
 73
     4
 74
     0
 42
0.00000001
 43
0.00000001
 40
0.0
 40
0.0
 40
0.0
 40
0.0
 40
1.0
 40
1.0
 40
1.0
 40
1.0
 10
177.26669921874998
 20
181.6169935438368
 30
0.0
 10
178.55861002604166
 20
181.6169935438368
 30
0.0
 10
179.60454101562499
 20
182.66326904296872
 30
0.0
 10
179.60454101562499
 20
183.95449083116318
 30
0.0
  0
LINE
  5
16E
100
AcDbEntity
  8
レイヤー_1
 62
     7
100
AcDbLine
 10
176.975933
 20
183.077197
 30
0.0
 11
175.514524
 21
183.077197
 31
0.0
  0
LINE
  5
16D
100
AcDbEntity
  8
レイヤー_1
 62
     7
100
AcDbLine
 10
177.266699
 20
181.616994
 30
0.0
 11
173.17806
 21
181.616994
 31
0.0
  0
LINE
  5
16C
100
AcDbEntity
  8
レイヤー_1
 62
     7
100
AcDbLine
 10
164.122282
 20
178.988213
 30
0.0
 11
171.133051
 21
180.448245
 31
0.0
  0
LINE
  5
16B
100
AcDbEntity
  8
レイヤー_1
 62
     7
100
AcDbLine
 10
171.133051
 20
180.448245
 30
0.0
 11
172.009484
 21
182.785053
 31
0.0
  0
CIRCLE
  5
16A
100
AcDbEntity
  8
レイヤー_1
 62
     7
100
AcDbCircle
 10
160.617242
 20
223.090603
 30
0.0
 40
18.841227
  0
CIRCLE
  5
169
100
AcDbEntity
  8
レイヤー_1
 62
     7
100
AcDbCircle
 10
160.617242
 20
223.090603
 30
0.0
 40
17.964795
  0
CIRCLE
  5
168
100
AcDbEntity
  8
レイヤー_1
 62
     7
100
AcDbCircle
 10
160.616553
 20
223.090603
 30
0.0
 40
14.75121
  0
CIRCLE
  5
167
100
AcDbEntity
  8
レイヤー_1
 62
     7
100
AcDbCircle
 10
160.616897
 20
223.090603
 30
0.0
 40
1.75252
  0
CIRCLE
  5
166
100
AcDbEntity
  8
レイヤー_1
 62
     7
100
AcDbCircle
 10
160.616897
 20
223.090603
 30
0.0
 40
11.392586
  0
CIRCLE
  5
165
100
AcDbEntity
  8
レイヤー_1
 62
     7
100
AcDbCircle
 10
160.617242
 20
223.090603
 30
0.0
 40
14.313683
  0
LINE
  5
164
100
AcDbEntity
  8
レイヤー_1
 62
     7
100
AcDbLine
 10
163.866656
 20
224.404907
 30
0.0
 11
171.051058
 21
224.404907
 31
0.0
  0
LINE
  5
163
100
AcDbEntity
  8
レイヤー_1
 62
     7
100
AcDbLine
 10
163.866656
 20
221.775955
 30
0.0
 11
171.051058
 21
221.775955
 31
0.0
  0
LINE
  5
162
100
AcDbEntity
  8
レイヤー_1
 62
     7
100
AcDbLine
 10
157.367828
 20
221.775955
 30
0.0
 11
150.183426
 21
221.775955
 31
0.0
  0
LINE
  5
161
100
AcDbEntity
  8
レイヤー_1
 62
     7
100
AcDbLine
 10
157.367828
 20
224.404907
 30
0.0
 11
150.183426
 21
224.404907
 31
0.0
  0
SPLINE
  5
160
100
AcDbEntity
  8
レイヤー_1
 62
     7
100
AcDbSpline
210
0.0
220
0.0
230
1.0
 70
     8
 71
     3
 72
     8
 73
     4
 74
     0
 42
0.00000001
 43
0.00000001
 40
0.0
 40
0.0
 40
0.0
 40
0.0
 40
1.0
 40
1.0
 40
1.0
 40
1.0
 10
150.1834255642361
 20
224.40490722656247
 30
0.0
 10
150.07318250868053
 20
223.53174777560761
 30
0.0
 10
150.07318250868053
 20
222.64842529296874
 30
0.0
 10
150.1834255642361
 20
221.7759548611111
 30
0.0
  0
SPLINE
  5
15F
100
AcDbEntity
  8
レイヤー_1
 62
     7
100
AcDbSpline
210
0.0
220
0.0
230
1.0
 70
     8
 71
     3
 72
     8
 73
     4
 74
     0
 42
0.00000001
 43
0.00000001
 40
0.0
 40
0.0
 40
0.0
 40
0.0
 40
1.0
 40
1.0
 40
1.0
 40
1.0
 10
171.05105794270833
 20
221.7759548611111
 30
0.0
 10
171.16061197916665
 20
222.64842529296874
 30
0.0
 10
171.16061197916665
 20
223.53174777560761
 30
0.0
 10
171.05105794270833
 20
224.40490722656247
 30
0.0
  0
SPLINE
  5
15E
100
AcDbEntity
  8
レイヤー_1
 62
     7
100
AcDbSpline
210
0.0
220
0.0
230
1.0
 70
     8
 71
     3
 72
    11
 73
     7
 74
     0
 42
0.00000001
 43
0.00000001
 40
0.0
 40
0.0
 40
0.0
 40
0.0
 40
1.0
 40
1.0
 40
1.0
 40
2.0
 40
2.0
 40
2.0
 40
2.0
 10
150.7725368923611
 20
221.7759548611111
 30
0.0
 10
151.49807400173609
 20
216.33924967447913
 30
0.0
 10
156.49552951388887
 20
212.51984456380205
 30
0.0
 10
161.93120117187499
 20
213.24589843749999
 30
0.0
 10
166.37330729166666
 20
213.8386271158854
 30
0.0
 10
169.86870117187499
 20
217.3333319769965
 30
0.0
 10
170.46194661458333
 20
221.7759548611111
 30
0.0
  0
SPLINE
  5
15D
100
AcDbEntity
  8
レイヤー_1
 62
     7
100
AcDbSpline
210
0.0
220
0.0
230
1.0
 70
     8
 71
     3
 72
    11
 73
     7
 74
     0
 42
0.00000001
 43
0.00000001
 40
0.0
 40
0.0
 40
0.0
 40
0.0
 40
1.0
 40
1.0
 40
1.0
 40
2.0
 40
2.0
 40
2.0
 40
2.0
 10
170.46194661458333
 20
224.40490722656247
 30
0.0
 10
169.73503146701387
 20
229.84212917751734
 30
0.0
 10
164.73964301215275
 20
233.66101752387149
 30
0.0
 10
159.30259331597222
 20
232.93479139539929
 30
0.0
 10
154.85979817708332
 20
232.34102918836803
 30
0.0
 10
151.36509331597222
 20
228.84666883680555
 30
0.0
 10
150.7725368923611
 20
224.40490722656247
 30
0.0
  0
LINE
  5
15C
100
AcDbEntity
  8
レイヤー_1
 62
     7
100
AcDbLine
 10
148.640023
 20
175.774628
 30
0.0
 11
149.224311
 21
175.190168
 31
0.0
  0
LINE
  5
15B
100
AcDbEntity
  8
レイヤー_1
 62
     7
100
AcDbLine
 10
160.617242
 20
223.090603
 30
0.0
 11
161.452333
 21
223.090603
 31
0.0
  0
LINE
  5
15A
100
AcDbEntity
  8
レイヤー_1
 62
     7
100
AcDbLine
 10
160.617242
 20
223.090603
 30
0.0
 11
160.617242
 21
222.3096
 31
0.0
  0
LINE
  5
159
100
AcDbEntity
  8
レイヤー_1
 62
     7
100
AcDbLine
 10
152.394488
 20
120.421246
 30
0.0
 11
153.769081
 21
119.045964
 31
0.0
  0
LINE
  5
158
100
AcDbEntity
  8
レイヤー_1
 62
     7
100
AcDbLine
 10
158.235303
 20
119.045964
 30
0.0
 11
158.235303
 21
82.626481
 31
0.0
  0
LINE
  5
157
100
AcDbEntity
  8
レイヤー_1
 62
     7
100
AcDbLine
 10
152.394488
 20
120.421246
 30
0.0
 11
159.952338
 21
120.421246
 31
0.0
  0
LINE
  5
156
100
AcDbEntity
  8
レイヤー_1
 62
     7
100
AcDbLine
 10
156.173069
 20
121.382772
 30
0.0
 11
156.173069
 21
120.421246
 31
0.0
  0
LINE
  5
155
100
AcDbEntity
  8
レイヤー_1
 62
     7
100
AcDbLine
 10
159.952338
 20
120.421246
 30
0.0
 11
158.579123
 21
119.045964
 31
0.0
  0
LINE
  5
154
100
AcDbEntity
  8
レイヤー_1
 62
     7
100
AcDbLine
 10
154.112212
 20
119.045964
 30
0.0
 11
154.112212
 21
82.626481
 31
0.0
  0
LINE
  5
153
100
AcDbEntity
  8
レイヤー_1
 62
     7
100
AcDbLine
 10
154.112212
 20
82.626481
 30
0.0
 11
158.235303
 21
82.626481
 31
0.0
  0
LINE
  5
152
100
AcDbEntity
  8
レイヤー_1
 62
     7
100
AcDbLine
 10
172.009484
 20
175.190168
 30
0.0
 11
172.593772
 21
175.774628
 31
0.0
  0
SPLINE
  5
151
100
AcDbEntity
  8
レイヤー_1
 62
     7
100
AcDbSpline
210
0.0
220
0.0
230
1.0
 70
     8
 71
     3
 72
     8
 73
     4
 74
     0
 42
0.00000001
 43
0.00000001
 40
0.0
 40
0.0
 40
0.0
 40
0.0
 40
1.0
 40
1.0
 40
1.0
 40
1.0
 10
173.17805989583331
 20
181.6169935438368
 30
0.0
 10
172.85559895833333
 20
181.6169935438368
 30
0.0
 10
172.59377170138887
 20
181.35551079644097
 30
0.0
 10
172.59377170138887
 20
181.03201633029514
 30
0.0
  0
SPLINE
  5
150
100
AcDbEntity
  8
レイヤー_1
 62
     7
100
AcDbSpline
210
0.0
220
0.0
230
1.0
 70
     8
 71
     3
 72
     8
 73
     4
 74
     0
 42
0.00000001
 43
0.00000001
 40
0.0
 40
0.0
 40
0.0
 40
0.0
 40
1.0
 40
1.0
 40
1.0
 40
1.0
 10
148.64002278645833
 20
181.03201633029514
 30
0.0
 10
148.64002278645833
 20
181.35551079644097
 30
0.0
 10
148.37819552951387
 20
181.6169935438368
 30
0.0
 10
148.05573459201386
 20
181.6169935438368
 30
0.0
  0
LINE
  5
14F
100
AcDbEntity
  8
レイヤー_1
 62
     7
100
AcDbLine
 10
153.769081
 20
119.045964
 30
0.0
 11
158.579123
 21
119.045964
 31
0.0
  0
CIRCLE
  5
14E
100
AcDbEntity
  8
レイヤー_1
 62
     7
100
AcDbCircle
 10
156.173413
 20
133.724137
 30
0.0
 40
3.778925
  0
SPLINE
  5
14D
100
AcDbEntity
  8
レイヤー_1
 62
     7
100
AcDbSpline
210
0.0
220
0.0
230
1.0
 70
     8
 71
     3
 72
     8
 73
     4
 74
     0
 42
0.00000001
 43
0.00000001
 40
0.0
 40
0.0
 40
0.0
 40
0.0
 40
1.0
 40
1.0
 40
1.0
 40
1.0
 10
159.95233832465277
 20
120.42124565972222
 30
0.0
 10
157.59658203124999
 20
121.70282118055555
 30
0.0
 10
154.75093315972219
 20
121.70282118055555
 30
0.0
 10
152.39448784722219
 20
120.42124565972222
 30
0.0
  0
LINE
  5
14C
100
AcDbEntity
  8
レイヤー_1
  6
AI9-LType1
 62
     7
100
AcDbLine
 10
81.284272
 20
223.090603
 30
0.0
 11
128.679829
 21
223.090603
 31
0.0
  0
LINE
  5
14B
100
AcDbEntity
  8
レイヤー_1
  6
AI9-LType1
 62
     7
100
AcDbLine
 10
34.103172
 20
223.090603
 30
0.0
 11
74.496056
 21
223.090603
 31
0.0
  0
LINE
  5
14A
100
AcDbEntity
  8
レイヤー_1
  6
AI9-LType1
 62
     7
100
AcDbLine
 10
104.422222
 20
177.361095
 30
0.0
 11
104.422222
 21
187.781131
 31
0.0
  0
LINE
  5
149
100
AcDbEntity
  8
レイヤー_1
  6
AI9-LType1
 62
     7
100
AcDbLine
 10
104.422222
 20
200.025
 30
0.0
 11
104.422222
 21
245.981196
 31
0.0
  0
LINE
  5
148
100
AcDbEntity
  8
レイヤー_1
  6
AI9-LType1
 62
     7
100
AcDbLine
 10
138.381217
 20
223.090603
 30
0.0
 11
182.193875
 21
223.090603
 31
0.0
  0
LINE
  5
147
100
AcDbEntity
  8
レイヤー_1
  6
AI9-LType1
 62
     7
100
AcDbLine
 10
54.172576
 20
171.055192
 30
0.0
 11
54.172576
 21
187.781131
 31
0.0
  0
LINE
  5
146
100
AcDbEntity
  8
レイヤー_1
  6
AI9-LType1
 62
     7
100
AcDbLine
 10
54.172576
 20
201.616979
 30
0.0
 11
54.172576
 21
242.72782
 31
0.0
  0
LINE
  5
145
100
AcDbEntity
  8
レイヤー_1
  6
AI9-LType1
 62
     7
100
AcDbLine
 10
160.617242
 20
244.591789
 30
0.0
 11
160.617242
 21
201.510525
 31
0.0
  0
LINE
  5
144
100
AcDbEntity
  8
レイヤー_1
  6
AI9-LType1
 62
     7
100
AcDbLine
 10
160.617242
 20
189.163131
 30
0.0
 11
160.617242
 21
173.347042
 31
0.0
  0
LINE
  5
143
100
AcDbEntity
  8
レイヤー_1
  6
AI9-LType1
 62
     7
100
AcDbLine
 10
156.173069
 20
139.012014
 30
0.0
 11
156.173069
 21
129.237245
 31
0.0
  0
LINE
  5
142
100
AcDbEntity
  8
レイヤー_1
  6
AI9-LType1
 62
     7
100
AcDbLine
 10
150.676763
 20
133.724137
 30
0.0
 11
162.19923
 21
133.724137
 31
0.0
  0
LINE
  5
141
100
AcDbEntity
  8
レイヤー_1
  6
AI9-LType1
 62
     7
100
AcDbLine
 10
156.173069
 20
123.019881
 30
0.0
 11
156.173069
 21
79.969623
 31
0.0
  0
LINE
  5
13F
100
AcDbEntity
  8
レイヤー_1
 62
     7
100
AcDbLine
 10
63.556844
 20
177.310107
 30
0.0
 11
54.172576
 21
177.310107
 31
0.0
  0
LINE
  5
13E
100
AcDbEntity
  8
レイヤー_1
 62
     7
100
AcDbLine
 10
54.172576
 20
176.534789
 30
0.0
 11
56.900747
 21
176.534789
 31
0.0
  0
LINE
  5
13D
100
AcDbEntity
  8
レイヤー_1
 62
     7
100
AcDbLine
 10
64.605531
 20
182.554232
 30
0.0
 11
54.172576
 21
182.554232
 31
0.0
  0
CIRCLE
  5
13C
100
AcDbEntity
  8
レイヤー_1
 62
     7
100
AcDbCircle
 10
54.172835
 20
223.090603
 30
0.0
 40
9.931952
  0
CIRCLE
  5
13B
100
AcDbEntity
  8
レイヤー_1
 62
     7
100
AcDbCircle
 10
54.172748
 20
223.090603
 30
0.0
 40
12.268674
  0
LINE
  5
13A
100
AcDbEntity
  8
レイヤー_1
 62
     7
100
AcDbLine
 10
160.00746
 20
182.785053
 30
0.0
 11
142.781982
 21
182.785053
 31
0.0
  0
LINE
  5
139
100
AcDbEntity
  8
レイヤー_1
 62
     7
100
AcDbLine
 10
149.224311
 20
175.190168
 30
0.0
 11
149.224311
 21
181.616994
 31
0.0
  0
LINE
  5
138
100
AcDbEntity
  8
レイヤー_1
 62
     7
100
AcDbLine
 10
161.990457
 20
178.988213
 30
0.0
 11
161.990457
 21
176.0666
 31
0.0
  0
LINE
  5
137
100
AcDbEntity
  8
レイヤー_1
 62
     7
100
AcDbLine
 10
157.994835
 20
119.045964
 30
0.0
 11
157.994835
 21
82.626481
 31
0.0
  0
LINE
  5
136
100
AcDbEntity
  8
レイヤー_1
 62
     7
100
AcDbLine
 10
154.35268
 20
119.045964
 30
0.0
 11
154.35268
 21
82.626481
 31
0.0
  0
LINE
  5
135
100
AcDbEntity
  8
レイヤー_1
 62
     7
100
AcDbLine
 10
153.501053
 20
131.051088
 30
0.0
 11
158.846463
 21
136.396842
 31
0.0
  0
LINE
  5
134
100
AcDbEntity
  8
レイヤー_1
 62
     7
100
AcDbLine
 10
36.645825
 20
223.674202
 30
0.0
 11
36.645825
 21
196.820028
 31
0.0
  0
LINE
  5
133
100
AcDbEntity
  8
レイヤー_1
 62
     7
100
AcDbLine
 10
71.6995
 20
223.674202
 30
0.0
 11
71.6995
 21
196.820028
 31
0.0
  0
LINE
  5
132
100
AcDbEntity
  8
レイヤー_1
 62
     7
100
AcDbLine
 10
85.143123
 20
223.674202
 30
0.0
 11
85.143123
 21
192.212212
 31
0.0
  0
LINE
  5
131
100
AcDbEntity
  8
レイヤー_1
 62
     7
100
AcDbLine
 10
123.701666
 20
223.674202
 30
0.0
 11
123.701666
 21
192.212212
 31
0.0
  0
LINE
  5
130
100
AcDbEntity
  8
レイヤー_1
 62
     7
100
AcDbLine
 10
141.776015
 20
223.674202
 30
0.0
 11
141.776015
 21
192.844215
 31
0.0
  0
LINE
  5
12F
100
AcDbEntity
  8
レイヤー_1
 62
     7
100
AcDbLine
 10
179.458469
 20
223.674202
 30
0.0
 11
179.458469
 21
192.844215
 31
0.0
  0
LINE
  5
12E
100
AcDbEntity
  8
レイヤー_1
 62
     7
100
AcDbLine
 10
89.817084
 20
223.674202
 30
0.0
 11
89.817084
 21
196.820028
 31
0.0
  0
LINE
  5
12D
100
AcDbEntity
  8
レイヤー_1
 62
     7
100
AcDbLine
 10
119.028049
 20
223.674202
 30
0.0
 11
119.028049
 21
196.820028
 31
0.0
  0
LINE
  5
12C
100
AcDbEntity
  8
レイヤー_1
 62
     7
100
AcDbLine
 10
36.061537
 20
184.129329
 30
0.0
 11
30.557825
 21
184.129329
 31
0.0
  0
LINE
  5
12B
100
AcDbEntity
  8
レイヤー_1
 62
     7
100
AcDbLine
 10
53.58846
 20
175.073896
 30
0.0
 11
30.557825
 21
175.073896
 31
0.0
  0
LINE
  5
12A
100
AcDbEntity
  8
レイヤー_1
 62
     7
100
AcDbLine
 10
31.141941
 20
184.129329
 30
0.0
 11
31.141941
 21
175.073896
 31
0.0
  0
LINE
  5
129
100
AcDbEntity
  8
レイヤー_1
 62
     7
100
AcDbLine
 10
84.558835
 20
181.381005
 30
0.0
 11
79.960838
 21
181.381005
 31
0.0
  0
LINE
  5
128
100
AcDbEntity
  8
レイヤー_1
 62
     7
100
AcDbLine
 10
87.479759
 20
184.301929
 30
0.0
 11
79.960838
 21
184.301929
 31
0.0
  0
LINE
  5
127
100
AcDbEntity
  8
レイヤー_1
 62
     7
100
AcDbLine
 10
80.544954
 20
184.301929
 30
0.0
 11
80.544954
 21
181.381005
 31
0.0
  0
LINE
  5
126
100
AcDbEntity
  8
レイヤー_1
 62
     7
100
AcDbLine
 10
141.044965
 20
183.954491
 30
0.0
 11
135.768457
 21
183.954491
 31
0.0
  0
LINE
  5
125
100
AcDbEntity
  8
レイヤー_1
 62
     7
100
AcDbLine
 10
148.640023
 20
175.190168
 30
0.0
 11
135.768457
 21
175.190168
 31
0.0
  0
LINE
  5
124
100
AcDbEntity
  8
レイヤー_1
 62
     7
100
AcDbLine
 10
148.640023
 20
168.89305
 30
0.0
 11
172.593772
 21
168.89305
 31
0.0
  0
LINE
  5
123
100
AcDbEntity
  8
レイヤー_1
 62
     7
100
AcDbLine
 10
148.640023
 20
175.190168
 30
0.0
 11
148.640023
 21
168.30859
 31
0.0
  0
LINE
  5
122
100
AcDbEntity
  8
レイヤー_1
 62
     7
100
AcDbLine
 10
172.593772
 20
175.190168
 30
0.0
 11
172.593772
 21
168.30859
 31
0.0
  0
LINE
  5
121
100
AcDbEntity
  8
レイヤー_1
 62
     7
100
AcDbLine
 10
158.235303
 20
81.939529
 30
0.0
 11
158.235303
 21
76.73709
 31
0.0
  0
LINE
  5
120
100
AcDbEntity
  8
レイヤー_1
 62
     7
100
AcDbLine
 10
154.112212
 20
81.939529
 30
0.0
 11
154.112212
 21
76.73709
 31
0.0
  0
LINE
  5
11F
100
AcDbEntity
  8
レイヤー_1
 62
     7
100
AcDbLine
 10
160.479438
 20
120.421246
 30
0.0
 11
164.696235
 21
120.421246
 31
0.0
  0
LINE
  5
11E
100
AcDbEntity
  8
レイヤー_1
 62
     7
100
AcDbLine
 10
158.922255
 20
82.626481
 30
0.0
 11
164.696235
 21
82.626481
 31
0.0
  0
LINE
  5
11D
100
AcDbEntity
  8
レイヤー_1
 62
     7
100
AcDbLine
 10
159.952338
 20
134.411434
 30
0.0
 11
159.952338
 21
143.877523
 31
0.0
  0
LINE
  5
11C
100
AcDbEntity
  8
レイヤー_1
 62
     7
100
AcDbLine
 10
152.394488
 20
134.411434
 30
0.0
 11
152.394488
 21
143.877523
 31
0.0
  0
LINE
  5
11B
100
AcDbEntity
  8
レイヤー_1
 62
     7
100
AcDbLine
 10
38.338745
 20
197.403627
 30
0.0
 11
70.00658
 21
197.403627
 31
0.0
  0
INSERT
  5
115
100
AcDbEntity
  8
レイヤー_1
 62
     7
100
AcDbBlockReference
  2
AI9-BLK24
 10
37.492285
 20
197.398373
 30
0.0
  0
INSERT
  5
10E
100
AcDbEntity
  8
レイヤー_1
 62
     7
100
AcDbBlockReference
  2
AI9-BLK23
 10
70.85304
 20
197.409828
 30
0.0
  0
LINE
  5
10C
100
AcDbEntity
  8
レイヤー_1
 62
     7
100
AcDbLine
 10
86.835871
 20
192.796156
 30
0.0
 11
122.008746
 21
192.796156
 31
0.0
  0
INSERT
  5
106
100
AcDbEntity
  8
レイヤー_1
 62
     7
100
AcDbBlockReference
  2
AI9-BLK22
 10
85.989497
 20
192.790558
 30
0.0
  0
INSERT
  5
FF
100
AcDbEntity
  8
レイヤー_1
 62
     7
100
AcDbBlockReference
  2
AI9-BLK21
 10
122.855206
 20
192.802099
 30
0.0
  0
LINE
  5
FD
100
AcDbEntity
  8
レイヤー_1
 62
     7
100
AcDbLine
 10
143.468934
 20
193.428331
 30
0.0
 11
177.76486
 21
193.428331
 31
0.0
  0
INSERT
  5
F7
100
AcDbEntity
  8
レイヤー_1
 62
     7
100
AcDbBlockReference
  2
AI9-BLK20
 10
142.622475
 20
193.422647
 30
0.0
  0
INSERT
  5
F0
100
AcDbEntity
  8
レイヤー_1
 62
     7
100
AcDbBlockReference
  2
AI9-BLK19
 10
178.611664
 20
193.434188
 30
0.0
  0
LINE
  5
EE
100
AcDbEntity
  8
レイヤー_1
 62
     7
100
AcDbLine
 10
91.50966
 20
197.403627
 30
0.0
 11
117.335129
 21
197.403627
 31
0.0
  0
INSERT
  5
E8
100
AcDbEntity
  8
レイヤー_1
 62
     7
100
AcDbBlockReference
  2
AI9-BLK18
 10
90.663372
 20
197.398287
 30
0.0
  0
INSERT
  5
E1
100
AcDbEntity
  8
レイヤー_1
 62
     7
100
AcDbBlockReference
  2
AI9-BLK17
 10
118.181589
 20
197.409828
 30
0.0
  0
LINE
  5
DF
100
AcDbEntity
  8
レイヤー_1
 62
     7
100
AcDbLine
 10
136.352056
 20
182.260882
 30
0.0
 11
136.352056
 21
176.882916
 31
0.0
  0
INSERT
  5
D9
100
AcDbEntity
  8
レイヤー_1
 62
     7
100
AcDbBlockReference
  2
AI9-BLK16
 10
136.352056
 20
183.107686
 30
0.0
  0
INSERT
  5
D2
100
AcDbEntity
  8
レイヤー_1
 62
     7
100
AcDbBlockReference
  2
AI9-BLK15
 10
136.352056
 20
176.036542
 30
0.0
  0
LINE
  5
D0
100
AcDbEntity
  8
レイヤー_1
 62
     7
100
AcDbLine
 10
164.008594
 20
84.617746
 30
0.0
 11
164.008594
 21
118.429636
 31
0.0
  0
INSERT
  5
CA
100
AcDbEntity
  8
レイヤー_1
 62
     7
100
AcDbBlockReference
  2
AI9-BLK14
 10
164.009283
 20
83.622114
 30
0.0
  0
INSERT
  5
C3
100
AcDbEntity
  8
レイヤー_1
 62
     7
100
AcDbBlockReference
  2
AI9-BLK13
 10
164.009283
 20
119.425441
 30
0.0
  0
LINE
  5
C1
100
AcDbEntity
  8
レイヤー_1
 62
     7
100
AcDbLine
 10
157.961762
 20
143.189193
 30
0.0
 11
154.385753
 21
143.189193
 31
0.0
  0
INSERT
  5
BB
100
AcDbEntity
  8
レイヤー_1
 62
     7
100
AcDbBlockReference
  2
AI9-BLK12
 10
158.95705
 20
143.195566
 30
0.0
  0
INSERT
  5
B4
100
AcDbEntity
  8
レイヤー_1
 62
     7
100
AcDbBlockReference
  2
AI9-BLK11
 10
153.39012
 20
143.184197
 30
0.0
  0
LINE
  5
B2
100
AcDbEntity
  8
レイヤー_1
 62
     7
100
AcDbLine
 10
31.141941
 20
187.050943
 30
0.0
 11
31.141941
 21
185.822249
 31
0.0
  0
INSERT
  5
AC
100
AcDbEntity
  8
レイヤー_1
 62
     7
100
AcDbBlockReference
  2
AI9-BLK10
 10
31.142285
 20
184.975789
 30
0.0
  0
LINE
  5
AA
100
AcDbEntity
  8
レイヤー_1
 62
     7
100
AcDbLine
 10
31.141941
 20
172.152972
 30
0.0
 11
31.141941
 21
173.381148
 31
0.0
  0
INSERT
  5
A4
100
AcDbEntity
  8
レイヤー_1
 62
     7
100
AcDbBlockReference
  2
AI9-BLK9
 10
31.142285
 20
174.227522
 30
0.0
  0
LINE
  5
A2
100
AcDbEntity
  8
レイヤー_1
 62
     7
100
AcDbLine
 10
80.544954
 20
187.222853
 30
0.0
 11
80.544954
 21
185.994849
 31
0.0
  0
INSERT
  5
9C
100
AcDbEntity
  8
レイヤー_1
 62
     7
100
AcDbBlockReference
  2
AI9-BLK8
 10
80.544954
 20
185.148389
 30
0.0
  0
LINE
  5
9A
100
AcDbEntity
  8
レイヤー_1
 62
     7
100
AcDbLine
 10
80.544954
 20
178.46008
 30
0.0
 11
80.544954
 21
179.687568
 31
0.0
  0
INSERT
  5
94
100
AcDbEntity
  8
レイヤー_1
 62
     7
100
AcDbBlockReference
  2
AI9-BLK7
 10
80.544954
 20
180.534286
 30
0.0
  0
LINE
  5
92
100
AcDbEntity
  8
レイヤー_1
 62
     7
100
AcDbLine
 10
175.514524
 20
168.89305
 30
0.0
 11
174.286692
 21
168.89305
 31
0.0
  0
INSERT
  5
8C
100
AcDbEntity
  8
レイヤー_1
 62
     7
100
AcDbBlockReference
  2
AI9-BLK6
 10
173.440232
 20
168.887107
 30
0.0
  0
LINE
  5
8A
100
AcDbEntity
  8
レイヤー_1
 62
     7
100
AcDbLine
 10
145.719271
 20
168.89305
 30
0.0
 11
146.947103
 21
168.89305
 31
0.0
  0
INSERT
  5
84
100
AcDbEntity
  8
レイヤー_1
 62
     7
100
AcDbBlockReference
  2
AI9-BLK5
 10
147.793563
 20
168.898648
 30
0.0
  0
LINE
  5
82
100
AcDbEntity
  8
レイヤー_1
 62
     7
100
AcDbLine
 10
158.235303
 20
77.424387
 30
0.0
 11
154.112212
 21
77.424387
 31
0.0
  0
INSERT
  5
7E
100
AcDbEntity
  8
レイヤー_1
 62
     7
100
AcDbBlockReference
  2
AI9-BLK4
 10
158.234958
 20
77.424731
 30
0.0
  0
INSERT
  5
79
100
AcDbEntity
  8
レイヤー_1
 62
     7
100
AcDbBlockReference
  2
AI9-BLK3
 10
154.112212
 20
77.424731
 30
0.0
  0
INSERT
  5
6C
100
AcDbEntity
  8
レイヤー_1
 62
     7
100
AcDbBlockReference
  2
AI9-BLK2
 10
84.487091
 20
133.561873
 30
0.0
  0
INSERT
  5
3B
100
AcDbEntity
  8
レイヤー_1
 62
     7
100
AcDbBlockReference
  2
AI9-BLK1
 10
170.974921
 20
179.572329
 30
0.0
  0
LINE
  5
39
100
AcDbEntity
  8
レイヤー_1
 62
     7
100
AcDbLine
 10
162.369417
 20
178.988213
 30
0.0
 11
162.369417
 21
176.0666
 31
0.0
  0
MTEXT
  5
38
100
AcDbEntity
  8
レイヤー_1
 62
     7
100
AcDbMText
 10
51.076124
 20
201.01034
 30
0.0
 40
3.021736
 41
0.0
 71
     1
 72
     2
  1
\W0.60;\fMS Gothic|b0|i0|c128;φ60
  7
KANJISTD
210
0.0
220
0.0
230
1.0
 11
1.000001
 21
0.0
 31
0.0
 73
     1
 44
1.0
  0
MTEXT
  5
37
100
AcDbEntity
  8
レイヤー_1
 62
     7
100
AcDbMText
 10
101.326115
 20
196.40218
 30
0.0
 40
3.021736
 41
0.0
 71
     1
 72
     2
  1
\W0.60;\fMS Gothic|b0|i0|c128;φ66
  7
KANJISTD
210
0.0
220
0.0
230
1.0
 11
1.000001
 21
0.0
 31
0.0
 73
     1
 44
1.0
  0
MTEXT
  5
36
100
AcDbEntity
  8
レイヤー_1
 62
     7
100
AcDbMText
 10
155.650792
 20
197.160274
 30
0.0
 40
3.021736
 41
0.0
 71
     1
 72
     2
  1
\W0.60;\fMS Gothic|b0|i0|c128;φ64.5
  7
KANJISTD
210
0.0
220
0.0
230
1.0
 11
1.000001
 21
0.0
 31
0.0
 73
     1
 44
1.0
  0
MTEXT
  5
35
100
AcDbEntity
  8
レイヤー_1
 62
     7
100
AcDbMText
 10
102.339834
 20
200.922146
 30
0.0
 40
3.021736
 41
0.0
 71
     1
 72
     2
  1
\W0.60;\fMS Gothic|b0|i0|c128;φ50
  7
KANJISTD
210
0.0
220
0.0
230
1.0
 11
1.000001
 21
0.0
 31
0.0
 73
     1
 44
1.0
  0
MTEXT
  5
34
100
AcDbEntity
  8
レイヤー_1
 62
     7
100
AcDbMText
 10
27.536089
 20
177.862873
 30
0.0
 40
3.021736
 41
0.0
 71
     1
 72
     2
  1
\W0.60;\fMS Gothic|b0|i0|c128;15.5
  7
STD
210
0.0
220
0.0
230
1.0
 11
0.0
 21
1.0
 31
0.0
 73
     1
 44
1.0
  0
MTEXT
  5
33
100
AcDbEntity
  8
レイヤー_1
 62
     7
100
AcDbMText
 10
76.939103
 20
182.302051
 30
0.0
 40
3.021736
 41
0.0
 71
     1
 72
     2
  1
\W0.60;\fMS Gothic|b0|i0|c128;5
  7
STD
210
0.0
220
0.0
230
1.0
 11
0.0
 21
1.0
 31
0.0
 73
     1
 44
1.0
  0
MTEXT
  5
32
100
AcDbEntity
  8
レイヤー_1
 62
     7
100
AcDbMText
 10
132.746721
 20
177.410532
 30
0.0
 40
3.021736
 41
0.0
 71
     1
 72
     2
  1
\W0.60;\fMS Gothic|b0|i0|c128;15
  7
STD
210
0.0
220
0.0
230
1.0
 11
0.0
 21
1.0
 31
0.0
 73
     1
 44
1.0
  0
MTEXT
  5
31
100
AcDbEntity
  8
レイヤー_1
 62
     7
100
AcDbMText
 10
156.046978
 20
172.428278
 30
0.0
 40
3.021736
 41
0.0
 71
     1
 72
     2
  1
\W0.60;\fMS Gothic|b0|i0|c128;Ｇ1 1/4
  7
KANJISTD
210
0.0
220
0.0
230
1.0
 11
1.000001
 21
0.0
 31
0.0
 73
     1
 44
1.0
  0
MTEXT
  5
30
100
AcDbEntity
  8
レイヤー_1
 62
     7
100
AcDbMText
 10
155.218777
 20
76.128385
 30
0.0
 40
3.021736
 41
0.0
 71
     1
 72
     2
  1
\W0.60;\fMS Gothic|b0|i0|c128;M6
  7
STD
210
0.0
220
0.0
230
1.0
 11
1.000001
 21
0.0
 31
0.0
 73
     1
 44
1.0
  0
MTEXT
  5
2F
100
AcDbEntity
  8
レイヤー_1
 62
     7
100
AcDbMText
 10
160.299906
 20
98.980349
 30
0.0
 40
3.021736
 41
0.0
 71
     1
 72
     2
  1
\W0.60;\fMS Gothic|b0|i0|c128;55
  7
STD
210
0.0
220
0.0
230
1.0
 11
0.0
 21
1.0
 31
0.0
 73
     1
 44
1.0
  0
MTEXT
  5
2E
100
AcDbEntity
  8
レイヤー_1
 62
     7
100
AcDbMText
 10
153.218555
 20
146.899259
 30
0.0
 40
3.021736
 41
0.0
 71
     1
 72
     2
  1
\W0.60;\fMS Gothic|b0|i0|c128;φ11
  7
KANJISTD
210
0.0
220
0.0
230
1.0
 11
1.000001
 21
0.0
 31
0.0
 73
     1
 44
1.0
  0
MTEXT
  5
2D
100
AcDbEntity
  8
レイヤー_1
 62
     7
100
AcDbMText
 10
82.540354
 20
95.811593
 30
0.0
 40
3.021736
 41
0.0
 71
     1
 72
     2
  1
\W0.60;\fMS Gothic|b0|i0|c128;組立図
  7
KANJISTD
210
0.0
220
0.0
230
1.0
 11
1.000001
 21
0.0
 31
0.0
 73
     1
 44
1.0
  0
MTEXT
  5
2C
100
AcDbEntity
  8
レイヤー_1
 62
     7
100
AcDbMText
 10
39.136457
 20
251.916966
 30
0.0
 40
3.021736
 41
0.0
 71
     1
 72
     2
  1
\W0.60;\fMS Gothic|b0|i0|c128;目皿
  7
KANJISTD
210
0.0
220
0.0
230
1.0
 11
1.000001
 21
0.0
 31
0.0
 73
     1
 44
1.0
  0
MTEXT
  5
2B
100
AcDbEntity
  8
レイヤー_1
 62
     7
100
AcDbMText
 10
89.335288
 20
251.896295
 30
0.0
 40
3.021736
 41
0.0
 71
     1
 72
     2
  1
\W0.60;\fMS Gothic|b0|i0|c128;パッキン
  7
KANJISTD
210
0.0
220
0.0
230
1.0
 11
1.000001
 21
0.0
 31
0.0
 73
     1
 44
1.0
  0
MTEXT
  5
2A
100
AcDbEntity
  8
レイヤー_1
 62
     7
100
AcDbMText
 10
147.78495
 20
156.730011
 30
0.0
 40
3.021736
 41
0.0
 71
     1
 72
     2
  1
\W0.60;\fMS Gothic|b0|i0|c128;固定ネジ
  7
KANJISTD
210
0.0
220
0.0
230
1.0
 11
1.000001
 21
0.0
 31
0.0
 73
     1
 44
1.0
  0
MTEXT
  5
29
100
AcDbEntity
  8
レイヤー_1
 62
     7
100
AcDbMText
 10
146.180914
 20
251.875797
 30
0.0
 40
3.021736
 41
0.0
 71
     1
 72
     2
  1
\W0.60;\fMS Gothic|b0|i0|c128;ﾌﾞﾗｹｯﾄ
  7
STD
210
0.0
220
0.0
230
1.0
 11
1.000001
 21
0.0
 31
0.0
 73
     1
 44
1.0
  0
ENDSEC
  0
SECTION
  2
OBJECTS
  0
DICTIONARY
  5
19
100
AcDbDictionary
280
     0
281
     1
  3
ACAD_GROUP
350
1A
  3
ACAD_MLINESTYLE
350
1B
  3
ACAD_LAYOUT
350
1E
  3
ACAD_PLOTSETTINGS
350
22
  3
ACAD_PLOTSTYLENAME
350
1F
  3
ACAD_WIPEOUT_VARS
350
23
  0
DICTIONARY
  5
1A
102
{ACAD_REACTORS
330
19
102
}
100
AcDbDictionary
280
     0
281
     1
  0
DICTIONARY
  5
1B
102
{ACAD_REACTORS
330
19
102
}
100
AcDbDictionary
280
     0
281
     1
  3
Standard
350
1C
  0
MLINESTYLE
  5
1C
102
{ACAD_REACTORS
330
1B
102
}
100
AcDbMlineStyle
  2
Standard
 70
     0
  3

 62
     0
 51
90.0
 52
90.0
 71
     2
 49
0.5
 62
   256
  6
BYLAYER
 49
-0.5
 62
   256
  6
BYLAYER
  0
ACDBDICTIONARYWDFLT
  5
1F
102
{ACAD_REACTORS
330
19
102
}
100
AcDbDictionary
281
     1
  3
Normal
350
1D
100
AcDbDictionaryWithDefault
340
1D
  0
ACDBPLACEHOLDER
  5
1D
102
{ACAD_REACTORS
330
1F
102
}
  0
LAYOUT
  5
20
102
{ACAD_REACTORS
330
1E
102
}
100
AcDbPlotSettings
  1

  2

  4

  6

 40
0.0
 41
0.0
 42
0.0
 43
0.0
 44
0.0
 45
0.0
 46
0.0
 47
0.0
 48
0.0
 49
0.0
140
0.0
141
0.0
142
1.0
143
1.0
 70
  1024
 72
     0
 73
     0
 74
     0
  7

 75
     0
147
1.0
148
0.0
149
0.0
100
AcDbLayout
  1
Model
 70
     0
 71
     0
 10
0.0
 20
0.0
 11
0.0
 21
0.0
 12
0.0
 22
0.0
 32
0.0
 14
0.0
 24
0.0
 34
0.0
 15
0.0
 25
0.0
 35
0.0
146
0.0
 13
0.0
 23
0.0
 33
0.0
 16
0.0
 26
0.0
 36
0.0
 17
0.0
 27
0.0
 37
0.0
 76
     0
330
A
331
0
345
0
346
0
  0
LAYOUT
  5
21
102
{ACAD_REACTORS
330
1E
102
}
100
AcDbPlotSettings
  1

  2

  4

  6

 40
0.0
 41
0.0
 42
0.0
 43
0.0
 44
0.0
 45
0.0
 46
0.0
 47
0.0
 48
0.0
 49
0.0
140
0.0
141
0.0
142
1.0
143
1.0
 70
     0
 72
     0
 73
     0
 74
     0
  7

 75
     0
147
1.0
148
0.0
149
0.0
100
AcDbLayout
  1
Layout1
 70
     0
 71
     0
 10
0.0
 20
0.0
 11
0.0
 21
0.0
 12
0.0
 22
0.0
 32
0.0
 14
0.0
 24
0.0
 34
0.0
 15
0.0
 25
0.0
 35
0.0
146
0.0
 13
0.0
 23
0.0
 33
0.0
 16
0.0
 26
0.0
 36
0.0
 17
0.0
 27
0.0
 37
0.0
 76
     0
330
B
331
0
345
0
346
0
  0
DICTIONARY
  5
1E
102
{ACAD_REACTORS
330
19
102
}
100
AcDbDictionary
280
     0
281
     1
  3
Layout1
350
21
  3
Model
350
20
  0
DICTIONARY
  5
22
102
{ACAD_REACTORS
330
19
102
}
100
AcDbDictionary
280
     0
281
     1
  0
WIPEOUTVARIABLES
  5
23
100
AcDbWipeoutVariables
 70
     1
  0
IMAGEDEF_REACTOR
  5
376
100
AcDbRasterImageDefReactor
 90
        2
330
375
  0
IMAGEDEF
  5
377
100
AcDbRasterImageDef
 90
        0
  1
C:\Documents and Settings\marumo\デスクトップ\1010097000_1.bmp
 10
70.0
 20
9.0
 11
0.352778
 21
0.352778
280
     1
281
     0
  0
IMAGEDEF_REACTOR
  5
379
100
AcDbRasterImageDefReactor
 90
        2
330
378
  0
IMAGEDEF
  5
37A
100
AcDbRasterImageDef
 90
        0
  1
C:\Documents and Settings\marumo\デスクトップ\1010097000_2.bmp
 10
70.0
 20
9.0
 11
0.352778
 21
0.352778
280
     1
281
     0
  0
ENDSEC
  0
EOF
