  0
SECTION
  2
HEADER
  9
$ACADVER
  1
AC1015
  9
$ACADMAINTVER
 70
    20
  9
$DWGCODEPAGE
  3
ANSI_932
  9
$INSBASE
 10
0.0
 20
0.0
 30
0.0
  9
$EXTMIN
 10
15.65346982758624
 20
125.2757757542438
 30
0.0
  9
$EXTMAX
 10
185.9748305684079
 20
257.4703609691143
 30
0.0
  9
$LIMMIN
 10
0.0
 20
0.0
  9
$LIMMAX
 10
210.0
 20
297.0
  9
$ORTHOMODE
 70
     0
  9
$REGENMODE
 70
     1
  9
$FILLMODE
 70
     1
  9
$QTEXTMODE
 70
     0
  9
$MIRRTEXT
 70
     1
  9
$LTSCALE
 40
11.0
  9
$ATTMODE
 70
     1
  9
$TEXTSIZE
 40
0.2
  9
$TRACEWID
 40
0.05
  9
$TEXTSTYLE
  7
STANDARD
  9
$CLAYER
  8
0
  9
$CELTYPE
  6
CONTINUOUS
  9
$CECOLOR
 62
   256
  9
$CELTSCALE
 40
1.0
  9
$DISPSILH
 70
     0
  9
$DIMSCALE
 40
5.0
  9
$DIMASZ
 40
0.18
  9
$DIMEXO
 40
0.0625
  9
$DIMDLI
 40
0.38
  9
$DIMRND
 40
0.0
  9
$DIMDLE
 40
0.0
  9
$DIMEXE
 40
0.18
  9
$DIMTP
 40
0.0
  9
$DIMTM
 40
0.0
  9
$DIMTXT
 40
0.18
  9
$DIMCEN
 40
0.09
  9
$DIMTSZ
 40
0.0
  9
$DIMTOL
 70
     0
  9
$DIMLIM
 70
     0
  9
$DIMTIH
 70
     1
  9
$DIMTOH
 70
     1
  9
$DIMSE1
 70
     0
  9
$DIMSE2
 70
     0
  9
$DIMTAD
 70
     0
  9
$DIMZIN
 70
     0
  9
$DIMBLK
  1

  9
$DIMASO
 70
     1
  9
$DIMSHO
 70
     1
  9
$DIMPOST
  1

  9
$DIMAPOST
  1

  9
$DIMALT
 70
     0
  9
$DIMALTD
 70
     2
  9
$DIMALTF
 40
25.4
  9
$DIMLFAC
 40
1.0
  9
$DIMTOFL
 70
     0
  9
$DIMTVP
 40
0.0
  9
$DIMTIX
 70
     0
  9
$DIMSOXD
 70
     0
  9
$DIMSAH
 70
     0
  9
$DIMBLK1
  1

  9
$DIMBLK2
  1

  9
$DIMSTYLE
  2
STANDARD
  9
$DIMCLRD
 70
     0
  9
$DIMCLRE
 70
     0
  9
$DIMCLRT
 70
     0
  9
$DIMTFAC
 40
1.0
  9
$DIMGAP
 40
0.09
  9
$DIMJUST
 70
     0
  9
$DIMSD1
 70
     0
  9
$DIMSD2
 70
     0
  9
$DIMTOLJ
 70
     1
  9
$DIMTZIN
 70
     0
  9
$DIMALTZ
 70
     0
  9
$DIMALTTZ
 70
     0
  9
$DIMUPT
 70
     0
  9
$DIMDEC
 70
     4
  9
$DIMTDEC
 70
     4
  9
$DIMALTU
 70
     2
  9
$DIMALTTD
 70
     2
  9
$DIMTXSTY
  7
STANDARD
  9
$DIMAUNIT
 70
     0
  9
$DIMADEC
 70
     0
  9
$DIMALTRND
 40
0.0
  9
$DIMAZIN
 70
     0
  9
$DIMDSEP
 70
    46
  9
$DIMATFIT
 70
     3
  9
$DIMFRAC
 70
     0
  9
$DIMLDRBLK
  1

  9
$DIMLUNIT
 70
     2
  9
$DIMLWD
 70
    -2
  9
$DIMLWE
 70
    -2
  9
$DIMTMOVE
 70
     2
  9
$LUNITS
 70
     2
  9
$LUPREC
 70
     4
  9
$SKETCHINC
 40
0.1
  9
$FILLETRAD
 40
0.0
  9
$AUNITS
 70
     0
  9
$AUPREC
 70
     0
  9
$MENU
  1
acad
  9
$ELEVATION
 40
0.0
  9
$PELEVATION
 40
0.0
  9
$THICKNESS
 40
0.0
  9
$LIMCHECK
 70
     0
  9
$CHAMFERA
 40
0.0
  9
$CHAMFERB
 40
0.0
  9
$CHAMFERC
 40
0.0
  9
$CHAMFERD
 40
0.0
  9
$SKPOLY
 70
     0
  9
$TDCREATE
 40
2444975.375000000
  9
$TDUCREATE
 40
2444975.000000000
  9
$TDUPDATE
 40
2456210.790702431
  9
$TDUUPDATE
 40
2456210.415702431
  9
$TDINDWG
 40
0.0372179977
  9
$TDUSRTIMER
 40
0.0372179977
  9
$USRTIMER
 70
     1
  9
$ANGBASE
 50
0.0
  9
$ANGDIR
 70
     0
  9
$PDMODE
 70
    35
  9
$PDSIZE
 40
0.0
  9
$PLINEWID
 40
0.0
  9
$SPLFRAME
 70
     0
  9
$SPLINETYPE
 70
     6
  9
$SPLINESEGS
 70
     8
  9
$HANDSEED
  5
E51
  9
$SURFTAB1
 70
     6
  9
$SURFTAB2
 70
     6
  9
$SURFTYPE
 70
     6
  9
$SURFU
 70
     6
  9
$SURFV
 70
     6
  9
$UCSBASE
  2

  9
$UCSNAME
  2

  9
$UCSORG
 10
0.0
 20
0.0
 30
0.0
  9
$UCSXDIR
 10
1.0
 20
0.0
 30
0.0
  9
$UCSYDIR
 10
0.0
 20
1.0
 30
0.0
  9
$UCSORTHOREF
  2

  9
$UCSORTHOVIEW
 70
     0
  9
$UCSORGTOP
 10
0.0
 20
0.0
 30
0.0
  9
$UCSORGBOTTOM
 10
0.0
 20
0.0
 30
0.0
  9
$UCSORGLEFT
 10
0.0
 20
0.0
 30
0.0
  9
$UCSORGRIGHT
 10
0.0
 20
0.0
 30
0.0
  9
$UCSORGFRONT
 10
0.0
 20
0.0
 30
0.0
  9
$UCSORGBACK
 10
0.0
 20
0.0
 30
0.0
  9
$PUCSBASE
  2

  9
$PUCSNAME
  2

  9
$PUCSORG
 10
0.0
 20
0.0
 30
0.0
  9
$PUCSXDIR
 10
1.0
 20
0.0
 30
0.0
  9
$PUCSYDIR
 10
0.0
 20
1.0
 30
0.0
  9
$PUCSORTHOREF
  2

  9
$PUCSORTHOVIEW
 70
     0
  9
$PUCSORGTOP
 10
0.0
 20
0.0
 30
0.0
  9
$PUCSORGBOTTOM
 10
0.0
 20
0.0
 30
0.0
  9
$PUCSORGLEFT
 10
0.0
 20
0.0
 30
0.0
  9
$PUCSORGRIGHT
 10
0.0
 20
0.0
 30
0.0
  9
$PUCSORGFRONT
 10
0.0
 20
0.0
 30
0.0
  9
$PUCSORGBACK
 10
0.0
 20
0.0
 30
0.0
  9
$USERI1
 70
     0
  9
$USERI2
 70
     0
  9
$USERI3
 70
     0
  9
$USERI4
 70
     0
  9
$USERI5
 70
     0
  9
$USERR1
 40
0.0
  9
$USERR2
 40
0.0
  9
$USERR3
 40
0.0
  9
$USERR4
 40
0.0
  9
$USERR5
 40
0.0
  9
$WORLDVIEW
 70
     1
  9
$SHADEDGE
 70
     3
  9
$SHADEDIF
 70
    70
  9
$TILEMODE
 70
     1
  9
$MAXACTVP
 70
    16
  9
$PINSBASE
 10
0.0
 20
0.0
 30
0.0
  9
$PLIMCHECK
 70
     0
  9
$PEXTMIN
 10
1.000000000000000E+20
 20
1.000000000000000E+20
 30
1.000000000000000E+20
  9
$PEXTMAX
 10
-1.000000000000000E+20
 20
-1.000000000000000E+20
 30
-1.000000000000000E+20
  9
$PLIMMIN
 10
0.0
 20
0.0
  9
$PLIMMAX
 10
12.0
 20
9.0
  9
$UNITMODE
 70
     0
  9
$VISRETAIN
 70
     0
  9
$PLINEGEN
 70
     1
  9
$PSLTSCALE
 70
     0
  9
$TREEDEPTH
 70
  3020
  9
$CMLSTYLE
  2
Standard
  9
$CMLJUST
 70
     0
  9
$CMLSCALE
 40
1.0
  9
$PROXYGRAPHICS
 70
     1
  9
$MEASUREMENT
 70
     0
  9
$CELWEIGHT
370
    -1
  9
$ENDCAPS
280
     0
  9
$JOINSTYLE
280
     0
  9
$LWDISPLAY
290
     0
  9
$INSUNITS
 70
     0
  9
$HYPERLINKBASE
  1

  9
$STYLESHEET
  1
monochrome.ctb
  9
$XEDIT
290
     1
  9
$CEPSNTYPE
380
     0
  9
$PSTYLEMODE
290
     1
  9
$FINGERPRINTGUID
  2
{8AB8446A-90C4-4259-9B12-D9519644BDB7}
  9
$VERSIONGUID
  2
{7860EFC6-FCE5-452D-B1C5-F20790EFEBCC}
  9
$EXTNAMES
290
     1
  9
$PSVPSCALE
 40
0.0
  9
$OLESTARTUP
290
     0
  0
ENDSEC
  0
SECTION
  2
CLASSES
  0
CLASS
  1
ACDBDICTIONARYWDFLT
  2
AcDbDictionaryWithDefault
  3
ObjectDBX Classes
 90
        0
280
     0
281
     0
  0
CLASS
  1
DIMASSOC
  2
AcDbDimAssoc
  3
"AcDbDimAssoc|Product Desc:     AcDim ARX App For Dimension|Company:          Autodesk, Inc.|WEB Address:      www.autodesk.com"
 90
    32768
280
     0
281
     0
  0
CLASS
  1
DICTIONARYVAR
  2
AcDbDictionaryVar
  3
ObjectDBX Classes
 90
        0
280
     0
281
     0
  0
CLASS
  1
ACDBPLACEHOLDER
  2
AcDbPlaceHolder
  3
ObjectDBX Classes
 90
        0
280
     0
281
     0
  0
CLASS
  1
LAYOUT
  2
AcDbLayout
  3
ObjectDBX Classes
 90
        0
280
     0
281
     0
  0
ENDSEC
  0
SECTION
  2
TABLES
  0
TABLE
  2
VPORT
  5
C62
330
0
100
AcDbSymbolTable
 70
     2
  0
VPORT
  5
E49
330
C62
100
AcDbSymbolTableRecord
100
AcDbViewportTableRecord
  2
*Active
 70
     0
 10
0.0
 20
0.0
 11
1.0
 21
1.0
 12
162.5815294843845
 22
222.9878971277601
 13
0.0
 23
0.0
 14
1.0
 24
1.0
 15
0.0
 25
0.0
 16
0.0
 26
0.0
 36
1.0
 17
0.0
 27
0.0
 37
0.0
 40
355.8332114416348
 41
1.527848101265822
 42
50.0
 43
0.0
 44
0.0
 50
0.0
 51
0.0
 71
     0
 72
   100
 73
     1
 74
     1
 75
     0
 76
     0
 77
     0
 78
     0
281
     0
 65
     1
110
0.0
120
0.0
130
0.0
111
1.0
121
0.0
131
0.0
112
0.0
122
1.0
132
0.0
 79
     0
146
0.0
  0
ENDTAB
  0
TABLE
  2
LTYPE
  5
C5F
330
0
100
AcDbSymbolTable
 70
    15
  0
LTYPE
  5
C6D
330
C5F
100
AcDbSymbolTableRecord
100
AcDbLinetypeTableRecord
  2
ByBlock
 70
     0
  3

 72
    65
 73
     0
 40
0.0
  0
LTYPE
  5
C6E
330
C5F
100
AcDbSymbolTableRecord
100
AcDbLinetypeTableRecord
  2
ByLayer
 70
     0
  3

 72
    65
 73
     0
 40
0.0
  0
LTYPE
  5
C6F
330
C5F
100
AcDbSymbolTableRecord
100
AcDbLinetypeTableRecord
  2
CONTINUOUS
 70
     0
  3
実線
 72
    65
 73
     0
 40
0.0
  0
LTYPE
  5
C8D
330
C5F
100
AcDbSymbolTableRecord
100
AcDbLinetypeTableRecord
  2
DASHED
 70
     0
  3
破線
 72
    65
 73
     2
 40
1.875
 49
1.5
 74
     0
 49
-0.375
 74
     0
  0
LTYPE
  5
C8E
330
C5F
100
AcDbSymbolTableRecord
100
AcDbLinetypeTableRecord
  2
DASHED_SPACED
 70
     0
  3
跳び破線
 72
    65
 73
     2
 40
3.0
 49
1.5
 74
     0
 49
-1.5
 74
     0
  0
LTYPE
  5
C8F
330
C5F
100
AcDbSymbolTableRecord
100
AcDbLinetypeTableRecord
  2
LONG_DASHED_DOTTED
 70
     0
  3
一点長鎖線
 72
    65
 73
     4
 40
3.8125
 49
3.0
 74
     0
 49
-0.375
 74
     0
 49
0.0625
 74
     0
 49
-0.375
 74
     0
  0
LTYPE
  5
C90
330
C5F
100
AcDbSymbolTableRecord
100
AcDbLinetypeTableRecord
  2
LONG_DASHED_DOUBLE-DOTTED
 70
     0
  3
二点長鎖線
 72
    65
 73
     6
 40
4.25
 49
3.0
 74
     0
 49
-0.375
 74
     0
 49
0.0625
 74
     0
 49
-0.375
 74
     0
 49
0.0625
 74
     0
 49
-0.375
 74
     0
  0
LTYPE
  5
C91
330
C5F
100
AcDbSymbolTableRecord
100
AcDbLinetypeTableRecord
  2
LONG_DASHED_TRIPLICATE-DO5
 70
     0
  3
三点長鎖線
 72
    65
 73
     8
 40
4.6875
 49
3.0
 74
     0
 49
-0.375
 74
     0
 49
0.0625
 74
     0
 49
-0.375
 74
     0
 49
0.0625
 74
     0
 49
-0.375
 74
     0
 49
0.0625
 74
     0
 49
-0.375
 74
     0
  0
LTYPE
  5
C92
330
C5F
100
AcDbSymbolTableRecord
100
AcDbLinetypeTableRecord
  2
DOTTED
 70
     0
  3
点線
 72
    65
 73
     2
 40
0.4375
 49
0.0625
 74
     0
 49
-0.375
 74
     0
  0
LTYPE
  5
C93
330
C5F
100
AcDbSymbolTableRecord
100
AcDbLinetypeTableRecord
  2
CHAIN
 70
     0
  3
一点鎖線
 72
    65
 73
     4
 40
4.625
 49
3.0
 74
     0
 49
-0.375
 74
     0
 49
0.875
 74
     0
 49
-0.375
 74
     0
  0
LTYPE
  5
C94
330
C5F
100
AcDbSymbolTableRecord
100
AcDbLinetypeTableRecord
  2
CHAIN_DOUBLE_DASH
 70
     0
  3
二点鎖線
 72
    65
 73
     6
 40
5.875
 49
3.0
 74
     0
 49
-0.375
 74
     0
 49
0.875
 74
     0
 49
-0.375
 74
     0
 49
0.875
 74
     0
 49
-0.375
 74
     0
  0
LTYPE
  5
C95
330
C5F
100
AcDbSymbolTableRecord
100
AcDbLinetypeTableRecord
  2
DASHED_DOTTED
 70
     0
  3
一点短鎖線
 72
    65
 73
     4
 40
2.3125
 49
1.5
 74
     0
 49
-0.375
 74
     0
 49
0.0625
 74
     0
 49
-0.375
 74
     0
  0
LTYPE
  5
C96
330
C5F
100
AcDbSymbolTableRecord
100
AcDbLinetypeTableRecord
  2
DOUBLE-DASHED_DOTTED
 70
     0
  3
一点二短鎖線
 72
    65
 73
     6
 40
4.1875
 49
1.5
 74
     0
 49
-0.375
 74
     0
 49
1.5
 74
     0
 49
-0.375
 74
     0
 49
0.0625
 74
     0
 49
-0.375
 74
     0
  0
LTYPE
  5
C97
330
C5F
100
AcDbSymbolTableRecord
100
AcDbLinetypeTableRecord
  2
DASHED_DOUBLE-DOTTED
 70
     0
  3
二点短鎖線
 72
    65
 73
     6
 40
2.75
 49
1.5
 74
     0
 49
-0.375
 74
     0
 49
0.0625
 74
     0
 49
-0.375
 74
     0
 49
0.0625
 74
     0
 49
-0.375
 74
     0
  0
LTYPE
  5
C98
330
C5F
100
AcDbSymbolTableRecord
100
AcDbLinetypeTableRecord
  2
DOUBLE-DASHED_DOUBLE-DOT12
 70
     0
  3
二点二短鎖線
 72
    65
 73
     8
 40
4.625
 49
1.5
 74
     0
 49
-0.375
 74
     0
 49
1.5
 74
     0
 49
-0.375
 74
     0
 49
0.0625
 74
     0
 49
-0.375
 74
     0
 49
0.0625
 74
     0
 49
-0.375
 74
     0
  0
LTYPE
  5
C99
330
C5F
100
AcDbSymbolTableRecord
100
AcDbLinetypeTableRecord
  2
DASHED_TRIPLICATE-DOTTED
 70
     0
  3
三点短鎖線
 72
    65
 73
     8
 40
3.1875
 49
1.5
 74
     0
 49
-0.375
 74
     0
 49
0.0625
 74
     0
 49
-0.375
 74
     0
 49
0.0625
 74
     0
 49
-0.375
 74
     0
 49
0.0625
 74
     0
 49
-0.375
 74
     0
  0
LTYPE
  5
C9A
330
C5F
100
AcDbSymbolTableRecord
100
AcDbLinetypeTableRecord
  2
DOUBLE-DASHED_TRIPLICATE14
 70
     0
  3
三点二短鎖線
 72
    65
 73
    10
 40
5.0625
 49
1.5
 74
     0
 49
-0.375
 74
     0
 49
1.5
 74
     0
 49
-0.375
 74
     0
 49
0.0625
 74
     0
 49
-0.375
 74
     0
 49
0.0625
 74
     0
 49
-0.375
 74
     0
 49
0.0625
 74
     0
 49
-0.375
 74
     0
  0
ENDTAB
  0
TABLE
  2
LAYER
  5
C5C
330
0
100
AcDbSymbolTable
 70
    18
  0
LAYER
  5
C6A
330
C5C
100
AcDbSymbolTableRecord
100
AcDbLayerTableRecord
  2
0
 70
     0
 62
     7
  6
CONTINUOUS
370
    -3
390
C69
  0
LAYER
  5
C9D
330
C5C
100
AcDbSymbolTableRecord
100
AcDbLayerTableRecord
  2
シーエ0
 70
     0
 62
     7
  6
CONTINUOUS
370
    -3
390
C69
  0
LAYER
  5
C9E
330
C5C
100
AcDbSymbolTableRecord
100
AcDbLayerTableRecord
  2
シーエ1
 70
     0
 62
     7
  6
CONTINUOUS
370
    -3
390
C69
  0
LAYER
  5
C9F
330
C5C
100
AcDbSymbolTableRecord
100
AcDbLayerTableRecord
  2
シーエ2
 70
     0
 62
     7
  6
CONTINUOUS
370
    -3
390
C69
  0
LAYER
  5
CA0
330
C5C
100
AcDbSymbolTableRecord
100
AcDbLayerTableRecord
  2
シーエ3
 70
     0
 62
     7
  6
CONTINUOUS
370
    -3
390
C69
  0
LAYER
  5
CA1
330
C5C
100
AcDbSymbolTableRecord
100
AcDbLayerTableRecord
  2
シーエ4
 70
     0
 62
     7
  6
CONTINUOUS
370
    -3
390
C69
  0
LAYER
  5
CA2
330
C5C
100
AcDbSymbolTableRecord
100
AcDbLayerTableRecord
  2
シーエ5
 70
     0
 62
     7
  6
CONTINUOUS
370
    -3
390
C69
  0
LAYER
  5
CA3
330
C5C
100
AcDbSymbolTableRecord
100
AcDbLayerTableRecord
  2
シーエ6
 70
     0
 62
     7
  6
CONTINUOUS
370
    -3
390
C69
  0
LAYER
  5
CA4
330
C5C
100
AcDbSymbolTableRecord
100
AcDbLayerTableRecord
  2
シーエ7
 70
     0
 62
     7
  6
CONTINUOUS
370
    -3
390
C69
  0
LAYER
  5
CA5
330
C5C
100
AcDbSymbolTableRecord
100
AcDbLayerTableRecord
  2
シーエ8
 70
     0
 62
     7
  6
CONTINUOUS
370
    -3
390
C69
  0
LAYER
  5
CA6
330
C5C
100
AcDbSymbolTableRecord
100
AcDbLayerTableRecord
  2
シーエ9
 70
     0
 62
     7
  6
CONTINUOUS
370
    -3
390
C69
  0
LAYER
  5
CA7
330
C5C
100
AcDbSymbolTableRecord
100
AcDbLayerTableRecord
  2
シーエ10
 70
     0
 62
     7
  6
CONTINUOUS
370
    -3
390
C69
  0
LAYER
  5
CA8
330
C5C
100
AcDbSymbolTableRecord
100
AcDbLayerTableRecord
  2
シーエ11
 70
     0
 62
     7
  6
CONTINUOUS
370
    -3
390
C69
  0
LAYER
  5
CA9
330
C5C
100
AcDbSymbolTableRecord
100
AcDbLayerTableRecord
  2
シーエ12
 70
     0
 62
     7
  6
CONTINUOUS
370
    -3
390
C69
  0
LAYER
  5
CAA
330
C5C
100
AcDbSymbolTableRecord
100
AcDbLayerTableRecord
  2
シーエ13
 70
     0
 62
     7
  6
CONTINUOUS
370
    -3
390
C69
  0
LAYER
  5
CAB
330
C5C
100
AcDbSymbolTableRecord
100
AcDbLayerTableRecord
  2
シーエ14
 70
     0
 62
     7
  6
CONTINUOUS
370
    -3
390
C69
  0
LAYER
  5
CAC
330
C5C
100
AcDbSymbolTableRecord
100
AcDbLayerTableRecord
  2
シーエ15
 70
     0
 62
     7
  6
CONTINUOUS
370
    -3
390
C69
  0
LAYER
  5
CC5
330
C5C
100
AcDbSymbolTableRecord
100
AcDbLayerTableRecord
  2
Defpoints
 70
     0
 62
     7
  6
CONTINUOUS
290
     0
370
    -3
390
C69
  0
ENDTAB
  0
TABLE
  2
STYLE
  5
C5D
330
0
100
AcDbSymbolTable
 70
     3
  0
STYLE
  5
C6B
330
C5D
100
AcDbSymbolTableRecord
100
AcDbTextStyleTableRecord
  2
STANDARD
 70
     0
 40
0.0
 41
1.0
 50
0.0
 71
     0
 42
0.2
  3
TXT
  4

  0
STYLE
  5
C8B
330
C5D
100
AcDbSymbolTableRecord
100
AcDbTextStyleTableRecord
  2
KANJI
 70
     0
 40
0.0
 41
1.0
 50
0.0
 71
     0
 42
0.2
  3
TXT
  4
BIGFONT
  0
STYLE
  5
C8C
330
C5D
100
AcDbSymbolTableRecord
100
AcDbTextStyleTableRecord
  2
KANJIT
 70
     4
 40
0.0
 41
1.0
 50
0.0
 71
     0
 42
0.2
  3
TXT
  4
BIGFONT
  0
ENDTAB
  0
TABLE
  2
VIEW
  5
C60
330
0
100
AcDbSymbolTable
 70
     0
  0
ENDTAB
  0
TABLE
  2
UCS
  5
C61
330
0
100
AcDbSymbolTable
 70
     0
  0
ENDTAB
  0
TABLE
  2
APPID
  5
C63
330
0
100
AcDbSymbolTable
 70
     1
  0
APPID
  5
C6C
330
C63
100
AcDbSymbolTableRecord
100
AcDbRegAppTableRecord
  2
ACAD
 70
     0
  0
ENDTAB
  0
TABLE
  2
DIMSTYLE
  5
C64
330
0
100
AcDbSymbolTable
 70
     1
100
AcDbDimStyleTable
 71
     1
340
C9C
  0
DIMSTYLE
105
C9C
330
C64
100
AcDbSymbolTableRecord
100
AcDbDimStyleTableRecord
  2
STANDARD
 70
     0
 40
5.0
279
     2
340
C6B
  0
ENDTAB
  0
TABLE
  2
BLOCK_RECORD
  5
C5B
330
0
100
AcDbSymbolTable
 70
    13
  0
BLOCK_RECORD
  5
C7A
330
C5B
100
AcDbSymbolTableRecord
100
AcDbBlockTableRecord
  2
*Model_Space
340
C7D
  0
BLOCK_RECORD
  5
C76
330
C5B
100
AcDbSymbolTableRecord
100
AcDbBlockTableRecord
  2
*Paper_Space
340
C79
  0
BLOCK_RECORD
  5
C7E
330
C5B
100
AcDbSymbolTableRecord
100
AcDbBlockTableRecord
  2
BV_ATTRIBUTE1
340
0
102
{BLKREFS
331
7E1
102
}
  0
BLOCK_RECORD
  5
C7F
330
C5B
100
AcDbSymbolTableRecord
100
AcDbBlockTableRecord
  2
BV_ATTRIBUTE2
340
0
102
{BLKREFS
331
7E2
102
}
  0
BLOCK_RECORD
  5
C80
330
C5B
100
AcDbSymbolTableRecord
100
AcDbBlockTableRecord
  2
BV_ATTRIBUTE3
340
0
102
{BLKREFS
331
7E3
102
}
  0
BLOCK_RECORD
  5
C81
330
C5B
100
AcDbSymbolTableRecord
100
AcDbBlockTableRecord
  2
BV_ATTRIBUTE4
340
0
102
{BLKREFS
331
7E4
102
}
  0
BLOCK_RECORD
  5
C82
330
C5B
100
AcDbSymbolTableRecord
100
AcDbBlockTableRecord
  2
BV_ATTRIBUTE5
340
0
  0
BLOCK_RECORD
  5
C83
330
C5B
100
AcDbSymbolTableRecord
100
AcDbBlockTableRecord
  2
BV_ATTRIBUTE6
340
0
  0
BLOCK_RECORD
  5
C84
330
C5B
100
AcDbSymbolTableRecord
100
AcDbBlockTableRecord
  2
BV_ATTRIBUTE7
340
0
102
{BLKREFS
331
7E7
102
}
  0
BLOCK_RECORD
  5
C85
330
C5B
100
AcDbSymbolTableRecord
100
AcDbBlockTableRecord
  2
BV_ATTRIBUTE8
340
0
102
{BLKREFS
331
7E8
102
}
  0
BLOCK_RECORD
  5
C86
330
C5B
100
AcDbSymbolTableRecord
100
AcDbBlockTableRecord
  2
BV_ATTRIBUTE9
340
0
102
{BLKREFS
331
7E9
102
}
  0
BLOCK_RECORD
  5
C87
330
C5B
100
AcDbSymbolTableRecord
100
AcDbBlockTableRecord
  2
BV_ATTRIBUTE10
340
0
  0
BLOCK_RECORD
  5
C88
330
C5B
100
AcDbSymbolTableRecord
100
AcDbBlockTableRecord
  2
BV_ATTRIBUTE11
340
0
  0
BLOCK_RECORD
  5
C89
330
C5B
100
AcDbSymbolTableRecord
100
AcDbBlockTableRecord
  2
BV_ATTRIBUTE12
340
0
  0
BLOCK_RECORD
  5
C8A
330
C5B
100
AcDbSymbolTableRecord
100
AcDbBlockTableRecord
  2
BV_ATTRIBUTE13
340
0
102
{BLKREFS
331
7ED
102
}
  0
ENDTAB
  0
ENDSEC
  0
SECTION
  2
BLOCKS
  0
BLOCK
  5
CAF
330
C7A
100
AcDbEntity
  8
0
100
AcDbBlockBegin
  2
*Model_Space
 70
     0
 10
0.0
 20
0.0
 30
0.0
  3
*Model_Space
  1

  0
ENDBLK
  5
CB0
330
C7A
100
AcDbEntity
  8
0
100
AcDbBlockEnd
  0
BLOCK
  5
CAD
330
C76
100
AcDbEntity
 67
     1
  8
0
100
AcDbBlockBegin
  2
*Paper_Space
 70
     0
 10
0.0
 20
0.0
 30
0.0
  3
*Paper_Space
  1

  0
ENDBLK
  5
CAE
330
C76
100
AcDbEntity
 67
     1
  8
0
100
AcDbBlockEnd
  0
BLOCK
  5
7EE
330
C7E
100
AcDbEntity
  8
シーエ0
100
AcDbBlockBegin
  2
BV_ATTRIBUTE1
 70
     0
 10
0.0
 20
0.0
 30
0.0
  3
BV_ATTRIBUTE1
  1

  0
LINE
  5
7EF
330
C7E
100
AcDbEntity
  8
シーエ0
  6
Continuous
 62
     4
100
AcDbLine
 10
0.0
 20
0.0
 30
0.0
 11
-0.4999999999999716
 21
3.0
 31
0.0
  0
LINE
  5
7F0
330
C7E
100
AcDbEntity
  8
シーエ0
  6
Continuous
 62
     4
100
AcDbLine
 10
0.0
 20
0.0
 30
0.0
 11
0.4999999999999716
 21
3.0
 31
0.0
  0
LINE
  5
7F1
330
C7E
100
AcDbEntity
  8
シーエ0
  6
Continuous
 62
     4
100
AcDbLine
 10
0.0
 20
69.50000659839531
 30
0.0
 11
0.5000000000000178
 21
66.50000659839531
 31
0.0
  0
LINE
  5
7F2
330
C7E
100
AcDbEntity
  8
シーエ0
  6
Continuous
 62
     4
100
AcDbLine
 10
0.0
 20
69.50000659839531
 30
0.0
 11
-0.5000000000000178
 21
66.50000659839531
 31
0.0
  0
LINE
  5
7F3
330
C7E
100
AcDbEntity
  8
シーエ0
  6
Continuous
 62
     4
100
AcDbLine
 10
0.0
 20
69.50000659839531
 30
0.0
 11
0.0
 21
0.0
 31
0.0
  0
TEXT
  5
7F4
330
C7E
100
AcDbEntity
  8
シーエ0
 62
     7
100
AcDbText
 10
-0.9999999999999964
 20
31.75000329919766
 30
0.0
 40
3.0
  1
(70)
 50
90.0
 41
0.7058823529411766
  7
KANJI
 72
     5
 11
-0.9999999999999964
 21
37.75000329919766
 31
0.0
100
AcDbText
  0
ENDBLK
  5
7F5
330
C7E
100
AcDbEntity
  8
0
100
AcDbBlockEnd
  0
BLOCK
  5
7F6
330
C7F
100
AcDbEntity
  8
シーエ0
100
AcDbBlockBegin
  2
BV_ATTRIBUTE2
 70
     0
 10
0.0
 20
0.0
 30
0.0
  3
BV_ATTRIBUTE2
  1

  0
LINE
  5
7F7
330
C7F
100
AcDbEntity
  8
シーエ0
  6
Continuous
 62
     4
100
AcDbLine
 10
0.0
 20
0.0
 30
0.0
 11
-1.969615506024418
 21
-0.3472963553338673
 31
0.0
  0
LINE
  5
7F8
330
C7F
100
AcDbEntity
  8
シーエ0
  6
Continuous
 62
     4
100
AcDbLine
 10
0.0
 20
0.0
 30
0.0
 11
-1.969615506024418
 21
0.3472963553338673
 31
0.0
  0
LINE
  5
7F9
330
C7F
100
AcDbEntity
  8
シーエ0
  6
Continuous
 62
     4
100
AcDbLine
 10
-11.99999999999999
 20
0.0
 30
0.0
 11
-10.03038449397557
 21
0.3472963553338673
 31
0.0
  0
LINE
  5
7FA
330
C7F
100
AcDbEntity
  8
シーエ0
  6
Continuous
 62
     4
100
AcDbLine
 10
-11.99999999999999
 20
0.0
 30
0.0
 11
-10.03038449397557
 21
-0.3472963553338673
 31
0.0
  0
LINE
  5
7FB
330
C7F
100
AcDbEntity
  8
シーエ0
  6
Continuous
 62
     4
100
AcDbLine
 10
-11.99999999999999
 20
0.0
 30
0.0
 11
0.0
 21
0.0
 31
0.0
  0
TEXT
  5
7FC
330
C7F
100
AcDbEntity
  8
シーエ0
 62
     7
100
AcDbText
 10
-10.49999999999999
 20
1.0
 30
0.0
 40
3.0
  1
12六角
 41
0.8035714285714286
  7
KANJI
 72
     5
 11
-1.499999999999992
 21
1.0
 31
0.0
100
AcDbText
  0
ENDBLK
  5
7FD
330
C7F
100
AcDbEntity
  8
0
100
AcDbBlockEnd
  0
BLOCK
  5
7FE
330
C80
100
AcDbEntity
  8
シーエ0
100
AcDbBlockBegin
  2
BV_ATTRIBUTE3
 70
     0
 10
0.0
 20
0.0
 30
0.0
  3
BV_ATTRIBUTE3
  1

  0
LINE
  5
7FF
330
C80
100
AcDbEntity
  8
シーエ0
  6
Continuous
 62
     4
100
AcDbLine
 10
0.0
 20
0.0
 30
0.0
 11
-1.285575219373072
 21
1.532088886237943
 31
0.0
  0
LINE
  5
800
330
C80
100
AcDbEntity
  8
シーエ0
  6
Continuous
 62
     4
100
AcDbLine
 10
0.0
 20
0.0
 30
0.0
 11
-0.6840402866513245
 21
1.87938524157181
 31
0.0
  0
LINE
  5
801
330
C80
100
AcDbEntity
  8
シーエ0
  6
Continuous
 62
     4
100
AcDbLine
 10
-13.91586121809909
 20
10.25963010502457
 30
0.0
 11
-5.923400202921925
 21
10.25963010502457
 31
0.0
  0
LINE
  5
802
330
C80
100
AcDbEntity
  8
シーエ0
  6
Continuous
 62
     4
100
AcDbLine
 10
0.0
 20
0.0
 30
0.0
 11
-5.923400202921925
 21
10.25963010502457
 31
0.0
  0
TEXT
  5
803
330
C80
100
AcDbEntity
  8
シーエ0
 62
     7
100
AcDbText
 10
-12.91586121809909
 20
11.25963010502457
 30
0.0
 40
3.0
  1
G3/4
 41
0.5454545454545455
  7
KANJI
 72
     5
 11
-6.915861218099095
 21
11.25963010502457
 31
0.0
100
AcDbText
  0
ENDBLK
  5
804
330
C80
100
AcDbEntity
  8
0
100
AcDbBlockEnd
  0
BLOCK
  5
805
330
C81
100
AcDbEntity
  8
シーエ0
100
AcDbBlockBegin
  2
BV_ATTRIBUTE4
 70
     0
 10
0.0
 20
0.0
 30
0.0
  3
BV_ATTRIBUTE4
  1

  0
LINE
  5
806
330
C81
100
AcDbEntity
  8
シーエ0
  6
Continuous
 62
     4
100
AcDbLine
 10
0.0
 20
0.0
 30
0.0
 11
1.96961550602441
 21
0.3472963553338673
 31
0.0
  0
LINE
  5
807
330
C81
100
AcDbEntity
  8
シーエ0
  6
Continuous
 62
     4
100
AcDbLine
 10
0.0
 20
0.0
 30
0.0
 11
1.96961550602441
 21
-0.3472963553338673
 31
0.0
  0
LINE
  5
808
330
C81
100
AcDbEntity
  8
シーエ0
  6
Continuous
 62
     4
100
AcDbLine
 10
76.42000065983708
 20
0.0
 30
0.0
 11
74.45038515381267
 21
-0.3472963553338673
 31
0.0
  0
LINE
  5
809
330
C81
100
AcDbEntity
  8
シーエ0
  6
Continuous
 62
     4
100
AcDbLine
 10
76.42000065983708
 20
0.0
 30
0.0
 11
74.45038515381267
 21
0.3472963553338673
 31
0.0
  0
LINE
  5
80A
330
C81
100
AcDbEntity
  8
シーエ0
  6
Continuous
 62
     4
100
AcDbLine
 10
76.42000065983708
 20
0.0
 30
0.0
 11
0.0
 21
0.0
 31
0.0
  0
TEXT
  5
80B
330
C81
100
AcDbEntity
  8
シーエ0
 62
     7
100
AcDbText
 10
33.71000032991856
 20
1.0
 30
0.0
 40
3.0
  1
(76.5)
 41
0.6923076923076924
  7
KANJI
 72
     5
 11
42.71000032991856
 21
1.0
 31
0.0
100
AcDbText
  0
ENDBLK
  5
80C
330
C81
100
AcDbEntity
  8
0
100
AcDbBlockEnd
  0
BLOCK
  5
80D
330
C82
100
AcDbEntity
  8
シーエ0
100
AcDbBlockBegin
  2
BV_ATTRIBUTE5
 70
     0
 10
0.0
 20
0.0
 30
0.0
  3
BV_ATTRIBUTE5
  1

  0
LINE
  5
80E
330
C82
100
AcDbEntity
  8
シーエ0
  6
Continuous
 62
     4
100
AcDbLine
 10
0.0
 20
0.0
 30
0.0
 11
0.6840402866513387
 21
1.87938524157181
 31
0.0
  0
LINE
  5
80F
330
C82
100
AcDbEntity
  8
シーエ0
  6
Continuous
 62
     4
100
AcDbLine
 10
0.0
 20
0.0
 30
0.0
 11
1.285575219373072
 21
1.532088886237943
 31
0.0
  0
LINE
  5
810
330
C82
100
AcDbEntity
  8
シーエ0
  6
Continuous
 62
     4
100
AcDbLine
 10
20.24373376202385
 20
20.14473908454576
 30
0.0
 11
11.63057053321728
 21
20.14473908454576
 31
0.0
  0
LINE
  5
811
330
C82
100
AcDbEntity
  8
シーエ0
  6
Continuous
 62
     4
100
AcDbLine
 10
0.0
 20
0.0
 30
0.0
 11
11.63057053321728
 21
20.14473908454576
 31
0.0
  0
TEXT
  5
812
330
C82
100
AcDbEntity
  8
シーエ0
 62
     7
100
AcDbText
 10
13.24373376202385
 20
21.14473908454576
 30
0.0
 40
3.0
  1
接着
 41
0.9375000000000001
  7
KANJI
 72
     5
 11
19.24373376202385
 21
21.14473908454576
 31
0.0
100
AcDbText
  0
ENDBLK
  5
813
330
C82
100
AcDbEntity
  8
0
100
AcDbBlockEnd
  0
BLOCK
  5
814
330
C83
100
AcDbEntity
  8
シーエ0
100
AcDbBlockBegin
  2
BV_ATTRIBUTE6
 70
     0
 10
0.0
 20
0.0
 30
0.0
  3
BV_ATTRIBUTE6
  1

  0
LINE
  5
815
330
C83
100
AcDbEntity
  8
シーエ0
  6
Continuous
 62
     4
100
AcDbLine
 10
0.0
 20
0.0
 30
0.0
 11
-0.3472963553338673
 21
1.96961550602441
 31
0.0
  0
LINE
  5
816
330
C83
100
AcDbEntity
  8
シーエ0
  6
Continuous
 62
     4
100
AcDbLine
 10
0.0
 20
0.0
 30
0.0
 11
0.3472963553338673
 21
1.96961550602441
 31
0.0
  0
LINE
  5
817
330
C83
100
AcDbEntity
  8
シーエ0
  6
Continuous
 62
     4
100
AcDbLine
 10
0.0
 20
11.99999010240716
 30
0.0
 11
0.3472963553338673
 21
10.03037459638275
 31
0.0
  0
LINE
  5
818
330
C83
100
AcDbEntity
  8
シーエ0
  6
Continuous
 62
     4
100
AcDbLine
 10
0.0
 20
11.99999010240716
 30
0.0
 11
-0.3472963553338673
 21
10.03037459638275
 31
0.0
  0
LINE
  5
819
330
C83
100
AcDbEntity
  8
シーエ0
  6
Continuous
 62
     4
100
AcDbLine
 10
0.0
 20
11.99999010240716
 30
0.0
 11
0.0
 21
0.0
 31
0.0
  0
TEXT
  5
81A
330
C83
100
AcDbEntity
  8
シーエ0
 62
     7
100
AcDbText
 10
-1.0
 20
2.999995051203597
 30
0.0
 40
3.0
  1
φ12
 50
90.0
 41
0.7894736842105262
  7
KANJI
 72
     5
 11
-1.0
 21
8.999995051203597
 31
0.0
100
AcDbText
  0
ENDBLK
  5
81B
330
C83
100
AcDbEntity
  8
0
100
AcDbBlockEnd
  0
BLOCK
  5
81C
330
C84
100
AcDbEntity
  8
シーエ0
100
AcDbBlockBegin
  2
BV_ATTRIBUTE7
 70
     0
 10
0.0
 20
0.0
 30
0.0
  3
BV_ATTRIBUTE7
  1

  0
LINE
  5
81D
330
C84
100
AcDbEntity
  8
シーエ0
  6
Continuous
 62
     4
100
AcDbLine
 10
0.0
 20
0.0
 30
0.0
 11
-0.3472963553338673
 21
1.96961550602441
 31
0.0
  0
LINE
  5
81E
330
C84
100
AcDbEntity
  8
シーエ0
  6
Continuous
 62
     4
100
AcDbLine
 10
0.0
 20
0.0
 30
0.0
 11
0.3472963553338673
 21
1.96961550602441
 31
0.0
  0
LINE
  5
81F
330
C84
100
AcDbEntity
  8
シーエ0
  6
Continuous
 62
     4
100
AcDbLine
 10
0.0
 20
63.99999999999977
 30
0.0
 11
0.3472963553338673
 21
62.03038449397536
 31
0.0
  0
LINE
  5
820
330
C84
100
AcDbEntity
  8
シーエ0
  6
Continuous
 62
     4
100
AcDbLine
 10
0.0
 20
63.99999999999977
 30
0.0
 11
-0.3472963553338673
 21
62.03038449397536
 31
0.0
  0
LINE
  5
821
330
C84
100
AcDbEntity
  8
シーエ0
  6
Continuous
 62
     4
100
AcDbLine
 10
0.0
 20
63.99999999999977
 30
0.0
 11
0.0
 21
0.0
 31
0.0
  0
TEXT
  5
822
330
C84
100
AcDbEntity
  8
シーエ0
 62
     7
100
AcDbText
 10
-1.0
 20
28.99999999999989
 30
0.0
 40
3.0
  1
φ64
 50
90.0
 41
0.6976744186046511
  7
KANJI
 72
     5
 11
-1.0
 21
34.99999999999989
 31
0.0
100
AcDbText
  0
ENDBLK
  5
823
330
C84
100
AcDbEntity
  8
0
100
AcDbBlockEnd
  0
BLOCK
  5
824
330
C85
100
AcDbEntity
  8
シーエ0
100
AcDbBlockBegin
  2
BV_ATTRIBUTE8
 70
     0
 10
0.0
 20
0.0
 30
0.0
  3
BV_ATTRIBUTE8
  1

  0
LINE
  5
825
330
C85
100
AcDbEntity
  8
シーエ0
  6
Continuous
 62
     4
100
AcDbLine
 10
0.0
 20
0.0
 30
0.0
 11
-1.96961550602441
 21
-0.3472963553338673
 31
0.0
  0
LINE
  5
826
330
C85
100
AcDbEntity
  8
シーエ0
  6
Continuous
 62
     4
100
AcDbLine
 10
0.0
 20
0.0
 30
0.0
 11
-1.96961550602441
 21
0.3472963553338673
 31
0.0
  0
LINE
  5
827
330
C85
100
AcDbEntity
  8
シーエ0
  6
Continuous
 62
     4
100
AcDbLine
 10
-14.9999999999998
 20
0.0
 30
0.0
 11
-13.03038449397539
 21
0.3472963553338673
 31
0.0
  0
LINE
  5
828
330
C85
100
AcDbEntity
  8
シーエ0
  6
Continuous
 62
     4
100
AcDbLine
 10
-14.9999999999998
 20
0.0
 30
0.0
 11
-13.03038449397539
 21
-0.3472963553338673
 31
0.0
  0
LINE
  5
829
330
C85
100
AcDbEntity
  8
シーエ0
  6
Continuous
 62
     4
100
AcDbLine
 10
-14.9999999999998
 20
0.0
 30
0.0
 11
0.0
 21
0.0
 31
0.0
  0
TEXT
  5
82A
330
C85
100
AcDbEntity
  8
シーエ0
 62
     7
100
AcDbText
 10
-8.999999999999914
 20
1.0
 30
0.0
 40
3.0
  1
15
 41
0.75
  7
KANJI
 72
     5
 11
-5.999999999999914
 21
1.0
 31
0.0
100
AcDbText
  0
ENDBLK
  5
82B
330
C85
100
AcDbEntity
  8
0
100
AcDbBlockEnd
  0
BLOCK
  5
82C
330
C86
100
AcDbEntity
  8
シーエ0
100
AcDbBlockBegin
  2
BV_ATTRIBUTE9
 70
     0
 10
0.0
 20
0.0
 30
0.0
  3
BV_ATTRIBUTE9
  1

  0
LINE
  5
82D
330
C86
100
AcDbEntity
  8
シーエ0
  6
Continuous
 62
     4
100
AcDbLine
 10
0.0
 20
0.0
 30
0.0
 11
1.96961550602441
 21
0.3472963553338673
 31
0.0
  0
LINE
  5
82E
330
C86
100
AcDbEntity
  8
シーエ0
  6
Continuous
 62
     4
100
AcDbLine
 10
0.0
 20
0.0
 30
0.0
 11
1.96961550602441
 21
-0.3472963553338673
 31
0.0
  0
LINE
  5
82F
330
C86
100
AcDbEntity
  8
シーエ0
  6
Continuous
 62
     4
100
AcDbLine
 10
10.99999999999713
 20
0.0
 30
0.0
 11
9.030384493972718
 21
-0.3472963553338673
 31
0.0
  0
LINE
  5
830
330
C86
100
AcDbEntity
  8
シーエ0
  6
Continuous
 62
     4
100
AcDbLine
 10
10.99999999999713
 20
0.0
 30
0.0
 11
9.030384493972718
 21
0.3472963553338673
 31
0.0
  0
LINE
  5
831
330
C86
100
AcDbEntity
  8
シーエ0
  6
Continuous
 62
     4
100
AcDbLine
 10
10.99999999999713
 20
0.0
 30
0.0
 11
0.0
 21
0.0
 31
0.0
  0
TEXT
  5
832
330
C86
100
AcDbEntity
  8
シーエ0
 62
     7
100
AcDbText
 10
3.999999999998578
 20
1.0
 30
0.0
 40
3.0
  1
11
  7
KANJI
 72
     5
 11
6.999999999998578
 21
1.0
 31
0.0
100
AcDbText
  0
ENDBLK
  5
833
330
C86
100
AcDbEntity
  8
0
100
AcDbBlockEnd
  0
BLOCK
  5
834
330
C87
100
AcDbEntity
  8
シーエ0
100
AcDbBlockBegin
  2
BV_ATTRIBUTE10
 70
     0
 10
0.0
 20
0.0
 30
0.0
  3
BV_ATTRIBUTE10
  1

  0
LINE
  5
835
330
C87
100
AcDbEntity
  8
シーエ0
  6
Continuous
 62
     4
100
AcDbLine
 10
0.0
 20
0.0
 30
0.0
 11
1.285575219373072
 21
-1.532088886237943
 31
0.0
  0
LINE
  5
836
330
C87
100
AcDbEntity
  8
シーエ0
  6
Continuous
 62
     4
100
AcDbLine
 10
0.0
 20
0.0
 30
0.0
 11
0.6840402866513387
 21
-1.87938524157181
 31
0.0
  0
LINE
  5
837
330
C87
100
AcDbEntity
  8
シーエ0
  6
Continuous
 62
     4
100
AcDbLine
 10
21.2213246436182
 20
-18.45732492051735
 30
0.0
 11
10.65634151138107
 21
-18.45732492051735
 31
0.0
  0
LINE
  5
838
330
C87
100
AcDbEntity
  8
シーエ0
  6
Continuous
 62
     4
100
AcDbLine
 10
0.0
 20
0.0
 30
0.0
 11
10.65634151138107
 21
-18.45732492051735
 31
0.0
  0
TEXT
  5
839
330
C87
100
AcDbEntity
  8
シーエ0
 62
     7
100
AcDbText
 10
12.7213246436182
 20
-17.45732492051735
 30
0.0
 40
3.0
  1
PJ1/2
 41
0.5769230769230769
  7
KANJI
 72
     5
 11
20.22132464361821
 21
-17.45732492051735
 31
0.0
100
AcDbText
  0
ENDBLK
  5
83A
330
C87
100
AcDbEntity
  8
0
100
AcDbBlockEnd
  0
BLOCK
  5
83B
330
C88
100
AcDbEntity
  8
シーエ0
100
AcDbBlockBegin
  2
BV_ATTRIBUTE11
 70
     0
 10
0.0
 20
0.0
 30
0.0
  3
BV_ATTRIBUTE11
  1

  0
LINE
  5
83C
330
C88
100
AcDbEntity
  8
シーエ0
  6
Continuous
 62
     4
100
AcDbLine
 10
0.0
 20
0.0
 30
0.0
 11
1.999999999996703
 21
0.0
 31
0.0
  0
TEXT
  5
83D
330
C88
100
AcDbEntity
  8
シーエ0
 62
     7
100
AcDbText
 10
0.2499999999983515
 20
1.0
 30
0.0
 40
3.0
  1
2
 41
0.75
  7
KANJI
 72
     5
 11
1.749999999998351
 21
1.0
 31
0.0
100
AcDbText
  0
ENDBLK
  5
83E
330
C88
100
AcDbEntity
  8
0
100
AcDbBlockEnd
  0
BLOCK
  5
83F
330
C89
100
AcDbEntity
  8
シーエ0
100
AcDbBlockBegin
  2
BV_ATTRIBUTE12
 70
     0
 10
0.0
 20
0.0
 30
0.0
  3
BV_ATTRIBUTE12
  1

  0
LINE
  5
840
330
C89
100
AcDbEntity
  8
シーエ0
  6
Continuous
 62
     4
100
AcDbLine
 10
0.0
 20
0.0
 30
0.0
 11
-1.96961550602441
 21
-0.3472963553338531
 31
0.0
  0
LINE
  5
841
330
C89
100
AcDbEntity
  8
シーエ0
  6
Continuous
 62
     4
100
AcDbLine
 10
0.0
 20
0.0
 30
0.0
 11
-1.96961550602441
 21
0.3472963553338673
 31
0.0
  0
LINE
  5
842
330
C89
100
AcDbEntity
  8
シーエ0
  6
Continuous
 62
     4
100
AcDbLine
 10
-10.00000000000014
 20
0.0
 30
0.0
 11
-8.030384493975731
 21
0.3472963553338673
 31
0.0
  0
LINE
  5
843
330
C89
100
AcDbEntity
  8
シーエ0
  6
Continuous
 62
     4
100
AcDbLine
 10
-10.00000000000014
 20
0.0
 30
0.0
 11
-8.030384493975731
 21
-0.3472963553338673
 31
0.0
  0
LINE
  5
844
330
C89
100
AcDbEntity
  8
シーエ0
  6
Continuous
 62
     4
100
AcDbLine
 10
-10.00000000000014
 20
0.0
 30
0.0
 11
0.0
 21
0.0
 31
0.0
  0
TEXT
  5
845
330
C89
100
AcDbEntity
  8
シーエ0
 62
     7
100
AcDbText
 10
-6.500000000000085
 20
1.0
 30
0.0
 40
3.0
  1
10
 41
0.8571428571428571
  7
KANJI
 72
     5
 11
-3.500000000000085
 21
1.0
 31
0.0
100
AcDbText
  0
ENDBLK
  5
846
330
C89
100
AcDbEntity
  8
0
100
AcDbBlockEnd
  0
BLOCK
  5
847
330
C8A
100
AcDbEntity
  8
シーエ0
100
AcDbBlockBegin
  2
BV_ATTRIBUTE13
 70
     0
 10
0.0
 20
0.0
 30
0.0
  3
BV_ATTRIBUTE13
  1

  0
LINE
  5
848
330
C8A
100
AcDbEntity
  8
シーエ0
  6
Continuous
 62
     4
100
AcDbLine
 10
0.0
 20
0.0
 30
0.0
 11
-1.96961550602441
 21
-0.3472963553338673
 31
0.0
  0
LINE
  5
849
330
C8A
100
AcDbEntity
  8
シーエ0
  6
Continuous
 62
     4
100
AcDbLine
 10
0.0
 20
0.0
 30
0.0
 11
-1.96961550602441
 21
0.3472963553338673
 31
0.0
  0
LINE
  5
84A
330
C8A
100
AcDbEntity
  8
シーエ0
  6
Continuous
 62
     4
100
AcDbLine
 10
-9.338002797720946
 20
0.0
 30
0.0
 11
-7.368387291696535
 21
0.3472963553338673
 31
0.0
  0
LINE
  5
84B
330
C8A
100
AcDbEntity
  8
シーエ0
  6
Continuous
 62
     4
100
AcDbLine
 10
-9.338002797720946
 20
0.0
 30
0.0
 11
-7.368387291696535
 21
-0.3472963553338673
 31
0.0
  0
LINE
  5
84C
330
C8A
100
AcDbEntity
  8
シーエ0
  6
Continuous
 62
     4
100
AcDbLine
 10
-9.338002797720946
 20
0.0
 30
0.0
 11
0.0
 21
0.0
 31
0.0
  0
TEXT
  5
84D
330
C8A
100
AcDbEntity
  8
シーエ0
 62
     7
100
AcDbText
 10
-6.919001398860473
 20
1.0
 30
0.0
 40
3.0
  1
(9)
 41
0.75
  7
KANJI
 72
     5
 11
-2.419001398860473
 21
1.0
 31
0.0
100
AcDbText
  0
ENDBLK
  5
84E
330
C8A
100
AcDbEntity
  8
0
100
AcDbBlockEnd
  0
ENDSEC
  0
SECTION
  2
ENTITIES
  0
LINE
  5
D0
330
C7A
100
AcDbEntity
  8
シーエ0
  6
Continuous
 62
     0
100
AcDbLine
 10
45.53426928797907
 20
161.3500669644753
 30
0.0
 11
43.65898385700279
 21
226.4894419678139
 31
0.0
  0
LINE
  5
D1
330
C7A
100
AcDbEntity
  8
シーエ0
  6
Continuous
 62
     0
100
AcDbLine
 10
66.52556739009416
 20
161.3500669644753
 30
0.0
 11
68.40085282107044
 21
226.4894419678141
 31
0.0
  0
LINE
  5
D2
330
C7A
100
AcDbEntity
  8
シーエ0
  6
CHAIN
 62
     0
100
AcDbLine
 10
71.8498706915876
 20
231.1522308640895
 30
0.0
 11
40.20996598648562
 21
231.1522308640895
 31
0.0
  0
LINE
  5
D3
330
C7A
100
AcDbEntity
  8
シーエ0
  6
CHAIN
 62
     0
100
AcDbLine
 10
92.40636685048698
 20
161.6522242656941
 30
0.0
 11
19.65346982758623
 21
161.6522242656941
 31
0.0
  0
LINE
  5
D4
330
C7A
100
AcDbEntity
  8
シーエ0
  6
Continuous
 62
     0
100
AcDbLine
 10
62.19432357809028
 20
153.1522209664965
 30
0.0
 11
49.86551309998294
 21
153.1522209664965
 31
0.0
  0
LINE
  5
D5
330
C7A
100
AcDbEntity
  8
シーエ0
  6
Continuous
 62
     0
100
AcDbLine
 10
62.19432357809035
 20
170.1522275648917
 30
0.0
 11
49.86551309998286
 21
170.1522275648917
 31
0.0
  0
LINE
  5
D6
330
C7A
100
AcDbEntity
  8
シーエ0
  6
Continuous
 62
     0
100
AcDbLine
 10
59.95899207476494
 20
160.902234163287
 30
0.0
 11
52.10084460330828
 21
160.902234163287
 31
0.0
  0
LINE
  5
D7
330
C7A
100
AcDbEntity
  8
シーエ0
  6
Continuous
 62
     0
100
AcDbLine
 10
59.95898569120068
 20
162.4022478097627
 30
0.0
 11
52.10085098687255
 21
162.4022478097627
 31
0.0
  0
LINE
  5
E3
330
C7A
100
AcDbEntity
  8
シーエ0
  6
Continuous
 62
     0
100
AcDbLine
 10
39.20996598648563
 20
231.1522308640895
 30
0.0
 11
18.65346982758623
 21
231.1522308640895
 31
0.0
  0
LINE
  5
E4
330
C7A
100
AcDbEntity
  8
シーエ0
  6
CHAIN
 62
     0
100
AcDbLine
 10
56.02991833903661
 20
246.9721832166404
 30
0.0
 11
56.02991833903661
 21
125.2757757542438
 31
0.0
  0
LINE
  5
E5
330
C7A
100
AcDbEntity
  8
シーエ0
  6
Continuous
 62
     0
100
AcDbLine
 10
62.0299183390366
 20
227.6881292489517
 30
0.0
 11
62.0299183390366
 21
234.6163324792272
 31
0.0
  0
LINE
  5
E6
330
C7A
100
AcDbEntity
  8
シーエ0
  6
Continuous
 62
     0
100
AcDbLine
 10
62.0299183390366
 20
234.6163324792272
 30
0.0
 11
56.02991833903661
 21
238.080434094365
 31
0.0
  0
LINE
  5
E7
330
C7A
100
AcDbEntity
  8
シーエ0
  6
Continuous
 62
     0
100
AcDbLine
 10
56.02991833903661
 20
238.080434094365
 30
0.0
 11
50.02991833903661
 21
234.6163324792272
 31
0.0
  0
LINE
  5
E8
330
C7A
100
AcDbEntity
  8
シーエ0
  6
Continuous
 62
     0
100
AcDbLine
 10
50.02991833903661
 20
234.6163324792272
 30
0.0
 11
50.0299183390366
 21
227.6881292489517
 31
0.0
  0
LINE
  5
E9
330
C7A
100
AcDbEntity
  8
シーエ0
  6
Continuous
 62
     0
100
AcDbLine
 10
50.0299183390366
 20
227.6881292489517
 30
0.0
 11
56.02991833903661
 21
224.224027633814
 31
0.0
  0
LINE
  5
EA
330
C7A
100
AcDbEntity
  8
シーエ0
  6
Continuous
 62
     0
100
AcDbLine
 10
56.02991833903661
 20
224.224027633814
 30
0.0
 11
62.0299183390366
 21
227.6881292489517
 31
0.0
  0
LINE
  5
F2
330
C7A
100
AcDbEntity
  8
シーエ0
  6
Continuous
 62
     0
100
AcDbLine
 10
62.0299183390366
 20
235.6163324792273
 30
0.0
 11
62.0299183390366
 21
254.4703609691143
 31
0.0
  0
LINE
  5
F3
330
C7A
100
AcDbEntity
  8
シーエ0
  6
Continuous
 62
     0
100
AcDbLine
 10
50.02991833903661
 20
235.6163324792272
 30
0.0
 11
50.02991833903661
 21
254.4703609691143
 31
0.0
  0
LINE
  5
F6
330
C7A
100
AcDbEntity
  8
シーエ0
  6
Continuous
 62
     0
100
AcDbLine
 10
103.5289904339782
 20
172.1297171394272
 30
0.0
 11
114.8806451940368
 21
172.1297171394272
 31
0.0
  0
LINE
  5
F7
330
C7A
100
AcDbEntity
  8
シーエ0
  6
Continuous
 62
     0
100
AcDbLine
 10
132.6165563829356
 20
176.8729405874846
 30
0.0
 11
128.9862925131087
 21
241.7639350976198
 31
0.0
  0
LINE
  5
F8
330
C7A
100
AcDbEntity
  8
シーエ0
  6
Continuous
 62
     0
100
AcDbLine
 10
114.8806451940368
 20
215.6522292144906
 30
0.0
 11
114.8806451940368
 21
172.1297171394272
 31
0.0
  0
LINE
  5
144
330
C7A
100
AcDbEntity
  8
シーエ0
  6
Continuous
 62
     0
100
AcDbLine
 10
112.8806447816371
 20
172.1297171394272
 30
0.0
 11
112.8806447816371
 21
169.6522259152929
 31
0.0
  0
LINE
  5
145
330
C7A
100
AcDbEntity
  8
シーエ0
  6
Continuous
 62
     0
100
AcDbLine
 10
112.8806447816371
 20
153.6522226160953
 30
0.0
 11
112.8806447816371
 21
151.1522267400923
 31
0.0
  0
LINE
  5
149
330
C7A
100
AcDbEntity
  8
シーエ0
  6
Continuous
 62
     0
100
AcDbLine
 10
163.8806398328406
 20
170.990219640219
 30
0.0
 11
163.8806398328406
 21
167.6522193168976
 31
0.0
  0
LINE
  5
14B
330
C7A
100
AcDbEntity
  8
シーエ0
  6
Continuous
 62
     0
100
AcDbLine
 10
163.8806398328406
 20
167.6522193168976
 30
0.0
 11
163.8806398328406
 21
152.3367335430378
 31
0.0
  0
LINE
  5
151
330
C7A
100
AcDbEntity
  8
シーエ0
  6
Continuous
 62
     0
100
AcDbLine
 10
140.8112083217821
 20
161.6300124347347
 30
0.0
 11
140.8161457569124
 21
161.7361672900313
 31
0.0
  0
LINE
  5
153
330
C7A
100
AcDbEntity
  8
シーエ0
  6
Continuous
 62
     0
100
AcDbLine
 10
98.9133596253872
 20
160.902234163287
 30
0.0
 11
100.8806051912656
 21
160.902234163287
 31
0.0
  0
LINE
  5
154
330
C7A
100
AcDbEntity
  8
シーエ0
  6
Continuous
 62
     0
100
AcDbLine
 10
99.88065138003248
 20
157.6522110689035
 30
0.0
 11
100.8806051912656
 21
157.6522110689035
 31
0.0
  0
LINE
  5
155
330
C7A
100
AcDbEntity
  8
シーエ0
  6
Continuous
 62
     0
100
AcDbLine
 10
100.8806051912656
 20
166.1122280927633
 30
0.0
 11
101.4206178601845
 21
166.6522407616823
 31
0.0
  0
LINE
  5
156
330
C7A
100
AcDbEntity
  8
シーエ0
  6
Continuous
 62
     0
100
AcDbLine
 10
100.8806051912656
 20
157.1922204386249
 30
0.0
 11
101.4206178601845
 21
156.6522077697059
 31
0.0
  0
LINE
  5
159
330
C7A
100
AcDbEntity
  8
シーエ0
  6
Continuous
 62
     0
100
AcDbLine
 10
101.4206178601845
 20
156.6522077697059
 30
0.0
 11
102.8806117896608
 21
156.6522077697059
 31
0.0
  0
LINE
  5
15B
330
C7A
100
AcDbEntity
  8
シーエ0
  6
Continuous
 62
     0
100
AcDbLine
 10
101.4206178601845
 20
166.6522407616823
 30
0.0
 11
102.8806117896608
 21
166.6522407616823
 31
0.0
  0
LINE
  5
15C
330
C7A
100
AcDbEntity
  8
シーエ0
  6
Continuous
 62
     0
100
AcDbLine
 10
100.8806051912656
 20
157.6522110689035
 30
0.0
 11
100.8806051912656
 21
157.1922204386249
 31
0.0
  0
LINE
  5
16F
330
C7A
100
AcDbEntity
  8
シーエ0
  6
DOTTED
 62
     0
100
AcDbLine
 10
102.8806117896608
 20
151.6522160177
 30
0.0
 11
102.8806117896608
 21
153.1522209664965
 31
0.0
  0
LINE
  5
171
330
C7A
100
AcDbEntity
  8
シーエ0
  6
Continuous
 62
     0
100
AcDbLine
 10
112.8806447816372
 20
161.6522242656941
 30
0.0
 11
112.8806447816372
 21
151.1522143681012
 31
0.0
  0
LINE
  5
177
330
C7A
100
AcDbEntity
  8
シーエ0
  6
Continuous
 62
     0
100
AcDbLine
 10
98.91405245689059
 20
162.4022143681012
 30
0.0
 11
100.8806051912656
 21
162.4022143681012
 31
0.0
  0
LINE
  5
178
330
C7A
100
AcDbEntity
  8
シーエ0
  6
Continuous
 62
     0
100
AcDbLine
 10
100.8806051912656
 20
162.4022143681012
 30
0.0
 11
100.8806051912656
 21
160.902234163287
 31
0.0
  0
LINE
  5
179
330
C7A
100
AcDbEntity
  8
シーエ0
  6
Continuous
 62
     0
100
AcDbLine
 10
100.8806051912656
 20
166.1122280927633
 30
0.0
 11
100.8806051912656
 21
165.6522374624846
 31
0.0
  0
LINE
  5
17A
330
C7A
100
AcDbEntity
  8
シーエ0
  6
Continuous
 62
     0
100
AcDbLine
 10
99.88065138003248
 20
165.6522374624846
 30
0.0
 11
100.8806051912656
 21
165.6522374624846
 31
0.0
  0
LINE
  5
181
330
C7A
100
AcDbEntity
  8
シーエ0
  6
Continuous
 62
     0
100
AcDbLine
 10
112.8806447816372
 20
172.152234163287
 30
0.0
 11
112.8806447816371
 21
161.6522242656941
 31
0.0
  0
LINE
  5
18A
330
C7A
100
AcDbEntity
  8
シーエ0
  6
Continuous
 62
     0
100
AcDbLine
 10
102.8806117896608
 20
170.1522275648917
 30
0.0
 11
102.8806117896608
 21
161.6522242656941
 31
0.0
  0
LINE
  5
18D
330
C7A
100
AcDbEntity
  8
シーエ0
  6
Continuous
 62
     0
100
AcDbLine
 10
102.8806117896608
 20
161.6522242656941
 30
0.0
 11
102.8806117896608
 21
153.1522209664965
 31
0.0
  0
LINE
  5
19A
330
C7A
100
AcDbEntity
  8
シーエ0
  6
DOTTED
 62
     0
100
AcDbLine
 10
102.8806117896608
 20
171.6522325136882
 30
0.0
 11
102.8806117896608
 21
170.1522275648917
 31
0.0
  0
LINE
  5
1BA
330
C7A
100
AcDbEntity
  8
シーエ0
  6
Continuous
 62
     0
100
AcDbLine
 10
126.9894036564787
 20
243.6522226160953
 30
0.0
 11
108.8806398328407
 21
243.6522226160953
 31
0.0
  0
LINE
  5
1BB
330
C7A
100
AcDbEntity
  8
シーエ0
  6
Continuous
 62
     0
100
AcDbLine
 10
111.880647668435
 20
218.6522391120835
 30
0.0
 11
108.8806398328407
 21
218.6522391120842
 31
0.0
  0
LINE
  5
1D4
330
C7A
100
AcDbEntity
  8
シーエ0
  6
Continuous
 62
     0
100
AcDbLine
 10
108.4606398328392
 20
243.652222616095
 30
0.0
 11
107.7401315848445
 21
244.3727308640895
 31
0.0
  0
LINE
  5
1D7
330
C7A
100
AcDbEntity
  8
シーエ0
  6
Continuous
 62
     0
100
AcDbLine
 10
88.62263917300328
 20
244.3727308640896
 30
0.0
 11
107.7401315848445
 21
244.3727308640895
 31
0.0
  0
LINE
  5
1D8
330
C7A
100
AcDbEntity
  8
シーエ0
  6
Continuous
 62
     0
100
AcDbLine
 10
87.46063917300348
 20
243.2107308640893
 30
0.0
 11
88.62263917300328
 21
244.3727308640896
 31
0.0
  0
LINE
  5
1D9
330
C7A
100
AcDbEntity
  8
シーエ0
  6
Continuous
 62
     0
100
AcDbLine
 10
102.4606391730056
 20
219.093730864089
 30
0.0
 11
104.4732822113992
 21
217.9317308640891
 31
0.0
  0
LINE
  5
1DA
330
C7A
100
AcDbEntity
  8
シーエ0
  6
Continuous
 62
     0
100
AcDbLine
 10
87.46063917300318
 20
219.0937308640879
 30
0.0
 11
88.62263917300328
 21
217.9317308640892
 31
0.0
  0
LINE
  5
1DB
330
C7A
100
AcDbEntity
  8
シーエ0
  6
Continuous
 62
     0
100
AcDbLine
 10
108.4606398328385
 20
241.1522308640898
 30
0.0
 11
108.4606398328392
 21
243.652222616095
 31
0.0
  0
LINE
  5
1DD
330
C7A
100
AcDbEntity
  8
シーエ0
  6
Continuous
 62
     0
100
AcDbLine
 10
108.4606398328385
 20
241.1522308640898
 30
0.0
 11
108.8806398328401
 21
241.1522308640899
 31
0.0
  0
LINE
  5
1DE
330
C7A
100
AcDbEntity
  8
シーエ0
  6
Continuous
 62
     0
100
AcDbLine
 10
108.8806398328407
 20
241.1522308640899
 30
0.0
 11
108.8806398328407
 21
243.6522226160953
 31
0.0
  0
LINE
  5
1E2
330
C7A
100
AcDbEntity
  8
シーエ0
  6
Continuous
 62
     0
100
AcDbLine
 10
88.62263917300328
 20
217.9317308640892
 30
0.0
 11
107.7401315848425
 21
217.9317308640893
 31
0.0
  0
LINE
  5
1E3
330
C7A
100
AcDbEntity
  8
シーエ0
  6
Continuous
 62
     0
100
AcDbLine
 10
108.4606398328321
 20
218.6522391120769
 30
0.0
 11
107.7401315848425
 21
217.9317308640893
 31
0.0
  0
LINE
  5
1E4
330
C7A
100
AcDbEntity
  8
シーエ0
  6
Continuous
 62
     0
100
AcDbLine
 10
108.4606398328321
 20
218.6522391120769
 30
0.0
 11
108.4606398328385
 21
241.1522308640898
 31
0.0
  0
LINE
  5
1E5
330
C7A
100
AcDbEntity
  8
シーエ0
  6
Continuous
 62
     0
100
AcDbLine
 10
102.4606391730011
 20
231.1522308640894
 30
0.0
 11
102.4606391730035
 21
217.9317308640894
 31
0.0
  0
LINE
  5
1E6
330
C7A
100
AcDbEntity
  8
シーエ0
  6
Continuous
 62
     0
100
AcDbLine
 10
88.62263917300328
 20
217.9317308640892
 30
0.0
 11
88.62263917300328
 21
231.1522308640894
 31
0.0
  0
LINE
  5
1E7
330
C7A
100
AcDbEntity
  8
シーエ0
  6
Continuous
 62
     0
100
AcDbLine
 10
87.46063917300354
 20
219.0937308640892
 30
0.0
 11
102.4606391730056
 21
219.093730864089
 31
0.0
  0
LINE
  5
1E9
330
C7A
100
AcDbEntity
  8
シーエ0
  6
CHAIN
 62
     0
100
AcDbLine
 10
135.5877733579673
 20
231.1522308640894
 30
0.0
 11
85.49067228193459
 21
231.1522308640895
 31
0.0
  0
LINE
  5
219
330
C7A
100
AcDbEntity
  8
シーエ0
  6
Continuous
 62
     0
100
AcDbLine
 10
108.8806398328407
 20
221.152230864088
 30
0.0
 11
108.4606398328328
 21
221.152230864088
 31
0.0
  0
LINE
  5
21D
330
C7A
100
AcDbEntity
  8
シーエ0
  6
Continuous
 62
     0
100
AcDbLine
 10
108.8806398328407
 20
218.6522391120842
 30
0.0
 11
108.8806398328401
 21
241.1522308640899
 31
0.0
  0
LINE
  5
248
330
C7A
100
AcDbEntity
  8
シーエ0
  6
Continuous
 62
     0
100
AcDbLine
 10
87.46063917300359
 20
244.2107308640896
 30
0.0
 11
87.46063917300359
 21
249.960495049505
 31
0.0
  0
LINE
  5
249
330
C7A
100
AcDbEntity
  8
シーエ0
  6
Continuous
 62
     0
100
AcDbLine
 10
163.8806398328406
 20
171.9902196402189
 30
0.0
 11
163.8806398328406
 21
249.960495049505
 31
0.0
  0
LINE
  5
24E
330
C7A
100
AcDbEntity
  8
シーエ0
  6
Continuous
 62
     0
100
AcDbLine
 10
104.4732822114014
 20
217.9317308640893
 30
0.0
 11
104.4732822114014
 21
231.1522308640894
 31
0.0
  0
LINE
  5
24F
330
C7A
100
AcDbEntity
  8
シーエ0
  6
Continuous
 62
     0
100
AcDbLine
 10
107.740131584844
 20
217.9317308640893
 30
0.0
 11
107.740131584844
 21
244.3727308640895
 31
0.0
  0
LINE
  5
253
330
C7A
100
AcDbEntity
  8
シーエ0
  6
Continuous
 62
     0
100
AcDbLine
 10
87.46063917300318
 20
219.0937308640879
 30
0.0
 11
87.46063917300348
 21
243.2107308640893
 31
0.0
  0
LINE
  5
274
330
C7A
100
AcDbEntity
  8
シーエ0
  6
Continuous
 62
     0
100
AcDbLine
 10
138.0426370351198
 20
161.6522242656939
 30
0.0
 11
138.5426370351198
 21
161.6522242656939
 31
0.0
  0
LINE
  5
276
330
C7A
100
AcDbEntity
  8
シーエ0
  6
Continuous
 62
     0
100
AcDbLine
 10
138.0426370351199
 20
161.6522242656941
 30
0.0
 11
138.5426370351199
 21
161.6522242656941
 31
0.0
  0
LINE
  5
277
330
C7A
100
AcDbEntity
  8
シーエ0
  6
Continuous
 62
     0
100
AcDbLine
 10
139.8426370351198
 20
161.6522242656937
 30
0.0
 11
139.3426370351199
 21
161.6522242656937
 31
0.0
  0
LINE
  5
278
330
C7A
100
AcDbEntity
  8
シーエ0
  6
CHAIN
 62
     0
100
AcDbLine
 10
151.3328815543239
 20
161.6522242656942
 30
0.0
 11
133.2636165843647
 21
161.6522242656941
 31
0.0
  0
LINE
  5
279
330
C7A
100
AcDbEntity
  8
シーエ0
  6
Continuous
 62
     0
100
AcDbLine
 10
142.3806348840441
 20
151.174731391961
 30
0.0
 11
142.3806348840441
 21
151.1522267400923
 31
0.0
  0
LINE
  5
29B
330
C7A
100
AcDbEntity
  8
シーエ0
  6
Continuous
 62
     0
100
AcDbLine
 10
163.8806398328399
 20
170.9677242656941
 30
0.0
 11
162.7186398328399
 21
172.1297242656941
 31
0.0
  0
LINE
  5
29C
330
C7A
100
AcDbEntity
  8
シーエ0
  6
Continuous
 62
     0
100
AcDbLine
 10
137.6087414085374
 20
172.1522260441678
 30
0.0
 11
139.5426370351198
 21
172.1522260441678
 31
0.0
  0
LINE
  5
29D
330
C7A
100
AcDbEntity
  8
シーエ0
  6
Continuous
 62
     0
100
AcDbLine
 10
154.5426370351197
 20
172.1297242656941
 30
0.0
 11
162.7186398328399
 21
172.1297242656941
 31
0.0
  0
LINE
  5
2A0
330
C7A
100
AcDbEntity
  8
シーエ0
  6
Continuous
 62
     0
100
AcDbLine
 10
163.8806398328399
 20
152.3367242656942
 30
0.0
 11
162.7186398328399
 21
151.1747242656941
 31
0.0
  0
LINE
  5
2A2
330
C7A
100
AcDbEntity
  8
シーエ0
  6
Continuous
 62
     0
100
AcDbLine
 10
139.3679967944475
 20
172.1297242656941
 30
0.0
 11
139.3679967943844
 21
172.1522260441678
 31
0.0
  0
LINE
  5
2A4
330
C7A
100
AcDbEntity
  8
シーエ0
  6
Continuous
 62
     0
100
AcDbLine
 10
154.5426370351197
 20
152.3367242656941
 30
0.0
 11
163.8806398328407
 21
152.3367242656941
 31
0.0
  0
LINE
  5
2A6
330
C7A
100
AcDbEntity
  8
シーエ0
  6
Continuous
 62
     0
100
AcDbLine
 10
154.5426370351197
 20
170.9677242656941
 30
0.0
 11
163.8806398328407
 21
170.9677242656941
 31
0.0
  0
LINE
  5
2A8
330
C7A
100
AcDbEntity
  8
シーエ0
  6
Continuous
 62
     0
100
AcDbLine
 10
139.3679967944475
 20
151.1747242656941
 30
0.0
 11
139.3679967942116
 21
151.1522267400922
 31
0.0
  0
LINE
  5
2A9
330
C7A
100
AcDbEntity
  8
シーエ0
  6
Continuous
 62
     0
100
AcDbLine
 10
103.3839062703039
 20
151.1522267400924
 30
0.0
 11
139.3679967942116
 21
151.1522267400922
 31
0.0
  0
LINE
  5
2AA
330
C7A
100
AcDbEntity
  8
シーエ0
  6
Continuous
 62
     0
100
AcDbLine
 10
154.5426370351197
 20
151.1747242656941
 30
0.0
 11
162.7186398328399
 21
151.1747242656941
 31
0.0
  0
LINE
  5
2AB
330
C7A
100
AcDbEntity
  8
シーエ0
  6
CHAIN
 62
     0
100
AcDbLine
 10
98.39283790339727
 20
161.6522242656941
 30
0.0
 11
170.799830568408
 21
161.6522242656941
 31
0.0
  0
LINE
  5
2B8
330
C7A
100
AcDbEntity
  8
シーエ0
  6
Continuous
 62
     0
100
AcDbLine
 10
155.4448058159327
 20
193.652224265694
 30
0.0
 11
185.9748305684079
 21
193.6522242656941
 31
0.0
  0
LINE
  5
2B9
330
C7A
100
AcDbEntity
  8
シーエ0
  6
Continuous
 62
     0
100
AcDbLine
 10
155.4448058159327
 20
129.6522242656943
 30
0.0
 11
185.9748305684079
 21
129.6522242656943
 31
0.0
  0
LINE
  5
2BA
330
C7A
100
AcDbEntity
  8
シーエ0
  6
Continuous
 62
     0
100
AcDbLine
 10
154.5426370351197
 20
193.6522242656941
 30
0.0
 11
154.5426370351197
 21
161.6522242656941
 31
0.0
  0
LINE
  5
2BD
330
C7A
100
AcDbEntity
  8
シーエ0
  6
Continuous
 62
     0
100
AcDbLine
 10
154.5426370351196
 20
194.6522242656939
 30
0.0
 11
154.5426370351196
 21
214.2376237623762
 31
0.0
  0
LINE
  5
2BE
330
C7A
100
AcDbEntity
  8
シーエ0
  6
Continuous
 62
     0
100
AcDbLine
 10
139.5426370351198
 20
177.0880704269246
 30
0.0
 11
139.5426370351198
 21
214.2376237623762
 31
0.0
  0
LINE
  5
2D9
330
C7A
100
AcDbEntity
  8
シーエ0
  6
Continuous
 62
     0
100
AcDbLine
 10
139.5426370351182
 20
161.6522242656941
 30
0.0
 11
139.5426370351204
 21
176.0719127699735
 31
0.0
  0
LINE
  5
2DF
330
C7A
100
AcDbEntity
  8
シーエ0
  6
Continuous
 62
     0
100
AcDbLine
 10
143.1798320156978
 20
131.194145598237
 30
0.0
 11
139.6351007151104
 21
146.2592536257316
 31
0.0
  0
LINE
  5
2E0
330
C7A
100
AcDbEntity
  8
シーエ0
  6
Continuous
 62
     0
100
AcDbLine
 10
139.5426370351207
 20
147.2163781044636
 30
0.0
 11
139.5426370351188
 21
161.6522242656941
 31
0.0
  0
LINE
  5
2E1
330
C7A
100
AcDbEntity
  8
シーエ0
  6
Continuous
 62
     0
100
AcDbLine
 10
143.5426370351225
 20
194.6522242656942
 30
0.0
 11
143.5426370351225
 21
205.7915700188856
 31
0.0
  0
LINE
  5
2E2
330
C7A
100
AcDbEntity
  8
シーエ0
  6
Continuous
 62
     0
100
AcDbLine
 10
154.5426370351197
 20
193.6522242656941
 30
0.0
 11
145.1266663523649
 21
193.6522242656942
 31
0.0
  0
LINE
  5
2E3
330
C7A
100
AcDbEntity
  8
シーエ0
  6
Continuous
 62
     0
100
AcDbLine
 10
143.1798320156978
 20
192.1103029331397
 30
0.0
 11
139.675551193453
 21
177.2171094386013
 31
0.0
  0
LINE
  5
2E4
330
C7A
100
AcDbEntity
  8
シーエ0
  6
Continuous
 62
     0
100
AcDbLine
 10
154.5426370351197
 20
129.6522242656941
 30
0.0
 11
145.1266663523649
 21
129.6522242656943
 31
0.0
  0
LINE
  5
2E6
330
C7A
100
AcDbEntity
  8
シーエ0
  6
Continuous
 62
     0
100
AcDbLine
 10
154.5426370351197
 20
139.1522242656945
 30
0.0
 11
154.5426370351197
 21
129.6522242656943
 31
0.0
  0
LINE
  5
2EA
330
C7A
100
AcDbEntity
  8
シーエ0
  6
Continuous
 62
     0
100
AcDbLine
 10
163.8806398328407
 20
171.9902196402189
 30
0.0
 11
163.8806398328407
 21
249.960495049505
 31
0.0
  0
CIRCLE
  5
2F2
330
C7A
100
AcDbEntity
  8
シーエ0
  6
Continuous
 62
     0
100
AcDbCircle
 10
56.02991833903661
 20
161.6522242656941
 30
0.0
 40
10.49999752560177
  0
CIRCLE
  5
2F3
330
C7A
100
AcDbEntity
  8
シーエ0
  6
Continuous
 62
     0
100
AcDbCircle
 10
56.02991833903661
 20
231.1522308640895
 30
0.0
 40
13.22050000000013
  0
CIRCLE
  5
2F4
330
C7A
100
AcDbEntity
  8
シーエ0
  6
Continuous
 62
     0
100
AcDbCircle
 10
56.02991833903661
 20
161.6522242656941
 30
0.0
 40
4.000013196790575
  0
CIRCLE
  5
2F5
330
C7A
100
AcDbEntity
  8
シーエ0
  6
Continuous
 62
     0
100
AcDbCircle
 10
56.02991833903661
 20
161.6522242656941
 30
0.0
 40
5.000016495988205
  0
CIRCLE
  5
2F6
330
C7A
100
AcDbEntity
  8
シーエ0
  6
Continuous
 62
     0
100
AcDbCircle
 10
56.02991833903661
 20
161.6522242656941
 30
0.0
 40
4.460003827069272
  0
CIRCLE
  5
2F8
330
C7A
100
AcDbEntity
  8
シーエ0
  6
Continuous
 62
     0
100
AcDbCircle
 10
56.02991833903661
 20
231.1522308640895
 30
0.0
 40
12.05850000000012
  0
CIRCLE
  5
2F9
330
C7A
100
AcDbEntity
  8
シーエ0
  6
Continuous
 62
     0
100
AcDbCircle
 10
56.02991833903661
 20
231.1522308640895
 30
0.0
 40
6.99999999999251
  0
CIRCLE
  5
2FA
330
C7A
100
AcDbEntity
  8
シーエ0
  6
Continuous
 62
     0
100
AcDbCircle
 10
56.02991833903661
 20
231.1522308640895
 30
0.0
 40
10.0250000000002
  0
ARC
  5
312
330
C7A
100
AcDbEntity
  8
シーエ0
  6
Continuous
 62
     0
100
AcDbCircle
 10
56.02991833903661
 20
161.3288074208652
 30
0.0
 40
32.0
100
AcDbArc
 50
110.7863877836889
 51
69.21361221631144
  0
ARC
  5
313
330
C7A
100
AcDbEntity
  8
シーエ0
  6
Continuous
 62
     0
100
AcDbCircle
 10
126.9894036564787
 20
241.6522160177
 30
0.0
 40
2.000000025774981
100
AcDbArc
 50
3.201812744140631
 51
90.00000000000019
  0
ARC
  5
314
330
C7A
100
AcDbEntity
  8
シーエ0
  6
Continuous
 62
     0
100
AcDbCircle
 10
137.6087414085374
 20
177.1522259152929
 30
0.0
 40
4.999999871125092
100
AcDbArc
 50
183.2019805908207
 51
270.0000000000006
  0
ARC
  5
315
330
C7A
100
AcDbEntity
  8
シーエ0
  6
Continuous
 62
     0
100
AcDbCircle
 10
111.880647668435
 20
215.6522292144906
 30
0.0
 40
3.000000038662472
100
AcDbArc
 50
0.0
 51
90.00000000000019
  0
ARC
  5
319
330
C7A
100
AcDbEntity
  8
シーエ0
  6
Continuous
 62
     0
100
AcDbCircle
 10
107.3806018920679
 20
161.6522242656941
 30
0.0
 40
8.499994020204287
100
AcDbArc
 50
185.0618286132817
 51
208.0725708007817
  0
ARC
  5
31A
330
C7A
100
AcDbEntity
  8
シーエ0
  6
Continuous
 62
     0
100
AcDbCircle
 10
107.3806018920679
 20
161.6522242656941
 30
0.0
 40
8.499994020204287
100
AcDbArc
 50
151.9274749755862
 51
174.9377441406254
  0
ARC
  5
31B
330
C7A
100
AcDbEntity
  8
シーエ0
  6
DOTTED
 62
     0
100
AcDbCircle
 10
103.3806381832419
 20
151.6522160177
 30
0.0
 40
0.4999999581156551
100
AcDbArc
 50
180.0000000000004
 51
270.0000000000006
  0
ARC
  5
31C
330
C7A
100
AcDbEntity
  8
シーエ0
  6
DOTTED
 62
     0
100
AcDbCircle
 10
103.3806381832419
 20
171.6522325136882
 30
0.0
 40
0.4999999581156551
100
AcDbArc
 50
90.00000000000019
 51
180.0000000000004
  0
ARC
  5
324
330
C7A
100
AcDbEntity
  8
シーエ0
  6
Continuous
 62
     0
100
AcDbCircle
 10
144.5426370351199
 20
147.2163781044635
 30
0.0
 40
5.0
100
AcDbArc
 50
180.0000000000006
 51
192.8750015596131
  0
ARC
  5
32D
330
C7A
100
AcDbEntity
  8
シーエ0
  6
Continuous
 62
     0
100
AcDbCircle
 10
144.5426370351207
 20
176.0719127699734
 30
0.0
 40
5.0
100
AcDbArc
 50
166.7594800848114
 51
180.0
  0
ARC
  5
331
330
C7A
100
AcDbEntity
  8
シーエ0
  6
Continuous
 62
     0
100
AcDbCircle
 10
145.1266663523649
 20
131.6522242656883
 30
0.0
 40
2.0
100
AcDbArc
 50
193.2405199151925
 51
270.0000000000013
  0
ARC
  5
333
330
C7A
100
AcDbEntity
  8
シーエ0
  6
Continuous
 62
     0
100
AcDbCircle
 10
144.5426370351199
 20
147.2163781044637
 30
0.0
 40
5.0
100
AcDbArc
 50
180.0000000000013
 51
191.0359511705197
  0
ARC
  5
334
330
C7A
100
AcDbEntity
  8
シーエ0
  6
Continuous
 62
     0
100
AcDbCircle
 10
145.1266663523649
 20
191.6522242656885
 30
0.0
 40
2.0
100
AcDbArc
 50
89.99999999999939
 51
166.7594800848116
  0
INSERT
  5
7E1
330
C7A
100
AcDbEntity
  8
シーエ0
 62
     0
100
AcDbBlockReference
  2
BV_ATTRIBUTE1
 10
19.65346982758623
 20
161.6522242656941
 30
0.0
  0
INSERT
  5
7E2
330
C7A
100
AcDbEntity
  8
シーエ0
 62
     0
100
AcDbBlockReference
  2
BV_ATTRIBUTE2
 10
62.0299183390366
 20
253.4703609691142
 30
0.0
  0
INSERT
  5
7E3
330
C7A
100
AcDbEntity
  8
シーエ0
 62
     0
100
AcDbBlockReference
  2
BV_ATTRIBUTE3
 10
93.2406562071166
 20
243.2107308640897
 30
0.0
  0
INSERT
  5
7E4
330
C7A
100
AcDbEntity
  8
シーエ0
 62
     0
100
AcDbBlockReference
  2
BV_ATTRIBUTE4
 10
87.46063917300359
 20
248.960495049505
 30
0.0
  0
INSERT
  5
7E7
330
C7A
100
AcDbEntity
  8
シーエ0
 62
     0
100
AcDbBlockReference
  2
BV_ATTRIBUTE7
 10
184.9748305684079
 20
129.6522242656943
 30
0.0
  0
INSERT
  5
7E8
330
C7A
100
AcDbEntity
  8
シーエ0
 62
     0
100
AcDbBlockReference
  2
BV_ATTRIBUTE8
 10
154.5426370351196
 20
213.2376237623762
 30
0.0
  0
INSERT
  5
7E9
330
C7A
100
AcDbEntity
  8
シーエ0
 62
     0
100
AcDbBlockReference
  2
BV_ATTRIBUTE9
 10
143.5426370351225
 20
204.7915700188856
 30
0.0
  0
INSERT
  5
7ED
330
C7A
100
AcDbEntity
  8
シーエ0
 62
     0
100
AcDbBlockReference
  2
BV_ATTRIBUTE13
 10
163.8806398328407
 20
213.2376237623745
 30
0.0
  0
LINE
  5
CB7
330
C7A
100
AcDbEntity
  8
シーエ0
 62
     0
100
AcDbLine
 10
154.5426370351196
 20
184.1522242656942
 30
0.0
 11
154.5426370351196
 21
175.652224265694
 31
0.0
  0
LINE
  5
CBF
330
C7A
100
AcDbEntity
  8
シーエ0
 62
     0
100
AcDbLine
 10
154.5426370351196
 20
161.6522242656941
 30
0.0
 11
154.5426370351196
 21
139.1522242656941
 31
0.0
  0
LINE
  5
E23
330
C7A
100
AcDbEntity
  8
シーエ0
  6
Continuous
 62
     0
100
AcDbLine
 10
104.4732822114014
 20
244.3727308640896
 30
0.0
 11
104.4732822114014
 21
231.1522308640894
 31
0.0
  0
LINE
  5
E24
330
C7A
100
AcDbEntity
  8
シーエ0
  6
Continuous
 62
     0
100
AcDbLine
 10
102.4606391730011
 20
231.1522308640895
 30
0.0
 11
102.4606391730035
 21
244.3727308640894
 31
0.0
  0
LINE
  5
E25
330
C7A
100
AcDbEntity
  8
シーエ0
  6
Continuous
 62
     0
100
AcDbLine
 10
102.4606391730056
 20
243.2107308640899
 30
0.0
 11
104.4732822113992
 21
244.3727308640897
 31
0.0
  0
LINE
  5
E26
330
C7A
100
AcDbEntity
  8
シーエ0
  6
Continuous
 62
     0
100
AcDbLine
 10
87.46063917300357
 20
243.2107308640897
 30
0.0
 11
102.4606391730056
 21
243.2107308640899
 31
0.0
  0
LINE
  5
E27
330
C7A
100
AcDbEntity
  8
シーエ0
  6
Continuous
 62
     0
100
AcDbLine
 10
88.6226391730033
 20
244.3727308640897
 30
0.0
 11
88.62263917300328
 21
231.1522308640895
 31
0.0
  0
MTEXT
  5
E2E
330
C7A
100
AcDbEntity
  8
0
  6
Continuous
100
AcDbMText
 10
168.8045734660484
 20
205.0045665656971
 30
0.0
 40
3.56344319349306
 41
0.0
 71
     1
 72
     1
  1
{\fArial|b0|i0|c0|p32;PJ1/2}
 73
     1
 44
1.0
1001
ACAD
1000
MTEXTBEGIN
1070
    73
1070
     1
1070
    44
1040
1.0
1070
    74
1070
     0
1000
MTEXTEND
  0
SOLID
  5
E32
330
C7A
100
AcDbEntity
  8
0
  6
Continuous
100
AcDbTrace
 10
159.0409140317669
 20
172.944692936172
 30
0.0
 11
158.6306384339798
 21
172.1297242656941
 31
0.0
 12
158.7544228090288
 22
173.0337029316447
 32
0.0
 13
158.7544228090288
 23
173.0337029316447
 33
0.0
1001
ACAD
1000
DSTYLE
1002
{
1070
   147
1040
0.09
1070
    77
1070
     0
1002
}
  0
LWPOLYLINE
  5
E33
330
C7A
100
AcDbEntity
  8
0
  6
Continuous
100
AcDbPolyline
 90
        3
 70
     0
 43
0.0
 10
158.8976684203979
 20
172.9891979339083
 10
167.3312965486529
 20
200.1340193862716
 10
180.9770713032094
 20
200.1340193862716
1001
ACAD
1000
DSTYLE
1002
{
1070
   147
1040
0.09
1070
    77
1070
     0
1002
}
  0
ENDSEC
  0
SECTION
  2
OBJECTS
  0
DICTIONARY
  5
C66
330
0
100
AcDbDictionary
281
     1
  3
ACAD_COLOR
350
C75
  3
ACAD_GROUP
350
C67
  3
ACAD_LAYOUT
350
C73
  3
ACAD_MATERIAL
350
C74
  3
ACAD_MLINESTYLE
350
C70
  3
ACAD_PLOTSETTINGS
350
C72
  3
ACAD_PLOTSTYLENAME
350
C68
  3
ACDBHEADERROUNDTRIPXREC
350
E4A
  3
AcDbVariableDictionary
350
E45
  0
DICTIONARY
  5
C75
102
{ACAD_REACTORS
330
C66
102
}
330
C66
100
AcDbDictionary
281
     1
  0
DICTIONARY
  5
C67
102
{ACAD_REACTORS
330
C66
102
}
330
C66
100
AcDbDictionary
281
     1
  0
DICTIONARY
  5
C73
102
{ACAD_REACTORS
330
C66
102
}
330
C66
100
AcDbDictionary
281
     1
  3
Model
350
C7D
  3
レイアウト1
350
C79
  0
DICTIONARY
  5
C74
102
{ACAD_REACTORS
330
C66
102
}
330
C66
100
AcDbDictionary
281
     1
  0
DICTIONARY
  5
C70
102
{ACAD_REACTORS
330
C66
102
}
330
C66
100
AcDbDictionary
281
     1
  3
Standard
350
C71
  0
DICTIONARY
  5
C72
102
{ACAD_REACTORS
330
C66
102
}
330
C66
100
AcDbDictionary
281
     1
  0
ACDBDICTIONARYWDFLT
  5
C68
102
{ACAD_REACTORS
330
C66
102
}
330
C66
100
AcDbDictionary
281
     1
  3
Normal
350
C69
100
AcDbDictionaryWithDefault
340
C69
  0
DICTIONARY
  5
E4A
102
{ACAD_REACTORS
330
C66
102
}
330
C66
100
AcDbDictionary
281
     1
  3
COLORDICT
350
E4C
  3
MATERIALDICT
350
E4B
  0
DICTIONARY
  5
E45
102
{ACAD_REACTORS
330
C66
102
}
330
C66
100
AcDbDictionary
281
     1
  3
DIMASSOC
350
E47
  3
HIDETEXT
350
E46
  3
PROJECTNAME
350
E48
  0
LAYOUT
  5
C7D
102
{ACAD_XDICTIONARY
360
E4F
102
}
102
{ACAD_REACTORS
330
C73
102
}
330
C73
100
AcDbPlotSettings
  1

  2
JPTKYPOFFI003 MPC3000
  4
A4
  6

 40
5.873749732971191
 41
5.873747825622558
 42
5.873748779296875
 43
5.873748779296875
 44
209.9733276367187
 45
296.9259948730469
 46
0.0
 47
0.0
 48
0.0
 49
0.0
140
0.0
141
0.0
142
1.0
143
1.0
 70
 11952
 72
     0
 73
     1
 74
     0
  7

 75
     0
147
1.0
148
-673.7359589072441
149
-1926.357638906278
100
AcDbLayout
  1
Model
 70
     1
 71
     0
 10
0.0
 20
0.0
 11
12.0
 21
9.0
 12
0.0
 22
0.0
 32
0.0
 14
0.0
 24
0.0
 34
0.0
 15
0.0
 25
0.0
 35
0.0
146
0.0
 13
0.0
 23
0.0
 33
0.0
 16
1.0
 26
0.0
 36
0.0
 17
0.0
 27
1.0
 37
0.0
 76
     0
330
C7A
  0
LAYOUT
  5
C79
102
{ACAD_XDICTIONARY
360
E4D
102
}
102
{ACAD_REACTORS
330
C73
102
}
330
C73
100
AcDbPlotSettings
  1

  2
JPTKYPOFFI003 MPC3000
  4

  6

 40
0.0
 41
0.0
 42
0.0
 43
0.0
 44
0.0
 45
0.0
 46
0.0
 47
0.0
 48
0.0
 49
0.0
140
0.0
141
0.0
142
1.0
143
1.0
 70
   688
 72
     0
 73
     0
 74
     5
  7
monochrome.ctb
 75
    16
147
1.0
148
0.0
149
0.0
100
AcDbLayout
  1
レイアウト1
 70
     0
 71
     1
 10
0.0
 20
0.0
 11
12.0
 21
9.0
 12
0.0
 22
0.0
 32
0.0
 14
1.000000000000000E+20
 24
1.000000000000000E+20
 34
1.000000000000000E+20
 15
-1.000000000000000E+20
 25
-1.000000000000000E+20
 35
-1.000000000000000E+20
146
0.0
 13
0.0
 23
0.0
 33
0.0
 16
1.0
 26
0.0
 36
0.0
 17
0.0
 27
1.0
 37
0.0
 76
     0
330
C76
  0
MLINESTYLE
  5
C71
102
{ACAD_REACTORS
330
C70
102
}
330
C70
100
AcDbMlineStyle
  2
STANDARD
 70
     0
  3

 62
   256
 51
90.0
 52
90.0
 71
     2
 49
0.5
 62
   256
  6
BYLAYER
 49
-0.5
 62
   256
  6
BYLAYER
  0
ACDBPLACEHOLDER
  5
C69
102
{ACAD_REACTORS
330
C68
102
}
330
C68
  0
XRECORD
  5
E4C
102
{ACAD_REACTORS
330
E4A
102
}
330
E4A
100
AcDbXrecord
280
     1
340
C75
  0
XRECORD
  5
E4B
102
{ACAD_REACTORS
330
E4A
102
}
330
E4A
100
AcDbXrecord
280
     1
340
C74
  0
DICTIONARYVAR
  5
E47
102
{ACAD_REACTORS
330
E45
102
}
330
E45
100
DictionaryVariables
280
     0
  1
2
  0
DICTIONARYVAR
  5
E46
102
{ACAD_REACTORS
330
E45
102
}
330
E45
100
DictionaryVariables
280
     0
  1
1
  0
DICTIONARYVAR
  5
E48
102
{ACAD_REACTORS
330
E45
102
}
330
E45
100
DictionaryVariables
280
     0
  1

  0
DICTIONARY
  5
E4F
330
C7D
100
AcDbDictionary
280
     1
281
     1
  3
ACAD_XREC_ROUNDTRIP
360
E50
  0
DICTIONARY
  5
E4D
330
C79
100
AcDbDictionary
280
     1
281
     1
  3
ACAD_XREC_ROUNDTRIP
360
E4E
  0
XRECORD
  5
E50
102
{ACAD_REACTORS
330
E4F
102
}
330
E4F
100
AcDbXrecord
280
     1
102
SHADEPLOT
 70
     0
102
SHADEPLOTRESLEVEL
 70
     2
102
SHADEPLOTCUSTOMDPI
 70
   300
  0
XRECORD
  5
E4E
102
{ACAD_REACTORS
330
E4D
102
}
330
E4D
100
AcDbXrecord
280
     1
102
SHADEPLOT
 70
     0
102
SHADEPLOTRESLEVEL
 70
     2
102
SHADEPLOTCUSTOMDPI
 70
   300
  0
ENDSEC
  0
EOF
