  0
SECTION
  2
HEADER
  9
$ACADVER
  1
AC1024
  9
$ACADMAINTVER
 70
     6
  9
$DWGCODEPAGE
  3
ANSI_932
  9
$INSBASE
 10
0.0
 20
0.0
 30
0.0
  9
$EXTMIN
 10
1.000000000000000E+20
 20
1.000000000000000E+20
 30
1.000000000000000E+20
  9
$EXTMAX
 10
-1.000000000000000E+20
 20
-1.000000000000000E+20
 30
-1.000000000000000E+20
  9
$LIMMIN
 10
0.0
 20
0.0
  9
$LIMMAX
 10
12.0
 20
9.0
  9
$ORTHOMODE
 70
     0
  9
$REGENMODE
 70
     1
  9
$FILLMODE
 70
     1
  9
$QTEXTMODE
 70
     0
  9
$MIRRTEXT
 70
     1
  9
$LTSCALE
 40
1.0
  9
$ATTMODE
 70
     1
  9
$TEXTSIZE
 40
0.2
  9
$TRACEWID
 40
0.05
  9
$TEXTSTYLE
  7
Standard
  9
$CLAYER
  8
0
  9
$CELTYPE
  6
ByLayer
  9
$CECOLOR
 62
   256
  9
$CELTSCALE
 40
1.0
  9
$DISPSILH
 70
     0
  9
$DIMSCALE
 40
1.0
  9
$DIMASZ
 40
0.18
  9
$DIMEXO
 40
0.0625
  9
$DIMDLI
 40
0.38
  9
$DIMRND
 40
0.0
  9
$DIMDLE
 40
0.0
  9
$DIMEXE
 40
0.18
  9
$DIMTP
 40
0.0
  9
$DIMTM
 40
0.0
  9
$DIMTXT
 40
0.18
  9
$DIMCEN
 40
0.09
  9
$DIMTSZ
 40
0.0
  9
$DIMTOL
 70
     0
  9
$DIMLIM
 70
     0
  9
$DIMTIH
 70
     1
  9
$DIMTOH
 70
     1
  9
$DIMSE1
 70
     0
  9
$DIMSE2
 70
     0
  9
$DIMTAD
 70
     0
  9
$DIMZIN
 70
     0
  9
$DIMBLK
  1

  9
$DIMASO
 70
     1
  9
$DIMSHO
 70
     1
  9
$DIMPOST
  1

  9
$DIMAPOST
  1

  9
$DIMALT
 70
     0
  9
$DIMALTD
 70
     2
  9
$DIMALTF
 40
25.4
  9
$DIMLFAC
 40
1.0
  9
$DIMTOFL
 70
     0
  9
$DIMTVP
 40
0.0
  9
$DIMTIX
 70
     0
  9
$DIMSOXD
 70
     0
  9
$DIMSAH
 70
     0
  9
$DIMBLK1
  1

  9
$DIMBLK2
  1

  9
$DIMSTYLE
  2
Standard
  9
$DIMCLRD
 70
     0
  9
$DIMCLRE
 70
     0
  9
$DIMCLRT
 70
     0
  9
$DIMTFAC
 40
1.0
  9
$DIMGAP
 40
0.09
  9
$DIMJUST
 70
     0
  9
$DIMSD1
 70
     0
  9
$DIMSD2
 70
     0
  9
$DIMTOLJ
 70
     1
  9
$DIMTZIN
 70
     0
  9
$DIMALTZ
 70
     0
  9
$DIMALTTZ
 70
     0
  9
$DIMUPT
 70
     0
  9
$DIMDEC
 70
     4
  9
$DIMTDEC
 70
     4
  9
$DIMALTU
 70
     2
  9
$DIMALTTD
 70
     2
  9
$DIMTXSTY
  7
Standard
  9
$DIMAUNIT
 70
     0
  9
$DIMADEC
 70
     0
  9
$DIMALTRND
 40
0.0
  9
$DIMAZIN
 70
     0
  9
$DIMDSEP
 70
    46
  9
$DIMATFIT
 70
     3
  9
$DIMFRAC
 70
     0
  9
$DIMLDRBLK
  1

  9
$DIMLUNIT
 70
     2
  9
$DIMLWD
 70
    -2
  9
$DIMLWE
 70
    -2
  9
$DIMTMOVE
 70
     0
  9
$DIMFXL
 40
1.0
  9
$DIMFXLON
 70
     0
  9
$DIMJOGANG
 40
0.7853981633974483
  9
$DIMTFILL
 70
     0
  9
$DIMTFILLCLR
 70
     0
  9
$DIMARCSYM
 70
     0
  9
$DIMLTYPE
  6

  9
$DIMLTEX1
  6

  9
$DIMLTEX2
  6

  9
$DIMTXTDIRECTION
 70
     0
  9
$LUNITS
 70
     2
  9
$LUPREC
 70
     4
  9
$SKETCHINC
 40
0.1
  9
$FILLETRAD
 40
0.5
  9
$AUNITS
 70
     0
  9
$AUPREC
 70
     0
  9
$MENU
  1
.
  9
$ELEVATION
 40
0.0
  9
$PELEVATION
 40
0.0
  9
$THICKNESS
 40
0.0
  9
$LIMCHECK
 70
     0
  9
$CHAMFERA
 40
0.5
  9
$CHAMFERB
 40
0.5
  9
$CHAMFERC
 40
1.0
  9
$CHAMFERD
 40
0.0
  9
$SKPOLY
 70
     0
  9
$TDCREATE
 40
2457939.752133148
  9
$TDUCREATE
 40
2457939.377133148
  9
$TDUPDATE
 40
2457939.752136944
  9
$TDUUPDATE
 40
2457939.377136944
  9
$TDINDWG
 40
0.0000000116
  9
$TDUSRTIMER
 40
0.0000000116
  9
$USRTIMER
 70
     1
  9
$ANGBASE
 50
0.0
  9
$ANGDIR
 70
     0
  9
$PDMODE
 70
     0
  9
$PDSIZE
 40
0.0
  9
$PLINEWID
 40
0.0
  9
$SPLFRAME
 70
     0
  9
$SPLINETYPE
 70
     6
  9
$SPLINESEGS
 70
     8
  9
$HANDSEED
  5
11F
  9
$SURFTAB1
 70
     6
  9
$SURFTAB2
 70
     6
  9
$SURFTYPE
 70
     6
  9
$SURFU
 70
     6
  9
$SURFV
 70
     6
  9
$UCSBASE
  2

  9
$UCSNAME
  2

  9
$UCSORG
 10
0.0
 20
0.0
 30
0.0
  9
$UCSXDIR
 10
1.0
 20
0.0
 30
0.0
  9
$UCSYDIR
 10
0.0
 20
1.0
 30
0.0
  9
$UCSORTHOREF
  2

  9
$UCSORTHOVIEW
 70
     0
  9
$UCSORGTOP
 10
0.0
 20
0.0
 30
0.0
  9
$UCSORGBOTTOM
 10
0.0
 20
0.0
 30
0.0
  9
$UCSORGLEFT
 10
0.0
 20
0.0
 30
0.0
  9
$UCSORGRIGHT
 10
0.0
 20
0.0
 30
0.0
  9
$UCSORGFRONT
 10
0.0
 20
0.0
 30
0.0
  9
$UCSORGBACK
 10
0.0
 20
0.0
 30
0.0
  9
$PUCSBASE
  2

  9
$PUCSNAME
  2

  9
$PUCSORG
 10
0.0
 20
0.0
 30
0.0
  9
$PUCSXDIR
 10
1.0
 20
0.0
 30
0.0
  9
$PUCSYDIR
 10
0.0
 20
1.0
 30
0.0
  9
$PUCSORTHOREF
  2

  9
$PUCSORTHOVIEW
 70
     0
  9
$PUCSORGTOP
 10
0.0
 20
0.0
 30
0.0
  9
$PUCSORGBOTTOM
 10
0.0
 20
0.0
 30
0.0
  9
$PUCSORGLEFT
 10
0.0
 20
0.0
 30
0.0
  9
$PUCSORGRIGHT
 10
0.0
 20
0.0
 30
0.0
  9
$PUCSORGFRONT
 10
0.0
 20
0.0
 30
0.0
  9
$PUCSORGBACK
 10
0.0
 20
0.0
 30
0.0
  9
$USERI1
 70
     0
  9
$USERI2
 70
     0
  9
$USERI3
 70
     0
  9
$USERI4
 70
     0
  9
$USERI5
 70
     0
  9
$USERR1
 40
0.0
  9
$USERR2
 40
0.0
  9
$USERR3
 40
0.0
  9
$USERR4
 40
0.0
  9
$USERR5
 40
0.0
  9
$WORLDVIEW
 70
     1
  9
$SHADEDGE
 70
     3
  9
$SHADEDIF
 70
    70
  9
$TILEMODE
 70
     1
  9
$MAXACTVP
 70
    64
  9
$PINSBASE
 10
0.0
 20
0.0
 30
0.0
  9
$PLIMCHECK
 70
     0
  9
$PEXTMIN
 10
1.000000000000000E+20
 20
1.000000000000000E+20
 30
1.000000000000000E+20
  9
$PEXTMAX
 10
-1.000000000000000E+20
 20
-1.000000000000000E+20
 30
-1.000000000000000E+20
  9
$PLIMMIN
 10
0.0
 20
0.0
  9
$PLIMMAX
 10
12.0
 20
9.0
  9
$UNITMODE
 70
     0
  9
$VISRETAIN
 70
     1
  9
$PLINEGEN
 70
     0
  9
$PSLTSCALE
 70
     1
  9
$TREEDEPTH
 70
  3020
  9
$CMLSTYLE
  2
Standard
  9
$CMLJUST
 70
     0
  9
$CMLSCALE
 40
1.0
  9
$PROXYGRAPHICS
 70
     1
  9
$MEASUREMENT
 70
     0
  9
$CELWEIGHT
370
    -1
  9
$ENDCAPS
280
     0
  9
$JOINSTYLE
280
     0
  9
$LWDISPLAY
290
     1
  9
$INSUNITS
 70
     1
  9
$HYPERLINKBASE
  1

  9
$STYLESHEET
  1

  9
$XEDIT
290
     1
  9
$CEPSNTYPE
380
     0
  9
$PSTYLEMODE
290
     1
  9
$FINGERPRINTGUID
  2
{25CEC928-2918-4E3C-8F6C-036D7A8FCDC6}
  9
$VERSIONGUID
  2
{FAEB1C32-E019-11D5-929B-00C0DF256EC4}
  9
$EXTNAMES
290
     1
  9
$PSVPSCALE
 40
0.0
  9
$OLESTARTUP
290
     0
  9
$SORTENTS
280
   127
  9
$INDEXCTL
280
     0
  9
$HIDETEXT
280
     1
  9
$XCLIPFRAME
280
     2
  9
$HALOGAP
280
     0
  9
$OBSCOLOR
 70
   257
  9
$OBSLTYPE
280
     0
  9
$INTERSECTIONDISPLAY
280
     0
  9
$INTERSECTIONCOLOR
 70
   257
  9
$DIMASSOC
280
     2
  9
$PROJECTNAME
  1

  9
$CAMERADISPLAY
290
     0
  9
$LENSLENGTH
 40
50.0
  9
$CAMERAHEIGHT
 40
0.0
  9
$STEPSPERSEC
 40
2.0
  9
$STEPSIZE
 40
6.0
  9
$3DDWFPREC
 40
2.0
  9
$PSOLWIDTH
 40
0.25
  9
$PSOLHEIGHT
 40
4.0
  9
$LOFTANG1
 40
1.570796326794897
  9
$LOFTANG2
 40
1.570796326794897
  9
$LOFTMAG1
 40
0.0
  9
$LOFTMAG2
 40
0.0
  9
$LOFTPARAM
 70
     7
  9
$LOFTNORMALS
280
     1
  9
$LATITUDE
 40
37.795
  9
$LONGITUDE
 40
-122.394
  9
$NORTHDIRECTION
 40
0.0
  9
$TIMEZONE
 70
 -8000
  9
$LIGHTGLYPHDISPLAY
280
     1
  9
$TILEMODELIGHTSYNCH
280
     1
  9
$CMATERIAL
347
3C
  9
$SOLIDHIST
280
     1
  9
$SHOWHIST
280
     1
  9
$DWFFRAME
280
     2
  9
$DGNFRAME
280
     2
  9
$REALWORLDSCALE
290
     1
  9
$INTERFERECOLOR
 62
   256
  9
$CSHADOW
280
     0
  9
$SHADOWPLANELOCATION
 40
0.0
  0
ENDSEC
  0
SECTION
  2
CLASSES
  0
CLASS
  1
ACDBDICTIONARYWDFLT
  2
AcDbDictionaryWithDefault
  3
ObjectDBX Classes
 90
        0
 91
        4
280
     0
281
     0
  0
CLASS
  1
VISUALSTYLE
  2
AcDbVisualStyle
  3
ObjectDBX Classes
 90
     4095
 91
        4
280
     0
281
     0
  0
CLASS
  1
MATERIAL
  2
AcDbMaterial
  3
ObjectDBX Classes
 90
     1153
 91
        4
280
     0
281
     0
  0
CLASS
  1
SUN
  2
AcDbSun
  3
SCENEOE
 90
     1024
 91
        4
280
     0
281
     0
  0
CLASS
  1
IMAGEDEF
  2
AcDbRasterImageDef
  3
ISM
 90
        0
 91
        4
280
     0
281
     0
  0
CLASS
  1
RASTERVARIABLES
  2
AcDbRasterVariables
  3
ISM
 90
        0
 91
        4
280
     0
281
     0
  0
CLASS
  1
IMAGE
  2
AcDbRasterImage
  3
ISM
 90
      127
 91
        5
280
     0
281
     1
  0
CLASS
  1
IMAGEDEF_REACTOR
  2
AcDbRasterImageDefReactor
  3
ISM
 90
        1
 91
        4
280
     0
281
     0
  0
ENDSEC
  0
SECTION
  2
TABLES
  0
TABLE
  2
VPORT
  5
8
330
0
100
AcDbSymbolTable
 70
     1
  0
VPORT
  5
29
330
8
100
AcDbSymbolTableRecord
100
AcDbViewportTableRecord
  2
*Active
 70
     0
 10
0.0
 20
0.0
 11
1.0
 21
1.0
 12
0.0
 22
0.0
 13
0.0
 23
0.0
 14
0.5
 24
0.5
 15
0.5
 25
0.5
 16
0.0
 26
0.0
 36
1.0
 17
104.9999637101166
 27
148.4996535789421
 37
0.0
 40
296.9999346451226
 41
0.7070706182853429
 42
50.0
 43
0.0
 44
0.0
 50
0.0
 51
0.0
 71
     0
 72
   100
 73
     1
 74
     3
 75
     0
 76
     0
 77
     0
 78
     0
281
     0
 65
     1
110
0.0
120
0.0
130
0.0
111
1.0
121
0.0
131
0.0
112
0.0
122
1.0
132
0.0
 79
     0
146
0.0
 60
     3
 61
     5
292
     1
282
     1
141
0.0
142
0.0
 63
   250
361
3F
  0
ENDTAB
  0
TABLE
  2
LTYPE
  5
5
330
0
100
AcDbSymbolTable
 70
     1
  0
LTYPE
  5
14
330
5
100
AcDbSymbolTableRecord
100
AcDbLinetypeTableRecord
  2
ByBlock
 70
     0
  3

 72
    65
 73
     0
 40
0.0
  0
LTYPE
  5
15
330
5
100
AcDbSymbolTableRecord
100
AcDbLinetypeTableRecord
  2
ByLayer
 70
     0
  3

 72
    65
 73
     0
 40
0.0
  0
LTYPE
  5
16
330
5
100
AcDbSymbolTableRecord
100
AcDbLinetypeTableRecord
  2
Continuous
 70
     0
  3
Solid line
 72
    65
 73
     0
 40
0.0
  0
ENDTAB
  0
TABLE
  2
LAYER
  5
2
330
0
100
AcDbSymbolTable
 70
     2
  0
LAYER
  5
10
330
2
100
AcDbSymbolTableRecord
100
AcDbLayerTableRecord
  2
0
 70
     0
 62
     7
  6
Continuous
370
    -3
390
F
347
3E
  0
LAYER
  5
40
330
2
100
AcDbSymbolTableRecord
100
AcDbLayerTableRecord
  2
_U+30EC_U+30A4_U+30E4_U+30FC 1
 70
     0
 62
     7
  6
Continuous
370
    -3
390
F
347
3E
  0
ENDTAB
  0
TABLE
  2
STYLE
  5
3
330
0
100
AcDbSymbolTable
 70
     1
  0
STYLE
  5
11
330
3
100
AcDbSymbolTableRecord
100
AcDbTextStyleTableRecord
  2
Standard
 70
     0
 40
0.0
 41
1.0
 50
0.0
 71
     0
 42
0.2
  3
txt
  4

  0
ENDTAB
  0
TABLE
  2
VIEW
  5
6
330
0
100
AcDbSymbolTable
 70
     0
  0
ENDTAB
  0
TABLE
  2
UCS
  5
7
330
0
100
AcDbSymbolTable
 70
     0
  0
ENDTAB
  0
TABLE
  2
APPID
  5
9
330
0
100
AcDbSymbolTable
 70
     1
  0
APPID
  5
12
330
9
100
AcDbSymbolTableRecord
100
AcDbRegAppTableRecord
  2
ACAD
 70
     0
  0
ENDTAB
  0
TABLE
  2
DIMSTYLE
  5
A
330
0
100
AcDbSymbolTable
 70
     1
100
AcDbDimStyleTable
  0
DIMSTYLE
105
27
330
A
100
AcDbSymbolTableRecord
100
AcDbDimStyleTableRecord
  2
Standard
 70
     0
178
     0
340
11
  0
ENDTAB
  0
TABLE
  2
BLOCK_RECORD
  5
1
330
0
100
AcDbSymbolTable
 70
    11
  0
BLOCK_RECORD
  5
1F
330
1
100
AcDbSymbolTableRecord
100
AcDbBlockTableRecord
  2
*Model_Space
340
22
 70
     0
280
     1
281
     0
  0
BLOCK_RECORD
  5
1B
330
1
100
AcDbSymbolTableRecord
100
AcDbBlockTableRecord
  2
*Paper_Space
340
1E
 70
     0
280
     1
281
     0
  0
BLOCK_RECORD
  5
23
330
1
100
AcDbSymbolTableRecord
100
AcDbBlockTableRecord
  2
*Paper_Space0
340
26
 70
     0
280
     1
281
     0
  0
BLOCK_RECORD
  5
41
330
1
100
AcDbSymbolTableRecord
100
AcDbBlockTableRecord
  2
block 2
340
0
102
{BLKREFS
331
42
102
}
 70
     0
280
     1
281
     0
  0
BLOCK_RECORD
  5
51
330
1
100
AcDbSymbolTableRecord
100
AcDbBlockTableRecord
  2
block 3
340
0
102
{BLKREFS
331
52
102
}
 70
     0
280
     1
281
     0
  0
BLOCK_RECORD
  5
62
330
1
100
AcDbSymbolTableRecord
100
AcDbBlockTableRecord
  2
block 4
340
0
102
{BLKREFS
331
63
102
}
 70
     0
280
     1
281
     0
  0
BLOCK_RECORD
  5
73
330
1
100
AcDbSymbolTableRecord
100
AcDbBlockTableRecord
  2
block 5
340
0
102
{BLKREFS
331
74
102
}
 70
     0
280
     1
281
     0
  0
BLOCK_RECORD
  5
84
330
1
100
AcDbSymbolTableRecord
100
AcDbBlockTableRecord
  2
block 6
340
0
102
{BLKREFS
331
85
102
}
 70
     0
280
     1
281
     0
  0
BLOCK_RECORD
  5
9B
330
1
100
AcDbSymbolTableRecord
100
AcDbBlockTableRecord
  2
block 7
340
0
102
{BLKREFS
331
9C
102
}
 70
     0
280
     1
281
     0
  0
BLOCK_RECORD
  5
B2
330
1
100
AcDbSymbolTableRecord
100
AcDbBlockTableRecord
  2
block 8
340
0
102
{BLKREFS
331
B3
102
}
 70
     0
280
     1
281
     0
  0
BLOCK_RECORD
  5
CD
330
1
100
AcDbSymbolTableRecord
100
AcDbBlockTableRecord
  2
block 9
340
0
102
{BLKREFS
331
CE
102
}
 70
     0
280
     1
281
     0
  0
BLOCK_RECORD
  5
EC
330
1
100
AcDbSymbolTableRecord
100
AcDbBlockTableRecord
  2
block 10
340
0
102
{BLKREFS
331
ED
102
}
 70
     0
280
     1
281
     0
  0
BLOCK_RECORD
  5
114
330
1
100
AcDbSymbolTableRecord
100
AcDbBlockTableRecord
  2
block 11
340
0
102
{BLKREFS
331
115
102
}
 70
     0
280
     1
281
     0
  0
ENDTAB
  0
ENDSEC
  0
SECTION
  2
BLOCKS
  0
BLOCK
  5
20
330
1F
100
AcDbEntity
  8
0
100
AcDbBlockBegin
  2
*Model_Space
 70
     0
 10
0.0
 20
0.0
 30
0.0
  3
*Model_Space
  1

  0
ENDBLK
  5
21
330
1F
100
AcDbEntity
  8
0
100
AcDbBlockEnd
  0
BLOCK
  5
1C
330
1B
100
AcDbEntity
 67
     1
  8
0
100
AcDbBlockBegin
  2
*Paper_Space
 70
     0
 10
0.0
 20
0.0
 30
0.0
  3
*Paper_Space
  1

  0
ENDBLK
  5
1D
330
1B
100
AcDbEntity
 67
     1
  8
0
100
AcDbBlockEnd
  0
BLOCK
  5
24
330
23
100
AcDbEntity
  8
0
100
AcDbBlockBegin
  2
*Paper_Space0
 70
     0
 10
0.0
 20
0.0
 30
0.0
  3
*Paper_Space0
  1

  0
ENDBLK
  5
25
330
23
100
AcDbEntity
  8
0
100
AcDbBlockEnd
  0
BLOCK
  5
43
330
41
100
AcDbEntity
  8
0
100
AcDbBlockBegin
  2
block 2
 70
     0
 10
0.0
 20
0.0
 30
0.0
  3
block 2
  1

  0
IMAGE
  5
48
330
41
100
AcDbEntity
  8
_U+30EC_U+30A4_U+30E4_U+30FC 1
160
                 8
310
0800000000000000
100
AcDbRasterImage
 90
        0
 10
76.74775609755717
 20
174.2857725318986
 30
0.0
 11
0.08438162220112681
 21
0.0
 31
0.0
 12
0.0
 22
-0.08438162220112681
 32
0.0
 13
476.0
 23
485.0
340
46
 70
     3
280
     0
281
    50
282
    50
283
     0
360
49
 71
     1
 91
        2
 14
-0.5
 24
-0.5
 14
475.5
 24
484.5
290
     0
  0
ENDBLK
  5
44
330
41
100
AcDbEntity
  8
0
100
AcDbBlockEnd
  0
BLOCK
  5
53
330
51
100
AcDbEntity
  8
0
100
AcDbBlockBegin
  2
block 3
 70
     0
 10
0.0
 20
0.0
 30
0.0
  3
block 3
  1

  0
SPLINE
  5
55
330
51
100
AcDbEntity
  8
_U+30EC_U+30A4_U+30E4_U+30FC 1
370
     0
100
AcDbSpline
210
0.0
220
0.0
230
1.0
 70
    11
 71
     3
 72
    44
 73
    40
 74
     0
 42
0.0000000001
 43
0.0000000001
 12
1.0
 22
0.0
 32
0.0
 13
1.0
 23
0.0
 33
0.0
 40
0.0
 40
0.0
 40
0.0
 40
0.0
 40
1.0
 40
1.0
 40
1.0
 40
2.0
 40
2.0
 40
2.0
 40
3.0
 40
3.0
 40
3.0
 40
4.0
 40
4.0
 40
4.0
 40
5.0
 40
5.0
 40
5.0
 40
6.0
 40
6.0
 40
6.0
 40
7.0
 40
7.0
 40
7.0
 40
8.0
 40
8.0
 40
8.0
 40
9.0
 40
9.0
 40
9.0
 40
10.0
 40
10.0
 40
10.0
 40
11.0
 40
11.0
 40
11.0
 40
12.0
 40
12.0
 40
12.0
 40
13.0
 40
13.0
 40
13.0
 40
13.0
 10
95.27479784711518
 20
157.1242548803152
 30
0.0
 10
95.30132673532727
 20
157.4315595946974
 30
0.0
 10
95.49013339717708
 20
157.560394035855
 30
0.0
 10
95.81327783337741
 20
157.7440148645038
 30
0.0
 10
96.00585921735315
 20
157.8535916272032
 30
0.0
 10
96.09232504848055
 20
157.9011420827174
 30
0.0
 10
96.09232504848055
 20
158.063737356347
 30
0.0
 10
96.09232504848055
 20
158.2666551289479
 30
0.0
 10
95.92627497601856
 20
158.3159029054693
 30
0.0
 10
95.80636338910938
 20
158.3159029054693
 30
0.0
 10
95.50251589686117
 20
158.3159029054693
 30
0.0
 10
95.48840478611007
 20
158.0599273564442
 30
0.0
 10
95.48494997612883
 20
157.9910298582019
 30
0.0
 10
95.48494997612883
 20
157.9910298582019
 30
0.0
 10
95.31716645714538
 20
157.9910298582019
 30
0.0
 10
95.31716645714538
 20
157.9910298582019
 30
0.0
 10
95.3227050681152
 20
158.065465967414
 30
0.0
 10
95.32958423460636
 20
158.1905256864457
 30
0.0
 10
95.43188978755188
 20
158.3017917947182
 30
0.0
 10
95.55384506221831
 20
158.4378581801357
 30
0.0
 10
95.73919450193411
 20
158.4485473465297
 30
0.0
 10
95.80294144475224
 20
158.4485473465297
 30
0.0
 10
95.986562273401
 20
158.4485473465297
 30
0.0
 10
96.25114559998426
 20
158.3638101264693
 30
0.0
 10
96.25114559998426
 20
158.0723451339052
 30
0.0
 10
96.25114559998426
 20
157.8446270841592
 30
0.0
 10
96.11885393669263
 20
157.7474720866378
 30
0.0
 10
95.88217775380737
 20
157.6220595898374
 30
0.0
 10
95.55730228435235
 20
157.4491279275825
 30
0.0
 10
95.51320506325513
 20
157.3378618193101
 30
0.0
 10
95.47806839748488
 20
157.2565465436068
 30
0.0
 10
95.47806839748488
 20
157.2565465436068
 30
0.0
 10
96.25114559998426
 20
157.2565465436068
 30
0.0
 10
96.25114559998426
 20
157.2565465436068
 30
0.0
 10
96.25114559998426
 20
157.2565465436068
 30
0.0
 10
96.25114559998426
 20
157.1242548803152
 30
0.0
 10
96.25114559998426
 20
157.1242548803152
 30
0.0
 10
96.25114559998426
 20
157.1242548803152
 30
0.0
 10
95.27479784711518
 20
157.1242548803152
 30
0.0
 10
95.27479784711518
 20
157.1242548803152
 30
0.0
  0
HATCH
  5
56
330
51
100
AcDbEntity
  8
_U+30EC_U+30A4_U+30E4_U+30FC 1
 62
   250
420
  1842203
100
AcDbHatch
 10
0.0
 20
0.0
 30
0.0
210
0.0
220
0.0
230
1.0
  2
SOLID
 70
     1
 71
     0
 91
        1
 92
        1
 93
        1
 72
     4
 94
        3
 73
     0
 74
     1
 95
       44
 96
       40
 40
0.0
 40
0.0
 40
0.0
 40
0.0
 40
1.0
 40
1.0
 40
1.0
 40
2.0
 40
2.0
 40
2.0
 40
3.0
 40
3.0
 40
3.0
 40
4.0
 40
4.0
 40
4.0
 40
5.0
 40
5.0
 40
5.0
 40
6.0
 40
6.0
 40
6.0
 40
7.0
 40
7.0
 40
7.0
 40
8.0
 40
8.0
 40
8.0
 40
9.0
 40
9.0
 40
9.0
 40
10.0
 40
10.0
 40
10.0
 40
11.0
 40
11.0
 40
11.0
 40
12.0
 40
12.0
 40
12.0
 40
13.0
 40
13.0
 40
13.0
 40
13.0
 10
95.27479784711518
 20
157.1242548803152
 10
95.30132673532727
 20
157.4315595946974
 10
95.49013339717708
 20
157.560394035855
 10
95.81327783337741
 20
157.7440148645038
 10
96.00585921735315
 20
157.8535916272032
 10
96.09232504848055
 20
157.9011420827174
 10
96.09232504848055
 20
158.063737356347
 10
96.09232504848055
 20
158.2666551289479
 10
95.92627497601856
 20
158.3159029054693
 10
95.80636338910938
 20
158.3159029054693
 10
95.50251589686117
 20
158.3159029054693
 10
95.48840478611007
 20
158.0599273564442
 10
95.48494997612883
 20
157.9910298582019
 10
95.48494997612883
 20
157.9910298582019
 10
95.31716645714538
 20
157.9910298582019
 10
95.31716645714538
 20
157.9910298582019
 10
95.3227050681152
 20
158.065465967414
 10
95.32958423460636
 20
158.1905256864457
 10
95.43188978755188
 20
158.3017917947182
 10
95.55384506221831
 20
158.4378581801357
 10
95.73919450193411
 20
158.4485473465297
 10
95.80294144475224
 20
158.4485473465297
 10
95.986562273401
 20
158.4485473465297
 10
96.25114559998426
 20
158.3638101264693
 10
96.25114559998426
 20
158.0723451339052
 10
96.25114559998426
 20
157.8446270841592
 10
96.11885393669263
 20
157.7474720866378
 10
95.88217775380737
 20
157.6220595898374
 10
95.55730228435235
 20
157.4491279275825
 10
95.51320506325513
 20
157.3378618193101
 10
95.47806839748488
 20
157.2565465436068
 10
95.47806839748488
 20
157.2565465436068
 10
96.25114559998426
 20
157.2565465436068
 10
96.25114559998426
 20
157.2565465436068
 10
96.25114559998426
 20
157.2565465436068
 10
96.25114559998426
 20
157.1242548803152
 10
96.25114559998426
 20
157.1242548803152
 10
96.25114559998426
 20
157.1242548803152
 10
95.27479784711518
 20
157.1242548803152
 10
95.27479784711518
 20
157.1242548803152
 97
        0
 97
        0
 75
     2
 76
     1
 98
        0
  0
SPLINE
  5
57
330
51
100
AcDbEntity
  8
_U+30EC_U+30A4_U+30E4_U+30FC 1
370
     0
100
AcDbSpline
210
0.0
220
0.0
230
1.0
 70
    11
 71
     3
 72
    29
 73
    25
 74
     0
 42
0.0000000001
 43
0.0000000001
 12
1.0
 22
0.0
 32
0.0
 13
1.0
 23
0.0
 33
0.0
 40
0.0
 40
0.0
 40
0.0
 40
0.0
 40
1.0
 40
1.0
 40
1.0
 40
2.0
 40
2.0
 40
2.0
 40
3.0
 40
3.0
 40
3.0
 40
4.0
 40
4.0
 40
4.0
 40
5.0
 40
5.0
 40
5.0
 40
6.0
 40
6.0
 40
6.0
 40
7.0
 40
7.0
 40
7.0
 40
8.0
 40
8.0
 40
8.0
 40
8.0
 10
96.89641386466492
 20
157.0887694051723
 30
0.0
 10
96.58049892491509
 20
157.0887694051723
 30
0.0
 10
96.40756726266028
 20
157.2565465436068
 30
0.0
 10
96.40756726266028
 20
157.4721995936606
 30
0.0
 10
96.40756726266028
 20
157.7209471827919
 30
0.0
 10
96.61598836845413
 20
157.797072640928
 30
0.0
 10
96.67765392243645
 20
157.8198268070141
 30
0.0
 10
96.53813031488488
 20
157.8639240281113
 30
0.0
 10
96.46027226131565
 20
157.9790001362866
 30
0.0
 10
96.46027226131565
 20
158.1078345774442
 30
0.0
 10
96.46027226131565
 20
158.2983345725841
 30
0.0
 10
96.61598836845413
 20
158.4485473465297
 30
0.0
 10
96.89641386466492
 20
158.4485473465297
 30
0.0
 10
97.18441918728557
 20
158.4485473465297
 30
0.0
 10
97.33082196132831
 20
158.291455406093
 30
0.0
 10
97.33082196132831
 20
158.1078345774442
 30
0.0
 10
97.33082196132831
 20
157.9824220806437
 30
0.0
 10
97.25677390766187
 20
157.8659701391702
 30
0.0
 10
97.11552168904329
 20
157.8198268070141
 30
0.0
 10
97.17718724302563
 20
157.797072640928
 30
0.0
 10
97.38387973775247
 20
157.7209471827919
 30
0.0
 10
97.38387973775247
 20
157.4721995936606
 30
0.0
 10
97.38387973775247
 20
157.2513999606873
 30
0.0
 10
97.20544719792075
 20
157.0887694051723
 30
0.0
 10
96.89641386466492
 20
157.0887694051723
 30
0.0
  0
SPLINE
  5
58
330
51
100
AcDbEntity
  8
_U+30EC_U+30A4_U+30E4_U+30FC 1
370
     0
100
AcDbSpline
210
0.0
220
0.0
230
1.0
 70
    11
 71
     3
 72
    17
 73
    13
 74
     0
 42
0.0000000001
 43
0.0000000001
 12
1.0
 22
0.0
 32
0.0
 13
1.0
 23
0.0
 33
0.0
 40
0.0
 40
0.0
 40
0.0
 40
0.0
 40
1.0
 40
1.0
 40
1.0
 40
2.0
 40
2.0
 40
2.0
 40
3.0
 40
3.0
 40
3.0
 40
4.0
 40
4.0
 40
4.0
 40
4.0
 10
96.89641386466492
 20
157.7564326419648
 30
0.0
 10
96.70760475500568
 20
157.7564326419648
 30
0.0
 10
96.5732694203012
 20
157.6503170891164
 30
0.0
 10
96.5732694203012
 20
157.4825359822858
 30
0.0
 10
96.5732694203012
 20
157.3554301521952
 30
0.0
 10
96.65800420071554
 20
157.2214138495837
 30
0.0
 10
96.89641386466492
 20
157.2214138495837
 30
0.0
 10
97.13309002192842
 20
157.2214138495837
 30
0.0
 10
97.21782724198881
 20
157.3554301521952
 30
0.0
 10
97.21782724198881
 20
157.4825359822858
 30
0.0
 10
97.21782724198881
 20
157.6417093115583
 30
0.0
 10
97.09622474509116
 20
157.7564326419648
 30
0.0
 10
96.89641386466492
 20
157.7564326419648
 30
0.0
  0
SPLINE
  5
59
330
51
100
AcDbEntity
  8
_U+30EC_U+30A4_U+30E4_U+30FC 1
370
     0
100
AcDbSpline
210
0.0
220
0.0
230
1.0
 70
    11
 71
     3
 72
    17
 73
    13
 74
     0
 42
0.0000000001
 43
0.0000000001
 12
1.0
 22
0.0
 32
0.0
 13
1.0
 23
0.0
 33
0.0
 40
0.0
 40
0.0
 40
0.0
 40
0.0
 40
1.0
 40
1.0
 40
1.0
 40
2.0
 40
2.0
 40
2.0
 40
3.0
 40
3.0
 40
3.0
 40
4.0
 40
4.0
 40
4.0
 40
4.0
 10
96.89641386466492
 20
158.3159029054693
 30
0.0
 10
96.77099892005502
 20
158.3159029054693
 30
0.0
 10
96.6263247570793
 20
158.2700770733051
 30
0.0
 10
96.6263247570793
 20
158.0919948556261
 30
0.0
 10
96.6263247570793
 20
157.9135245824015
 30
0.0
 10
96.77308030889081
 20
157.8677027383108
 30
0.0
 10
96.89641386466492
 20
157.8677027383108
 30
0.0
 10
97.0149094693879
 20
157.8677027383108
 30
0.0
 10
97.16476946556466
 20
157.9100673602674
 30
0.0
 10
97.16476946556466
 20
158.0919948556261
 30
0.0
 10
97.16476946556466
 20
158.2700770733051
 30
0.0
 10
97.02009530258894
 20
158.3159029054693
 30
0.0
 10
96.89641386466492
 20
158.3159029054693
 30
0.0
  0
HATCH
  5
5A
330
51
100
AcDbEntity
  8
_U+30EC_U+30A4_U+30E4_U+30FC 1
 62
   250
420
  1842203
100
AcDbHatch
 10
0.0
 20
0.0
 30
0.0
210
0.0
220
0.0
230
1.0
  2
SOLID
 70
     1
 71
     0
 91
        3
 92
        1
 93
        1
 72
     4
 94
        3
 73
     0
 74
     1
 95
       29
 96
       25
 40
0.0
 40
0.0
 40
0.0
 40
0.0
 40
1.0
 40
1.0
 40
1.0
 40
2.0
 40
2.0
 40
2.0
 40
3.0
 40
3.0
 40
3.0
 40
4.0
 40
4.0
 40
4.0
 40
5.0
 40
5.0
 40
5.0
 40
6.0
 40
6.0
 40
6.0
 40
7.0
 40
7.0
 40
7.0
 40
8.0
 40
8.0
 40
8.0
 40
8.0
 10
96.89641386466492
 20
157.0887694051723
 10
96.58049892491509
 20
157.0887694051723
 10
96.40756726266028
 20
157.2565465436068
 10
96.40756726266028
 20
157.4721995936606
 10
96.40756726266028
 20
157.7209471827919
 10
96.61598836845413
 20
157.797072640928
 10
96.67765392243645
 20
157.8198268070141
 10
96.53813031488488
 20
157.8639240281113
 10
96.46027226131565
 20
157.9790001362866
 10
96.46027226131565
 20
158.1078345774442
 10
96.46027226131565
 20
158.2983345725841
 10
96.61598836845413
 20
158.4485473465297
 10
96.89641386466492
 20
158.4485473465297
 10
97.18441918728557
 20
158.4485473465297
 10
97.33082196132831
 20
158.291455406093
 10
97.33082196132831
 20
158.1078345774442
 10
97.33082196132831
 20
157.9824220806437
 10
97.25677390766187
 20
157.8659701391702
 10
97.11552168904329
 20
157.8198268070141
 10
97.17718724302563
 20
157.797072640928
 10
97.38387973775247
 20
157.7209471827919
 10
97.38387973775247
 20
157.4721995936606
 10
97.38387973775247
 20
157.2513999606873
 10
97.20544719792075
 20
157.0887694051723
 10
96.89641386466492
 20
157.0887694051723
 97
        0
 97
        0
 92
        1
 93
        1
 72
     4
 94
        3
 73
     0
 74
     1
 95
       17
 96
       13
 40
0.0
 40
0.0
 40
0.0
 40
0.0
 40
1.0
 40
1.0
 40
1.0
 40
2.0
 40
2.0
 40
2.0
 40
3.0
 40
3.0
 40
3.0
 40
4.0
 40
4.0
 40
4.0
 40
4.0
 10
96.89641386466492
 20
157.7564326419648
 10
96.70760475500568
 20
157.7564326419648
 10
96.5732694203012
 20
157.6503170891164
 10
96.5732694203012
 20
157.4825359822858
 10
96.5732694203012
 20
157.3554301521952
 10
96.65800420071554
 20
157.2214138495837
 10
96.89641386466492
 20
157.2214138495837
 10
97.13309002192842
 20
157.2214138495837
 10
97.21782724198881
 20
157.3554301521952
 10
97.21782724198881
 20
157.4825359822858
 10
97.21782724198881
 20
157.6417093115583
 10
97.09622474509116
 20
157.7564326419648
 10
96.89641386466492
 20
157.7564326419648
 97
        0
 97
        0
 92
        1
 93
        1
 72
     4
 94
        3
 73
     0
 74
     1
 95
       17
 96
       13
 40
0.0
 40
0.0
 40
0.0
 40
0.0
 40
1.0
 40
1.0
 40
1.0
 40
2.0
 40
2.0
 40
2.0
 40
3.0
 40
3.0
 40
3.0
 40
4.0
 40
4.0
 40
4.0
 40
4.0
 10
96.89641386466492
 20
158.3159029054693
 10
96.77099892005502
 20
158.3159029054693
 10
96.6263247570793
 20
158.2700770733051
 10
96.6263247570793
 20
158.0919948556261
 10
96.6263247570793
 20
157.9135245824015
 10
96.77308030889081
 20
157.8677027383108
 10
96.89641386466492
 20
157.8677027383108
 10
97.0149094693879
 20
157.8677027383108
 10
97.16476946556466
 20
157.9100673602674
 10
97.16476946556466
 20
158.0919948556261
 10
97.16476946556466
 20
158.2700770733051
 10
97.02009530258894
 20
158.3159029054693
 10
96.89641386466492
 20
158.3159029054693
 97
        0
 97
        0
 75
     2
 76
     1
 98
        0
  0
ENDBLK
  5
54
330
51
100
AcDbEntity
  8
0
100
AcDbBlockEnd
  0
BLOCK
  5
64
330
62
100
AcDbEntity
  8
0
100
AcDbBlockBegin
  2
block 4
 70
     0
 10
0.0
 20
0.0
 30
0.0
  3
block 4
  1

  0
SPLINE
  5
66
330
62
100
AcDbEntity
  8
_U+30EC_U+30A4_U+30E4_U+30FC 1
370
     0
100
AcDbSpline
210
0.0
220
0.0
230
1.0
 70
    11
 71
     3
 72
    50
 73
    46
 74
     0
 42
0.0000000001
 43
0.0000000001
 12
1.0
 22
0.0
 32
0.0
 13
1.0
 23
0.0
 33
0.0
 40
0.0
 40
0.0
 40
0.0
 40
0.0
 40
1.0
 40
1.0
 40
1.0
 40
2.0
 40
2.0
 40
2.0
 40
3.0
 40
3.0
 40
3.0
 40
4.0
 40
4.0
 40
4.0
 40
5.0
 40
5.0
 40
5.0
 40
6.0
 40
6.0
 40
6.0
 40
7.0
 40
7.0
 40
7.0
 40
8.0
 40
8.0
 40
8.0
 40
9.0
 40
9.0
 40
9.0
 40
10.0
 40
10.0
 40
10.0
 40
11.0
 40
11.0
 40
11.0
 40
12.0
 40
12.0
 40
12.0
 40
13.0
 40
13.0
 40
13.0
 40
14.0
 40
14.0
 40
14.0
 40
15.0
 40
15.0
 40
15.0
 40
15.0
 10
89.29634355519381
 20
157.0887694051723
 30
0.0
 10
89.01729634009068
 20
157.0887694051723
 30
0.0
 10
88.86743634391392
 20
157.2355249606912
 30
0.0
 10
88.82852495601774
 20
157.4560110717472
 30
0.0
 10
88.82852495601774
 20
157.4560110717472
 30
0.0
 10
88.99627078507153
 20
157.4560110717472
 30
0.0
 10
88.99627078507153
 20
157.4560110717472
 30
0.0
 10
89.0224821732917
 20
157.3027251535398
 30
0.0
 10
89.14994078115109
 20
157.2196812667696
 30
0.0
 10
89.29634355519381
 20
157.2196812667696
 30
0.0
 10
89.47827105055246
 20
157.2196812667696
 30
0.0
 10
89.6387849353463
 20
157.3292540417519
 30
0.0
 10
89.6387849353463
 20
157.53559375871
 30
0.0
 10
89.6387849353463
 20
157.5955307016253
 30
0.0
 10
89.61779465810403
 20
157.837747917668
 30
0.0
 10
89.32632966553992
 20
157.837747917668
 30
0.0
 10
89.24674300090368
 20
157.837747917668
 30
0.0
 10
89.121683281872
 20
157.8180981959471
 30
0.0
 10
89.04901106150379
 20
157.7209471827919
 30
0.0
 10
89.04901106150379
 20
157.7209471827919
 30
0.0
 10
88.88327606573205
 20
157.7209471827919
 30
0.0
 10
88.88327606573205
 20
157.7209471827919
 30
0.0
 10
88.88327606573205
 20
157.7209471827919
 30
0.0
 10
88.99799939613854
 20
158.4130579029906
 30
0.0
 10
88.99799939613854
 20
158.4130579029906
 30
0.0
 10
88.99799939613854
 20
158.4130579029906
 30
0.0
 10
89.73421132180066
 20
158.4130579029906
 30
0.0
 10
89.73421132180066
 20
158.4130579029906
 30
0.0
 10
89.73421132180066
 20
158.4130579029906
 30
0.0
 10
89.73421132180066
 20
158.280766239699
 30
0.0
 10
89.73421132180066
 20
158.280766239699
 30
0.0
 10
89.73421132180066
 20
158.280766239699
 30
0.0
 10
89.1375230036901
 20
158.280766239699
 30
0.0
 10
89.1375230036901
 20
158.280766239699
 30
0.0
 10
89.1375230036901
 20
158.280766239699
 30
0.0
 10
89.07208272758186
 20
157.8869956941894
 30
0.0
 10
89.07208272758186
 20
157.8869956941894
 30
0.0
 10
89.11790855974607
 20
157.9187104156025
 30
0.0
 10
89.1919566134125
 20
157.9700395809597
 30
0.0
 10
89.34767497766316
 20
157.9700395809597
 30
0.0
 10
89.61056271384409
 20
157.9700395809597
 30
0.0
 10
89.80483743110995
 20
157.8198268070141
 30
0.0
 10
89.80483743110995
 20
157.537322369777
 30
0.0
 10
89.80483743110995
 20
157.2424354328557
 30
0.0
 10
89.56988743710401
 20
157.0887694051723
 30
0.0
 10
89.29634355519381
 20
157.0887694051723
 30
0.0
  0
HATCH
  5
67
330
62
100
AcDbEntity
  8
_U+30EC_U+30A4_U+30E4_U+30FC 1
 62
   250
420
  1842203
100
AcDbHatch
 10
0.0
 20
0.0
 30
0.0
210
0.0
220
0.0
230
1.0
  2
SOLID
 70
     1
 71
     0
 91
        1
 92
        1
 93
        1
 72
     4
 94
        3
 73
     0
 74
     1
 95
       50
 96
       46
 40
0.0
 40
0.0
 40
0.0
 40
0.0
 40
1.0
 40
1.0
 40
1.0
 40
2.0
 40
2.0
 40
2.0
 40
3.0
 40
3.0
 40
3.0
 40
4.0
 40
4.0
 40
4.0
 40
5.0
 40
5.0
 40
5.0
 40
6.0
 40
6.0
 40
6.0
 40
7.0
 40
7.0
 40
7.0
 40
8.0
 40
8.0
 40
8.0
 40
9.0
 40
9.0
 40
9.0
 40
10.0
 40
10.0
 40
10.0
 40
11.0
 40
11.0
 40
11.0
 40
12.0
 40
12.0
 40
12.0
 40
13.0
 40
13.0
 40
13.0
 40
14.0
 40
14.0
 40
14.0
 40
15.0
 40
15.0
 40
15.0
 40
15.0
 10
89.29634355519381
 20
157.0887694051723
 10
89.01729634009068
 20
157.0887694051723
 10
88.86743634391392
 20
157.2355249606912
 10
88.82852495601774
 20
157.4560110717472
 10
88.82852495601774
 20
157.4560110717472
 10
88.99627078507153
 20
157.4560110717472
 10
88.99627078507153
 20
157.4560110717472
 10
89.0224821732917
 20
157.3027251535398
 10
89.14994078115109
 20
157.2196812667696
 10
89.29634355519381
 20
157.2196812667696
 10
89.47827105055246
 20
157.2196812667696
 10
89.6387849353463
 20
157.3292540417519
 10
89.6387849353463
 20
157.53559375871
 10
89.6387849353463
 20
157.5955307016253
 10
89.61779465810403
 20
157.837747917668
 10
89.32632966553992
 20
157.837747917668
 10
89.24674300090368
 20
157.837747917668
 10
89.121683281872
 20
157.8180981959471
 10
89.04901106150379
 20
157.7209471827919
 10
89.04901106150379
 20
157.7209471827919
 10
88.88327606573205
 20
157.7209471827919
 10
88.88327606573205
 20
157.7209471827919
 10
88.88327606573205
 20
157.7209471827919
 10
88.99799939613854
 20
158.4130579029906
 10
88.99799939613854
 20
158.4130579029906
 10
88.99799939613854
 20
158.4130579029906
 10
89.73421132180066
 20
158.4130579029906
 10
89.73421132180066
 20
158.4130579029906
 10
89.73421132180066
 20
158.4130579029906
 10
89.73421132180066
 20
158.280766239699
 10
89.73421132180066
 20
158.280766239699
 10
89.73421132180066
 20
158.280766239699
 10
89.1375230036901
 20
158.280766239699
 10
89.1375230036901
 20
158.280766239699
 10
89.1375230036901
 20
158.280766239699
 10
89.07208272758186
 20
157.8869956941894
 10
89.07208272758186
 20
157.8869956941894
 10
89.11790855974607
 20
157.9187104156025
 10
89.1919566134125
 20
157.9700395809597
 10
89.34767497766316
 20
157.9700395809597
 10
89.61056271384409
 20
157.9700395809597
 10
89.80483743110995
 20
157.8198268070141
 10
89.80483743110995
 20
157.537322369777
 10
89.80483743110995
 20
157.2424354328557
 10
89.56988743710401
 20
157.0887694051723
 10
89.29634355519381
 20
157.0887694051723
 97
        0
 97
        0
 75
     2
 76
     1
 98
        0
  0
SPLINE
  5
68
330
62
100
AcDbEntity
  8
_U+30EC_U+30A4_U+30E4_U+30FC 1
370
     0
100
AcDbSpline
210
0.0
220
0.0
230
1.0
 70
    11
 71
     3
 72
    29
 73
    25
 74
     0
 42
0.0000000001
 43
0.0000000001
 12
1.0
 22
0.0
 32
0.0
 13
1.0
 23
0.0
 33
0.0
 40
0.0
 40
0.0
 40
0.0
 40
0.0
 40
1.0
 40
1.0
 40
1.0
 40
2.0
 40
2.0
 40
2.0
 40
3.0
 40
3.0
 40
3.0
 40
4.0
 40
4.0
 40
4.0
 40
5.0
 40
5.0
 40
5.0
 40
6.0
 40
6.0
 40
6.0
 40
7.0
 40
7.0
 40
7.0
 40
8.0
 40
8.0
 40
8.0
 40
8.0
 10
90.42876019297013
 20
157.0887694051723
 30
0.0
 10
90.11284997747183
 20
157.0887694051723
 30
0.0
 10
89.93991603877491
 20
157.2565465436068
 30
0.0
 10
89.93991603877491
 20
157.4721995936606
 30
0.0
 10
89.93991603877491
 20
157.7209471827919
 30
0.0
 10
90.14833714456876
 20
157.797072640928
 30
0.0
 10
90.2100026985511
 20
157.8198268070141
 30
0.0
 10
90.07047909099953
 20
157.8639240281113
 30
0.0
 10
89.9926210374303
 20
157.9790001362866
 30
0.0
 10
89.9926210374303
 20
158.1078345774442
 30
0.0
 10
89.9926210374303
 20
158.2983345725841
 30
0.0
 10
90.14833714456876
 20
158.4485473465297
 30
0.0
 10
90.42876019297013
 20
158.4485473465297
 30
0.0
 10
90.71676796340022
 20
158.4485473465297
 30
0.0
 10
90.86317073744294
 20
158.291455406093
 30
0.0
 10
90.86317073744294
 20
158.1078345774442
 30
0.0
 10
90.86317073744294
 20
157.9824220806437
 30
0.0
 10
90.78912497730256
 20
157.8659701391702
 30
0.0
 10
90.64787046515794
 20
157.8198268070141
 30
0.0
 10
90.70953601914027
 20
157.797072640928
 30
0.0
 10
90.91622851386711
 20
157.7209471827919
 30
0.0
 10
90.91622851386711
 20
157.4721995936606
 30
0.0
 10
90.91622851386711
 20
157.2513999606873
 30
0.0
 10
90.73779351841937
 20
157.0887694051723
 30
0.0
 10
90.42876019297013
 20
157.0887694051723
 30
0.0
  0
SPLINE
  5
69
330
62
100
AcDbEntity
  8
_U+30EC_U+30A4_U+30E4_U+30FC 1
370
     0
100
AcDbSpline
210
0.0
220
0.0
230
1.0
 70
    11
 71
     3
 72
    17
 73
    13
 74
     0
 42
0.0000000001
 43
0.0000000001
 12
1.0
 22
0.0
 32
0.0
 13
1.0
 23
0.0
 33
0.0
 40
0.0
 40
0.0
 40
0.0
 40
0.0
 40
1.0
 40
1.0
 40
1.0
 40
2.0
 40
2.0
 40
2.0
 40
3.0
 40
3.0
 40
3.0
 40
4.0
 40
4.0
 40
4.0
 40
4.0
 10
90.42876019297013
 20
157.7564326419648
 30
0.0
 10
90.23995353112032
 20
157.7564326419648
 30
0.0
 10
90.10561575676978
 20
157.6503170891164
 30
0.0
 10
90.10561575676978
 20
157.4825359822858
 30
0.0
 10
90.10561575676978
 20
157.3554301521952
 30
0.0
 10
90.19035297683018
 20
157.2214138495837
 30
0.0
 10
90.42876019297013
 20
157.2214138495837
 30
0.0
 10
90.66543879804307
 20
157.2214138495837
 30
0.0
 10
90.75017601810346
 20
157.3554301521952
 30
0.0
 10
90.75017601810346
 20
157.4825359822858
 30
0.0
 10
90.75017601810346
 20
157.6417093115583
 30
0.0
 10
90.6285735212058
 20
157.7564326419648
 30
0.0
 10
90.42876019297013
 20
157.7564326419648
 30
0.0
  0
SPLINE
  5
6A
330
62
100
AcDbEntity
  8
_U+30EC_U+30A4_U+30E4_U+30FC 1
370
     0
100
AcDbSpline
210
0.0
220
0.0
230
1.0
 70
    11
 71
     3
 72
    17
 73
    13
 74
     0
 42
0.0000000001
 43
0.0000000001
 12
1.0
 22
0.0
 32
0.0
 13
1.0
 23
0.0
 33
0.0
 40
0.0
 40
0.0
 40
0.0
 40
0.0
 40
1.0
 40
1.0
 40
1.0
 40
2.0
 40
2.0
 40
2.0
 40
3.0
 40
3.0
 40
3.0
 40
4.0
 40
4.0
 40
4.0
 40
4.0
 10
90.42876019297013
 20
158.3159029054693
 30
0.0
 10
90.30334997742419
 20
158.3159029054693
 30
0.0
 10
90.15867353319395
 20
158.2700770733051
 30
0.0
 10
90.15867353319395
 20
158.0919948556261
 30
0.0
 10
90.15867353319395
 20
157.9135245824015
 30
0.0
 10
90.30542908500546
 20
157.8677027383108
 30
0.0
 10
90.42876019297013
 20
157.8677027383108
 30
0.0
 10
90.54725824550255
 20
157.8677027383108
 30
0.0
 10
90.69711824167929
 20
157.9100673602674
 30
0.0
 10
90.69711824167929
 20
158.0919948556261
 30
0.0
 10
90.69711824167929
 20
158.2700770733051
 30
0.0
 10
90.55244407870357
 20
158.3159029054693
 30
0.0
 10
90.42876019297013
 20
158.3159029054693
 30
0.0
  0
HATCH
  5
6B
330
62
100
AcDbEntity
  8
_U+30EC_U+30A4_U+30E4_U+30FC 1
 62
   250
420
  1842203
100
AcDbHatch
 10
0.0
 20
0.0
 30
0.0
210
0.0
220
0.0
230
1.0
  2
SOLID
 70
     1
 71
     0
 91
        3
 92
        1
 93
        1
 72
     4
 94
        3
 73
     0
 74
     1
 95
       29
 96
       25
 40
0.0
 40
0.0
 40
0.0
 40
0.0
 40
1.0
 40
1.0
 40
1.0
 40
2.0
 40
2.0
 40
2.0
 40
3.0
 40
3.0
 40
3.0
 40
4.0
 40
4.0
 40
4.0
 40
5.0
 40
5.0
 40
5.0
 40
6.0
 40
6.0
 40
6.0
 40
7.0
 40
7.0
 40
7.0
 40
8.0
 40
8.0
 40
8.0
 40
8.0
 10
90.42876019297013
 20
157.0887694051723
 10
90.11284997747183
 20
157.0887694051723
 10
89.93991603877491
 20
157.2565465436068
 10
89.93991603877491
 20
157.4721995936606
 10
89.93991603877491
 20
157.7209471827919
 10
90.14833714456876
 20
157.797072640928
 10
90.2100026985511
 20
157.8198268070141
 10
90.07047909099953
 20
157.8639240281113
 10
89.9926210374303
 20
157.9790001362866
 10
89.9926210374303
 20
158.1078345774442
 10
89.9926210374303
 20
158.2983345725841
 10
90.14833714456876
 20
158.4485473465297
 10
90.42876019297013
 20
158.4485473465297
 10
90.71676796340022
 20
158.4485473465297
 10
90.86317073744294
 20
158.291455406093
 10
90.86317073744294
 20
158.1078345774442
 10
90.86317073744294
 20
157.9824220806437
 10
90.78912497730256
 20
157.8659701391702
 10
90.64787046515794
 20
157.8198268070141
 10
90.70953601914027
 20
157.797072640928
 10
90.91622851386711
 20
157.7209471827919
 10
90.91622851386711
 20
157.4721995936606
 10
90.91622851386711
 20
157.2513999606873
 10
90.73779351841937
 20
157.0887694051723
 10
90.42876019297013
 20
157.0887694051723
 97
        0
 97
        0
 92
        1
 93
        1
 72
     4
 94
        3
 73
     0
 74
     1
 95
       17
 96
       13
 40
0.0
 40
0.0
 40
0.0
 40
0.0
 40
1.0
 40
1.0
 40
1.0
 40
2.0
 40
2.0
 40
2.0
 40
3.0
 40
3.0
 40
3.0
 40
4.0
 40
4.0
 40
4.0
 40
4.0
 10
90.42876019297013
 20
157.7564326419648
 10
90.23995353112032
 20
157.7564326419648
 10
90.10561575676978
 20
157.6503170891164
 10
90.10561575676978
 20
157.4825359822858
 10
90.10561575676978
 20
157.3554301521952
 10
90.19035297683018
 20
157.2214138495837
 10
90.42876019297013
 20
157.2214138495837
 10
90.66543879804307
 20
157.2214138495837
 10
90.75017601810346
 20
157.3554301521952
 10
90.75017601810346
 20
157.4825359822858
 10
90.75017601810346
 20
157.6417093115583
 10
90.6285735212058
 20
157.7564326419648
 10
90.42876019297013
 20
157.7564326419648
 97
        0
 97
        0
 92
        1
 93
        1
 72
     4
 94
        3
 73
     0
 74
     1
 95
       17
 96
       13
 40
0.0
 40
0.0
 40
0.0
 40
0.0
 40
1.0
 40
1.0
 40
1.0
 40
2.0
 40
2.0
 40
2.0
 40
3.0
 40
3.0
 40
3.0
 40
4.0
 40
4.0
 40
4.0
 40
4.0
 10
90.42876019297013
 20
158.3159029054693
 10
90.30334997742419
 20
158.3159029054693
 10
90.15867353319395
 20
158.2700770733051
 10
90.15867353319395
 20
158.0919948556261
 10
90.15867353319395
 20
157.9135245824015
 10
90.30542908500546
 20
157.8677027383108
 10
90.42876019297013
 20
157.8677027383108
 10
90.54725824550255
 20
157.8677027383108
 10
90.69711824167929
 20
157.9100673602674
 10
90.69711824167929
 20
158.0919948556261
 10
90.69711824167929
 20
158.2700770733051
 10
90.55244407870357
 20
158.3159029054693
 10
90.42876019297013
 20
158.3159029054693
 97
        0
 97
        0
 75
     2
 76
     1
 98
        0
  0
ENDBLK
  5
65
330
62
100
AcDbEntity
  8
0
100
AcDbBlockEnd
  0
BLOCK
  5
75
330
73
100
AcDbEntity
  8
0
100
AcDbBlockBegin
  2
block 5
 70
     0
 10
0.0
 20
0.0
 30
0.0
  3
block 5
  1

  0
SPLINE
  5
77
330
73
100
AcDbEntity
  8
_U+30EC_U+30A4_U+30E4_U+30FC 1
370
     0
100
AcDbSpline
210
0.0
220
0.0
230
1.0
 70
    11
 71
     3
 72
    32
 73
    28
 74
     0
 42
0.0000000001
 43
0.0000000001
 12
1.0
 22
0.0
 32
0.0
 13
1.0
 23
0.0
 33
0.0
 40
0.0
 40
0.0
 40
0.0
 40
0.0
 40
1.0
 40
1.0
 40
1.0
 40
2.0
 40
2.0
 40
2.0
 40
3.0
 40
3.0
 40
3.0
 40
4.0
 40
4.0
 40
4.0
 40
5.0
 40
5.0
 40
5.0
 40
6.0
 40
6.0
 40
6.0
 40
7.0
 40
7.0
 40
7.0
 40
8.0
 40
8.0
 40
8.0
 40
9.0
 40
9.0
 40
9.0
 40
9.0
 10
89.68979660071155
 20
133.7468749665633
 30
0.0
 10
89.24847161197069
 20
133.7468749665633
 30
0.0
 10
89.18130272479542
 20
134.1744029658147
 30
0.0
 10
89.18130272479542
 20
134.3986990712035
 30
0.0
 10
89.18130272479542
 20
134.8575571150526
 30
0.0
 10
89.38972383058926
 20
135.1066534975866
 30
0.0
 10
89.71078687795382
 20
135.1066534975866
 30
0.0
 10
89.87684164419754
 20
135.1066534975866
 30
0.0
 10
90.08871770164534
 20
135.0287954440173
 30
0.0
 10
90.13627214487656
 20
134.7783232281852
 30
0.0
 10
90.13627214487656
 20
134.7783232281852
 30
0.0
 10
89.97057242688169
 20
134.7783232281852
 30
0.0
 10
89.97057242688169
 20
134.7783232281852
 30
0.0
 10
89.95815464942072
 20
134.8276062824834
 30
0.0
 10
89.92093886640875
 20
134.968858501102
 30
0.0
 10
89.71078687795382
 20
134.968858501102
 30
0.0
 10
89.37007410886835
 20
134.968858501102
 30
0.0
 10
89.35423438705023
 20
134.5823198998523
 30
0.0
 10
89.3490485538492
 20
134.4514040698589
 30
0.0
 10
89.41417132996555
 20
134.5433732341793
 30
0.0
 10
89.5237441049479
 20
134.6298390653067
 30
0.0
 10
89.71632775534881
 20
134.6298390653067
 30
0.0
 10
89.94746548302676
 20
134.6298390653067
 30
0.0
 10
90.15761519988762
 20
134.4885868466881
 30
0.0
 10
90.15761519988762
 20
134.2061176872278
 30
0.0
 10
90.15761519988762
 20
133.9501421382027
 30
0.0
 10
89.97745159337286
 20
133.7468749665633
 30
0.0
 10
89.68979660071155
 20
133.7468749665633
 30
0.0
  0
SPLINE
  5
78
330
73
100
AcDbEntity
  8
_U+30EC_U+30A4_U+30E4_U+30FC 1
370
     0
100
AcDbSpline
210
0.0
220
0.0
230
1.0
 70
    11
 71
     3
 72
    20
 73
    16
 74
     0
 42
0.0000000001
 43
0.0000000001
 12
1.0
 22
0.0
 32
0.0
 13
1.0
 23
0.0
 33
0.0
 40
0.0
 40
0.0
 40
0.0
 40
0.0
 40
1.0
 40
1.0
 40
1.0
 40
2.0
 40
2.0
 40
2.0
 40
3.0
 40
3.0
 40
3.0
 40
4.0
 40
4.0
 40
4.0
 40
5.0
 40
5.0
 40
5.0
 40
5.0
 10
89.9282038168515
 20
134.4021210155607
 30
0.0
 10
89.87341742936033
 20
134.474475735937
 30
0.0
 10
89.78141298726311
 20
134.499276013082
 30
0.0
 10
89.69321854506869
 20
134.499276013082
 30
0.0
 10
89.53097604920784
 20
134.499276013082
 30
0.0
 10
89.37353133100237
 20
134.4055782376947
 30
0.0
 10
89.37353133100237
 20
134.2078110205179
 30
0.0
 10
89.37353133100237
 20
134.0772479682933
 30
0.0
 10
89.44415744031166
 20
133.8795194109746
 30
0.0
 10
89.68425798974174
 20
133.8795194109746
 30
0.0
 10
89.8679140961674
 20
133.8795194109746
 30
0.0
 10
89.99156270412396
 20
133.9976613036571
 30
0.0
 10
89.99156270412396
 20
134.1919712986998
 30
0.0
 10
89.99156270412396
 20
134.250214908325
 30
0.0
 10
89.97918020443987
 20
134.3349555219716
 30
0.0
 10
89.9282038168515
 20
134.4021210155607
 30
0.0
  0
HATCH
  5
79
330
73
100
AcDbEntity
  8
_U+30EC_U+30A4_U+30E4_U+30FC 1
 62
   250
420
  1842203
100
AcDbHatch
 10
0.0
 20
0.0
 30
0.0
210
0.0
220
0.0
230
1.0
  2
SOLID
 70
     1
 71
     0
 91
        2
 92
        1
 93
        1
 72
     4
 94
        3
 73
     0
 74
     1
 95
       32
 96
       28
 40
0.0
 40
0.0
 40
0.0
 40
0.0
 40
1.0
 40
1.0
 40
1.0
 40
2.0
 40
2.0
 40
2.0
 40
3.0
 40
3.0
 40
3.0
 40
4.0
 40
4.0
 40
4.0
 40
5.0
 40
5.0
 40
5.0
 40
6.0
 40
6.0
 40
6.0
 40
7.0
 40
7.0
 40
7.0
 40
8.0
 40
8.0
 40
8.0
 40
9.0
 40
9.0
 40
9.0
 40
9.0
 10
89.68979660071155
 20
133.7468749665633
 10
89.24847161197069
 20
133.7468749665633
 10
89.18130272479542
 20
134.1744029658147
 10
89.18130272479542
 20
134.3986990712035
 10
89.18130272479542
 20
134.8575571150526
 10
89.38972383058926
 20
135.1066534975866
 10
89.71078687795382
 20
135.1066534975866
 10
89.87684164419754
 20
135.1066534975866
 10
90.08871770164534
 20
135.0287954440173
 10
90.13627214487656
 20
134.7783232281852
 10
90.13627214487656
 20
134.7783232281852
 10
89.97057242688169
 20
134.7783232281852
 10
89.97057242688169
 20
134.7783232281852
 10
89.95815464942072
 20
134.8276062824834
 10
89.92093886640875
 20
134.968858501102
 10
89.71078687795382
 20
134.968858501102
 10
89.37007410886835
 20
134.968858501102
 10
89.35423438705023
 20
134.5823198998523
 10
89.3490485538492
 20
134.4514040698589
 10
89.41417132996555
 20
134.5433732341793
 10
89.5237441049479
 20
134.6298390653067
 10
89.71632775534881
 20
134.6298390653067
 10
89.94746548302676
 20
134.6298390653067
 10
90.15761519988762
 20
134.4885868466881
 10
90.15761519988762
 20
134.2061176872278
 10
90.15761519988762
 20
133.9501421382027
 10
89.97745159337286
 20
133.7468749665633
 10
89.68979660071155
 20
133.7468749665633
 97
        0
 97
        0
 92
        1
 93
        1
 72
     4
 94
        3
 73
     0
 74
     1
 95
       20
 96
       16
 40
0.0
 40
0.0
 40
0.0
 40
0.0
 40
1.0
 40
1.0
 40
1.0
 40
2.0
 40
2.0
 40
2.0
 40
3.0
 40
3.0
 40
3.0
 40
4.0
 40
4.0
 40
4.0
 40
5.0
 40
5.0
 40
5.0
 40
5.0
 10
89.9282038168515
 20
134.4021210155607
 10
89.87341742936033
 20
134.474475735937
 10
89.78141298726311
 20
134.499276013082
 10
89.69321854506869
 20
134.499276013082
 10
89.53097604920784
 20
134.499276013082
 10
89.37353133100237
 20
134.4055782376947
 10
89.37353133100237
 20
134.2078110205179
 10
89.37353133100237
 20
134.0772479682933
 10
89.44415744031166
 20
133.8795194109746
 10
89.68425798974174
 20
133.8795194109746
 10
89.8679140961674
 20
133.8795194109746
 10
89.99156270412396
 20
133.9976613036571
 10
89.99156270412396
 20
134.1919712986998
 10
89.99156270412396
 20
134.250214908325
 10
89.97918020443987
 20
134.3349555219716
 10
89.9282038168515
 20
134.4021210155607
 97
        0
 97
        0
 75
     2
 76
     1
 98
        0
  0
SPLINE
  5
7A
330
73
100
AcDbEntity
  8
_U+30EC_U+30A4_U+30E4_U+30FC 1
370
     0
100
AcDbSpline
210
0.0
220
0.0
230
1.0
 70
    11
 71
     3
 72
    17
 73
    13
 74
     0
 42
0.0000000001
 43
0.0000000001
 12
1.0
 22
0.0
 32
0.0
 13
1.0
 23
0.0
 33
0.0
 40
0.0
 40
0.0
 40
0.0
 40
0.0
 40
1.0
 40
1.0
 40
1.0
 40
2.0
 40
2.0
 40
2.0
 40
3.0
 40
3.0
 40
3.0
 40
4.0
 40
4.0
 40
4.0
 40
4.0
 10
90.78153796174779
 20
133.7468749665633
 30
0.0
 10
90.38603880517115
 20
133.7468749665633
 30
0.0
 10
90.29269380755258
 20
134.1020482454384
 30
0.0
 10
90.29269380755258
 20
134.4269212927057
 30
0.0
 10
90.29269380755258
 20
134.7517943399731
 30
0.0
 10
90.38603880517115
 20
135.1066534975866
 30
0.0
 10
90.78153796174779
 20
135.1066534975866
 30
0.0
 10
91.17703711832444
 20
135.1066534975866
 30
0.0
 10
91.26900628264478
 20
134.7480196178472
 30
0.0
 10
91.26900628264478
 20
134.4269212927057
 30
0.0
 10
91.26900628264478
 20
134.1037768565054
 30
0.0
 10
91.17703711832444
 20
133.7468749665633
 30
0.0
 10
90.78153796174779
 20
133.7468749665633
 30
0.0
  0
SPLINE
  5
7B
330
73
100
AcDbEntity
  8
_U+30EC_U+30A4_U+30E4_U+30FC 1
370
     0
100
AcDbSpline
210
0.0
220
0.0
230
1.0
 70
    11
 71
     3
 72
    17
 73
    13
 74
     0
 42
0.0000000001
 43
0.0000000001
 12
1.0
 22
0.0
 32
0.0
 13
1.0
 23
0.0
 33
0.0
 40
0.0
 40
0.0
 40
0.0
 40
0.0
 40
1.0
 40
1.0
 40
1.0
 40
2.0
 40
2.0
 40
2.0
 40
3.0
 40
3.0
 40
3.0
 40
4.0
 40
4.0
 40
4.0
 40
4.0
 10
90.78153796174779
 20
134.9740090565261
 30
0.0
 10
90.52937241262552
 20
134.9740090565261
 30
0.0
 10
90.46043963660637
 20
134.7163082996541
 30
0.0
 10
90.46043963660637
 20
134.4269212927057
 30
0.0
 10
90.46043963660637
 20
134.1248024115245
 30
0.0
 10
90.53452296804967
 20
133.8795194109746
 30
0.0
 10
90.78153796174779
 20
133.8795194109746
 30
0.0
 10
91.03063434428171
 20
133.8795194109746
 30
0.0
 10
91.10295378688113
 20
134.1265310225916
 30
0.0
 10
91.10295378688113
 20
134.4269212927057
 30
0.0
 10
91.10295378688113
 20
134.725265451761
 30
0.0
 10
91.03063434428171
 20
134.9740090565261
 30
0.0
 10
90.78153796174779
 20
134.9740090565261
 30
0.0
  0
HATCH
  5
7C
330
73
100
AcDbEntity
  8
_U+30EC_U+30A4_U+30E4_U+30FC 1
 62
   250
420
  1842203
100
AcDbHatch
 10
0.0
 20
0.0
 30
0.0
210
0.0
220
0.0
230
1.0
  2
SOLID
 70
     1
 71
     0
 91
        2
 92
        1
 93
        1
 72
     4
 94
        3
 73
     0
 74
     1
 95
       17
 96
       13
 40
0.0
 40
0.0
 40
0.0
 40
0.0
 40
1.0
 40
1.0
 40
1.0
 40
2.0
 40
2.0
 40
2.0
 40
3.0
 40
3.0
 40
3.0
 40
4.0
 40
4.0
 40
4.0
 40
4.0
 10
90.78153796174779
 20
133.7468749665633
 10
90.38603880517115
 20
133.7468749665633
 10
90.29269380755258
 20
134.1020482454384
 10
90.29269380755258
 20
134.4269212927057
 10
90.29269380755258
 20
134.7517943399731
 10
90.38603880517115
 20
135.1066534975866
 10
90.78153796174779
 20
135.1066534975866
 10
91.17703711832444
 20
135.1066534975866
 10
91.26900628264478
 20
134.7480196178472
 10
91.26900628264478
 20
134.4269212927057
 10
91.26900628264478
 20
134.1037768565054
 10
91.17703711832444
 20
133.7468749665633
 10
90.78153796174779
 20
133.7468749665633
 97
        0
 97
        0
 92
        1
 93
        1
 72
     4
 94
        3
 73
     0
 74
     1
 95
       17
 96
       13
 40
0.0
 40
0.0
 40
0.0
 40
0.0
 40
1.0
 40
1.0
 40
1.0
 40
2.0
 40
2.0
 40
2.0
 40
3.0
 40
3.0
 40
3.0
 40
4.0
 40
4.0
 40
4.0
 40
4.0
 10
90.78153796174779
 20
134.9740090565261
 10
90.52937241262552
 20
134.9740090565261
 10
90.46043963660637
 20
134.7163082996541
 10
90.46043963660637
 20
134.4269212927057
 10
90.46043963660637
 20
134.1248024115245
 10
90.53452296804967
 20
133.8795194109746
 10
90.78153796174779
 20
133.8795194109746
 10
91.03063434428171
 20
133.8795194109746
 10
91.10295378688113
 20
134.1265310225916
 10
91.10295378688113
 20
134.4269212927057
 10
91.10295378688113
 20
134.725265451761
 10
91.03063434428171
 20
134.9740090565261
 10
90.78153796174779
 20
134.9740090565261
 97
        0
 97
        0
 75
     2
 76
     1
 98
        0
  0
ENDBLK
  5
76
330
73
100
AcDbEntity
  8
0
100
AcDbBlockEnd
  0
BLOCK
  5
86
330
84
100
AcDbEntity
  8
0
100
AcDbBlockBegin
  2
block 6
 70
     0
 10
0.0
 20
0.0
 30
0.0
  3
block 6
  1

  0
SPLINE
  5
88
330
84
100
AcDbEntity
  8
_U+30EC_U+30A4_U+30E4_U+30FC 1
370
     0
100
AcDbSpline
210
0.0
220
0.0
230
1.0
 70
    11
 71
     3
 72
    50
 73
    46
 74
     0
 42
0.0000000001
 43
0.0000000001
 12
1.0
 22
0.0
 32
0.0
 13
1.0
 23
0.0
 33
0.0
 40
0.0
 40
0.0
 40
0.0
 40
0.0
 40
1.0
 40
1.0
 40
1.0
 40
2.0
 40
2.0
 40
2.0
 40
3.0
 40
3.0
 40
3.0
 40
4.0
 40
4.0
 40
4.0
 40
5.0
 40
5.0
 40
5.0
 40
6.0
 40
6.0
 40
6.0
 40
7.0
 40
7.0
 40
7.0
 40
8.0
 40
8.0
 40
8.0
 40
9.0
 40
9.0
 40
9.0
 40
10.0
 40
10.0
 40
10.0
 40
11.0
 40
11.0
 40
11.0
 40
12.0
 40
12.0
 40
12.0
 40
13.0
 40
13.0
 40
13.0
 40
14.0
 40
14.0
 40
14.0
 40
15.0
 40
15.0
 40
15.0
 40
15.0
 10
78.52836660768557
 20
154.3995444058444
 30
0.0
 10
78.51079827480045
 20
154.4753171701174
 30
0.0
 10
78.4611977205103
 20
154.6854668869783
 30
0.0
 10
78.1697327279462
 20
154.6854668869783
 30
0.0
 10
77.77631496020534
 20
154.6854668869783
 30
0.0
 10
77.75147940528339
 20
154.2655202310254
 30
0.0
 10
77.75147940528339
 20
154.1346082947998
 30
0.0
 10
77.75147940528339
 20
153.8434921862366
 30
0.0
 10
77.87689190208386
 20
153.5909777393801
 30
0.0
 10
78.1435566175029
 20
153.5909777393801
 30
0.0
 10
78.4735802201944
 20
153.5909777393801
 30
0.0
 10
78.51767744129161
 20
153.9530296834421
 30
0.0
 10
78.52836660768557
 20
154.0412241256365
 30
0.0
 10
78.52836660768557
 20
154.0412241256365
 30
0.0
 10
78.1876538386001
 20
154.0412241256365
 30
0.0
 10
78.1876538386001
 20
154.0412241256365
 30
0.0
 10
78.1876538386001
 20
154.0412241256365
 30
0.0
 10
78.1876538386001
 20
154.1645944059034
 30
0.0
 10
78.1876538386001
 20
154.1645944059034
 30
0.0
 10
78.1876538386001
 20
154.1645944059034
 30
0.0
 10
78.68372993705526
 20
154.1645944059034
 30
0.0
 10
78.68372993705526
 20
154.1645944059034
 30
0.0
 10
78.68372993705526
 20
154.1645944059034
 30
0.0
 10
78.68372993705526
 20
153.4938188618242
 30
0.0
 10
78.68372993705526
 20
153.4938188618242
 30
0.0
 10
78.68372993705526
 20
153.4938188618242
 30
0.0
 10
78.54939216270472
 20
153.4938188618242
 30
0.0
 10
78.54939216270472
 20
153.4938188618242
 30
0.0
 10
78.54939216270472
 20
153.4938188618242
 30
0.0
 10
78.54939216270472
 20
153.6526394133279
 30
0.0
 10
78.54939216270472
 20
153.6526394133279
 30
0.0
 10
78.4735802201944
 20
153.5678669154906
 30
0.0
 10
78.37642522267303
 20
153.4583332949688
 30
0.0
 10
78.1397466176001
 20
153.4583332949688
 30
0.0
 10
77.78492273776352
 20
153.4583332949688
 30
0.0
 10
77.58542690951974
 20
153.7532163552064
 30
0.0
 10
77.58542690951974
 20
154.136333012099
 30
0.0
 10
77.58542690951974
 20
154.4312199490202
 30
0.0
 10
77.7108394063202
 20
154.8181113280387
 30
0.0
 10
78.17350745007212
 20
154.8181113280387
 30
0.0
 10
78.47703744232842
 20
154.8181113280387
 30
0.0
 10
78.65205049341903
 20
154.6486055168933
 30
0.0
 10
78.69614771451623
 20
154.3995444058444
 30
0.0
 10
78.69614771451623
 20
154.3995444058444
 30
0.0
 10
78.52836660768557
 20
154.3995444058444
 30
0.0
 10
78.52836660768557
 20
154.3995444058444
 30
0.0
  0
HATCH
  5
89
330
84
100
AcDbEntity
  8
_U+30EC_U+30A4_U+30E4_U+30FC 1
 62
   250
420
  1842203
100
AcDbHatch
 10
0.0
 20
0.0
 30
0.0
210
0.0
220
0.0
230
1.0
  2
SOLID
 70
     1
 71
     0
 91
        1
 92
        1
 93
        1
 72
     4
 94
        3
 73
     0
 74
     1
 95
       50
 96
       46
 40
0.0
 40
0.0
 40
0.0
 40
0.0
 40
1.0
 40
1.0
 40
1.0
 40
2.0
 40
2.0
 40
2.0
 40
3.0
 40
3.0
 40
3.0
 40
4.0
 40
4.0
 40
4.0
 40
5.0
 40
5.0
 40
5.0
 40
6.0
 40
6.0
 40
6.0
 40
7.0
 40
7.0
 40
7.0
 40
8.0
 40
8.0
 40
8.0
 40
9.0
 40
9.0
 40
9.0
 40
10.0
 40
10.0
 40
10.0
 40
11.0
 40
11.0
 40
11.0
 40
12.0
 40
12.0
 40
12.0
 40
13.0
 40
13.0
 40
13.0
 40
14.0
 40
14.0
 40
14.0
 40
15.0
 40
15.0
 40
15.0
 40
15.0
 10
78.52836660768557
 20
154.3995444058444
 10
78.51079827480045
 20
154.4753171701174
 10
78.4611977205103
 20
154.6854668869783
 10
78.1697327279462
 20
154.6854668869783
 10
77.77631496020534
 20
154.6854668869783
 10
77.75147940528339
 20
154.2655202310254
 10
77.75147940528339
 20
154.1346082947998
 10
77.75147940528339
 20
153.8434921862366
 10
77.87689190208386
 20
153.5909777393801
 10
78.1435566175029
 20
153.5909777393801
 10
78.4735802201944
 20
153.5909777393801
 10
78.51767744129161
 20
153.9530296834421
 10
78.52836660768557
 20
154.0412241256365
 10
78.52836660768557
 20
154.0412241256365
 10
78.1876538386001
 20
154.0412241256365
 10
78.1876538386001
 20
154.0412241256365
 10
78.1876538386001
 20
154.0412241256365
 10
78.1876538386001
 20
154.1645944059034
 10
78.1876538386001
 20
154.1645944059034
 10
78.1876538386001
 20
154.1645944059034
 10
78.68372993705526
 20
154.1645944059034
 10
78.68372993705526
 20
154.1645944059034
 10
78.68372993705526
 20
154.1645944059034
 10
78.68372993705526
 20
153.4938188618242
 10
78.68372993705526
 20
153.4938188618242
 10
78.68372993705526
 20
153.4938188618242
 10
78.54939216270472
 20
153.4938188618242
 10
78.54939216270472
 20
153.4938188618242
 10
78.54939216270472
 20
153.4938188618242
 10
78.54939216270472
 20
153.6526394133279
 10
78.54939216270472
 20
153.6526394133279
 10
78.4735802201944
 20
153.5678669154906
 10
78.37642522267303
 20
153.4583332949688
 10
78.1397466176001
 20
153.4583332949688
 10
77.78492273776352
 20
153.4583332949688
 10
77.58542690951974
 20
153.7532163552064
 10
77.58542690951974
 20
154.136333012099
 10
77.58542690951974
 20
154.4312199490202
 10
77.7108394063202
 20
154.8181113280387
 10
78.17350745007212
 20
154.8181113280387
 10
78.47703744232842
 20
154.8181113280387
 10
78.65205049341903
 20
154.6486055168933
 10
78.69614771451623
 20
154.3995444058444
 10
78.69614771451623
 20
154.3995444058444
 10
78.52836660768557
 20
154.3995444058444
 10
78.52836660768557
 20
154.3995444058444
 97
        0
 97
        0
 75
     2
 76
     1
 98
        0
  0
SPLINE
  5
8A
330
84
100
AcDbEntity
  8
_U+30EC_U+30A4_U+30E4_U+30FC 1
370
     0
100
AcDbSpline
210
0.0
220
0.0
230
1.0
 70
    11
 71
     3
 72
    26
 73
    22
 74
     0
 42
0.0000000001
 43
0.0000000001
 12
1.0
 22
0.0
 32
0.0
 13
1.0
 23
0.0
 33
0.0
 40
0.0
 40
0.0
 40
0.0
 40
0.0
 40
1.0
 40
1.0
 40
1.0
 40
2.0
 40
2.0
 40
2.0
 40
3.0
 40
3.0
 40
3.0
 40
4.0
 40
4.0
 40
4.0
 40
5.0
 40
5.0
 40
5.0
 40
6.0
 40
6.0
 40
6.0
 40
7.0
 40
7.0
 40
7.0
 40
7.0
 10
79.70417491102154
 20
154.0271130148854
 30
0.0
 10
79.70417491102154
 20
154.0271130148854
 30
0.0
 10
79.70417491102154
 20
154.5638643900806
 30
0.0
 10
79.70417491102154
 20
154.5638643900806
 30
0.0
 10
79.70417491102154
 20
154.5638643900806
 30
0.0
 10
79.55054019271886
 20
154.5638643900806
 30
0.0
 10
79.55054019271886
 20
154.5638643900806
 30
0.0
 10
79.55054019271886
 20
154.5638643900806
 30
0.0
 10
79.55054019271886
 20
154.650330221208
 30
0.0
 10
79.55054019271886
 20
154.650330221208
 30
0.0
 10
79.6318222023143
 20
154.6555160544091
 30
0.0
 10
79.6986715778286
 20
154.6572093876992
 30
0.0
 10
79.73035102146484
 20
154.7826218844997
 30
0.0
 10
79.73035102146484
 20
154.7826218844997
 30
0.0
 10
79.81889824142803
 20
154.7826218844997
 30
0.0
 10
79.81889824142803
 20
154.7826218844997
 30
0.0
 10
79.81889824142803
 20
154.7826218844997
 30
0.0
 10
79.81889824142803
 20
154.0271130148854
 30
0.0
 10
79.81889824142803
 20
154.0271130148854
 30
0.0
 10
79.81889824142803
 20
154.0271130148854
 30
0.0
 10
79.70417491102154
 20
154.0271130148854
 30
0.0
 10
79.70417491102154
 20
154.0271130148854
 30
0.0
  0
POLYLINE
  5
8B
330
84
100
AcDbEntity
  8
_U+30EC_U+30A4_U+30E4_U+30FC 1
370
     0
100
AcDb2dPolyline
 66
     1
 10
0.0
 20
0.0
 30
0.0
  0
VERTEX
  5
8C
330
8B
100
AcDbEntity
  8
_U+30EC_U+30A4_U+30E4_U+30FC 1
370
     0
100
AcDbVertex
100
AcDb2dVertex
 10
79.70209352218575
 20
153.4938188618242
 30
0.0
  0
VERTEX
  5
8D
330
8B
100
AcDbEntity
  8
_U+30EC_U+30A4_U+30E4_U+30FC 1
370
     0
100
AcDbVertex
100
AcDb2dVertex
 10
79.59805935817322
 20
153.4938188618242
 30
0.0
  0
VERTEX
  5
8E
330
8B
100
AcDbEntity
  8
_U+30EC_U+30A4_U+30E4_U+30FC 1
370
     0
100
AcDbVertex
100
AcDb2dVertex
 10
80.50032377959897
 20
154.7826218844997
 30
0.0
  0
VERTEX
  5
8F
330
8B
100
AcDbEntity
  8
_U+30EC_U+30A4_U+30E4_U+30FC 1
370
     0
100
AcDbVertex
100
AcDb2dVertex
 10
80.60608655467853
 20
154.7826218844997
 30
0.0
  0
VERTEX
  5
90
330
8B
100
AcDbEntity
  8
_U+30EC_U+30A4_U+30E4_U+30FC 1
370
     0
100
AcDbVertex
100
AcDb2dVertex
 10
79.70209352218575
 20
153.4938188618242
 30
0.0
  0
SEQEND
  5
91
330
8B
100
AcDbEntity
  8
_U+30EC_U+30A4_U+30E4_U+30FC 1
370
     0
  0
SPLINE
  5
92
330
84
100
AcDbEntity
  8
_U+30EC_U+30A4_U+30E4_U+30FC 1
370
     0
100
AcDbSpline
210
0.0
220
0.0
230
1.0
 70
    11
 71
     3
 72
    41
 73
    37
 74
     0
 42
0.0000000001
 43
0.0000000001
 12
1.0
 22
0.0
 32
0.0
 13
1.0
 23
0.0
 33
0.0
 40
0.0
 40
0.0
 40
0.0
 40
0.0
 40
1.0
 40
1.0
 40
1.0
 40
2.0
 40
2.0
 40
2.0
 40
3.0
 40
3.0
 40
3.0
 40
4.0
 40
4.0
 40
4.0
 40
5.0
 40
5.0
 40
5.0
 40
6.0
 40
6.0
 40
6.0
 40
7.0
 40
7.0
 40
7.0
 40
8.0
 40
8.0
 40
8.0
 40
9.0
 40
9.0
 40
9.0
 40
10.0
 40
10.0
 40
10.0
 40
11.0
 40
11.0
 40
11.0
 40
12.0
 40
12.0
 40
12.0
 40
12.0
 10
80.29190267380513
 20
153.4938188618242
 30
0.0
 10
80.30086322913208
 20
153.6384930247999
 30
0.0
 10
80.3466890612963
 20
153.7232694060137
 30
0.0
 10
80.50928433492592
 20
153.8362602419767
 30
0.0
 10
80.65914433110268
 20
153.942375794825
 30
0.0
 10
80.67879405282359
 20
153.9564869055761
 30
0.0
 10
80.67879405282359
 20
154.0395307923464
 30
0.0
 10
80.67879405282359
 20
154.136333012099
 30
0.0
 10
80.62746488746645
 20
154.1735157889281
 30
0.0
 10
80.56579933348411
 20
154.1735157889281
 30
0.0
 10
80.43865822561663
 20
154.1735157889281
 30
0.0
 10
80.4331548924237
 20
154.0412241256365
 30
0.0
 10
80.43142628135669
 20
153.9882055170586
 30
0.0
 10
80.43142628135669
 20
153.9882055170586
 30
0.0
 10
80.3167029509502
 20
153.9882055170586
 30
0.0
 10
80.3167029509502
 20
153.9882055170586
 30
0.0
 10
80.32361942436366
 20
154.1594046781771
 30
0.0
 10
80.40147544878748
 20
154.2689774531594
 30
0.0
 10
80.56579933348411
 20
154.2689774531594
 30
0.0
 10
80.66087497983494
 20
154.2689774531594
 30
0.0
 10
80.7952459942971
 20
154.2176130100254
 30
0.0
 10
80.7952459942971
 20
154.0446813477705
 30
0.0
 10
80.7952459942971
 20
153.906886351286
 30
0.0
 10
80.72634849605483
 20
153.8520999637948
 30
0.0
 10
80.61504711000548
 20
153.7797452434185
 30
0.0
 10
80.46864433596274
 20
153.6825902458972
 30
0.0
 10
80.44730128095169
 20
153.6298852472418
 30
0.0
 10
80.4331548924237
 20
153.5892452482786
 30
0.0
 10
80.4331548924237
 20
153.5892452482786
 30
0.0
 10
80.7952459942971
 20
153.5892452482786
 30
0.0
 10
80.7952459942971
 20
153.5892452482786
 30
0.0
 10
80.7952459942971
 20
153.5892452482786
 30
0.0
 10
80.7952459942971
 20
153.4938188618242
 30
0.0
 10
80.7952459942971
 20
153.4938188618242
 30
0.0
 10
80.7952459942971
 20
153.4938188618242
 30
0.0
 10
80.29190267380513
 20
153.4938188618242
 30
0.0
 10
80.29190267380513
 20
153.4938188618242
 30
0.0
  0
HATCH
  5
93
330
84
100
AcDbEntity
  8
_U+30EC_U+30A4_U+30E4_U+30FC 1
 62
   250
420
  1842203
100
AcDbHatch
 10
0.0
 20
0.0
 30
0.0
210
0.0
220
0.0
230
1.0
  2
SOLID
 70
     1
 71
     0
 91
        3
 92
        1
 93
        1
 72
     4
 94
        3
 73
     0
 74
     1
 95
       26
 96
       22
 40
0.0
 40
0.0
 40
0.0
 40
0.0
 40
1.0
 40
1.0
 40
1.0
 40
2.0
 40
2.0
 40
2.0
 40
3.0
 40
3.0
 40
3.0
 40
4.0
 40
4.0
 40
4.0
 40
5.0
 40
5.0
 40
5.0
 40
6.0
 40
6.0
 40
6.0
 40
7.0
 40
7.0
 40
7.0
 40
7.0
 10
79.70417491102154
 20
154.0271130148854
 10
79.70417491102154
 20
154.0271130148854
 10
79.70417491102154
 20
154.5638643900806
 10
79.70417491102154
 20
154.5638643900806
 10
79.70417491102154
 20
154.5638643900806
 10
79.55054019271886
 20
154.5638643900806
 10
79.55054019271886
 20
154.5638643900806
 10
79.55054019271886
 20
154.5638643900806
 10
79.55054019271886
 20
154.650330221208
 10
79.55054019271886
 20
154.650330221208
 10
79.6318222023143
 20
154.6555160544091
 10
79.6986715778286
 20
154.6572093876992
 10
79.73035102146484
 20
154.7826218844997
 10
79.73035102146484
 20
154.7826218844997
 10
79.81889824142803
 20
154.7826218844997
 10
79.81889824142803
 20
154.7826218844997
 10
79.81889824142803
 20
154.7826218844997
 10
79.81889824142803
 20
154.0271130148854
 10
79.81889824142803
 20
154.0271130148854
 10
79.81889824142803
 20
154.0271130148854
 10
79.70417491102154
 20
154.0271130148854
 10
79.70417491102154
 20
154.0271130148854
 97
        0
 97
        0
 92
        1
 93
        4
 72
     1
 10
79.70209352218575
 20
153.4938188618242
 11
79.59805935817322
 21
153.4938188618242
 72
     1
 10
79.59805935817322
 20
153.4938188618242
 11
80.50032377959897
 21
154.7826218844997
 72
     1
 10
80.50032377959897
 20
154.7826218844997
 11
80.60608655467853
 21
154.7826218844997
 72
     1
 10
80.60608655467853
 20
154.7826218844997
 11
79.70209352218575
 21
153.4938188618242
 97
        0
 92
        1
 93
        1
 72
     4
 94
        3
 73
     0
 74
     1
 95
       41
 96
       37
 40
0.0
 40
0.0
 40
0.0
 40
0.0
 40
1.0
 40
1.0
 40
1.0
 40
2.0
 40
2.0
 40
2.0
 40
3.0
 40
3.0
 40
3.0
 40
4.0
 40
4.0
 40
4.0
 40
5.0
 40
5.0
 40
5.0
 40
6.0
 40
6.0
 40
6.0
 40
7.0
 40
7.0
 40
7.0
 40
8.0
 40
8.0
 40
8.0
 40
9.0
 40
9.0
 40
9.0
 40
10.0
 40
10.0
 40
10.0
 40
11.0
 40
11.0
 40
11.0
 40
12.0
 40
12.0
 40
12.0
 40
12.0
 10
80.29190267380513
 20
153.4938188618242
 10
80.30086322913208
 20
153.6384930247999
 10
80.3466890612963
 20
153.7232694060137
 10
80.50928433492592
 20
153.8362602419767
 10
80.65914433110268
 20
153.942375794825
 10
80.67879405282359
 20
153.9564869055761
 10
80.67879405282359
 20
154.0395307923464
 10
80.67879405282359
 20
154.136333012099
 10
80.62746488746645
 20
154.1735157889281
 10
80.56579933348411
 20
154.1735157889281
 10
80.43865822561663
 20
154.1735157889281
 10
80.4331548924237
 20
154.0412241256365
 10
80.43142628135669
 20
153.9882055170586
 10
80.43142628135669
 20
153.9882055170586
 10
80.3167029509502
 20
153.9882055170586
 10
80.3167029509502
 20
153.9882055170586
 10
80.32361942436366
 20
154.1594046781771
 10
80.40147544878748
 20
154.2689774531594
 10
80.56579933348411
 20
154.2689774531594
 10
80.66087497983494
 20
154.2689774531594
 10
80.7952459942971
 20
154.2176130100254
 10
80.7952459942971
 20
154.0446813477705
 10
80.7952459942971
 20
153.906886351286
 10
80.72634849605483
 20
153.8520999637948
 10
80.61504711000548
 20
153.7797452434185
 10
80.46864433596274
 20
153.6825902458972
 10
80.44730128095169
 20
153.6298852472418
 10
80.4331548924237
 20
153.5892452482786
 10
80.4331548924237
 20
153.5892452482786
 10
80.7952459942971
 20
153.5892452482786
 10
80.7952459942971
 20
153.5892452482786
 10
80.7952459942971
 20
153.5892452482786
 10
80.7952459942971
 20
153.4938188618242
 10
80.7952459942971
 20
153.4938188618242
 10
80.7952459942971
 20
153.4938188618242
 10
80.29190267380513
 20
153.4938188618242
 10
80.29190267380513
 20
153.4938188618242
 97
        0
 97
        0
 75
     2
 76
     1
 98
        0
  0
ENDBLK
  5
87
330
84
100
AcDbEntity
  8
0
100
AcDbBlockEnd
  0
BLOCK
  5
9D
330
9B
100
AcDbEntity
  8
0
100
AcDbBlockBegin
  2
block 7
 70
     0
 10
0.0
 20
0.0
 30
0.0
  3
block 7
  1

  0
SPLINE
  5
9F
330
9B
100
AcDbEntity
  8
_U+30EC_U+30A4_U+30E4_U+30FC 1
370
     0
100
AcDbSpline
210
0.0
220
0.0
230
1.0
 70
    11
 71
     3
 72
    50
 73
    46
 74
     0
 42
0.0000000001
 43
0.0000000001
 12
1.0
 22
0.0
 32
0.0
 13
1.0
 23
0.0
 33
0.0
 40
0.0
 40
0.0
 40
0.0
 40
0.0
 40
1.0
 40
1.0
 40
1.0
 40
2.0
 40
2.0
 40
2.0
 40
3.0
 40
3.0
 40
3.0
 40
4.0
 40
4.0
 40
4.0
 40
5.0
 40
5.0
 40
5.0
 40
6.0
 40
6.0
 40
6.0
 40
7.0
 40
7.0
 40
7.0
 40
8.0
 40
8.0
 40
8.0
 40
9.0
 40
9.0
 40
9.0
 40
10.0
 40
10.0
 40
10.0
 40
11.0
 40
11.0
 40
11.0
 40
12.0
 40
12.0
 40
12.0
 40
13.0
 40
13.0
 40
13.0
 40
14.0
 40
14.0
 40
14.0
 40
15.0
 40
15.0
 40
15.0
 40
15.0
 10
78.52836660768557
 20
137.7307944100116
 30
0.0
 10
78.51079827480045
 20
137.8065675953727
 30
0.0
 10
78.4611977205103
 20
138.0167173122335
 30
0.0
 10
78.1697327279462
 20
138.0167173122335
 30
0.0
 10
77.77631496020534
 20
138.0167173122335
 30
0.0
 10
77.75147940528339
 20
137.5967706562806
 30
0.0
 10
77.75147940528339
 20
137.4658582989667
 30
0.0
 10
77.75147940528339
 20
137.1747426114919
 30
0.0
 10
77.87689190208386
 20
136.9222277435473
 30
0.0
 10
78.1435566175029
 20
136.9222277435473
 30
0.0
 10
78.4735802201944
 20
136.9222277435473
 30
0.0
 10
78.51767744129161
 20
137.2842801086973
 30
0.0
 10
78.52836660768557
 20
137.3724745508918
 30
0.0
 10
78.52836660768557
 20
137.3724745508918
 30
0.0
 10
78.1876538386001
 20
137.3724745508918
 30
0.0
 10
78.1876538386001
 20
137.3724745508918
 30
0.0
 10
78.1876538386001
 20
137.3724745508918
 30
0.0
 10
78.1876538386001
 20
137.4958444100706
 30
0.0
 10
78.1876538386001
 20
137.4958444100706
 30
0.0
 10
78.1876538386001
 20
137.4958444100706
 30
0.0
 10
78.68372993705526
 20
137.4958444100706
 30
0.0
 10
78.68372993705526
 20
137.4958444100706
 30
0.0
 10
78.68372993705526
 20
137.4958444100706
 30
0.0
 10
78.68372993705526
 20
136.8250692870795
 30
0.0
 10
78.68372993705526
 20
136.8250692870795
 30
0.0
 10
78.68372993705526
 20
136.8250692870795
 30
0.0
 10
78.54939216270472
 20
136.8250692870795
 30
0.0
 10
78.54939216270472
 20
136.8250692870795
 30
0.0
 10
78.54939216270472
 20
136.8250692870795
 30
0.0
 10
78.54939216270472
 20
136.9838898385832
 30
0.0
 10
78.54939216270472
 20
136.9838898385832
 30
0.0
 10
78.4735802201944
 20
136.8991173407459
 30
0.0
 10
78.37642522267303
 20
136.789583299136
 30
0.0
 10
78.1397466176001
 20
136.789583299136
 30
0.0
 10
77.78492273776352
 20
136.789583299136
 30
0.0
 10
77.58542690951974
 20
137.0844667804617
 30
0.0
 10
77.58542690951974
 20
137.4675834373542
 30
0.0
 10
77.58542690951974
 20
137.7624703742755
 30
0.0
 10
77.7108394063202
 20
138.1493617532939
 30
0.0
 10
78.17350745007212
 20
138.1493617532939
 30
0.0
 10
78.47703744232842
 20
138.1493617532939
 30
0.0
 10
78.65205049341903
 20
137.9798555210605
 30
0.0
 10
78.69614771451623
 20
137.7307944100116
 30
0.0
 10
78.69614771451623
 20
137.7307944100116
 30
0.0
 10
78.52836660768557
 20
137.7307944100116
 30
0.0
 10
78.52836660768557
 20
137.7307944100116
 30
0.0
  0
HATCH
  5
A0
330
9B
100
AcDbEntity
  8
_U+30EC_U+30A4_U+30E4_U+30FC 1
 62
   250
420
  1842203
100
AcDbHatch
 10
0.0
 20
0.0
 30
0.0
210
0.0
220
0.0
230
1.0
  2
SOLID
 70
     1
 71
     0
 91
        1
 92
        1
 93
        1
 72
     4
 94
        3
 73
     0
 74
     1
 95
       50
 96
       46
 40
0.0
 40
0.0
 40
0.0
 40
0.0
 40
1.0
 40
1.0
 40
1.0
 40
2.0
 40
2.0
 40
2.0
 40
3.0
 40
3.0
 40
3.0
 40
4.0
 40
4.0
 40
4.0
 40
5.0
 40
5.0
 40
5.0
 40
6.0
 40
6.0
 40
6.0
 40
7.0
 40
7.0
 40
7.0
 40
8.0
 40
8.0
 40
8.0
 40
9.0
 40
9.0
 40
9.0
 40
10.0
 40
10.0
 40
10.0
 40
11.0
 40
11.0
 40
11.0
 40
12.0
 40
12.0
 40
12.0
 40
13.0
 40
13.0
 40
13.0
 40
14.0
 40
14.0
 40
14.0
 40
15.0
 40
15.0
 40
15.0
 40
15.0
 10
78.52836660768557
 20
137.7307944100116
 10
78.51079827480045
 20
137.8065675953727
 10
78.4611977205103
 20
138.0167173122335
 10
78.1697327279462
 20
138.0167173122335
 10
77.77631496020534
 20
138.0167173122335
 10
77.75147940528339
 20
137.5967706562806
 10
77.75147940528339
 20
137.4658582989667
 10
77.75147940528339
 20
137.1747426114919
 10
77.87689190208386
 20
136.9222277435473
 10
78.1435566175029
 20
136.9222277435473
 10
78.4735802201944
 20
136.9222277435473
 10
78.51767744129161
 20
137.2842801086973
 10
78.52836660768557
 20
137.3724745508918
 10
78.52836660768557
 20
137.3724745508918
 10
78.1876538386001
 20
137.3724745508918
 10
78.1876538386001
 20
137.3724745508918
 10
78.1876538386001
 20
137.3724745508918
 10
78.1876538386001
 20
137.4958444100706
 10
78.1876538386001
 20
137.4958444100706
 10
78.1876538386001
 20
137.4958444100706
 10
78.68372993705526
 20
137.4958444100706
 10
78.68372993705526
 20
137.4958444100706
 10
78.68372993705526
 20
137.4958444100706
 10
78.68372993705526
 20
136.8250692870795
 10
78.68372993705526
 20
136.8250692870795
 10
78.68372993705526
 20
136.8250692870795
 10
78.54939216270472
 20
136.8250692870795
 10
78.54939216270472
 20
136.8250692870795
 10
78.54939216270472
 20
136.8250692870795
 10
78.54939216270472
 20
136.9838898385832
 10
78.54939216270472
 20
136.9838898385832
 10
78.4735802201944
 20
136.8991173407459
 10
78.37642522267303
 20
136.789583299136
 10
78.1397466176001
 20
136.789583299136
 10
77.78492273776352
 20
136.789583299136
 10
77.58542690951974
 20
137.0844667804617
 10
77.58542690951974
 20
137.4675834373542
 10
77.58542690951974
 20
137.7624703742755
 10
77.7108394063202
 20
138.1493617532939
 10
78.17350745007212
 20
138.1493617532939
 10
78.47703744232842
 20
138.1493617532939
 10
78.65205049341903
 20
137.9798555210605
 10
78.69614771451623
 20
137.7307944100116
 10
78.69614771451623
 20
137.7307944100116
 10
78.52836660768557
 20
137.7307944100116
 10
78.52836660768557
 20
137.7307944100116
 97
        0
 97
        0
 75
     2
 76
     1
 98
        0
  0
SPLINE
  5
A1
330
9B
100
AcDbEntity
  8
_U+30EC_U+30A4_U+30E4_U+30FC 1
370
     0
100
AcDbSpline
210
0.0
220
0.0
230
1.0
 70
    11
 71
     3
 72
    26
 73
    22
 74
     0
 42
0.0000000001
 43
0.0000000001
 12
1.0
 22
0.0
 32
0.0
 13
1.0
 23
0.0
 33
0.0
 40
0.0
 40
0.0
 40
0.0
 40
0.0
 40
1.0
 40
1.0
 40
1.0
 40
2.0
 40
2.0
 40
2.0
 40
3.0
 40
3.0
 40
3.0
 40
4.0
 40
4.0
 40
4.0
 40
5.0
 40
5.0
 40
5.0
 40
6.0
 40
6.0
 40
6.0
 40
7.0
 40
7.0
 40
7.0
 40
7.0
 10
79.70417491102154
 20
137.3583634401406
 30
0.0
 10
79.70417491102154
 20
137.3583634401406
 30
0.0
 10
79.70417491102154
 20
137.8951148153359
 30
0.0
 10
79.70417491102154
 20
137.8951148153359
 30
0.0
 10
79.70417491102154
 20
137.8951148153359
 30
0.0
 10
79.55054019271886
 20
137.8951148153359
 30
0.0
 10
79.55054019271886
 20
137.8951148153359
 30
0.0
 10
79.55054019271886
 20
137.8951148153359
 30
0.0
 10
79.55054019271886
 20
137.9815806464633
 30
0.0
 10
79.55054019271886
 20
137.9815806464633
 30
0.0
 10
79.6318222023143
 20
137.9867664796643
 30
0.0
 10
79.6986715778286
 20
137.9884598129544
 30
0.0
 10
79.73035102146484
 20
138.1138723097549
 30
0.0
 10
79.73035102146484
 20
138.1138723097549
 30
0.0
 10
79.81889824142803
 20
138.1138723097549
 30
0.0
 10
79.81889824142803
 20
138.1138723097549
 30
0.0
 10
79.81889824142803
 20
138.1138723097549
 30
0.0
 10
79.81889824142803
 20
137.3583634401406
 30
0.0
 10
79.81889824142803
 20
137.3583634401406
 30
0.0
 10
79.81889824142803
 20
137.3583634401406
 30
0.0
 10
79.70417491102154
 20
137.3583634401406
 30
0.0
 10
79.70417491102154
 20
137.3583634401406
 30
0.0
  0
POLYLINE
  5
A2
330
9B
100
AcDbEntity
  8
_U+30EC_U+30A4_U+30E4_U+30FC 1
370
     0
100
AcDb2dPolyline
 66
     1
 10
0.0
 20
0.0
 30
0.0
  0
VERTEX
  5
A3
330
A2
100
AcDbEntity
  8
_U+30EC_U+30A4_U+30E4_U+30FC 1
370
     0
100
AcDbVertex
100
AcDb2dVertex
 10
79.70209352218575
 20
136.8250692870795
 30
0.0
  0
VERTEX
  5
A4
330
A2
100
AcDbEntity
  8
_U+30EC_U+30A4_U+30E4_U+30FC 1
370
     0
100
AcDbVertex
100
AcDb2dVertex
 10
79.59805935817322
 20
136.8250692870795
 30
0.0
  0
VERTEX
  5
A5
330
A2
100
AcDbEntity
  8
_U+30EC_U+30A4_U+30E4_U+30FC 1
370
     0
100
AcDbVertex
100
AcDb2dVertex
 10
80.50032377959897
 20
138.1138723097549
 30
0.0
  0
VERTEX
  5
A6
330
A2
100
AcDbEntity
  8
_U+30EC_U+30A4_U+30E4_U+30FC 1
370
     0
100
AcDbVertex
100
AcDb2dVertex
 10
80.60608655467853
 20
138.1138723097549
 30
0.0
  0
VERTEX
  5
A7
330
A2
100
AcDbEntity
  8
_U+30EC_U+30A4_U+30E4_U+30FC 1
370
     0
100
AcDbVertex
100
AcDb2dVertex
 10
79.70209352218575
 20
136.8250692870795
 30
0.0
  0
SEQEND
  5
A8
330
A2
100
AcDbEntity
  8
_U+30EC_U+30A4_U+30E4_U+30FC 1
370
     0
  0
SPLINE
  5
A9
330
9B
100
AcDbEntity
  8
_U+30EC_U+30A4_U+30E4_U+30FC 1
370
     0
100
AcDbSpline
210
0.0
220
0.0
230
1.0
 70
    11
 71
     3
 72
    41
 73
    37
 74
     0
 42
0.0000000001
 43
0.0000000001
 12
1.0
 22
0.0
 32
0.0
 13
1.0
 23
0.0
 33
0.0
 40
0.0
 40
0.0
 40
0.0
 40
0.0
 40
1.0
 40
1.0
 40
1.0
 40
2.0
 40
2.0
 40
2.0
 40
3.0
 40
3.0
 40
3.0
 40
4.0
 40
4.0
 40
4.0
 40
5.0
 40
5.0
 40
5.0
 40
6.0
 40
6.0
 40
6.0
 40
7.0
 40
7.0
 40
7.0
 40
8.0
 40
8.0
 40
8.0
 40
9.0
 40
9.0
 40
9.0
 40
10.0
 40
10.0
 40
10.0
 40
11.0
 40
11.0
 40
11.0
 40
12.0
 40
12.0
 40
12.0
 40
12.0
 10
80.29190267380513
 20
136.8250692870795
 30
0.0
 10
80.30086322913208
 20
136.9697434500552
 30
0.0
 10
80.3466890612963
 20
137.0545194101809
 30
0.0
 10
80.50928433492592
 20
137.1675106672319
 30
0.0
 10
80.65914433110268
 20
137.2736262200802
 30
0.0
 10
80.67879405282359
 20
137.2877373308314
 30
0.0
 10
80.67879405282359
 20
137.3707812176016
 30
0.0
 10
80.67879405282359
 20
137.4675834373542
 30
0.0
 10
80.62746488746645
 20
137.5047662141834
 30
0.0
 10
80.56579933348411
 20
137.5047662141834
 30
0.0
 10
80.43865822561663
 20
137.5047662141834
 30
0.0
 10
80.4331548924237
 20
137.3724745508918
 30
0.0
 10
80.43142628135669
 20
137.3194555212258
 30
0.0
 10
80.43142628135669
 20
137.3194555212258
 30
0.0
 10
80.3167029509502
 20
137.3194555212258
 30
0.0
 10
80.3167029509502
 20
137.3194555212258
 30
0.0
 10
80.32361942436366
 20
137.4906551034323
 30
0.0
 10
80.40147544878748
 20
137.6002278784146
 30
0.0
 10
80.56579933348411
 20
137.6002278784146
 30
0.0
 10
80.66087497983494
 20
137.6002278784146
 30
0.0
 10
80.7952459942971
 20
137.5488634352806
 30
0.0
 10
80.7952459942971
 20
137.3759317730258
 30
0.0
 10
80.7952459942971
 20
137.2381367765412
 30
0.0
 10
80.72634849605483
 20
137.18335038905
 30
0.0
 10
80.61504711000548
 20
137.1109956686738
 30
0.0
 10
80.46864433596274
 20
137.0138406711524
 30
0.0
 10
80.44730128095169
 20
136.961135672497
 30
0.0
 10
80.4331548924237
 20
136.9204956735338
 30
0.0
 10
80.4331548924237
 20
136.9204956735338
 30
0.0
 10
80.7952459942971
 20
136.9204956735338
 30
0.0
 10
80.7952459942971
 20
136.9204956735338
 30
0.0
 10
80.7952459942971
 20
136.9204956735338
 30
0.0
 10
80.7952459942971
 20
136.8250692870795
 30
0.0
 10
80.7952459942971
 20
136.8250692870795
 30
0.0
 10
80.7952459942971
 20
136.8250692870795
 30
0.0
 10
80.29190267380513
 20
136.8250692870795
 30
0.0
 10
80.29190267380513
 20
136.8250692870795
 30
0.0
  0
HATCH
  5
AA
330
9B
100
AcDbEntity
  8
_U+30EC_U+30A4_U+30E4_U+30FC 1
 62
   250
420
  1842203
100
AcDbHatch
 10
0.0
 20
0.0
 30
0.0
210
0.0
220
0.0
230
1.0
  2
SOLID
 70
     1
 71
     0
 91
        3
 92
        1
 93
        1
 72
     4
 94
        3
 73
     0
 74
     1
 95
       26
 96
       22
 40
0.0
 40
0.0
 40
0.0
 40
0.0
 40
1.0
 40
1.0
 40
1.0
 40
2.0
 40
2.0
 40
2.0
 40
3.0
 40
3.0
 40
3.0
 40
4.0
 40
4.0
 40
4.0
 40
5.0
 40
5.0
 40
5.0
 40
6.0
 40
6.0
 40
6.0
 40
7.0
 40
7.0
 40
7.0
 40
7.0
 10
79.70417491102154
 20
137.3583634401406
 10
79.70417491102154
 20
137.3583634401406
 10
79.70417491102154
 20
137.8951148153359
 10
79.70417491102154
 20
137.8951148153359
 10
79.70417491102154
 20
137.8951148153359
 10
79.55054019271886
 20
137.8951148153359
 10
79.55054019271886
 20
137.8951148153359
 10
79.55054019271886
 20
137.8951148153359
 10
79.55054019271886
 20
137.9815806464633
 10
79.55054019271886
 20
137.9815806464633
 10
79.6318222023143
 20
137.9867664796643
 10
79.6986715778286
 20
137.9884598129544
 10
79.73035102146484
 20
138.1138723097549
 10
79.73035102146484
 20
138.1138723097549
 10
79.81889824142803
 20
138.1138723097549
 10
79.81889824142803
 20
138.1138723097549
 10
79.81889824142803
 20
138.1138723097549
 10
79.81889824142803
 20
137.3583634401406
 10
79.81889824142803
 20
137.3583634401406
 10
79.81889824142803
 20
137.3583634401406
 10
79.70417491102154
 20
137.3583634401406
 10
79.70417491102154
 20
137.3583634401406
 97
        0
 97
        0
 92
        1
 93
        4
 72
     1
 10
79.70209352218575
 20
136.8250692870795
 11
79.59805935817322
 21
136.8250692870795
 72
     1
 10
79.59805935817322
 20
136.8250692870795
 11
80.50032377959897
 21
138.1138723097549
 72
     1
 10
80.50032377959897
 20
138.1138723097549
 11
80.60608655467853
 21
138.1138723097549
 72
     1
 10
80.60608655467853
 20
138.1138723097549
 11
79.70209352218575
 21
136.8250692870795
 97
        0
 92
        1
 93
        1
 72
     4
 94
        3
 73
     0
 74
     1
 95
       41
 96
       37
 40
0.0
 40
0.0
 40
0.0
 40
0.0
 40
1.0
 40
1.0
 40
1.0
 40
2.0
 40
2.0
 40
2.0
 40
3.0
 40
3.0
 40
3.0
 40
4.0
 40
4.0
 40
4.0
 40
5.0
 40
5.0
 40
5.0
 40
6.0
 40
6.0
 40
6.0
 40
7.0
 40
7.0
 40
7.0
 40
8.0
 40
8.0
 40
8.0
 40
9.0
 40
9.0
 40
9.0
 40
10.0
 40
10.0
 40
10.0
 40
11.0
 40
11.0
 40
11.0
 40
12.0
 40
12.0
 40
12.0
 40
12.0
 10
80.29190267380513
 20
136.8250692870795
 10
80.30086322913208
 20
136.9697434500552
 10
80.3466890612963
 20
137.0545194101809
 10
80.50928433492592
 20
137.1675106672319
 10
80.65914433110268
 20
137.2736262200802
 10
80.67879405282359
 20
137.2877373308314
 10
80.67879405282359
 20
137.3707812176016
 10
80.67879405282359
 20
137.4675834373542
 10
80.62746488746645
 20
137.5047662141834
 10
80.56579933348411
 20
137.5047662141834
 10
80.43865822561663
 20
137.5047662141834
 10
80.4331548924237
 20
137.3724745508918
 10
80.43142628135669
 20
137.3194555212258
 10
80.43142628135669
 20
137.3194555212258
 10
80.3167029509502
 20
137.3194555212258
 10
80.3167029509502
 20
137.3194555212258
 10
80.32361942436366
 20
137.4906551034323
 10
80.40147544878748
 20
137.6002278784146
 10
80.56579933348411
 20
137.6002278784146
 10
80.66087497983494
 20
137.6002278784146
 10
80.7952459942971
 20
137.5488634352806
 10
80.7952459942971
 20
137.3759317730258
 10
80.7952459942971
 20
137.2381367765412
 10
80.72634849605483
 20
137.18335038905
 10
80.61504711000548
 20
137.1109956686738
 10
80.46864433596274
 20
137.0138406711524
 10
80.44730128095169
 20
136.961135672497
 10
80.4331548924237
 20
136.9204956735338
 10
80.4331548924237
 20
136.9204956735338
 10
80.7952459942971
 20
136.9204956735338
 10
80.7952459942971
 20
136.9204956735338
 10
80.7952459942971
 20
136.9204956735338
 10
80.7952459942971
 20
136.8250692870795
 10
80.7952459942971
 20
136.8250692870795
 10
80.7952459942971
 20
136.8250692870795
 10
80.29190267380513
 20
136.8250692870795
 10
80.29190267380513
 20
136.8250692870795
 97
        0
 97
        0
 75
     2
 76
     1
 98
        0
  0
ENDBLK
  5
9E
330
9B
100
AcDbEntity
  8
0
100
AcDbBlockEnd
  0
BLOCK
  5
B4
330
B2
100
AcDbEntity
  8
0
100
AcDbBlockBegin
  2
block 8
 70
     0
 10
0.0
 20
0.0
 30
0.0
  3
block 8
  1

  0
SPLINE
  5
B6
330
B2
100
AcDbEntity
  8
_U+30EC_U+30A4_U+30E4_U+30FC 1
370
     0
100
AcDbSpline
210
0.0
220
0.0
230
1.0
 70
    11
 71
     3
 72
    41
 73
    37
 74
     0
 42
0.0000000001
 43
0.0000000001
 12
1.0
 22
0.0
 32
0.0
 13
1.0
 23
0.0
 33
0.0
 40
0.0
 40
0.0
 40
0.0
 40
0.0
 40
1.0
 40
1.0
 40
1.0
 40
2.0
 40
2.0
 40
2.0
 40
3.0
 40
3.0
 40
3.0
 40
4.0
 40
4.0
 40
4.0
 40
5.0
 40
5.0
 40
5.0
 40
6.0
 40
6.0
 40
6.0
 40
7.0
 40
7.0
 40
7.0
 40
8.0
 40
8.0
 40
8.0
 40
9.0
 40
9.0
 40
9.0
 40
10.0
 40
10.0
 40
10.0
 40
11.0
 40
11.0
 40
11.0
 40
12.0
 40
12.0
 40
12.0
 40
12.0
 10
105.0383812091365
 20
144.8755638039164
 30
0.0
 10
105.2078909270342
 20
145.0027049117839
 30
0.0
 10
105.4286971958651
 20
145.013358800401
 30
0.0
 10
105.511562030398
 20
145.013358800401
 30
0.0
 10
105.9249822976286
 20
145.013358800401
 30
0.0
 10
106.1916117352707
 20
144.783912139588
 30
0.0
 10
106.1916117352707
 20
144.4556171479635
 30
0.0
 10
106.1916117352707
 20
144.3760304833273
 30
0.0
 10
106.1792292355866
 20
144.2206671539576
 30
0.0
 10
106.0413989613252
 20
144.0828368796961
 30
0.0
 10
106.0413989613252
 20
144.0828368796961
 30
0.0
 10
106.2122845125211
 20
143.9471232720474
 30
0.0
 10
106.2122845125211
 20
143.9471232720474
 30
0.0
 10
106.2122845125211
 20
143.9471232720474
 30
0.0
 10
106.1647653470667
 20
143.8923368845562
 30
0.0
 10
106.1647653470667
 20
143.8923368845562
 30
0.0
 10
106.1647653470667
 20
143.8923368845562
 30
0.0
 10
105.9849192405439
 20
144.0353177142418
 30
0.0
 10
105.9849192405439
 20
144.0353177142418
 30
0.0
 10
105.8119875782891
 20
143.9044055195793
 30
0.0
 10
105.5818353619385
 20
143.8957941066902
 30
0.0
 10
105.511562030398
 20
143.8957941066902
 30
0.0
 10
105.0965895409849
 20
143.8957941066902
 30
0.0
 10
104.8316534366328
 20
144.1269341007934
 30
0.0
 10
104.8316534366328
 20
144.4556171479635
 30
0.0
 10
104.8316534366328
 20
144.5155540908788
 30
0.0
 10
104.8371920476026
 20
144.6816065866425
 30
0.0
 10
104.9835948216454
 20
144.8263160273951
 30
0.0
 10
104.9835948216454
 20
144.8263160273951
 30
0.0
 10
104.8123944182413
 20
144.9620332970926
 30
0.0
 10
104.8123944182413
 20
144.9620332970926
 30
0.0
 10
104.8123944182413
 20
144.9620332970926
 30
0.0
 10
104.8581823248449
 20
145.016816022535
 30
0.0
 10
104.8581823248449
 20
145.016816022535
 30
0.0
 10
104.8581823248449
 20
145.016816022535
 30
0.0
 10
105.0383812091365
 20
144.8755638039164
 30
0.0
 10
105.0383812091365
 20
144.8755638039164
 30
0.0
  0
SPLINE
  5
B7
330
B2
100
AcDbEntity
  8
_U+30EC_U+30A4_U+30E4_U+30FC 1
370
     0
100
AcDbSpline
210
0.0
220
0.0
230
1.0
 70
    11
 71
     3
 72
    17
 73
    13
 74
     0
 42
0.0000000001
 43
0.0000000001
 12
1.0
 22
0.0
 32
0.0
 13
1.0
 23
0.0
 33
0.0
 40
0.0
 40
0.0
 40
0.0
 40
0.0
 40
1.0
 40
1.0
 40
1.0
 40
2.0
 40
2.0
 40
2.0
 40
3.0
 40
3.0
 40
3.0
 40
4.0
 40
4.0
 40
4.0
 40
4.0
 10
104.9642978776932
 20
144.4556171479635
 30
0.0
 10
104.9642978776932
 20
144.2133999319208
 30
0.0
 10
105.1813620388221
 20
144.063539935744
 30
0.0
 10
105.5136434192338
 20
144.063539935744
 30
0.0
 10
105.6473109158237
 20
144.063539935744
 30
0.0
 10
105.7796025791153
 20
144.0935260460901
 30
0.0
 10
105.8574606326845
 20
144.1358946561203
 30
0.0
 10
105.8574606326845
 20
144.1358946561203
 30
0.0
 10
105.1017753741859
 20
144.7325829742309
 30
0.0
 10
105.1017753741859
 20
144.7325829742309
 30
0.0
 10
105.0187314874156
 20
144.6691888091815
 30
0.0
 10
104.9642978776932
 20
144.5737624227272
 30
0.0
 10
104.9642978776932
 20
144.4556171479635
 30
0.0
  0
SPLINE
  5
B8
330
B2
100
AcDbEntity
  8
_U+30EC_U+30A4_U+30E4_U+30FC 1
370
     0
100
AcDbSpline
210
0.0
220
0.0
230
1.0
 70
    11
 71
     3
 72
    17
 73
    13
 74
     0
 42
0.0000000001
 43
0.0000000001
 12
1.0
 22
0.0
 32
0.0
 13
1.0
 23
0.0
 33
0.0
 40
0.0
 40
0.0
 40
0.0
 40
0.0
 40
1.0
 40
1.0
 40
1.0
 40
2.0
 40
2.0
 40
2.0
 40
3.0
 40
3.0
 40
3.0
 40
4.0
 40
4.0
 40
4.0
 40
4.0
 10
105.1672156502941
 20
144.7732582509709
 30
0.0
 10
105.1672156502941
 20
144.7732582509709
 30
0.0
 10
105.9208221957419
 20
144.1765699328604
 30
0.0
 10
105.9208221957419
 20
144.1765699328604
 30
0.0
 10
106.013176739823
 20
144.2488893754598
 30
0.0
 10
106.0586497942184
 20
144.3405410397882
 30
0.0
 10
106.0586497942184
 20
144.4556171479635
 30
0.0
 10
106.0586497942184
 20
144.7060540860188
 30
0.0
 10
105.8257459112714
 20
144.8473063046374
 30
0.0
 10
105.511562030398
 20
144.8473063046374
 30
0.0
 10
105.3722148117308
 20
144.8473063046374
 30
0.0
 10
105.2412989817374
 20
144.8138982499341
 30
0.0
 10
105.1672156502941
 20
144.7732582509709
 30
0.0
  0
HATCH
  5
B9
330
B2
100
AcDbEntity
  8
_U+30EC_U+30A4_U+30E4_U+30FC 1
 62
   250
420
  1842203
100
AcDbHatch
 10
0.0
 20
0.0
 30
0.0
210
0.0
220
0.0
230
1.0
  2
SOLID
 70
     1
 71
     0
 91
        3
 92
        1
 93
        1
 72
     4
 94
        3
 73
     0
 74
     1
 95
       41
 96
       37
 40
0.0
 40
0.0
 40
0.0
 40
0.0
 40
1.0
 40
1.0
 40
1.0
 40
2.0
 40
2.0
 40
2.0
 40
3.0
 40
3.0
 40
3.0
 40
4.0
 40
4.0
 40
4.0
 40
5.0
 40
5.0
 40
5.0
 40
6.0
 40
6.0
 40
6.0
 40
7.0
 40
7.0
 40
7.0
 40
8.0
 40
8.0
 40
8.0
 40
9.0
 40
9.0
 40
9.0
 40
10.0
 40
10.0
 40
10.0
 40
11.0
 40
11.0
 40
11.0
 40
12.0
 40
12.0
 40
12.0
 40
12.0
 10
105.0383812091365
 20
144.8755638039164
 10
105.2078909270342
 20
145.0027049117839
 10
105.4286971958651
 20
145.013358800401
 10
105.511562030398
 20
145.013358800401
 10
105.9249822976286
 20
145.013358800401
 10
106.1916117352707
 20
144.783912139588
 10
106.1916117352707
 20
144.4556171479635
 10
106.1916117352707
 20
144.3760304833273
 10
106.1792292355866
 20
144.2206671539576
 10
106.0413989613252
 20
144.0828368796961
 10
106.0413989613252
 20
144.0828368796961
 10
106.2122845125211
 20
143.9471232720474
 10
106.2122845125211
 20
143.9471232720474
 10
106.2122845125211
 20
143.9471232720474
 10
106.1647653470667
 20
143.8923368845562
 10
106.1647653470667
 20
143.8923368845562
 10
106.1647653470667
 20
143.8923368845562
 10
105.9849192405439
 20
144.0353177142418
 10
105.9849192405439
 20
144.0353177142418
 10
105.8119875782891
 20
143.9044055195793
 10
105.5818353619385
 20
143.8957941066902
 10
105.511562030398
 20
143.8957941066902
 10
105.0965895409849
 20
143.8957941066902
 10
104.8316534366328
 20
144.1269341007934
 10
104.8316534366328
 20
144.4556171479635
 10
104.8316534366328
 20
144.5155540908788
 10
104.8371920476026
 20
144.6816065866425
 10
104.9835948216454
 20
144.8263160273951
 10
104.9835948216454
 20
144.8263160273951
 10
104.8123944182413
 20
144.9620332970926
 10
104.8123944182413
 20
144.9620332970926
 10
104.8123944182413
 20
144.9620332970926
 10
104.8581823248449
 20
145.016816022535
 10
104.8581823248449
 20
145.016816022535
 10
104.8581823248449
 20
145.016816022535
 10
105.0383812091365
 20
144.8755638039164
 10
105.0383812091365
 20
144.8755638039164
 97
        0
 97
        0
 92
        1
 93
        1
 72
     4
 94
        3
 73
     0
 74
     1
 95
       17
 96
       13
 40
0.0
 40
0.0
 40
0.0
 40
0.0
 40
1.0
 40
1.0
 40
1.0
 40
2.0
 40
2.0
 40
2.0
 40
3.0
 40
3.0
 40
3.0
 40
4.0
 40
4.0
 40
4.0
 40
4.0
 10
104.9642978776932
 20
144.4556171479635
 10
104.9642978776932
 20
144.2133999319208
 10
105.1813620388221
 20
144.063539935744
 10
105.5136434192338
 20
144.063539935744
 10
105.6473109158237
 20
144.063539935744
 10
105.7796025791153
 20
144.0935260460901
 10
105.8574606326845
 20
144.1358946561203
 10
105.8574606326845
 20
144.1358946561203
 10
105.1017753741859
 20
144.7325829742309
 10
105.1017753741859
 20
144.7325829742309
 10
105.0187314874156
 20
144.6691888091815
 10
104.9642978776932
 20
144.5737624227272
 10
104.9642978776932
 20
144.4556171479635
 97
        0
 97
        0
 92
        1
 93
        1
 72
     4
 94
        3
 73
     0
 74
     1
 95
       17
 96
       13
 40
0.0
 40
0.0
 40
0.0
 40
0.0
 40
1.0
 40
1.0
 40
1.0
 40
2.0
 40
2.0
 40
2.0
 40
3.0
 40
3.0
 40
3.0
 40
4.0
 40
4.0
 40
4.0
 40
4.0
 10
105.1672156502941
 20
144.7732582509709
 10
105.1672156502941
 20
144.7732582509709
 10
105.9208221957419
 20
144.1765699328604
 10
105.9208221957419
 20
144.1765699328604
 10
106.013176739823
 20
144.2488893754598
 10
106.0586497942184
 20
144.3405410397882
 10
106.0586497942184
 20
144.4556171479635
 10
106.0586497942184
 20
144.7060540860188
 10
105.8257459112714
 20
144.8473063046374
 10
105.511562030398
 20
144.8473063046374
 10
105.3722148117308
 20
144.8473063046374
 10
105.2412989817374
 20
144.8138982499341
 10
105.1672156502941
 20
144.7732582509709
 97
        0
 97
        0
 75
     2
 76
     1
 98
        0
  0
SPLINE
  5
BA
330
B2
100
AcDbEntity
  8
_U+30EC_U+30A4_U+30E4_U+30FC 1
370
     0
100
AcDbSpline
210
0.0
220
0.0
230
1.0
 70
    11
 71
     3
 72
    62
 73
    58
 74
     0
 42
0.0000000001
 43
0.0000000001
 12
1.0
 22
0.0
 32
0.0
 13
1.0
 23
0.0
 33
0.0
 40
0.0
 40
0.0
 40
0.0
 40
0.0
 40
1.0
 40
1.0
 40
1.0
 40
2.0
 40
2.0
 40
2.0
 40
3.0
 40
3.0
 40
3.0
 40
4.0
 40
4.0
 40
4.0
 40
5.0
 40
5.0
 40
5.0
 40
6.0
 40
6.0
 40
6.0
 40
7.0
 40
7.0
 40
7.0
 40
8.0
 40
8.0
 40
8.0
 40
9.0
 40
9.0
 40
9.0
 40
10.0
 40
10.0
 40
10.0
 40
11.0
 40
11.0
 40
11.0
 40
12.0
 40
12.0
 40
12.0
 40
13.0
 40
13.0
 40
13.0
 40
14.0
 40
14.0
 40
14.0
 40
15.0
 40
15.0
 40
15.0
 40
16.0
 40
16.0
 40
16.0
 40
17.0
 40
17.0
 40
17.0
 40
18.0
 40
18.0
 40
18.0
 40
19.0
 40
19.0
 40
19.0
 40
19.0
 10
106.1916117352707
 20
146.2649790462473
 30
0.0
 10
106.1916117352707
 20
146.1168476611375
 30
0.0
 10
106.1544289584416
 20
145.955945720798
 30
0.0
 10
106.0165986841801
 20
145.8591471857577
 30
0.0
 10
105.9173975755998
 20
145.7881646139674
 30
0.0
 10
105.8257459112714
 20
145.7830140585432
 30
0.0
 10
105.7589298018649
 20
145.7778282253422
 30
0.0
 10
105.7589298018649
 20
145.7778282253422
 30
0.0
 10
105.7589298018649
 20
145.9383773879129
 30
0.0
 10
105.7589298018649
 20
145.9383773879129
 30
0.0
 10
105.8257459112714
 20
145.9438807211058
 30
0.0
 10
106.0586497942184
 20
145.959720442924
 30
0.0
 10
106.0586497942184
 20
146.2684009906044
 30
0.0
 10
106.0586497942184
 20
146.4858179295021
 30
0.0
 10
105.933237297418
 20
146.5953554267076
 30
0.0
 10
105.7761453569813
 20
146.5953554267076
 30
0.0
 10
105.5894200839673
 20
146.5953554267076
 30
0.0
 10
105.5294831410519
 20
146.4399920973379
 30
0.0
 10
105.5294831410519
 20
146.3021618230765
 30
0.0
 10
105.5294831410519
 20
146.3021618230765
 30
0.0
 10
105.5294831410519
 20
146.1660954376589
 30
0.0
 10
105.5294831410519
 20
146.1660954376589
 30
0.0
 10
105.5294831410519
 20
146.1660954376589
 30
0.0
 10
105.4125020329252
 20
146.1660954376589
 30
0.0
 10
105.4125020329252
 20
146.1660954376589
 30
0.0
 10
105.4125020329252
 20
146.1660954376589
 30
0.0
 10
105.4125020329252
 20
146.2808187680654
 30
0.0
 10
105.4125020329252
 20
146.2808187680654
 30
0.0
 10
105.4125020329252
 20
146.3797023766538
 30
0.0
 10
105.357750923211
 20
146.5564087610345
 30
0.0
 10
105.1865125942463
 20
146.5564087610345
 30
0.0
 10
105.0876289856579
 20
146.5564087610345
 30
0.0
 10
104.9642978776932
 20
146.4999290402532
 30
0.0
 10
104.9642978776932
 20
146.2845971856514
 30
0.0
 10
104.9642978776932
 20
146.1998562701309
 30
0.0
 10
104.9853234327124
 20
146.1113090501677
 30
0.0
 10
105.0524923198876
 20
146.0548293293864
 30
0.0
 10
105.115886484937
 20
146.002124330731
 30
0.0
 10
105.1796360848162
 20
145.9948923864711
 30
0.0
 10
105.2288812042765
 20
145.9897065532701
 30
0.0
 10
105.2288812042765
 20
145.9897065532701
 30
0.0
 10
105.2288812042765
 20
145.8308860017664
 30
0.0
 10
105.2288812042765
 20
145.8308860017664
 30
0.0
 10
104.9164259344701
 20
145.8553335011427
 30
0.0
 10
104.8316534366328
 20
146.0885901618585
 30
0.0
 10
104.8316534366328
 20
146.2863221012583
 30
0.0
 10
104.8316534366328
 20
146.5440262613504
 30
0.0
 10
104.9694837108943
 20
146.7152293125382
 30
0.0
 10
105.1689442613611
 20
146.7152293125382
 30
0.0
 10
105.388054533549
 20
146.7152293125382
 30
0.0
 10
105.4424881432713
 20
146.5457548724174
 30
0.0
 10
105.4604092539252
 20
146.4909721855995
 30
0.0
 10
105.4797061978774
 20
146.5633232053026
 30
0.0
 10
105.5274017522161
 20
146.7541759782113
 30
0.0
 10
105.7782267458171
 20
146.7541759782113
 30
0.0
 10
106.0076381288532
 20
146.7541759782113
 30
0.0
 10
106.1916117352707
 20
146.5757057049867
 30
0.0
 10
106.1916117352707
 20
146.2649790462473
 30
0.0
  0
HATCH
  5
BB
330
B2
100
AcDbEntity
  8
_U+30EC_U+30A4_U+30E4_U+30FC 1
 62
   250
420
  1842203
100
AcDbHatch
 10
0.0
 20
0.0
 30
0.0
210
0.0
220
0.0
230
1.0
  2
SOLID
 70
     1
 71
     0
 91
        1
 92
        1
 93
        1
 72
     4
 94
        3
 73
     0
 74
     1
 95
       62
 96
       58
 40
0.0
 40
0.0
 40
0.0
 40
0.0
 40
1.0
 40
1.0
 40
1.0
 40
2.0
 40
2.0
 40
2.0
 40
3.0
 40
3.0
 40
3.0
 40
4.0
 40
4.0
 40
4.0
 40
5.0
 40
5.0
 40
5.0
 40
6.0
 40
6.0
 40
6.0
 40
7.0
 40
7.0
 40
7.0
 40
8.0
 40
8.0
 40
8.0
 40
9.0
 40
9.0
 40
9.0
 40
10.0
 40
10.0
 40
10.0
 40
11.0
 40
11.0
 40
11.0
 40
12.0
 40
12.0
 40
12.0
 40
13.0
 40
13.0
 40
13.0
 40
14.0
 40
14.0
 40
14.0
 40
15.0
 40
15.0
 40
15.0
 40
16.0
 40
16.0
 40
16.0
 40
17.0
 40
17.0
 40
17.0
 40
18.0
 40
18.0
 40
18.0
 40
19.0
 40
19.0
 40
19.0
 40
19.0
 10
106.1916117352707
 20
146.2649790462473
 10
106.1916117352707
 20
146.1168476611375
 10
106.1544289584416
 20
145.955945720798
 10
106.0165986841801
 20
145.8591471857577
 10
105.9173975755998
 20
145.7881646139674
 10
105.8257459112714
 20
145.7830140585432
 10
105.7589298018649
 20
145.7778282253422
 10
105.7589298018649
 20
145.7778282253422
 10
105.7589298018649
 20
145.9383773879129
 10
105.7589298018649
 20
145.9383773879129
 10
105.8257459112714
 20
145.9438807211058
 10
106.0586497942184
 20
145.959720442924
 10
106.0586497942184
 20
146.2684009906044
 10
106.0586497942184
 20
146.4858179295021
 10
105.933237297418
 20
146.5953554267076
 10
105.7761453569813
 20
146.5953554267076
 10
105.5894200839673
 20
146.5953554267076
 10
105.5294831410519
 20
146.4399920973379
 10
105.5294831410519
 20
146.3021618230765
 10
105.5294831410519
 20
146.3021618230765
 10
105.5294831410519
 20
146.1660954376589
 10
105.5294831410519
 20
146.1660954376589
 10
105.5294831410519
 20
146.1660954376589
 10
105.4125020329252
 20
146.1660954376589
 10
105.4125020329252
 20
146.1660954376589
 10
105.4125020329252
 20
146.1660954376589
 10
105.4125020329252
 20
146.2808187680654
 10
105.4125020329252
 20
146.2808187680654
 10
105.4125020329252
 20
146.3797023766538
 10
105.357750923211
 20
146.5564087610345
 10
105.1865125942463
 20
146.5564087610345
 10
105.0876289856579
 20
146.5564087610345
 10
104.9642978776932
 20
146.4999290402532
 10
104.9642978776932
 20
146.2845971856514
 10
104.9642978776932
 20
146.1998562701309
 10
104.9853234327124
 20
146.1113090501677
 10
105.0524923198876
 20
146.0548293293864
 10
105.115886484937
 20
146.002124330731
 10
105.1796360848162
 20
145.9948923864711
 10
105.2288812042765
 20
145.9897065532701
 10
105.2288812042765
 20
145.9897065532701
 10
105.2288812042765
 20
145.8308860017664
 10
105.2288812042765
 20
145.8308860017664
 10
104.9164259344701
 20
145.8553335011427
 10
104.8316534366328
 20
146.0885901618585
 10
104.8316534366328
 20
146.2863221012583
 10
104.8316534366328
 20
146.5440262613504
 10
104.9694837108943
 20
146.7152293125382
 10
105.1689442613611
 20
146.7152293125382
 10
105.388054533549
 20
146.7152293125382
 10
105.4424881432713
 20
146.5457548724174
 10
105.4604092539252
 20
146.4909721855995
 10
105.4797061978774
 20
146.5633232053026
 10
105.5274017522161
 20
146.7541759782113
 10
105.7782267458171
 20
146.7541759782113
 10
106.0076381288532
 20
146.7541759782113
 10
106.1916117352707
 20
146.5757057049867
 10
106.1916117352707
 20
146.2649790462473
 97
        0
 97
        0
 75
     2
 76
     1
 98
        0
  0
SPLINE
  5
BC
330
B2
100
AcDbEntity
  8
_U+30EC_U+30A4_U+30E4_U+30FC 1
370
     0
100
AcDbSpline
210
0.0
220
0.0
230
1.0
 70
    11
 71
     3
 72
    35
 73
    31
 74
     0
 42
0.0000000001
 43
0.0000000001
 12
1.0
 22
0.0
 32
0.0
 13
1.0
 23
0.0
 33
0.0
 40
0.0
 40
0.0
 40
0.0
 40
0.0
 40
1.0
 40
1.0
 40
1.0
 40
2.0
 40
2.0
 40
2.0
 40
3.0
 40
3.0
 40
3.0
 40
4.0
 40
4.0
 40
4.0
 40
5.0
 40
5.0
 40
5.0
 40
6.0
 40
6.0
 40
6.0
 40
7.0
 40
7.0
 40
7.0
 40
8.0
 40
8.0
 40
8.0
 40
9.0
 40
9.0
 40
9.0
 40
10.0
 40
10.0
 40
10.0
 40
10.0
 10
106.1916117352707
 20
147.3377762411002
 30
0.0
 10
106.1916117352707
 20
147.1627631900096
 30
0.0
 10
106.1082503485086
 20
146.9581168063416
 30
0.0
 10
105.8643397991757
 20
146.9102448631185
 30
0.0
 10
105.8643397991757
 20
146.9102448631185
 30
0.0
 10
105.8643397991757
 20
147.0762973588822
 30
0.0
 10
105.8643397991757
 20
147.0762973588822
 30
0.0
 10
105.9125645201676
 20
147.0904084696333
 30
0.0
 10
106.053819417931
 20
147.1276265242393
 30
0.0
 10
106.053819417931
 20
147.3356948522644
 30
0.0
 10
106.053819417931
 20
147.6767603991186
 30
0.0
 10
105.6665725819989
 20
147.6943287320038
 30
0.0
 10
105.5363623075431
 20
147.6995145652048
 30
0.0
 10
105.5818353619385
 20
147.6661065105015
 30
0.0
 10
105.7162110846819
 20
147.5689515129802
 30
0.0
 10
105.7162110846819
 20
147.3322729079073
 30
0.0
 10
105.7162110846819
 20
147.0993690249602
 30
0.0
 10
105.5735803621491
 20
146.8892193080994
 30
0.0
 10
105.2926281470946
 20
146.8892193080994
 30
0.0
 10
105.0349239870025
 20
146.8892193080994
 30
0.0
 10
104.8316534366328
 20
147.0711115256811
 30
0.0
 10
104.8316534366328
 20
147.3588055187155
 30
0.0
 10
104.8316534366328
 20
147.5637694075533
 30
0.0
 10
104.9322656562882
 20
147.6853681766768
 30
0.0
 10
105.0276920427426
 20
147.7508437305619
 30
0.0
 10
105.1744475945541
 20
147.8514206724404
 30
0.0
 10
105.3949337000401
 20
147.8655670609684
 30
0.0
 10
105.4922650864459
 20
147.8655670609684
 30
0.0
 10
105.8967247983495
 20
147.8655670609684
 30
0.0
 10
106.1916117352707
 20
147.6905540098778
 30
0.0
 10
106.1916117352707
 20
147.3377762411002
 30
0.0
  0
SPLINE
  5
BD
330
B2
100
AcDbEntity
  8
_U+30EC_U+30A4_U+30E4_U+30FC 1
370
     0
100
AcDbSpline
210
0.0
220
0.0
230
1.0
 70
    11
 71
     3
 72
    17
 73
    13
 74
     0
 42
0.0000000001
 43
0.0000000001
 12
1.0
 22
0.0
 32
0.0
 13
1.0
 23
0.0
 33
0.0
 40
0.0
 40
0.0
 40
0.0
 40
0.0
 40
1.0
 40
1.0
 40
1.0
 40
2.0
 40
2.0
 40
2.0
 40
3.0
 40
3.0
 40
3.0
 40
4.0
 40
4.0
 40
4.0
 40
4.0
 10
104.9642978776932
 20
147.3622237404765
 30
0.0
 10
104.9642978776932
 20
147.1841062450206
 30
0.0
 10
105.0772925970327
 20
147.055271803863
 30
0.0
 10
105.2767884252765
 20
147.055271803863
 30
0.0
 10
105.3859731447132
 20
147.055271803863
 30
0.0
 10
105.5839194180484
 20
147.0993690249602
 30
0.0
 10
105.5839194180484
 20
147.3498412407924
 30
0.0
 10
105.5839194180484
 20
147.5355081805
 30
0.0
 10
105.4779775868104
 20
147.6729856769927
 30
0.0
 10
105.2926281470946
 20
147.6729856769927
 30
0.0
 10
105.1689442613611
 20
147.6729856769927
 30
0.0
 10
104.9642978776932
 20
147.6095915119434
 30
0.0
 10
104.9642978776932
 20
147.3622237404765
 30
0.0
  0
HATCH
  5
BE
330
B2
100
AcDbEntity
  8
_U+30EC_U+30A4_U+30E4_U+30FC 1
 62
   250
420
  1842203
100
AcDbHatch
 10
0.0
 20
0.0
 30
0.0
210
0.0
220
0.0
230
1.0
  2
SOLID
 70
     1
 71
     0
 91
        2
 92
        1
 93
        1
 72
     4
 94
        3
 73
     0
 74
     1
 95
       35
 96
       31
 40
0.0
 40
0.0
 40
0.0
 40
0.0
 40
1.0
 40
1.0
 40
1.0
 40
2.0
 40
2.0
 40
2.0
 40
3.0
 40
3.0
 40
3.0
 40
4.0
 40
4.0
 40
4.0
 40
5.0
 40
5.0
 40
5.0
 40
6.0
 40
6.0
 40
6.0
 40
7.0
 40
7.0
 40
7.0
 40
8.0
 40
8.0
 40
8.0
 40
9.0
 40
9.0
 40
9.0
 40
10.0
 40
10.0
 40
10.0
 40
10.0
 10
106.1916117352707
 20
147.3377762411002
 10
106.1916117352707
 20
147.1627631900096
 10
106.1082503485086
 20
146.9581168063416
 10
105.8643397991757
 20
146.9102448631185
 10
105.8643397991757
 20
146.9102448631185
 10
105.8643397991757
 20
147.0762973588822
 10
105.8643397991757
 20
147.0762973588822
 10
105.9125645201676
 20
147.0904084696333
 10
106.053819417931
 20
147.1276265242393
 10
106.053819417931
 20
147.3356948522644
 10
106.053819417931
 20
147.6767603991186
 10
105.6665725819989
 20
147.6943287320038
 10
105.5363623075431
 20
147.6995145652048
 10
105.5818353619385
 20
147.6661065105015
 10
105.7162110846819
 20
147.5689515129802
 10
105.7162110846819
 20
147.3322729079073
 10
105.7162110846819
 20
147.0993690249602
 10
105.5735803621491
 20
146.8892193080994
 10
105.2926281470946
 20
146.8892193080994
 10
105.0349239870025
 20
146.8892193080994
 10
104.8316534366328
 20
147.0711115256811
 10
104.8316534366328
 20
147.3588055187155
 10
104.8316534366328
 20
147.5637694075533
 10
104.9322656562882
 20
147.6853681766768
 10
105.0276920427426
 20
147.7508437305619
 10
105.1744475945541
 20
147.8514206724404
 10
105.3949337000401
 20
147.8655670609684
 10
105.4922650864459
 20
147.8655670609684
 10
105.8967247983495
 20
147.8655670609684
 10
106.1916117352707
 20
147.6905540098778
 10
106.1916117352707
 20
147.3377762411002
 97
        0
 97
        0
 92
        1
 93
        1
 72
     4
 94
        3
 73
     0
 74
     1
 95
       17
 96
       13
 40
0.0
 40
0.0
 40
0.0
 40
0.0
 40
1.0
 40
1.0
 40
1.0
 40
2.0
 40
2.0
 40
2.0
 40
3.0
 40
3.0
 40
3.0
 40
4.0
 40
4.0
 40
4.0
 40
4.0
 10
104.9642978776932
 20
147.3622237404765
 10
104.9642978776932
 20
147.1841062450206
 10
105.0772925970327
 20
147.055271803863
 10
105.2767884252765
 20
147.055271803863
 10
105.3859731447132
 20
147.055271803863
 10
105.5839194180484
 20
147.0993690249602
 10
105.5839194180484
 20
147.3498412407924
 10
105.5839194180484
 20
147.5355081805
 10
105.4779775868104
 20
147.6729856769927
 10
105.2926281470946
 20
147.6729856769927
 10
105.1689442613611
 20
147.6729856769927
 10
104.9642978776932
 20
147.6095915119434
 10
104.9642978776932
 20
147.3622237404765
 97
        0
 97
        0
 75
     2
 76
     1
 98
        0
  0
ENDBLK
  5
B5
330
B2
100
AcDbEntity
  8
0
100
AcDbBlockEnd
  0
BLOCK
  5
CF
330
CD
100
AcDbEntity
  8
0
100
AcDbBlockBegin
  2
block 9
 70
     0
 10
0.0
 20
0.0
 30
0.0
  3
block 9
  1

  0
SPLINE
  5
D1
330
CD
100
AcDbEntity
  8
_U+30EC_U+30A4_U+30E4_U+30FC 1
370
     0
100
AcDbSpline
210
0.0
220
0.0
230
1.0
 70
    11
 71
     3
 72
    62
 73
    58
 74
     0
 42
0.0000000001
 43
0.0000000001
 12
1.0
 22
0.0
 32
0.0
 13
1.0
 23
0.0
 33
0.0
 40
0.0
 40
0.0
 40
0.0
 40
0.0
 40
1.0
 40
1.0
 40
1.0
 40
2.0
 40
2.0
 40
2.0
 40
3.0
 40
3.0
 40
3.0
 40
4.0
 40
4.0
 40
4.0
 40
5.0
 40
5.0
 40
5.0
 40
6.0
 40
6.0
 40
6.0
 40
7.0
 40
7.0
 40
7.0
 40
8.0
 40
8.0
 40
8.0
 40
9.0
 40
9.0
 40
9.0
 40
10.0
 40
10.0
 40
10.0
 40
11.0
 40
11.0
 40
11.0
 40
12.0
 40
12.0
 40
12.0
 40
13.0
 40
13.0
 40
13.0
 40
14.0
 40
14.0
 40
14.0
 40
15.0
 40
15.0
 40
15.0
 40
16.0
 40
16.0
 40
16.0
 40
17.0
 40
17.0
 40
17.0
 40
18.0
 40
18.0
 40
18.0
 40
19.0
 40
19.0
 40
19.0
 40
19.0
 10
95.70493978058579
 20
147.1093526358166
 30
0.0
 10
95.70493978058579
 20
147.1093526358166
 30
0.0
 10
95.30287895750989
 20
147.1093526358166
 30
0.0
 10
95.30287895750989
 20
147.1093526358166
 30
0.0
 10
95.2574083095189
 20
147.1093526358166
 30
0.0
 10
95.18748534934271
 20
147.0935166298935
 30
0.0
 10
95.18748534934271
 20
147.0066943051023
 30
0.0
 10
95.18748534934271
 20
146.8623376421185
 30
0.0
 10
95.32319895699148
 20
146.8623376421185
 30
0.0
 10
95.33699256775068
 20
146.8623376421185
 30
0.0
 10
95.33699256775068
 20
146.8623376421185
 30
0.0
 10
95.70493978058579
 20
146.8623376421185
 30
0.0
 10
95.70493978058579
 20
146.8623376421185
 30
0.0
 10
95.70493978058579
 20
146.8623376421185
 30
0.0
 10
95.70493978058579
 20
146.7734729221634
 30
0.0
 10
95.70493978058579
 20
146.7734729221634
 30
0.0
 10
95.70493978058579
 20
146.7734729221634
 30
0.0
 10
95.2966700687794
 20
146.7734729221634
 30
0.0
 10
95.2966700687794
 20
146.7734729221634
 30
0.0
 10
95.2022667378545
 20
146.7734729221634
 30
0.0
 10
95.18748534934271
 20
146.7076798682864
 30
0.0
 10
95.18748534934271
 20
146.6652759804793
 30
0.0
 10
95.18748534934271
 20
146.5281865395323
 30
0.0
 10
95.32732645688618
 20
146.5261051506965
 30
0.0
 10
95.3390386788096
 20
146.5261051506965
 30
0.0
 10
95.3390386788096
 20
146.5261051506965
 30
0.0
 10
95.70493978058579
 20
146.5261051506965
 30
0.0
 10
95.70493978058579
 20
146.5261051506965
 30
0.0
 10
95.70493978058579
 20
146.5261051506965
 30
0.0
 10
95.70493978058579
 20
146.4382634862709
 30
0.0
 10
95.70493978058579
 20
146.4382634862709
 30
0.0
 10
95.70493978058579
 20
146.4382634862709
 30
0.0
 10
95.14060118387216
 20
146.4382634862709
 30
0.0
 10
95.14060118387216
 20
146.4382634862709
 30
0.0
 10
95.14060118387216
 20
146.4382634862709
 30
0.0
 10
95.14060118387216
 20
146.5240590396376
 30
0.0
 10
95.14060118387216
 20
146.5240590396376
 30
0.0
 10
95.14060118387216
 20
146.5240590396376
 30
0.0
 10
95.21397895977792
 20
146.5240590396376
 30
0.0
 10
95.21397895977792
 20
146.5240590396376
 30
0.0
 10
95.16508396102533
 20
146.5474834834844
 30
0.0
 10
95.11961090662989
 20
146.5918982045735
 30
0.0
 10
95.11961090662989
 20
146.6873245910279
 30
0.0
 10
95.11961090662989
 20
146.8020479214344
 30
0.0
 10
95.18092368284344
 20
146.8327395873181
 30
0.0
 10
95.21606034861371
 20
146.8485793091362
 30
0.0
 10
95.17058729421827
 20
146.8782126417135
 30
0.0
 10
95.11961090662989
 20
146.9174805188265
 30
0.0
 10
95.11961090662989
 20
147.0204916299116
 30
0.0
 10
95.11961090662989
 20
147.1541554124514
 30
0.0
 10
95.21090979318954
 20
147.1986054113174
 30
0.0
 10
95.2925425688847
 20
147.1986054113174
 30
0.0
 10
95.2925425688847
 20
147.1986054113174
 30
0.0
 10
95.70493978058579
 20
147.1986054113174
 30
0.0
 10
95.70493978058579
 20
147.1986054113174
 30
0.0
 10
95.70493978058579
 20
147.1986054113174
 30
0.0
 10
95.70493978058579
 20
147.1093526358166
 30
0.0
 10
95.70493978058579
 20
147.1093526358166
 30
0.0
  0
HATCH
  5
D2
330
CD
100
AcDbEntity
  8
_U+30EC_U+30A4_U+30E4_U+30FC 1
 62
   250
420
  1842203
100
AcDbHatch
 10
0.0
 20
0.0
 30
0.0
210
0.0
220
0.0
230
1.0
  2
SOLID
 70
     1
 71
     0
 91
        1
 92
        1
 93
        1
 72
     4
 94
        3
 73
     0
 74
     1
 95
       62
 96
       58
 40
0.0
 40
0.0
 40
0.0
 40
0.0
 40
1.0
 40
1.0
 40
1.0
 40
2.0
 40
2.0
 40
2.0
 40
3.0
 40
3.0
 40
3.0
 40
4.0
 40
4.0
 40
4.0
 40
5.0
 40
5.0
 40
5.0
 40
6.0
 40
6.0
 40
6.0
 40
7.0
 40
7.0
 40
7.0
 40
8.0
 40
8.0
 40
8.0
 40
9.0
 40
9.0
 40
9.0
 40
10.0
 40
10.0
 40
10.0
 40
11.0
 40
11.0
 40
11.0
 40
12.0
 40
12.0
 40
12.0
 40
13.0
 40
13.0
 40
13.0
 40
14.0
 40
14.0
 40
14.0
 40
15.0
 40
15.0
 40
15.0
 40
16.0
 40
16.0
 40
16.0
 40
17.0
 40
17.0
 40
17.0
 40
18.0
 40
18.0
 40
18.0
 40
19.0
 40
19.0
 40
19.0
 40
19.0
 10
95.70493978058579
 20
147.1093526358166
 10
95.70493978058579
 20
147.1093526358166
 10
95.30287895750989
 20
147.1093526358166
 10
95.30287895750989
 20
147.1093526358166
 10
95.2574083095189
 20
147.1093526358166
 10
95.18748534934271
 20
147.0935166298935
 10
95.18748534934271
 20
147.0066943051023
 10
95.18748534934271
 20
146.8623376421185
 10
95.32319895699148
 20
146.8623376421185
 10
95.33699256775068
 20
146.8623376421185
 10
95.33699256775068
 20
146.8623376421185
 10
95.70493978058579
 20
146.8623376421185
 10
95.70493978058579
 20
146.8623376421185
 10
95.70493978058579
 20
146.8623376421185
 10
95.70493978058579
 20
146.7734729221634
 10
95.70493978058579
 20
146.7734729221634
 10
95.70493978058579
 20
146.7734729221634
 10
95.2966700687794
 20
146.7734729221634
 10
95.2966700687794
 20
146.7734729221634
 10
95.2022667378545
 20
146.7734729221634
 10
95.18748534934271
 20
146.7076798682864
 10
95.18748534934271
 20
146.6652759804793
 10
95.18748534934271
 20
146.5281865395323
 10
95.32732645688618
 20
146.5261051506965
 10
95.3390386788096
 20
146.5261051506965
 10
95.3390386788096
 20
146.5261051506965
 10
95.70493978058579
 20
146.5261051506965
 10
95.70493978058579
 20
146.5261051506965
 10
95.70493978058579
 20
146.5261051506965
 10
95.70493978058579
 20
146.4382634862709
 10
95.70493978058579
 20
146.4382634862709
 10
95.70493978058579
 20
146.4382634862709
 10
95.14060118387216
 20
146.4382634862709
 10
95.14060118387216
 20
146.4382634862709
 10
95.14060118387216
 20
146.4382634862709
 10
95.14060118387216
 20
146.5240590396376
 10
95.14060118387216
 20
146.5240590396376
 10
95.14060118387216
 20
146.5240590396376
 10
95.21397895977792
 20
146.5240590396376
 10
95.21397895977792
 20
146.5240590396376
 10
95.16508396102533
 20
146.5474834834844
 10
95.11961090662989
 20
146.5918982045735
 10
95.11961090662989
 20
146.6873245910279
 10
95.11961090662989
 20
146.8020479214344
 10
95.18092368284344
 20
146.8327395873181
 10
95.21606034861371
 20
146.8485793091362
 10
95.17058729421827
 20
146.8782126417135
 10
95.11961090662989
 20
146.9174805188265
 10
95.11961090662989
 20
147.0204916299116
 10
95.11961090662989
 20
147.1541554124514
 10
95.21090979318954
 20
147.1986054113174
 10
95.2925425688847
 20
147.1986054113174
 10
95.2925425688847
 20
147.1986054113174
 10
95.70493978058579
 20
147.1986054113174
 10
95.70493978058579
 20
147.1986054113174
 10
95.70493978058579
 20
147.1986054113174
 10
95.70493978058579
 20
147.1093526358166
 10
95.70493978058579
 20
147.1093526358166
 97
        0
 97
        0
 75
     2
 76
     1
 98
        0
  0
POLYLINE
  5
D3
330
CD
100
AcDbEntity
  8
_U+30EC_U+30A4_U+30E4_U+30FC 1
370
     0
100
AcDb2dPolyline
 66
     1
 10
0.0
 20
0.0
 30
0.0
  0
VERTEX
  5
D4
330
D3
100
AcDbEntity
  8
_U+30EC_U+30A4_U+30E4_U+30FC 1
370
     0
100
AcDbVertex
100
AcDb2dVertex
 10
95.03381535326317
 20
147.3356948522644
 30
0.0
  0
VERTEX
  5
D5
330
D3
100
AcDbEntity
  8
_U+30EC_U+30A4_U+30E4_U+30FC 1
370
     0
100
AcDbVertex
100
AcDb2dVertex
 10
94.93080424478008
 20
147.3356948522644
 30
0.0
  0
VERTEX
  5
D6
330
D3
100
AcDbEntity
  8
_U+30EC_U+30A4_U+30E4_U+30FC 1
370
     0
100
AcDbVertex
100
AcDb2dVertex
 10
94.93080424478008
 20
147.437682905218
 30
0.0
  0
VERTEX
  5
D7
330
D3
100
AcDbEntity
  8
_U+30EC_U+30A4_U+30E4_U+30FC 1
370
     0
100
AcDbVertex
100
AcDb2dVertex
 10
95.03381535326317
 20
147.437682905218
 30
0.0
  0
VERTEX
  5
D8
330
D3
100
AcDbEntity
  8
_U+30EC_U+30A4_U+30E4_U+30FC 1
370
     0
100
AcDbVertex
100
AcDb2dVertex
 10
95.03381535326317
 20
147.3356948522644
 30
0.0
  0
SEQEND
  5
D9
330
D3
100
AcDbEntity
  8
_U+30EC_U+30A4_U+30E4_U+30FC 1
370
     0
  0
POLYLINE
  5
DA
330
CD
100
AcDbEntity
  8
_U+30EC_U+30A4_U+30E4_U+30FC 1
370
     0
100
AcDb2dPolyline
 66
     1
 10
0.0
 20
0.0
 30
0.0
  0
VERTEX
  5
DB
330
DA
100
AcDbEntity
  8
_U+30EC_U+30A4_U+30E4_U+30FC 1
370
     0
100
AcDbVertex
100
AcDb2dVertex
 10
95.70493978058579
 20
147.3412334632342
 30
0.0
  0
VERTEX
  5
DC
330
DA
100
AcDbEntity
  8
_U+30EC_U+30A4_U+30E4_U+30FC 1
370
     0
100
AcDbVertex
100
AcDb2dVertex
 10
95.14060118387216
 20
147.3412334632342
 30
0.0
  0
VERTEX
  5
DD
330
DA
100
AcDbEntity
  8
_U+30EC_U+30A4_U+30E4_U+30FC 1
370
     0
100
AcDbVertex
100
AcDb2dVertex
 10
95.14060118387216
 20
147.4311249631425
 30
0.0
  0
VERTEX
  5
DE
330
DA
100
AcDbEntity
  8
_U+30EC_U+30A4_U+30E4_U+30FC 1
370
     0
100
AcDbVertex
100
AcDb2dVertex
 10
95.70493978058579
 20
147.4311249631425
 30
0.0
  0
VERTEX
  5
DF
330
DA
100
AcDbEntity
  8
_U+30EC_U+30A4_U+30E4_U+30FC 1
370
     0
100
AcDbVertex
100
AcDb2dVertex
 10
95.70493978058579
 20
147.3412334632342
 30
0.0
  0
SEQEND
  5
E0
330
DA
100
AcDbEntity
  8
_U+30EC_U+30A4_U+30E4_U+30FC 1
370
     0
  0
HATCH
  5
E1
330
CD
100
AcDbEntity
  8
_U+30EC_U+30A4_U+30E4_U+30FC 1
 62
   250
420
  1842203
100
AcDbHatch
 10
0.0
 20
0.0
 30
0.0
210
0.0
220
0.0
230
1.0
  2
SOLID
 70
     1
 71
     0
 91
        2
 92
        1
 93
        4
 72
     1
 10
95.03381535326317
 20
147.3356948522644
 11
94.93080424478008
 21
147.3356948522644
 72
     1
 10
94.93080424478008
 20
147.3356948522644
 11
94.93080424478008
 21
147.437682905218
 72
     1
 10
94.93080424478008
 20
147.437682905218
 11
95.03381535326317
 21
147.437682905218
 72
     1
 10
95.03381535326317
 20
147.437682905218
 11
95.03381535326317
 21
147.3356948522644
 97
        0
 92
        1
 93
        4
 72
     1
 10
95.70493978058579
 20
147.3412334632342
 11
95.14060118387216
 21
147.3412334632342
 72
     1
 10
95.14060118387216
 20
147.3412334632342
 11
95.14060118387216
 21
147.4311249631425
 72
     1
 10
95.14060118387216
 20
147.4311249631425
 11
95.70493978058579
 21
147.4311249631425
 72
     1
 10
95.70493978058579
 20
147.4311249631425
 11
95.70493978058579
 21
147.3412334632342
 97
        0
 75
     2
 76
     1
 98
        0
  0
SPLINE
  5
E2
330
CD
100
AcDbEntity
  8
_U+30EC_U+30A4_U+30E4_U+30FC 1
370
     0
100
AcDbSpline
210
0.0
220
0.0
230
1.0
 70
    11
 71
     3
 72
    41
 73
    37
 74
     0
 42
0.0000000001
 43
0.0000000001
 12
1.0
 22
0.0
 32
0.0
 13
1.0
 23
0.0
 33
0.0
 40
0.0
 40
0.0
 40
0.0
 40
0.0
 40
1.0
 40
1.0
 40
1.0
 40
2.0
 40
2.0
 40
2.0
 40
3.0
 40
3.0
 40
3.0
 40
4.0
 40
4.0
 40
4.0
 40
5.0
 40
5.0
 40
5.0
 40
6.0
 40
6.0
 40
6.0
 40
7.0
 40
7.0
 40
7.0
 40
8.0
 40
8.0
 40
8.0
 40
9.0
 40
9.0
 40
9.0
 40
10.0
 40
10.0
 40
10.0
 40
11.0
 40
11.0
 40
11.0
 40
12.0
 40
12.0
 40
12.0
 40
12.0
 10
95.70493978058579
 20
147.9768331692409
 30
0.0
 10
95.70493978058579
 20
147.9768331692409
 30
0.0
 10
95.33043330950075
 20
147.9768331692409
 30
0.0
 10
95.33043330950075
 20
147.9768331692409
 30
0.0
 10
95.23190007043182
 20
147.9768331692409
 30
0.0
 10
95.18953146040162
 20
147.8986223379029
 30
0.0
 10
95.18953146040162
 20
147.8297248396606
 30
0.0
 10
95.18953146040162
 20
147.7129553981952
 30
0.0
 10
95.28495784685597
 20
147.6588392884647
 30
0.0
 10
95.34320145648117
 20
147.6588392884647
 30
0.0
 10
95.34320145648117
 20
147.6588392884647
 30
0.0
 10
95.70493978058579
 20
147.6588392884647
 30
0.0
 10
95.70493978058579
 20
147.6588392884647
 30
0.0
 10
95.70493978058579
 20
147.6588392884647
 30
0.0
 10
95.70493978058579
 20
147.5696217907409
 30
0.0
 10
95.70493978058579
 20
147.5696217907409
 30
0.0
 10
95.70493978058579
 20
147.5696217907409
 30
0.0
 10
95.14060118387216
 20
147.5696217907409
 30
0.0
 10
95.14060118387216
 20
147.5696217907409
 30
0.0
 10
95.14060118387216
 20
147.5696217907409
 30
0.0
 10
95.14060118387216
 20
147.6588392884647
 30
0.0
 10
95.14060118387216
 20
147.6588392884647
 30
0.0
 10
95.14060118387216
 20
147.6588392884647
 30
0.0
 10
95.20537118221974
 20
147.6588392884647
 30
0.0
 10
95.20537118221974
 20
147.6588392884647
 30
0.0
 10
95.14818590590087
 20
147.7032892873307
 30
0.0
 10
95.11961090662989
 20
147.775644007707
 30
0.0
 10
95.11961090662989
 20
147.848669005844
 30
0.0
 10
95.11961090662989
 20
147.9471998366636
 30
0.0
 10
95.18092368284344
 20
148.0660506669648
 30
0.0
 10
95.32940784572197
 20
148.0660506669648
 30
0.0
 10
95.32940784572197
 20
148.0660506669648
 30
0.0
 10
95.70493978058579
 20
148.0660506669648
 30
0.0
 10
95.70493978058579
 20
148.0660506669648
 30
0.0
 10
95.70493978058579
 20
148.0660506669648
 30
0.0
 10
95.70493978058579
 20
147.9768331692409
 30
0.0
 10
95.70493978058579
 20
147.9768331692409
 30
0.0
  0
HATCH
  5
E3
330
CD
100
AcDbEntity
  8
_U+30EC_U+30A4_U+30E4_U+30FC 1
 62
   250
420
  1842203
100
AcDbHatch
 10
0.0
 20
0.0
 30
0.0
210
0.0
220
0.0
230
1.0
  2
SOLID
 70
     1
 71
     0
 91
        1
 92
        1
 93
        1
 72
     4
 94
        3
 73
     0
 74
     1
 95
       41
 96
       37
 40
0.0
 40
0.0
 40
0.0
 40
0.0
 40
1.0
 40
1.0
 40
1.0
 40
2.0
 40
2.0
 40
2.0
 40
3.0
 40
3.0
 40
3.0
 40
4.0
 40
4.0
 40
4.0
 40
5.0
 40
5.0
 40
5.0
 40
6.0
 40
6.0
 40
6.0
 40
7.0
 40
7.0
 40
7.0
 40
8.0
 40
8.0
 40
8.0
 40
9.0
 40
9.0
 40
9.0
 40
10.0
 40
10.0
 40
10.0
 40
11.0
 40
11.0
 40
11.0
 40
12.0
 40
12.0
 40
12.0
 40
12.0
 10
95.70493978058579
 20
147.9768331692409
 10
95.70493978058579
 20
147.9768331692409
 10
95.33043330950075
 20
147.9768331692409
 10
95.33043330950075
 20
147.9768331692409
 10
95.23190007043182
 20
147.9768331692409
 10
95.18953146040162
 20
147.8986223379029
 10
95.18953146040162
 20
147.8297248396606
 10
95.18953146040162
 20
147.7129553981952
 10
95.28495784685597
 20
147.6588392884647
 10
95.34320145648117
 20
147.6588392884647
 10
95.34320145648117
 20
147.6588392884647
 10
95.70493978058579
 20
147.6588392884647
 10
95.70493978058579
 20
147.6588392884647
 10
95.70493978058579
 20
147.6588392884647
 10
95.70493978058579
 20
147.5696217907409
 10
95.70493978058579
 20
147.5696217907409
 10
95.70493978058579
 20
147.5696217907409
 10
95.14060118387216
 20
147.5696217907409
 10
95.14060118387216
 20
147.5696217907409
 10
95.14060118387216
 20
147.5696217907409
 10
95.14060118387216
 20
147.6588392884647
 10
95.14060118387216
 20
147.6588392884647
 10
95.14060118387216
 20
147.6588392884647
 10
95.20537118221974
 20
147.6588392884647
 10
95.20537118221974
 20
147.6588392884647
 10
95.14818590590087
 20
147.7032892873307
 10
95.11961090662989
 20
147.775644007707
 10
95.11961090662989
 20
147.848669005844
 10
95.11961090662989
 20
147.9471998366636
 10
95.18092368284344
 20
148.0660506669648
 10
95.32940784572197
 20
148.0660506669648
 10
95.32940784572197
 20
148.0660506669648
 10
95.70493978058579
 20
148.0660506669648
 10
95.70493978058579
 20
148.0660506669648
 10
95.70493978058579
 20
148.0660506669648
 10
95.70493978058579
 20
147.9768331692409
 10
95.70493978058579
 20
147.9768331692409
 97
        0
 97
        0
 75
     2
 76
     1
 98
        0
  0
POLYLINE
  5
E4
330
CD
100
AcDbEntity
  8
_U+30EC_U+30A4_U+30E4_U+30FC 1
370
     0
100
AcDb2dPolyline
 66
     1
 10
0.0
 20
0.0
 30
0.0
  0
VERTEX
  5
E5
330
E4
100
AcDbEntity
  8
_U+30EC_U+30A4_U+30E4_U+30FC 1
370
     0
100
AcDbVertex
100
AcDb2dVertex
 10
95.70493978058579
 20
148.1921687193028
 30
0.0
  0
VERTEX
  5
E6
330
E4
100
AcDbEntity
  8
_U+30EC_U+30A4_U+30E4_U+30FC 1
370
     0
100
AcDbVertex
100
AcDb2dVertex
 10
95.59159228347752
 20
148.1921687193028
 30
0.0
  0
VERTEX
  5
E7
330
E4
100
AcDbEntity
  8
_U+30EC_U+30A4_U+30E4_U+30FC 1
370
     0
100
AcDbVertex
100
AcDb2dVertex
 10
95.59159228347752
 20
148.3055162164111
 30
0.0
  0
VERTEX
  5
E8
330
E4
100
AcDbEntity
  8
_U+30EC_U+30A4_U+30E4_U+30FC 1
370
     0
100
AcDbVertex
100
AcDb2dVertex
 10
95.70493978058579
 20
148.3055162164111
 30
0.0
  0
VERTEX
  5
E9
330
E4
100
AcDbEntity
  8
_U+30EC_U+30A4_U+30E4_U+30FC 1
370
     0
100
AcDbVertex
100
AcDb2dVertex
 10
95.70493978058579
 20
148.1921687193028
 30
0.0
  0
SEQEND
  5
EA
330
E4
100
AcDbEntity
  8
_U+30EC_U+30A4_U+30E4_U+30FC 1
370
     0
  0
HATCH
  5
EB
330
CD
100
AcDbEntity
  8
_U+30EC_U+30A4_U+30E4_U+30FC 1
 62
   250
420
  1842203
100
AcDbHatch
 10
0.0
 20
0.0
 30
0.0
210
0.0
220
0.0
230
1.0
  2
SOLID
 70
     1
 71
     0
 91
        1
 92
        1
 93
        4
 72
     1
 10
95.70493978058579
 20
148.1921687193028
 11
95.59159228347752
 21
148.1921687193028
 72
     1
 10
95.59159228347752
 20
148.1921687193028
 11
95.59159228347752
 21
148.3055162164111
 72
     1
 10
95.59159228347752
 20
148.3055162164111
 11
95.70493978058579
 21
148.3055162164111
 72
     1
 10
95.70493978058579
 20
148.3055162164111
 11
95.70493978058579
 21
148.1921687193028
 97
        0
 75
     2
 76
     1
 98
        0
  0
ENDBLK
  5
D0
330
CD
100
AcDbEntity
  8
0
100
AcDbBlockEnd
  0
BLOCK
  5
EE
330
EC
100
AcDbEntity
  8
0
100
AcDbBlockBegin
  2
block 10
 70
     0
 10
0.0
 20
0.0
 30
0.0
  3
block 10
  1

  0
SPLINE
  5
F0
330
EC
100
AcDbEntity
  8
_U+30EC_U+30A4_U+30E4_U+30FC 1
370
     0
100
AcDbSpline
210
0.0
220
0.0
230
1.0
 70
    11
 71
     3
 72
    62
 73
    58
 74
     0
 42
0.0000000001
 43
0.0000000001
 12
1.0
 22
0.0
 32
0.0
 13
1.0
 23
0.0
 33
0.0
 40
0.0
 40
0.0
 40
0.0
 40
0.0
 40
1.0
 40
1.0
 40
1.0
 40
2.0
 40
2.0
 40
2.0
 40
3.0
 40
3.0
 40
3.0
 40
4.0
 40
4.0
 40
4.0
 40
5.0
 40
5.0
 40
5.0
 40
6.0
 40
6.0
 40
6.0
 40
7.0
 40
7.0
 40
7.0
 40
8.0
 40
8.0
 40
8.0
 40
9.0
 40
9.0
 40
9.0
 40
10.0
 40
10.0
 40
10.0
 40
11.0
 40
11.0
 40
11.0
 40
12.0
 40
12.0
 40
12.0
 40
13.0
 40
13.0
 40
13.0
 40
14.0
 40
14.0
 40
14.0
 40
15.0
 40
15.0
 40
15.0
 40
16.0
 40
16.0
 40
16.0
 40
17.0
 40
17.0
 40
17.0
 40
18.0
 40
18.0
 40
18.0
 40
19.0
 40
19.0
 40
19.0
 40
19.0
 10
98.04209249873784
 20
144.7281026965674
 30
0.0
 10
98.04209249873784
 20
144.7281026965674
 30
0.0
 10
97.64003167566193
 20
144.7281026965674
 30
0.0
 10
97.64003167566193
 20
144.7281026965674
 30
0.0
 10
97.59456108671237
 20
144.7281026965674
 30
0.0
 10
97.52463806749476
 20
144.7122666304888
 30
0.0
 10
97.52463806749476
 20
144.6254443658531
 30
0.0
 10
97.52463806749476
 20
144.4810877028692
 30
0.0
 10
97.66035167514353
 20
144.4810877028692
 30
0.0
 10
97.67414528590272
 20
144.4810877028692
 30
0.0
 10
97.67414528590272
 20
144.4810877028692
 30
0.0
 10
98.04209249873784
 20
144.4810877028692
 30
0.0
 10
98.04209249873784
 20
144.4810877028692
 30
0.0
 10
98.04209249873784
 20
144.4810877028692
 30
0.0
 10
98.04209249873784
 20
144.3922229829141
 30
0.0
 10
98.04209249873784
 20
144.3922229829141
 30
0.0
 10
98.04209249873784
 20
144.3922229829141
 30
0.0
 10
97.63382278693145
 20
144.3922229829141
 30
0.0
 10
97.63382278693145
 20
144.3922229829141
 30
0.0
 10
97.53941945600654
 20
144.3922229829141
 30
0.0
 10
97.52463806749476
 20
144.3264299290371
 30
0.0
 10
97.52463806749476
 20
144.28402604123
 30
0.0
 10
97.52463806749476
 20
144.1469366002831
 30
0.0
 10
97.66447917503822
 20
144.1448552114473
 30
0.0
 10
97.67619139696164
 20
144.1448552114473
 30
0.0
 10
97.67619139696164
 20
144.1448552114473
 30
0.0
 10
98.04209249873784
 20
144.1448552114473
 30
0.0
 10
98.04209249873784
 20
144.1448552114473
 30
0.0
 10
98.04209249873784
 20
144.1448552114473
 30
0.0
 10
98.04209249873784
 20
144.0570135470216
 30
0.0
 10
98.04209249873784
 20
144.0570135470216
 30
0.0
 10
98.04209249873784
 20
144.0570135470216
 30
0.0
 10
97.4777539020242
 20
144.0570135470216
 30
0.0
 10
97.4777539020242
 20
144.0570135470216
 30
0.0
 10
97.4777539020242
 20
144.0570135470216
 30
0.0
 10
97.4777539020242
 20
144.1428091003883
 30
0.0
 10
97.4777539020242
 20
144.1428091003883
 30
0.0
 10
97.4777539020242
 20
144.1428091003883
 30
0.0
 10
97.55113167792996
 20
144.1428091003883
 30
0.0
 10
97.55113167792996
 20
144.1428091003883
 30
0.0
 10
97.50223667917737
 20
144.1662335442352
 30
0.0
 10
97.45676362478193
 20
144.2106482653243
 30
0.0
 10
97.45676362478193
 20
144.3060746517787
 30
0.0
 10
97.45676362478193
 20
144.4207979821851
 30
0.0
 10
97.5180764009955
 20
144.4514896480688
 30
0.0
 10
97.55321306676575
 20
144.4673293698869
 30
0.0
 10
97.5077400123703
 20
144.4969627024643
 30
0.0
 10
97.45676362478193
 20
144.5362305194218
 30
0.0
 10
97.45676362478193
 20
144.6392416305069
 30
0.0
 10
97.45676362478193
 20
144.7729054732021
 30
0.0
 10
97.5480625113416
 20
144.8173554720681
 30
0.0
 10
97.62969528703674
 20
144.8173554720681
 30
0.0
 10
97.62969528703674
 20
144.8173554720681
 30
0.0
 10
98.04209249873784
 20
144.8173554720681
 30
0.0
 10
98.04209249873784
 20
144.8173554720681
 30
0.0
 10
98.04209249873784
 20
144.8173554720681
 30
0.0
 10
98.04209249873784
 20
144.7281026965674
 30
0.0
 10
98.04209249873784
 20
144.7281026965674
 30
0.0
  0
HATCH
  5
F1
330
EC
100
AcDbEntity
  8
_U+30EC_U+30A4_U+30E4_U+30FC 1
 62
   250
420
  1842203
100
AcDbHatch
 10
0.0
 20
0.0
 30
0.0
210
0.0
220
0.0
230
1.0
  2
SOLID
 70
     1
 71
     0
 91
        1
 92
        1
 93
        1
 72
     4
 94
        3
 73
     0
 74
     1
 95
       62
 96
       58
 40
0.0
 40
0.0
 40
0.0
 40
0.0
 40
1.0
 40
1.0
 40
1.0
 40
2.0
 40
2.0
 40
2.0
 40
3.0
 40
3.0
 40
3.0
 40
4.0
 40
4.0
 40
4.0
 40
5.0
 40
5.0
 40
5.0
 40
6.0
 40
6.0
 40
6.0
 40
7.0
 40
7.0
 40
7.0
 40
8.0
 40
8.0
 40
8.0
 40
9.0
 40
9.0
 40
9.0
 40
10.0
 40
10.0
 40
10.0
 40
11.0
 40
11.0
 40
11.0
 40
12.0
 40
12.0
 40
12.0
 40
13.0
 40
13.0
 40
13.0
 40
14.0
 40
14.0
 40
14.0
 40
15.0
 40
15.0
 40
15.0
 40
16.0
 40
16.0
 40
16.0
 40
17.0
 40
17.0
 40
17.0
 40
18.0
 40
18.0
 40
18.0
 40
19.0
 40
19.0
 40
19.0
 40
19.0
 10
98.04209249873784
 20
144.7281026965674
 10
98.04209249873784
 20
144.7281026965674
 10
97.64003167566193
 20
144.7281026965674
 10
97.64003167566193
 20
144.7281026965674
 10
97.59456108671237
 20
144.7281026965674
 10
97.52463806749476
 20
144.7122666304888
 10
97.52463806749476
 20
144.6254443658531
 10
97.52463806749476
 20
144.4810877028692
 10
97.66035167514353
 20
144.4810877028692
 10
97.67414528590272
 20
144.4810877028692
 10
97.67414528590272
 20
144.4810877028692
 10
98.04209249873784
 20
144.4810877028692
 10
98.04209249873784
 20
144.4810877028692
 10
98.04209249873784
 20
144.4810877028692
 10
98.04209249873784
 20
144.3922229829141
 10
98.04209249873784
 20
144.3922229829141
 10
98.04209249873784
 20
144.3922229829141
 10
97.63382278693145
 20
144.3922229829141
 10
97.63382278693145
 20
144.3922229829141
 10
97.53941945600654
 20
144.3922229829141
 10
97.52463806749476
 20
144.3264299290371
 10
97.52463806749476
 20
144.28402604123
 10
97.52463806749476
 20
144.1469366002831
 10
97.66447917503822
 20
144.1448552114473
 10
97.67619139696164
 20
144.1448552114473
 10
97.67619139696164
 20
144.1448552114473
 10
98.04209249873784
 20
144.1448552114473
 10
98.04209249873784
 20
144.1448552114473
 10
98.04209249873784
 20
144.1448552114473
 10
98.04209249873784
 20
144.0570135470216
 10
98.04209249873784
 20
144.0570135470216
 10
98.04209249873784
 20
144.0570135470216
 10
97.4777539020242
 20
144.0570135470216
 10
97.4777539020242
 20
144.0570135470216
 10
97.4777539020242
 20
144.0570135470216
 10
97.4777539020242
 20
144.1428091003883
 10
97.4777539020242
 20
144.1428091003883
 10
97.4777539020242
 20
144.1428091003883
 10
97.55113167792996
 20
144.1428091003883
 10
97.55113167792996
 20
144.1428091003883
 10
97.50223667917737
 20
144.1662335442352
 10
97.45676362478193
 20
144.2106482653243
 10
97.45676362478193
 20
144.3060746517787
 10
97.45676362478193
 20
144.4207979821851
 10
97.5180764009955
 20
144.4514896480688
 10
97.55321306676575
 20
144.4673293698869
 10
97.5077400123703
 20
144.4969627024643
 10
97.45676362478193
 20
144.5362305194218
 10
97.45676362478193
 20
144.6392416305069
 10
97.45676362478193
 20
144.7729054732021
 10
97.5480625113416
 20
144.8173554720681
 10
97.62969528703674
 20
144.8173554720681
 10
97.62969528703674
 20
144.8173554720681
 10
98.04209249873784
 20
144.8173554720681
 10
98.04209249873784
 20
144.8173554720681
 10
98.04209249873784
 20
144.8173554720681
 10
98.04209249873784
 20
144.7281026965674
 10
98.04209249873784
 20
144.7281026965674
 97
        0
 97
        0
 75
     2
 76
     1
 98
        0
  0
SPLINE
  5
F2
330
EC
100
AcDbEntity
  8
_U+30EC_U+30A4_U+30E4_U+30FC 1
370
     0
100
AcDbSpline
210
0.0
220
0.0
230
1.0
 70
    11
 71
     3
 72
    53
 73
    49
 74
     0
 42
0.0000000001
 43
0.0000000001
 12
1.0
 22
0.0
 32
0.0
 13
1.0
 23
0.0
 33
0.0
 40
0.0
 40
0.0
 40
0.0
 40
0.0
 40
1.0
 40
1.0
 40
1.0
 40
2.0
 40
2.0
 40
2.0
 40
3.0
 40
3.0
 40
3.0
 40
4.0
 40
4.0
 40
4.0
 40
5.0
 40
5.0
 40
5.0
 40
6.0
 40
6.0
 40
6.0
 40
7.0
 40
7.0
 40
7.0
 40
8.0
 40
8.0
 40
8.0
 40
9.0
 40
9.0
 40
9.0
 40
10.0
 40
10.0
 40
10.0
 40
11.0
 40
11.0
 40
11.0
 40
12.0
 40
12.0
 40
12.0
 40
13.0
 40
13.0
 40
13.0
 40
14.0
 40
14.0
 40
14.0
 40
15.0
 40
15.0
 40
15.0
 40
16.0
 40
16.0
 40
16.0
 40
16.0
 10
98.04209249873784
 20
145.3375615699077
 30
0.0
 10
98.01556361052576
 20
145.3258493479842
 30
0.0
 10
98.0048744441318
 20
145.3237679591485
 30
0.0
 10
97.96800916729453
 20
145.3213690703208
 30
0.0
 10
98.0007469442371
 20
145.290712682214
 30
0.0
 10
98.06343555374889
 20
145.2324690725888
 30
0.0
 10
98.06343555374889
 20
145.1094944081673
 30
0.0
 10
98.06343555374889
 20
145.0130060226322
 30
0.0
 10
98.03792972106626
 20
144.9589251906786
 30
0.0
 10
97.98903472231368
 20
144.9237885249084
 30
0.0
 10
97.94973527887184
 20
144.8962365811668
 30
0.0
 10
97.9104711132069
 20
144.8931321368016
 30
0.0
 10
97.88739944712883
 20
144.8931321368016
 30
0.0
 10
97.76198695032836
 20
144.8931321368016
 30
0.0
 10
97.72720553112373
 20
145.0064832970815
 30
0.0
 10
97.71030500720244
 20
145.1452976859239
 30
0.0
 10
97.6930894520861
 20
145.2810465713495
 30
0.0
 10
97.68896195219139
 20
145.3203107370144
 30
0.0
 10
97.62623806490272
 20
145.3203107370144
 30
0.0
 10
97.52463806749476
 20
145.3203107370144
 30
0.0
 10
97.52463806749476
 20
145.2059401843767
 30
0.0
 10
97.52463806749476
 20
145.1794112961647
 30
0.0
 10
97.52463806749476
 20
145.0278226889209
 30
0.0
 10
97.60316639882467
 20
145.0181918558333
 30
0.0
 10
97.64003167566193
 20
145.0130060226322
 30
0.0
 10
97.64003167566193
 20
145.0130060226322
 30
0.0
 10
97.64003167566193
 20
144.9217424138494
 30
0.0
 10
97.64003167566193
 20
144.9217424138494
 30
0.0
 10
97.59664001010228
 20
144.9292918581013
 30
0.0
 10
97.54460528920757
 20
144.9375821356676
 30
0.0
 10
97.50117834587104
 20
145.0002707451793
 30
0.0
 10
97.46089112467664
 20
145.059537410334
 30
0.0
 10
97.45676362478193
 20
145.136019630605
 30
0.0
 10
97.45676362478193
 20
145.1728849074423
 30
0.0
 10
97.45676362478193
 20
145.2738146270896
 30
0.0
 10
97.48844306841816
 20
145.4105865680447
 30
0.0
 10
97.62969528703674
 20
145.4105865680447
 30
0.0
 10
97.62969528703674
 20
145.4105865680447
 30
0.0
 10
97.94356166791823
 20
145.4105865680447
 30
0.0
 10
97.94356166791823
 20
145.4105865680447
 30
0.0
 10
97.97005527835344
 20
145.4105865680447
 30
0.0
 10
98.01140083285418
 20
145.4167954567751
 30
0.0
 10
98.03034499903754
 20
145.4371154562567
 30
0.0
 10
98.03034499903754
 20
145.4371154562567
 30
0.0
 10
98.04209249873784
 20
145.4371154562567
 30
0.0
 10
98.04209249873784
 20
145.4371154562567
 30
0.0
 10
98.04209249873784
 20
145.4371154562567
 30
0.0
 10
98.04209249873784
 20
145.3375615699077
 30
0.0
 10
98.04209249873784
 20
145.3375615699077
 30
0.0
  0
SPLINE
  5
F3
330
EC
100
AcDbEntity
  8
_U+30EC_U+30A4_U+30E4_U+30FC 1
370
     0
100
AcDbSpline
210
0.0
220
0.0
230
1.0
 70
    11
 71
     3
 72
    20
 73
    16
 74
     0
 42
0.0000000001
 43
0.0000000001
 12
1.0
 22
0.0
 32
0.0
 13
1.0
 23
0.0
 33
0.0
 40
0.0
 40
0.0
 40
0.0
 40
0.0
 40
1.0
 40
1.0
 40
1.0
 40
2.0
 40
2.0
 40
2.0
 40
3.0
 40
3.0
 40
3.0
 40
4.0
 40
4.0
 40
4.0
 40
5.0
 40
5.0
 40
5.0
 40
5.0
 10
97.7354580621163
 20
145.3213690703208
 30
0.0
 10
97.75475500606842
 20
145.2896543489077
 30
0.0
 10
97.7568388644496
 20
145.2758960159253
 30
0.0
 10
97.77472222778124
 20
145.1497779635873
 30
0.0
 10
97.78851583854045
 20
145.054351577133
 30
0.0
 10
97.80781278249259
 20
144.9854540788907
 30
0.0
 10
97.88739944712883
 20
144.9854540788907
 30
0.0
 10
97.94663330884676
 20
144.9854540788907
 30
0.0
 10
97.99556111103607
 20
145.0330085221219
 30
0.0
 10
97.99556111103607
 20
145.1274118530468
 30
0.0
 10
97.99556111103607
 20
145.2917357377435
 30
0.0
 10
97.85981222561041
 20
145.3213690703208
 30
0.0
 10
97.84915833699333
 20
145.3213690703208
 30
0.0
 10
97.84915833699333
 20
145.3213690703208
 30
0.0
 10
97.7354580621163
 20
145.3213690703208
 30
0.0
 10
97.7354580621163
 20
145.3213690703208
 30
0.0
  0
HATCH
  5
F4
330
EC
100
AcDbEntity
  8
_U+30EC_U+30A4_U+30E4_U+30FC 1
 62
   250
420
  1842203
100
AcDbHatch
 10
0.0
 20
0.0
 30
0.0
210
0.0
220
0.0
230
1.0
  2
SOLID
 70
     1
 71
     0
 91
        2
 92
        1
 93
        1
 72
     4
 94
        3
 73
     0
 74
     1
 95
       53
 96
       49
 40
0.0
 40
0.0
 40
0.0
 40
0.0
 40
1.0
 40
1.0
 40
1.0
 40
2.0
 40
2.0
 40
2.0
 40
3.0
 40
3.0
 40
3.0
 40
4.0
 40
4.0
 40
4.0
 40
5.0
 40
5.0
 40
5.0
 40
6.0
 40
6.0
 40
6.0
 40
7.0
 40
7.0
 40
7.0
 40
8.0
 40
8.0
 40
8.0
 40
9.0
 40
9.0
 40
9.0
 40
10.0
 40
10.0
 40
10.0
 40
11.0
 40
11.0
 40
11.0
 40
12.0
 40
12.0
 40
12.0
 40
13.0
 40
13.0
 40
13.0
 40
14.0
 40
14.0
 40
14.0
 40
15.0
 40
15.0
 40
15.0
 40
16.0
 40
16.0
 40
16.0
 40
16.0
 10
98.04209249873784
 20
145.3375615699077
 10
98.01556361052576
 20
145.3258493479842
 10
98.0048744441318
 20
145.3237679591485
 10
97.96800916729453
 20
145.3213690703208
 10
98.0007469442371
 20
145.290712682214
 10
98.06343555374889
 20
145.2324690725888
 10
98.06343555374889
 20
145.1094944081673
 10
98.06343555374889
 20
145.0130060226322
 10
98.03792972106626
 20
144.9589251906786
 10
97.98903472231368
 20
144.9237885249084
 10
97.94973527887184
 20
144.8962365811668
 10
97.9104711132069
 20
144.8931321368016
 10
97.88739944712883
 20
144.8931321368016
 10
97.76198695032836
 20
144.8931321368016
 10
97.72720553112373
 20
145.0064832970815
 10
97.71030500720244
 20
145.1452976859239
 10
97.6930894520861
 20
145.2810465713495
 10
97.68896195219139
 20
145.3203107370144
 10
97.62623806490272
 20
145.3203107370144
 10
97.52463806749476
 20
145.3203107370144
 10
97.52463806749476
 20
145.2059401843767
 10
97.52463806749476
 20
145.1794112961647
 10
97.52463806749476
 20
145.0278226889209
 10
97.60316639882467
 20
145.0181918558333
 10
97.64003167566193
 20
145.0130060226322
 10
97.64003167566193
 20
145.0130060226322
 10
97.64003167566193
 20
144.9217424138494
 10
97.64003167566193
 20
144.9217424138494
 10
97.59664001010228
 20
144.9292918581013
 10
97.54460528920757
 20
144.9375821356676
 10
97.50117834587104
 20
145.0002707451793
 10
97.46089112467664
 20
145.059537410334
 10
97.45676362478193
 20
145.136019630605
 10
97.45676362478193
 20
145.1728849074423
 10
97.45676362478193
 20
145.2738146270896
 10
97.48844306841816
 20
145.4105865680447
 10
97.62969528703674
 20
145.4105865680447
 10
97.62969528703674
 20
145.4105865680447
 10
97.94356166791823
 20
145.4105865680447
 10
97.94356166791823
 20
145.4105865680447
 10
97.97005527835344
 20
145.4105865680447
 10
98.01140083285418
 20
145.4167954567751
 10
98.03034499903754
 20
145.4371154562567
 10
98.03034499903754
 20
145.4371154562567
 10
98.04209249873784
 20
145.4371154562567
 10
98.04209249873784
 20
145.4371154562567
 10
98.04209249873784
 20
145.4371154562567
 10
98.04209249873784
 20
145.3375615699077
 10
98.04209249873784
 20
145.3375615699077
 97
        0
 97
        0
 92
        1
 93
        1
 72
     4
 94
        3
 73
     0
 74
     1
 95
       20
 96
       16
 40
0.0
 40
0.0
 40
0.0
 40
0.0
 40
1.0
 40
1.0
 40
1.0
 40
2.0
 40
2.0
 40
2.0
 40
3.0
 40
3.0
 40
3.0
 40
4.0
 40
4.0
 40
4.0
 40
5.0
 40
5.0
 40
5.0
 40
5.0
 10
97.7354580621163
 20
145.3213690703208
 10
97.75475500606842
 20
145.2896543489077
 10
97.7568388644496
 20
145.2758960159253
 10
97.77472222778124
 20
145.1497779635873
 10
97.78851583854045
 20
145.054351577133
 10
97.80781278249259
 20
144.9854540788907
 10
97.88739944712883
 20
144.9854540788907
 10
97.94663330884676
 20
144.9854540788907
 10
97.99556111103607
 20
145.0330085221219
 10
97.99556111103607
 20
145.1274118530468
 10
97.99556111103607
 20
145.2917357377435
 10
97.85981222561041
 20
145.3213690703208
 10
97.84915833699333
 20
145.3213690703208
 10
97.84915833699333
 20
145.3213690703208
 10
97.7354580621163
 20
145.3213690703208
 10
97.7354580621163
 20
145.3213690703208
 97
        0
 97
        0
 75
     2
 76
     1
 98
        0
  0
POLYLINE
  5
F5
330
EC
100
AcDbEntity
  8
_U+30EC_U+30A4_U+30E4_U+30FC 1
370
     0
100
AcDb2dPolyline
 66
     1
 10
0.0
 20
0.0
 30
0.0
  0
VERTEX
  5
F6
330
F5
100
AcDbEntity
  8
_U+30EC_U+30A4_U+30E4_U+30FC 1
370
     0
100
AcDbVertex
100
AcDb2dVertex
 10
98.04209249873784
 20
145.8684568341412
 30
0.0
  0
VERTEX
  5
F7
330
F5
100
AcDbEntity
  8
_U+30EC_U+30A4_U+30E4_U+30FC 1
370
     0
100
AcDbVertex
100
AcDb2dVertex
 10
97.82467555984016
 20
145.7213485045609
 30
0.0
  0
VERTEX
  5
F8
330
F5
100
AcDbEntity
  8
_U+30EC_U+30A4_U+30E4_U+30FC 1
370
     0
100
AcDbVertex
100
AcDb2dVertex
 10
98.04209249873784
 20
145.5738873972118
 30
0.0
  0
VERTEX
  5
F9
330
F5
100
AcDbEntity
  8
_U+30EC_U+30A4_U+30E4_U+30FC 1
370
     0
100
AcDbVertex
100
AcDb2dVertex
 10
98.04209249873784
 20
145.4750037886235
 30
0.0
  0
VERTEX
  5
FA
330
F5
100
AcDbEntity
  8
_U+30EC_U+30A4_U+30E4_U+30FC 1
370
     0
100
AcDbVertex
100
AcDb2dVertex
 10
97.75062750617373
 20
145.671395172502
 30
0.0
  0
VERTEX
  5
FB
330
F5
100
AcDbEntity
  8
_U+30EC_U+30A4_U+30E4_U+30FC 1
370
     0
100
AcDbVertex
100
AcDb2dVertex
 10
97.4777539020242
 20
145.4867160105469
 30
0.0
  0
VERTEX
  5
FC
330
F5
100
AcDbEntity
  8
_U+30EC_U+30A4_U+30E4_U+30FC 1
370
     0
100
AcDbVertex
100
AcDb2dVertex
 10
97.4777539020242
 20
145.5866226746647
 30
0.0
  0
VERTEX
  5
FD
330
F5
100
AcDbEntity
  8
_U+30EC_U+30A4_U+30E4_U+30FC 1
370
     0
100
AcDbVertex
100
AcDb2dVertex
 10
97.67724973026797
 20
145.7213485045609
 30
0.0
  0
VERTEX
  5
FE
330
F5
100
AcDbEntity
  8
_U+30EC_U+30A4_U+30E4_U+30FC 1
370
     0
100
AcDbVertex
100
AcDb2dVertex
 10
97.4777539020242
 20
145.8556862789114
 30
0.0
  0
VERTEX
  5
FF
330
F5
100
AcDbEntity
  8
_U+30EC_U+30A4_U+30E4_U+30FC 1
370
     0
100
AcDbVertex
100
AcDb2dVertex
 10
97.4777539020242
 20
145.9545698874998
 30
0.0
  0
VERTEX
  5
100
330
F5
100
AcDbEntity
  8
_U+30EC_U+30A4_U+30E4_U+30FC 1
370
     0
100
AcDbVertex
100
AcDb2dVertex
 10
97.75062750617373
 20
145.7709527413353
 30
0.0
  0
VERTEX
  5
101
330
F5
100
AcDbEntity
  8
_U+30EC_U+30A4_U+30E4_U+30FC 1
370
     0
100
AcDbVertex
100
AcDb2dVertex
 10
98.04209249873784
 20
145.9673051649527
 30
0.0
  0
VERTEX
  5
102
330
F5
100
AcDbEntity
  8
_U+30EC_U+30A4_U+30E4_U+30FC 1
370
     0
100
AcDbVertex
100
AcDb2dVertex
 10
98.04209249873784
 20
145.8684568341412
 30
0.0
  0
SEQEND
  5
103
330
F5
100
AcDbEntity
  8
_U+30EC_U+30A4_U+30E4_U+30FC 1
370
     0
  0
HATCH
  5
104
330
EC
100
AcDbEntity
  8
_U+30EC_U+30A4_U+30E4_U+30FC 1
 62
   250
420
  1842203
100
AcDbHatch
 10
0.0
 20
0.0
 30
0.0
210
0.0
220
0.0
230
1.0
  2
SOLID
 70
     1
 71
     0
 91
        1
 92
        1
 93
       12
 72
     1
 10
98.04209249873784
 20
145.8684568341412
 11
97.82467555984016
 21
145.7213485045609
 72
     1
 10
97.82467555984016
 20
145.7213485045609
 11
98.04209249873784
 21
145.5738873972118
 72
     1
 10
98.04209249873784
 20
145.5738873972118
 11
98.04209249873784
 21
145.4750037886235
 72
     1
 10
98.04209249873784
 20
145.4750037886235
 11
97.75062750617373
 21
145.671395172502
 72
     1
 10
97.75062750617373
 20
145.671395172502
 11
97.4777539020242
 21
145.4867160105469
 72
     1
 10
97.4777539020242
 20
145.4867160105469
 11
97.4777539020242
 21
145.5866226746647
 72
     1
 10
97.4777539020242
 20
145.5866226746647
 11
97.67724973026797
 21
145.7213485045609
 72
     1
 10
97.67724973026797
 20
145.7213485045609
 11
97.4777539020242
 21
145.8556862789114
 72
     1
 10
97.4777539020242
 20
145.8556862789114
 11
97.4777539020242
 21
145.9545698874998
 72
     1
 10
97.4777539020242
 20
145.9545698874998
 11
97.75062750617373
 21
145.7709527413353
 72
     1
 10
97.75062750617373
 20
145.7709527413353
 11
98.04209249873784
 21
145.9673051649527
 72
     1
 10
98.04209249873784
 20
145.9673051649527
 11
98.04209249873784
 21
145.8684568341412
 97
        0
 75
     2
 76
     1
 98
        0
  0
POLYLINE
  5
105
330
EC
100
AcDbEntity
  8
_U+30EC_U+30A4_U+30E4_U+30FC 1
370
     0
100
AcDb2dPolyline
 66
     1
 10
0.0
 20
0.0
 30
0.0
  0
VERTEX
  5
106
330
105
100
AcDbEntity
  8
_U+30EC_U+30A4_U+30E4_U+30FC 1
370
     0
100
AcDbVertex
100
AcDb2dVertex
 10
98.04209249873784
 20
146.0658359957723
 30
0.0
  0
VERTEX
  5
107
330
105
100
AcDbEntity
  8
_U+30EC_U+30A4_U+30E4_U+30FC 1
370
     0
100
AcDbVertex
100
AcDb2dVertex
 10
97.92874500162958
 20
146.0658359957723
 30
0.0
  0
VERTEX
  5
108
330
105
100
AcDbEntity
  8
_U+30EC_U+30A4_U+30E4_U+30FC 1
370
     0
100
AcDbVertex
100
AcDb2dVertex
 10
97.92874500162958
 20
146.1791834928806
 30
0.0
  0
VERTEX
  5
109
330
105
100
AcDbEntity
  8
_U+30EC_U+30A4_U+30E4_U+30FC 1
370
     0
100
AcDbVertex
100
AcDb2dVertex
 10
98.04209249873784
 20
146.1791834928806
 30
0.0
  0
VERTEX
  5
10A
330
105
100
AcDbEntity
  8
_U+30EC_U+30A4_U+30E4_U+30FC 1
370
     0
100
AcDbVertex
100
AcDb2dVertex
 10
98.04209249873784
 20
146.0658359957723
 30
0.0
  0
SEQEND
  5
10B
330
105
100
AcDbEntity
  8
_U+30EC_U+30A4_U+30E4_U+30FC 1
370
     0
  0
HATCH
  5
10C
330
EC
100
AcDbEntity
  8
_U+30EC_U+30A4_U+30E4_U+30FC 1
 62
   250
420
  1842203
100
AcDbHatch
 10
0.0
 20
0.0
 30
0.0
210
0.0
220
0.0
230
1.0
  2
SOLID
 70
     1
 71
     0
 91
        1
 92
        1
 93
        4
 72
     1
 10
98.04209249873784
 20
146.0658359957723
 11
97.92874500162958
 21
146.0658359957723
 72
     1
 10
97.92874500162958
 20
146.0658359957723
 11
97.92874500162958
 21
146.1791834928806
 72
     1
 10
97.92874500162958
 20
146.1791834928806
 11
98.04209249873784
 21
146.1791834928806
 72
     1
 10
98.04209249873784
 20
146.1791834928806
 11
98.04209249873784
 21
146.0658359957723
 97
        0
 75
     2
 76
     1
 98
        0
  0
ENDBLK
  5
EF
330
EC
100
AcDbEntity
  8
0
100
AcDbBlockEnd
  0
BLOCK
  5
116
330
114
100
AcDbEntity
  8
0
100
AcDbBlockBegin
  2
block 11
 70
     0
 10
0.0
 20
0.0
 30
0.0
  3
block 11
  1

  0
SPLINE
  5
118
330
114
100
AcDbEntity
  8
_U+30EC_U+30A4_U+30E4_U+30FC 1
370
     0
100
AcDbSpline
210
0.0
220
0.0
230
1.0
 70
    11
 71
     3
 72
    29
 73
    25
 74
     0
 42
0.0000000001
 43
0.0000000001
 12
1.0
 22
0.0
 32
0.0
 13
1.0
 23
0.0
 33
0.0
 40
0.0
 40
0.0
 40
0.0
 40
0.0
 40
1.0
 40
1.0
 40
1.0
 40
2.0
 40
2.0
 40
2.0
 40
3.0
 40
3.0
 40
3.0
 40
4.0
 40
4.0
 40
4.0
 40
5.0
 40
5.0
 40
5.0
 40
6.0
 40
6.0
 40
6.0
 40
7.0
 40
7.0
 40
7.0
 40
8.0
 40
8.0
 40
8.0
 40
8.0
 10
80.05042629107682
 20
144.9668626904761
 30
0.0
 10
80.05042629107682
 20
144.9668626904761
 30
0.0
 10
80.05042629107682
 20
144.7990815836454
 30
0.0
 10
80.05042629107682
 20
144.7990815836454
 30
0.0
 10
79.83336212994791
 20
144.8238818607905
 30
0.0
 10
79.62666963522108
 20
144.8996938033008
 30
0.0
 10
79.42890241804432
 20
144.9916666304188
 30
0.0
 10
79.16227498020942
 20
145.1167226866528
 30
0.0
 10
79.0368604836017
 20
145.2228382395012
 30
0.0
 10
78.89387965391612
 20
145.3444444081083
 30
0.0
 10
78.89387965391612
 20
145.3444444081083
 30
0.0
 10
78.89387965391612
 20
144.5748207560335
 30
0.0
 10
78.89387965391612
 20
144.5748207560335
 30
0.0
 10
78.89387965391612
 20
144.5748207560335
 30
0.0
 10
78.76158799062449
 20
144.5748207560335
 30
0.0
 10
78.76158799062449
 20
144.5748207560335
 30
0.0
 10
78.76158799062449
 20
144.5748207560335
 30
0.0
 10
78.76158799062449
 20
145.5177251764224
 30
0.0
 10
78.76158799062449
 20
145.5177251764224
 30
0.0
 10
78.76158799062449
 20
145.5177251764224
 30
0.0
 10
78.89387965391612
 20
145.5177251764224
 30
0.0
 10
78.89387965391612
 20
145.5177251764224
 30
0.0
 10
79.2118735346923
 20
145.2176524063001
 30
0.0
 10
79.61771109120673
 20
145.0319854665925
 30
0.0
 10
80.05042629107682
 20
144.9668626904761
 30
0.0
  0
HATCH
  5
119
330
114
100
AcDbEntity
  8
_U+30EC_U+30A4_U+30E4_U+30FC 1
 62
   250
420
  1842203
100
AcDbHatch
 10
0.0
 20
0.0
 30
0.0
210
0.0
220
0.0
230
1.0
  2
SOLID
 70
     1
 71
     0
 91
        1
 92
        1
 93
        1
 72
     4
 94
        3
 73
     0
 74
     1
 95
       29
 96
       25
 40
0.0
 40
0.0
 40
0.0
 40
0.0
 40
1.0
 40
1.0
 40
1.0
 40
2.0
 40
2.0
 40
2.0
 40
3.0
 40
3.0
 40
3.0
 40
4.0
 40
4.0
 40
4.0
 40
5.0
 40
5.0
 40
5.0
 40
6.0
 40
6.0
 40
6.0
 40
7.0
 40
7.0
 40
7.0
 40
8.0
 40
8.0
 40
8.0
 40
8.0
 10
80.05042629107682
 20
144.9668626904761
 10
80.05042629107682
 20
144.9668626904761
 10
80.05042629107682
 20
144.7990815836454
 10
80.05042629107682
 20
144.7990815836454
 10
79.83336212994791
 20
144.8238818607905
 10
79.62666963522108
 20
144.8996938033008
 10
79.42890241804432
 20
144.9916666304188
 10
79.16227498020942
 20
145.1167226866528
 10
79.0368604836017
 20
145.2228382395012
 10
78.89387965391612
 20
145.3444444081083
 10
78.89387965391612
 20
145.3444444081083
 10
78.89387965391612
 20
144.5748207560335
 10
78.89387965391612
 20
144.5748207560335
 10
78.89387965391612
 20
144.5748207560335
 10
78.76158799062449
 20
144.5748207560335
 10
78.76158799062449
 20
144.5748207560335
 10
78.76158799062449
 20
144.5748207560335
 10
78.76158799062449
 20
145.5177251764224
 10
78.76158799062449
 20
145.5177251764224
 10
78.76158799062449
 20
145.5177251764224
 10
78.89387965391612
 20
145.5177251764224
 10
78.89387965391612
 20
145.5177251764224
 10
79.2118735346923
 20
145.2176524063001
 10
79.61771109120673
 20
145.0319854665925
 10
80.05042629107682
 20
144.9668626904761
 97
        0
 97
        0
 75
     2
 76
     1
 98
        0
  0
SPLINE
  5
11A
330
114
100
AcDbEntity
  8
_U+30EC_U+30A4_U+30E4_U+30FC 1
370
     0
100
AcDbSpline
210
0.0
220
0.0
230
1.0
 70
    11
 71
     3
 72
    17
 73
    13
 74
     0
 42
0.0000000001
 43
0.0000000001
 12
1.0
 22
0.0
 32
0.0
 13
1.0
 23
0.0
 33
0.0
 40
0.0
 40
0.0
 40
0.0
 40
0.0
 40
1.0
 40
1.0
 40
1.0
 40
2.0
 40
2.0
 40
2.0
 40
3.0
 40
3.0
 40
3.0
 40
4.0
 40
4.0
 40
4.0
 40
4.0
 10
80.08588045683898
 20
146.1574876601007
 30
0.0
 10
80.08588045683898
 20
145.7619885035241
 30
0.0
 10
79.73070379923362
 20
145.6686082281286
 30
0.0
 10
79.40583075196626
 20
145.6686082281286
 30
0.0
 10
79.0809577046989
 20
145.6686082281286
 30
0.0
 10
78.72609854708546
 20
145.7619885035241
 30
0.0
 10
78.72609854708546
 20
146.1574876601007
 30
0.0
 10
78.72609854708546
 20
146.5529868166774
 30
0.0
 10
79.08473242682483
 20
146.6449559809977
 30
0.0
 10
79.40583075196626
 20
146.6449559809977
 30
0.0
 10
79.7289751881666
 20
146.6449559809977
 30
0.0
 10
80.08588045683898
 20
146.5529868166774
 30
0.0
 10
80.08588045683898
 20
146.1574876601007
 30
0.0
  0
SPLINE
  5
11B
330
114
100
AcDbEntity
  8
_U+30EC_U+30A4_U+30E4_U+30FC 1
370
     0
100
AcDbSpline
210
0.0
220
0.0
230
1.0
 70
    11
 71
     3
 72
    17
 73
    13
 74
     0
 42
0.0000000001
 43
0.0000000001
 12
1.0
 22
0.0
 32
0.0
 13
1.0
 23
0.0
 33
0.0
 40
0.0
 40
0.0
 40
0.0
 40
0.0
 40
1.0
 40
1.0
 40
1.0
 40
2.0
 40
2.0
 40
2.0
 40
3.0
 40
3.0
 40
3.0
 40
4.0
 40
4.0
 40
4.0
 40
4.0
 10
78.85874298814586
 20
146.1574876601007
 30
0.0
 10
78.85874298814586
 20
145.9052868332016
 30
0.0
 10
79.11644714823794
 20
145.8363893349593
 30
0.0
 10
79.40583075196626
 20
145.8363893349593
 30
0.0
 10
79.70794963314746
 20
145.8363893349593
 30
0.0
 10
79.95327129355545
 20
145.9104726664026
 30
0.0
 10
79.95327129355545
 20
146.1574876601007
 30
0.0
 10
79.95327129355545
 20
146.4065487648578
 30
0.0
 10
79.70625831340688
 20
146.4789034852341
 30
0.0
 10
79.40583075196626
 20
146.4789034852341
 30
0.0
 10
79.10748659291099
 20
146.4789034852341
 30
0.0
 10
78.85874298814586
 20
146.4065487648578
 30
0.0
 10
78.85874298814586
 20
146.1574876601007
 30
0.0
  0
HATCH
  5
11C
330
114
100
AcDbEntity
  8
_U+30EC_U+30A4_U+30E4_U+30FC 1
 62
   250
420
  1842203
100
AcDbHatch
 10
0.0
 20
0.0
 30
0.0
210
0.0
220
0.0
230
1.0
  2
SOLID
 70
     1
 71
     0
 91
        2
 92
        1
 93
        1
 72
     4
 94
        3
 73
     0
 74
     1
 95
       17
 96
       13
 40
0.0
 40
0.0
 40
0.0
 40
0.0
 40
1.0
 40
1.0
 40
1.0
 40
2.0
 40
2.0
 40
2.0
 40
3.0
 40
3.0
 40
3.0
 40
4.0
 40
4.0
 40
4.0
 40
4.0
 10
80.08588045683898
 20
146.1574876601007
 10
80.08588045683898
 20
145.7619885035241
 10
79.73070379923362
 20
145.6686082281286
 10
79.40583075196626
 20
145.6686082281286
 10
79.0809577046989
 20
145.6686082281286
 10
78.72609854708546
 20
145.7619885035241
 10
78.72609854708546
 20
146.1574876601007
 10
78.72609854708546
 20
146.5529868166774
 10
79.08473242682483
 20
146.6449559809977
 10
79.40583075196626
 20
146.6449559809977
 10
79.7289751881666
 20
146.6449559809977
 10
80.08588045683898
 20
146.5529868166774
 10
80.08588045683898
 20
146.1574876601007
 97
        0
 97
        0
 92
        1
 93
        1
 72
     4
 94
        3
 73
     0
 74
     1
 95
       17
 96
       13
 40
0.0
 40
0.0
 40
0.0
 40
0.0
 40
1.0
 40
1.0
 40
1.0
 40
2.0
 40
2.0
 40
2.0
 40
3.0
 40
3.0
 40
3.0
 40
4.0
 40
4.0
 40
4.0
 40
4.0
 10
78.85874298814586
 20
146.1574876601007
 10
78.85874298814586
 20
145.9052868332016
 10
79.11644714823794
 20
145.8363893349593
 10
79.40583075196626
 20
145.8363893349593
 10
79.70794963314746
 20
145.8363893349593
 10
79.95327129355545
 20
145.9104726664026
 10
79.95327129355545
 20
146.1574876601007
 10
79.95327129355545
 20
146.4065487648578
 10
79.70625831340688
 20
146.4789034852341
 10
79.40583075196626
 20
146.4789034852341
 10
79.10748659291099
 20
146.4789034852341
 10
78.85874298814586
 20
146.4065487648578
 10
78.85874298814586
 20
146.1574876601007
 97
        0
 97
        0
 75
     2
 76
     1
 98
        0
  0
ENDBLK
  5
117
330
114
100
AcDbEntity
  8
0
100
AcDbBlockEnd
  0
ENDSEC
  0
SECTION
  2
ENTITIES
  0
INSERT
  5
42
330
1F
100
AcDbEntity
  8
_U+30EC_U+30A4_U+30E4_U+30FC 1
100
AcDbBlockReference
  2
block 2
 10
0.0
 20
0.0
 30
0.0
  0
POLYLINE
  5
4A
330
1F
100
AcDbEntity
  8
_U+30EC_U+30A4_U+30E4_U+30FC 1
370
     0
100
AcDb2dPolyline
 66
     1
 10
0.0
 20
0.0
 30
0.0
  0
VERTEX
  5
4B
330
4A
100
AcDbEntity
  8
_U+30EC_U+30A4_U+30E4_U+30FC 1
370
     0
100
AcDbVertex
100
AcDb2dVertex
 10
97.9545683343041
 20
156.6531554478895
 30
0.0
  0
VERTEX
  5
4C
330
4A
100
AcDbEntity
  8
_U+30EC_U+30A4_U+30E4_U+30FC 1
370
     0
100
AcDbVertex
100
AcDb2dVertex
 10
94.83848230269096
 20
156.6531554478895
 30
0.0
  0
VERTEX
  5
4D
330
4A
100
AcDbEntity
  8
_U+30EC_U+30A4_U+30E4_U+30FC 1
370
     0
100
AcDbVertex
100
AcDb2dVertex
 10
94.83848230269096
 20
158.7110492842771
 30
0.0
  0
VERTEX
  5
4E
330
4A
100
AcDbEntity
  8
_U+30EC_U+30A4_U+30E4_U+30FC 1
370
     0
100
AcDbVertex
100
AcDb2dVertex
 10
97.9545683343041
 20
158.7110492842771
 30
0.0
  0
VERTEX
  5
4F
330
4A
100
AcDbEntity
  8
_U+30EC_U+30A4_U+30E4_U+30FC 1
370
     0
100
AcDbVertex
100
AcDb2dVertex
 10
97.9545683343041
 20
156.6531554478895
 30
0.0
  0
SEQEND
  5
50
330
4A
100
AcDbEntity
  8
_U+30EC_U+30A4_U+30E4_U+30FC 1
370
     0
  0
INSERT
  5
52
330
1F
100
AcDbEntity
  8
_U+30EC_U+30A4_U+30E4_U+30FC 1
100
AcDbBlockReference
  2
block 3
 10
0.0
 20
0.0
 30
0.0
  0
POLYLINE
  5
5B
330
1F
100
AcDbEntity
  8
_U+30EC_U+30A4_U+30E4_U+30FC 1
370
     0
100
AcDb2dPolyline
 66
     1
 10
0.0
 20
0.0
 30
0.0
  0
VERTEX
  5
5C
330
5B
100
AcDbEntity
  8
_U+30EC_U+30A4_U+30E4_U+30FC 1
370
     0
100
AcDbVertex
100
AcDb2dVertex
 10
91.4869194215726
 20
156.6531554478895
 30
0.0
  0
VERTEX
  5
5D
330
5B
100
AcDbEntity
  8
_U+30EC_U+30A4_U+30E4_U+30FC 1
370
     0
100
AcDbVertex
100
AcDb2dVertex
 10
88.37083331124063
 20
156.6531554478895
 30
0.0
  0
VERTEX
  5
5E
330
5B
100
AcDbEntity
  8
_U+30EC_U+30A4_U+30E4_U+30FC 1
370
     0
100
AcDbVertex
100
AcDb2dVertex
 10
88.37083331124063
 20
158.7110492842771
 30
0.0
  0
VERTEX
  5
5F
330
5B
100
AcDbEntity
  8
_U+30EC_U+30A4_U+30E4_U+30FC 1
370
     0
100
AcDbVertex
100
AcDb2dVertex
 10
91.4869194215726
 20
158.7110492842771
 30
0.0
  0
VERTEX
  5
60
330
5B
100
AcDbEntity
  8
_U+30EC_U+30A4_U+30E4_U+30FC 1
370
     0
100
AcDbVertex
100
AcDb2dVertex
 10
91.4869194215726
 20
156.6531554478895
 30
0.0
  0
SEQEND
  5
61
330
5B
100
AcDbEntity
  8
_U+30EC_U+30A4_U+30E4_U+30FC 1
370
     0
  0
INSERT
  5
63
330
1F
100
AcDbEntity
  8
_U+30EC_U+30A4_U+30E4_U+30FC 1
100
AcDbBlockReference
  2
block 4
 10
0.0
 20
0.0
 30
0.0
  0
POLYLINE
  5
6C
330
1F
100
AcDbEntity
  8
_U+30EC_U+30A4_U+30E4_U+30FC 1
370
     0
100
AcDb2dPolyline
 66
     1
 10
0.0
 20
0.0
 30
0.0
  0
VERTEX
  5
6D
330
6C
100
AcDbEntity
  8
_U+30EC_U+30A4_U+30E4_U+30FC 1
370
     0
100
AcDbVertex
100
AcDb2dVertex
 10
91.83969719926218
 20
133.3110499322851
 30
0.0
  0
VERTEX
  5
6E
330
6C
100
AcDbEntity
  8
_U+30EC_U+30A4_U+30E4_U+30FC 1
370
     0
100
AcDbVertex
100
AcDb2dVertex
 10
88.72361108893021
 20
133.3110499322851
 30
0.0
  0
VERTEX
  5
6F
330
6C
100
AcDbEntity
  8
_U+30EC_U+30A4_U+30E4_U+30FC 1
370
     0
100
AcDbVertex
100
AcDb2dVertex
 10
88.72361108893021
 20
135.3688379353421
 30
0.0
  0
VERTEX
  5
70
330
6C
100
AcDbEntity
  8
_U+30EC_U+30A4_U+30E4_U+30FC 1
370
     0
100
AcDbVertex
100
AcDb2dVertex
 10
91.83969719926218
 20
135.3688379353421
 30
0.0
  0
VERTEX
  5
71
330
6C
100
AcDbEntity
  8
_U+30EC_U+30A4_U+30E4_U+30FC 1
370
     0
100
AcDbVertex
100
AcDb2dVertex
 10
91.83969719926218
 20
133.3110499322851
 30
0.0
  0
SEQEND
  5
72
330
6C
100
AcDbEntity
  8
_U+30EC_U+30A4_U+30E4_U+30FC 1
370
     0
  0
INSERT
  5
74
330
1F
100
AcDbEntity
  8
_U+30EC_U+30A4_U+30E4_U+30FC 1
100
AcDbBlockReference
  2
block 5
 10
0.0
 20
0.0
 30
0.0
  0
POLYLINE
  5
7D
330
1F
100
AcDbEntity
  8
_U+30EC_U+30A4_U+30E4_U+30FC 1
370
     0
100
AcDb2dPolyline
 66
     1
 10
0.0
 20
0.0
 30
0.0
  0
VERTEX
  5
7E
330
7D
100
AcDbEntity
  8
_U+30EC_U+30A4_U+30E4_U+30FC 1
370
     0
100
AcDbVertex
100
AcDb2dVertex
 10
81.27118053523776
 20
153.2870910893205
 30
0.0
  0
VERTEX
  5
7F
330
7D
100
AcDbEntity
  8
_U+30EC_U+30A4_U+30E4_U+30FC 1
370
     0
100
AcDbVertex
100
AcDb2dVertex
 10
76.90555553632917
 20
153.2870910893205
 30
0.0
  0
VERTEX
  5
80
330
7D
100
AcDbEntity
  8
_U+30EC_U+30A4_U+30E4_U+30FC 1
370
     0
100
AcDbVertex
100
AcDb2dVertex
 10
76.90555553632917
 20
155.3448790923775
 30
0.0
  0
VERTEX
  5
81
330
7D
100
AcDbEntity
  8
_U+30EC_U+30A4_U+30E4_U+30FC 1
370
     0
100
AcDbVertex
100
AcDb2dVertex
 10
81.27118053523776
 20
155.3448790923775
 30
0.0
  0
VERTEX
  5
82
330
7D
100
AcDbEntity
  8
_U+30EC_U+30A4_U+30E4_U+30FC 1
370
     0
100
AcDbVertex
100
AcDb2dVertex
 10
81.27118053523776
 20
153.2870910893205
 30
0.0
  0
SEQEND
  5
83
330
7D
100
AcDbEntity
  8
_U+30EC_U+30A4_U+30E4_U+30FC 1
370
     0
  0
INSERT
  5
85
330
1F
100
AcDbEntity
  8
_U+30EC_U+30A4_U+30E4_U+30FC 1
100
AcDbBlockReference
  2
block 6
 10
0.0
 20
0.0
 30
0.0
  0
POLYLINE
  5
94
330
1F
100
AcDbEntity
  8
_U+30EC_U+30A4_U+30E4_U+30FC 1
370
     0
100
AcDb2dPolyline
 66
     1
 10
0.0
 20
0.0
 30
0.0
  0
VERTEX
  5
95
330
94
100
AcDbEntity
  8
_U+30EC_U+30A4_U+30E4_U+30FC 1
370
     0
100
AcDbVertex
100
AcDb2dVertex
 10
81.27118053523776
 20
136.6183415145757
 30
0.0
  0
VERTEX
  5
96
330
94
100
AcDbEntity
  8
_U+30EC_U+30A4_U+30E4_U+30FC 1
370
     0
100
AcDbVertex
100
AcDb2dVertex
 10
76.90555553632917
 20
136.6183415145757
 30
0.0
  0
VERTEX
  5
97
330
94
100
AcDbEntity
  8
_U+30EC_U+30A4_U+30E4_U+30FC 1
370
     0
100
AcDbVertex
100
AcDb2dVertex
 10
76.90555553632917
 20
138.6761295176327
 30
0.0
  0
VERTEX
  5
98
330
94
100
AcDbEntity
  8
_U+30EC_U+30A4_U+30E4_U+30FC 1
370
     0
100
AcDbVertex
100
AcDb2dVertex
 10
81.27118053523776
 20
138.6761295176327
 30
0.0
  0
VERTEX
  5
99
330
94
100
AcDbEntity
  8
_U+30EC_U+30A4_U+30E4_U+30FC 1
370
     0
100
AcDbVertex
100
AcDb2dVertex
 10
81.27118053523776
 20
136.6183415145757
 30
0.0
  0
SEQEND
  5
9A
330
94
100
AcDbEntity
  8
_U+30EC_U+30A4_U+30E4_U+30FC 1
370
     0
  0
INSERT
  5
9C
330
1F
100
AcDbEntity
  8
_U+30EC_U+30A4_U+30E4_U+30FC 1
100
AcDbBlockReference
  2
block 7
 10
0.0
 20
0.0
 30
0.0
  0
POLYLINE
  5
AB
330
1F
100
AcDbEntity
  8
_U+30EC_U+30A4_U+30E4_U+30FC 1
370
     0
100
AcDb2dPolyline
 66
     1
 10
0.0
 20
0.0
 30
0.0
  0
VERTEX
  5
AC
330
AB
100
AcDbEntity
  8
_U+30EC_U+30A4_U+30E4_U+30FC 1
370
     0
100
AcDbVertex
100
AcDb2dVertex
 10
106.509255528928
 20
148.5980042645046
 30
0.0
  0
VERTEX
  5
AD
330
AB
100
AcDbEntity
  8
_U+30EC_U+30A4_U+30E4_U+30FC 1
370
     0
100
AcDbVertex
100
AcDb2dVertex
 10
106.509255528928
 20
143.2177905128764
 30
0.0
  0
VERTEX
  5
AE
330
AB
100
AcDbEntity
  8
_U+30EC_U+30A4_U+30E4_U+30FC 1
370
     0
100
AcDbVertex
100
AcDb2dVertex
 10
104.4516765018824
 20
143.2177905128764
 30
0.0
  0
VERTEX
  5
AF
330
AB
100
AcDbEntity
  8
_U+30EC_U+30A4_U+30E4_U+30FC 1
370
     0
100
AcDbVertex
100
AcDb2dVertex
 10
104.4516765018824
 20
148.5980042645046
 30
0.0
  0
VERTEX
  5
B0
330
AB
100
AcDbEntity
  8
_U+30EC_U+30A4_U+30E4_U+30FC 1
370
     0
100
AcDbVertex
100
AcDb2dVertex
 10
106.509255528928
 20
148.5980042645046
 30
0.0
  0
SEQEND
  5
B1
330
AB
100
AcDbEntity
  8
_U+30EC_U+30A4_U+30E4_U+30FC 1
370
     0
  0
INSERT
  5
B3
330
1F
100
AcDbEntity
  8
_U+30EC_U+30A4_U+30E4_U+30FC 1
100
AcDbBlockReference
  2
block 8
 10
0.0
 20
0.0
 30
0.0
  0
POLYLINE
  5
BF
330
1F
100
AcDbEntity
  8
_U+30EC_U+30A4_U+30E4_U+30FC 1
370
     0
100
AcDb2dPolyline
 66
     1
 10
0.0
 20
0.0
 30
0.0
  0
VERTEX
  5
C0
330
BF
100
AcDbEntity
  8
_U+30EC_U+30A4_U+30E4_U+30FC 1
370
     0
100
AcDbVertex
100
AcDb2dVertex
 10
96.80786664246476
 20
148.2893237168242
 30
0.0
  0
VERTEX
  5
C1
330
BF
100
AcDbEntity
  8
_U+30EC_U+30A4_U+30E4_U+30FC 1
370
     0
100
AcDbVertex
100
AcDb2dVertex
 10
96.80786664246476
 20
146.6132765373615
 30
0.0
  0
VERTEX
  5
C2
330
BF
100
AcDbEntity
  8
_U+30EC_U+30A4_U+30E4_U+30FC 1
370
     0
100
AcDbVertex
100
AcDb2dVertex
 10
94.75028786049656
 20
146.6132765373615
 30
0.0
  0
VERTEX
  5
C3
330
BF
100
AcDbEntity
  8
_U+30EC_U+30A4_U+30E4_U+30FC 1
370
     0
100
AcDbVertex
100
AcDb2dVertex
 10
94.75028786049656
 20
148.2893237168242
 30
0.0
  0
VERTEX
  5
C4
330
BF
100
AcDbEntity
  8
_U+30EC_U+30A4_U+30E4_U+30FC 1
370
     0
100
AcDbVertex
100
AcDb2dVertex
 10
96.80786664246476
 20
148.2893237168242
 30
0.0
  0
SEQEND
  5
C5
330
BF
100
AcDbEntity
  8
_U+30EC_U+30A4_U+30E4_U+30FC 1
370
     0
  0
POLYLINE
  5
C6
330
1F
100
AcDbEntity
  8
_U+30EC_U+30A4_U+30E4_U+30FC 1
370
     0
100
AcDb2dPolyline
 66
     1
 10
0.0
 20
0.0
 30
0.0
  0
VERTEX
  5
C7
330
C6
100
AcDbEntity
  8
_U+30EC_U+30A4_U+30E4_U+30FC 1
370
     0
100
AcDbVertex
100
AcDb2dVertex
 10
98.2630749754343
 20
146.7018237573247
 30
0.0
  0
VERTEX
  5
C8
330
C6
100
AcDbEntity
  8
_U+30EC_U+30A4_U+30E4_U+30FC 1
370
     0
100
AcDbVertex
100
AcDb2dVertex
 10
98.2630749754343
 20
143.5705682816541
 30
0.0
  0
VERTEX
  5
C9
330
C6
100
AcDbEntity
  8
_U+30EC_U+30A4_U+30E4_U+30FC 1
370
     0
100
AcDbVertex
100
AcDb2dVertex
 10
97.04334335755138
 20
143.5705682816541
 30
0.0
  0
VERTEX
  5
CA
330
C6
100
AcDbEntity
  8
_U+30EC_U+30A4_U+30E4_U+30FC 1
370
     0
100
AcDbVertex
100
AcDb2dVertex
 10
97.04334335755138
 20
146.7018237573247
 30
0.0
  0
VERTEX
  5
CB
330
C6
100
AcDbEntity
  8
_U+30EC_U+30A4_U+30E4_U+30FC 1
370
     0
100
AcDbVertex
100
AcDb2dVertex
 10
98.2630749754343
 20
146.7018237573247
 30
0.0
  0
SEQEND
  5
CC
330
C6
100
AcDbEntity
  8
_U+30EC_U+30A4_U+30E4_U+30FC 1
370
     0
  0
INSERT
  5
CE
330
1F
100
AcDbEntity
  8
_U+30EC_U+30A4_U+30E4_U+30FC 1
100
AcDbBlockReference
  2
block 9
 10
0.0
 20
0.0
 30
0.0
  0
INSERT
  5
ED
330
1F
100
AcDbEntity
  8
_U+30EC_U+30A4_U+30E4_U+30FC 1
100
AcDbBlockReference
  2
block 10
 10
0.0
 20
0.0
 30
0.0
  0
POLYLINE
  5
10D
330
1F
100
AcDbEntity
  8
_U+30EC_U+30A4_U+30E4_U+30FC 1
370
     0
100
AcDb2dPolyline
 66
     1
 10
0.0
 20
0.0
 30
0.0
  0
VERTEX
  5
10E
330
10D
100
AcDbEntity
  8
_U+30EC_U+30A4_U+30E4_U+30FC 1
370
     0
100
AcDbVertex
100
AcDb2dVertex
 10
80.40369997989914
 20
147.0105043050051
 30
0.0
  0
VERTEX
  5
10F
330
10D
100
AcDbEntity
  8
_U+30EC_U+30A4_U+30E4_U+30FC 1
370
     0
100
AcDbVertex
100
AcDb2dVertex
 10
80.40369997989914
 20
144.3939515939812
 30
0.0
  0
VERTEX
  5
110
330
10D
100
AcDbEntity
  8
_U+30EC_U+30A4_U+30E4_U+30FC 1
370
     0
100
AcDbVertex
100
AcDb2dVertex
 10
78.1697327279462
 20
144.3939515939812
 30
0.0
  0
VERTEX
  5
111
330
10D
100
AcDbEntity
  8
_U+30EC_U+30A4_U+30E4_U+30FC 1
370
     0
100
AcDbVertex
100
AcDb2dVertex
 10
78.1697327279462
 20
147.0105043050051
 30
0.0
  0
VERTEX
  5
112
330
10D
100
AcDbEntity
  8
_U+30EC_U+30A4_U+30E4_U+30FC 1
370
     0
100
AcDbVertex
100
AcDb2dVertex
 10
80.40369997989914
 20
147.0105043050051
 30
0.0
  0
SEQEND
  5
113
330
10D
100
AcDbEntity
  8
_U+30EC_U+30A4_U+30E4_U+30FC 1
370
     0
  0
INSERT
  5
115
330
1F
100
AcDbEntity
  8
_U+30EC_U+30A4_U+30E4_U+30FC 1
100
AcDbBlockReference
  2
block 11
 10
0.0
 20
0.0
 30
0.0
  0
ENDSEC
  0
SECTION
  2
OBJECTS
  0
DICTIONARY
  5
C
330
0
100
AcDbDictionary
281
     1
  3
ACAD_GROUP
350
D
  3
ACAD_IMAGE_DICT
350
45
  3
ACAD_IMAGE_VARS
350
47
  3
ACAD_LAYOUT
350
1A
  3
ACAD_MATERIAL
350
3B
  3
ACAD_MLEADERSTYLE
350
11E
  3
ACAD_MLINESTYLE
350
17
  3
ACAD_PLOTSETTINGS
350
19
  3
ACAD_PLOTSTYLENAME
350
E
  3
ACAD_TABLESTYLE
350
11D
  3
ACAD_VISUALSTYLE
350
2A
  0
SUN
  5
3F
330
29
100
AcDbSun
 90
        1
290
     0
 63
     7
421
 16777215
 40
1.0
291
     1
 91
  2455826
 92
 54000000
292
     0
 70
     2
 71
   256
280
     1
  0
IMAGEDEF_REACTOR
  5
49
330
48
100
AcDbRasterImageDefReactor
 90
        2
330
48
  0
DICTIONARY
  5
D
102
{ACAD_REACTORS
330
C
102
}
330
C
100
AcDbDictionary
281
     1
  0
DICTIONARY
  5
45
102
{ACAD_REACTORS
330
C
102
}
330
C
100
AcDbDictionary
281
     1
  3
C:\Users\yamazaks\Pictures\170630_\U+5E73\U+7530\U+30BF\U+30A4\U+30EB\U+69D8\15974180\15974180_1.png
350
46
  0
RASTERVARIABLES
  5
47
102
{ACAD_REACTORS
330
C
102
}
330
C
100
AcDbRasterVariables
 90
        0
 70
     0
 71
     1
 72
     0
  0
DICTIONARY
  5
1A
102
{ACAD_REACTORS
330
C
102
}
330
C
100
AcDbDictionary
281
     1
  3
Layout1
350
1E
  3
Layout2
350
26
  3
Model
350
22
  0
DICTIONARY
  5
3B
102
{ACAD_REACTORS
330
C
102
}
330
C
100
AcDbDictionary
281
     1
  3
ByBlock
350
3D
  3
ByLayer
350
3C
  3
Global
350
3E
  0
DICTIONARY
  5
11E
102
{ACAD_REACTORS
330
C
102
}
330
C
100
AcDbDictionary
281
     1
  0
DICTIONARY
  5
17
102
{ACAD_REACTORS
330
C
102
}
330
C
100
AcDbDictionary
281
     1
  3
Standard
350
18
  0
DICTIONARY
  5
19
102
{ACAD_REACTORS
330
C
102
}
330
C
100
AcDbDictionary
281
     1
  0
ACDBDICTIONARYWDFLT
  5
E
102
{ACAD_REACTORS
330
C
102
}
330
C
100
AcDbDictionary
281
     1
  3
Normal
350
F
100
AcDbDictionaryWithDefault
340
F
  0
DICTIONARY
  5
11D
102
{ACAD_REACTORS
330
C
102
}
330
C
100
AcDbDictionary
281
     1
  0
DICTIONARY
  5
2A
102
{ACAD_REACTORS
330
C
102
}
330
C
100
AcDbDictionary
281
     1
  3
2dWireframe
350
2F
  3
3D Hidden
350
31
  3
3dWireframe
350
30
  3
Basic
350
32
  3
Brighten
350
36
  3
ColorChange
350
3A
  3
Conceptual
350
34
  3
Dim
350
35
  3
Facepattern
350
39
  3
Flat
350
2B
  3
FlatWithEdges
350
2C
  3
Gouraud
350
2D
  3
GouraudWithEdges
350
2E
  3
Linepattern
350
38
  3
Realistic
350
33
  3
Thicken
350
37
  0
IMAGEDEF
  5
46
102
{ACAD_REACTORS
330
45
330
49
102
}
330
45
100
AcDbRasterImageDef
 90
        0
  1
C:\Users\yamazaks\Pictures\170630_\U+5E73\U+7530\U+30BF\U+30A4\U+30EB\U+69D8\15974180\15974180_1.png
 10
476.0
 20
485.0
 11
0.3527777777777777
 21
0.3527777777777777
280
     1
281
     5
  0
LAYOUT
  5
1E
102
{ACAD_REACTORS
330
1A
102
}
330
1A
100
AcDbPlotSettings
  1

  2
none_device
  4

  6

 40
0.0
 41
0.0
 42
0.0
 43
0.0
 44
0.0
 45
0.0
 46
0.0
 47
0.0
 48
0.0
 49
0.0
140
0.0
141
0.0
142
1.0
143
1.0
 70
   688
 72
     0
 73
     0
 74
     5
  7

 75
    16
 76
     0
 77
     2
 78
   300
147
1.0
148
0.0
149
0.0
100
AcDbLayout
  1
Layout1
 70
     1
 71
     1
 10
0.0
 20
0.0
 11
12.0
 21
9.0
 12
0.0
 22
0.0
 32
0.0
 14
1.000000000000000E+20
 24
1.000000000000000E+20
 34
1.000000000000000E+20
 15
-1.000000000000000E+20
 25
-1.000000000000000E+20
 35
-1.000000000000000E+20
146
0.0
 13
0.0
 23
0.0
 33
0.0
 16
1.0
 26
0.0
 36
0.0
 17
0.0
 27
1.0
 37
0.0
 76
     0
330
1B
  0
LAYOUT
  5
26
102
{ACAD_REACTORS
330
1A
102
}
330
1A
100
AcDbPlotSettings
  1

  2
none_device
  4

  6

 40
0.0
 41
0.0
 42
0.0
 43
0.0
 44
0.0
 45
0.0
 46
0.0
 47
0.0
 48
0.0
 49
0.0
140
0.0
141
0.0
142
1.0
143
1.0
 70
   688
 72
     0
 73
     0
 74
     5
  7

 75
    16
 76
     0
 77
     2
 78
   300
147
1.0
148
0.0
149
0.0
100
AcDbLayout
  1
Layout2
 70
     1
 71
     2
 10
0.0
 20
0.0
 11
0.0
 21
0.0
 12
0.0
 22
0.0
 32
0.0
 14
0.0
 24
0.0
 34
0.0
 15
0.0
 25
0.0
 35
0.0
146
0.0
 13
0.0
 23
0.0
 33
0.0
 16
1.0
 26
0.0
 36
0.0
 17
0.0
 27
1.0
 37
0.0
 76
     0
330
23
  0
LAYOUT
  5
22
102
{ACAD_REACTORS
330
1A
102
}
330
1A
100
AcDbPlotSettings
  1

  2
none_device
  4

  6

 40
0.0
 41
0.0
 42
0.0
 43
0.0
 44
0.0
 45
0.0
 46
0.0
 47
0.0
 48
0.0
 49
0.0
140
0.0
141
0.0
142
1.0
143
1.0
 70
  1712
 72
     0
 73
     0
 74
     0
  7

 75
     0
 76
     0
 77
     2
 78
   300
147
1.0
148
0.0
149
0.0
100
AcDbLayout
  1
Model
 70
     1
 71
     0
 10
0.0
 20
0.0
 11
12.0
 21
9.0
 12
0.0
 22
0.0
 32
0.0
 14
1.000000000000000E+20
 24
1.000000000000000E+20
 34
1.000000000000000E+20
 15
-1.000000000000000E+20
 25
-1.000000000000000E+20
 35
-1.000000000000000E+20
146
0.0
 13
0.0
 23
0.0
 33
0.0
 16
1.0
 26
0.0
 36
0.0
 17
0.0
 27
1.0
 37
0.0
 76
     0
330
1F
331
29
  0
MATERIAL
  5
3D
102
{ACAD_REACTORS
330
3B
102
}
330
3B
100
AcDbMaterial
  1
ByBlock
 72
     1
 94
      127
  0
MATERIAL
  5
3C
102
{ACAD_REACTORS
330
3B
102
}
330
3B
100
AcDbMaterial
  1
ByLayer
 72
     1
 94
      127
  0
MATERIAL
  5
3E
102
{ACAD_REACTORS
330
3B
102
}
330
3B
100
AcDbMaterial
  1
Global
 72
     1
 94
      127
  0
MLINESTYLE
  5
18
102
{ACAD_REACTORS
330
17
102
}
330
17
100
AcDbMlineStyle
  2
Standard
 70
     0
  3

 62
   256
 51
90.0
 52
90.0
 71
     2
 49
0.5
 62
   256
  6
BYLAYER
 49
-0.5
 62
   256
  6
BYLAYER
  0
ACDBPLACEHOLDER
  5
F
102
{ACAD_REACTORS
330
E
102
}
330
E
  0
VISUALSTYLE
  5
2F
102
{ACAD_REACTORS
330
2A
102
}
330
2A
100
AcDbVisualStyle
  2
2dWireframe
 70
     4
177
     2
291
     0
 71
     0
176
     1
 72
     2
176
     1
 73
     0
176
     1
 90
        0
176
     1
 40
-0.6
176
     1
 41
-30.0
176
     1
 62
     5
 63
     7
421
 16777215
176
     1
 74
     1
176
     1
 91
        4
176
     1
 64
     7
176
     1
 65
   257
176
     1
 75
     1
176
     1
175
     1
176
     1
 42
1.0
176
     1
 92
        0
176
     1
 66
   257
176
     1
 43
1.0
176
     1
 76
     1
176
     1
 77
     6
176
     1
 78
     2
176
     1
 67
     7
176
     1
 79
     5
176
     1
170
     0
176
     1
171
     0
176
     1
290
     0
176
     1
 93
        1
176
     1
 44
0.0
176
     1
173
     0
176
     1
  0
VISUALSTYLE
  5
31
102
{ACAD_REACTORS
330
2A
102
}
330
2A
100
AcDbVisualStyle
  2
3D Hidden
 70
     6
177
     2
291
     0
 71
     1
176
     1
 72
     2
176
     1
 73
     2
176
     1
 90
        0
176
     1
 40
-0.6
176
     1
 41
-30.0
176
     1
 62
     5
 63
     7
421
 16777215
176
     1
 74
     2
176
     1
 91
        2
176
     1
 64
     7
176
     1
 65
   257
176
     1
 75
     2
176
     1
175
     1
176
     1
 42
40.0
176
     1
 92
        0
176
     1
 66
   257
176
     1
 43
1.0
176
     1
 76
     1
176
     1
 77
     6
176
     1
 78
     2
176
     1
 67
     7
176
     1
 79
     3
176
     1
170
     0
176
     1
171
     0
176
     1
290
     0
176
     1
 93
        1
176
     1
 44
0.0
176
     1
173
     0
176
     1
  0
VISUALSTYLE
  5
30
102
{ACAD_REACTORS
330
2A
102
}
330
2A
100
AcDbVisualStyle
  2
3dWireframe
 70
     5
177
     2
291
     0
 71
     0
176
     1
 72
     2
176
     1
 73
     0
176
     1
 90
        0
176
     1
 40
-0.6
176
     1
 41
-30.0
176
     1
 62
     5
 63
     7
421
 16777215
176
     1
 74
     1
176
     1
 91
        4
176
     1
 64
     7
176
     1
 65
   257
176
     1
 75
     1
176
     1
175
     1
176
     1
 42
1.0
176
     1
 92
        0
176
     1
 66
   257
176
     1
 43
1.0
176
     1
 76
     1
176
     1
 77
     6
176
     1
 78
     2
176
     1
 67
     7
176
     1
 79
     5
176
     1
170
     0
176
     1
171
     0
176
     1
290
     0
176
     1
 93
        1
176
     1
 44
0.0
176
     1
173
     0
176
     1
  0
VISUALSTYLE
  5
32
102
{ACAD_REACTORS
330
2A
102
}
330
2A
100
AcDbVisualStyle
  2
Basic
 70
     7
177
     2
291
     1
 71
     1
176
     1
 72
     0
176
     1
 73
     1
176
     1
 90
        0
176
     1
 40
-0.6
176
     1
 41
-30.0
176
     1
 62
     5
 63
     7
421
 16777215
176
     1
 74
     0
176
     1
 91
        4
176
     1
 64
     7
176
     1
 65
   257
176
     1
 75
     1
176
     1
175
     1
176
     1
 42
1.0
176
     1
 92
        8
176
     1
 66
     7
176
     1
 43
1.0
176
     1
 76
     1
176
     1
 77
     6
176
     1
 78
     2
176
     1
 67
     7
176
     1
 79
     5
176
     1
170
     0
176
     1
171
     0
176
     1
290
     0
176
     1
 93
        1
176
     1
 44
0.0
176
     1
173
     0
176
     1
  0
VISUALSTYLE
  5
36
102
{ACAD_REACTORS
330
2A
102
}
330
2A
100
AcDbVisualStyle
  2
Brighten
 70
    12
177
     2
291
     1
 71
     2
176
     1
 72
     2
176
     1
 73
     0
176
     1
 90
        0
176
     1
 40
-0.6
176
     1
 41
-30.0
176
     1
 62
     5
 63
     7
421
 16777215
176
     1
 74
     1
176
     1
 91
        4
176
     1
 64
     7
176
     1
 65
   257
176
     1
 75
     1
176
     1
175
     1
176
     1
 42
1.0
176
     1
 92
        8
176
     1
 66
     7
176
     1
 43
1.0
176
     1
 76
     1
176
     1
 77
     6
176
     1
 78
     2
176
     1
 67
     7
176
     1
 79
     5
176
     1
170
     0
176
     1
171
     0
176
     1
290
     0
176
     1
 93
        1
176
     1
 44
50.0
176
     1
173
     0
176
     1
  0
VISUALSTYLE
  5
3A
102
{ACAD_REACTORS
330
2A
102
}
330
2A
100
AcDbVisualStyle
  2
ColorChange
 70
    16
177
     2
291
     1
 71
     2
176
     1
 72
     2
176
     1
 73
     3
176
     1
 90
        0
176
     1
 40
-0.6
176
     1
 41
-30.0
176
     1
 62
     5
 63
     8
421
  8421504
176
     1
 74
     1
176
     1
 91
        4
176
     1
 64
     7
176
     1
 65
   257
176
     1
 75
     1
176
     1
175
     1
176
     1
 42
1.0
176
     1
 92
        8
176
     1
 66
     8
424
  8421504
176
     1
 43
1.0
176
     1
 76
     1
176
     1
 77
     6
176
     1
 78
     2
176
     1
 67
     7
176
     1
 79
     5
176
     1
170
     0
176
     1
171
     0
176
     1
290
     0
176
     1
 93
        1
176
     1
 44
0.0
176
     1
173
     0
176
     1
  0
VISUALSTYLE
  5
34
102
{ACAD_REACTORS
330
2A
102
}
330
2A
100
AcDbVisualStyle
  2
Conceptual
 70
     9
177
     2
291
     0
 71
     3
176
     1
 72
     2
176
     1
 73
     0
176
     1
 90
        0
176
     1
 40
-0.6
176
     1
 41
-30.0
176
     1
 62
     5
 63
     7
421
 16777215
176
     1
 74
     2
176
     1
 91
        2
176
     1
 64
     7
176
     1
 65
   257
176
     1
 75
     1
176
     1
175
     1
176
     1
 42
40.0
176
     1
 92
        8
176
     1
 66
     7
176
     1
 43
1.0
176
     1
 76
     1
176
     1
 77
     6
176
     1
 78
     2
176
     1
 67
     7
176
     1
 79
     3
176
     1
170
     0
176
     1
171
     0
176
     1
290
     0
176
     1
 93
        1
176
     1
 44
0.0
176
     1
173
     0
176
     1
  0
VISUALSTYLE
  5
35
102
{ACAD_REACTORS
330
2A
102
}
330
2A
100
AcDbVisualStyle
  2
Dim
 70
    11
177
     2
291
     1
 71
     2
176
     1
 72
     2
176
     1
 73
     0
176
     1
 90
        0
176
     1
 40
-0.6
176
     1
 41
-30.0
176
     1
 62
     5
 63
     7
421
 16777215
176
     1
 74
     1
176
     1
 91
        4
176
     1
 64
     7
176
     1
 65
   257
176
     1
 75
     1
176
     1
175
     1
176
     1
 42
1.0
176
     1
 92
        8
176
     1
 66
     7
176
     1
 43
1.0
176
     1
 76
     1
176
     1
 77
     6
176
     1
 78
     2
176
     1
 67
     7
176
     1
 79
     5
176
     1
170
     0
176
     1
171
     0
176
     1
290
     0
176
     1
 93
        1
176
     1
 44
-50.0
176
     1
173
     0
176
     1
  0
VISUALSTYLE
  5
39
102
{ACAD_REACTORS
330
2A
102
}
330
2A
100
AcDbVisualStyle
  2
Facepattern
 70
    15
177
     2
291
     1
 71
     2
176
     1
 72
     2
176
     1
 73
     0
176
     1
 90
        0
176
     1
 40
-0.6
176
     1
 41
-30.0
176
     1
 62
     5
 63
     7
421
 16777215
176
     1
 74
     1
176
     1
 91
        4
176
     1
 64
     7
176
     1
 65
   257
176
     1
 75
     1
176
     1
175
     1
176
     1
 42
1.0
176
     1
 92
        8
176
     1
 66
     7
176
     1
 43
1.0
176
     1
 76
     1
176
     1
 77
     6
176
     1
 78
     2
176
     1
 67
     7
176
     1
 79
     5
176
     1
170
     0
176
     1
171
     0
176
     1
290
     0
176
     1
 93
        1
176
     1
 44
0.0
176
     1
173
     0
176
     1
  0
VISUALSTYLE
  5
2B
102
{ACAD_REACTORS
330
2A
102
}
330
2A
100
AcDbVisualStyle
  2
Flat
 70
     0
177
     2
291
     1
 71
     2
176
     1
 72
     1
176
     1
 73
     1
176
     1
 90
        2
176
     1
 40
-0.6
176
     1
 41
30.0
176
     1
 62
     5
 63
     7
421
 16777215
176
     1
 74
     0
176
     1
 91
        4
176
     1
 64
     7
176
     1
 65
   257
176
     1
 75
     1
176
     1
175
     1
176
     1
 42
1.0
176
     1
 92
        8
176
     1
 66
     7
176
     1
 43
1.0
176
     1
 76
     1
176
     1
 77
     6
176
     1
 78
     2
176
     1
 67
     7
176
     1
 79
     5
176
     1
170
     0
176
     1
171
     0
176
     1
290
     0
176
     1
 93
       13
176
     1
 44
0.0
176
     1
173
     0
176
     1
  0
VISUALSTYLE
  5
2C
102
{ACAD_REACTORS
330
2A
102
}
330
2A
100
AcDbVisualStyle
  2
FlatWithEdges
 70
     1
177
     2
291
     1
 71
     2
176
     1
 72
     1
176
     1
 73
     1
176
     1
 90
        2
176
     1
 40
-0.6
176
     1
 41
30.0
176
     1
 62
     5
 63
     7
421
 16777215
176
     1
 74
     1
176
     1
 91
        4
176
     1
 64
     7
176
     1
 65
   257
176
     1
 75
     1
176
     1
175
     1
176
     1
 42
1.0
176
     1
 92
        0
176
     1
 66
   257
176
     1
 43
1.0
176
     1
 76
     1
176
     1
 77
     6
176
     1
 78
     2
176
     1
 67
     7
176
     1
 79
     5
176
     1
170
     0
176
     1
171
     0
176
     1
290
     0
176
     1
 93
       13
176
     1
 44
0.0
176
     1
173
     0
176
     1
  0
VISUALSTYLE
  5
2D
102
{ACAD_REACTORS
330
2A
102
}
330
2A
100
AcDbVisualStyle
  2
Gouraud
 70
     2
177
     2
291
     1
 71
     2
176
     1
 72
     2
176
     1
 73
     1
176
     1
 90
        2
176
     1
 40
-0.6
176
     1
 41
30.0
176
     1
 62
     5
 63
     7
421
 16777215
176
     1
 74
     0
176
     1
 91
        4
176
     1
 64
     7
176
     1
 65
   257
176
     1
 75
     1
176
     1
175
     1
176
     1
 42
1.0
176
     1
 92
        0
176
     1
 66
     7
176
     1
 43
1.0
176
     1
 76
     1
176
     1
 77
     6
176
     1
 78
     2
176
     1
 67
     7
176
     1
 79
     5
176
     1
170
     0
176
     1
171
     0
176
     1
290
     0
176
     1
 93
       13
176
     1
 44
0.0
176
     1
173
     0
176
     1
  0
VISUALSTYLE
  5
2E
102
{ACAD_REACTORS
330
2A
102
}
330
2A
100
AcDbVisualStyle
  2
GouraudWithEdges
 70
     3
177
     2
291
     1
 71
     2
176
     1
 72
     2
176
     1
 73
     1
176
     1
 90
        2
176
     1
 40
-0.6
176
     1
 41
30.0
176
     1
 62
     5
 63
     7
421
 16777215
176
     1
 74
     1
176
     1
 91
        4
176
     1
 64
     7
176
     1
 65
   257
176
     1
 75
     1
176
     1
175
     1
176
     1
 42
1.0
176
     1
 92
        0
176
     1
 66
   257
176
     1
 43
1.0
176
     1
 76
     1
176
     1
 77
     6
176
     1
 78
     2
176
     1
 67
     7
176
     1
 79
     5
176
     1
170
     0
176
     1
171
     0
176
     1
290
     0
176
     1
 93
       13
176
     1
 44
0.0
176
     1
173
     0
176
     1
  0
VISUALSTYLE
  5
38
102
{ACAD_REACTORS
330
2A
102
}
330
2A
100
AcDbVisualStyle
  2
Linepattern
 70
    14
177
     2
291
     1
 71
     2
176
     1
 72
     2
176
     1
 73
     0
176
     1
 90
        0
176
     1
 40
-0.6
176
     1
 41
-30.0
176
     1
 62
     5
 63
     7
421
 16777215
176
     1
 74
     1
176
     1
 91
        4
176
     1
 64
     7
176
     1
 65
   257
176
     1
 75
     7
176
     1
175
     7
176
     1
 42
1.0
176
     1
 92
        8
176
     1
 66
     7
176
     1
 43
1.0
176
     1
 76
     1
176
     1
 77
     6
176
     1
 78
     2
176
     1
 67
     7
176
     1
 79
     5
176
     1
170
     0
176
     1
171
     0
176
     1
290
     0
176
     1
 93
        1
176
     1
 44
0.0
176
     1
173
     0
176
     1
  0
VISUALSTYLE
  5
33
102
{ACAD_REACTORS
330
2A
102
}
330
2A
100
AcDbVisualStyle
  2
Realistic
 70
     8
177
     2
291
     0
 71
     2
176
     1
 72
     2
176
     1
 73
     0
176
     1
 90
        0
176
     1
 40
-0.6
176
     1
 41
-30.0
176
     1
 62
     5
 63
     7
421
 16777215
176
     1
 74
     1
176
     1
 91
        0
176
     1
 64
     7
176
     1
 65
   257
176
     1
 75
     1
176
     1
175
     1
176
     1
 42
1.0
176
     1
 92
        8
176
     1
 66
     8
424
  7895160
176
     1
 43
1.0
176
     1
 76
     1
176
     1
 77
     6
176
     1
 78
     2
176
     1
 67
     7
176
     1
 79
     5
176
     1
170
     0
176
     1
171
     0
176
     1
290
     0
176
     1
 93
       13
176
     1
 44
0.0
176
     1
173
     0
176
     1
  0
VISUALSTYLE
  5
37
102
{ACAD_REACTORS
330
2A
102
}
330
2A
100
AcDbVisualStyle
  2
Thicken
 70
    13
177
     2
291
     1
 71
     2
176
     1
 72
     2
176
     1
 73
     0
176
     1
 90
        0
176
     1
 40
-0.6
176
     1
 41
-30.0
176
     1
 62
     5
 63
     7
421
 16777215
176
     1
 74
     1
176
     1
 91
        4
176
     1
 64
     7
176
     1
 65
   257
176
     1
 75
     1
176
     1
175
     1
176
     1
 42
1.0
176
     1
 92
       12
176
     1
 66
     7
176
     1
 43
1.0
176
     1
 76
     1
176
     1
 77
     6
176
     1
 78
     2
176
     1
 67
     7
176
     1
 79
     5
176
     1
170
     0
176
     1
171
     0
176
     1
290
     0
176
     1
 93
        1
176
     1
 44
0.0
176
     1
173
     0
176
     1
  0
ENDSEC
  0
EOF
