  0
SECTION
  2
HEADER
  9
$ACADVER
  1
AC1015
  9
$ACADMAINTVER
 70
     6
  9
$DWGCODEPAGE
  3
ANSI_932
  9
$INSBASE
 10
0.0
 20
0.0
 30
0.0
  9
$EXTMIN
 10
23.283333
 20
25.752778
 30
1.000000E+20
  9
$EXTMAX
 10
198.966667
 20
276.930556
 30
-1.000000E+20
  9
$LIMMIN
 10
23.283333
 20
25.752778
  9
$LIMMAX
 10
198.966667
 20
276.930556
  9
$ORTHOMODE
 70
     0
  9
$REGENMODE
 70
     1
  9
$FILLMODE
 70
     1
  9
$QTEXTMODE
 70
     0
  9
$MIRRTEXT
 70
     1
  9
$LTSCALE
 40
1.0
  9
$ATTMODE
 70
     1
  9
$TEXTSIZE
 40
0.2
  9
$TRACEWID
 40
0.05
  9
$TEXTSTYLE
  7
Standard
  9
$CLAYER
  8
0
  9
$CELTYPE
  6
Continuous
  9
$CECOLOR
 62
   256
  9
$CELTSCALE
 40
1.0
  9
$DISPSILH
 70
     0
  9
$DIMSCALE
 40
1.0
  9
$DIMASZ
 40
0.18
  9
$DIMEXO
 40
0.0625
  9
$DIMDLI
 40
0.38
  9
$DIMRND
 40
0.0
  9
$DIMDLE
 40
0.0
  9
$DIMEXE
 40
0.18
  9
$DIMTP
 40
0.0
  9
$DIMTM
 40
0.0
  9
$DIMTXT
 40
0.18
  9
$DIMCEN
 40
0.09
  9
$DIMTSZ
 40
0.0
  9
$DIMTOL
 70
     0
  9
$DIMLIM
 70
     0
  9
$DIMTIH
 70
     1
  9
$DIMTOH
 70
     1
  9
$DIMSE1
 70
     0
  9
$DIMSE2
 70
     0
  9
$DIMTAD
 70
     0
  9
$DIMZIN
 70
     0
  9
$DIMBLK
  1

  9
$DIMASO
 70
     1
  9
$DIMSHO
 70
     1
  9
$DIMPOST
  1

  9
$DIMAPOST
  1

  9
$DIMALT
 70
     0
  9
$DIMALTD
 70
     2
  9
$DIMALTF
 40
25.4
  9
$DIMLFAC
 40
1.0
  9
$DIMTOFL
 70
     0
  9
$DIMTVP
 40
0.0
  9
$DIMTIX
 70
     0
  9
$DIMSOXD
 70
     0
  9
$DIMSAH
 70
     0
  9
$DIMBLK1
  1

  9
$DIMBLK2
  1

  9
$DIMSTYLE
  2
Standard
  9
$DIMCLRD
 70
     0
  9
$DIMCLRE
 70
     0
  9
$DIMCLRT
 70
     0
  9
$DIMTFAC
 40
1.0
  9
$DIMGAP
 40
0.09
  9
$DIMJUST
 70
     0
  9
$DIMSD1
 70
     0
  9
$DIMSD2
 70
     0
  9
$DIMTOLJ
 70
     1
  9
$DIMTZIN
 70
     0
  9
$DIMALTZ
 70
     0
  9
$DIMALTTZ
 70
     0
  9
$DIMUPT
 70
     0
  9
$DIMDEC
 70
     4
  9
$DIMTDEC
 70
     4
  9
$DIMALTU
 70
     2
  9
$DIMALTTD
 70
     2
  9
$DIMTXSTY
  7
Standard
  9
$DIMAUNIT
 70
     0
  9
$DIMADEC
 70
     0
  9
$DIMALTRND
 40
0.0
  9
$DIMAZIN
 70
     0
  9
$DIMDSEP
 70
     0
  9
$DIMATFIT
 70
     3
  9
$DIMFRAC
 70
     0
  9
$DIMLDRBLK
  1

  9
$DIMLUNIT
 70
     2
  9
$DIMLWD
 70
     0
  9
$DIMLWE
 70
     0
  9
$DIMTMOVE
 70
     0
  9
$LUNITS
 70
     2
  9
$LUPREC
 70
     4
  9
$SKETCHINC
 40
0.1
  9
$FILLETRAD
 40
0.0
  9
$AUNITS
 70
     0
  9
$AUPREC
 70
     0
  9
$MENU
  1
acad
  9
$ELEVATION
 40
0.0
  9
$PELEVATION
 40
0.0
  9
$THICKNESS
 40
0.0
  9
$LIMCHECK
 70
     0
  9
$CHAMFERA
 40
0.0
  9
$CHAMFERB
 40
0.0
  9
$CHAMFERC
 40
0.0
  9
$CHAMFERD
 40
0.0
  9
$SKPOLY
 70
     0
  9
$TDCREATE
 40
0.000000000
  9
$TDUCREATE
 40
0.000000000
  9
$TDUPDATE
 40
0.000000000
  9
$TDUUPDATE
 40
0.000000000
  9
$TDINDWG
 40
0.0000000000
  9
$TDUSRTIMER
 40
0.0000000000
  9
$USRTIMER
 70
     1
  9
$ANGBASE
 50
0.0
  9
$ANGDIR
 70
     0
  9
$PDMODE
 70
     0
  9
$PDSIZE
 40
0.0
  9
$PLINEWID
 40
0.0
  9
$SPLFRAME
 70
     0
  9
$SPLINETYPE
 70
     6
  9
$SPLINESEGS
 70
     8
  9
$HANDSEED
  5
40E
  9
$SURFTAB1
 70
     6
  9
$SURFTAB2
 70
     6
  9
$SURFTYPE
 70
     6
  9
$SURFU
 70
     6
  9
$SURFV
 70
     6
  9
$UCSBASE
  2

  9
$UCSNAME
  2

  9
$UCSORG
 10
0.0
 20
0.0
 30
0.0
  9
$UCSXDIR
 10
1.0
 20
0.0
 30
0.0
  9
$UCSYDIR
 10
0.0
 20
1.0
 30
0.0
  9
$UCSORTHOREF
  2

  9
$UCSORTHOVIEW
 70
     0
  9
$UCSORGTOP
 10
0.0
 20
0.0
 30
0.0
  9
$UCSORGBOTTOM
 10
0.0
 20
0.0
 30
0.0
  9
$UCSORGLEFT
 10
0.0
 20
0.0
 30
0.0
  9
$UCSORGRIGHT
 10
0.0
 20
0.0
 30
0.0
  9
$UCSORGFRONT
 10
0.0
 20
0.0
 30
0.0
  9
$UCSORGBACK
 10
0.0
 20
0.0
 30
0.0
  9
$PUCSBASE
  2

  9
$PUCSNAME
  2

  9
$PUCSORG
 10
0.0
 20
0.0
 30
0.0
  9
$PUCSXDIR
 10
1.0
 20
0.0
 30
0.0
  9
$PUCSYDIR
 10
0.0
 20
1.0
 30
0.0
  9
$PUCSORTHOREF
  2

  9
$PUCSORTHOVIEW
 70
     0
  9
$PUCSORGTOP
 10
0.0
 20
0.0
 30
0.0
  9
$PUCSORGBOTTOM
 10
0.0
 20
0.0
 30
0.0
  9
$PUCSORGLEFT
 10
0.0
 20
0.0
 30
0.0
  9
$PUCSORGRIGHT
 10
0.0
 20
0.0
 30
0.0
  9
$PUCSORGFRONT
 10
0.0
 20
0.0
 30
0.0
  9
$PUCSORGBACK
 10
0.0
 20
0.0
 30
0.0
  9
$USERI1
 70
     0
  9
$USERI2
 70
     0
  9
$USERI3
 70
     0
  9
$USERI4
 70
     0
  9
$USERI5
 70
     0
  9
$USERR1
 40
0.0
  9
$USERR2
 40
0.0
  9
$USERR3
 40
0.0
  9
$USERR4
 40
0.0
  9
$USERR5
 40
0.0
  9
$WORLDVIEW
 70
     1
  9
$SHADEDGE
 70
     3
  9
$SHADEDIF
 70
    70
  9
$TILEMODE
 70
     1
  9
$MAXACTVP
 70
    16
  9
$PINSBASE
 10
0.0
 20
0.0
 30
0.0
  9
$PLIMCHECK
 70
     0
  9
$PEXTMIN
 10
1.000000E+20
 20
1.000000E+20
 30
1.000000E+20
  9
$PEXTMAX
 10
-1.000000E+20
 20
-1.000000E+20
 30
-1.000000E+20
  9
$PLIMMIN
 10
0.0
 20
0.0
  9
$PLIMMAX
 10
12.0
 20
9.0
  9
$UNITMODE
 70
     0
  9
$VISRETAIN
 70
     0
  9
$PLINEGEN
 70
     1
  9
$PSLTSCALE
 70
     0
  9
$TREEDEPTH
 70
  3020
  9
$CMLSTYLE
  2
Standard
  9
$CMLJUST
 70
     0
  9
$CMLSCALE
 40
1.0
  9
$PROXYGRAPHICS
 70
     0
  9
$MEASUREMENT
 70
     1
  9
$CELWEIGHT
370
     0
  9
$ENDCAPS
280
     0
  9
$JOINSTYLE
280
     0
  9
$LWDISPLAY
290
     0
  9
$INSUNITS
 70
     0
  9
$HYPERLINKBASE
  1

  9
$STYLESHEET
  1

  9
$XEDIT
290
     1
  9
$CEPSNTYPE
380
     0
  9
$PSTYLEMODE
290
     1
  9
$FINGERPRINTGUID
  2

  9
$VERSIONGUID
  2

  9
$EXTNAMES
290
     1
  9
$PSVPSCALE
 40
0.0
  0
ENDSEC
  0
SECTION
  2
CLASSES
  0
CLASS
  1
LWPOLYLINE
  2
AcDbPolyline
  3
AutoCAD 2000
 90
    32768
280
     0
281
     1
  0
CLASS
  1
IMAGE
  2
AcDbRasterImage
  3
ISM
 90
      127
280
     0
281
     1
  0
CLASS
  1
OLE2FRAME
  2
AcDbOle2Frame
  3
AutoCAD 2000
 90
    32768
280
     0
281
     1
  0
CLASS
  1
HATCH
  2
AcDbHatch
  3
AutoCAD 2000
 90
    32768
280
     0
281
     1
  0
CLASS
  1
DICTIONARYVAR
  2
AcDbDictionaryVar
  3
AutoCAD 2000
 90
    32768
280
     0
281
     0
  0
CLASS
  1
RASTERVARIABLES
  2
AcDbRasterVariables
  3
ISM
 90
    32768
280
     0
281
     0
  0
CLASS
  1
IMAGEDEF
  2
AcDbRasterImageDef
  3
ISM
 90
        0
280
     0
281
     0
  0
CLASS
  1
IMAGEDEF_REACTOR
  2
AcDbRasterImageDefReactor
  3
ISM
 90
        1
280
     0
281
     0
  0
CLASS
  1
IDBUFFER
  2
AcDbIdBuffer
  3
AutoCAD 2000
 90
    32768
280
     0
281
     0
  0
CLASS
  1
SPATIAL_FILTER
  2
AcDbSpatialFilter
  3
AutoCAD 2000
 90
    32768
280
     0
281
     0
  0
CLASS
  1
XRECORD
  2
AcDbXrecord
  3
AutoCAD 2000
 90
    32768
280
     0
281
     0
  0
CLASS
  1
SORTENTSTABLE
  2
AcDbSortentsTable
  3
AutoCAD 2000
 90
    32768
280
     0
281
     0
  0
CLASS
  1
LAYER_INDEX
  2
AcDbLayerIndex
  3
AutoCAD 2000
 90
    32768
280
     0
281
     0
  0
CLASS
  1
SPATIAL_INDEX
  2
AcDbSpatialIndex
  3
AutoCAD 2000
 90
    32768
280
     0
281
     0
  0
CLASS
  1
OBJECT_PTR
  2
CAseDLPNTableRecord
  3
"ASE-LPNTableRecord"
 90
    32769
280
     0
281
     0
  0
CLASS
  1
LAYOUT
  2
AcDbLayout
  3
AutoCAD 2000
 90
        0
280
     0
281
     0
  0
CLASS
  1
PLOTSETTINGS
  2
AcDbPlotSettings
  3
AutoCAD 2000
 90
    32768
280
     0
281
     0
  0
CLASS
  1
ACDBDICTIONARYWDFLT
  2
AcDbDictionaryWithDefault
  3
AutoCAD 2000
 90
        0
280
     0
281
     0
  0
CLASS
  1
ACDBPLACEHOLDER
  2
AcDbPlaceHolder
  3
AutoCAD 2000
 90
        0
280
     0
281
     0
  0
CLASS
  1
VBA_PROJECT
  2
AcDbVbaProject
  3
acadvba
 90
    32768
280
     0
281
     0
  0
CLASS
  1
WIPEOUT
  2
AcDbWipeout
  3
WipeOut|AutoCAD Express Tool|expresstools@autodesk.com
 90
    32895
280
     0
281
     1
  0
CLASS
  1
WIPEOUTVARIABLES
  2
AcDbWipeoutVariables
  3
WipeOut|AutoCAD Express Tool|expresstools@autodesk.com
 90
        0
280
     0
281
     0
  0
CLASS
  1
RTEXT
  2
RText
  3
RText|AutoCAD Express Tool|expresstools@autodesk.com
 90
    32768
280
     0
281
     1
  0
CLASS
  1
ARCALIGNEDTEXT
  2
AcDbArcAlignedText
  3
ATEXT|AutoCAD Express Tool|expresstools@autodesk.com
 90
    32768
280
     0
281
     1
  0
ENDSEC
  0
SECTION
  2
TABLES
  0
TABLE
  2
VPORT
  5
7
100
AcDbSymbolTable
 70
     1
  0
VPORT
  5
15
100
AcDbSymbolTableRecord
100
AcDbViewportTableRecord
  2
*ACTIVE
 70
     0
 10
0.0
 20
0.0
 11
1.0
 21
1.0
 12
6.591288
 22
4.579184
 13
0.0
 23
0.0
 14
1.0
 24
1.0
 15
0.0
 25
0.0
 16
0.0
 26
0.0
 36
1.0
 17
0.0
 27
0.0
 37
0.0
 40
9.158369
 41
0.688564
 42
50.0
 43
0.0
 44
0.0
 50
0.0
 51
0.0
 71
     0
 72
   100
 73
     1
 74
     1
 75
     0
 76
     0
 77
     0
 78
     0
281
     0
 65
     0
110
0.0
120
0.0
130
0.0
111
1.0
121
0.0
131
0.0
112
0.0
122
1.0
132
0.0
345
0
346
0
 79
     0
146
0.0
  0
ENDTAB
  0
TABLE
  2
LTYPE
  5
4
100
AcDbSymbolTable
 70
     4
  0
LTYPE
  5
11
100
AcDbSymbolTableRecord
100
AcDbLinetypeTableRecord
  2
ByBlock
 70
    64
  3

 72
    65
 73
     0
 40
0.0
  0
LTYPE
  5
12
100
AcDbSymbolTableRecord
100
AcDbLinetypeTableRecord
  2
ByLayer
 70
    64
  3

 72
    65
 73
     0
 40
0.0
  0
LTYPE
  5
13
100
AcDbSymbolTableRecord
100
AcDbLinetypeTableRecord
  2
Continuous
 70
    64
  3
Solid line
 72
    65
 73
     0
 40
0.0
  0
LTYPE
  5
67
100
AcDbSymbolTableRecord
100
AcDbLinetypeTableRecord
  2
AI9-LType1
 70
    64
  3
Illustrator Dash Style No.1
 72
    65
 73
     4
 40
8.000295
 49
4.99992
 74
     0
 49
-1.000125
 74
     0
 49
1.000125
 74
     0
 49
-1.000125
 74
     0
  0
ENDTAB
  0
TABLE
  2
LAYER
  5
2
100
AcDbSymbolTable
 70
     3
  0
LAYER
  5
14
100
AcDbSymbolTableRecord
100
AcDbLayerTableRecord
  2
0
 70
     0
 62
     7
  6
Continuous
290
     1
370
    -3
390
1D
  0
LAYER
  5
28
100
AcDbSymbolTableRecord
100
AcDbLayerTableRecord
  2
レイヤー_2
 70
     0
 62
     1
  6
Continuous
290
     1
370
    -3
390
1D
  0
LAYER
  5
3F3
100
AcDbSymbolTableRecord
100
AcDbLayerTableRecord
  2
レイヤー_1
 70
     0
 62
   160
  6
Continuous
290
     1
370
    -3
390
1D
  0
ENDTAB
  0
TABLE
  2
STYLE
  5
3
100
AcDbSymbolTable
 70
     5
  0
STYLE
  5
17
100
AcDbSymbolTableRecord
100
AcDbTextStyleTableRecord
  2
Standard
 70
     0
 40
0.0
 41
1.0
 50
0.0
 71
     0
 42
0.0
  3
txt
  4

  0
STYLE
  5
24
100
AcDbSymbolTableRecord
100
AcDbTextStyleTableRecord
  2
STD
 70
     0
 40
0.0
 41
1.0
 50
0.0
 71
     0
 42
0.0
  3
txt
  4

  0
STYLE
  5
25
100
AcDbSymbolTableRecord
100
AcDbTextStyleTableRecord
  2
TATESTD
 70
     4
 40
0.0
 41
1.0
 50
0.0
 71
     0
 42
0.0
  3
txt
  4

  0
STYLE
  5
26
100
AcDbSymbolTableRecord
100
AcDbTextStyleTableRecord
  2
KANJISTD
 70
     0
 40
0.0
 41
1.0
 50
0.0
 71
     0
 42
0.0
  3
txt
  4
extfont
  0
STYLE
  5
27
100
AcDbSymbolTableRecord
100
AcDbTextStyleTableRecord
  2
KANJITATE
 70
     4
 40
0.0
 41
1.0
 50
0.0
 71
     0
 42
0.0
  3
txt
  4
extfont
  0
ENDTAB
  0
TABLE
  2
VIEW
  5
5
100
AcDbSymbolTable
 70
     0
  0
ENDTAB
  0
TABLE
  2
UCS
  5
6
100
AcDbSymbolTable
 70
     0
  0
ENDTAB
  0
TABLE
  2
APPID
  5
8
100
AcDbSymbolTable
 70
     1
  0
APPID
  5
16
100
AcDbSymbolTableRecord
100
AcDbRegAppTableRecord
  2
ACAD
 70
     0
  0
ENDTAB
  0
TABLE
  2
DIMSTYLE
  5
9
100
AcDbSymbolTable
 70
     1
100
AcDbDimStyleTable
 71
     0
  0
DIMSTYLE
105
18
100
AcDbSymbolTableRecord
100
AcDbDimStyleTableRecord
  2
Standard
 70
     0
  3

  4

 40
1.0
 41
0.18
 42
0.0625
 43
0.38
 44
0.18
 45
0.0
 46
0.0
 47
0.0
 48
0.0
 71
     0
 72
     0
 73
     1
 74
     1
 75
     0
 76
     0
 77
     0
 78
     0
 79
     0
140
0.18
141
0.09
142
0.0
143
25.4
144
1.0
145
0.0
146
1.0
147
0.09
148
0.0
170
     0
171
     2
172
     0
173
     0
174
     0
175
     0
176
     0
177
     0
178
     0
179
     0
271
     4
272
     4
273
     2
274
     2
275
     0
276
     0
277
     2
278
    46
279
     0
280
     0
281
     0
282
     0
283
     1
284
     0
285
     0
286
     0
288
     0
340
17
341
0
342
0
343
0
344
0
371
    -2
372
    -2
  0
ENDTAB
  0
TABLE
  2
BLOCK_RECORD
  5
1
100
AcDbSymbolTable
 70
     3
  0
BLOCK_RECORD
  5
A
100
AcDbSymbolTableRecord
100
AcDbBlockTableRecord
  2
*MODEL_SPACE
340
20
  0
BLOCK_RECORD
  5
B
100
AcDbSymbolTableRecord
100
AcDbBlockTableRecord
  2
*PAPER_SPACE
340
21
  0
BLOCK_RECORD
  5
29
100
AcDbSymbolTableRecord
100
AcDbBlockTableRecord
  2
AI9-BLK1
340
0
102
{BLKREFS
331
2A
102
}
  0
BLOCK_RECORD
  5
2C
100
AcDbSymbolTableRecord
100
AcDbBlockTableRecord
  2
AI9-BLK2
340
0
102
{BLKREFS
331
2D
102
}
  0
BLOCK_RECORD
  5
5E
100
AcDbSymbolTableRecord
100
AcDbBlockTableRecord
  2
AI9-BLK3
340
0
102
{BLKREFS
331
5F
102
}
  0
ENDTAB
  0
ENDSEC
  0
SECTION
  2
BLOCKS
  0
BLOCK
  5
D
100
AcDbEntity
  8
0
100
AcDbBlockBegin
  2
*MODEL_SPACE
 70
     0
 10
0.0
 20
0.0
 30
0.0
  3
*MODEL_SPACE
  1

  0
ENDBLK
  5
E
100
AcDbEntity
  8
0
100
AcDbBlockEnd
  0
BLOCK
  5
F
100
AcDbEntity
 67
     1
  8
0
100
AcDbBlockBegin
  2
*PAPER_SPACE
 70
     0
 10
0.0
 20
0.0
 30
0.0
  3
*PAPER_SPACE
  1

  0
ENDBLK
  5
10
100
AcDbEntity
 67
     1
  8
0
100
AcDbBlockEnd
  0
BLOCK
  5
2B
100
AcDbEntity
  8
レイヤー_2
 62
     7
100
AcDbBlockBegin
  2
AI9-BLK1
 70
     0
 10
0.0
 20
0.0
 30
0.0
  3
AI9-BLK1
  1

  0
LINE
  5
5C
100
AcDbEntity
  8
レイヤー_2
 62
     7
100
AcDbLine
 10
-16.456446
 20
-1.829001
 30
0.0
 11
-16.456446
 21
-10.61744
 31
0.0
  0
LINE
  5
5B
100
AcDbEntity
  8
レイヤー_2
 62
     7
100
AcDbLine
 10
-11.250218
 20
-1.77388
 30
0.0
 11
-11.250218
 21
-10.697366
 31
0.0
  0
LINE
  5
5A
100
AcDbEntity
  8
レイヤー_2
 62
     7
100
AcDbLine
 10
-17.522014
 20
-9.723093
 30
0.0
 11
9.389349
 21
-9.723093
 31
0.0
  0
LINE
  5
59
100
AcDbEntity
  8
レイヤー_2
 62
     7
100
AcDbLine
 10
-17.348381
 20
-10.781426
 30
0.0
 11
-15.174181
 21
-8.335409
 31
0.0
  0
LINE
  5
58
100
AcDbEntity
  8
レイヤー_2
 62
     7
100
AcDbLine
 10
-12.321642
 20
-10.781426
 30
0.0
 11
-10.148476
 21
-8.335409
 31
0.0
  0
MTEXT
  5
57
100
AcDbEntity
  8
レイヤー_2
 62
     7
100
AcDbMText
 10
-5.427317
 20
-3.166388
 30
0.0
 40
5.512152
 41
0.0
 71
     1
 72
     2
  1
\fMS Gothic|b0|i0|c128;\H5.5122;\C7;\U+0047\U+0031\U+002F\U+0032
  7
STD
210
0.0
220
0.0
230
1.0
 73
     1
 44
1.0
  0
MTEXT
  5
56
100
AcDbEntity
  8
レイヤー_2
 62
     7
100
AcDbMText
 10
-7.789792
 20
9.547688
 30
0.0
 40
3.149801
 41
0.0
 71
     1
 72
     2
  1
\fGothicBBBPro Medium|b0|i0|c128;\H3.1498;\C7;\U+63A5\U+7D9A\U+30BD\U+30B1\U+30C3\U+30C8
  7
STD
210
0.0
220
0.0
230
1.0
 73
     1
 44
1.0
  0
MTEXT
  5
55
100
AcDbEntity
  8
レイヤー_2
 62
     7
100
AcDbMText
 10
-8.684827
 20
4.78071
 30
0.0
 40
3.149801
 41
0.0
 71
     1
 72
     2
  1
\fGothicBBBPro Medium|b0|i0|c128;\H3.1498;\C7;\U+FF08\U+9006\U+6B62\U+5F01\U+4ED8\U+FF09
  7
STD
210
0.0
220
0.0
230
1.0
 73
     1
 44
1.0
  0
INSERT
  5
2D
100
AcDbEntity
  8
レイヤー_2
 62
     7
100
AcDbBlockReference
  2
AI9-BLK2
 10
-13.854279
 20
4.602131
 30
0.0
  0
ENDBLK
  5
5D
100
AcDbEntity
  8
レイヤー_2
100
AcDbBlockEnd
  0
BLOCK
  5
2E
100
AcDbEntity
  8
レイヤー_2
 62
     7
100
AcDbBlockBegin
  2
AI9-BLK2
 70
     0
 10
0.0
 20
0.0
 30
0.0
  3
AI9-BLK2
  1

  0
LINE
  5
53
100
AcDbEntity
  8
レイヤー_2
 62
     7
100
AcDbLine
 10
-2.761675
 20
-0.322289
 30
0.0
 11
-2.595621
 21
-5.493032
 31
0.0
  0
LINE
  5
52
100
AcDbEntity
  8
レイヤー_2
 62
     7
100
AcDbLine
 10
-2.167912
 20
-1.882917
 30
0.0
 11
-2.032865
 21
-6.104192
 31
0.0
  0
LINE
  5
51
100
AcDbEntity
  8
レイヤー_2
 62
     7
100
AcDbLine
 10
2.25249
 20
-1.98248
 30
0.0
 11
2.186688
 21
-6.138643
 31
0.0
  0
LINE
  5
50
100
AcDbEntity
  8
レイヤー_2
 62
     7
100
AcDbLine
 10
2.781312
 20
-0.332279
 30
0.0
 11
2.648848
 21
-5.556078
 31
0.0
  0
LINE
  5
4F
100
AcDbEntity
  8
レイヤー_2
 62
     7
100
AcDbLine
 10
-3.175603
 20
0.144177
 30
0.0
 11
-3.477393
 21
0.306097
 31
0.0
  0
LINE
  5
4E
100
AcDbEntity
  8
レイヤー_2
 62
     7
100
AcDbLine
 10
3.477393
 20
0.306097
 30
0.0
 11
3.174742
 21
0.144177
 31
0.0
  0
LINE
  5
4D
100
AcDbEntity
  8
レイヤー_2
 62
     7
100
AcDbLine
 10
-3.477393
 20
5.653229
 30
0.0
 11
-3.175603
 21
5.814804
 31
0.0
  0
LINE
  5
4C
100
AcDbEntity
  8
レイヤー_2
 62
     7
100
AcDbLine
 10
3.174742
 20
5.814804
 30
0.0
 11
3.477393
 21
5.653229
 31
0.0
  0
LINE
  5
4B
100
AcDbEntity
  8
レイヤー_2
 62
     7
100
AcDbLine
 10
-3.075178
 20
-0.095601
 30
0.0
 11
3.074489
 21
-0.095601
 31
0.0
  0
LINE
  5
4A
100
AcDbEntity
  8
レイヤー_2
 62
     7
100
AcDbLine
 10
-2.111413
 20
0.306097
 30
0.0
 11
-1.338678
 21
0.306097
 31
0.0
  0
LINE
  5
49
100
AcDbEntity
  8
レイヤー_2
 62
     7
100
AcDbLine
 10
1.336439
 20
0.306097
 30
0.0
 11
2.10969
 21
0.306097
 31
0.0
  0
LINE
  5
48
100
AcDbEntity
  8
レイヤー_2
 62
     7
100
AcDbLine
 10
3.477393
 20
0.306097
 30
0.0
 11
3.074489
 21
-0.095601
 31
0.0
  0
LINE
  5
47
100
AcDbEntity
  8
レイヤー_2
 62
     7
100
AcDbLine
 10
-3.477393
 20
0.306097
 30
0.0
 11
-3.075178
 21
-0.095601
 31
0.0
  0
LINE
  5
46
100
AcDbEntity
  8
レイヤー_2
 62
     7
100
AcDbLine
 10
3.074489
 20
6.055961
 30
0.0
 11
-3.075178
 21
6.055961
 31
0.0
  0
LINE
  5
45
100
AcDbEntity
  8
レイヤー_2
 62
     7
100
AcDbLine
 10
2.670724
 20
-5.44928
 30
0.0
 11
-2.738248
 21
-5.44928
 31
0.0
  0
LINE
  5
44
100
AcDbEntity
  8
レイヤー_2
 62
     7
100
AcDbLine
 10
2.670724
 20
-1.952508
 30
0.0
 11
-2.738248
 21
-1.952508
 31
0.0
  0
LINE
  5
43
100
AcDbEntity
  8
レイヤー_2
 62
     7
100
AcDbLine
 10
2.199091
 20
-6.055961
 30
0.0
 11
-2.065938
 21
-6.055961
 31
0.0
  0
LINE
  5
42
100
AcDbEntity
  8
レイヤー_2
 62
     7
100
AcDbLine
 10
3.074489
 20
6.055961
 30
0.0
 11
3.477393
 21
5.653229
 31
0.0
  0
LINE
  5
41
100
AcDbEntity
  8
レイヤー_2
 62
     7
100
AcDbLine
 10
-2.585286
 20
-5.532307
 30
0.0
 11
-2.183932
 21
-5.934694
 31
0.0
  0
LINE
  5
40
100
AcDbEntity
  8
レイヤー_2
 62
     7
100
AcDbLine
 10
-2.643852
 20
-1.346171
 30
0.0
 11
-2.243188
 21
-1.745802
 31
0.0
  0
LINE
  5
3F
100
AcDbEntity
  8
レイヤー_2
 62
     7
100
AcDbLine
 10
2.10969
 20
5.653229
 30
0.0
 11
1.336439
 21
5.653229
 31
0.0
  0
LINE
  5
3E
100
AcDbEntity
  8
レイヤー_2
 62
     7
100
AcDbLine
 10
-1.338678
 20
5.653229
 30
0.0
 11
-2.111413
 21
5.653229
 31
0.0
  0
LINE
  5
3D
100
AcDbEntity
  8
レイヤー_2
 62
     7
100
AcDbLine
 10
-3.075178
 20
6.055961
 30
0.0
 11
-3.477393
 21
5.653229
 31
0.0
  0
LINE
  5
3C
100
AcDbEntity
  8
レイヤー_2
 62
     7
100
AcDbLine
 10
2.634034
 20
-5.617056
 30
0.0
 11
2.232853
 21
-6.018754
 31
0.0
  0
LINE
  5
3B
100
AcDbEntity
  8
レイヤー_2
 62
     7
100
AcDbLine
 10
2.642819
 20
-1.412317
 30
0.0
 11
2.241465
 21
-1.81436
 31
0.0
  0
LINE
  5
3A
100
AcDbEntity
  8
レイヤー_2
 62
     7
100
AcDbLine
 10
-3.477393
 20
0.306097
 30
0.0
 11
-3.477393
 21
5.653229
 31
0.0
  0
LINE
  5
39
100
AcDbEntity
  8
レイヤー_2
 62
     7
100
AcDbLine
 10
-2.111413
 20
0.306097
 30
0.0
 11
-2.111413
 21
5.653229
 31
0.0
  0
LINE
  5
38
100
AcDbEntity
  8
レイヤー_2
 62
     7
100
AcDbLine
 10
-1.338678
 20
0.306097
 30
0.0
 11
-1.338678
 21
5.653229
 31
0.0
  0
LINE
  5
37
100
AcDbEntity
  8
レイヤー_2
 62
     7
100
AcDbLine
 10
1.336439
 20
0.306097
 30
0.0
 11
1.336439
 21
5.653229
 31
0.0
  0
LINE
  5
36
100
AcDbEntity
  8
レイヤー_2
 62
     7
100
AcDbLine
 10
2.10969
 20
0.306097
 30
0.0
 11
2.10969
 21
5.653229
 31
0.0
  0
LINE
  5
35
100
AcDbEntity
  8
レイヤー_2
 62
     7
100
AcDbLine
 10
3.477393
 20
0.306097
 30
0.0
 11
3.477393
 21
5.653229
 31
0.0
  0
SPLINE
  5
34
100
AcDbEntity
  8
レイヤー_2
 62
     7
100
AcDbSpline
210
0.0
220
0.0
230
1.0
 70
     8
 71
     3
 72
     8
 73
     4
 74
     0
 42
0.00000001
 43
0.00000001
 40
0.0
 40
0.0
 40
0.0
 40
0.0
 40
1.0
 40
1.0
 40
1.0
 40
1.0
 10
-3.1756028917100694
 20
0.14417724609375
 30
0.0
 10
-2.8240308973524302
 20
-0.0439249674479167
 30
0.0
 10
-2.3904656304253469
 20
0.0215318467881944
 30
0.0
 10
-2.1114128960503469
 20
0.3060967339409722
 30
0.0
  0
SPLINE
  5
33
100
AcDbEntity
  8
レイヤー_2
 62
     7
100
AcDbSpline
210
0.0
220
0.0
230
1.0
 70
     8
 71
     3
 72
     8
 73
     4
 74
     0
 42
0.00000001
 43
0.00000001
 40
0.0
 40
0.0
 40
0.0
 40
0.0
 40
1.0
 40
1.0
 40
1.0
 40
1.0
 10
2.1096903483072915
 20
0.3060967339409722
 30
0.0
 10
2.3902933756510416
 20
0.0215318467881944
 30
0.0
 10
2.8229973687065968
 20
-0.0439249674479167
 30
0.0
 10
3.1747416178385413
 20
0.14417724609375
 30
0.0
  0
SPLINE
  5
32
100
AcDbEntity
  8
レイヤー_2
 62
     7
100
AcDbSpline
210
0.0
220
0.0
230
1.0
 70
     8
 71
     3
 72
     8
 73
     4
 74
     0
 42
0.00000001
 43
0.00000001
 40
0.0
 40
0.0
 40
0.0
 40
0.0
 40
1.0
 40
1.0
 40
1.0
 40
1.0
 10
-1.3386779785156249
 20
0.3060967339409722
 30
0.0
 10
-0.4808492024739583
 20
-0.0518486870659722
 30
0.0
 10
0.4806769476996528
 20
-0.0518486870659722
 30
0.0
 10
1.3364386664496526
 20
0.3060967339409722
 30
0.0
  0
SPLINE
  5
31
100
AcDbEntity
  8
レイヤー_2
 62
     7
100
AcDbSpline
210
0.0
220
0.0
230
1.0
 70
     8
 71
     3
 72
     8
 73
     4
 74
     0
 42
0.00000001
 43
0.00000001
 40
0.0
 40
0.0
 40
0.0
 40
0.0
 40
1.0
 40
1.0
 40
1.0
 40
1.0
 10
-2.1114128960503469
 20
5.6532294379340273
 30
0.0
 10
-2.3904656304253469
 20
5.9388278537326382
 30
0.0
 10
-2.8240308973524302
 20
6.002217610677083
 30
0.0
 10
-3.1756028917100694
 20
5.8148044162326382
 30
0.0
  0
SPLINE
  5
30
100
AcDbEntity
  8
レイヤー_2
 62
     7
100
AcDbSpline
210
0.0
220
0.0
230
1.0
 70
     8
 71
     3
 72
     8
 73
     4
 74
     0
 42
0.00000001
 43
0.00000001
 40
0.0
 40
0.0
 40
0.0
 40
0.0
 40
1.0
 40
1.0
 40
1.0
 40
1.0
 10
3.1747416178385413
 20
5.8148044162326382
 30
0.0
 10
2.8229973687065968
 20
6.002217610677083
 30
0.0
 10
2.3902933756510416
 20
5.9388278537326382
 30
0.0
 10
2.1096903483072915
 20
5.6532294379340273
 30
0.0
  0
SPLINE
  5
2F
100
AcDbEntity
  8
レイヤー_2
 62
     7
100
AcDbSpline
210
0.0
220
0.0
230
1.0
 70
     8
 71
     3
 72
     8
 73
     4
 74
     0
 42
0.00000001
 43
0.00000001
 40
0.0
 40
0.0
 40
0.0
 40
0.0
 40
1.0
 40
1.0
 40
1.0
 40
1.0
 10
1.3364386664496526
 20
5.6532294379340273
 30
0.0
 10
0.4806769476996528
 20
6.0091078016493054
 30
0.0
 10
-0.4808492024739583
 20
6.0091078016493054
 30
0.0
 10
-1.3386779785156249
 20
5.6532294379340273
 30
0.0
  0
ENDBLK
  5
54
100
AcDbEntity
  8
レイヤー_2
100
AcDbBlockEnd
  0
BLOCK
  5
60
100
AcDbEntity
  8
レイヤー_2
 62
     7
100
AcDbBlockBegin
  2
AI9-BLK3
 70
     0
 10
0.0
 20
0.0
 30
0.0
  3
AI9-BLK3
  1

  0
SPLINE
  5
69
100
AcDbEntity
  8
レイヤー_2
 62
     7
100
AcDbSpline
210
0.0
220
0.0
230
1.0
 70
     8
 71
     3
 72
    17
 73
    13
 74
     0
 42
0.00000001
 43
0.00000001
 40
0.0
 40
0.0
 40
0.0
 40
0.0
 40
1.0
 40
1.0
 40
1.0
 40
2.0
 40
2.0
 40
2.0
 40
3.0
 40
3.0
 40
3.0
 40
4.0
 40
4.0
 40
4.0
 40
4.0
 10
-15.761225721571179
 20
1.4714002821180554
 30
0.0
 10
-15.761225721571179
 20
3.5253662109374995
 30
0.0
 10
-17.426584879557289
 20
5.1903808593749998
 30
0.0
 10
-19.480034044053816
 20
5.1903808593749998
 30
0.0
 10
-21.533999972873261
 20
5.1903808593749998
 30
0.0
 10
-23.199014621310763
 20
3.5253662109374995
 30
0.0
 10
-23.199014621310763
 20
1.4714002821180554
 30
0.0
 10
-23.199014621310763
 20
-0.5822211371527777
 30
0.0
 10
-21.533999972873261
 20
-2.2468912760416666
 30
0.0
 10
-19.480034044053816
 20
-2.2468912760416666
 30
0.0
 10
-17.426584879557289
 20
-2.2468912760416666
 30
0.0
 10
-15.761225721571179
 20
-0.5822211371527777
 30
0.0
 10
-15.761225721571179
 20
1.4714002821180554
 30
0.0
  0
LINE
  5
68
100
AcDbEntity
  8
レイヤー_2
  6
AI9-LType1
 62
     7
100
AcDbLine
 10
-23.844798
 20
1.4714
 30
0.0
 11
-15.792921
 21
1.4714
 31
0.0
  0
LINE
  5
66
100
AcDbEntity
  8
レイヤー_2
 62
     7
100
AcDbLine
 10
-15.792921
 20
1.4714
 30
0.0
 11
-14.94336
 21
1.4714
 31
0.0
  0
LINE
  5
65
100
AcDbEntity
  8
レイヤー_2
 62
     7
100
AcDbLine
 10
-12.718517
 20
-5.222076
 30
0.0
 11
-23.162152
 21
5.222076
 31
0.0
  0
LINE
  5
64
100
AcDbEntity
  8
レイヤー_2
 62
     7
100
AcDbLine
 10
-12.718517
 20
-5.222076
 30
0.0
 11
23.844798
 21
-5.222076
 31
0.0
  0
LINE
  5
63
100
AcDbEntity
  8
レイヤー_2
 62
     7
100
AcDbLine
 10
-23.286348
 20
4.092084
 30
0.0
 11
-20.504778
 21
4.092084
 31
0.0
  0
LINE
  5
62
100
AcDbEntity
  8
レイヤー_2
 62
     7
100
AcDbLine
 10
-18.211378
 20
-1.117933
 30
0.0
 11
-15.430497
 21
-1.117933
 31
0.0
  0
MTEXT
  5
61
100
AcDbEntity
  8
レイヤー_2
 62
     7
100
AcDbMText
 10
-13.197041
 20
1.377004
 30
0.0
 40
5.512152
 41
0.0
 71
     1
 72
     2
  1
\fMS Gothic|b0|i0|c128;\H5.5122;\C7;\U+03C6\U+0032\U+0038\U+FF5E\U+03C6\U+0033\U+0035
  7
STD
210
0.0
220
0.0
230
1.0
 73
     1
 44
1.0
  0
ENDBLK
  5
6A
100
AcDbEntity
  8
レイヤー_2
100
AcDbBlockEnd
  0
ENDSEC
  0
SECTION
  2
ENTITIES
  0
MTEXT
  5
40D
100
AcDbEntity
  8
レイヤー_1
 62
     7
100
AcDbMText
 10
47.801389
 20
54.121991
 30
0.0
 40
3.674768
 41
0.0
 71
     1
 72
     2
  1
\fOsaka|b0|i0|c128;\H3.6748;\C7;\U+0031\U+0037\U+002E\U+0035\U+0030\U+0030\U+002E\U+0036\U+0032\U+0035\U+002E\U+0058\U+0058
  7
STD
210
0.0
220
0.0
230
1.0
 73
     1
 44
1.0
  0
MTEXT
  5
40C
100
AcDbEntity
  8
レイヤー_1
 62
     7
100
AcDbMText
 10
39.6875
 20
56.608234
 30
0.0
 40
1.574901
 41
0.0
 71
     1
 72
     2
  1
\fOsaka|b0|i0|c128;\H1.5749;\C7;\U+54C1\U+756A
  7
STD
210
0.0
220
0.0
230
1.0
 73
     1
 44
1.0
  0
MTEXT
  5
40B
100
AcDbEntity
  8
レイヤー_1
 62
     7
100
AcDbMText
 10
47.801389
 20
32.959209
 30
0.0
 40
3.149486
 41
0.0
 71
     1
 72
     2
  1
\fOsaka|b0|i0|c128;\H3.1495;\C7;\U+5358\U+6C34\U+6813
  7
STD
210
0.0
220
0.0
230
1.0
 73
     1
 44
1.0
  0
MTEXT
  5
40A
100
AcDbEntity
  8
レイヤー_1
 62
     7
100
AcDbMText
 10
39.6875
 20
35.441567
 30
0.0
 40
1.574901
 41
0.0
 71
     1
 72
     2
  1
\fOsaka|b0|i0|c128;\H1.5749;\C7;\U+54C1
  7
STD
210
0.0
220
0.0
230
1.0
 73
     1
 44
1.0
  0
MTEXT
  5
409
100
AcDbEntity
  8
レイヤー_1
 62
     7
100
AcDbMText
 10
47.801389
 20
42.954809
 30
0.0
 40
3.149486
 41
0.0
 71
     1
 72
     2
  1
\fOsaka|b0|i0|c128;\H3.1495;\C7;\U+004D\U+0045\U+0054\U+0041\U+002E\U+004F\U+0032
  7
STD
210
0.0
220
0.0
230
1.0
 73
     1
 44
1.0
  0
POLYLINE
  5
403
100
AcDbEntity
  8
レイヤー_1
 62
     7
100
AcDb2dPolyline
 66
     1
 10
0.0
 20
0.0
 30
0.0
 70
     1
  0
VERTEX
  5
404
100
AcDbEntity
  8
レイヤー_1
 62
     7
100
AcDbVertex
100
AcDb2dVertex
 10
23.636111
 20
26.105556
 30
0.0
  0
VERTEX
  5
405
100
AcDbEntity
  8
レイヤー_1
 62
     7
100
AcDbVertex
100
AcDb2dVertex
 10
198.613889
 20
26.105556
 30
0.0
  0
VERTEX
  5
406
100
AcDbEntity
  8
レイヤー_1
 62
     7
100
AcDbVertex
100
AcDb2dVertex
 10
198.613889
 20
276.577778
 30
0.0
  0
VERTEX
  5
407
100
AcDbEntity
  8
レイヤー_1
 62
     7
100
AcDbVertex
100
AcDb2dVertex
 10
23.636111
 20
276.577778
 30
0.0
  0
SEQEND
  5
408
100
AcDbEntity
  8
レイヤー_1
 62
     7
  0
LINE
  5
402
100
AcDbEntity
  8
レイヤー_1
 62
     7
100
AcDbLine
 10
170.568056
 20
36.5125
 30
0.0
 11
27.693056
 21
36.5125
 31
0.0
  0
LINE
  5
401
100
AcDbEntity
  8
レイヤー_1
 62
     7
100
AcDbLine
 10
170.568056
 20
47.095833
 30
0.0
 11
27.693056
 21
47.095833
 31
0.0
  0
LINE
  5
400
100
AcDbEntity
  8
レイヤー_1
 62
     7
100
AcDbLine
 10
23.636111
 20
57.855556
 30
0.0
 11
198.261111
 21
57.855556
 31
0.0
  0
LINE
  5
3FF
100
AcDbEntity
  8
レイヤー_1
 62
     7
100
AcDbLine
 10
170.744444
 20
57.855556
 30
0.0
 11
170.744444
 21
26.458333
 31
0.0
  0
MTEXT
  5
3FE
100
AcDbEntity
  8
レイヤー_1
 62
     7
100
AcDbMText
 10
33.3375
 20
46.024901
 30
0.0
 40
1.574901
 41
0.0
 71
     1
 72
     2
  1
\fOsaka|b0|i0|c128;\H1.5749;\C7;\U+30B7\U+30EA\U+30FC\U+30BA
  7
STD
210
0.0
220
0.0
230
1.0
 73
     1
 44
1.0
  0
MTEXT
  5
3FD
100
AcDbEntity
  8
レイヤー_1
 62
     7
100
AcDbMText
 10
174.095833
 20
54.655042
 30
0.0
 40
3.149486
 41
0.0
 71
     1
 72
     2
  1
\fHeiseiKakuGothicCAN W9|b0|i0|c128;\H3.1495;\C253;\U+5BF8\U+6CD5\U+53C2\U+8003\U+56F3
  7
STD
210
0.0
220
0.0
230
1.0
 73
     1
 44
1.0
  0
LINE
  5
3FC
100
AcDbEntity
  8
レイヤー_1
 62
     7
100
AcDbLine
 10
27.516667
 20
57.855556
 30
0.0
 11
27.516667
 21
26.458333
 31
0.0
  0
IMAGE
  5
3F9
100
AcDbEntity
  8
レイヤー_1
 62
     7
 92
        0
100
AcDbRasterImage
 90
        0
 10
172.155556
 20
28.574682
 30
0.0
 11
0.352531
 21
0.0
 31
0.0
 12
0.0
 22
0.352813
 32
0.0
 13
70.0
 23
9.0
340
3FB
 70
     7
280
     0
281
    50
282
    50
283
     0
360
3FA
 71
     1
 91
        2
 14
-0.5
 24
-0.5
 14
69.5
 24
8.5
  0
IMAGE
  5
3F6
100
AcDbEntity
  8
レイヤー_1
 62
     7
 92
        0
100
AcDbRasterImage
 90
        0
 10
172.155556
 20
28.574682
 30
0.0
 11
0.352531
 21
0.0
 31
0.0
 12
0.0
 22
0.352813
 32
0.0
 13
70.0
 23
9.0
340
3F8
 70
     7
280
     0
281
    50
282
    50
283
     0
360
3F7
 71
     1
 91
        2
 14
-0.5
 24
-0.5
 14
69.5
 24
8.5
  0
MTEXT
  5
3F5
100
AcDbEntity
  8
レイヤー_1
 62
     7
100
AcDbMText
 10
113.418056
 20
46.024901
 30
0.0
 40
1.574901
 41
0.0
 71
     1
 72
     2
  1
\fOsaka|b0|i0|c128;\H1.5749;\C7;\U+4ED5\U+4E0A
  7
STD
210
0.0
220
0.0
230
1.0
 73
     1
 44
1.0
  0
MTEXT
  5
3F4
100
AcDbEntity
  8
レイヤー_1
 62
     7
100
AcDbMText
 10
124.765511
 20
40.968164
 30
0.0
 40
1.162842
 41
0.0
 71
     1
 72
     2
  1
\fOsaka|b0|i0|c128;\H1.1628;\W2.71;\C7;
  7
STD
210
0.0
220
0.0
230
1.0
 73
     1
 44
1.0
  0
LINE
  5
3F2
100
AcDbEntity
  8
レイヤー_2
 62
     7
100
AcDbLine
 10
70.686469
 20
167.329321
 30
0.0
 11
70.686469
 21
169.329199
 31
0.0
  0
LINE
  5
3F1
100
AcDbEntity
  8
レイヤー_2
 62
     7
100
AcDbLine
 10
62.311098
 20
169.329199
 30
0.0
 11
62.311098
 21
167.329321
 31
0.0
  0
LINE
  5
3F0
100
AcDbEntity
  8
レイヤー_2
 62
     7
100
AcDbLine
 10
72.498934
 20
161.079574
 30
0.0
 11
72.498934
 21
161.829571
 31
0.0
  0
LINE
  5
3EF
100
AcDbEntity
  8
レイヤー_2
 62
     7
100
AcDbLine
 10
60.498633
 20
161.829571
 30
0.0
 11
60.498633
 21
161.079574
 31
0.0
  0
LINE
  5
3EE
100
AcDbEntity
  8
レイヤー_2
 62
     7
100
AcDbLine
 10
71.748592
 20
160.829115
 30
0.0
 11
71.748592
 21
161.079574
 31
0.0
  0
LINE
  5
3ED
100
AcDbEntity
  8
レイヤー_2
 62
     7
100
AcDbLine
 10
61.248286
 20
161.079574
 30
0.0
 11
61.248286
 21
160.829115
 31
0.0
  0
SPLINE
  5
3EC
100
AcDbEntity
  8
レイヤー_2
 62
     7
100
AcDbSpline
210
0.0
220
0.0
230
1.0
 70
     8
 71
     3
 72
     8
 73
     4
 74
     0
 42
0.00000001
 43
0.00000001
 40
0.0
 40
0.0
 40
0.0
 40
0.0
 40
1.0
 40
1.0
 40
1.0
 40
1.0
 10
71.373765733506943
 20
160.20486382378471
 30
0.0
 10
71.442323133680546
 20
160.20486382378471
 30
0.0
 10
71.499167209201389
 20
160.2603298611111
 30
0.0
 10
71.499167209201389
 20
160.32923177083333
 30
0.0
  0
SPLINE
  5
3EB
100
AcDbEntity
  8
レイヤー_2
 62
     7
100
AcDbSpline
210
0.0
220
0.0
230
1.0
 70
     8
 71
     3
 72
     8
 73
     4
 74
     0
 42
0.00000001
 43
0.00000001
 40
0.0
 40
0.0
 40
0.0
 40
0.0
 40
1.0
 40
1.0
 40
1.0
 40
1.0
 10
61.498744032118047
 20
160.32923177083333
 30
0.0
 10
61.498744032118047
 20
160.2603298611111
 30
0.0
 10
61.554554578993049
 20
160.20486382378471
 30
0.0
 10
61.623800998263881
 20
160.20486382378471
 30
0.0
  0
LINE
  5
3EA
100
AcDbEntity
  8
レイヤー_2
 62
     7
100
AcDbLine
 10
61.498744
 20
160.829115
 30
0.0
 11
61.498744
 21
160.329232
 31
0.0
  0
LINE
  5
3E9
100
AcDbEntity
  8
レイヤー_2
 62
     7
100
AcDbLine
 10
71.499167
 20
160.329232
 30
0.0
 11
71.499167
 21
160.829115
 31
0.0
  0
LINE
  5
3E8
100
AcDbEntity
  8
レイヤー_2
 62
     7
100
AcDbLine
 10
72.295329
 20
169.329199
 30
0.0
 11
72.295329
 21
170.704826
 31
0.0
  0
LINE
  5
3E7
100
AcDbEntity
  8
レイヤー_2
 62
     7
100
AcDbLine
 10
60.794911
 20
170.704826
 30
0.0
 11
60.794911
 21
169.329199
 31
0.0
  0
LINE
  5
3E6
100
AcDbEntity
  8
レイヤー_2
 62
     7
100
AcDbLine
 10
64.232083
 20
185.443978
 30
0.0
 11
64.232083
 21
185.065017
 31
0.0
  0
LINE
  5
3E5
100
AcDbEntity
  8
レイヤー_2
 62
     7
100
AcDbLine
 10
68.857468
 20
185.065017
 30
0.0
 11
68.857468
 21
185.443978
 31
0.0
  0
LINE
  5
3E4
100
AcDbEntity
  8
レイヤー_2
 62
     7
100
AcDbLine
 10
64.656519
 20
183.856478
 30
0.0
 11
64.759182
 21
183.784475
 31
0.0
  0
LINE
  5
3E3
100
AcDbEntity
  8
レイヤー_2
 62
     7
100
AcDbLine
 10
68.331057
 20
183.784475
 30
0.0
 11
68.433721
 21
183.856478
 31
0.0
  0
LINE
  5
3E2
100
AcDbEntity
  8
レイヤー_2
 62
     7
100
AcDbLine
 10
64.732311
 20
184.757715
 30
0.0
 11
64.732311
 21
184.631969
 31
0.0
  0
LINE
  5
3E1
100
AcDbEntity
  8
レイヤー_2
 62
     7
100
AcDbLine
 10
68.357929
 20
184.631969
 30
0.0
 11
68.357929
 21
184.757715
 31
0.0
  0
LINE
  5
3E0
100
AcDbEntity
  8
レイヤー_2
 62
     7
100
AcDbLine
 10
69.294995
 20
185.173538
 30
0.0
 11
69.294995
 21
185.454658
 31
0.0
  0
LINE
  5
3DF
100
AcDbEntity
  8
レイヤー_2
 62
     7
100
AcDbLine
 10
63.795245
 20
185.454658
 30
0.0
 11
63.795245
 21
185.173538
 31
0.0
  0
LINE
  5
3DE
100
AcDbEntity
  8
レイヤー_2
 62
     7
100
AcDbLine
 10
63.795245
 20
189.329701
 30
0.0
 11
63.795245
 21
185.454658
 31
0.0
  0
LINE
  5
3DD
100
AcDbEntity
  8
レイヤー_2
 62
     7
100
AcDbLine
 10
69.294995
 20
185.454658
 30
0.0
 11
69.294995
 21
189.329701
 31
0.0
  0
LINE
  5
3DC
100
AcDbEntity
  8
レイヤー_2
 62
     7
100
AcDbLine
 10
62.170538
 20
201.704484
 30
0.0
 11
62.170538
 21
195.95462
 31
0.0
  0
LINE
  5
3DB
100
AcDbEntity
  8
レイヤー_2
 62
     7
100
AcDbLine
 10
70.919702
 20
195.95462
 30
0.0
 11
70.919702
 21
201.704484
 31
0.0
  0
SPLINE
  5
3DA
100
AcDbEntity
  8
レイヤー_2
 62
     7
100
AcDbSpline
210
0.0
220
0.0
230
1.0
 70
     8
 71
     3
 72
     8
 73
     4
 74
     0
 42
0.00000001
 43
0.00000001
 40
0.0
 40
0.0
 40
0.0
 40
0.0
 40
1.0
 40
1.0
 40
1.0
 40
1.0
 10
70.920735677083329
 20
201.70448404947913
 30
0.0
 10
67.844609917534711
 20
201.81197102864581
 30
0.0
 10
64.791566297743046
 20
201.8081814236111
 30
0.0
 10
62.169504123263884
 20
201.70448404947913
 30
0.0
  0
LINE
  5
3D9
100
AcDbEntity
  8
レイヤー_2
 62
     7
100
AcDbLine
 10
69.857235
 20
195.579449
 30
0.0
 11
69.857235
 21
195.95462
 31
0.0
  0
LINE
  5
3D8
100
AcDbEntity
  8
レイヤー_2
 62
     7
100
AcDbLine
 10
63.233005
 20
195.95462
 30
0.0
 11
63.233005
 21
195.579449
 31
0.0
  0
LINE
  5
3D7
100
AcDbEntity
  8
レイヤー_2
 62
     7
100
AcDbLine
 10
70.919702
 20
170.704826
 30
0.0
 11
70.919702
 21
195.579449
 31
0.0
  0
LINE
  5
3D6
100
AcDbEntity
  8
レイヤー_2
 62
     7
100
AcDbLine
 10
62.170538
 20
195.579449
 30
0.0
 11
62.170538
 21
170.704826
 31
0.0
  0
LINE
  5
3D5
100
AcDbEntity
  8
レイヤー_2
 62
     7
100
AcDbLine
 10
69.146512
 20
161.829571
 30
0.0
 11
69.146512
 21
167.374452
 31
0.0
  0
LINE
  5
3D4
100
AcDbEntity
  8
レイヤー_2
 62
     7
100
AcDbLine
 10
63.944073
 20
167.334489
 30
0.0
 11
63.944073
 21
161.829571
 31
0.0
  0
LINE
  5
3D3
100
AcDbEntity
  8
レイヤー_2
 62
     7
100
AcDbLine
 10
72.498934
 20
161.079574
 30
0.0
 11
60.498633
 21
161.079574
 31
0.0
  0
LINE
  5
3D2
100
AcDbEntity
  8
レイヤー_2
 62
     7
100
AcDbLine
 10
72.498934
 20
161.829571
 30
0.0
 11
60.498633
 21
161.829571
 31
0.0
  0
LINE
  5
3D1
100
AcDbEntity
  8
レイヤー_2
 62
     7
100
AcDbLine
 10
71.748592
 20
160.829115
 30
0.0
 11
61.248286
 21
160.829115
 31
0.0
  0
LINE
  5
3D0
100
AcDbEntity
  8
レイヤー_2
 62
     7
100
AcDbLine
 10
66.498611
 20
160.204864
 30
0.0
 11
61.623801
 21
160.204864
 31
0.0
  0
LINE
  5
3CF
100
AcDbEntity
  8
レイヤー_2
 62
     7
100
AcDbLine
 10
71.373766
 20
160.204864
 30
0.0
 11
66.498611
 21
160.204864
 31
0.0
  0
LINE
  5
3CE
100
AcDbEntity
  8
レイヤー_2
 62
     7
100
AcDbLine
 10
69.873771
 20
160.204864
 30
0.0
 11
69.873771
 21
158.079584
 31
0.0
  0
LINE
  5
3CD
100
AcDbEntity
  8
レイヤー_2
 62
     7
100
AcDbLine
 10
66.498611
 20
158.079584
 30
0.0
 11
69.873771
 21
158.079584
 31
0.0
  0
LINE
  5
3CC
100
AcDbEntity
  8
レイヤー_2
 62
     7
100
AcDbLine
 10
66.498611
 20
160.204864
 30
0.0
 11
66.498611
 21
158.079584
 31
0.0
  0
LINE
  5
3CB
100
AcDbEntity
  8
レイヤー_2
 62
     7
100
AcDbLine
 10
63.123451
 20
158.079584
 30
0.0
 11
63.123451
 21
160.204864
 31
0.0
  0
LINE
  5
3CA
100
AcDbEntity
  8
レイヤー_2
 62
     7
100
AcDbLine
 10
63.123451
 20
158.079584
 30
0.0
 11
66.498611
 21
158.079584
 31
0.0
  0
LINE
  5
3C9
100
AcDbEntity
  8
レイヤー_2
 62
     7
100
AcDbLine
 10
72.295329
 20
169.329199
 30
0.0
 11
60.794911
 21
169.329199
 31
0.0
  0
LINE
  5
3C8
100
AcDbEntity
  8
レイヤー_2
 62
     7
100
AcDbLine
 10
72.295329
 20
170.704826
 30
0.0
 11
60.794911
 21
170.704826
 31
0.0
  0
LINE
  5
3C7
100
AcDbEntity
  8
レイヤー_2
 62
     7
100
AcDbLine
 10
68.66971
 20
184.979924
 30
0.0
 11
68.66971
 21
184.675722
 31
0.0
  0
POLYLINE
  5
3B5
100
AcDbEntity
  8
レイヤー_2
 62
     7
100
AcDb2dPolyline
 66
     1
 10
0.0
 20
0.0
 30
0.0
  0
VERTEX
  5
3B6
100
AcDbEntity
  8
レイヤー_2
 62
     7
100
AcDbVertex
100
AcDb2dVertex
 10
64.420185
 20
184.675722
 30
0.0
  0
VERTEX
  5
3B7
100
AcDbEntity
  8
レイヤー_2
 62
     7
100
AcDbVertex
100
AcDb2dVertex
 10
64.545242
 20
184.858312
 30
0.0
  0
VERTEX
  5
3B8
100
AcDbEntity
  8
レイヤー_2
 62
     7
100
AcDbVertex
100
AcDb2dVertex
 10
64.733
 20
185.028155
 30
0.0
  0
VERTEX
  5
3B9
100
AcDbEntity
  8
レイヤー_2
 62
     7
100
AcDbVertex
100
AcDb2dVertex
 10
64.977601
 20
185.178361
 30
0.0
  0
VERTEX
  5
3BA
100
AcDbEntity
  8
レイヤー_2
 62
     7
100
AcDbVertex
100
AcDb2dVertex
 10
65.271813
 20
185.304796
 30
0.0
  0
VERTEX
  5
3BB
100
AcDbEntity
  8
レイヤー_2
 62
     7
100
AcDbVertex
100
AcDb2dVertex
 10
65.605642
 20
185.403326
 30
0.0
  0
VERTEX
  5
3BC
100
AcDbEntity
  8
レイヤー_2
 62
     7
100
AcDbVertex
100
AcDb2dVertex
 10
65.969444
 20
185.471194
 30
0.0
  0
VERTEX
  5
3BD
100
AcDbEntity
  8
レイヤー_2
 62
     7
100
AcDbVertex
100
AcDb2dVertex
 10
66.351161
 20
185.504956
 30
0.0
  0
VERTEX
  5
3BE
100
AcDbEntity
  8
レイヤー_2
 62
     7
100
AcDbVertex
100
AcDb2dVertex
 10
66.739079
 20
185.504956
 30
0.0
  0
VERTEX
  5
3BF
100
AcDbEntity
  8
レイヤー_2
 62
     7
100
AcDbVertex
100
AcDb2dVertex
 10
67.120795
 20
185.471194
 30
0.0
  0
VERTEX
  5
3C0
100
AcDbEntity
  8
レイヤー_2
 62
     7
100
AcDbVertex
100
AcDb2dVertex
 10
67.484253
 20
185.403326
 30
0.0
  0
VERTEX
  5
3C1
100
AcDbEntity
  8
レイヤー_2
 62
     7
100
AcDbVertex
100
AcDb2dVertex
 10
67.818427
 20
185.304796
 30
0.0
  0
VERTEX
  5
3C2
100
AcDbEntity
  8
レイヤー_2
 62
     7
100
AcDbVertex
100
AcDb2dVertex
 10
68.112294
 20
185.178361
 30
0.0
  0
VERTEX
  5
3C3
100
AcDbEntity
  8
レイヤー_2
 62
     7
100
AcDbVertex
100
AcDb2dVertex
 10
68.356896
 20
185.028155
 30
0.0
  0
VERTEX
  5
3C4
100
AcDbEntity
  8
レイヤー_2
 62
     7
100
AcDbVertex
100
AcDb2dVertex
 10
68.544998
 20
184.858312
 30
0.0
  0
VERTEX
  5
3C5
100
AcDbEntity
  8
レイヤー_2
 62
     7
100
AcDbVertex
100
AcDb2dVertex
 10
68.66971
 20
184.675722
 30
0.0
  0
SEQEND
  5
3C6
100
AcDbEntity
  8
レイヤー_2
 62
     7
  0
LINE
  5
3B4
100
AcDbEntity
  8
レイヤー_2
 62
     7
100
AcDbLine
 10
64.420185
 20
184.979924
 30
0.0
 11
64.420185
 21
184.675722
 31
0.0
  0
POLYLINE
  5
3AF
100
AcDbEntity
  8
レイヤー_2
 62
     7
100
AcDb2dPolyline
 66
     1
 10
0.0
 20
0.0
 30
0.0
  0
VERTEX
  5
3B0
100
AcDbEntity
  8
レイヤー_2
 62
     7
100
AcDbVertex
100
AcDb2dVertex
 10
68.66971
 20
184.067662
 30
0.0
  0
VERTEX
  5
3B1
100
AcDbEntity
  8
レイヤー_2
 62
     7
100
AcDbVertex
100
AcDb2dVertex
 10
68.489187
 20
183.897819
 30
0.0
  0
VERTEX
  5
3B2
100
AcDbEntity
  8
レイヤー_2
 62
     7
100
AcDbVertex
100
AcDb2dVertex
 10
68.433721
 20
183.856478
 30
0.0
  0
SEQEND
  5
3B3
100
AcDbEntity
  8
レイヤー_2
 62
     7
  0
POLYLINE
  5
3AA
100
AcDbEntity
  8
レイヤー_2
 62
     7
100
AcDb2dPolyline
 66
     1
 10
0.0
 20
0.0
 30
0.0
  0
VERTEX
  5
3AB
100
AcDbEntity
  8
レイヤー_2
 62
     7
100
AcDbVertex
100
AcDb2dVertex
 10
64.656519
 20
183.856478
 30
0.0
  0
VERTEX
  5
3AC
100
AcDbEntity
  8
レイヤー_2
 62
     7
100
AcDbVertex
100
AcDb2dVertex
 10
64.600363
 20
183.897819
 30
0.0
  0
VERTEX
  5
3AD
100
AcDbEntity
  8
レイヤー_2
 62
     7
100
AcDbVertex
100
AcDb2dVertex
 10
64.420185
 20
184.067662
 30
0.0
  0
SEQEND
  5
3AE
100
AcDbEntity
  8
レイヤー_2
 62
     7
  0
POLYLINE
  5
39F
100
AcDbEntity
  8
レイヤー_2
 62
     7
100
AcDb2dPolyline
 66
     1
 10
0.0
 20
0.0
 30
0.0
  0
VERTEX
  5
3A0
100
AcDbEntity
  8
レイヤー_2
 62
     7
100
AcDbVertex
100
AcDb2dVertex
 10
68.66971
 20
185.521148
 30
0.0
  0
VERTEX
  5
3A1
100
AcDbEntity
  8
レイヤー_2
 62
     7
100
AcDbVertex
100
AcDb2dVertex
 10
68.751015
 20
185.410905
 30
0.0
  0
VERTEX
  5
3A2
100
AcDbEntity
  8
レイヤー_2
 62
     7
100
AcDbVertex
100
AcDb2dVertex
 10
68.809926
 20
185.29825
 30
0.0
  0
VERTEX
  5
3A3
100
AcDbEntity
  8
レイヤー_2
 62
     7
100
AcDbVertex
100
AcDb2dVertex
 10
68.84541
 20
185.181806
 30
0.0
  0
VERTEX
  5
3A4
100
AcDbEntity
  8
レイヤー_2
 62
     7
100
AcDbVertex
100
AcDb2dVertex
 10
68.857468
 20
185.065017
 30
0.0
  0
VERTEX
  5
3A5
100
AcDbEntity
  8
レイヤー_2
 62
     7
100
AcDbVertex
100
AcDb2dVertex
 10
68.84541
 20
184.947884
 30
0.0
  0
VERTEX
  5
3A6
100
AcDbEntity
  8
レイヤー_2
 62
     7
100
AcDbVertex
100
AcDb2dVertex
 10
68.809926
 20
184.832473
 30
0.0
  0
VERTEX
  5
3A7
100
AcDbEntity
  8
レイヤー_2
 62
     7
100
AcDbVertex
100
AcDb2dVertex
 10
68.751015
 20
184.718785
 30
0.0
  0
VERTEX
  5
3A8
100
AcDbEntity
  8
レイヤー_2
 62
     7
100
AcDbVertex
100
AcDb2dVertex
 10
68.66971
 20
184.608542
 30
0.0
  0
SEQEND
  5
3A9
100
AcDbEntity
  8
レイヤー_2
 62
     7
  0
LINE
  5
39E
100
AcDbEntity
  8
レイヤー_2
 62
     7
100
AcDbLine
 10
68.66971
 20
184.979924
 30
0.0
 11
68.66971
 21
185.521148
 31
0.0
  0
LINE
  5
39D
100
AcDbEntity
  8
レイヤー_2
 62
     7
100
AcDbLine
 10
64.420185
 20
184.979924
 30
0.0
 11
64.420185
 21
185.521148
 31
0.0
  0
POLYLINE
  5
392
100
AcDbEntity
  8
レイヤー_2
 62
     7
100
AcDb2dPolyline
 66
     1
 10
0.0
 20
0.0
 30
0.0
  0
VERTEX
  5
393
100
AcDbEntity
  8
レイヤー_2
 62
     7
100
AcDbVertex
100
AcDb2dVertex
 10
64.420185
 20
184.608542
 30
0.0
  0
VERTEX
  5
394
100
AcDbEntity
  8
レイヤー_2
 62
     7
100
AcDbVertex
100
AcDb2dVertex
 10
64.338881
 20
184.718785
 30
0.0
  0
VERTEX
  5
395
100
AcDbEntity
  8
レイヤー_2
 62
     7
100
AcDbVertex
100
AcDb2dVertex
 10
64.27997
 20
184.832473
 30
0.0
  0
VERTEX
  5
396
100
AcDbEntity
  8
レイヤー_2
 62
     7
100
AcDbVertex
100
AcDb2dVertex
 10
64.24483
 20
184.947884
 30
0.0
  0
VERTEX
  5
397
100
AcDbEntity
  8
レイヤー_2
 62
     7
100
AcDbVertex
100
AcDb2dVertex
 10
64.232083
 20
185.065017
 30
0.0
  0
VERTEX
  5
398
100
AcDbEntity
  8
レイヤー_2
 62
     7
100
AcDbVertex
100
AcDb2dVertex
 10
64.24483
 20
185.181806
 30
0.0
  0
VERTEX
  5
399
100
AcDbEntity
  8
レイヤー_2
 62
     7
100
AcDbVertex
100
AcDb2dVertex
 10
64.27997
 20
185.29825
 30
0.0
  0
VERTEX
  5
39A
100
AcDbEntity
  8
レイヤー_2
 62
     7
100
AcDbVertex
100
AcDb2dVertex
 10
64.338881
 20
185.410905
 30
0.0
  0
VERTEX
  5
39B
100
AcDbEntity
  8
レイヤー_2
 62
     7
100
AcDbVertex
100
AcDb2dVertex
 10
64.420185
 20
185.521148
 30
0.0
  0
SEQEND
  5
39C
100
AcDbEntity
  8
レイヤー_2
 62
     7
  0
POLYLINE
  5
36C
100
AcDbEntity
  8
レイヤー_2
 62
     7
100
AcDb2dPolyline
 66
     1
 10
0.0
 20
0.0
 30
0.0
  0
VERTEX
  5
36D
100
AcDbEntity
  8
レイヤー_2
 62
     7
100
AcDbVertex
100
AcDb2dVertex
 10
66.544775
 20
185.384722
 30
0.0
  0
VERTEX
  5
36E
100
AcDbEntity
  8
レイヤー_2
 62
     7
100
AcDbVertex
100
AcDb2dVertex
 10
66.891007
 20
185.368875
 30
0.0
  0
VERTEX
  5
36F
100
AcDbEntity
  8
レイヤー_2
 62
     7
100
AcDbVertex
100
AcDb2dVertex
 10
67.225871
 20
185.322366
 30
0.0
  0
VERTEX
  5
370
100
AcDbEntity
  8
レイヤー_2
 62
     7
100
AcDbVertex
100
AcDb2dVertex
 10
67.538685
 20
185.246918
 30
0.0
  0
VERTEX
  5
371
100
AcDbEntity
  8
レイヤー_2
 62
     7
100
AcDbVertex
100
AcDb2dVertex
 10
67.819805
 20
185.145633
 30
0.0
  0
VERTEX
  5
372
100
AcDbEntity
  8
レイヤー_2
 62
     7
100
AcDbVertex
100
AcDb2dVertex
 10
68.059928
 20
185.019887
 30
0.0
  0
VERTEX
  5
373
100
AcDbEntity
  8
レイヤー_2
 62
     7
100
AcDbVertex
100
AcDb2dVertex
 10
68.251476
 20
184.874848
 30
0.0
  0
VERTEX
  5
374
100
AcDbEntity
  8
レイヤー_2
 62
     7
100
AcDbVertex
100
AcDb2dVertex
 10
68.387901
 20
184.714651
 30
0.0
  0
VERTEX
  5
375
100
AcDbEntity
  8
レイヤー_2
 62
     7
100
AcDbVertex
100
AcDb2dVertex
 10
68.465416
 20
184.545497
 30
0.0
  0
VERTEX
  5
376
100
AcDbEntity
  8
レイヤー_2
 62
     7
100
AcDbVertex
100
AcDb2dVertex
 10
68.480575
 20
184.372209
 30
0.0
  0
VERTEX
  5
377
100
AcDbEntity
  8
レイヤー_2
 62
     7
100
AcDbVertex
100
AcDb2dVertex
 10
68.43441
 20
184.199609
 30
0.0
  0
VERTEX
  5
378
100
AcDbEntity
  8
レイヤー_2
 62
     7
100
AcDbVertex
100
AcDb2dVertex
 10
68.326923
 20
184.034245
 30
0.0
  0
VERTEX
  5
379
100
AcDbEntity
  8
レイヤー_2
 62
     7
100
AcDbVertex
100
AcDb2dVertex
 10
68.161903
 20
183.881972
 30
0.0
  0
VERTEX
  5
37A
100
AcDbEntity
  8
レイヤー_2
 62
     7
100
AcDbVertex
100
AcDb2dVertex
 10
67.945551
 20
183.746235
 30
0.0
  0
VERTEX
  5
37B
100
AcDbEntity
  8
レイヤー_2
 62
     7
100
AcDbVertex
100
AcDb2dVertex
 10
67.684413
 20
183.631513
 30
0.0
  0
VERTEX
  5
37C
100
AcDbEntity
  8
レイヤー_2
 62
     7
100
AcDbVertex
100
AcDb2dVertex
 10
67.385723
 20
183.54263
 30
0.0
  0
VERTEX
  5
37D
100
AcDbEntity
  8
レイヤー_2
 62
     7
100
AcDbVertex
100
AcDb2dVertex
 10
67.060506
 20
183.481651
 30
0.0
  0
VERTEX
  5
37E
100
AcDbEntity
  8
レイヤー_2
 62
     7
100
AcDbVertex
100
AcDb2dVertex
 10
66.718753
 20
183.45099
 30
0.0
  0
VERTEX
  5
37F
100
AcDbEntity
  8
レイヤー_2
 62
     7
100
AcDbVertex
100
AcDb2dVertex
 10
66.371487
 20
183.45099
 30
0.0
  0
VERTEX
  5
380
100
AcDbEntity
  8
レイヤー_2
 62
     7
100
AcDbVertex
100
AcDb2dVertex
 10
66.030078
 20
183.481651
 30
0.0
  0
VERTEX
  5
381
100
AcDbEntity
  8
レイヤー_2
 62
     7
100
AcDbVertex
100
AcDb2dVertex
 10
65.704517
 20
183.54263
 30
0.0
  0
VERTEX
  5
382
100
AcDbEntity
  8
レイヤー_2
 62
     7
100
AcDbVertex
100
AcDb2dVertex
 10
65.405827
 20
183.631513
 30
0.0
  0
VERTEX
  5
383
100
AcDbEntity
  8
レイヤー_2
 62
     7
100
AcDbVertex
100
AcDb2dVertex
 10
65.144689
 20
183.746235
 30
0.0
  0
VERTEX
  5
384
100
AcDbEntity
  8
レイヤー_2
 62
     7
100
AcDbVertex
100
AcDb2dVertex
 10
64.927992
 20
183.881972
 30
0.0
  0
VERTEX
  5
385
100
AcDbEntity
  8
レイヤー_2
 62
     7
100
AcDbVertex
100
AcDb2dVertex
 10
64.763661
 20
184.034245
 30
0.0
  0
VERTEX
  5
386
100
AcDbEntity
  8
レイヤー_2
 62
     7
100
AcDbVertex
100
AcDb2dVertex
 10
64.656174
 20
184.199609
 30
0.0
  0
VERTEX
  5
387
100
AcDbEntity
  8
レイヤー_2
 62
     7
100
AcDbVertex
100
AcDb2dVertex
 10
64.609665
 20
184.372209
 30
0.0
  0
VERTEX
  5
388
100
AcDbEntity
  8
レイヤー_2
 62
     7
100
AcDbVertex
100
AcDb2dVertex
 10
64.624824
 20
184.545497
 30
0.0
  0
VERTEX
  5
389
100
AcDbEntity
  8
レイヤー_2
 62
     7
100
AcDbVertex
100
AcDb2dVertex
 10
64.702338
 20
184.714651
 30
0.0
  0
VERTEX
  5
38A
100
AcDbEntity
  8
レイヤー_2
 62
     7
100
AcDbVertex
100
AcDb2dVertex
 10
64.839109
 20
184.874848
 30
0.0
  0
VERTEX
  5
38B
100
AcDbEntity
  8
レイヤー_2
 62
     7
100
AcDbVertex
100
AcDb2dVertex
 10
65.030311
 20
185.019887
 30
0.0
  0
VERTEX
  5
38C
100
AcDbEntity
  8
レイヤー_2
 62
     7
100
AcDbVertex
100
AcDb2dVertex
 10
65.27009
 20
185.145633
 30
0.0
  0
VERTEX
  5
38D
100
AcDbEntity
  8
レイヤー_2
 62
     7
100
AcDbVertex
100
AcDb2dVertex
 10
65.55121
 20
185.246918
 30
0.0
  0
VERTEX
  5
38E
100
AcDbEntity
  8
レイヤー_2
 62
     7
100
AcDbVertex
100
AcDb2dVertex
 10
65.864369
 20
185.322366
 30
0.0
  0
VERTEX
  5
38F
100
AcDbEntity
  8
レイヤー_2
 62
     7
100
AcDbVertex
100
AcDb2dVertex
 10
66.199232
 20
185.368875
 30
0.0
  0
VERTEX
  5
390
100
AcDbEntity
  8
レイヤー_2
 62
     7
100
AcDbVertex
100
AcDb2dVertex
 10
66.544775
 20
185.384722
 30
0.0
  0
SEQEND
  5
391
100
AcDbEntity
  8
レイヤー_2
 62
     7
  0
LINE
  5
36B
100
AcDbEntity
  8
レイヤー_2
 62
     7
100
AcDbLine
 10
68.66971
 20
184.155857
 30
0.0
 11
68.66971
 21
184.675722
 31
0.0
  0
POLYLINE
  5
359
100
AcDbEntity
  8
レイヤー_2
 62
     7
100
AcDb2dPolyline
 66
     1
 10
0.0
 20
0.0
 30
0.0
  0
VERTEX
  5
35A
100
AcDbEntity
  8
レイヤー_2
 62
     7
100
AcDbVertex
100
AcDb2dVertex
 10
68.66971
 20
184.155857
 30
0.0
  0
VERTEX
  5
35B
100
AcDbEntity
  8
レイヤー_2
 62
     7
100
AcDbVertex
100
AcDb2dVertex
 10
68.544998
 20
183.972578
 30
0.0
  0
VERTEX
  5
35C
100
AcDbEntity
  8
レイヤー_2
 62
     7
100
AcDbVertex
100
AcDb2dVertex
 10
68.356896
 20
183.803079
 30
0.0
  0
VERTEX
  5
35D
100
AcDbEntity
  8
レイヤー_2
 62
     7
100
AcDbVertex
100
AcDb2dVertex
 10
68.112294
 20
183.652873
 30
0.0
  0
VERTEX
  5
35E
100
AcDbEntity
  8
レイヤー_2
 62
     7
100
AcDbVertex
100
AcDb2dVertex
 10
67.818427
 20
183.526093
 30
0.0
  0
VERTEX
  5
35F
100
AcDbEntity
  8
レイヤー_2
 62
     7
100
AcDbVertex
100
AcDb2dVertex
 10
67.484253
 20
183.427908
 30
0.0
  0
VERTEX
  5
360
100
AcDbEntity
  8
レイヤー_2
 62
     7
100
AcDbVertex
100
AcDb2dVertex
 10
67.120795
 20
183.360384
 30
0.0
  0
VERTEX
  5
361
100
AcDbEntity
  8
レイヤー_2
 62
     7
100
AcDbVertex
100
AcDb2dVertex
 10
66.739079
 20
183.326278
 30
0.0
  0
VERTEX
  5
362
100
AcDbEntity
  8
レイヤー_2
 62
     7
100
AcDbVertex
100
AcDb2dVertex
 10
66.351161
 20
183.326278
 30
0.0
  0
VERTEX
  5
363
100
AcDbEntity
  8
レイヤー_2
 62
     7
100
AcDbVertex
100
AcDb2dVertex
 10
65.969444
 20
183.360384
 30
0.0
  0
VERTEX
  5
364
100
AcDbEntity
  8
レイヤー_2
 62
     7
100
AcDbVertex
100
AcDb2dVertex
 10
65.605642
 20
183.427908
 30
0.0
  0
VERTEX
  5
365
100
AcDbEntity
  8
レイヤー_2
 62
     7
100
AcDbVertex
100
AcDb2dVertex
 10
65.271813
 20
183.526093
 30
0.0
  0
VERTEX
  5
366
100
AcDbEntity
  8
レイヤー_2
 62
     7
100
AcDbVertex
100
AcDb2dVertex
 10
64.977601
 20
183.652873
 30
0.0
  0
VERTEX
  5
367
100
AcDbEntity
  8
レイヤー_2
 62
     7
100
AcDbVertex
100
AcDb2dVertex
 10
64.733
 20
183.803079
 30
0.0
  0
VERTEX
  5
368
100
AcDbEntity
  8
レイヤー_2
 62
     7
100
AcDbVertex
100
AcDb2dVertex
 10
64.545242
 20
183.972578
 30
0.0
  0
VERTEX
  5
369
100
AcDbEntity
  8
レイヤー_2
 62
     7
100
AcDbVertex
100
AcDb2dVertex
 10
64.420185
 20
184.155857
 30
0.0
  0
SEQEND
  5
36A
100
AcDbEntity
  8
レイヤー_2
 62
     7
  0
LINE
  5
358
100
AcDbEntity
  8
レイヤー_2
 62
     7
100
AcDbLine
 10
64.420185
 20
184.155857
 30
0.0
 11
64.420185
 21
184.675722
 31
0.0
  0
LINE
  5
357
100
AcDbEntity
  8
レイヤー_2
 62
     7
100
AcDbLine
 10
64.420185
 20
184.067662
 30
0.0
 11
64.420185
 21
184.155857
 31
0.0
  0
LINE
  5
356
100
AcDbEntity
  8
レイヤー_2
 62
     7
100
AcDbLine
 10
68.66971
 20
184.067662
 30
0.0
 11
68.66971
 21
184.155857
 31
0.0
  0
POLYLINE
  5
34F
100
AcDbEntity
  8
レイヤー_2
 62
     7
100
AcDb2dPolyline
 66
     1
 10
0.0
 20
0.0
 30
0.0
  0
VERTEX
  5
350
100
AcDbEntity
  8
レイヤー_2
 62
     7
100
AcDbVertex
100
AcDb2dVertex
 10
68.134342
 20
184.969933
 30
0.0
  0
VERTEX
  5
351
100
AcDbEntity
  8
レイヤー_2
 62
     7
100
AcDbVertex
100
AcDb2dVertex
 10
68.148467
 20
184.95443
 30
0.0
  0
VERTEX
  5
352
100
AcDbEntity
  8
レイヤー_2
 62
     7
100
AcDbVertex
100
AcDb2dVertex
 10
68.258021
 20
184.796644
 30
0.0
  0
VERTEX
  5
353
100
AcDbEntity
  8
レイヤー_2
 62
     7
100
AcDbVertex
100
AcDb2dVertex
 10
68.305908
 20
184.630591
 30
0.0
  0
VERTEX
  5
354
100
AcDbEntity
  8
レイヤー_2
 62
     7
100
AcDbVertex
100
AcDb2dVertex
 10
68.306253
 20
184.557555
 30
0.0
  0
SEQEND
  5
355
100
AcDbEntity
  8
レイヤー_2
 62
     7
  0
POLYLINE
  5
33D
100
AcDbEntity
  8
レイヤー_2
 62
     7
100
AcDb2dPolyline
 66
     1
 10
0.0
 20
0.0
 30
0.0
  0
VERTEX
  5
33E
100
AcDbEntity
  8
レイヤー_2
 62
     7
100
AcDbVertex
100
AcDb2dVertex
 10
68.24872
 20
184.362218
 30
0.0
  0
VERTEX
  5
33F
100
AcDbEntity
  8
レイヤー_2
 62
     7
100
AcDbVertex
100
AcDb2dVertex
 10
68.210824
 20
184.300895
 30
0.0
  0
VERTEX
  5
340
100
AcDbEntity
  8
レイヤー_2
 62
     7
100
AcDbVertex
100
AcDb2dVertex
 10
68.071297
 20
184.148277
 30
0.0
  0
VERTEX
  5
341
100
AcDbEntity
  8
レイヤー_2
 62
     7
100
AcDbVertex
100
AcDb2dVertex
 10
67.877338
 20
184.011852
 30
0.0
  0
VERTEX
  5
342
100
AcDbEntity
  8
レイヤー_2
 62
     7
100
AcDbVertex
100
AcDb2dVertex
 10
67.634459
 20
183.896096
 30
0.0
  0
VERTEX
  5
343
100
AcDbEntity
  8
レイヤー_2
 62
     7
100
AcDbVertex
100
AcDb2dVertex
 10
67.352995
 20
183.80549
 30
0.0
  0
VERTEX
  5
344
100
AcDbEntity
  8
レイヤー_2
 62
     7
100
AcDbVertex
100
AcDb2dVertex
 10
67.041558
 20
183.743479
 30
0.0
  0
VERTEX
  5
345
100
AcDbEntity
  8
レイヤー_2
 62
     7
100
AcDbVertex
100
AcDb2dVertex
 10
66.712207
 20
183.711095
 30
0.0
  0
VERTEX
  5
346
100
AcDbEntity
  8
レイヤー_2
 62
     7
100
AcDbVertex
100
AcDb2dVertex
 10
66.377344
 20
183.711095
 30
0.0
  0
VERTEX
  5
347
100
AcDbEntity
  8
レイヤー_2
 62
     7
100
AcDbVertex
100
AcDb2dVertex
 10
66.048682
 20
183.743479
 30
0.0
  0
VERTEX
  5
348
100
AcDbEntity
  8
レイヤー_2
 62
     7
100
AcDbVertex
100
AcDb2dVertex
 10
65.73759
 20
183.80549
 30
0.0
  0
VERTEX
  5
349
100
AcDbEntity
  8
レイヤー_2
 62
     7
100
AcDbVertex
100
AcDb2dVertex
 10
65.455781
 20
183.896096
 30
0.0
  0
VERTEX
  5
34A
100
AcDbEntity
  8
レイヤー_2
 62
     7
100
AcDbVertex
100
AcDb2dVertex
 10
65.212901
 20
184.011852
 30
0.0
  0
VERTEX
  5
34B
100
AcDbEntity
  8
レイヤー_2
 62
     7
100
AcDbVertex
100
AcDb2dVertex
 10
65.018943
 20
184.148277
 30
0.0
  0
VERTEX
  5
34C
100
AcDbEntity
  8
レイヤー_2
 62
     7
100
AcDbVertex
100
AcDb2dVertex
 10
64.879416
 20
184.300895
 30
0.0
  0
VERTEX
  5
34D
100
AcDbEntity
  8
レイヤー_2
 62
     7
100
AcDbVertex
100
AcDb2dVertex
 10
64.822572
 20
184.401836
 30
0.0
  0
SEQEND
  5
34E
100
AcDbEntity
  8
レイヤー_2
 62
     7
  0
POLYLINE
  5
336
100
AcDbEntity
  8
レイヤー_2
 62
     7
100
AcDb2dPolyline
 66
     1
 10
0.0
 20
0.0
 30
0.0
  0
VERTEX
  5
337
100
AcDbEntity
  8
レイヤー_2
 62
     7
100
AcDbVertex
100
AcDb2dVertex
 10
64.786743
 20
184.532061
 30
0.0
  0
VERTEX
  5
338
100
AcDbEntity
  8
レイヤー_2
 62
     7
100
AcDbVertex
100
AcDb2dVertex
 10
64.784676
 20
184.630591
 30
0.0
  0
VERTEX
  5
339
100
AcDbEntity
  8
レイヤー_2
 62
     7
100
AcDbVertex
100
AcDb2dVertex
 10
64.832218
 20
184.796644
 30
0.0
  0
VERTEX
  5
33A
100
AcDbEntity
  8
レイヤー_2
 62
     7
100
AcDbVertex
100
AcDb2dVertex
 10
64.942117
 20
184.95443
 30
0.0
  0
VERTEX
  5
33B
100
AcDbEntity
  8
レイヤー_2
 62
     7
100
AcDbVertex
100
AcDb2dVertex
 10
64.955553
 20
184.969933
 30
0.0
  0
SEQEND
  5
33C
100
AcDbEntity
  8
レイヤー_2
 62
     7
  0
POLYLINE
  5
331
100
AcDbEntity
  8
レイヤー_2
 62
     7
100
AcDb2dPolyline
 66
     1
 10
0.0
 20
0.0
 30
0.0
  0
VERTEX
  5
332
100
AcDbEntity
  8
レイヤー_2
 62
     7
100
AcDbVertex
100
AcDb2dVertex
 10
68.328301
 20
184.794233
 30
0.0
  0
VERTEX
  5
333
100
AcDbEntity
  8
レイヤー_2
 62
     7
100
AcDbVertex
100
AcDb2dVertex
 10
68.349661
 20
184.71534
 30
0.0
  0
VERTEX
  5
334
100
AcDbEntity
  8
レイヤー_2
 62
     7
100
AcDbVertex
100
AcDb2dVertex
 10
68.357929
 20
184.631969
 30
0.0
  0
SEQEND
  5
335
100
AcDbEntity
  8
レイヤー_2
 62
     7
  0
POLYLINE
  5
32C
100
AcDbEntity
  8
レイヤー_2
 62
     7
100
AcDb2dPolyline
 66
     1
 10
0.0
 20
0.0
 30
0.0
  0
VERTEX
  5
32D
100
AcDbEntity
  8
レイヤー_2
 62
     7
100
AcDbVertex
100
AcDb2dVertex
 10
64.732311
 20
184.631969
 30
0.0
  0
VERTEX
  5
32E
100
AcDbEntity
  8
レイヤー_2
 62
     7
100
AcDbVertex
100
AcDb2dVertex
 10
64.73989
 20
184.71534
 30
0.0
  0
VERTEX
  5
32F
100
AcDbEntity
  8
レイヤー_2
 62
     7
100
AcDbVertex
100
AcDb2dVertex
 10
64.761938
 20
184.794233
 30
0.0
  0
SEQEND
  5
330
100
AcDbEntity
  8
レイヤー_2
 62
     7
  0
POLYLINE
  5
30A
100
AcDbEntity
  8
レイヤー_2
 62
     7
100
AcDb2dPolyline
 66
     1
 10
0.0
 20
0.0
 30
0.0
  0
VERTEX
  5
30B
100
AcDbEntity
  8
レイヤー_2
 62
     7
100
AcDbVertex
100
AcDb2dVertex
 10
66.544775
 20
183.807213
 30
0.0
  0
VERTEX
  5
30C
100
AcDbEntity
  8
レイヤー_2
 62
     7
100
AcDbVertex
100
AcDb2dVertex
 10
66.859313
 20
183.82306
 30
0.0
  0
VERTEX
  5
30D
100
AcDbEntity
  8
レイヤー_2
 62
     7
100
AcDbVertex
100
AcDb2dVertex
 10
67.161447
 20
183.870947
 30
0.0
  0
VERTEX
  5
30E
100
AcDbEntity
  8
レイヤー_2
 62
     7
100
AcDbVertex
100
AcDb2dVertex
 10
67.438089
 20
183.947428
 30
0.0
  0
VERTEX
  5
30F
100
AcDbEntity
  8
レイヤー_2
 62
     7
100
AcDbVertex
100
AcDb2dVertex
 10
67.677867
 20
184.050781
 30
0.0
  0
VERTEX
  5
310
100
AcDbEntity
  8
レイヤー_2
 62
     7
100
AcDbVertex
100
AcDb2dVertex
 10
67.871482
 20
184.175149
 30
0.0
  0
VERTEX
  5
311
100
AcDbEntity
  8
レイヤー_2
 62
     7
100
AcDbVertex
100
AcDb2dVertex
 10
68.010319
 20
184.317776
 30
0.0
  0
VERTEX
  5
312
100
AcDbEntity
  8
レイヤー_2
 62
     7
100
AcDbVertex
100
AcDb2dVertex
 10
68.089556
 20
184.470394
 30
0.0
  0
VERTEX
  5
313
100
AcDbEntity
  8
レイヤー_2
 62
     7
100
AcDbVertex
100
AcDb2dVertex
 10
68.105404
 20
184.628179
 30
0.0
  0
VERTEX
  5
314
100
AcDbEntity
  8
レイヤー_2
 62
     7
100
AcDbVertex
100
AcDb2dVertex
 10
68.057861
 20
184.784931
 30
0.0
  0
VERTEX
  5
315
100
AcDbEntity
  8
レイヤー_2
 62
     7
100
AcDbVertex
100
AcDb2dVertex
 10
67.947618
 20
184.932381
 30
0.0
  0
VERTEX
  5
316
100
AcDbEntity
  8
レイヤー_2
 62
     7
100
AcDbVertex
100
AcDb2dVertex
 10
67.780876
 20
185.06674
 30
0.0
  0
VERTEX
  5
317
100
AcDbEntity
  8
レイヤー_2
 62
     7
100
AcDbVertex
100
AcDb2dVertex
 10
67.562457
 20
185.181806
 30
0.0
  0
VERTEX
  5
318
100
AcDbEntity
  8
レイヤー_2
 62
     7
100
AcDbVertex
100
AcDb2dVertex
 10
67.30373
 20
185.271723
 30
0.0
  0
VERTEX
  5
319
100
AcDbEntity
  8
レイヤー_2
 62
     7
100
AcDbVertex
100
AcDb2dVertex
 10
67.012619
 20
185.334768
 30
0.0
  0
VERTEX
  5
31A
100
AcDbEntity
  8
レイヤー_2
 62
     7
100
AcDbVertex
100
AcDb2dVertex
 10
66.702905
 20
185.365774
 30
0.0
  0
VERTEX
  5
31B
100
AcDbEntity
  8
レイヤー_2
 62
     7
100
AcDbVertex
100
AcDb2dVertex
 10
66.38699
 20
185.365774
 30
0.0
  0
VERTEX
  5
31C
100
AcDbEntity
  8
レイヤー_2
 62
     7
100
AcDbVertex
100
AcDb2dVertex
 10
66.077276
 20
185.334768
 30
0.0
  0
VERTEX
  5
31D
100
AcDbEntity
  8
レイヤー_2
 62
     7
100
AcDbVertex
100
AcDb2dVertex
 10
65.78651
 20
185.271723
 30
0.0
  0
VERTEX
  5
31E
100
AcDbEntity
  8
レイヤー_2
 62
     7
100
AcDbVertex
100
AcDb2dVertex
 10
65.527439
 20
185.181806
 30
0.0
  0
VERTEX
  5
31F
100
AcDbEntity
  8
レイヤー_2
 62
     7
100
AcDbVertex
100
AcDb2dVertex
 10
65.309709
 20
185.06674
 30
0.0
  0
VERTEX
  5
320
100
AcDbEntity
  8
レイヤー_2
 62
     7
100
AcDbVertex
100
AcDb2dVertex
 10
65.142277
 20
184.932381
 30
0.0
  0
VERTEX
  5
321
100
AcDbEntity
  8
レイヤー_2
 62
     7
100
AcDbVertex
100
AcDb2dVertex
 10
65.032723
 20
184.784931
 30
0.0
  0
VERTEX
  5
322
100
AcDbEntity
  8
レイヤー_2
 62
     7
100
AcDbVertex
100
AcDb2dVertex
 10
64.984492
 20
184.628179
 30
0.0
  0
VERTEX
  5
323
100
AcDbEntity
  8
レイヤー_2
 62
     7
100
AcDbVertex
100
AcDb2dVertex
 10
65.000684
 20
184.470394
 30
0.0
  0
VERTEX
  5
324
100
AcDbEntity
  8
レイヤー_2
 62
     7
100
AcDbVertex
100
AcDb2dVertex
 10
65.079921
 20
184.317776
 30
0.0
  0
VERTEX
  5
325
100
AcDbEntity
  8
レイヤー_2
 62
     7
100
AcDbVertex
100
AcDb2dVertex
 10
65.219103
 20
184.175149
 30
0.0
  0
VERTEX
  5
326
100
AcDbEntity
  8
レイヤー_2
 62
     7
100
AcDbVertex
100
AcDb2dVertex
 10
65.412373
 20
184.050781
 30
0.0
  0
VERTEX
  5
327
100
AcDbEntity
  8
レイヤー_2
 62
     7
100
AcDbVertex
100
AcDb2dVertex
 10
65.652496
 20
183.947428
 30
0.0
  0
VERTEX
  5
328
100
AcDbEntity
  8
レイヤー_2
 62
     7
100
AcDbVertex
100
AcDb2dVertex
 10
65.929137
 20
183.870947
 30
0.0
  0
VERTEX
  5
329
100
AcDbEntity
  8
レイヤー_2
 62
     7
100
AcDbVertex
100
AcDb2dVertex
 10
66.230927
 20
183.82306
 30
0.0
  0
VERTEX
  5
32A
100
AcDbEntity
  8
レイヤー_2
 62
     7
100
AcDbVertex
100
AcDb2dVertex
 10
66.544775
 20
183.807213
 30
0.0
  0
SEQEND
  5
32B
100
AcDbEntity
  8
レイヤー_2
 62
     7
  0
LINE
  5
309
100
AcDbEntity
  8
レイヤー_2
 62
     7
100
AcDbLine
 10
65.81476
 20
185.278269
 30
0.0
 11
65.81476
 21
185.261732
 31
0.0
  0
LINE
  5
308
100
AcDbEntity
  8
レイヤー_2
 62
     7
100
AcDbLine
 10
67.27548
 20
185.261732
 30
0.0
 11
67.27548
 21
185.278269
 31
0.0
  0
POLYLINE
  5
303
100
AcDbEntity
  8
レイヤー_2
 62
     7
100
AcDb2dPolyline
 66
     1
 10
0.0
 20
0.0
 30
0.0
  0
VERTEX
  5
304
100
AcDbEntity
  8
レイヤー_2
 62
     7
100
AcDbVertex
100
AcDb2dVertex
 10
64.987592
 20
184.591317
 30
0.0
  0
VERTEX
  5
305
100
AcDbEntity
  8
レイヤー_2
 62
     7
100
AcDbVertex
100
AcDb2dVertex
 10
64.985525
 20
184.607164
 30
0.0
  0
VERTEX
  5
306
100
AcDbEntity
  8
レイヤー_2
 62
     7
100
AcDbVertex
100
AcDb2dVertex
 10
64.983803
 20
184.620945
 30
0.0
  0
SEQEND
  5
307
100
AcDbEntity
  8
レイヤー_2
 62
     7
  0
POLYLINE
  5
2F8
100
AcDbEntity
  8
レイヤー_2
 62
     7
100
AcDb2dPolyline
 66
     1
 10
0.0
 20
0.0
 30
0.0
  0
VERTEX
  5
2F9
100
AcDbEntity
  8
レイヤー_2
 62
     7
100
AcDbVertex
100
AcDb2dVertex
 10
65.003095
 20
184.528616
 30
0.0
  0
VERTEX
  5
2FA
100
AcDbEntity
  8
レイヤー_2
 62
     7
100
AcDbVertex
100
AcDb2dVertex
 10
65.000339
 20
184.536195
 30
0.0
  0
VERTEX
  5
2FB
100
AcDbEntity
  8
レイヤー_2
 62
     7
100
AcDbVertex
100
AcDb2dVertex
 10
64.998272
 20
184.544463
 30
0.0
  0
VERTEX
  5
2FC
100
AcDbEntity
  8
レイヤー_2
 62
     7
100
AcDbVertex
100
AcDb2dVertex
 10
64.996205
 20
184.552387
 30
0.0
  0
VERTEX
  5
2FD
100
AcDbEntity
  8
レイヤー_2
 62
     7
100
AcDbVertex
100
AcDb2dVertex
 10
64.994138
 20
184.559966
 30
0.0
  0
VERTEX
  5
2FE
100
AcDbEntity
  8
レイヤー_2
 62
     7
100
AcDbVertex
100
AcDb2dVertex
 10
64.992415
 20
184.56789
 30
0.0
  0
VERTEX
  5
2FF
100
AcDbEntity
  8
レイヤー_2
 62
     7
100
AcDbVertex
100
AcDb2dVertex
 10
64.990348
 20
184.575814
 30
0.0
  0
VERTEX
  5
300
100
AcDbEntity
  8
レイヤー_2
 62
     7
100
AcDbVertex
100
AcDb2dVertex
 10
64.988626
 20
184.583393
 30
0.0
  0
VERTEX
  5
301
100
AcDbEntity
  8
レイヤー_2
 62
     7
100
AcDbVertex
100
AcDb2dVertex
 10
64.987592
 20
184.591317
 30
0.0
  0
SEQEND
  5
302
100
AcDbEntity
  8
レイヤー_2
 62
     7
  0
POLYLINE
  5
2ED
100
AcDbEntity
  8
レイヤー_2
 62
     7
100
AcDb2dPolyline
 66
     1
 10
0.0
 20
0.0
 30
0.0
  0
VERTEX
  5
2EE
100
AcDbEntity
  8
レイヤー_2
 62
     7
100
AcDbVertex
100
AcDb2dVertex
 10
65.064418
 20
184.403215
 30
0.0
  0
VERTEX
  5
2EF
100
AcDbEntity
  8
レイヤー_2
 62
     7
100
AcDbVertex
100
AcDb2dVertex
 10
65.055116
 20
184.419406
 30
0.0
  0
VERTEX
  5
2F0
100
AcDbEntity
  8
レイヤー_2
 62
     7
100
AcDbVertex
100
AcDb2dVertex
 10
65.045125
 20
184.434565
 30
0.0
  0
VERTEX
  5
2F1
100
AcDbEntity
  8
レイヤー_2
 62
     7
100
AcDbVertex
100
AcDb2dVertex
 10
65.036513
 20
184.450068
 30
0.0
  0
VERTEX
  5
2F2
100
AcDbEntity
  8
レイヤー_2
 62
     7
100
AcDbVertex
100
AcDb2dVertex
 10
65.028244
 20
184.465226
 30
0.0
  0
VERTEX
  5
2F3
100
AcDbEntity
  8
レイヤー_2
 62
     7
100
AcDbVertex
100
AcDb2dVertex
 10
65.02101
 20
184.481418
 30
0.0
  0
VERTEX
  5
2F4
100
AcDbEntity
  8
レイヤー_2
 62
     7
100
AcDbVertex
100
AcDb2dVertex
 10
65.014119
 20
184.497266
 30
0.0
  0
VERTEX
  5
2F5
100
AcDbEntity
  8
レイヤー_2
 62
     7
100
AcDbVertex
100
AcDb2dVertex
 10
65.008607
 20
184.512769
 30
0.0
  0
VERTEX
  5
2F6
100
AcDbEntity
  8
レイヤー_2
 62
     7
100
AcDbVertex
100
AcDb2dVertex
 10
65.003095
 20
184.528616
 30
0.0
  0
SEQEND
  5
2F7
100
AcDbEntity
  8
レイヤー_2
 62
     7
  0
POLYLINE
  5
2E2
100
AcDbEntity
  8
レイヤー_2
 62
     7
100
AcDb2dPolyline
 66
     1
 10
0.0
 20
0.0
 30
0.0
  0
VERTEX
  5
2E3
100
AcDbEntity
  8
レイヤー_2
 62
     7
100
AcDbVertex
100
AcDb2dVertex
 10
66.044892
 20
183.914011
 30
0.0
  0
VERTEX
  5
2E4
100
AcDbEntity
  8
レイヤー_2
 62
     7
100
AcDbVertex
100
AcDb2dVertex
 10
65.878838
 20
183.947084
 30
0.0
  0
VERTEX
  5
2E5
100
AcDbEntity
  8
レイヤー_2
 62
     7
100
AcDbVertex
100
AcDb2dVertex
 10
65.721053
 20
183.989803
 30
0.0
  0
VERTEX
  5
2E6
100
AcDbEntity
  8
レイヤー_2
 62
     7
100
AcDbVertex
100
AcDb2dVertex
 10
65.574292
 20
184.041824
 30
0.0
  0
VERTEX
  5
2E7
100
AcDbEntity
  8
レイヤー_2
 62
     7
100
AcDbVertex
100
AcDb2dVertex
 10
65.439933
 20
184.101424
 30
0.0
  0
VERTEX
  5
2E8
100
AcDbEntity
  8
レイヤー_2
 62
     7
100
AcDbVertex
100
AcDb2dVertex
 10
65.320733
 20
184.168259
 30
0.0
  0
VERTEX
  5
2E9
100
AcDbEntity
  8
レイヤー_2
 62
     7
100
AcDbVertex
100
AcDb2dVertex
 10
65.217036
 20
184.24164
 30
0.0
  0
VERTEX
  5
2EA
100
AcDbEntity
  8
レイヤー_2
 62
     7
100
AcDbVertex
100
AcDb2dVertex
 10
65.131597
 20
184.319843
 30
0.0
  0
VERTEX
  5
2EB
100
AcDbEntity
  8
レイヤー_2
 62
     7
100
AcDbVertex
100
AcDb2dVertex
 10
65.064418
 20
184.403215
 30
0.0
  0
SEQEND
  5
2EC
100
AcDbEntity
  8
レイヤー_2
 62
     7
  0
POLYLINE
  5
2D7
100
AcDbEntity
  8
レイヤー_2
 62
     7
100
AcDb2dPolyline
 66
     1
 10
0.0
 20
0.0
 30
0.0
  0
VERTEX
  5
2D8
100
AcDbEntity
  8
レイヤー_2
 62
     7
100
AcDbVertex
100
AcDb2dVertex
 10
66.295006
 20
183.882661
 30
0.0
  0
VERTEX
  5
2D9
100
AcDbEntity
  8
レイヤー_2
 62
     7
100
AcDbVertex
100
AcDb2dVertex
 10
66.263311
 20
183.885072
 30
0.0
  0
VERTEX
  5
2DA
100
AcDbEntity
  8
レイヤー_2
 62
     7
100
AcDbVertex
100
AcDb2dVertex
 10
66.231616
 20
183.888173
 30
0.0
  0
VERTEX
  5
2DB
100
AcDbEntity
  8
レイヤー_2
 62
     7
100
AcDbVertex
100
AcDb2dVertex
 10
66.200266
 20
183.891962
 30
0.0
  0
VERTEX
  5
2DC
100
AcDbEntity
  8
レイヤー_2
 62
     7
100
AcDbVertex
100
AcDb2dVertex
 10
66.168915
 20
183.895407
 30
0.0
  0
VERTEX
  5
2DD
100
AcDbEntity
  8
レイヤー_2
 62
     7
100
AcDbVertex
100
AcDb2dVertex
 10
66.137221
 20
183.899542
 30
0.0
  0
VERTEX
  5
2DE
100
AcDbEntity
  8
レイヤー_2
 62
     7
100
AcDbVertex
100
AcDb2dVertex
 10
66.106559
 20
183.903676
 30
0.0
  0
VERTEX
  5
2DF
100
AcDbEntity
  8
レイヤー_2
 62
     7
100
AcDbVertex
100
AcDb2dVertex
 10
66.076242
 20
183.908843
 30
0.0
  0
VERTEX
  5
2E0
100
AcDbEntity
  8
レイヤー_2
 62
     7
100
AcDbVertex
100
AcDb2dVertex
 10
66.044892
 20
183.914011
 30
0.0
  0
SEQEND
  5
2E1
100
AcDbEntity
  8
レイヤー_2
 62
     7
  0
POLYLINE
  5
2CC
100
AcDbEntity
  8
レイヤー_2
 62
     7
100
AcDb2dPolyline
 66
     1
 10
0.0
 20
0.0
 30
0.0
  0
VERTEX
  5
2CD
100
AcDbEntity
  8
レイヤー_2
 62
     7
100
AcDbVertex
100
AcDb2dVertex
 10
66.420407
 20
183.875081
 30
0.0
  0
VERTEX
  5
2CE
100
AcDbEntity
  8
レイヤー_2
 62
     7
100
AcDbVertex
100
AcDb2dVertex
 10
66.404215
 20
183.875426
 30
0.0
  0
VERTEX
  5
2CF
100
AcDbEntity
  8
レイヤー_2
 62
     7
100
AcDbVertex
100
AcDb2dVertex
 10
66.389057
 20
183.87577
 30
0.0
  0
VERTEX
  5
2D0
100
AcDbEntity
  8
レイヤー_2
 62
     7
100
AcDbVertex
100
AcDb2dVertex
 10
66.37321
 20
183.877493
 30
0.0
  0
VERTEX
  5
2D1
100
AcDbEntity
  8
レイヤー_2
 62
     7
100
AcDbVertex
100
AcDb2dVertex
 10
66.357707
 20
183.878182
 30
0.0
  0
VERTEX
  5
2D2
100
AcDbEntity
  8
レイヤー_2
 62
     7
100
AcDbVertex
100
AcDb2dVertex
 10
66.341859
 20
183.879215
 30
0.0
  0
VERTEX
  5
2D3
100
AcDbEntity
  8
レイヤー_2
 62
     7
100
AcDbVertex
100
AcDb2dVertex
 10
66.326356
 20
183.880249
 30
0.0
  0
VERTEX
  5
2D4
100
AcDbEntity
  8
レイヤー_2
 62
     7
100
AcDbVertex
100
AcDb2dVertex
 10
66.311198
 20
183.880938
 30
0.0
  0
VERTEX
  5
2D5
100
AcDbEntity
  8
レイヤー_2
 62
     7
100
AcDbVertex
100
AcDb2dVertex
 10
66.295006
 20
183.882661
 30
0.0
  0
SEQEND
  5
2D6
100
AcDbEntity
  8
レイヤー_2
 62
     7
  0
POLYLINE
  5
2C2
100
AcDbEntity
  8
レイヤー_2
 62
     7
100
AcDb2dPolyline
 66
     1
 10
0.0
 20
0.0
 30
0.0
  0
VERTEX
  5
2C3
100
AcDbEntity
  8
レイヤー_2
 62
     7
100
AcDbVertex
100
AcDb2dVertex
 10
66.670521
 20
183.875081
 30
0.0
  0
VERTEX
  5
2C4
100
AcDbEntity
  8
レイヤー_2
 62
     7
100
AcDbVertex
100
AcDb2dVertex
 10
66.638826
 20
183.874048
 30
0.0
  0
VERTEX
  5
2C5
100
AcDbEntity
  8
レイヤー_2
 62
     7
100
AcDbVertex
100
AcDb2dVertex
 10
66.607476
 20
183.873359
 30
0.0
  0
VERTEX
  5
2C6
100
AcDbEntity
  8
レイヤー_2
 62
     7
100
AcDbVertex
100
AcDb2dVertex
 10
66.576126
 20
183.87267
 30
0.0
  0
VERTEX
  5
2C7
100
AcDbEntity
  8
レイヤー_2
 62
     7
100
AcDbVertex
100
AcDb2dVertex
 10
66.514114
 20
183.87267
 30
0.0
  0
VERTEX
  5
2C8
100
AcDbEntity
  8
レイヤー_2
 62
     7
100
AcDbVertex
100
AcDb2dVertex
 10
66.482419
 20
183.873359
 30
0.0
  0
VERTEX
  5
2C9
100
AcDbEntity
  8
レイヤー_2
 62
     7
100
AcDbVertex
100
AcDb2dVertex
 10
66.451069
 20
183.874048
 30
0.0
  0
VERTEX
  5
2CA
100
AcDbEntity
  8
レイヤー_2
 62
     7
100
AcDbVertex
100
AcDb2dVertex
 10
66.420407
 20
183.875081
 30
0.0
  0
SEQEND
  5
2CB
100
AcDbEntity
  8
レイヤー_2
 62
     7
  0
POLYLINE
  5
2B7
100
AcDbEntity
  8
レイヤー_2
 62
     7
100
AcDb2dPolyline
 66
     1
 10
0.0
 20
0.0
 30
0.0
  0
VERTEX
  5
2B8
100
AcDbEntity
  8
レイヤー_2
 62
     7
100
AcDbVertex
100
AcDb2dVertex
 10
66.794889
 20
183.882661
 30
0.0
  0
VERTEX
  5
2B9
100
AcDbEntity
  8
レイヤー_2
 62
     7
100
AcDbVertex
100
AcDb2dVertex
 10
66.779386
 20
183.880938
 30
0.0
  0
VERTEX
  5
2BA
100
AcDbEntity
  8
レイヤー_2
 62
     7
100
AcDbVertex
100
AcDb2dVertex
 10
66.763883
 20
183.880249
 30
0.0
  0
VERTEX
  5
2BB
100
AcDbEntity
  8
レイヤー_2
 62
     7
100
AcDbVertex
100
AcDb2dVertex
 10
66.748381
 20
183.879215
 30
0.0
  0
VERTEX
  5
2BC
100
AcDbEntity
  8
レイヤー_2
 62
     7
100
AcDbVertex
100
AcDb2dVertex
 10
66.732533
 20
183.878182
 30
0.0
  0
VERTEX
  5
2BD
100
AcDbEntity
  8
レイヤー_2
 62
     7
100
AcDbVertex
100
AcDb2dVertex
 10
66.71703
 20
183.877493
 30
0.0
  0
VERTEX
  5
2BE
100
AcDbEntity
  8
レイヤー_2
 62
     7
100
AcDbVertex
100
AcDb2dVertex
 10
66.701872
 20
183.87577
 30
0.0
  0
VERTEX
  5
2BF
100
AcDbEntity
  8
レイヤー_2
 62
     7
100
AcDbVertex
100
AcDb2dVertex
 10
66.68568
 20
183.875426
 30
0.0
  0
VERTEX
  5
2C0
100
AcDbEntity
  8
レイヤー_2
 62
     7
100
AcDbVertex
100
AcDb2dVertex
 10
66.670521
 20
183.875081
 30
0.0
  0
SEQEND
  5
2C1
100
AcDbEntity
  8
レイヤー_2
 62
     7
  0
POLYLINE
  5
2AC
100
AcDbEntity
  8
レイヤー_2
 62
     7
100
AcDb2dPolyline
 66
     1
 10
0.0
 20
0.0
 30
0.0
  0
VERTEX
  5
2AD
100
AcDbEntity
  8
レイヤー_2
 62
     7
100
AcDbVertex
100
AcDb2dVertex
 10
67.045692
 20
183.914011
 30
0.0
  0
VERTEX
  5
2AE
100
AcDbEntity
  8
レイヤー_2
 62
     7
100
AcDbVertex
100
AcDb2dVertex
 10
67.014686
 20
183.908843
 30
0.0
  0
VERTEX
  5
2AF
100
AcDbEntity
  8
レイヤー_2
 62
     7
100
AcDbVertex
100
AcDb2dVertex
 10
66.983336
 20
183.903676
 30
0.0
  0
VERTEX
  5
2B0
100
AcDbEntity
  8
レイヤー_2
 62
     7
100
AcDbVertex
100
AcDb2dVertex
 10
66.951986
 20
183.899542
 30
0.0
  0
VERTEX
  5
2B1
100
AcDbEntity
  8
レイヤー_2
 62
     7
100
AcDbVertex
100
AcDb2dVertex
 10
66.921324
 20
183.895407
 30
0.0
  0
VERTEX
  5
2B2
100
AcDbEntity
  8
レイヤー_2
 62
     7
100
AcDbVertex
100
AcDb2dVertex
 10
66.890318
 20
183.891962
 30
0.0
  0
VERTEX
  5
2B3
100
AcDbEntity
  8
レイヤー_2
 62
     7
100
AcDbVertex
100
AcDb2dVertex
 10
66.858968
 20
183.888173
 30
0.0
  0
VERTEX
  5
2B4
100
AcDbEntity
  8
レイヤー_2
 62
     7
100
AcDbVertex
100
AcDb2dVertex
 10
66.826929
 20
183.885072
 30
0.0
  0
VERTEX
  5
2B5
100
AcDbEntity
  8
レイヤー_2
 62
     7
100
AcDbVertex
100
AcDb2dVertex
 10
66.794889
 20
183.882661
 30
0.0
  0
SEQEND
  5
2B6
100
AcDbEntity
  8
レイヤー_2
 62
     7
  0
POLYLINE
  5
2A1
100
AcDbEntity
  8
レイヤー_2
 62
     7
100
AcDb2dPolyline
 66
     1
 10
0.0
 20
0.0
 30
0.0
  0
VERTEX
  5
2A2
100
AcDbEntity
  8
レイヤー_2
 62
     7
100
AcDbVertex
100
AcDb2dVertex
 10
68.025477
 20
184.403215
 30
0.0
  0
VERTEX
  5
2A3
100
AcDbEntity
  8
レイヤー_2
 62
     7
100
AcDbVertex
100
AcDb2dVertex
 10
67.957954
 20
184.319843
 30
0.0
  0
VERTEX
  5
2A4
100
AcDbEntity
  8
レイヤー_2
 62
     7
100
AcDbVertex
100
AcDb2dVertex
 10
67.87286
 20
184.24164
 30
0.0
  0
VERTEX
  5
2A5
100
AcDbEntity
  8
レイヤー_2
 62
     7
100
AcDbVertex
100
AcDb2dVertex
 10
67.769507
 20
184.168259
 30
0.0
  0
VERTEX
  5
2A6
100
AcDbEntity
  8
レイヤー_2
 62
     7
100
AcDbVertex
100
AcDb2dVertex
 10
67.649962
 20
184.101424
 30
0.0
  0
VERTEX
  5
2A7
100
AcDbEntity
  8
レイヤー_2
 62
     7
100
AcDbVertex
100
AcDb2dVertex
 10
67.515948
 20
184.041824
 30
0.0
  0
VERTEX
  5
2A8
100
AcDbEntity
  8
レイヤー_2
 62
     7
100
AcDbVertex
100
AcDb2dVertex
 10
67.369531
 20
183.989803
 30
0.0
  0
VERTEX
  5
2A9
100
AcDbEntity
  8
レイヤー_2
 62
     7
100
AcDbVertex
100
AcDb2dVertex
 10
67.211401
 20
183.947084
 30
0.0
  0
VERTEX
  5
2AA
100
AcDbEntity
  8
レイヤー_2
 62
     7
100
AcDbVertex
100
AcDb2dVertex
 10
67.045692
 20
183.914011
 30
0.0
  0
SEQEND
  5
2AB
100
AcDbEntity
  8
レイヤー_2
 62
     7
  0
POLYLINE
  5
296
100
AcDbEntity
  8
レイヤー_2
 62
     7
100
AcDb2dPolyline
 66
     1
 10
0.0
 20
0.0
 30
0.0
  0
VERTEX
  5
297
100
AcDbEntity
  8
レイヤー_2
 62
     7
100
AcDbVertex
100
AcDb2dVertex
 10
68.087489
 20
184.528616
 30
0.0
  0
VERTEX
  5
298
100
AcDbEntity
  8
レイヤー_2
 62
     7
100
AcDbVertex
100
AcDb2dVertex
 10
68.081977
 20
184.512769
 30
0.0
  0
VERTEX
  5
299
100
AcDbEntity
  8
レイヤー_2
 62
     7
100
AcDbVertex
100
AcDb2dVertex
 10
68.075431
 20
184.497266
 30
0.0
  0
VERTEX
  5
29A
100
AcDbEntity
  8
レイヤー_2
 62
     7
100
AcDbVertex
100
AcDb2dVertex
 10
68.068886
 20
184.481418
 30
0.0
  0
VERTEX
  5
29B
100
AcDbEntity
  8
レイヤー_2
 62
     7
100
AcDbVertex
100
AcDb2dVertex
 10
68.061995
 20
184.465226
 30
0.0
  0
VERTEX
  5
29C
100
AcDbEntity
  8
レイヤー_2
 62
     7
100
AcDbVertex
100
AcDb2dVertex
 10
68.053383
 20
184.450068
 30
0.0
  0
VERTEX
  5
29D
100
AcDbEntity
  8
レイヤー_2
 62
     7
100
AcDbVertex
100
AcDb2dVertex
 10
68.044425
 20
184.434565
 30
0.0
  0
VERTEX
  5
29E
100
AcDbEntity
  8
レイヤー_2
 62
     7
100
AcDbVertex
100
AcDb2dVertex
 10
68.035124
 20
184.419406
 30
0.0
  0
VERTEX
  5
29F
100
AcDbEntity
  8
レイヤー_2
 62
     7
100
AcDbVertex
100
AcDb2dVertex
 10
68.025477
 20
184.403215
 30
0.0
  0
SEQEND
  5
2A0
100
AcDbEntity
  8
レイヤー_2
 62
     7
  0
POLYLINE
  5
28B
100
AcDbEntity
  8
レイヤー_2
 62
     7
100
AcDb2dPolyline
 66
     1
 10
0.0
 20
0.0
 30
0.0
  0
VERTEX
  5
28C
100
AcDbEntity
  8
レイヤー_2
 62
     7
100
AcDbVertex
100
AcDb2dVertex
 10
68.102303
 20
184.591317
 30
0.0
  0
VERTEX
  5
28D
100
AcDbEntity
  8
レイヤー_2
 62
     7
100
AcDbVertex
100
AcDb2dVertex
 10
68.100925
 20
184.583393
 30
0.0
  0
VERTEX
  5
28E
100
AcDbEntity
  8
レイヤー_2
 62
     7
100
AcDbVertex
100
AcDb2dVertex
 10
68.099547
 20
184.575814
 30
0.0
  0
VERTEX
  5
28F
100
AcDbEntity
  8
レイヤー_2
 62
     7
100
AcDbVertex
100
AcDb2dVertex
 10
68.097824
 20
184.56789
 30
0.0
  0
VERTEX
  5
290
100
AcDbEntity
  8
レイヤー_2
 62
     7
100
AcDbVertex
100
AcDb2dVertex
 10
68.095757
 20
184.559966
 30
0.0
  0
VERTEX
  5
291
100
AcDbEntity
  8
レイヤー_2
 62
     7
100
AcDbVertex
100
AcDb2dVertex
 10
68.094035
 20
184.552387
 30
0.0
  0
VERTEX
  5
292
100
AcDbEntity
  8
レイヤー_2
 62
     7
100
AcDbVertex
100
AcDb2dVertex
 10
68.091968
 20
184.544463
 30
0.0
  0
VERTEX
  5
293
100
AcDbEntity
  8
レイヤー_2
 62
     7
100
AcDbVertex
100
AcDb2dVertex
 10
68.089901
 20
184.536195
 30
0.0
  0
VERTEX
  5
294
100
AcDbEntity
  8
レイヤー_2
 62
     7
100
AcDbVertex
100
AcDb2dVertex
 10
68.087489
 20
184.528616
 30
0.0
  0
SEQEND
  5
295
100
AcDbEntity
  8
レイヤー_2
 62
     7
  0
POLYLINE
  5
286
100
AcDbEntity
  8
レイヤー_2
 62
     7
100
AcDb2dPolyline
 66
     1
 10
0.0
 20
0.0
 30
0.0
  0
VERTEX
  5
287
100
AcDbEntity
  8
レイヤー_2
 62
     7
100
AcDbVertex
100
AcDb2dVertex
 10
68.106437
 20
184.620945
 30
0.0
  0
VERTEX
  5
288
100
AcDbEntity
  8
レイヤー_2
 62
     7
100
AcDbVertex
100
AcDb2dVertex
 10
68.10437
 20
184.607164
 30
0.0
  0
VERTEX
  5
289
100
AcDbEntity
  8
レイヤー_2
 62
     7
100
AcDbVertex
100
AcDb2dVertex
 10
68.102303
 20
184.591317
 30
0.0
  0
SEQEND
  5
28A
100
AcDbEntity
  8
レイヤー_2
 62
     7
  0
LINE
  5
285
100
AcDbEntity
  8
レイヤー_2
 62
     7
100
AcDbLine
 10
66.670521
 20
185.34097
 30
0.0
 11
66.420407
 21
185.34097
 31
0.0
  0
LINE
  5
284
100
AcDbEntity
  8
レイヤー_2
 62
     7
100
AcDbLine
 10
66.965422
 20
185.34097
 30
0.0
 11
66.794889
 21
185.34097
 31
0.0
  0
LINE
  5
283
100
AcDbEntity
  8
レイヤー_2
 62
     7
100
AcDbLine
 10
67.919713
 20
184.903787
 30
0.0
 11
67.974835
 21
184.903787
 31
0.0
  0
LINE
  5
282
100
AcDbEntity
  8
レイヤー_2
 62
     7
100
AcDbLine
 10
67.919713
 20
184.77873
 30
0.0
 11
67.919713
 21
184.903787
 31
0.0
  0
LINE
  5
281
100
AcDbEntity
  8
レイヤー_2
 62
     7
100
AcDbLine
 10
68.060617
 20
184.77873
 30
0.0
 11
67.919713
 21
184.77873
 31
0.0
  0
LINE
  5
280
100
AcDbEntity
  8
レイヤー_2
 62
     7
100
AcDbLine
 10
67.919713
 20
184.716374
 30
0.0
 11
68.086456
 21
184.716374
 31
0.0
  0
LINE
  5
27F
100
AcDbEntity
  8
レイヤー_2
 62
     7
100
AcDbLine
 10
67.919713
 20
184.591317
 30
0.0
 11
67.919713
 21
184.716374
 31
0.0
  0
LINE
  5
27E
100
AcDbEntity
  8
レイヤー_2
 62
     7
100
AcDbLine
 10
68.102303
 20
184.591317
 30
0.0
 11
67.919713
 21
184.591317
 31
0.0
  0
LINE
  5
27D
100
AcDbEntity
  8
レイヤー_2
 62
     7
100
AcDbLine
 10
67.919713
 20
184.528616
 30
0.0
 11
68.087489
 21
184.528616
 31
0.0
  0
LINE
  5
27C
100
AcDbEntity
  8
レイヤー_2
 62
     7
100
AcDbLine
 10
67.919713
 20
184.403215
 30
0.0
 11
67.919713
 21
184.528616
 31
0.0
  0
LINE
  5
27B
100
AcDbEntity
  8
レイヤー_2
 62
     7
100
AcDbLine
 10
68.025477
 20
184.403215
 30
0.0
 11
67.919713
 21
184.403215
 31
0.0
  0
LINE
  5
27A
100
AcDbEntity
  8
レイヤー_2
 62
     7
100
AcDbLine
 10
67.045692
 20
183.966376
 30
0.0
 11
67.045692
 21
183.914011
 31
0.0
  0
LINE
  5
279
100
AcDbEntity
  8
レイヤー_2
 62
     7
100
AcDbLine
 10
66.794889
 20
183.966376
 30
0.0
 11
67.045692
 21
183.966376
 31
0.0
  0
LINE
  5
278
100
AcDbEntity
  8
レイヤー_2
 62
     7
100
AcDbLine
 10
66.794889
 20
183.882661
 30
0.0
 11
66.794889
 21
183.966376
 31
0.0
  0
LINE
  5
277
100
AcDbEntity
  8
レイヤー_2
 62
     7
100
AcDbLine
 10
66.670521
 20
183.966376
 30
0.0
 11
66.670521
 21
183.875081
 31
0.0
  0
LINE
  5
276
100
AcDbEntity
  8
レイヤー_2
 62
     7
100
AcDbLine
 10
66.420407
 20
183.966376
 30
0.0
 11
66.670521
 21
183.966376
 31
0.0
  0
LINE
  5
275
100
AcDbEntity
  8
レイヤー_2
 62
     7
100
AcDbLine
 10
66.420407
 20
183.875081
 30
0.0
 11
66.420407
 21
183.966376
 31
0.0
  0
LINE
  5
274
100
AcDbEntity
  8
レイヤー_2
 62
     7
100
AcDbLine
 10
66.295006
 20
183.966376
 30
0.0
 11
66.295006
 21
183.882661
 31
0.0
  0
LINE
  5
273
100
AcDbEntity
  8
レイヤー_2
 62
     7
100
AcDbLine
 10
66.044892
 20
183.966376
 30
0.0
 11
66.295006
 21
183.966376
 31
0.0
  0
LINE
  5
272
100
AcDbEntity
  8
レイヤー_2
 62
     7
100
AcDbLine
 10
66.044892
 20
183.914011
 30
0.0
 11
66.044892
 21
183.966376
 31
0.0
  0
LINE
  5
271
100
AcDbEntity
  8
レイヤー_2
 62
     7
100
AcDbLine
 10
65.170182
 20
184.403215
 30
0.0
 11
65.064418
 21
184.403215
 31
0.0
  0
LINE
  5
270
100
AcDbEntity
  8
レイヤー_2
 62
     7
100
AcDbLine
 10
65.170182
 20
184.528616
 30
0.0
 11
65.170182
 21
184.403215
 31
0.0
  0
LINE
  5
26F
100
AcDbEntity
  8
レイヤー_2
 62
     7
100
AcDbLine
 10
65.003095
 20
184.528616
 30
0.0
 11
65.170182
 21
184.528616
 31
0.0
  0
LINE
  5
26E
100
AcDbEntity
  8
レイヤー_2
 62
     7
100
AcDbLine
 10
65.170182
 20
184.591317
 30
0.0
 11
64.987592
 21
184.591317
 31
0.0
  0
LINE
  5
26D
100
AcDbEntity
  8
レイヤー_2
 62
     7
100
AcDbLine
 10
65.170182
 20
184.716374
 30
0.0
 11
65.170182
 21
184.591317
 31
0.0
  0
LINE
  5
26C
100
AcDbEntity
  8
レイヤー_2
 62
     7
100
AcDbLine
 10
65.00344
 20
184.716374
 30
0.0
 11
65.170182
 21
184.716374
 31
0.0
  0
LINE
  5
26B
100
AcDbEntity
  8
レイヤー_2
 62
     7
100
AcDbLine
 10
65.170182
 20
184.77873
 30
0.0
 11
65.029622
 21
184.77873
 31
0.0
  0
LINE
  5
26A
100
AcDbEntity
  8
レイヤー_2
 62
     7
100
AcDbLine
 10
65.170182
 20
184.903787
 30
0.0
 11
65.170182
 21
184.77873
 31
0.0
  0
LINE
  5
269
100
AcDbEntity
  8
レイヤー_2
 62
     7
100
AcDbLine
 10
65.115061
 20
184.903787
 30
0.0
 11
65.170182
 21
184.903787
 31
0.0
  0
LINE
  5
268
100
AcDbEntity
  8
レイヤー_2
 62
     7
100
AcDbLine
 10
66.295006
 20
185.34097
 30
0.0
 11
66.124818
 21
185.34097
 31
0.0
  0
LINE
  5
267
100
AcDbEntity
  8
レイヤー_2
 62
     7
100
AcDbLine
 10
67.17006
 20
184.528616
 30
0.0
 11
67.420174
 21
184.528616
 31
0.0
  0
LINE
  5
266
100
AcDbEntity
  8
レイヤー_2
 62
     7
100
AcDbLine
 10
67.17006
 20
184.403215
 30
0.0
 11
67.17006
 21
184.528616
 31
0.0
  0
LINE
  5
265
100
AcDbEntity
  8
レイヤー_2
 62
     7
100
AcDbLine
 10
67.420174
 20
184.403215
 30
0.0
 11
67.17006
 21
184.403215
 31
0.0
  0
LINE
  5
264
100
AcDbEntity
  8
レイヤー_2
 62
     7
100
AcDbLine
 10
67.420174
 20
184.528616
 30
0.0
 11
67.420174
 21
184.403215
 31
0.0
  0
LINE
  5
263
100
AcDbEntity
  8
レイヤー_2
 62
     7
100
AcDbLine
 10
67.17006
 20
184.341203
 30
0.0
 11
67.420174
 21
184.341203
 31
0.0
  0
LINE
  5
262
100
AcDbEntity
  8
レイヤー_2
 62
     7
100
AcDbLine
 10
67.17006
 20
184.216146
 30
0.0
 11
67.17006
 21
184.341203
 31
0.0
  0
LINE
  5
261
100
AcDbEntity
  8
レイヤー_2
 62
     7
100
AcDbLine
 10
67.420174
 20
184.216146
 30
0.0
 11
67.17006
 21
184.216146
 31
0.0
  0
LINE
  5
260
100
AcDbEntity
  8
レイヤー_2
 62
     7
100
AcDbLine
 10
67.420174
 20
184.341203
 30
0.0
 11
67.420174
 21
184.216146
 31
0.0
  0
LINE
  5
25F
100
AcDbEntity
  8
レイヤー_2
 62
     7
100
AcDbLine
 10
66.794889
 20
184.153101
 30
0.0
 11
67.045692
 21
184.153101
 31
0.0
  0
LINE
  5
25E
100
AcDbEntity
  8
レイヤー_2
 62
     7
100
AcDbLine
 10
66.794889
 20
184.028388
 30
0.0
 11
66.794889
 21
184.153101
 31
0.0
  0
LINE
  5
25D
100
AcDbEntity
  8
レイヤー_2
 62
     7
100
AcDbLine
 10
67.045692
 20
184.028388
 30
0.0
 11
66.794889
 21
184.028388
 31
0.0
  0
LINE
  5
25C
100
AcDbEntity
  8
レイヤー_2
 62
     7
100
AcDbLine
 10
67.045692
 20
184.153101
 30
0.0
 11
67.045692
 21
184.028388
 31
0.0
  0
LINE
  5
25B
100
AcDbEntity
  8
レイヤー_2
 62
     7
100
AcDbLine
 10
66.794889
 20
185.278269
 30
0.0
 11
67.045692
 21
185.278269
 31
0.0
  0
LINE
  5
25A
100
AcDbEntity
  8
レイヤー_2
 62
     7
100
AcDbLine
 10
66.794889
 20
185.153901
 30
0.0
 11
66.794889
 21
185.278269
 31
0.0
  0
LINE
  5
259
100
AcDbEntity
  8
レイヤー_2
 62
     7
100
AcDbLine
 10
67.045692
 20
185.153901
 30
0.0
 11
66.794889
 21
185.153901
 31
0.0
  0
LINE
  5
258
100
AcDbEntity
  8
レイヤー_2
 62
     7
100
AcDbLine
 10
67.045692
 20
185.278269
 30
0.0
 11
67.045692
 21
185.153901
 31
0.0
  0
LINE
  5
257
100
AcDbEntity
  8
レイヤー_2
 62
     7
100
AcDbLine
 10
66.794889
 20
185.0912
 30
0.0
 11
67.045692
 21
185.0912
 31
0.0
  0
LINE
  5
256
100
AcDbEntity
  8
レイヤー_2
 62
     7
100
AcDbLine
 10
66.794889
 20
184.966488
 30
0.0
 11
66.794889
 21
185.0912
 31
0.0
  0
LINE
  5
255
100
AcDbEntity
  8
レイヤー_2
 62
     7
100
AcDbLine
 10
67.045692
 20
184.966488
 30
0.0
 11
66.794889
 21
184.966488
 31
0.0
  0
LINE
  5
254
100
AcDbEntity
  8
レイヤー_2
 62
     7
100
AcDbLine
 10
67.045692
 20
185.0912
 30
0.0
 11
67.045692
 21
184.966488
 31
0.0
  0
LINE
  5
253
100
AcDbEntity
  8
レイヤー_2
 62
     7
100
AcDbLine
 10
67.544887
 20
185.0912
 30
0.0
 11
67.741602
 21
185.0912
 31
0.0
  0
LINE
  5
252
100
AcDbEntity
  8
レイヤー_2
 62
     7
100
AcDbLine
 10
67.544887
 20
184.966488
 30
0.0
 11
67.544887
 21
185.0912
 31
0.0
  0
LINE
  5
251
100
AcDbEntity
  8
レイヤー_2
 62
     7
100
AcDbLine
 10
67.795345
 20
184.966488
 30
0.0
 11
67.544887
 21
184.966488
 31
0.0
  0
LINE
  5
250
100
AcDbEntity
  8
レイヤー_2
 62
     7
100
AcDbLine
 10
67.795345
 20
185.057094
 30
0.0
 11
67.795345
 21
184.966488
 31
0.0
  0
LINE
  5
24F
100
AcDbEntity
  8
レイヤー_2
 62
     7
100
AcDbLine
 10
67.17006
 20
184.903787
 30
0.0
 11
67.420174
 21
184.903787
 31
0.0
  0
LINE
  5
24E
100
AcDbEntity
  8
レイヤー_2
 62
     7
100
AcDbLine
 10
67.17006
 20
184.77873
 30
0.0
 11
67.17006
 21
184.903787
 31
0.0
  0
LINE
  5
24D
100
AcDbEntity
  8
レイヤー_2
 62
     7
100
AcDbLine
 10
67.420174
 20
184.77873
 30
0.0
 11
67.17006
 21
184.77873
 31
0.0
  0
LINE
  5
24C
100
AcDbEntity
  8
レイヤー_2
 62
     7
100
AcDbLine
 10
67.420174
 20
184.903787
 30
0.0
 11
67.420174
 21
184.77873
 31
0.0
  0
LINE
  5
24B
100
AcDbEntity
  8
レイヤー_2
 62
     7
100
AcDbLine
 10
67.17006
 20
184.716374
 30
0.0
 11
67.420174
 21
184.716374
 31
0.0
  0
LINE
  5
24A
100
AcDbEntity
  8
レイヤー_2
 62
     7
100
AcDbLine
 10
67.17006
 20
184.591317
 30
0.0
 11
67.17006
 21
184.716374
 31
0.0
  0
LINE
  5
249
100
AcDbEntity
  8
レイヤー_2
 62
     7
100
AcDbLine
 10
67.420174
 20
184.591317
 30
0.0
 11
67.17006
 21
184.591317
 31
0.0
  0
LINE
  5
248
100
AcDbEntity
  8
レイヤー_2
 62
     7
100
AcDbLine
 10
67.420174
 20
184.716374
 30
0.0
 11
67.420174
 21
184.591317
 31
0.0
  0
LINE
  5
247
100
AcDbEntity
  8
レイヤー_2
 62
     7
100
AcDbLine
 10
65.294895
 20
184.528616
 30
0.0
 11
65.545353
 21
184.528616
 31
0.0
  0
LINE
  5
246
100
AcDbEntity
  8
レイヤー_2
 62
     7
100
AcDbLine
 10
65.294895
 20
184.403215
 30
0.0
 11
65.294895
 21
184.528616
 31
0.0
  0
LINE
  5
245
100
AcDbEntity
  8
レイヤー_2
 62
     7
100
AcDbLine
 10
65.545353
 20
184.403215
 30
0.0
 11
65.294895
 21
184.403215
 31
0.0
  0
LINE
  5
244
100
AcDbEntity
  8
レイヤー_2
 62
     7
100
AcDbLine
 10
65.545353
 20
184.528616
 30
0.0
 11
65.545353
 21
184.403215
 31
0.0
  0
LINE
  5
243
100
AcDbEntity
  8
レイヤー_2
 62
     7
100
AcDbLine
 10
66.044892
 20
184.528616
 30
0.0
 11
66.295006
 21
184.528616
 31
0.0
  0
LINE
  5
242
100
AcDbEntity
  8
レイヤー_2
 62
     7
100
AcDbLine
 10
66.044892
 20
184.403215
 30
0.0
 11
66.044892
 21
184.528616
 31
0.0
  0
LINE
  5
241
100
AcDbEntity
  8
レイヤー_2
 62
     7
100
AcDbLine
 10
66.295006
 20
184.403215
 30
0.0
 11
66.044892
 21
184.403215
 31
0.0
  0
LINE
  5
240
100
AcDbEntity
  8
レイヤー_2
 62
     7
100
AcDbLine
 10
66.295006
 20
184.528616
 30
0.0
 11
66.295006
 21
184.403215
 31
0.0
  0
LINE
  5
23F
100
AcDbEntity
  8
レイヤー_2
 62
     7
100
AcDbLine
 10
65.294895
 20
184.341203
 30
0.0
 11
65.545353
 21
184.341203
 31
0.0
  0
LINE
  5
23E
100
AcDbEntity
  8
レイヤー_2
 62
     7
100
AcDbLine
 10
65.294895
 20
184.216146
 30
0.0
 11
65.294895
 21
184.341203
 31
0.0
  0
LINE
  5
23D
100
AcDbEntity
  8
レイヤー_2
 62
     7
100
AcDbLine
 10
65.545353
 20
184.216146
 30
0.0
 11
65.294895
 21
184.216146
 31
0.0
  0
LINE
  5
23C
100
AcDbEntity
  8
レイヤー_2
 62
     7
100
AcDbLine
 10
65.545353
 20
184.341203
 30
0.0
 11
65.545353
 21
184.216146
 31
0.0
  0
LINE
  5
23B
100
AcDbEntity
  8
レイヤー_2
 62
     7
100
AcDbLine
 10
66.044892
 20
184.341203
 30
0.0
 11
66.295006
 21
184.341203
 31
0.0
  0
LINE
  5
23A
100
AcDbEntity
  8
レイヤー_2
 62
     7
100
AcDbLine
 10
66.044892
 20
184.216146
 30
0.0
 11
66.044892
 21
184.341203
 31
0.0
  0
LINE
  5
239
100
AcDbEntity
  8
レイヤー_2
 62
     7
100
AcDbLine
 10
66.295006
 20
184.216146
 30
0.0
 11
66.044892
 21
184.216146
 31
0.0
  0
LINE
  5
238
100
AcDbEntity
  8
レイヤー_2
 62
     7
100
AcDbLine
 10
66.295006
 20
184.341203
 30
0.0
 11
66.295006
 21
184.216146
 31
0.0
  0
LINE
  5
237
100
AcDbEntity
  8
レイヤー_2
 62
     7
100
AcDbLine
 10
65.670066
 20
184.153101
 30
0.0
 11
65.92018
 21
184.153101
 31
0.0
  0
LINE
  5
236
100
AcDbEntity
  8
レイヤー_2
 62
     7
100
AcDbLine
 10
65.670066
 20
184.028388
 30
0.0
 11
65.670066
 21
184.153101
 31
0.0
  0
LINE
  5
235
100
AcDbEntity
  8
レイヤー_2
 62
     7
100
AcDbLine
 10
65.92018
 20
184.028388
 30
0.0
 11
65.670066
 21
184.028388
 31
0.0
  0
LINE
  5
234
100
AcDbEntity
  8
レイヤー_2
 62
     7
100
AcDbLine
 10
65.92018
 20
184.153101
 30
0.0
 11
65.92018
 21
184.028388
 31
0.0
  0
LINE
  5
233
100
AcDbEntity
  8
レイヤー_2
 62
     7
100
AcDbLine
 10
66.420407
 20
184.153101
 30
0.0
 11
66.670521
 21
184.153101
 31
0.0
  0
LINE
  5
232
100
AcDbEntity
  8
レイヤー_2
 62
     7
100
AcDbLine
 10
66.420407
 20
184.028388
 30
0.0
 11
66.420407
 21
184.153101
 31
0.0
  0
LINE
  5
231
100
AcDbEntity
  8
レイヤー_2
 62
     7
100
AcDbLine
 10
66.670521
 20
184.028388
 30
0.0
 11
66.420407
 21
184.028388
 31
0.0
  0
LINE
  5
230
100
AcDbEntity
  8
レイヤー_2
 62
     7
100
AcDbLine
 10
66.670521
 20
184.153101
 30
0.0
 11
66.670521
 21
184.028388
 31
0.0
  0
LINE
  5
22F
100
AcDbEntity
  8
レイヤー_2
 62
     7
100
AcDbLine
 10
65.812004
 20
185.278269
 30
0.0
 11
65.92018
 21
185.278269
 31
0.0
  0
LINE
  5
22E
100
AcDbEntity
  8
レイヤー_2
 62
     7
100
AcDbLine
 10
65.670066
 20
185.153901
 30
0.0
 11
65.670066
 21
185.236239
 31
0.0
  0
LINE
  5
22D
100
AcDbEntity
  8
レイヤー_2
 62
     7
100
AcDbLine
 10
65.92018
 20
185.153901
 30
0.0
 11
65.670066
 21
185.153901
 31
0.0
  0
LINE
  5
22C
100
AcDbEntity
  8
レイヤー_2
 62
     7
100
AcDbLine
 10
65.92018
 20
185.278269
 30
0.0
 11
65.92018
 21
185.153901
 31
0.0
  0
LINE
  5
22B
100
AcDbEntity
  8
レイヤー_2
 62
     7
100
AcDbLine
 10
66.420407
 20
185.278269
 30
0.0
 11
66.670521
 21
185.278269
 31
0.0
  0
LINE
  5
22A
100
AcDbEntity
  8
レイヤー_2
 62
     7
100
AcDbLine
 10
66.420407
 20
185.153901
 30
0.0
 11
66.420407
 21
185.278269
 31
0.0
  0
LINE
  5
229
100
AcDbEntity
  8
レイヤー_2
 62
     7
100
AcDbLine
 10
66.670521
 20
185.153901
 30
0.0
 11
66.420407
 21
185.153901
 31
0.0
  0
LINE
  5
228
100
AcDbEntity
  8
レイヤー_2
 62
     7
100
AcDbLine
 10
66.670521
 20
185.278269
 30
0.0
 11
66.670521
 21
185.153901
 31
0.0
  0
LINE
  5
227
100
AcDbEntity
  8
レイヤー_2
 62
     7
100
AcDbLine
 10
65.670066
 20
185.0912
 30
0.0
 11
65.92018
 21
185.0912
 31
0.0
  0
LINE
  5
226
100
AcDbEntity
  8
レイヤー_2
 62
     7
100
AcDbLine
 10
65.670066
 20
184.966488
 30
0.0
 11
65.670066
 21
185.0912
 31
0.0
  0
LINE
  5
225
100
AcDbEntity
  8
レイヤー_2
 62
     7
100
AcDbLine
 10
65.92018
 20
184.966488
 30
0.0
 11
65.670066
 21
184.966488
 31
0.0
  0
LINE
  5
224
100
AcDbEntity
  8
レイヤー_2
 62
     7
100
AcDbLine
 10
65.92018
 20
185.0912
 30
0.0
 11
65.92018
 21
184.966488
 31
0.0
  0
LINE
  5
223
100
AcDbEntity
  8
レイヤー_2
 62
     7
100
AcDbLine
 10
66.420407
 20
185.0912
 30
0.0
 11
66.670521
 21
185.0912
 31
0.0
  0
LINE
  5
222
100
AcDbEntity
  8
レイヤー_2
 62
     7
100
AcDbLine
 10
66.420407
 20
184.966488
 30
0.0
 11
66.420407
 21
185.0912
 31
0.0
  0
LINE
  5
221
100
AcDbEntity
  8
レイヤー_2
 62
     7
100
AcDbLine
 10
66.670521
 20
184.966488
 30
0.0
 11
66.420407
 21
184.966488
 31
0.0
  0
LINE
  5
220
100
AcDbEntity
  8
レイヤー_2
 62
     7
100
AcDbLine
 10
66.670521
 20
185.0912
 30
0.0
 11
66.670521
 21
184.966488
 31
0.0
  0
LINE
  5
21F
100
AcDbEntity
  8
レイヤー_2
 62
     7
100
AcDbLine
 10
65.294895
 20
184.903787
 30
0.0
 11
65.545353
 21
184.903787
 31
0.0
  0
LINE
  5
21E
100
AcDbEntity
  8
レイヤー_2
 62
     7
100
AcDbLine
 10
65.294895
 20
184.77873
 30
0.0
 11
65.294895
 21
184.903787
 31
0.0
  0
LINE
  5
21D
100
AcDbEntity
  8
レイヤー_2
 62
     7
100
AcDbLine
 10
65.545353
 20
184.77873
 30
0.0
 11
65.294895
 21
184.77873
 31
0.0
  0
LINE
  5
21C
100
AcDbEntity
  8
レイヤー_2
 62
     7
100
AcDbLine
 10
65.545353
 20
184.903787
 30
0.0
 11
65.545353
 21
184.77873
 31
0.0
  0
LINE
  5
21B
100
AcDbEntity
  8
レイヤー_2
 62
     7
100
AcDbLine
 10
66.044892
 20
184.903787
 30
0.0
 11
66.295006
 21
184.903787
 31
0.0
  0
LINE
  5
21A
100
AcDbEntity
  8
レイヤー_2
 62
     7
100
AcDbLine
 10
66.044892
 20
184.77873
 30
0.0
 11
66.044892
 21
184.903787
 31
0.0
  0
LINE
  5
219
100
AcDbEntity
  8
レイヤー_2
 62
     7
100
AcDbLine
 10
66.295006
 20
184.77873
 30
0.0
 11
66.044892
 21
184.77873
 31
0.0
  0
LINE
  5
218
100
AcDbEntity
  8
レイヤー_2
 62
     7
100
AcDbLine
 10
66.295006
 20
184.903787
 30
0.0
 11
66.295006
 21
184.77873
 31
0.0
  0
LINE
  5
217
100
AcDbEntity
  8
レイヤー_2
 62
     7
100
AcDbLine
 10
65.670066
 20
184.716374
 30
0.0
 11
65.92018
 21
184.716374
 31
0.0
  0
LINE
  5
216
100
AcDbEntity
  8
レイヤー_2
 62
     7
100
AcDbLine
 10
65.670066
 20
184.591317
 30
0.0
 11
65.670066
 21
184.716374
 31
0.0
  0
LINE
  5
215
100
AcDbEntity
  8
レイヤー_2
 62
     7
100
AcDbLine
 10
65.92018
 20
184.591317
 30
0.0
 11
65.670066
 21
184.591317
 31
0.0
  0
LINE
  5
214
100
AcDbEntity
  8
レイヤー_2
 62
     7
100
AcDbLine
 10
65.92018
 20
184.716374
 30
0.0
 11
65.92018
 21
184.591317
 31
0.0
  0
LINE
  5
213
100
AcDbEntity
  8
レイヤー_2
 62
     7
100
AcDbLine
 10
66.420407
 20
184.716374
 30
0.0
 11
66.670521
 21
184.716374
 31
0.0
  0
LINE
  5
212
100
AcDbEntity
  8
レイヤー_2
 62
     7
100
AcDbLine
 10
66.420407
 20
184.591317
 30
0.0
 11
66.420407
 21
184.716374
 31
0.0
  0
LINE
  5
211
100
AcDbEntity
  8
レイヤー_2
 62
     7
100
AcDbLine
 10
66.670521
 20
184.591317
 30
0.0
 11
66.420407
 21
184.591317
 31
0.0
  0
LINE
  5
210
100
AcDbEntity
  8
レイヤー_2
 62
     7
100
AcDbLine
 10
66.670521
 20
184.716374
 30
0.0
 11
66.670521
 21
184.591317
 31
0.0
  0
LINE
  5
20F
100
AcDbEntity
  8
レイヤー_2
 62
     7
100
AcDbLine
 10
66.044892
 20
184.716374
 30
0.0
 11
66.295006
 21
184.716374
 31
0.0
  0
LINE
  5
20E
100
AcDbEntity
  8
レイヤー_2
 62
     7
100
AcDbLine
 10
66.044892
 20
184.591317
 30
0.0
 11
66.044892
 21
184.716374
 31
0.0
  0
LINE
  5
20D
100
AcDbEntity
  8
レイヤー_2
 62
     7
100
AcDbLine
 10
66.295006
 20
184.591317
 30
0.0
 11
66.044892
 21
184.591317
 31
0.0
  0
LINE
  5
20C
100
AcDbEntity
  8
レイヤー_2
 62
     7
100
AcDbLine
 10
66.295006
 20
184.716374
 30
0.0
 11
66.295006
 21
184.591317
 31
0.0
  0
LINE
  5
20B
100
AcDbEntity
  8
レイヤー_2
 62
     7
100
AcDbLine
 10
65.294895
 20
184.716374
 30
0.0
 11
65.545353
 21
184.716374
 31
0.0
  0
LINE
  5
20A
100
AcDbEntity
  8
レイヤー_2
 62
     7
100
AcDbLine
 10
65.294895
 20
184.591317
 30
0.0
 11
65.294895
 21
184.716374
 31
0.0
  0
LINE
  5
209
100
AcDbEntity
  8
レイヤー_2
 62
     7
100
AcDbLine
 10
65.545353
 20
184.591317
 30
0.0
 11
65.294895
 21
184.591317
 31
0.0
  0
LINE
  5
208
100
AcDbEntity
  8
レイヤー_2
 62
     7
100
AcDbLine
 10
65.545353
 20
184.716374
 30
0.0
 11
65.545353
 21
184.591317
 31
0.0
  0
LINE
  5
207
100
AcDbEntity
  8
レイヤー_2
 62
     7
100
AcDbLine
 10
66.420407
 20
184.903787
 30
0.0
 11
66.670521
 21
184.903787
 31
0.0
  0
LINE
  5
206
100
AcDbEntity
  8
レイヤー_2
 62
     7
100
AcDbLine
 10
66.420407
 20
184.77873
 30
0.0
 11
66.420407
 21
184.903787
 31
0.0
  0
LINE
  5
205
100
AcDbEntity
  8
レイヤー_2
 62
     7
100
AcDbLine
 10
66.670521
 20
184.77873
 30
0.0
 11
66.420407
 21
184.77873
 31
0.0
  0
LINE
  5
204
100
AcDbEntity
  8
レイヤー_2
 62
     7
100
AcDbLine
 10
66.670521
 20
184.903787
 30
0.0
 11
66.670521
 21
184.77873
 31
0.0
  0
LINE
  5
203
100
AcDbEntity
  8
レイヤー_2
 62
     7
100
AcDbLine
 10
65.670066
 20
184.903787
 30
0.0
 11
65.92018
 21
184.903787
 31
0.0
  0
LINE
  5
202
100
AcDbEntity
  8
レイヤー_2
 62
     7
100
AcDbLine
 10
65.670066
 20
184.77873
 30
0.0
 11
65.670066
 21
184.903787
 31
0.0
  0
LINE
  5
201
100
AcDbEntity
  8
レイヤー_2
 62
     7
100
AcDbLine
 10
65.92018
 20
184.77873
 30
0.0
 11
65.670066
 21
184.77873
 31
0.0
  0
LINE
  5
200
100
AcDbEntity
  8
レイヤー_2
 62
     7
100
AcDbLine
 10
65.92018
 20
184.903787
 30
0.0
 11
65.92018
 21
184.77873
 31
0.0
  0
LINE
  5
1FF
100
AcDbEntity
  8
レイヤー_2
 62
     7
100
AcDbLine
 10
66.044892
 20
185.0912
 30
0.0
 11
66.295006
 21
185.0912
 31
0.0
  0
LINE
  5
1FE
100
AcDbEntity
  8
レイヤー_2
 62
     7
100
AcDbLine
 10
66.044892
 20
184.966488
 30
0.0
 11
66.044892
 21
185.0912
 31
0.0
  0
LINE
  5
1FD
100
AcDbEntity
  8
レイヤー_2
 62
     7
100
AcDbLine
 10
66.295006
 20
184.966488
 30
0.0
 11
66.044892
 21
184.966488
 31
0.0
  0
LINE
  5
1FC
100
AcDbEntity
  8
レイヤー_2
 62
     7
100
AcDbLine
 10
66.295006
 20
185.0912
 30
0.0
 11
66.295006
 21
184.966488
 31
0.0
  0
LINE
  5
1FB
100
AcDbEntity
  8
レイヤー_2
 62
     7
100
AcDbLine
 10
65.348983
 20
185.0912
 30
0.0
 11
65.545353
 21
185.0912
 31
0.0
  0
LINE
  5
1FA
100
AcDbEntity
  8
レイヤー_2
 62
     7
100
AcDbLine
 10
65.294895
 20
184.966488
 30
0.0
 11
65.294895
 21
185.057094
 31
0.0
  0
LINE
  5
1F9
100
AcDbEntity
  8
レイヤー_2
 62
     7
100
AcDbLine
 10
65.545353
 20
184.966488
 30
0.0
 11
65.294895
 21
184.966488
 31
0.0
  0
LINE
  5
1F8
100
AcDbEntity
  8
レイヤー_2
 62
     7
100
AcDbLine
 10
65.545353
 20
185.0912
 30
0.0
 11
65.545353
 21
184.966488
 31
0.0
  0
LINE
  5
1F7
100
AcDbEntity
  8
レイヤー_2
 62
     7
100
AcDbLine
 10
66.044892
 20
185.278269
 30
0.0
 11
66.295006
 21
185.278269
 31
0.0
  0
LINE
  5
1F6
100
AcDbEntity
  8
レイヤー_2
 62
     7
100
AcDbLine
 10
66.044892
 20
185.153901
 30
0.0
 11
66.044892
 21
185.278269
 31
0.0
  0
LINE
  5
1F5
100
AcDbEntity
  8
レイヤー_2
 62
     7
100
AcDbLine
 10
66.295006
 20
185.153901
 30
0.0
 11
66.044892
 21
185.153901
 31
0.0
  0
LINE
  5
1F4
100
AcDbEntity
  8
レイヤー_2
 62
     7
100
AcDbLine
 10
66.295006
 20
185.278269
 30
0.0
 11
66.295006
 21
185.153901
 31
0.0
  0
LINE
  5
1F3
100
AcDbEntity
  8
レイヤー_2
 62
     7
100
AcDbLine
 10
66.044892
 20
184.153101
 30
0.0
 11
66.295006
 21
184.153101
 31
0.0
  0
LINE
  5
1F2
100
AcDbEntity
  8
レイヤー_2
 62
     7
100
AcDbLine
 10
66.044892
 20
184.028388
 30
0.0
 11
66.044892
 21
184.153101
 31
0.0
  0
LINE
  5
1F1
100
AcDbEntity
  8
レイヤー_2
 62
     7
100
AcDbLine
 10
66.295006
 20
184.028388
 30
0.0
 11
66.044892
 21
184.028388
 31
0.0
  0
LINE
  5
1F0
100
AcDbEntity
  8
レイヤー_2
 62
     7
100
AcDbLine
 10
66.295006
 20
184.153101
 30
0.0
 11
66.295006
 21
184.028388
 31
0.0
  0
LINE
  5
1EF
100
AcDbEntity
  8
レイヤー_2
 62
     7
100
AcDbLine
 10
66.420407
 20
184.341203
 30
0.0
 11
66.670521
 21
184.341203
 31
0.0
  0
LINE
  5
1EE
100
AcDbEntity
  8
レイヤー_2
 62
     7
100
AcDbLine
 10
66.420407
 20
184.216146
 30
0.0
 11
66.420407
 21
184.341203
 31
0.0
  0
LINE
  5
1ED
100
AcDbEntity
  8
レイヤー_2
 62
     7
100
AcDbLine
 10
66.670521
 20
184.216146
 30
0.0
 11
66.420407
 21
184.216146
 31
0.0
  0
LINE
  5
1EC
100
AcDbEntity
  8
レイヤー_2
 62
     7
100
AcDbLine
 10
66.670521
 20
184.341203
 30
0.0
 11
66.670521
 21
184.216146
 31
0.0
  0
LINE
  5
1EB
100
AcDbEntity
  8
レイヤー_2
 62
     7
100
AcDbLine
 10
65.670066
 20
184.341203
 30
0.0
 11
65.92018
 21
184.341203
 31
0.0
  0
LINE
  5
1EA
100
AcDbEntity
  8
レイヤー_2
 62
     7
100
AcDbLine
 10
65.670066
 20
184.216146
 30
0.0
 11
65.670066
 21
184.341203
 31
0.0
  0
LINE
  5
1E9
100
AcDbEntity
  8
レイヤー_2
 62
     7
100
AcDbLine
 10
65.92018
 20
184.216146
 30
0.0
 11
65.670066
 21
184.216146
 31
0.0
  0
LINE
  5
1E8
100
AcDbEntity
  8
レイヤー_2
 62
     7
100
AcDbLine
 10
65.92018
 20
184.341203
 30
0.0
 11
65.92018
 21
184.216146
 31
0.0
  0
LINE
  5
1E7
100
AcDbEntity
  8
レイヤー_2
 62
     7
100
AcDbLine
 10
66.420407
 20
184.528616
 30
0.0
 11
66.670521
 21
184.528616
 31
0.0
  0
LINE
  5
1E6
100
AcDbEntity
  8
レイヤー_2
 62
     7
100
AcDbLine
 10
66.420407
 20
184.403215
 30
0.0
 11
66.420407
 21
184.528616
 31
0.0
  0
LINE
  5
1E5
100
AcDbEntity
  8
レイヤー_2
 62
     7
100
AcDbLine
 10
66.670521
 20
184.403215
 30
0.0
 11
66.420407
 21
184.403215
 31
0.0
  0
LINE
  5
1E4
100
AcDbEntity
  8
レイヤー_2
 62
     7
100
AcDbLine
 10
66.670521
 20
184.528616
 30
0.0
 11
66.670521
 21
184.403215
 31
0.0
  0
LINE
  5
1E3
100
AcDbEntity
  8
レイヤー_2
 62
     7
100
AcDbLine
 10
65.670066
 20
184.528616
 30
0.0
 11
65.92018
 21
184.528616
 31
0.0
  0
LINE
  5
1E2
100
AcDbEntity
  8
レイヤー_2
 62
     7
100
AcDbLine
 10
65.670066
 20
184.403215
 30
0.0
 11
65.670066
 21
184.528616
 31
0.0
  0
LINE
  5
1E1
100
AcDbEntity
  8
レイヤー_2
 62
     7
100
AcDbLine
 10
65.92018
 20
184.403215
 30
0.0
 11
65.670066
 21
184.403215
 31
0.0
  0
LINE
  5
1E0
100
AcDbEntity
  8
レイヤー_2
 62
     7
100
AcDbLine
 10
65.92018
 20
184.528616
 30
0.0
 11
65.92018
 21
184.403215
 31
0.0
  0
LINE
  5
1DF
100
AcDbEntity
  8
レイヤー_2
 62
     7
100
AcDbLine
 10
67.544887
 20
184.716374
 30
0.0
 11
67.795345
 21
184.716374
 31
0.0
  0
LINE
  5
1DE
100
AcDbEntity
  8
レイヤー_2
 62
     7
100
AcDbLine
 10
67.544887
 20
184.591317
 30
0.0
 11
67.544887
 21
184.716374
 31
0.0
  0
LINE
  5
1DD
100
AcDbEntity
  8
レイヤー_2
 62
     7
100
AcDbLine
 10
67.795345
 20
184.591317
 30
0.0
 11
67.544887
 21
184.591317
 31
0.0
  0
LINE
  5
1DC
100
AcDbEntity
  8
レイヤー_2
 62
     7
100
AcDbLine
 10
67.795345
 20
184.716374
 30
0.0
 11
67.795345
 21
184.591317
 31
0.0
  0
LINE
  5
1DB
100
AcDbEntity
  8
レイヤー_2
 62
     7
100
AcDbLine
 10
66.794889
 20
184.716374
 30
0.0
 11
67.045692
 21
184.716374
 31
0.0
  0
LINE
  5
1DA
100
AcDbEntity
  8
レイヤー_2
 62
     7
100
AcDbLine
 10
66.794889
 20
184.591317
 30
0.0
 11
66.794889
 21
184.716374
 31
0.0
  0
LINE
  5
1D9
100
AcDbEntity
  8
レイヤー_2
 62
     7
100
AcDbLine
 10
67.045692
 20
184.591317
 30
0.0
 11
66.794889
 21
184.591317
 31
0.0
  0
LINE
  5
1D8
100
AcDbEntity
  8
レイヤー_2
 62
     7
100
AcDbLine
 10
67.045692
 20
184.716374
 30
0.0
 11
67.045692
 21
184.591317
 31
0.0
  0
LINE
  5
1D7
100
AcDbEntity
  8
レイヤー_2
 62
     7
100
AcDbLine
 10
67.544887
 20
184.903787
 30
0.0
 11
67.795345
 21
184.903787
 31
0.0
  0
LINE
  5
1D6
100
AcDbEntity
  8
レイヤー_2
 62
     7
100
AcDbLine
 10
67.544887
 20
184.77873
 30
0.0
 11
67.544887
 21
184.903787
 31
0.0
  0
LINE
  5
1D5
100
AcDbEntity
  8
レイヤー_2
 62
     7
100
AcDbLine
 10
67.795345
 20
184.77873
 30
0.0
 11
67.544887
 21
184.77873
 31
0.0
  0
LINE
  5
1D4
100
AcDbEntity
  8
レイヤー_2
 62
     7
100
AcDbLine
 10
67.795345
 20
184.903787
 30
0.0
 11
67.795345
 21
184.77873
 31
0.0
  0
LINE
  5
1D3
100
AcDbEntity
  8
レイヤー_2
 62
     7
100
AcDbLine
 10
66.794889
 20
184.903787
 30
0.0
 11
67.045692
 21
184.903787
 31
0.0
  0
LINE
  5
1D2
100
AcDbEntity
  8
レイヤー_2
 62
     7
100
AcDbLine
 10
66.794889
 20
184.77873
 30
0.0
 11
66.794889
 21
184.903787
 31
0.0
  0
LINE
  5
1D1
100
AcDbEntity
  8
レイヤー_2
 62
     7
100
AcDbLine
 10
67.045692
 20
184.77873
 30
0.0
 11
66.794889
 21
184.77873
 31
0.0
  0
LINE
  5
1D0
100
AcDbEntity
  8
レイヤー_2
 62
     7
100
AcDbLine
 10
67.045692
 20
184.903787
 30
0.0
 11
67.045692
 21
184.77873
 31
0.0
  0
LINE
  5
1CF
100
AcDbEntity
  8
レイヤー_2
 62
     7
100
AcDbLine
 10
67.17006
 20
185.0912
 30
0.0
 11
67.420174
 21
185.0912
 31
0.0
  0
LINE
  5
1CE
100
AcDbEntity
  8
レイヤー_2
 62
     7
100
AcDbLine
 10
67.17006
 20
184.966488
 30
0.0
 11
67.17006
 21
185.0912
 31
0.0
  0
LINE
  5
1CD
100
AcDbEntity
  8
レイヤー_2
 62
     7
100
AcDbLine
 10
67.420174
 20
184.966488
 30
0.0
 11
67.17006
 21
184.966488
 31
0.0
  0
LINE
  5
1CC
100
AcDbEntity
  8
レイヤー_2
 62
     7
100
AcDbLine
 10
67.420174
 20
185.0912
 30
0.0
 11
67.420174
 21
184.966488
 31
0.0
  0
LINE
  5
1CB
100
AcDbEntity
  8
レイヤー_2
 62
     7
100
AcDbLine
 10
67.17006
 20
185.278269
 30
0.0
 11
67.277892
 21
185.278269
 31
0.0
  0
LINE
  5
1CA
100
AcDbEntity
  8
レイヤー_2
 62
     7
100
AcDbLine
 10
67.17006
 20
185.153901
 30
0.0
 11
67.17006
 21
185.278269
 31
0.0
  0
LINE
  5
1C9
100
AcDbEntity
  8
レイヤー_2
 62
     7
100
AcDbLine
 10
67.420174
 20
185.153901
 30
0.0
 11
67.17006
 21
185.153901
 31
0.0
  0
LINE
  5
1C8
100
AcDbEntity
  8
レイヤー_2
 62
     7
100
AcDbLine
 10
67.420174
 20
185.236239
 30
0.0
 11
67.420174
 21
185.153901
 31
0.0
  0
LINE
  5
1C7
100
AcDbEntity
  8
レイヤー_2
 62
     7
100
AcDbLine
 10
67.17006
 20
184.153101
 30
0.0
 11
67.420174
 21
184.153101
 31
0.0
  0
LINE
  5
1C6
100
AcDbEntity
  8
レイヤー_2
 62
     7
100
AcDbLine
 10
67.17006
 20
184.028388
 30
0.0
 11
67.17006
 21
184.153101
 31
0.0
  0
LINE
  5
1C5
100
AcDbEntity
  8
レイヤー_2
 62
     7
100
AcDbLine
 10
67.420174
 20
184.028388
 30
0.0
 11
67.17006
 21
184.028388
 31
0.0
  0
LINE
  5
1C4
100
AcDbEntity
  8
レイヤー_2
 62
     7
100
AcDbLine
 10
67.420174
 20
184.153101
 30
0.0
 11
67.420174
 21
184.028388
 31
0.0
  0
LINE
  5
1C3
100
AcDbEntity
  8
レイヤー_2
 62
     7
100
AcDbLine
 10
67.544887
 20
184.341203
 30
0.0
 11
67.795345
 21
184.341203
 31
0.0
  0
LINE
  5
1C2
100
AcDbEntity
  8
レイヤー_2
 62
     7
100
AcDbLine
 10
67.544887
 20
184.216146
 30
0.0
 11
67.544887
 21
184.341203
 31
0.0
  0
LINE
  5
1C1
100
AcDbEntity
  8
レイヤー_2
 62
     7
100
AcDbLine
 10
67.795345
 20
184.216146
 30
0.0
 11
67.544887
 21
184.216146
 31
0.0
  0
LINE
  5
1C0
100
AcDbEntity
  8
レイヤー_2
 62
     7
100
AcDbLine
 10
67.795345
 20
184.341203
 30
0.0
 11
67.795345
 21
184.216146
 31
0.0
  0
LINE
  5
1BF
100
AcDbEntity
  8
レイヤー_2
 62
     7
100
AcDbLine
 10
66.794889
 20
184.341203
 30
0.0
 11
67.045692
 21
184.341203
 31
0.0
  0
LINE
  5
1BE
100
AcDbEntity
  8
レイヤー_2
 62
     7
100
AcDbLine
 10
66.794889
 20
184.216146
 30
0.0
 11
66.794889
 21
184.341203
 31
0.0
  0
LINE
  5
1BD
100
AcDbEntity
  8
レイヤー_2
 62
     7
100
AcDbLine
 10
67.045692
 20
184.216146
 30
0.0
 11
66.794889
 21
184.216146
 31
0.0
  0
LINE
  5
1BC
100
AcDbEntity
  8
レイヤー_2
 62
     7
100
AcDbLine
 10
67.045692
 20
184.341203
 30
0.0
 11
67.045692
 21
184.216146
 31
0.0
  0
LINE
  5
1BB
100
AcDbEntity
  8
レイヤー_2
 62
     7
100
AcDbLine
 10
67.544887
 20
184.528616
 30
0.0
 11
67.795345
 21
184.528616
 31
0.0
  0
LINE
  5
1BA
100
AcDbEntity
  8
レイヤー_2
 62
     7
100
AcDbLine
 10
67.544887
 20
184.403215
 30
0.0
 11
67.544887
 21
184.528616
 31
0.0
  0
LINE
  5
1B9
100
AcDbEntity
  8
レイヤー_2
 62
     7
100
AcDbLine
 10
67.795345
 20
184.403215
 30
0.0
 11
67.544887
 21
184.403215
 31
0.0
  0
LINE
  5
1B8
100
AcDbEntity
  8
レイヤー_2
 62
     7
100
AcDbLine
 10
67.795345
 20
184.528616
 30
0.0
 11
67.795345
 21
184.403215
 31
0.0
  0
LINE
  5
1B7
100
AcDbEntity
  8
レイヤー_2
 62
     7
100
AcDbLine
 10
66.794889
 20
184.528616
 30
0.0
 11
67.045692
 21
184.528616
 31
0.0
  0
LINE
  5
1B6
100
AcDbEntity
  8
レイヤー_2
 62
     7
100
AcDbLine
 10
66.794889
 20
184.403215
 30
0.0
 11
66.794889
 21
184.528616
 31
0.0
  0
LINE
  5
1B5
100
AcDbEntity
  8
レイヤー_2
 62
     7
100
AcDbLine
 10
67.045692
 20
184.403215
 30
0.0
 11
66.794889
 21
184.403215
 31
0.0
  0
LINE
  5
1B4
100
AcDbEntity
  8
レイヤー_2
 62
     7
100
AcDbLine
 10
67.045692
 20
184.528616
 30
0.0
 11
67.045692
 21
184.403215
 31
0.0
  0
LINE
  5
1B3
100
AcDbEntity
  8
レイヤー_2
 62
     7
100
AcDbLine
 10
66.794889
 20
185.34097
 30
0.0
 11
66.794889
 21
185.359573
 31
0.0
  0
LINE
  5
1B2
100
AcDbEntity
  8
レイヤー_2
 62
     7
100
AcDbLine
 10
66.295006
 20
185.359573
 30
0.0
 11
66.295006
 21
185.34097
 31
0.0
  0
LINE
  5
1B1
100
AcDbEntity
  8
レイヤー_2
 62
     7
100
AcDbLine
 10
66.670521
 20
185.367841
 30
0.0
 11
66.670521
 21
185.34097
 31
0.0
  0
LINE
  5
1B0
100
AcDbEntity
  8
レイヤー_2
 62
     7
100
AcDbLine
 10
66.420407
 20
185.34097
 30
0.0
 11
66.420407
 21
185.367841
 31
0.0
  0
LINE
  5
1AF
100
AcDbEntity
  8
レイヤー_2
 62
     7
100
AcDbLine
 10
66.670521
 20
185.261732
 30
0.0
 11
66.420407
 21
185.261732
 31
0.0
  0
LINE
  5
1AE
100
AcDbEntity
  8
レイヤー_2
 62
     7
100
AcDbLine
 10
66.295006
 20
185.261732
 30
0.0
 11
66.044892
 21
185.261732
 31
0.0
  0
LINE
  5
1AD
100
AcDbEntity
  8
レイヤー_2
 62
     7
100
AcDbLine
 10
65.92018
 20
185.261732
 30
0.0
 11
65.752403
 21
185.261732
 31
0.0
  0
LINE
  5
1AC
100
AcDbEntity
  8
レイヤー_2
 62
     7
100
AcDbLine
 10
67.338181
 20
185.261732
 30
0.0
 11
67.17006
 21
185.261732
 31
0.0
  0
LINE
  5
1AB
100
AcDbEntity
  8
レイヤー_2
 62
     7
100
AcDbLine
 10
67.045692
 20
185.261732
 30
0.0
 11
66.794889
 21
185.261732
 31
0.0
  0
LINE
  5
1AA
100
AcDbEntity
  8
レイヤー_2
 62
     7
100
AcDbLine
 10
66.670521
 20
185.073975
 30
0.0
 11
66.420407
 21
185.073975
 31
0.0
  0
LINE
  5
1A9
100
AcDbEntity
  8
レイヤー_2
 62
     7
100
AcDbLine
 10
66.295006
 20
185.073975
 30
0.0
 11
66.044892
 21
185.073975
 31
0.0
  0
LINE
  5
1A8
100
AcDbEntity
  8
レイヤー_2
 62
     7
100
AcDbLine
 10
67.768473
 20
185.073975
 30
0.0
 11
67.544887
 21
185.073975
 31
0.0
  0
LINE
  5
1A7
100
AcDbEntity
  8
レイヤー_2
 62
     7
100
AcDbLine
 10
65.92018
 20
185.073975
 30
0.0
 11
65.670066
 21
185.073975
 31
0.0
  0
LINE
  5
1A6
100
AcDbEntity
  8
レイヤー_2
 62
     7
100
AcDbLine
 10
67.420174
 20
185.073975
 30
0.0
 11
67.17006
 21
185.073975
 31
0.0
  0
LINE
  5
1A5
100
AcDbEntity
  8
レイヤー_2
 62
     7
100
AcDbLine
 10
67.045692
 20
185.073975
 30
0.0
 11
66.794889
 21
185.073975
 31
0.0
  0
LINE
  5
1A4
100
AcDbEntity
  8
レイヤー_2
 62
     7
100
AcDbLine
 10
65.545353
 20
185.073975
 30
0.0
 11
65.321422
 21
185.073975
 31
0.0
  0
LINE
  5
1A3
100
AcDbEntity
  8
レイヤー_2
 62
     7
100
AcDbLine
 10
67.989304
 20
184.886906
 30
0.0
 11
67.919713
 21
184.886906
 31
0.0
  0
LINE
  5
1A2
100
AcDbEntity
  8
レイヤー_2
 62
     7
100
AcDbLine
 10
66.670521
 20
184.886906
 30
0.0
 11
66.420407
 21
184.886906
 31
0.0
  0
LINE
  5
1A1
100
AcDbEntity
  8
レイヤー_2
 62
     7
100
AcDbLine
 10
67.795345
 20
184.886906
 30
0.0
 11
67.544887
 21
184.886906
 31
0.0
  0
LINE
  5
1A0
100
AcDbEntity
  8
レイヤー_2
 62
     7
100
AcDbLine
 10
66.295006
 20
184.886906
 30
0.0
 11
66.044892
 21
184.886906
 31
0.0
  0
LINE
  5
19F
100
AcDbEntity
  8
レイヤー_2
 62
     7
100
AcDbLine
 10
67.420174
 20
184.886906
 30
0.0
 11
67.17006
 21
184.886906
 31
0.0
  0
LINE
  5
19E
100
AcDbEntity
  8
レイヤー_2
 62
     7
100
AcDbLine
 10
67.045692
 20
184.886906
 30
0.0
 11
66.794889
 21
184.886906
 31
0.0
  0
LINE
  5
19D
100
AcDbEntity
  8
レイヤー_2
 62
     7
100
AcDbLine
 10
65.545353
 20
184.886906
 30
0.0
 11
65.294895
 21
184.886906
 31
0.0
  0
LINE
  5
19C
100
AcDbEntity
  8
レイヤー_2
 62
     7
100
AcDbLine
 10
65.92018
 20
184.886906
 30
0.0
 11
65.670066
 21
184.886906
 31
0.0
  0
LINE
  5
19B
100
AcDbEntity
  8
レイヤー_2
 62
     7
100
AcDbLine
 10
65.170182
 20
184.886906
 30
0.0
 11
65.10128
 21
184.886906
 31
0.0
  0
LINE
  5
19A
100
AcDbEntity
  8
レイヤー_2
 62
     7
100
AcDbLine
 10
66.670521
 20
184.699837
 30
0.0
 11
66.420407
 21
184.699837
 31
0.0
  0
LINE
  5
199
100
AcDbEntity
  8
レイヤー_2
 62
     7
100
AcDbLine
 10
68.091623
 20
184.699837
 30
0.0
 11
67.919713
 21
184.699837
 31
0.0
  0
LINE
  5
198
100
AcDbEntity
  8
レイヤー_2
 62
     7
100
AcDbLine
 10
66.295006
 20
184.699837
 30
0.0
 11
66.044892
 21
184.699837
 31
0.0
  0
LINE
  5
197
100
AcDbEntity
  8
レイヤー_2
 62
     7
100
AcDbLine
 10
65.92018
 20
184.699837
 30
0.0
 11
65.670066
 21
184.699837
 31
0.0
  0
LINE
  5
196
100
AcDbEntity
  8
レイヤー_2
 62
     7
100
AcDbLine
 10
65.545353
 20
184.699837
 30
0.0
 11
65.294895
 21
184.699837
 31
0.0
  0
LINE
  5
195
100
AcDbEntity
  8
レイヤー_2
 62
     7
100
AcDbLine
 10
67.045692
 20
184.699837
 30
0.0
 11
66.794889
 21
184.699837
 31
0.0
  0
LINE
  5
194
100
AcDbEntity
  8
レイヤー_2
 62
     7
100
AcDbLine
 10
67.795345
 20
184.699837
 30
0.0
 11
67.544887
 21
184.699837
 31
0.0
  0
LINE
  5
193
100
AcDbEntity
  8
レイヤー_2
 62
     7
100
AcDbLine
 10
67.420174
 20
184.699837
 30
0.0
 11
67.17006
 21
184.699837
 31
0.0
  0
LINE
  5
192
100
AcDbEntity
  8
レイヤー_2
 62
     7
100
AcDbLine
 10
65.170182
 20
184.699837
 30
0.0
 11
64.998617
 21
184.699837
 31
0.0
  0
LINE
  5
191
100
AcDbEntity
  8
レイヤー_2
 62
     7
100
AcDbLine
 10
66.670521
 20
184.511735
 30
0.0
 11
66.420407
 21
184.511735
 31
0.0
  0
LINE
  5
190
100
AcDbEntity
  8
レイヤー_2
 62
     7
100
AcDbLine
 10
67.795345
 20
184.511735
 30
0.0
 11
67.544887
 21
184.511735
 31
0.0
  0
LINE
  5
18F
100
AcDbEntity
  8
レイヤー_2
 62
     7
100
AcDbLine
 10
66.295006
 20
184.511735
 30
0.0
 11
66.044892
 21
184.511735
 31
0.0
  0
LINE
  5
18E
100
AcDbEntity
  8
レイヤー_2
 62
     7
100
AcDbLine
 10
68.081288
 20
184.511735
 30
0.0
 11
67.919713
 21
184.511735
 31
0.0
  0
LINE
  5
18D
100
AcDbEntity
  8
レイヤー_2
 62
     7
100
AcDbLine
 10
67.045692
 20
184.511735
 30
0.0
 11
66.794889
 21
184.511735
 31
0.0
  0
LINE
  5
18C
100
AcDbEntity
  8
レイヤー_2
 62
     7
100
AcDbLine
 10
65.92018
 20
184.511735
 30
0.0
 11
65.670066
 21
184.511735
 31
0.0
  0
LINE
  5
18B
100
AcDbEntity
  8
レイヤー_2
 62
     7
100
AcDbLine
 10
67.420174
 20
184.511735
 30
0.0
 11
67.17006
 21
184.511735
 31
0.0
  0
LINE
  5
18A
100
AcDbEntity
  8
レイヤー_2
 62
     7
100
AcDbLine
 10
65.170182
 20
184.511735
 30
0.0
 11
65.008952
 21
184.511735
 31
0.0
  0
LINE
  5
189
100
AcDbEntity
  8
レイヤー_2
 62
     7
100
AcDbLine
 10
65.545353
 20
184.511735
 30
0.0
 11
65.294895
 21
184.511735
 31
0.0
  0
LINE
  5
188
100
AcDbEntity
  8
レイヤー_2
 62
     7
100
AcDbLine
 10
66.670521
 20
184.324666
 30
0.0
 11
66.420407
 21
184.324666
 31
0.0
  0
LINE
  5
187
100
AcDbEntity
  8
レイヤー_2
 62
     7
100
AcDbLine
 10
67.795345
 20
184.324666
 30
0.0
 11
67.544887
 21
184.324666
 31
0.0
  0
LINE
  5
186
100
AcDbEntity
  8
レイヤー_2
 62
     7
100
AcDbLine
 10
66.295006
 20
184.324666
 30
0.0
 11
66.044892
 21
184.324666
 31
0.0
  0
LINE
  5
185
100
AcDbEntity
  8
レイヤー_2
 62
     7
100
AcDbLine
 10
67.420174
 20
184.324666
 30
0.0
 11
67.17006
 21
184.324666
 31
0.0
  0
LINE
  5
184
100
AcDbEntity
  8
レイヤー_2
 62
     7
100
AcDbLine
 10
65.92018
 20
184.324666
 30
0.0
 11
65.670066
 21
184.324666
 31
0.0
  0
LINE
  5
183
100
AcDbEntity
  8
レイヤー_2
 62
     7
100
AcDbLine
 10
67.045692
 20
184.324666
 30
0.0
 11
66.794889
 21
184.324666
 31
0.0
  0
LINE
  5
182
100
AcDbEntity
  8
レイヤー_2
 62
     7
100
AcDbLine
 10
65.545353
 20
184.324666
 30
0.0
 11
65.294895
 21
184.324666
 31
0.0
  0
LINE
  5
181
100
AcDbEntity
  8
レイヤー_2
 62
     7
100
AcDbLine
 10
66.670521
 20
184.137253
 30
0.0
 11
66.420407
 21
184.137253
 31
0.0
  0
LINE
  5
180
100
AcDbEntity
  8
レイヤー_2
 62
     7
100
AcDbLine
 10
66.295006
 20
184.137253
 30
0.0
 11
66.044892
 21
184.137253
 31
0.0
  0
LINE
  5
17F
100
AcDbEntity
  8
レイヤー_2
 62
     7
100
AcDbLine
 10
67.045692
 20
184.137253
 30
0.0
 11
66.794889
 21
184.137253
 31
0.0
  0
LINE
  5
17E
100
AcDbEntity
  8
レイヤー_2
 62
     7
100
AcDbLine
 10
67.420174
 20
184.137253
 30
0.0
 11
67.17006
 21
184.137253
 31
0.0
  0
LINE
  5
17D
100
AcDbEntity
  8
レイヤー_2
 62
     7
100
AcDbLine
 10
65.92018
 20
184.137253
 30
0.0
 11
65.670066
 21
184.137253
 31
0.0
  0
LINE
  5
17C
100
AcDbEntity
  8
レイヤー_2
 62
     7
100
AcDbLine
 10
66.670521
 20
183.949495
 30
0.0
 11
66.420407
 21
183.949495
 31
0.0
  0
LINE
  5
17B
100
AcDbEntity
  8
レイヤー_2
 62
     7
100
AcDbLine
 10
66.295006
 20
183.949495
 30
0.0
 11
66.044892
 21
183.949495
 31
0.0
  0
LINE
  5
17A
100
AcDbEntity
  8
レイヤー_2
 62
     7
100
AcDbLine
 10
67.045692
 20
183.949495
 30
0.0
 11
66.794889
 21
183.949495
 31
0.0
  0
POLYLINE
  5
157
100
AcDbEntity
  8
レイヤー_2
 62
     7
100
AcDb2dPolyline
 66
     1
 10
0.0
 20
0.0
 30
0.0
  0
VERTEX
  5
158
100
AcDbEntity
  8
レイヤー_2
 62
     7
100
AcDbVertex
100
AcDb2dVertex
 10
64.420185
 20
184.300895
 30
0.0
  0
VERTEX
  5
159
100
AcDbEntity
  8
レイヤー_2
 62
     7
100
AcDbVertex
100
AcDb2dVertex
 10
64.39538
 20
184.316054
 30
0.0
  0
VERTEX
  5
15A
100
AcDbEntity
  8
レイヤー_2
 62
     7
100
AcDbVertex
100
AcDb2dVertex
 10
64.163181
 20
184.485552
 30
0.0
  0
VERTEX
  5
15B
100
AcDbEntity
  8
レイヤー_2
 62
     7
100
AcDbVertex
100
AcDb2dVertex
 10
63.984725
 20
184.671243
 30
0.0
  0
VERTEX
  5
15C
100
AcDbEntity
  8
レイヤー_2
 62
     7
100
AcDbVertex
100
AcDb2dVertex
 10
63.864147
 20
184.867269
 30
0.0
  0
VERTEX
  5
15D
100
AcDbEntity
  8
レイヤー_2
 62
     7
100
AcDbVertex
100
AcDb2dVertex
 10
63.802824
 20
185.07053
 30
0.0
  0
VERTEX
  5
15E
100
AcDbEntity
  8
レイヤー_2
 62
     7
100
AcDbVertex
100
AcDb2dVertex
 10
63.802824
 20
185.275857
 30
0.0
  0
VERTEX
  5
15F
100
AcDbEntity
  8
レイヤー_2
 62
     7
100
AcDbVertex
100
AcDb2dVertex
 10
63.864147
 20
185.479462
 30
0.0
  0
VERTEX
  5
160
100
AcDbEntity
  8
レイヤー_2
 62
     7
100
AcDbVertex
100
AcDb2dVertex
 10
63.984725
 20
185.675488
 30
0.0
  0
VERTEX
  5
161
100
AcDbEntity
  8
レイヤー_2
 62
     7
100
AcDbVertex
100
AcDb2dVertex
 10
64.163181
 20
185.861179
 30
0.0
  0
VERTEX
  5
162
100
AcDbEntity
  8
レイヤー_2
 62
     7
100
AcDbVertex
100
AcDb2dVertex
 10
64.39538
 20
186.030678
 30
0.0
  0
VERTEX
  5
163
100
AcDbEntity
  8
レイヤー_2
 62
     7
100
AcDbVertex
100
AcDb2dVertex
 10
64.674778
 20
186.181228
 30
0.0
  0
VERTEX
  5
164
100
AcDbEntity
  8
レイヤー_2
 62
     7
100
AcDbVertex
100
AcDb2dVertex
 10
64.996205
 20
186.30973
 30
0.0
  0
VERTEX
  5
165
100
AcDbEntity
  8
レイヤー_2
 62
     7
100
AcDbVertex
100
AcDb2dVertex
 10
65.351739
 20
186.41205
 30
0.0
  0
VERTEX
  5
166
100
AcDbEntity
  8
レイヤー_2
 62
     7
100
AcDbVertex
100
AcDb2dVertex
 10
65.734489
 20
186.487153
 30
0.0
  0
VERTEX
  5
167
100
AcDbEntity
  8
レイヤー_2
 62
     7
100
AcDbVertex
100
AcDb2dVertex
 10
66.135498
 20
186.532628
 30
0.0
  0
VERTEX
  5
168
100
AcDbEntity
  8
レイヤー_2
 62
     7
100
AcDbVertex
100
AcDb2dVertex
 10
66.544775
 20
186.548131
 30
0.0
  0
VERTEX
  5
169
100
AcDbEntity
  8
レイヤー_2
 62
     7
100
AcDbVertex
100
AcDb2dVertex
 10
66.955086
 20
186.532628
 30
0.0
  0
VERTEX
  5
16A
100
AcDbEntity
  8
レイヤー_2
 62
     7
100
AcDbVertex
100
AcDb2dVertex
 10
67.355406
 20
186.487153
 30
0.0
  0
VERTEX
  5
16B
100
AcDbEntity
  8
レイヤー_2
 62
     7
100
AcDbVertex
100
AcDb2dVertex
 10
67.738501
 20
186.41205
 30
0.0
  0
VERTEX
  5
16C
100
AcDbEntity
  8
レイヤー_2
 62
     7
100
AcDbVertex
100
AcDb2dVertex
 10
68.094035
 20
186.30973
 30
0.0
  0
VERTEX
  5
16D
100
AcDbEntity
  8
レイヤー_2
 62
     7
100
AcDbVertex
100
AcDb2dVertex
 10
68.415118
 20
186.181228
 30
0.0
  0
VERTEX
  5
16E
100
AcDbEntity
  8
レイヤー_2
 62
     7
100
AcDbVertex
100
AcDb2dVertex
 10
68.694859
 20
186.030678
 30
0.0
  0
VERTEX
  5
16F
100
AcDbEntity
  8
レイヤー_2
 62
     7
100
AcDbVertex
100
AcDb2dVertex
 10
68.926714
 20
185.861179
 30
0.0
  0
VERTEX
  5
170
100
AcDbEntity
  8
レイヤー_2
 62
     7
100
AcDbVertex
100
AcDb2dVertex
 10
69.10517
 20
185.675488
 30
0.0
  0
VERTEX
  5
171
100
AcDbEntity
  8
レイヤー_2
 62
     7
100
AcDbVertex
100
AcDb2dVertex
 10
69.226093
 20
185.479462
 30
0.0
  0
VERTEX
  5
172
100
AcDbEntity
  8
レイヤー_2
 62
     7
100
AcDbVertex
100
AcDb2dVertex
 10
69.287071
 20
185.275857
 30
0.0
  0
VERTEX
  5
173
100
AcDbEntity
  8
レイヤー_2
 62
     7
100
AcDbVertex
100
AcDb2dVertex
 10
69.287071
 20
185.07053
 30
0.0
  0
VERTEX
  5
174
100
AcDbEntity
  8
レイヤー_2
 62
     7
100
AcDbVertex
100
AcDb2dVertex
 10
69.226093
 20
184.867269
 30
0.0
  0
VERTEX
  5
175
100
AcDbEntity
  8
レイヤー_2
 62
     7
100
AcDbVertex
100
AcDb2dVertex
 10
69.10517
 20
184.671243
 30
0.0
  0
VERTEX
  5
176
100
AcDbEntity
  8
レイヤー_2
 62
     7
100
AcDbVertex
100
AcDb2dVertex
 10
68.926714
 20
184.485552
 30
0.0
  0
VERTEX
  5
177
100
AcDbEntity
  8
レイヤー_2
 62
     7
100
AcDbVertex
100
AcDb2dVertex
 10
68.694859
 20
184.316054
 30
0.0
  0
VERTEX
  5
178
100
AcDbEntity
  8
レイヤー_2
 62
     7
100
AcDbVertex
100
AcDb2dVertex
 10
68.66971
 20
184.300895
 30
0.0
  0
SEQEND
  5
179
100
AcDbEntity
  8
レイヤー_2
 62
     7
  0
POLYLINE
  5
148
100
AcDbEntity
  8
レイヤー_2
 62
     7
100
AcDb2dPolyline
 66
     1
 10
0.0
 20
0.0
 30
0.0
  0
VERTEX
  5
149
100
AcDbEntity
  8
レイヤー_2
 62
     7
100
AcDbVertex
100
AcDb2dVertex
 10
66.544775
 20
186.360718
 30
0.0
  0
VERTEX
  5
14A
100
AcDbEntity
  8
レイヤー_2
 62
     7
100
AcDbVertex
100
AcDb2dVertex
 10
66.164092
 20
186.345215
 30
0.0
  0
VERTEX
  5
14B
100
AcDbEntity
  8
レイヤー_2
 62
     7
100
AcDbVertex
100
AcDb2dVertex
 10
65.792367
 20
186.299395
 30
0.0
  0
VERTEX
  5
14C
100
AcDbEntity
  8
レイヤー_2
 62
     7
100
AcDbVertex
100
AcDb2dVertex
 10
65.441656
 20
186.224981
 30
0.0
  0
VERTEX
  5
14D
100
AcDbEntity
  8
レイヤー_2
 62
     7
100
AcDbVertex
100
AcDb2dVertex
 10
65.118506
 20
186.123006
 30
0.0
  0
VERTEX
  5
14E
100
AcDbEntity
  8
レイヤー_2
 62
     7
100
AcDbVertex
100
AcDb2dVertex
 10
64.832218
 20
185.995882
 30
0.0
  0
VERTEX
  5
14F
100
AcDbEntity
  8
レイヤー_2
 62
     7
100
AcDbVertex
100
AcDb2dVertex
 10
64.590717
 20
185.847743
 30
0.0
  0
VERTEX
  5
150
100
AcDbEntity
  8
レイヤー_2
 62
     7
100
AcDbVertex
100
AcDb2dVertex
 10
64.399859
 20
185.682378
 30
0.0
  0
VERTEX
  5
151
100
AcDbEntity
  8
レイヤー_2
 62
     7
100
AcDbVertex
100
AcDb2dVertex
 10
64.263778
 20
185.503578
 30
0.0
  0
VERTEX
  5
152
100
AcDbEntity
  8
レイヤー_2
 62
     7
100
AcDbVertex
100
AcDb2dVertex
 10
64.187641
 20
185.316509
 30
0.0
  0
VERTEX
  5
153
100
AcDbEntity
  8
レイヤー_2
 62
     7
100
AcDbVertex
100
AcDb2dVertex
 10
64.171794
 20
185.125651
 30
0.0
  0
VERTEX
  5
154
100
AcDbEntity
  8
レイヤー_2
 62
     7
100
AcDbVertex
100
AcDb2dVertex
 10
64.217613
 20
184.935826
 30
0.0
  0
VERTEX
  5
155
100
AcDbEntity
  8
レイヤー_2
 62
     7
100
AcDbVertex
100
AcDb2dVertex
 10
64.303741
 20
184.780452
 30
0.0
  0
SEQEND
  5
156
100
AcDbEntity
  8
レイヤー_2
 62
     7
  0
POLYLINE
  5
139
100
AcDbEntity
  8
レイヤー_2
 62
     7
100
AcDb2dPolyline
 66
     1
 10
0.0
 20
0.0
 30
0.0
  0
VERTEX
  5
13A
100
AcDbEntity
  8
レイヤー_2
 62
     7
100
AcDbVertex
100
AcDb2dVertex
 10
68.786844
 20
184.780452
 30
0.0
  0
VERTEX
  5
13B
100
AcDbEntity
  8
レイヤー_2
 62
     7
100
AcDbVertex
100
AcDb2dVertex
 10
68.872282
 20
184.935826
 30
0.0
  0
VERTEX
  5
13C
100
AcDbEntity
  8
レイヤー_2
 62
     7
100
AcDbVertex
100
AcDb2dVertex
 10
68.918446
 20
185.125651
 30
0.0
  0
VERTEX
  5
13D
100
AcDbEntity
  8
レイヤー_2
 62
     7
100
AcDbVertex
100
AcDb2dVertex
 10
68.902943
 20
185.316509
 30
0.0
  0
VERTEX
  5
13E
100
AcDbEntity
  8
レイヤー_2
 62
     7
100
AcDbVertex
100
AcDb2dVertex
 10
68.826462
 20
185.503578
 30
0.0
  0
VERTEX
  5
13F
100
AcDbEntity
  8
レイヤー_2
 62
     7
100
AcDbVertex
100
AcDb2dVertex
 10
68.690725
 20
185.682378
 30
0.0
  0
VERTEX
  5
140
100
AcDbEntity
  8
レイヤー_2
 62
     7
100
AcDbVertex
100
AcDb2dVertex
 10
68.499523
 20
185.847743
 30
0.0
  0
VERTEX
  5
141
100
AcDbEntity
  8
レイヤー_2
 62
     7
100
AcDbVertex
100
AcDb2dVertex
 10
68.258021
 20
185.995882
 30
0.0
  0
VERTEX
  5
142
100
AcDbEntity
  8
レイヤー_2
 62
     7
100
AcDbVertex
100
AcDb2dVertex
 10
67.972078
 20
186.123006
 30
0.0
  0
VERTEX
  5
143
100
AcDbEntity
  8
レイヤー_2
 62
     7
100
AcDbVertex
100
AcDb2dVertex
 10
67.649273
 20
186.224981
 30
0.0
  0
VERTEX
  5
144
100
AcDbEntity
  8
レイヤー_2
 62
     7
100
AcDbVertex
100
AcDb2dVertex
 10
67.297529
 20
186.299395
 30
0.0
  0
VERTEX
  5
145
100
AcDbEntity
  8
レイヤー_2
 62
     7
100
AcDbVertex
100
AcDb2dVertex
 10
66.926147
 20
186.345215
 30
0.0
  0
VERTEX
  5
146
100
AcDbEntity
  8
レイヤー_2
 62
     7
100
AcDbVertex
100
AcDb2dVertex
 10
66.544775
 20
186.360718
 30
0.0
  0
SEQEND
  5
147
100
AcDbEntity
  8
レイヤー_2
 62
     7
  0
SPLINE
  5
138
100
AcDbEntity
  8
レイヤー_2
 62
     7
100
AcDbSpline
210
0.0
220
0.0
230
1.0
 70
     8
 71
     3
 72
    11
 73
     7
 74
     0
 42
0.00000001
 43
0.00000001
 40
0.0
 40
0.0
 40
0.0
 40
0.0
 40
1.0
 40
1.0
 40
1.0
 40
2.0
 40
2.0
 40
2.0
 40
2.0
 10
69.294995117187497
 20
189.32970106336805
 30
0.0
 10
69.294995117187497
 20
190.84864366319442
 30
0.0
 10
68.064062499999991
 20
192.07957628038193
 30
0.0
 10
66.544775390624991
 20
192.07957628038193
 30
0.0
 10
65.025832790798603
 20
192.07957628038193
 30
0.0
 10
63.795244683159716
 20
190.84864366319442
 30
0.0
 10
63.795244683159716
 20
189.32970106336805
 30
0.0
  0
SPLINE
  5
137
100
AcDbEntity
  8
レイヤー_2
 62
     7
100
AcDbSpline
210
0.0
220
0.0
230
1.0
 70
     8
 71
     3
 72
    11
 73
     7
 74
     0
 42
0.00000001
 43
0.00000001
 40
0.0
 40
0.0
 40
0.0
 40
0.0
 40
1.0
 40
1.0
 40
1.0
 40
2.0
 40
2.0
 40
2.0
 40
2.0
 10
65.977023654513886
 20
197.32955729166665
 30
0.0
 10
65.984258355034711
 20
197.06118435329859
 30
0.0
 10
66.204399956597214
 20
196.8472439236111
 30
0.0
 10
66.472772894965274
 20
196.84689941406248
 30
0.0
 10
66.498266601562491
 20
196.84689941406248
 30
0.0
 10
66.5230712890625
 20
196.84896647135415
 30
0.0
 10
66.544775390624991
 20
196.85241156684026
 30
0.0
  0
SPLINE
  5
136
100
AcDbEntity
  8
レイヤー_2
 62
     7
100
AcDbSpline
210
0.0
220
0.0
230
1.0
 70
     8
 71
     3
 72
    11
 73
     7
 74
     0
 42
0.00000001
 43
0.00000001
 40
0.0
 40
0.0
 40
0.0
 40
0.0
 40
1.0
 40
1.0
 40
1.0
 40
2.0
 40
2.0
 40
2.0
 40
2.0
 10
67.113216145833334
 20
200.32989095052082
 30
0.0
 10
67.105636935763883
 20
200.5989529079861
 30
0.0
 10
66.885150824652769
 20
200.81254882812499
 30
0.0
 10
66.617466905381931
 20
200.81254882812499
 30
0.0
 10
66.591973198784714
 20
200.81254882812499
 30
0.0
 10
66.56716851128472
 20
200.81082628038192
 30
0.0
 10
66.544775390624991
 20
200.8073811848958
 30
0.0
  0
SPLINE
  5
135
100
AcDbEntity
  8
レイヤー_2
 62
     7
100
AcDbSpline
210
0.0
220
0.0
230
1.0
 70
     8
 71
     3
 72
    11
 73
     7
 74
     0
 42
0.00000001
 43
0.00000001
 40
0.0
 40
0.0
 40
0.0
 40
0.0
 40
1.0
 40
1.0
 40
1.0
 40
2.0
 40
2.0
 40
2.0
 40
2.0
 10
66.544775390624991
 20
196.85241156684026
 30
0.0
 10
66.570269097222223
 20
196.84896647135415
 30
0.0
 10
66.595073784722217
 20
196.84689941406248
 30
0.0
 10
66.617466905381931
 20
196.84689941406248
 30
0.0
 10
66.886873372395826
 20
196.84689941406248
 30
0.0
 10
67.105636935763883
 20
197.06187337239581
 30
0.0
 10
67.113216145833334
 20
197.32955729166665
 30
0.0
  0
SPLINE
  5
134
100
AcDbEntity
  8
レイヤー_2
 62
     7
100
AcDbSpline
210
0.0
220
0.0
230
1.0
 70
     8
 71
     3
 72
    11
 73
     7
 74
     0
 42
0.00000001
 43
0.00000001
 40
0.0
 40
0.0
 40
0.0
 40
0.0
 40
1.0
 40
1.0
 40
1.0
 40
2.0
 40
2.0
 40
2.0
 40
2.0
 10
66.544775390624991
 20
200.8073811848958
 30
0.0
 10
66.519626193576386
 20
200.81082628038192
 30
0.0
 10
66.494821506076377
 20
200.81254882812499
 30
0.0
 10
66.472772894965274
 20
200.81254882812499
 30
0.0
 10
66.20336642795138
 20
200.81254882812499
 30
0.0
 10
65.984258355034711
 20
200.59791937934025
 30
0.0
 10
65.977023654513886
 20
200.32989095052082
 30
0.0
  0
LINE
  5
133
100
AcDbEntity
  8
レイヤー_2
 62
     7
100
AcDbLine
 10
62.170538
 20
195.95462
 30
0.0
 11
70.919702
 21
195.95462
 31
0.0
  0
LINE
  5
132
100
AcDbEntity
  8
レイヤー_2
 62
     7
100
AcDbLine
 10
67.113216
 20
200.329891
 30
0.0
 11
67.113216
 21
197.329557
 31
0.0
  0
LINE
  5
131
100
AcDbEntity
  8
レイヤー_2
 62
     7
100
AcDbLine
 10
65.977024
 20
197.329557
 30
0.0
 11
65.977024
 21
200.329891
 31
0.0
  0
LINE
  5
130
100
AcDbEntity
  8
レイヤー_2
 62
     7
100
AcDbLine
 10
70.919702
 20
195.579449
 30
0.0
 11
62.170538
 21
195.579449
 31
0.0
  0
POLYLINE
  5
12B
100
AcDbEntity
  8
レイヤー_2
 62
     7
100
AcDb2dPolyline
 66
     1
 10
0.0
 20
0.0
 30
0.0
  0
VERTEX
  5
12C
100
AcDbEntity
  8
レイヤー_2
 62
     7
100
AcDbVertex
100
AcDb2dVertex
 10
68.306253
 20
184.557555
 30
0.0
  0
VERTEX
  5
12D
100
AcDbEntity
  8
レイヤー_2
 62
     7
100
AcDbVertex
100
AcDb2dVertex
 10
68.289716
 20
184.463504
 30
0.0
  0
VERTEX
  5
12E
100
AcDbEntity
  8
レイヤー_2
 62
     7
100
AcDbVertex
100
AcDb2dVertex
 10
68.24872
 20
184.362218
 30
0.0
  0
SEQEND
  5
12F
100
AcDbEntity
  8
レイヤー_2
 62
     7
  0
POLYLINE
  5
126
100
AcDbEntity
  8
レイヤー_2
 62
     7
100
AcDb2dPolyline
 66
     1
 10
0.0
 20
0.0
 30
0.0
  0
VERTEX
  5
127
100
AcDbEntity
  8
レイヤー_2
 62
     7
100
AcDbVertex
100
AcDb2dVertex
 10
64.822572
 20
184.401836
 30
0.0
  0
VERTEX
  5
128
100
AcDbEntity
  8
レイヤー_2
 62
     7
100
AcDbVertex
100
AcDb2dVertex
 10
64.800524
 20
184.463504
 30
0.0
  0
VERTEX
  5
129
100
AcDbEntity
  8
レイヤー_2
 62
     7
100
AcDbVertex
100
AcDb2dVertex
 10
64.786743
 20
184.532061
 30
0.0
  0
SEQEND
  5
12A
100
AcDbEntity
  8
レイヤー_2
 62
     7
  0
LINE
  5
125
100
AcDbEntity
  8
レイヤー_2
 62
     7
100
AcDbLine
 10
126.490126
 20
169.329199
 30
0.0
 11
126.490126
 21
170.704826
 31
0.0
  0
LINE
  5
124
100
AcDbEntity
  8
レイヤー_2
 62
     7
100
AcDbLine
 10
114.989708
 20
170.704826
 30
0.0
 11
114.989708
 21
169.329199
 31
0.0
  0
LINE
  5
123
100
AcDbEntity
  8
レイヤー_2
 62
     7
100
AcDbLine
 10
142.111222
 20
184.017019
 30
0.0
 11
142.486393
 21
183.367619
 31
0.0
  0
LINE
  5
122
100
AcDbEntity
  8
レイヤー_2
 62
     7
100
AcDbLine
 10
146.491317
 20
185.679622
 30
0.0
 11
146.116835
 21
186.329712
 31
0.0
  0
LINE
  5
121
100
AcDbEntity
  8
レイヤー_2
 62
     7
100
AcDbLine
 10
146.446186
 20
185.50909
 30
0.0
 11
146.491317
 21
185.679622
 31
0.0
  0
LINE
  5
120
100
AcDbEntity
  8
レイヤー_2
 62
     7
100
AcDbLine
 10
142.486393
 20
183.367619
 30
0.0
 11
142.656925
 21
183.321799
 31
0.0
  0
LINE
  5
11F
100
AcDbEntity
  8
レイヤー_2
 62
     7
100
AcDbLine
 10
127.757921
 20
186.58017
 30
0.0
 11
137.239513
 21
186.58017
 31
0.0
  0
LINE
  5
11E
100
AcDbEntity
  8
レイヤー_2
 62
     7
100
AcDbLine
 10
125.114499
 20
186.58017
 30
0.0
 11
126.714746
 21
186.58017
 31
0.0
  0
LINE
  5
11D
100
AcDbEntity
  8
レイヤー_2
 62
     7
100
AcDbLine
 10
137.239513
 20
192.079576
 30
0.0
 11
125.114499
 21
192.079576
 31
0.0
  0
SPLINE
  5
11C
100
AcDbEntity
  8
レイヤー_2
 62
     7
100
AcDbSpline
210
0.0
220
0.0
230
1.0
 70
     8
 71
     3
 72
     8
 73
     4
 74
     0
 42
0.00000001
 43
0.00000001
 40
0.0
 40
0.0
 40
0.0
 40
0.0
 40
1.0
 40
1.0
 40
1.0
 40
1.0
 10
141.56965332031248
 20
184.07937554253471
 30
0.0
 10
140.6494683159722
 20
185.67376573350694
 30
0.0
 10
138.98307562934028
 20
186.56983506944442
 30
0.0
 10
137.23951280381942
 20
186.58017035590277
 30
0.0
  0
SPLINE
  5
11B
100
AcDbEntity
  8
レイヤー_2
 62
     7
100
AcDbSpline
210
0.0
220
0.0
230
1.0
 70
     8
 71
     3
 72
     8
 73
     4
 74
     0
 42
0.00000001
 43
0.00000001
 40
0.0
 40
0.0
 40
0.0
 40
0.0
 40
1.0
 40
1.0
 40
1.0
 40
1.0
 10
146.33284233940972
 20
186.82959526909721
 30
0.0
 10
144.40014377170138
 20
190.17753906249999
 30
0.0
 10
140.90130479600694
 20
192.05856119791665
 30
0.0
 10
137.23951280381942
 20
192.07957628038193
 30
0.0
  0
LINE
  5
11A
100
AcDbEntity
  8
レイヤー_2
 62
     7
100
AcDbLine
 10
146.495106
 20
186.548131
 30
0.0
 11
146.332842
 21
186.829595
 31
0.0
  0
LINE
  5
119
100
AcDbEntity
  8
レイヤー_2
 62
     7
100
AcDbLine
 10
141.569653
 20
184.079376
 30
0.0
 11
141.732262
 21
183.7986
 31
0.0
  0
SPLINE
  5
118
100
AcDbEntity
  8
レイヤー_2
 62
     7
100
AcDbSpline
210
0.0
220
0.0
230
1.0
 70
     8
 71
     3
 72
     8
 73
     4
 74
     0
 42
0.00000001
 43
0.00000001
 40
0.0
 40
0.0
 40
0.0
 40
0.0
 40
1.0
 40
1.0
 40
1.0
 40
1.0
 10
125.11553276909721
 20
201.70448404947913
 30
0.0
 10
122.03975151909721
 20
201.81197102864581
 30
0.0
 10
118.98636338975693
 20
201.8081814236111
 30
0.0
 10
116.36430121527776
 20
201.70448404947913
 30
0.0
  0
LINE
  5
117
100
AcDbEntity
  8
レイヤー_2
 62
     7
100
AcDbLine
 10
116.364301
 20
201.704484
 30
0.0
 11
116.364301
 21
195.95462
 31
0.0
  0
LINE
  5
116
100
AcDbEntity
  8
レイヤー_2
 62
     7
100
AcDbLine
 10
125.114499
 20
200.807381
 30
0.0
 11
125.114499
 21
201.704484
 31
0.0
  0
LINE
  5
115
100
AcDbEntity
  8
レイヤー_2
 62
     7
100
AcDbLine
 10
125.114499
 20
195.95462
 30
0.0
 11
125.114499
 21
196.852412
 31
0.0
  0
LINE
  5
114
100
AcDbEntity
  8
レイヤー_2
 62
     7
100
AcDbLine
 10
124.052376
 20
195.579449
 30
0.0
 11
124.052376
 21
195.95462
 31
0.0
  0
LINE
  5
113
100
AcDbEntity
  8
レイヤー_2
 62
     7
100
AcDbLine
 10
117.427113
 20
195.95462
 30
0.0
 11
117.427113
 21
195.579449
 31
0.0
  0
LINE
  5
112
100
AcDbEntity
  8
レイヤー_2
 62
     7
100
AcDbLine
 10
125.114499
 20
192.079576
 30
0.0
 11
125.114499
 21
195.579449
 31
0.0
  0
LINE
  5
111
100
AcDbEntity
  8
レイヤー_2
 62
     7
100
AcDbLine
 10
125.114499
 20
170.704826
 30
0.0
 11
125.114499
 21
186.58017
 31
0.0
  0
LINE
  5
110
100
AcDbEntity
  8
レイヤー_2
 62
     7
100
AcDbLine
 10
116.364301
 20
195.579449
 30
0.0
 11
116.364301
 21
170.704826
 31
0.0
  0
LINE
  5
10F
100
AcDbEntity
  8
レイヤー_2
 62
     7
100
AcDbLine
 10
126.490126
 20
170.704826
 30
0.0
 11
114.989708
 21
170.704826
 31
0.0
  0
LINE
  5
10E
100
AcDbEntity
  8
レイヤー_2
 62
     7
100
AcDbLine
 10
142.486393
 20
183.367619
 30
0.0
 11
143.699411
 21
184.067662
 31
0.0
  0
LINE
  5
10D
100
AcDbEntity
  8
レイヤー_2
 62
     7
100
AcDbLine
 10
145.278988
 20
184.979924
 30
0.0
 11
146.491317
 21
185.679622
 31
0.0
  0
LINE
  5
10C
100
AcDbEntity
  8
レイヤー_2
 62
     7
100
AcDbLine
 10
145.278988
 20
184.979924
 30
0.0
 11
144.966517
 21
185.521148
 31
0.0
  0
LINE
  5
10B
100
AcDbEntity
  8
レイヤー_2
 62
     7
100
AcDbLine
 10
143.386252
 20
184.608542
 30
0.0
 11
144.966517
 21
185.521148
 31
0.0
  0
LINE
  5
10A
100
AcDbEntity
  8
レイヤー_2
 62
     7
100
AcDbLine
 10
143.699411
 20
184.067662
 30
0.0
 11
143.386252
 21
184.608542
 31
0.0
  0
LINE
  5
109
100
AcDbEntity
  8
レイヤー_2
 62
     7
100
AcDbLine
 10
145.001313
 20
184.675722
 30
0.0
 11
146.446186
 21
185.50909
 31
0.0
  0
POLYLINE
  5
104
100
AcDbEntity
  8
レイヤー_2
 62
     7
100
AcDb2dPolyline
 66
     1
 10
0.0
 20
0.0
 30
0.0
  0
VERTEX
  5
105
100
AcDbEntity
  8
レイヤー_2
 62
     7
100
AcDbVertex
100
AcDb2dVertex
 10
145.278988
 20
184.979924
 30
0.0
  0
VERTEX
  5
106
100
AcDbEntity
  8
レイヤー_2
 62
     7
100
AcDbVertex
100
AcDb2dVertex
 10
145.163921
 20
184.843153
 30
0.0
  0
VERTEX
  5
107
100
AcDbEntity
  8
レイヤー_2
 62
     7
100
AcDbVertex
100
AcDb2dVertex
 10
145.001313
 20
184.675722
 30
0.0
  0
SEQEND
  5
108
100
AcDbEntity
  8
レイヤー_2
 62
     7
  0
POLYLINE
  5
FF
100
AcDbEntity
  8
レイヤー_2
 62
     7
100
AcDb2dPolyline
 66
     1
 10
0.0
 20
0.0
 30
0.0
  0
VERTEX
  5
100
100
AcDbEntity
  8
レイヤー_2
 62
     7
100
AcDbVertex
100
AcDb2dVertex
 10
143.699411
 20
184.067662
 30
0.0
  0
VERTEX
  5
101
100
AcDbEntity
  8
レイヤー_2
 62
     7
100
AcDbVertex
100
AcDb2dVertex
 10
143.931955
 20
184.111415
 30
0.0
  0
VERTEX
  5
102
100
AcDbEntity
  8
レイヤー_2
 62
     7
100
AcDbVertex
100
AcDb2dVertex
 10
144.101799
 20
184.155857
 30
0.0
  0
SEQEND
  5
103
100
AcDbEntity
  8
レイヤー_2
 62
     7
  0
LINE
  5
FE
100
AcDbEntity
  8
レイヤー_2
 62
     7
100
AcDbLine
 10
144.101799
 20
184.155857
 30
0.0
 11
145.001313
 21
184.675722
 31
0.0
  0
LINE
  5
FD
100
AcDbEntity
  8
レイヤー_2
 62
     7
100
AcDbLine
 10
142.656925
 20
183.321799
 30
0.0
 11
144.101799
 21
184.155857
 31
0.0
  0
LINE
  5
FC
100
AcDbEntity
  8
レイヤー_2
 62
     7
100
AcDbLine
 10
126.796395
 20
186.583615
 30
0.0
 11
126.761599
 21
186.583615
 31
0.0
  0
LINE
  5
FB
100
AcDbEntity
  8
レイヤー_2
 62
     7
100
AcDbLine
 10
127.718647
 20
186.583615
 30
0.0
 11
126.796395
 21
186.583615
 31
0.0
  0
POLYLINE
  5
EE
100
AcDbEntity
  8
レイヤー_2
 62
     7
100
AcDb2dPolyline
 66
     1
 10
0.0
 20
0.0
 30
0.0
  0
VERTEX
  5
EF
100
AcDbEntity
  8
レイヤー_2
 62
     7
100
AcDbVertex
100
AcDb2dVertex
 10
124.142638
 20
189.329701
 30
0.0
  0
VERTEX
  5
F0
100
AcDbEntity
  8
レイヤー_2
 62
     7
100
AcDbVertex
100
AcDb2dVertex
 10
124.16572
 20
189.73071
 30
0.0
  0
VERTEX
  5
F1
100
AcDbEntity
  8
レイヤー_2
 62
     7
100
AcDbVertex
100
AcDb2dVertex
 10
124.235655
 20
190.132064
 30
0.0
  0
VERTEX
  5
F2
100
AcDbEntity
  8
レイヤー_2
 62
     7
100
AcDbVertex
100
AcDb2dVertex
 10
124.336252
 20
190.494832
 30
0.0
  0
VERTEX
  5
F3
100
AcDbEntity
  8
レイヤー_2
 62
     7
100
AcDbVertex
100
AcDb2dVertex
 10
124.461654
 20
190.837619
 30
0.0
  0
VERTEX
  5
F4
100
AcDbEntity
  8
レイヤー_2
 62
     7
100
AcDbVertex
100
AcDb2dVertex
 10
124.61186
 20
191.177995
 30
0.0
  0
VERTEX
  5
F5
100
AcDbEntity
  8
レイヤー_2
 62
     7
100
AcDbVertex
100
AcDb2dVertex
 10
124.765167
 20
191.48013
 30
0.0
  0
VERTEX
  5
F6
100
AcDbEntity
  8
レイヤー_2
 62
     7
100
AcDbVertex
100
AcDb2dVertex
 10
124.914684
 20
191.749192
 30
0.0
  0
VERTEX
  5
F7
100
AcDbEntity
  8
レイヤー_2
 62
     7
100
AcDbVertex
100
AcDb2dVertex
 10
125.034229
 20
191.950041
 30
0.0
  0
VERTEX
  5
F8
100
AcDbEntity
  8
レイヤー_2
 62
     7
100
AcDbVertex
100
AcDb2dVertex
 10
125.096929
 20
192.051671
 30
0.0
  0
VERTEX
  5
F9
100
AcDbEntity
  8
レイヤー_2
 62
     7
100
AcDbVertex
100
AcDb2dVertex
 10
125.111399
 20
192.07372
 30
0.0
  0
SEQEND
  5
FA
100
AcDbEntity
  8
レイヤー_2
 62
     7
  0
POLYLINE
  5
E0
100
AcDbEntity
  8
レイヤー_2
 62
     7
100
AcDb2dPolyline
 66
     1
 10
0.0
 20
0.0
 30
0.0
  0
VERTEX
  5
E1
100
AcDbEntity
  8
レイヤー_2
 62
     7
100
AcDbVertex
100
AcDb2dVertex
 10
125.11071
 20
186.587061
 30
0.0
  0
VERTEX
  5
E2
100
AcDbEntity
  8
レイヤー_2
 62
     7
100
AcDbVertex
100
AcDb2dVertex
 10
125.106576
 20
186.592917
 30
0.0
  0
VERTEX
  5
E3
100
AcDbEntity
  8
レイヤー_2
 62
     7
100
AcDbVertex
100
AcDb2dVertex
 10
125.062478
 20
186.665264
 30
0.0
  0
VERTEX
  5
E4
100
AcDbEntity
  8
レイヤー_2
 62
     7
100
AcDbVertex
100
AcDb2dVertex
 10
124.988064
 20
186.785498
 30
0.0
  0
VERTEX
  5
E5
100
AcDbEntity
  8
レイヤー_2
 62
     7
100
AcDbVertex
100
AcDb2dVertex
 10
124.887467
 20
186.958097
 30
0.0
  0
VERTEX
  5
E6
100
AcDbEntity
  8
レイヤー_2
 62
     7
100
AcDbVertex
100
AcDb2dVertex
 10
124.757587
 20
187.193053
 30
0.0
  0
VERTEX
  5
E7
100
AcDbEntity
  8
レイヤー_2
 62
     7
100
AcDbVertex
100
AcDb2dVertex
 10
124.612549
 20
187.480718
 30
0.0
  0
VERTEX
  5
E8
100
AcDbEntity
  8
レイヤー_2
 62
     7
100
AcDbVertex
100
AcDb2dVertex
 10
124.44994
 20
187.852444
 30
0.0
  0
VERTEX
  5
E9
100
AcDbEntity
  8
レイヤー_2
 62
     7
100
AcDbVertex
100
AcDb2dVertex
 10
124.299734
 20
188.284115
 30
0.0
  0
VERTEX
  5
EA
100
AcDbEntity
  8
レイヤー_2
 62
     7
100
AcDbVertex
100
AcDb2dVertex
 10
124.21154
 20
188.640682
 30
0.0
  0
VERTEX
  5
EB
100
AcDbEntity
  8
レイヤー_2
 62
     7
100
AcDbVertex
100
AcDb2dVertex
 10
124.156074
 20
189.026533
 30
0.0
  0
VERTEX
  5
EC
100
AcDbEntity
  8
レイヤー_2
 62
     7
100
AcDbVertex
100
AcDb2dVertex
 10
124.142638
 20
189.329701
 30
0.0
  0
SEQEND
  5
ED
100
AcDbEntity
  8
レイヤー_2
 62
     7
  0
POLYLINE
  5
D3
100
AcDbEntity
  8
レイヤー_2
 62
     7
100
AcDb2dPolyline
 66
     1
 10
0.0
 20
0.0
 30
0.0
  0
VERTEX
  5
D4
100
AcDbEntity
  8
レイヤー_2
 62
     7
100
AcDbVertex
100
AcDb2dVertex
 10
126.714746
 20
186.58017
 30
0.0
  0
VERTEX
  5
D5
100
AcDbEntity
  8
レイヤー_2
 62
     7
100
AcDbVertex
100
AcDb2dVertex
 10
126.743685
 20
186.585338
 30
0.0
  0
VERTEX
  5
D6
100
AcDbEntity
  8
レイヤー_2
 62
     7
100
AcDbVertex
100
AcDb2dVertex
 10
126.827056
 20
186.598774
 30
0.0
  0
VERTEX
  5
D7
100
AcDbEntity
  8
レイヤー_2
 62
     7
100
AcDbVertex
100
AcDb2dVertex
 10
126.957625
 20
186.615655
 30
0.0
  0
VERTEX
  5
D8
100
AcDbEntity
  8
レイヤー_2
 62
     7
100
AcDbVertex
100
AcDb2dVertex
 10
127.120578
 20
186.627713
 30
0.0
  0
VERTEX
  5
D9
100
AcDbEntity
  8
レイヤー_2
 62
     7
100
AcDbVertex
100
AcDb2dVertex
 10
127.295934
 20
186.629435
 30
0.0
  0
VERTEX
  5
DA
100
AcDbEntity
  8
レイヤー_2
 62
     7
100
AcDbVertex
100
AcDb2dVertex
 10
127.462676
 20
186.621167
 30
0.0
  0
VERTEX
  5
DB
100
AcDbEntity
  8
レイヤー_2
 62
     7
100
AcDbVertex
100
AcDb2dVertex
 10
127.605648
 20
186.605664
 30
0.0
  0
VERTEX
  5
DC
100
AcDbEntity
  8
レイヤー_2
 62
     7
100
AcDbVertex
100
AcDb2dVertex
 10
127.70969
 20
186.589472
 30
0.0
  0
VERTEX
  5
DD
100
AcDbEntity
  8
レイヤー_2
 62
     7
100
AcDbVertex
100
AcDb2dVertex
 10
127.761366
 20
186.580859
 30
0.0
  0
VERTEX
  5
DE
100
AcDbEntity
  8
レイヤー_2
 62
     7
100
AcDbVertex
100
AcDb2dVertex
 10
127.757921
 20
186.580859
 30
0.0
  0
SEQEND
  5
DF
100
AcDbEntity
  8
レイヤー_2
 62
     7
  0
LINE
  5
D2
100
AcDbEntity
  8
レイヤー_2
 62
     7
100
AcDbLine
 10
141.732262
 20
183.7986
 30
0.0
 11
146.495106
 21
186.548131
 31
0.0
  0
SPLINE
  5
D1
100
AcDbEntity
  8
レイヤー_2
 62
     7
100
AcDbSpline
210
0.0
220
0.0
230
1.0
 70
     8
 71
     3
 72
     8
 73
     4
 74
     0
 42
0.00000001
 43
0.00000001
 40
0.0
 40
0.0
 40
0.0
 40
0.0
 40
1.0
 40
1.0
 40
1.0
 40
1.0
 10
125.11449924045138
 20
200.8073811848958
 30
0.0
 10
125.08693847656249
 20
200.64132758246527
 30
0.0
 10
125.07488064236109
 20
200.47596299913192
 30
0.0
 10
125.07763671874999
 20
200.32989095052082
 30
0.0
  0
LINE
  5
D0
100
AcDbEntity
  8
レイヤー_2
 62
     7
100
AcDbLine
 10
125.077637
 20
197.329557
 30
0.0
 11
125.077637
 21
200.329891
 31
0.0
  0
SPLINE
  5
CF
100
AcDbEntity
  8
レイヤー_2
 62
     7
100
AcDbSpline
210
0.0
220
0.0
230
1.0
 70
     8
 71
     3
 72
     8
 73
     4
 74
     0
 42
0.00000001
 43
0.00000001
 40
0.0
 40
0.0
 40
0.0
 40
0.0
 40
1.0
 40
1.0
 40
1.0
 40
1.0
 10
125.07763671874999
 20
197.32955729166665
 30
0.0
 10
125.07591417100693
 20
197.16109212239581
 30
0.0
 10
125.08935004340276
 20
196.99572753906247
 30
0.0
 10
125.11449924045138
 20
196.85241156684026
 30
0.0
  0
LINE
  5
CE
100
AcDbEntity
  8
レイヤー_2
 62
     7
100
AcDbLine
 10
116.364301
 20
195.95462
 30
0.0
 11
125.114499
 21
195.95462
 31
0.0
  0
LINE
  5
CD
100
AcDbEntity
  8
レイヤー_2
 62
     7
100
AcDbLine
 10
125.114499
 20
195.579449
 30
0.0
 11
116.364301
 21
195.579449
 31
0.0
  0
LINE
  5
CC
100
AcDbEntity
  8
レイヤー_2
 62
     7
100
AcDbLine
 10
62.311098
 20
169.329199
 30
0.0
 11
70.686469
 21
169.329199
 31
0.0
  0
LINE
  5
CB
100
AcDbEntity
  8
レイヤー_2
 62
     7
100
AcDbLine
 10
63.68638
 20
158.079584
 30
0.0
 11
69.311187
 21
158.079584
 31
0.0
  0
LINE
  5
CA
100
AcDbEntity
  8
レイヤー_2
 62
     7
100
AcDbLine
 10
63.89722
 20
158.054435
 30
0.0
 11
63.89722
 21
154.787107
 31
0.0
  0
LINE
  5
C9
100
AcDbEntity
  8
レイヤー_2
 62
     7
100
AcDbLine
 10
69.100003
 20
154.740253
 30
0.0
 11
69.100003
 21
158.06856
 31
0.0
  0
LINE
  5
C8
100
AcDbEntity
  8
レイヤー_2
 62
     7
100
AcDbLine
 10
68.590129
 20
154.318229
 30
0.0
 11
68.590129
 21
156.81799
 31
0.0
  0
LINE
  5
C7
100
AcDbEntity
  8
レイヤー_2
 62
     7
100
AcDbLine
 10
64.377121
 20
156.775271
 30
0.0
 11
64.377121
 21
154.275165
 31
0.0
  0
LINE
  5
C6
100
AcDbEntity
  8
レイヤー_2
 62
     7
100
AcDbLine
 10
64.372987
 20
154.304449
 30
0.0
 11
68.584272
 21
154.304449
 31
0.0
  0
LINE
  5
C5
100
AcDbEntity
  8
レイヤー_2
 62
     7
100
AcDbLine
 10
63.89722
 20
156.775271
 30
0.0
 11
69.100003
 21
156.775271
 31
0.0
  0
LINE
  5
C4
100
AcDbEntity
  8
レイヤー_2
 62
     7
100
AcDbLine
 10
64.372987
 20
154.304449
 30
0.0
 11
63.89722
 21
154.787107
 31
0.0
  0
LINE
  5
C3
100
AcDbEntity
  8
レイヤー_2
 62
     7
100
AcDbLine
 10
68.590129
 20
154.318229
 30
0.0
 11
69.100003
 21
154.740253
 31
0.0
  0
LINE
  5
C2
100
AcDbEntity
  8
レイヤー_2
 62
     7
100
AcDbLine
 10
123.265516
 20
162.064182
 30
0.0
 11
123.265516
 21
167.329321
 31
0.0
  0
LINE
  5
C1
100
AcDbEntity
  8
レイヤー_2
 62
     7
100
AcDbLine
 10
118.063078
 20
167.329321
 30
0.0
 11
118.063078
 21
162.064182
 31
0.0
  0
LINE
  5
C0
100
AcDbEntity
  8
レイヤー_2
 62
     7
100
AcDbLine
 10
116.760487
 20
158.333488
 30
0.0
 11
124.498172
 21
158.333488
 31
0.0
  0
SPLINE
  5
BF
100
AcDbEntity
  8
レイヤー_2
 62
     7
100
AcDbSpline
210
0.0
220
0.0
230
1.0
 70
     8
 71
     3
 72
     8
 73
     4
 74
     0
 42
0.00000001
 43
0.00000001
 40
0.0
 40
0.0
 40
0.0
 40
0.0
 40
1.0
 40
1.0
 40
1.0
 40
1.0
 10
125.53996853298609
 20
160.45015462239581
 30
0.0
 10
125.6081814236111
 20
160.45015462239581
 30
0.0
 10
125.66433648003471
 20
160.50665418836803
 30
0.0
 10
125.66433648003471
 20
160.57590060763889
 30
0.0
  0
SPLINE
  5
BE
100
AcDbEntity
  8
レイヤー_2
 62
     7
100
AcDbSpline
210
0.0
220
0.0
230
1.0
 70
     8
 71
     3
 72
     8
 73
     4
 74
     0
 42
0.00000001
 43
0.00000001
 40
0.0
 40
0.0
 40
0.0
 40
0.0
 40
1.0
 40
1.0
 40
1.0
 40
1.0
 10
115.66425781249998
 20
160.57590060763889
 30
0.0
 10
115.66425781249998
 20
160.50665418836803
 30
0.0
 10
115.72006835937499
 20
160.45015462239581
 30
0.0
 10
115.78965928819443
 20
160.45015462239581
 30
0.0
  0
LINE
  5
BD
100
AcDbEntity
  8
レイヤー_2
 62
     7
100
AcDbLine
 10
115.664258
 20
161.075439
 30
0.0
 11
115.664258
 21
160.575901
 31
0.0
  0
LINE
  5
BC
100
AcDbEntity
  8
レイヤー_2
 62
     7
100
AcDbLine
 10
125.664336
 20
160.575901
 30
0.0
 11
125.664336
 21
161.075439
 31
0.0
  0
LINE
  5
BB
100
AcDbEntity
  8
レイヤー_2
 62
     7
100
AcDbLine
 10
125.914795
 20
161.075439
 30
0.0
 11
125.914795
 21
161.325898
 31
0.0
  0
LINE
  5
BA
100
AcDbEntity
  8
レイヤー_2
 62
     7
100
AcDbLine
 10
115.414144
 20
161.325898
 30
0.0
 11
115.414144
 21
161.075439
 31
0.0
  0
LINE
  5
B9
100
AcDbEntity
  8
レイヤー_2
 62
     7
100
AcDbLine
 10
126.664448
 20
161.325898
 30
0.0
 11
126.664448
 21
162.075895
 31
0.0
  0
LINE
  5
B8
100
AcDbEntity
  8
レイヤー_2
 62
     7
100
AcDbLine
 10
114.664491
 20
162.075895
 30
0.0
 11
114.664491
 21
161.325898
 31
0.0
  0
LINE
  5
B7
100
AcDbEntity
  8
レイヤー_2
 62
     7
100
AcDbLine
 10
124.851983
 20
167.329321
 30
0.0
 11
124.851983
 21
169.329199
 31
0.0
  0
LINE
  5
B6
100
AcDbEntity
  8
レイヤー_2
 62
     7
100
AcDbLine
 10
116.476611
 20
169.329199
 30
0.0
 11
116.476611
 21
167.329321
 31
0.0
  0
LINE
  5
B5
100
AcDbEntity
  8
レイヤー_2
 62
     7
100
AcDbLine
 10
125.539969
 20
160.450155
 30
0.0
 11
115.789659
 21
160.450155
 31
0.0
  0
LINE
  5
B4
100
AcDbEntity
  8
レイヤー_2
 62
     7
100
AcDbLine
 10
118.715579
 20
160.450155
 30
0.0
 11
118.715579
 21
158.325564
 31
0.0
  0
LINE
  5
B3
100
AcDbEntity
  8
レイヤー_2
 62
     7
100
AcDbLine
 10
116.767377
 20
160.450155
 30
0.0
 11
116.767377
 21
158.325564
 31
0.0
  0
LINE
  5
B2
100
AcDbEntity
  8
レイヤー_2
 62
     7
100
AcDbLine
 10
122.613015
 20
158.325564
 30
0.0
 11
122.613015
 21
160.450155
 31
0.0
  0
LINE
  5
B1
100
AcDbEntity
  8
レイヤー_2
 62
     7
100
AcDbLine
 10
124.56225
 20
160.450155
 30
0.0
 11
124.56225
 21
158.325564
 31
0.0
  0
LINE
  5
B0
100
AcDbEntity
  8
レイヤー_2
 62
     7
100
AcDbLine
 10
125.914795
 20
161.075439
 30
0.0
 11
115.414144
 21
161.075439
 31
0.0
  0
LINE
  5
AF
100
AcDbEntity
  8
レイヤー_2
 62
     7
100
AcDbLine
 10
126.664448
 20
162.075895
 30
0.0
 11
114.664491
 21
162.075895
 31
0.0
  0
LINE
  5
AE
100
AcDbEntity
  8
レイヤー_2
 62
     7
100
AcDbLine
 10
126.664448
 20
161.325898
 30
0.0
 11
114.664491
 21
161.325898
 31
0.0
  0
LINE
  5
AD
100
AcDbEntity
  8
レイヤー_2
 62
     7
100
AcDbLine
 10
116.476611
 20
169.329199
 30
0.0
 11
124.851983
 21
169.329199
 31
0.0
  0
LINE
  5
AC
100
AcDbEntity
  8
レイヤー_2
 62
     7
100
AcDbLine
 10
118.550903
 20
167.329321
 30
0.0
 11
118.550903
 21
162.064182
 31
0.0
  0
LINE
  5
AB
100
AcDbEntity
  8
レイヤー_2
 62
     7
100
AcDbLine
 10
122.839014
 20
162.064182
 30
0.0
 11
122.839014
 21
167.329321
 31
0.0
  0
LINE
  5
AA
100
AcDbEntity
  8
レイヤー_2
 62
     7
100
AcDbLine
 10
118.1244
 20
158.308683
 30
0.0
 11
118.1244
 21
155.041355
 31
0.0
  0
LINE
  5
A9
100
AcDbEntity
  8
レイヤー_2
 62
     7
100
AcDbLine
 10
123.327184
 20
154.99519
 30
0.0
 11
123.327184
 21
158.323153
 31
0.0
  0
LINE
  5
A8
100
AcDbEntity
  8
レイヤー_2
 62
     7
100
AcDbLine
 10
122.817654
 20
154.572822
 30
0.0
 11
122.817654
 21
157.073272
 31
0.0
  0
LINE
  5
A7
100
AcDbEntity
  8
レイヤー_2
 62
     7
100
AcDbLine
 10
118.603958
 20
157.029864
 30
0.0
 11
118.603958
 21
154.529758
 31
0.0
  0
LINE
  5
A6
100
AcDbEntity
  8
レイヤー_2
 62
     7
100
AcDbLine
 10
118.599824
 20
154.558697
 30
0.0
 11
122.811453
 21
154.558697
 31
0.0
  0
LINE
  5
A5
100
AcDbEntity
  8
レイヤー_2
 62
     7
100
AcDbLine
 10
118.1244
 20
157.029864
 30
0.0
 11
123.327184
 21
157.029864
 31
0.0
  0
LINE
  5
A4
100
AcDbEntity
  8
レイヤー_2
 62
     7
100
AcDbLine
 10
118.599824
 20
154.558697
 30
0.0
 11
118.1244
 21
155.041355
 31
0.0
  0
LINE
  5
A3
100
AcDbEntity
  8
レイヤー_2
 62
     7
100
AcDbLine
 10
122.817654
 20
154.572822
 30
0.0
 11
123.327184
 21
154.99519
 31
0.0
  0
LINE
  5
A2
100
AcDbEntity
  8
レイヤー_2
 62
     7
100
AcDbLine
 10
126.490126
 20
169.329199
 30
0.0
 11
114.989708
 21
169.329199
 31
0.0
  0
LINE
  5
A1
100
AcDbEntity
  8
レイヤー_2
 62
     7
100
AcDbLine
 10
62.311098
 20
167.329321
 30
0.0
 11
70.686469
 21
167.329321
 31
0.0
  0
LINE
  5
A0
100
AcDbEntity
  8
レイヤー_2
 62
     7
100
AcDbLine
 10
116.476611
 20
167.329321
 30
0.0
 11
124.851983
 21
167.329321
 31
0.0
  0
LINE
  5
9F
100
AcDbEntity
  8
レイヤー_2
  6
AI9-LType1
 62
     7
100
AcDbLine
 10
120.684451
 20
153.041821
 30
0.0
 11
120.684451
 21
202.728366
 31
0.0
  0
LINE
  5
9E
100
AcDbEntity
  8
レイヤー_2
 62
     7
100
AcDbLine
 10
120.684451
 20
202.728366
 30
0.0
 11
120.684451
 21
203.728478
 31
0.0
  0
LINE
  5
9D
100
AcDbEntity
  8
レイヤー_2
  6
AI9-LType1
 62
     7
100
AcDbLine
 10
143.544038
 20
186.069607
 30
0.0
 11
144.459055
 21
184.485208
 31
0.0
  0
LINE
  5
9C
100
AcDbEntity
  8
レイヤー_2
 62
     7
100
AcDbLine
 10
144.459055
 20
184.485208
 30
0.0
 11
144.958938
 21
183.619111
 31
0.0
  0
LINE
  5
9B
100
AcDbEntity
  8
レイヤー_2
 62
     7
100
AcDbLine
 10
64.402615
 20
167.329321
 30
0.0
 11
64.402615
 21
161.829571
 31
0.0
  0
LINE
  5
9A
100
AcDbEntity
  8
レイヤー_2
 62
     7
100
AcDbLine
 10
68.69107
 20
161.829571
 30
0.0
 11
68.69107
 21
167.329321
 31
0.0
  0
LINE
  5
99
100
AcDbEntity
  8
レイヤー_2
 62
     7
100
AcDbLine
 10
170.848831
 20
185.568346
 30
0.0
 11
170.848831
 21
168.275345
 31
0.0
  0
LINE
  5
98
100
AcDbEntity
  8
レイヤー_2
 62
     7
100
AcDbLine
 10
72.295329
 20
215.099704
 30
0.0
 11
72.295329
 21
171.880637
 31
0.0
  0
LINE
  5
97
100
AcDbEntity
  8
レイヤー_2
 62
     7
100
AcDbLine
 10
145.436428
 20
184.393913
 30
0.0
 11
152.098554
 21
184.393913
 31
0.0
  0
LINE
  5
96
100
AcDbEntity
  8
レイヤー_2
 62
     7
100
AcDbLine
 10
161.249072
 20
184.393913
 30
0.0
 11
172.318164
 21
184.393913
 31
0.0
  0
LINE
  5
95
100
AcDbEntity
  8
レイヤー_2
 62
     7
100
AcDbLine
 10
153.981988
 20
169.329199
 30
0.0
 11
182.757837
 21
169.329199
 31
0.0
  0
LINE
  5
94
100
AcDbEntity
  8
レイヤー_2
 62
     7
100
AcDbLine
 10
46.335156
 20
163.00676
 30
0.0
 11
48.781174
 21
160.832905
 31
0.0
  0
LINE
  5
93
100
AcDbEntity
  8
レイヤー_2
 62
     7
100
AcDbLine
 10
169.632368
 20
185.234861
 30
0.0
 11
172.078041
 21
183.060661
 31
0.0
  0
LINE
  5
92
100
AcDbEntity
  8
レイヤー_2
 62
     7
100
AcDbLine
 10
180.423785
 20
170.455401
 30
0.0
 11
182.869803
 21
168.281201
 31
0.0
  0
LINE
  5
91
100
AcDbEntity
  8
レイヤー_2
 62
     7
100
AcDbLine
 10
180.386922
 20
202.787967
 30
0.0
 11
182.83294
 21
200.614111
 31
0.0
  0
LINE
  5
90
100
AcDbEntity
  8
レイヤー_2
 62
     7
100
AcDbLine
 10
60.794911
 20
215.134844
 30
0.0
 11
60.794911
 21
171.880637
 31
0.0
  0
LINE
  5
8F
100
AcDbEntity
  8
レイヤー_2
 62
     7
100
AcDbLine
 10
181.633702
 20
203.244786
 30
0.0
 11
181.633702
 21
168.189217
 31
0.0
  0
LINE
  5
8E
100
AcDbEntity
  8
レイヤー_2
 62
     7
100
AcDbLine
 10
120.684451
 20
215.765297
 30
0.0
 11
120.684451
 21
204.271769
 31
0.0
  0
LINE
  5
8D
100
AcDbEntity
  8
レイヤー_2
 62
     7
100
AcDbLine
 10
126.169387
 20
201.704484
 30
0.0
 11
182.890473
 21
201.704484
 31
0.0
  0
LINE
  5
8C
100
AcDbEntity
  8
レイヤー_2
 62
     7
100
AcDbLine
 10
46.394067
 20
169.329199
 30
0.0
 11
54.990959
 21
169.329199
 31
0.0
  0
LINE
  5
8B
100
AcDbEntity
  8
レイヤー_2
 62
     7
100
AcDbLine
 10
119.68055
 20
213.312044
 30
0.0
 11
121.854405
 21
215.758062
 31
0.0
  0
LINE
  5
8A
100
AcDbEntity
  8
レイヤー_2
 62
     7
100
AcDbLine
 10
142.655892
 20
213.405406
 30
0.0
 11
144.829403
 21
215.852458
 31
0.0
  0
LINE
  5
89
100
AcDbEntity
  8
レイヤー_2
 62
     7
100
AcDbLine
 10
119.717413
 20
214.48131
 30
0.0
 11
145.086062
 21
214.48131
 31
0.0
  0
LINE
  5
88
100
AcDbEntity
  8
レイヤー_2
 62
     7
100
AcDbLine
 10
60.33568
 20
213.962478
 30
0.0
 11
61.260516
 21
215.054574
 31
0.0
  0
LINE
  5
87
100
AcDbEntity
  8
レイヤー_2
 62
     7
100
AcDbLine
 10
71.83472
 20
213.962478
 30
0.0
 11
72.751287
 21
215.054574
 31
0.0
  0
LINE
  5
86
100
AcDbEntity
  8
レイヤー_2
 62
     7
100
AcDbLine
 10
145.771292
 20
170.216656
 30
0.0
 11
143.597437
 21
167.770638
 31
0.0
  0
LINE
  5
85
100
AcDbEntity
  8
レイヤー_2
 62
     7
100
AcDbLine
 10
152.777238
 20
172.582058
 30
0.0
 11
151.840172
 21
169.445988
 31
0.0
  0
LINE
  5
84
100
AcDbEntity
  8
レイヤー_2
 62
     7
100
AcDbLine
 10
131.686363
 20
169.329199
 30
0.0
 11
141.812188
 21
169.329199
 31
0.0
  0
LINE
  5
83
100
AcDbEntity
  8
レイヤー_2
 62
     7
100
AcDbLine
 10
60.163081
 20
214.48131
 30
0.0
 11
72.837587
 21
214.48131
 31
0.0
  0
LINE
  5
82
100
AcDbEntity
  8
レイヤー_2
 62
     7
100
AcDbLine
 10
46.433686
 20
161.845074
 30
0.0
 11
59.716941
 21
161.845074
 31
0.0
  0
LINE
  5
81
100
AcDbEntity
  8
レイヤー_2
 62
     7
100
AcDbLine
 10
47.732487
 20
170.312774
 30
0.0
 11
47.732487
 21
136.732739
 31
0.0
  0
LINE
  5
80
100
AcDbEntity
  8
レイヤー_2
 62
     7
100
AcDbLine
 10
169.693346
 20
170.377542
 30
0.0
 11
172.139364
 21
168.203342
 31
0.0
  0
LINE
  5
7F
100
AcDbEntity
  8
レイヤー_2
 62
     7
100
AcDbLine
 10
46.433686
 20
170.421639
 30
0.0
 11
48.880393
 21
168.247439
 31
0.0
  0
LINE
  5
7E
100
AcDbEntity
  8
レイヤー_2
 62
     7
100
AcDbLine
 10
143.7001
 20
215.986127
 30
0.0
 11
143.7001
 21
191.16766
 31
0.0
  0
LINE
  5
7D
100
AcDbEntity
  8
レイヤー_2
 62
     7
100
AcDbLine
 10
145.346856
 20
182.988314
 30
0.0
 11
152.956727
 21
169.807723
 31
0.0
  0
SPLINE
  5
7C
100
AcDbEntity
  8
レイヤー_2
 62
     7
100
AcDbSpline
210
0.0
220
0.0
230
1.0
 70
     8
 71
     3
 72
     8
 73
     4
 74
     0
 42
0.00000001
 43
0.00000001
 40
0.0
 40
0.0
 40
0.0
 40
0.0
 40
1.0
 40
1.0
 40
1.0
 40
1.0
 10
160.39916720920138
 20
184.61681043836805
 30
0.0
 10
160.39916720920138
 20
185.21832411024303
 30
0.0
 10
160.36540527343749
 20
185.81225857204859
 30
0.0
 10
160.30546061197916
 20
186.32488878038194
 30
0.0
  0
SPLINE
  5
7B
100
AcDbEntity
  8
レイヤー_2
 62
     7
100
AcDbSpline
210
0.0
220
0.0
230
1.0
 70
     8
 71
     3
 72
    11
 73
     7
 74
     0
 42
0.00000001
 43
0.00000001
 40
0.0
 40
0.0
 40
0.0
 40
0.0
 40
1.0
 40
1.0
 40
1.0
 40
2.0
 40
2.0
 40
2.0
 40
2.0
 10
143.55437282986111
 20
169.04118923611111
 30
0.0
 10
143.98328721788192
 20
169.00777180989581
 30
0.0
 10
144.40910101996528
 20
168.99157986111109
 30
0.0
 10
144.77634819878472
 20
168.99364691840276
 30
0.0
 10
153.40458984374999
 20
168.99364691840276
 30
0.0
 10
160.39916720920138
 20
175.98787977430553
 30
0.0
 10
160.39916720920138
 20
184.61681043836805
 30
0.0
  0
LINE
  5
7A
100
AcDbEntity
  8
レイヤー_2
 62
     7
100
AcDbLine
 10
144.512454
 20
182.887028
 30
0.0
 11
144.512454
 21
167.80819
 31
0.0
  0
LINE
  5
79
100
AcDbEntity
  8
レイヤー_2
 62
     7
100
AcDbLine
 10
63.89722
 20
153.959939
 30
0.0
 11
63.89722
 21
143.91783
 31
0.0
  0
LINE
  5
78
100
AcDbEntity
  8
レイヤー_2
 62
     7
100
AcDbLine
 10
69.102759
 20
154.098088
 30
0.0
 11
69.102759
 21
143.838249
 31
0.0
  0
LINE
  5
77
100
AcDbEntity
  8
レイヤー_2
 62
     7
100
AcDbLine
 10
62.831651
 20
144.811833
 30
0.0
 11
89.743359
 21
144.811833
 31
0.0
  0
LINE
  5
76
100
AcDbEntity
  8
レイヤー_2
 62
     7
100
AcDbLine
 10
63.005629
 20
143.753155
 30
0.0
 11
65.179484
 21
146.199173
 31
0.0
  0
LINE
  5
75
100
AcDbEntity
  8
レイヤー_2
 62
     7
100
AcDbLine
 10
68.032368
 20
143.753155
 30
0.0
 11
70.205878
 21
146.199173
 31
0.0
  0
LINE
  5
74
100
AcDbEntity
  8
レイヤー_2
 62
     7
100
AcDbLine
 10
111.277273
 20
169.329199
 30
0.0
 11
130.010324
 21
169.329199
 31
0.0
  0
LINE
  5
73
100
AcDbEntity
  8
レイヤー_2
 62
     7
100
AcDbLine
 10
55.992448
 20
169.329199
 30
0.0
 11
77.006152
 21
169.329199
 31
0.0
  0
MTEXT
  5
72
100
AcDbEntity
  8
レイヤー_2
  6
AI9-LType1
 62
     7
100
AcDbMText
 10
59.166242
 20
221.125176
 30
0.0
 40
5.512152
 41
0.0
 71
     1
 72
     2
  1
\fMS Gothic|b0|i0|c128;\H5.5122;\C7;\U+03C6\U+0034\U+0036
  7
STD
210
0.0
220
0.0
230
1.0
 73
     1
 44
1.0
  0
MTEXT
  5
71
100
AcDbEntity
  8
レイヤー_2
  6
AI9-LType1
 62
     7
100
AcDbMText
 10
74.925487
 20
151.466723
 30
0.0
 40
5.512152
 41
0.0
 71
     1
 72
     2
  1
\fMS Gothic|b0|i0|c128;\H5.5122;\C7;\U+0047\U+0031\U+002F\U+0032
  7
STD
210
0.0
220
0.0
230
1.0
 73
     1
 44
1.0
  0
MTEXT
  5
70
100
AcDbEntity
  8
レイヤー_2
  6
AI9-LType1
 62
     7
100
AcDbMText
 10
128.738051
 20
221.360131
 30
0.0
 40
5.512152
 41
0.0
 71
     1
 72
     2
  1
\fMS Gothic|b0|i0|c128;\H5.5122;\C7;\U+0039\U+0032
  7
STD
210
0.0
220
0.0
230
1.0
 73
     1
 44
1.0
  0
MTEXT
  5
6F
100
AcDbEntity
  8
レイヤー_2
  6
AI9-LType1
 62
     7
100
AcDbMText
 10
164.497798
 20
173.295193
 30
0.0
 40
5.512152
 41
0.0
 71
     1
 72
     2
  1
\fMS Gothic|b0|i0|c128;\H5.5122;\C7;\U+0035\U+0039
  7
STD
210
0.0
220
0.0
230
1.0
 11
0.0
 21
1.0
 31
0.0
 73
     1
 44
1.0
  0
MTEXT
  5
6E
100
AcDbEntity
  8
レイヤー_2
  6
AI9-LType1
 62
     7
100
AcDbMText
 10
151.214378
 20
178.238216
 30
0.0
 40
5.512152
 41
0.0
 71
     1
 72
     2
  1
\fMS Gothic|b0|i0|c128;\H5.5122;\C7;\U+0033\U+0030\U+00B0
  7
STD
210
0.0
220
0.0
230
1.0
 11
0.5
 21
0.86603
 31
0.0
 73
     1
 44
1.0
  0
MTEXT
  5
6D
100
AcDbEntity
  8
レイヤー_2
  6
AI9-LType1
 62
     7
100
AcDbMText
 10
174.998793
 20
179.763015
 30
0.0
 40
5.512152
 41
0.0
 71
     1
 72
     2
  1
\fMS Gothic|b0|i0|c128;\H5.5122;\C7;\U+0031\U+0033\U+0030
  7
STD
210
0.0
220
0.0
230
1.0
 11
0.0
 21
1.0
 31
0.0
 73
     1
 44
1.0
  0
MTEXT
  5
6C
100
AcDbEntity
  8
レイヤー_2
  6
AI9-LType1
 62
     7
100
AcDbMText
 10
41.171131
 20
137.08345
 30
0.0
 40
5.512152
 41
0.0
 71
     1
 72
     2
  1
\fMS Gothic|b0|i0|c128;\H5.5122;\C7;\U+006D\U+0061\U+0078\U+002E\U+0033\U+0030
  7
STD
210
0.0
220
0.0
230
1.0
 11
0.0
 21
1.0
 31
0.0
 73
     1
 44
1.0
  0
LINE
  5
6B
100
AcDbEntity
  8
レイヤー_2
  6
AI9-LType1
 62
     7
100
AcDbLine
 10
66.498611
 20
91.022523
 30
0.0
 11
66.498611
 21
204.228361
 31
0.0
  0
INSERT
  5
5F
100
AcDbEntity
  8
レイヤー_2
 62
     7
100
AcDbBlockReference
  2
AI9-BLK3
 10
85.978645
 20
95.465663
 30
0.0
  0
INSERT
  5
2A
100
AcDbEntity
  8
レイヤー_2
 62
     7
100
AcDbBlockReference
  2
AI9-BLK1
 10
80.35401
 20
126.233122
 30
0.0
  0
ENDSEC
  0
SECTION
  2
OBJECTS
  0
DICTIONARY
  5
19
100
AcDbDictionary
280
     0
281
     1
  3
ACAD_GROUP
350
1A
  3
ACAD_MLINESTYLE
350
1B
  3
ACAD_LAYOUT
350
1E
  3
ACAD_PLOTSETTINGS
350
22
  3
ACAD_PLOTSTYLENAME
350
1F
  3
ACAD_WIPEOUT_VARS
350
23
  0
DICTIONARY
  5
1A
102
{ACAD_REACTORS
330
19
102
}
100
AcDbDictionary
280
     0
281
     1
  0
DICTIONARY
  5
1B
102
{ACAD_REACTORS
330
19
102
}
100
AcDbDictionary
280
     0
281
     1
  3
Standard
350
1C
  0
MLINESTYLE
  5
1C
102
{ACAD_REACTORS
330
1B
102
}
100
AcDbMlineStyle
  2
Standard
 70
     0
  3

 62
     0
 51
90.0
 52
90.0
 71
     2
 49
0.5
 62
   256
  6
ByLayer
 49
-0.5
 62
   256
  6
ByLayer
  0
ACDBDICTIONARYWDFLT
  5
1F
102
{ACAD_REACTORS
330
19
102
}
100
AcDbDictionary
281
     1
  3
Normal
350
1D
100
AcDbDictionaryWithDefault
340
1D
  0
ACDBPLACEHOLDER
  5
1D
102
{ACAD_REACTORS
330
1F
102
}
  0
LAYOUT
  5
20
102
{ACAD_REACTORS
330
1E
102
}
100
AcDbPlotSettings
  1

  2

  4

  6

 40
0.0
 41
0.0
 42
0.0
 43
0.0
 44
0.0
 45
0.0
 46
0.0
 47
0.0
 48
0.0
 49
0.0
140
0.0
141
0.0
142
1.0
143
1.0
 70
  1024
 72
     0
 73
     0
 74
     0
  7

 75
     0
147
1.0
148
0.0
149
0.0
100
AcDbLayout
  1
Model
 70
     0
 71
     0
 10
0.0
 20
0.0
 11
0.0
 21
0.0
 12
0.0
 22
0.0
 32
0.0
 14
0.0
 24
0.0
 34
0.0
 15
0.0
 25
0.0
 35
0.0
146
0.0
 13
0.0
 23
0.0
 33
0.0
 16
0.0
 26
0.0
 36
0.0
 17
0.0
 27
0.0
 37
0.0
 76
     0
330
A
331
0
345
0
346
0
  0
LAYOUT
  5
21
102
{ACAD_REACTORS
330
1E
102
}
100
AcDbPlotSettings
  1

  2

  4

  6

 40
0.0
 41
0.0
 42
0.0
 43
0.0
 44
0.0
 45
0.0
 46
0.0
 47
0.0
 48
0.0
 49
0.0
140
0.0
141
0.0
142
1.0
143
1.0
 70
     0
 72
     0
 73
     0
 74
     0
  7

 75
     0
147
1.0
148
0.0
149
0.0
100
AcDbLayout
  1
Layout1
 70
     0
 71
     0
 10
0.0
 20
0.0
 11
0.0
 21
0.0
 12
0.0
 22
0.0
 32
0.0
 14
0.0
 24
0.0
 34
0.0
 15
0.0
 25
0.0
 35
0.0
146
0.0
 13
0.0
 23
0.0
 33
0.0
 16
0.0
 26
0.0
 36
0.0
 17
0.0
 27
0.0
 37
0.0
 76
     0
330
B
331
0
345
0
346
0
  0
DICTIONARY
  5
1E
102
{ACAD_REACTORS
330
19
102
}
100
AcDbDictionary
280
     0
281
     1
  3
Layout1
350
21
  3
Model
350
20
  0
DICTIONARY
  5
22
102
{ACAD_REACTORS
330
19
102
}
100
AcDbDictionary
280
     0
281
     1
  0
WIPEOUTVARIABLES
  5
23
100
AcDbWipeoutVariables
 70
     1
  0
IMAGEDEF_REACTOR
  5
3F7
100
AcDbRasterImageDefReactor
 90
        2
330
3F6
  0
IMAGEDEF
  5
3F8
100
AcDbRasterImageDef
 90
        0
  1
\\192.168.6.3\free(2009_04\一過性\DB_WEB用DXF_丸茂\Meta.02\17500625_1.bmp
 10
70.0
 20
9.0
 11
0.352778
 21
0.352778
280
     1
281
     0
  0
IMAGEDEF_REACTOR
  5
3FA
100
AcDbRasterImageDefReactor
 90
        2
330
3F9
  0
IMAGEDEF
  5
3FB
100
AcDbRasterImageDef
 90
        0
  1
\\192.168.6.3\free(2009_04\一過性\DB_WEB用DXF_丸茂\Meta.02\17500625_2.bmp
 10
70.0
 20
9.0
 11
0.352778
 21
0.352778
280
     1
281
     0
  0
ENDSEC
  0
EOF
