  0
SECTION
  2
HEADER
  9
$ACADVER
  1
AC1015
  9
$ACADMAINTVER
 70
     6
  9
$DWGCODEPAGE
  3
ANSI_932
  9
$INSBASE
 10
0.0
 20
0.0
 30
0.0
  9
$EXTMIN
 10
23.283333
 20
25.752778
 30
1.000000E+20
  9
$EXTMAX
 10
198.966667
 20
276.930556
 30
-1.000000E+20
  9
$LIMMIN
 10
23.283333
 20
25.752778
  9
$LIMMAX
 10
198.966667
 20
276.930556
  9
$ORTHOMODE
 70
     0
  9
$REGENMODE
 70
     1
  9
$FILLMODE
 70
     1
  9
$QTEXTMODE
 70
     0
  9
$MIRRTEXT
 70
     1
  9
$LTSCALE
 40
1.0
  9
$ATTMODE
 70
     1
  9
$TEXTSIZE
 40
0.2
  9
$TRACEWID
 40
0.05
  9
$TEXTSTYLE
  7
Standard
  9
$CLAYER
  8
0
  9
$CELTYPE
  6
Continuous
  9
$CECOLOR
 62
   256
  9
$CELTSCALE
 40
1.0
  9
$DISPSILH
 70
     0
  9
$DIMSCALE
 40
1.0
  9
$DIMASZ
 40
0.18
  9
$DIMEXO
 40
0.0625
  9
$DIMDLI
 40
0.38
  9
$DIMRND
 40
0.0
  9
$DIMDLE
 40
0.0
  9
$DIMEXE
 40
0.18
  9
$DIMTP
 40
0.0
  9
$DIMTM
 40
0.0
  9
$DIMTXT
 40
0.18
  9
$DIMCEN
 40
0.09
  9
$DIMTSZ
 40
0.0
  9
$DIMTOL
 70
     0
  9
$DIMLIM
 70
     0
  9
$DIMTIH
 70
     1
  9
$DIMTOH
 70
     1
  9
$DIMSE1
 70
     0
  9
$DIMSE2
 70
     0
  9
$DIMTAD
 70
     0
  9
$DIMZIN
 70
     0
  9
$DIMBLK
  1

  9
$DIMASO
 70
     1
  9
$DIMSHO
 70
     1
  9
$DIMPOST
  1

  9
$DIMAPOST
  1

  9
$DIMALT
 70
     0
  9
$DIMALTD
 70
     2
  9
$DIMALTF
 40
25.4
  9
$DIMLFAC
 40
1.0
  9
$DIMTOFL
 70
     0
  9
$DIMTVP
 40
0.0
  9
$DIMTIX
 70
     0
  9
$DIMSOXD
 70
     0
  9
$DIMSAH
 70
     0
  9
$DIMBLK1
  1

  9
$DIMBLK2
  1

  9
$DIMSTYLE
  2
Standard
  9
$DIMCLRD
 70
     0
  9
$DIMCLRE
 70
     0
  9
$DIMCLRT
 70
     0
  9
$DIMTFAC
 40
1.0
  9
$DIMGAP
 40
0.09
  9
$DIMJUST
 70
     0
  9
$DIMSD1
 70
     0
  9
$DIMSD2
 70
     0
  9
$DIMTOLJ
 70
     1
  9
$DIMTZIN
 70
     0
  9
$DIMALTZ
 70
     0
  9
$DIMALTTZ
 70
     0
  9
$DIMUPT
 70
     0
  9
$DIMDEC
 70
     4
  9
$DIMTDEC
 70
     4
  9
$DIMALTU
 70
     2
  9
$DIMALTTD
 70
     2
  9
$DIMTXSTY
  7
Standard
  9
$DIMAUNIT
 70
     0
  9
$DIMADEC
 70
     0
  9
$DIMALTRND
 40
0.0
  9
$DIMAZIN
 70
     0
  9
$DIMDSEP
 70
     0
  9
$DIMATFIT
 70
     3
  9
$DIMFRAC
 70
     0
  9
$DIMLDRBLK
  1

  9
$DIMLUNIT
 70
     2
  9
$DIMLWD
 70
     0
  9
$DIMLWE
 70
     0
  9
$DIMTMOVE
 70
     0
  9
$LUNITS
 70
     2
  9
$LUPREC
 70
     4
  9
$SKETCHINC
 40
0.1
  9
$FILLETRAD
 40
0.0
  9
$AUNITS
 70
     0
  9
$AUPREC
 70
     0
  9
$MENU
  1
acad
  9
$ELEVATION
 40
0.0
  9
$PELEVATION
 40
0.0
  9
$THICKNESS
 40
0.0
  9
$LIMCHECK
 70
     0
  9
$CHAMFERA
 40
0.0
  9
$CHAMFERB
 40
0.0
  9
$CHAMFERC
 40
0.0
  9
$CHAMFERD
 40
0.0
  9
$SKPOLY
 70
     0
  9
$TDCREATE
 40
0.000000000
  9
$TDUCREATE
 40
0.000000000
  9
$TDUPDATE
 40
0.000000000
  9
$TDUUPDATE
 40
0.000000000
  9
$TDINDWG
 40
0.0000000000
  9
$TDUSRTIMER
 40
0.0000000000
  9
$USRTIMER
 70
     1
  9
$ANGBASE
 50
0.0
  9
$ANGDIR
 70
     0
  9
$PDMODE
 70
     0
  9
$PDSIZE
 40
0.0
  9
$PLINEWID
 40
0.0
  9
$SPLFRAME
 70
     0
  9
$SPLINETYPE
 70
     6
  9
$SPLINESEGS
 70
     8
  9
$HANDSEED
  5
49C
  9
$SURFTAB1
 70
     6
  9
$SURFTAB2
 70
     6
  9
$SURFTYPE
 70
     6
  9
$SURFU
 70
     6
  9
$SURFV
 70
     6
  9
$UCSBASE
  2

  9
$UCSNAME
  2

  9
$UCSORG
 10
0.0
 20
0.0
 30
0.0
  9
$UCSXDIR
 10
1.0
 20
0.0
 30
0.0
  9
$UCSYDIR
 10
0.0
 20
1.0
 30
0.0
  9
$UCSORTHOREF
  2

  9
$UCSORTHOVIEW
 70
     0
  9
$UCSORGTOP
 10
0.0
 20
0.0
 30
0.0
  9
$UCSORGBOTTOM
 10
0.0
 20
0.0
 30
0.0
  9
$UCSORGLEFT
 10
0.0
 20
0.0
 30
0.0
  9
$UCSORGRIGHT
 10
0.0
 20
0.0
 30
0.0
  9
$UCSORGFRONT
 10
0.0
 20
0.0
 30
0.0
  9
$UCSORGBACK
 10
0.0
 20
0.0
 30
0.0
  9
$PUCSBASE
  2

  9
$PUCSNAME
  2

  9
$PUCSORG
 10
0.0
 20
0.0
 30
0.0
  9
$PUCSXDIR
 10
1.0
 20
0.0
 30
0.0
  9
$PUCSYDIR
 10
0.0
 20
1.0
 30
0.0
  9
$PUCSORTHOREF
  2

  9
$PUCSORTHOVIEW
 70
     0
  9
$PUCSORGTOP
 10
0.0
 20
0.0
 30
0.0
  9
$PUCSORGBOTTOM
 10
0.0
 20
0.0
 30
0.0
  9
$PUCSORGLEFT
 10
0.0
 20
0.0
 30
0.0
  9
$PUCSORGRIGHT
 10
0.0
 20
0.0
 30
0.0
  9
$PUCSORGFRONT
 10
0.0
 20
0.0
 30
0.0
  9
$PUCSORGBACK
 10
0.0
 20
0.0
 30
0.0
  9
$USERI1
 70
     0
  9
$USERI2
 70
     0
  9
$USERI3
 70
     0
  9
$USERI4
 70
     0
  9
$USERI5
 70
     0
  9
$USERR1
 40
0.0
  9
$USERR2
 40
0.0
  9
$USERR3
 40
0.0
  9
$USERR4
 40
0.0
  9
$USERR5
 40
0.0
  9
$WORLDVIEW
 70
     1
  9
$SHADEDGE
 70
     3
  9
$SHADEDIF
 70
    70
  9
$TILEMODE
 70
     1
  9
$MAXACTVP
 70
    16
  9
$PINSBASE
 10
0.0
 20
0.0
 30
0.0
  9
$PLIMCHECK
 70
     0
  9
$PEXTMIN
 10
1.000000E+20
 20
1.000000E+20
 30
1.000000E+20
  9
$PEXTMAX
 10
-1.000000E+20
 20
-1.000000E+20
 30
-1.000000E+20
  9
$PLIMMIN
 10
0.0
 20
0.0
  9
$PLIMMAX
 10
12.0
 20
9.0
  9
$UNITMODE
 70
     0
  9
$VISRETAIN
 70
     0
  9
$PLINEGEN
 70
     1
  9
$PSLTSCALE
 70
     0
  9
$TREEDEPTH
 70
  3020
  9
$CMLSTYLE
  2
Standard
  9
$CMLJUST
 70
     0
  9
$CMLSCALE
 40
1.0
  9
$PROXYGRAPHICS
 70
     0
  9
$MEASUREMENT
 70
     1
  9
$CELWEIGHT
370
     0
  9
$ENDCAPS
280
     0
  9
$JOINSTYLE
280
     0
  9
$LWDISPLAY
290
     0
  9
$INSUNITS
 70
     0
  9
$HYPERLINKBASE
  1

  9
$STYLESHEET
  1

  9
$XEDIT
290
     1
  9
$CEPSNTYPE
380
     0
  9
$PSTYLEMODE
290
     1
  9
$FINGERPRINTGUID
  2

  9
$VERSIONGUID
  2

  9
$EXTNAMES
290
     1
  9
$PSVPSCALE
 40
0.0
  0
ENDSEC
  0
SECTION
  2
CLASSES
  0
CLASS
  1
LWPOLYLINE
  2
AcDbPolyline
  3
AutoCAD 2000
 90
    32768
280
     0
281
     1
  0
CLASS
  1
IMAGE
  2
AcDbRasterImage
  3
ISM
 90
      127
280
     0
281
     1
  0
CLASS
  1
OLE2FRAME
  2
AcDbOle2Frame
  3
AutoCAD 2000
 90
    32768
280
     0
281
     1
  0
CLASS
  1
HATCH
  2
AcDbHatch
  3
AutoCAD 2000
 90
        0
280
     0
281
     1
  0
CLASS
  1
DICTIONARYVAR
  2
AcDbDictionaryVar
  3
AutoCAD 2000
 90
    32768
280
     0
281
     0
  0
CLASS
  1
RASTERVARIABLES
  2
AcDbRasterVariables
  3
ISM
 90
    32768
280
     0
281
     0
  0
CLASS
  1
IMAGEDEF
  2
AcDbRasterImageDef
  3
ISM
 90
        0
280
     0
281
     0
  0
CLASS
  1
IMAGEDEF_REACTOR
  2
AcDbRasterImageDefReactor
  3
ISM
 90
        1
280
     0
281
     0
  0
CLASS
  1
IDBUFFER
  2
AcDbIdBuffer
  3
AutoCAD 2000
 90
    32768
280
     0
281
     0
  0
CLASS
  1
SPATIAL_FILTER
  2
AcDbSpatialFilter
  3
AutoCAD 2000
 90
    32768
280
     0
281
     0
  0
CLASS
  1
XRECORD
  2
AcDbXrecord
  3
AutoCAD 2000
 90
    32768
280
     0
281
     0
  0
CLASS
  1
SORTENTSTABLE
  2
AcDbSortentsTable
  3
AutoCAD 2000
 90
    32768
280
     0
281
     0
  0
CLASS
  1
LAYER_INDEX
  2
AcDbLayerIndex
  3
AutoCAD 2000
 90
    32768
280
     0
281
     0
  0
CLASS
  1
SPATIAL_INDEX
  2
AcDbSpatialIndex
  3
AutoCAD 2000
 90
    32768
280
     0
281
     0
  0
CLASS
  1
OBJECT_PTR
  2
CAseDLPNTableRecord
  3
"ASE-LPNTableRecord"
 90
    32769
280
     0
281
     0
  0
CLASS
  1
LAYOUT
  2
AcDbLayout
  3
AutoCAD 2000
 90
        0
280
     0
281
     0
  0
CLASS
  1
PLOTSETTINGS
  2
AcDbPlotSettings
  3
AutoCAD 2000
 90
    32768
280
     0
281
     0
  0
CLASS
  1
ACDBDICTIONARYWDFLT
  2
AcDbDictionaryWithDefault
  3
AutoCAD 2000
 90
        0
280
     0
281
     0
  0
CLASS
  1
ACDBPLACEHOLDER
  2
AcDbPlaceHolder
  3
AutoCAD 2000
 90
        0
280
     0
281
     0
  0
CLASS
  1
VBA_PROJECT
  2
AcDbVbaProject
  3
acadvba
 90
    32768
280
     0
281
     0
  0
CLASS
  1
WIPEOUT
  2
AcDbWipeout
  3
WipeOut|AutoCAD Express Tool|expresstools@autodesk.com
 90
    32895
280
     0
281
     1
  0
CLASS
  1
WIPEOUTVARIABLES
  2
AcDbWipeoutVariables
  3
WipeOut|AutoCAD Express Tool|expresstools@autodesk.com
 90
        0
280
     0
281
     0
  0
CLASS
  1
RTEXT
  2
RText
  3
RText|AutoCAD Express Tool|expresstools@autodesk.com
 90
    32768
280
     0
281
     1
  0
CLASS
  1
ARCALIGNEDTEXT
  2
AcDbArcAlignedText
  3
ATEXT|AutoCAD Express Tool|expresstools@autodesk.com
 90
    32768
280
     0
281
     1
  0
ENDSEC
  0
SECTION
  2
TABLES
  0
TABLE
  2
VPORT
  5
7
100
AcDbSymbolTable
 70
     1
  0
VPORT
  5
15
100
AcDbSymbolTableRecord
100
AcDbViewportTableRecord
  2
*ACTIVE
 70
     0
 10
0.0
 20
0.0
 11
1.0
 21
1.0
 12
6.591288
 22
4.579184
 13
0.0
 23
0.0
 14
1.0
 24
1.0
 15
0.0
 25
0.0
 16
0.0
 26
0.0
 36
1.0
 17
0.0
 27
0.0
 37
0.0
 40
9.158369
 41
0.688564
 42
50.0
 43
0.0
 44
0.0
 50
0.0
 51
0.0
 71
     0
 72
   100
 73
     1
 74
     1
 75
     0
 76
     0
 77
     0
 78
     0
281
     0
 65
     0
110
0.0
120
0.0
130
0.0
111
1.0
121
0.0
131
0.0
112
0.0
122
1.0
132
0.0
345
0
346
0
 79
     0
146
0.0
  0
ENDTAB
  0
TABLE
  2
LTYPE
  5
4
100
AcDbSymbolTable
 70
     4
  0
LTYPE
  5
11
100
AcDbSymbolTableRecord
100
AcDbLinetypeTableRecord
  2
ByBlock
 70
    64
  3

 72
    65
 73
     0
 40
0.0
  0
LTYPE
  5
12
100
AcDbSymbolTableRecord
100
AcDbLinetypeTableRecord
  2
ByLayer
 70
    64
  3

 72
    65
 73
     0
 40
0.0
  0
LTYPE
  5
13
100
AcDbSymbolTableRecord
100
AcDbLinetypeTableRecord
  2
Continuous
 70
    64
  3
Solid line
 72
    65
 73
     0
 40
0.0
  0
LTYPE
  5
4C
100
AcDbSymbolTableRecord
100
AcDbLinetypeTableRecord
  2
AI9-LType1
 70
    64
  3
Illustrator Dash Style No.1
 72
    65
 73
     4
 40
8.000295
 49
4.99992
 74
     0
 49
-1.000125
 74
     0
 49
1.000125
 74
     0
 49
-1.000125
 74
     0
  0
ENDTAB
  0
TABLE
  2
LAYER
  5
2
100
AcDbSymbolTable
 70
     3
  0
LAYER
  5
14
100
AcDbSymbolTableRecord
100
AcDbLayerTableRecord
  2
0
 70
     0
 62
     7
  6
Continuous
290
     1
370
    -3
390
1D
  0
LAYER
  5
28
100
AcDbSymbolTableRecord
100
AcDbLayerTableRecord
  2
レイヤー_2
 70
     0
 62
     1
  6
Continuous
290
     1
370
    -3
390
1D
  0
LAYER
  5
480
100
AcDbSymbolTableRecord
100
AcDbLayerTableRecord
  2
レイヤー_1
 70
     4
 62
   160
  6
Continuous
290
     1
370
    -3
390
1D
  0
ENDTAB
  0
TABLE
  2
STYLE
  5
3
100
AcDbSymbolTable
 70
     5
  0
STYLE
  5
17
100
AcDbSymbolTableRecord
100
AcDbTextStyleTableRecord
  2
Standard
 70
     0
 40
0.0
 41
1.0
 50
0.0
 71
     0
 42
0.0
  3
txt
  4

  0
STYLE
  5
24
100
AcDbSymbolTableRecord
100
AcDbTextStyleTableRecord
  2
STD
 70
     0
 40
0.0
 41
1.0
 50
0.0
 71
     0
 42
0.0
  3
txt
  4

  0
STYLE
  5
25
100
AcDbSymbolTableRecord
100
AcDbTextStyleTableRecord
  2
TATESTD
 70
     4
 40
0.0
 41
1.0
 50
0.0
 71
     0
 42
0.0
  3
txt
  4

  0
STYLE
  5
26
100
AcDbSymbolTableRecord
100
AcDbTextStyleTableRecord
  2
KANJISTD
 70
     0
 40
0.0
 41
1.0
 50
0.0
 71
     0
 42
0.0
  3
txt
  4
extfont
  0
STYLE
  5
27
100
AcDbSymbolTableRecord
100
AcDbTextStyleTableRecord
  2
KANJITATE
 70
     4
 40
0.0
 41
1.0
 50
0.0
 71
     0
 42
0.0
  3
txt
  4
extfont
  0
ENDTAB
  0
TABLE
  2
VIEW
  5
5
100
AcDbSymbolTable
 70
     0
  0
ENDTAB
  0
TABLE
  2
UCS
  5
6
100
AcDbSymbolTable
 70
     0
  0
ENDTAB
  0
TABLE
  2
APPID
  5
8
100
AcDbSymbolTable
 70
     1
  0
APPID
  5
16
100
AcDbSymbolTableRecord
100
AcDbRegAppTableRecord
  2
ACAD
 70
     0
  0
ENDTAB
  0
TABLE
  2
DIMSTYLE
  5
9
100
AcDbSymbolTable
 70
     1
100
AcDbDimStyleTable
 71
     0
  0
DIMSTYLE
105
18
100
AcDbSymbolTableRecord
100
AcDbDimStyleTableRecord
  2
Standard
 70
     0
  3

  4

 40
1.0
 41
0.18
 42
0.0625
 43
0.38
 44
0.18
 45
0.0
 46
0.0
 47
0.0
 48
0.0
 71
     0
 72
     0
 73
     1
 74
     1
 75
     0
 76
     0
 77
     0
 78
     0
 79
     0
140
0.18
141
0.09
142
0.0
143
25.4
144
1.0
145
0.0
146
1.0
147
0.09
148
0.0
170
     0
171
     2
172
     0
173
     0
174
     0
175
     0
176
     0
177
     0
178
     0
179
     0
271
     4
272
     4
273
     2
274
     2
275
     0
276
     0
277
     2
278
    46
279
     0
280
     0
281
     0
282
     0
283
     1
284
     0
285
     0
286
     0
288
     0
340
17
341
0
342
0
343
0
344
0
371
    -2
372
    -2
  0
ENDTAB
  0
TABLE
  2
BLOCK_RECORD
  5
1
100
AcDbSymbolTable
 70
     4
  0
BLOCK_RECORD
  5
A
100
AcDbSymbolTableRecord
100
AcDbBlockTableRecord
  2
*MODEL_SPACE
340
20
  0
BLOCK_RECORD
  5
B
100
AcDbSymbolTableRecord
100
AcDbBlockTableRecord
  2
*PAPER_SPACE
340
21
  0
BLOCK_RECORD
  5
43A
100
AcDbSymbolTableRecord
100
AcDbBlockTableRecord
  2
AI9-BLK1
340
0
102
{BLKREFS
331
43B
102
}
  0
BLOCK_RECORD
  5
440
100
AcDbSymbolTableRecord
100
AcDbBlockTableRecord
  2
AI9-BLK2
340
0
102
{BLKREFS
331
441
102
}
  0
BLOCK_RECORD
  5
443
100
AcDbSymbolTableRecord
100
AcDbBlockTableRecord
  2
AI9-BLK3
340
0
102
{BLKREFS
331
444
102
}
  0
BLOCK_RECORD
  5
446
100
AcDbSymbolTableRecord
100
AcDbBlockTableRecord
  2
AI9-BLK4
340
0
102
{BLKREFS
331
447
102
}
  0
ENDTAB
  0
ENDSEC
  0
SECTION
  2
BLOCKS
  0
BLOCK
  5
D
100
AcDbEntity
  8
0
100
AcDbBlockBegin
  2
*MODEL_SPACE
 70
     0
 10
0.0
 20
0.0
 30
0.0
  3
*MODEL_SPACE
  1

  0
ENDBLK
  5
E
100
AcDbEntity
  8
0
100
AcDbBlockEnd
  0
BLOCK
  5
F
100
AcDbEntity
 67
     1
  8
0
100
AcDbBlockBegin
  2
*PAPER_SPACE
 70
     0
 10
0.0
 20
0.0
 30
0.0
  3
*PAPER_SPACE
  1

  0
ENDBLK
  5
10
100
AcDbEntity
 67
     1
  8
0
100
AcDbBlockEnd
  0
BLOCK
  5
43C
100
AcDbEntity
  8
レイヤー_2
 62
     7
100
AcDbBlockBegin
  2
AI9-BLK1
 70
     0
 10
0.0
 20
0.0
 30
0.0
  3
AI9-BLK1
  1

  0
MTEXT
  5
43E
100
AcDbEntity
  8
レイヤー_2
 62
     7
100
AcDbMText
 10
-10.83138
 20
4.089623
 30
0.0
 40
3.149801
 41
0.0
 71
     1
 72
     2
  1
\fMS PGothic|b0|i0|c128;\H3.1498;\C7;\U+63A5\U+7D9A\U+30BD\U+30B1\U+30C3\U+30C8
  7
STD
210
0.0
220
0.0
230
1.0
 73
     1
 44
1.0
  0
MTEXT
  5
43D
100
AcDbEntity
  8
レイヤー_2
 62
     7
100
AcDbMText
 10
-10.83138
 20
-0.849265
 30
0.0
 40
3.149801
 41
0.0
 71
     1
 72
     2
  1
\fMS PGothic|b0|i0|c128;\H3.1498;\C7;\U+FF08\U+9006\U+6B62\U+5F01\U+4ED8\U+FF09
  7
STD
210
0.0
220
0.0
230
1.0
 73
     1
 44
1.0
  0
ENDBLK
  5
43F
100
AcDbEntity
  8
レイヤー_2
100
AcDbBlockEnd
  0
BLOCK
  5
442
100
AcDbEntity
  8
レイヤー_2
 62
     7
100
AcDbBlockBegin
  2
AI9-BLK2
 70
     0
 10
0.0
 20
0.0
 30
0.0
  3
AI9-BLK2
  1

  0
INSERT
  5
444
100
AcDbEntity
  8
レイヤー_2
 62
     7
100
AcDbBlockReference
  2
AI9-BLK3
 10
0.0
 20
0.0
 30
0.0
  0
ENDBLK
  5
470
100
AcDbEntity
  8
レイヤー_2
100
AcDbBlockEnd
  0
BLOCK
  5
445
100
AcDbEntity
  8
レイヤー_2
 62
     7
100
AcDbBlockBegin
  2
AI9-BLK3
 70
     0
 10
0.0
 20
0.0
 30
0.0
  3
AI9-BLK3
  1

  0
INSERT
  5
447
100
AcDbEntity
  8
レイヤー_2
 62
     7
100
AcDbBlockReference
  2
AI9-BLK4
 10
0.0
 20
0.0
 30
0.0
  0
ENDBLK
  5
46F
100
AcDbEntity
  8
レイヤー_2
100
AcDbBlockEnd
  0
BLOCK
  5
448
100
AcDbEntity
  8
レイヤー_2
 62
     7
100
AcDbBlockBegin
  2
AI9-BLK4
 70
     0
 10
0.0
 20
0.0
 30
0.0
  3
AI9-BLK4
  1

  0
LINE
  5
46D
100
AcDbEntity
  8
レイヤー_2
 62
     7
100
AcDbLine
 10
-2.386245
 20
-0.739145
 30
0.0
 11
-2.246375
 21
-0.739145
 31
0.0
  0
LINE
  5
46C
100
AcDbEntity
  8
レイヤー_2
 62
     7
100
AcDbLine
 10
-1.785076
 20
-4.109138
 30
0.0
 11
-1.785076
 21
-0.739145
 31
0.0
  0
LINE
  5
46B
100
AcDbEntity
  8
レイヤー_2
 62
     7
100
AcDbLine
 10
-2.246375
 20
-0.739145
 30
0.0
 11
-2.386245
 21
-0.495577
 31
0.0
  0
LINE
  5
46A
100
AcDbEntity
  8
レイヤー_2
 62
     7
100
AcDbLine
 10
2.245513
 20
-0.739145
 30
0.0
 11
2.386073
 21
-0.739145
 31
0.0
  0
LINE
  5
469
100
AcDbEntity
  8
レイヤー_2
 62
     7
100
AcDbLine
 10
1.75097
 20
-0.739145
 30
0.0
 11
1.75097
 21
-4.109138
 31
0.0
  0
LINE
  5
468
100
AcDbEntity
  8
レイヤー_2
 62
     7
100
AcDbLine
 10
2.386073
 20
-0.495577
 30
0.0
 11
2.245513
 21
-0.739145
 31
0.0
  0
LINE
  5
467
100
AcDbEntity
  8
レイヤー_2
 62
     7
100
AcDbLine
 10
-2.032779
 20
-4.109138
 30
0.0
 11
0.0
 21
-4.109138
 31
0.0
  0
LINE
  5
466
100
AcDbEntity
  8
レイヤー_2
 62
     7
100
AcDbLine
 10
2.386073
 20
-4.109138
 30
0.0
 11
-2.386245
 21
-4.109138
 31
0.0
  0
LINE
  5
465
100
AcDbEntity
  8
レイヤー_2
 62
     7
100
AcDbLine
 10
3.333647
 20
3.85799
 30
0.0
 11
3.649217
 21
3.688147
 31
0.0
  0
LINE
  5
464
100
AcDbEntity
  8
レイヤー_2
 62
     7
100
AcDbLine
 10
-3.649217
 20
3.688147
 30
0.0
 11
-3.333819
 21
3.85799
 31
0.0
  0
LINE
  5
463
100
AcDbEntity
  8
レイヤー_2
 62
     7
100
AcDbLine
 10
3.649217
 20
0.193098
 30
0.0
 11
3.333647
 21
0.023943
 31
0.0
  0
LINE
  5
462
100
AcDbEntity
  8
レイヤー_2
 62
     7
100
AcDbLine
 10
-3.333819
 20
0.023943
 30
0.0
 11
-3.649217
 21
0.193098
 31
0.0
  0
LINE
  5
461
100
AcDbEntity
  8
レイヤー_2
 62
     7
100
AcDbLine
 10
3.228054
 20
4.109138
 30
0.0
 11
-3.228571
 21
4.109138
 31
0.0
  0
LINE
  5
460
100
AcDbEntity
  8
レイヤー_2
 62
     7
100
AcDbLine
 10
2.215713
 20
3.688147
 30
0.0
 11
1.403704
 21
3.688147
 31
0.0
  0
LINE
  5
45F
100
AcDbEntity
  8
レイヤー_2
 62
     7
100
AcDbLine
 10
-1.403704
 20
3.688147
 30
0.0
 11
-2.215713
 21
3.688147
 31
0.0
  0
LINE
  5
45E
100
AcDbEntity
  8
レイヤー_2
 62
     7
100
AcDbLine
 10
-3.649217
 20
3.688147
 30
0.0
 11
-3.228571
 21
4.109138
 31
0.0
  0
LINE
  5
45D
100
AcDbEntity
  8
レイヤー_2
 62
     7
100
AcDbLine
 10
3.649217
 20
3.688147
 30
0.0
 11
3.228054
 21
4.109138
 31
0.0
  0
LINE
  5
45C
100
AcDbEntity
  8
レイヤー_2
 62
     7
100
AcDbLine
 10
-3.228571
 20
-0.228238
 30
0.0
 11
3.228054
 21
-0.228238
 31
0.0
  0
LINE
  5
45B
100
AcDbEntity
  8
レイヤー_2
 62
     7
100
AcDbLine
 10
-3.228571
 20
-0.228238
 30
0.0
 11
-3.649217
 21
0.193098
 31
0.0
  0
LINE
  5
45A
100
AcDbEntity
  8
レイヤー_2
 62
     7
100
AcDbLine
 10
-2.215713
 20
0.193098
 30
0.0
 11
-1.403704
 21
0.193098
 31
0.0
  0
LINE
  5
459
100
AcDbEntity
  8
レイヤー_2
 62
     7
100
AcDbLine
 10
1.403704
 20
0.193098
 30
0.0
 11
2.215713
 21
0.193098
 31
0.0
  0
LINE
  5
458
100
AcDbEntity
  8
レイヤー_2
 62
     7
100
AcDbLine
 10
3.228054
 20
-0.228238
 30
0.0
 11
3.649217
 21
0.193098
 31
0.0
  0
LINE
  5
457
100
AcDbEntity
  8
レイヤー_2
 62
     7
100
AcDbLine
 10
3.649217
 20
3.688147
 30
0.0
 11
3.649217
 21
0.193098
 31
0.0
  0
LINE
  5
456
100
AcDbEntity
  8
レイヤー_2
 62
     7
100
AcDbLine
 10
2.215713
 20
3.688147
 30
0.0
 11
2.215713
 21
0.193098
 31
0.0
  0
LINE
  5
455
100
AcDbEntity
  8
レイヤー_2
 62
     7
100
AcDbLine
 10
1.403704
 20
3.688147
 30
0.0
 11
1.403704
 21
0.193098
 31
0.0
  0
LINE
  5
454
100
AcDbEntity
  8
レイヤー_2
 62
     7
100
AcDbLine
 10
-1.403704
 20
3.688147
 30
0.0
 11
-1.403704
 21
0.193098
 31
0.0
  0
LINE
  5
453
100
AcDbEntity
  8
レイヤー_2
 62
     7
100
AcDbLine
 10
-2.215713
 20
3.688147
 30
0.0
 11
-2.215713
 21
0.193098
 31
0.0
  0
LINE
  5
452
100
AcDbEntity
  8
レイヤー_2
 62
     7
100
AcDbLine
 10
-3.649217
 20
3.688147
 30
0.0
 11
-3.649217
 21
0.193098
 31
0.0
  0
SPLINE
  5
451
100
AcDbEntity
  8
レイヤー_2
 62
     7
100
AcDbSpline
210
0.0
220
0.0
230
1.0
 70
     8
 71
     3
 72
     8
 73
     4
 74
     0
 42
0.00000001
 43
0.00000001
 40
0.0
 40
0.0
 40
0.0
 40
0.0
 40
1.0
 40
1.0
 40
1.0
 40
1.0
 10
3.3336466471354163
 20
3.8579901801215275
 30
0.0
 10
2.9646769205729164
 20
4.0553941514756939
 30
0.0
 10
2.5094075520833332
 20
3.9858032226562496
 30
0.0
 10
2.2157131618923609
 20
3.6881469726562495
 30
0.0
  0
SPLINE
  5
450
100
AcDbEntity
  8
レイヤー_2
 62
     7
100
AcDbSpline
210
0.0
220
0.0
230
1.0
 70
     8
 71
     3
 72
     8
 73
     4
 74
     0
 42
0.00000001
 43
0.00000001
 40
0.0
 40
0.0
 40
0.0
 40
0.0
 40
1.0
 40
1.0
 40
1.0
 40
1.0
 10
-2.2157131618923609
 20
3.6881469726562495
 30
0.0
 10
-2.5095798068576385
 20
3.9858032226562496
 30
0.0
 10
-2.9646769205729164
 20
4.0553941514756939
 30
0.0
 10
-3.333818901909722
 20
3.8579901801215275
 30
0.0
  0
SPLINE
  5
44F
100
AcDbEntity
  8
レイヤー_2
 62
     7
100
AcDbSpline
210
0.0
220
0.0
230
1.0
 70
     8
 71
     3
 72
     8
 73
     4
 74
     0
 42
0.00000001
 43
0.00000001
 40
0.0
 40
0.0
 40
0.0
 40
0.0
 40
1.0
 40
1.0
 40
1.0
 40
1.0
 10
1.4037041558159722
 20
3.6881469726562495
 30
0.0
 10
0.5048787434895833
 20
4.0633178710937496
 30
0.0
 10
-0.5055677625868055
 20
4.0633178710937496
 30
0.0
 10
-1.4037041558159722
 20
3.6881469726562495
 30
0.0
  0
SPLINE
  5
44E
100
AcDbEntity
  8
レイヤー_2
 62
     7
100
AcDbSpline
210
0.0
220
0.0
230
1.0
 70
     8
 71
     3
 72
     8
 73
     4
 74
     0
 42
0.00000001
 43
0.00000001
 40
0.0
 40
0.0
 40
0.0
 40
0.0
 40
1.0
 40
1.0
 40
1.0
 40
1.0
 10
2.2157131618923609
 20
0.1930976019965278
 30
0.0
 10
2.5094075520833332
 20
-0.1049031575520833
 30
0.0
 10
2.9646769205729164
 20
-0.1734605577256944
 30
0.0
 10
3.3336466471354163
 20
0.0239434136284722
 30
0.0
  0
SPLINE
  5
44D
100
AcDbEntity
  8
レイヤー_2
 62
     7
100
AcDbSpline
210
0.0
220
0.0
230
1.0
 70
     8
 71
     3
 72
     8
 73
     4
 74
     0
 42
0.00000001
 43
0.00000001
 40
0.0
 40
0.0
 40
0.0
 40
0.0
 40
1.0
 40
1.0
 40
1.0
 40
1.0
 10
-3.333818901909722
 20
0.0239434136284722
 30
0.0
 10
-2.9646769205729164
 20
-0.1734605577256944
 30
0.0
 10
-2.5095798068576385
 20
-0.1049031575520833
 30
0.0
 10
-2.2157131618923609
 20
0.1930976019965278
 30
0.0
  0
SPLINE
  5
44C
100
AcDbEntity
  8
レイヤー_2
 62
     7
100
AcDbSpline
210
0.0
220
0.0
230
1.0
 70
     8
 71
     3
 72
     8
 73
     4
 74
     0
 42
0.00000001
 43
0.00000001
 40
0.0
 40
0.0
 40
0.0
 40
0.0
 40
1.0
 40
1.0
 40
1.0
 40
1.0
 10
-1.4037041558159722
 20
0.1930976019965278
 30
0.0
 10
-0.5055677625868055
 20
-0.1810397677951389
 30
0.0
 10
0.5048787434895833
 20
-0.1810397677951389
 30
0.0
 10
1.4037041558159722
 20
0.1930976019965278
 30
0.0
  0
LINE
  5
44B
100
AcDbEntity
  8
レイヤー_2
 62
     7
100
AcDbLine
 10
-2.386245
 20
-0.495577
 30
0.0
 11
-2.386245
 21
-4.109138
 31
0.0
  0
LINE
  5
44A
100
AcDbEntity
  8
レイヤー_2
 62
     7
100
AcDbLine
 10
2.386073
 20
-4.109138
 30
0.0
 11
2.386073
 21
-0.495577
 31
0.0
  0
LINE
  5
449
100
AcDbEntity
  8
レイヤー_2
 62
     7
100
AcDbLine
 10
2.245513
 20
-0.739145
 30
0.0
 11
-2.246375
 21
-0.739145
 31
0.0
  0
ENDBLK
  5
46E
100
AcDbEntity
  8
レイヤー_2
100
AcDbBlockEnd
  0
ENDSEC
  0
SECTION
  2
ENTITIES
  0
MTEXT
  5
49B
100
AcDbEntity
  8
レイヤー_1
 62
     7
100
AcDbMText
 10
47.801389
 20
54.121991
 30
0.0
 40
3.674768
 41
0.0
 71
     1
 72
     2
  1
\fOsaka|b0|i0|c128;\H3.6748;\C7;\U+0031\U+0037\U+002E\U+0035\U+0030\U+0030\U+002E\U+0038\U+0039\U+0032\U+002E\U+0058\U+0058
  7
STD
210
0.0
220
0.0
230
1.0
 73
     1
 44
1.0
  0
MTEXT
  5
49A
100
AcDbEntity
  8
レイヤー_1
 62
     7
100
AcDbMText
 10
39.6875
 20
56.608234
 30
0.0
 40
1.574901
 41
0.0
 71
     1
 72
     2
  1
\fOsaka|b0|i0|c128;\H1.5749;\C7;\U+54C1\U+756A
  7
STD
210
0.0
220
0.0
230
1.0
 73
     1
 44
1.0
  0
MTEXT
  5
499
100
AcDbEntity
  8
レイヤー_1
 62
     7
100
AcDbMText
 10
47.801389
 20
32.959209
 30
0.0
 40
3.149486
 41
0.0
 71
     1
 72
     2
  1
\fOsaka|b0|i0|c128;\H3.1495;\C7;\U+5358\U+6C34\U+6813
  7
STD
210
0.0
220
0.0
230
1.0
 73
     1
 44
1.0
  0
MTEXT
  5
498
100
AcDbEntity
  8
レイヤー_1
 62
     7
100
AcDbMText
 10
39.6875
 20
35.441567
 30
0.0
 40
1.574901
 41
0.0
 71
     1
 72
     2
  1
\fOsaka|b0|i0|c128;\H1.5749;\C7;\U+54C1
  7
STD
210
0.0
220
0.0
230
1.0
 73
     1
 44
1.0
  0
MTEXT
  5
497
100
AcDbEntity
  8
レイヤー_1
 62
     7
100
AcDbMText
 10
47.319248
 20
43.304752
 30
0.0
 40
3.499429
 41
0.0
 71
     1
 72
     2
  1
\fOsaka|b0|i0|c128;\H3.4994;\W0.90;\C7;\U+FF34\U+FF41\U+FF52\U+FF41
  7
STD
210
0.0
220
0.0
230
1.0
 73
     1
 44
1.0
  0
POLYLINE
  5
491
100
AcDbEntity
  8
レイヤー_1
 62
     7
100
AcDb2dPolyline
 66
     1
 10
0.0
 20
0.0
 30
0.0
 70
     1
  0
VERTEX
  5
492
100
AcDbEntity
  8
レイヤー_1
 62
     7
100
AcDbVertex
100
AcDb2dVertex
 10
23.636111
 20
26.105556
 30
0.0
  0
VERTEX
  5
493
100
AcDbEntity
  8
レイヤー_1
 62
     7
100
AcDbVertex
100
AcDb2dVertex
 10
198.613889
 20
26.105556
 30
0.0
  0
VERTEX
  5
494
100
AcDbEntity
  8
レイヤー_1
 62
     7
100
AcDbVertex
100
AcDb2dVertex
 10
198.613889
 20
276.577778
 30
0.0
  0
VERTEX
  5
495
100
AcDbEntity
  8
レイヤー_1
 62
     7
100
AcDbVertex
100
AcDb2dVertex
 10
23.636111
 20
276.577778
 30
0.0
  0
SEQEND
  5
496
100
AcDbEntity
  8
レイヤー_1
 62
     7
  0
LINE
  5
490
100
AcDbEntity
  8
レイヤー_1
 62
     7
100
AcDbLine
 10
170.568056
 20
36.5125
 30
0.0
 11
27.693056
 21
36.5125
 31
0.0
  0
LINE
  5
48F
100
AcDbEntity
  8
レイヤー_1
 62
     7
100
AcDbLine
 10
170.568056
 20
47.095833
 30
0.0
 11
27.693056
 21
47.095833
 31
0.0
  0
LINE
  5
48E
100
AcDbEntity
  8
レイヤー_1
 62
     7
100
AcDbLine
 10
23.636111
 20
57.855556
 30
0.0
 11
198.261111
 21
57.855556
 31
0.0
  0
LINE
  5
48D
100
AcDbEntity
  8
レイヤー_1
 62
     7
100
AcDbLine
 10
170.744444
 20
57.855556
 30
0.0
 11
170.744444
 21
26.458333
 31
0.0
  0
MTEXT
  5
48C
100
AcDbEntity
  8
レイヤー_1
 62
     7
100
AcDbMText
 10
33.3375
 20
46.024901
 30
0.0
 40
1.574901
 41
0.0
 71
     1
 72
     2
  1
\fOsaka|b0|i0|c128;\H1.5749;\C7;\U+30B7\U+30EA\U+30FC\U+30BA
  7
STD
210
0.0
220
0.0
230
1.0
 73
     1
 44
1.0
  0
MTEXT
  5
48B
100
AcDbEntity
  8
レイヤー_1
 62
     7
100
AcDbMText
 10
174.095833
 20
54.655042
 30
0.0
 40
3.149486
 41
0.0
 71
     1
 72
     2
  1
\fHeiseiKakuGothicCAN W9|b0|i0|c128;\H3.1495;\C253;\U+5BF8\U+6CD5\U+53C2\U+8003\U+56F3
  7
STD
210
0.0
220
0.0
230
1.0
 73
     1
 44
1.0
  0
LINE
  5
48A
100
AcDbEntity
  8
レイヤー_1
 62
     7
100
AcDbLine
 10
27.516667
 20
57.855556
 30
0.0
 11
27.516667
 21
26.458333
 31
0.0
  0
IMAGE
  5
487
100
AcDbEntity
  8
レイヤー_1
 62
     7
 92
        0
100
AcDbRasterImage
 90
        0
 10
172.155556
 20
28.574682
 30
0.0
 11
0.352531
 21
0.0
 31
0.0
 12
0.0
 22
0.352813
 32
0.0
 13
70.0
 23
9.0
340
489
 70
     7
280
     0
281
    50
282
    50
283
     0
360
488
 71
     1
 91
        2
 14
-0.5
 24
-0.5
 14
69.5
 24
8.5
  0
IMAGE
  5
484
100
AcDbEntity
  8
レイヤー_1
 62
     7
 92
        0
100
AcDbRasterImage
 90
        0
 10
172.155556
 20
28.574682
 30
0.0
 11
0.352531
 21
0.0
 31
0.0
 12
0.0
 22
0.352813
 32
0.0
 13
70.0
 23
9.0
340
486
 70
     7
280
     0
281
    50
282
    50
283
     0
360
485
 71
     1
 91
        2
 14
-0.5
 24
-0.5
 14
69.5
 24
8.5
  0
MTEXT
  5
483
100
AcDbEntity
  8
レイヤー_1
 62
     7
100
AcDbMText
 10
113.418056
 20
46.024901
 30
0.0
 40
1.574901
 41
0.0
 71
     1
 72
     2
  1
\fOsaka|b0|i0|c128;\H1.5749;\C7;\U+4ED5\U+4E0A
  7
STD
210
0.0
220
0.0
230
1.0
 73
     1
 44
1.0
  0
MTEXT
  5
482
100
AcDbEntity
  8
レイヤー_1
 62
     7
100
AcDbMText
 10
124.765511
 20
40.968164
 30
0.0
 40
1.162842
 41
0.0
 71
     1
 72
     2
  1
\fOsaka|b0|i0|c128;\H1.1628;\W2.71;\C7;
  7
STD
210
0.0
220
0.0
230
1.0
 73
     1
 44
1.0
  0
HATCH
  5
481
100
AcDbEntity
  8
レイヤー_1
 62
     7
100
AcDbHatch
 10
0.0
 20
0.0
 30
0.0
210
0.0
220
0.0
230
1.0
  2
SOLID
 70
     1
 71
     0
 91
        1
 92
        1
 93
        1
 72
     4
 94
        3
 73
     0
 74
     0
 95
       17
 96
       13
 40
0.0
 40
0.0
 40
0.0
 40
0.0
 40
1.0
 40
1.0
 40
1.0
 40
2.0
 40
2.0
 40
2.0
 40
3.0
 40
3.0
 40
3.0
 40
4.0
 40
4.0
 40
4.0
 40
4.0
 10
58.155967881944441
 20
40.211154513888886
 10
58.155967881944441
 20
40.016162109374996
 10
57.998010253906244
 20
39.858376736111104
 10
57.80319010416666
 20
39.858376736111104
 10
57.608369954427076
 20
39.858376736111104
 10
57.450412326388886
 20
40.016162109374996
 10
57.450412326388886
 20
40.211154513888886
 10
57.450412326388886
 20
40.406146918402776
 10
57.608369954427076
 20
40.56393229166666
 10
57.80319010416666
 20
40.56393229166666
 10
57.998010253906244
 20
40.56393229166666
 10
58.155967881944441
 20
40.406146918402776
 10
58.155967881944441
 20
40.211154513888886
 97
        0
 75
     2
 76
     1
 98
        1
 10
0.0
 20
0.0
  0
MTEXT
  5
47F
100
AcDbEntity
  8
レイヤー_2
  6
AI9-LType1
 62
     7
100
AcDbMText
 10
125.013902
 20
219.153449
 30
0.0
 40
6.299603
 41
0.0
 71
     1
 72
     2
  1
\fMS Gothic|b0|i0|c128;\H6.2996;\C7;\U+0031\U+0030\U+0030
  7
STD
210
0.0
220
0.0
230
1.0
 73
     1
 44
1.0
  0
MTEXT
  5
47E
100
AcDbEntity
  8
レイヤー_2
  6
AI9-LType1
 62
     7
100
AcDbMText
 10
64.335436
 20
219.506227
 30
0.0
 40
6.299603
 41
0.0
 71
     1
 72
     2
  1
\fMS Gothic|b0|i0|c128;\H6.2996;\C7;\U+03C6\U+0034\U+0035
  7
STD
210
0.0
220
0.0
230
1.0
 73
     1
 44
1.0
  0
MTEXT
  5
47D
100
AcDbEntity
  8
レイヤー_2
  6
AI9-LType1
 62
     7
100
AcDbMText
 10
145.995611
 20
173.308143
 30
0.0
 40
6.299603
 41
0.0
 71
     1
 72
     2
  1
\fMS Gothic|b0|i0|c128;\H6.2996;\C7;\U+0031\U+0035\U+00B0
  7
STD
210
0.0
220
0.0
230
1.0
 11
0.76604
 21
0.64279
 31
0.0
 73
     1
 44
1.0
  0
MTEXT
  5
47C
100
AcDbEntity
  8
レイヤー_2
  6
AI9-LType1
 62
     7
100
AcDbMText
 10
161.517889
 20
172.340902
 30
0.0
 40
6.299603
 41
0.0
 71
     1
 72
     2
  1
\fMS Gothic|b0|i0|c128;\H6.2996;\C7;\U+0034\U+0030
  7
STD
210
0.0
220
0.0
230
1.0
 11
0.0
 21
1.0
 31
0.0
 73
     1
 44
1.0
  0
MTEXT
  5
47B
100
AcDbEntity
  8
レイヤー_2
  6
AI9-LType1
 62
     7
100
AcDbMText
 10
45.976448
 20
135.432905
 30
0.0
 40
6.299603
 41
0.0
 71
     1
 72
     2
  1
\fMS Gothic|b0|i0|c128;\H6.2996;\C7;\U+006D\U+0061\U+0078\U+002E\U+0032\U+0035
  7
STD
210
0.0
220
0.0
230
1.0
 11
0.0
 21
1.0
 31
0.0
 73
     1
 44
1.0
  0
MTEXT
  5
47A
100
AcDbEntity
  8
レイヤー_2
  6
AI9-LType1
 62
     7
100
AcDbMText
 10
80.167372
 20
140.078173
 30
0.0
 40
6.299603
 41
0.0
 71
     1
 72
     2
  1
\fMS Gothic|b0|i0|c128;\H6.2996;\C7;\U+0047\U+0031\U+002F\U+0032
  7
STD
210
0.0
220
0.0
230
1.0
 73
     1
 44
1.0
  0
MTEXT
  5
479
100
AcDbEntity
  8
レイヤー_2
  6
AI9-LType1
 62
     7
100
AcDbMText
 10
172.416104
 20
178.401858
 30
0.0
 40
6.299603
 41
0.0
 71
     1
 72
     2
  1
\fMS Gothic|b0|i0|c128;\H6.2996;\C7;\U+0031\U+0031\U+0035
  7
STD
210
0.0
220
0.0
230
1.0
 11
0.0
 21
1.0
 31
0.0
 73
     1
 44
1.0
  0
LINE
  5
478
100
AcDbEntity
  8
レイヤー_2
  6
AI9-LType1
 62
     7
100
AcDbLine
 10
72.397648
 20
105.52293
 30
0.0
 11
72.397648
 21
154.163889
 31
0.0
  0
SPLINE
  5
477
100
AcDbEntity
  8
レイヤー_2
 62
     7
100
AcDbSpline
210
0.0
220
0.0
230
1.0
 70
     8
 71
     3
 72
    17
 73
    13
 74
     0
 42
0.00000001
 43
0.00000001
 40
0.0
 40
0.0
 40
0.0
 40
0.0
 40
1.0
 40
1.0
 40
1.0
 40
2.0
 40
2.0
 40
2.0
 40
3.0
 40
3.0
 40
3.0
 40
4.0
 40
4.0
 40
4.0
 40
4.0
 10
76.116284179687497
 20
110.75465223524304
 30
0.0
 10
76.116284179687497
 20
112.80861816406249
 30
0.0
 10
74.45092502170138
 20
114.4739773220486
 30
0.0
 10
72.397648111979166
 20
114.4739773220486
 30
0.0
 10
70.343682183159714
 20
114.4739773220486
 30
0.0
 10
68.678667534722223
 20
112.80861816406249
 30
0.0
 10
68.678667534722223
 20
110.75465223524304
 30
0.0
 10
68.678667534722223
 20
108.70137532552083
 30
0.0
 10
70.343682183159714
 20
107.03670518663193
 30
0.0
 10
72.397648111979166
 20
107.03670518663193
 30
0.0
 10
74.45092502170138
 20
107.03670518663193
 30
0.0
 10
76.116284179687497
 20
108.70137532552083
 30
0.0
 10
76.116284179687497
 20
110.75465223524304
 30
0.0
  0
LINE
  5
476
100
AcDbEntity
  8
レイヤー_2
  6
AI9-LType1
 62
     7
100
AcDbLine
 10
65.940161
 20
110.754652
 30
0.0
 11
77.848478
 21
110.754652
 31
0.0
  0
LINE
  5
475
100
AcDbEntity
  8
レイヤー_2
 62
     7
100
AcDbLine
 10
79.158993
 20
104.061521
 30
0.0
 11
68.71553
 21
114.505672
 31
0.0
  0
LINE
  5
474
100
AcDbEntity
  8
レイヤー_2
 62
     7
100
AcDbLine
 10
79.158993
 20
104.061521
 30
0.0
 11
116.484535
 21
104.061521
 31
0.0
  0
LINE
  5
473
100
AcDbEntity
  8
レイヤー_2
 62
     7
100
AcDbLine
 10
68.591507
 20
113.375681
 30
0.0
 11
71.373077
 21
113.375681
 31
0.0
  0
LINE
  5
472
100
AcDbEntity
  8
レイヤー_2
 62
     7
100
AcDbLine
 10
73.666132
 20
108.165318
 30
0.0
 11
76.447013
 21
108.165318
 31
0.0
  0
MTEXT
  5
471
100
AcDbEntity
  8
レイヤー_2
 62
     7
100
AcDbMText
 10
79.033419
 20
110.660601
 30
0.0
 40
5.512152
 41
0.0
 71
     1
 72
     2
  1
\fMS Gothic|b0|i0|c128;\H5.5122;\C7;\U+03C6\U+0032\U+0038\U+FF5E\U+03C6\U+0033\U+0035
  7
STD
210
0.0
220
0.0
230
1.0
 73
     1
 44
1.0
  0
INSERT
  5
441
100
AcDbEntity
  8
レイヤー_2
 62
     7
100
AcDbBlockReference
  2
AI9-BLK2
 10
72.363197
 20
147.327958
 30
0.0
  0
INSERT
  5
43B
100
AcDbEntity
  8
レイヤー_2
 62
     7
100
AcDbBlockReference
  2
AI9-BLK1
 10
91.418365
 20
127.427536
 30
0.0
  0
LINE
  5
439
100
AcDbEntity
  8
レイヤー_2
 62
     7
100
AcDbLine
 10
69.976952
 20
141.704357
 30
0.0
 11
69.976952
 21
131.662248
 31
0.0
  0
LINE
  5
438
100
AcDbEntity
  8
レイヤー_2
 62
     7
100
AcDbLine
 10
74.74927
 20
141.842849
 30
0.0
 11
74.74927
 21
131.582666
 31
0.0
  0
LINE
  5
437
100
AcDbEntity
  8
レイヤー_2
 62
     7
100
AcDbLine
 10
68.502968
 20
132.556939
 30
0.0
 11
102.82232
 21
132.556939
 31
0.0
  0
LINE
  5
436
100
AcDbEntity
  8
レイヤー_2
 62
     7
100
AcDbLine
 10
69.035752
 20
131.498606
 30
0.0
 11
71.209951
 21
133.94359
 31
0.0
  0
LINE
  5
435
100
AcDbEntity
  8
レイヤー_2
 62
     7
100
AcDbLine
 10
73.808242
 20
131.498606
 30
0.0
 11
75.982098
 21
133.94359
 31
0.0
  0
LINE
  5
434
100
AcDbEntity
  8
レイヤー_2
 62
     7
100
AcDbLine
 10
74.99904
 20
164.079218
 30
0.0
 11
74.99904
 21
169.344013
 31
0.0
  0
LINE
  5
433
100
AcDbEntity
  8
レイヤー_2
 62
     7
100
AcDbLine
 10
69.796257
 20
169.344013
 30
0.0
 11
69.796257
 21
164.079218
 31
0.0
  0
LINE
  5
432
100
AcDbEntity
  8
レイヤー_2
 62
     7
100
AcDbLine
 10
69.585417
 20
160.329576
 30
0.0
 11
75.210224
 21
160.329576
 31
0.0
  0
LINE
  5
431
100
AcDbEntity
  8
レイヤー_2
 62
     7
100
AcDbLine
 10
121.480957
 20
164.07095
 30
0.0
 11
121.480957
 21
169.336434
 31
0.0
  0
LINE
  5
430
100
AcDbEntity
  8
レイヤー_2
 62
     7
100
AcDbLine
 10
116.278518
 20
169.336434
 30
0.0
 11
116.278518
 21
164.07095
 31
0.0
  0
LINE
  5
42F
100
AcDbEntity
  8
レイヤー_2
 62
     7
100
AcDbLine
 10
114.975928
 20
160.329576
 30
0.0
 11
122.713268
 21
160.329576
 31
0.0
  0
LINE
  5
42E
100
AcDbEntity
  8
レイヤー_2
 62
     7
100
AcDbLine
 10
68.210135
 20
171.344236
 30
0.0
 11
76.585506
 21
171.344236
 31
0.0
  0
LINE
  5
42D
100
AcDbEntity
  8
レイヤー_2
 62
     7
100
AcDbLine
 10
70.276158
 20
169.344013
 30
0.0
 11
70.276158
 21
164.079218
 31
0.0
  0
LINE
  5
42C
100
AcDbEntity
  8
レイヤー_2
 62
     7
100
AcDbLine
 10
74.489166
 20
164.079218
 30
0.0
 11
74.489166
 21
169.344013
 31
0.0
  0
SPLINE
  5
42B
100
AcDbEntity
  8
レイヤー_2
 62
     7
100
AcDbSpline
210
0.0
220
0.0
230
1.0
 70
     8
 71
     3
 72
     8
 73
     4
 74
     0
 42
0.00000001
 43
0.00000001
 40
0.0
 40
0.0
 40
0.0
 40
0.0
 40
1.0
 40
1.0
 40
1.0
 40
1.0
 10
123.75506456163194
 20
162.4462429470486
 30
0.0
 10
123.82362196180554
 20
162.4462429470486
 30
0.0
 10
123.88012152777776
 20
162.50136447482637
 30
0.0
 10
123.88012152777776
 20
162.57095540364583
 30
0.0
  0
SPLINE
  5
42A
100
AcDbEntity
  8
レイヤー_2
 62
     7
100
AcDbSpline
210
0.0
220
0.0
230
1.0
 70
     8
 71
     3
 72
     8
 73
     4
 74
     0
 42
0.00000001
 43
0.00000001
 40
0.0
 40
0.0
 40
0.0
 40
0.0
 40
1.0
 40
1.0
 40
1.0
 40
1.0
 10
113.87969835069444
 20
162.57095540364583
 30
0.0
 10
113.87969835069444
 20
162.50136447482637
 30
0.0
 10
113.93585340711805
 20
162.4462429470486
 30
0.0
 10
114.00441080729166
 20
162.4462429470486
 30
0.0
  0
LINE
  5
429
100
AcDbEntity
  8
レイヤー_2
 62
     7
100
AcDbLine
 10
113.879698
 20
163.071183
 30
0.0
 11
113.879698
 21
162.570955
 31
0.0
  0
LINE
  5
428
100
AcDbEntity
  8
レイヤー_2
 62
     7
100
AcDbLine
 10
123.880122
 20
162.570955
 30
0.0
 11
123.880122
 21
163.071183
 31
0.0
  0
LINE
  5
427
100
AcDbEntity
  8
レイヤー_2
 62
     7
100
AcDbLine
 10
124.130235
 20
163.071183
 30
0.0
 11
124.130235
 21
163.320608
 31
0.0
  0
LINE
  5
426
100
AcDbEntity
  8
レイヤー_2
 62
     7
100
AcDbLine
 10
113.630273
 20
163.320608
 30
0.0
 11
113.630273
 21
163.071183
 31
0.0
  0
LINE
  5
425
100
AcDbEntity
  8
レイヤー_2
 62
     7
100
AcDbLine
 10
124.879888
 20
163.320608
 30
0.0
 11
124.879888
 21
164.07095
 31
0.0
  0
LINE
  5
424
100
AcDbEntity
  8
レイヤー_2
 62
     7
100
AcDbLine
 10
112.879932
 20
164.07095
 30
0.0
 11
112.879932
 21
163.320608
 31
0.0
  0
LINE
  5
423
100
AcDbEntity
  8
レイヤー_2
 62
     7
100
AcDbLine
 10
123.067768
 20
169.344013
 30
0.0
 11
123.067768
 21
171.344236
 31
0.0
  0
LINE
  5
422
100
AcDbEntity
  8
レイヤー_2
 62
     7
100
AcDbLine
 10
114.692052
 20
171.344236
 30
0.0
 11
114.692052
 21
169.344013
 31
0.0
  0
LINE
  5
421
100
AcDbEntity
  8
レイヤー_2
 62
     7
100
AcDbLine
 10
123.755065
 20
162.446243
 30
0.0
 11
114.004411
 21
162.446243
 31
0.0
  0
LINE
  5
420
100
AcDbEntity
  8
レイヤー_2
 62
     7
100
AcDbLine
 10
116.931364
 20
162.446243
 30
0.0
 11
116.931364
 21
160.321308
 31
0.0
  0
LINE
  5
41F
100
AcDbEntity
  8
レイヤー_2
 62
     7
100
AcDbLine
 10
114.982818
 20
162.446243
 30
0.0
 11
114.982818
 21
160.321308
 31
0.0
  0
LINE
  5
41E
100
AcDbEntity
  8
レイヤー_2
 62
     7
100
AcDbLine
 10
120.828111
 20
160.321308
 30
0.0
 11
120.828111
 21
162.446243
 31
0.0
  0
LINE
  5
41D
100
AcDbEntity
  8
レイヤー_2
 62
     7
100
AcDbLine
 10
122.776657
 20
162.446243
 30
0.0
 11
122.776657
 21
160.321308
 31
0.0
  0
LINE
  5
41C
100
AcDbEntity
  8
レイヤー_2
 62
     7
100
AcDbLine
 10
124.130235
 20
163.071183
 30
0.0
 11
113.630273
 21
163.071183
 31
0.0
  0
LINE
  5
41B
100
AcDbEntity
  8
レイヤー_2
 62
     7
100
AcDbLine
 10
124.879888
 20
164.07095
 30
0.0
 11
112.879932
 21
164.07095
 31
0.0
  0
LINE
  5
41A
100
AcDbEntity
  8
レイヤー_2
 62
     7
100
AcDbLine
 10
124.879888
 20
163.320608
 30
0.0
 11
112.879932
 21
163.320608
 31
0.0
  0
LINE
  5
419
100
AcDbEntity
  8
レイヤー_2
 62
     7
100
AcDbLine
 10
114.692052
 20
169.368818
 30
0.0
 11
123.067768
 21
169.368818
 31
0.0
  0
LINE
  5
418
100
AcDbEntity
  8
レイヤー_2
 62
     7
100
AcDbLine
 10
116.765999
 20
169.336434
 30
0.0
 11
116.765999
 21
164.07095
 31
0.0
  0
LINE
  5
417
100
AcDbEntity
  8
レイヤー_2
 62
     7
100
AcDbLine
 10
121.05411
 20
164.07095
 30
0.0
 11
121.05411
 21
169.336434
 31
0.0
  0
LINE
  5
416
100
AcDbEntity
  8
レイヤー_2
 62
     7
100
AcDbLine
 10
69.796257
 20
160.304083
 30
0.0
 11
69.796257
 21
157.036754
 31
0.0
  0
LINE
  5
415
100
AcDbEntity
  8
レイヤー_2
 62
     7
100
AcDbLine
 10
74.99904
 20
156.989901
 30
0.0
 11
74.99904
 21
160.317863
 31
0.0
  0
LINE
  5
414
100
AcDbEntity
  8
レイヤー_2
 62
     7
100
AcDbLine
 10
74.489166
 20
156.568221
 30
0.0
 11
74.489166
 21
159.067982
 31
0.0
  0
LINE
  5
413
100
AcDbEntity
  8
レイヤー_2
 62
     7
100
AcDbLine
 10
70.276158
 20
159.025263
 30
0.0
 11
70.276158
 21
156.524813
 31
0.0
  0
LINE
  5
412
100
AcDbEntity
  8
レイヤー_2
 62
     7
100
AcDbLine
 10
70.272024
 20
156.554441
 30
0.0
 11
74.483309
 21
156.554441
 31
0.0
  0
LINE
  5
411
100
AcDbEntity
  8
レイヤー_2
 62
     7
100
AcDbLine
 10
69.796257
 20
159.025263
 30
0.0
 11
74.99904
 21
159.025263
 31
0.0
  0
LINE
  5
410
100
AcDbEntity
  8
レイヤー_2
 62
     7
100
AcDbLine
 10
70.272024
 20
156.554441
 30
0.0
 11
69.796257
 21
157.036754
 31
0.0
  0
LINE
  5
40F
100
AcDbEntity
  8
レイヤー_2
 62
     7
100
AcDbLine
 10
74.489166
 20
156.568221
 30
0.0
 11
74.99904
 21
156.989901
 31
0.0
  0
LINE
  5
40E
100
AcDbEntity
  8
レイヤー_2
 62
     7
100
AcDbLine
 10
116.339841
 20
160.304083
 30
0.0
 11
116.339841
 21
157.036754
 31
0.0
  0
LINE
  5
40D
100
AcDbEntity
  8
レイヤー_2
 62
     7
100
AcDbLine
 10
121.54228
 20
156.989901
 30
0.0
 11
121.54228
 21
160.317863
 31
0.0
  0
LINE
  5
40C
100
AcDbEntity
  8
レイヤー_2
 62
     7
100
AcDbLine
 10
121.033095
 20
156.568221
 30
0.0
 11
121.033095
 21
159.067982
 31
0.0
  0
LINE
  5
40B
100
AcDbEntity
  8
レイヤー_2
 62
     7
100
AcDbLine
 10
116.819054
 20
159.025263
 30
0.0
 11
116.819054
 21
156.524813
 31
0.0
  0
LINE
  5
40A
100
AcDbEntity
  8
レイヤー_2
 62
     7
100
AcDbLine
 10
116.815264
 20
156.554441
 30
0.0
 11
121.026893
 21
156.554441
 31
0.0
  0
LINE
  5
409
100
AcDbEntity
  8
レイヤー_2
 62
     7
100
AcDbLine
 10
116.339841
 20
159.025263
 30
0.0
 11
121.54228
 21
159.025263
 31
0.0
  0
LINE
  5
408
100
AcDbEntity
  8
レイヤー_2
 62
     7
100
AcDbLine
 10
116.815264
 20
156.554441
 30
0.0
 11
116.339841
 21
157.036754
 31
0.0
  0
LINE
  5
407
100
AcDbEntity
  8
レイヤー_2
 62
     7
100
AcDbLine
 10
121.033095
 20
156.568221
 30
0.0
 11
121.54228
 21
156.989901
 31
0.0
  0
LINE
  5
406
100
AcDbEntity
  8
レイヤー_2
 62
     7
100
AcDbLine
 10
67.397781
 20
163.078762
 30
0.0
 11
67.397781
 21
162.579224
 31
0.0
  0
LINE
  5
405
100
AcDbEntity
  8
レイヤー_2
 62
     7
100
AcDbLine
 10
77.398204
 20
162.579224
 30
0.0
 11
77.398204
 21
163.078762
 31
0.0
  0
SPLINE
  5
404
100
AcDbEntity
  8
レイヤー_2
 62
     7
100
AcDbSpline
210
0.0
220
0.0
230
1.0
 70
     8
 71
     3
 72
     8
 73
     4
 74
     0
 42
0.00000001
 43
0.00000001
 40
0.0
 40
0.0
 40
0.0
 40
0.0
 40
1.0
 40
1.0
 40
1.0
 40
1.0
 10
77.272802734374991
 20
162.45451117621528
 30
0.0
 10
77.341360134548609
 20
162.45451117621528
 30
0.0
 10
77.398204210069437
 20
162.51032172309027
 30
0.0
 10
77.398204210069437
 20
162.57922363281247
 30
0.0
  0
SPLINE
  5
403
100
AcDbEntity
  8
レイヤー_2
 62
     7
100
AcDbSpline
210
0.0
220
0.0
230
1.0
 70
     8
 71
     3
 72
     8
 73
     4
 74
     0
 42
0.00000001
 43
0.00000001
 40
0.0
 40
0.0
 40
0.0
 40
0.0
 40
1.0
 40
1.0
 40
1.0
 40
1.0
 10
67.397781032986103
 20
162.57922363281247
 30
0.0
 10
67.397781032986103
 20
162.51032172309027
 30
0.0
 10
67.453591579861111
 20
162.45451117621528
 30
0.0
 10
67.522837999131937
 20
162.45451117621528
 30
0.0
  0
LINE
  5
402
100
AcDbEntity
  8
レイヤー_2
 62
     7
100
AcDbLine
 10
77.647629
 20
163.078762
 30
0.0
 11
77.647629
 21
163.328876
 31
0.0
  0
LINE
  5
401
100
AcDbEntity
  8
レイヤー_2
 62
     7
100
AcDbLine
 10
67.147323
 20
163.328876
 30
0.0
 11
67.147323
 21
163.078762
 31
0.0
  0
LINE
  5
400
100
AcDbEntity
  8
レイヤー_2
 62
     7
100
AcDbLine
 10
78.397971
 20
163.328876
 30
0.0
 11
78.397971
 21
164.079218
 31
0.0
  0
LINE
  5
3FF
100
AcDbEntity
  8
レイヤー_2
 62
     7
100
AcDbLine
 10
66.39767
 20
164.079218
 30
0.0
 11
66.39767
 21
163.328876
 31
0.0
  0
LINE
  5
3FE
100
AcDbEntity
  8
レイヤー_2
 62
     7
100
AcDbLine
 10
76.585506
 20
169.344013
 30
0.0
 11
76.585506
 21
171.344236
 31
0.0
  0
LINE
  5
3FD
100
AcDbEntity
  8
レイヤー_2
 62
     7
100
AcDbLine
 10
68.210135
 20
171.344236
 30
0.0
 11
68.210135
 21
169.344013
 31
0.0
  0
LINE
  5
3FC
100
AcDbEntity
  8
レイヤー_2
 62
     7
100
AcDbLine
 10
72.397648
 20
162.454511
 30
0.0
 11
67.522838
 21
162.454511
 31
0.0
  0
LINE
  5
3FB
100
AcDbEntity
  8
レイヤー_2
 62
     7
100
AcDbLine
 10
77.272803
 20
162.454511
 30
0.0
 11
72.397648
 21
162.454511
 31
0.0
  0
LINE
  5
3FA
100
AcDbEntity
  8
レイヤー_2
 62
     7
100
AcDbLine
 10
69.022488
 20
160.329576
 30
0.0
 11
69.022488
 21
162.454511
 31
0.0
  0
LINE
  5
3F9
100
AcDbEntity
  8
レイヤー_2
 62
     7
100
AcDbLine
 10
72.397648
 20
162.454511
 30
0.0
 11
72.397648
 21
160.329576
 31
0.0
  0
LINE
  5
3F8
100
AcDbEntity
  8
レイヤー_2
 62
     7
100
AcDbLine
 10
69.022488
 20
160.329576
 30
0.0
 11
72.397648
 21
160.329576
 31
0.0
  0
LINE
  5
3F7
100
AcDbEntity
  8
レイヤー_2
 62
     7
100
AcDbLine
 10
75.772808
 20
162.454511
 30
0.0
 11
75.772808
 21
160.329576
 31
0.0
  0
LINE
  5
3F6
100
AcDbEntity
  8
レイヤー_2
 62
     7
100
AcDbLine
 10
72.397648
 20
160.329576
 30
0.0
 11
75.772808
 21
160.329576
 31
0.0
  0
LINE
  5
3F5
100
AcDbEntity
  8
レイヤー_2
 62
     7
100
AcDbLine
 10
72.397648
 20
163.078762
 30
0.0
 11
67.147323
 21
163.078762
 31
0.0
  0
LINE
  5
3F4
100
AcDbEntity
  8
レイヤー_2
 62
     7
100
AcDbLine
 10
77.647629
 20
163.078762
 30
0.0
 11
72.397648
 21
163.078762
 31
0.0
  0
LINE
  5
3F3
100
AcDbEntity
  8
レイヤー_2
 62
     7
100
AcDbLine
 10
72.397648
 20
163.328876
 30
0.0
 11
66.39767
 21
163.328876
 31
0.0
  0
LINE
  5
3F2
100
AcDbEntity
  8
レイヤー_2
 62
     7
100
AcDbLine
 10
78.397971
 20
163.328876
 30
0.0
 11
72.397648
 21
163.328876
 31
0.0
  0
LINE
  5
3F1
100
AcDbEntity
  8
レイヤー_2
 62
     7
100
AcDbLine
 10
72.397648
 20
164.079218
 30
0.0
 11
66.39767
 21
164.079218
 31
0.0
  0
LINE
  5
3F0
100
AcDbEntity
  8
レイヤー_2
 62
     7
100
AcDbLine
 10
78.397971
 20
164.079218
 30
0.0
 11
72.397648
 21
164.079218
 31
0.0
  0
POLYLINE
  5
3E4
100
AcDbEntity
  8
レイヤー_2
 62
     7
100
AcDb2dPolyline
 66
     1
 10
0.0
 20
0.0
 30
0.0
  0
VERTEX
  5
3E5
100
AcDbEntity
  8
レイヤー_2
 62
     7
100
AcDbVertex
100
AcDb2dVertex
 10
125.004256
 20
196.737862
 30
0.0
  0
VERTEX
  5
3E6
100
AcDbEntity
  8
レイヤー_2
 62
     7
100
AcDbVertex
100
AcDb2dVertex
 10
125.092106
 20
196.737862
 30
0.0
  0
VERTEX
  5
3E7
100
AcDbEntity
  8
レイヤー_2
 62
     7
100
AcDbVertex
100
AcDb2dVertex
 10
125.311903
 20
196.792811
 30
0.0
  0
VERTEX
  5
3E8
100
AcDbEntity
  8
レイヤー_2
 62
     7
100
AcDbVertex
100
AcDb2dVertex
 10
125.518953
 20
196.900471
 30
0.0
  0
VERTEX
  5
3E9
100
AcDbEntity
  8
レイヤー_2
 62
     7
100
AcDbVertex
100
AcDb2dVertex
 10
125.7074
 20
197.05705
 30
0.0
  0
VERTEX
  5
3EA
100
AcDbEntity
  8
レイヤー_2
 62
     7
100
AcDbVertex
100
AcDb2dVertex
 10
125.870698
 20
197.258588
 30
0.0
  0
VERTEX
  5
3EB
100
AcDbEntity
  8
レイヤー_2
 62
     7
100
AcDbVertex
100
AcDb2dVertex
 10
126.005056
 20
197.499056
 30
0.0
  0
VERTEX
  5
3EC
100
AcDbEntity
  8
レイヤー_2
 62
     7
100
AcDbVertex
100
AcDb2dVertex
 10
126.104275
 20
197.770357
 30
0.0
  0
VERTEX
  5
3ED
100
AcDbEntity
  8
レイヤー_2
 62
     7
100
AcDbVertex
100
AcDb2dVertex
 10
126.164564
 20
198.061985
 30
0.0
  0
VERTEX
  5
3EE
100
AcDbEntity
  8
レイヤー_2
 62
     7
100
AcDbVertex
100
AcDb2dVertex
 10
126.184546
 20
198.356196
 30
0.0
  0
SEQEND
  5
3EF
100
AcDbEntity
  8
レイヤー_2
 62
     7
  0
POLYLINE
  5
3D8
100
AcDbEntity
  8
レイヤー_2
 62
     7
100
AcDb2dPolyline
 66
     1
 10
0.0
 20
0.0
 30
0.0
  0
VERTEX
  5
3D9
100
AcDbEntity
  8
レイヤー_2
 62
     7
100
AcDbVertex
100
AcDb2dVertex
 10
126.184546
 20
198.356196
 30
0.0
  0
VERTEX
  5
3DA
100
AcDbEntity
  8
レイヤー_2
 62
     7
100
AcDbVertex
100
AcDb2dVertex
 10
126.178689
 20
198.517943
 30
0.0
  0
VERTEX
  5
3DB
100
AcDbEntity
  8
レイヤー_2
 62
     7
100
AcDbVertex
100
AcDb2dVertex
 10
126.135281
 20
198.815944
 30
0.0
  0
VERTEX
  5
3DC
100
AcDbEntity
  8
レイヤー_2
 62
     7
100
AcDbVertex
100
AcDb2dVertex
 10
126.052943
 20
199.098269
 30
0.0
  0
VERTEX
  5
3DD
100
AcDbEntity
  8
レイヤー_2
 62
     7
100
AcDbVertex
100
AcDb2dVertex
 10
125.931331
 20
199.356651
 30
0.0
  0
VERTEX
  5
3DE
100
AcDbEntity
  8
レイヤー_2
 62
     7
100
AcDbVertex
100
AcDb2dVertex
 10
125.774924
 20
199.580927
 30
0.0
  0
VERTEX
  5
3DF
100
AcDbEntity
  8
レイヤー_2
 62
     7
100
AcDbVertex
100
AcDb2dVertex
 10
125.587511
 20
199.762139
 30
0.0
  0
VERTEX
  5
3E0
100
AcDbEntity
  8
レイヤー_2
 62
     7
100
AcDbVertex
100
AcDb2dVertex
 10
125.376671
 20
199.891675
 30
0.0
  0
VERTEX
  5
3E1
100
AcDbEntity
  8
レイヤー_2
 62
     7
100
AcDbVertex
100
AcDb2dVertex
 10
125.152051
 20
199.964883
 30
0.0
  0
VERTEX
  5
3E2
100
AcDbEntity
  8
レイヤー_2
 62
     7
100
AcDbVertex
100
AcDb2dVertex
 10
124.960159
 20
199.976769
 30
0.0
  0
SEQEND
  5
3E3
100
AcDbEntity
  8
レイヤー_2
 62
     7
  0
POLYLINE
  5
3C3
100
AcDbEntity
  8
レイヤー_2
 62
     7
100
AcDb2dPolyline
 66
     1
 10
0.0
 20
0.0
 30
0.0
  0
VERTEX
  5
3C4
100
AcDbEntity
  8
レイヤー_2
 62
     7
100
AcDbVertex
100
AcDb2dVertex
 10
112.871663
 20
199.981075
 30
0.0
  0
VERTEX
  5
3C5
100
AcDbEntity
  8
レイヤー_2
 62
     7
100
AcDbVertex
100
AcDb2dVertex
 10
112.739027
 20
199.971601
 30
0.0
  0
VERTEX
  5
3C6
100
AcDbEntity
  8
レイヤー_2
 62
     7
100
AcDbVertex
100
AcDb2dVertex
 10
112.520608
 20
199.911484
 30
0.0
  0
VERTEX
  5
3C7
100
AcDbEntity
  8
レイヤー_2
 62
     7
100
AcDbVertex
100
AcDb2dVertex
 10
112.31528
 20
199.799346
 30
0.0
  0
VERTEX
  5
3C8
100
AcDbEntity
  8
レイヤー_2
 62
     7
100
AcDbVertex
100
AcDb2dVertex
 10
112.128901
 20
199.63846
 30
0.0
  0
VERTEX
  5
3C9
100
AcDbEntity
  8
レイヤー_2
 62
     7
100
AcDbVertex
100
AcDb2dVertex
 10
111.966981
 20
199.433133
 30
0.0
  0
VERTEX
  5
3CA
100
AcDbEntity
  8
レイヤー_2
 62
     7
100
AcDbVertex
100
AcDb2dVertex
 10
111.836068
 20
199.189392
 30
0.0
  0
VERTEX
  5
3CB
100
AcDbEntity
  8
レイヤー_2
 62
     7
100
AcDbVertex
100
AcDb2dVertex
 10
111.740294
 20
198.915852
 30
0.0
  0
VERTEX
  5
3CC
100
AcDbEntity
  8
レイヤー_2
 62
     7
100
AcDbVertex
100
AcDb2dVertex
 10
111.683794
 20
198.623363
 30
0.0
  0
VERTEX
  5
3CD
100
AcDbEntity
  8
レイヤー_2
 62
     7
100
AcDbVertex
100
AcDb2dVertex
 10
111.667603
 20
198.320711
 30
0.0
  0
VERTEX
  5
3CE
100
AcDbEntity
  8
レイヤー_2
 62
     7
100
AcDbVertex
100
AcDb2dVertex
 10
111.692752
 20
198.01961
 30
0.0
  0
VERTEX
  5
3CF
100
AcDbEntity
  8
レイヤー_2
 62
     7
100
AcDbVertex
100
AcDb2dVertex
 10
111.759931
 20
197.728844
 30
0.0
  0
VERTEX
  5
3D0
100
AcDbEntity
  8
レイヤー_2
 62
     7
100
AcDbVertex
100
AcDb2dVertex
 10
111.865351
 20
197.459265
 30
0.0
  0
VERTEX
  5
3D1
100
AcDbEntity
  8
レイヤー_2
 62
     7
100
AcDbVertex
100
AcDb2dVertex
 10
112.007633
 20
197.220003
 30
0.0
  0
VERTEX
  5
3D2
100
AcDbEntity
  8
レイヤー_2
 62
     7
100
AcDbVertex
100
AcDb2dVertex
 10
112.182644
 20
197.019843
 30
0.0
  0
VERTEX
  5
3D3
100
AcDbEntity
  8
レイヤー_2
 62
     7
100
AcDbVertex
100
AcDb2dVertex
 10
112.384527
 20
196.867742
 30
0.0
  0
VERTEX
  5
3D4
100
AcDbEntity
  8
レイヤー_2
 62
     7
100
AcDbVertex
100
AcDb2dVertex
 10
112.604324
 20
196.770418
 30
0.0
  0
VERTEX
  5
3D5
100
AcDbEntity
  8
レイヤー_2
 62
     7
100
AcDbVertex
100
AcDb2dVertex
 10
112.832389
 20
196.731833
 30
0.0
  0
VERTEX
  5
3D6
100
AcDbEntity
  8
レイヤー_2
 62
     7
100
AcDbVertex
100
AcDb2dVertex
 10
112.890611
 20
196.736484
 30
0.0
  0
SEQEND
  5
3D7
100
AcDbEntity
  8
レイヤー_2
 62
     7
  0
LINE
  5
3C2
100
AcDbEntity
  8
レイヤー_2
 62
     7
100
AcDbLine
 10
124.980485
 20
199.981075
 30
0.0
 11
118.925385
 21
199.981075
 31
0.0
  0
LINE
  5
3C1
100
AcDbEntity
  8
レイヤー_2
 62
     7
100
AcDbLine
 10
120.164931
 20
196.731489
 30
0.0
 11
124.980485
 21
196.731489
 31
0.0
  0
LINE
  5
3C0
100
AcDbEntity
  8
レイヤー_2
 62
     7
100
AcDbLine
 10
112.871663
 20
196.731489
 30
0.0
 11
117.686873
 21
196.731489
 31
0.0
  0
LINE
  5
3BF
100
AcDbEntity
  8
レイヤー_2
 62
     7
100
AcDbLine
 10
118.925385
 20
199.981075
 30
0.0
 11
112.871663
 21
199.981075
 31
0.0
  0
LINE
  5
3BE
100
AcDbEntity
  8
レイヤー_2
 62
     7
100
AcDbLine
 10
117.302745
 20
195.352762
 30
0.0
 11
117.311013
 21
194.356095
 31
0.0
  0
LINE
  5
3BD
100
AcDbEntity
  8
レイヤー_2
 62
     7
100
AcDbLine
 10
117.289654
 20
196.731489
 30
0.0
 11
117.295855
 21
196.109132
 31
0.0
  0
LINE
  5
3BC
100
AcDbEntity
  8
レイヤー_2
 62
     7
100
AcDbLine
 10
120.541135
 20
194.356095
 30
0.0
 11
120.561806
 21
196.731489
 31
0.0
  0
LINE
  5
3BB
100
AcDbEntity
  8
レイヤー_2
 62
     7
100
AcDbLine
 10
124.980485
 20
196.731489
 30
0.0
 11
125.07557
 21
196.737862
 31
0.0
  0
POLYLINE
  5
3B6
100
AcDbEntity
  8
レイヤー_2
 62
     7
100
AcDb2dPolyline
 66
     1
 10
0.0
 20
0.0
 30
0.0
  0
VERTEX
  5
3B7
100
AcDbEntity
  8
レイヤー_2
 62
     7
100
AcDbVertex
100
AcDb2dVertex
 10
125.085216
 20
199.969189
 30
0.0
  0
VERTEX
  5
3B8
100
AcDbEntity
  8
レイヤー_2
 62
     7
100
AcDbVertex
100
AcDb2dVertex
 10
125.019759
 20
199.980214
 30
0.0
  0
VERTEX
  5
3B9
100
AcDbEntity
  8
レイヤー_2
 62
     7
100
AcDbVertex
100
AcDb2dVertex
 10
124.972906
 20
199.976252
 30
0.0
  0
SEQEND
  5
3BA
100
AcDbEntity
  8
レイヤー_2
 62
     7
  0
POLYLINE
  5
3B1
100
AcDbEntity
  8
レイヤー_2
 62
     7
100
AcDb2dPolyline
 66
     1
 10
0.0
 20
0.0
 30
0.0
  0
VERTEX
  5
3B2
100
AcDbEntity
  8
レイヤー_2
 62
     7
100
AcDbVertex
100
AcDb2dVertex
 10
117.687218
 20
196.737862
 30
0.0
  0
VERTEX
  5
3B3
100
AcDbEntity
  8
レイヤー_2
 62
     7
100
AcDbVertex
100
AcDb2dVertex
 10
117.725114
 20
196.73235
 30
0.0
  0
VERTEX
  5
3B4
100
AcDbEntity
  8
レイヤー_2
 62
     7
100
AcDbVertex
100
AcDb2dVertex
 10
117.733382
 20
196.734073
 30
0.0
  0
SEQEND
  5
3B5
100
AcDbEntity
  8
レイヤー_2
 62
     7
  0
POLYLINE
  5
3A6
100
AcDbEntity
  8
レイヤー_2
 62
     7
100
AcDb2dPolyline
 66
     1
 10
0.0
 20
0.0
 30
0.0
  0
VERTEX
  5
3A7
100
AcDbEntity
  8
レイヤー_2
 62
     7
100
AcDbVertex
100
AcDb2dVertex
 10
118.988775
 20
197.216214
 30
0.0
  0
VERTEX
  5
3A8
100
AcDbEntity
  8
レイヤー_2
 62
     7
100
AcDbVertex
100
AcDb2dVertex
 10
118.974306
 20
197.222587
 30
0.0
  0
VERTEX
  5
3A9
100
AcDbEntity
  8
レイヤー_2
 62
     7
100
AcDbVertex
100
AcDb2dVertex
 10
118.958458
 20
197.226721
 30
0.0
  0
VERTEX
  5
3AA
100
AcDbEntity
  8
レイヤー_2
 62
     7
100
AcDbVertex
100
AcDb2dVertex
 10
118.942611
 20
197.229305
 30
0.0
  0
VERTEX
  5
3AB
100
AcDbEntity
  8
レイヤー_2
 62
     7
100
AcDbVertex
100
AcDb2dVertex
 10
118.925385
 20
197.230166
 30
0.0
  0
VERTEX
  5
3AC
100
AcDbEntity
  8
レイヤー_2
 62
     7
100
AcDbVertex
100
AcDb2dVertex
 10
118.909538
 20
197.229305
 30
0.0
  0
VERTEX
  5
3AD
100
AcDbEntity
  8
レイヤー_2
 62
     7
100
AcDbVertex
100
AcDb2dVertex
 10
118.89369
 20
197.226721
 30
0.0
  0
VERTEX
  5
3AE
100
AcDbEntity
  8
レイヤー_2
 62
     7
100
AcDbVertex
100
AcDb2dVertex
 10
118.877154
 20
197.222587
 30
0.0
  0
VERTEX
  5
3AF
100
AcDbEntity
  8
レイヤー_2
 62
     7
100
AcDbVertex
100
AcDb2dVertex
 10
118.863029
 20
197.216214
 30
0.0
  0
SEQEND
  5
3B0
100
AcDbEntity
  8
レイヤー_2
 62
     7
  0
POLYLINE
  5
39D
100
AcDbEntity
  8
レイヤー_2
 62
     7
100
AcDb2dPolyline
 66
     1
 10
0.0
 20
0.0
 30
0.0
  0
VERTEX
  5
39E
100
AcDbEntity
  8
レイヤー_2
 62
     7
100
AcDbVertex
100
AcDb2dVertex
 10
117.342364
 20
195.806136
 30
0.0
  0
VERTEX
  5
39F
100
AcDbEntity
  8
レイヤー_2
 62
     7
100
AcDbVertex
100
AcDb2dVertex
 10
117.344086
 20
195.680735
 30
0.0
  0
VERTEX
  5
3A0
100
AcDbEntity
  8
レイヤー_2
 62
     7
100
AcDbVertex
100
AcDb2dVertex
 10
117.336852
 20
195.561018
 30
0.0
  0
VERTEX
  5
3A1
100
AcDbEntity
  8
レイヤー_2
 62
     7
100
AcDbVertex
100
AcDb2dVertex
 10
117.32376
 20
195.459387
 30
0.0
  0
VERTEX
  5
3A2
100
AcDbEntity
  8
レイヤー_2
 62
     7
100
AcDbVertex
100
AcDb2dVertex
 10
117.310324
 20
195.385318
 30
0.0
  0
VERTEX
  5
3A3
100
AcDbEntity
  8
レイヤー_2
 62
     7
100
AcDbVertex
100
AcDb2dVertex
 10
117.302745
 20
195.350178
 30
0.0
  0
VERTEX
  5
3A4
100
AcDbEntity
  8
レイヤー_2
 62
     7
100
AcDbVertex
100
AcDb2dVertex
 10
117.303434
 20
195.353623
 30
0.0
  0
SEQEND
  5
3A5
100
AcDbEntity
  8
レイヤー_2
 62
     7
  0
LINE
  5
39C
100
AcDbEntity
  8
レイヤー_2
 62
     7
100
AcDbLine
 10
117.342708
 20
195.768757
 30
0.0
 11
117.339952
 21
195.834386
 31
0.0
  0
POLYLINE
  5
394
100
AcDbEntity
  8
レイヤー_2
 62
     7
100
AcDb2dPolyline
 66
     1
 10
0.0
 20
0.0
 30
0.0
  0
VERTEX
  5
395
100
AcDbEntity
  8
レイヤー_2
 62
     7
100
AcDbVertex
100
AcDb2dVertex
 10
117.296544
 20
196.109132
 30
0.0
  0
VERTEX
  5
396
100
AcDbEntity
  8
レイヤー_2
 62
     7
100
AcDbVertex
100
AcDb2dVertex
 10
117.295855
 20
196.111372
 30
0.0
  0
VERTEX
  5
397
100
AcDbEntity
  8
レイヤー_2
 62
     7
100
AcDbVertex
100
AcDb2dVertex
 10
117.303434
 20
196.079504
 30
0.0
  0
VERTEX
  5
398
100
AcDbEntity
  8
レイヤー_2
 62
     7
100
AcDbVertex
100
AcDb2dVertex
 10
117.31687
 20
196.009741
 30
0.0
  0
VERTEX
  5
399
100
AcDbEntity
  8
レイヤー_2
 62
     7
100
AcDbVertex
100
AcDb2dVertex
 10
117.333062
 20
195.908111
 30
0.0
  0
VERTEX
  5
39A
100
AcDbEntity
  8
レイヤー_2
 62
     7
100
AcDbVertex
100
AcDb2dVertex
 10
117.342364
 20
195.806136
 30
0.0
  0
SEQEND
  5
39B
100
AcDbEntity
  8
レイヤー_2
 62
     7
  0
POLYLINE
  5
37E
100
AcDbEntity
  8
レイヤー_2
 62
     7
100
AcDb2dPolyline
 66
     1
 10
0.0
 20
0.0
 30
0.0
  0
VERTEX
  5
37F
100
AcDbEntity
  8
レイヤー_2
 62
     7
100
AcDbVertex
100
AcDb2dVertex
 10
125.002534
 20
196.731489
 30
0.0
  0
VERTEX
  5
380
100
AcDbEntity
  8
レイヤー_2
 62
     7
100
AcDbVertex
100
AcDb2dVertex
 10
124.928809
 20
196.73235
 30
0.0
  0
VERTEX
  5
381
100
AcDbEntity
  8
レイヤー_2
 62
     7
100
AcDbVertex
100
AcDb2dVertex
 10
124.725203
 20
196.771624
 30
0.0
  0
VERTEX
  5
382
100
AcDbEntity
  8
レイヤー_2
 62
     7
100
AcDbVertex
100
AcDb2dVertex
 10
124.528833
 20
196.861886
 30
0.0
  0
VERTEX
  5
383
100
AcDbEntity
  8
レイヤー_2
 62
     7
100
AcDbVertex
100
AcDb2dVertex
 10
124.347276
 20
197.000378
 30
0.0
  0
VERTEX
  5
384
100
AcDbEntity
  8
レイヤー_2
 62
     7
100
AcDbVertex
100
AcDb2dVertex
 10
124.186046
 20
197.181935
 30
0.0
  0
VERTEX
  5
385
100
AcDbEntity
  8
レイヤー_2
 62
     7
100
AcDbVertex
100
AcDb2dVertex
 10
124.050998
 20
197.400699
 30
0.0
  0
VERTEX
  5
386
100
AcDbEntity
  8
レイヤー_2
 62
     7
100
AcDbVertex
100
AcDb2dVertex
 10
123.944889
 20
197.650468
 30
0.0
  0
VERTEX
  5
387
100
AcDbEntity
  8
レイヤー_2
 62
     7
100
AcDbVertex
100
AcDb2dVertex
 10
123.873231
 20
197.923664
 30
0.0
  0
VERTEX
  5
388
100
AcDbEntity
  8
レイヤー_2
 62
     7
100
AcDbVertex
100
AcDb2dVertex
 10
123.836024
 20
198.210124
 30
0.0
  0
VERTEX
  5
389
100
AcDbEntity
  8
レイヤー_2
 62
     7
100
AcDbVertex
100
AcDb2dVertex
 10
123.836024
 20
198.501923
 30
0.0
  0
VERTEX
  5
38A
100
AcDbEntity
  8
レイヤー_2
 62
     7
100
AcDbVertex
100
AcDb2dVertex
 10
123.873231
 20
198.788038
 30
0.0
  0
VERTEX
  5
38B
100
AcDbEntity
  8
レイヤー_2
 62
     7
100
AcDbVertex
100
AcDb2dVertex
 10
123.944889
 20
199.061062
 30
0.0
  0
VERTEX
  5
38C
100
AcDbEntity
  8
レイヤー_2
 62
     7
100
AcDbVertex
100
AcDb2dVertex
 10
124.050998
 20
199.311348
 30
0.0
  0
VERTEX
  5
38D
100
AcDbEntity
  8
レイヤー_2
 62
     7
100
AcDbVertex
100
AcDb2dVertex
 10
124.186046
 20
199.530629
 30
0.0
  0
VERTEX
  5
38E
100
AcDbEntity
  8
レイヤー_2
 62
     7
100
AcDbVertex
100
AcDb2dVertex
 10
124.347276
 20
199.712185
 30
0.0
  0
VERTEX
  5
38F
100
AcDbEntity
  8
レイヤー_2
 62
     7
100
AcDbVertex
100
AcDb2dVertex
 10
124.528833
 20
199.850678
 30
0.0
  0
VERTEX
  5
390
100
AcDbEntity
  8
レイヤー_2
 62
     7
100
AcDbVertex
100
AcDb2dVertex
 10
124.725203
 20
199.940423
 30
0.0
  0
VERTEX
  5
391
100
AcDbEntity
  8
レイヤー_2
 62
     7
100
AcDbVertex
100
AcDb2dVertex
 10
124.928809
 20
199.979352
 30
0.0
  0
VERTEX
  5
392
100
AcDbEntity
  8
レイヤー_2
 62
     7
100
AcDbVertex
100
AcDb2dVertex
 10
124.961882
 20
199.981075
 30
0.0
  0
SEQEND
  5
393
100
AcDbEntity
  8
レイヤー_2
 62
     7
  0
POLYLINE
  5
369
100
AcDbEntity
  8
レイヤー_2
 62
     7
100
AcDb2dPolyline
 66
     1
 10
0.0
 20
0.0
 30
0.0
  0
VERTEX
  5
36A
100
AcDbEntity
  8
レイヤー_2
 62
     7
100
AcDbVertex
100
AcDb2dVertex
 10
112.871663
 20
199.981075
 30
0.0
  0
VERTEX
  5
36B
100
AcDbEntity
  8
レイヤー_2
 62
     7
100
AcDbVertex
100
AcDb2dVertex
 10
113.076991
 20
199.95472
 30
0.0
  0
VERTEX
  5
36C
100
AcDbEntity
  8
レイヤー_2
 62
     7
100
AcDbVertex
100
AcDb2dVertex
 10
113.27474
 20
199.877205
 30
0.0
  0
VERTEX
  5
36D
100
AcDbEntity
  8
レイヤー_2
 62
     7
100
AcDbVertex
100
AcDb2dVertex
 10
113.460775
 20
199.751115
 30
0.0
  0
VERTEX
  5
36E
100
AcDbEntity
  8
レイヤー_2
 62
     7
100
AcDbVertex
100
AcDb2dVertex
 10
113.627173
 20
199.580066
 30
0.0
  0
VERTEX
  5
36F
100
AcDbEntity
  8
レイヤー_2
 62
     7
100
AcDbVertex
100
AcDb2dVertex
 10
113.769455
 20
199.369226
 30
0.0
  0
VERTEX
  5
370
100
AcDbEntity
  8
レイヤー_2
 62
     7
100
AcDbVertex
100
AcDb2dVertex
 10
113.883143
 20
199.126347
 30
0.0
  0
VERTEX
  5
371
100
AcDbEntity
  8
レイヤー_2
 62
     7
100
AcDbVertex
100
AcDb2dVertex
 10
113.964103
 20
198.858318
 30
0.0
  0
VERTEX
  5
372
100
AcDbEntity
  8
レイヤー_2
 62
     7
100
AcDbVertex
100
AcDb2dVertex
 10
114.009923
 20
198.57427
 30
0.0
  0
VERTEX
  5
373
100
AcDbEntity
  8
レイヤー_2
 62
     7
100
AcDbVertex
100
AcDb2dVertex
 10
114.019225
 20
198.282987
 30
0.0
  0
VERTEX
  5
374
100
AcDbEntity
  8
レイヤー_2
 62
     7
100
AcDbVertex
100
AcDb2dVertex
 10
113.991319
 20
197.994288
 30
0.0
  0
VERTEX
  5
375
100
AcDbEntity
  8
レイヤー_2
 62
     7
100
AcDbVertex
100
AcDb2dVertex
 10
113.928274
 20
197.71782
 30
0.0
  0
VERTEX
  5
376
100
AcDbEntity
  8
レイヤー_2
 62
     7
100
AcDbVertex
100
AcDb2dVertex
 10
113.830089
 20
197.460471
 30
0.0
  0
VERTEX
  5
377
100
AcDbEntity
  8
レイヤー_2
 62
     7
100
AcDbVertex
100
AcDb2dVertex
 10
113.701931
 20
197.233095
 30
0.0
  0
VERTEX
  5
378
100
AcDbEntity
  8
レイヤー_2
 62
     7
100
AcDbVertex
100
AcDb2dVertex
 10
113.546902
 20
197.041031
 30
0.0
  0
VERTEX
  5
379
100
AcDbEntity
  8
レイヤー_2
 62
     7
100
AcDbVertex
100
AcDb2dVertex
 10
113.369135
 20
196.891858
 30
0.0
  0
VERTEX
  5
37A
100
AcDbEntity
  8
レイヤー_2
 62
     7
100
AcDbVertex
100
AcDb2dVertex
 10
113.177243
 20
196.789883
 30
0.0
  0
VERTEX
  5
37B
100
AcDbEntity
  8
レイヤー_2
 62
     7
100
AcDbVertex
100
AcDb2dVertex
 10
112.973983
 20
196.737345
 30
0.0
  0
VERTEX
  5
37C
100
AcDbEntity
  8
レイヤー_2
 62
     7
100
AcDbVertex
100
AcDb2dVertex
 10
112.889233
 20
196.731489
 30
0.0
  0
SEQEND
  5
37D
100
AcDbEntity
  8
レイヤー_2
 62
     7
  0
POLYLINE
  5
363
100
AcDbEntity
  8
レイヤー_2
 62
     7
100
AcDb2dPolyline
 66
     1
 10
0.0
 20
0.0
 30
0.0
  0
VERTEX
  5
364
100
AcDbEntity
  8
レイヤー_2
 62
     7
100
AcDbVertex
100
AcDb2dVertex
 10
118.988775
 20
197.216214
 30
0.0
  0
VERTEX
  5
365
100
AcDbEntity
  8
レイヤー_2
 62
     7
100
AcDbVertex
100
AcDb2dVertex
 10
119.480735
 20
196.925448
 30
0.0
  0
VERTEX
  5
366
100
AcDbEntity
  8
レイヤー_2
 62
     7
100
AcDbVertex
100
AcDb2dVertex
 10
119.866241
 20
196.776447
 30
0.0
  0
VERTEX
  5
367
100
AcDbEntity
  8
レイヤー_2
 62
     7
100
AcDbVertex
100
AcDb2dVertex
 10
120.16562
 20
196.737862
 30
0.0
  0
SEQEND
  5
368
100
AcDbEntity
  8
レイヤー_2
 62
     7
  0
POLYLINE
  5
35D
100
AcDbEntity
  8
レイヤー_2
 62
     7
100
AcDb2dPolyline
 66
     1
 10
0.0
 20
0.0
 30
0.0
  0
VERTEX
  5
35E
100
AcDbEntity
  8
レイヤー_2
 62
     7
100
AcDbVertex
100
AcDb2dVertex
 10
117.733382
 20
196.734073
 30
0.0
  0
VERTEX
  5
35F
100
AcDbEntity
  8
レイヤー_2
 62
     7
100
AcDbVertex
100
AcDb2dVertex
 10
118.034484
 20
196.790744
 30
0.0
  0
VERTEX
  5
360
100
AcDbEntity
  8
レイヤー_2
 62
     7
100
AcDbVertex
100
AcDb2dVertex
 10
118.37417
 20
196.926309
 30
0.0
  0
VERTEX
  5
361
100
AcDbEntity
  8
レイヤー_2
 62
     7
100
AcDbVertex
100
AcDb2dVertex
 10
118.863029
 20
197.216214
 30
0.0
  0
SEQEND
  5
362
100
AcDbEntity
  8
レイヤー_2
 62
     7
  0
LINE
  5
35C
100
AcDbEntity
  8
レイヤー_2
 62
     7
100
AcDbLine
 10
118.925385
 20
199.981075
 30
0.0
 11
118.925385
 21
197.216214
 31
0.0
  0
SPLINE
  5
35B
100
AcDbEntity
  8
レイヤー_2
 62
     7
100
AcDbSpline
210
0.0
220
0.0
230
1.0
 70
     8
 71
     3
 72
     8
 73
     4
 74
     0
 42
0.00000001
 43
0.00000001
 40
0.0
 40
0.0
 40
0.0
 40
0.0
 40
1.0
 40
1.0
 40
1.0
 40
1.0
 10
78.022800021701386
 20
173.469342719184
 30
0.0
 10
78.022800021701386
 20
173.53790011935763
 30
0.0
 10
77.966989474826377
 20
173.59405517578122
 30
0.0
 10
77.897743055555551
 20
173.59405517578122
 30
0.0
  0
SPLINE
  5
35A
100
AcDbEntity
  8
レイヤー_2
 62
     7
100
AcDbSpline
210
0.0
220
0.0
230
1.0
 70
     8
 71
     3
 72
     8
 73
     4
 74
     0
 42
0.00000001
 43
0.00000001
 40
0.0
 40
0.0
 40
0.0
 40
0.0
 40
1.0
 40
1.0
 40
1.0
 40
1.0
 10
66.897208658854154
 20
173.59405517578122
 30
0.0
 10
66.828651258680551
 20
173.59405517578122
 30
0.0
 10
66.772840711805543
 20
173.53790011935763
 30
0.0
 10
66.772840711805543
 20
173.469342719184
 30
0.0
  0
LINE
  5
359
100
AcDbEntity
  8
レイヤー_2
 62
     7
100
AcDbLine
 10
66.772841
 20
173.469343
 30
0.0
 11
66.772841
 21
171.344236
 31
0.0
  0
LINE
  5
358
100
AcDbEntity
  8
レイヤー_2
 62
     7
100
AcDbLine
 10
78.0228
 20
171.344236
 30
0.0
 11
78.0228
 21
173.469343
 31
0.0
  0
LINE
  5
357
100
AcDbEntity
  8
レイヤー_2
 62
     7
100
AcDbLine
 10
75.460338
 20
193.594557
 30
0.0
 11
75.460338
 21
194.281681
 31
0.0
  0
LINE
  5
356
100
AcDbEntity
  8
レイヤー_2
 62
     7
100
AcDbLine
 10
69.335647
 20
194.281681
 30
0.0
 11
69.335647
 21
193.594557
 31
0.0
  0
LINE
  5
355
100
AcDbEntity
  8
レイヤー_2
 62
     7
100
AcDbLine
 10
74.771319
 20
181.312447
 30
0.0
 11
74.792678
 21
181.327261
 31
0.0
  0
POLYLINE
  5
34C
100
AcDbEntity
  8
レイヤー_2
 62
     7
100
AcDb2dPolyline
 66
     1
 10
0.0
 20
0.0
 30
0.0
  0
VERTEX
  5
34D
100
AcDbEntity
  8
レイヤー_2
 62
     7
100
AcDbVertex
100
AcDb2dVertex
 10
69.780409
 20
181.689168
 30
0.0
  0
VERTEX
  5
34E
100
AcDbEntity
  8
レイヤー_2
 62
     7
100
AcDbVertex
100
AcDb2dVertex
 10
69.774897
 20
181.629568
 30
0.0
  0
VERTEX
  5
34F
100
AcDbEntity
  8
レイヤー_2
 62
     7
100
AcDbVertex
100
AcDb2dVertex
 10
69.818305
 20
181.507095
 30
0.0
  0
VERTEX
  5
350
100
AcDbEntity
  8
レイヤー_2
 62
     7
100
AcDbVertex
100
AcDb2dVertex
 10
69.905811
 20
181.401331
 30
0.0
  0
VERTEX
  5
351
100
AcDbEntity
  8
レイヤー_2
 62
     7
100
AcDbVertex
100
AcDb2dVertex
 10
70.047404
 20
181.298494
 30
0.0
  0
VERTEX
  5
352
100
AcDbEntity
  8
レイヤー_2
 62
     7
100
AcDbVertex
100
AcDb2dVertex
 10
70.253421
 20
181.200309
 30
0.0
  0
VERTEX
  5
353
100
AcDbEntity
  8
レイヤー_2
 62
     7
100
AcDbVertex
100
AcDb2dVertex
 10
70.345405
 20
181.168442
 30
0.0
  0
SEQEND
  5
354
100
AcDbEntity
  8
レイヤー_2
 62
     7
  0
SPLINE
  5
34B
100
AcDbEntity
  8
レイヤー_2
 62
     7
100
AcDbSpline
210
0.0
220
0.0
230
1.0
 70
     8
 71
     3
 72
     8
 73
     4
 74
     0
 42
0.00000001
 43
0.00000001
 40
0.0
 40
0.0
 40
0.0
 40
0.0
 40
1.0
 40
1.0
 40
1.0
 40
1.0
 10
74.792678493923603
 20
181.32726101345486
 30
0.0
 10
74.927037217881931
 20
181.38823920355901
 30
0.0
 10
75.008685980902769
 20
181.51777479383679
 30
0.0
 10
75.015920681423609
 20
181.65867919921874
 30
0.0
  0
LINE
  5
34A
100
AcDbEntity
  8
レイヤー_2
 62
     7
100
AcDbLine
 10
69.772485
 20
183.840975
 30
0.0
 11
69.772485
 21
181.667636
 31
0.0
  0
LINE
  5
349
100
AcDbEntity
  8
レイヤー_2
 62
     7
100
AcDbLine
 10
75.022811
 20
181.667636
 30
0.0
 11
75.022811
 21
183.961726
 31
0.0
  0
LINE
  5
348
100
AcDbEntity
  8
レイヤー_2
 62
     7
100
AcDbLine
 10
69.772485
 20
188.593829
 30
0.0
 11
69.772485
 21
183.961726
 31
0.0
  0
LINE
  5
347
100
AcDbEntity
  8
レイヤー_2
 62
     7
100
AcDbLine
 10
75.022811
 20
183.961726
 30
0.0
 11
75.022811
 21
188.593829
 31
0.0
  0
SPLINE
  5
346
100
AcDbEntity
  8
レイヤー_2
 62
     7
100
AcDbSpline
210
0.0
220
0.0
230
1.0
 70
     8
 71
     3
 72
     8
 73
     4
 74
     0
 42
0.00000001
 43
0.00000001
 40
0.0
 40
0.0
 40
0.0
 40
0.0
 40
1.0
 40
1.0
 40
1.0
 40
1.0
 10
68.647661675347223
 20
173.79387071397568
 30
0.0
 10
68.647661675347223
 20
173.68362765842014
 30
0.0
 10
68.736889648437497
 20
173.59405517578122
 30
0.0
 10
68.847821723090277
 20
173.59405517578122
 30
0.0
  0
SPLINE
  5
345
100
AcDbEntity
  8
レイヤー_2
 62
     7
100
AcDbSpline
210
0.0
220
0.0
230
1.0
 70
     8
 71
     3
 72
     8
 73
     4
 74
     0
 42
0.00000001
 43
0.00000001
 40
0.0
 40
0.0
 40
0.0
 40
0.0
 40
1.0
 40
1.0
 40
1.0
 40
1.0
 10
75.948163519965277
 20
173.59405517578122
 30
0.0
 10
76.057717556423597
 20
173.59405517578122
 30
0.0
 10
76.14797905815972
 20
173.68362765842014
 30
0.0
 10
76.14797905815972
 20
173.79387071397568
 30
0.0
  0
LINE
  5
344
100
AcDbEntity
  8
レイヤー_2
 62
     7
100
AcDbLine
 10
68.647662
 20
193.394397
 30
0.0
 11
68.647662
 21
173.793871
 31
0.0
  0
LINE
  5
343
100
AcDbEntity
  8
レイヤー_2
 62
     7
100
AcDbLine
 10
76.147979
 20
173.793871
 30
0.0
 11
76.147979
 21
193.394397
 31
0.0
  0
SPLINE
  5
342
100
AcDbEntity
  8
レイヤー_2
 62
     7
100
AcDbSpline
210
0.0
220
0.0
230
1.0
 70
     8
 71
     3
 72
     8
 73
     4
 74
     0
 42
0.00000001
 43
0.00000001
 40
0.0
 40
0.0
 40
0.0
 40
0.0
 40
1.0
 40
1.0
 40
1.0
 40
1.0
 10
76.14797905815972
 20
193.39439697265624
 30
0.0
 10
76.14797905815972
 20
193.50481228298608
 30
0.0
 10
76.057717556423597
 20
193.59455702039929
 30
0.0
 10
75.948163519965277
 20
193.59455702039929
 30
0.0
  0
SPLINE
  5
341
100
AcDbEntity
  8
レイヤー_2
 62
     7
100
AcDbSpline
210
0.0
220
0.0
230
1.0
 70
     8
 71
     3
 72
     8
 73
     4
 74
     0
 42
0.00000001
 43
0.00000001
 40
0.0
 40
0.0
 40
0.0
 40
0.0
 40
1.0
 40
1.0
 40
1.0
 40
1.0
 10
68.847821723090277
 20
193.59455702039929
 30
0.0
 10
68.736889648437497
 20
193.59455702039929
 30
0.0
 10
68.647661675347223
 20
193.50481228298608
 30
0.0
 10
68.647661675347223
 20
193.39439697265624
 30
0.0
  0
LINE
  5
340
100
AcDbEntity
  8
レイヤー_2
 62
     7
100
AcDbLine
 10
66.897209
 20
173.594055
 30
0.0
 11
77.897743
 21
173.594055
 31
0.0
  0
LINE
  5
33F
100
AcDbEntity
  8
レイヤー_2
 62
     7
100
AcDbLine
 10
72.415907
 20
171.344236
 30
0.0
 11
78.0228
 21
171.344236
 31
0.0
  0
LINE
  5
33E
100
AcDbEntity
  8
レイヤー_2
 62
     7
100
AcDbLine
 10
66.772841
 20
171.344236
 30
0.0
 11
72.415907
 21
171.344236
 31
0.0
  0
POLYLINE
  5
329
100
AcDbEntity
  8
レイヤー_2
 62
     7
100
AcDb2dPolyline
 66
     1
 10
0.0
 20
0.0
 30
0.0
  0
VERTEX
  5
32A
100
AcDbEntity
  8
レイヤー_2
 62
     7
100
AcDbVertex
100
AcDb2dVertex
 10
73.911423
 20
181.859873
 30
0.0
  0
VERTEX
  5
32B
100
AcDbEntity
  8
レイヤー_2
 62
     7
100
AcDbVertex
100
AcDb2dVertex
 10
73.911768
 20
181.859012
 30
0.0
  0
VERTEX
  5
32C
100
AcDbEntity
  8
レイヤー_2
 62
     7
100
AcDbVertex
100
AcDb2dVertex
 10
73.916591
 20
181.776846
 30
0.0
  0
VERTEX
  5
32D
100
AcDbEntity
  8
レイヤー_2
 62
     7
100
AcDbVertex
100
AcDb2dVertex
 10
73.854579
 20
181.695886
 30
0.0
  0
VERTEX
  5
32E
100
AcDbEntity
  8
レイヤー_2
 62
     7
100
AcDbVertex
100
AcDb2dVertex
 10
73.728488
 20
181.61975
 30
0.0
  0
VERTEX
  5
32F
100
AcDbEntity
  8
レイヤー_2
 62
     7
100
AcDbVertex
100
AcDb2dVertex
 10
73.545209
 20
181.552915
 30
0.0
  0
VERTEX
  5
330
100
AcDbEntity
  8
レイヤー_2
 62
     7
100
AcDbVertex
100
AcDb2dVertex
 10
73.310598
 20
181.496587
 30
0.0
  0
VERTEX
  5
331
100
AcDbEntity
  8
レイヤー_2
 62
     7
100
AcDbVertex
100
AcDb2dVertex
 10
73.037402
 20
181.454213
 30
0.0
  0
VERTEX
  5
332
100
AcDbEntity
  8
レイヤー_2
 62
     7
100
AcDbVertex
100
AcDb2dVertex
 10
72.734923
 20
181.42803
 30
0.0
  0
VERTEX
  5
333
100
AcDbEntity
  8
レイヤー_2
 62
     7
100
AcDbVertex
100
AcDb2dVertex
 10
72.418319
 20
181.417867
 30
0.0
  0
VERTEX
  5
334
100
AcDbEntity
  8
レイヤー_2
 62
     7
100
AcDbVertex
100
AcDb2dVertex
 10
72.101025
 20
181.425446
 30
0.0
  0
VERTEX
  5
335
100
AcDbEntity
  8
レイヤー_2
 62
     7
100
AcDbVertex
100
AcDb2dVertex
 10
71.796479
 20
181.450079
 30
0.0
  0
VERTEX
  5
336
100
AcDbEntity
  8
レイヤー_2
 62
     7
100
AcDbVertex
100
AcDb2dVertex
 10
71.517771
 20
181.48987
 30
0.0
  0
VERTEX
  5
337
100
AcDbEntity
  8
レイヤー_2
 62
     7
100
AcDbVertex
100
AcDb2dVertex
 10
71.278337
 20
181.544474
 30
0.0
  0
VERTEX
  5
338
100
AcDbEntity
  8
レイヤー_2
 62
     7
100
AcDbVertex
100
AcDb2dVertex
 10
71.087478
 20
181.610448
 30
0.0
  0
VERTEX
  5
339
100
AcDbEntity
  8
レイヤー_2
 62
     7
100
AcDbVertex
100
AcDb2dVertex
 10
70.954153
 20
181.685723
 30
0.0
  0
VERTEX
  5
33A
100
AcDbEntity
  8
レイヤー_2
 62
     7
100
AcDbVertex
100
AcDb2dVertex
 10
70.88284
 20
181.766166
 30
0.0
  0
VERTEX
  5
33B
100
AcDbEntity
  8
レイヤー_2
 62
     7
100
AcDbVertex
100
AcDb2dVertex
 10
70.878706
 20
181.848848
 30
0.0
  0
VERTEX
  5
33C
100
AcDbEntity
  8
レイヤー_2
 62
     7
100
AcDbVertex
100
AcDb2dVertex
 10
70.883529
 20
181.859873
 30
0.0
  0
SEQEND
  5
33D
100
AcDbEntity
  8
レイヤー_2
 62
     7
  0
POLYLINE
  5
315
100
AcDbEntity
  8
レイヤー_2
 62
     7
100
AcDb2dPolyline
 66
     1
 10
0.0
 20
0.0
 30
0.0
  0
VERTEX
  5
316
100
AcDbEntity
  8
レイヤー_2
 62
     7
100
AcDbVertex
100
AcDb2dVertex
 10
74.059907
 20
181.81233
 30
0.0
  0
VERTEX
  5
317
100
AcDbEntity
  8
レイヤー_2
 62
     7
100
AcDbVertex
100
AcDb2dVertex
 10
74.055428
 20
181.77943
 30
0.0
  0
VERTEX
  5
318
100
AcDbEntity
  8
レイヤー_2
 62
     7
100
AcDbVertex
100
AcDb2dVertex
 10
73.995139
 20
181.693475
 30
0.0
  0
VERTEX
  5
319
100
AcDbEntity
  8
レイヤー_2
 62
     7
100
AcDbVertex
100
AcDb2dVertex
 10
73.870426
 20
181.613032
 30
0.0
  0
VERTEX
  5
31A
100
AcDbEntity
  8
レイヤー_2
 62
     7
100
AcDbVertex
100
AcDb2dVertex
 10
73.684391
 20
181.540168
 30
0.0
  0
VERTEX
  5
31B
100
AcDbEntity
  8
レイヤー_2
 62
     7
100
AcDbVertex
100
AcDb2dVertex
 10
73.44668
 20
181.478845
 30
0.0
  0
VERTEX
  5
31C
100
AcDbEntity
  8
レイヤー_2
 62
     7
100
AcDbVertex
100
AcDb2dVertex
 10
73.16556
 20
181.430614
 30
0.0
  0
VERTEX
  5
31D
100
AcDbEntity
  8
レイヤー_2
 62
     7
100
AcDbVertex
100
AcDb2dVertex
 10
72.852745
 20
181.398747
 30
0.0
  0
VERTEX
  5
31E
100
AcDbEntity
  8
レイヤー_2
 62
     7
100
AcDbVertex
100
AcDb2dVertex
 10
72.521672
 20
181.383588
 30
0.0
  0
VERTEX
  5
31F
100
AcDbEntity
  8
レイヤー_2
 62
     7
100
AcDbVertex
100
AcDb2dVertex
 10
72.185086
 20
181.385655
 30
0.0
  0
VERTEX
  5
320
100
AcDbEntity
  8
レイヤー_2
 62
     7
100
AcDbVertex
100
AcDb2dVertex
 10
71.857457
 20
181.405981
 30
0.0
  0
VERTEX
  5
321
100
AcDbEntity
  8
レイヤー_2
 62
     7
100
AcDbVertex
100
AcDb2dVertex
 10
71.552222
 20
181.442327
 30
0.0
  0
VERTEX
  5
322
100
AcDbEntity
  8
レイヤー_2
 62
     7
100
AcDbVertex
100
AcDb2dVertex
 10
71.281437
 20
181.493659
 30
0.0
  0
VERTEX
  5
323
100
AcDbEntity
  8
レイヤー_2
 62
     7
100
AcDbVertex
100
AcDb2dVertex
 10
71.056128
 20
181.558771
 30
0.0
  0
VERTEX
  5
324
100
AcDbEntity
  8
レイヤー_2
 62
     7
100
AcDbVertex
100
AcDb2dVertex
 10
70.88594
 20
181.634219
 30
0.0
  0
VERTEX
  5
325
100
AcDbEntity
  8
レイヤー_2
 62
     7
100
AcDbVertex
100
AcDb2dVertex
 10
70.778109
 20
181.716212
 30
0.0
  0
VERTEX
  5
326
100
AcDbEntity
  8
レイヤー_2
 62
     7
100
AcDbVertex
100
AcDb2dVertex
 10
70.735734
 20
181.802167
 30
0.0
  0
VERTEX
  5
327
100
AcDbEntity
  8
レイヤー_2
 62
     7
100
AcDbVertex
100
AcDb2dVertex
 10
70.735045
 20
181.81233
 30
0.0
  0
SEQEND
  5
328
100
AcDbEntity
  8
レイヤー_2
 62
     7
  0
LINE
  5
314
100
AcDbEntity
  8
レイヤー_2
 62
     7
100
AcDbLine
 10
71.313132
 20
181.656095
 30
0.0
 11
71.313132
 21
181.722241
 31
0.0
  0
SPLINE
  5
313
100
AcDbEntity
  8
レイヤー_2
 62
     7
100
AcDbSpline
210
0.0
220
0.0
230
1.0
 70
     8
 71
     3
 72
     8
 73
     4
 74
     0
 42
0.00000001
 43
0.00000001
 40
0.0
 40
0.0
 40
0.0
 40
0.0
 40
1.0
 40
1.0
 40
1.0
 40
1.0
 10
71.313132052951389
 20
181.65609537760415
 30
0.0
 10
71.370320638020829
 20
181.64093695746527
 30
0.0
 10
71.428542751736103
 20
181.62819010416666
 30
0.0
 10
71.477807617187494
 20
181.61888834635414
 30
0.0
  0
LINE
  5
312
100
AcDbEntity
  8
レイヤー_2
 62
     7
100
AcDbLine
 10
71.477808
 20
181.646794
 30
0.0
 11
71.477808
 21
181.618888
 31
0.0
  0
LINE
  5
311
100
AcDbEntity
  8
レイヤー_2
 62
     7
100
AcDbLine
 10
71.587706
 20
181.598562
 30
0.0
 11
71.587706
 21
181.664708
 31
0.0
  0
SPLINE
  5
310
100
AcDbEntity
  8
レイヤー_2
 62
     7
100
AcDbSpline
210
0.0
220
0.0
230
1.0
 70
     8
 71
     3
 72
     8
 73
     4
 74
     0
 42
0.00000001
 43
0.00000001
 40
0.0
 40
0.0
 40
0.0
 40
0.0
 40
1.0
 40
1.0
 40
1.0
 40
1.0
 10
71.58770616319444
 20
181.59856228298611
 30
0.0
 10
71.625946723090266
 20
181.5927056206597
 30
0.0
 10
71.664531792534717
 20
181.58719346788192
 30
0.0
 10
71.69622667100694
 20
181.58288709852428
 30
0.0
  0
LINE
  5
30F
100
AcDbEntity
  8
レイヤー_2
 62
     7
100
AcDbLine
 10
71.696227
 20
181.583748
 30
0.0
 11
71.696227
 21
181.582887
 31
0.0
  0
LINE
  5
30E
100
AcDbEntity
  8
レイヤー_2
 62
     7
100
AcDbLine
 10
71.938761
 20
181.557049
 30
0.0
 11
71.938761
 21
181.59994
 31
0.0
  0
LINE
  5
30D
100
AcDbEntity
  8
レイヤー_2
 62
     7
100
AcDbLine
 10
71.938761
 20
181.557049
 30
0.0
 11
72.018343
 21
181.550848
 31
0.0
  0
LINE
  5
30C
100
AcDbEntity
  8
レイヤー_2
 62
     7
100
AcDbLine
 10
72.185086
 20
181.542235
 30
0.0
 11
72.267768
 21
181.540168
 31
0.0
  0
LINE
  5
30B
100
AcDbEntity
  8
レイヤー_2
 62
     7
100
AcDbLine
 10
72.267768
 20
181.561355
 30
0.0
 11
72.267768
 21
181.540168
 31
0.0
  0
LINE
  5
30A
100
AcDbEntity
  8
レイヤー_2
 62
     7
100
AcDbLine
 10
72.529595
 20
181.540168
 30
0.0
 11
72.529595
 21
181.54189
 31
0.0
  0
SPLINE
  5
309
100
AcDbEntity
  8
レイヤー_2
 62
     7
100
AcDbSpline
210
0.0
220
0.0
230
1.0
 70
     8
 71
     3
 72
     8
 73
     4
 74
     0
 42
0.00000001
 43
0.00000001
 40
0.0
 40
0.0
 40
0.0
 40
0.0
 40
1.0
 40
1.0
 40
1.0
 40
1.0
 10
72.529595269097214
 20
181.54016791449652
 30
0.0
 10
72.573347981770823
 20
181.54137369791664
 30
0.0
 10
72.616411675347209
 20
181.54223497178819
 30
0.0
 10
72.653274197048603
 20
181.54447428385416
 30
0.0
  0
LINE
  5
308
100
AcDbEntity
  8
レイヤー_2
 62
     7
100
AcDbLine
 10
72.653274
 20
181.610448
 30
0.0
 11
72.653274
 21
181.544474
 31
0.0
  0
LINE
  5
307
100
AcDbEntity
  8
レイヤー_2
 62
     7
100
AcDbLine
 10
72.783843
 20
181.551537
 30
0.0
 11
72.783843
 21
181.60373
 31
0.0
  0
SPLINE
  5
306
100
AcDbEntity
  8
レイヤー_2
 62
     7
100
AcDbSpline
210
0.0
220
0.0
230
1.0
 70
     8
 71
     3
 72
     8
 73
     4
 74
     0
 42
0.00000001
 43
0.00000001
 40
0.0
 40
0.0
 40
0.0
 40
0.0
 40
1.0
 40
1.0
 40
1.0
 40
1.0
 10
72.78384331597222
 20
181.55153672960068
 30
0.0
 10
72.856879340277771
 20
181.55618760850692
 30
0.0
 10
72.9292263454861
 20
181.56307779947915
 30
0.0
 10
72.9912380642361
 20
181.56979573567708
 30
0.0
  0
LINE
  5
305
100
AcDbEntity
  8
レイヤー_2
 62
     7
100
AcDbLine
 10
72.991238
 20
181.635425
 30
0.0
 11
72.991238
 21
181.569796
 31
0.0
  0
LINE
  5
304
100
AcDbEntity
  8
レイヤー_2
 62
     7
100
AcDbLine
 10
73.111816
 20
181.58461
 30
0.0
 11
73.111816
 21
181.620955
 31
0.0
  0
SPLINE
  5
303
100
AcDbEntity
  8
レイヤー_2
 62
     7
100
AcDbSpline
210
0.0
220
0.0
230
1.0
 70
     8
 71
     3
 72
     8
 73
     4
 74
     0
 42
0.00000001
 43
0.00000001
 40
0.0
 40
0.0
 40
0.0
 40
0.0
 40
1.0
 40
1.0
 40
1.0
 40
1.0
 10
73.11181640625
 20
181.58460964626735
 30
0.0
 10
73.149712456597214
 20
181.59012179904514
 30
0.0
 10
73.187608506944443
 20
181.59563395182289
 30
0.0
 10
73.219992404513889
 20
181.60114610460067
 30
0.0
  0
LINE
  5
302
100
AcDbEntity
  8
レイヤー_2
 62
     7
100
AcDbLine
 10
73.219992
 20
181.6511
 30
0.0
 11
73.219992
 21
181.601146
 31
0.0
  0
SPLINE
  5
301
100
AcDbEntity
  8
レイヤー_2
 62
     7
100
AcDbSpline
210
0.0
220
0.0
230
1.0
 70
     8
 71
     3
 72
     8
 73
     4
 74
     0
 42
0.00000001
 43
0.00000001
 40
0.0
 40
0.0
 40
0.0
 40
0.0
 40
1.0
 40
1.0
 40
1.0
 40
1.0
 10
73.427042643229157
 20
181.64214274088539
 30
0.0
 10
73.448402235243051
 20
181.64679361979165
 30
0.0
 10
73.46941731770832
 20
181.65282253689236
 30
0.0
 10
73.486987304687489
 20
181.65661214192707
 30
0.0
  0
LINE
  5
300
100
AcDbEntity
  8
レイヤー_2
 62
     7
100
AcDbLine
 10
73.486987
 20
181.666258
 30
0.0
 11
73.486987
 21
181.656612
 31
0.0
  0
SPLINE
  5
2FF
100
AcDbEntity
  8
レイヤー_2
 62
     7
100
AcDbSpline
210
0.0
220
0.0
230
1.0
 70
     8
 71
     3
 72
     8
 73
     4
 74
     0
 42
0.00000001
 43
0.00000001
 40
0.0
 40
0.0
 40
0.0
 40
0.0
 40
1.0
 40
1.0
 40
1.0
 40
1.0
 10
73.599297417534714
 20
181.69002956814234
 30
0.0
 10
73.616867404513883
 20
181.69588623046874
 30
0.0
 10
73.63409288194444
 20
181.70191514756942
 30
0.0
 10
73.648562282986106
 20
181.7077718098958
 30
0.0
  0
LINE
  5
2FE
100
AcDbEntity
  8
レイヤー_2
 62
     7
100
AcDbLine
 10
73.648562
 20
181.773056
 30
0.0
 11
73.648562
 21
181.707772
 31
0.0
  0
SPLINE
  5
2FD
100
AcDbEntity
  8
レイヤー_2
 62
     7
100
AcDbSpline
210
0.0
220
0.0
230
1.0
 70
     8
 71
     3
 72
     8
 73
     4
 74
     0
 42
0.00000001
 43
0.00000001
 40
0.0
 40
0.0
 40
0.0
 40
0.0
 40
1.0
 40
1.0
 40
1.0
 40
1.0
 10
73.778786892361111
 20
181.76668294270831
 30
0.0
 10
73.797045898437489
 20
181.77546793619791
 30
0.0
 10
73.813582356770823
 20
181.78649224175345
 30
0.0
 10
73.827362738715266
 20
181.79631076388887
 30
0.0
  0
LINE
  5
2FC
100
AcDbEntity
  8
レイヤー_2
 62
     7
100
AcDbLine
 10
73.827363
 20
181.850054
 30
0.0
 11
73.827363
 21
181.796311
 31
0.0
  0
SPLINE
  5
2FB
100
AcDbEntity
  8
レイヤー_2
 62
     7
100
AcDbSpline
210
0.0
220
0.0
230
1.0
 70
     8
 71
     3
 72
     8
 73
     4
 74
     0
 42
0.00000001
 43
0.00000001
 40
0.0
 40
0.0
 40
0.0
 40
0.0
 40
1.0
 40
1.0
 40
1.0
 40
1.0
 10
73.868703884548609
 20
181.82886691623261
 30
0.0
 10
73.880072699652771
 20
181.84023573133678
 30
0.0
 10
73.890752495659711
 20
181.85263807508679
 30
0.0
 10
73.898676215277774
 20
181.86400689019095
 30
0.0
  0
LINE
  5
2FA
100
AcDbEntity
  8
レイヤー_2
 62
     7
100
AcDbLine
 10
70.908333
 20
181.848332
 30
0.0
 11
70.908333
 21
181.868313
 31
0.0
  0
SPLINE
  5
2F9
100
AcDbEntity
  8
レイヤー_2
 62
     7
100
AcDbSpline
210
0.0
220
0.0
230
1.0
 70
     8
 71
     3
 72
     8
 73
     4
 74
     0
 42
0.00000001
 43
0.00000001
 40
0.0
 40
0.0
 40
0.0
 40
0.0
 40
1.0
 40
1.0
 40
1.0
 40
1.0
 10
70.908333333333331
 20
181.84833170572915
 30
0.0
 10
70.915223524305546
 20
181.84023573133678
 30
0.0
 10
70.922458224826386
 20
181.83317328559025
 30
0.0
 10
70.929003906249989
 20
181.82766113281249
 30
0.0
  0
LINE
  5
2F8
100
AcDbEntity
  8
レイヤー_2
 62
     7
100
AcDbLine
 10
70.983781
 20
181.785286
 30
0.0
 11
70.983781
 21
181.803545
 31
0.0
  0
SPLINE
  5
2F7
100
AcDbEntity
  8
レイヤー_2
 62
     7
100
AcDbSpline
210
0.0
220
0.0
230
1.0
 70
     8
 71
     3
 72
     8
 73
     4
 74
     0
 42
0.00000001
 43
0.00000001
 40
0.0
 40
0.0
 40
0.0
 40
0.0
 40
1.0
 40
1.0
 40
1.0
 40
1.0
 10
70.983780924479163
 20
181.7852864583333
 30
0.0
 10
70.995149739583326
 20
181.77805175781248
 30
0.0
 10
71.0068630642361
 20
181.77167833116317
 30
0.0
 10
71.016853841145831
 20
181.76616617838539
 30
0.0
  0
LINE
  5
2F6
100
AcDbEntity
  8
レイヤー_2
 62
     7
100
AcDbLine
 10
71.147423
 20
181.706911
 30
0.0
 11
71.147423
 21
181.773056
 31
0.0
  0
SPLINE
  5
2F5
100
AcDbEntity
  8
レイヤー_2
 62
     7
100
AcDbSpline
210
0.0
220
0.0
230
1.0
 70
     8
 71
     3
 72
     8
 73
     4
 74
     0
 42
0.00000001
 43
0.00000001
 40
0.0
 40
0.0
 40
0.0
 40
0.0
 40
1.0
 40
1.0
 40
1.0
 40
1.0
 10
71.147422960069434
 20
181.70691053602428
 30
0.0
 10
71.174294704861111
 20
181.69760877821179
 30
0.0
 10
71.200477430555551
 20
181.68830702039929
 30
0.0
 10
71.223215060763877
 20
181.68158908420136
 30
0.0
  0
LINE
  5
2F4
100
AcDbEntity
  8
レイヤー_2
 62
     7
100
AcDbLine
 10
71.223215
 20
181.699331
 30
0.0
 11
71.223215
 21
181.681589
 31
0.0
  0
LINE
  5
2F3
100
AcDbEntity
  8
レイヤー_2
 62
     7
100
AcDbLine
 10
73.696449
 20
181.919128
 30
0.0
 11
73.668199
 21
181.911032
 31
0.0
  0
LINE
  5
2F2
100
AcDbEntity
  8
レイヤー_2
 62
     7
100
AcDbLine
 10
73.668199
 20
181.911032
 30
0.0
 11
73.714708
 21
181.875892
 31
0.0
  0
LINE
  5
2F1
100
AcDbEntity
  8
レイヤー_2
 62
     7
100
AcDbLine
 10
73.714708
 20
181.875892
 30
0.0
 11
73.856302
 21
181.868313
 31
0.0
  0
LINE
  5
2F0
100
AcDbEntity
  8
レイヤー_2
 62
     7
100
AcDbLine
 10
73.856302
 20
181.868313
 30
0.0
 11
73.870771
 21
181.872964
 31
0.0
  0
LINE
  5
2EF
100
AcDbEntity
  8
レイヤー_2
 62
     7
100
AcDbLine
 10
73.868704
 20
181.828867
 30
0.0
 11
73.842177
 21
181.849193
 31
0.0
  0
LINE
  5
2EE
100
AcDbEntity
  8
レイヤー_2
 62
     7
100
AcDbLine
 10
73.842177
 20
181.849193
 30
0.0
 11
73.699894
 21
181.856428
 31
0.0
  0
LINE
  5
2ED
100
AcDbEntity
  8
レイヤー_2
 62
     7
100
AcDbLine
 10
73.699894
 20
181.856428
 30
0.0
 11
73.60481
 21
181.828006
 31
0.0
  0
LINE
  5
2EC
100
AcDbEntity
  8
レイヤー_2
 62
     7
100
AcDbLine
 10
73.60481
 20
181.828006
 30
0.0
 11
73.651663
 21
181.793382
 31
0.0
  0
LINE
  5
2EB
100
AcDbEntity
  8
レイヤー_2
 62
     7
100
AcDbLine
 10
73.651663
 20
181.793382
 30
0.0
 11
73.792912
 21
181.785631
 31
0.0
  0
LINE
  5
2EA
100
AcDbEntity
  8
レイヤー_2
 62
     7
100
AcDbLine
 10
73.792912
 20
181.785631
 30
0.0
 11
73.827363
 21
181.796311
 31
0.0
  0
LINE
  5
2E9
100
AcDbEntity
  8
レイヤー_2
 62
     7
100
AcDbLine
 10
73.778442
 20
181.767027
 30
0.0
 11
73.778787
 21
181.766683
 31
0.0
  0
LINE
  5
2E8
100
AcDbEntity
  8
レイヤー_2
 62
     7
100
AcDbLine
 10
73.778442
 20
181.767027
 30
0.0
 11
73.636849
 21
181.773918
 31
0.0
  0
LINE
  5
2E7
100
AcDbEntity
  8
レイヤー_2
 62
     7
100
AcDbLine
 10
73.636849
 20
181.773918
 30
0.0
 11
73.54142
 21
181.74584
 31
0.0
  0
LINE
  5
2E6
100
AcDbEntity
  8
レイヤー_2
 62
     7
100
AcDbLine
 10
73.54142
 20
181.74584
 30
0.0
 11
73.587929
 21
181.710356
 31
0.0
  0
LINE
  5
2E5
100
AcDbEntity
  8
レイヤー_2
 62
     7
100
AcDbLine
 10
73.587929
 20
181.710356
 30
0.0
 11
73.648562
 21
181.707772
 31
0.0
  0
LINE
  5
2E4
100
AcDbEntity
  8
レイヤー_2
 62
     7
100
AcDbLine
 10
73.573115
 20
181.691752
 30
0.0
 11
73.599297
 21
181.69003
 31
0.0
  0
LINE
  5
2E3
100
AcDbEntity
  8
レイヤー_2
 62
     7
100
AcDbLine
 10
73.573115
 20
181.691752
 30
0.0
 11
73.478375
 21
181.663847
 31
0.0
  0
LINE
  5
2E2
100
AcDbEntity
  8
レイヤー_2
 62
     7
100
AcDbLine
 10
73.478375
 20
181.663847
 30
0.0
 11
73.486987
 21
181.656612
 31
0.0
  0
LINE
  5
2E1
100
AcDbEntity
  8
レイヤー_2
 62
     7
100
AcDbLine
 10
73.427043
 20
181.642143
 30
0.0
 11
73.407406
 21
181.656957
 31
0.0
  0
LINE
  5
2E0
100
AcDbEntity
  8
レイヤー_2
 62
     7
100
AcDbLine
 10
73.407406
 20
181.656957
 30
0.0
 11
73.266157
 21
181.664708
 31
0.0
  0
LINE
  5
2DF
100
AcDbEntity
  8
レイヤー_2
 62
     7
100
AcDbLine
 10
73.266157
 20
181.664708
 30
0.0
 11
73.170728
 21
181.636631
 31
0.0
  0
LINE
  5
2DE
100
AcDbEntity
  8
レイヤー_2
 62
     7
100
AcDbLine
 10
73.170728
 20
181.636631
 30
0.0
 11
73.217581
 21
181.601146
 31
0.0
  0
LINE
  5
2DD
100
AcDbEntity
  8
レイヤー_2
 62
     7
100
AcDbLine
 10
73.217581
 20
181.601146
 30
0.0
 11
73.219992
 21
181.601146
 31
0.0
  0
LINE
  5
2DC
100
AcDbEntity
  8
レイヤー_2
 62
     7
100
AcDbLine
 10
73.111816
 20
181.58461
 30
0.0
 11
73.146612
 21
181.595289
 31
0.0
  0
LINE
  5
2DB
100
AcDbEntity
  8
レイヤー_2
 62
     7
100
AcDbLine
 10
73.146612
 20
181.595289
 30
0.0
 11
73.100103
 21
181.629913
 31
0.0
  0
LINE
  5
2DA
100
AcDbEntity
  8
レイヤー_2
 62
     7
100
AcDbLine
 10
73.100103
 20
181.629913
 30
0.0
 11
72.958165
 21
181.637492
 31
0.0
  0
LINE
  5
2D9
100
AcDbEntity
  8
レイヤー_2
 62
     7
100
AcDbLine
 10
72.958165
 20
181.637492
 30
0.0
 11
72.863425
 21
181.609587
 31
0.0
  0
LINE
  5
2D8
100
AcDbEntity
  8
レイヤー_2
 62
     7
100
AcDbLine
 10
72.863425
 20
181.609587
 30
0.0
 11
72.909589
 21
181.574102
 31
0.0
  0
LINE
  5
2D7
100
AcDbEntity
  8
レイヤー_2
 62
     7
100
AcDbLine
 10
72.909589
 20
181.574102
 30
0.0
 11
72.991238
 21
181.569796
 31
0.0
  0
LINE
  5
2D6
100
AcDbEntity
  8
レイヤー_2
 62
     7
100
AcDbLine
 10
72.83862
 20
181.568073
 30
0.0
 11
72.783843
 21
181.551537
 31
0.0
  0
LINE
  5
2D5
100
AcDbEntity
  8
レイヤー_2
 62
     7
100
AcDbLine
 10
72.792112
 20
181.602869
 30
0.0
 11
72.83862
 21
181.568073
 31
0.0
  0
LINE
  5
2D4
100
AcDbEntity
  8
レイヤー_2
 62
     7
100
AcDbLine
 10
72.650863
 20
181.610448
 30
0.0
 11
72.792112
 21
181.602869
 31
0.0
  0
LINE
  5
2D3
100
AcDbEntity
  8
レイヤー_2
 62
     7
100
AcDbLine
 10
72.555089
 20
181.582543
 30
0.0
 11
72.650863
 21
181.610448
 31
0.0
  0
LINE
  5
2D2
100
AcDbEntity
  8
レイヤー_2
 62
     7
100
AcDbLine
 10
72.601942
 20
181.546886
 30
0.0
 11
72.555089
 21
181.582543
 31
0.0
  0
LINE
  5
2D1
100
AcDbEntity
  8
レイヤー_2
 62
     7
100
AcDbLine
 10
72.653274
 20
181.544474
 30
0.0
 11
72.601942
 21
181.546886
 31
0.0
  0
LINE
  5
2D0
100
AcDbEntity
  8
レイヤー_2
 62
     7
100
AcDbLine
 10
72.531318
 20
181.540512
 30
0.0
 11
72.529595
 21
181.540168
 31
0.0
  0
LINE
  5
2CF
100
AcDbEntity
  8
レイヤー_2
 62
     7
100
AcDbLine
 10
72.484809
 20
181.575652
 30
0.0
 11
72.531318
 21
181.540512
 31
0.0
  0
LINE
  5
2CE
100
AcDbEntity
  8
レイヤー_2
 62
     7
100
AcDbLine
 10
72.342527
 20
181.582887
 30
0.0
 11
72.484809
 21
181.575652
 31
0.0
  0
LINE
  5
2CD
100
AcDbEntity
  8
レイヤー_2
 62
     7
100
AcDbLine
 10
72.247786
 20
181.555326
 30
0.0
 11
72.342527
 21
181.582887
 31
0.0
  0
LINE
  5
2CC
100
AcDbEntity
  8
レイヤー_2
 62
     7
100
AcDbLine
 10
72.267768
 20
181.540168
 30
0.0
 11
72.247786
 21
181.555326
 31
0.0
  0
LINE
  5
2CB
100
AcDbEntity
  8
レイヤー_2
 62
     7
100
AcDbLine
 10
72.176473
 20
181.54947
 30
0.0
 11
72.185086
 21
181.542235
 31
0.0
  0
LINE
  5
2CA
100
AcDbEntity
  8
レイヤー_2
 62
     7
100
AcDbLine
 10
72.035224
 20
181.555843
 30
0.0
 11
72.176473
 21
181.54947
 31
0.0
  0
LINE
  5
2C9
100
AcDbEntity
  8
レイヤー_2
 62
     7
100
AcDbLine
 10
72.018343
 20
181.550848
 30
0.0
 11
72.035224
 21
181.555843
 31
0.0
  0
LINE
  5
2C8
100
AcDbEntity
  8
レイヤー_2
 62
     7
100
AcDbLine
 10
71.979069
 20
181.56859
 30
0.0
 11
71.938761
 21
181.557049
 31
0.0
  0
LINE
  5
2C7
100
AcDbEntity
  8
レイヤー_2
 62
     7
100
AcDbLine
 10
71.932905
 20
181.604074
 30
0.0
 11
71.979069
 21
181.56859
 31
0.0
  0
LINE
  5
2C6
100
AcDbEntity
  8
レイヤー_2
 62
     7
100
AcDbLine
 10
71.790622
 20
181.611309
 30
0.0
 11
71.932905
 21
181.604074
 31
0.0
  0
LINE
  5
2C5
100
AcDbEntity
  8
レイヤー_2
 62
     7
100
AcDbLine
 10
71.696227
 20
181.583748
 30
0.0
 11
71.790622
 21
181.611309
 31
0.0
  0
LINE
  5
2C4
100
AcDbEntity
  8
レイヤー_2
 62
     7
100
AcDbLine
 10
71.696227
 20
181.582887
 30
0.0
 11
71.696227
 21
181.583748
 31
0.0
  0
LINE
  5
2C3
100
AcDbEntity
  8
レイヤー_2
 62
     7
100
AcDbLine
 10
71.639038
 20
181.595978
 30
0.0
 11
71.587706
 21
181.598562
 31
0.0
  0
LINE
  5
2C2
100
AcDbEntity
  8
レイヤー_2
 62
     7
100
AcDbLine
 10
71.733778
 20
181.624917
 30
0.0
 11
71.639038
 21
181.595978
 31
0.0
  0
LINE
  5
2C1
100
AcDbEntity
  8
レイヤー_2
 62
     7
100
AcDbLine
 10
71.687614
 20
181.65954
 30
0.0
 11
71.733778
 21
181.624917
 31
0.0
  0
LINE
  5
2C0
100
AcDbEntity
  8
レイヤー_2
 62
     7
100
AcDbLine
 10
71.546365
 20
181.66712
 30
0.0
 11
71.687614
 21
181.65954
 31
0.0
  0
LINE
  5
2BF
100
AcDbEntity
  8
レイヤー_2
 62
     7
100
AcDbLine
 10
71.451625
 20
181.639214
 30
0.0
 11
71.546365
 21
181.66712
 31
0.0
  0
LINE
  5
2BE
100
AcDbEntity
  8
レイヤー_2
 62
     7
100
AcDbLine
 10
71.477808
 20
181.618888
 30
0.0
 11
71.451625
 21
181.639214
 31
0.0
  0
LINE
  5
2BD
100
AcDbEntity
  8
レイヤー_2
 62
     7
100
AcDbLine
 10
71.395125
 20
181.651961
 30
0.0
 11
71.313132
 21
181.656095
 31
0.0
  0
LINE
  5
2BC
100
AcDbEntity
  8
レイヤー_2
 62
     7
100
AcDbLine
 10
71.489865
 20
181.679867
 30
0.0
 11
71.395125
 21
181.651961
 31
0.0
  0
LINE
  5
2BB
100
AcDbEntity
  8
レイヤー_2
 62
     7
100
AcDbLine
 10
71.443357
 20
181.715351
 30
0.0
 11
71.489865
 21
181.679867
 31
0.0
  0
LINE
  5
2BA
100
AcDbEntity
  8
レイヤー_2
 62
     7
100
AcDbLine
 10
71.301763
 20
181.722241
 30
0.0
 11
71.443357
 21
181.715351
 31
0.0
  0
LINE
  5
2B9
100
AcDbEntity
  8
レイヤー_2
 62
     7
100
AcDbLine
 10
71.206679
 20
181.694336
 30
0.0
 11
71.301763
 21
181.722241
 31
0.0
  0
LINE
  5
2B8
100
AcDbEntity
  8
レイヤー_2
 62
     7
100
AcDbLine
 10
71.223215
 20
181.681589
 30
0.0
 11
71.206679
 21
181.694336
 31
0.0
  0
LINE
  5
2B7
100
AcDbEntity
  8
レイヤー_2
 62
     7
100
AcDbLine
 10
71.150179
 20
181.706911
 30
0.0
 11
71.147423
 21
181.706911
 31
0.0
  0
LINE
  5
2B6
100
AcDbEntity
  8
レイヤー_2
 62
     7
100
AcDbLine
 10
71.244919
 20
181.735333
 30
0.0
 11
71.150179
 21
181.706911
 31
0.0
  0
LINE
  5
2B5
100
AcDbEntity
  8
レイヤー_2
 62
     7
100
AcDbLine
 10
71.198755
 20
181.770817
 30
0.0
 11
71.244919
 21
181.735333
 31
0.0
  0
LINE
  5
2B4
100
AcDbEntity
  8
レイヤー_2
 62
     7
100
AcDbLine
 10
71.057506
 20
181.778052
 30
0.0
 11
71.198755
 21
181.770817
 31
0.0
  0
LINE
  5
2B3
100
AcDbEntity
  8
レイヤー_2
 62
     7
100
AcDbLine
 10
71.016854
 20
181.766166
 30
0.0
 11
71.057506
 21
181.778052
 31
0.0
  0
LINE
  5
2B2
100
AcDbEntity
  8
レイヤー_2
 62
     7
100
AcDbLine
 10
71.000662
 20
181.790799
 30
0.0
 11
70.983781
 21
181.785286
 31
0.0
  0
LINE
  5
2B1
100
AcDbEntity
  8
レイヤー_2
 62
     7
100
AcDbLine
 10
70.954498
 20
181.825939
 30
0.0
 11
71.000662
 21
181.790799
 31
0.0
  0
LINE
  5
2B0
100
AcDbEntity
  8
レイヤー_2
 62
     7
100
AcDbLine
 10
70.929004
 20
181.827661
 30
0.0
 11
70.954498
 21
181.825939
 31
0.0
  0
LINE
  5
2AF
100
AcDbEntity
  8
レイヤー_2
 62
     7
100
AcDbLine
 10
70.908333
 20
181.848332
 30
0.0
 11
70.969312
 21
181.845059
 31
0.0
  0
LINE
  5
2AE
100
AcDbEntity
  8
レイヤー_2
 62
     7
100
AcDbLine
 10
70.969312
 20
181.845059
 30
0.0
 11
71.063707
 21
181.872964
 31
0.0
  0
LINE
  5
2AD
100
AcDbEntity
  8
レイヤー_2
 62
     7
100
AcDbLine
 10
71.063707
 20
181.872964
 30
0.0
 11
71.026845
 21
181.901214
 31
0.0
  0
LINE
  5
2AC
100
AcDbEntity
  8
レイヤー_2
 62
     7
100
AcDbLine
 10
72.043837
 20
181.941866
 30
0.0
 11
72.184741
 21
181.933942
 31
0.0
  0
LINE
  5
2AB
100
AcDbEntity
  8
レイヤー_2
 62
     7
100
AcDbLine
 10
71.948063
 20
181.9131
 30
0.0
 11
72.043837
 21
181.941866
 31
0.0
  0
LINE
  5
2AA
100
AcDbEntity
  8
レイヤー_2
 62
     7
100
AcDbLine
 10
71.994572
 20
181.878476
 30
0.0
 11
71.948063
 21
181.9131
 31
0.0
  0
LINE
  5
2A9
100
AcDbEntity
  8
レイヤー_2
 62
     7
100
AcDbLine
 10
72.13651
 20
181.87038
 30
0.0
 11
71.994572
 21
181.878476
 31
0.0
  0
LINE
  5
2A8
100
AcDbEntity
  8
レイヤー_2
 62
     7
100
AcDbLine
 10
72.23125
 20
181.898802
 30
0.0
 11
72.13651
 21
181.87038
 31
0.0
  0
LINE
  5
2A7
100
AcDbEntity
  8
レイヤー_2
 62
     7
100
AcDbLine
 10
72.184741
 20
181.933942
 30
0.0
 11
72.23125
 21
181.898802
 31
0.0
  0
LINE
  5
2A6
100
AcDbEntity
  8
レイヤー_2
 62
     7
100
AcDbLine
 10
71.735845
 20
181.914822
 30
0.0
 11
71.877439
 21
181.907243
 31
0.0
  0
LINE
  5
2A5
100
AcDbEntity
  8
レイヤー_2
 62
     7
100
AcDbLine
 10
71.640761
 20
181.886056
 30
0.0
 11
71.735845
 21
181.914822
 31
0.0
  0
LINE
  5
2A4
100
AcDbEntity
  8
レイヤー_2
 62
     7
100
AcDbLine
 10
71.687614
 20
181.85126
 30
0.0
 11
71.640761
 21
181.886056
 31
0.0
  0
LINE
  5
2A3
100
AcDbEntity
  8
レイヤー_2
 62
     7
100
AcDbLine
 10
71.828518
 20
181.844198
 30
0.0
 11
71.687614
 21
181.85126
 31
0.0
  0
LINE
  5
2A2
100
AcDbEntity
  8
レイヤー_2
 62
     7
100
AcDbLine
 10
71.924292
 20
181.871586
 30
0.0
 11
71.828518
 21
181.844198
 31
0.0
  0
LINE
  5
2A1
100
AcDbEntity
  8
レイヤー_2
 62
     7
100
AcDbLine
 10
71.877439
 20
181.907243
 30
0.0
 11
71.924292
 21
181.871586
 31
0.0
  0
LINE
  5
2A0
100
AcDbEntity
  8
レイヤー_2
 62
     7
100
AcDbLine
 10
71.427854
 20
181.887261
 30
0.0
 11
71.569447
 21
181.880199
 31
0.0
  0
LINE
  5
29F
100
AcDbEntity
  8
レイヤー_2
 62
     7
100
AcDbLine
 10
71.332769
 20
181.859873
 30
0.0
 11
71.427854
 21
181.887261
 31
0.0
  0
LINE
  5
29E
100
AcDbEntity
  8
レイヤー_2
 62
     7
100
AcDbLine
 10
71.379622
 20
181.823872
 30
0.0
 11
71.332769
 21
181.859873
 31
0.0
  0
LINE
  5
29D
100
AcDbEntity
  8
レイヤー_2
 62
     7
100
AcDbLine
 10
71.521216
 20
181.816637
 30
0.0
 11
71.379622
 21
181.823872
 31
0.0
  0
LINE
  5
29C
100
AcDbEntity
  8
レイヤー_2
 62
     7
100
AcDbLine
 10
71.6163
 20
181.844542
 30
0.0
 11
71.521216
 21
181.816637
 31
0.0
  0
LINE
  5
29B
100
AcDbEntity
  8
レイヤー_2
 62
     7
100
AcDbLine
 10
71.569447
 20
181.880199
 30
0.0
 11
71.6163
 21
181.844542
 31
0.0
  0
LINE
  5
29A
100
AcDbEntity
  8
レイヤー_2
 62
     7
100
AcDbLine
 10
71.120551
 20
181.860217
 30
0.0
 11
71.262145
 21
181.852983
 31
0.0
  0
LINE
  5
299
100
AcDbEntity
  8
レイヤー_2
 62
     7
100
AcDbLine
 10
71.025467
 20
181.832657
 30
0.0
 11
71.120551
 21
181.860217
 31
0.0
  0
LINE
  5
298
100
AcDbEntity
  8
レイヤー_2
 62
     7
100
AcDbLine
 10
71.071631
 20
181.796655
 30
0.0
 11
71.025467
 21
181.832657
 31
0.0
  0
LINE
  5
297
100
AcDbEntity
  8
レイヤー_2
 62
     7
100
AcDbLine
 10
71.213224
 20
181.789593
 30
0.0
 11
71.071631
 21
181.796655
 31
0.0
  0
LINE
  5
296
100
AcDbEntity
  8
レイヤー_2
 62
     7
100
AcDbLine
 10
71.308309
 20
181.817843
 30
0.0
 11
71.213224
 21
181.789593
 31
0.0
  0
LINE
  5
295
100
AcDbEntity
  8
レイヤー_2
 62
     7
100
AcDbLine
 10
71.262145
 20
181.852983
 30
0.0
 11
71.308309
 21
181.817843
 31
0.0
  0
LINE
  5
294
100
AcDbEntity
  8
レイヤー_2
 62
     7
100
AcDbLine
 10
72.532351
 20
181.830589
 30
0.0
 11
72.673945
 21
181.823355
 31
0.0
  0
LINE
  5
293
100
AcDbEntity
  8
レイヤー_2
 62
     7
100
AcDbLine
 10
72.436922
 20
181.802684
 30
0.0
 11
72.532351
 21
181.830589
 31
0.0
  0
LINE
  5
292
100
AcDbEntity
  8
レイヤー_2
 62
     7
100
AcDbLine
 10
72.483431
 20
181.767027
 30
0.0
 11
72.436922
 21
181.802684
 31
0.0
  0
LINE
  5
291
100
AcDbEntity
  8
レイヤー_2
 62
     7
100
AcDbLine
 10
72.625369
 20
181.76031
 30
0.0
 11
72.483431
 21
181.767027
 31
0.0
  0
LINE
  5
290
100
AcDbEntity
  8
レイヤー_2
 62
     7
100
AcDbLine
 10
72.720109
 20
181.788215
 30
0.0
 11
72.625369
 21
181.76031
 31
0.0
  0
LINE
  5
28F
100
AcDbEntity
  8
レイヤー_2
 62
     7
100
AcDbLine
 10
72.673945
 20
181.823355
 30
0.0
 11
72.720109
 21
181.788215
 31
0.0
  0
LINE
  5
28E
100
AcDbEntity
  8
レイヤー_2
 62
     7
100
AcDbLine
 10
72.225393
 20
181.803545
 30
0.0
 11
72.366298
 21
181.796311
 31
0.0
  0
LINE
  5
28D
100
AcDbEntity
  8
レイヤー_2
 62
     7
100
AcDbLine
 10
72.129964
 20
181.775468
 30
0.0
 11
72.225393
 21
181.803545
 31
0.0
  0
LINE
  5
28C
100
AcDbEntity
  8
レイヤー_2
 62
     7
100
AcDbLine
 10
72.176128
 20
181.739983
 30
0.0
 11
72.129964
 21
181.775468
 31
0.0
  0
LINE
  5
28B
100
AcDbEntity
  8
レイヤー_2
 62
     7
100
AcDbLine
 10
72.317722
 20
181.732749
 30
0.0
 11
72.176128
 21
181.739983
 31
0.0
  0
LINE
  5
28A
100
AcDbEntity
  8
レイヤー_2
 62
     7
100
AcDbLine
 10
72.413151
 20
181.761171
 30
0.0
 11
72.317722
 21
181.732749
 31
0.0
  0
LINE
  5
289
100
AcDbEntity
  8
レイヤー_2
 62
     7
100
AcDbLine
 10
72.366298
 20
181.796311
 30
0.0
 11
72.413151
 21
181.761171
 31
0.0
  0
LINE
  5
288
100
AcDbEntity
  8
レイヤー_2
 62
     7
100
AcDbLine
 10
71.60941
 20
181.749285
 30
0.0
 11
71.750659
 21
181.742567
 31
0.0
  0
LINE
  5
287
100
AcDbEntity
  8
レイヤー_2
 62
     7
100
AcDbLine
 10
71.51467
 20
181.72138
 30
0.0
 11
71.60941
 21
181.749285
 31
0.0
  0
LINE
  5
286
100
AcDbEntity
  8
レイヤー_2
 62
     7
100
AcDbLine
 10
71.561179
 20
181.685723
 30
0.0
 11
71.51467
 21
181.72138
 31
0.0
  0
LINE
  5
285
100
AcDbEntity
  8
レイヤー_2
 62
     7
100
AcDbLine
 10
71.702083
 20
181.679005
 30
0.0
 11
71.561179
 21
181.685723
 31
0.0
  0
LINE
  5
284
100
AcDbEntity
  8
レイヤー_2
 62
     7
100
AcDbLine
 10
71.797168
 20
181.706911
 30
0.0
 11
71.702083
 21
181.679005
 31
0.0
  0
LINE
  5
283
100
AcDbEntity
  8
レイヤー_2
 62
     7
100
AcDbLine
 10
71.750659
 20
181.742567
 30
0.0
 11
71.797168
 21
181.706911
 31
0.0
  0
LINE
  5
282
100
AcDbEntity
  8
レイヤー_2
 62
     7
100
AcDbLine
 10
72.713908
 20
181.692958
 30
0.0
 11
72.855157
 21
181.685723
 31
0.0
  0
LINE
  5
281
100
AcDbEntity
  8
レイヤー_2
 62
     7
100
AcDbLine
 10
72.618134
 20
181.664708
 30
0.0
 11
72.713908
 21
181.692958
 31
0.0
  0
LINE
  5
280
100
AcDbEntity
  8
レイヤー_2
 62
     7
100
AcDbLine
 10
72.665332
 20
181.629568
 30
0.0
 11
72.618134
 21
181.664708
 31
0.0
  0
LINE
  5
27F
100
AcDbEntity
  8
レイヤー_2
 62
     7
100
AcDbLine
 10
72.806581
 20
181.622333
 30
0.0
 11
72.665332
 21
181.629568
 31
0.0
  0
LINE
  5
27E
100
AcDbEntity
  8
レイヤー_2
 62
     7
100
AcDbLine
 10
72.901666
 20
181.650239
 30
0.0
 11
72.806581
 21
181.622333
 31
0.0
  0
LINE
  5
27D
100
AcDbEntity
  8
レイヤー_2
 62
     7
100
AcDbLine
 10
72.855157
 20
181.685723
 30
0.0
 11
72.901666
 21
181.650239
 31
0.0
  0
LINE
  5
27C
100
AcDbEntity
  8
レイヤー_2
 62
     7
100
AcDbLine
 10
72.405916
 20
181.665914
 30
0.0
 11
72.547854
 21
181.658679
 31
0.0
  0
LINE
  5
27B
100
AcDbEntity
  8
レイヤー_2
 62
     7
100
AcDbLine
 10
72.311176
 20
181.637492
 30
0.0
 11
72.405916
 21
181.665914
 31
0.0
  0
LINE
  5
27A
100
AcDbEntity
  8
レイヤー_2
 62
     7
100
AcDbLine
 10
72.35734
 20
181.602352
 30
0.0
 11
72.311176
 21
181.637492
 31
0.0
  0
LINE
  5
279
100
AcDbEntity
  8
レイヤー_2
 62
     7
100
AcDbLine
 10
72.499278
 20
181.595289
 30
0.0
 11
72.35734
 21
181.602352
 31
0.0
  0
LINE
  5
278
100
AcDbEntity
  8
レイヤー_2
 62
     7
100
AcDbLine
 10
72.594363
 20
181.622678
 30
0.0
 11
72.499278
 21
181.595289
 31
0.0
  0
LINE
  5
277
100
AcDbEntity
  8
レイヤー_2
 62
     7
100
AcDbLine
 10
72.547854
 20
181.658679
 30
0.0
 11
72.594363
 21
181.622678
 31
0.0
  0
LINE
  5
276
100
AcDbEntity
  8
レイヤー_2
 62
     7
100
AcDbLine
 10
72.098269
 20
181.638353
 30
0.0
 11
72.239863
 21
181.631635
 31
0.0
  0
LINE
  5
275
100
AcDbEntity
  8
レイヤー_2
 62
     7
100
AcDbLine
 10
72.003185
 20
181.610448
 30
0.0
 11
72.098269
 21
181.638353
 31
0.0
  0
LINE
  5
274
100
AcDbEntity
  8
レイヤー_2
 62
     7
100
AcDbLine
 10
72.050038
 20
181.575308
 30
0.0
 11
72.003185
 21
181.610448
 31
0.0
  0
LINE
  5
273
100
AcDbEntity
  8
レイヤー_2
 62
     7
100
AcDbLine
 10
72.190942
 20
181.568073
 30
0.0
 11
72.050038
 21
181.575308
 31
0.0
  0
LINE
  5
272
100
AcDbEntity
  8
レイヤー_2
 62
     7
100
AcDbLine
 10
72.286372
 20
181.595634
 30
0.0
 11
72.190942
 21
181.568073
 31
0.0
  0
LINE
  5
271
100
AcDbEntity
  8
レイヤー_2
 62
     7
100
AcDbLine
 10
72.239863
 20
181.631635
 30
0.0
 11
72.286372
 21
181.595634
 31
0.0
  0
LINE
  5
270
100
AcDbEntity
  8
レイヤー_2
 62
     7
100
AcDbLine
 10
72.193009
 20
181.857633
 30
0.0
 11
72.288094
 21
181.886056
 31
0.0
  0
LINE
  5
26F
100
AcDbEntity
  8
レイヤー_2
 62
     7
100
AcDbLine
 10
72.239863
 20
181.82301
 30
0.0
 11
72.193009
 21
181.857633
 31
0.0
  0
LINE
  5
26E
100
AcDbEntity
  8
レイヤー_2
 62
     7
100
AcDbLine
 10
72.380767
 20
181.815431
 30
0.0
 11
72.239863
 21
181.82301
 31
0.0
  0
LINE
  5
26D
100
AcDbEntity
  8
レイヤー_2
 62
     7
100
AcDbLine
 10
72.476196
 20
181.843336
 30
0.0
 11
72.380767
 21
181.815431
 31
0.0
  0
LINE
  5
26C
100
AcDbEntity
  8
レイヤー_2
 62
     7
100
AcDbLine
 10
72.429343
 20
181.878821
 30
0.0
 11
72.476196
 21
181.843336
 31
0.0
  0
LINE
  5
26B
100
AcDbEntity
  8
レイヤー_2
 62
     7
100
AcDbLine
 10
72.288094
 20
181.886056
 30
0.0
 11
72.429343
 21
181.878821
 31
0.0
  0
LINE
  5
26A
100
AcDbEntity
  8
レイヤー_2
 62
     7
100
AcDbLine
 10
71.885018
 20
181.830589
 30
0.0
 11
71.980792
 21
181.859012
 31
0.0
  0
LINE
  5
269
100
AcDbEntity
  8
レイヤー_2
 62
     7
100
AcDbLine
 10
71.931527
 20
181.795794
 30
0.0
 11
71.885018
 21
181.830589
 31
0.0
  0
LINE
  5
268
100
AcDbEntity
  8
レイヤー_2
 62
     7
100
AcDbLine
 10
72.073465
 20
181.788215
 30
0.0
 11
71.931527
 21
181.795794
 31
0.0
  0
LINE
  5
267
100
AcDbEntity
  8
レイヤー_2
 62
     7
100
AcDbLine
 10
72.168205
 20
181.81612
 30
0.0
 11
72.073465
 21
181.788215
 31
0.0
  0
LINE
  5
266
100
AcDbEntity
  8
レイヤー_2
 62
     7
100
AcDbLine
 10
72.12204
 20
181.851777
 30
0.0
 11
72.168205
 21
181.81612
 31
0.0
  0
LINE
  5
265
100
AcDbEntity
  8
レイヤー_2
 62
     7
100
AcDbLine
 10
71.980792
 20
181.859012
 30
0.0
 11
72.12204
 21
181.851777
 31
0.0
  0
LINE
  5
264
100
AcDbEntity
  8
レイヤー_2
 62
     7
100
AcDbLine
 10
71.577715
 20
181.804407
 30
0.0
 11
71.672456
 21
181.831795
 31
0.0
  0
LINE
  5
263
100
AcDbEntity
  8
レイヤー_2
 62
     7
100
AcDbLine
 10
71.624224
 20
181.768405
 30
0.0
 11
71.577715
 21
181.804407
 31
0.0
  0
LINE
  5
262
100
AcDbEntity
  8
レイヤー_2
 62
     7
100
AcDbLine
 10
71.765473
 20
181.761171
 30
0.0
 11
71.624224
 21
181.768405
 31
0.0
  0
LINE
  5
261
100
AcDbEntity
  8
レイヤー_2
 62
     7
100
AcDbLine
 10
71.860902
 20
181.789076
 30
0.0
 11
71.765473
 21
181.761171
 31
0.0
  0
LINE
  5
260
100
AcDbEntity
  8
レイヤー_2
 62
     7
100
AcDbLine
 10
71.813704
 20
181.824733
 30
0.0
 11
71.860902
 21
181.789076
 31
0.0
  0
LINE
  5
25F
100
AcDbEntity
  8
レイヤー_2
 62
     7
100
AcDbLine
 10
71.672456
 20
181.831795
 30
0.0
 11
71.813704
 21
181.824733
 31
0.0
  0
LINE
  5
25E
100
AcDbEntity
  8
レイヤー_2
 62
     7
100
AcDbLine
 10
71.269724
 20
181.776846
 30
0.0
 11
71.364808
 21
181.804751
 31
0.0
  0
LINE
  5
25D
100
AcDbEntity
  8
レイヤー_2
 62
     7
100
AcDbLine
 10
71.316577
 20
181.741706
 30
0.0
 11
71.269724
 21
181.776846
 31
0.0
  0
LINE
  5
25C
100
AcDbEntity
  8
レイヤー_2
 62
     7
100
AcDbLine
 10
71.458171
 20
181.734127
 30
0.0
 11
71.316577
 21
181.741706
 31
0.0
  0
LINE
  5
25B
100
AcDbEntity
  8
レイヤー_2
 62
     7
100
AcDbLine
 10
71.552911
 20
181.762377
 30
0.0
 11
71.458171
 21
181.734127
 31
0.0
  0
LINE
  5
25A
100
AcDbEntity
  8
レイヤー_2
 62
     7
100
AcDbLine
 10
71.507091
 20
181.797517
 30
0.0
 11
71.552911
 21
181.762377
 31
0.0
  0
LINE
  5
259
100
AcDbEntity
  8
レイヤー_2
 62
     7
100
AcDbLine
 10
71.364808
 20
181.804751
 30
0.0
 11
71.507091
 21
181.797517
 31
0.0
  0
LINE
  5
258
100
AcDbEntity
  8
レイヤー_2
 62
     7
100
AcDbLine
 10
72.373877
 20
181.720002
 30
0.0
 11
72.469306
 21
181.748424
 31
0.0
  0
LINE
  5
257
100
AcDbEntity
  8
レイヤー_2
 62
     7
100
AcDbLine
 10
72.420386
 20
181.684862
 30
0.0
 11
72.373877
 21
181.720002
 31
0.0
  0
LINE
  5
256
100
AcDbEntity
  8
レイヤー_2
 62
     7
100
AcDbLine
 10
72.562324
 20
181.677283
 30
0.0
 11
72.420386
 21
181.684862
 31
0.0
  0
LINE
  5
255
100
AcDbEntity
  8
レイヤー_2
 62
     7
100
AcDbLine
 10
72.657408
 20
181.705705
 30
0.0
 11
72.562324
 21
181.677283
 31
0.0
  0
LINE
  5
254
100
AcDbEntity
  8
レイヤー_2
 62
     7
100
AcDbLine
 10
72.6109
 20
181.740845
 30
0.0
 11
72.657408
 21
181.705705
 31
0.0
  0
LINE
  5
253
100
AcDbEntity
  8
レイヤー_2
 62
     7
100
AcDbLine
 10
72.469306
 20
181.748424
 30
0.0
 11
72.6109
 21
181.740845
 31
0.0
  0
LINE
  5
252
100
AcDbEntity
  8
レイヤー_2
 62
     7
100
AcDbLine
 10
72.066574
 20
181.692958
 30
0.0
 11
72.161659
 21
181.72138
 31
0.0
  0
LINE
  5
251
100
AcDbEntity
  8
レイヤー_2
 62
     7
100
AcDbLine
 10
72.113083
 20
181.657818
 30
0.0
 11
72.066574
 21
181.692958
 31
0.0
  0
LINE
  5
250
100
AcDbEntity
  8
レイヤー_2
 62
     7
100
AcDbLine
 10
72.254677
 20
181.650583
 30
0.0
 11
72.113083
 21
181.657818
 31
0.0
  0
LINE
  5
24F
100
AcDbEntity
  8
レイヤー_2
 62
     7
100
AcDbLine
 10
72.349761
 20
181.678144
 30
0.0
 11
72.254677
 21
181.650583
 31
0.0
  0
LINE
  5
24E
100
AcDbEntity
  8
レイヤー_2
 62
     7
100
AcDbLine
 10
72.303252
 20
181.713801
 30
0.0
 11
72.349761
 21
181.678144
 31
0.0
  0
LINE
  5
24D
100
AcDbEntity
  8
レイヤー_2
 62
     7
100
AcDbLine
 10
72.161659
 20
181.72138
 30
0.0
 11
72.303252
 21
181.713801
 31
0.0
  0
LINE
  5
24C
100
AcDbEntity
  8
レイヤー_2
 62
     7
100
AcDbLine
 10
71.758927
 20
181.666258
 30
0.0
 11
71.853668
 21
181.694336
 31
0.0
  0
LINE
  5
24B
100
AcDbEntity
  8
レイヤー_2
 62
     7
100
AcDbLine
 10
71.805436
 20
181.630774
 30
0.0
 11
71.758927
 21
181.666258
 31
0.0
  0
LINE
  5
24A
100
AcDbEntity
  8
レイヤー_2
 62
     7
100
AcDbLine
 10
71.94703
 20
181.623539
 30
0.0
 11
71.805436
 21
181.630774
 31
0.0
  0
LINE
  5
249
100
AcDbEntity
  8
レイヤー_2
 62
     7
100
AcDbLine
 10
72.042459
 20
181.6511
 30
0.0
 11
71.94703
 21
181.623539
 31
0.0
  0
LINE
  5
248
100
AcDbEntity
  8
レイヤー_2
 62
     7
100
AcDbLine
 10
71.99595
 20
181.687101
 30
0.0
 11
72.042459
 21
181.6511
 31
0.0
  0
LINE
  5
247
100
AcDbEntity
  8
レイヤー_2
 62
     7
100
AcDbLine
 10
71.853668
 20
181.694336
 30
0.0
 11
71.99595
 21
181.687101
 31
0.0
  0
LINE
  5
246
100
AcDbEntity
  8
レイヤー_2
 62
     7
100
AcDbLine
 10
72.846889
 20
181.95289
 30
0.0
 11
72.80038
 21
181.988547
 31
0.0
  0
LINE
  5
245
100
AcDbEntity
  8
レイヤー_2
 62
     7
100
AcDbLine
 10
72.80038
 20
181.988547
 30
0.0
 11
72.659131
 21
181.995265
 31
0.0
  0
LINE
  5
244
100
AcDbEntity
  8
レイヤー_2
 62
     7
100
AcDbLine
 10
72.659131
 20
181.995265
 30
0.0
 11
72.564046
 21
181.968221
 31
0.0
  0
LINE
  5
243
100
AcDbEntity
  8
レイヤー_2
 62
     7
100
AcDbLine
 10
72.564046
 20
181.968221
 30
0.0
 11
72.610211
 21
181.932564
 31
0.0
  0
LINE
  5
242
100
AcDbEntity
  8
レイヤー_2
 62
     7
100
AcDbLine
 10
72.610211
 20
181.932564
 30
0.0
 11
72.751804
 21
181.924985
 31
0.0
  0
LINE
  5
241
100
AcDbEntity
  8
レイヤー_2
 62
     7
100
AcDbLine
 10
72.751804
 20
181.924985
 30
0.0
 11
72.846889
 21
181.95289
 31
0.0
  0
LINE
  5
240
100
AcDbEntity
  8
レイヤー_2
 62
     7
100
AcDbLine
 10
73.154536
 20
181.979934
 30
0.0
 11
73.111472
 21
182.013007
 31
0.0
  0
LINE
  5
23F
100
AcDbEntity
  8
レイヤー_2
 62
     7
100
AcDbLine
 10
73.062552
 20
182.018175
 30
0.0
 11
72.966089
 21
182.022826
 31
0.0
  0
LINE
  5
23E
100
AcDbEntity
  8
レイヤー_2
 62
     7
100
AcDbLine
 10
72.966089
 20
182.022826
 30
0.0
 11
72.871693
 21
181.995265
 31
0.0
  0
LINE
  5
23D
100
AcDbEntity
  8
レイヤー_2
 62
     7
100
AcDbLine
 10
72.871693
 20
181.995265
 30
0.0
 11
72.917858
 21
181.959781
 31
0.0
  0
LINE
  5
23C
100
AcDbEntity
  8
レイヤー_2
 62
     7
100
AcDbLine
 10
72.917858
 20
181.959781
 30
0.0
 11
73.059451
 21
181.952029
 31
0.0
  0
LINE
  5
23B
100
AcDbEntity
  8
レイヤー_2
 62
     7
100
AcDbLine
 10
73.059451
 20
181.952029
 30
0.0
 11
73.154536
 21
181.979934
 31
0.0
  0
LINE
  5
23A
100
AcDbEntity
  8
レイヤー_2
 62
     7
100
AcDbLine
 10
73.2038
 20
182.002844
 30
0.0
 11
73.226194
 21
181.986825
 31
0.0
  0
LINE
  5
239
100
AcDbEntity
  8
レイヤー_2
 62
     7
100
AcDbLine
 10
73.226194
 20
181.986825
 30
0.0
 11
73.367442
 21
181.979245
 31
0.0
  0
LINE
  5
238
100
AcDbEntity
  8
レイヤー_2
 62
     7
100
AcDbLine
 10
73.367442
 20
181.979245
 30
0.0
 11
73.371577
 21
181.980796
 31
0.0
  0
LINE
  5
237
100
AcDbEntity
  8
レイヤー_2
 62
     7
100
AcDbLine
 10
73.028445
 20
181.815431
 30
0.0
 11
72.981247
 21
181.850399
 31
0.0
  0
LINE
  5
236
100
AcDbEntity
  8
レイヤー_2
 62
     7
100
AcDbLine
 10
72.981247
 20
181.850399
 30
0.0
 11
72.840343
 21
181.857633
 31
0.0
  0
LINE
  5
235
100
AcDbEntity
  8
レイヤー_2
 62
     7
100
AcDbLine
 10
72.840343
 20
181.857633
 30
0.0
 11
72.745258
 21
181.830073
 31
0.0
  0
LINE
  5
234
100
AcDbEntity
  8
レイヤー_2
 62
     7
100
AcDbLine
 10
72.745258
 20
181.830073
 30
0.0
 11
72.791767
 21
181.794244
 31
0.0
  0
LINE
  5
233
100
AcDbEntity
  8
レイヤー_2
 62
     7
100
AcDbLine
 10
72.791767
 20
181.794244
 30
0.0
 11
72.933016
 21
181.787354
 31
0.0
  0
LINE
  5
232
100
AcDbEntity
  8
レイヤー_2
 62
     7
100
AcDbLine
 10
72.933016
 20
181.787354
 30
0.0
 11
73.028445
 21
181.815431
 31
0.0
  0
LINE
  5
231
100
AcDbEntity
  8
レイヤー_2
 62
     7
100
AcDbLine
 10
73.335748
 20
181.841958
 30
0.0
 11
73.289583
 21
181.877615
 31
0.0
  0
LINE
  5
230
100
AcDbEntity
  8
レイヤー_2
 62
     7
100
AcDbLine
 10
73.289583
 20
181.877615
 30
0.0
 11
73.147301
 21
181.885194
 31
0.0
  0
LINE
  5
22F
100
AcDbEntity
  8
レイヤー_2
 62
     7
100
AcDbLine
 10
73.147301
 20
181.885194
 30
0.0
 11
73.052561
 21
181.857289
 31
0.0
  0
LINE
  5
22E
100
AcDbEntity
  8
レイヤー_2
 62
     7
100
AcDbLine
 10
73.052561
 20
181.857289
 30
0.0
 11
73.09907
 21
181.821632
 31
0.0
  0
LINE
  5
22D
100
AcDbEntity
  8
レイヤー_2
 62
     7
100
AcDbLine
 10
73.09907
 20
181.821632
 30
0.0
 11
73.241352
 21
181.81457
 31
0.0
  0
LINE
  5
22C
100
AcDbEntity
  8
レイヤー_2
 62
     7
100
AcDbLine
 10
73.241352
 20
181.81457
 30
0.0
 11
73.335748
 21
181.841958
 31
0.0
  0
LINE
  5
22B
100
AcDbEntity
  8
レイヤー_2
 62
     7
100
AcDbLine
 10
73.644084
 20
181.869175
 30
0.0
 11
73.59723
 21
181.904659
 31
0.0
  0
LINE
  5
22A
100
AcDbEntity
  8
レイヤー_2
 62
     7
100
AcDbLine
 10
73.59723
 20
181.904659
 30
0.0
 11
73.455637
 21
181.912238
 31
0.0
  0
LINE
  5
229
100
AcDbEntity
  8
レイヤー_2
 62
     7
100
AcDbLine
 10
73.455637
 20
181.912238
 30
0.0
 11
73.360552
 21
181.883988
 31
0.0
  0
LINE
  5
228
100
AcDbEntity
  8
レイヤー_2
 62
     7
100
AcDbLine
 10
73.360552
 20
181.883988
 30
0.0
 11
73.407406
 21
181.848848
 31
0.0
  0
LINE
  5
227
100
AcDbEntity
  8
レイヤー_2
 62
     7
100
AcDbLine
 10
73.407406
 20
181.848848
 30
0.0
 11
73.54831
 21
181.841614
 31
0.0
  0
LINE
  5
226
100
AcDbEntity
  8
レイヤー_2
 62
     7
100
AcDbLine
 10
73.54831
 20
181.841614
 30
0.0
 11
73.644084
 21
181.869175
 31
0.0
  0
LINE
  5
225
100
AcDbEntity
  8
レイヤー_2
 62
     7
100
AcDbLine
 10
73.209657
 20
181.677283
 30
0.0
 11
73.163148
 21
181.712939
 31
0.0
  0
LINE
  5
224
100
AcDbEntity
  8
レイヤー_2
 62
     7
100
AcDbLine
 10
73.163148
 20
181.712939
 30
0.0
 11
73.02121
 21
181.720002
 31
0.0
  0
LINE
  5
223
100
AcDbEntity
  8
レイヤー_2
 62
     7
100
AcDbLine
 10
73.02121
 20
181.720002
 30
0.0
 11
72.92647
 21
181.691752
 31
0.0
  0
LINE
  5
222
100
AcDbEntity
  8
レイヤー_2
 62
     7
100
AcDbLine
 10
72.92647
 20
181.691752
 30
0.0
 11
72.972635
 21
181.656612
 31
0.0
  0
LINE
  5
221
100
AcDbEntity
  8
レイヤー_2
 62
     7
100
AcDbLine
 10
72.972635
 20
181.656612
 30
0.0
 11
73.114917
 21
181.649377
 31
0.0
  0
LINE
  5
220
100
AcDbEntity
  8
レイヤー_2
 62
     7
100
AcDbLine
 10
73.114917
 20
181.649377
 30
0.0
 11
73.209657
 21
181.677283
 31
0.0
  0
LINE
  5
21F
100
AcDbEntity
  8
レイヤー_2
 62
     7
100
AcDbLine
 10
73.51696
 20
181.704499
 30
0.0
 11
73.470451
 21
181.739983
 31
0.0
  0
LINE
  5
21E
100
AcDbEntity
  8
レイヤー_2
 62
     7
100
AcDbLine
 10
73.470451
 20
181.739983
 30
0.0
 11
73.329546
 21
181.746701
 31
0.0
  0
LINE
  5
21D
100
AcDbEntity
  8
レイヤー_2
 62
     7
100
AcDbLine
 10
73.329546
 20
181.746701
 30
0.0
 11
73.234462
 21
181.718796
 31
0.0
  0
LINE
  5
21C
100
AcDbEntity
  8
レイヤー_2
 62
     7
100
AcDbLine
 10
73.234462
 20
181.718796
 30
0.0
 11
73.280626
 21
181.683312
 31
0.0
  0
LINE
  5
21B
100
AcDbEntity
  8
レイヤー_2
 62
     7
100
AcDbLine
 10
73.280626
 20
181.683312
 30
0.0
 11
73.42222
 21
181.676421
 31
0.0
  0
LINE
  5
21A
100
AcDbEntity
  8
レイヤー_2
 62
     7
100
AcDbLine
 10
73.42222
 20
181.676421
 30
0.0
 11
73.51696
 21
181.704499
 31
0.0
  0
LINE
  5
219
100
AcDbEntity
  8
レイヤー_2
 62
     7
100
AcDbLine
 10
72.688759
 20
181.84282
 30
0.0
 11
72.783843
 21
181.87038
 31
0.0
  0
LINE
  5
218
100
AcDbEntity
  8
レイヤー_2
 62
     7
100
AcDbLine
 10
72.783843
 20
181.87038
 30
0.0
 11
72.73699
 21
181.906382
 31
0.0
  0
LINE
  5
217
100
AcDbEntity
  8
レイヤー_2
 62
     7
100
AcDbLine
 10
72.73699
 20
181.906382
 30
0.0
 11
72.595741
 21
181.9131
 31
0.0
  0
LINE
  5
216
100
AcDbEntity
  8
レイヤー_2
 62
     7
100
AcDbLine
 10
72.595741
 20
181.9131
 30
0.0
 11
72.500656
 21
181.885194
 31
0.0
  0
LINE
  5
215
100
AcDbEntity
  8
レイヤー_2
 62
     7
100
AcDbLine
 10
72.500656
 20
181.885194
 30
0.0
 11
72.546476
 21
181.850054
 31
0.0
  0
LINE
  5
214
100
AcDbEntity
  8
レイヤー_2
 62
     7
100
AcDbLine
 10
72.546476
 20
181.850054
 30
0.0
 11
72.688759
 21
181.84282
 31
0.0
  0
LINE
  5
213
100
AcDbEntity
  8
レイヤー_2
 62
     7
100
AcDbLine
 10
72.996061
 20
181.869864
 30
0.0
 11
73.09149
 21
181.897941
 31
0.0
  0
LINE
  5
212
100
AcDbEntity
  8
レイヤー_2
 62
     7
100
AcDbLine
 10
73.09149
 20
181.897941
 30
0.0
 11
73.045326
 21
181.933426
 31
0.0
  0
LINE
  5
211
100
AcDbEntity
  8
レイヤー_2
 62
     7
100
AcDbLine
 10
73.045326
 20
181.933426
 30
0.0
 11
72.903044
 21
181.940144
 31
0.0
  0
LINE
  5
210
100
AcDbEntity
  8
レイヤー_2
 62
     7
100
AcDbLine
 10
72.903044
 20
181.940144
 30
0.0
 11
72.808648
 21
181.912238
 31
0.0
  0
LINE
  5
20F
100
AcDbEntity
  8
レイヤー_2
 62
     7
100
AcDbLine
 10
72.808648
 20
181.912238
 30
0.0
 11
72.854812
 21
181.876754
 31
0.0
  0
LINE
  5
20E
100
AcDbEntity
  8
レイヤー_2
 62
     7
100
AcDbLine
 10
72.854812
 20
181.876754
 30
0.0
 11
72.996061
 21
181.869864
 31
0.0
  0
LINE
  5
20D
100
AcDbEntity
  8
レイヤー_2
 62
     7
100
AcDbLine
 10
73.6117
 20
181.923779
 30
0.0
 11
73.639261
 21
181.93222
 31
0.0
  0
LINE
  5
20C
100
AcDbEntity
  8
レイヤー_2
 62
     7
100
AcDbLine
 10
73.436344
 20
181.970288
 30
0.0
 11
73.423942
 21
181.966498
 31
0.0
  0
LINE
  5
20B
100
AcDbEntity
  8
レイヤー_2
 62
     7
100
AcDbLine
 10
73.423942
 20
181.966498
 30
0.0
 11
73.469762
 21
181.930842
 31
0.0
  0
LINE
  5
20A
100
AcDbEntity
  8
レイヤー_2
 62
     7
100
AcDbLine
 10
73.469762
 20
181.930842
 30
0.0
 11
73.6117
 21
181.923779
 31
0.0
  0
LINE
  5
209
100
AcDbEntity
  8
レイヤー_2
 62
     7
100
AcDbLine
 10
72.869626
 20
181.704499
 30
0.0
 11
72.965055
 21
181.732749
 31
0.0
  0
LINE
  5
208
100
AcDbEntity
  8
レイヤー_2
 62
     7
100
AcDbLine
 10
72.965055
 20
181.732749
 30
0.0
 11
72.918202
 21
181.767889
 31
0.0
  0
LINE
  5
207
100
AcDbEntity
  8
レイヤー_2
 62
     7
100
AcDbLine
 10
72.918202
 20
181.767889
 30
0.0
 11
72.776953
 21
181.775468
 31
0.0
  0
LINE
  5
206
100
AcDbEntity
  8
レイヤー_2
 62
     7
100
AcDbLine
 10
72.776953
 20
181.775468
 30
0.0
 11
72.681524
 21
181.747563
 31
0.0
  0
LINE
  5
205
100
AcDbEntity
  8
レイヤー_2
 62
     7
100
AcDbLine
 10
72.681524
 20
181.747563
 30
0.0
 11
72.728722
 21
181.712078
 31
0.0
  0
LINE
  5
204
100
AcDbEntity
  8
レイヤー_2
 62
     7
100
AcDbLine
 10
72.728722
 20
181.712078
 30
0.0
 11
72.869626
 21
181.704499
 31
0.0
  0
LINE
  5
203
100
AcDbEntity
  8
レイヤー_2
 62
     7
100
AcDbLine
 10
73.177962
 20
181.731543
 30
0.0
 11
73.273047
 21
181.76031
 31
0.0
  0
LINE
  5
202
100
AcDbEntity
  8
レイヤー_2
 62
     7
100
AcDbLine
 10
73.273047
 20
181.76031
 30
0.0
 11
73.226194
 21
181.795105
 31
0.0
  0
LINE
  5
201
100
AcDbEntity
  8
レイヤー_2
 62
     7
100
AcDbLine
 10
73.226194
 20
181.795105
 30
0.0
 11
73.084256
 21
181.802167
 31
0.0
  0
LINE
  5
200
100
AcDbEntity
  8
レイヤー_2
 62
     7
100
AcDbLine
 10
73.084256
 20
181.802167
 30
0.0
 11
72.989516
 21
181.774779
 31
0.0
  0
LINE
  5
1FF
100
AcDbEntity
  8
レイヤー_2
 62
     7
100
AcDbLine
 10
72.989516
 20
181.774779
 30
0.0
 11
73.03568
 21
181.739122
 31
0.0
  0
LINE
  5
1FE
100
AcDbEntity
  8
レイヤー_2
 62
     7
100
AcDbLine
 10
73.03568
 20
181.739122
 30
0.0
 11
73.177962
 21
181.731543
 31
0.0
  0
LINE
  5
1FD
100
AcDbEntity
  8
レイヤー_2
 62
     7
100
AcDbLine
 10
73.485265
 20
181.758587
 30
0.0
 11
73.580005
 21
181.786492
 31
0.0
  0
LINE
  5
1FC
100
AcDbEntity
  8
レイヤー_2
 62
     7
100
AcDbLine
 10
73.580005
 20
181.786492
 30
0.0
 11
73.533841
 21
181.822149
 31
0.0
  0
LINE
  5
1FB
100
AcDbEntity
  8
レイヤー_2
 62
     7
100
AcDbLine
 10
73.533841
 20
181.822149
 30
0.0
 11
73.392592
 21
181.829384
 31
0.0
  0
LINE
  5
1FA
100
AcDbEntity
  8
レイヤー_2
 62
     7
100
AcDbLine
 10
73.392592
 20
181.829384
 30
0.0
 11
73.297507
 21
181.801823
 31
0.0
  0
LINE
  5
1F9
100
AcDbEntity
  8
レイヤー_2
 62
     7
100
AcDbLine
 10
73.297507
 20
181.801823
 30
0.0
 11
73.343671
 21
181.766166
 31
0.0
  0
LINE
  5
1F8
100
AcDbEntity
  8
レイヤー_2
 62
     7
100
AcDbLine
 10
73.343671
 20
181.766166
 30
0.0
 11
73.485265
 21
181.758587
 31
0.0
  0
LINE
  5
1F7
100
AcDbEntity
  8
レイヤー_2
 62
     7
100
AcDbLine
 10
72.262945
 20
182.036262
 30
0.0
 11
72.121007
 21
182.043496
 31
0.0
  0
LINE
  5
1F6
100
AcDbEntity
  8
レイヤー_2
 62
     7
100
AcDbLine
 10
72.303252
 20
182.048147
 30
0.0
 11
72.262945
 21
182.036262
 31
0.0
  0
LINE
  5
1F5
100
AcDbEntity
  8
レイヤー_2
 62
     7
100
AcDbLine
 10
72.121007
 20
182.043496
 30
0.0
 11
72.121007
 21
182.043496
 31
0.0
  0
LINE
  5
1F4
100
AcDbEntity
  8
レイヤー_2
 62
     7
100
AcDbLine
 10
72.602631
 20
182.008873
 30
0.0
 11
72.507547
 21
181.980796
 31
0.0
  0
LINE
  5
1F3
100
AcDbEntity
  8
レイヤー_2
 62
     7
100
AcDbLine
 10
72.555778
 20
182.044013
 30
0.0
 11
72.602631
 21
182.008873
 31
0.0
  0
LINE
  5
1F2
100
AcDbEntity
  8
レイヤー_2
 62
     7
100
AcDbLine
 10
72.476885
 20
182.048147
 30
0.0
 11
72.555778
 21
182.044013
 31
0.0
  0
LINE
  5
1F1
100
AcDbEntity
  8
レイヤー_2
 62
     7
100
AcDbLine
 10
72.319444
 20
182.02317
 30
0.0
 11
72.405227
 21
182.048664
 31
0.0
  0
LINE
  5
1F0
100
AcDbEntity
  8
レイヤー_2
 62
     7
100
AcDbLine
 10
72.365609
 20
181.987686
 30
0.0
 11
72.319444
 21
182.02317
 31
0.0
  0
LINE
  5
1EF
100
AcDbEntity
  8
レイヤー_2
 62
     7
100
AcDbLine
 10
72.507547
 20
181.980796
 30
0.0
 11
72.365609
 21
181.987686
 31
0.0
  0
LINE
  5
1EE
100
AcDbEntity
  8
レイヤー_2
 62
     7
100
AcDbLine
 10
72.896153
 20
182.031611
 30
0.0
 11
72.815194
 21
182.008012
 31
0.0
  0
LINE
  5
1ED
100
AcDbEntity
  8
レイヤー_2
 62
     7
100
AcDbLine
 10
72.6736
 20
182.015074
 30
0.0
 11
72.634326
 21
182.044358
 31
0.0
  0
LINE
  5
1EC
100
AcDbEntity
  8
レイヤー_2
 62
     7
100
AcDbLine
 10
72.815194
 20
182.008012
 30
0.0
 11
72.6736
 21
182.015074
 31
0.0
  0
LINE
  5
1EB
100
AcDbEntity
  8
レイヤー_2
 62
     7
100
AcDbLine
 10
71.80268
 20
182.024032
 30
0.0
 11
71.81336
 21
182.016452
 31
0.0
  0
LINE
  5
1EA
100
AcDbEntity
  8
レイヤー_2
 62
     7
100
AcDbLine
 10
71.81336
 20
182.016452
 30
0.0
 11
71.954953
 21
182.008873
 31
0.0
  0
LINE
  5
1E9
100
AcDbEntity
  8
レイヤー_2
 62
     7
100
AcDbLine
 10
71.954953
 20
182.008873
 30
0.0
 11
72.050382
 21
182.036778
 31
0.0
  0
LINE
  5
1E8
100
AcDbEntity
  8
レイヤー_2
 62
     7
100
AcDbLine
 10
72.050382
 20
182.036778
 30
0.0
 11
72.046248
 21
182.040051
 31
0.0
  0
LINE
  5
1E7
100
AcDbEntity
  8
レイヤー_2
 62
     7
100
AcDbLine
 10
71.502612
 20
181.99182
 30
0.0
 11
71.506057
 21
181.988892
 31
0.0
  0
LINE
  5
1E6
100
AcDbEntity
  8
レイヤー_2
 62
     7
100
AcDbLine
 10
71.506057
 20
181.988892
 30
0.0
 11
71.647306
 21
181.981657
 31
0.0
  0
LINE
  5
1E5
100
AcDbEntity
  8
レイヤー_2
 62
     7
100
AcDbLine
 10
71.647306
 20
181.981657
 30
0.0
 11
71.742391
 21
182.009734
 31
0.0
  0
LINE
  5
1E4
100
AcDbEntity
  8
レイヤー_2
 62
     7
100
AcDbLine
 10
71.742391
 20
182.009734
 30
0.0
 11
71.731711
 21
182.018175
 31
0.0
  0
LINE
  5
1E3
100
AcDbEntity
  8
レイヤー_2
 62
     7
100
AcDbLine
 10
71.284538
 20
181.957541
 30
0.0
 11
71.339659
 21
181.954613
 31
0.0
  0
LINE
  5
1E2
100
AcDbEntity
  8
レイヤー_2
 62
     7
100
AcDbLine
 10
71.339659
 20
181.954613
 30
0.0
 11
71.431299
 21
181.981657
 31
0.0
  0
LINE
  5
1E1
100
AcDbEntity
  8
レイヤー_2
 62
     7
100
AcDbLine
 10
72.106882
 20
182.024032
 30
0.0
 11
72.011108
 21
181.996126
 31
0.0
  0
LINE
  5
1E0
100
AcDbEntity
  8
レイヤー_2
 62
     7
100
AcDbLine
 10
72.011108
 20
181.996126
 30
0.0
 11
72.057962
 21
181.96047
 31
0.0
  0
LINE
  5
1DF
100
AcDbEntity
  8
レイヤー_2
 62
     7
100
AcDbLine
 10
72.057962
 20
181.96047
 30
0.0
 11
72.199555
 21
181.95289
 31
0.0
  0
LINE
  5
1DE
100
AcDbEntity
  8
レイヤー_2
 62
     7
100
AcDbLine
 10
72.199555
 20
181.95289
 30
0.0
 11
72.29464
 21
181.981657
 31
0.0
  0
LINE
  5
1DD
100
AcDbEntity
  8
レイヤー_2
 62
     7
100
AcDbLine
 10
72.29464
 20
181.981657
 30
0.0
 11
72.247786
 21
182.016452
 31
0.0
  0
LINE
  5
1DC
100
AcDbEntity
  8
レイヤー_2
 62
     7
100
AcDbLine
 10
72.247786
 20
182.016452
 30
0.0
 11
72.106882
 21
182.024032
 31
0.0
  0
LINE
  5
1DB
100
AcDbEntity
  8
レイヤー_2
 62
     7
100
AcDbLine
 10
71.798891
 20
181.996988
 30
0.0
 11
71.70415
 21
181.969082
 31
0.0
  0
LINE
  5
1DA
100
AcDbEntity
  8
レイヤー_2
 62
     7
100
AcDbLine
 10
71.70415
 20
181.969082
 30
0.0
 11
71.750315
 21
181.933426
 31
0.0
  0
LINE
  5
1D9
100
AcDbEntity
  8
レイヤー_2
 62
     7
100
AcDbLine
 10
71.750315
 20
181.933426
 30
0.0
 11
71.891564
 21
181.925846
 31
0.0
  0
LINE
  5
1D8
100
AcDbEntity
  8
レイヤー_2
 62
     7
100
AcDbLine
 10
71.891564
 20
181.925846
 30
0.0
 11
71.987337
 21
181.954613
 31
0.0
  0
LINE
  5
1D7
100
AcDbEntity
  8
レイヤー_2
 62
     7
100
AcDbLine
 10
71.987337
 20
181.954613
 30
0.0
 11
71.940828
 21
181.989408
 31
0.0
  0
LINE
  5
1D6
100
AcDbEntity
  8
レイヤー_2
 62
     7
100
AcDbLine
 10
71.940828
 20
181.989408
 30
0.0
 11
71.798891
 21
181.996988
 31
0.0
  0
LINE
  5
1D5
100
AcDbEntity
  8
レイヤー_2
 62
     7
100
AcDbLine
 10
71.491588
 20
181.969771
 30
0.0
 11
71.396159
 21
181.941866
 31
0.0
  0
LINE
  5
1D4
100
AcDbEntity
  8
レイヤー_2
 62
     7
100
AcDbLine
 10
71.396159
 20
181.941866
 30
0.0
 11
71.443012
 21
181.906382
 31
0.0
  0
LINE
  5
1D3
100
AcDbEntity
  8
レイヤー_2
 62
     7
100
AcDbLine
 10
71.443012
 20
181.906382
 30
0.0
 11
71.584261
 21
181.899664
 31
0.0
  0
LINE
  5
1D2
100
AcDbEntity
  8
レイヤー_2
 62
     7
100
AcDbLine
 10
71.584261
 20
181.899664
 30
0.0
 11
71.679346
 21
181.927569
 31
0.0
  0
LINE
  5
1D1
100
AcDbEntity
  8
レイヤー_2
 62
     7
100
AcDbLine
 10
71.679346
 20
181.927569
 30
0.0
 11
71.632492
 21
181.963053
 31
0.0
  0
LINE
  5
1D0
100
AcDbEntity
  8
レイヤー_2
 62
     7
100
AcDbLine
 10
71.632492
 20
181.963053
 30
0.0
 11
71.491588
 21
181.969771
 31
0.0
  0
LINE
  5
1CF
100
AcDbEntity
  8
レイヤー_2
 62
     7
100
AcDbLine
 10
71.11814
 20
181.923779
 30
0.0
 11
71.088512
 21
181.914822
 31
0.0
  0
LINE
  5
1CE
100
AcDbEntity
  8
レイヤー_2
 62
     7
100
AcDbLine
 10
71.088512
 20
181.914822
 30
0.0
 11
71.135365
 21
181.878821
 31
0.0
  0
LINE
  5
1CD
100
AcDbEntity
  8
レイヤー_2
 62
     7
100
AcDbLine
 10
71.135365
 20
181.878821
 30
0.0
 11
71.276614
 21
181.872447
 31
0.0
  0
LINE
  5
1CC
100
AcDbEntity
  8
レイヤー_2
 62
     7
100
AcDbLine
 10
71.276614
 20
181.872447
 30
0.0
 11
71.372043
 21
181.900008
 31
0.0
  0
LINE
  5
1CB
100
AcDbEntity
  8
レイヤー_2
 62
     7
100
AcDbLine
 10
71.372043
 20
181.900008
 30
0.0
 11
71.325879
 21
181.936009
 31
0.0
  0
LINE
  5
1CA
100
AcDbEntity
  8
レイヤー_2
 62
     7
100
AcDbLine
 10
71.325879
 20
181.936009
 30
0.0
 11
71.202889
 21
181.941866
 31
0.0
  0
LINE
  5
1C9
100
AcDbEntity
  8
レイヤー_2
 62
     7
100
AcDbLine
 10
72.121007
 20
182.043496
 30
0.0
 11
72.121007
 21
182.043496
 31
0.0
  0
LINE
  5
1C8
100
AcDbEntity
  8
レイヤー_2
 62
     7
100
AcDbLine
 10
72.262945
 20
182.036262
 30
0.0
 11
72.262945
 21
182.046941
 31
0.0
  0
LINE
  5
1C7
100
AcDbEntity
  8
レイヤー_2
 62
     7
100
AcDbLine
 10
71.81336
 20
182.016452
 30
0.0
 11
71.81336
 21
182.025237
 31
0.0
  0
LINE
  5
1C6
100
AcDbEntity
  8
レイヤー_2
 62
     7
100
AcDbLine
 10
72.6736
 20
182.015074
 30
0.0
 11
72.6736
 21
182.043496
 31
0.0
  0
LINE
  5
1C5
100
AcDbEntity
  8
レイヤー_2
 62
     7
100
AcDbLine
 10
71.954953
 20
182.008873
 30
0.0
 11
71.954953
 21
182.0354
 31
0.0
  0
LINE
  5
1C4
100
AcDbEntity
  8
レイヤー_2
 62
     7
100
AcDbLine
 10
72.815194
 20
182.008012
 30
0.0
 11
72.815194
 21
182.036778
 31
0.0
  0
LINE
  5
1C3
100
AcDbEntity
  8
レイヤー_2
 62
     7
100
AcDbLine
 10
71.506057
 20
181.988892
 30
0.0
 11
71.506057
 21
181.99182
 31
0.0
  0
LINE
  5
1C2
100
AcDbEntity
  8
レイヤー_2
 62
     7
100
AcDbLine
 10
72.365609
 20
181.987686
 30
0.0
 11
72.365609
 21
182.036778
 31
0.0
  0
LINE
  5
1C1
100
AcDbEntity
  8
レイヤー_2
 62
     7
100
AcDbLine
 10
73.226194
 20
181.986825
 30
0.0
 11
73.226194
 21
182.00026
 31
0.0
  0
LINE
  5
1C0
100
AcDbEntity
  8
レイヤー_2
 62
     7
100
AcDbLine
 10
71.647306
 20
181.981657
 30
0.0
 11
71.647306
 21
182.009734
 31
0.0
  0
LINE
  5
1BF
100
AcDbEntity
  8
レイヤー_2
 62
     7
100
AcDbLine
 10
72.507547
 20
181.980796
 30
0.0
 11
72.507547
 21
182.046425
 31
0.0
  0
LINE
  5
1BE
100
AcDbEntity
  8
レイヤー_2
 62
     7
100
AcDbLine
 10
73.367442
 20
181.979245
 30
0.0
 11
73.367442
 21
181.980796
 31
0.0
  0
LINE
  5
1BD
100
AcDbEntity
  8
レイヤー_2
 62
     7
100
AcDbLine
 10
72.057962
 20
181.96047
 30
0.0
 11
72.057962
 21
182.009734
 31
0.0
  0
LINE
  5
1BC
100
AcDbEntity
  8
レイヤー_2
 62
     7
100
AcDbLine
 10
72.917858
 20
181.959781
 30
0.0
 11
72.917858
 21
182.008873
 31
0.0
  0
LINE
  5
1BB
100
AcDbEntity
  8
レイヤー_2
 62
     7
100
AcDbLine
 10
71.339659
 20
181.954613
 30
0.0
 11
71.339659
 21
181.96736
 31
0.0
  0
LINE
  5
1BA
100
AcDbEntity
  8
レイヤー_2
 62
     7
100
AcDbLine
 10
72.199555
 20
181.95289
 30
0.0
 11
72.199555
 21
182.019036
 31
0.0
  0
LINE
  5
1B9
100
AcDbEntity
  8
レイヤー_2
 62
     7
100
AcDbLine
 10
73.059451
 20
181.952029
 30
0.0
 11
73.059451
 21
182.018175
 31
0.0
  0
LINE
  5
1B8
100
AcDbEntity
  8
レイヤー_2
 62
     7
100
AcDbLine
 10
71.750315
 20
181.933426
 30
0.0
 11
71.750315
 21
181.982518
 31
0.0
  0
LINE
  5
1B7
100
AcDbEntity
  8
レイヤー_2
 62
     7
100
AcDbLine
 10
72.610211
 20
181.932564
 30
0.0
 11
72.610211
 21
181.981657
 31
0.0
  0
LINE
  5
1B6
100
AcDbEntity
  8
レイヤー_2
 62
     7
100
AcDbLine
 10
73.469762
 20
181.930842
 30
0.0
 11
73.469762
 21
181.964776
 31
0.0
  0
LINE
  5
1B5
100
AcDbEntity
  8
レイヤー_2
 62
     7
100
AcDbLine
 10
71.891564
 20
181.925846
 30
0.0
 11
71.891564
 21
181.99182
 31
0.0
  0
LINE
  5
1B4
100
AcDbEntity
  8
レイヤー_2
 62
     7
100
AcDbLine
 10
72.751804
 20
181.924985
 30
0.0
 11
72.751804
 21
181.991475
 31
0.0
  0
LINE
  5
1B3
100
AcDbEntity
  8
レイヤー_2
 62
     7
100
AcDbLine
 10
73.6117
 20
181.923779
 30
0.0
 11
73.6117
 21
181.937732
 31
0.0
  0
LINE
  5
1B2
100
AcDbEntity
  8
レイヤー_2
 62
     7
100
AcDbLine
 10
71.443012
 20
181.906382
 30
0.0
 11
71.443012
 21
181.955474
 31
0.0
  0
LINE
  5
1B1
100
AcDbEntity
  8
レイヤー_2
 62
     7
100
AcDbLine
 10
71.584261
 20
181.899664
 30
0.0
 11
71.584261
 21
181.965637
 31
0.0
  0
LINE
  5
1B0
100
AcDbEntity
  8
レイヤー_2
 62
     7
100
AcDbLine
 10
71.135365
 20
181.878821
 30
0.0
 11
71.135365
 21
181.927569
 31
0.0
  0
LINE
  5
1AF
100
AcDbEntity
  8
レイヤー_2
 62
     7
100
AcDbLine
 10
71.994572
 20
181.878476
 30
0.0
 11
71.994572
 21
181.927569
 31
0.0
  0
LINE
  5
1AE
100
AcDbEntity
  8
レイヤー_2
 62
     7
100
AcDbLine
 10
72.854812
 20
181.876754
 30
0.0
 11
72.854812
 21
181.925846
 31
0.0
  0
LINE
  5
1AD
100
AcDbEntity
  8
レイヤー_2
 62
     7
100
AcDbLine
 10
73.714708
 20
181.875892
 30
0.0
 11
73.714708
 21
181.914822
 31
0.0
  0
LINE
  5
1AC
100
AcDbEntity
  8
レイヤー_2
 62
     7
100
AcDbLine
 10
71.276614
 20
181.872447
 30
0.0
 11
71.276614
 21
181.938593
 31
0.0
  0
LINE
  5
1AB
100
AcDbEntity
  8
レイヤー_2
 62
     7
100
AcDbLine
 10
72.13651
 20
181.87038
 30
0.0
 11
72.13651
 21
181.936871
 31
0.0
  0
LINE
  5
1AA
100
AcDbEntity
  8
レイヤー_2
 62
     7
100
AcDbLine
 10
72.996061
 20
181.869864
 30
0.0
 11
72.996061
 21
181.936009
 31
0.0
  0
LINE
  5
1A9
100
AcDbEntity
  8
レイヤー_2
 62
     7
100
AcDbLine
 10
71.687614
 20
181.85126
 30
0.0
 11
71.687614
 21
181.900008
 31
0.0
  0
LINE
  5
1A8
100
AcDbEntity
  8
レイヤー_2
 62
     7
100
AcDbLine
 10
73.856302
 20
181.868313
 30
0.0
 11
73.856302
 21
181.877615
 31
0.0
  0
LINE
  5
1A7
100
AcDbEntity
  8
レイヤー_2
 62
     7
100
AcDbLine
 10
72.546476
 20
181.850054
 30
0.0
 11
72.546476
 21
181.898802
 31
0.0
  0
LINE
  5
1A6
100
AcDbEntity
  8
レイヤー_2
 62
     7
100
AcDbLine
 10
73.407406
 20
181.848848
 30
0.0
 11
73.407406
 21
181.897941
 31
0.0
  0
LINE
  5
1A5
100
AcDbEntity
  8
レイヤー_2
 62
     7
100
AcDbLine
 10
70.969312
 20
181.845059
 30
0.0
 11
70.969312
 21
181.885539
 31
0.0
  0
LINE
  5
1A4
100
AcDbEntity
  8
レイヤー_2
 62
     7
100
AcDbLine
 10
71.828518
 20
181.844198
 30
0.0
 11
71.828518
 21
181.909827
 31
0.0
  0
LINE
  5
1A3
100
AcDbEntity
  8
レイヤー_2
 62
     7
100
AcDbLine
 10
72.688759
 20
181.84282
 30
0.0
 11
72.688759
 21
181.908965
 31
0.0
  0
LINE
  5
1A2
100
AcDbEntity
  8
レイヤー_2
 62
     7
100
AcDbLine
 10
73.54831
 20
181.841614
 30
0.0
 11
73.54831
 21
181.907243
 31
0.0
  0
LINE
  5
1A1
100
AcDbEntity
  8
レイヤー_2
 62
     7
100
AcDbLine
 10
71.379622
 20
181.823872
 30
0.0
 11
71.379622
 21
181.872964
 31
0.0
  0
LINE
  5
1A0
100
AcDbEntity
  8
レイヤー_2
 62
     7
100
AcDbLine
 10
72.239863
 20
181.82301
 30
0.0
 11
72.239863
 21
181.871586
 31
0.0
  0
LINE
  5
19F
100
AcDbEntity
  8
レイヤー_2
 62
     7
100
AcDbLine
 10
73.09907
 20
181.821632
 30
0.0
 11
73.09907
 21
181.87038
 31
0.0
  0
LINE
  5
19E
100
AcDbEntity
  8
レイヤー_2
 62
     7
100
AcDbLine
 10
71.521216
 20
181.816637
 30
0.0
 11
71.521216
 21
181.88261
 31
0.0
  0
LINE
  5
19D
100
AcDbEntity
  8
レイヤー_2
 62
     7
100
AcDbLine
 10
72.380767
 20
181.815431
 30
0.0
 11
72.380767
 21
181.881405
 31
0.0
  0
LINE
  5
19C
100
AcDbEntity
  8
レイヤー_2
 62
     7
100
AcDbLine
 10
73.241352
 20
181.81457
 30
0.0
 11
73.241352
 21
181.880199
 31
0.0
  0
LINE
  5
19B
100
AcDbEntity
  8
レイヤー_2
 62
     7
100
AcDbLine
 10
71.071631
 20
181.796655
 30
0.0
 11
71.071631
 21
181.845748
 31
0.0
  0
LINE
  5
19A
100
AcDbEntity
  8
レイヤー_2
 62
     7
100
AcDbLine
 10
71.931527
 20
181.795794
 30
0.0
 11
71.931527
 21
181.844542
 31
0.0
  0
LINE
  5
199
100
AcDbEntity
  8
レイヤー_2
 62
     7
100
AcDbLine
 10
72.791767
 20
181.794244
 30
0.0
 11
72.791767
 21
181.843336
 31
0.0
  0
LINE
  5
198
100
AcDbEntity
  8
レイヤー_2
 62
     7
100
AcDbLine
 10
73.651663
 20
181.793382
 30
0.0
 11
73.651663
 21
181.841958
 31
0.0
  0
LINE
  5
197
100
AcDbEntity
  8
レイヤー_2
 62
     7
100
AcDbLine
 10
71.213224
 20
181.789593
 30
0.0
 11
71.213224
 21
181.855566
 31
0.0
  0
LINE
  5
196
100
AcDbEntity
  8
レイヤー_2
 62
     7
100
AcDbLine
 10
72.073465
 20
181.788215
 30
0.0
 11
72.073465
 21
181.854361
 31
0.0
  0
LINE
  5
195
100
AcDbEntity
  8
レイヤー_2
 62
     7
100
AcDbLine
 10
72.933016
 20
181.787354
 30
0.0
 11
72.933016
 21
181.852983
 31
0.0
  0
LINE
  5
194
100
AcDbEntity
  8
レイヤー_2
 62
     7
100
AcDbLine
 10
71.624224
 20
181.768405
 30
0.0
 11
71.624224
 21
181.817498
 31
0.0
  0
LINE
  5
193
100
AcDbEntity
  8
レイヤー_2
 62
     7
100
AcDbLine
 10
73.792912
 20
181.785631
 30
0.0
 11
73.792912
 21
181.851777
 31
0.0
  0
LINE
  5
192
100
AcDbEntity
  8
レイヤー_2
 62
     7
100
AcDbLine
 10
72.483431
 20
181.767027
 30
0.0
 11
72.483431
 21
181.81612
 31
0.0
  0
LINE
  5
191
100
AcDbEntity
  8
レイヤー_2
 62
     7
100
AcDbLine
 10
73.343671
 20
181.766166
 30
0.0
 11
73.343671
 21
181.814914
 31
0.0
  0
LINE
  5
190
100
AcDbEntity
  8
レイヤー_2
 62
     7
100
AcDbLine
 10
71.765473
 20
181.761171
 30
0.0
 11
71.765473
 21
181.827661
 31
0.0
  0
LINE
  5
18F
100
AcDbEntity
  8
レイヤー_2
 62
     7
100
AcDbLine
 10
72.625369
 20
181.76031
 30
0.0
 11
72.625369
 21
181.825939
 31
0.0
  0
LINE
  5
18E
100
AcDbEntity
  8
レイヤー_2
 62
     7
100
AcDbLine
 10
73.485265
 20
181.758587
 30
0.0
 11
73.485265
 21
181.824733
 31
0.0
  0
LINE
  5
18D
100
AcDbEntity
  8
レイヤー_2
 62
     7
100
AcDbLine
 10
71.316577
 20
181.741706
 30
0.0
 11
71.316577
 21
181.790799
 31
0.0
  0
LINE
  5
18C
100
AcDbEntity
  8
レイヤー_2
 62
     7
100
AcDbLine
 10
72.176128
 20
181.739983
 30
0.0
 11
72.176128
 21
181.789076
 31
0.0
  0
LINE
  5
18B
100
AcDbEntity
  8
レイヤー_2
 62
     7
100
AcDbLine
 10
73.03568
 20
181.739122
 30
0.0
 11
73.03568
 21
181.788215
 31
0.0
  0
LINE
  5
18A
100
AcDbEntity
  8
レイヤー_2
 62
     7
100
AcDbLine
 10
71.458171
 20
181.734127
 30
0.0
 11
71.458171
 21
181.800445
 31
0.0
  0
LINE
  5
189
100
AcDbEntity
  8
レイヤー_2
 62
     7
100
AcDbLine
 10
72.317722
 20
181.732749
 30
0.0
 11
72.317722
 21
181.798895
 31
0.0
  0
LINE
  5
188
100
AcDbEntity
  8
レイヤー_2
 62
     7
100
AcDbLine
 10
73.177962
 20
181.731543
 30
0.0
 11
73.177962
 21
181.797517
 31
0.0
  0
LINE
  5
187
100
AcDbEntity
  8
レイヤー_2
 62
     7
100
AcDbLine
 10
72.728722
 20
181.712078
 30
0.0
 11
72.728722
 21
181.761171
 31
0.0
  0
LINE
  5
186
100
AcDbEntity
  8
レイヤー_2
 62
     7
100
AcDbLine
 10
73.587929
 20
181.710356
 30
0.0
 11
73.587929
 21
181.759448
 31
0.0
  0
LINE
  5
185
100
AcDbEntity
  8
レイヤー_2
 62
     7
100
AcDbLine
 10
71.150179
 20
181.706911
 30
0.0
 11
71.150179
 21
181.773056
 31
0.0
  0
LINE
  5
184
100
AcDbEntity
  8
レイヤー_2
 62
     7
100
AcDbLine
 10
72.869626
 20
181.704499
 30
0.0
 11
72.869626
 21
181.770817
 31
0.0
  0
LINE
  5
183
100
AcDbEntity
  8
レイヤー_2
 62
     7
100
AcDbLine
 10
71.561179
 20
181.685723
 30
0.0
 11
71.561179
 21
181.735333
 31
0.0
  0
LINE
  5
182
100
AcDbEntity
  8
レイヤー_2
 62
     7
100
AcDbLine
 10
72.420386
 20
181.684862
 30
0.0
 11
72.420386
 21
181.734127
 31
0.0
  0
LINE
  5
181
100
AcDbEntity
  8
レイヤー_2
 62
     7
100
AcDbLine
 10
73.280626
 20
181.683312
 30
0.0
 11
73.280626
 21
181.732749
 31
0.0
  0
LINE
  5
180
100
AcDbEntity
  8
レイヤー_2
 62
     7
100
AcDbLine
 10
71.702083
 20
181.679005
 30
0.0
 11
71.702083
 21
181.745151
 31
0.0
  0
LINE
  5
17F
100
AcDbEntity
  8
レイヤー_2
 62
     7
100
AcDbLine
 10
72.562324
 20
181.677283
 30
0.0
 11
72.562324
 21
181.743429
 31
0.0
  0
LINE
  5
17E
100
AcDbEntity
  8
レイヤー_2
 62
     7
100
AcDbLine
 10
73.42222
 20
181.676421
 30
0.0
 11
73.42222
 21
181.742567
 31
0.0
  0
LINE
  5
17D
100
AcDbEntity
  8
レイヤー_2
 62
     7
100
AcDbLine
 10
72.113083
 20
181.657818
 30
0.0
 11
72.113083
 21
181.706911
 31
0.0
  0
LINE
  5
17C
100
AcDbEntity
  8
レイヤー_2
 62
     7
100
AcDbLine
 10
72.972635
 20
181.656612
 30
0.0
 11
72.972635
 21
181.705705
 31
0.0
  0
LINE
  5
17B
100
AcDbEntity
  8
レイヤー_2
 62
     7
100
AcDbLine
 10
71.395125
 20
181.651961
 30
0.0
 11
71.395125
 21
181.717935
 31
0.0
  0
LINE
  5
17A
100
AcDbEntity
  8
レイヤー_2
 62
     7
100
AcDbLine
 10
72.254677
 20
181.650583
 30
0.0
 11
72.254677
 21
181.716212
 31
0.0
  0
LINE
  5
179
100
AcDbEntity
  8
レイヤー_2
 62
     7
100
AcDbLine
 10
73.114917
 20
181.649377
 30
0.0
 11
73.114917
 21
181.715351
 31
0.0
  0
LINE
  5
178
100
AcDbEntity
  8
レイヤー_2
 62
     7
100
AcDbLine
 10
71.805436
 20
181.630774
 30
0.0
 11
71.805436
 21
181.679867
 31
0.0
  0
LINE
  5
177
100
AcDbEntity
  8
レイヤー_2
 62
     7
100
AcDbLine
 10
72.665332
 20
181.629568
 30
0.0
 11
72.665332
 21
181.678144
 31
0.0
  0
LINE
  5
176
100
AcDbEntity
  8
レイヤー_2
 62
     7
100
AcDbLine
 10
71.94703
 20
181.623539
 30
0.0
 11
71.94703
 21
181.689168
 31
0.0
  0
LINE
  5
175
100
AcDbEntity
  8
レイヤー_2
 62
     7
100
AcDbLine
 10
72.806581
 20
181.622333
 30
0.0
 11
72.806581
 21
181.688307
 31
0.0
  0
LINE
  5
174
100
AcDbEntity
  8
レイヤー_2
 62
     7
100
AcDbLine
 10
72.35734
 20
181.602352
 30
0.0
 11
72.35734
 21
181.6511
 31
0.0
  0
LINE
  5
173
100
AcDbEntity
  8
レイヤー_2
 62
     7
100
AcDbLine
 10
73.217581
 20
181.601146
 30
0.0
 11
73.217581
 21
181.650239
 31
0.0
  0
LINE
  5
172
100
AcDbEntity
  8
レイヤー_2
 62
     7
100
AcDbLine
 10
71.639038
 20
181.595978
 30
0.0
 11
71.639038
 21
181.662124
 31
0.0
  0
LINE
  5
171
100
AcDbEntity
  8
レイヤー_2
 62
     7
100
AcDbLine
 10
72.499278
 20
181.595289
 30
0.0
 11
72.499278
 21
181.661263
 31
0.0
  0
LINE
  5
170
100
AcDbEntity
  8
レイヤー_2
 62
     7
100
AcDbLine
 10
72.050038
 20
181.575308
 30
0.0
 11
72.050038
 21
181.624056
 31
0.0
  0
LINE
  5
16F
100
AcDbEntity
  8
レイヤー_2
 62
     7
100
AcDbLine
 10
72.909589
 20
181.574102
 30
0.0
 11
72.909589
 21
181.622678
 31
0.0
  0
LINE
  5
16E
100
AcDbEntity
  8
レイヤー_2
 62
     7
100
AcDbLine
 10
72.190942
 20
181.568073
 30
0.0
 11
72.190942
 21
181.634219
 31
0.0
  0
LINE
  5
16D
100
AcDbEntity
  8
レイヤー_2
 62
     7
100
AcDbLine
 10
72.601942
 20
181.546886
 30
0.0
 11
72.601942
 21
181.595634
 31
0.0
  0
LINE
  5
16C
100
AcDbEntity
  8
レイヤー_2
 62
     7
100
AcDbLine
 10
72.472407
 20
194.281681
 30
0.0
 11
69.335647
 21
194.281681
 31
0.0
  0
LINE
  5
16B
100
AcDbEntity
  8
レイヤー_2
 62
     7
100
AcDbLine
 10
75.460338
 20
194.281681
 30
0.0
 11
72.472407
 21
194.281681
 31
0.0
  0
LINE
  5
16A
100
AcDbEntity
  8
レイヤー_2
 62
     7
100
AcDbLine
 10
69.772485
 20
181.667636
 30
0.0
 11
69.77283
 21
181.680728
 31
0.0
  0
POLYLINE
  5
157
100
AcDbEntity
  8
レイヤー_2
 62
     7
100
AcDb2dPolyline
 66
     1
 10
0.0
 20
0.0
 30
0.0
  0
VERTEX
  5
158
100
AcDbEntity
  8
レイヤー_2
 62
     7
100
AcDbVertex
100
AcDb2dVertex
 10
75.006619
 20
181.590122
 30
0.0
  0
VERTEX
  5
159
100
AcDbEntity
  8
レイヤー_2
 62
     7
100
AcDbVertex
100
AcDb2dVertex
 10
74.646262
 20
181.830073
 30
0.0
  0
VERTEX
  5
15A
100
AcDbEntity
  8
レイヤー_2
 62
     7
100
AcDbVertex
100
AcDb2dVertex
 10
74.436111
 20
181.921195
 30
0.0
  0
VERTEX
  5
15B
100
AcDbEntity
  8
レイヤー_2
 62
     7
100
AcDbVertex
100
AcDb2dVertex
 10
74.169805
 20
182.003706
 30
0.0
  0
VERTEX
  5
15C
100
AcDbEntity
  8
レイヤー_2
 62
     7
100
AcDbVertex
100
AcDb2dVertex
 10
73.855268
 20
182.072263
 30
0.0
  0
VERTEX
  5
15D
100
AcDbEntity
  8
レイヤー_2
 62
     7
100
AcDbVertex
100
AcDb2dVertex
 10
73.501112
 20
182.127729
 30
0.0
  0
VERTEX
  5
15E
100
AcDbEntity
  8
レイヤー_2
 62
     7
100
AcDbVertex
100
AcDb2dVertex
 10
73.116984
 20
182.166659
 30
0.0
  0
VERTEX
  5
15F
100
AcDbEntity
  8
レイヤー_2
 62
     7
100
AcDbVertex
100
AcDb2dVertex
 10
72.71253
 20
182.188707
 30
0.0
  0
VERTEX
  5
160
100
AcDbEntity
  8
レイヤー_2
 62
     7
100
AcDbVertex
100
AcDb2dVertex
 10
72.300841
 20
182.193875
 30
0.0
  0
VERTEX
  5
161
100
AcDbEntity
  8
レイヤー_2
 62
     7
100
AcDbVertex
100
AcDb2dVertex
 10
71.89053
 20
182.180267
 30
0.0
  0
VERTEX
  5
162
100
AcDbEntity
  8
レイヤー_2
 62
     7
100
AcDbVertex
100
AcDb2dVertex
 10
71.494689
 20
182.150122
 30
0.0
  0
VERTEX
  5
163
100
AcDbEntity
  8
レイヤー_2
 62
     7
100
AcDbVertex
100
AcDb2dVertex
 10
71.122963
 20
182.103613
 30
0.0
  0
VERTEX
  5
164
100
AcDbEntity
  8
レイヤー_2
 62
     7
100
AcDbVertex
100
AcDb2dVertex
 10
70.786377
 20
182.042291
 30
0.0
  0
VERTEX
  5
165
100
AcDbEntity
  8
レイヤー_2
 62
     7
100
AcDbVertex
100
AcDb2dVertex
 10
70.493888
 20
181.966498
 30
0.0
  0
VERTEX
  5
166
100
AcDbEntity
  8
レイヤー_2
 62
     7
100
AcDbVertex
100
AcDb2dVertex
 10
70.253076
 20
181.879682
 30
0.0
  0
VERTEX
  5
167
100
AcDbEntity
  8
レイヤー_2
 62
     7
100
AcDbVertex
100
AcDb2dVertex
 10
69.772485
 20
181.667636
 30
0.0
  0
VERTEX
  5
168
100
AcDbEntity
  8
レイヤー_2
 62
     7
100
AcDbVertex
100
AcDb2dVertex
 10
70.053261
 20
181.771678
 30
0.0
  0
SEQEND
  5
169
100
AcDbEntity
  8
レイヤー_2
 62
     7
  0
POLYLINE
  5
147
100
AcDbEntity
  8
レイヤー_2
 62
     7
100
AcDb2dPolyline
 66
     1
 10
0.0
 20
0.0
 30
0.0
  0
VERTEX
  5
148
100
AcDbEntity
  8
レイヤー_2
 62
     7
100
AcDbVertex
100
AcDb2dVertex
 10
70.253421
 20
181.200309
 30
0.0
  0
VERTEX
  5
149
100
AcDbEntity
  8
レイヤー_2
 62
     7
100
AcDbVertex
100
AcDb2dVertex
 10
70.625491
 20
181.090583
 30
0.0
  0
VERTEX
  5
14A
100
AcDbEntity
  8
レイヤー_2
 62
     7
100
AcDbVertex
100
AcDb2dVertex
 10
70.940028
 20
181.021164
 30
0.0
  0
VERTEX
  5
14B
100
AcDbEntity
  8
レイヤー_2
 62
     7
100
AcDbVertex
100
AcDb2dVertex
 10
71.294529
 20
180.96656
 30
0.0
  0
VERTEX
  5
14C
100
AcDbEntity
  8
レイヤー_2
 62
     7
100
AcDbVertex
100
AcDb2dVertex
 10
71.678657
 20
180.92763
 30
0.0
  0
VERTEX
  5
14D
100
AcDbEntity
  8
レイヤー_2
 62
     7
100
AcDbVertex
100
AcDb2dVertex
 10
72.082077
 20
180.905237
 30
0.0
  0
VERTEX
  5
14E
100
AcDbEntity
  8
レイヤー_2
 62
     7
100
AcDbVertex
100
AcDb2dVertex
 10
72.495144
 20
180.900586
 30
0.0
  0
VERTEX
  5
14F
100
AcDbEntity
  8
レイヤー_2
 62
     7
100
AcDbVertex
100
AcDb2dVertex
 10
72.904766
 20
180.913161
 30
0.0
  0
VERTEX
  5
150
100
AcDbEntity
  8
レイヤー_2
 62
     7
100
AcDbVertex
100
AcDb2dVertex
 10
73.300608
 20
180.94365
 30
0.0
  0
VERTEX
  5
151
100
AcDbEntity
  8
レイヤー_2
 62
     7
100
AcDbVertex
100
AcDb2dVertex
 10
73.671989
 20
180.990331
 30
0.0
  0
VERTEX
  5
152
100
AcDbEntity
  8
レイヤー_2
 62
     7
100
AcDbVertex
100
AcDb2dVertex
 10
74.009264
 20
181.051998
 30
0.0
  0
VERTEX
  5
153
100
AcDbEntity
  8
レイヤー_2
 62
     7
100
AcDbVertex
100
AcDb2dVertex
 10
74.301408
 20
181.127445
 30
0.0
  0
VERTEX
  5
154
100
AcDbEntity
  8
レイヤー_2
 62
     7
100
AcDbVertex
100
AcDb2dVertex
 10
74.542565
 20
181.214262
 30
0.0
  0
VERTEX
  5
155
100
AcDbEntity
  8
レイヤー_2
 62
     7
100
AcDbVertex
100
AcDb2dVertex
 10
74.771319
 20
181.312447
 30
0.0
  0
SEQEND
  5
156
100
AcDbEntity
  8
レイヤー_2
 62
     7
  0
LINE
  5
146
100
AcDbEntity
  8
レイヤー_2
 62
     7
100
AcDbLine
 10
69.77283
 20
183.961726
 30
0.0
 11
69.77283
 21
183.854066
 31
0.0
  0
POLYLINE
  5
121
100
AcDbEntity
  8
レイヤー_2
 62
     7
100
AcDb2dPolyline
 66
     1
 10
0.0
 20
0.0
 30
0.0
  0
VERTEX
  5
122
100
AcDbEntity
  8
レイヤー_2
 62
     7
100
AcDbVertex
100
AcDb2dVertex
 10
74.201156
 20
181.363607
 30
0.0
  0
VERTEX
  5
123
100
AcDbEntity
  8
レイヤー_2
 62
     7
100
AcDbVertex
100
AcDb2dVertex
 10
74.039581
 20
181.281097
 30
0.0
  0
VERTEX
  5
124
100
AcDbEntity
  8
レイヤー_2
 62
     7
100
AcDbVertex
100
AcDb2dVertex
 10
73.822884
 20
181.207372
 30
0.0
  0
VERTEX
  5
125
100
AcDbEntity
  8
レイヤー_2
 62
     7
100
AcDbVertex
100
AcDb2dVertex
 10
73.557956
 20
181.145704
 30
0.0
  0
VERTEX
  5
126
100
AcDbEntity
  8
レイヤー_2
 62
     7
100
AcDbVertex
100
AcDb2dVertex
 10
73.253065
 20
181.097301
 30
0.0
  0
VERTEX
  5
127
100
AcDbEntity
  8
レイヤー_2
 62
     7
100
AcDbVertex
100
AcDb2dVertex
 10
72.918891
 20
181.063883
 30
0.0
  0
VERTEX
  5
128
100
AcDbEntity
  8
レイヤー_2
 62
     7
100
AcDbVertex
100
AcDb2dVertex
 10
72.567491
 20
181.047347
 30
0.0
  0
VERTEX
  5
129
100
AcDbEntity
  8
レイヤー_2
 62
     7
100
AcDbVertex
100
AcDb2dVertex
 10
72.209546
 20
181.047864
 30
0.0
  0
VERTEX
  5
12A
100
AcDbEntity
  8
レイヤー_2
 62
     7
100
AcDbVertex
100
AcDb2dVertex
 10
71.858146
 20
181.065262
 30
0.0
  0
VERTEX
  5
12B
100
AcDbEntity
  8
レイヤー_2
 62
     7
100
AcDbVertex
100
AcDb2dVertex
 10
71.525694
 20
181.099023
 30
0.0
  0
VERTEX
  5
12C
100
AcDbEntity
  8
レイヤー_2
 62
     7
100
AcDbVertex
100
AcDb2dVertex
 10
71.222871
 20
181.148116
 30
0.0
  0
VERTEX
  5
12D
100
AcDbEntity
  8
レイヤー_2
 62
     7
100
AcDbVertex
100
AcDb2dVertex
 10
70.958976
 20
181.210817
 30
0.0
  0
VERTEX
  5
12E
100
AcDbEntity
  8
レイヤー_2
 62
     7
100
AcDbVertex
100
AcDb2dVertex
 10
70.745036
 20
181.285403
 30
0.0
  0
VERTEX
  5
12F
100
AcDbEntity
  8
レイヤー_2
 62
     7
100
AcDbVertex
100
AcDb2dVertex
 10
70.587595
 20
181.367913
 30
0.0
  0
VERTEX
  5
130
100
AcDbEntity
  8
レイヤー_2
 62
     7
100
AcDbVertex
100
AcDb2dVertex
 10
70.490788
 20
181.457658
 30
0.0
  0
VERTEX
  5
131
100
AcDbEntity
  8
レイヤー_2
 62
     7
100
AcDbVertex
100
AcDb2dVertex
 10
70.460471
 20
181.54947
 30
0.0
  0
VERTEX
  5
132
100
AcDbEntity
  8
レイヤー_2
 62
     7
100
AcDbVertex
100
AcDb2dVertex
 10
70.494577
 20
181.641798
 30
0.0
  0
VERTEX
  5
133
100
AcDbEntity
  8
レイヤー_2
 62
     7
100
AcDbVertex
100
AcDb2dVertex
 10
70.594485
 20
181.730682
 30
0.0
  0
VERTEX
  5
134
100
AcDbEntity
  8
レイヤー_2
 62
     7
100
AcDbVertex
100
AcDb2dVertex
 10
70.755027
 20
181.813192
 30
0.0
  0
VERTEX
  5
135
100
AcDbEntity
  8
レイヤー_2
 62
     7
100
AcDbVertex
100
AcDb2dVertex
 10
70.971723
 20
181.886917
 30
0.0
  0
VERTEX
  5
136
100
AcDbEntity
  8
レイヤー_2
 62
     7
100
AcDbVertex
100
AcDb2dVertex
 10
71.237684
 20
181.948756
 30
0.0
  0
VERTEX
  5
137
100
AcDbEntity
  8
レイヤー_2
 62
     7
100
AcDbVertex
100
AcDb2dVertex
 10
71.542575
 20
181.996988
 30
0.0
  0
VERTEX
  5
138
100
AcDbEntity
  8
レイヤー_2
 62
     7
100
AcDbVertex
100
AcDb2dVertex
 10
71.876061
 20
182.029888
 30
0.0
  0
VERTEX
  5
139
100
AcDbEntity
  8
レイヤー_2
 62
     7
100
AcDbVertex
100
AcDb2dVertex
 10
72.228838
 20
182.046425
 30
0.0
  0
VERTEX
  5
13A
100
AcDbEntity
  8
レイヤー_2
 62
     7
100
AcDbVertex
100
AcDb2dVertex
 10
72.586095
 20
182.046425
 30
0.0
  0
VERTEX
  5
13B
100
AcDbEntity
  8
レイヤー_2
 62
     7
100
AcDbVertex
100
AcDb2dVertex
 10
72.936461
 20
182.028338
 30
0.0
  0
VERTEX
  5
13C
100
AcDbEntity
  8
レイヤー_2
 62
     7
100
AcDbVertex
100
AcDb2dVertex
 10
73.269946
 20
181.995265
 30
0.0
  0
VERTEX
  5
13D
100
AcDbEntity
  8
レイヤー_2
 62
     7
100
AcDbVertex
100
AcDb2dVertex
 10
73.573115
 20
181.945311
 30
0.0
  0
VERTEX
  5
13E
100
AcDbEntity
  8
レイヤー_2
 62
     7
100
AcDbVertex
100
AcDb2dVertex
 10
73.835286
 20
181.883472
 30
0.0
  0
VERTEX
  5
13F
100
AcDbEntity
  8
レイヤー_2
 62
     7
100
AcDbVertex
100
AcDb2dVertex
 10
74.049571
 20
181.809058
 30
0.0
  0
VERTEX
  5
140
100
AcDbEntity
  8
レイヤー_2
 62
     7
100
AcDbVertex
100
AcDb2dVertex
 10
74.207701
 20
181.725514
 30
0.0
  0
VERTEX
  5
141
100
AcDbEntity
  8
レイヤー_2
 62
     7
100
AcDbVertex
100
AcDb2dVertex
 10
74.303475
 20
181.636631
 30
0.0
  0
VERTEX
  5
142
100
AcDbEntity
  8
レイヤー_2
 62
     7
100
AcDbVertex
100
AcDb2dVertex
 10
74.33517
 20
181.544474
 30
0.0
  0
VERTEX
  5
143
100
AcDbEntity
  8
レイヤー_2
 62
     7
100
AcDbVertex
100
AcDb2dVertex
 10
74.30003
 20
181.45249
 30
0.0
  0
VERTEX
  5
144
100
AcDbEntity
  8
レイヤー_2
 62
     7
100
AcDbVertex
100
AcDb2dVertex
 10
74.201156
 20
181.363607
 30
0.0
  0
SEQEND
  5
145
100
AcDbEntity
  8
レイヤー_2
 62
     7
  0
POLYLINE
  5
114
100
AcDbEntity
  8
レイヤー_2
 62
     7
100
AcDb2dPolyline
 66
     1
 10
0.0
 20
0.0
 30
0.0
  0
VERTEX
  5
115
100
AcDbEntity
  8
レイヤー_2
 62
     7
100
AcDbVertex
100
AcDb2dVertex
 10
72.397648
 20
184.641098
 30
0.0
  0
VERTEX
  5
116
100
AcDbEntity
  8
レイヤー_2
 62
     7
100
AcDbVertex
100
AcDb2dVertex
 10
72.818983
 20
184.632658
 30
0.0
  0
VERTEX
  5
117
100
AcDbEntity
  8
レイヤー_2
 62
     7
100
AcDbVertex
100
AcDb2dVertex
 10
73.228605
 20
184.606303
 30
0.0
  0
VERTEX
  5
118
100
AcDbEntity
  8
レイヤー_2
 62
     7
100
AcDbVertex
100
AcDb2dVertex
 10
73.617556
 20
184.563239
 30
0.0
  0
VERTEX
  5
119
100
AcDbEntity
  8
レイヤー_2
 62
     7
100
AcDbVertex
100
AcDb2dVertex
 10
73.974468
 20
184.504845
 30
0.0
  0
VERTEX
  5
11A
100
AcDbEntity
  8
レイヤー_2
 62
     7
100
AcDbVertex
100
AcDb2dVertex
 10
74.290728
 20
184.432326
 30
0.0
  0
VERTEX
  5
11B
100
AcDbEntity
  8
レイヤー_2
 62
     7
100
AcDbVertex
100
AcDb2dVertex
 10
74.557723
 20
184.347748
 30
0.0
  0
VERTEX
  5
11C
100
AcDbEntity
  8
レイヤー_2
 62
     7
100
AcDbVertex
100
AcDb2dVertex
 10
74.769252
 20
184.252836
 30
0.0
  0
VERTEX
  5
11D
100
AcDbEntity
  8
レイヤー_2
 62
     7
100
AcDbVertex
100
AcDb2dVertex
 10
74.919458
 20
184.150861
 30
0.0
  0
VERTEX
  5
11E
100
AcDbEntity
  8
レイヤー_2
 62
     7
100
AcDbVertex
100
AcDb2dVertex
 10
75.003174
 20
184.044236
 30
0.0
  0
VERTEX
  5
11F
100
AcDbEntity
  8
レイヤー_2
 62
     7
100
AcDbVertex
100
AcDb2dVertex
 10
75.022811
 20
183.961726
 30
0.0
  0
SEQEND
  5
120
100
AcDbEntity
  8
レイヤー_2
 62
     7
  0
POLYLINE
  5
107
100
AcDbEntity
  8
レイヤー_2
 62
     7
100
AcDb2dPolyline
 66
     1
 10
0.0
 20
0.0
 30
0.0
  0
VERTEX
  5
108
100
AcDbEntity
  8
レイヤー_2
 62
     7
100
AcDbVertex
100
AcDb2dVertex
 10
69.772485
 20
183.961726
 30
0.0
  0
VERTEX
  5
109
100
AcDbEntity
  8
レイヤー_2
 62
     7
100
AcDbVertex
100
AcDb2dVertex
 10
69.791433
 20
184.044236
 30
0.0
  0
VERTEX
  5
10A
100
AcDbEntity
  8
レイヤー_2
 62
     7
100
AcDbVertex
100
AcDb2dVertex
 10
69.876527
 20
184.150861
 30
0.0
  0
VERTEX
  5
10B
100
AcDbEntity
  8
レイヤー_2
 62
     7
100
AcDbVertex
100
AcDb2dVertex
 10
70.026044
 20
184.252836
 30
0.0
  0
VERTEX
  5
10C
100
AcDbEntity
  8
レイヤー_2
 62
     7
100
AcDbVertex
100
AcDb2dVertex
 10
70.236884
 20
184.347748
 30
0.0
  0
VERTEX
  5
10D
100
AcDbEntity
  8
レイヤー_2
 62
     7
100
AcDbVertex
100
AcDb2dVertex
 10
70.504568
 20
184.432326
 30
0.0
  0
VERTEX
  5
10E
100
AcDbEntity
  8
レイヤー_2
 62
     7
100
AcDbVertex
100
AcDb2dVertex
 10
70.820828
 20
184.504845
 30
0.0
  0
VERTEX
  5
10F
100
AcDbEntity
  8
レイヤー_2
 62
     7
100
AcDbVertex
100
AcDb2dVertex
 10
71.17774
 20
184.563239
 30
0.0
  0
VERTEX
  5
110
100
AcDbEntity
  8
レイヤー_2
 62
     7
100
AcDbVertex
100
AcDb2dVertex
 10
71.566347
 20
184.606303
 30
0.0
  0
VERTEX
  5
111
100
AcDbEntity
  8
レイヤー_2
 62
     7
100
AcDbVertex
100
AcDb2dVertex
 10
71.976657
 20
184.632658
 30
0.0
  0
VERTEX
  5
112
100
AcDbEntity
  8
レイヤー_2
 62
     7
100
AcDbVertex
100
AcDb2dVertex
 10
72.397648
 20
184.641098
 30
0.0
  0
SEQEND
  5
113
100
AcDbEntity
  8
レイヤー_2
 62
     7
  0
SPLINE
  5
106
100
AcDbEntity
  8
レイヤー_2
 62
     7
100
AcDbSpline
210
0.0
220
0.0
230
1.0
 70
     8
 71
     3
 72
    11
 73
     7
 74
     0
 42
0.00000001
 43
0.00000001
 40
0.0
 40
0.0
 40
0.0
 40
0.0
 40
1.0
 40
1.0
 40
1.0
 40
2.0
 40
2.0
 40
2.0
 40
2.0
 10
75.022810872395823
 20
188.59382866753469
 30
0.0
 10
75.022810872395823
 20
190.04369710286457
 30
0.0
 10
73.847688802083326
 20
191.21933593749998
 30
0.0
 10
72.397648111979166
 20
191.21933593749998
 30
0.0
 10
70.948296440972214
 20
191.21933593749998
 30
0.0
 10
69.772485351562494
 20
190.04369710286457
 30
0.0
 10
69.772485351562494
 20
188.59382866753469
 30
0.0
  0
LINE
  5
105
100
AcDbEntity
  8
レイヤー_2
 62
     7
100
AcDbLine
 10
72.397648
 20
193.594557
 30
0.0
 11
75.948164
 21
193.594557
 31
0.0
  0
LINE
  5
104
100
AcDbEntity
  8
レイヤー_2
 62
     7
100
AcDbLine
 10
68.847822
 20
193.594557
 30
0.0
 11
72.397648
 21
193.594557
 31
0.0
  0
POLYLINE
  5
EF
100
AcDbEntity
  8
レイヤー_2
 62
     7
100
AcDb2dPolyline
 66
     1
 10
0.0
 20
0.0
 30
0.0
  0
VERTEX
  5
F0
100
AcDbEntity
  8
レイヤー_2
 62
     7
100
AcDbVertex
100
AcDb2dVertex
 10
78.514071
 20
196.656902
 30
0.0
  0
VERTEX
  5
F1
100
AcDbEntity
  8
レイヤー_2
 62
     7
100
AcDbVertex
100
AcDb2dVertex
 10
78.645673
 20
196.66586
 30
0.0
  0
VERTEX
  5
F2
100
AcDbEntity
  8
レイヤー_2
 62
     7
100
AcDbVertex
100
AcDb2dVertex
 10
78.864781
 20
196.726493
 30
0.0
  0
VERTEX
  5
F3
100
AcDbEntity
  8
レイヤー_2
 62
     7
100
AcDbVertex
100
AcDb2dVertex
 10
79.069765
 20
196.838114
 30
0.0
  0
VERTEX
  5
F4
100
AcDbEntity
  8
レイヤー_2
 62
     7
100
AcDbVertex
100
AcDb2dVertex
 10
79.256144
 20
196.998656
 30
0.0
  0
VERTEX
  5
F5
100
AcDbEntity
  8
レイヤー_2
 62
     7
100
AcDbVertex
100
AcDb2dVertex
 10
79.417719
 20
197.204328
 30
0.0
  0
VERTEX
  5
F6
100
AcDbEntity
  8
レイヤー_2
 62
     7
100
AcDbVertex
100
AcDb2dVertex
 10
79.548977
 20
197.448241
 30
0.0
  0
VERTEX
  5
F7
100
AcDbEntity
  8
レイヤー_2
 62
     7
100
AcDbVertex
100
AcDb2dVertex
 10
79.644751
 20
197.722126
 30
0.0
  0
VERTEX
  5
F8
100
AcDbEntity
  8
レイヤー_2
 62
     7
100
AcDbVertex
100
AcDb2dVertex
 10
79.701251
 20
198.014615
 30
0.0
  0
VERTEX
  5
F9
100
AcDbEntity
  8
レイヤー_2
 62
     7
100
AcDbVertex
100
AcDb2dVertex
 10
79.717442
 20
198.316922
 30
0.0
  0
VERTEX
  5
FA
100
AcDbEntity
  8
レイヤー_2
 62
     7
100
AcDbVertex
100
AcDb2dVertex
 10
79.691949
 20
198.618195
 30
0.0
  0
VERTEX
  5
FB
100
AcDbEntity
  8
レイヤー_2
 62
     7
100
AcDbVertex
100
AcDb2dVertex
 10
79.625458
 20
198.909134
 30
0.0
  0
VERTEX
  5
FC
100
AcDbEntity
  8
レイヤー_2
 62
     7
100
AcDbVertex
100
AcDb2dVertex
 10
79.519694
 20
199.178712
 30
0.0
  0
VERTEX
  5
FD
100
AcDbEntity
  8
レイヤー_2
 62
     7
100
AcDbVertex
100
AcDb2dVertex
 10
79.377067
 20
199.417457
 30
0.0
  0
VERTEX
  5
FE
100
AcDbEntity
  8
レイヤー_2
 62
     7
100
AcDbVertex
100
AcDb2dVertex
 10
79.202745
 20
199.617273
 30
0.0
  0
VERTEX
  5
FF
100
AcDbEntity
  8
レイヤー_2
 62
     7
100
AcDbVertex
100
AcDb2dVertex
 10
78.999829
 20
199.769718
 30
0.0
  0
VERTEX
  5
100
100
AcDbEntity
  8
レイヤー_2
 62
     7
100
AcDbVertex
100
AcDb2dVertex
 10
78.780377
 20
199.867042
 30
0.0
  0
VERTEX
  5
101
100
AcDbEntity
  8
レイヤー_2
 62
     7
100
AcDbVertex
100
AcDb2dVertex
 10
78.553
 20
199.905627
 30
0.0
  0
VERTEX
  5
102
100
AcDbEntity
  8
レイヤー_2
 62
     7
100
AcDbVertex
100
AcDb2dVertex
 10
78.494089
 20
199.900977
 30
0.0
  0
SEQEND
  5
103
100
AcDbEntity
  8
レイヤー_2
 62
     7
  0
POLYLINE
  5
DA
100
AcDbEntity
  8
レイヤー_2
 62
     7
100
AcDb2dPolyline
 66
     1
 10
0.0
 20
0.0
 30
0.0
  0
VERTEX
  5
DB
100
AcDbEntity
  8
レイヤー_2
 62
     7
100
AcDbVertex
100
AcDb2dVertex
 10
66.383889
 20
199.902699
 30
0.0
  0
VERTEX
  5
DC
100
AcDbEntity
  8
レイヤー_2
 62
     7
100
AcDbVertex
100
AcDb2dVertex
 10
66.34806
 20
199.904766
 30
0.0
  0
VERTEX
  5
DD
100
AcDbEntity
  8
レイヤー_2
 62
     7
100
AcDbVertex
100
AcDb2dVertex
 10
66.125507
 20
199.863253
 30
0.0
  0
VERTEX
  5
DE
100
AcDbEntity
  8
レイヤー_2
 62
     7
100
AcDbVertex
100
AcDb2dVertex
 10
65.915012
 20
199.768513
 30
0.0
  0
VERTEX
  5
DF
100
AcDbEntity
  8
レイヤー_2
 62
     7
100
AcDbVertex
100
AcDb2dVertex
 10
65.722431
 20
199.624163
 30
0.0
  0
VERTEX
  5
E0
100
AcDbEntity
  8
レイヤー_2
 62
     7
100
AcDbVertex
100
AcDb2dVertex
 10
65.551554
 20
199.432788
 30
0.0
  0
VERTEX
  5
E1
100
AcDbEntity
  8
レイヤー_2
 62
     7
100
AcDbVertex
100
AcDb2dVertex
 10
65.409616
 20
199.200761
 30
0.0
  0
VERTEX
  5
E2
100
AcDbEntity
  8
レイヤー_2
 62
     7
100
AcDbVertex
100
AcDb2dVertex
 10
65.30144
 20
198.936178
 30
0.0
  0
VERTEX
  5
E3
100
AcDbEntity
  8
レイヤー_2
 62
     7
100
AcDbVertex
100
AcDb2dVertex
 10
65.23185
 20
198.648684
 30
0.0
  0
VERTEX
  5
E4
100
AcDbEntity
  8
レイヤー_2
 62
     7
100
AcDbVertex
100
AcDb2dVertex
 10
65.201533
 20
198.348617
 30
0.0
  0
VERTEX
  5
E5
100
AcDbEntity
  8
レイヤー_2
 62
     7
100
AcDbVertex
100
AcDb2dVertex
 10
65.213246
 20
198.045965
 30
0.0
  0
VERTEX
  5
E6
100
AcDbEntity
  8
レイヤー_2
 62
     7
100
AcDbVertex
100
AcDb2dVertex
 10
65.265611
 20
197.750376
 30
0.0
  0
VERTEX
  5
E7
100
AcDbEntity
  8
レイヤー_2
 62
     7
100
AcDbVertex
100
AcDb2dVertex
 10
65.35794
 20
197.473218
 30
0.0
  0
VERTEX
  5
E8
100
AcDbEntity
  8
レイヤー_2
 62
     7
100
AcDbVertex
100
AcDb2dVertex
 10
65.488854
 20
197.222587
 30
0.0
  0
VERTEX
  5
E9
100
AcDbEntity
  8
レイヤー_2
 62
     7
100
AcDbVertex
100
AcDb2dVertex
 10
65.653874
 20
197.007958
 30
0.0
  0
VERTEX
  5
EA
100
AcDbEntity
  8
レイヤー_2
 62
     7
100
AcDbVertex
100
AcDb2dVertex
 10
65.847488
 20
196.838976
 30
0.0
  0
VERTEX
  5
EB
100
AcDbEntity
  8
レイヤー_2
 62
     7
100
AcDbVertex
100
AcDb2dVertex
 10
66.062462
 20
196.723048
 30
0.0
  0
VERTEX
  5
EC
100
AcDbEntity
  8
レイヤー_2
 62
     7
100
AcDbVertex
100
AcDb2dVertex
 10
66.28846
 20
196.664137
 30
0.0
  0
VERTEX
  5
ED
100
AcDbEntity
  8
レイヤー_2
 62
     7
100
AcDbVertex
100
AcDb2dVertex
 10
66.427642
 20
196.663793
 30
0.0
  0
SEQEND
  5
EE
100
AcDbEntity
  8
レイヤー_2
 62
     7
  0
LINE
  5
D9
100
AcDbEntity
  8
レイヤー_2
 62
     7
100
AcDbLine
 10
73.698172
 20
196.656902
 30
0.0
 11
78.514071
 21
196.656902
 31
0.0
  0
LINE
  5
D8
100
AcDbEntity
  8
レイヤー_2
 62
     7
100
AcDbLine
 10
78.514071
 20
199.906489
 30
0.0
 11
72.459315
 21
199.906489
 31
0.0
  0
LINE
  5
D7
100
AcDbEntity
  8
レイヤー_2
 62
     7
100
AcDbLine
 10
66.40456
 20
196.656902
 30
0.0
 11
71.220459
 21
196.656902
 31
0.0
  0
LINE
  5
D6
100
AcDbEntity
  8
レイヤー_2
 62
     7
100
AcDbLine
 10
72.459315
 20
199.906489
 30
0.0
 11
66.40456
 21
199.906489
 31
0.0
  0
LINE
  5
D5
100
AcDbEntity
  8
レイヤー_2
 62
     7
100
AcDbLine
 10
70.823584
 20
196.656902
 30
0.0
 11
70.84391
 21
194.281681
 31
0.0
  0
LINE
  5
D4
100
AcDbEntity
  8
レイヤー_2
 62
     7
100
AcDbLine
 10
74.074376
 20
194.281681
 30
0.0
 11
74.095047
 21
196.656902
 31
0.0
  0
POLYLINE
  5
CF
100
AcDbEntity
  8
レイヤー_2
 62
     7
100
AcDb2dPolyline
 66
     1
 10
0.0
 20
0.0
 30
0.0
  0
VERTEX
  5
D0
100
AcDbEntity
  8
レイヤー_2
 62
     7
100
AcDbVertex
100
AcDb2dVertex
 10
71.220803
 20
196.663793
 30
0.0
  0
VERTEX
  5
D1
100
AcDbEntity
  8
レイヤー_2
 62
     7
100
AcDbVertex
100
AcDb2dVertex
 10
71.258355
 20
196.657764
 30
0.0
  0
VERTEX
  5
D2
100
AcDbEntity
  8
レイヤー_2
 62
     7
100
AcDbVertex
100
AcDb2dVertex
 10
71.267312
 20
196.659486
 30
0.0
  0
SEQEND
  5
D3
100
AcDbEntity
  8
レイヤー_2
 62
     7
  0
POLYLINE
  5
C4
100
AcDbEntity
  8
レイヤー_2
 62
     7
100
AcDb2dPolyline
 66
     1
 10
0.0
 20
0.0
 30
0.0
  0
VERTEX
  5
C5
100
AcDbEntity
  8
レイヤー_2
 62
     7
100
AcDbVertex
100
AcDb2dVertex
 10
72.521672
 20
197.142144
 30
0.0
  0
VERTEX
  5
C6
100
AcDbEntity
  8
レイヤー_2
 62
     7
100
AcDbVertex
100
AcDb2dVertex
 10
72.507547
 20
197.148001
 30
0.0
  0
VERTEX
  5
C7
100
AcDbEntity
  8
レイヤー_2
 62
     7
100
AcDbVertex
100
AcDb2dVertex
 10
72.49101
 20
197.152307
 30
0.0
  0
VERTEX
  5
C8
100
AcDbEntity
  8
レイヤー_2
 62
     7
100
AcDbVertex
100
AcDb2dVertex
 10
72.475507
 20
197.155235
 30
0.0
  0
VERTEX
  5
C9
100
AcDbEntity
  8
レイヤー_2
 62
     7
100
AcDbVertex
100
AcDb2dVertex
 10
72.459315
 20
197.156097
 30
0.0
  0
VERTEX
  5
CA
100
AcDbEntity
  8
レイヤー_2
 62
     7
100
AcDbVertex
100
AcDb2dVertex
 10
72.442779
 20
197.155235
 30
0.0
  0
VERTEX
  5
CB
100
AcDbEntity
  8
レイヤー_2
 62
     7
100
AcDbVertex
100
AcDb2dVertex
 10
72.426242
 20
197.152307
 30
0.0
  0
VERTEX
  5
CC
100
AcDbEntity
  8
レイヤー_2
 62
     7
100
AcDbVertex
100
AcDb2dVertex
 10
72.411084
 20
197.148001
 30
0.0
  0
VERTEX
  5
CD
100
AcDbEntity
  8
レイヤー_2
 62
     7
100
AcDbVertex
100
AcDb2dVertex
 10
72.395926
 20
197.142144
 30
0.0
  0
SEQEND
  5
CE
100
AcDbEntity
  8
レイヤー_2
 62
     7
  0
POLYLINE
  5
AF
100
AcDbEntity
  8
レイヤー_2
 62
     7
100
AcDb2dPolyline
 66
     1
 10
0.0
 20
0.0
 30
0.0
  0
VERTEX
  5
B0
100
AcDbEntity
  8
レイヤー_2
 62
     7
100
AcDbVertex
100
AcDb2dVertex
 10
78.514071
 20
196.656902
 30
0.0
  0
VERTEX
  5
B1
100
AcDbEntity
  8
レイヤー_2
 62
     7
100
AcDbVertex
100
AcDb2dVertex
 10
78.308743
 20
196.682741
 30
0.0
  0
VERTEX
  5
B2
100
AcDbEntity
  8
レイヤー_2
 62
     7
100
AcDbVertex
100
AcDb2dVertex
 10
78.109616
 20
196.760255
 30
0.0
  0
VERTEX
  5
B3
100
AcDbEntity
  8
レイヤー_2
 62
     7
100
AcDbVertex
100
AcDb2dVertex
 10
77.924615
 20
196.886346
 30
0.0
  0
VERTEX
  5
B4
100
AcDbEntity
  8
レイヤー_2
 62
     7
100
AcDbVertex
100
AcDb2dVertex
 10
77.757872
 20
197.057912
 30
0.0
  0
VERTEX
  5
B5
100
AcDbEntity
  8
レイヤー_2
 62
     7
100
AcDbVertex
100
AcDb2dVertex
 10
77.615245
 20
197.268235
 30
0.0
  0
VERTEX
  5
B6
100
AcDbEntity
  8
レイヤー_2
 62
     7
100
AcDbVertex
100
AcDb2dVertex
 10
77.501902
 20
197.511631
 30
0.0
  0
VERTEX
  5
B7
100
AcDbEntity
  8
レイヤー_2
 62
     7
100
AcDbVertex
100
AcDb2dVertex
 10
77.420942
 20
197.779659
 30
0.0
  0
VERTEX
  5
B8
100
AcDbEntity
  8
レイヤー_2
 62
     7
100
AcDbVertex
100
AcDb2dVertex
 10
77.375122
 20
198.063707
 30
0.0
  0
VERTEX
  5
B9
100
AcDbEntity
  8
レイヤー_2
 62
     7
100
AcDbVertex
100
AcDb2dVertex
 10
77.36582
 20
198.354473
 30
0.0
  0
VERTEX
  5
BA
100
AcDbEntity
  8
レイヤー_2
 62
     7
100
AcDbVertex
100
AcDb2dVertex
 10
77.393726
 20
198.642828
 30
0.0
  0
VERTEX
  5
BB
100
AcDbEntity
  8
レイヤー_2
 62
     7
100
AcDbVertex
100
AcDb2dVertex
 10
77.456771
 20
198.920158
 30
0.0
  0
VERTEX
  5
BC
100
AcDbEntity
  8
レイヤー_2
 62
     7
100
AcDbVertex
100
AcDb2dVertex
 10
77.554612
 20
199.177162
 30
0.0
  0
VERTEX
  5
BD
100
AcDbEntity
  8
レイヤー_2
 62
     7
100
AcDbVertex
100
AcDb2dVertex
 10
77.682769
 20
199.404366
 30
0.0
  0
VERTEX
  5
BE
100
AcDbEntity
  8
レイヤー_2
 62
     7
100
AcDbVertex
100
AcDb2dVertex
 10
77.838143
 20
199.596258
 30
0.0
  0
VERTEX
  5
BF
100
AcDbEntity
  8
レイヤー_2
 62
     7
100
AcDbVertex
100
AcDb2dVertex
 10
78.015221
 20
199.745603
 30
0.0
  0
VERTEX
  5
C0
100
AcDbEntity
  8
レイヤー_2
 62
     7
100
AcDbVertex
100
AcDb2dVertex
 10
78.207802
 20
199.848094
 30
0.0
  0
VERTEX
  5
C1
100
AcDbEntity
  8
レイヤー_2
 62
     7
100
AcDbVertex
100
AcDb2dVertex
 10
78.410718
 20
199.900632
 30
0.0
  0
VERTEX
  5
C2
100
AcDbEntity
  8
レイヤー_2
 62
     7
100
AcDbVertex
100
AcDb2dVertex
 10
78.495467
 20
199.906489
 30
0.0
  0
SEQEND
  5
C3
100
AcDbEntity
  8
レイヤー_2
 62
     7
  0
POLYLINE
  5
A3
100
AcDbEntity
  8
レイヤー_2
 62
     7
100
AcDb2dPolyline
 66
     1
 10
0.0
 20
0.0
 30
0.0
  0
VERTEX
  5
A4
100
AcDbEntity
  8
レイヤー_2
 62
     7
100
AcDbVertex
100
AcDb2dVertex
 10
67.553499
 20
198.281782
 30
0.0
  0
VERTEX
  5
A5
100
AcDbEntity
  8
レイヤー_2
 62
     7
100
AcDbVertex
100
AcDb2dVertex
 10
67.53524
 20
197.99136
 30
0.0
  0
VERTEX
  5
A6
100
AcDbEntity
  8
レイヤー_2
 62
     7
100
AcDbVertex
100
AcDb2dVertex
 10
67.480463
 20
197.711102
 30
0.0
  0
VERTEX
  5
A7
100
AcDbEntity
  8
レイヤー_2
 62
     7
100
AcDbVertex
100
AcDb2dVertex
 10
67.390891
 20
197.448241
 30
0.0
  0
VERTEX
  5
A8
100
AcDbEntity
  8
レイヤー_2
 62
     7
100
AcDbVertex
100
AcDb2dVertex
 10
67.269623
 20
197.211907
 30
0.0
  0
VERTEX
  5
A9
100
AcDbEntity
  8
レイヤー_2
 62
     7
100
AcDbVertex
100
AcDb2dVertex
 10
67.120795
 20
197.01123
 30
0.0
  0
VERTEX
  5
AA
100
AcDbEntity
  8
レイヤー_2
 62
     7
100
AcDbVertex
100
AcDb2dVertex
 10
66.94923
 20
196.850861
 30
0.0
  0
VERTEX
  5
AB
100
AcDbEntity
  8
レイヤー_2
 62
     7
100
AcDbVertex
100
AcDb2dVertex
 10
66.759749
 20
196.736484
 30
0.0
  0
VERTEX
  5
AC
100
AcDbEntity
  8
レイヤー_2
 62
     7
100
AcDbVertex
100
AcDb2dVertex
 10
66.558556
 20
196.671372
 30
0.0
  0
VERTEX
  5
AD
100
AcDbEntity
  8
レイヤー_2
 62
     7
100
AcDbVertex
100
AcDb2dVertex
 10
66.426609
 20
196.656902
 30
0.0
  0
SEQEND
  5
AE
100
AcDbEntity
  8
レイヤー_2
 62
     7
  0
POLYLINE
  5
97
100
AcDbEntity
  8
レイヤー_2
 62
     7
100
AcDb2dPolyline
 66
     1
 10
0.0
 20
0.0
 30
0.0
  0
VERTEX
  5
98
100
AcDbEntity
  8
レイヤー_2
 62
     7
100
AcDbVertex
100
AcDb2dVertex
 10
66.385612
 20
199.906489
 30
0.0
  0
VERTEX
  5
99
100
AcDbEntity
  8
レイヤー_2
 62
     7
100
AcDbVertex
100
AcDb2dVertex
 10
66.558556
 20
199.891675
 30
0.0
  0
VERTEX
  5
9A
100
AcDbEntity
  8
レイヤー_2
 62
     7
100
AcDbVertex
100
AcDb2dVertex
 10
66.759749
 20
199.827252
 30
0.0
  0
VERTEX
  5
9B
100
AcDbEntity
  8
レイヤー_2
 62
     7
100
AcDbVertex
100
AcDb2dVertex
 10
66.94923
 20
199.712185
 30
0.0
  0
VERTEX
  5
9C
100
AcDbEntity
  8
レイヤー_2
 62
     7
100
AcDbVertex
100
AcDb2dVertex
 10
67.120795
 20
199.552161
 30
0.0
  0
VERTEX
  5
9D
100
AcDbEntity
  8
レイヤー_2
 62
     7
100
AcDbVertex
100
AcDb2dVertex
 10
67.269623
 20
199.351139
 30
0.0
  0
VERTEX
  5
9E
100
AcDbEntity
  8
レイヤー_2
 62
     7
100
AcDbVertex
100
AcDb2dVertex
 10
67.390891
 20
199.115323
 30
0.0
  0
VERTEX
  5
9F
100
AcDbEntity
  8
レイヤー_2
 62
     7
100
AcDbVertex
100
AcDb2dVertex
 10
67.480463
 20
198.853151
 30
0.0
  0
VERTEX
  5
A0
100
AcDbEntity
  8
レイヤー_2
 62
     7
100
AcDbVertex
100
AcDb2dVertex
 10
67.53524
 20
198.571686
 30
0.0
  0
VERTEX
  5
A1
100
AcDbEntity
  8
レイヤー_2
 62
     7
100
AcDbVertex
100
AcDb2dVertex
 10
67.553499
 20
198.281782
 30
0.0
  0
SEQEND
  5
A2
100
AcDbEntity
  8
レイヤー_2
 62
     7
  0
POLYLINE
  5
91
100
AcDbEntity
  8
レイヤー_2
 62
     7
100
AcDb2dPolyline
 66
     1
 10
0.0
 20
0.0
 30
0.0
  0
VERTEX
  5
92
100
AcDbEntity
  8
レイヤー_2
 62
     7
100
AcDbVertex
100
AcDb2dVertex
 10
72.521672
 20
197.142144
 30
0.0
  0
VERTEX
  5
93
100
AcDbEntity
  8
レイヤー_2
 62
     7
100
AcDbVertex
100
AcDb2dVertex
 10
73.013287
 20
196.850861
 30
0.0
  0
VERTEX
  5
94
100
AcDbEntity
  8
レイヤー_2
 62
     7
100
AcDbVertex
100
AcDb2dVertex
 10
73.398793
 20
196.702205
 30
0.0
  0
VERTEX
  5
95
100
AcDbEntity
  8
レイヤー_2
 62
     7
100
AcDbVertex
100
AcDb2dVertex
 10
73.698516
 20
196.663793
 30
0.0
  0
SEQEND
  5
96
100
AcDbEntity
  8
レイヤー_2
 62
     7
  0
POLYLINE
  5
8B
100
AcDbEntity
  8
レイヤー_2
 62
     7
100
AcDb2dPolyline
 66
     1
 10
0.0
 20
0.0
 30
0.0
  0
VERTEX
  5
8C
100
AcDbEntity
  8
レイヤー_2
 62
     7
100
AcDbVertex
100
AcDb2dVertex
 10
71.267312
 20
196.659486
 30
0.0
  0
VERTEX
  5
8D
100
AcDbEntity
  8
レイヤー_2
 62
     7
100
AcDbVertex
100
AcDb2dVertex
 10
71.56738
 20
196.71633
 30
0.0
  0
VERTEX
  5
8E
100
AcDbEntity
  8
レイヤー_2
 62
     7
100
AcDbVertex
100
AcDb2dVertex
 10
71.907411
 20
196.852067
 30
0.0
  0
VERTEX
  5
8F
100
AcDbEntity
  8
レイヤー_2
 62
     7
100
AcDbVertex
100
AcDb2dVertex
 10
72.395926
 20
197.142144
 30
0.0
  0
SEQEND
  5
90
100
AcDbEntity
  8
レイヤー_2
 62
     7
  0
LINE
  5
8A
100
AcDbEntity
  8
レイヤー_2
 62
     7
100
AcDbLine
 10
72.395926
 20
197.142144
 30
0.0
 11
72.395926
 21
199.906489
 31
0.0
  0
SPLINE
  5
89
100
AcDbEntity
  8
レイヤー_2
 62
     7
100
AcDbSpline
210
0.0
220
0.0
230
1.0
 70
     8
 71
     3
 72
     8
 73
     4
 74
     0
 42
0.00000001
 43
0.00000001
 40
0.0
 40
0.0
 40
0.0
 40
0.0
 40
1.0
 40
1.0
 40
1.0
 40
1.0
 10
124.52779947916666
 20
173.469342719184
 30
0.0
 10
124.52779947916666
 20
173.53790011935763
 30
0.0
 10
124.47164442274304
 20
173.59405517578122
 30
0.0
 10
124.40308702256944
 20
173.59405517578122
 30
0.0
  0
SPLINE
  5
88
100
AcDbEntity
  8
レイヤー_2
 62
     7
100
AcDbSpline
210
0.0
220
0.0
230
1.0
 70
     8
 71
     3
 72
     8
 73
     4
 74
     0
 42
0.00000001
 43
0.00000001
 40
0.0
 40
0.0
 40
0.0
 40
0.0
 40
1.0
 40
1.0
 40
1.0
 40
1.0
 10
113.40324164496526
 20
173.59405517578122
 30
0.0
 10
113.33399522569444
 20
173.59405517578122
 30
0.0
 10
113.27818467881943
 20
173.53790011935763
 30
0.0
 10
113.27818467881943
 20
173.469342719184
 30
0.0
  0
LINE
  5
87
100
AcDbEntity
  8
レイヤー_2
 62
     7
100
AcDbLine
 10
113.278185
 20
173.469343
 30
0.0
 11
113.278185
 21
171.344236
 31
0.0
  0
LINE
  5
86
100
AcDbEntity
  8
レイヤー_2
 62
     7
100
AcDbLine
 10
124.527799
 20
171.344236
 30
0.0
 11
124.527799
 21
173.469343
 31
0.0
  0
SPLINE
  5
85
100
AcDbEntity
  8
レイヤー_2
 62
     7
100
AcDbSpline
210
0.0
220
0.0
230
1.0
 70
     8
 71
     3
 72
     8
 73
     4
 74
     0
 42
0.00000001
 43
0.00000001
 40
0.0
 40
0.0
 40
0.0
 40
0.0
 40
1.0
 40
1.0
 40
1.0
 40
1.0
 10
120.46568739149305
 20
194.28168131510415
 30
0.0
 10
120.50737304687499
 20
194.28168131510415
 30
0.0
 10
120.54044596354166
 20
194.31509874131942
 30
0.0
 10
120.54113498263888
 20
194.35609537760416
 30
0.0
  0
LINE
  5
84
100
AcDbEntity
  8
レイヤー_2
 62
     7
100
AcDbLine
 10
121.965337
 20
193.594557
 30
0.0
 11
121.965337
 21
194.281681
 31
0.0
  0
LINE
  5
83
100
AcDbEntity
  8
レイヤー_2
 62
     7
100
AcDbLine
 10
115.840302
 20
194.281681
 30
0.0
 11
115.840302
 21
193.594557
 31
0.0
  0
LINE
  5
82
100
AcDbEntity
  8
レイヤー_2
 62
     7
100
AcDbLine
 10
140.471012
 20
183.161602
 30
0.0
 11
141.053234
 21
180.988608
 31
0.0
  0
LINE
  5
81
100
AcDbEntity
  8
レイヤー_2
 62
     7
100
AcDbLine
 10
146.124414
 20
182.347009
 30
0.0
 11
145.541504
 21
184.520865
 31
0.0
  0
SPLINE
  5
80
100
AcDbEntity
  8
レイヤー_2
 62
     7
100
AcDbSpline
210
0.0
220
0.0
230
1.0
 70
     8
 71
     3
 72
     8
 73
     4
 74
     0
 42
0.00000001
 43
0.00000001
 40
0.0
 40
0.0
 40
0.0
 40
0.0
 40
1.0
 40
1.0
 40
1.0
 40
1.0
 10
141.05323350694442
 20
180.98860812717012
 30
0.0
 10
141.07045898437499
 20
180.92160101996527
 30
0.0
 10
141.13970540364582
 20
180.88181016710067
 30
0.0
 10
141.20619574652775
 20
180.89972466362846
 30
0.0
  0
SPLINE
  5
7F
100
AcDbEntity
  8
レイヤー_2
 62
     7
100
AcDbSpline
210
0.0
220
0.0
230
1.0
 70
     8
 71
     3
 72
     8
 73
     4
 74
     0
 42
0.00000001
 43
0.00000001
 40
0.0
 40
0.0
 40
0.0
 40
0.0
 40
1.0
 40
1.0
 40
1.0
 40
1.0
 10
146.12820366753471
 20
182.3147976345486
 30
0.0
 10
146.12820366753471
 20
182.32582194010416
 30
0.0
 10
146.12648111979166
 20
182.33770751953122
 30
0.0
 10
146.12441406249999
 20
182.34700927734374
 30
0.0
  0
SPLINE
  5
7E
100
AcDbEntity
  8
レイヤー_2
 62
     7
100
AcDbSpline
210
0.0
220
0.0
230
1.0
 70
     8
 71
     3
 72
     8
 73
     4
 74
     0
 42
0.00000001
 43
0.00000001
 40
0.0
 40
0.0
 40
0.0
 40
0.0
 40
1.0
 40
1.0
 40
1.0
 40
1.0
 10
146.03587510850693
 20
182.19387478298609
 30
0.0
 10
146.09168565538192
 20
182.20903320312499
 30
0.0
 10
146.12785915798611
 20
182.2589870876736
 30
0.0
 10
146.12820366753471
 20
182.3147976345486
 30
0.0
  0
SPLINE
  5
7D
100
AcDbEntity
  8
レイヤー_2
 62
     7
100
AcDbSpline
210
0.0
220
0.0
230
1.0
 70
     8
 71
     3
 72
    11
 73
     7
 74
     0
 42
0.00000001
 43
0.00000001
 40
0.0
 40
0.0
 40
0.0
 40
0.0
 40
1.0
 40
1.0
 40
1.0
 40
2.0
 40
2.0
 40
2.0
 40
2.0
 10
140.55886230468749
 20
183.31473659939235
 30
0.0
 10
140.50374077690972
 20
183.29957817925344
 30
0.0
 10
140.46653374565972
 20
183.24962429470486
 30
0.0
 10
140.46653374565972
 20
183.19415825737846
 30
0.0
 10
140.46653374565972
 20
183.1827894422743
 30
0.0
 10
140.46756727430554
 20
183.17176513671873
 30
0.0
 10
140.47101236979165
 20
183.16160210503472
 30
0.0
  0
SPLINE
  5
7C
100
AcDbEntity
  8
レイヤー_2
 62
     7
100
AcDbSpline
210
0.0
220
0.0
230
1.0
 70
     8
 71
     3
 72
    11
 73
     7
 74
     0
 42
0.00000001
 43
0.00000001
 40
0.0
 40
0.0
 40
0.0
 40
0.0
 40
1.0
 40
1.0
 40
1.0
 40
2.0
 40
2.0
 40
2.0
 40
2.0
 10
145.54150390625
 20
184.52086452907983
 30
0.0
 10
145.52703450520832
 20
184.57598605685763
 30
0.0
 10
145.47673611111111
 20
184.61319308810764
 30
0.0
 10
145.42092556423609
 20
184.61319308810764
 30
0.0
 10
145.40921223958333
 20
184.61319308810764
 30
0.0
 10
145.39818793402776
 20
184.61147054036456
 30
0.0
 10
145.38854166666664
 20
184.60888671874997
 30
0.0
  0
LINE
  5
7B
100
AcDbEntity
  8
レイヤー_2
 62
     7
100
AcDbLine
 10
122.652634
 20
185.96901
 30
0.0
 11
136.937033
 21
185.96901
 31
0.0
  0
LINE
  5
7A
100
AcDbEntity
  8
レイヤー_2
 62
     7
100
AcDbLine
 10
136.937033
 20
191.219336
 30
0.0
 11
122.652634
 21
191.219336
 31
0.0
  0
SPLINE
  5
79
100
AcDbEntity
  8
レイヤー_2
 62
     7
100
AcDbSpline
210
0.0
220
0.0
230
1.0
 70
     8
 71
     3
 72
     8
 73
     4
 74
     0
 42
0.00000001
 43
0.00000001
 40
0.0
 40
0.0
 40
0.0
 40
0.0
 40
1.0
 40
1.0
 40
1.0
 40
1.0
 10
140.43793945312498
 20
183.2826972113715
 30
0.0
 10
140.00626898871528
 20
184.89379611545138
 30
0.0
 10
138.55381673177081
 20
185.95970865885414
 30
0.0
 10
136.93703342013887
 20
185.96901041666666
 30
0.0
  0
SPLINE
  5
78
100
AcDbEntity
  8
レイヤー_2
 62
     7
100
AcDbSpline
210
0.0
220
0.0
230
1.0
 70
     8
 71
     3
 72
     8
 73
     4
 74
     0
 42
0.00000001
 43
0.00000001
 40
0.0
 40
0.0
 40
0.0
 40
0.0
 40
1.0
 40
1.0
 40
1.0
 40
1.0
 10
145.50912000868055
 20
184.64109836154512
 30
0.0
 10
144.45216471354166
 20
188.58693847656249
 30
0.0
 10
140.89613715277775
 20
191.1955647786458
 30
0.0
 10
136.93703342013887
 20
191.21933593749998
 30
0.0
  0
SPLINE
  5
77
100
AcDbEntity
  8
レイヤー_2
 62
     7
100
AcDbSpline
210
0.0
220
0.0
230
1.0
 70
     8
 71
     3
 72
     8
 73
     4
 74
     0
 42
0.00000001
 43
0.00000001
 40
0.0
 40
0.0
 40
0.0
 40
0.0
 40
1.0
 40
1.0
 40
1.0
 40
1.0
 10
115.15300564236109
 20
173.79387071397568
 30
0.0
 10
115.15300564236109
 20
173.68362765842014
 30
0.0
 10
115.24257812499999
 20
173.59405517578122
 30
0.0
 10
115.35316569010416
 20
173.59405517578122
 30
0.0
  0
SPLINE
  5
76
100
AcDbEntity
  8
レイヤー_2
 62
     7
100
AcDbSpline
210
0.0
220
0.0
230
1.0
 70
     8
 71
     3
 72
     8
 73
     4
 74
     0
 42
0.00000001
 43
0.00000001
 40
0.0
 40
0.0
 40
0.0
 40
0.0
 40
1.0
 40
1.0
 40
1.0
 40
1.0
 10
122.45247395833333
 20
173.59405517578122
 30
0.0
 10
122.56271701388887
 20
173.59405517578122
 30
0.0
 10
122.65263400607638
 20
173.68362765842014
 30
0.0
 10
122.65263400607638
 20
173.79387071397568
 30
0.0
  0
SPLINE
  5
75
100
AcDbEntity
  8
レイヤー_2
 62
     7
100
AcDbSpline
210
0.0
220
0.0
230
1.0
 70
     8
 71
     3
 72
     8
 73
     4
 74
     0
 42
0.00000001
 43
0.00000001
 40
0.0
 40
0.0
 40
0.0
 40
0.0
 40
1.0
 40
1.0
 40
1.0
 40
1.0
 10
122.65263400607638
 20
193.39439697265624
 30
0.0
 10
122.65263400607638
 20
193.50481228298608
 30
0.0
 10
122.56271701388887
 20
193.59455702039929
 30
0.0
 10
122.45247395833333
 20
193.59455702039929
 30
0.0
  0
SPLINE
  5
74
100
AcDbEntity
  8
レイヤー_2
 62
     7
100
AcDbSpline
210
0.0
220
0.0
230
1.0
 70
     8
 71
     3
 72
     8
 73
     4
 74
     0
 42
0.00000001
 43
0.00000001
 40
0.0
 40
0.0
 40
0.0
 40
0.0
 40
1.0
 40
1.0
 40
1.0
 40
1.0
 10
115.35316569010416
 20
193.59455702039929
 30
0.0
 10
115.24257812499999
 20
193.59455702039929
 30
0.0
 10
115.15300564236109
 20
193.50481228298608
 30
0.0
 10
115.15300564236109
 20
193.39439697265624
 30
0.0
  0
LINE
  5
73
100
AcDbEntity
  8
レイヤー_2
 62
     7
100
AcDbLine
 10
115.153006
 20
193.394397
 30
0.0
 11
115.153006
 21
173.793871
 31
0.0
  0
LINE
  5
72
100
AcDbEntity
  8
レイヤー_2
 62
     7
100
AcDbLine
 10
122.652634
 20
191.219336
 30
0.0
 11
122.652634
 21
193.394397
 31
0.0
  0
LINE
  5
71
100
AcDbEntity
  8
レイヤー_2
 62
     7
100
AcDbLine
 10
122.652634
 20
173.793871
 30
0.0
 11
122.652634
 21
185.96901
 31
0.0
  0
LINE
  5
70
100
AcDbEntity
  8
レイヤー_2
 62
     7
100
AcDbLine
 10
113.403242
 20
173.594055
 30
0.0
 11
124.403087
 21
173.594055
 31
0.0
  0
LINE
  5
6F
100
AcDbEntity
  8
レイヤー_2
 62
     7
100
AcDbLine
 10
113.278185
 20
171.344236
 30
0.0
 11
124.527799
 21
171.344236
 31
0.0
  0
LINE
  5
6E
100
AcDbEntity
  8
レイヤー_2
 62
     7
100
AcDbLine
 10
121.965337
 20
194.281681
 30
0.0
 11
115.840302
 21
194.281681
 31
0.0
  0
LINE
  5
6D
100
AcDbEntity
  8
レイヤー_2
 62
     7
100
AcDbLine
 10
146.035875
 20
182.193875
 30
0.0
 11
141.206196
 21
180.899725
 31
0.0
  0
POLYLINE
  5
57
100
AcDbEntity
  8
レイヤー_2
 62
     7
100
AcDb2dPolyline
 66
     1
 10
0.0
 20
0.0
 30
0.0
  0
VERTEX
  5
58
100
AcDbEntity
  8
レイヤー_2
 62
     7
100
AcDbVertex
100
AcDb2dVertex
 10
122.648844
 20
185.975039
 30
0.0
  0
VERTEX
  5
59
100
AcDbEntity
  8
レイヤー_2
 62
     7
100
AcDbVertex
100
AcDb2dVertex
 10
122.645055
 20
185.980896
 30
0.0
  0
VERTEX
  5
5A
100
AcDbEntity
  8
レイヤー_2
 62
     7
100
AcDbVertex
100
AcDb2dVertex
 10
122.601991
 20
186.042735
 30
0.0
  0
VERTEX
  5
5B
100
AcDbEntity
  8
レイヤー_2
 62
     7
100
AcDbVertex
100
AcDb2dVertex
 10
122.428358
 20
186.301462
 30
0.0
  0
VERTEX
  5
5C
100
AcDbEntity
  8
レイヤー_2
 62
     7
100
AcDbVertex
100
AcDb2dVertex
 10
122.145516
 20
186.765344
 30
0.0
  0
VERTEX
  5
5D
100
AcDbEntity
  8
レイヤー_2
 62
     7
100
AcDbVertex
100
AcDb2dVertex
 10
121.966715
 20
187.10572
 30
0.0
  0
VERTEX
  5
5E
100
AcDbEntity
  8
レイヤー_2
 62
     7
100
AcDbVertex
100
AcDb2dVertex
 10
121.794461
 20
187.502422
 30
0.0
  0
VERTEX
  5
5F
100
AcDbEntity
  8
レイヤー_2
 62
     7
100
AcDbVertex
100
AcDb2dVertex
 10
121.688352
 20
187.828845
 30
0.0
  0
VERTEX
  5
60
100
AcDbEntity
  8
レイヤー_2
 62
     7
100
AcDbVertex
100
AcDb2dVertex
 10
121.61256
 20
188.18524
 30
0.0
  0
VERTEX
  5
61
100
AcDbEntity
  8
レイヤー_2
 62
     7
100
AcDbVertex
100
AcDb2dVertex
 10
121.580865
 20
188.593829
 30
0.0
  0
VERTEX
  5
62
100
AcDbEntity
  8
レイヤー_2
 62
     7
100
AcDbVertex
100
AcDb2dVertex
 10
121.606359
 20
188.96366
 30
0.0
  0
VERTEX
  5
63
100
AcDbEntity
  8
レイヤー_2
 62
     7
100
AcDbVertex
100
AcDb2dVertex
 10
121.681117
 20
189.332457
 30
0.0
  0
VERTEX
  5
64
100
AcDbEntity
  8
レイヤー_2
 62
     7
100
AcDbVertex
100
AcDb2dVertex
 10
121.917106
 20
189.978413
 30
0.0
  0
VERTEX
  5
65
100
AcDbEntity
  8
レイヤー_2
 62
     7
100
AcDbVertex
100
AcDb2dVertex
 10
122.080404
 20
190.303974
 30
0.0
  0
VERTEX
  5
66
100
AcDbEntity
  8
レイヤー_2
 62
     7
100
AcDbVertex
100
AcDb2dVertex
 10
122.245768
 20
190.595257
 30
0.0
  0
VERTEX
  5
67
100
AcDbEntity
  8
レイヤー_2
 62
     7
100
AcDbVertex
100
AcDb2dVertex
 10
122.416645
 20
190.868281
 30
0.0
  0
VERTEX
  5
68
100
AcDbEntity
  8
レイヤー_2
 62
     7
100
AcDbVertex
100
AcDb2dVertex
 10
122.554449
 20
191.076537
 30
0.0
  0
VERTEX
  5
69
100
AcDbEntity
  8
レイヤー_2
 62
     7
100
AcDbVertex
100
AcDb2dVertex
 10
122.619217
 20
191.170932
 30
0.0
  0
VERTEX
  5
6A
100
AcDbEntity
  8
レイヤー_2
 62
     7
100
AcDbVertex
100
AcDb2dVertex
 10
122.650911
 20
191.215891
 30
0.0
  0
VERTEX
  5
6B
100
AcDbEntity
  8
レイヤー_2
 62
     7
100
AcDbVertex
100
AcDb2dVertex
 10
122.648844
 20
191.213307
 30
0.0
  0
SEQEND
  5
6C
100
AcDbEntity
  8
レイヤー_2
 62
     7
  0
LINE
  5
56
100
AcDbEntity
  8
レイヤー_2
 62
     7
100
AcDbLine
 10
140.437939
 20
183.282697
 30
0.0
 11
145.50912
 21
184.641098
 31
0.0
  0
LINE
  5
55
100
AcDbEntity
  8
レイヤー_2
 62
     7
100
AcDbLine
 10
115.353166
 20
193.594557
 30
0.0
 11
122.452474
 21
193.594557
 31
0.0
  0
LINE
  5
54
100
AcDbEntity
  8
レイヤー_2
 62
     7
100
AcDbLine
 10
68.210135
 20
169.344013
 30
0.0
 11
76.585506
 21
169.344013
 31
0.0
  0
LINE
  5
53
100
AcDbEntity
  8
レイヤー_2
  6
AI9-LType1
 62
     7
100
AcDbLine
 10
72.397648
 20
154.284123
 30
0.0
 11
72.397648
 21
172.816669
 31
0.0
  0
LINE
  5
52
100
AcDbEntity
  8
レイヤー_2
 62
     7
100
AcDbLine
 10
72.397648
 20
172.816669
 30
0.0
 11
72.397648
 21
173.816953
 31
0.0
  0
LINE
  5
51
100
AcDbEntity
  8
レイヤー_2
  6
AI9-LType1
 62
     7
100
AcDbLine
 10
72.397648
 20
174.661346
 30
0.0
 11
72.397648
 21
197.187792
 31
0.0
  0
LINE
  5
50
100
AcDbEntity
  8
レイヤー_2
 62
     7
100
AcDbLine
 10
72.397648
 20
197.187792
 30
0.0
 11
72.397648
 21
198.188247
 31
0.0
  0
LINE
  5
4F
100
AcDbEntity
  8
レイヤー_2
  6
AI9-LType1
 62
     7
100
AcDbLine
 10
118.885767
 20
154.865655
 30
0.0
 11
118.885767
 21
197.899032
 31
0.0
  0
LINE
  5
4E
100
AcDbEntity
  8
レイヤー_2
 62
     7
100
AcDbLine
 10
118.885767
 20
197.899032
 30
0.0
 11
118.885767
 21
198.898971
 31
0.0
  0
LINE
  5
4D
100
AcDbEntity
  8
レイヤー_2
  6
AI9-LType1
 62
     7
100
AcDbLine
 10
142.465723
 20
186.1516
 30
0.0
 11
143.495117
 21
182.021448
 31
0.0
  0
LINE
  5
4B
100
AcDbEntity
  8
レイヤー_2
 62
     7
100
AcDbLine
 10
143.495117
 20
182.021448
 30
0.0
 11
143.736274
 21
181.051309
 31
0.0
  0
LINE
  5
4A
100
AcDbEntity
  8
レイヤー_2
 62
     7
100
AcDbLine
 10
169.050146
 20
182.962992
 30
0.0
 11
169.050146
 21
170.290036
 31
0.0
  0
LINE
  5
49
100
AcDbEntity
  8
レイヤー_2
 62
     7
100
AcDbLine
 10
78.145101
 20
212.512438
 30
0.0
 11
78.145101
 21
200.543142
 31
0.0
  0
LINE
  5
48
100
AcDbEntity
  8
レイヤー_2
 62
     7
100
AcDbLine
 10
78.145101
 20
196.244697
 30
0.0
 11
78.145101
 21
173.717045
 31
0.0
  0
LINE
  5
47
100
AcDbEntity
  8
レイヤー_2
 62
     7
100
AcDbLine
 10
145.462956
 20
181.497793
 30
0.0
 11
170.290036
 21
181.497793
 31
0.0
  0
LINE
  5
46
100
AcDbEntity
  8
レイヤー_2
 62
     7
100
AcDbLine
 10
157.544217
 20
171.344236
 30
0.0
 11
180.959153
 21
171.344236
 31
0.0
  0
LINE
  5
45
100
AcDbEntity
  8
レイヤー_2
 62
     7
100
AcDbLine
 10
52.332723
 20
165.240904
 30
0.0
 11
54.77943
 21
163.067049
 31
0.0
  0
LINE
  5
44
100
AcDbEntity
  8
レイヤー_2
 62
     7
100
AcDbLine
 10
167.833683
 20
182.540451
 30
0.0
 11
170.279357
 21
180.367113
 31
0.0
  0
LINE
  5
43
100
AcDbEntity
  8
レイヤー_2
 62
     7
100
AcDbLine
 10
178.624756
 20
172.470093
 30
0.0
 11
181.070774
 21
170.296238
 31
0.0
  0
LINE
  5
42
100
AcDbEntity
  8
レイヤー_2
 62
     7
100
AcDbLine
 10
178.552409
 20
201.163432
 30
0.0
 11
180.999116
 21
198.989921
 31
0.0
  0
LINE
  5
41
100
AcDbEntity
  8
レイヤー_2
 62
     7
100
AcDbLine
 10
66.645717
 20
212.605455
 30
0.0
 11
66.645717
 21
200.690937
 31
0.0
  0
LINE
  5
40
100
AcDbEntity
  8
レイヤー_2
 62
     7
100
AcDbLine
 10
66.645717
 20
196.003712
 30
0.0
 11
66.645717
 21
173.789048
 31
0.0
  0
LINE
  5
3F
100
AcDbEntity
  8
レイヤー_2
 62
     7
100
AcDbLine
 10
179.834673
 20
201.287455
 30
0.0
 11
179.834673
 21
170.203909
 31
0.0
  0
LINE
  5
3E
100
AcDbEntity
  8
レイヤー_2
 62
     7
100
AcDbLine
 10
118.885767
 20
212.510715
 30
0.0
 11
118.885767
 21
201.615428
 31
0.0
  0
LINE
  5
3D
100
AcDbEntity
  8
レイヤー_2
 62
     7
100
AcDbLine
 10
126.453608
 20
199.997095
 30
0.0
 11
180.905065
 21
199.997095
 31
0.0
  0
LINE
  5
3C
100
AcDbEntity
  8
レイヤー_2
 62
     7
100
AcDbLine
 10
52.293104
 20
171.344236
 30
0.0
 11
60.889996
 21
171.344236
 31
0.0
  0
LINE
  5
3B
100
AcDbEntity
  8
レイヤー_2
 62
     7
100
AcDbLine
 10
117.881521
 20
210.270886
 30
0.0
 11
120.055377
 21
212.717249
 31
0.0
  0
LINE
  5
3A
100
AcDbEntity
  8
レイヤー_2
 62
     7
100
AcDbLine
 10
142.423692
 20
210.233507
 30
0.0
 11
144.597548
 21
212.680042
 31
0.0
  0
LINE
  5
39
100
AcDbEntity
  8
レイヤー_2
 62
     7
100
AcDbLine
 10
117.918728
 20
211.439635
 30
0.0
 11
144.944124
 21
211.439635
 31
0.0
  0
LINE
  5
38
100
AcDbEntity
  8
レイヤー_2
 62
     7
100
AcDbLine
 10
65.527783
 20
210.270886
 30
0.0
 11
67.701638
 21
212.717249
 31
0.0
  0
LINE
  5
37
100
AcDbEntity
  8
レイヤー_2
 62
     7
100
AcDbLine
 10
77.202178
 20
210.233507
 30
0.0
 11
79.375345
 21
212.680042
 31
0.0
  0
LINE
  5
36
100
AcDbEntity
  8
レイヤー_2
 62
     7
100
AcDbLine
 10
143.37695
 20
180.867513
 30
0.0
 11
143.37695
 21
165.351147
 31
0.0
  0
LINE
  5
35
100
AcDbEntity
  8
レイヤー_2
 62
     7
100
AcDbLine
 10
144.635444
 20
167.759269
 30
0.0
 11
142.462278
 21
165.313251
 31
0.0
  0
LINE
  5
34
100
AcDbEntity
  8
レイヤー_2
 62
     7
100
AcDbLine
 10
148.82778
 20
168.469648
 30
0.0
 11
146.784494
 21
165.912698
 31
0.0
  0
LINE
  5
33
100
AcDbEntity
  8
レイヤー_2
 62
     7
100
AcDbLine
 10
129.887679
 20
171.344236
 30
0.0
 11
140.614673
 21
171.344236
 31
0.0
  0
LINE
  5
32
100
AcDbEntity
  8
レイヤー_2
 62
     7
100
AcDbLine
 10
65.186719
 20
211.439635
 30
0.0
 11
79.584117
 21
211.439635
 31
0.0
  0
LINE
  5
31
100
AcDbEntity
  8
レイヤー_2
 62
     7
100
AcDbLine
 10
52.431597
 20
164.079218
 30
0.0
 11
65.714163
 21
164.079218
 31
0.0
  0
LINE
  5
30
100
AcDbEntity
  8
レイヤー_2
 62
     7
100
AcDbLine
 10
53.631524
 20
172.327466
 30
0.0
 11
53.631524
 21
134.549927
 31
0.0
  0
LINE
  5
2F
100
AcDbEntity
  8
レイヤー_2
 62
     7
100
AcDbLine
 10
167.894661
 20
172.392234
 30
0.0
 11
170.340679
 21
170.218378
 31
0.0
  0
LINE
  5
2E
100
AcDbEntity
  8
レイヤー_2
 62
     7
100
AcDbLine
 10
52.332723
 20
172.436331
 30
0.0
 11
54.77943
 21
170.262476
 31
0.0
  0
LINE
  5
2D
100
AcDbEntity
  8
レイヤー_2
 62
     7
100
AcDbLine
 10
143.878556
 20
180.711278
 30
0.0
 11
148.019217
 21
165.779717
 31
0.0
  0
LINE
  5
2C
100
AcDbEntity
  8
レイヤー_2
 62
     7
100
AcDbLine
 10
143.458599
 20
212.547922
 30
0.0
 11
143.458599
 21
189.547948
 31
0.0
  0
SPLINE
  5
2B
100
AcDbEntity
  8
レイヤー_2
 62
     7
100
AcDbSpline
210
0.0
220
0.0
230
1.0
 70
     8
 71
     3
 72
     8
 73
     4
 74
     0
 42
0.00000001
 43
0.00000001
 40
0.0
 40
0.0
 40
0.0
 40
0.0
 40
1.0
 40
1.0
 40
1.0
 40
1.0
 10
142.21836480034722
 20
166.40603569878471
 30
0.0
 10
149.40311143663192
 20
165.90925292968748
 30
0.0
 10
155.82580295138888
 20
170.12880588107637
 30
0.0
 10
158.49678548177081
 20
176.5384060329861
 30
0.0
  0
LINE
  5
2A
100
AcDbEntity
  8
レイヤー_2
 62
     7
100
AcDbLine
 10
109.478933
 20
171.344236
 30
0.0
 11
128.211296
 21
171.344236
 31
0.0
  0
LINE
  5
29
100
AcDbEntity
  8
レイヤー_2
 62
     7
100
AcDbLine
 10
61.891485
 20
171.344236
 30
0.0
 11
82.905189
 21
171.344236
 31
0.0
  0
ENDSEC
  0
SECTION
  2
OBJECTS
  0
DICTIONARY
  5
19
100
AcDbDictionary
280
     0
281
     1
  3
ACAD_GROUP
350
1A
  3
ACAD_MLINESTYLE
350
1B
  3
ACAD_LAYOUT
350
1E
  3
ACAD_PLOTSETTINGS
350
22
  3
ACAD_PLOTSTYLENAME
350
1F
  3
ACAD_WIPEOUT_VARS
350
23
  0
DICTIONARY
  5
1A
102
{ACAD_REACTORS
330
19
102
}
100
AcDbDictionary
280
     0
281
     1
  0
DICTIONARY
  5
1B
102
{ACAD_REACTORS
330
19
102
}
100
AcDbDictionary
280
     0
281
     1
  3
Standard
350
1C
  0
MLINESTYLE
  5
1C
102
{ACAD_REACTORS
330
1B
102
}
100
AcDbMlineStyle
  2
Standard
 70
     0
  3

 62
     0
 51
90.0
 52
90.0
 71
     2
 49
0.5
 62
   256
  6
ByLayer
 49
-0.5
 62
   256
  6
ByLayer
  0
ACDBDICTIONARYWDFLT
  5
1F
102
{ACAD_REACTORS
330
19
102
}
100
AcDbDictionary
281
     1
  3
Normal
350
1D
100
AcDbDictionaryWithDefault
340
1D
  0
ACDBPLACEHOLDER
  5
1D
102
{ACAD_REACTORS
330
1F
102
}
  0
LAYOUT
  5
20
102
{ACAD_REACTORS
330
1E
102
}
100
AcDbPlotSettings
  1

  2

  4

  6

 40
0.0
 41
0.0
 42
0.0
 43
0.0
 44
0.0
 45
0.0
 46
0.0
 47
0.0
 48
0.0
 49
0.0
140
0.0
141
0.0
142
1.0
143
1.0
 70
  1024
 72
     0
 73
     0
 74
     0
  7

 75
     0
147
1.0
148
0.0
149
0.0
100
AcDbLayout
  1
Model
 70
     0
 71
     0
 10
0.0
 20
0.0
 11
0.0
 21
0.0
 12
0.0
 22
0.0
 32
0.0
 14
0.0
 24
0.0
 34
0.0
 15
0.0
 25
0.0
 35
0.0
146
0.0
 13
0.0
 23
0.0
 33
0.0
 16
0.0
 26
0.0
 36
0.0
 17
0.0
 27
0.0
 37
0.0
 76
     0
330
A
331
0
345
0
346
0
  0
LAYOUT
  5
21
102
{ACAD_REACTORS
330
1E
102
}
100
AcDbPlotSettings
  1

  2

  4

  6

 40
0.0
 41
0.0
 42
0.0
 43
0.0
 44
0.0
 45
0.0
 46
0.0
 47
0.0
 48
0.0
 49
0.0
140
0.0
141
0.0
142
1.0
143
1.0
 70
     0
 72
     0
 73
     0
 74
     0
  7

 75
     0
147
1.0
148
0.0
149
0.0
100
AcDbLayout
  1
Layout1
 70
     0
 71
     0
 10
0.0
 20
0.0
 11
0.0
 21
0.0
 12
0.0
 22
0.0
 32
0.0
 14
0.0
 24
0.0
 34
0.0
 15
0.0
 25
0.0
 35
0.0
146
0.0
 13
0.0
 23
0.0
 33
0.0
 16
0.0
 26
0.0
 36
0.0
 17
0.0
 27
0.0
 37
0.0
 76
     0
330
B
331
0
345
0
346
0
  0
DICTIONARY
  5
1E
102
{ACAD_REACTORS
330
19
102
}
100
AcDbDictionary
280
     0
281
     1
  3
Layout1
350
21
  3
Model
350
20
  0
DICTIONARY
  5
22
102
{ACAD_REACTORS
330
19
102
}
100
AcDbDictionary
280
     0
281
     1
  0
WIPEOUTVARIABLES
  5
23
100
AcDbWipeoutVariables
 70
     1
  0
IMAGEDEF_REACTOR
  5
485
100
AcDbRasterImageDefReactor
 90
        2
330
484
  0
IMAGEDEF
  5
486
100
AcDbRasterImageDef
 90
        0
  1
\\192.168.6.3\free(2009_04\一過性\DB_WEB用DXF_丸茂\Tara．\17500892_1.bmp
 10
70.0
 20
9.0
 11
0.352778
 21
0.352778
280
     1
281
     0
  0
IMAGEDEF_REACTOR
  5
488
100
AcDbRasterImageDefReactor
 90
        2
330
487
  0
IMAGEDEF
  5
489
100
AcDbRasterImageDef
 90
        0
  1
\\192.168.6.3\free(2009_04\一過性\DB_WEB用DXF_丸茂\Tara．\17500892_2.bmp
 10
70.0
 20
9.0
 11
0.352778
 21
0.352778
280
     1
281
     0
  0
ENDSEC
  0
EOF
