  0
SECTION
  2
HEADER
  9
$ACADVER
  1
AC1015
  9
$ACADMAINTVER
 70
     6
  9
$DWGCODEPAGE
  3
ANSI_932
  9
$INSBASE
 10
0.0
 20
0.0
 30
0.0
  9
$EXTMIN
 10
23.283333
 20
25.752778
 30
1.000000E+20
  9
$EXTMAX
 10
198.966667
 20
276.930556
 30
-1.000000E+20
  9
$LIMMIN
 10
23.283333
 20
25.752778
  9
$LIMMAX
 10
198.966667
 20
276.930556
  9
$ORTHOMODE
 70
     0
  9
$REGENMODE
 70
     1
  9
$FILLMODE
 70
     1
  9
$QTEXTMODE
 70
     0
  9
$MIRRTEXT
 70
     1
  9
$LTSCALE
 40
1.0
  9
$ATTMODE
 70
     1
  9
$TEXTSIZE
 40
0.2
  9
$TRACEWID
 40
0.05
  9
$TEXTSTYLE
  7
Standard
  9
$CLAYER
  8
0
  9
$CELTYPE
  6
Continuous
  9
$CECOLOR
 62
   256
  9
$CELTSCALE
 40
1.0
  9
$DISPSILH
 70
     0
  9
$DIMSCALE
 40
1.0
  9
$DIMASZ
 40
0.18
  9
$DIMEXO
 40
0.0625
  9
$DIMDLI
 40
0.38
  9
$DIMRND
 40
0.0
  9
$DIMDLE
 40
0.0
  9
$DIMEXE
 40
0.18
  9
$DIMTP
 40
0.0
  9
$DIMTM
 40
0.0
  9
$DIMTXT
 40
0.18
  9
$DIMCEN
 40
0.09
  9
$DIMTSZ
 40
0.0
  9
$DIMTOL
 70
     0
  9
$DIMLIM
 70
     0
  9
$DIMTIH
 70
     1
  9
$DIMTOH
 70
     1
  9
$DIMSE1
 70
     0
  9
$DIMSE2
 70
     0
  9
$DIMTAD
 70
     0
  9
$DIMZIN
 70
     0
  9
$DIMBLK
  1

  9
$DIMASO
 70
     1
  9
$DIMSHO
 70
     1
  9
$DIMPOST
  1

  9
$DIMAPOST
  1

  9
$DIMALT
 70
     0
  9
$DIMALTD
 70
     2
  9
$DIMALTF
 40
25.4
  9
$DIMLFAC
 40
1.0
  9
$DIMTOFL
 70
     0
  9
$DIMTVP
 40
0.0
  9
$DIMTIX
 70
     0
  9
$DIMSOXD
 70
     0
  9
$DIMSAH
 70
     0
  9
$DIMBLK1
  1

  9
$DIMBLK2
  1

  9
$DIMSTYLE
  2
Standard
  9
$DIMCLRD
 70
     0
  9
$DIMCLRE
 70
     0
  9
$DIMCLRT
 70
     0
  9
$DIMTFAC
 40
1.0
  9
$DIMGAP
 40
0.09
  9
$DIMJUST
 70
     0
  9
$DIMSD1
 70
     0
  9
$DIMSD2
 70
     0
  9
$DIMTOLJ
 70
     1
  9
$DIMTZIN
 70
     0
  9
$DIMALTZ
 70
     0
  9
$DIMALTTZ
 70
     0
  9
$DIMUPT
 70
     0
  9
$DIMDEC
 70
     4
  9
$DIMTDEC
 70
     4
  9
$DIMALTU
 70
     2
  9
$DIMALTTD
 70
     2
  9
$DIMTXSTY
  7
Standard
  9
$DIMAUNIT
 70
     0
  9
$DIMADEC
 70
     0
  9
$DIMALTRND
 40
0.0
  9
$DIMAZIN
 70
     0
  9
$DIMDSEP
 70
     0
  9
$DIMATFIT
 70
     3
  9
$DIMFRAC
 70
     0
  9
$DIMLDRBLK
  1

  9
$DIMLUNIT
 70
     2
  9
$DIMLWD
 70
     0
  9
$DIMLWE
 70
     0
  9
$DIMTMOVE
 70
     0
  9
$LUNITS
 70
     2
  9
$LUPREC
 70
     4
  9
$SKETCHINC
 40
0.1
  9
$FILLETRAD
 40
0.0
  9
$AUNITS
 70
     0
  9
$AUPREC
 70
     0
  9
$MENU
  1
acad
  9
$ELEVATION
 40
0.0
  9
$PELEVATION
 40
0.0
  9
$THICKNESS
 40
0.0
  9
$LIMCHECK
 70
     0
  9
$CHAMFERA
 40
0.0
  9
$CHAMFERB
 40
0.0
  9
$CHAMFERC
 40
0.0
  9
$CHAMFERD
 40
0.0
  9
$SKPOLY
 70
     0
  9
$TDCREATE
 40
0.000000000
  9
$TDUCREATE
 40
0.000000000
  9
$TDUPDATE
 40
0.000000000
  9
$TDUUPDATE
 40
0.000000000
  9
$TDINDWG
 40
0.0000000000
  9
$TDUSRTIMER
 40
0.0000000000
  9
$USRTIMER
 70
     1
  9
$ANGBASE
 50
0.0
  9
$ANGDIR
 70
     0
  9
$PDMODE
 70
     0
  9
$PDSIZE
 40
0.0
  9
$PLINEWID
 40
0.0
  9
$SPLFRAME
 70
     0
  9
$SPLINETYPE
 70
     6
  9
$SPLINESEGS
 70
     8
  9
$HANDSEED
  5
1C7
  9
$SURFTAB1
 70
     6
  9
$SURFTAB2
 70
     6
  9
$SURFTYPE
 70
     6
  9
$SURFU
 70
     6
  9
$SURFV
 70
     6
  9
$UCSBASE
  2

  9
$UCSNAME
  2

  9
$UCSORG
 10
0.0
 20
0.0
 30
0.0
  9
$UCSXDIR
 10
1.0
 20
0.0
 30
0.0
  9
$UCSYDIR
 10
0.0
 20
1.0
 30
0.0
  9
$UCSORTHOREF
  2

  9
$UCSORTHOVIEW
 70
     0
  9
$UCSORGTOP
 10
0.0
 20
0.0
 30
0.0
  9
$UCSORGBOTTOM
 10
0.0
 20
0.0
 30
0.0
  9
$UCSORGLEFT
 10
0.0
 20
0.0
 30
0.0
  9
$UCSORGRIGHT
 10
0.0
 20
0.0
 30
0.0
  9
$UCSORGFRONT
 10
0.0
 20
0.0
 30
0.0
  9
$UCSORGBACK
 10
0.0
 20
0.0
 30
0.0
  9
$PUCSBASE
  2

  9
$PUCSNAME
  2

  9
$PUCSORG
 10
0.0
 20
0.0
 30
0.0
  9
$PUCSXDIR
 10
1.0
 20
0.0
 30
0.0
  9
$PUCSYDIR
 10
0.0
 20
1.0
 30
0.0
  9
$PUCSORTHOREF
  2

  9
$PUCSORTHOVIEW
 70
     0
  9
$PUCSORGTOP
 10
0.0
 20
0.0
 30
0.0
  9
$PUCSORGBOTTOM
 10
0.0
 20
0.0
 30
0.0
  9
$PUCSORGLEFT
 10
0.0
 20
0.0
 30
0.0
  9
$PUCSORGRIGHT
 10
0.0
 20
0.0
 30
0.0
  9
$PUCSORGFRONT
 10
0.0
 20
0.0
 30
0.0
  9
$PUCSORGBACK
 10
0.0
 20
0.0
 30
0.0
  9
$USERI1
 70
     0
  9
$USERI2
 70
     0
  9
$USERI3
 70
     0
  9
$USERI4
 70
     0
  9
$USERI5
 70
     0
  9
$USERR1
 40
0.0
  9
$USERR2
 40
0.0
  9
$USERR3
 40
0.0
  9
$USERR4
 40
0.0
  9
$USERR5
 40
0.0
  9
$WORLDVIEW
 70
     1
  9
$SHADEDGE
 70
     3
  9
$SHADEDIF
 70
    70
  9
$TILEMODE
 70
     1
  9
$MAXACTVP
 70
    16
  9
$PINSBASE
 10
0.0
 20
0.0
 30
0.0
  9
$PLIMCHECK
 70
     0
  9
$PEXTMIN
 10
1.000000E+20
 20
1.000000E+20
 30
1.000000E+20
  9
$PEXTMAX
 10
-1.000000E+20
 20
-1.000000E+20
 30
-1.000000E+20
  9
$PLIMMIN
 10
0.0
 20
0.0
  9
$PLIMMAX
 10
12.0
 20
9.0
  9
$UNITMODE
 70
     0
  9
$VISRETAIN
 70
     0
  9
$PLINEGEN
 70
     1
  9
$PSLTSCALE
 70
     0
  9
$TREEDEPTH
 70
  3020
  9
$CMLSTYLE
  2
Standard
  9
$CMLJUST
 70
     0
  9
$CMLSCALE
 40
1.0
  9
$PROXYGRAPHICS
 70
     0
  9
$MEASUREMENT
 70
     1
  9
$CELWEIGHT
370
     0
  9
$ENDCAPS
280
     0
  9
$JOINSTYLE
280
     0
  9
$LWDISPLAY
290
     0
  9
$INSUNITS
 70
     0
  9
$HYPERLINKBASE
  1

  9
$STYLESHEET
  1

  9
$XEDIT
290
     1
  9
$CEPSNTYPE
380
     0
  9
$PSTYLEMODE
290
     1
  9
$FINGERPRINTGUID
  2

  9
$VERSIONGUID
  2

  9
$EXTNAMES
290
     1
  9
$PSVPSCALE
 40
0.0
  0
ENDSEC
  0
SECTION
  2
CLASSES
  0
CLASS
  1
LWPOLYLINE
  2
AcDbPolyline
  3
AutoCAD 2000
 90
    32768
280
     0
281
     1
  0
CLASS
  1
IMAGE
  2
AcDbRasterImage
  3
ISM
 90
      127
280
     0
281
     1
  0
CLASS
  1
OLE2FRAME
  2
AcDbOle2Frame
  3
AutoCAD 2000
 90
    32768
280
     0
281
     1
  0
CLASS
  1
HATCH
  2
AcDbHatch
  3
AutoCAD 2000
 90
        0
280
     0
281
     1
  0
CLASS
  1
DICTIONARYVAR
  2
AcDbDictionaryVar
  3
AutoCAD 2000
 90
    32768
280
     0
281
     0
  0
CLASS
  1
RASTERVARIABLES
  2
AcDbRasterVariables
  3
ISM
 90
    32768
280
     0
281
     0
  0
CLASS
  1
IMAGEDEF
  2
AcDbRasterImageDef
  3
ISM
 90
        0
280
     0
281
     0
  0
CLASS
  1
IMAGEDEF_REACTOR
  2
AcDbRasterImageDefReactor
  3
ISM
 90
        1
280
     0
281
     0
  0
CLASS
  1
IDBUFFER
  2
AcDbIdBuffer
  3
AutoCAD 2000
 90
    32768
280
     0
281
     0
  0
CLASS
  1
SPATIAL_FILTER
  2
AcDbSpatialFilter
  3
AutoCAD 2000
 90
    32768
280
     0
281
     0
  0
CLASS
  1
XRECORD
  2
AcDbXrecord
  3
AutoCAD 2000
 90
    32768
280
     0
281
     0
  0
CLASS
  1
SORTENTSTABLE
  2
AcDbSortentsTable
  3
AutoCAD 2000
 90
    32768
280
     0
281
     0
  0
CLASS
  1
LAYER_INDEX
  2
AcDbLayerIndex
  3
AutoCAD 2000
 90
    32768
280
     0
281
     0
  0
CLASS
  1
SPATIAL_INDEX
  2
AcDbSpatialIndex
  3
AutoCAD 2000
 90
    32768
280
     0
281
     0
  0
CLASS
  1
OBJECT_PTR
  2
CAseDLPNTableRecord
  3
"ASE-LPNTableRecord"
 90
    32769
280
     0
281
     0
  0
CLASS
  1
LAYOUT
  2
AcDbLayout
  3
AutoCAD 2000
 90
        0
280
     0
281
     0
  0
CLASS
  1
PLOTSETTINGS
  2
AcDbPlotSettings
  3
AutoCAD 2000
 90
    32768
280
     0
281
     0
  0
CLASS
  1
ACDBDICTIONARYWDFLT
  2
AcDbDictionaryWithDefault
  3
AutoCAD 2000
 90
        0
280
     0
281
     0
  0
CLASS
  1
ACDBPLACEHOLDER
  2
AcDbPlaceHolder
  3
AutoCAD 2000
 90
        0
280
     0
281
     0
  0
CLASS
  1
VBA_PROJECT
  2
AcDbVbaProject
  3
acadvba
 90
    32768
280
     0
281
     0
  0
CLASS
  1
WIPEOUT
  2
AcDbWipeout
  3
WipeOut|AutoCAD Express Tool|expresstools@autodesk.com
 90
    32895
280
     0
281
     1
  0
CLASS
  1
WIPEOUTVARIABLES
  2
AcDbWipeoutVariables
  3
WipeOut|AutoCAD Express Tool|expresstools@autodesk.com
 90
        0
280
     0
281
     0
  0
CLASS
  1
RTEXT
  2
RText
  3
RText|AutoCAD Express Tool|expresstools@autodesk.com
 90
    32768
280
     0
281
     1
  0
CLASS
  1
ARCALIGNEDTEXT
  2
AcDbArcAlignedText
  3
ATEXT|AutoCAD Express Tool|expresstools@autodesk.com
 90
    32768
280
     0
281
     1
  0
ENDSEC
  0
SECTION
  2
TABLES
  0
TABLE
  2
VPORT
  5
7
100
AcDbSymbolTable
 70
     1
  0
VPORT
  5
15
100
AcDbSymbolTableRecord
100
AcDbViewportTableRecord
  2
*ACTIVE
 70
     0
 10
0.0
 20
0.0
 11
1.0
 21
1.0
 12
6.591288
 22
4.579184
 13
0.0
 23
0.0
 14
1.0
 24
1.0
 15
0.0
 25
0.0
 16
0.0
 26
0.0
 36
1.0
 17
0.0
 27
0.0
 37
0.0
 40
9.158369
 41
0.688564
 42
50.0
 43
0.0
 44
0.0
 50
0.0
 51
0.0
 71
     0
 72
   100
 73
     1
 74
     1
 75
     0
 76
     0
 77
     0
 78
     0
281
     0
 65
     0
110
0.0
120
0.0
130
0.0
111
1.0
121
0.0
131
0.0
112
0.0
122
1.0
132
0.0
345
0
346
0
 79
     0
146
0.0
  0
ENDTAB
  0
TABLE
  2
LTYPE
  5
4
100
AcDbSymbolTable
 70
     4
  0
LTYPE
  5
11
100
AcDbSymbolTableRecord
100
AcDbLinetypeTableRecord
  2
ByBlock
 70
    64
  3

 72
    65
 73
     0
 40
0.0
  0
LTYPE
  5
12
100
AcDbSymbolTableRecord
100
AcDbLinetypeTableRecord
  2
ByLayer
 70
    64
  3

 72
    65
 73
     0
 40
0.0
  0
LTYPE
  5
13
100
AcDbSymbolTableRecord
100
AcDbLinetypeTableRecord
  2
Continuous
 70
    64
  3
Solid line
 72
    65
 73
     0
 40
0.0
  0
LTYPE
  5
52
100
AcDbSymbolTableRecord
100
AcDbLinetypeTableRecord
  2
AI9-LType1
 70
    64
  3
Illustrator Dash Style No.1
 72
    65
 73
     4
 40
8.000295
 49
4.99992
 74
     0
 49
-1.000125
 74
     0
 49
1.000125
 74
     0
 49
-1.000125
 74
     0
  0
ENDTAB
  0
TABLE
  2
LAYER
  5
2
100
AcDbSymbolTable
 70
     3
  0
LAYER
  5
14
100
AcDbSymbolTableRecord
100
AcDbLayerTableRecord
  2
0
 70
     0
 62
     7
  6
Continuous
290
     1
370
    -3
390
1D
  0
LAYER
  5
28
100
AcDbSymbolTableRecord
100
AcDbLayerTableRecord
  2
レイヤー_2
 70
     0
 62
     1
  6
Continuous
290
     1
370
    -3
390
1D
  0
LAYER
  5
1AB
100
AcDbSymbolTableRecord
100
AcDbLayerTableRecord
  2
レイヤー_1
 70
     4
 62
   160
  6
Continuous
290
     1
370
    -3
390
1D
  0
ENDTAB
  0
TABLE
  2
STYLE
  5
3
100
AcDbSymbolTable
 70
     5
  0
STYLE
  5
17
100
AcDbSymbolTableRecord
100
AcDbTextStyleTableRecord
  2
Standard
 70
     0
 40
0.0
 41
1.0
 50
0.0
 71
     0
 42
0.0
  3
txt
  4

  0
STYLE
  5
24
100
AcDbSymbolTableRecord
100
AcDbTextStyleTableRecord
  2
STD
 70
     0
 40
0.0
 41
1.0
 50
0.0
 71
     0
 42
0.0
  3
txt
  4

  0
STYLE
  5
25
100
AcDbSymbolTableRecord
100
AcDbTextStyleTableRecord
  2
TATESTD
 70
     4
 40
0.0
 41
1.0
 50
0.0
 71
     0
 42
0.0
  3
txt
  4

  0
STYLE
  5
26
100
AcDbSymbolTableRecord
100
AcDbTextStyleTableRecord
  2
KANJISTD
 70
     0
 40
0.0
 41
1.0
 50
0.0
 71
     0
 42
0.0
  3
txt
  4
extfont
  0
STYLE
  5
27
100
AcDbSymbolTableRecord
100
AcDbTextStyleTableRecord
  2
KANJITATE
 70
     4
 40
0.0
 41
1.0
 50
0.0
 71
     0
 42
0.0
  3
txt
  4
extfont
  0
ENDTAB
  0
TABLE
  2
VIEW
  5
5
100
AcDbSymbolTable
 70
     0
  0
ENDTAB
  0
TABLE
  2
UCS
  5
6
100
AcDbSymbolTable
 70
     0
  0
ENDTAB
  0
TABLE
  2
APPID
  5
8
100
AcDbSymbolTable
 70
     1
  0
APPID
  5
16
100
AcDbSymbolTableRecord
100
AcDbRegAppTableRecord
  2
ACAD
 70
     0
  0
ENDTAB
  0
TABLE
  2
DIMSTYLE
  5
9
100
AcDbSymbolTable
 70
     1
100
AcDbDimStyleTable
 71
     0
  0
DIMSTYLE
105
18
100
AcDbSymbolTableRecord
100
AcDbDimStyleTableRecord
  2
Standard
 70
     0
  3

  4

 40
1.0
 41
0.18
 42
0.0625
 43
0.38
 44
0.18
 45
0.0
 46
0.0
 47
0.0
 48
0.0
 71
     0
 72
     0
 73
     1
 74
     1
 75
     0
 76
     0
 77
     0
 78
     0
 79
     0
140
0.18
141
0.09
142
0.0
143
25.4
144
1.0
145
0.0
146
1.0
147
0.09
148
0.0
170
     0
171
     2
172
     0
173
     0
174
     0
175
     0
176
     0
177
     0
178
     0
179
     0
271
     4
272
     4
273
     2
274
     2
275
     0
276
     0
277
     2
278
    46
279
     0
280
     0
281
     0
282
     0
283
     1
284
     0
285
     0
286
     0
288
     0
340
17
341
0
342
0
343
0
344
0
371
    -2
372
    -2
  0
ENDTAB
  0
TABLE
  2
BLOCK_RECORD
  5
1
100
AcDbSymbolTable
 70
     4
  0
BLOCK_RECORD
  5
A
100
AcDbSymbolTableRecord
100
AcDbBlockTableRecord
  2
*MODEL_SPACE
340
20
  0
BLOCK_RECORD
  5
B
100
AcDbSymbolTableRecord
100
AcDbBlockTableRecord
  2
*PAPER_SPACE
340
21
  0
BLOCK_RECORD
  5
164
100
AcDbSymbolTableRecord
100
AcDbBlockTableRecord
  2
AI9-BLK1
340
0
102
{BLKREFS
331
165
102
}
  0
BLOCK_RECORD
  5
16A
100
AcDbSymbolTableRecord
100
AcDbBlockTableRecord
  2
AI9-BLK2
340
0
102
{BLKREFS
331
16B
102
}
  0
BLOCK_RECORD
  5
16D
100
AcDbSymbolTableRecord
100
AcDbBlockTableRecord
  2
AI9-BLK3
340
0
102
{BLKREFS
331
16E
102
}
  0
BLOCK_RECORD
  5
170
100
AcDbSymbolTableRecord
100
AcDbBlockTableRecord
  2
AI9-BLK4
340
0
102
{BLKREFS
331
171
102
}
  0
ENDTAB
  0
ENDSEC
  0
SECTION
  2
BLOCKS
  0
BLOCK
  5
D
100
AcDbEntity
  8
0
100
AcDbBlockBegin
  2
*MODEL_SPACE
 70
     0
 10
0.0
 20
0.0
 30
0.0
  3
*MODEL_SPACE
  1

  0
ENDBLK
  5
E
100
AcDbEntity
  8
0
100
AcDbBlockEnd
  0
BLOCK
  5
F
100
AcDbEntity
 67
     1
  8
0
100
AcDbBlockBegin
  2
*PAPER_SPACE
 70
     0
 10
0.0
 20
0.0
 30
0.0
  3
*PAPER_SPACE
  1

  0
ENDBLK
  5
10
100
AcDbEntity
 67
     1
  8
0
100
AcDbBlockEnd
  0
BLOCK
  5
166
100
AcDbEntity
  8
レイヤー_2
 62
     7
100
AcDbBlockBegin
  2
AI9-BLK1
 70
     0
 10
0.0
 20
0.0
 30
0.0
  3
AI9-BLK1
  1

  0
MTEXT
  5
168
100
AcDbEntity
  8
レイヤー_2
 62
     7
100
AcDbMText
 10
-10.83138
 20
4.089623
 30
0.0
 40
3.149801
 41
0.0
 71
     1
 72
     2
  1
\fMS PGothic|b0|i0|c128;\H3.1498;\C7;\U+63A5\U+7D9A\U+30BD\U+30B1\U+30C3\U+30C8
  7
STD
210
0.0
220
0.0
230
1.0
 73
     1
 44
1.0
  0
MTEXT
  5
167
100
AcDbEntity
  8
レイヤー_2
 62
     7
100
AcDbMText
 10
-10.83138
 20
-0.849265
 30
0.0
 40
3.149801
 41
0.0
 71
     1
 72
     2
  1
\fMS PGothic|b0|i0|c128;\H3.1498;\C7;\U+FF08\U+9006\U+6B62\U+5F01\U+4ED8\U+FF09
  7
STD
210
0.0
220
0.0
230
1.0
 73
     1
 44
1.0
  0
ENDBLK
  5
169
100
AcDbEntity
  8
レイヤー_2
100
AcDbBlockEnd
  0
BLOCK
  5
16C
100
AcDbEntity
  8
レイヤー_2
 62
     7
100
AcDbBlockBegin
  2
AI9-BLK2
 70
     0
 10
0.0
 20
0.0
 30
0.0
  3
AI9-BLK2
  1

  0
INSERT
  5
16E
100
AcDbEntity
  8
レイヤー_2
 62
     7
100
AcDbBlockReference
  2
AI9-BLK3
 10
0.0
 20
0.0
 30
0.0
  0
ENDBLK
  5
19A
100
AcDbEntity
  8
レイヤー_2
100
AcDbBlockEnd
  0
BLOCK
  5
16F
100
AcDbEntity
  8
レイヤー_2
 62
     7
100
AcDbBlockBegin
  2
AI9-BLK3
 70
     0
 10
0.0
 20
0.0
 30
0.0
  3
AI9-BLK3
  1

  0
INSERT
  5
171
100
AcDbEntity
  8
レイヤー_2
 62
     7
100
AcDbBlockReference
  2
AI9-BLK4
 10
0.0
 20
0.0
 30
0.0
  0
ENDBLK
  5
199
100
AcDbEntity
  8
レイヤー_2
100
AcDbBlockEnd
  0
BLOCK
  5
172
100
AcDbEntity
  8
レイヤー_2
 62
     7
100
AcDbBlockBegin
  2
AI9-BLK4
 70
     0
 10
0.0
 20
0.0
 30
0.0
  3
AI9-BLK4
  1

  0
LINE
  5
197
100
AcDbEntity
  8
レイヤー_2
 62
     7
100
AcDbLine
 10
-2.386245
 20
-0.739145
 30
0.0
 11
-2.246375
 21
-0.739145
 31
0.0
  0
LINE
  5
196
100
AcDbEntity
  8
レイヤー_2
 62
     7
100
AcDbLine
 10
-1.785076
 20
-4.109138
 30
0.0
 11
-1.785076
 21
-0.739145
 31
0.0
  0
LINE
  5
195
100
AcDbEntity
  8
レイヤー_2
 62
     7
100
AcDbLine
 10
-2.246375
 20
-0.739145
 30
0.0
 11
-2.386245
 21
-0.495577
 31
0.0
  0
LINE
  5
194
100
AcDbEntity
  8
レイヤー_2
 62
     7
100
AcDbLine
 10
2.245513
 20
-0.739145
 30
0.0
 11
2.386073
 21
-0.739145
 31
0.0
  0
LINE
  5
193
100
AcDbEntity
  8
レイヤー_2
 62
     7
100
AcDbLine
 10
1.75097
 20
-0.739145
 30
0.0
 11
1.75097
 21
-4.109138
 31
0.0
  0
LINE
  5
192
100
AcDbEntity
  8
レイヤー_2
 62
     7
100
AcDbLine
 10
2.386073
 20
-0.495577
 30
0.0
 11
2.245513
 21
-0.739145
 31
0.0
  0
LINE
  5
191
100
AcDbEntity
  8
レイヤー_2
 62
     7
100
AcDbLine
 10
-2.032779
 20
-4.109138
 30
0.0
 11
0.0
 21
-4.109138
 31
0.0
  0
LINE
  5
190
100
AcDbEntity
  8
レイヤー_2
 62
     7
100
AcDbLine
 10
2.386073
 20
-4.109138
 30
0.0
 11
-2.386245
 21
-4.109138
 31
0.0
  0
LINE
  5
18F
100
AcDbEntity
  8
レイヤー_2
 62
     7
100
AcDbLine
 10
3.333647
 20
3.85799
 30
0.0
 11
3.649217
 21
3.688147
 31
0.0
  0
LINE
  5
18E
100
AcDbEntity
  8
レイヤー_2
 62
     7
100
AcDbLine
 10
-3.649217
 20
3.688147
 30
0.0
 11
-3.333819
 21
3.85799
 31
0.0
  0
LINE
  5
18D
100
AcDbEntity
  8
レイヤー_2
 62
     7
100
AcDbLine
 10
3.649217
 20
0.193098
 30
0.0
 11
3.333647
 21
0.023943
 31
0.0
  0
LINE
  5
18C
100
AcDbEntity
  8
レイヤー_2
 62
     7
100
AcDbLine
 10
-3.333819
 20
0.023943
 30
0.0
 11
-3.649217
 21
0.193098
 31
0.0
  0
LINE
  5
18B
100
AcDbEntity
  8
レイヤー_2
 62
     7
100
AcDbLine
 10
3.228054
 20
4.109138
 30
0.0
 11
-3.228571
 21
4.109138
 31
0.0
  0
LINE
  5
18A
100
AcDbEntity
  8
レイヤー_2
 62
     7
100
AcDbLine
 10
2.215713
 20
3.688147
 30
0.0
 11
1.403704
 21
3.688147
 31
0.0
  0
LINE
  5
189
100
AcDbEntity
  8
レイヤー_2
 62
     7
100
AcDbLine
 10
-1.403704
 20
3.688147
 30
0.0
 11
-2.215713
 21
3.688147
 31
0.0
  0
LINE
  5
188
100
AcDbEntity
  8
レイヤー_2
 62
     7
100
AcDbLine
 10
-3.649217
 20
3.688147
 30
0.0
 11
-3.228571
 21
4.109138
 31
0.0
  0
LINE
  5
187
100
AcDbEntity
  8
レイヤー_2
 62
     7
100
AcDbLine
 10
3.649217
 20
3.688147
 30
0.0
 11
3.228054
 21
4.109138
 31
0.0
  0
LINE
  5
186
100
AcDbEntity
  8
レイヤー_2
 62
     7
100
AcDbLine
 10
-3.228571
 20
-0.228238
 30
0.0
 11
3.228054
 21
-0.228238
 31
0.0
  0
LINE
  5
185
100
AcDbEntity
  8
レイヤー_2
 62
     7
100
AcDbLine
 10
-3.228571
 20
-0.228238
 30
0.0
 11
-3.649217
 21
0.193098
 31
0.0
  0
LINE
  5
184
100
AcDbEntity
  8
レイヤー_2
 62
     7
100
AcDbLine
 10
-2.215713
 20
0.193098
 30
0.0
 11
-1.403704
 21
0.193098
 31
0.0
  0
LINE
  5
183
100
AcDbEntity
  8
レイヤー_2
 62
     7
100
AcDbLine
 10
1.403704
 20
0.193098
 30
0.0
 11
2.215713
 21
0.193098
 31
0.0
  0
LINE
  5
182
100
AcDbEntity
  8
レイヤー_2
 62
     7
100
AcDbLine
 10
3.228054
 20
-0.228238
 30
0.0
 11
3.649217
 21
0.193098
 31
0.0
  0
LINE
  5
181
100
AcDbEntity
  8
レイヤー_2
 62
     7
100
AcDbLine
 10
3.649217
 20
3.688147
 30
0.0
 11
3.649217
 21
0.193098
 31
0.0
  0
LINE
  5
180
100
AcDbEntity
  8
レイヤー_2
 62
     7
100
AcDbLine
 10
2.215713
 20
3.688147
 30
0.0
 11
2.215713
 21
0.193098
 31
0.0
  0
LINE
  5
17F
100
AcDbEntity
  8
レイヤー_2
 62
     7
100
AcDbLine
 10
1.403704
 20
3.688147
 30
0.0
 11
1.403704
 21
0.193098
 31
0.0
  0
LINE
  5
17E
100
AcDbEntity
  8
レイヤー_2
 62
     7
100
AcDbLine
 10
-1.403704
 20
3.688147
 30
0.0
 11
-1.403704
 21
0.193098
 31
0.0
  0
LINE
  5
17D
100
AcDbEntity
  8
レイヤー_2
 62
     7
100
AcDbLine
 10
-2.215713
 20
3.688147
 30
0.0
 11
-2.215713
 21
0.193098
 31
0.0
  0
LINE
  5
17C
100
AcDbEntity
  8
レイヤー_2
 62
     7
100
AcDbLine
 10
-3.649217
 20
3.688147
 30
0.0
 11
-3.649217
 21
0.193098
 31
0.0
  0
SPLINE
  5
17B
100
AcDbEntity
  8
レイヤー_2
 62
     7
100
AcDbSpline
210
0.0
220
0.0
230
1.0
 70
     8
 71
     3
 72
     8
 73
     4
 74
     0
 42
0.00000001
 43
0.00000001
 40
0.0
 40
0.0
 40
0.0
 40
0.0
 40
1.0
 40
1.0
 40
1.0
 40
1.0
 10
3.3336466471354163
 20
3.8579901801215275
 30
0.0
 10
2.9646769205729164
 20
4.0553941514756939
 30
0.0
 10
2.5094075520833332
 20
3.9858032226562496
 30
0.0
 10
2.2157131618923609
 20
3.6881469726562495
 30
0.0
  0
SPLINE
  5
17A
100
AcDbEntity
  8
レイヤー_2
 62
     7
100
AcDbSpline
210
0.0
220
0.0
230
1.0
 70
     8
 71
     3
 72
     8
 73
     4
 74
     0
 42
0.00000001
 43
0.00000001
 40
0.0
 40
0.0
 40
0.0
 40
0.0
 40
1.0
 40
1.0
 40
1.0
 40
1.0
 10
-2.2157131618923609
 20
3.6881469726562495
 30
0.0
 10
-2.5095798068576385
 20
3.9858032226562496
 30
0.0
 10
-2.9646769205729164
 20
4.0553941514756939
 30
0.0
 10
-3.333818901909722
 20
3.8579901801215275
 30
0.0
  0
SPLINE
  5
179
100
AcDbEntity
  8
レイヤー_2
 62
     7
100
AcDbSpline
210
0.0
220
0.0
230
1.0
 70
     8
 71
     3
 72
     8
 73
     4
 74
     0
 42
0.00000001
 43
0.00000001
 40
0.0
 40
0.0
 40
0.0
 40
0.0
 40
1.0
 40
1.0
 40
1.0
 40
1.0
 10
1.4037041558159722
 20
3.6881469726562495
 30
0.0
 10
0.5048787434895833
 20
4.0633178710937496
 30
0.0
 10
-0.5055677625868055
 20
4.0633178710937496
 30
0.0
 10
-1.4037041558159722
 20
3.6881469726562495
 30
0.0
  0
SPLINE
  5
178
100
AcDbEntity
  8
レイヤー_2
 62
     7
100
AcDbSpline
210
0.0
220
0.0
230
1.0
 70
     8
 71
     3
 72
     8
 73
     4
 74
     0
 42
0.00000001
 43
0.00000001
 40
0.0
 40
0.0
 40
0.0
 40
0.0
 40
1.0
 40
1.0
 40
1.0
 40
1.0
 10
2.2157131618923609
 20
0.1930976019965278
 30
0.0
 10
2.5094075520833332
 20
-0.1049031575520833
 30
0.0
 10
2.9646769205729164
 20
-0.1734605577256944
 30
0.0
 10
3.3336466471354163
 20
0.0239434136284722
 30
0.0
  0
SPLINE
  5
177
100
AcDbEntity
  8
レイヤー_2
 62
     7
100
AcDbSpline
210
0.0
220
0.0
230
1.0
 70
     8
 71
     3
 72
     8
 73
     4
 74
     0
 42
0.00000001
 43
0.00000001
 40
0.0
 40
0.0
 40
0.0
 40
0.0
 40
1.0
 40
1.0
 40
1.0
 40
1.0
 10
-3.333818901909722
 20
0.0239434136284722
 30
0.0
 10
-2.9646769205729164
 20
-0.1734605577256944
 30
0.0
 10
-2.5095798068576385
 20
-0.1049031575520833
 30
0.0
 10
-2.2157131618923609
 20
0.1930976019965278
 30
0.0
  0
SPLINE
  5
176
100
AcDbEntity
  8
レイヤー_2
 62
     7
100
AcDbSpline
210
0.0
220
0.0
230
1.0
 70
     8
 71
     3
 72
     8
 73
     4
 74
     0
 42
0.00000001
 43
0.00000001
 40
0.0
 40
0.0
 40
0.0
 40
0.0
 40
1.0
 40
1.0
 40
1.0
 40
1.0
 10
-1.4037041558159722
 20
0.1930976019965278
 30
0.0
 10
-0.5055677625868055
 20
-0.1810397677951389
 30
0.0
 10
0.5048787434895833
 20
-0.1810397677951389
 30
0.0
 10
1.4037041558159722
 20
0.1930976019965278
 30
0.0
  0
LINE
  5
175
100
AcDbEntity
  8
レイヤー_2
 62
     7
100
AcDbLine
 10
-2.386245
 20
-0.495577
 30
0.0
 11
-2.386245
 21
-4.109138
 31
0.0
  0
LINE
  5
174
100
AcDbEntity
  8
レイヤー_2
 62
     7
100
AcDbLine
 10
2.386073
 20
-4.109138
 30
0.0
 11
2.386073
 21
-0.495577
 31
0.0
  0
LINE
  5
173
100
AcDbEntity
  8
レイヤー_2
 62
     7
100
AcDbLine
 10
2.245513
 20
-0.739145
 30
0.0
 11
-2.246375
 21
-0.739145
 31
0.0
  0
ENDBLK
  5
198
100
AcDbEntity
  8
レイヤー_2
100
AcDbBlockEnd
  0
ENDSEC
  0
SECTION
  2
ENTITIES
  0
MTEXT
  5
1C6
100
AcDbEntity
  8
レイヤー_1
 62
     7
100
AcDbMText
 10
47.801389
 20
54.121991
 30
0.0
 40
3.674768
 41
0.0
 71
     1
 72
     2
  1
\fOsaka|b0|i0|c128;\H3.6748;\C7;\U+0031\U+0037\U+002E\U+0035\U+0031\U+0030\U+002E\U+0038\U+0038\U+0032\U+002E\U+0058\U+0058
  7
STD
210
0.0
220
0.0
230
1.0
 73
     1
 44
1.0
  0
MTEXT
  5
1C5
100
AcDbEntity
  8
レイヤー_1
 62
     7
100
AcDbMText
 10
39.6875
 20
56.608234
 30
0.0
 40
1.574901
 41
0.0
 71
     1
 72
     2
  1
\fOsaka|b0|i0|c128;\H1.5749;\C7;\U+54C1\U+756A
  7
STD
210
0.0
220
0.0
230
1.0
 73
     1
 44
1.0
  0
MTEXT
  5
1C4
100
AcDbEntity
  8
レイヤー_1
 62
     7
100
AcDbMText
 10
47.801389
 20
32.959209
 30
0.0
 40
3.149486
 41
0.0
 71
     1
 72
     2
  1
\fOsaka|b0|i0|c128;\H3.1495;\C7;\U+5358\U+6C34\U+6813
  7
STD
210
0.0
220
0.0
230
1.0
 73
     1
 44
1.0
  0
MTEXT
  5
1C3
100
AcDbEntity
  8
レイヤー_1
 62
     7
100
AcDbMText
 10
39.6875
 20
35.441567
 30
0.0
 40
1.574901
 41
0.0
 71
     1
 72
     2
  1
\fOsaka|b0|i0|c128;\H1.5749;\C7;\U+54C1
  7
STD
210
0.0
220
0.0
230
1.0
 73
     1
 44
1.0
  0
MTEXT
  5
1C2
100
AcDbEntity
  8
レイヤー_1
 62
     7
100
AcDbMText
 10
47.319248
 20
43.304752
 30
0.0
 40
3.499429
 41
0.0
 71
     1
 72
     2
  1
\fOsaka|b0|i0|c128;\H3.4994;\W0.90;\C7;\U+FF34\U+FF41\U+FF52\U+FF41
  7
STD
210
0.0
220
0.0
230
1.0
 73
     1
 44
1.0
  0
POLYLINE
  5
1BC
100
AcDbEntity
  8
レイヤー_1
 62
     7
100
AcDb2dPolyline
 66
     1
 10
0.0
 20
0.0
 30
0.0
 70
     1
  0
VERTEX
  5
1BD
100
AcDbEntity
  8
レイヤー_1
 62
     7
100
AcDbVertex
100
AcDb2dVertex
 10
23.636111
 20
26.105556
 30
0.0
  0
VERTEX
  5
1BE
100
AcDbEntity
  8
レイヤー_1
 62
     7
100
AcDbVertex
100
AcDb2dVertex
 10
198.613889
 20
26.105556
 30
0.0
  0
VERTEX
  5
1BF
100
AcDbEntity
  8
レイヤー_1
 62
     7
100
AcDbVertex
100
AcDb2dVertex
 10
198.613889
 20
276.577778
 30
0.0
  0
VERTEX
  5
1C0
100
AcDbEntity
  8
レイヤー_1
 62
     7
100
AcDbVertex
100
AcDb2dVertex
 10
23.636111
 20
276.577778
 30
0.0
  0
SEQEND
  5
1C1
100
AcDbEntity
  8
レイヤー_1
 62
     7
  0
LINE
  5
1BB
100
AcDbEntity
  8
レイヤー_1
 62
     7
100
AcDbLine
 10
170.568056
 20
36.5125
 30
0.0
 11
27.693056
 21
36.5125
 31
0.0
  0
LINE
  5
1BA
100
AcDbEntity
  8
レイヤー_1
 62
     7
100
AcDbLine
 10
170.568056
 20
47.095833
 30
0.0
 11
27.693056
 21
47.095833
 31
0.0
  0
LINE
  5
1B9
100
AcDbEntity
  8
レイヤー_1
 62
     7
100
AcDbLine
 10
23.636111
 20
57.855556
 30
0.0
 11
198.261111
 21
57.855556
 31
0.0
  0
LINE
  5
1B8
100
AcDbEntity
  8
レイヤー_1
 62
     7
100
AcDbLine
 10
170.744444
 20
57.855556
 30
0.0
 11
170.744444
 21
26.458333
 31
0.0
  0
MTEXT
  5
1B7
100
AcDbEntity
  8
レイヤー_1
 62
     7
100
AcDbMText
 10
33.3375
 20
46.024901
 30
0.0
 40
1.574901
 41
0.0
 71
     1
 72
     2
  1
\fOsaka|b0|i0|c128;\H1.5749;\C7;\U+30B7\U+30EA\U+30FC\U+30BA
  7
STD
210
0.0
220
0.0
230
1.0
 73
     1
 44
1.0
  0
MTEXT
  5
1B6
100
AcDbEntity
  8
レイヤー_1
 62
     7
100
AcDbMText
 10
174.095833
 20
54.655042
 30
0.0
 40
3.149486
 41
0.0
 71
     1
 72
     2
  1
\fHeiseiKakuGothicCAN W9|b0|i0|c128;\H3.1495;\C253;\U+5BF8\U+6CD5\U+53C2\U+8003\U+56F3
  7
STD
210
0.0
220
0.0
230
1.0
 73
     1
 44
1.0
  0
LINE
  5
1B5
100
AcDbEntity
  8
レイヤー_1
 62
     7
100
AcDbLine
 10
27.516667
 20
57.855556
 30
0.0
 11
27.516667
 21
26.458333
 31
0.0
  0
IMAGE
  5
1B2
100
AcDbEntity
  8
レイヤー_1
 62
     7
 92
        0
100
AcDbRasterImage
 90
        0
 10
172.155556
 20
28.574682
 30
0.0
 11
0.352531
 21
0.0
 31
0.0
 12
0.0
 22
0.352813
 32
0.0
 13
70.0
 23
9.0
340
1B4
 70
     7
280
     0
281
    50
282
    50
283
     0
360
1B3
 71
     1
 91
        2
 14
-0.5
 24
-0.5
 14
69.5
 24
8.5
  0
IMAGE
  5
1AF
100
AcDbEntity
  8
レイヤー_1
 62
     7
 92
        0
100
AcDbRasterImage
 90
        0
 10
172.155556
 20
28.574682
 30
0.0
 11
0.352531
 21
0.0
 31
0.0
 12
0.0
 22
0.352813
 32
0.0
 13
70.0
 23
9.0
340
1B1
 70
     7
280
     0
281
    50
282
    50
283
     0
360
1B0
 71
     1
 91
        2
 14
-0.5
 24
-0.5
 14
69.5
 24
8.5
  0
MTEXT
  5
1AE
100
AcDbEntity
  8
レイヤー_1
 62
     7
100
AcDbMText
 10
113.418056
 20
46.024901
 30
0.0
 40
1.574901
 41
0.0
 71
     1
 72
     2
  1
\fOsaka|b0|i0|c128;\H1.5749;\C7;\U+4ED5\U+4E0A
  7
STD
210
0.0
220
0.0
230
1.0
 73
     1
 44
1.0
  0
MTEXT
  5
1AD
100
AcDbEntity
  8
レイヤー_1
 62
     7
100
AcDbMText
 10
124.765511
 20
40.968164
 30
0.0
 40
1.162842
 41
0.0
 71
     1
 72
     2
  1
\fOsaka|b0|i0|c128;\H1.1628;\W2.71;\C7;
  7
STD
210
0.0
220
0.0
230
1.0
 73
     1
 44
1.0
  0
HATCH
  5
1AC
100
AcDbEntity
  8
レイヤー_1
 62
     7
100
AcDbHatch
 10
0.0
 20
0.0
 30
0.0
210
0.0
220
0.0
230
1.0
  2
SOLID
 70
     1
 71
     0
 91
        1
 92
        1
 93
        1
 72
     4
 94
        3
 73
     0
 74
     0
 95
       17
 96
       13
 40
0.0
 40
0.0
 40
0.0
 40
0.0
 40
1.0
 40
1.0
 40
1.0
 40
2.0
 40
2.0
 40
2.0
 40
3.0
 40
3.0
 40
3.0
 40
4.0
 40
4.0
 40
4.0
 40
4.0
 10
58.155967881944441
 20
40.211154513888886
 10
58.155967881944441
 20
40.016162109374996
 10
57.998010253906244
 20
39.858376736111104
 10
57.80319010416666
 20
39.858376736111104
 10
57.608369954427076
 20
39.858376736111104
 10
57.450412326388886
 20
40.016162109374996
 10
57.450412326388886
 20
40.211154513888886
 10
57.450412326388886
 20
40.406146918402776
 10
57.608369954427076
 20
40.56393229166666
 10
57.80319010416666
 20
40.56393229166666
 10
57.998010253906244
 20
40.56393229166666
 10
58.155967881944441
 20
40.406146918402776
 10
58.155967881944441
 20
40.211154513888886
 97
        0
 75
     2
 76
     1
 98
        1
 10
0.0
 20
0.0
  0
MTEXT
  5
1AA
100
AcDbEntity
  8
レイヤー_2
  6
AI9-LType1
 62
     7
100
AcDbMText
 10
140.426915
 20
236.996288
 30
0.0
 40
6.299603
 41
0.0
 71
     1
 72
     2
  1
\fMS Gothic|b0|i0|c128;\H6.2996;\C7;\U+0031\U+0030\U+0035
  7
STD
210
0.0
220
0.0
230
1.0
 73
     1
 44
1.0
  0
MTEXT
  5
1A9
100
AcDbEntity
  8
レイヤー_2
  6
AI9-LType1
 62
     7
100
AcDbMText
 10
74.402521
 20
236.996288
 30
0.0
 40
6.299603
 41
0.0
 71
     1
 72
     2
  1
\fMS Gothic|b0|i0|c128;\H6.2996;\C7;\U+0035\U+0030
  7
STD
210
0.0
220
0.0
230
1.0
 73
     1
 44
1.0
  0
MTEXT
  5
1A8
100
AcDbEntity
  8
レイヤー_2
  6
AI9-LType1
 62
     7
100
AcDbMText
 10
163.209375
 20
190.684343
 30
0.0
 40
6.299603
 41
0.0
 71
     1
 72
     2
  1
\fMS Gothic|b0|i0|c128;\H6.2996;\C7;\U+0031\U+0030\U+00B0
  7
STD
210
0.0
220
0.0
230
1.0
 11
0.76604
 21
0.64279
 31
0.0
 73
     1
 44
1.0
  0
MTEXT
  5
1A7
100
AcDbEntity
  8
レイヤー_2
  6
AI9-LType1
 62
     7
100
AcDbMText
 10
110.831133
 20
193.069253
 30
0.0
 40
6.299603
 41
0.0
 71
     1
 72
     2
  1
\fMS Gothic|b0|i0|c128;\H6.2996;\C7;\U+03C6\U+0034\U+0035
  7
STD
210
0.0
220
0.0
230
1.0
 73
     1
 44
1.0
  0
MTEXT
  5
1A6
100
AcDbEntity
  8
レイヤー_2
  6
AI9-LType1
 62
     7
100
AcDbMText
 10
38.05204
 20
189.218424
 30
0.0
 40
6.299603
 41
0.0
 71
     1
 72
     2
  1
\fMS Gothic|b0|i0|c128;\H6.2996;\C7;\U+0031\U+0039\U+0035
  7
STD
210
0.0
220
0.0
230
1.0
 11
0.0
 21
1.0
 31
0.0
 73
     1
 44
1.0
  0
MTEXT
  5
1A5
100
AcDbEntity
  8
レイヤー_2
  6
AI9-LType1
 62
     7
100
AcDbMText
 10
38.024824
 20
134.280176
 30
0.0
 40
6.299603
 41
0.0
 71
     1
 72
     2
  1
\fMS Gothic|b0|i0|c128;\H6.2996;\C7;\U+006D\U+0061\U+0078\U+002E\U+0032\U+0035
  7
STD
210
0.0
220
0.0
230
1.0
 11
0.0
 21
1.0
 31
0.0
 73
     1
 44
1.0
  0
MTEXT
  5
1A4
100
AcDbEntity
  8
レイヤー_2
  6
AI9-LType1
 62
     7
100
AcDbMText
 10
80.167372
 20
140.078173
 30
0.0
 40
6.299603
 41
0.0
 71
     1
 72
     2
  1
\fMS Gothic|b0|i0|c128;\H6.2996;\C7;\U+0047\U+0031\U+002F\U+0032
  7
STD
210
0.0
220
0.0
230
1.0
 73
     1
 44
1.0
  0
MTEXT
  5
1A3
100
AcDbEntity
  8
レイヤー_2
  6
AI9-LType1
 62
     7
100
AcDbMText
 10
179.801355
 20
177.493042
 30
0.0
 40
6.299603
 41
0.0
 71
     1
 72
     2
  1
\fMS Gothic|b0|i0|c128;\H6.2996;\C7;\U+0031\U+0031\U+0030
  7
STD
210
0.0
220
0.0
230
1.0
 11
0.0
 21
1.0
 31
0.0
 73
     1
 44
1.0
  0
LINE
  5
1A2
100
AcDbEntity
  8
レイヤー_2
  6
AI9-LType1
 62
     7
100
AcDbLine
 10
72.397648
 20
105.52293
 30
0.0
 11
72.397648
 21
153.458333
 31
0.0
  0
SPLINE
  5
1A1
100
AcDbEntity
  8
レイヤー_2
 62
     7
100
AcDbSpline
210
0.0
220
0.0
230
1.0
 70
     8
 71
     3
 72
    17
 73
    13
 74
     0
 42
0.00000001
 43
0.00000001
 40
0.0
 40
0.0
 40
0.0
 40
0.0
 40
1.0
 40
1.0
 40
1.0
 40
2.0
 40
2.0
 40
2.0
 40
3.0
 40
3.0
 40
3.0
 40
4.0
 40
4.0
 40
4.0
 40
4.0
 10
76.116284179687497
 20
110.75465223524304
 30
0.0
 10
76.116284179687497
 20
112.80861816406249
 30
0.0
 10
74.45092502170138
 20
114.4739773220486
 30
0.0
 10
72.397648111979166
 20
114.4739773220486
 30
0.0
 10
70.343682183159714
 20
114.4739773220486
 30
0.0
 10
68.678667534722223
 20
112.80861816406249
 30
0.0
 10
68.678667534722223
 20
110.75465223524304
 30
0.0
 10
68.678667534722223
 20
108.70137532552083
 30
0.0
 10
70.343682183159714
 20
107.03670518663193
 30
0.0
 10
72.397648111979166
 20
107.03670518663193
 30
0.0
 10
74.45092502170138
 20
107.03670518663193
 30
0.0
 10
76.116284179687497
 20
108.70137532552083
 30
0.0
 10
76.116284179687497
 20
110.75465223524304
 30
0.0
  0
LINE
  5
1A0
100
AcDbEntity
  8
レイヤー_2
  6
AI9-LType1
 62
     7
100
AcDbLine
 10
65.940161
 20
110.754652
 30
0.0
 11
77.848478
 21
110.754652
 31
0.0
  0
LINE
  5
19F
100
AcDbEntity
  8
レイヤー_2
 62
     7
100
AcDbLine
 10
79.158993
 20
104.061521
 30
0.0
 11
68.71553
 21
114.505672
 31
0.0
  0
LINE
  5
19E
100
AcDbEntity
  8
レイヤー_2
 62
     7
100
AcDbLine
 10
79.158993
 20
104.061521
 30
0.0
 11
116.837313
 21
104.061521
 31
0.0
  0
LINE
  5
19D
100
AcDbEntity
  8
レイヤー_2
 62
     7
100
AcDbLine
 10
68.591507
 20
113.375681
 30
0.0
 11
71.373077
 21
113.375681
 31
0.0
  0
LINE
  5
19C
100
AcDbEntity
  8
レイヤー_2
 62
     7
100
AcDbLine
 10
73.666132
 20
108.165318
 30
0.0
 11
76.447013
 21
108.165318
 31
0.0
  0
MTEXT
  5
19B
100
AcDbEntity
  8
レイヤー_2
 62
     7
100
AcDbMText
 10
79.033419
 20
110.660601
 30
0.0
 40
5.512152
 41
0.0
 71
     1
 72
     2
  1
\fMS Gothic|b0|i0|c128;\H5.5122;\C7;\U+03C6\U+0032\U+0038\U+FF5E\U+03C6\U+0033\U+0035
  7
STD
210
0.0
220
0.0
230
1.0
 73
     1
 44
1.0
  0
INSERT
  5
16B
100
AcDbEntity
  8
レイヤー_2
 62
     7
100
AcDbBlockReference
  2
AI9-BLK2
 10
72.363197
 20
147.327958
 30
0.0
  0
INSERT
  5
165
100
AcDbEntity
  8
レイヤー_2
 62
     7
100
AcDbBlockReference
  2
AI9-BLK1
 10
91.418365
 20
127.427536
 30
0.0
  0
LINE
  5
163
100
AcDbEntity
  8
レイヤー_2
 62
     7
100
AcDbLine
 10
137.795551
 20
184.123128
 30
0.0
 11
137.795551
 21
193.123096
 31
0.0
  0
LINE
  5
162
100
AcDbEntity
  8
レイヤー_2
 62
     7
100
AcDbLine
 10
137.795551
 20
173.373397
 30
0.0
 11
137.795551
 21
184.123128
 31
0.0
  0
LINE
  5
161
100
AcDbEntity
  8
レイヤー_2
 62
     7
100
AcDbLine
 10
131.295345
 20
184.123128
 30
0.0
 11
131.295345
 21
173.373397
 31
0.0
  0
LINE
  5
160
100
AcDbEntity
  8
レイヤー_2
 62
     7
100
AcDbLine
 10
131.295345
 20
190.413873
 30
0.0
 11
131.295345
 21
184.123128
 31
0.0
  0
LINE
  5
15F
100
AcDbEntity
  8
レイヤー_2
 62
     7
100
AcDbLine
 10
131.295345
 20
193.123096
 30
0.0
 11
131.295345
 21
190.291916
 31
0.0
  0
LINE
  5
15E
100
AcDbEntity
  8
レイヤー_2
 62
     7
100
AcDbLine
 10
131.295345
 20
193.123096
 30
0.0
 11
137.795551
 21
193.123096
 31
0.0
  0
LINE
  5
15D
100
AcDbEntity
  8
レイヤー_2
 62
     7
100
AcDbLine
 10
137.795551
 20
173.373397
 30
0.0
 11
131.295345
 21
173.373397
 31
0.0
  0
LINE
  5
15C
100
AcDbEntity
  8
レイヤー_2
 62
     7
100
AcDbLine
 10
140.253282
 20
171.373174
 30
0.0
 11
140.253282
 21
173.373397
 31
0.0
  0
LINE
  5
15B
100
AcDbEntity
  8
レイヤー_2
 62
     7
100
AcDbLine
 10
129.003323
 20
173.373397
 30
0.0
 11
129.003323
 21
171.373174
 31
0.0
  0
LINE
  5
15A
100
AcDbEntity
  8
レイヤー_2
 62
     7
100
AcDbLine
 10
140.253282
 20
173.373397
 30
0.0
 11
129.003323
 21
173.373397
 31
0.0
  0
LINE
  5
159
100
AcDbEntity
  8
レイヤー_2
 62
     7
100
AcDbLine
 10
140.253282
 20
171.373174
 30
0.0
 11
129.003323
 21
171.373174
 31
0.0
  0
LINE
  5
158
100
AcDbEntity
  8
レイヤー_2
 62
     7
100
AcDbLine
 10
75.6133
 20
187.642638
 30
0.0
 11
75.6133
 21
193.080893
 31
0.0
  0
LINE
  5
157
100
AcDbEntity
  8
レイヤー_2
 62
     7
100
AcDbLine
 10
75.6133
 20
173.329989
 30
0.0
 11
75.6133
 21
180.517491
 31
0.0
  0
LINE
  5
156
100
AcDbEntity
  8
レイヤー_2
 62
     7
100
AcDbLine
 10
69.113439
 20
193.080893
 30
0.0
 11
69.113439
 21
173.329989
 31
0.0
  0
SPLINE
  5
155
100
AcDbEntity
  8
レイヤー_2
 62
     7
100
AcDbSpline
210
0.0
220
0.0
230
1.0
 70
     8
 71
     3
 72
     8
 73
     4
 74
     0
 42
0.00000001
 43
0.00000001
 40
0.0
 40
0.0
 40
0.0
 40
0.0
 40
1.0
 40
1.0
 40
1.0
 40
1.0
 10
75.924392361111103
 20
180.83047824435764
 30
0.0
 10
75.752826605902769
 20
180.82910020616319
 30
0.0
 10
75.614678276909714
 20
180.69026285807291
 30
0.0
 10
75.613300238715269
 20
180.51886935763886
 30
0.0
  0
SPLINE
  5
154
100
AcDbEntity
  8
レイヤー_2
 62
     7
100
AcDbSpline
210
0.0
220
0.0
230
1.0
 70
     8
 71
     3
 72
     8
 73
     4
 74
     0
 42
0.00000001
 43
0.00000001
 40
0.0
 40
0.0
 40
0.0
 40
0.0
 40
1.0
 40
1.0
 40
1.0
 40
1.0
 10
75.613300238715269
 20
187.64091525607637
 30
0.0
 10
75.614678276909714
 20
187.46917724609372
 30
0.0
 10
75.753515624999991
 20
187.33120117187499
 30
0.0
 10
75.925081380208326
 20
187.33033989800344
 30
0.0
  0
LINE
  5
153
100
AcDbEntity
  8
レイヤー_2
 62
     7
100
AcDbLine
 10
75.926115
 20
180.830478
 30
0.0
 11
78.113751
 21
180.830478
 31
0.0
  0
LINE
  5
152
100
AcDbEntity
  8
レイヤー_2
 62
     7
100
AcDbLine
 10
78.113751
 20
187.33034
 30
0.0
 11
75.926115
 21
187.33034
 31
0.0
  0
LINE
  5
151
100
AcDbEntity
  8
レイヤー_2
 62
     7
100
AcDbLine
 10
131.327729
 20
193.080032
 30
0.0
 11
137.827935
 21
193.080032
 31
0.0
  0
LINE
  5
150
100
AcDbEntity
  8
レイヤー_2
 62
     7
100
AcDbLine
 10
75.6133
 20
173.329989
 30
0.0
 11
69.113439
 21
173.329989
 31
0.0
  0
LINE
  5
14F
100
AcDbEntity
  8
レイヤー_2
 62
     7
100
AcDbLine
 10
72.363542
 20
184.080409
 30
0.0
 11
75.322534
 21
181.047519
 31
0.0
  0
LINE
  5
14E
100
AcDbEntity
  8
レイヤー_2
 62
     7
100
AcDbLine
 10
72.363542
 20
184.080409
 30
0.0
 11
75.44828
 21
187.154123
 31
0.0
  0
LINE
  5
14D
100
AcDbEntity
  8
レイヤー_2
 62
     7
100
AcDbLine
 10
78.385224
 20
180.830478
 30
0.0
 11
78.385224
 21
187.33034
 31
0.0
  0
LINE
  5
14C
100
AcDbEntity
  8
レイヤー_2
 62
     7
100
AcDbLine
 10
78.013154
 20
171.329766
 30
0.0
 11
78.013154
 21
173.329989
 31
0.0
  0
LINE
  5
14B
100
AcDbEntity
  8
レイヤー_2
 62
     7
100
AcDbLine
 10
66.763539
 20
173.329989
 30
0.0
 11
66.763539
 21
171.329766
 31
0.0
  0
LINE
  5
14A
100
AcDbEntity
  8
レイヤー_2
 62
     7
100
AcDbLine
 10
78.013154
 20
173.329989
 30
0.0
 11
66.763539
 21
173.329989
 31
0.0
  0
LINE
  5
149
100
AcDbEntity
  8
レイヤー_2
 62
     7
100
AcDbLine
 10
78.013154
 20
171.329766
 30
0.0
 11
66.763539
 21
171.329766
 31
0.0
  0
LINE
  5
148
100
AcDbEntity
  8
レイヤー_2
 62
     7
100
AcDbLine
 10
75.6133
 20
173.329989
 30
0.0
 11
69.113439
 21
173.329989
 31
0.0
  0
LINE
  5
147
100
AcDbEntity
  8
レイヤー_2
 62
     7
100
AcDbLine
 10
137.054856
 20
193.080032
 30
0.0
 11
137.054856
 21
204.580278
 31
0.0
  0
LINE
  5
146
100
AcDbEntity
  8
レイヤー_2
 62
     7
100
AcDbLine
 10
132.054644
 20
204.580278
 30
0.0
 11
132.054644
 21
193.080032
 31
0.0
  0
SPLINE
  5
145
100
AcDbEntity
  8
レイヤー_2
 62
     7
100
AcDbSpline
210
0.0
220
0.0
230
1.0
 70
     8
 71
     3
 72
    11
 73
     7
 74
     0
 42
0.00000001
 43
0.00000001
 40
0.0
 40
0.0
 40
0.0
 40
0.0
 40
1.0
 40
1.0
 40
1.0
 40
2.0
 40
2.0
 40
2.0
 40
2.0
 10
156.95992838541665
 20
206.32177327473957
 30
0.0
 10
156.10520019531248
 20
211.16988389756943
 30
0.0
 10
151.90011664496527
 20
214.58655734592011
 30
0.0
 10
147.08352864583333
 20
214.60895046657984
 30
0.0
 10
141.54450412326386
 20
214.60895046657984
 30
0.0
 10
137.05485568576387
 20
210.118268500434
 30
0.0
 10
137.05485568576387
 20
204.58027750651038
 30
0.0
  0
SPLINE
  5
144
100
AcDbEntity
  8
レイヤー_2
 62
     7
100
AcDbSpline
210
0.0
220
0.0
230
1.0
 70
     8
 71
     3
 72
     8
 73
     4
 74
     0
 42
0.00000001
 43
0.00000001
 40
0.0
 40
0.0
 40
0.0
 40
0.0
 40
1.0
 40
1.0
 40
1.0
 40
1.0
 10
161.88365885416664
 20
207.18976508246527
 30
0.0
 10
160.60311686197915
 20
214.45529920789929
 30
0.0
 10
154.30134819878469
 20
219.57557237413192
 30
0.0
 10
147.08352864583333
 20
219.60864529079859
 30
0.0
  0
SPLINE
  5
143
100
AcDbEntity
  8
レイヤー_2
 62
     7
100
AcDbSpline
210
0.0
220
0.0
230
1.0
 70
     8
 71
     3
 72
     8
 73
     4
 74
     0
 42
0.00000001
 43
0.00000001
 40
0.0
 40
0.0
 40
0.0
 40
0.0
 40
1.0
 40
1.0
 40
1.0
 40
1.0
 10
147.08352864583333
 20
219.60864529079859
 30
0.0
 10
138.78291558159722
 20
219.60864529079859
 30
0.0
 10
132.05464409722222
 20
212.88020155164929
 30
0.0
 10
132.05464409722222
 20
204.58027750651038
 30
0.0
  0
LINE
  5
142
100
AcDbEntity
  8
レイヤー_2
 62
     7
100
AcDbLine
 10
162.361838
 20
204.481576
 30
0.0
 11
161.883659
 21
207.189765
 31
0.0
  0
LINE
  5
141
100
AcDbEntity
  8
レイヤー_2
 62
     7
100
AcDbLine
 10
156.959928
 20
206.321773
 30
0.0
 11
157.43673
 21
203.613411
 31
0.0
  0
LINE
  5
140
100
AcDbEntity
  8
レイヤー_2
 62
     7
100
AcDbLine
 10
136.917052
 20
193.080032
 30
0.0
 11
136.916363
 21
193.080032
 31
0.0
  0
LINE
  5
13F
100
AcDbEntity
  8
レイヤー_2
 62
     7
100
AcDbLine
 10
132.191759
 20
193.080032
 30
0.0
 11
132.191759
 21
193.080032
 31
0.0
  0
LINE
  5
13E
100
AcDbEntity
  8
レイヤー_2
 62
     7
100
AcDbLine
 10
157.43673
 20
203.613411
 30
0.0
 11
158.262174
 21
198.935489
 31
0.0
  0
LINE
  5
13D
100
AcDbEntity
  8
レイヤー_2
 62
     7
100
AcDbLine
 10
163.186249
 20
199.803825
 30
0.0
 11
162.361838
 21
204.481576
 31
0.0
  0
LINE
  5
13C
100
AcDbEntity
  8
レイヤー_2
 62
     7
100
AcDbLine
 10
132.054644
 20
193.080032
 30
0.0
 11
137.054856
 21
193.080032
 31
0.0
  0
LINE
  5
13B
100
AcDbEntity
  8
レイヤー_2
 62
     7
100
AcDbLine
 10
162.361838
 20
204.481576
 30
0.0
 11
157.43673
 21
203.613411
 31
0.0
  0
LINE
  5
13A
100
AcDbEntity
  8
レイヤー_2
 62
     7
100
AcDbLine
 10
132.191759
 20
193.080032
 30
0.0
 11
136.917052
 21
193.080032
 31
0.0
  0
LINE
  5
139
100
AcDbEntity
  8
レイヤー_2
 62
     7
100
AcDbLine
 10
157.43673
 20
203.613411
 30
0.0
 11
162.361838
 21
204.481576
 31
0.0
  0
LINE
  5
138
100
AcDbEntity
  8
レイヤー_2
 62
     7
100
AcDbLine
 10
158.262174
 20
198.935489
 30
0.0
 11
163.186249
 21
199.803825
 31
0.0
  0
LINE
  5
137
100
AcDbEntity
  8
レイヤー_2
 62
     7
100
AcDbLine
 10
69.113439
 20
193.080893
 30
0.0
 11
75.6133
 21
193.080893
 31
0.0
  0
LINE
  5
136
100
AcDbEntity
  8
レイヤー_2
 62
     7
100
AcDbLine
 10
74.9043
 20
204.048183
 30
0.0
 11
74.9043
 21
206.7562
 31
0.0
  0
LINE
  5
135
100
AcDbEntity
  8
レイヤー_2
 62
     7
100
AcDbLine
 10
69.904433
 20
206.7562
 30
0.0
 11
69.904433
 21
204.048183
 31
0.0
  0
SPLINE
  5
134
100
AcDbEntity
  8
レイヤー_2
 62
     7
100
AcDbSpline
210
0.0
220
0.0
230
1.0
 70
     8
 71
     3
 72
    11
 73
     7
 74
     0
 42
0.00000001
 43
0.00000001
 40
0.0
 40
0.0
 40
0.0
 40
0.0
 40
1.0
 40
1.0
 40
1.0
 40
2.0
 40
2.0
 40
2.0
 40
2.0
 10
74.904299587673606
 20
217.1095730251736
 30
0.0
 10
74.904299587673606
 20
218.49019504123262
 30
0.0
 10
73.784988064236103
 20
219.60950656467011
 30
0.0
 10
72.40453830295138
 20
219.60950656467011
 30
0.0
 10
71.024088541666657
 20
219.60950656467011
 30
0.0
 10
69.904432508680543
 20
218.49019504123262
 30
0.0
 10
69.904432508680543
 20
217.1095730251736
 30
0.0
  0
LINE
  5
133
100
AcDbEntity
  8
レイヤー_2
 62
     7
100
AcDbLine
 10
69.904433
 20
217.109573
 30
0.0
 11
69.904433
 21
206.7562
 31
0.0
  0
LINE
  5
132
100
AcDbEntity
  8
レイヤー_2
 62
     7
100
AcDbLine
 10
74.9043
 20
206.7562
 30
0.0
 11
74.9043
 21
217.109573
 31
0.0
  0
LINE
  5
131
100
AcDbEntity
  8
レイヤー_2
 62
     7
100
AcDbLine
 10
74.766151
 20
193.080893
 30
0.0
 11
74.766151
 21
193.080893
 31
0.0
  0
LINE
  5
130
100
AcDbEntity
  8
レイヤー_2
 62
     7
100
AcDbLine
 10
70.041892
 20
193.080893
 30
0.0
 11
70.041892
 21
193.080893
 31
0.0
  0
LINE
  5
12F
100
AcDbEntity
  8
レイヤー_2
 62
     7
100
AcDbLine
 10
69.904433
 20
204.048183
 30
0.0
 11
69.904433
 21
199.369915
 31
0.0
  0
LINE
  5
12E
100
AcDbEntity
  8
レイヤー_2
 62
     7
100
AcDbLine
 10
74.9043
 20
199.369915
 30
0.0
 11
74.9043
 21
204.048183
 31
0.0
  0
POLYLINE
  5
115
100
AcDbEntity
  8
レイヤー_2
 62
     7
100
AcDb2dPolyline
 66
     1
 10
0.0
 20
0.0
 30
0.0
  0
VERTEX
  5
116
100
AcDbEntity
  8
レイヤー_2
 62
     7
100
AcDbVertex
100
AcDb2dVertex
 10
74.9043
 20
204.048183
 30
0.0
  0
VERTEX
  5
117
100
AcDbEntity
  8
レイヤー_2
 62
     7
100
AcDbVertex
100
AcDb2dVertex
 10
74.878806
 20
204.109505
 30
0.0
  0
VERTEX
  5
118
100
AcDbEntity
  8
レイヤー_2
 62
     7
100
AcDbVertex
100
AcDb2dVertex
 10
74.802669
 20
204.170483
 30
0.0
  0
VERTEX
  5
119
100
AcDbEntity
  8
レイヤー_2
 62
     7
100
AcDbVertex
100
AcDb2dVertex
 10
74.678301
 20
204.228016
 30
0.0
  0
VERTEX
  5
11A
100
AcDbEntity
  8
レイヤー_2
 62
     7
100
AcDbVertex
100
AcDb2dVertex
 10
74.507769
 20
204.282621
 30
0.0
  0
VERTEX
  5
11B
100
AcDbEntity
  8
レイヤー_2
 62
     7
100
AcDbVertex
100
AcDb2dVertex
 10
74.293484
 20
204.332575
 30
0.0
  0
VERTEX
  5
11C
100
AcDbEntity
  8
レイヤー_2
 62
     7
100
AcDbVertex
100
AcDb2dVertex
 10
74.041648
 20
204.375811
 30
0.0
  0
VERTEX
  5
11D
100
AcDbEntity
  8
レイヤー_2
 62
     7
100
AcDbVertex
100
AcDb2dVertex
 10
73.755705
 20
204.413018
 30
0.0
  0
VERTEX
  5
11E
100
AcDbEntity
  8
レイヤー_2
 62
     7
100
AcDbVertex
100
AcDb2dVertex
 10
73.44289
 20
204.442646
 30
0.0
  0
VERTEX
  5
11F
100
AcDbEntity
  8
レイヤー_2
 62
     7
100
AcDbVertex
100
AcDb2dVertex
 10
73.108027
 20
204.464695
 30
0.0
  0
VERTEX
  5
120
100
AcDbEntity
  8
レイヤー_2
 62
     7
100
AcDbVertex
100
AcDb2dVertex
 10
72.759728
 20
204.477441
 30
0.0
  0
VERTEX
  5
121
100
AcDbEntity
  8
レイヤー_2
 62
     7
100
AcDbVertex
100
AcDb2dVertex
 10
72.404538
 20
204.481576
 30
0.0
  0
VERTEX
  5
122
100
AcDbEntity
  8
レイヤー_2
 62
     7
100
AcDbVertex
100
AcDb2dVertex
 10
72.04866
 20
204.477441
 30
0.0
  0
VERTEX
  5
123
100
AcDbEntity
  8
レイヤー_2
 62
     7
100
AcDbVertex
100
AcDb2dVertex
 10
71.700016
 20
204.464695
 30
0.0
  0
VERTEX
  5
124
100
AcDbEntity
  8
レイヤー_2
 62
     7
100
AcDbVertex
100
AcDb2dVertex
 10
71.365498
 20
204.442646
 30
0.0
  0
VERTEX
  5
125
100
AcDbEntity
  8
レイヤー_2
 62
     7
100
AcDbVertex
100
AcDb2dVertex
 10
71.052683
 20
204.413018
 30
0.0
  0
VERTEX
  5
126
100
AcDbEntity
  8
レイヤー_2
 62
     7
100
AcDbVertex
100
AcDb2dVertex
 10
70.767084
 20
204.375811
 30
0.0
  0
VERTEX
  5
127
100
AcDbEntity
  8
レイヤー_2
 62
     7
100
AcDbVertex
100
AcDb2dVertex
 10
70.515248
 20
204.332575
 30
0.0
  0
VERTEX
  5
128
100
AcDbEntity
  8
レイヤー_2
 62
     7
100
AcDbVertex
100
AcDb2dVertex
 10
70.301308
 20
204.282621
 30
0.0
  0
VERTEX
  5
129
100
AcDbEntity
  8
レイヤー_2
 62
     7
100
AcDbVertex
100
AcDb2dVertex
 10
70.130431
 20
204.228016
 30
0.0
  0
VERTEX
  5
12A
100
AcDbEntity
  8
レイヤー_2
 62
     7
100
AcDbVertex
100
AcDb2dVertex
 10
70.006063
 20
204.170483
 30
0.0
  0
VERTEX
  5
12B
100
AcDbEntity
  8
レイヤー_2
 62
     7
100
AcDbVertex
100
AcDb2dVertex
 10
69.929582
 20
204.109505
 30
0.0
  0
VERTEX
  5
12C
100
AcDbEntity
  8
レイヤー_2
 62
     7
100
AcDbVertex
100
AcDb2dVertex
 10
69.904433
 20
204.048183
 30
0.0
  0
SEQEND
  5
12D
100
AcDbEntity
  8
レイヤー_2
 62
     7
  0
LINE
  5
114
100
AcDbEntity
  8
レイヤー_2
 62
     7
100
AcDbLine
 10
69.904433
 20
193.080893
 30
0.0
 11
74.9043
 21
193.080893
 31
0.0
  0
LINE
  5
113
100
AcDbEntity
  8
レイヤー_2
 62
     7
100
AcDbLine
 10
70.041892
 20
193.080893
 30
0.0
 11
74.766151
 21
193.080893
 31
0.0
  0
POLYLINE
  5
10C
100
AcDbEntity
  8
レイヤー_2
 62
     7
100
AcDb2dPolyline
 66
     1
 10
0.0
 20
0.0
 30
0.0
  0
VERTEX
  5
10D
100
AcDbEntity
  8
レイヤー_2
 62
     7
100
AcDbVertex
100
AcDb2dVertex
 10
74.621457
 20
204.248343
 30
0.0
  0
VERTEX
  5
10E
100
AcDbEntity
  8
レイヤー_2
 62
     7
100
AcDbVertex
100
AcDb2dVertex
 10
74.763051
 20
204.191671
 30
0.0
  0
VERTEX
  5
10F
100
AcDbEntity
  8
レイヤー_2
 62
     7
100
AcDbVertex
100
AcDb2dVertex
 10
74.856757
 20
204.131898
 30
0.0
  0
VERTEX
  5
110
100
AcDbEntity
  8
レイヤー_2
 62
     7
100
AcDbVertex
100
AcDb2dVertex
 10
74.901199
 20
204.070231
 30
0.0
  0
VERTEX
  5
111
100
AcDbEntity
  8
レイヤー_2
 62
     7
100
AcDbVertex
100
AcDb2dVertex
 10
74.9043
 20
204.048183
 30
0.0
  0
SEQEND
  5
112
100
AcDbEntity
  8
レイヤー_2
 62
     7
  0
POLYLINE
  5
DD
100
AcDbEntity
  8
レイヤー_2
 62
     7
100
AcDb2dPolyline
 66
     1
 10
0.0
 20
0.0
 30
0.0
  0
VERTEX
  5
DE
100
AcDbEntity
  8
レイヤー_2
 62
     7
100
AcDbVertex
100
AcDb2dVertex
 10
74.621457
 20
199.570592
 30
0.0
  0
VERTEX
  5
DF
100
AcDbEntity
  8
レイヤー_2
 62
     7
100
AcDbVertex
100
AcDb2dVertex
 10
74.763051
 20
199.513748
 30
0.0
  0
VERTEX
  5
E0
100
AcDbEntity
  8
レイヤー_2
 62
     7
100
AcDbVertex
100
AcDb2dVertex
 10
74.856757
 20
199.454148
 30
0.0
  0
VERTEX
  5
E1
100
AcDbEntity
  8
レイヤー_2
 62
     7
100
AcDbVertex
100
AcDb2dVertex
 10
74.901199
 20
199.392653
 30
0.0
  0
VERTEX
  5
E2
100
AcDbEntity
  8
レイヤー_2
 62
     7
100
AcDbVertex
100
AcDb2dVertex
 10
74.89362
 20
199.330986
 30
0.0
  0
VERTEX
  5
E3
100
AcDbEntity
  8
レイヤー_2
 62
     7
100
AcDbVertex
100
AcDb2dVertex
 10
74.836431
 20
199.269491
 30
0.0
  0
VERTEX
  5
E4
100
AcDbEntity
  8
レイヤー_2
 62
     7
100
AcDbVertex
100
AcDb2dVertex
 10
74.728944
 20
199.210752
 30
0.0
  0
VERTEX
  5
E5
100
AcDbEntity
  8
レイヤー_2
 62
     7
100
AcDbVertex
100
AcDb2dVertex
 10
74.574948
 20
199.154424
 30
0.0
  0
VERTEX
  5
E6
100
AcDbEntity
  8
レイヤー_2
 62
     7
100
AcDbVertex
100
AcDb2dVertex
 10
74.376511
 20
199.103609
 30
0.0
  0
VERTEX
  5
E7
100
AcDbEntity
  8
レイヤー_2
 62
     7
100
AcDbVertex
100
AcDb2dVertex
 10
74.137766
 20
199.0571
 30
0.0
  0
VERTEX
  5
E8
100
AcDbEntity
  8
レイヤー_2
 62
     7
100
AcDbVertex
100
AcDb2dVertex
 10
73.863192
 20
199.017999
 30
0.0
  0
VERTEX
  5
E9
100
AcDbEntity
  8
レイヤー_2
 62
     7
100
AcDbVertex
100
AcDb2dVertex
 10
73.559334
 20
198.985442
 30
0.0
  0
VERTEX
  5
EA
100
AcDbEntity
  8
レイヤー_2
 62
     7
100
AcDbVertex
100
AcDb2dVertex
 10
73.23205
 20
198.960465
 30
0.0
  0
VERTEX
  5
EB
100
AcDbEntity
  8
レイヤー_2
 62
     7
100
AcDbVertex
100
AcDb2dVertex
 10
72.88823
 20
198.943929
 30
0.0
  0
VERTEX
  5
EC
100
AcDbEntity
  8
レイヤー_2
 62
     7
100
AcDbVertex
100
AcDb2dVertex
 10
72.534418
 20
198.93635
 30
0.0
  0
VERTEX
  5
ED
100
AcDbEntity
  8
レイヤー_2
 62
     7
100
AcDbVertex
100
AcDb2dVertex
 10
72.177162
 20
198.937211
 30
0.0
  0
VERTEX
  5
EE
100
AcDbEntity
  8
レイヤー_2
 62
     7
100
AcDbVertex
100
AcDb2dVertex
 10
71.825418
 20
198.947891
 30
0.0
  0
VERTEX
  5
EF
100
AcDbEntity
  8
レイヤー_2
 62
     7
100
AcDbVertex
100
AcDb2dVertex
 10
71.485042
 20
198.965978
 30
0.0
  0
VERTEX
  5
F0
100
AcDbEntity
  8
レイヤー_2
 62
     7
100
AcDbVertex
100
AcDb2dVertex
 10
71.163615
 20
198.993022
 30
0.0
  0
VERTEX
  5
F1
100
AcDbEntity
  8
レイヤー_2
 62
     7
100
AcDbVertex
100
AcDb2dVertex
 10
70.867681
 20
199.027473
 30
0.0
  0
VERTEX
  5
F2
100
AcDbEntity
  8
レイヤー_2
 62
     7
100
AcDbVertex
100
AcDb2dVertex
 10
70.602409
 20
199.069331
 30
0.0
  0
VERTEX
  5
F3
100
AcDbEntity
  8
レイヤー_2
 62
     7
100
AcDbVertex
100
AcDb2dVertex
 10
70.374344
 20
199.117217
 30
0.0
  0
VERTEX
  5
F4
100
AcDbEntity
  8
レイヤー_2
 62
     7
100
AcDbVertex
100
AcDb2dVertex
 10
70.187275
 20
199.169583
 30
0.0
  0
VERTEX
  5
F5
100
AcDbEntity
  8
レイヤー_2
 62
     7
100
AcDbVertex
100
AcDb2dVertex
 10
70.045681
 20
199.226427
 30
0.0
  0
VERTEX
  5
F6
100
AcDbEntity
  8
レイヤー_2
 62
     7
100
AcDbVertex
100
AcDb2dVertex
 10
69.951286
 20
199.286027
 30
0.0
  0
VERTEX
  5
F7
100
AcDbEntity
  8
レイヤー_2
 62
     7
100
AcDbVertex
100
AcDb2dVertex
 10
69.908222
 20
199.347866
 30
0.0
  0
VERTEX
  5
F8
100
AcDbEntity
  8
レイヤー_2
 62
     7
100
AcDbVertex
100
AcDb2dVertex
 10
69.914423
 20
199.409706
 30
0.0
  0
VERTEX
  5
F9
100
AcDbEntity
  8
レイヤー_2
 62
     7
100
AcDbVertex
100
AcDb2dVertex
 10
69.971612
 20
199.470684
 30
0.0
  0
VERTEX
  5
FA
100
AcDbEntity
  8
レイヤー_2
 62
     7
100
AcDbVertex
100
AcDb2dVertex
 10
70.079443
 20
199.529423
 30
0.0
  0
VERTEX
  5
FB
100
AcDbEntity
  8
レイヤー_2
 62
     7
100
AcDbVertex
100
AcDb2dVertex
 10
70.233784
 20
199.584889
 30
0.0
  0
VERTEX
  5
FC
100
AcDbEntity
  8
レイヤー_2
 62
     7
100
AcDbVertex
100
AcDb2dVertex
 10
70.432221
 20
199.637082
 30
0.0
  0
VERTEX
  5
FD
100
AcDbEntity
  8
レイヤー_2
 62
     7
100
AcDbVertex
100
AcDb2dVertex
 10
70.671311
 20
199.68273
 30
0.0
  0
VERTEX
  5
FE
100
AcDbEntity
  8
レイヤー_2
 62
     7
100
AcDbVertex
100
AcDb2dVertex
 10
70.945196
 20
199.722521
 30
0.0
  0
VERTEX
  5
FF
100
AcDbEntity
  8
レイヤー_2
 62
     7
100
AcDbVertex
100
AcDb2dVertex
 10
71.248709
 20
199.754732
 30
0.0
  0
VERTEX
  5
100
100
AcDbEntity
  8
レイヤー_2
 62
     7
100
AcDbVertex
100
AcDb2dVertex
 10
71.575993
 20
199.779709
 30
0.0
  0
VERTEX
  5
101
100
AcDbEntity
  8
レイヤー_2
 62
     7
100
AcDbVertex
100
AcDb2dVertex
 10
71.920502
 20
199.796246
 30
0.0
  0
VERTEX
  5
102
100
AcDbEntity
  8
レイヤー_2
 62
     7
100
AcDbVertex
100
AcDb2dVertex
 10
72.274314
 20
199.803825
 30
0.0
  0
VERTEX
  5
103
100
AcDbEntity
  8
レイヤー_2
 62
     7
100
AcDbVertex
100
AcDb2dVertex
 10
72.630881
 20
199.802447
 30
0.0
  0
VERTEX
  5
104
100
AcDbEntity
  8
レイヤー_2
 62
     7
100
AcDbVertex
100
AcDb2dVertex
 10
72.983314
 20
199.792284
 30
0.0
  0
VERTEX
  5
105
100
AcDbEntity
  8
レイヤー_2
 62
     7
100
AcDbVertex
100
AcDb2dVertex
 10
73.322656
 20
199.773336
 30
0.0
  0
VERTEX
  5
106
100
AcDbEntity
  8
レイヤー_2
 62
     7
100
AcDbVertex
100
AcDb2dVertex
 10
73.644428
 20
199.746981
 30
0.0
  0
VERTEX
  5
107
100
AcDbEntity
  8
レイヤー_2
 62
     7
100
AcDbVertex
100
AcDb2dVertex
 10
73.941395
 20
199.712358
 30
0.0
  0
VERTEX
  5
108
100
AcDbEntity
  8
レイヤー_2
 62
     7
100
AcDbVertex
100
AcDb2dVertex
 10
74.205979
 20
199.670844
 30
0.0
  0
VERTEX
  5
109
100
AcDbEntity
  8
レイヤー_2
 62
     7
100
AcDbVertex
100
AcDb2dVertex
 10
74.434044
 20
199.623474
 30
0.0
  0
VERTEX
  5
10A
100
AcDbEntity
  8
レイヤー_2
 62
     7
100
AcDbVertex
100
AcDb2dVertex
 10
74.621457
 20
199.570592
 30
0.0
  0
SEQEND
  5
10B
100
AcDbEntity
  8
レイヤー_2
 62
     7
  0
POLYLINE
  5
B3
100
AcDbEntity
  8
レイヤー_2
 62
     7
100
AcDb2dPolyline
 66
     1
 10
0.0
 20
0.0
 30
0.0
  0
VERTEX
  5
B4
100
AcDbEntity
  8
レイヤー_2
 62
     7
100
AcDbVertex
100
AcDb2dVertex
 10
74.122952
 20
199.52615
 30
0.0
  0
VERTEX
  5
B5
100
AcDbEntity
  8
レイヤー_2
 62
     7
100
AcDbVertex
100
AcDb2dVertex
 10
74.243875
 20
199.47568
 30
0.0
  0
VERTEX
  5
B6
100
AcDbEntity
  8
レイヤー_2
 62
     7
100
AcDbVertex
100
AcDb2dVertex
 10
74.3176
 20
199.423142
 30
0.0
  0
VERTEX
  5
B7
100
AcDbEntity
  8
レイヤー_2
 62
     7
100
AcDbVertex
100
AcDb2dVertex
 10
74.341715
 20
199.369054
 30
0.0
  0
VERTEX
  5
B8
100
AcDbEntity
  8
レイヤー_2
 62
     7
100
AcDbVertex
100
AcDb2dVertex
 10
74.315877
 20
199.31531
 30
0.0
  0
VERTEX
  5
B9
100
AcDbEntity
  8
レイヤー_2
 62
     7
100
AcDbVertex
100
AcDb2dVertex
 10
74.24043
 20
199.262773
 30
0.0
  0
VERTEX
  5
BA
100
AcDbEntity
  8
レイヤー_2
 62
     7
100
AcDbVertex
100
AcDb2dVertex
 10
74.116751
 20
199.213163
 30
0.0
  0
VERTEX
  5
BB
100
AcDbEntity
  8
レイヤー_2
 62
     7
100
AcDbVertex
100
AcDb2dVertex
 10
73.949664
 20
199.167171
 30
0.0
  0
VERTEX
  5
BC
100
AcDbEntity
  8
レイヤー_2
 62
     7
100
AcDbVertex
100
AcDb2dVertex
 10
73.742613
 20
199.126519
 30
0.0
  0
VERTEX
  5
BD
100
AcDbEntity
  8
レイヤー_2
 62
     7
100
AcDbVertex
100
AcDb2dVertex
 10
73.500079
 20
199.092585
 30
0.0
  0
VERTEX
  5
BE
100
AcDbEntity
  8
レイヤー_2
 62
     7
100
AcDbVertex
100
AcDb2dVertex
 10
73.229639
 20
199.065541
 30
0.0
  0
VERTEX
  5
BF
100
AcDbEntity
  8
レイヤー_2
 62
     7
100
AcDbVertex
100
AcDb2dVertex
 10
72.937839
 20
199.046937
 30
0.0
  0
VERTEX
  5
C0
100
AcDbEntity
  8
レイヤー_2
 62
     7
100
AcDbVertex
100
AcDb2dVertex
 10
72.631915
 20
199.035913
 30
0.0
  0
VERTEX
  5
C1
100
AcDbEntity
  8
レイヤー_2
 62
     7
100
AcDbVertex
100
AcDb2dVertex
 10
72.320822
 20
199.034191
 30
0.0
  0
VERTEX
  5
C2
100
AcDbEntity
  8
レイヤー_2
 62
     7
100
AcDbVertex
100
AcDb2dVertex
 10
72.011108
 20
199.040908
 30
0.0
  0
VERTEX
  5
C3
100
AcDbEntity
  8
レイヤー_2
 62
     7
100
AcDbVertex
100
AcDb2dVertex
 10
71.711385
 20
199.055722
 30
0.0
  0
VERTEX
  5
C4
100
AcDbEntity
  8
レイヤー_2
 62
     7
100
AcDbVertex
100
AcDb2dVertex
 10
71.430954
 20
199.078977
 30
0.0
  0
VERTEX
  5
C5
100
AcDbEntity
  8
レイヤー_2
 62
     7
100
AcDbVertex
100
AcDb2dVertex
 10
71.174639
 20
199.110327
 30
0.0
  0
VERTEX
  5
C6
100
AcDbEntity
  8
レイヤー_2
 62
     7
100
AcDbVertex
100
AcDb2dVertex
 10
70.950363
 20
199.147534
 30
0.0
  0
VERTEX
  5
C7
100
AcDbEntity
  8
レイヤー_2
 62
     7
100
AcDbVertex
100
AcDb2dVertex
 10
70.763639
 20
199.19077
 30
0.0
  0
VERTEX
  5
C8
100
AcDbEntity
  8
レイヤー_2
 62
     7
100
AcDbVertex
100
AcDb2dVertex
 10
70.619634
 20
199.239001
 30
0.0
  0
VERTEX
  5
C9
100
AcDbEntity
  8
レイヤー_2
 62
     7
100
AcDbVertex
100
AcDb2dVertex
 10
70.522138
 20
199.290333
 30
0.0
  0
VERTEX
  5
CA
100
AcDbEntity
  8
レイヤー_2
 62
     7
100
AcDbVertex
100
AcDb2dVertex
 10
70.472873
 20
199.344077
 30
0.0
  0
VERTEX
  5
CB
100
AcDbEntity
  8
レイヤー_2
 62
     7
100
AcDbVertex
100
AcDb2dVertex
 10
70.473562
 20
199.39782
 30
0.0
  0
VERTEX
  5
CC
100
AcDbEntity
  8
レイヤー_2
 62
     7
100
AcDbVertex
100
AcDb2dVertex
 10
70.52455
 20
199.451564
 30
0.0
  0
VERTEX
  5
CD
100
AcDbEntity
  8
レイヤー_2
 62
     7
100
AcDbVertex
100
AcDb2dVertex
 10
70.623424
 20
199.502724
 30
0.0
  0
VERTEX
  5
CE
100
AcDbEntity
  8
レイヤー_2
 62
     7
100
AcDbVertex
100
AcDb2dVertex
 10
70.769151
 20
199.55061
 30
0.0
  0
VERTEX
  5
CF
100
AcDbEntity
  8
レイヤー_2
 62
     7
100
AcDbVertex
100
AcDb2dVertex
 10
70.957943
 20
199.59333
 30
0.0
  0
VERTEX
  5
D0
100
AcDbEntity
  8
レイヤー_2
 62
     7
100
AcDbVertex
100
AcDb2dVertex
 10
71.183252
 20
199.631053
 30
0.0
  0
VERTEX
  5
D1
100
AcDbEntity
  8
レイヤー_2
 62
     7
100
AcDbVertex
100
AcDb2dVertex
 10
71.440601
 20
199.661542
 30
0.0
  0
VERTEX
  5
D2
100
AcDbEntity
  8
レイヤー_2
 62
     7
100
AcDbVertex
100
AcDb2dVertex
 10
71.722409
 20
199.685314
 30
0.0
  0
VERTEX
  5
D3
100
AcDbEntity
  8
レイヤー_2
 62
     7
100
AcDbVertex
100
AcDb2dVertex
 10
72.022133
 20
199.700127
 30
0.0
  0
VERTEX
  5
D4
100
AcDbEntity
  8
レイヤー_2
 62
     7
100
AcDbVertex
100
AcDb2dVertex
 10
72.331847
 20
199.706501
 30
0.0
  0
VERTEX
  5
D5
100
AcDbEntity
  8
レイヤー_2
 62
     7
100
AcDbVertex
100
AcDb2dVertex
 10
72.642939
 20
199.703917
 30
0.0
  0
VERTEX
  5
D6
100
AcDbEntity
  8
レイヤー_2
 62
     7
100
AcDbVertex
100
AcDb2dVertex
 10
72.948863
 20
199.692893
 30
0.0
  0
VERTEX
  5
D7
100
AcDbEntity
  8
レイヤー_2
 62
     7
100
AcDbVertex
100
AcDb2dVertex
 10
73.239629
 20
199.673428
 30
0.0
  0
VERTEX
  5
D8
100
AcDbEntity
  8
レイヤー_2
 62
     7
100
AcDbVertex
100
AcDb2dVertex
 10
73.50938
 20
199.646384
 30
0.0
  0
VERTEX
  5
D9
100
AcDbEntity
  8
レイヤー_2
 62
     7
100
AcDbVertex
100
AcDb2dVertex
 10
73.750193
 20
199.61245
 30
0.0
  0
VERTEX
  5
DA
100
AcDbEntity
  8
レイヤー_2
 62
     7
100
AcDbVertex
100
AcDb2dVertex
 10
73.956554
 20
199.571798
 30
0.0
  0
VERTEX
  5
DB
100
AcDbEntity
  8
レイヤー_2
 62
     7
100
AcDbVertex
100
AcDb2dVertex
 10
74.122952
 20
199.52615
 30
0.0
  0
SEQEND
  5
DC
100
AcDbEntity
  8
レイヤー_2
 62
     7
  0
LINE
  5
B2
100
AcDbEntity
  8
レイヤー_2
 62
     7
100
AcDbLine
 10
83.288973
 20
187.33034
 30
0.0
 11
83.207669
 21
187.33034
 31
0.0
  0
LINE
  5
B1
100
AcDbEntity
  8
レイヤー_2
 62
     7
100
AcDbLine
 10
81.676324
 20
187.33034
 30
0.0
 11
78.385224
 21
187.33034
 31
0.0
  0
LINE
  5
B0
100
AcDbEntity
  8
レイヤー_2
 62
     7
100
AcDbLine
 10
84.636005
 20
187.33034
 30
0.0
 11
83.157715
 21
187.33034
 31
0.0
  0
LINE
  5
AF
100
AcDbEntity
  8
レイヤー_2
 62
     7
100
AcDbLine
 10
82.89761
 20
180.830478
 30
0.0
 11
84.636005
 21
180.830478
 31
0.0
  0
LINE
  5
AE
100
AcDbEntity
  8
レイヤー_2
 62
     7
100
AcDbLine
 10
78.385224
 20
180.830478
 30
0.0
 11
82.899677
 21
180.830478
 31
0.0
  0
LINE
  5
AD
100
AcDbEntity
  8
レイヤー_2
 62
     7
100
AcDbLine
 10
78.385224
 20
184.080409
 30
0.0
 11
78.385224
 21
180.830478
 31
0.0
  0
LINE
  5
AC
100
AcDbEntity
  8
レイヤー_2
 62
     7
100
AcDbLine
 10
78.385224
 20
187.33034
 30
0.0
 11
78.385224
 21
184.080409
 31
0.0
  0
LINE
  5
AB
100
AcDbEntity
  8
レイヤー_2
 62
     7
100
AcDbLine
 10
84.636005
 20
184.080409
 30
0.0
 11
84.636005
 21
180.830478
 31
0.0
  0
LINE
  5
AA
100
AcDbEntity
  8
レイヤー_2
 62
     7
100
AcDbLine
 10
84.636005
 20
187.33034
 30
0.0
 11
84.636005
 21
184.080409
 31
0.0
  0
LINE
  5
A9
100
AcDbEntity
  8
レイヤー_2
 62
     7
100
AcDbLine
 10
74.885007
 20
164.001704
 30
0.0
 11
74.885007
 21
169.266498
 31
0.0
  0
LINE
  5
A8
100
AcDbEntity
  8
レイヤー_2
 62
     7
100
AcDbLine
 10
69.682568
 20
169.266498
 30
0.0
 11
69.682568
 21
164.001704
 31
0.0
  0
LINE
  5
A7
100
AcDbEntity
  8
レイヤー_2
 62
     7
100
AcDbLine
 10
69.471384
 20
160.251373
 30
0.0
 11
75.096536
 21
160.251373
 31
0.0
  0
LINE
  5
A6
100
AcDbEntity
  8
レイヤー_2
 62
     7
100
AcDbLine
 10
137.330463
 20
163.914887
 30
0.0
 11
137.330463
 21
169.344358
 31
0.0
  0
LINE
  5
A5
100
AcDbEntity
  8
レイヤー_2
 62
     7
100
AcDbLine
 10
132.12768
 20
169.344358
 30
0.0
 11
132.12768
 21
163.914887
 31
0.0
  0
LINE
  5
A4
100
AcDbEntity
  8
レイヤー_2
 62
     7
100
AcDbLine
 10
130.824745
 20
160.173169
 30
0.0
 11
138.56174
 21
160.173169
 31
0.0
  0
LINE
  5
A3
100
AcDbEntity
  8
レイヤー_2
 62
     7
100
AcDbLine
 10
68.096102
 20
169.344358
 30
0.0
 11
76.471129
 21
169.344358
 31
0.0
  0
LINE
  5
A2
100
AcDbEntity
  8
レイヤー_2
 62
     7
100
AcDbLine
 10
70.161781
 20
169.266498
 30
0.0
 11
70.161781
 21
164.001704
 31
0.0
  0
LINE
  5
A1
100
AcDbEntity
  8
レイヤー_2
 62
     7
100
AcDbLine
 10
74.375477
 20
164.001704
 30
0.0
 11
74.375477
 21
169.266498
 31
0.0
  0
SPLINE
  5
A0
100
AcDbEntity
  8
レイヤー_2
 62
     7
100
AcDbSpline
210
0.0
220
0.0
230
1.0
 70
     8
 71
     3
 72
     8
 73
     4
 74
     0
 42
0.00000001
 43
0.00000001
 40
0.0
 40
0.0
 40
0.0
 40
0.0
 40
1.0
 40
1.0
 40
1.0
 40
1.0
 10
139.60353732638887
 20
162.28983561197916
 30
0.0
 10
139.6724392361111
 20
162.28983561197916
 30
0.0
 10
139.7282497829861
 20
162.34599066840278
 30
0.0
 10
139.7282497829861
 20
162.41489257812498
 30
0.0
  0
SPLINE
  5
9F
100
AcDbEntity
  8
レイヤー_2
 62
     7
100
AcDbSpline
210
0.0
220
0.0
230
1.0
 70
     8
 71
     3
 72
     8
 73
     4
 74
     0
 42
0.00000001
 43
0.00000001
 40
0.0
 40
0.0
 40
0.0
 40
0.0
 40
1.0
 40
1.0
 40
1.0
 40
1.0
 10
129.728515625
 20
162.41489257812498
 30
0.0
 10
129.728515625
 20
162.34599066840278
 30
0.0
 10
129.78432617187499
 20
162.28983561197916
 30
0.0
 10
129.85391710069445
 20
162.28983561197916
 30
0.0
  0
LINE
  5
9E
100
AcDbEntity
  8
レイヤー_2
 62
     7
100
AcDbLine
 10
129.728516
 20
162.91512
 30
0.0
 11
129.728516
 21
162.414893
 31
0.0
  0
LINE
  5
9D
100
AcDbEntity
  8
レイヤー_2
 62
     7
100
AcDbLine
 10
139.72825
 20
162.414893
 30
0.0
 11
139.72825
 21
162.91512
 31
0.0
  0
LINE
  5
9C
100
AcDbEntity
  8
レイヤー_2
 62
     7
100
AcDbLine
 10
139.978364
 20
162.91512
 30
0.0
 11
139.978364
 21
163.165234
 31
0.0
  0
LINE
  5
9B
100
AcDbEntity
  8
レイヤー_2
 62
     7
100
AcDbLine
 10
129.478402
 20
163.165234
 30
0.0
 11
129.478402
 21
162.91512
 31
0.0
  0
LINE
  5
9A
100
AcDbEntity
  8
レイヤー_2
 62
     7
100
AcDbLine
 10
140.728706
 20
163.165234
 30
0.0
 11
140.728706
 21
163.914887
 31
0.0
  0
LINE
  5
99
100
AcDbEntity
  8
レイヤー_2
 62
     7
100
AcDbLine
 10
128.728404
 20
163.914887
 30
0.0
 11
128.728404
 21
163.165234
 31
0.0
  0
LINE
  5
98
100
AcDbEntity
  8
レイヤー_2
 62
     7
100
AcDbLine
 10
138.915896
 20
169.344358
 30
0.0
 11
138.915896
 21
171.344236
 31
0.0
  0
LINE
  5
97
100
AcDbEntity
  8
レイヤー_2
 62
     7
100
AcDbLine
 10
130.540869
 20
171.344236
 30
0.0
 11
130.540869
 21
169.344358
 31
0.0
  0
LINE
  5
96
100
AcDbEntity
  8
レイヤー_2
 62
     7
100
AcDbLine
 10
139.603537
 20
162.289836
 30
0.0
 11
129.853917
 21
162.289836
 31
0.0
  0
LINE
  5
95
100
AcDbEntity
  8
レイヤー_2
 62
     7
100
AcDbLine
 10
132.780181
 20
162.289836
 30
0.0
 11
132.780181
 21
160.164556
 31
0.0
  0
LINE
  5
94
100
AcDbEntity
  8
レイヤー_2
 62
     7
100
AcDbLine
 10
130.831635
 20
162.289836
 30
0.0
 11
130.831635
 21
160.164556
 31
0.0
  0
LINE
  5
93
100
AcDbEntity
  8
レイヤー_2
 62
     7
100
AcDbLine
 10
136.677273
 20
160.164556
 30
0.0
 11
136.677273
 21
162.289836
 31
0.0
  0
LINE
  5
92
100
AcDbEntity
  8
レイヤー_2
 62
     7
100
AcDbLine
 10
138.625819
 20
162.289836
 30
0.0
 11
138.625819
 21
160.164556
 31
0.0
  0
LINE
  5
91
100
AcDbEntity
  8
レイヤー_2
 62
     7
100
AcDbLine
 10
139.978364
 20
162.91512
 30
0.0
 11
129.478402
 21
162.91512
 31
0.0
  0
LINE
  5
90
100
AcDbEntity
  8
レイヤー_2
 62
     7
100
AcDbLine
 10
140.728706
 20
163.914887
 30
0.0
 11
128.728404
 21
163.914887
 31
0.0
  0
LINE
  5
8F
100
AcDbEntity
  8
レイヤー_2
 62
     7
100
AcDbLine
 10
140.728706
 20
163.165234
 30
0.0
 11
128.728404
 21
163.165234
 31
0.0
  0
LINE
  5
8E
100
AcDbEntity
  8
レイヤー_2
 62
     7
100
AcDbLine
 10
130.540869
 20
169.344358
 30
0.0
 11
138.915896
 21
169.344358
 31
0.0
  0
LINE
  5
8D
100
AcDbEntity
  8
レイヤー_2
 62
     7
100
AcDbLine
 10
132.615161
 20
169.344358
 30
0.0
 11
132.615161
 21
163.914887
 31
0.0
  0
LINE
  5
8C
100
AcDbEntity
  8
レイヤー_2
 62
     7
100
AcDbLine
 10
136.903271
 20
163.914887
 30
0.0
 11
136.903271
 21
169.344358
 31
0.0
  0
LINE
  5
8B
100
AcDbEntity
  8
レイヤー_2
 62
     7
100
AcDbLine
 10
69.682568
 20
160.226912
 30
0.0
 11
69.682568
 21
156.959584
 31
0.0
  0
LINE
  5
8A
100
AcDbEntity
  8
レイヤー_2
 62
     7
100
AcDbLine
 10
74.885007
 20
156.913075
 30
0.0
 11
74.885007
 21
160.240693
 31
0.0
  0
LINE
  5
89
100
AcDbEntity
  8
レイヤー_2
 62
     7
100
AcDbLine
 10
74.375477
 20
156.491395
 30
0.0
 11
74.375477
 21
158.991157
 31
0.0
  0
LINE
  5
88
100
AcDbEntity
  8
レイヤー_2
 62
     7
100
AcDbLine
 10
70.161781
 20
158.947059
 30
0.0
 11
70.161781
 21
156.447643
 31
0.0
  0
LINE
  5
87
100
AcDbEntity
  8
レイヤー_2
 62
     7
100
AcDbLine
 10
70.157992
 20
156.476926
 30
0.0
 11
74.369621
 21
156.476926
 31
0.0
  0
LINE
  5
86
100
AcDbEntity
  8
レイヤー_2
 62
     7
100
AcDbLine
 10
69.682568
 20
158.947059
 30
0.0
 11
74.885007
 21
158.947059
 31
0.0
  0
LINE
  5
85
100
AcDbEntity
  8
レイヤー_2
 62
     7
100
AcDbLine
 10
70.157992
 20
156.476926
 30
0.0
 11
69.682568
 21
156.959584
 31
0.0
  0
LINE
  5
84
100
AcDbEntity
  8
レイヤー_2
 62
     7
100
AcDbLine
 10
74.375477
 20
156.491395
 30
0.0
 11
74.885007
 21
156.913075
 31
0.0
  0
LINE
  5
83
100
AcDbEntity
  8
レイヤー_2
 62
     7
100
AcDbLine
 10
132.188314
 20
160.147675
 30
0.0
 11
132.188314
 21
156.880347
 31
0.0
  0
LINE
  5
82
100
AcDbEntity
  8
レイヤー_2
 62
     7
100
AcDbLine
 10
137.391097
 20
156.833838
 30
0.0
 11
137.391097
 21
160.162145
 31
0.0
  0
LINE
  5
81
100
AcDbEntity
  8
レイヤー_2
 62
     7
100
AcDbLine
 10
136.881223
 20
156.412158
 30
0.0
 11
136.881223
 21
158.912264
 31
0.0
  0
LINE
  5
80
100
AcDbEntity
  8
レイヤー_2
 62
     7
100
AcDbLine
 10
132.66856
 20
158.868856
 30
0.0
 11
132.66856
 21
156.369439
 31
0.0
  0
LINE
  5
7F
100
AcDbEntity
  8
レイヤー_2
 62
     7
100
AcDbLine
 10
132.664426
 20
156.397689
 30
0.0
 11
136.875711
 21
156.397689
 31
0.0
  0
LINE
  5
7E
100
AcDbEntity
  8
レイヤー_2
 62
     7
100
AcDbLine
 10
132.188314
 20
158.868856
 30
0.0
 11
137.391097
 21
158.868856
 31
0.0
  0
LINE
  5
7D
100
AcDbEntity
  8
レイヤー_2
 62
     7
100
AcDbLine
 10
132.664426
 20
156.397689
 30
0.0
 11
132.188314
 21
156.880347
 31
0.0
  0
LINE
  5
7C
100
AcDbEntity
  8
レイヤー_2
 62
     7
100
AcDbLine
 10
136.881223
 20
156.412158
 30
0.0
 11
137.391097
 21
156.833838
 31
0.0
  0
LINE
  5
7B
100
AcDbEntity
  8
レイヤー_2
 62
     7
100
AcDbLine
 10
67.283404
 20
163.002281
 30
0.0
 11
67.283404
 21
162.501709
 31
0.0
  0
LINE
  5
7A
100
AcDbEntity
  8
レイヤー_2
 62
     7
100
AcDbLine
 10
77.283483
 20
162.501709
 30
0.0
 11
77.283483
 21
163.002281
 31
0.0
  0
SPLINE
  5
79
100
AcDbEntity
  8
レイヤー_2
 62
     7
100
AcDbSpline
210
0.0
220
0.0
230
1.0
 70
     8
 71
     3
 72
     8
 73
     4
 74
     0
 42
0.00000001
 43
0.00000001
 40
0.0
 40
0.0
 40
0.0
 40
0.0
 40
1.0
 40
1.0
 40
1.0
 40
1.0
 10
77.158425564236097
 20
162.37630750868055
 30
0.0
 10
77.227671983506937
 20
162.37630750868055
 30
0.0
 10
77.283482530381931
 20
162.43315158420137
 30
0.0
 10
77.283482530381931
 20
162.50170898437497
 30
0.0
  0
SPLINE
  5
78
100
AcDbEntity
  8
レイヤー_2
 62
     7
100
AcDbSpline
210
0.0
220
0.0
230
1.0
 70
     8
 71
     3
 72
     8
 73
     4
 74
     0
 42
0.00000001
 43
0.00000001
 40
0.0
 40
0.0
 40
0.0
 40
0.0
 40
1.0
 40
1.0
 40
1.0
 40
1.0
 10
67.283403862847223
 20
162.50170898437497
 30
0.0
 10
67.283403862847223
 20
162.43315158420137
 30
0.0
 10
67.339214409722217
 20
162.37630750868055
 30
0.0
 10
67.408805338541654
 20
162.37630750868055
 30
0.0
  0
LINE
  5
77
100
AcDbEntity
  8
レイヤー_2
 62
     7
100
AcDbLine
 10
77.533596
 20
163.002281
 30
0.0
 11
77.533596
 21
163.251362
 31
0.0
  0
LINE
  5
76
100
AcDbEntity
  8
レイヤー_2
 62
     7
100
AcDbLine
 10
67.033979
 20
163.251362
 30
0.0
 11
67.033979
 21
163.002281
 31
0.0
  0
LINE
  5
75
100
AcDbEntity
  8
レイヤー_2
 62
     7
100
AcDbLine
 10
78.283938
 20
163.251362
 30
0.0
 11
78.283938
 21
164.001704
 31
0.0
  0
LINE
  5
74
100
AcDbEntity
  8
レイヤー_2
 62
     7
100
AcDbLine
 10
66.283637
 20
164.001704
 30
0.0
 11
66.283637
 21
163.251362
 31
0.0
  0
LINE
  5
73
100
AcDbEntity
  8
レイヤー_2
 62
     7
100
AcDbLine
 10
76.471129
 20
169.344358
 30
0.0
 11
76.471129
 21
171.344236
 31
0.0
  0
LINE
  5
72
100
AcDbEntity
  8
レイヤー_2
 62
     7
100
AcDbLine
 10
68.096102
 20
171.344236
 30
0.0
 11
68.096102
 21
169.344358
 31
0.0
  0
LINE
  5
71
100
AcDbEntity
  8
レイヤー_2
 62
     7
100
AcDbLine
 10
72.283615
 20
162.376308
 30
0.0
 11
67.408805
 21
162.376308
 31
0.0
  0
LINE
  5
70
100
AcDbEntity
  8
レイヤー_2
 62
     7
100
AcDbLine
 10
77.158426
 20
162.376308
 30
0.0
 11
72.283615
 21
162.376308
 31
0.0
  0
LINE
  5
6F
100
AcDbEntity
  8
レイヤー_2
 62
     7
100
AcDbLine
 10
68.909144
 20
160.251373
 30
0.0
 11
68.909144
 21
162.376308
 31
0.0
  0
LINE
  5
6E
100
AcDbEntity
  8
レイヤー_2
 62
     7
100
AcDbLine
 10
72.283615
 20
162.376308
 30
0.0
 11
72.283615
 21
160.251373
 31
0.0
  0
LINE
  5
6D
100
AcDbEntity
  8
レイヤー_2
 62
     7
100
AcDbLine
 10
68.909144
 20
160.251373
 30
0.0
 11
72.283615
 21
160.251373
 31
0.0
  0
LINE
  5
6C
100
AcDbEntity
  8
レイヤー_2
 62
     7
100
AcDbLine
 10
75.658775
 20
162.376308
 30
0.0
 11
75.658775
 21
160.251373
 31
0.0
  0
LINE
  5
6B
100
AcDbEntity
  8
レイヤー_2
 62
     7
100
AcDbLine
 10
72.283615
 20
160.251373
 30
0.0
 11
75.658775
 21
160.251373
 31
0.0
  0
LINE
  5
6A
100
AcDbEntity
  8
レイヤー_2
 62
     7
100
AcDbLine
 10
72.283615
 20
163.002281
 30
0.0
 11
67.033979
 21
163.002281
 31
0.0
  0
LINE
  5
69
100
AcDbEntity
  8
レイヤー_2
 62
     7
100
AcDbLine
 10
77.533596
 20
163.002281
 30
0.0
 11
72.283615
 21
163.002281
 31
0.0
  0
LINE
  5
68
100
AcDbEntity
  8
レイヤー_2
 62
     7
100
AcDbLine
 10
72.283615
 20
163.251362
 30
0.0
 11
66.283637
 21
163.251362
 31
0.0
  0
LINE
  5
67
100
AcDbEntity
  8
レイヤー_2
 62
     7
100
AcDbLine
 10
78.283938
 20
163.251362
 30
0.0
 11
72.283615
 21
163.251362
 31
0.0
  0
LINE
  5
66
100
AcDbEntity
  8
レイヤー_2
 62
     7
100
AcDbLine
 10
72.283615
 20
164.001704
 30
0.0
 11
66.283637
 21
164.001704
 31
0.0
  0
LINE
  5
65
100
AcDbEntity
  8
レイヤー_2
 62
     7
100
AcDbLine
 10
78.283938
 20
164.001704
 30
0.0
 11
72.283615
 21
164.001704
 31
0.0
  0
LINE
  5
64
100
AcDbEntity
  8
レイヤー_2
 62
     7
100
AcDbLine
 10
78.113751
 20
187.33034
 30
0.0
 11
78.113751
 21
180.830478
 31
0.0
  0
LINE
  5
63
100
AcDbEntity
  8
レイヤー_2
 62
     7
100
AcDbLine
 10
69.904433
 20
198.803886
 30
0.0
 11
69.904433
 21
193.080893
 31
0.0
  0
LINE
  5
62
100
AcDbEntity
  8
レイヤー_2
 62
     7
100
AcDbLine
 10
74.9043
 20
193.080893
 30
0.0
 11
74.9043
 21
198.803886
 31
0.0
  0
LINE
  5
61
100
AcDbEntity
  8
レイヤー_2
 62
     7
100
AcDbLine
 10
81.191254
 20
199.832936
 30
0.0
 11
81.191254
 21
188.707345
 31
0.0
  0
LINE
  5
60
100
AcDbEntity
  8
レイヤー_2
 62
     7
100
AcDbLine
 10
83.691016
 20
188.707345
 30
0.0
 11
83.691016
 21
199.832936
 31
0.0
  0
LINE
  5
5F
100
AcDbEntity
  8
レイヤー_2
 62
     7
100
AcDbLine
 10
81.691138
 20
188.707345
 30
0.0
 11
81.691138
 21
187.332751
 31
0.0
  0
LINE
  5
5E
100
AcDbEntity
  8
レイヤー_2
 62
     7
100
AcDbLine
 10
83.191477
 20
187.332751
 30
0.0
 11
83.191477
 21
188.707345
 31
0.0
  0
LINE
  5
5D
100
AcDbEntity
  8
レイヤー_2
 62
     7
100
AcDbLine
 10
81.191254
 20
188.707345
 30
0.0
 11
83.691016
 21
188.707345
 31
0.0
  0
LINE
  5
5C
100
AcDbEntity
  8
レイヤー_2
 62
     7
100
AcDbLine
 10
81.191254
 20
199.832936
 30
0.0
 11
83.691016
 21
199.832936
 31
0.0
  0
SPLINE
  5
5B
100
AcDbEntity
  8
レイヤー_2
 62
     7
100
AcDbSpline
210
0.0
220
0.0
230
1.0
 70
     8
 71
     3
 72
     8
 73
     4
 74
     0
 42
0.00000001
 43
0.00000001
 40
0.0
 40
0.0
 40
0.0
 40
0.0
 40
1.0
 40
1.0
 40
1.0
 40
1.0
 10
82.441479492187497
 20
187.23887261284722
 30
0.0
 10
82.712953016493046
 20
187.23973388671874
 30
0.0
 10
82.976847330729157
 20
187.27263454861108
 30
0.0
 10
83.206979709201377
 20
187.33033989800344
 30
0.0
  0
SPLINE
  5
5A
100
AcDbEntity
  8
レイヤー_2
 62
     7
100
AcDbSpline
210
0.0
220
0.0
230
1.0
 70
     8
 71
     3
 72
     8
 73
     4
 74
     0
 42
0.00000001
 43
0.00000001
 40
0.0
 40
0.0
 40
0.0
 40
0.0
 40
1.0
 40
1.0
 40
1.0
 40
1.0
 10
81.670122612847209
 20
187.33154568142359
 30
0.0
 10
81.9364284939236
 20
187.26763916015622
 30
0.0
 10
82.202734374999991
 20
187.23715006510415
 30
0.0
 10
82.441479492187497
 20
187.23887261284722
 30
0.0
  0
LINE
  5
59
100
AcDbEntity
  8
レイヤー_2
  6
AI9-LType1
 62
     7
100
AcDbLine
 10
134.734239
 20
154.320985
 30
0.0
 11
134.734239
 21
203.582922
 31
0.0
  0
LINE
  5
58
100
AcDbEntity
  8
レイヤー_2
 62
     7
100
AcDbLine
 10
134.734239
 20
203.582922
 30
0.0
 11
134.734239
 21
204.582345
 31
0.0
  0
LINE
  5
57
100
AcDbEntity
  8
レイヤー_2
  6
AI9-LType1
 62
     7
100
AcDbLine
 10
72.397648
 20
154.025052
 30
0.0
 11
72.397648
 21
219.883736
 31
0.0
  0
LINE
  5
56
100
AcDbEntity
  8
レイヤー_2
 62
     7
100
AcDbLine
 10
72.397648
 20
219.883736
 30
0.0
 11
72.397648
 21
220.883331
 31
0.0
  0
LINE
  5
55
100
AcDbEntity
  8
レイヤー_2
  6
AI9-LType1
 62
     7
100
AcDbLine
 10
72.062096
 20
184.080409
 30
0.0
 11
84.511982
 21
184.080409
 31
0.0
  0
LINE
  5
54
100
AcDbEntity
  8
レイヤー_2
 62
     7
100
AcDbLine
 10
84.511982
 20
184.080409
 30
0.0
 11
85.511749
 21
184.080409
 31
0.0
  0
LINE
  5
53
100
AcDbEntity
  8
レイヤー_2
  6
AI9-LType1
 62
     7
100
AcDbLine
 10
159.675353
 20
205.315978
 30
0.0
 11
160.774338
 21
199.087934
 31
0.0
  0
LINE
  5
51
100
AcDbEntity
  8
レイヤー_2
 62
     7
100
AcDbLine
 10
160.774338
 20
199.087934
 30
0.0
 11
160.947626
 21
198.102809
 31
0.0
  0
LINE
  5
50
100
AcDbEntity
  8
レイヤー_2
 62
     7
100
AcDbLine
 10
134.807964
 20
213.998135
 30
0.0
 11
134.807964
 21
230.503932
 31
0.0
  0
LINE
  5
4F
100
AcDbEntity
  8
レイヤー_2
 62
     7
100
AcDbLine
 10
188.649639
 20
199.369398
 30
0.0
 11
164.627333
 21
199.369398
 31
0.0
  0
LINE
  5
4E
100
AcDbEntity
  8
レイヤー_2
 62
     7
100
AcDbLine
 10
187.814204
 20
200.302502
 30
0.0
 11
187.814204
 21
170.263165
 31
0.0
  0
LINE
  5
4D
100
AcDbEntity
  8
レイヤー_2
 62
     7
100
AcDbLine
 10
160.596571
 20
212.302287
 30
0.0
 11
160.596571
 21
230.473787
 31
0.0
  0
LINE
  5
4C
100
AcDbEntity
  8
レイヤー_2
 62
     7
100
AcDbLine
 10
129.025372
 20
174.138897
 30
0.0
 11
129.025372
 21
186.279069
 31
0.0
  0
LINE
  5
4B
100
AcDbEntity
  8
レイヤー_2
 62
     7
100
AcDbLine
 10
140.356635
 20
174.070684
 30
0.0
 11
140.356635
 21
186.279069
 31
0.0
  0
LINE
  5
4A
100
AcDbEntity
  8
レイヤー_2
 62
     7
100
AcDbLine
 10
134.02455
 20
229.52053
 30
0.0
 11
161.374818
 21
229.52053
 31
0.0
  0
LINE
  5
49
100
AcDbEntity
  8
レイヤー_2
 62
     7
100
AcDbLine
 10
111.340663
 20
185.225042
 30
0.0
 11
141.334698
 21
185.225042
 31
0.0
  0
LINE
  5
48
100
AcDbEntity
  8
レイヤー_2
 62
     7
100
AcDbLine
 10
72.42452
 20
221.253678
 30
0.0
 11
72.42452
 21
230.446399
 31
0.0
  0
LINE
  5
47
100
AcDbEntity
  8
レイヤー_2
 62
     7
100
AcDbLine
 10
84.658743
 20
188.102903
 30
0.0
 11
84.658743
 21
230.320136
 31
0.0
  0
LINE
  5
46
100
AcDbEntity
  8
レイヤー_2
 62
     7
100
AcDbLine
 10
85.673324
 20
229.209782
 30
0.0
 11
71.414418
 21
229.209782
 31
0.0
  0
LINE
  5
45
100
AcDbEntity
  8
レイヤー_2
 62
     7
100
AcDbLine
 10
70.317499
 20
219.667384
 30
0.0
 11
44.63638
 21
219.667384
 31
0.0
  0
LINE
  5
44
100
AcDbEntity
  8
レイヤー_2
 62
     7
100
AcDbLine
 10
45.886605
 20
220.919676
 30
0.0
 11
45.886605
 21
133.608038
 31
0.0
  0
LINE
  5
43
100
AcDbEntity
  8
レイヤー_2
 62
     7
100
AcDbLine
 10
65.644227
 20
163.944515
 30
0.0
 11
44.649471
 21
163.944515
 31
0.0
  0
LINE
  5
42
100
AcDbEntity
  8
レイヤー_2
 62
     7
100
AcDbLine
 10
46.783708
 20
163.060503
 30
0.0
 11
45.016029
 21
164.827837
 31
0.0
  0
LINE
  5
41
100
AcDbEntity
  8
レイヤー_2
 62
     7
100
AcDbLine
 10
46.770961
 20
170.606641
 30
0.0
 11
45.002938
 21
172.375008
 31
0.0
  0
LINE
  5
40
100
AcDbEntity
  8
レイヤー_2
 62
     7
100
AcDbLine
 10
46.770961
 20
218.726012
 30
0.0
 11
45.002938
 21
220.493863
 31
0.0
  0
LINE
  5
3F
100
AcDbEntity
  8
レイヤー_2
 62
     7
100
AcDbLine
 10
71.572548
 20
228.39071
 30
0.0
 11
73.276147
 21
230.093793
 31
0.0
  0
LINE
  5
3E
100
AcDbEntity
  8
レイヤー_2
 62
     7
100
AcDbLine
 10
83.929072
 20
228.357638
 30
0.0
 11
85.631982
 21
230.061065
 31
0.0
  0
LINE
  5
3D
100
AcDbEntity
  8
レイヤー_2
 62
     7
100
AcDbLine
 10
135.586211
 20
230.371813
 30
0.0
 11
133.882612
 21
228.66873
 31
0.0
  0
LINE
  5
3C
100
AcDbEntity
  8
レイヤー_2
 62
     7
100
AcDbLine
 10
161.463357
 20
230.376463
 30
0.0
 11
159.735297
 21
228.64892
 31
0.0
  0
LINE
  5
3B
100
AcDbEntity
  8
レイヤー_2
 62
     7
100
AcDbLine
 10
129.86253
 20
186.061511
 30
0.0
 11
128.159619
 21
184.358084
 31
0.0
  0
LINE
  5
3A
100
AcDbEntity
  8
レイヤー_2
 62
     7
100
AcDbLine
 10
141.193104
 20
186.061511
 30
0.0
 11
139.490194
 21
184.358084
 31
0.0
  0
LINE
  5
39
100
AcDbEntity
  8
レイヤー_2
 62
     7
100
AcDbLine
 10
188.721642
 20
198.485559
 30
0.0
 11
186.953619
 21
200.25341
 31
0.0
  0
LINE
  5
38
100
AcDbEntity
  8
レイヤー_2
 62
     7
100
AcDbLine
 10
188.656185
 20
170.493641
 30
0.0
 11
186.888506
 21
172.261664
 31
0.0
  0
LINE
  5
37
100
AcDbEntity
  8
レイヤー_2
 62
     7
100
AcDbLine
 10
147.857986
 20
171.344236
 30
0.0
 11
188.721642
 21
171.344236
 31
0.0
  0
LINE
  5
36
100
AcDbEntity
  8
レイヤー_2
 62
     7
100
AcDbLine
 10
58.759549
 20
171.344236
 30
0.0
 11
44.63638
 21
171.344236
 31
0.0
  0
LINE
  5
35
100
AcDbEntity
  8
レイヤー_2
 62
     7
100
AcDbLine
 10
69.976952
 20
143.115468
 30
0.0
 11
69.976952
 21
133.073359
 31
0.0
  0
LINE
  5
34
100
AcDbEntity
  8
レイヤー_2
 62
     7
100
AcDbLine
 10
74.74927
 20
141.842849
 30
0.0
 11
74.74927
 21
131.582666
 31
0.0
  0
LINE
  5
33
100
AcDbEntity
  8
レイヤー_2
 62
     7
100
AcDbLine
 10
68.502968
 20
132.556939
 30
0.0
 11
102.82232
 21
132.556939
 31
0.0
  0
LINE
  5
32
100
AcDbEntity
  8
レイヤー_2
 62
     7
100
AcDbLine
 10
69.035752
 20
132.909717
 30
0.0
 11
71.209951
 21
135.354701
 31
0.0
  0
LINE
  5
31
100
AcDbEntity
  8
レイヤー_2
 62
     7
100
AcDbLine
 10
73.808242
 20
131.498606
 30
0.0
 11
75.982098
 21
133.94359
 31
0.0
  0
LINE
  5
30
100
AcDbEntity
  8
レイヤー_2
 62
     7
100
AcDbLine
 10
160.723695
 20
197.855968
 30
0.0
 11
160.723695
 21
182.338741
 31
0.0
  0
LINE
  5
2F
100
AcDbEntity
  8
レイヤー_2
 62
     7
100
AcDbLine
 10
161.983567
 20
184.747035
 30
0.0
 11
159.809367
 21
182.301534
 31
0.0
  0
LINE
  5
2E
100
AcDbEntity
  8
レイヤー_2
 62
     7
100
AcDbLine
 10
164.684521
 20
184.944439
 30
0.0
 11
162.510666
 21
182.49756
 31
0.0
  0
LINE
  5
2D
100
AcDbEntity
  8
レイヤー_2
 62
     7
100
AcDbLine
 10
161.100244
 20
197.574159
 30
0.0
 11
163.757102
 21
182.611765
 31
0.0
  0
SPLINE
  5
2C
100
AcDbEntity
  8
レイヤー_2
 62
     7
100
AcDbSpline
210
0.0
220
0.0
230
1.0
 70
     8
 71
     3
 72
     8
 73
     4
 74
     0
 42
0.00000001
 43
0.00000001
 40
0.0
 40
0.0
 40
0.0
 40
0.0
 40
1.0
 40
1.0
 40
1.0
 40
1.0
 10
164.94359266493055
 20
183.89781901041664
 30
0.0
 10
169.47182617187499
 20
185.1115261501736
 30
0.0
 10
173.07263997395833
 20
188.05880533854165
 30
0.0
 10
175.22548014322916
 20
191.83583577473956
 30
0.0
  0
SPLINE
  5
2B
100
AcDbEntity
  8
レイヤー_2
 62
     7
100
AcDbSpline
210
0.0
220
0.0
230
1.0
 70
     8
 71
     3
 72
     8
 73
     4
 74
     0
 42
0.00000001
 43
0.00000001
 40
0.0
 40
0.0
 40
0.0
 40
0.0
 40
1.0
 40
1.0
 40
1.0
 40
1.0
 10
159.04834526909721
 20
183.39362928602429
 30
0.0
 10
161.13056098090277
 20
183.20328776041666
 30
0.0
 10
163.15903320312498
 20
183.40086398654512
 30
0.0
 10
164.94359266493055
 20
183.89781901041664
 30
0.0
  0
LINE
  5
2A
100
AcDbEntity
  8
レイヤー_2
 62
     7
100
AcDbLine
 10
60.369442
 20
171.344236
 30
0.0
 11
84.029324
 21
171.344236
 31
0.0
  0
LINE
  5
29
100
AcDbEntity
  8
レイヤー_2
 62
     7
100
AcDbLine
 10
123.384372
 20
171.344236
 30
0.0
 11
146.623953
 21
171.344236
 31
0.0
  0
ENDSEC
  0
SECTION
  2
OBJECTS
  0
DICTIONARY
  5
19
100
AcDbDictionary
280
     0
281
     1
  3
ACAD_GROUP
350
1A
  3
ACAD_MLINESTYLE
350
1B
  3
ACAD_LAYOUT
350
1E
  3
ACAD_PLOTSETTINGS
350
22
  3
ACAD_PLOTSTYLENAME
350
1F
  3
ACAD_WIPEOUT_VARS
350
23
  0
DICTIONARY
  5
1A
102
{ACAD_REACTORS
330
19
102
}
100
AcDbDictionary
280
     0
281
     1
  0
DICTIONARY
  5
1B
102
{ACAD_REACTORS
330
19
102
}
100
AcDbDictionary
280
     0
281
     1
  3
Standard
350
1C
  0
MLINESTYLE
  5
1C
102
{ACAD_REACTORS
330
1B
102
}
100
AcDbMlineStyle
  2
Standard
 70
     0
  3

 62
     0
 51
90.0
 52
90.0
 71
     2
 49
0.5
 62
   256
  6
ByLayer
 49
-0.5
 62
   256
  6
ByLayer
  0
ACDBDICTIONARYWDFLT
  5
1F
102
{ACAD_REACTORS
330
19
102
}
100
AcDbDictionary
281
     1
  3
Normal
350
1D
100
AcDbDictionaryWithDefault
340
1D
  0
ACDBPLACEHOLDER
  5
1D
102
{ACAD_REACTORS
330
1F
102
}
  0
LAYOUT
  5
20
102
{ACAD_REACTORS
330
1E
102
}
100
AcDbPlotSettings
  1

  2

  4

  6

 40
0.0
 41
0.0
 42
0.0
 43
0.0
 44
0.0
 45
0.0
 46
0.0
 47
0.0
 48
0.0
 49
0.0
140
0.0
141
0.0
142
1.0
143
1.0
 70
  1024
 72
     0
 73
     0
 74
     0
  7

 75
     0
147
1.0
148
0.0
149
0.0
100
AcDbLayout
  1
Model
 70
     0
 71
     0
 10
0.0
 20
0.0
 11
0.0
 21
0.0
 12
0.0
 22
0.0
 32
0.0
 14
0.0
 24
0.0
 34
0.0
 15
0.0
 25
0.0
 35
0.0
146
0.0
 13
0.0
 23
0.0
 33
0.0
 16
0.0
 26
0.0
 36
0.0
 17
0.0
 27
0.0
 37
0.0
 76
     0
330
A
331
0
345
0
346
0
  0
LAYOUT
  5
21
102
{ACAD_REACTORS
330
1E
102
}
100
AcDbPlotSettings
  1

  2

  4

  6

 40
0.0
 41
0.0
 42
0.0
 43
0.0
 44
0.0
 45
0.0
 46
0.0
 47
0.0
 48
0.0
 49
0.0
140
0.0
141
0.0
142
1.0
143
1.0
 70
     0
 72
     0
 73
     0
 74
     0
  7

 75
     0
147
1.0
148
0.0
149
0.0
100
AcDbLayout
  1
Layout1
 70
     0
 71
     0
 10
0.0
 20
0.0
 11
0.0
 21
0.0
 12
0.0
 22
0.0
 32
0.0
 14
0.0
 24
0.0
 34
0.0
 15
0.0
 25
0.0
 35
0.0
146
0.0
 13
0.0
 23
0.0
 33
0.0
 16
0.0
 26
0.0
 36
0.0
 17
0.0
 27
0.0
 37
0.0
 76
     0
330
B
331
0
345
0
346
0
  0
DICTIONARY
  5
1E
102
{ACAD_REACTORS
330
19
102
}
100
AcDbDictionary
280
     0
281
     1
  3
Layout1
350
21
  3
Model
350
20
  0
DICTIONARY
  5
22
102
{ACAD_REACTORS
330
19
102
}
100
AcDbDictionary
280
     0
281
     1
  0
WIPEOUTVARIABLES
  5
23
100
AcDbWipeoutVariables
 70
     1
  0
IMAGEDEF_REACTOR
  5
1B0
100
AcDbRasterImageDefReactor
 90
        2
330
1AF
  0
IMAGEDEF
  5
1B1
100
AcDbRasterImageDef
 90
        0
  1
\\192.168.6.3\free(2009_04\一過性\DB_WEB用DXF_丸茂\Tara．\17510882_1.bmp
 10
70.0
 20
9.0
 11
0.352778
 21
0.352778
280
     1
281
     0
  0
IMAGEDEF_REACTOR
  5
1B3
100
AcDbRasterImageDefReactor
 90
        2
330
1B2
  0
IMAGEDEF
  5
1B4
100
AcDbRasterImageDef
 90
        0
  1
\\192.168.6.3\free(2009_04\一過性\DB_WEB用DXF_丸茂\Tara．\17510882_2.bmp
 10
70.0
 20
9.0
 11
0.352778
 21
0.352778
280
     1
281
     0
  0
ENDSEC
  0
EOF
