  0
SECTION
  2
HEADER
  9
$ACADVER
  1
AC1015
  9
$ACADMAINTVER
 70
     6
  9
$DWGCODEPAGE
  3
ANSI_932
  9
$INSBASE
 10
0.0
 20
0.0
 30
0.0
  9
$EXTMIN
 10
23.283333
 20
26.811111
 30
1.000000E+20
  9
$EXTMAX
 10
198.966667
 20
276.930556
 30
-1.000000E+20
  9
$LIMMIN
 10
23.283333
 20
26.811111
  9
$LIMMAX
 10
198.966667
 20
276.930556
  9
$ORTHOMODE
 70
     0
  9
$REGENMODE
 70
     1
  9
$FILLMODE
 70
     1
  9
$QTEXTMODE
 70
     0
  9
$MIRRTEXT
 70
     1
  9
$LTSCALE
 40
1.0
  9
$ATTMODE
 70
     1
  9
$TEXTSIZE
 40
0.2
  9
$TRACEWID
 40
0.05
  9
$TEXTSTYLE
  7
Standard
  9
$CLAYER
  8
0
  9
$CELTYPE
  6
Continuous
  9
$CECOLOR
 62
   256
  9
$CELTSCALE
 40
1.0
  9
$DISPSILH
 70
     0
  9
$DIMSCALE
 40
1.0
  9
$DIMASZ
 40
0.18
  9
$DIMEXO
 40
0.0625
  9
$DIMDLI
 40
0.38
  9
$DIMRND
 40
0.0
  9
$DIMDLE
 40
0.0
  9
$DIMEXE
 40
0.18
  9
$DIMTP
 40
0.0
  9
$DIMTM
 40
0.0
  9
$DIMTXT
 40
0.18
  9
$DIMCEN
 40
0.09
  9
$DIMTSZ
 40
0.0
  9
$DIMTOL
 70
     0
  9
$DIMLIM
 70
     0
  9
$DIMTIH
 70
     1
  9
$DIMTOH
 70
     1
  9
$DIMSE1
 70
     0
  9
$DIMSE2
 70
     0
  9
$DIMTAD
 70
     0
  9
$DIMZIN
 70
     0
  9
$DIMBLK
  1

  9
$DIMASO
 70
     1
  9
$DIMSHO
 70
     1
  9
$DIMPOST
  1

  9
$DIMAPOST
  1

  9
$DIMALT
 70
     0
  9
$DIMALTD
 70
     2
  9
$DIMALTF
 40
25.4
  9
$DIMLFAC
 40
1.0
  9
$DIMTOFL
 70
     0
  9
$DIMTVP
 40
0.0
  9
$DIMTIX
 70
     0
  9
$DIMSOXD
 70
     0
  9
$DIMSAH
 70
     0
  9
$DIMBLK1
  1

  9
$DIMBLK2
  1

  9
$DIMSTYLE
  2
Standard
  9
$DIMCLRD
 70
     0
  9
$DIMCLRE
 70
     0
  9
$DIMCLRT
 70
     0
  9
$DIMTFAC
 40
1.0
  9
$DIMGAP
 40
0.09
  9
$DIMJUST
 70
     0
  9
$DIMSD1
 70
     0
  9
$DIMSD2
 70
     0
  9
$DIMTOLJ
 70
     1
  9
$DIMTZIN
 70
     0
  9
$DIMALTZ
 70
     0
  9
$DIMALTTZ
 70
     0
  9
$DIMUPT
 70
     0
  9
$DIMDEC
 70
     4
  9
$DIMTDEC
 70
     4
  9
$DIMALTU
 70
     2
  9
$DIMALTTD
 70
     2
  9
$DIMTXSTY
  7
Standard
  9
$DIMAUNIT
 70
     0
  9
$DIMADEC
 70
     0
  9
$DIMALTRND
 40
0.0
  9
$DIMAZIN
 70
     0
  9
$DIMDSEP
 70
     0
  9
$DIMATFIT
 70
     3
  9
$DIMFRAC
 70
     0
  9
$DIMLDRBLK
  1

  9
$DIMLUNIT
 70
     2
  9
$DIMLWD
 70
     0
  9
$DIMLWE
 70
     0
  9
$DIMTMOVE
 70
     0
  9
$LUNITS
 70
     2
  9
$LUPREC
 70
     4
  9
$SKETCHINC
 40
0.1
  9
$FILLETRAD
 40
0.0
  9
$AUNITS
 70
     0
  9
$AUPREC
 70
     0
  9
$MENU
  1
acad
  9
$ELEVATION
 40
0.0
  9
$PELEVATION
 40
0.0
  9
$THICKNESS
 40
0.0
  9
$LIMCHECK
 70
     0
  9
$CHAMFERA
 40
0.0
  9
$CHAMFERB
 40
0.0
  9
$CHAMFERC
 40
0.0
  9
$CHAMFERD
 40
0.0
  9
$SKPOLY
 70
     0
  9
$TDCREATE
 40
0.000000000
  9
$TDUCREATE
 40
0.000000000
  9
$TDUPDATE
 40
0.000000000
  9
$TDUUPDATE
 40
0.000000000
  9
$TDINDWG
 40
0.0000000000
  9
$TDUSRTIMER
 40
0.0000000000
  9
$USRTIMER
 70
     1
  9
$ANGBASE
 50
0.0
  9
$ANGDIR
 70
     0
  9
$PDMODE
 70
     0
  9
$PDSIZE
 40
0.0
  9
$PLINEWID
 40
0.0
  9
$SPLFRAME
 70
     0
  9
$SPLINETYPE
 70
     6
  9
$SPLINESEGS
 70
     8
  9
$HANDSEED
  5
58F
  9
$SURFTAB1
 70
     6
  9
$SURFTAB2
 70
     6
  9
$SURFTYPE
 70
     6
  9
$SURFU
 70
     6
  9
$SURFV
 70
     6
  9
$UCSBASE
  2

  9
$UCSNAME
  2

  9
$UCSORG
 10
0.0
 20
0.0
 30
0.0
  9
$UCSXDIR
 10
1.0
 20
0.0
 30
0.0
  9
$UCSYDIR
 10
0.0
 20
1.0
 30
0.0
  9
$UCSORTHOREF
  2

  9
$UCSORTHOVIEW
 70
     0
  9
$UCSORGTOP
 10
0.0
 20
0.0
 30
0.0
  9
$UCSORGBOTTOM
 10
0.0
 20
0.0
 30
0.0
  9
$UCSORGLEFT
 10
0.0
 20
0.0
 30
0.0
  9
$UCSORGRIGHT
 10
0.0
 20
0.0
 30
0.0
  9
$UCSORGFRONT
 10
0.0
 20
0.0
 30
0.0
  9
$UCSORGBACK
 10
0.0
 20
0.0
 30
0.0
  9
$PUCSBASE
  2

  9
$PUCSNAME
  2

  9
$PUCSORG
 10
0.0
 20
0.0
 30
0.0
  9
$PUCSXDIR
 10
1.0
 20
0.0
 30
0.0
  9
$PUCSYDIR
 10
0.0
 20
1.0
 30
0.0
  9
$PUCSORTHOREF
  2

  9
$PUCSORTHOVIEW
 70
     0
  9
$PUCSORGTOP
 10
0.0
 20
0.0
 30
0.0
  9
$PUCSORGBOTTOM
 10
0.0
 20
0.0
 30
0.0
  9
$PUCSORGLEFT
 10
0.0
 20
0.0
 30
0.0
  9
$PUCSORGRIGHT
 10
0.0
 20
0.0
 30
0.0
  9
$PUCSORGFRONT
 10
0.0
 20
0.0
 30
0.0
  9
$PUCSORGBACK
 10
0.0
 20
0.0
 30
0.0
  9
$USERI1
 70
     0
  9
$USERI2
 70
     0
  9
$USERI3
 70
     0
  9
$USERI4
 70
     0
  9
$USERI5
 70
     0
  9
$USERR1
 40
0.0
  9
$USERR2
 40
0.0
  9
$USERR3
 40
0.0
  9
$USERR4
 40
0.0
  9
$USERR5
 40
0.0
  9
$WORLDVIEW
 70
     1
  9
$SHADEDGE
 70
     3
  9
$SHADEDIF
 70
    70
  9
$TILEMODE
 70
     1
  9
$MAXACTVP
 70
    16
  9
$PINSBASE
 10
0.0
 20
0.0
 30
0.0
  9
$PLIMCHECK
 70
     0
  9
$PEXTMIN
 10
1.000000E+20
 20
1.000000E+20
 30
1.000000E+20
  9
$PEXTMAX
 10
-1.000000E+20
 20
-1.000000E+20
 30
-1.000000E+20
  9
$PLIMMIN
 10
0.0
 20
0.0
  9
$PLIMMAX
 10
12.0
 20
9.0
  9
$UNITMODE
 70
     0
  9
$VISRETAIN
 70
     0
  9
$PLINEGEN
 70
     1
  9
$PSLTSCALE
 70
     0
  9
$TREEDEPTH
 70
  3020
  9
$CMLSTYLE
  2
Standard
  9
$CMLJUST
 70
     0
  9
$CMLSCALE
 40
1.0
  9
$PROXYGRAPHICS
 70
     0
  9
$MEASUREMENT
 70
     1
  9
$CELWEIGHT
370
     0
  9
$ENDCAPS
280
     0
  9
$JOINSTYLE
280
     0
  9
$LWDISPLAY
290
     0
  9
$INSUNITS
 70
     0
  9
$HYPERLINKBASE
  1

  9
$STYLESHEET
  1

  9
$XEDIT
290
     1
  9
$CEPSNTYPE
380
     0
  9
$PSTYLEMODE
290
     1
  9
$FINGERPRINTGUID
  2

  9
$VERSIONGUID
  2

  9
$EXTNAMES
290
     1
  9
$PSVPSCALE
 40
0.0
  0
ENDSEC
  0
SECTION
  2
CLASSES
  0
CLASS
  1
LWPOLYLINE
  2
AcDbPolyline
  3
AutoCAD 2000
 90
    32768
280
     0
281
     1
  0
CLASS
  1
IMAGE
  2
AcDbRasterImage
  3
ISM
 90
      127
280
     0
281
     1
  0
CLASS
  1
OLE2FRAME
  2
AcDbOle2Frame
  3
AutoCAD 2000
 90
    32768
280
     0
281
     1
  0
CLASS
  1
HATCH
  2
AcDbHatch
  3
AutoCAD 2000
 90
    32768
280
     0
281
     1
  0
CLASS
  1
DICTIONARYVAR
  2
AcDbDictionaryVar
  3
AutoCAD 2000
 90
    32768
280
     0
281
     0
  0
CLASS
  1
RASTERVARIABLES
  2
AcDbRasterVariables
  3
ISM
 90
    32768
280
     0
281
     0
  0
CLASS
  1
IMAGEDEF
  2
AcDbRasterImageDef
  3
ISM
 90
        0
280
     0
281
     0
  0
CLASS
  1
IMAGEDEF_REACTOR
  2
AcDbRasterImageDefReactor
  3
ISM
 90
        1
280
     0
281
     0
  0
CLASS
  1
IDBUFFER
  2
AcDbIdBuffer
  3
AutoCAD 2000
 90
    32768
280
     0
281
     0
  0
CLASS
  1
SPATIAL_FILTER
  2
AcDbSpatialFilter
  3
AutoCAD 2000
 90
    32768
280
     0
281
     0
  0
CLASS
  1
XRECORD
  2
AcDbXrecord
  3
AutoCAD 2000
 90
    32768
280
     0
281
     0
  0
CLASS
  1
SORTENTSTABLE
  2
AcDbSortentsTable
  3
AutoCAD 2000
 90
    32768
280
     0
281
     0
  0
CLASS
  1
LAYER_INDEX
  2
AcDbLayerIndex
  3
AutoCAD 2000
 90
    32768
280
     0
281
     0
  0
CLASS
  1
SPATIAL_INDEX
  2
AcDbSpatialIndex
  3
AutoCAD 2000
 90
    32768
280
     0
281
     0
  0
CLASS
  1
OBJECT_PTR
  2
CAseDLPNTableRecord
  3
"ASE-LPNTableRecord"
 90
    32769
280
     0
281
     0
  0
CLASS
  1
LAYOUT
  2
AcDbLayout
  3
AutoCAD 2000
 90
        0
280
     0
281
     0
  0
CLASS
  1
PLOTSETTINGS
  2
AcDbPlotSettings
  3
AutoCAD 2000
 90
    32768
280
     0
281
     0
  0
CLASS
  1
ACDBDICTIONARYWDFLT
  2
AcDbDictionaryWithDefault
  3
AutoCAD 2000
 90
        0
280
     0
281
     0
  0
CLASS
  1
ACDBPLACEHOLDER
  2
AcDbPlaceHolder
  3
AutoCAD 2000
 90
        0
280
     0
281
     0
  0
CLASS
  1
VBA_PROJECT
  2
AcDbVbaProject
  3
acadvba
 90
    32768
280
     0
281
     0
  0
CLASS
  1
WIPEOUT
  2
AcDbWipeout
  3
WipeOut|AutoCAD Express Tool|expresstools@autodesk.com
 90
    32895
280
     0
281
     1
  0
CLASS
  1
WIPEOUTVARIABLES
  2
AcDbWipeoutVariables
  3
WipeOut|AutoCAD Express Tool|expresstools@autodesk.com
 90
        0
280
     0
281
     0
  0
CLASS
  1
RTEXT
  2
RText
  3
RText|AutoCAD Express Tool|expresstools@autodesk.com
 90
    32768
280
     0
281
     1
  0
CLASS
  1
ARCALIGNEDTEXT
  2
AcDbArcAlignedText
  3
ATEXT|AutoCAD Express Tool|expresstools@autodesk.com
 90
    32768
280
     0
281
     1
  0
ENDSEC
  0
SECTION
  2
TABLES
  0
TABLE
  2
VPORT
  5
7
100
AcDbSymbolTable
 70
     1
  0
VPORT
  5
15
100
AcDbSymbolTableRecord
100
AcDbViewportTableRecord
  2
*ACTIVE
 70
     0
 10
0.0
 20
0.0
 11
1.0
 21
1.0
 12
6.591288
 22
4.579184
 13
0.0
 23
0.0
 14
1.0
 24
1.0
 15
0.0
 25
0.0
 16
0.0
 26
0.0
 36
1.0
 17
0.0
 27
0.0
 37
0.0
 40
9.158369
 41
0.688564
 42
50.0
 43
0.0
 44
0.0
 50
0.0
 51
0.0
 71
     0
 72
   100
 73
     1
 74
     1
 75
     0
 76
     0
 77
     0
 78
     0
281
     0
 65
     0
110
0.0
120
0.0
130
0.0
111
1.0
121
0.0
131
0.0
112
0.0
122
1.0
132
0.0
345
0
346
0
 79
     0
146
0.0
  0
ENDTAB
  0
TABLE
  2
LTYPE
  5
4
100
AcDbSymbolTable
 70
     4
  0
LTYPE
  5
11
100
AcDbSymbolTableRecord
100
AcDbLinetypeTableRecord
  2
ByBlock
 70
    64
  3

 72
    65
 73
     0
 40
0.0
  0
LTYPE
  5
12
100
AcDbSymbolTableRecord
100
AcDbLinetypeTableRecord
  2
ByLayer
 70
    64
  3

 72
    65
 73
     0
 40
0.0
  0
LTYPE
  5
13
100
AcDbSymbolTableRecord
100
AcDbLinetypeTableRecord
  2
Continuous
 70
    64
  3
Solid line
 72
    65
 73
     0
 40
0.0
  0
LTYPE
  5
29
100
AcDbSymbolTableRecord
100
AcDbLinetypeTableRecord
  2
AI9-LType1
 70
    64
  3
Illustrator Dash Style No.1
 72
    65
 73
     4
 40
8.000295
 49
4.99992
 74
     0
 49
-1.000125
 74
     0
 49
1.000125
 74
     0
 49
-1.000125
 74
     0
  0
ENDTAB
  0
TABLE
  2
LAYER
  5
2
100
AcDbSymbolTable
 70
     3
  0
LAYER
  5
14
100
AcDbSymbolTableRecord
100
AcDbLayerTableRecord
  2
0
 70
     0
 62
     7
  6
Continuous
290
     1
370
    -3
390
1D
  0
LAYER
  5
28
100
AcDbSymbolTableRecord
100
AcDbLayerTableRecord
  2
レイヤー_2
 70
     0
 62
     1
  6
Continuous
290
     1
370
    -3
390
1D
  0
LAYER
  5
574
100
AcDbSymbolTableRecord
100
AcDbLayerTableRecord
  2
レイヤー_1
 70
     0
 62
   160
  6
Continuous
290
     1
370
    -3
390
1D
  0
ENDTAB
  0
TABLE
  2
STYLE
  5
3
100
AcDbSymbolTable
 70
     5
  0
STYLE
  5
17
100
AcDbSymbolTableRecord
100
AcDbTextStyleTableRecord
  2
Standard
 70
     0
 40
0.0
 41
1.0
 50
0.0
 71
     0
 42
0.0
  3
txt
  4

  0
STYLE
  5
24
100
AcDbSymbolTableRecord
100
AcDbTextStyleTableRecord
  2
STD
 70
     0
 40
0.0
 41
1.0
 50
0.0
 71
     0
 42
0.0
  3
txt
  4

  0
STYLE
  5
25
100
AcDbSymbolTableRecord
100
AcDbTextStyleTableRecord
  2
TATESTD
 70
     4
 40
0.0
 41
1.0
 50
0.0
 71
     0
 42
0.0
  3
txt
  4

  0
STYLE
  5
26
100
AcDbSymbolTableRecord
100
AcDbTextStyleTableRecord
  2
KANJISTD
 70
     0
 40
0.0
 41
1.0
 50
0.0
 71
     0
 42
0.0
  3
txt
  4
extfont
  0
STYLE
  5
27
100
AcDbSymbolTableRecord
100
AcDbTextStyleTableRecord
  2
KANJITATE
 70
     4
 40
0.0
 41
1.0
 50
0.0
 71
     0
 42
0.0
  3
txt
  4
extfont
  0
ENDTAB
  0
TABLE
  2
VIEW
  5
5
100
AcDbSymbolTable
 70
     0
  0
ENDTAB
  0
TABLE
  2
UCS
  5
6
100
AcDbSymbolTable
 70
     0
  0
ENDTAB
  0
TABLE
  2
APPID
  5
8
100
AcDbSymbolTable
 70
     1
  0
APPID
  5
16
100
AcDbSymbolTableRecord
100
AcDbRegAppTableRecord
  2
ACAD
 70
     0
  0
ENDTAB
  0
TABLE
  2
DIMSTYLE
  5
9
100
AcDbSymbolTable
 70
     1
100
AcDbDimStyleTable
 71
     0
  0
DIMSTYLE
105
18
100
AcDbSymbolTableRecord
100
AcDbDimStyleTableRecord
  2
Standard
 70
     0
  3

  4

 40
1.0
 41
0.18
 42
0.0625
 43
0.38
 44
0.18
 45
0.0
 46
0.0
 47
0.0
 48
0.0
 71
     0
 72
     0
 73
     1
 74
     1
 75
     0
 76
     0
 77
     0
 78
     0
 79
     0
140
0.18
141
0.09
142
0.0
143
25.4
144
1.0
145
0.0
146
1.0
147
0.09
148
0.0
170
     0
171
     2
172
     0
173
     0
174
     0
175
     0
176
     0
177
     0
178
     0
179
     0
271
     4
272
     4
273
     2
274
     2
275
     0
276
     0
277
     2
278
    46
279
     0
280
     0
281
     0
282
     0
283
     1
284
     0
285
     0
286
     0
288
     0
340
17
341
0
342
0
343
0
344
0
371
    -2
372
    -2
  0
ENDTAB
  0
TABLE
  2
BLOCK_RECORD
  5
1
100
AcDbSymbolTable
 70
     7
  0
BLOCK_RECORD
  5
A
100
AcDbSymbolTableRecord
100
AcDbBlockTableRecord
  2
*MODEL_SPACE
340
20
  0
BLOCK_RECORD
  5
B
100
AcDbSymbolTableRecord
100
AcDbBlockTableRecord
  2
*PAPER_SPACE
340
21
  0
BLOCK_RECORD
  5
97
100
AcDbSymbolTableRecord
100
AcDbBlockTableRecord
  2
AI9-BLK1
340
0
102
{BLKREFS
331
98
102
}
  0
BLOCK_RECORD
  5
4EA
100
AcDbSymbolTableRecord
100
AcDbBlockTableRecord
  2
AI9-BLK2
340
0
102
{BLKREFS
331
4EB
102
}
  0
BLOCK_RECORD
  5
505
100
AcDbSymbolTableRecord
100
AcDbBlockTableRecord
  2
AI9-BLK3
340
0
102
{BLKREFS
331
506
102
}
  0
BLOCK_RECORD
  5
50B
100
AcDbSymbolTableRecord
100
AcDbBlockTableRecord
  2
AI9-BLK4
340
0
102
{BLKREFS
331
50C
102
}
  0
BLOCK_RECORD
  5
50E
100
AcDbSymbolTableRecord
100
AcDbBlockTableRecord
  2
AI9-BLK5
340
0
102
{BLKREFS
331
50F
102
}
  0
BLOCK_RECORD
  5
511
100
AcDbSymbolTableRecord
100
AcDbBlockTableRecord
  2
AI9-BLK6
340
0
102
{BLKREFS
331
512
102
}
  0
BLOCK_RECORD
  5
53A
100
AcDbSymbolTableRecord
100
AcDbBlockTableRecord
  2
AI9-BLK7
340
0
102
{BLKREFS
331
53B
102
}
  0
ENDTAB
  0
ENDSEC
  0
SECTION
  2
BLOCKS
  0
BLOCK
  5
D
100
AcDbEntity
  8
0
100
AcDbBlockBegin
  2
*MODEL_SPACE
 70
     0
 10
0.0
 20
0.0
 30
0.0
  3
*MODEL_SPACE
  1

  0
ENDBLK
  5
E
100
AcDbEntity
  8
0
100
AcDbBlockEnd
  0
BLOCK
  5
F
100
AcDbEntity
 67
     1
  8
0
100
AcDbBlockBegin
  2
*PAPER_SPACE
 70
     0
 10
0.0
 20
0.0
 30
0.0
  3
*PAPER_SPACE
  1

  0
ENDBLK
  5
10
100
AcDbEntity
 67
     1
  8
0
100
AcDbBlockEnd
  0
BLOCK
  5
99
100
AcDbEntity
  8
レイヤー_2
 62
     7
100
AcDbBlockBegin
  2
AI9-BLK1
 70
     0
 10
0.0
 20
0.0
 30
0.0
  3
AI9-BLK1
  1

  0
LINE
  5
AB
100
AcDbEntity
  8
レイヤー_2
 62
     7
100
AcDbLine
 10
2.524308
 20
1.403446
 30
0.0
 11
-2.568405
 21
1.403446
 31
0.0
  0
POLYLINE
  5
A6
100
AcDbEntity
  8
レイヤー_2
 62
     7
100
AcDb2dPolyline
 66
     1
 10
0.0
 20
0.0
 30
0.0
  0
VERTEX
  5
A7
100
AcDbEntity
  8
レイヤー_2
 62
     7
100
AcDbVertex
100
AcDb2dVertex
 10
2.524308
 20
1.403446
 30
0.0
  0
VERTEX
  5
A8
100
AcDbEntity
  8
レイヤー_2
 62
     7
100
AcDbVertex
100
AcDb2dVertex
 10
2.524308
 20
2.352742
 30
0.0
  0
VERTEX
  5
A9
100
AcDbEntity
  8
レイヤー_2
 62
     7
100
AcDbVertex
100
AcDb2dVertex
 10
2.524308
 20
1.403446
 30
0.0
  0
SEQEND
  5
AA
100
AcDbEntity
  8
レイヤー_2
 62
     7
  0
LINE
  5
A5
100
AcDbEntity
  8
レイヤー_2
 62
     7
100
AcDbLine
 10
-2.326731
 20
-1.975332
 30
0.0
 11
2.259207
 21
-1.975332
 31
0.0
  0
LINE
  5
A4
100
AcDbEntity
  8
レイヤー_2
 62
     7
100
AcDbLine
 10
-1.96069
 20
-2.201674
 30
0.0
 11
-2.222345
 21
1.413609
 31
0.0
  0
LINE
  5
A3
100
AcDbEntity
  8
レイヤー_2
 62
     7
100
AcDbLine
 10
1.862505
 20
-2.237503
 30
0.0
 11
2.122954
 21
1.396383
 31
0.0
  0
POLYLINE
  5
9A
100
AcDbEntity
  8
レイヤー_2
 62
     7
100
AcDb2dPolyline
 66
     1
 10
0.0
 20
0.0
 30
0.0
  0
VERTEX
  5
9B
100
AcDbEntity
  8
レイヤー_2
 62
     7
100
AcDbVertex
100
AcDb2dVertex
 10
-2.568405
 20
2.352742
 30
0.0
  0
VERTEX
  5
9C
100
AcDbEntity
  8
レイヤー_2
 62
     7
100
AcDbVertex
100
AcDb2dVertex
 10
-2.568405
 20
1.403446
 30
0.0
  0
VERTEX
  5
9D
100
AcDbEntity
  8
レイヤー_2
 62
     7
100
AcDbVertex
100
AcDb2dVertex
 10
-2.322253
 20
-1.965858
 30
0.0
  0
VERTEX
  5
9E
100
AcDbEntity
  8
レイヤー_2
 62
     7
100
AcDbVertex
100
AcDb2dVertex
 10
-2.067488
 20
-2.201674
 30
0.0
  0
VERTEX
  5
9F
100
AcDbEntity
  8
レイヤー_2
 62
     7
100
AcDbVertex
100
AcDb2dVertex
 10
2.003926
 20
-2.220278
 30
0.0
  0
VERTEX
  5
A0
100
AcDbEntity
  8
レイヤー_2
 62
     7
100
AcDbVertex
100
AcDb2dVertex
 10
2.259207
 20
-1.975332
 30
0.0
  0
VERTEX
  5
A1
100
AcDbEntity
  8
レイヤー_2
 62
     7
100
AcDbVertex
100
AcDb2dVertex
 10
2.524308
 20
1.403446
 30
0.0
  0
SEQEND
  5
A2
100
AcDbEntity
  8
レイヤー_2
 62
     7
  0
ENDBLK
  5
AC
100
AcDbEntity
  8
レイヤー_2
100
AcDbBlockEnd
  0
BLOCK
  5
4EC
100
AcDbEntity
  8
レイヤー_2
 62
     7
100
AcDbBlockBegin
  2
AI9-BLK2
 70
     0
 10
0.0
 20
0.0
 30
0.0
  3
AI9-BLK2
  1

  0
LINE
  5
4FE
100
AcDbEntity
  8
レイヤー_2
 62
     7
100
AcDbLine
 10
2.524308
 20
1.403446
 30
0.0
 11
-2.568405
 21
1.403446
 31
0.0
  0
POLYLINE
  5
4F9
100
AcDbEntity
  8
レイヤー_2
 62
     7
100
AcDb2dPolyline
 66
     1
 10
0.0
 20
0.0
 30
0.0
  0
VERTEX
  5
4FA
100
AcDbEntity
  8
レイヤー_2
 62
     7
100
AcDbVertex
100
AcDb2dVertex
 10
2.524308
 20
1.403446
 30
0.0
  0
VERTEX
  5
4FB
100
AcDbEntity
  8
レイヤー_2
 62
     7
100
AcDbVertex
100
AcDb2dVertex
 10
2.524308
 20
2.352742
 30
0.0
  0
VERTEX
  5
4FC
100
AcDbEntity
  8
レイヤー_2
 62
     7
100
AcDbVertex
100
AcDb2dVertex
 10
2.524308
 20
1.403446
 30
0.0
  0
SEQEND
  5
4FD
100
AcDbEntity
  8
レイヤー_2
 62
     7
  0
LINE
  5
4F8
100
AcDbEntity
  8
レイヤー_2
 62
     7
100
AcDbLine
 10
-2.326731
 20
-1.975332
 30
0.0
 11
2.259207
 21
-1.975332
 31
0.0
  0
LINE
  5
4F7
100
AcDbEntity
  8
レイヤー_2
 62
     7
100
AcDbLine
 10
-1.96069
 20
-2.201674
 30
0.0
 11
-2.222345
 21
1.413609
 31
0.0
  0
LINE
  5
4F6
100
AcDbEntity
  8
レイヤー_2
 62
     7
100
AcDbLine
 10
1.862505
 20
-2.237503
 30
0.0
 11
2.122954
 21
1.396383
 31
0.0
  0
POLYLINE
  5
4ED
100
AcDbEntity
  8
レイヤー_2
 62
     7
100
AcDb2dPolyline
 66
     1
 10
0.0
 20
0.0
 30
0.0
  0
VERTEX
  5
4EE
100
AcDbEntity
  8
レイヤー_2
 62
     7
100
AcDbVertex
100
AcDb2dVertex
 10
-2.568405
 20
2.352742
 30
0.0
  0
VERTEX
  5
4EF
100
AcDbEntity
  8
レイヤー_2
 62
     7
100
AcDbVertex
100
AcDb2dVertex
 10
-2.568405
 20
1.403446
 30
0.0
  0
VERTEX
  5
4F0
100
AcDbEntity
  8
レイヤー_2
 62
     7
100
AcDbVertex
100
AcDb2dVertex
 10
-2.322253
 20
-1.965858
 30
0.0
  0
VERTEX
  5
4F1
100
AcDbEntity
  8
レイヤー_2
 62
     7
100
AcDbVertex
100
AcDb2dVertex
 10
-2.067488
 20
-2.201674
 30
0.0
  0
VERTEX
  5
4F2
100
AcDbEntity
  8
レイヤー_2
 62
     7
100
AcDbVertex
100
AcDb2dVertex
 10
2.003926
 20
-2.220278
 30
0.0
  0
VERTEX
  5
4F3
100
AcDbEntity
  8
レイヤー_2
 62
     7
100
AcDbVertex
100
AcDb2dVertex
 10
2.259207
 20
-1.975332
 30
0.0
  0
VERTEX
  5
4F4
100
AcDbEntity
  8
レイヤー_2
 62
     7
100
AcDbVertex
100
AcDb2dVertex
 10
2.524308
 20
1.403446
 30
0.0
  0
SEQEND
  5
4F5
100
AcDbEntity
  8
レイヤー_2
 62
     7
  0
ENDBLK
  5
4FF
100
AcDbEntity
  8
レイヤー_2
100
AcDbBlockEnd
  0
BLOCK
  5
507
100
AcDbEntity
  8
レイヤー_2
 62
     7
100
AcDbBlockBegin
  2
AI9-BLK3
 70
     0
 10
0.0
 20
0.0
 30
0.0
  3
AI9-BLK3
  1

  0
MTEXT
  5
509
100
AcDbEntity
  8
レイヤー_2
 62
     7
100
AcDbMText
 10
-9.383751
 20
3.60407
 30
0.0
 40
2.728843
 41
0.0
 71
     1
 72
     2
  1
\fMS PGothic|b0|i0|c128;\H2.7288;\C7;\U+63A5\U+7D9A\U+30BD\U+30B1\U+30C3\U+30C8
  7
STD
210
0.0
220
0.0
230
1.0
 73
     1
 44
1.0
  0
MTEXT
  5
508
100
AcDbEntity
  8
レイヤー_2
 62
     7
100
AcDbMText
 10
-9.383751
 20
-0.797039
 30
0.0
 40
2.728843
 41
0.0
 71
     1
 72
     2
  1
\fMS PGothic|b0|i0|c128;\H2.7288;\C7;\U+FF08\U+9006\U+6B62\U+5F01\U+4ED8\U+FF09
  7
STD
210
0.0
220
0.0
230
1.0
 73
     1
 44
1.0
  0
ENDBLK
  5
50A
100
AcDbEntity
  8
レイヤー_2
100
AcDbBlockEnd
  0
BLOCK
  5
50D
100
AcDbEntity
  8
レイヤー_2
 62
     7
100
AcDbBlockBegin
  2
AI9-BLK4
 70
     0
 10
0.0
 20
0.0
 30
0.0
  3
AI9-BLK4
  1

  0
INSERT
  5
50F
100
AcDbEntity
  8
レイヤー_2
 62
     7
100
AcDbBlockReference
  2
AI9-BLK5
 10
0.0
 20
0.0
 30
0.0
  0
ENDBLK
  5
564
100
AcDbEntity
  8
レイヤー_2
100
AcDbBlockEnd
  0
BLOCK
  5
510
100
AcDbEntity
  8
レイヤー_2
 62
     7
100
AcDbBlockBegin
  2
AI9-BLK5
 70
     0
 10
0.0
 20
0.0
 30
0.0
  3
AI9-BLK5
  1

  0
INSERT
  5
53B
100
AcDbEntity
  8
レイヤー_2
 62
     7
100
AcDbBlockReference
  2
AI9-BLK7
 10
-21.23109
 20
0.0
 30
0.0
  0
INSERT
  5
512
100
AcDbEntity
  8
レイヤー_2
 62
     7
100
AcDbBlockReference
  2
AI9-BLK6
 10
21.231262
 20
0.0
 30
0.0
  0
ENDBLK
  5
563
100
AcDbEntity
  8
レイヤー_2
100
AcDbBlockEnd
  0
BLOCK
  5
513
100
AcDbEntity
  8
レイヤー_2
 62
     7
100
AcDbBlockBegin
  2
AI9-BLK6
 70
     0
 10
0.0
 20
0.0
 30
0.0
  3
AI9-BLK6
  1

  0
LINE
  5
538
100
AcDbEntity
  8
レイヤー_2
 62
     7
100
AcDbLine
 10
-2.065335
 20
-0.639754
 30
0.0
 11
-1.944067
 21
-0.639754
 31
0.0
  0
LINE
  5
537
100
AcDbEntity
  8
レイヤー_2
 62
     7
100
AcDbLine
 10
-1.544436
 20
-3.556372
 30
0.0
 11
-1.544436
 21
-0.639754
 31
0.0
  0
LINE
  5
536
100
AcDbEntity
  8
レイヤー_2
 62
     7
100
AcDbLine
 10
-1.944067
 20
-0.639754
 30
0.0
 11
-2.065335
 21
-0.428914
 31
0.0
  0
LINE
  5
535
100
AcDbEntity
  8
レイヤー_2
 62
     7
100
AcDbLine
 10
1.943378
 20
-0.639754
 30
0.0
 11
2.06499
 21
-0.639754
 31
0.0
  0
LINE
  5
534
100
AcDbEntity
  8
レイヤー_2
 62
     7
100
AcDbLine
 10
1.515498
 20
-0.639754
 30
0.0
 11
1.515498
 21
-3.556372
 31
0.0
  0
LINE
  5
533
100
AcDbEntity
  8
レイヤー_2
 62
     7
100
AcDbLine
 10
2.06499
 20
-0.428914
 30
0.0
 11
1.943378
 21
-0.639754
 31
0.0
  0
LINE
  5
532
100
AcDbEntity
  8
レイヤー_2
 62
     7
100
AcDbLine
 10
-1.75941
 20
-3.556372
 30
0.0
 11
0.0
 21
-3.556372
 31
0.0
  0
LINE
  5
531
100
AcDbEntity
  8
レイヤー_2
 62
     7
100
AcDbLine
 10
2.06499
 20
-3.556372
 30
0.0
 11
-2.065335
 21
-3.556372
 31
0.0
  0
LINE
  5
530
100
AcDbEntity
  8
レイヤー_2
 62
     7
100
AcDbLine
 10
2.885267
 20
3.338642
 30
0.0
 11
3.158119
 21
3.191881
 31
0.0
  0
LINE
  5
52F
100
AcDbEntity
  8
レイヤー_2
 62
     7
100
AcDbLine
 10
-3.158119
 20
3.191881
 30
0.0
 11
-2.885267
 21
3.338642
 31
0.0
  0
LINE
  5
52E
100
AcDbEntity
  8
レイヤー_2
 62
     7
100
AcDbLine
 10
3.158119
 20
0.167087
 30
0.0
 11
2.885267
 21
0.021015
 31
0.0
  0
LINE
  5
52D
100
AcDbEntity
  8
レイヤー_2
 62
     7
100
AcDbLine
 10
-2.885267
 20
0.021015
 30
0.0
 11
-3.158119
 21
0.167087
 31
0.0
  0
LINE
  5
52C
100
AcDbEntity
  8
レイヤー_2
 62
     7
100
AcDbLine
 10
2.793628
 20
3.556372
 30
0.0
 11
-2.794317
 21
3.556372
 31
0.0
  0
LINE
  5
52B
100
AcDbEntity
  8
レイヤー_2
 62
     7
100
AcDbLine
 10
1.91754
 20
3.191881
 30
0.0
 11
1.215085
 21
3.191881
 31
0.0
  0
LINE
  5
52A
100
AcDbEntity
  8
レイヤー_2
 62
     7
100
AcDbLine
 10
-1.215085
 20
3.191881
 30
0.0
 11
-1.91754
 21
3.191881
 31
0.0
  0
LINE
  5
529
100
AcDbEntity
  8
レイヤー_2
 62
     7
100
AcDbLine
 10
-3.158119
 20
3.191881
 30
0.0
 11
-2.794317
 21
3.556372
 31
0.0
  0
LINE
  5
528
100
AcDbEntity
  8
レイヤー_2
 62
     7
100
AcDbLine
 10
3.158119
 20
3.191881
 30
0.0
 11
2.793628
 21
3.556372
 31
0.0
  0
LINE
  5
527
100
AcDbEntity
  8
レイヤー_2
 62
     7
100
AcDbLine
 10
-2.794317
 20
-0.198093
 30
0.0
 11
2.793628
 21
-0.198093
 31
0.0
  0
LINE
  5
526
100
AcDbEntity
  8
レイヤー_2
 62
     7
100
AcDbLine
 10
-2.794317
 20
-0.198093
 30
0.0
 11
-3.158119
 21
0.167087
 31
0.0
  0
LINE
  5
525
100
AcDbEntity
  8
レイヤー_2
 62
     7
100
AcDbLine
 10
-1.91754
 20
0.167087
 30
0.0
 11
-1.215085
 21
0.167087
 31
0.0
  0
LINE
  5
524
100
AcDbEntity
  8
レイヤー_2
 62
     7
100
AcDbLine
 10
1.215085
 20
0.167087
 30
0.0
 11
1.91754
 21
0.167087
 31
0.0
  0
LINE
  5
523
100
AcDbEntity
  8
レイヤー_2
 62
     7
100
AcDbLine
 10
2.793628
 20
-0.198093
 30
0.0
 11
3.158119
 21
0.167087
 31
0.0
  0
LINE
  5
522
100
AcDbEntity
  8
レイヤー_2
 62
     7
100
AcDbLine
 10
3.158119
 20
3.191881
 30
0.0
 11
3.158119
 21
0.167087
 31
0.0
  0
LINE
  5
521
100
AcDbEntity
  8
レイヤー_2
 62
     7
100
AcDbLine
 10
1.91754
 20
3.191881
 30
0.0
 11
1.91754
 21
0.167087
 31
0.0
  0
LINE
  5
520
100
AcDbEntity
  8
レイヤー_2
 62
     7
100
AcDbLine
 10
1.215085
 20
3.191881
 30
0.0
 11
1.215085
 21
0.167087
 31
0.0
  0
LINE
  5
51F
100
AcDbEntity
  8
レイヤー_2
 62
     7
100
AcDbLine
 10
-1.215085
 20
3.191881
 30
0.0
 11
-1.215085
 21
0.167087
 31
0.0
  0
LINE
  5
51E
100
AcDbEntity
  8
レイヤー_2
 62
     7
100
AcDbLine
 10
-1.91754
 20
3.191881
 30
0.0
 11
-1.91754
 21
0.167087
 31
0.0
  0
LINE
  5
51D
100
AcDbEntity
  8
レイヤー_2
 62
     7
100
AcDbLine
 10
-3.158119
 20
3.191881
 30
0.0
 11
-3.158119
 21
0.167087
 31
0.0
  0
SPLINE
  5
51C
100
AcDbEntity
  8
レイヤー_2
 62
     7
100
AcDbSpline
210
0.0
220
0.0
230
1.0
 70
     8
 71
     3
 72
     8
 73
     4
 74
     0
 42
0.00000001
 43
0.00000001
 40
0.0
 40
0.0
 40
0.0
 40
0.0
 40
1.0
 40
1.0
 40
1.0
 40
1.0
 10
2.8852674696180554
 20
3.3386420355902775
 30
0.0
 10
2.5659071180555553
 20
3.5095187717013885
 30
0.0
 10
2.1717881944444444
 20
3.4495741102430553
 30
0.0
 10
1.9175401475694442
 20
3.1918809678819442
 30
0.0
  0
SPLINE
  5
51B
100
AcDbEntity
  8
レイヤー_2
 62
     7
100
AcDbSpline
210
0.0
220
0.0
230
1.0
 70
     8
 71
     3
 72
     8
 73
     4
 74
     0
 42
0.00000001
 43
0.00000001
 40
0.0
 40
0.0
 40
0.0
 40
0.0
 40
1.0
 40
1.0
 40
1.0
 40
1.0
 10
-1.9175401475694442
 20
3.1918809678819442
 30
0.0
 10
-2.1721327039930554
 20
3.4495741102430553
 30
0.0
 10
-2.5659071180555553
 20
3.5095187717013885
 30
0.0
 10
-2.8852674696180554
 20
3.3386420355902775
 30
0.0
  0
SPLINE
  5
51A
100
AcDbEntity
  8
レイヤー_2
 62
     7
100
AcDbSpline
210
0.0
220
0.0
230
1.0
 70
     8
 71
     3
 72
     8
 73
     4
 74
     0
 42
0.00000001
 43
0.00000001
 40
0.0
 40
0.0
 40
0.0
 40
0.0
 40
1.0
 40
1.0
 40
1.0
 40
1.0
 10
1.2150851779513887
 20
3.1918809678819442
 30
0.0
 10
0.4368381076388889
 20
3.5164089626736108
 30
0.0
 10
-0.4378716362847222
 20
3.5164089626736108
 30
0.0
 10
-1.2150851779513887
 20
3.1918809678819442
 30
0.0
  0
SPLINE
  5
519
100
AcDbEntity
  8
レイヤー_2
 62
     7
100
AcDbSpline
210
0.0
220
0.0
230
1.0
 70
     8
 71
     3
 72
     8
 73
     4
 74
     0
 42
0.00000001
 43
0.00000001
 40
0.0
 40
0.0
 40
0.0
 40
0.0
 40
1.0
 40
1.0
 40
1.0
 40
1.0
 10
1.9175401475694442
 20
0.1670871310763889
 30
0.0
 10
2.1717881944444444
 20
-0.0912950303819444
 30
0.0
 10
2.5659071180555553
 20
-0.1505506727430555
 30
0.0
 10
2.8852674696180554
 20
0.0210150824652778
 30
0.0
  0
SPLINE
  5
518
100
AcDbEntity
  8
レイヤー_2
 62
     7
100
AcDbSpline
210
0.0
220
0.0
230
1.0
 70
     8
 71
     3
 72
     8
 73
     4
 74
     0
 42
0.00000001
 43
0.00000001
 40
0.0
 40
0.0
 40
0.0
 40
0.0
 40
1.0
 40
1.0
 40
1.0
 40
1.0
 10
-2.8852674696180554
 20
0.0210150824652778
 30
0.0
 10
-2.5659071180555553
 20
-0.1505506727430555
 30
0.0
 10
-2.1721327039930554
 20
-0.0912950303819444
 30
0.0
 10
-1.9175401475694442
 20
0.1670871310763889
 30
0.0
  0
SPLINE
  5
517
100
AcDbEntity
  8
レイヤー_2
 62
     7
100
AcDbSpline
210
0.0
220
0.0
230
1.0
 70
     8
 71
     3
 72
     8
 73
     4
 74
     0
 42
0.00000001
 43
0.00000001
 40
0.0
 40
0.0
 40
0.0
 40
0.0
 40
1.0
 40
1.0
 40
1.0
 40
1.0
 10
-1.2150851779513887
 20
0.1670871310763889
 30
0.0
 10
-0.4378716362847222
 20
-0.1567518446180556
 30
0.0
 10
0.4368381076388889
 20
-0.1567518446180556
 30
0.0
 10
1.2150851779513887
 20
0.1670871310763889
 30
0.0
  0
LINE
  5
516
100
AcDbEntity
  8
レイヤー_2
 62
     7
100
AcDbLine
 10
-2.065335
 20
-0.428914
 30
0.0
 11
-2.065335
 21
-3.556372
 31
0.0
  0
LINE
  5
515
100
AcDbEntity
  8
レイヤー_2
 62
     7
100
AcDbLine
 10
2.06499
 20
-3.556372
 30
0.0
 11
2.06499
 21
-0.428914
 31
0.0
  0
LINE
  5
514
100
AcDbEntity
  8
レイヤー_2
 62
     7
100
AcDbLine
 10
1.943378
 20
-0.639754
 30
0.0
 11
-1.944067
 21
-0.639754
 31
0.0
  0
ENDBLK
  5
539
100
AcDbEntity
  8
レイヤー_2
100
AcDbBlockEnd
  0
BLOCK
  5
53C
100
AcDbEntity
  8
レイヤー_2
 62
     7
100
AcDbBlockBegin
  2
AI9-BLK7
 70
     0
 10
0.0
 20
0.0
 30
0.0
  3
AI9-BLK7
  1

  0
LINE
  5
561
100
AcDbEntity
  8
レイヤー_2
 62
     7
100
AcDbLine
 10
-2.065162
 20
-0.639754
 30
0.0
 11
-1.94424
 21
-0.639754
 31
0.0
  0
LINE
  5
560
100
AcDbEntity
  8
レイヤー_2
 62
     7
100
AcDbLine
 10
-1.544953
 20
-3.556372
 30
0.0
 11
-1.544953
 21
-0.639754
 31
0.0
  0
LINE
  5
55F
100
AcDbEntity
  8
レイヤー_2
 62
     7
100
AcDbLine
 10
-1.94424
 20
-0.639754
 30
0.0
 11
-2.065162
 21
-0.428914
 31
0.0
  0
LINE
  5
55E
100
AcDbEntity
  8
レイヤー_2
 62
     7
100
AcDbLine
 10
1.943206
 20
-0.639754
 30
0.0
 11
2.065162
 21
-0.639754
 31
0.0
  0
LINE
  5
55D
100
AcDbEntity
  8
レイヤー_2
 62
     7
100
AcDbLine
 10
1.514981
 20
-0.639754
 30
0.0
 11
1.514981
 21
-3.556372
 31
0.0
  0
LINE
  5
55C
100
AcDbEntity
  8
レイヤー_2
 62
     7
100
AcDbLine
 10
2.065162
 20
-0.428914
 30
0.0
 11
1.943206
 21
-0.639754
 31
0.0
  0
LINE
  5
55B
100
AcDbEntity
  8
レイヤー_2
 62
     7
100
AcDbLine
 10
-1.759238
 20
-3.556372
 30
0.0
 11
0.000172
 21
-3.556372
 31
0.0
  0
LINE
  5
55A
100
AcDbEntity
  8
レイヤー_2
 62
     7
100
AcDbLine
 10
2.065162
 20
-3.556372
 30
0.0
 11
-2.065162
 21
-3.556372
 31
0.0
  0
LINE
  5
559
100
AcDbEntity
  8
レイヤー_2
 62
     7
100
AcDbLine
 10
2.885095
 20
3.338642
 30
0.0
 11
3.158291
 21
3.191881
 31
0.0
  0
LINE
  5
558
100
AcDbEntity
  8
レイヤー_2
 62
     7
100
AcDbLine
 10
-3.158291
 20
3.191881
 30
0.0
 11
-2.88544
 21
3.338642
 31
0.0
  0
LINE
  5
557
100
AcDbEntity
  8
レイヤー_2
 62
     7
100
AcDbLine
 10
3.158291
 20
0.167087
 30
0.0
 11
2.885095
 21
0.021015
 31
0.0
  0
LINE
  5
556
100
AcDbEntity
  8
レイヤー_2
 62
     7
100
AcDbLine
 10
-2.88544
 20
0.021015
 30
0.0
 11
-3.158291
 21
0.167087
 31
0.0
  0
LINE
  5
555
100
AcDbEntity
  8
レイヤー_2
 62
     7
100
AcDbLine
 10
2.793456
 20
3.556372
 30
0.0
 11
-2.794489
 21
3.556372
 31
0.0
  0
LINE
  5
554
100
AcDbEntity
  8
レイヤー_2
 62
     7
100
AcDbLine
 10
1.917712
 20
3.191881
 30
0.0
 11
1.214913
 21
3.191881
 31
0.0
  0
LINE
  5
553
100
AcDbEntity
  8
レイヤー_2
 62
     7
100
AcDbLine
 10
-1.214568
 20
3.191881
 30
0.0
 11
-1.917368
 21
3.191881
 31
0.0
  0
LINE
  5
552
100
AcDbEntity
  8
レイヤー_2
 62
     7
100
AcDbLine
 10
-3.158291
 20
3.191881
 30
0.0
 11
-2.794489
 21
3.556372
 31
0.0
  0
LINE
  5
551
100
AcDbEntity
  8
レイヤー_2
 62
     7
100
AcDbLine
 10
3.158291
 20
3.191881
 30
0.0
 11
2.793456
 21
3.556372
 31
0.0
  0
LINE
  5
550
100
AcDbEntity
  8
レイヤー_2
 62
     7
100
AcDbLine
 10
-2.794489
 20
-0.198093
 30
0.0
 11
2.793456
 21
-0.198093
 31
0.0
  0
LINE
  5
54F
100
AcDbEntity
  8
レイヤー_2
 62
     7
100
AcDbLine
 10
-2.794489
 20
-0.198093
 30
0.0
 11
-3.158291
 21
0.167087
 31
0.0
  0
LINE
  5
54E
100
AcDbEntity
  8
レイヤー_2
 62
     7
100
AcDbLine
 10
-1.917368
 20
0.167087
 30
0.0
 11
-1.214568
 21
0.167087
 31
0.0
  0
LINE
  5
54D
100
AcDbEntity
  8
レイヤー_2
 62
     7
100
AcDbLine
 10
1.214913
 20
0.167087
 30
0.0
 11
1.917712
 21
0.167087
 31
0.0
  0
LINE
  5
54C
100
AcDbEntity
  8
レイヤー_2
 62
     7
100
AcDbLine
 10
2.793456
 20
-0.198093
 30
0.0
 11
3.158291
 21
0.167087
 31
0.0
  0
LINE
  5
54B
100
AcDbEntity
  8
レイヤー_2
 62
     7
100
AcDbLine
 10
3.158291
 20
3.191881
 30
0.0
 11
3.158291
 21
0.167087
 31
0.0
  0
LINE
  5
54A
100
AcDbEntity
  8
レイヤー_2
 62
     7
100
AcDbLine
 10
1.917712
 20
3.191881
 30
0.0
 11
1.917712
 21
0.167087
 31
0.0
  0
LINE
  5
549
100
AcDbEntity
  8
レイヤー_2
 62
     7
100
AcDbLine
 10
1.214913
 20
3.191881
 30
0.0
 11
1.214913
 21
0.167087
 31
0.0
  0
LINE
  5
548
100
AcDbEntity
  8
レイヤー_2
 62
     7
100
AcDbLine
 10
-1.214568
 20
3.191881
 30
0.0
 11
-1.214568
 21
0.167087
 31
0.0
  0
LINE
  5
547
100
AcDbEntity
  8
レイヤー_2
 62
     7
100
AcDbLine
 10
-1.917368
 20
3.191881
 30
0.0
 11
-1.917368
 21
0.167087
 31
0.0
  0
LINE
  5
546
100
AcDbEntity
  8
レイヤー_2
 62
     7
100
AcDbLine
 10
-3.158291
 20
3.191881
 30
0.0
 11
-3.158291
 21
0.167087
 31
0.0
  0
SPLINE
  5
545
100
AcDbEntity
  8
レイヤー_2
 62
     7
100
AcDbSpline
210
0.0
220
0.0
230
1.0
 70
     8
 71
     3
 72
     8
 73
     4
 74
     0
 42
0.00000001
 43
0.00000001
 40
0.0
 40
0.0
 40
0.0
 40
0.0
 40
1.0
 40
1.0
 40
1.0
 40
1.0
 10
2.8850952148437496
 20
3.3386420355902775
 30
0.0
 10
2.566079372829861
 20
3.5095187717013885
 30
0.0
 10
2.1719604492187496
 20
3.4495741102430553
 30
0.0
 10
1.9177124023437497
 20
3.1918809678819442
 30
0.0
  0
SPLINE
  5
544
100
AcDbEntity
  8
レイヤー_2
 62
     7
100
AcDbSpline
210
0.0
220
0.0
230
1.0
 70
     8
 71
     3
 72
     8
 73
     4
 74
     0
 42
0.00000001
 43
0.00000001
 40
0.0
 40
0.0
 40
0.0
 40
0.0
 40
1.0
 40
1.0
 40
1.0
 40
1.0
 10
-1.9173678927951388
 20
3.1918809678819442
 30
0.0
 10
-2.1716159396701387
 20
3.4495741102430553
 30
0.0
 10
-2.5657348632812496
 20
3.5095187717013885
 30
0.0
 10
-2.8854397243923606
 20
3.3386420355902775
 30
0.0
  0
SPLINE
  5
543
100
AcDbEntity
  8
レイヤー_2
 62
     7
100
AcDbSpline
210
0.0
220
0.0
230
1.0
 70
     8
 71
     3
 72
     8
 73
     4
 74
     0
 42
0.00000001
 43
0.00000001
 40
0.0
 40
0.0
 40
0.0
 40
0.0
 40
1.0
 40
1.0
 40
1.0
 40
1.0
 10
1.2149129231770832
 20
3.1918809678819442
 30
0.0
 10
0.4370103624131944
 20
3.5164089626736108
 30
0.0
 10
-0.4376993815104167
 20
3.5164089626736108
 30
0.0
 10
-1.214568413628472
 20
3.1918809678819442
 30
0.0
  0
SPLINE
  5
542
100
AcDbEntity
  8
レイヤー_2
 62
     7
100
AcDbSpline
210
0.0
220
0.0
230
1.0
 70
     8
 71
     3
 72
     8
 73
     4
 74
     0
 42
0.00000001
 43
0.00000001
 40
0.0
 40
0.0
 40
0.0
 40
0.0
 40
1.0
 40
1.0
 40
1.0
 40
1.0
 10
1.9177124023437497
 20
0.1670871310763889
 30
0.0
 10
2.1719604492187496
 20
-0.0912950303819444
 30
0.0
 10
2.566079372829861
 20
-0.1505506727430555
 30
0.0
 10
2.8850952148437496
 20
0.0210150824652778
 30
0.0
  0
SPLINE
  5
541
100
AcDbEntity
  8
レイヤー_2
 62
     7
100
AcDbSpline
210
0.0
220
0.0
230
1.0
 70
     8
 71
     3
 72
     8
 73
     4
 74
     0
 42
0.00000001
 43
0.00000001
 40
0.0
 40
0.0
 40
0.0
 40
0.0
 40
1.0
 40
1.0
 40
1.0
 40
1.0
 10
-2.8854397243923606
 20
0.0210150824652778
 30
0.0
 10
-2.5657348632812496
 20
-0.1505506727430555
 30
0.0
 10
-2.1716159396701387
 20
-0.0912950303819444
 30
0.0
 10
-1.9173678927951388
 20
0.1670871310763889
 30
0.0
  0
SPLINE
  5
540
100
AcDbEntity
  8
レイヤー_2
 62
     7
100
AcDbSpline
210
0.0
220
0.0
230
1.0
 70
     8
 71
     3
 72
     8
 73
     4
 74
     0
 42
0.00000001
 43
0.00000001
 40
0.0
 40
0.0
 40
0.0
 40
0.0
 40
1.0
 40
1.0
 40
1.0
 40
1.0
 10
-1.214568413628472
 20
0.1670871310763889
 30
0.0
 10
-0.4376993815104167
 20
-0.1567518446180556
 30
0.0
 10
0.4370103624131944
 20
-0.1567518446180556
 30
0.0
 10
1.2149129231770832
 20
0.1670871310763889
 30
0.0
  0
LINE
  5
53F
100
AcDbEntity
  8
レイヤー_2
 62
     7
100
AcDbLine
 10
-2.065162
 20
-0.428914
 30
0.0
 11
-2.065162
 21
-3.556372
 31
0.0
  0
LINE
  5
53E
100
AcDbEntity
  8
レイヤー_2
 62
     7
100
AcDbLine
 10
2.065162
 20
-3.556372
 30
0.0
 11
2.065162
 21
-0.428914
 31
0.0
  0
LINE
  5
53D
100
AcDbEntity
  8
レイヤー_2
 62
     7
100
AcDbLine
 10
1.943206
 20
-0.639754
 30
0.0
 11
-1.94424
 21
-0.639754
 31
0.0
  0
ENDBLK
  5
562
100
AcDbEntity
  8
レイヤー_2
100
AcDbBlockEnd
  0
ENDSEC
  0
SECTION
  2
ENTITIES
  0
MTEXT
  5
58E
100
AcDbEntity
  8
レイヤー_1
 62
     7
100
AcDbMText
 10
47.801389
 20
55.180324
 30
0.0
 40
3.674768
 41
0.0
 71
     1
 72
     2
  1
\fMS Gothic|b0|i0|c128;\H3.6748;\C7;\U+0032\U+0030\U+002E\U+0037\U+0031\U+0033\U+002E\U+0037\U+0033\U+0030\U+002E\U+0058\U+0058
  7
STD
210
0.0
220
0.0
230
1.0
 73
     1
 44
1.0
  0
MTEXT
  5
58D
100
AcDbEntity
  8
レイヤー_1
 62
     7
100
AcDbMText
 10
39.6875
 20
57.666567
 30
0.0
 40
1.574901
 41
0.0
 71
     1
 72
     2
  1
\fOsaka|b0|i0|c128;\H1.5749;\C7;\U+54C1\U+756A
  7
STD
210
0.0
220
0.0
230
1.0
 73
     1
 44
1.0
  0
MTEXT
  5
58C
100
AcDbEntity
  8
レイヤー_1
 62
     7
100
AcDbMText
 10
47.801389
 20
34.017542
 30
0.0
 40
3.149486
 41
0.0
 71
     1
 72
     2
  1
\fOsaka|b0|i0|c128;\H3.1495;\C7;\U+FF13\U+7A74\U+578B\U+FF12\U+30D0\U+30EB\U+30D6\U+6D17\U+9762\U+7528\U+6DF7\U+5408\U+6813
  7
STD
210
0.0
220
0.0
230
1.0
 73
     1
 44
1.0
  0
MTEXT
  5
58B
100
AcDbEntity
  8
レイヤー_1
 62
     7
100
AcDbMText
 10
39.6875
 20
36.499901
 30
0.0
 40
1.574901
 41
0.0
 71
     1
 72
     2
  1
\fOsaka|b0|i0|c128;\H1.5749;\C7;\U+54C1
  7
STD
210
0.0
220
0.0
230
1.0
 73
     1
 44
1.0
  0
MTEXT
  5
58A
100
AcDbEntity
  8
レイヤー_1
 62
     7
100
AcDbMText
 10
47.801389
 20
44.013142
 30
0.0
 40
3.149486
 41
0.0
 71
     1
 72
     2
  1
\fMS Gothic|b0|i0|c128;\H3.1495;\C7;\U+0053\U+0055\U+0050\U+0045\U+0052\U+004E\U+004F\U+0056\U+0041
  7
STD
210
0.0
220
0.0
230
1.0
 73
     1
 44
1.0
  0
POLYLINE
  5
584
100
AcDbEntity
  8
レイヤー_1
 62
     7
100
AcDb2dPolyline
 66
     1
 10
0.0
 20
0.0
 30
0.0
 70
     1
  0
VERTEX
  5
585
100
AcDbEntity
  8
レイヤー_1
 62
     7
100
AcDbVertex
100
AcDb2dVertex
 10
23.636111
 20
27.163889
 30
0.0
  0
VERTEX
  5
586
100
AcDbEntity
  8
レイヤー_1
 62
     7
100
AcDbVertex
100
AcDb2dVertex
 10
198.613889
 20
27.163889
 30
0.0
  0
VERTEX
  5
587
100
AcDbEntity
  8
レイヤー_1
 62
     7
100
AcDbVertex
100
AcDb2dVertex
 10
198.613889
 20
276.577778
 30
0.0
  0
VERTEX
  5
588
100
AcDbEntity
  8
レイヤー_1
 62
     7
100
AcDbVertex
100
AcDb2dVertex
 10
23.636111
 20
276.577778
 30
0.0
  0
SEQEND
  5
589
100
AcDbEntity
  8
レイヤー_1
 62
     7
  0
LINE
  5
583
100
AcDbEntity
  8
レイヤー_1
 62
     7
100
AcDbLine
 10
170.568056
 20
37.570833
 30
0.0
 11
27.693056
 21
37.570833
 31
0.0
  0
LINE
  5
582
100
AcDbEntity
  8
レイヤー_1
 62
     7
100
AcDbLine
 10
170.568056
 20
48.154167
 30
0.0
 11
27.693056
 21
48.154167
 31
0.0
  0
LINE
  5
581
100
AcDbEntity
  8
レイヤー_1
 62
     7
100
AcDbLine
 10
23.636111
 20
58.913889
 30
0.0
 11
198.261111
 21
58.913889
 31
0.0
  0
LINE
  5
580
100
AcDbEntity
  8
レイヤー_1
 62
     7
100
AcDbLine
 10
170.744444
 20
58.913889
 30
0.0
 11
170.744444
 21
27.516667
 31
0.0
  0
MTEXT
  5
57F
100
AcDbEntity
  8
レイヤー_1
 62
     7
100
AcDbMText
 10
29.104167
 20
47.083234
 30
0.0
 40
1.574901
 41
0.0
 71
     1
 72
     2
  1
\fOsaka|b0|i0|c128;\H1.5749;\C7;\U+30BB\U+30EC\U+30AF\U+30B7\U+30E7\U+30F3
  7
STD
210
0.0
220
0.0
230
1.0
 73
     1
 44
1.0
  0
MTEXT
  5
57E
100
AcDbEntity
  8
レイヤー_1
 62
     7
100
AcDbMText
 10
174.095833
 20
55.713375
 30
0.0
 40
3.149801
 41
0.0
 71
     1
 72
     2
  1
\fHeiseiKakuGothicCAN W9|b0|i0|c128;\H3.1498;\C253;\U+5BF8\U+6CD5\U+53C2\U+8003\U+56F3
  7
STD
210
0.0
220
0.0
230
1.0
 11
0.9999
 21
0.0
 31
0.0
 73
     1
 44
1.0
  0
LINE
  5
57D
100
AcDbEntity
  8
レイヤー_1
 62
     7
100
AcDbLine
 10
27.516667
 20
58.913889
 30
0.0
 11
27.516667
 21
27.516667
 31
0.0
  0
IMAGE
  5
57A
100
AcDbEntity
  8
レイヤー_1
 62
     7
 92
        0
100
AcDbRasterImage
 90
        0
 10
172.155556
 20
29.633016
 30
0.0
 11
0.352531
 21
0.0
 31
0.0
 12
0.0
 22
0.352813
 32
0.0
 13
70.0
 23
9.0
340
57C
 70
     7
280
     0
281
    50
282
    50
283
     0
360
57B
 71
     1
 91
        2
 14
-0.5
 24
-0.5
 14
69.5
 24
8.5
  0
IMAGE
  5
577
100
AcDbEntity
  8
レイヤー_1
 62
     7
 92
        0
100
AcDbRasterImage
 90
        0
 10
172.155556
 20
29.633016
 30
0.0
 11
0.352531
 21
0.0
 31
0.0
 12
0.0
 22
0.352813
 32
0.0
 13
70.0
 23
9.0
340
579
 70
     7
280
     0
281
    50
282
    50
283
     0
360
578
 71
     1
 91
        2
 14
-0.5
 24
-0.5
 14
69.5
 24
8.5
  0
MTEXT
  5
576
100
AcDbEntity
  8
レイヤー_1
 62
     7
100
AcDbMText
 10
113.418056
 20
47.083234
 30
0.0
 40
1.574901
 41
0.0
 71
     1
 72
     2
  1
\fOsaka|b0|i0|c128;\H1.5749;\C7;\U+4ED5\U+4E0A
  7
STD
210
0.0
220
0.0
230
1.0
 73
     1
 44
1.0
  0
MTEXT
  5
575
100
AcDbEntity
  8
レイヤー_1
 62
     7
100
AcDbMText
 10
124.765511
 20
42.026497
 30
0.0
 40
1.162842
 41
0.0
 71
     1
 72
     2
  1
\fOsaka|b0|i0|c128;\H1.1628;\W2.71;\C7;
  7
STD
210
0.0
220
0.0
230
1.0
 73
     1
 44
1.0
  0
MTEXT
  5
573
100
AcDbEntity
  8
レイヤー_2
 62
     7
100
AcDbMText
 10
146.020717
 20
239.645247
 30
0.0
 40
4.724702
 41
0.0
 71
     1
 72
     2
  1
\fMS Gothic|b0|i0|c128;\H4.7247;\C7;\U+0031\U+0037\U+0030
  7
STD
210
0.0
220
0.0
230
1.0
 73
     1
 44
1.0
  0
MTEXT
  5
572
100
AcDbEntity
  8
レイヤー_2
 62
     7
100
AcDbMText
 10
104.232644
 20
144.019805
 30
0.0
 40
4.724702
 41
0.0
 71
     1
 72
     2
  1
\fMS PGothic|b0|i0|c128;\H4.7247;\C7;\U+004D\U+0033\U+0030\U+00D7\U+0031\U+002E\U+0035
  7
STD
210
0.0
220
0.0
230
1.0
 11
0.0
 21
1.0
 31
0.0
 73
     1
 44
1.0
  0
MTEXT
  5
571
100
AcDbEntity
  8
レイヤー_2
 62
     7
100
AcDbMText
 10
87.202429
 20
239.998024
 30
0.0
 40
4.724702
 41
0.0
 71
     1
 72
     2
  1
\fMS Gothic|b0|i0|c128;\H4.7247;\C7;\U+25A1\U+0035\U+0035
  7
STD
210
0.0
220
0.0
230
1.0
 73
     1
 44
1.0
  0
MTEXT
  5
570
100
AcDbEntity
  8
レイヤー_2
 62
     7
100
AcDbMText
 10
78.623625
 20
115.566515
 30
0.0
 40
4.724702
 41
0.0
 71
     1
 72
     2
  1
\fMS Gothic|b0|i0|c128;\H4.7247;\C7;\U+0031\U+0030\U+0030
  7
STD
210
0.0
220
0.0
230
1.0
 73
     1
 44
1.0
  0
MTEXT
  5
56F
100
AcDbEntity
  8
レイヤー_2
 62
     7
100
AcDbMText
 10
57.320188
 20
115.566515
 30
0.0
 40
4.724702
 41
0.0
 71
     1
 72
     2
  1
\fMS Gothic|b0|i0|c128;\H4.7247;\C7;\U+0031\U+0030\U+0030
  7
STD
210
0.0
220
0.0
230
1.0
 73
     1
 44
1.0
  0
MTEXT
  5
56E
100
AcDbEntity
  8
レイヤー_2
 62
     7
100
AcDbMText
 10
70.079271
 20
239.645247
 30
0.0
 40
4.724702
 41
0.0
 71
     1
 72
     2
  1
\fMS Gothic|b0|i0|c128;\H4.7247;\C7;\U+0035\U+0036
  7
STD
210
0.0
220
0.0
230
1.0
 73
     1
 44
1.0
  0
MTEXT
  5
56D
100
AcDbEntity
  8
レイヤー_2
 62
     7
100
AcDbMText
 10
187.578805
 20
192.711407
 30
0.0
 40
4.724702
 41
0.0
 71
     1
 72
     2
  1
\fMS Gothic|b0|i0|c128;\H4.7247;\C7;\U+0031\U+0033\U+0036
  7
STD
210
0.0
220
0.0
230
1.0
 11
0.0
 21
1.0
 31
0.0
 73
     1
 44
1.0
  0
MTEXT
  5
56C
100
AcDbEntity
  8
レイヤー_2
 62
     7
100
AcDbMText
 10
178.027278
 20
190.56649
 30
0.0
 40
4.724702
 41
0.0
 71
     1
 72
     2
  1
\fMS Gothic|b0|i0|c128;\H4.7247;\C7;\U+0031\U+0030\U+0039
  7
STD
210
0.0
220
0.0
230
1.0
 11
0.0
 21
1.0
 31
0.0
 73
     1
 44
1.0
  0
MTEXT
  5
56B
100
AcDbEntity
  8
レイヤー_2
 62
     7
100
AcDbMText
 10
104.232988
 20
185.644827
 30
0.0
 40
4.724702
 41
0.0
 71
     1
 72
     2
  1
\fMS Gothic|b0|i0|c128;\H4.7247;\C7;\U+0035\U+0032
  7
STD
210
0.0
220
0.0
230
1.0
 11
0.0
 21
1.0
 31
0.0
 73
     1
 44
1.0
  0
MTEXT
  5
56A
100
AcDbEntity
  8
レイヤー_2
 62
     7
100
AcDbMText
 10
30.066284
 20
151.694444
 30
0.0
 40
4.724702
 41
0.0
 71
     1
 72
     2
  1
\fMS Gothic|b0|i0|c128;\H4.7247;\C7;\U+006D\U+0061\U+0078\U+002E\U+0035\U+0030
  7
STD
210
0.0
220
0.0
230
1.0
 11
0.0
 21
1.0
 31
0.0
 73
     1
 44
1.0
  0
MTEXT
  5
569
100
AcDbEntity
  8
レイヤー_2
 62
     7
100
AcDbMText
 10
56.746826
 20
145.222833
 30
0.0
 40
4.724702
 41
0.0
 71
     1
 72
     2
  1
\fMS PGothic|b0|i0|c128;\H4.7247;\C7;\U+0047\U+0031\U+002F\U+0032
  7
STD
210
0.0
220
0.0
230
1.0
 11
0.0
 21
1.0
 31
0.0
 73
     1
 44
1.0
  0
MTEXT
  5
568
100
AcDbEntity
  8
レイヤー_2
 62
     7
100
AcDbMText
 10
57.296761
 20
99.703639
 30
0.0
 40
4.199735
 41
0.0
 71
     1
 72
     2
  1
\fMS Gothic|b0|i0|c128;\H4.1997;\C7;\U+03C6\U+0033\U+0032
  7
STD
210
0.0
220
0.0
230
1.0
 73
     1
 44
1.0
  0
MTEXT
  5
567
100
AcDbEntity
  8
レイヤー_2
 62
     7
100
AcDbMText
 10
78.597442
 20
99.703639
 30
0.0
 40
4.199735
 41
0.0
 71
     1
 72
     2
  1
\fMS Gothic|b0|i0|c128;\H4.1997;\C7;\U+03C6\U+0033\U+0035
  7
STD
210
0.0
220
0.0
230
1.0
 73
     1
 44
1.0
  0
MTEXT
  5
566
100
AcDbEntity
  8
レイヤー_2
 62
     7
100
AcDbMText
 10
100.603851
 20
99.703639
 30
0.0
 40
4.199735
 41
0.0
 71
     1
 72
     2
  1
\fMS Gothic|b0|i0|c128;\H4.1997;\C7;\U+03C6\U+0033\U+0032
  7
STD
210
0.0
220
0.0
230
1.0
 73
     1
 44
1.0
  0
MTEXT
  5
565
100
AcDbEntity
  8
レイヤー_2
 62
     7
100
AcDbMText
 10
98.837895
 20
133.220563
 30
0.0
 40
4.724702
 41
0.0
 71
     1
 72
     2
  1
\fMS PGothic|b0|i0|c128;\H4.7247;\C7;\U+0047\U+0031\U+002F\U+0032
  7
STD
210
0.0
220
0.0
230
1.0
 73
     1
 44
1.0
  0
INSERT
  5
50C
100
AcDbEntity
  8
レイヤー_2
 62
     7
100
AcDbBlockReference
  2
AI9-BLK4
 10
72.796935
 20
138.774303
 30
0.0
  0
INSERT
  5
506
100
AcDbEntity
  8
レイヤー_2
 62
     7
100
AcDbBlockReference
  2
AI9-BLK3
 10
107.194146
 20
122.610776
 30
0.0
  0
LINE
  5
504
100
AcDbEntity
  8
レイヤー_2
 62
     7
100
AcDbLine
 10
91.875357
 20
134.202317
 30
0.0
 11
91.875357
 21
126.155263
 31
0.0
  0
LINE
  5
503
100
AcDbEntity
  8
レイヤー_2
 62
     7
100
AcDbLine
 10
96.093187
 20
134.202317
 30
0.0
 11
96.089053
 21
126.155263
 31
0.0
  0
LINE
  5
502
100
AcDbEntity
  8
レイヤー_2
 62
     7
100
AcDbLine
 10
90.435996
 20
126.140793
 30
0.0
 11
92.930934
 21
128.637109
 31
0.0
  0
LINE
  5
501
100
AcDbEntity
  8
レイヤー_2
 62
     7
100
AcDbLine
 10
97.35547
 20
128.637109
 30
0.0
 11
94.859843
 21
126.140793
 31
0.0
  0
LINE
  5
500
100
AcDbEntity
  8
レイヤー_2
 62
     7
100
AcDbLine
 10
90.568977
 20
127.389296
 30
0.0
 11
116.588232
 21
127.389296
 31
0.0
  0
INSERT
  5
4EB
100
AcDbEntity
  8
レイヤー_2
 62
     7
100
AcDbBlockReference
  2
AI9-BLK2
 10
51.593319
 20
160.416307
 30
0.0
  0
LINE
  5
4E9
100
AcDbEntity
  8
レイヤー_2
 62
     7
100
AcDbLine
 10
135.97034
 20
179.278807
 30
0.0
 11
135.97034
 21
177.72972
 31
0.0
  0
LINE
  5
4E8
100
AcDbEntity
  8
レイヤー_2
 62
     7
100
AcDbLine
 10
135.844594
 20
179.278807
 30
0.0
 11
135.844594
 21
177.72972
 31
0.0
  0
LINE
  5
4E7
100
AcDbEntity
  8
レイヤー_2
 62
     7
100
AcDbLine
 10
129.492871
 20
179.278807
 30
0.0
 11
129.492871
 21
177.72972
 31
0.0
  0
SPLINE
  5
4E6
100
AcDbEntity
  8
レイヤー_2
 62
     7
100
AcDbSpline
210
0.0
220
0.0
230
1.0
 70
     8
 71
     3
 72
    14
 73
    10
 74
     0
 42
0.00000001
 43
0.00000001
 40
0.0
 40
0.0
 40
0.0
 40
0.0
 40
1.0
 40
1.0
 40
1.0
 40
2.0
 40
2.0
 40
2.0
 40
3.0
 40
3.0
 40
3.0
 40
3.0
 10
130.82198893229165
 20
147.83249240451389
 30
0.0
 10
130.82198893229165
 20
147.83249240451389
 30
0.0
 10
131.45967610677081
 20
148.4252210828993
 30
0.0
 10
132.32646213107637
 20
148.01508246527777
 30
0.0
 10
133.19359266493055
 20
147.6037380642361
 30
0.0
 10
133.74032931857639
 20
147.19446072048609
 30
0.0
 10
134.56129557291666
 20
147.6037380642361
 30
0.0
 10
135.38295084635416
 20
148.01508246527777
 30
0.0
 10
136.11193305121526
 20
148.10672200520833
 30
0.0
 10
136.15844184027776
 20
148.06124674479165
 30
0.0
  0
LINE
  5
4E5
100
AcDbEntity
  8
レイヤー_2
 62
     7
100
AcDbLine
 10
131.496883
 20
185.413833
 30
0.0
 11
131.496883
 21
185.199893
 31
0.0
  0
LINE
  5
4E4
100
AcDbEntity
  8
レイヤー_2
 62
     7
100
AcDbLine
 10
133.839893
 20
185.199893
 30
0.0
 11
133.839893
 21
185.413833
 31
0.0
  0
LINE
  5
4E3
100
AcDbEntity
  8
レイヤー_2
 62
     7
100
AcDbLine
 10
131.407311
 20
185.199893
 30
0.0
 11
127.007924
 21
185.175949
 31
0.0
  0
LINE
  5
4E2
100
AcDbEntity
  8
レイヤー_2
 62
     7
100
AcDbLine
 10
138.328852
 20
185.175949
 30
0.0
 11
133.92981
 21
185.199893
 31
0.0
  0
SPLINE
  5
4E1
100
AcDbEntity
  8
レイヤー_2
 62
     7
100
AcDbSpline
210
0.0
220
0.0
230
1.0
 70
     8
 71
     3
 72
     8
 73
     4
 74
     0
 42
0.00000001
 43
0.00000001
 40
0.0
 40
0.0
 40
0.0
 40
0.0
 40
1.0
 40
1.0
 40
1.0
 40
1.0
 10
127.00792371961805
 20
185.17594943576387
 30
0.0
 10
126.91593967013888
 20
185.17474365234372
 30
0.0
 10
126.84049207899304
 20
185.10067409939234
 30
0.0
 10
126.83980305989583
 20
185.00851779513889
 30
0.0
  0
SPLINE
  5
4E0
100
AcDbEntity
  8
レイヤー_2
 62
     7
100
AcDbSpline
210
0.0
220
0.0
230
1.0
 70
     8
 71
     3
 72
     8
 73
     4
 74
     0
 42
0.00000001
 43
0.00000001
 40
0.0
 40
0.0
 40
0.0
 40
0.0
 40
1.0
 40
1.0
 40
1.0
 40
1.0
 10
138.49800618489581
 20
185.00851779513889
 30
0.0
 10
138.49662814670137
 20
185.10067409939234
 30
0.0
 10
138.42221408420139
 20
185.17474365234372
 30
0.0
 10
138.32885199652776
 20
185.17594943576387
 30
0.0
  0
LINE
  5
4DF
100
AcDbEntity
  8
レイヤー_2
 62
     7
100
AcDbLine
 10
129.473579
 20
163.474259
 30
0.0
 11
129.473579
 21
162.835194
 31
0.0
  0
LINE
  5
4DE
100
AcDbEntity
  8
レイヤー_2
 62
     7
100
AcDbLine
 10
135.864231
 20
162.835194
 30
0.0
 11
135.864231
 21
163.474259
 31
0.0
  0
LINE
  5
4DD
100
AcDbEntity
  8
レイヤー_2
 62
     7
100
AcDbLine
 10
129.846682
 20
161.924139
 30
0.0
 11
130.112644
 21
161.769971
 31
0.0
  0
LINE
  5
4DC
100
AcDbEntity
  8
レイヤー_2
 62
     7
100
AcDbLine
 10
135.225165
 20
161.769971
 30
0.0
 11
135.491127
 21
161.924139
 31
0.0
  0
LINE
  5
4DB
100
AcDbEntity
  8
レイヤー_2
 62
     7
100
AcDbLine
 10
129.846682
 20
162.835194
 30
0.0
 11
129.846682
 21
161.924139
 31
0.0
  0
LINE
  5
4DA
100
AcDbEntity
  8
レイヤー_2
 62
     7
100
AcDbLine
 10
135.491127
 20
161.924139
 30
0.0
 11
135.491127
 21
162.835194
 31
0.0
  0
LINE
  5
4D9
100
AcDbEntity
  8
レイヤー_2
 62
     7
100
AcDbLine
 10
136.92911
 20
163.474259
 30
0.0
 11
136.92911
 21
168.586264
 31
0.0
  0
LINE
  5
4D8
100
AcDbEntity
  8
レイヤー_2
 62
     7
100
AcDbLine
 10
128.409044
 20
168.586264
 30
0.0
 11
128.409044
 21
163.474259
 31
0.0
  0
LINE
  5
4D7
100
AcDbEntity
  8
レイヤー_2
 62
     7
100
AcDbLine
 10
127.876432
 20
177.090655
 30
0.0
 11
127.876432
 21
176.707388
 31
0.0
  0
LINE
  5
4D6
100
AcDbEntity
  8
レイヤー_2
 62
     7
100
AcDbLine
 10
137.461032
 20
176.707388
 30
0.0
 11
137.461032
 21
177.090655
 31
0.0
  0
SPLINE
  5
4D5
100
AcDbEntity
  8
レイヤー_2
 62
     7
100
AcDbSpline
210
0.0
220
0.0
230
1.0
 70
     8
 71
     3
 72
     8
 73
     4
 74
     0
 42
0.00000001
 43
0.00000001
 40
0.0
 40
0.0
 40
0.0
 40
0.0
 40
1.0
 40
1.0
 40
1.0
 40
1.0
 10
128.65846896701387
 20
183.39035644531248
 30
0.0
 10
128.71496853298609
 20
183.2825249565972
 30
0.0
 10
128.82555609809026
 20
183.2206854926215
 30
0.0
 10
128.94096679687499
 20
183.21982421874998
 30
0.0
  0
SPLINE
  5
4D4
100
AcDbEntity
  8
レイヤー_2
 62
     7
100
AcDbSpline
210
0.0
220
0.0
230
1.0
 70
     8
 71
     3
 72
     8
 73
     4
 74
     0
 42
0.00000001
 43
0.00000001
 40
0.0
 40
0.0
 40
0.0
 40
0.0
 40
1.0
 40
1.0
 40
1.0
 40
1.0
 10
136.39649793836804
 20
183.21982421874998
 30
0.0
 10
136.51810980902778
 20
183.21982421874998
 30
0.0
 10
136.62387424045139
 20
183.28803710937498
 30
0.0
 10
136.67865125868053
 20
183.39035644531248
 30
0.0
  0
LINE
  5
4D3
100
AcDbEntity
  8
レイヤー_2
 62
     7
100
AcDbLine
 10
128.940967
 20
183.219824
 30
0.0
 11
136.396498
 21
183.219824
 31
0.0
  0
LINE
  5
4D2
100
AcDbEntity
  8
レイヤー_2
 62
     7
100
AcDbLine
 10
129.492871
 20
168.731131
 30
0.0
 11
129.63791
 21
168.586264
 31
0.0
  0
LINE
  5
4D1
100
AcDbEntity
  8
レイヤー_2
 62
     7
100
AcDbLine
 10
135.6999
 20
168.586264
 30
0.0
 11
135.844594
 21
168.731131
 31
0.0
  0
LINE
  5
4D0
100
AcDbEntity
  8
レイヤー_2
 62
     7
100
AcDbLine
 10
129.492871
 20
183.219824
 30
0.0
 11
129.492871
 21
179.278807
 31
0.0
  0
LINE
  5
4CF
100
AcDbEntity
  8
レイヤー_2
 62
     7
100
AcDbLine
 10
129.492871
 20
175.445449
 30
0.0
 11
129.492871
 21
168.731131
 31
0.0
  0
LINE
  5
4CE
100
AcDbEntity
  8
レイヤー_2
 62
     7
100
AcDbLine
 10
135.844594
 20
168.731131
 30
0.0
 11
135.844594
 21
175.445449
 31
0.0
  0
LINE
  5
4CD
100
AcDbEntity
  8
レイヤー_2
 62
     7
100
AcDbLine
 10
135.844594
 20
179.278807
 30
0.0
 11
135.844594
 21
183.219824
 31
0.0
  0
LINE
  5
4CC
100
AcDbEntity
  8
レイヤー_2
 62
     7
100
AcDbLine
 10
130.452675
 20
161.769971
 30
0.0
 11
130.452675
 21
158.947921
 31
0.0
  0
LINE
  5
4CB
100
AcDbEntity
  8
レイヤー_2
 62
     7
100
AcDbLine
 10
134.88479
 20
158.947921
 30
0.0
 11
134.88479
 21
161.769971
 31
0.0
  0
LINE
  5
4CA
100
AcDbEntity
  8
レイヤー_2
 62
     7
100
AcDbLine
 10
130.452675
 20
158.947921
 30
0.0
 11
130.718636
 21
158.681787
 31
0.0
  0
LINE
  5
4C9
100
AcDbEntity
  8
レイヤー_2
 62
     7
100
AcDbLine
 10
134.618829
 20
158.681787
 30
0.0
 11
134.88479
 21
158.947921
 31
0.0
  0
SPLINE
  5
4C8
100
AcDbEntity
  8
レイヤー_2
 62
     7
100
AcDbSpline
210
0.0
220
0.0
230
1.0
 70
     8
 71
     3
 72
     8
 73
     4
 74
     0
 42
0.00000001
 43
0.00000001
 40
0.0
 40
0.0
 40
0.0
 40
0.0
 40
1.0
 40
1.0
 40
1.0
 40
1.0
 10
127.14572753906249
 20
174.12494439019096
 30
0.0
 10
127.14572753906249
 20
174.06534423828123
 30
0.0
 10
127.1925808376736
 20
174.0181464301215
 30
0.0
 10
127.25183648003471
 20
174.0181464301215
 30
0.0
  0
SPLINE
  5
4C7
100
AcDbEntity
  8
レイヤー_2
 62
     7
100
AcDbSpline
210
0.0
220
0.0
230
1.0
 70
     8
 71
     3
 72
     8
 73
     4
 74
     0
 42
0.00000001
 43
0.00000001
 40
0.0
 40
0.0
 40
0.0
 40
0.0
 40
1.0
 40
1.0
 40
1.0
 40
1.0
 10
127.25183648003471
 20
175.5090115017361
 30
0.0
 10
127.1925808376736
 20
175.5090115017361
 30
0.0
 10
127.14572753906249
 20
175.46164143880208
 30
0.0
 10
127.14572753906249
 20
175.40238579644097
 30
0.0
  0
LINE
  5
4C6
100
AcDbEntity
  8
レイヤー_2
 62
     7
100
AcDbLine
 10
127.145728
 20
175.402386
 30
0.0
 11
127.145728
 21
174.124944
 31
0.0
  0
SPLINE
  5
4C5
100
AcDbEntity
  8
レイヤー_2
 62
     7
100
AcDbSpline
210
0.0
220
0.0
230
1.0
 70
     8
 71
     3
 72
     8
 73
     4
 74
     0
 42
0.00000001
 43
0.00000001
 40
0.0
 40
0.0
 40
0.0
 40
0.0
 40
1.0
 40
1.0
 40
1.0
 40
1.0
 10
136.78510470920136
 20
175.40238579644097
 30
0.0
 10
136.78510470920136
 20
175.46164143880208
 30
0.0
 10
136.73687337239582
 20
175.5090115017361
 30
0.0
 10
136.67796223958331
 20
175.5090115017361
 30
0.0
  0
LINE
  5
4C4
100
AcDbEntity
  8
レイヤー_2
 62
     7
100
AcDbLine
 10
136.785105
 20
174.124944
 30
0.0
 11
136.785105
 21
175.402386
 31
0.0
  0
SPLINE
  5
4C3
100
AcDbEntity
  8
レイヤー_2
 62
     7
100
AcDbSpline
210
0.0
220
0.0
230
1.0
 70
     8
 71
     3
 72
     8
 73
     4
 74
     0
 42
0.00000001
 43
0.00000001
 40
0.0
 40
0.0
 40
0.0
 40
0.0
 40
1.0
 40
1.0
 40
1.0
 40
1.0
 10
136.67796223958331
 20
174.0181464301215
 30
0.0
 10
136.73687337239582
 20
174.0181464301215
 30
0.0
 10
136.78510470920136
 20
174.06534423828123
 30
0.0
 10
136.78510470920136
 20
174.12494439019096
 30
0.0
  0
SPLINE
  5
4C2
100
AcDbEntity
  8
レイヤー_2
 62
     7
100
AcDbSpline
210
0.0
220
0.0
230
1.0
 70
     8
 71
     3
 72
     8
 73
     4
 74
     0
 42
0.00000001
 43
0.00000001
 40
0.0
 40
0.0
 40
0.0
 40
0.0
 40
1.0
 40
1.0
 40
1.0
 40
1.0
 10
138.18346896701388
 20
175.40238579644097
 30
0.0
 10
138.18346896701388
 20
175.46164143880208
 30
0.0
 10
138.13661566840275
 20
175.5090115017361
 30
0.0
 10
138.07701551649305
 20
175.5090115017361
 30
0.0
  0
LINE
  5
4C1
100
AcDbEntity
  8
レイヤー_2
 62
     7
100
AcDbLine
 10
138.183469
 20
174.124944
 30
0.0
 11
138.183469
 21
175.402386
 31
0.0
  0
LINE
  5
4C0
100
AcDbEntity
  8
レイヤー_2
 62
     7
100
AcDbLine
 10
127.571541
 20
175.828544
 30
0.0
 11
127.571541
 21
175.509012
 31
0.0
  0
LINE
  5
4BF
100
AcDbEntity
  8
レイヤー_2
 62
     7
100
AcDbLine
 10
137.795896
 20
175.189479
 30
0.0
 11
137.795896
 21
175.828544
 31
0.0
  0
LINE
  5
4BE
100
AcDbEntity
  8
レイヤー_2
 62
     7
100
AcDbLine
 10
137.781082
 20
177.090655
 30
0.0
 11
137.781082
 21
177.72972
 31
0.0
  0
LINE
  5
4BD
100
AcDbEntity
  8
レイヤー_2
 62
     7
100
AcDbLine
 10
127.556727
 20
177.72972
 30
0.0
 11
127.556727
 21
177.090655
 31
0.0
  0
LINE
  5
4BC
100
AcDbEntity
  8
レイヤー_2
 62
     7
100
AcDbLine
 10
128.195793
 20
183.390356
 30
0.0
 11
128.195793
 21
183.283731
 31
0.0
  0
LINE
  5
4BB
100
AcDbEntity
  8
レイヤー_2
 62
     7
100
AcDbLine
 10
137.354579
 20
183.283731
 30
0.0
 11
137.354579
 21
183.390356
 31
0.0
  0
SPLINE
  5
4BA
100
AcDbEntity
  8
レイヤー_2
 62
     7
100
AcDbSpline
210
0.0
220
0.0
230
1.0
 70
     8
 71
     3
 72
     8
 73
     4
 74
     0
 42
0.00000001
 43
0.00000001
 40
0.0
 40
0.0
 40
0.0
 40
0.0
 40
1.0
 40
1.0
 40
1.0
 40
1.0
 10
131.81658799913194
 20
148.16046549479165
 30
0.0
 10
131.81658799913194
 20
154.95660536024303
 30
0.0
 10
131.81658799913194
 20
158.68178710937499
 30
0.0
 10
131.81658799913194
 20
158.68178710937499
 30
0.0
  0
SPLINE
  5
4B9
100
AcDbEntity
  8
レイヤー_2
 62
     7
100
AcDbSpline
210
0.0
220
0.0
230
1.0
 70
     8
 71
     3
 72
     8
 73
     4
 74
     0
 42
0.00000001
 43
0.00000001
 40
0.0
 40
0.0
 40
0.0
 40
0.0
 40
1.0
 40
1.0
 40
1.0
 40
1.0
 10
130.96496039496526
 20
158.68178710937499
 30
0.0
 10
130.96496039496526
 20
158.68178710937499
 30
0.0
 10
130.96496039496526
 20
154.84653455946179
 30
0.0
 10
130.96496039496526
 20
147.94686957465277
 30
0.0
  0
SPLINE
  5
4B8
100
AcDbEntity
  8
レイヤー_2
 62
     7
100
AcDbSpline
210
0.0
220
0.0
230
1.0
 70
     8
 71
     3
 72
     8
 73
     4
 74
     0
 42
0.00000001
 43
0.00000001
 40
0.0
 40
0.0
 40
0.0
 40
0.0
 40
1.0
 40
1.0
 40
1.0
 40
1.0
 10
135.97033962673609
 20
148.07089301215277
 30
0.0
 10
135.97033962673609
 20
157.0451944986979
 30
0.0
 10
135.97033962673609
 20
163.47425944010416
 30
0.0
 10
135.97033962673609
 20
163.47425944010416
 30
0.0
  0
LINE
  5
4B7
100
AcDbEntity
  8
レイヤー_2
 62
     7
100
AcDbLine
 10
135.97034
 20
168.586264
 30
0.0
 11
135.97034
 21
174.018146
 31
0.0
  0
LINE
  5
4B6
100
AcDbEntity
  8
レイヤー_2
 62
     7
100
AcDbLine
 10
135.97034
 20
179.278807
 30
0.0
 11
135.97034
 21
183.219824
 31
0.0
  0
SPLINE
  5
4B5
100
AcDbEntity
  8
レイヤー_2
 62
     7
100
AcDbSpline
210
0.0
220
0.0
230
1.0
 70
     8
 71
     3
 72
     8
 73
     4
 74
     0
 42
0.00000001
 43
0.00000001
 40
0.0
 40
0.0
 40
0.0
 40
0.0
 40
1.0
 40
1.0
 40
1.0
 40
1.0
 10
133.83989257812499
 20
158.68178710937499
 30
0.0
 10
133.83989257812499
 20
158.68178710937499
 30
0.0
 10
133.83989257812499
 20
154.36611599392359
 30
0.0
 10
133.83989257812499
 20
147.44044053819442
 30
0.0
  0
SPLINE
  5
4B4
100
AcDbEntity
  8
レイヤー_2
 62
     7
100
AcDbSpline
210
0.0
220
0.0
230
1.0
 70
     8
 71
     3
 72
     8
 73
     4
 74
     0
 42
0.00000001
 43
0.00000001
 40
0.0
 40
0.0
 40
0.0
 40
0.0
 40
1.0
 40
1.0
 40
1.0
 40
1.0
 10
166.84562988281249
 20
206.56499701605901
 30
0.0
 10
166.85768771701387
 20
206.53984781901039
 30
0.0
 10
166.88318142361109
 20
206.52555067274304
 30
0.0
 10
166.90970865885416
 20
206.52675645616318
 30
0.0
  0
SPLINE
  5
4B3
100
AcDbEntity
  8
レイヤー_2
 62
     7
100
AcDbSpline
210
0.0
220
0.0
230
1.0
 70
     8
 71
     3
 72
     8
 73
     4
 74
     0
 42
0.00000001
 43
0.00000001
 40
0.0
 40
0.0
 40
0.0
 40
0.0
 40
1.0
 40
1.0
 40
1.0
 40
1.0
 10
170.71068250868055
 20
206.82647976345484
 30
0.0
 10
170.73789876302081
 20
206.82837456597221
 30
0.0
 10
170.76029188368054
 20
206.84732259114583
 30
0.0
 10
170.76752658420136
 20
206.87367757161456
 30
0.0
  0
LINE
  5
4B2
100
AcDbEntity
  8
レイヤー_2
 62
     7
100
AcDbLine
 10
171.345958
 20
207.041626
 30
0.0
 11
171.212633
 21
208.724555
 31
0.0
  0
LINE
  5
4B1
100
AcDbEntity
  8
レイヤー_2
 62
     7
100
AcDbLine
 10
166.116303
 20
208.323374
 30
0.0
 11
166.249284
 21
206.641134
 31
0.0
  0
LINE
  5
4B0
100
AcDbEntity
  8
レイヤー_2
 62
     7
100
AcDbLine
 10
171.053125
 20
208.712325
 30
0.0
 11
171.052091
 21
208.732996
 31
0.0
  0
LINE
  5
4AF
100
AcDbEntity
  8
レイヤー_2
 62
     7
100
AcDbLine
 10
166.273744
 20
208.356963
 30
0.0
 11
166.275811
 21
208.335948
 31
0.0
  0
LINE
  5
4AE
100
AcDbEntity
  8
レイヤー_2
 62
     7
100
AcDbLine
 10
166.249284
 20
206.641134
 30
0.0
 11
166.470459
 21
206.535541
 31
0.0
  0
LINE
  5
4AD
100
AcDbEntity
  8
レイヤー_2
 62
     7
100
AcDbLine
 10
171.142353
 20
206.902961
 30
0.0
 11
171.345958
 21
207.041626
 31
0.0
  0
LINE
  5
4AC
100
AcDbEntity
  8
レイヤー_2
 62
     7
100
AcDbLine
 10
129.51113
 20
185.413833
 30
0.0
 11
135.826335
 21
185.413833
 31
0.0
  0
LINE
  5
4AB
100
AcDbEntity
  8
レイヤー_2
 62
     7
100
AcDbLine
 10
129.402265
 20
185.413833
 30
0.0
 11
131.286043
 21
194.275136
 31
0.0
  0
LINE
  5
4AA
100
AcDbEntity
  8
レイヤー_2
 62
     7
100
AcDbLine
 10
129.51113
 20
185.413833
 30
0.0
 11
129.402265
 21
185.413833
 31
0.0
  0
LINE
  5
4A9
100
AcDbEntity
  8
レイヤー_2
 62
     7
100
AcDbLine
 10
131.390085
 20
194.359885
 30
0.0
 11
137.70529
 21
194.359885
 31
0.0
  0
SPLINE
  5
4A8
100
AcDbEntity
  8
レイヤー_2
 62
     7
100
AcDbSpline
210
0.0
220
0.0
230
1.0
 70
     8
 71
     3
 72
     8
 73
     4
 74
     0
 42
0.00000001
 43
0.00000001
 40
0.0
 40
0.0
 40
0.0
 40
0.0
 40
1.0
 40
1.0
 40
1.0
 40
1.0
 10
131.39008517795136
 20
194.35988498263887
 30
0.0
 10
131.33944227430555
 20
194.35988498263887
 30
0.0
 10
131.29672309027777
 20
194.32440049913194
 30
0.0
 10
131.28604329427083
 20
194.27513563368055
 30
0.0
  0
LINE
  5
4A7
100
AcDbEntity
  8
レイヤー_2
 62
     7
100
AcDbLine
 10
137.809332
 20
194.231383
 30
0.0
 11
135.9352
 21
185.413833
 31
0.0
  0
LINE
  5
4A6
100
AcDbEntity
  8
レイヤー_2
 62
     7
100
AcDbLine
 10
135.9352
 20
185.413833
 30
0.0
 11
135.826335
 21
185.413833
 31
0.0
  0
SPLINE
  5
4A5
100
AcDbEntity
  8
レイヤー_2
 62
     7
100
AcDbSpline
210
0.0
220
0.0
230
1.0
 70
     8
 71
     3
 72
     8
 73
     4
 74
     0
 42
0.00000001
 43
0.00000001
 40
0.0
 40
0.0
 40
0.0
 40
0.0
 40
1.0
 40
1.0
 40
1.0
 40
1.0
 10
137.72733832465278
 20
194.35764567057291
 30
0.0
 10
137.71975911458333
 20
194.35919596354165
 30
0.0
 10
137.71183539496528
 20
194.35988498263887
 30
0.0
 10
137.70528971354165
 20
194.35988498263887
 30
0.0
  0
SPLINE
  5
4A4
100
AcDbEntity
  8
レイヤー_2
 62
     7
100
AcDbSpline
210
0.0
220
0.0
230
1.0
 70
     8
 71
     3
 72
    11
 73
     7
 74
     0
 42
0.00000001
 43
0.00000001
 40
0.0
 40
0.0
 40
0.0
 40
0.0
 40
1.0
 40
1.0
 40
1.0
 40
2.0
 40
2.0
 40
2.0
 40
2.0
 10
137.80933159722221
 20
194.23138292100694
 30
0.0
 10
137.80933159722221
 20
194.23138292100694
 30
0.0
 10
137.80933159722221
 20
194.23138292100694
 30
0.0
 10
137.80933159722221
 20
194.23138292100694
 30
0.0
 10
137.8213894314236
 20
194.28857150607638
 30
0.0
 10
137.78521592881944
 20
194.34593234592012
 30
0.0
 10
137.72733832465278
 20
194.35764567057291
 30
0.0
  0
LINE
  5
4A3
100
AcDbEntity
  8
レイヤー_2
 62
     7
100
AcDbLine
 10
138.35469
 20
183.390356
 30
0.0
 11
126.98243
 21
183.390356
 31
0.0
  0
LINE
  5
4A2
100
AcDbEntity
  8
レイヤー_2
 62
     7
100
AcDbLine
 10
126.98243
 20
183.390356
 30
0.0
 11
126.876321
 21
183.390356
 31
0.0
  0
SPLINE
  5
4A1
100
AcDbEntity
  8
レイヤー_2
 62
     7
100
AcDbSpline
210
0.0
220
0.0
230
1.0
 70
     8
 71
     3
 72
    14
 73
    10
 74
     0
 42
0.00000001
 43
0.00000001
 40
0.0
 40
0.0
 40
0.0
 40
0.0
 40
1.0
 40
1.0
 40
1.0
 40
2.0
 40
2.0
 40
2.0
 40
3.0
 40
3.0
 40
3.0
 40
3.0
 10
126.81189778645832
 20
183.45529649522567
 30
0.0
 10
126.81189778645832
 20
183.45477973090277
 30
0.0
 10
126.81189778645832
 20
183.45477973090277
 30
0.0
 10
126.81189778645832
 20
183.45409071180555
 30
0.0
 10
126.81189778645832
 20
183.41860622829859
 30
0.0
 10
126.84049207899304
 20
183.39035644531248
 30
0.0
 10
126.8763210720486
 20
183.39035644531248
 30
0.0
 10
126.8763210720486
 20
183.39035644531248
 30
0.0
 10
126.8763210720486
 20
183.39035644531248
 30
0.0
 10
126.8763210720486
 20
183.39035644531248
 30
0.0
  0
LINE
  5
4A0
100
AcDbEntity
  8
レイヤー_2
 62
     7
100
AcDbLine
 10
138.461488
 20
183.390356
 30
0.0
 11
138.35469
 21
183.390356
 31
0.0
  0
SPLINE
  5
49F
100
AcDbEntity
  8
レイヤー_2
 62
     7
100
AcDbSpline
210
0.0
220
0.0
230
1.0
 70
     8
 71
     3
 72
    11
 73
     7
 74
     0
 42
0.00000001
 43
0.00000001
 40
0.0
 40
0.0
 40
0.0
 40
0.0
 40
1.0
 40
1.0
 40
1.0
 40
2.0
 40
2.0
 40
2.0
 40
2.0
 10
138.46148817274303
 20
183.39035644531248
 30
0.0
 10
138.49662814670137
 20
183.39035644531248
 30
0.0
 10
138.5252224392361
 20
183.41860622829859
 30
0.0
 10
138.5252224392361
 20
183.45409071180555
 30
0.0
 10
138.5252224392361
 20
183.45477973090277
 30
0.0
 10
138.5252224392361
 20
183.45477973090277
 30
0.0
 10
138.5252224392361
 20
183.45529649522567
 30
0.0
  0
LINE
  5
49E
100
AcDbEntity
  8
レイヤー_2
 62
     7
100
AcDbLine
 10
126.811898
 20
183.455296
 30
0.0
 11
126.839114
 21
184.983369
 31
0.0
  0
LINE
  5
49D
100
AcDbEntity
  8
レイヤー_2
 62
     7
100
AcDbLine
 10
138.498695
 20
184.983369
 30
0.0
 11
138.525222
 21
183.455296
 31
0.0
  0
LINE
  5
49C
100
AcDbEntity
  8
レイヤー_2
 62
     7
100
AcDbLine
 10
132.669249
 20
185.199893
 30
0.0
 11
133.92981
 21
185.199893
 31
0.0
  0
LINE
  5
49B
100
AcDbEntity
  8
レイヤー_2
 62
     7
100
AcDbLine
 10
131.407311
 20
185.199893
 30
0.0
 11
132.669249
 21
185.199893
 31
0.0
  0
LINE
  5
49A
100
AcDbEntity
  8
レイヤー_2
 62
     7
100
AcDbLine
 10
132.669249
 20
162.835194
 30
0.0
 11
135.864231
 21
162.835194
 31
0.0
  0
LINE
  5
499
100
AcDbEntity
  8
レイヤー_2
 62
     7
100
AcDbLine
 10
129.473579
 20
162.835194
 30
0.0
 11
132.669249
 21
162.835194
 31
0.0
  0
SPLINE
  5
498
100
AcDbEntity
  8
レイヤー_2
 62
     7
100
AcDbSpline
210
0.0
220
0.0
230
1.0
 70
     8
 71
     3
 72
    11
 73
     7
 74
     0
 42
0.00000001
 43
0.00000001
 40
0.0
 40
0.0
 40
0.0
 40
0.0
 40
1.0
 40
1.0
 40
1.0
 40
2.0
 40
2.0
 40
2.0
 40
2.0
 10
132.66924913194444
 20
161.76997070312498
 30
0.0
 10
132.30062391493055
 20
161.79477539062498
 30
0.0
 10
131.93234320746527
 20
161.81889105902778
 30
0.0
 10
131.57405327690972
 20
161.90002305772569
 30
0.0
 10
131.54029134114583
 20
161.90743001302081
 30
0.0
 10
131.50618489583331
 20
161.91569824218749
 30
0.0
 10
131.47207845052083
 20
161.92413872612846
 30
0.0
  0
LINE
  5
497
100
AcDbEntity
  8
レイヤー_2
 62
     7
100
AcDbLine
 10
130.454742
 20
161.769971
 30
0.0
 11
132.669249
 21
161.769971
 31
0.0
  0
SPLINE
  5
496
100
AcDbEntity
  8
レイヤー_2
 62
     7
100
AcDbSpline
210
0.0
220
0.0
230
1.0
 70
     8
 71
     3
 72
    11
 73
     7
 74
     0
 42
0.00000001
 43
0.00000001
 40
0.0
 40
0.0
 40
0.0
 40
0.0
 40
1.0
 40
1.0
 40
1.0
 40
2.0
 40
2.0
 40
2.0
 40
2.0
 10
131.0528103298611
 20
161.92413872612846
 30
0.0
 10
130.95600314670136
 20
161.88004150390623
 30
0.0
 10
130.85850694444443
 20
161.83646104600692
 30
0.0
 10
130.7582546657986
 20
161.81148410373262
 30
0.0
 10
130.65834689670137
 20
161.78530137803818
 30
0.0
 10
130.5567165798611
 20
161.77806667751736
 30
0.0
 10
130.45474175347221
 20
161.76997070312498
 30
0.0
  0
LINE
  5
495
100
AcDbEntity
  8
レイヤー_2
 62
     7
100
AcDbLine
 10
131.05281
 20
161.924139
 30
0.0
 11
131.472078
 21
161.924139
 31
0.0
  0
LINE
  5
494
100
AcDbEntity
  8
レイヤー_2
 62
     7
100
AcDbLine
 10
131.472078
 20
161.924139
 30
0.0
 11
131.472078
 21
162.835194
 31
0.0
  0
LINE
  5
493
100
AcDbEntity
  8
レイヤー_2
 62
     7
100
AcDbLine
 10
131.05281
 20
162.835194
 30
0.0
 11
131.05281
 21
161.924139
 31
0.0
  0
SPLINE
  5
492
100
AcDbEntity
  8
レイヤー_2
 62
     7
100
AcDbSpline
210
0.0
220
0.0
230
1.0
 70
     8
 71
     3
 72
    11
 73
     7
 74
     0
 42
0.00000001
 43
0.00000001
 40
0.0
 40
0.0
 40
0.0
 40
0.0
 40
1.0
 40
1.0
 40
1.0
 40
2.0
 40
2.0
 40
2.0
 40
2.0
 10
133.86538628472221
 20
161.92413872612846
 30
0.0
 10
133.60355902777778
 20
161.86781141493054
 30
0.0
 10
133.34207628038195
 20
161.81182861328122
 30
0.0
 10
133.07680392795137
 20
161.7890909830729
 30
0.0
 10
132.94141167534721
 20
161.77634412977429
 30
0.0
 10
132.80567491319442
 20
161.77393256293402
 30
0.0
 10
132.66924913194444
 20
161.76997070312498
 30
0.0
  0
LINE
  5
491
100
AcDbEntity
  8
レイヤー_2
 62
     7
100
AcDbLine
 10
133.865386
 20
162.835194
 30
0.0
 11
133.865386
 21
161.924139
 31
0.0
  0
SPLINE
  5
490
100
AcDbEntity
  8
レイヤー_2
 62
     7
100
AcDbSpline
210
0.0
220
0.0
230
1.0
 70
     8
 71
     3
 72
    11
 73
     7
 74
     0
 42
0.00000001
 43
0.00000001
 40
0.0
 40
0.0
 40
0.0
 40
0.0
 40
1.0
 40
1.0
 40
1.0
 40
2.0
 40
2.0
 40
2.0
 40
2.0
 10
134.8823784722222
 20
161.76997070312498
 30
0.0
 10
134.82829047309028
 20
161.77238226996528
 30
0.0
 10
134.77316894531248
 20
161.77427707248262
 30
0.0
 10
134.71942545572915
 20
161.78202853732637
 30
0.0
 10
134.57266438802083
 20
161.80252685546873
 30
0.0
 10
134.42900390624999
 20
161.86350504557291
 30
0.0
 10
134.28396538628471
 20
161.92413872612846
 30
0.0
  0
LINE
  5
48F
100
AcDbEntity
  8
レイヤー_2
 62
     7
100
AcDbLine
 10
133.865386
 20
161.924139
 30
0.0
 11
134.283965
 21
161.924139
 31
0.0
  0
LINE
  5
48E
100
AcDbEntity
  8
レイヤー_2
 62
     7
100
AcDbLine
 10
132.669249
 20
161.769971
 30
0.0
 11
134.882378
 21
161.769971
 31
0.0
  0
LINE
  5
48D
100
AcDbEntity
  8
レイヤー_2
 62
     7
100
AcDbLine
 10
134.283965
 20
161.924139
 30
0.0
 11
134.283965
 21
162.835194
 31
0.0
  0
SPLINE
  5
48C
100
AcDbEntity
  8
レイヤー_2
 62
     7
100
AcDbSpline
210
0.0
220
0.0
230
1.0
 70
     8
 71
     3
 72
    11
 73
     7
 74
     0
 42
0.00000001
 43
0.00000001
 40
0.0
 40
0.0
 40
0.0
 40
0.0
 40
1.0
 40
1.0
 40
1.0
 40
2.0
 40
2.0
 40
2.0
 40
2.0
 10
130.45474175347221
 20
161.76997070312498
 30
0.0
 10
130.40099826388888
 20
161.77238226996528
 30
0.0
 10
130.34656575520833
 20
161.77427707248262
 30
0.0
 10
130.29247775607638
 20
161.78202853732637
 30
0.0
 10
130.14640570746528
 20
161.80252685546873
 30
0.0
 10
130.00136718749999
 20
161.86350504557291
 30
0.0
 10
129.85667317708331
 20
161.92413872612846
 30
0.0
  0
LINE
  5
48B
100
AcDbEntity
  8
レイヤー_2
 62
     7
100
AcDbLine
 10
129.856673
 20
161.924139
 30
0.0
 11
129.856673
 21
162.835194
 31
0.0
  0
SPLINE
  5
48A
100
AcDbEntity
  8
レイヤー_2
 62
     7
100
AcDbSpline
210
0.0
220
0.0
230
1.0
 70
     8
 71
     3
 72
    11
 73
     7
 74
     0
 42
0.00000001
 43
0.00000001
 40
0.0
 40
0.0
 40
0.0
 40
0.0
 40
1.0
 40
1.0
 40
1.0
 40
2.0
 40
2.0
 40
2.0
 40
2.0
 10
135.4804470486111
 20
161.92413872612846
 30
0.0
 10
135.38295084635416
 20
161.88004150390623
 30
0.0
 10
135.2851101345486
 20
161.83646104600692
 30
0.0
 10
135.1858913845486
 20
161.81148410373262
 30
0.0
 10
135.08563910590277
 20
161.78530137803818
 30
0.0
 10
134.9843532986111
 20
161.77806667751736
 30
0.0
 10
134.8823784722222
 20
161.76997070312498
 30
0.0
  0
LINE
  5
489
100
AcDbEntity
  8
レイヤー_2
 62
     7
100
AcDbLine
 10
135.480447
 20
162.835194
 30
0.0
 11
135.480447
 21
161.924139
 31
0.0
  0
LINE
  5
488
100
AcDbEntity
  8
レイヤー_2
 62
     7
100
AcDbLine
 10
129.846682
 20
161.924139
 30
0.0
 11
129.856673
 21
161.924139
 31
0.0
  0
LINE
  5
487
100
AcDbEntity
  8
レイヤー_2
 62
     7
100
AcDbLine
 10
130.112644
 20
161.769971
 30
0.0
 11
130.454742
 21
161.769971
 31
0.0
  0
LINE
  5
486
100
AcDbEntity
  8
レイヤー_2
 62
     7
100
AcDbLine
 10
135.480447
 20
161.924139
 30
0.0
 11
135.491127
 21
161.924139
 31
0.0
  0
LINE
  5
485
100
AcDbEntity
  8
レイヤー_2
 62
     7
100
AcDbLine
 10
134.882378
 20
161.769971
 30
0.0
 11
135.225165
 21
161.769971
 31
0.0
  0
LINE
  5
484
100
AcDbEntity
  8
レイヤー_2
 62
     7
100
AcDbLine
 10
128.409044
 20
163.474259
 30
0.0
 11
136.92911
 21
163.474259
 31
0.0
  0
LINE
  5
483
100
AcDbEntity
  8
レイヤー_2
 62
     7
100
AcDbLine
 10
136.92911
 20
168.586264
 30
0.0
 11
128.409044
 21
168.586264
 31
0.0
  0
LINE
  5
482
100
AcDbEntity
  8
レイヤー_2
 62
     7
100
AcDbLine
 10
127.876432
 20
176.707388
 30
0.0
 11
137.461032
 21
176.707388
 31
0.0
  0
LINE
  5
481
100
AcDbEntity
  8
レイヤー_2
 62
     7
100
AcDbLine
 10
127.876432
 20
177.090655
 30
0.0
 11
137.461032
 21
177.090655
 31
0.0
  0
LINE
  5
480
100
AcDbEntity
  8
レイヤー_2
 62
     7
100
AcDbLine
 10
132.390885
 20
176.723063
 30
0.0
 11
132.390885
 21
175.445449
 31
0.0
  0
LINE
  5
47F
100
AcDbEntity
  8
レイヤー_2
 62
     7
100
AcDbLine
 10
132.945546
 20
176.723063
 30
0.0
 11
132.945546
 21
175.445449
 31
0.0
  0
LINE
  5
47E
100
AcDbEntity
  8
レイヤー_2
 62
     7
100
AcDbLine
 10
132.945546
 20
175.445449
 30
0.0
 11
132.390885
 21
175.445449
 31
0.0
  0
LINE
  5
47D
100
AcDbEntity
  8
レイヤー_2
 62
     7
100
AcDbLine
 10
132.945546
 20
176.723063
 30
0.0
 11
132.390885
 21
176.723063
 31
0.0
  0
LINE
  5
47C
100
AcDbEntity
  8
レイヤー_2
 62
     7
100
AcDbLine
 10
129.217608
 20
176.723063
 30
0.0
 11
129.217608
 21
175.445449
 31
0.0
  0
LINE
  5
47B
100
AcDbEntity
  8
レイヤー_2
 62
     7
100
AcDbLine
 10
129.217608
 20
175.445449
 30
0.0
 11
132.390885
 21
175.445449
 31
0.0
  0
LINE
  5
47A
100
AcDbEntity
  8
レイヤー_2
 62
     7
100
AcDbLine
 10
129.217608
 20
176.723063
 30
0.0
 11
132.390885
 21
176.723063
 31
0.0
  0
LINE
  5
479
100
AcDbEntity
  8
レイヤー_2
 62
     7
100
AcDbLine
 10
136.119168
 20
176.723063
 30
0.0
 11
136.119168
 21
175.445449
 31
0.0
  0
LINE
  5
478
100
AcDbEntity
  8
レイヤー_2
 62
     7
100
AcDbLine
 10
136.119168
 20
175.445449
 30
0.0
 11
132.945546
 21
175.445449
 31
0.0
  0
LINE
  5
477
100
AcDbEntity
  8
レイヤー_2
 62
     7
100
AcDbLine
 10
136.119168
 20
176.723063
 30
0.0
 11
132.945546
 21
176.723063
 31
0.0
  0
LINE
  5
476
100
AcDbEntity
  8
レイヤー_2
 62
     7
100
AcDbLine
 10
128.940967
 20
176.723063
 30
0.0
 11
128.940967
 21
175.445449
 31
0.0
  0
LINE
  5
475
100
AcDbEntity
  8
レイヤー_2
 62
     7
100
AcDbLine
 10
129.217608
 20
175.445449
 30
0.0
 11
128.940967
 21
175.445449
 31
0.0
  0
LINE
  5
474
100
AcDbEntity
  8
レイヤー_2
 62
     7
100
AcDbLine
 10
129.217608
 20
176.723063
 30
0.0
 11
128.940967
 21
176.723063
 31
0.0
  0
LINE
  5
473
100
AcDbEntity
  8
レイヤー_2
 62
     7
100
AcDbLine
 10
136.396498
 20
176.723063
 30
0.0
 11
136.396498
 21
175.445449
 31
0.0
  0
LINE
  5
472
100
AcDbEntity
  8
レイヤー_2
 62
     7
100
AcDbLine
 10
136.396498
 20
175.445449
 30
0.0
 11
136.119168
 21
175.445449
 31
0.0
  0
LINE
  5
471
100
AcDbEntity
  8
レイヤー_2
 62
     7
100
AcDbLine
 10
136.396498
 20
176.723063
 30
0.0
 11
136.119168
 21
176.723063
 31
0.0
  0
LINE
  5
470
100
AcDbEntity
  8
レイヤー_2
 62
     7
100
AcDbLine
 10
129.492871
 20
168.731131
 30
0.0
 11
135.844594
 21
168.731131
 31
0.0
  0
LINE
  5
46F
100
AcDbEntity
  8
レイヤー_2
 62
     7
100
AcDbLine
 10
130.452675
 20
158.947921
 30
0.0
 11
134.88479
 21
158.947921
 31
0.0
  0
LINE
  5
46E
100
AcDbEntity
  8
レイヤー_2
 62
     7
100
AcDbLine
 10
133.947035
 20
159.533931
 30
0.0
 11
131.39043
 21
159.533931
 31
0.0
  0
LINE
  5
46D
100
AcDbEntity
  8
レイヤー_2
 62
     7
100
AcDbLine
 10
133.947035
 20
161.769971
 30
0.0
 11
133.947035
 21
159.533931
 31
0.0
  0
LINE
  5
46C
100
AcDbEntity
  8
レイヤー_2
 62
     7
100
AcDbLine
 10
131.39043
 20
159.533931
 30
0.0
 11
131.39043
 21
161.769971
 31
0.0
  0
LINE
  5
46B
100
AcDbEntity
  8
レイヤー_2
 62
     7
100
AcDbLine
 10
130.718636
 20
158.681787
 30
0.0
 11
134.618829
 21
158.681787
 31
0.0
  0
SPLINE
  5
46A
100
AcDbEntity
  8
レイヤー_2
 62
     7
100
AcDbSpline
210
0.0
220
0.0
230
1.0
 70
     8
 71
     3
 72
     8
 73
     4
 74
     0
 42
0.00000001
 43
0.00000001
 40
0.0
 40
0.0
 40
0.0
 40
0.0
 40
1.0
 40
1.0
 40
1.0
 40
1.0
 10
138.07701551649305
 20
174.0181464301215
 30
0.0
 10
138.13592664930553
 20
174.0181464301215
 30
0.0
 10
138.18312445746525
 20
174.06586100260415
 30
0.0
 10
138.18312445746525
 20
174.12494439019096
 30
0.0
  0
SPLINE
  5
469
100
AcDbEntity
  8
レイヤー_2
 62
     7
100
AcDbSpline
210
0.0
220
0.0
230
1.0
 70
     8
 71
     3
 72
     8
 73
     4
 74
     0
 42
0.00000001
 43
0.00000001
 40
0.0
 40
0.0
 40
0.0
 40
0.0
 40
1.0
 40
1.0
 40
1.0
 40
1.0
 10
136.7578884548611
 20
174.11236979166665
 30
0.0
 10
136.7578884548611
 20
174.11702067057291
 30
0.0
 10
136.75719943576388
 20
174.12098253038192
 30
0.0
 10
136.75685492621525
 20
174.12494439019096
 30
0.0
  0
SPLINE
  5
468
100
AcDbEntity
  8
レイヤー_2
 62
     7
100
AcDbSpline
210
0.0
220
0.0
230
1.0
 70
     8
 71
     3
 72
     8
 73
     4
 74
     0
 42
0.00000001
 43
0.00000001
 40
0.0
 40
0.0
 40
0.0
 40
0.0
 40
1.0
 40
1.0
 40
1.0
 40
1.0
 10
136.67796223958331
 20
174.0181464301215
 30
0.0
 10
136.72481553819443
 20
174.02624240451388
 30
0.0
 10
136.75719943576388
 20
174.06655002170137
 30
0.0
 10
136.7578884548611
 20
174.11236979166665
 30
0.0
  0
LINE
  5
467
100
AcDbEntity
  8
レイヤー_2
 62
     7
100
AcDbLine
 10
136.677962
 20
174.018146
 30
0.0
 11
135.844594
 21
174.018146
 31
0.0
  0
LINE
  5
466
100
AcDbEntity
  8
レイヤー_2
 62
     7
100
AcDbLine
 10
129.492871
 20
174.018146
 30
0.0
 11
127.251836
 21
174.018146
 31
0.0
  0
LINE
  5
465
100
AcDbEntity
  8
レイヤー_2
 62
     7
100
AcDbLine
 10
127.251836
 20
175.509012
 30
0.0
 11
128.940967
 21
175.509012
 31
0.0
  0
LINE
  5
464
100
AcDbEntity
  8
レイヤー_2
 62
     7
100
AcDbLine
 10
136.396498
 20
175.509012
 30
0.0
 11
136.677962
 21
175.509012
 31
0.0
  0
LINE
  5
463
100
AcDbEntity
  8
レイヤー_2
 62
     7
100
AcDbLine
 10
137.795896
 20
175.509012
 30
0.0
 11
137.858941
 21
175.509012
 31
0.0
  0
LINE
  5
462
100
AcDbEntity
  8
レイヤー_2
 62
     7
100
AcDbLine
 10
138.077016
 20
174.018146
 30
0.0
 11
136.754099
 21
174.018146
 31
0.0
  0
SPLINE
  5
461
100
AcDbEntity
  8
レイヤー_2
 62
     7
100
AcDbSpline
210
0.0
220
0.0
230
1.0
 70
     8
 71
     3
 72
     8
 73
     4
 74
     0
 42
0.00000001
 43
0.00000001
 40
0.0
 40
0.0
 40
0.0
 40
0.0
 40
1.0
 40
1.0
 40
1.0
 40
1.0
 10
137.8589409722222
 20
175.5090115017361
 30
0.0
 10
137.8434380425347
 20
175.47352701822916
 30
0.0
 10
137.83895941840277
 20
175.43700900607638
 30
0.0
 10
137.84412706163192
 20
175.40238579644097
 30
0.0
  0
LINE
  5
460
100
AcDbEntity
  8
レイヤー_2
 62
     7
100
AcDbLine
 10
137.858941
 20
175.509012
 30
0.0
 11
138.077016
 21
175.509012
 31
0.0
  0
SPLINE
  5
45F
100
AcDbEntity
  8
レイヤー_2
 62
     7
100
AcDbSpline
210
0.0
220
0.0
230
1.0
 70
     8
 71
     3
 72
     8
 73
     4
 74
     0
 42
0.00000001
 43
0.00000001
 40
0.0
 40
0.0
 40
0.0
 40
0.0
 40
1.0
 40
1.0
 40
1.0
 40
1.0
 10
137.65154622395832
 20
175.18586154513886
 30
0.0
 10
137.67049424913193
 20
175.17328694661458
 30
0.0
 10
137.75076497395833
 20
175.13056776258679
 30
0.0
 10
137.8434380425347
 20
175.08268093532985
 30
0.0
  0
LINE
  5
45E
100
AcDbEntity
  8
レイヤー_2
 62
     7
100
AcDbLine
 10
136.754099
 20
174.018146
 30
0.0
 11
136.677962
 21
174.018146
 31
0.0
  0
LINE
  5
45D
100
AcDbEntity
  8
レイヤー_2
 62
     7
100
AcDbLine
 10
137.795896
 20
175.189479
 30
0.0
 11
136.785105
 21
175.189479
 31
0.0
  0
LINE
  5
45C
100
AcDbEntity
  8
レイヤー_2
 62
     7
100
AcDbLine
 10
137.795896
 20
175.828544
 30
0.0
 11
136.396498
 21
175.828544
 31
0.0
  0
LINE
  5
45B
100
AcDbEntity
  8
レイヤー_2
 62
     7
100
AcDbLine
 10
128.940967
 20
175.828544
 30
0.0
 11
127.571541
 21
175.828544
 31
0.0
  0
LINE
  5
45A
100
AcDbEntity
  8
レイヤー_2
 62
     7
100
AcDbLine
 10
132.669249
 20
177.090655
 30
0.0
 11
137.781082
 21
177.090655
 31
0.0
  0
LINE
  5
459
100
AcDbEntity
  8
レイヤー_2
 62
     7
100
AcDbLine
 10
127.556727
 20
177.090655
 30
0.0
 11
132.669249
 21
177.090655
 31
0.0
  0
LINE
  5
458
100
AcDbEntity
  8
レイヤー_2
 62
     7
100
AcDbLine
 10
132.669249
 20
177.72972
 30
0.0
 11
137.781082
 21
177.72972
 31
0.0
  0
LINE
  5
457
100
AcDbEntity
  8
レイヤー_2
 62
     7
100
AcDbLine
 10
127.556727
 20
177.72972
 30
0.0
 11
132.669249
 21
177.72972
 31
0.0
  0
LINE
  5
456
100
AcDbEntity
  8
レイヤー_2
 62
     7
100
AcDbLine
 10
137.354579
 20
183.283731
 30
0.0
 11
136.587701
 21
183.283731
 31
0.0
  0
LINE
  5
455
100
AcDbEntity
  8
レイヤー_2
 62
     7
100
AcDbLine
 10
128.749075
 20
183.283731
 30
0.0
 11
128.195793
 21
183.283731
 31
0.0
  0
LINE
  5
454
100
AcDbEntity
  8
レイヤー_2
 62
     7
100
AcDbLine
 10
128.106909
 20
194.000562
 30
0.0
 11
128.232655
 21
194.713352
 31
0.0
  0
SPLINE
  5
453
100
AcDbEntity
  8
レイヤー_2
 62
     7
100
AcDbSpline
210
0.0
220
0.0
230
1.0
 70
     8
 71
     3
 72
     8
 73
     4
 74
     0
 42
0.00000001
 43
0.00000001
 40
0.0
 40
0.0
 40
0.0
 40
0.0
 40
1.0
 40
1.0
 40
1.0
 40
1.0
 10
128.10690917968748
 20
194.00056152343748
 30
0.0
 10
128.09002821180553
 20
193.90771620008678
 30
0.0
 10
128.15203993055553
 20
193.81952175564234
 30
0.0
 10
128.24471299913193
 20
193.8026407877604
 30
0.0
  0
SPLINE
  5
452
100
AcDbEntity
  8
レイヤー_2
 62
     7
100
AcDbSpline
210
0.0
220
0.0
230
1.0
 70
     8
 71
     3
 72
    11
 73
     7
 74
     0
 42
0.00000001
 43
0.00000001
 40
0.0
 40
0.0
 40
0.0
 40
0.0
 40
1.0
 40
1.0
 40
1.0
 40
2.0
 40
2.0
 40
2.0
 40
2.0
 10
128.42971462673609
 20
194.85184461805554
 30
0.0
 10
128.42006835937499
 20
194.85356716579858
 30
0.0
 10
128.40938856336805
 20
194.8542561848958
 30
0.0
 10
128.40008680555553
 20
194.8542561848958
 30
0.0
 10
128.31671549479165
 20
194.8542561848958
 30
0.0
 10
128.24643554687498
 20
194.79413926866317
 30
0.0
 10
128.23265516493055
 20
194.71335177951386
 30
0.0
  0
LINE
  5
451
100
AcDbEntity
  8
レイヤー_2
 62
     7
100
AcDbLine
 10
130.489882
 20
193.407144
 30
0.0
 11
128.244713
 21
193.802641
 31
0.0
  0
LINE
  5
450
100
AcDbEntity
  8
レイヤー_2
 62
     7
100
AcDbLine
 10
128.429715
 20
194.851845
 30
0.0
 11
131.328762
 21
194.340592
 31
0.0
  0
SPLINE
  5
44F
100
AcDbEntity
  8
レイヤー_2
 62
     7
100
AcDbSpline
210
0.0
220
0.0
230
1.0
 70
     8
 71
     3
 72
     8
 73
     4
 74
     0
 42
0.00000001
 43
0.00000001
 40
0.0
 40
0.0
 40
0.0
 40
0.0
 40
1.0
 40
1.0
 40
1.0
 40
1.0
 10
130.08129340277776
 20
189.86713595920136
 30
0.0
 10
130.06682400173611
 20
189.78290337456596
 30
0.0
 10
130.10334201388886
 20
189.70194363064235
 30
0.0
 10
130.17017686631942
 20
189.65491807725692
 30
0.0
  0
LINE
  5
44E
100
AcDbEntity
  8
レイヤー_2
 62
     7
100
AcDbLine
 10
130.081293
 20
189.867136
 30
0.0
 11
130.662137
 21
193.160475
 31
0.0
  0
SPLINE
  5
44D
100
AcDbEntity
  8
レイヤー_2
 62
     7
100
AcDbSpline
210
0.0
220
0.0
230
1.0
 70
     8
 71
     3
 72
     8
 73
     4
 74
     0
 42
0.00000001
 43
0.00000001
 40
0.0
 40
0.0
 40
0.0
 40
0.0
 40
1.0
 40
1.0
 40
1.0
 40
1.0
 10
130.17017686631942
 20
189.65491807725692
 30
0.0
 10
130.20256076388887
 20
189.63286946614582
 30
0.0
 10
130.23873426649305
 20
189.623395453559
 30
0.0
 10
130.27387424045136
 20
189.62477349175344
 30
0.0
  0
POLYLINE
  5
448
100
AcDbEntity
  8
レイヤー_2
 62
     7
100
AcDb2dPolyline
 66
     1
 10
0.0
 20
0.0
 30
0.0
  0
VERTEX
  5
449
100
AcDbEntity
  8
レイヤー_2
 62
     7
100
AcDbVertex
100
AcDb2dVertex
 10
130.297301
 20
189.626668
 30
0.0
  0
VERTEX
  5
44A
100
AcDbEntity
  8
レイヤー_2
 62
     7
100
AcDbVertex
100
AcDb2dVertex
 10
130.289722
 20
189.625807
 30
0.0
  0
VERTEX
  5
44B
100
AcDbEntity
  8
レイヤー_2
 62
     7
100
AcDbVertex
100
AcDb2dVertex
 10
130.273874
 20
189.624773
 30
0.0
  0
SEQEND
  5
44C
100
AcDbEntity
  8
レイヤー_2
 62
     7
  0
SPLINE
  5
447
100
AcDbEntity
  8
レイヤー_2
 62
     7
100
AcDbSpline
210
0.0
220
0.0
230
1.0
 70
     8
 71
     3
 72
     8
 73
     4
 74
     0
 42
0.00000001
 43
0.00000001
 40
0.0
 40
0.0
 40
0.0
 40
0.0
 40
1.0
 40
1.0
 40
1.0
 40
1.0
 10
130.6652370876736
 20
193.19750976562497
 30
0.0
 10
130.6652370876736
 20
193.30224066840276
 30
0.0
 10
130.58978949652777
 20
193.38922932942705
 30
0.0
 10
130.48988172743054
 20
193.40714382595485
 30
0.0
  0
SPLINE
  5
446
100
AcDbEntity
  8
レイヤー_2
 62
     7
100
AcDbSpline
210
0.0
220
0.0
230
1.0
 70
     8
 71
     3
 72
     8
 73
     4
 74
     0
 42
0.00000001
 43
0.00000001
 40
0.0
 40
0.0
 40
0.0
 40
0.0
 40
1.0
 40
1.0
 40
1.0
 40
1.0
 10
130.66213650173609
 20
193.16047498914929
 30
0.0
 10
130.66454806857638
 20
193.1735663519965
 30
0.0
 10
130.66592610677083
 20
193.18631320529511
 30
0.0
 10
130.6652370876736
 20
193.19750976562497
 30
0.0
  0
POLYLINE
  5
433
100
AcDbEntity
  8
レイヤー_2
 62
     7
100
AcDb2dPolyline
 66
     1
 10
0.0
 20
0.0
 30
0.0
  0
VERTEX
  5
434
100
AcDbEntity
  8
レイヤー_2
 62
     7
100
AcDbVertex
100
AcDb2dVertex
 10
170.710683
 20
206.82648
 30
0.0
  0
VERTEX
  5
435
100
AcDbEntity
  8
レイヤー_2
 62
     7
100
AcDbVertex
100
AcDb2dVertex
 10
170.671408
 20
206.822862
 30
0.0
  0
VERTEX
  5
436
100
AcDbEntity
  8
レイヤー_2
 62
     7
100
AcDbVertex
100
AcDb2dVertex
 10
170.556687
 20
206.814422
 30
0.0
  0
VERTEX
  5
437
100
AcDbEntity
  8
レイヤー_2
 62
     7
100
AcDbVertex
100
AcDb2dVertex
 10
170.370307
 20
206.798919
 30
0.0
  0
VERTEX
  5
438
100
AcDbEntity
  8
レイヤー_2
 62
     7
100
AcDbVertex
100
AcDb2dVertex
 10
170.119504
 20
206.779626
 30
0.0
  0
VERTEX
  5
439
100
AcDbEntity
  8
レイヤー_2
 62
     7
100
AcDbVertex
100
AcDb2dVertex
 10
169.815991
 20
206.755855
 30
0.0
  0
VERTEX
  5
43A
100
AcDbEntity
  8
レイヤー_2
 62
     7
100
AcDbVertex
100
AcDb2dVertex
 10
169.470104
 20
206.728639
 30
0.0
  0
VERTEX
  5
43B
100
AcDbEntity
  8
レイヤー_2
 62
     7
100
AcDbVertex
100
AcDb2dVertex
 10
169.098033
 20
206.699011
 30
0.0
  0
VERTEX
  5
43C
100
AcDbEntity
  8
レイヤー_2
 62
     7
100
AcDbVertex
100
AcDb2dVertex
 10
168.713905
 20
206.668867
 30
0.0
  0
VERTEX
  5
43D
100
AcDbEntity
  8
レイヤー_2
 62
     7
100
AcDbVertex
100
AcDb2dVertex
 10
168.333567
 20
206.639067
 30
0.0
  0
VERTEX
  5
43E
100
AcDbEntity
  8
レイヤー_2
 62
     7
100
AcDbVertex
100
AcDb2dVertex
 10
167.97321
 20
206.610472
 30
0.0
  0
VERTEX
  5
43F
100
AcDbEntity
  8
レイヤー_2
 62
     7
100
AcDbVertex
100
AcDb2dVertex
 10
167.646615
 20
206.584634
 30
0.0
  0
VERTEX
  5
440
100
AcDbEntity
  8
レイヤー_2
 62
     7
100
AcDbVertex
100
AcDb2dVertex
 10
167.367906
 20
206.56293
 30
0.0
  0
VERTEX
  5
441
100
AcDbEntity
  8
レイヤー_2
 62
     7
100
AcDbVertex
100
AcDb2dVertex
 10
167.148109
 20
206.546049
 30
0.0
  0
VERTEX
  5
442
100
AcDbEntity
  8
レイヤー_2
 62
     7
100
AcDbVertex
100
AcDb2dVertex
 10
166.996525
 20
206.533991
 30
0.0
  0
VERTEX
  5
443
100
AcDbEntity
  8
レイヤー_2
 62
     7
100
AcDbVertex
100
AcDb2dVertex
 10
166.919699
 20
206.52779
 30
0.0
  0
VERTEX
  5
444
100
AcDbEntity
  8
レイヤー_2
 62
     7
100
AcDbVertex
100
AcDb2dVertex
 10
166.909709
 20
206.526756
 30
0.0
  0
SEQEND
  5
445
100
AcDbEntity
  8
レイヤー_2
 62
     7
  0
POLYLINE
  5
429
100
AcDbEntity
  8
レイヤー_2
 62
     7
100
AcDb2dPolyline
 66
     1
 10
0.0
 20
0.0
 30
0.0
  0
VERTEX
  5
42A
100
AcDbEntity
  8
レイヤー_2
 62
     7
100
AcDbVertex
100
AcDb2dVertex
 10
171.345958
 20
207.041626
 30
0.0
  0
VERTEX
  5
42B
100
AcDbEntity
  8
レイヤー_2
 62
     7
100
AcDbVertex
100
AcDb2dVertex
 10
171.334934
 20
207.041109
 30
0.0
  0
VERTEX
  5
42C
100
AcDbEntity
  8
レイヤー_2
 62
     7
100
AcDbVertex
100
AcDb2dVertex
 10
171.254663
 20
207.035253
 30
0.0
  0
VERTEX
  5
42D
100
AcDbEntity
  8
レイヤー_2
 62
     7
100
AcDbVertex
100
AcDb2dVertex
 10
171.095844
 20
207.022333
 30
0.0
  0
VERTEX
  5
42E
100
AcDbEntity
  8
レイヤー_2
 62
     7
100
AcDbVertex
100
AcDb2dVertex
 10
170.864334
 20
207.004419
 30
0.0
  0
VERTEX
  5
42F
100
AcDbEntity
  8
レイヤー_2
 62
     7
100
AcDbVertex
100
AcDb2dVertex
 10
170.567022
 20
206.981337
 30
0.0
  0
VERTEX
  5
430
100
AcDbEntity
  8
レイヤー_2
 62
     7
100
AcDbVertex
100
AcDb2dVertex
 10
170.213211
 20
206.952915
 30
0.0
  0
VERTEX
  5
431
100
AcDbEntity
  8
レイヤー_2
 62
     7
100
AcDbVertex
100
AcDb2dVertex
 10
169.815991
 20
206.922081
 30
0.0
  0
SEQEND
  5
432
100
AcDbEntity
  8
レイヤー_2
 62
     7
  0
LINE
  5
428
100
AcDbEntity
  8
レイヤー_2
 62
     7
100
AcDbLine
 10
169.815991
 20
206.922081
 30
0.0
 11
169.758458
 21
207.648824
 31
0.0
  0
POLYLINE
  5
41D
100
AcDbEntity
  8
レイヤー_2
 62
     7
100
AcDb2dPolyline
 66
     1
 10
0.0
 20
0.0
 30
0.0
  0
VERTEX
  5
41E
100
AcDbEntity
  8
レイヤー_2
 62
     7
100
AcDbVertex
100
AcDb2dVertex
 10
167.721718
 20
207.488627
 30
0.0
  0
VERTEX
  5
41F
100
AcDbEntity
  8
レイヤー_2
 62
     7
100
AcDbVertex
100
AcDb2dVertex
 10
167.966319
 20
207.507747
 30
0.0
  0
VERTEX
  5
420
100
AcDbEntity
  8
レイヤー_2
 62
     7
100
AcDbVertex
100
AcDb2dVertex
 10
168.219878
 20
207.527212
 30
0.0
  0
VERTEX
  5
421
100
AcDbEntity
  8
レイヤー_2
 62
     7
100
AcDbVertex
100
AcDb2dVertex
 10
168.478261
 20
207.547883
 30
0.0
  0
VERTEX
  5
422
100
AcDbEntity
  8
レイヤー_2
 62
     7
100
AcDbVertex
100
AcDb2dVertex
 10
168.740088
 20
207.568209
 30
0.0
  0
VERTEX
  5
423
100
AcDbEntity
  8
レイヤー_2
 62
     7
100
AcDbVertex
100
AcDb2dVertex
 10
169.000882
 20
207.588879
 30
0.0
  0
VERTEX
  5
424
100
AcDbEntity
  8
レイヤー_2
 62
     7
100
AcDbVertex
100
AcDb2dVertex
 10
169.259608
 20
207.609205
 30
0.0
  0
VERTEX
  5
425
100
AcDbEntity
  8
レイヤー_2
 62
     7
100
AcDbVertex
100
AcDb2dVertex
 10
169.513512
 20
207.629187
 30
0.0
  0
VERTEX
  5
426
100
AcDbEntity
  8
レイヤー_2
 62
     7
100
AcDbVertex
100
AcDb2dVertex
 10
169.758458
 20
207.648824
 30
0.0
  0
SEQEND
  5
427
100
AcDbEntity
  8
レイヤー_2
 62
     7
  0
LINE
  5
41C
100
AcDbEntity
  8
レイヤー_2
 62
     7
100
AcDbLine
 10
167.721718
 20
207.488627
 30
0.0
 11
167.778217
 21
206.761712
 31
0.0
  0
POLYLINE
  5
412
100
AcDbEntity
  8
レイヤー_2
 62
     7
100
AcDb2dPolyline
 66
     1
 10
0.0
 20
0.0
 30
0.0
  0
VERTEX
  5
413
100
AcDbEntity
  8
レイヤー_2
 62
     7
100
AcDbVertex
100
AcDb2dVertex
 10
167.778217
 20
206.761712
 30
0.0
  0
VERTEX
  5
414
100
AcDbEntity
  8
レイヤー_2
 62
     7
100
AcDbVertex
100
AcDb2dVertex
 10
167.379964
 20
206.729673
 30
0.0
  0
VERTEX
  5
415
100
AcDbEntity
  8
レイヤー_2
 62
     7
100
AcDbVertex
100
AcDb2dVertex
 10
167.026842
 20
206.702112
 30
0.0
  0
VERTEX
  5
416
100
AcDbEntity
  8
レイヤー_2
 62
     7
100
AcDbVertex
100
AcDb2dVertex
 10
166.729875
 20
206.678857
 30
0.0
  0
VERTEX
  5
417
100
AcDbEntity
  8
レイヤー_2
 62
     7
100
AcDbVertex
100
AcDb2dVertex
 10
166.49802
 20
206.660771
 30
0.0
  0
VERTEX
  5
418
100
AcDbEntity
  8
レイヤー_2
 62
     7
100
AcDbVertex
100
AcDb2dVertex
 10
166.33989
 20
206.648024
 30
0.0
  0
VERTEX
  5
419
100
AcDbEntity
  8
レイヤー_2
 62
     7
100
AcDbVertex
100
AcDb2dVertex
 10
166.259275
 20
206.642339
 30
0.0
  0
VERTEX
  5
41A
100
AcDbEntity
  8
レイヤー_2
 62
     7
100
AcDbVertex
100
AcDb2dVertex
 10
166.249284
 20
206.641134
 30
0.0
  0
SEQEND
  5
41B
100
AcDbEntity
  8
レイヤー_2
 62
     7
  0
POLYLINE
  5
406
100
AcDbEntity
  8
レイヤー_2
 62
     7
100
AcDb2dPolyline
 66
     1
 10
0.0
 20
0.0
 30
0.0
  0
VERTEX
  5
407
100
AcDbEntity
  8
レイヤー_2
 62
     7
100
AcDbVertex
100
AcDb2dVertex
 10
168.806578
 20
206.718648
 30
0.0
  0
VERTEX
  5
408
100
AcDbEntity
  8
レイヤー_2
 62
     7
100
AcDbVertex
100
AcDb2dVertex
 10
168.377319
 20
206.685403
 30
0.0
  0
VERTEX
  5
409
100
AcDbEntity
  8
レイヤー_2
 62
     7
100
AcDbVertex
100
AcDb2dVertex
 10
167.963219
 20
206.652158
 30
0.0
  0
VERTEX
  5
40A
100
AcDbEntity
  8
レイヤー_2
 62
     7
100
AcDbVertex
100
AcDb2dVertex
 10
167.577024
 20
206.622013
 30
0.0
  0
VERTEX
  5
40B
100
AcDbEntity
  8
レイヤー_2
 62
     7
100
AcDbVertex
100
AcDb2dVertex
 10
167.233203
 20
206.595314
 30
0.0
  0
VERTEX
  5
40C
100
AcDbEntity
  8
レイヤー_2
 62
     7
100
AcDbVertex
100
AcDb2dVertex
 10
166.942782
 20
206.572059
 30
0.0
  0
VERTEX
  5
40D
100
AcDbEntity
  8
レイヤー_2
 62
     7
100
AcDbVertex
100
AcDb2dVertex
 10
166.716439
 20
206.554834
 30
0.0
  0
VERTEX
  5
40E
100
AcDbEntity
  8
レイヤー_2
 62
     7
100
AcDbVertex
100
AcDb2dVertex
 10
166.560376
 20
206.541915
 30
0.0
  0
VERTEX
  5
40F
100
AcDbEntity
  8
レイヤー_2
 62
     7
100
AcDbVertex
100
AcDb2dVertex
 10
166.48045
 20
206.53623
 30
0.0
  0
VERTEX
  5
410
100
AcDbEntity
  8
レイヤー_2
 62
     7
100
AcDbVertex
100
AcDb2dVertex
 10
166.470459
 20
206.535541
 30
0.0
  0
SEQEND
  5
411
100
AcDbEntity
  8
レイヤー_2
 62
     7
  0
LINE
  5
405
100
AcDbEntity
  8
レイヤー_2
 62
     7
100
AcDbLine
 10
167.778217
 20
206.761712
 30
0.0
 11
168.806578
 21
206.718648
 31
0.0
  0
SPLINE
  5
404
100
AcDbEntity
  8
レイヤー_2
 62
     7
100
AcDbSpline
210
0.0
220
0.0
230
1.0
 70
     8
 71
     3
 72
    11
 73
     7
 74
     0
 42
0.00000001
 43
0.00000001
 40
0.0
 40
0.0
 40
0.0
 40
0.0
 40
1.0
 40
1.0
 40
1.0
 40
2.0
 40
2.0
 40
2.0
 40
2.0
 10
168.80657823350694
 20
206.71864827473956
 30
0.0
 10
168.89201660156249
 20
206.72743326822913
 30
0.0
 10
168.97745496961804
 20
206.73552924262151
 30
0.0
 10
169.06289333767359
 20
206.7475870768229
 30
0.0
 10
169.31748589409722
 20
206.78307156032983
 30
0.0
 10
169.56656629774304
 20
206.85231797960068
 30
0.0
 10
169.81599121093748
 20
206.92208116319443
 30
0.0
  0
POLYLINE
  5
3F8
100
AcDbEntity
  8
レイヤー_2
 62
     7
100
AcDb2dPolyline
 66
     1
 10
0.0
 20
0.0
 30
0.0
  0
VERTEX
  5
3F9
100
AcDbEntity
  8
レイヤー_2
 62
     7
100
AcDbVertex
100
AcDb2dVertex
 10
171.142353
 20
206.902961
 30
0.0
  0
VERTEX
  5
3FA
100
AcDbEntity
  8
レイヤー_2
 62
     7
100
AcDbVertex
100
AcDb2dVertex
 10
171.132362
 20
206.901927
 30
0.0
  0
VERTEX
  5
3FB
100
AcDbEntity
  8
レイヤー_2
 62
     7
100
AcDbVertex
100
AcDb2dVertex
 10
171.053125
 20
206.895898
 30
0.0
  0
VERTEX
  5
3FC
100
AcDbEntity
  8
レイヤー_2
 62
     7
100
AcDbVertex
100
AcDb2dVertex
 10
170.898096
 20
206.883496
 30
0.0
  0
VERTEX
  5
3FD
100
AcDbEntity
  8
レイヤー_2
 62
     7
100
AcDbVertex
100
AcDb2dVertex
 10
170.670375
 20
206.865409
 30
0.0
  0
VERTEX
  5
3FE
100
AcDbEntity
  8
レイヤー_2
 62
     7
100
AcDbVertex
100
AcDb2dVertex
 10
170.380642
 20
206.842672
 30
0.0
  0
VERTEX
  5
3FF
100
AcDbEntity
  8
レイヤー_2
 62
     7
100
AcDbVertex
100
AcDb2dVertex
 10
170.036477
 20
206.815628
 30
0.0
  0
VERTEX
  5
400
100
AcDbEntity
  8
レイヤー_2
 62
     7
100
AcDbVertex
100
AcDb2dVertex
 10
169.650282
 20
206.785483
 30
0.0
  0
VERTEX
  5
401
100
AcDbEntity
  8
レイヤー_2
 62
     7
100
AcDbVertex
100
AcDb2dVertex
 10
169.235837
 20
206.752582
 30
0.0
  0
VERTEX
  5
402
100
AcDbEntity
  8
レイヤー_2
 62
     7
100
AcDbVertex
100
AcDb2dVertex
 10
168.806578
 20
206.718648
 30
0.0
  0
SEQEND
  5
403
100
AcDbEntity
  8
レイヤー_2
 62
     7
  0
SPLINE
  5
3F7
100
AcDbEntity
  8
レイヤー_2
 62
     7
100
AcDbSpline
210
0.0
220
0.0
230
1.0
 70
     8
 71
     3
 72
    11
 73
     7
 74
     0
 42
0.00000001
 43
0.00000001
 40
0.0
 40
0.0
 40
0.0
 40
0.0
 40
1.0
 40
1.0
 40
1.0
 40
2.0
 40
2.0
 40
2.0
 40
2.0
 10
128.39216308593748
 20
185.1830118815104
 30
0.0
 10
128.84037000868054
 20
186.14298773871525
 30
0.0
 10
129.28788791232637
 20
187.10348036024303
 30
0.0
 10
129.73575032552083
 20
188.0638007269965
 30
0.0
 10
129.87665473090277
 20
188.36507432725693
 30
0.0
 10
130.01721462673609
 20
188.66686469184026
 30
0.0
 10
130.15777452256944
 20
188.96865505642359
 30
0.0
  0
SPLINE
  5
3F6
100
AcDbEntity
  8
レイヤー_2
 62
     7
100
AcDbSpline
210
0.0
220
0.0
230
1.0
 70
     8
 71
     3
 72
    11
 73
     7
 74
     0
 42
0.00000001
 43
0.00000001
 40
0.0
 40
0.0
 40
0.0
 40
0.0
 40
1.0
 40
1.0
 40
1.0
 40
2.0
 40
2.0
 40
2.0
 40
2.0
 10
132.67166069878471
 20
194.35988498263887
 30
0.0
 10
133.52191026475694
 20
196.18389078776039
 30
0.0
 10
134.37250434027777
 20
198.00669080946179
 30
0.0
 10
135.22275390624998
 20
199.83017985026041
 30
0.0
 10
137.05106608072916
 20
203.7527655707465
 30
0.0
 10
138.88041178385416
 20
207.675006781684
 30
0.0
 10
140.70941297743053
 20
211.5972479926215
 30
0.0
  0
SPLINE
  5
3F5
100
AcDbEntity
  8
レイヤー_2
 62
     7
100
AcDbSpline
210
0.0
220
0.0
230
1.0
 70
     8
 71
     3
 72
    11
 73
     7
 74
     0
 42
0.00000001
 43
0.00000001
 40
0.0
 40
0.0
 40
0.0
 40
0.0
 40
1.0
 40
1.0
 40
1.0
 40
2.0
 40
2.0
 40
2.0
 40
2.0
 10
148.65380316840276
 20
206.93069390190971
 30
0.0
 10
147.77978244357638
 20
207.44797498914929
 30
0.0
 10
146.90541720920137
 20
207.96473931206594
 30
0.0
 10
146.03070746527777
 20
208.48202039930553
 30
0.0
 10
144.31849500868054
 20
209.49384494357636
 30
0.0
 10
142.60662706163194
 20
210.50618625217012
 30
0.0
 10
140.89510362413193
 20
211.51852756076386
 30
0.0
  0
SPLINE
  5
3F4
100
AcDbEntity
  8
レイヤー_2
 62
     7
100
AcDbSpline
210
0.0
220
0.0
230
1.0
 70
     8
 71
     3
 72
     8
 73
     4
 74
     0
 42
0.00000001
 43
0.00000001
 40
0.0
 40
0.0
 40
0.0
 40
0.0
 40
1.0
 40
1.0
 40
1.0
 40
1.0
 10
140.87374403211805
 20
211.72161593967013
 30
0.0
 10
141.02567274305554
 20
211.72471652560762
 30
0.0
 10
141.17829047309027
 20
211.72661132812499
 30
0.0
 10
141.33228624131942
 20
211.72971191406248
 30
0.0
  0
SPLINE
  5
3F3
100
AcDbEntity
  8
レイヤー_2
 62
     7
100
AcDbSpline
210
0.0
220
0.0
230
1.0
 70
     8
 71
     3
 72
     8
 73
     4
 74
     0
 42
0.00000001
 43
0.00000001
 40
0.0
 40
0.0
 40
0.0
 40
0.0
 40
1.0
 40
1.0
 40
1.0
 40
1.0
 10
140.90440538194443
 20
211.53919813368054
 30
0.0
 10
140.84067111545139
 20
211.5689982096354
 30
0.0
 10
140.77659233940972
 20
211.59897054036458
 30
0.0
 10
140.72215983072914
 20
211.62377522786457
 30
0.0
  0
SPLINE
  5
3F2
100
AcDbEntity
  8
レイヤー_2
 62
     7
100
AcDbSpline
210
0.0
220
0.0
230
1.0
 70
     8
 71
     3
 72
     8
 73
     4
 74
     0
 42
0.00000001
 43
0.00000001
 40
0.0
 40
0.0
 40
0.0
 40
0.0
 40
1.0
 40
1.0
 40
1.0
 40
1.0
 10
140.70941297743053
 20
211.5972479926215
 30
0.0
 10
140.71389160156249
 20
211.6060329861111
 30
0.0
 10
140.71768120659721
 20
211.61481797960067
 30
0.0
 10
140.72215983072914
 20
211.62377522786457
 30
0.0
  0
SPLINE
  5
3F1
100
AcDbEntity
  8
レイヤー_2
 62
     7
100
AcDbSpline
210
0.0
220
0.0
230
1.0
 70
     8
 71
     3
 72
     8
 73
     4
 74
     0
 42
0.00000001
 43
0.00000001
 40
0.0
 40
0.0
 40
0.0
 40
0.0
 40
1.0
 40
1.0
 40
1.0
 40
1.0
 10
140.87374403211805
 20
211.72161593967013
 30
0.0
 10
140.80656467013887
 20
211.72023790147568
 30
0.0
 10
140.74937608506943
 20
211.68079155815971
 30
0.0
 10
140.72215983072914
 20
211.62377522786457
 30
0.0
  0
SPLINE
  5
3F0
100
AcDbEntity
  8
レイヤー_2
 62
     7
100
AcDbSpline
210
0.0
220
0.0
230
1.0
 70
     8
 71
     3
 72
    14
 73
    10
 74
     0
 42
0.00000001
 43
0.00000001
 40
0.0
 40
0.0
 40
0.0
 40
0.0
 40
1.0
 40
1.0
 40
1.0
 40
2.0
 40
2.0
 40
2.0
 40
3.0
 40
3.0
 40
3.0
 40
3.0
 10
141.33228624131942
 20
211.72971191406248
 30
0.0
 10
145.66001519097222
 20
211.80533175998261
 30
0.0
 10
149.98774414062498
 20
211.88060709635414
 30
0.0
 10
154.31581759982637
 20
211.9565714518229
 30
0.0
 10
158.64389105902777
 20
212.03167453342013
 30
0.0
 10
162.97196451822916
 20
212.10763888888886
 30
0.0
 10
167.30003797743055
 20
212.18325873480902
 30
0.0
 10
169.72366265190971
 20
212.22511664496525
 30
0.0
 10
172.14728732638886
 20
212.26749131944442
 30
0.0
 10
174.57160101996527
 20
212.30969373914928
 30
0.0
  0
SPLINE
  5
3EF
100
AcDbEntity
  8
レイヤー_2
 62
     7
100
AcDbSpline
210
0.0
220
0.0
230
1.0
 70
     8
 71
     3
 72
    11
 73
     7
 74
     0
 42
0.00000001
 43
0.00000001
 40
0.0
 40
0.0
 40
0.0
 40
0.0
 40
1.0
 40
1.0
 40
1.0
 40
2.0
 40
2.0
 40
2.0
 40
2.0
 10
174.74454481336804
 20
212.13950602213541
 30
0.0
 10
174.74454481336804
 20
212.23355712890623
 30
0.0
 10
174.66806369357639
 20
212.30969373914928
 30
0.0
 10
174.57401258680554
 20
212.30969373914928
 30
0.0
 10
174.57263454861109
 20
212.30969373914928
 30
0.0
 10
174.57194552951387
 20
212.30969373914928
 30
0.0
 10
174.57160101996527
 20
212.30969373914928
 30
0.0
  0
SPLINE
  5
3EE
100
AcDbEntity
  8
レイヤー_2
 62
     7
100
AcDbSpline
210
0.0
220
0.0
230
1.0
 70
     8
 71
     3
 72
     8
 73
     4
 74
     0
 42
0.00000001
 43
0.00000001
 40
0.0
 40
0.0
 40
0.0
 40
0.0
 40
1.0
 40
1.0
 40
1.0
 40
1.0
 10
174.72869737413194
 20
212.06733127170136
 30
0.0
 10
174.73937717013888
 20
212.09075792100691
 30
0.0
 10
174.74488932291666
 20
212.11625162760416
 30
0.0
 10
174.74454481336804
 20
212.13950602213541
 30
0.0
  0
SPLINE
  5
3ED
100
AcDbEntity
  8
レイヤー_2
 62
     7
100
AcDbSpline
210
0.0
220
0.0
230
1.0
 70
     8
 71
     3
 72
    11
 73
     7
 74
     0
 42
0.00000001
 43
0.00000001
 40
0.0
 40
0.0
 40
0.0
 40
0.0
 40
1.0
 40
1.0
 40
1.0
 40
2.0
 40
2.0
 40
2.0
 40
2.0
 10
174.72869737413194
 20
212.06733127170136
 30
0.0
 10
174.48926323784721
 20
211.55573459201386
 30
0.0
 10
174.25120713975693
 20
211.04413791232636
 30
0.0
 10
174.01246202256942
 20
210.53271348741316
 30
0.0
 10
173.77371690538192
 20
210.02042778862847
 30
0.0
 10
173.53497178819444
 20
209.50865885416664
 30
0.0
 10
173.29622667100693
 20
208.99671766493054
 30
0.0
  0
SPLINE
  5
3EC
100
AcDbEntity
  8
レイヤー_2
 62
     7
100
AcDbSpline
210
0.0
220
0.0
230
1.0
 70
     8
 71
     3
 72
    14
 73
    10
 74
     0
 42
0.00000001
 43
0.00000001
 40
0.0
 40
0.0
 40
0.0
 40
0.0
 40
1.0
 40
1.0
 40
1.0
 40
2.0
 40
2.0
 40
2.0
 40
3.0
 40
3.0
 40
3.0
 40
3.0
 10
148.62348632812498
 20
206.64233940972221
 30
0.0
 10
146.79482964409721
 20
202.72044270833331
 30
0.0
 10
144.96617296006943
 20
198.79837375217011
 30
0.0
 10
143.13717176649305
 20
194.87596028645831
 30
0.0
 10
142.22249891493055
 20
192.91483968098956
 30
0.0
 10
141.30748155381943
 20
190.95354682074651
 30
0.0
 10
140.39280870225693
 20
188.99242621527776
 30
0.0
 10
139.76166720920136
 20
187.639020453559
 30
0.0
 10
139.1301812065972
 20
186.28475341796874
 30
0.0
 10
138.49938422309026
 20
184.93169216579858
 30
0.0
  0
SPLINE
  5
3EB
100
AcDbEntity
  8
レイヤー_2
 62
     7
100
AcDbSpline
210
0.0
220
0.0
230
1.0
 70
     8
 71
     3
 72
    11
 73
     7
 74
     0
 42
0.00000001
 43
0.00000001
 40
0.0
 40
0.0
 40
0.0
 40
0.0
 40
1.0
 40
1.0
 40
1.0
 40
2.0
 40
2.0
 40
2.0
 40
2.0
 10
173.15497775607636
 20
208.89870469835068
 30
0.0
 10
169.15522189670136
 20
208.58365071614583
 30
0.0
 10
165.15408799913192
 20
208.26911349826386
 30
0.0
 10
161.15398763020832
 20
207.95440402560763
 30
0.0
 10
157.15388726128469
 20
207.63935004340277
 30
0.0
 10
153.15309787326387
 20
207.32429606119788
 30
0.0
 10
149.15230848524305
 20
207.00941433376735
 30
0.0
  0
SPLINE
  5
3EA
100
AcDbEntity
  8
レイヤー_2
 62
     7
100
AcDbSpline
210
0.0
220
0.0
230
1.0
 70
     8
 71
     3
 72
     8
 73
     4
 74
     0
 42
0.00000001
 43
0.00000001
 40
0.0
 40
0.0
 40
0.0
 40
0.0
 40
1.0
 40
1.0
 40
1.0
 40
1.0
 10
173.15497775607636
 20
208.89870469835068
 30
0.0
 10
173.21871202256943
 20
208.90404459635414
 30
0.0
 10
173.27073296440972
 20
208.94228515624999
 30
0.0
 10
173.29622667100693
 20
208.99671766493054
 30
0.0
  0
SPLINE
  5
3E9
100
AcDbEntity
  8
レイヤー_2
 62
     7
100
AcDbSpline
210
0.0
220
0.0
230
1.0
 70
     8
 71
     3
 72
     8
 73
     4
 74
     0
 42
0.00000001
 43
0.00000001
 40
0.0
 40
0.0
 40
0.0
 40
0.0
 40
1.0
 40
1.0
 40
1.0
 40
1.0
 10
149.15230848524305
 20
207.00941433376735
 30
0.0
 10
149.07548285590278
 20
207.00355767144094
 30
0.0
 10
149.00279134114581
 20
206.98409288194443
 30
0.0
 10
148.93388943142361
 20
206.95257025824651
 30
0.0
  0
SPLINE
  5
3E8
100
AcDbEntity
  8
レイヤー_2
 62
     7
100
AcDbSpline
210
0.0
220
0.0
230
1.0
 70
     8
 71
     3
 72
     8
 73
     4
 74
     0
 42
0.00000001
 43
0.00000001
 40
0.0
 40
0.0
 40
0.0
 40
0.0
 40
1.0
 40
1.0
 40
1.0
 40
1.0
 10
148.74509819878472
 20
206.81872829861109
 30
0.0
 10
148.72201605902777
 20
206.86403130425344
 30
0.0
 10
148.68963216145832
 20
206.9026163736979
 30
0.0
 10
148.65380316840276
 20
206.93069390190971
 30
0.0
  0
SPLINE
  5
3E7
100
AcDbEntity
  8
レイヤー_2
 62
     7
100
AcDbSpline
210
0.0
220
0.0
230
1.0
 70
     8
 71
     3
 72
     8
 73
     4
 74
     0
 42
0.00000001
 43
0.00000001
 40
0.0
 40
0.0
 40
0.0
 40
0.0
 40
1.0
 40
1.0
 40
1.0
 40
1.0
 10
148.74509819878472
 20
206.81872829861109
 30
0.0
 10
148.69479980468748
 20
206.76722412109373
 30
0.0
 10
148.65449218749998
 20
206.70865749782985
 30
0.0
 10
148.62348632812498
 20
206.64233940972221
 30
0.0
  0
SPLINE
  5
3E6
100
AcDbEntity
  8
レイヤー_2
 62
     7
100
AcDbSpline
210
0.0
220
0.0
230
1.0
 70
     8
 71
     3
 72
    11
 73
     7
 74
     0
 42
0.00000001
 43
0.00000001
 40
0.0
 40
0.0
 40
0.0
 40
0.0
 40
1.0
 40
1.0
 40
1.0
 40
2.0
 40
2.0
 40
2.0
 40
2.0
 10
148.93388943142361
 20
206.95257025824651
 30
0.0
 10
148.89840494791665
 20
206.93568929036456
 30
0.0
 10
148.86498752170138
 20
206.91674126519095
 30
0.0
 10
148.83363715277775
 20
206.89452039930555
 30
0.0
 10
148.80263129340275
 20
206.87195502387152
 30
0.0
 10
148.7730034722222
 20
206.8468058268229
 30
0.0
 10
148.74509819878472
 20
206.81872829861109
 30
0.0
  0
LINE
  5
3E5
100
AcDbEntity
  8
レイヤー_2
 62
     7
100
AcDbLine
 10
127.007924
 20
185.175949
 30
0.0
 11
127.007924
 21
185.150628
 31
0.0
  0
SPLINE
  5
3E4
100
AcDbEntity
  8
レイヤー_2
 62
     7
100
AcDbSpline
210
0.0
220
0.0
230
1.0
 70
     8
 71
     3
 72
     8
 73
     4
 74
     0
 42
0.00000001
 43
0.00000001
 40
0.0
 40
0.0
 40
0.0
 40
0.0
 40
1.0
 40
1.0
 40
1.0
 40
1.0
 10
137.8589409722222
 20
175.5090115017361
 30
0.0
 10
137.83482530381943
 20
175.5090115017361
 30
0.0
 10
137.81346571180555
 20
175.50126003689235
 30
0.0
 10
137.79589572482638
 20
175.48799641927081
 30
0.0
  0
LINE
  5
3E3
100
AcDbEntity
  8
レイヤー_2
 62
     7
100
AcDbLine
 10
136.785105
 20
175.402386
 30
0.0
 11
136.756855
 21
175.402386
 31
0.0
  0
SPLINE
  5
3E2
100
AcDbEntity
  8
レイヤー_2
 62
     7
100
AcDbSpline
210
0.0
220
0.0
230
1.0
 70
     8
 71
     3
 72
     8
 73
     4
 74
     0
 42
0.00000001
 43
0.00000001
 40
0.0
 40
0.0
 40
0.0
 40
0.0
 40
1.0
 40
1.0
 40
1.0
 40
1.0
 10
136.74479709201387
 20
174.04191758897568
 30
0.0
 10
136.74479709201387
 20
174.03244357638889
 30
0.0
 10
136.74824218749998
 20
174.02417534722221
 30
0.0
 10
136.75409884982636
 20
174.0181464301215
 30
0.0
  0
LINE
  5
3E1
100
AcDbEntity
  8
レイヤー_2
 62
     7
100
AcDbLine
 10
137.844127
 20
175.082681
 30
0.0
 11
136.785105
 21
175.082681
 31
0.0
  0
SPLINE
  5
3E0
100
AcDbEntity
  8
レイヤー_2
 62
     7
100
AcDbSpline
210
0.0
220
0.0
230
1.0
 70
     8
 71
     3
 72
     8
 73
     4
 74
     0
 42
0.00000001
 43
0.00000001
 40
0.0
 40
0.0
 40
0.0
 40
0.0
 40
1.0
 40
1.0
 40
1.0
 40
1.0
 10
137.79313964843749
 20
175.1898234049479
 30
0.0
 10
137.80898708767359
 20
175.15606146918401
 30
0.0
 10
137.82621256510416
 20
175.11850992838541
 30
0.0
 10
137.84412706163192
 20
175.08268093532985
 30
0.0
  0
POLYLINE
  5
3DB
100
AcDbEntity
  8
レイヤー_2
 62
     7
100
AcDb2dPolyline
 66
     1
 10
0.0
 20
0.0
 30
0.0
  0
VERTEX
  5
3DC
100
AcDbEntity
  8
レイヤー_2
 62
     7
100
AcDbVertex
100
AcDb2dVertex
 10
137.673595
 20
175.189479
 30
0.0
  0
VERTEX
  5
3DD
100
AcDbEntity
  8
レイヤー_2
 62
     7
100
AcDbVertex
100
AcDb2dVertex
 10
137.670839
 20
175.189134
 30
0.0
  0
VERTEX
  5
3DE
100
AcDbEntity
  8
レイヤー_2
 62
     7
100
AcDbVertex
100
AcDb2dVertex
 10
137.651546
 20
175.185862
 30
0.0
  0
SEQEND
  5
3DF
100
AcDbEntity
  8
レイヤー_2
 62
     7
  0
POLYLINE
  5
3D6
100
AcDbEntity
  8
レイヤー_2
 62
     7
100
AcDb2dPolyline
 66
     1
 10
0.0
 20
0.0
 30
0.0
  0
VERTEX
  5
3D7
100
AcDbEntity
  8
レイヤー_2
 62
     7
100
AcDbVertex
100
AcDb2dVertex
 10
136.754099
 20
174.018146
 30
0.0
  0
VERTEX
  5
3D8
100
AcDbEntity
  8
レイヤー_2
 62
     7
100
AcDbVertex
100
AcDb2dVertex
 10
136.734117
 20
174.020213
 30
0.0
  0
VERTEX
  5
3D9
100
AcDbEntity
  8
レイヤー_2
 62
     7
100
AcDbVertex
100
AcDb2dVertex
 10
136.716203
 20
174.025209
 30
0.0
  0
SEQEND
  5
3DA
100
AcDbEntity
  8
レイヤー_2
 62
     7
  0
LINE
  5
3D5
100
AcDbEntity
  8
レイヤー_2
 62
     7
100
AcDbLine
 10
93.149525
 20
184.73446
 30
0.0
 11
94.852953
 21
184.73446
 31
0.0
  0
LINE
  5
3D4
100
AcDbEntity
  8
レイヤー_2
 62
     7
100
AcDbLine
 10
92.829993
 20
185.372492
 30
0.0
 11
92.829993
 21
185.158207
 31
0.0
  0
LINE
  5
3D3
100
AcDbEntity
  8
レイヤー_2
 62
     7
100
AcDbLine
 10
95.172485
 20
185.158207
 30
0.0
 11
95.172485
 21
185.372492
 31
0.0
  0
SPLINE
  5
3D2
100
AcDbEntity
  8
レイヤー_2
 62
     7
100
AcDbSpline
210
0.0
220
0.0
230
1.0
 70
     8
 71
     3
 72
     8
 73
     4
 74
     0
 42
0.00000001
 43
0.00000001
 40
0.0
 40
0.0
 40
0.0
 40
0.0
 40
1.0
 40
1.0
 40
1.0
 40
1.0
 10
99.830426703559013
 20
184.96683213975692
 30
0.0
 10
99.82922092013888
 20
185.05933295355902
 30
0.0
 10
99.753945583767347
 20
185.13305799696178
 30
0.0
 10
99.66161702473957
 20
185.1339192708333
 30
0.0
  0
LINE
  5
3D1
100
AcDbEntity
  8
レイヤー_2
 62
     7
100
AcDbLine
 10
92.740248
 20
185.158207
 30
0.0
 11
88.340689
 21
185.133919
 31
0.0
  0
LINE
  5
3D0
100
AcDbEntity
  8
レイヤー_2
 62
     7
100
AcDbLine
 10
99.661617
 20
185.133919
 30
0.0
 11
95.26223
 21
185.158207
 31
0.0
  0
SPLINE
  5
3CF
100
AcDbEntity
  8
レイヤー_2
 62
     7
100
AcDbSpline
210
0.0
220
0.0
230
1.0
 70
     8
 71
     3
 72
     8
 73
     4
 74
     0
 42
0.00000001
 43
0.00000001
 40
0.0
 40
0.0
 40
0.0
 40
0.0
 40
1.0
 40
1.0
 40
1.0
 40
1.0
 10
88.340688747829859
 20
185.1339192708333
 30
0.0
 10
88.24801567925347
 20
185.13340250651041
 30
0.0
 10
88.17342936197916
 20
185.0589884440104
 30
0.0
 10
88.171879069010416
 20
184.96683213975692
 30
0.0
  0
LINE
  5
3CE
100
AcDbEntity
  8
レイヤー_2
 62
     7
100
AcDbLine
 10
99.687455
 20
183.348671
 30
0.0
 11
88.315023
 21
183.348671
 31
0.0
  0
LINE
  5
3CD
100
AcDbEntity
  8
レイヤー_2
 62
     7
100
AcDbLine
 10
99.793736
 20
183.348671
 30
0.0
 11
99.687455
 21
183.348671
 31
0.0
  0
SPLINE
  5
3CC
100
AcDbEntity
  8
レイヤー_2
 62
     7
100
AcDbSpline
210
0.0
220
0.0
230
1.0
 70
     8
 71
     3
 72
     8
 73
     4
 74
     0
 42
0.00000001
 43
0.00000001
 40
0.0
 40
0.0
 40
0.0
 40
0.0
 40
1.0
 40
1.0
 40
1.0
 40
1.0
 10
99.857642957899301
 20
183.41274956597221
 30
0.0
 10
99.857642957899301
 20
183.41274956597221
 30
0.0
 10
99.857642957899301
 20
183.41361083984373
 30
0.0
 10
99.857642957899301
 20
183.41429985894095
 30
0.0
  0
SPLINE
  5
3CB
100
AcDbEntity
  8
レイヤー_2
 62
     7
100
AcDbSpline
210
0.0
220
0.0
230
1.0
 70
     8
 71
     3
 72
     8
 73
     4
 74
     0
 42
0.00000001
 43
0.00000001
 40
0.0
 40
0.0
 40
0.0
 40
0.0
 40
1.0
 40
1.0
 40
1.0
 40
1.0
 10
99.793736436631931
 20
183.34867078993054
 30
0.0
 10
99.829393174913179
 20
183.34867078993054
 30
0.0
 10
99.857642957899301
 20
183.37760959201387
 30
0.0
 10
99.857642957899301
 20
183.41274956597221
 30
0.0
  0
LINE
  5
3CA
100
AcDbEntity
  8
レイヤー_2
 62
     7
100
AcDbLine
 10
88.315023
 20
183.348671
 30
0.0
 11
88.208569
 21
183.348671
 31
0.0
  0
SPLINE
  5
3C9
100
AcDbEntity
  8
レイヤー_2
 62
     7
100
AcDbSpline
210
0.0
220
0.0
230
1.0
 70
     8
 71
     3
 72
    14
 73
    10
 74
     0
 42
0.00000001
 43
0.00000001
 40
0.0
 40
0.0
 40
0.0
 40
0.0
 40
1.0
 40
1.0
 40
1.0
 40
2.0
 40
2.0
 40
2.0
 40
3.0
 40
3.0
 40
3.0
 40
3.0
 10
88.14483506944444
 20
183.41429985894095
 30
0.0
 10
88.14483506944444
 20
183.41361083984373
 30
0.0
 10
88.14483506944444
 20
183.41274956597221
 30
0.0
 10
88.14483506944444
 20
183.41274956597221
 30
0.0
 10
88.14483506944444
 20
183.37760959201387
 30
0.0
 10
88.17342936197916
 20
183.34867078993054
 30
0.0
 10
88.208569335937497
 20
183.34867078993054
 30
0.0
 10
88.208569335937497
 20
183.34867078993054
 30
0.0
 10
88.208569335937497
 20
183.34867078993054
 30
0.0
 10
88.208569335937497
 20
183.34867078993054
 30
0.0
  0
LINE
  5
3C8
100
AcDbEntity
  8
レイヤー_2
 62
     7
100
AcDbLine
 10
99.830943
 20
184.941683
 30
0.0
 11
99.857643
 21
183.4143
 31
0.0
  0
LINE
  5
3C7
100
AcDbEntity
  8
レイヤー_2
 62
     7
100
AcDbLine
 10
94.852953
 20
184.4151
 30
0.0
 11
94.852953
 21
184.73446
 31
0.0
  0
LINE
  5
3C6
100
AcDbEntity
  8
レイヤー_2
 62
     7
100
AcDbLine
 10
93.149525
 20
184.73446
 30
0.0
 11
93.149525
 21
184.4151
 31
0.0
  0
LINE
  5
3C5
100
AcDbEntity
  8
レイヤー_2
 62
     7
100
AcDbLine
 10
93.149525
 20
184.4151
 30
0.0
 11
94.852953
 21
184.4151
 31
0.0
  0
LINE
  5
3C4
100
AcDbEntity
  8
レイヤー_2
 62
     7
100
AcDbLine
 10
88.144835
 20
183.4143
 30
0.0
 11
88.171362
 21
184.941683
 31
0.0
  0
LINE
  5
3C3
100
AcDbEntity
  8
レイヤー_2
 62
     7
100
AcDbLine
 10
92.740248
 20
185.158207
 30
0.0
 11
95.26223
 21
185.158207
 31
0.0
  0
POLYLINE
  5
3BD
100
AcDbEntity
  8
レイヤー_2
 62
     7
100
AcDb2dPolyline
 66
     1
 10
0.0
 20
0.0
 30
0.0
  0
VERTEX
  5
3BE
100
AcDbEntity
  8
レイヤー_2
 62
     7
100
AcDbVertex
100
AcDb2dVertex
 10
99.662134
 20
185.109631
 30
0.0
  0
VERTEX
  5
3BF
100
AcDbEntity
  8
レイヤー_2
 62
     7
100
AcDbVertex
100
AcDb2dVertex
 10
99.662134
 20
185.120483
 30
0.0
  0
VERTEX
  5
3C0
100
AcDbEntity
  8
レイヤー_2
 62
     7
100
AcDbVertex
100
AcDb2dVertex
 10
99.661617
 20
185.128407
 30
0.0
  0
VERTEX
  5
3C1
100
AcDbEntity
  8
レイヤー_2
 62
     7
100
AcDbVertex
100
AcDb2dVertex
 10
99.661617
 20
185.133919
 30
0.0
  0
SEQEND
  5
3C2
100
AcDbEntity
  8
レイヤー_2
 62
     7
  0
LINE
  5
3BC
100
AcDbEntity
  8
レイヤー_2
 62
     7
100
AcDbLine
 10
99.112986
 20
172.071323
 30
0.0
 11
99.112986
 21
172.710044
 31
0.0
  0
LINE
  5
3BB
100
AcDbEntity
  8
レイヤー_2
 62
     7
100
AcDbLine
 10
88.88932
 20
172.710044
 30
0.0
 11
88.88932
 21
172.071323
 31
0.0
  0
LINE
  5
3BA
100
AcDbEntity
  8
レイヤー_2
 62
     7
100
AcDbLine
 10
88.88932
 20
172.071323
 30
0.0
 11
99.112986
 21
172.071323
 31
0.0
  0
LINE
  5
3B9
100
AcDbEntity
  8
レイヤー_2
 62
     7
100
AcDbLine
 10
88.88932
 20
172.710044
 30
0.0
 11
99.112986
 21
172.710044
 31
0.0
  0
LINE
  5
3B8
100
AcDbEntity
  8
レイヤー_2
 62
     7
100
AcDbLine
 10
89.208681
 20
172.071323
 30
0.0
 11
89.208681
 21
171.688401
 31
0.0
  0
LINE
  5
3B7
100
AcDbEntity
  8
レイヤー_2
 62
     7
100
AcDbLine
 10
98.79397
 20
171.688401
 30
0.0
 11
98.79397
 21
172.071323
 31
0.0
  0
LINE
  5
3B6
100
AcDbEntity
  8
レイヤー_2
 62
     7
100
AcDbLine
 10
94.001153
 20
171.688401
 30
0.0
 11
98.79397
 21
171.688401
 31
0.0
  0
LINE
  5
3B5
100
AcDbEntity
  8
レイヤー_2
 62
     7
100
AcDbLine
 10
89.208681
 20
171.688401
 30
0.0
 11
94.001153
 21
171.688401
 31
0.0
  0
LINE
  5
3B4
100
AcDbEntity
  8
レイヤー_2
 62
     7
100
AcDbLine
 10
94.001153
 20
172.071323
 30
0.0
 11
98.79397
 21
172.071323
 31
0.0
  0
LINE
  5
3B3
100
AcDbEntity
  8
レイヤー_2
 62
     7
100
AcDbLine
 10
89.208681
 20
172.071323
 30
0.0
 11
94.001153
 21
172.071323
 31
0.0
  0
LINE
  5
3B2
100
AcDbEntity
  8
レイヤー_2
 62
     7
100
AcDbLine
 10
89.847401
 20
171.688401
 30
0.0
 11
89.847401
 21
170.409926
 31
0.0
  0
LINE
  5
3B1
100
AcDbEntity
  8
レイヤー_2
 62
     7
100
AcDbLine
 10
98.155249
 20
170.409926
 30
0.0
 11
98.155249
 21
171.688401
 31
0.0
  0
LINE
  5
3B0
100
AcDbEntity
  8
レイヤー_2
 62
     7
100
AcDbLine
 10
92.168534
 20
171.688401
 30
0.0
 11
92.168534
 21
170.409926
 31
0.0
  0
LINE
  5
3AF
100
AcDbEntity
  8
レイヤー_2
 62
     7
100
AcDbLine
 10
92.168534
 20
171.688401
 30
0.0
 11
95.833255
 21
171.688401
 31
0.0
  0
LINE
  5
3AE
100
AcDbEntity
  8
レイヤー_2
 62
     7
100
AcDbLine
 10
95.833255
 20
171.688401
 30
0.0
 11
95.833255
 21
170.409926
 31
0.0
  0
LINE
  5
3AD
100
AcDbEntity
  8
レイヤー_2
 62
     7
100
AcDbLine
 10
92.168534
 20
170.409926
 30
0.0
 11
95.833255
 21
170.409926
 31
0.0
  0
LINE
  5
3AC
100
AcDbEntity
  8
レイヤー_2
 62
     7
100
AcDbLine
 10
92.168534
 20
170.409926
 30
0.0
 11
91.689149
 21
170.409926
 31
0.0
  0
LINE
  5
3AB
100
AcDbEntity
  8
レイヤー_2
 62
     7
100
AcDbLine
 10
91.689149
 20
171.688401
 30
0.0
 11
91.689149
 21
170.409926
 31
0.0
  0
LINE
  5
3AA
100
AcDbEntity
  8
レイヤー_2
 62
     7
100
AcDbLine
 10
92.168534
 20
171.688401
 30
0.0
 11
91.689149
 21
171.688401
 31
0.0
  0
LINE
  5
3A9
100
AcDbEntity
  8
レイヤー_2
 62
     7
100
AcDbLine
 10
96.313156
 20
171.688401
 30
0.0
 11
96.313156
 21
170.409926
 31
0.0
  0
LINE
  5
3A8
100
AcDbEntity
  8
レイヤー_2
 62
     7
100
AcDbLine
 10
96.313156
 20
170.409926
 30
0.0
 11
95.833255
 21
170.409926
 31
0.0
  0
LINE
  5
3A7
100
AcDbEntity
  8
レイヤー_2
 62
     7
100
AcDbLine
 10
96.313156
 20
171.688401
 30
0.0
 11
95.833255
 21
171.688401
 31
0.0
  0
LINE
  5
3A6
100
AcDbEntity
  8
レイヤー_2
 62
     7
100
AcDbLine
 10
98.145603
 20
171.688401
 30
0.0
 11
98.145603
 21
170.409926
 31
0.0
  0
LINE
  5
3A5
100
AcDbEntity
  8
レイヤー_2
 62
     7
100
AcDbLine
 10
96.313156
 20
170.409926
 30
0.0
 11
98.145603
 21
170.409926
 31
0.0
  0
LINE
  5
3A4
100
AcDbEntity
  8
レイヤー_2
 62
     7
100
AcDbLine
 10
96.313156
 20
171.688401
 30
0.0
 11
98.145603
 21
171.688401
 31
0.0
  0
LINE
  5
3A3
100
AcDbEntity
  8
レイヤー_2
 62
     7
100
AcDbLine
 10
89.856703
 20
171.688401
 30
0.0
 11
89.856703
 21
170.409926
 31
0.0
  0
LINE
  5
3A2
100
AcDbEntity
  8
レイヤー_2
 62
     7
100
AcDbLine
 10
91.689149
 20
170.409926
 30
0.0
 11
89.856703
 21
170.409926
 31
0.0
  0
LINE
  5
3A1
100
AcDbEntity
  8
レイヤー_2
 62
     7
100
AcDbLine
 10
91.689149
 20
171.688401
 30
0.0
 11
89.856703
 21
171.688401
 31
0.0
  0
LINE
  5
3A0
100
AcDbEntity
  8
レイヤー_2
 62
     7
100
AcDbLine
 10
89.856703
 20
170.409926
 30
0.0
 11
89.847401
 21
170.409926
 31
0.0
  0
LINE
  5
39F
100
AcDbEntity
  8
レイヤー_2
 62
     7
100
AcDbLine
 10
89.856703
 20
171.688401
 30
0.0
 11
89.847401
 21
171.688401
 31
0.0
  0
LINE
  5
39E
100
AcDbEntity
  8
レイヤー_2
 62
     7
100
AcDbLine
 10
98.155249
 20
170.409926
 30
0.0
 11
98.145603
 21
170.409926
 31
0.0
  0
LINE
  5
39D
100
AcDbEntity
  8
レイヤー_2
 62
     7
100
AcDbLine
 10
98.155249
 20
171.688401
 30
0.0
 11
98.145603
 21
171.688401
 31
0.0
  0
SPLINE
  5
39C
100
AcDbEntity
  8
レイヤー_2
 62
     7
100
AcDbSpline
210
0.0
220
0.0
230
1.0
 70
     8
 71
     3
 72
     8
 73
     4
 74
     0
 42
0.00000001
 43
0.00000001
 40
0.0
 40
0.0
 40
0.0
 40
0.0
 40
1.0
 40
1.0
 40
1.0
 40
1.0
 10
89.991233995225684
 20
183.34746500651039
 30
0.0
 10
90.047561306423603
 20
183.23928900824652
 30
0.0
 10
90.157976616753459
 20
183.17865532769096
 30
0.0
 10
90.273559570312486
 20
183.17727728949652
 30
0.0
  0
SPLINE
  5
39B
100
AcDbEntity
  8
レイヤー_2
 62
     7
100
AcDbSpline
210
0.0
220
0.0
230
1.0
 70
     8
 71
     3
 72
     8
 73
     4
 74
     0
 42
0.00000001
 43
0.00000001
 40
0.0
 40
0.0
 40
0.0
 40
0.0
 40
1.0
 40
1.0
 40
1.0
 40
1.0
 10
97.72857394748263
 20
183.17727728949652
 30
0.0
 10
97.851219346788184
 20
183.17727728949652
 30
0.0
 10
97.956467013888883
 20
183.24531792534719
 30
0.0
 10
98.011588541666654
 20
183.34746500651039
 30
0.0
  0
LINE
  5
39A
100
AcDbEntity
  8
レイヤー_2
 62
     7
100
AcDbLine
 10
90.27356
 20
183.177277
 30
0.0
 11
97.728574
 21
183.177277
 31
0.0
  0
LINE
  5
399
100
AcDbEntity
  8
レイヤー_2
 62
     7
100
AcDbLine
 10
90.824947
 20
183.177277
 30
0.0
 11
90.832871
 21
172.710044
 31
0.0
  0
SPLINE
  5
398
100
AcDbEntity
  8
レイヤー_2
 62
     7
100
AcDbSpline
210
0.0
220
0.0
230
1.0
 70
     8
 71
     3
 72
     8
 73
     4
 74
     0
 42
0.00000001
 43
0.00000001
 40
0.0
 40
0.0
 40
0.0
 40
0.0
 40
1.0
 40
1.0
 40
1.0
 40
1.0
 10
90.82494710286457
 20
170.40992567274304
 30
0.0
 10
90.82494710286457
 20
169.13007269965277
 30
0.0
 10
90.82494710286457
 20
168.68841145833332
 30
0.0
 10
90.82494710286457
 20
168.68841145833332
 30
0.0
  0
SPLINE
  5
397
100
AcDbEntity
  8
レイヤー_2
 62
     7
100
AcDbSpline
210
0.0
220
0.0
230
1.0
 70
     8
 71
     3
 72
     8
 73
     4
 74
     0
 42
0.00000001
 43
0.00000001
 40
0.0
 40
0.0
 40
0.0
 40
0.0
 40
1.0
 40
1.0
 40
1.0
 40
1.0
 10
97.177014160156247
 20
168.68841145833332
 30
0.0
 10
97.177014160156247
 20
168.68841145833332
 30
0.0
 10
97.177014160156247
 20
169.13007269965277
 30
0.0
 10
97.177014160156247
 20
170.40992567274304
 30
0.0
  0
LINE
  5
396
100
AcDbEntity
  8
レイヤー_2
 62
     7
100
AcDbLine
 10
97.167196
 20
172.710044
 30
0.0
 11
97.177014
 21
183.177277
 31
0.0
  0
SPLINE
  5
395
100
AcDbEntity
  8
レイヤー_2
 62
     7
100
AcDbSpline
210
0.0
220
0.0
230
1.0
 70
     8
 71
     3
 72
     8
 73
     4
 74
     0
 42
0.00000001
 43
0.00000001
 40
0.0
 40
0.0
 40
0.0
 40
0.0
 40
1.0
 40
1.0
 40
1.0
 40
1.0
 10
90.82494710286457
 20
170.40992567274304
 30
0.0
 10
90.82494710286457
 20
169.13007269965277
 30
0.0
 10
90.82494710286457
 20
168.68841145833332
 30
0.0
 10
90.82494710286457
 20
168.68841145833332
 30
0.0
  0
LINE
  5
394
100
AcDbEntity
  8
レイヤー_2
 62
     7
100
AcDbLine
 10
92.829993
 20
185.371286
 30
0.0
 11
92.829993
 21
185.158207
 31
0.0
  0
LINE
  5
393
100
AcDbEntity
  8
レイヤー_2
 62
     7
100
AcDbLine
 10
95.172485
 20
185.158207
 30
0.0
 11
95.172485
 21
185.371286
 31
0.0
  0
LINE
  5
392
100
AcDbEntity
  8
レイヤー_2
 62
     7
100
AcDbLine
 10
90.805999
 20
163.431368
 30
0.0
 11
90.805999
 21
162.792475
 31
0.0
  0
LINE
  5
391
100
AcDbEntity
  8
レイヤー_2
 62
     7
100
AcDbLine
 10
97.196479
 20
162.792475
 30
0.0
 11
97.196479
 21
163.431368
 31
0.0
  0
LINE
  5
390
100
AcDbEntity
  8
レイヤー_2
 62
     7
100
AcDbLine
 10
98.261186
 20
163.431368
 30
0.0
 11
98.261186
 21
168.543717
 31
0.0
  0
SPLINE
  5
38F
100
AcDbEntity
  8
レイヤー_2
 62
     7
100
AcDbSpline
210
0.0
220
0.0
230
1.0
 70
     8
 71
     3
 72
    23
 73
    19
 74
     0
 42
0.00000001
 43
0.00000001
 40
0.0
 40
0.0
 40
0.0
 40
0.0
 40
1.0
 40
1.0
 40
1.0
 40
2.0
 40
2.0
 40
2.0
 40
3.0
 40
3.0
 40
3.0
 40
4.0
 40
4.0
 40
4.0
 40
5.0
 40
5.0
 40
5.0
 40
6.0
 40
6.0
 40
6.0
 40
6.0
 10
89.525973849826386
 20
163.64238009982637
 30
0.0
 10
89.543888346354152
 20
163.64220784505207
 30
0.0
 10
89.562491861979154
 20
163.64220784505207
 30
0.0
 10
89.579889594184024
 20
163.63824598524303
 30
0.0
 10
89.605383300781241
 20
163.6335951063368
 30
0.0
 10
89.628809950086804
 20
163.62188178168401
 30
0.0
 10
89.650341796874997
 20
163.60655110677081
 30
0.0
 10
89.671012369791654
 20
163.59156494140623
 30
0.0
 10
89.688926866319434
 20
163.57433946397569
 30
0.0
 10
89.703051757812489
 20
163.55315212673611
 30
0.0
 10
89.714076063368054
 20
163.53747694227428
 30
0.0
 10
89.723550075954847
 20
163.51939019097222
 30
0.0
 10
89.730095757378464
 20
163.5006144205729
 30
0.0
 10
89.735607910156247
 20
163.4847669813368
 30
0.0
 10
89.739397515190959
 20
163.46805826822916
 30
0.0
 10
89.740603298611106
 20
163.45152180989581
 30
0.0
 10
89.740603298611106
 20
163.45152180989581
 30
0.0
 10
89.740603298611106
 20
163.43085123697915
 30
0.0
 10
89.740603298611106
 20
163.43085123697915
 30
0.0
  0
SPLINE
  5
38E
100
AcDbEntity
  8
レイヤー_2
 62
     7
100
AcDbSpline
210
0.0
220
0.0
230
1.0
 70
     8
 71
     3
 72
    20
 73
    16
 74
     0
 42
0.00000001
 43
0.00000001
 40
0.0
 40
0.0
 40
0.0
 40
0.0
 40
1.0
 40
1.0
 40
1.0
 40
2.0
 40
2.0
 40
2.0
 40
3.0
 40
3.0
 40
3.0
 40
4.0
 40
4.0
 40
4.0
 40
5.0
 40
5.0
 40
5.0
 40
5.0
 10
89.73922526041666
 20
168.53613823784721
 30
0.0
 10
89.73922526041666
 20
168.52580295138887
 30
0.0
 10
89.73922526041666
 20
168.51546766493055
 30
0.0
 10
89.737330457899304
 20
168.50564914279514
 30
0.0
 10
89.734746636284711
 20
168.48205023871526
 30
0.0
 10
89.725961642795127
 20
168.45879584418401
 30
0.0
 10
89.712698025173609
 20
168.43778076171873
 30
0.0
 10
89.699778917100687
 20
168.41607666015622
 30
0.0
 10
89.683931477864576
 20
168.39712863498264
 30
0.0
 10
89.665155707465274
 20
168.38076443142359
 30
0.0
 10
89.645518663194437
 20
168.36388346354164
 30
0.0
 10
89.622436523437486
 20
168.35010308159721
 30
0.0
 10
89.598320855034714
 20
168.34235161675346
 30
0.0
 10
89.576789008246521
 20
168.33597819010416
 30
0.0
 10
89.554740397135404
 20
168.33391113281249
 30
0.0
 10
89.532519531249989
 20
168.3313273111979
 30
0.0
  0
LINE
  5
38D
100
AcDbEntity
  8
レイヤー_2
 62
     7
100
AcDbLine
 10
89.314962
 20
163.644447
 30
0.0
 11
89.528041
 21
163.644447
 31
0.0
  0
LINE
  5
38C
100
AcDbEntity
  8
レイヤー_2
 62
     7
100
AcDbLine
 10
89.534587
 20
168.330983
 30
0.0
 11
89.314962
 21
168.330983
 31
0.0
  0
LINE
  5
38B
100
AcDbEntity
  8
レイヤー_2
 62
     7
100
AcDbLine
 10
86.865499
 20
168.202653
 30
0.0
 11
86.759218
 21
168.096372
 31
0.0
  0
LINE
  5
38A
100
AcDbEntity
  8
レイヤー_2
 62
     7
100
AcDbLine
 10
86.759218
 20
163.878714
 30
0.0
 11
86.865499
 21
163.772088
 31
0.0
  0
LINE
  5
389
100
AcDbEntity
  8
レイヤー_2
 62
     7
100
AcDbLine
 10
86.865499
 20
163.772088
 30
0.0
 11
89.314962
 21
163.772088
 31
0.0
  0
LINE
  5
388
100
AcDbEntity
  8
レイヤー_2
 62
     7
100
AcDbLine
 10
89.314962
 20
168.202653
 30
0.0
 11
86.865499
 21
168.202653
 31
0.0
  0
LINE
  5
387
100
AcDbEntity
  8
レイヤー_2
 62
     7
100
AcDbLine
 10
90.824947
 20
168.688411
 30
0.0
 11
90.97033
 21
168.543717
 31
0.0
  0
LINE
  5
386
100
AcDbEntity
  8
レイヤー_2
 62
     7
100
AcDbLine
 10
97.031803
 20
168.543717
 30
0.0
 11
97.177014
 21
168.688411
 31
0.0
  0
LINE
  5
385
100
AcDbEntity
  8
レイヤー_2
 62
     7
100
AcDbLine
 10
90.91228
 20
194.31751
 30
0.0
 11
97.089853
 21
194.31751
 31
0.0
  0
SPLINE
  5
384
100
AcDbEntity
  8
レイヤー_2
 62
     7
100
AcDbSpline
210
0.0
220
0.0
230
1.0
 70
     8
 71
     3
 72
     8
 73
     4
 74
     0
 42
0.00000001
 43
0.00000001
 40
0.0
 40
0.0
 40
0.0
 40
0.0
 40
1.0
 40
1.0
 40
1.0
 40
1.0
 10
90.912280273437489
 20
194.31751030815971
 30
0.0
 10
90.853885904947902
 20
194.31751030815971
 30
0.0
 10
90.80599907769097
 20
194.26945122612847
 30
0.0
 10
90.80599907769097
 20
194.21122911241318
 30
0.0
  0
SPLINE
  5
383
100
AcDbEntity
  8
レイヤー_2
 62
     7
100
AcDbSpline
210
0.0
220
0.0
230
1.0
 70
     8
 71
     3
 72
     8
 73
     4
 74
     0
 42
0.00000001
 43
0.00000001
 40
0.0
 40
0.0
 40
0.0
 40
0.0
 40
1.0
 40
1.0
 40
1.0
 40
1.0
 10
97.196478949652771
 20
194.21122911241318
 30
0.0
 10
97.196478949652771
 20
194.26945122612847
 30
0.0
 10
97.148419867621513
 20
194.31751030815971
 30
0.0
 10
97.089853244357627
 20
194.31751030815971
 30
0.0
  0
LINE
  5
382
100
AcDbEntity
  8
レイヤー_2
 62
     7
100
AcDbLine
 10
97.089853
 20
185.371286
 30
0.0
 11
90.91228
 21
185.371286
 31
0.0
  0
LINE
  5
381
100
AcDbEntity
  8
レイヤー_2
 62
     7
100
AcDbLine
 10
97.196479
 20
194.211229
 30
0.0
 11
97.196479
 21
185.371286
 31
0.0
  0
LINE
  5
380
100
AcDbEntity
  8
レイヤー_2
 62
     7
100
AcDbLine
 10
97.196479
 20
185.371286
 30
0.0
 11
97.089853
 21
185.371286
 31
0.0
  0
LINE
  5
37F
100
AcDbEntity
  8
レイヤー_2
 62
     7
100
AcDbLine
 10
90.805999
 20
185.371286
 30
0.0
 11
90.805999
 21
194.211229
 31
0.0
  0
LINE
  5
37E
100
AcDbEntity
  8
レイヤー_2
 62
     7
100
AcDbLine
 10
90.91228
 20
185.371286
 30
0.0
 11
90.805999
 21
185.371286
 31
0.0
  0
LINE
  5
37D
100
AcDbEntity
  8
レイヤー_2
 62
     7
100
AcDbLine
 10
93.149525
 20
184.412344
 30
0.0
 11
94.852953
 21
184.412344
 31
0.0
  0
LINE
  5
37C
100
AcDbEntity
  8
レイヤー_2
 62
     7
100
AcDbLine
 10
93.149525
 20
184.732221
 30
0.0
 11
93.149525
 21
184.412344
 31
0.0
  0
LINE
  5
37B
100
AcDbEntity
  8
レイヤー_2
 62
     7
100
AcDbLine
 10
94.852953
 20
184.412344
 30
0.0
 11
94.852953
 21
184.732221
 31
0.0
  0
LINE
  5
37A
100
AcDbEntity
  8
レイヤー_2
 62
     7
100
AcDbLine
 10
94.852953
 20
184.732221
 30
0.0
 11
93.149525
 21
184.732221
 31
0.0
  0
LINE
  5
379
100
AcDbEntity
  8
レイヤー_2
 62
     7
100
AcDbLine
 10
90.805999
 20
162.792475
 30
0.0
 11
97.196479
 21
162.792475
 31
0.0
  0
SPLINE
  5
378
100
AcDbEntity
  8
レイヤー_2
 62
     7
100
AcDbSpline
210
0.0
220
0.0
230
1.0
 70
     8
 71
     3
 72
    50
 73
    46
 74
     0
 42
0.00000001
 43
0.00000001
 40
0.0
 40
0.0
 40
0.0
 40
0.0
 40
1.0
 40
1.0
 40
1.0
 40
2.0
 40
2.0
 40
2.0
 40
3.0
 40
3.0
 40
3.0
 40
4.0
 40
4.0
 40
4.0
 40
5.0
 40
5.0
 40
5.0
 40
6.0
 40
6.0
 40
6.0
 40
7.0
 40
7.0
 40
7.0
 40
8.0
 40
8.0
 40
8.0
 40
9.0
 40
9.0
 40
9.0
 40
10.0
 40
10.0
 40
10.0
 40
11.0
 40
11.0
 40
11.0
 40
12.0
 40
12.0
 40
12.0
 40
13.0
 40
13.0
 40
13.0
 40
14.0
 40
14.0
 40
14.0
 40
15.0
 40
15.0
 40
15.0
 40
15.0
 10
89.740947808159717
 20
168.54371744791666
 30
0.0
 10
89.740947808159717
 20
168.54371744791666
 30
0.0
 10
89.744909667968741
 20
168.53734402126736
 30
0.0
 10
89.7499050564236
 20
168.52735324435761
 30
0.0
 10
89.757828776041663
 20
168.51219482421874
 30
0.0
 10
89.775226508246519
 20
168.48101671006944
 30
0.0
 10
89.797619628906247
 20
168.43933105468747
 30
0.0
 10
89.820529513888886
 20
168.39437255859374
 30
0.0
 10
89.850501844618051
 20
168.33856201171872
 30
0.0
 10
89.88409152560763
 20
168.27086588541664
 30
0.0
 10
89.917336697048597
 20
168.20403103298611
 30
0.0
 10
89.955577256944437
 20
168.12617187499998
 30
0.0
 10
89.996229383680543
 20
168.03952772352429
 30
0.0
 10
90.037226019965274
 20
167.950299750434
 30
0.0
 10
90.081840006510404
 20
167.8503919813368
 30
0.0
 10
90.126281738281236
 20
167.74290500217012
 30
0.0
 10
90.202246093749991
 20
167.55790337456597
 30
0.0
 10
90.279588487413193
 20
167.34671902126735
 30
0.0
 10
90.343322753906236
 20
167.11744791666666
 30
0.0
 10
90.401372612847211
 20
166.90953640407986
 30
0.0
 10
90.44943169487847
 20
166.68629421657985
 30
0.0
 10
90.476475694444431
 20
166.45581732855902
 30
0.0
 10
90.492495388454856
 20
166.32714301215276
 30
0.0
 10
90.501969401041663
 20
166.19571261935764
 30
0.0
 10
90.504036458333331
 20
166.06497124565971
 30
0.0
 10
90.506964789496521
 20
165.92854546440969
 30
0.0
 10
90.502486165364573
 20
165.79246419270831
 30
0.0
 10
90.49111735026041
 20
165.65810546874999
 30
0.0
 10
90.478198242187489
 20
165.50721028645833
 30
0.0
 10
90.456494140624997
 20
165.35803765190971
 30
0.0
 10
90.428072102864576
 20
165.2150661892361
 30
0.0
 10
90.399305555555543
 20
165.06572129991318
 30
0.0
 10
90.362787543402774
 20
164.92206081814234
 30
0.0
 10
90.322135416666654
 20
164.78494601779514
 30
0.0
 10
90.24789360894097
 20
164.53328179253469
 30
0.0
 10
90.159010145399293
 20
164.30487196180553
 30
0.0
 10
90.074433051215266
 20
164.11005181206596
 30
0.0
 10
90.000708007812491
 20
163.93969184027776
 30
0.0
 10
89.93008355034722
 20
163.7949978298611
 30
0.0
 10
89.872550455729154
 20
163.68165418836804
 30
0.0
 10
89.818979220920127
 20
163.57571750217014
 30
0.0
 10
89.776776801215263
 20
163.49751383463541
 30
0.0
 10
89.757484266493051
 20
163.46237386067708
 30
0.0
 10
89.747837999131931
 20
163.44411485460068
 30
0.0
 10
89.740947808159717
 20
163.43136800130208
 30
0.0
 10
89.740947808159717
 20
163.43136800130208
 30
0.0
  0
LINE
  5
377
100
AcDbEntity
  8
レイヤー_2
 62
     7
100
AcDbLine
 10
98.261186
 20
168.543717
 30
0.0
 11
89.740948
 21
168.543717
 31
0.0
  0
LINE
  5
376
100
AcDbEntity
  8
レイヤー_2
 62
     7
100
AcDbLine
 10
89.740948
 20
163.431368
 30
0.0
 11
98.261186
 21
163.431368
 31
0.0
  0
LINE
  5
375
100
AcDbEntity
  8
レイヤー_2
 62
     7
100
AcDbLine
 10
89.314962
 20
163.644447
 30
0.0
 11
89.314962
 21
168.330983
 31
0.0
  0
LINE
  5
374
100
AcDbEntity
  8
レイヤー_2
 62
     7
100
AcDbLine
 10
86.759218
 20
163.878714
 30
0.0
 11
86.759218
 21
168.096372
 31
0.0
  0
LINE
  5
373
100
AcDbEntity
  8
レイヤー_2
 62
     7
100
AcDbLine
 10
86.865499
 20
163.772088
 30
0.0
 11
86.865499
 21
168.202653
 31
0.0
  0
LINE
  5
372
100
AcDbEntity
  8
レイヤー_2
 62
     7
100
AcDbLine
 10
94.001153
 20
168.688411
 30
0.0
 11
97.177014
 21
168.688411
 31
0.0
  0
LINE
  5
371
100
AcDbEntity
  8
レイヤー_2
 62
     7
100
AcDbLine
 10
90.824947
 20
168.688411
 30
0.0
 11
94.001153
 21
168.688411
 31
0.0
  0
SPLINE
  5
370
100
AcDbEntity
  8
レイヤー_2
 62
     7
100
AcDbSpline
210
0.0
220
0.0
230
1.0
 70
     8
 71
     3
 72
    50
 73
    46
 74
     0
 42
0.00000001
 43
0.00000001
 40
0.0
 40
0.0
 40
0.0
 40
0.0
 40
1.0
 40
1.0
 40
1.0
 40
2.0
 40
2.0
 40
2.0
 40
3.0
 40
3.0
 40
3.0
 40
4.0
 40
4.0
 40
4.0
 40
5.0
 40
5.0
 40
5.0
 40
6.0
 40
6.0
 40
6.0
 40
7.0
 40
7.0
 40
7.0
 40
8.0
 40
8.0
 40
8.0
 40
9.0
 40
9.0
 40
9.0
 40
10.0
 40
10.0
 40
10.0
 40
11.0
 40
11.0
 40
11.0
 40
12.0
 40
12.0
 40
12.0
 40
13.0
 40
13.0
 40
13.0
 40
14.0
 40
14.0
 40
14.0
 40
15.0
 40
15.0
 40
15.0
 40
15.0
 10
89.528040907118054
 20
163.64444715711804
 30
0.0
 10
89.528040907118054
 20
163.64444715711804
 30
0.0
 10
89.535447862413193
 20
163.65616048177083
 30
0.0
 10
89.54543863932291
 20
163.67269694010415
 30
0.0
 10
89.565592447916657
 20
163.70525309244789
 30
0.0
 10
89.609689670138877
 20
163.77656656901041
 30
0.0
 10
89.666016981336796
 20
163.87423502604165
 30
0.0
 10
89.72613389756944
 20
163.97776014539929
 30
0.0
 10
89.799858940972214
 20
164.11005181206596
 30
0.0
 10
89.878062608506937
 20
164.26645914713541
 30
0.0
 10
89.966084798177079
 20
164.44336480034721
 30
0.0
 10
90.059102376302079
 20
164.65179307725694
 30
0.0
 10
90.138511827256934
 20
164.88588731553818
 30
0.0
 10
90.204485405815959
 20
165.07950168185764
 30
0.0
 10
90.260123697916654
 20
165.29120279947915
 30
0.0
 10
90.293885633680546
 20
165.51220567491319
 30
0.0
 10
90.30267062717013
 20
165.56956651475693
 30
0.0
 10
90.309733072916657
 20
165.62692735460067
 30
0.0
 10
90.315589735243051
 20
165.68549397786458
 30
0.0
 10
90.326958550347214
 20
165.80383300781247
 30
0.0
 10
90.331953938802073
 20
165.92458360460068
 30
0.0
 10
90.329886881510404
 20
166.04533420138887
 30
0.0
 10
90.326958550347214
 20
166.17004665798609
 30
0.0
 10
90.31765679253472
 20
166.29441460503472
 30
0.0
 10
90.300431315104163
 20
166.41688774956594
 30
0.0
 10
90.27114800347222
 20
166.62927788628471
 30
0.0
 10
90.220849609374994
 20
166.834088812934
 30
0.0
 10
90.160043674045127
 20
167.02322455512152
 30
0.0
 10
90.092692057291657
 20
167.23544243706596
 30
0.0
 10
90.011732313368043
 20
167.42819552951389
 30
0.0
 10
89.932667371961799
 20
167.59648844401039
 30
0.0
 10
89.88701985677082
 20
167.69277886284721
 30
0.0
 10
89.841716851128467
 20
167.78183458116317
 30
0.0
 10
89.798997667100693
 20
167.86210530598956
 30
0.0
 10
89.75524495442707
 20
167.94444308810762
 30
0.0
 10
89.714076063368054
 20
168.01799587673611
 30
0.0
 10
89.678247070312494
 20
168.080524359809
 30
0.0
 10
89.643623860677081
 20
168.13995225694444
 30
0.0
 10
89.614857313368049
 20
168.18921712239583
 30
0.0
 10
89.590224880642353
 20
168.22986924913192
 30
0.0
 10
89.564386664496524
 20
168.27224392361109
 30
0.0
 10
89.544405110677076
 20
168.30445556640623
 30
0.0
 10
89.537342664930549
 20
168.31599663628469
 30
0.0
 10
89.537342664930549
 20
168.31599663628469
 30
0.0
 10
89.534586588541657
 20
168.31961398654514
 30
0.0
 10
89.534586588541657
 20
168.31961398654514
 30
0.0
  0
LINE
  5
36F
100
AcDbEntity
  8
レイヤー_2
 62
     7
100
AcDbLine
 10
91.089014
 20
183.177277
 30
0.0
 11
91.089014
 21
172.710044
 31
0.0
  0
LINE
  5
36E
100
AcDbEntity
  8
レイヤー_2
 62
     7
100
AcDbLine
 10
91.089014
 20
170.409926
 30
0.0
 11
91.089014
 21
168.543717
 31
0.0
  0
LINE
  5
36D
100
AcDbEntity
  8
レイヤー_2
 62
     7
100
AcDbLine
 10
96.869539
 20
170.409926
 30
0.0
 11
96.869539
 21
168.543717
 31
0.0
  0
LINE
  5
36C
100
AcDbEntity
  8
レイヤー_2
 62
     7
100
AcDbLine
 10
96.869539
 20
183.177277
 30
0.0
 11
96.869539
 21
172.710044
 31
0.0
  0
LINE
  5
36B
100
AcDbEntity
  8
レイヤー_2
 62
     7
100
AcDbLine
 10
52.371997
 20
184.710689
 30
0.0
 11
50.668225
 21
184.710689
 31
0.0
  0
LINE
  5
36A
100
AcDbEntity
  8
レイヤー_2
 62
     7
100
AcDbLine
 10
52.691702
 20
185.348376
 30
0.0
 11
52.691702
 21
185.134953
 31
0.0
  0
LINE
  5
369
100
AcDbEntity
  8
レイヤー_2
 62
     7
100
AcDbLine
 10
50.34852
 20
185.134953
 30
0.0
 11
50.34852
 21
185.348376
 31
0.0
  0
SPLINE
  5
368
100
AcDbEntity
  8
レイヤー_2
 62
     7
100
AcDbSpline
210
0.0
220
0.0
230
1.0
 70
     8
 71
     3
 72
     8
 73
     4
 74
     0
 42
0.00000001
 43
0.00000001
 40
0.0
 40
0.0
 40
0.0
 40
0.0
 40
1.0
 40
1.0
 40
1.0
 40
1.0
 10
45.859216308593744
 20
185.11100938585068
 30
0.0
 10
45.767404513888884
 20
185.10997585720483
 30
0.0
 10
45.692129177517359
 20
185.03538953993055
 30
0.0
 10
45.690923394097219
 20
184.94323323567707
 30
0.0
  0
LINE
  5
367
100
AcDbEntity
  8
レイヤー_2
 62
     7
100
AcDbLine
 10
52.781274
 20
185.134953
 30
0.0
 11
57.180661
 21
185.111009
 31
0.0
  0
LINE
  5
366
100
AcDbEntity
  8
レイヤー_2
 62
     7
100
AcDbLine
 10
45.859216
 20
185.111009
 30
0.0
 11
50.258948
 21
185.134953
 31
0.0
  0
SPLINE
  5
365
100
AcDbEntity
  8
レイヤー_2
 62
     7
100
AcDbSpline
210
0.0
220
0.0
230
1.0
 70
     8
 71
     3
 72
     8
 73
     4
 74
     0
 42
0.00000001
 43
0.00000001
 40
0.0
 40
0.0
 40
0.0
 40
0.0
 40
1.0
 40
1.0
 40
1.0
 40
1.0
 10
57.34947102864583
 20
184.94323323567707
 30
0.0
 10
57.347576226128467
 20
185.03590630425344
 30
0.0
 10
57.272645399305553
 20
185.10997585720483
 30
0.0
 10
57.180661349826387
 20
185.11100938585068
 30
0.0
  0
LINE
  5
364
100
AcDbEntity
  8
レイヤー_2
 62
     7
100
AcDbLine
 10
45.833895
 20
183.325416
 30
0.0
 11
57.206155
 21
183.325416
 31
0.0
  0
LINE
  5
363
100
AcDbEntity
  8
レイヤー_2
 62
     7
100
AcDbLine
 10
45.727269
 20
183.325416
 30
0.0
 11
45.833895
 21
183.325416
 31
0.0
  0
SPLINE
  5
362
100
AcDbEntity
  8
レイヤー_2
 62
     7
100
AcDbSpline
210
0.0
220
0.0
230
1.0
 70
     8
 71
     3
 72
    11
 73
     7
 74
     0
 42
0.00000001
 43
0.00000001
 40
0.0
 40
0.0
 40
0.0
 40
0.0
 40
1.0
 40
1.0
 40
1.0
 40
2.0
 40
2.0
 40
2.0
 40
2.0
 10
45.663879394531243
 20
183.39035644531248
 30
0.0
 10
45.663879394531243
 20
183.38983968098955
 30
0.0
 10
45.663879394531243
 20
183.38949517144096
 30
0.0
 10
45.663879394531243
 20
183.38880615234373
 30
0.0
 10
45.663879394531243
 20
183.3536661783854
 30
0.0
 10
45.692129177517359
 20
183.32541639539929
 30
0.0
 10
45.727269151475689
 20
183.32541639539929
 30
0.0
  0
LINE
  5
361
100
AcDbEntity
  8
レイヤー_2
 62
     7
100
AcDbLine
 10
57.206155
 20
183.325416
 30
0.0
 11
57.313125
 21
183.325416
 31
0.0
  0
SPLINE
  5
360
100
AcDbEntity
  8
レイヤー_2
 62
     7
100
AcDbSpline
210
0.0
220
0.0
230
1.0
 70
     8
 71
     3
 72
     8
 73
     4
 74
     0
 42
0.00000001
 43
0.00000001
 40
0.0
 40
0.0
 40
0.0
 40
0.0
 40
1.0
 40
1.0
 40
1.0
 40
1.0
 10
57.376515028211799
 20
183.38880615234373
 30
0.0
 10
57.376515028211799
 20
183.38949517144096
 30
0.0
 10
57.376515028211799
 20
183.38983968098955
 30
0.0
 10
57.376515028211799
 20
183.39035644531248
 30
0.0
  0
SPLINE
  5
35F
100
AcDbEntity
  8
レイヤー_2
 62
     7
100
AcDbSpline
210
0.0
220
0.0
230
1.0
 70
     8
 71
     3
 72
    11
 73
     7
 74
     0
 42
0.00000001
 43
0.00000001
 40
0.0
 40
0.0
 40
0.0
 40
0.0
 40
1.0
 40
1.0
 40
1.0
 40
2.0
 40
2.0
 40
2.0
 40
2.0
 10
57.313125271267353
 20
183.32541639539929
 30
0.0
 10
57.313125271267353
 20
183.32541639539929
 30
0.0
 10
57.313125271267353
 20
183.32541639539929
 30
0.0
 10
57.313125271267353
 20
183.32541639539929
 30
0.0
 10
57.347576226128467
 20
183.32541639539929
 30
0.0
 10
57.376515028211799
 20
183.3536661783854
 30
0.0
 10
57.376515028211799
 20
183.38880615234373
 30
0.0
  0
LINE
  5
35E
100
AcDbEntity
  8
レイヤー_2
 62
     7
100
AcDbLine
 10
45.690234
 20
184.917912
 30
0.0
 11
45.663879
 21
183.390356
 31
0.0
  0
LINE
  5
35D
100
AcDbEntity
  8
レイヤー_2
 62
     7
100
AcDbLine
 10
50.668225
 20
184.391329
 30
0.0
 11
50.668225
 21
184.710689
 31
0.0
  0
LINE
  5
35C
100
AcDbEntity
  8
レイヤー_2
 62
     7
100
AcDbLine
 10
52.371997
 20
184.710689
 30
0.0
 11
52.371997
 21
184.391329
 31
0.0
  0
LINE
  5
35B
100
AcDbEntity
  8
レイヤー_2
 62
     7
100
AcDbLine
 10
52.371997
 20
184.391329
 30
0.0
 11
50.668225
 21
184.391329
 31
0.0
  0
LINE
  5
35A
100
AcDbEntity
  8
レイヤー_2
 62
     7
100
AcDbLine
 10
57.376515
 20
183.390356
 30
0.0
 11
57.349988
 21
184.917912
 31
0.0
  0
LINE
  5
359
100
AcDbEntity
  8
レイヤー_2
 62
     7
100
AcDbLine
 10
52.781274
 20
185.134953
 30
0.0
 11
50.258948
 21
185.134953
 31
0.0
  0
POLYLINE
  5
353
100
AcDbEntity
  8
レイヤー_2
 62
     7
100
AcDb2dPolyline
 66
     1
 10
0.0
 20
0.0
 30
0.0
  0
VERTEX
  5
354
100
AcDbEntity
  8
レイヤー_2
 62
     7
100
AcDbVertex
100
AcDb2dVertex
 10
45.859216
 20
185.08586
 30
0.0
  0
VERTEX
  5
355
100
AcDbEntity
  8
レイヤー_2
 62
     7
100
AcDbVertex
100
AcDb2dVertex
 10
45.859216
 20
185.104119
 30
0.0
  0
VERTEX
  5
356
100
AcDbEntity
  8
レイヤー_2
 62
     7
100
AcDbVertex
100
AcDb2dVertex
 10
45.859216
 20
185.109631
 30
0.0
  0
VERTEX
  5
357
100
AcDbEntity
  8
レイヤー_2
 62
     7
100
AcDbVertex
100
AcDb2dVertex
 10
45.859216
 20
185.111009
 30
0.0
  0
SEQEND
  5
358
100
AcDbEntity
  8
レイヤー_2
 62
     7
  0
LINE
  5
352
100
AcDbEntity
  8
レイヤー_2
 62
     7
100
AcDbLine
 10
46.408365
 20
172.047552
 30
0.0
 11
46.408365
 21
172.686789
 31
0.0
  0
LINE
  5
351
100
AcDbEntity
  8
レイヤー_2
 62
     7
100
AcDbLine
 10
56.63203
 20
172.686789
 30
0.0
 11
56.63203
 21
172.047552
 31
0.0
  0
LINE
  5
350
100
AcDbEntity
  8
レイヤー_2
 62
     7
100
AcDbLine
 10
56.63203
 20
172.047552
 30
0.0
 11
46.408365
 21
172.047552
 31
0.0
  0
LINE
  5
34F
100
AcDbEntity
  8
レイヤー_2
 62
     7
100
AcDbLine
 10
56.63203
 20
172.686789
 30
0.0
 11
46.408365
 21
172.686789
 31
0.0
  0
LINE
  5
34E
100
AcDbEntity
  8
レイヤー_2
 62
     7
100
AcDbLine
 10
56.31267
 20
172.047552
 30
0.0
 11
56.31267
 21
171.664629
 31
0.0
  0
LINE
  5
34D
100
AcDbEntity
  8
レイヤー_2
 62
     7
100
AcDbLine
 10
46.72738
 20
171.664629
 30
0.0
 11
46.72738
 21
172.047552
 31
0.0
  0
LINE
  5
34C
100
AcDbEntity
  8
レイヤー_2
 62
     7
100
AcDbLine
 10
51.520025
 20
171.664629
 30
0.0
 11
46.72738
 21
171.664629
 31
0.0
  0
LINE
  5
34B
100
AcDbEntity
  8
レイヤー_2
 62
     7
100
AcDbLine
 10
56.31267
 20
171.664629
 30
0.0
 11
51.520025
 21
171.664629
 31
0.0
  0
LINE
  5
34A
100
AcDbEntity
  8
レイヤー_2
 62
     7
100
AcDbLine
 10
51.520025
 20
172.047552
 30
0.0
 11
46.72738
 21
172.047552
 31
0.0
  0
LINE
  5
349
100
AcDbEntity
  8
レイヤー_2
 62
     7
100
AcDbLine
 10
56.31267
 20
172.047552
 30
0.0
 11
51.520025
 21
172.047552
 31
0.0
  0
LINE
  5
348
100
AcDbEntity
  8
レイヤー_2
 62
     7
100
AcDbLine
 10
55.673949
 20
171.664629
 30
0.0
 11
55.673949
 21
170.386671
 31
0.0
  0
LINE
  5
347
100
AcDbEntity
  8
レイヤー_2
 62
     7
100
AcDbLine
 10
47.366618
 20
170.386671
 30
0.0
 11
47.366618
 21
171.664629
 31
0.0
  0
LINE
  5
346
100
AcDbEntity
  8
レイヤー_2
 62
     7
100
AcDbLine
 10
53.352127
 20
171.664629
 30
0.0
 11
53.352127
 21
170.386671
 31
0.0
  0
LINE
  5
345
100
AcDbEntity
  8
レイヤー_2
 62
     7
100
AcDbLine
 10
53.352127
 20
171.664629
 30
0.0
 11
49.688095
 21
171.664629
 31
0.0
  0
LINE
  5
344
100
AcDbEntity
  8
レイヤー_2
 62
     7
100
AcDbLine
 10
49.688095
 20
171.664629
 30
0.0
 11
49.688095
 21
170.386671
 31
0.0
  0
LINE
  5
343
100
AcDbEntity
  8
レイヤー_2
 62
     7
100
AcDbLine
 10
53.352127
 20
170.386671
 30
0.0
 11
49.688095
 21
170.386671
 31
0.0
  0
LINE
  5
342
100
AcDbEntity
  8
レイヤー_2
 62
     7
100
AcDbLine
 10
53.352127
 20
170.386671
 30
0.0
 11
53.832029
 21
170.386671
 31
0.0
  0
LINE
  5
341
100
AcDbEntity
  8
レイヤー_2
 62
     7
100
AcDbLine
 10
53.832029
 20
171.664629
 30
0.0
 11
53.832029
 21
170.386671
 31
0.0
  0
LINE
  5
340
100
AcDbEntity
  8
レイヤー_2
 62
     7
100
AcDbLine
 10
53.352127
 20
171.664629
 30
0.0
 11
53.832029
 21
171.664629
 31
0.0
  0
LINE
  5
33F
100
AcDbEntity
  8
レイヤー_2
 62
     7
100
AcDbLine
 10
49.208538
 20
171.664629
 30
0.0
 11
49.208538
 21
170.386671
 31
0.0
  0
LINE
  5
33E
100
AcDbEntity
  8
レイヤー_2
 62
     7
100
AcDbLine
 10
49.208538
 20
170.386671
 30
0.0
 11
49.688095
 21
170.386671
 31
0.0
  0
LINE
  5
33D
100
AcDbEntity
  8
レイヤー_2
 62
     7
100
AcDbLine
 10
49.208538
 20
171.664629
 30
0.0
 11
49.688095
 21
171.664629
 31
0.0
  0
LINE
  5
33C
100
AcDbEntity
  8
レイヤー_2
 62
     7
100
AcDbLine
 10
47.37592
 20
171.664629
 30
0.0
 11
47.37592
 21
170.386671
 31
0.0
  0
LINE
  5
33B
100
AcDbEntity
  8
レイヤー_2
 62
     7
100
AcDbLine
 10
49.208538
 20
170.386671
 30
0.0
 11
47.37592
 21
170.386671
 31
0.0
  0
LINE
  5
33A
100
AcDbEntity
  8
レイヤー_2
 62
     7
100
AcDbLine
 10
49.208538
 20
171.664629
 30
0.0
 11
47.37592
 21
171.664629
 31
0.0
  0
LINE
  5
339
100
AcDbEntity
  8
レイヤー_2
 62
     7
100
AcDbLine
 10
55.664303
 20
171.664629
 30
0.0
 11
55.664303
 21
170.386671
 31
0.0
  0
LINE
  5
338
100
AcDbEntity
  8
レイヤー_2
 62
     7
100
AcDbLine
 10
53.832029
 20
170.386671
 30
0.0
 11
55.664303
 21
170.386671
 31
0.0
  0
LINE
  5
337
100
AcDbEntity
  8
レイヤー_2
 62
     7
100
AcDbLine
 10
53.832029
 20
171.664629
 30
0.0
 11
55.664303
 21
171.664629
 31
0.0
  0
LINE
  5
336
100
AcDbEntity
  8
レイヤー_2
 62
     7
100
AcDbLine
 10
55.664303
 20
170.386671
 30
0.0
 11
55.673949
 21
170.386671
 31
0.0
  0
LINE
  5
335
100
AcDbEntity
  8
レイヤー_2
 62
     7
100
AcDbLine
 10
55.664303
 20
171.664629
 30
0.0
 11
55.673949
 21
171.664629
 31
0.0
  0
LINE
  5
334
100
AcDbEntity
  8
レイヤー_2
 62
     7
100
AcDbLine
 10
47.366618
 20
170.386671
 30
0.0
 11
47.37592
 21
170.386671
 31
0.0
  0
LINE
  5
333
100
AcDbEntity
  8
レイヤー_2
 62
     7
100
AcDbLine
 10
47.366618
 20
171.664629
 30
0.0
 11
47.37592
 21
171.664629
 31
0.0
  0
SPLINE
  5
332
100
AcDbEntity
  8
レイヤー_2
 62
     7
100
AcDbSpline
210
0.0
220
0.0
230
1.0
 70
     8
 71
     3
 72
     8
 73
     4
 74
     0
 42
0.00000001
 43
0.00000001
 40
0.0
 40
0.0
 40
0.0
 40
0.0
 40
1.0
 40
1.0
 40
1.0
 40
1.0
 10
55.248135036892357
 20
183.15350613064234
 30
0.0
 10
55.369574652777771
 20
183.15350613064234
 30
0.0
 10
55.475511338975693
 20
183.22189127604165
 30
0.0
 10
55.530460611979159
 20
183.32421061197914
 30
0.0
  0
SPLINE
  5
331
100
AcDbEntity
  8
レイヤー_2
 62
     7
100
AcDbSpline
210
0.0
220
0.0
230
1.0
 70
     8
 71
     3
 72
     8
 73
     4
 74
     0
 42
0.00000001
 43
0.00000001
 40
0.0
 40
0.0
 40
0.0
 40
0.0
 40
1.0
 40
1.0
 40
1.0
 40
1.0
 10
47.509933810763883
 20
183.32421061197914
 30
0.0
 10
47.567294650607636
 20
183.21637912326386
 30
0.0
 10
47.67684868706597
 20
183.15402289496527
 30
0.0
 10
47.792776150173609
 20
183.15350613064234
 30
0.0
  0
LINE
  5
330
100
AcDbEntity
  8
レイヤー_2
 62
     7
100
AcDbLine
 10
55.248135
 20
183.153506
 30
0.0
 11
47.792776
 21
183.153506
 31
0.0
  0
LINE
  5
32F
100
AcDbEntity
  8
レイヤー_2
 62
     7
100
AcDbLine
 10
54.696058
 20
183.153506
 30
0.0
 11
54.688652
 21
172.686789
 31
0.0
  0
SPLINE
  5
32E
100
AcDbEntity
  8
レイヤー_2
 62
     7
100
AcDbSpline
210
0.0
220
0.0
230
1.0
 70
     8
 71
     3
 72
     8
 73
     4
 74
     0
 42
0.00000001
 43
0.00000001
 40
0.0
 40
0.0
 40
0.0
 40
0.0
 40
1.0
 40
1.0
 40
1.0
 40
1.0
 10
54.69605848524305
 20
170.38667127821179
 30
0.0
 10
54.69605848524305
 20
169.1064737955729
 30
0.0
 10
54.69605848524305
 20
168.66481255425344
 30
0.0
 10
54.69605848524305
 20
168.66481255425344
 30
0.0
  0
SPLINE
  5
32D
100
AcDbEntity
  8
レイヤー_2
 62
     7
100
AcDbSpline
210
0.0
220
0.0
230
1.0
 70
     8
 71
     3
 72
     8
 73
     4
 74
     0
 42
0.00000001
 43
0.00000001
 40
0.0
 40
0.0
 40
0.0
 40
0.0
 40
1.0
 40
1.0
 40
1.0
 40
1.0
 10
48.343991427951387
 20
168.66481255425344
 30
0.0
 10
48.343991427951387
 20
168.66481255425344
 30
0.0
 10
48.343991427951387
 20
169.1064737955729
 30
0.0
 10
48.343991427951387
 20
170.38667127821179
 30
0.0
  0
LINE
  5
32C
100
AcDbEntity
  8
レイヤー_2
 62
     7
100
AcDbLine
 10
48.353982
 20
172.686789
 30
0.0
 11
48.343991
 21
183.153506
 31
0.0
  0
SPLINE
  5
32B
100
AcDbEntity
  8
レイヤー_2
 62
     7
100
AcDbSpline
210
0.0
220
0.0
230
1.0
 70
     8
 71
     3
 72
     8
 73
     4
 74
     0
 42
0.00000001
 43
0.00000001
 40
0.0
 40
0.0
 40
0.0
 40
0.0
 40
1.0
 40
1.0
 40
1.0
 40
1.0
 10
54.69605848524305
 20
170.38667127821179
 30
0.0
 10
54.69605848524305
 20
169.1064737955729
 30
0.0
 10
54.69605848524305
 20
168.66481255425344
 30
0.0
 10
54.69605848524305
 20
168.66481255425344
 30
0.0
  0
LINE
  5
32A
100
AcDbEntity
  8
レイヤー_2
 62
     7
100
AcDbLine
 10
52.691702
 20
185.347687
 30
0.0
 11
52.691702
 21
185.134953
 31
0.0
  0
LINE
  5
329
100
AcDbEntity
  8
レイヤー_2
 62
     7
100
AcDbLine
 10
50.34852
 20
185.134953
 30
0.0
 11
50.34852
 21
185.347687
 31
0.0
  0
LINE
  5
328
100
AcDbEntity
  8
レイヤー_2
 62
     7
100
AcDbLine
 10
54.715351
 20
163.408114
 30
0.0
 11
54.715351
 21
162.769048
 31
0.0
  0
LINE
  5
327
100
AcDbEntity
  8
レイヤー_2
 62
     7
100
AcDbLine
 10
48.324871
 20
162.769048
 30
0.0
 11
48.324871
 21
163.408114
 31
0.0
  0
LINE
  5
326
100
AcDbEntity
  8
レイヤー_2
 62
     7
100
AcDbLine
 10
47.260164
 20
163.408114
 30
0.0
 11
47.260164
 21
168.520119
 31
0.0
  0
SPLINE
  5
325
100
AcDbEntity
  8
レイヤー_2
 62
     7
100
AcDbSpline
210
0.0
220
0.0
230
1.0
 70
     8
 71
     3
 72
    23
 73
    19
 74
     0
 42
0.00000001
 43
0.00000001
 40
0.0
 40
0.0
 40
0.0
 40
0.0
 40
1.0
 40
1.0
 40
1.0
 40
2.0
 40
2.0
 40
2.0
 40
3.0
 40
3.0
 40
3.0
 40
4.0
 40
4.0
 40
4.0
 40
5.0
 40
5.0
 40
5.0
 40
6.0
 40
6.0
 40
6.0
 40
6.0
 10
55.995548502604159
 20
163.61895345052082
 30
0.0
 10
55.976600477430551
 20
163.61895345052082
 30
0.0
 10
55.958685980902771
 20
163.6182644314236
 30
0.0
 10
55.940426974826387
 20
163.61516384548611
 30
0.0
 10
55.915622287326386
 20
163.609479437934
 30
0.0
 10
55.89219563802083
 20
163.59811062282984
 30
0.0
 10
55.871008300781241
 20
163.58277994791666
 30
0.0
 10
55.850337727864577
 20
163.56848280164928
 30
0.0
 10
55.832595486111103
 20
163.55056830512152
 30
0.0
 10
55.817781575520826
 20
163.53006998697916
 30
0.0
 10
55.806757269965274
 20
163.51353352864581
 30
0.0
 10
55.797800021701384
 20
163.49561903211804
 30
0.0
 10
55.791082085503469
 20
163.47684326171873
 30
0.0
 10
55.785569932725693
 20
163.46099582248263
 30
0.0
 10
55.781435818142356
 20
163.44411485460068
 30
0.0
 10
55.780919053819439
 20
163.42757839626734
 30
0.0
 10
55.780919053819439
 20
163.42757839626734
 30
0.0
 10
55.781091308593744
 20
163.40708007812498
 30
0.0
 10
55.781091308593744
 20
163.40708007812498
 30
0.0
  0
SPLINE
  5
324
100
AcDbEntity
  8
レイヤー_2
 62
     7
100
AcDbSpline
210
0.0
220
0.0
230
1.0
 70
     8
 71
     3
 72
    20
 73
    16
 74
     0
 42
0.00000001
 43
0.00000001
 40
0.0
 40
0.0
 40
0.0
 40
0.0
 40
1.0
 40
1.0
 40
1.0
 40
2.0
 40
2.0
 40
2.0
 40
3.0
 40
3.0
 40
3.0
 40
4.0
 40
4.0
 40
4.0
 40
5.0
 40
5.0
 40
5.0
 40
5.0
 10
55.78246934678819
 20
168.51253933376734
 30
0.0
 10
55.78246934678819
 20
168.50220404730902
 30
0.0
 10
55.78246934678819
 20
168.4925577799479
 30
0.0
 10
55.783158365885413
 20
168.48222249348956
 30
0.0
 10
55.786258951822909
 20
168.45845133463541
 30
0.0
 10
55.795732964409716
 20
168.43502468532984
 30
0.0
 10
55.808307562934026
 20
168.41452636718748
 30
0.0
 10
55.820709906684023
 20
168.39265001085067
 30
0.0
 10
55.837246365017357
 20
168.37352973090276
 30
0.0
 10
55.856194390190964
 20
168.35716552734374
 30
0.0
 10
55.876175944010413
 20
168.33994004991317
 30
0.0
 10
55.899258083767357
 20
168.32667643229166
 30
0.0
 10
55.923029242621524
 20
168.31926947699651
 30
0.0
 10
55.944561089409717
 20
168.31220703124998
 30
0.0
 10
55.966609700520827
 20
168.30979546440972
 30
0.0
 10
55.988658311631937
 20
168.30755615234372
 30
0.0
  0
LINE
  5
323
100
AcDbEntity
  8
レイヤー_2
 62
     7
100
AcDbLine
 10
56.206044
 20
163.621365
 30
0.0
 11
55.993481
 21
163.621365
 31
0.0
  0
LINE
  5
322
100
AcDbEntity
  8
レイヤー_2
 62
     7
100
AcDbLine
 10
55.986591
 20
168.306867
 30
0.0
 11
56.206044
 21
168.306867
 31
0.0
  0
LINE
  5
321
100
AcDbEntity
  8
レイヤー_2
 62
     7
100
AcDbLine
 10
58.655507
 20
168.179399
 30
0.0
 11
58.762132
 21
168.072601
 31
0.0
  0
LINE
  5
320
100
AcDbEntity
  8
レイヤー_2
 62
     7
100
AcDbLine
 10
58.762132
 20
163.855632
 30
0.0
 11
58.655507
 21
163.748317
 31
0.0
  0
LINE
  5
31F
100
AcDbEntity
  8
レイヤー_2
 62
     7
100
AcDbLine
 10
58.655507
 20
163.748317
 30
0.0
 11
56.206044
 21
163.748317
 31
0.0
  0
LINE
  5
31E
100
AcDbEntity
  8
レイヤー_2
 62
     7
100
AcDbLine
 10
56.206044
 20
168.179399
 30
0.0
 11
58.655507
 21
168.179399
 31
0.0
  0
LINE
  5
31D
100
AcDbEntity
  8
レイヤー_2
 62
     7
100
AcDbLine
 10
54.696058
 20
168.664813
 30
0.0
 11
54.550848
 21
168.520119
 31
0.0
  0
LINE
  5
31C
100
AcDbEntity
  8
レイヤー_2
 62
     7
100
AcDbLine
 10
48.488858
 20
168.520119
 30
0.0
 11
48.343991
 21
168.664813
 31
0.0
  0
LINE
  5
31B
100
AcDbEntity
  8
レイヤー_2
 62
     7
100
AcDbLine
 10
54.608381
 20
194.293222
 30
0.0
 11
48.431497
 21
194.293222
 31
0.0
  0
SPLINE
  5
31A
100
AcDbEntity
  8
レイヤー_2
 62
     7
100
AcDbSpline
210
0.0
220
0.0
230
1.0
 70
     8
 71
     3
 72
     8
 73
     4
 74
     0
 42
0.00000001
 43
0.00000001
 40
0.0
 40
0.0
 40
0.0
 40
0.0
 40
1.0
 40
1.0
 40
1.0
 40
1.0
 10
54.715351019965276
 20
194.18728569878471
 30
0.0
 10
54.715351019965276
 20
194.24568006727429
 30
0.0
 10
54.66746419270833
 20
194.29322238498261
 30
0.0
 10
54.60838080512152
 20
194.29322238498261
 30
0.0
  0
SPLINE
  5
319
100
AcDbEntity
  8
レイヤー_2
 62
     7
100
AcDbSpline
210
0.0
220
0.0
230
1.0
 70
     8
 71
     3
 72
     8
 73
     4
 74
     0
 42
0.00000001
 43
0.00000001
 40
0.0
 40
0.0
 40
0.0
 40
0.0
 40
1.0
 40
1.0
 40
1.0
 40
1.0
 10
48.431496853298604
 20
194.29322238498261
 30
0.0
 10
48.373102484809024
 20
194.29322238498261
 30
0.0
 10
48.324871148003467
 20
194.24568006727429
 30
0.0
 10
48.324871148003467
 20
194.18728569878471
 30
0.0
  0
LINE
  5
318
100
AcDbEntity
  8
レイヤー_2
 62
     7
100
AcDbLine
 10
48.431497
 20
185.347687
 30
0.0
 11
54.608381
 21
185.347687
 31
0.0
  0
LINE
  5
317
100
AcDbEntity
  8
レイヤー_2
 62
     7
100
AcDbLine
 10
48.324871
 20
194.187286
 30
0.0
 11
48.324871
 21
185.347687
 31
0.0
  0
LINE
  5
316
100
AcDbEntity
  8
レイヤー_2
 62
     7
100
AcDbLine
 10
48.324871
 20
185.347687
 30
0.0
 11
48.431497
 21
185.347687
 31
0.0
  0
LINE
  5
315
100
AcDbEntity
  8
レイヤー_2
 62
     7
100
AcDbLine
 10
54.715351
 20
185.347687
 30
0.0
 11
54.715351
 21
194.187286
 31
0.0
  0
LINE
  5
314
100
AcDbEntity
  8
レイヤー_2
 62
     7
100
AcDbLine
 10
54.608381
 20
185.347687
 30
0.0
 11
54.715351
 21
185.347687
 31
0.0
  0
LINE
  5
313
100
AcDbEntity
  8
レイヤー_2
 62
     7
100
AcDbLine
 10
52.371997
 20
184.388917
 30
0.0
 11
50.668225
 21
184.388917
 31
0.0
  0
LINE
  5
312
100
AcDbEntity
  8
レイヤー_2
 62
     7
100
AcDbLine
 10
52.371997
 20
184.708278
 30
0.0
 11
52.371997
 21
184.388917
 31
0.0
  0
LINE
  5
311
100
AcDbEntity
  8
レイヤー_2
 62
     7
100
AcDbLine
 10
50.668225
 20
184.388917
 30
0.0
 11
50.668225
 21
184.708278
 31
0.0
  0
LINE
  5
310
100
AcDbEntity
  8
レイヤー_2
 62
     7
100
AcDbLine
 10
50.668225
 20
184.708278
 30
0.0
 11
52.371997
 21
184.708278
 31
0.0
  0
LINE
  5
30F
100
AcDbEntity
  8
レイヤー_2
 62
     7
100
AcDbLine
 10
54.715351
 20
162.769048
 30
0.0
 11
48.324871
 21
162.769048
 31
0.0
  0
SPLINE
  5
30E
100
AcDbEntity
  8
レイヤー_2
 62
     7
100
AcDbSpline
210
0.0
220
0.0
230
1.0
 70
     8
 71
     3
 72
    50
 73
    46
 74
     0
 42
0.00000001
 43
0.00000001
 40
0.0
 40
0.0
 40
0.0
 40
0.0
 40
1.0
 40
1.0
 40
1.0
 40
2.0
 40
2.0
 40
2.0
 40
3.0
 40
3.0
 40
3.0
 40
4.0
 40
4.0
 40
4.0
 40
5.0
 40
5.0
 40
5.0
 40
6.0
 40
6.0
 40
6.0
 40
7.0
 40
7.0
 40
7.0
 40
8.0
 40
8.0
 40
8.0
 40
9.0
 40
9.0
 40
9.0
 40
10.0
 40
10.0
 40
10.0
 40
11.0
 40
11.0
 40
11.0
 40
12.0
 40
12.0
 40
12.0
 40
13.0
 40
13.0
 40
13.0
 40
14.0
 40
14.0
 40
14.0
 40
15.0
 40
15.0
 40
15.0
 40
15.0
 10
55.78005777994791
 20
168.52011854383679
 30
0.0
 10
55.78005777994791
 20
168.52011854383679
 30
0.0
 10
55.776440429687497
 20
168.51340060763889
 30
0.0
 10
55.771445041232631
 20
168.50340983072914
 30
0.0
 10
55.763176812065964
 20
168.48894042968749
 30
0.0
 10
55.74612358940972
 20
168.45707329644097
 30
0.0
 10
55.724074978298603
 20
168.4152153862847
 30
0.0
 10
55.700820583767353
 20
168.37129041883679
 30
0.0
 10
55.671020507812493
 20
168.31461859809025
 30
0.0
 10
55.637086317274303
 20
168.24692247178817
 30
0.0
 10
55.603841145833329
 20
168.18060438368053
 30
0.0
 10
55.56542833116319
 20
168.10257297092014
 30
0.0
 10
55.5254652235243
 20
168.01558430989581
 30
0.0
 10
55.483090549045137
 20
167.92618408203123
 30
0.0
 10
55.439510091145827
 20
167.82713758680555
 30
0.0
 10
55.395068359374996
 20
167.71913384331594
 30
0.0
 10
55.319276258680553
 20
167.53344319661457
 30
0.0
 10
55.241761610243053
 20
167.3236368815104
 30
0.0
 10
55.178199598524301
 20
167.09367675781249
 30
0.0
 10
55.119460720486103
 20
166.88610975477428
 30
0.0
 10
55.072262912326387
 20
166.6628675672743
 30
0.0
 10
55.044702148437494
 20
166.43221842447915
 30
0.0
 10
55.028854709201383
 20
166.30319959852429
 30
0.0
 10
55.019725206163187
 20
166.17228597005206
 30
0.0
 10
55.016969129774303
 20
166.04120008680553
 30
0.0
 10
55.0138685438368
 20
165.90546332465277
 30
0.0
 10
55.01920844184027
 20
165.76869303385416
 30
0.0
 10
55.029715983072911
 20
165.63450656467012
 30
0.0
 10
55.042807345920131
 20
165.48309461805553
 30
0.0
 10
55.064855957031241
 20
165.33512776692706
 30
0.0
 10
55.093105740017357
 20
165.19112277560762
 30
0.0
 10
55.122044542100689
 20
165.041950141059
 30
0.0
 10
55.158218044704853
 20
164.89846191406249
 30
0.0
 10
55.198870171440966
 20
164.76134711371526
 30
0.0
 10
55.27328423394097
 20
164.50968288845485
 30
0.0
 10
55.362856716579856
 20
164.28110080295139
 30
0.0
 10
55.44674479166666
 20
164.08696967230901
 30
0.0
 10
55.520642089843747
 20
163.91574842664929
 30
0.0
 10
55.591611056857637
 20
163.77122667100693
 30
0.0
 10
55.648799641927077
 20
163.65805528428817
 30
0.0
 10
55.702370876736104
 20
163.55194634331596
 30
0.0
 10
55.744401041666663
 20
163.47374267578124
 30
0.0
 10
55.763521321614576
 20
163.43929172092012
 30
0.0
 10
55.773167588975689
 20
163.42017144097221
 30
0.0
 10
55.78005777994791
 20
163.40811360677083
 30
0.0
 10
55.78005777994791
 20
163.40811360677083
 30
0.0
  0
LINE
  5
30D
100
AcDbEntity
  8
レイヤー_2
 62
     7
100
AcDbLine
 10
47.260164
 20
168.520119
 30
0.0
 11
55.780058
 21
168.520119
 31
0.0
  0
LINE
  5
30C
100
AcDbEntity
  8
レイヤー_2
 62
     7
100
AcDbLine
 10
55.780058
 20
163.408114
 30
0.0
 11
47.260164
 21
163.408114
 31
0.0
  0
LINE
  5
30B
100
AcDbEntity
  8
レイヤー_2
 62
     7
100
AcDbLine
 10
56.206044
 20
163.621365
 30
0.0
 11
56.206044
 21
168.306867
 31
0.0
  0
LINE
  5
30A
100
AcDbEntity
  8
レイヤー_2
 62
     7
100
AcDbLine
 10
58.762132
 20
163.855632
 30
0.0
 11
58.762132
 21
168.072601
 31
0.0
  0
LINE
  5
309
100
AcDbEntity
  8
レイヤー_2
 62
     7
100
AcDbLine
 10
58.655507
 20
163.748317
 30
0.0
 11
58.655507
 21
168.179399
 31
0.0
  0
LINE
  5
308
100
AcDbEntity
  8
レイヤー_2
 62
     7
100
AcDbLine
 10
51.520025
 20
168.664813
 30
0.0
 11
48.343991
 21
168.664813
 31
0.0
  0
LINE
  5
307
100
AcDbEntity
  8
レイヤー_2
 62
     7
100
AcDbLine
 10
54.696058
 20
168.664813
 30
0.0
 11
51.520025
 21
168.664813
 31
0.0
  0
SPLINE
  5
306
100
AcDbEntity
  8
レイヤー_2
 62
     7
100
AcDbSpline
210
0.0
220
0.0
230
1.0
 70
     8
 71
     3
 72
    50
 73
    46
 74
     0
 42
0.00000001
 43
0.00000001
 40
0.0
 40
0.0
 40
0.0
 40
0.0
 40
1.0
 40
1.0
 40
1.0
 40
2.0
 40
2.0
 40
2.0
 40
3.0
 40
3.0
 40
3.0
 40
4.0
 40
4.0
 40
4.0
 40
5.0
 40
5.0
 40
5.0
 40
6.0
 40
6.0
 40
6.0
 40
7.0
 40
7.0
 40
7.0
 40
8.0
 40
8.0
 40
8.0
 40
9.0
 40
9.0
 40
9.0
 40
10.0
 40
10.0
 40
10.0
 40
11.0
 40
11.0
 40
11.0
 40
12.0
 40
12.0
 40
12.0
 40
13.0
 40
13.0
 40
13.0
 40
14.0
 40
14.0
 40
14.0
 40
15.0
 40
15.0
 40
15.0
 40
15.0
 10
55.993481445312497
 20
163.62136501736109
 30
0.0
 10
55.993481445312497
 20
163.62136501736109
 30
0.0
 10
55.985729980468747
 20
163.63238932291665
 30
0.0
 10
55.975394694010411
 20
163.6490980360243
 30
0.0
 10
55.955757649739581
 20
163.68113742404512
 30
0.0
 10
55.912004937065966
 20
163.75279541015624
 30
0.0
 10
55.854988606770831
 20
163.8506361219618
 30
0.0
 10
55.795216200086799
 20
163.95347222222222
 30
0.0
 10
55.720974392361107
 20
164.08559163411456
 30
0.0
 10
55.643804253472219
 20
164.24268798828123
 30
0.0
 10
55.555437554253466
 20
164.41959364149304
 30
0.0
 10
55.462075466579854
 20
164.62802191840277
 30
0.0
 10
55.382666015624991
 20
164.86211615668401
 30
0.0
 10
55.317209201388884
 20
165.05624728732639
 30
0.0
 10
55.261054144965271
 20
165.2679484049479
 30
0.0
 10
55.227292209201387
 20
165.48860677083331
 30
0.0
 10
55.218334960937497
 20
165.54562310112846
 30
0.0
 10
55.21127251519097
 20
165.60332845052082
 30
0.0
 10
55.205415852864576
 20
165.66189507378471
 30
0.0
 10
55.19456380208333
 20
165.78006184895833
 30
0.0
 10
55.189396158854159
 20
165.90098470052081
 30
0.0
 10
55.191463216145827
 20
166.0213907877604
 30
0.0
 10
55.193530273437496
 20
166.14679226345484
 30
0.0
 10
55.203865559895831
 20
166.27098795572914
 30
0.0
 10
55.220918782552076
 20
166.3931165907118
 30
0.0
 10
55.250202094184026
 20
166.60619574652776
 30
0.0
 10
55.300328233506939
 20
166.81048990885415
 30
0.0
 10
55.361134168836799
 20
166.99979790581597
 30
0.0
 10
55.429002549913193
 20
167.21167127821178
 30
0.0
 10
55.5099622938368
 20
167.40425211588541
 30
0.0
 10
55.588854980468746
 20
167.57271728515624
 30
0.0
 10
55.634674750434023
 20
167.66969672309025
 30
0.0
 10
55.679633246527771
 20
167.75806342230902
 30
0.0
 10
55.722180175781247
 20
167.83781738281249
 30
0.0
 10
55.765416124131939
 20
167.92101643880207
 30
0.0
 10
55.807274034288191
 20
167.99474148220486
 30
0.0
 10
55.842930772569439
 20
168.05692545572916
 30
0.0
 10
55.877037217881941
 20
168.11600884331597
 30
0.0
 10
55.906665039062496
 20
168.16647949218748
 30
0.0
 10
55.931469726562497
 20
168.20627034505208
 30
0.0
 10
55.957307942708326
 20
168.24847276475694
 30
0.0
 10
55.976600477430551
 20
168.28085666232639
 30
0.0
 10
55.98400743272569
 20
168.29256998697915
 30
0.0
 10
55.98400743272569
 20
168.29256998697915
 30
0.0
 10
55.986591254340276
 20
168.29653184678818
 30
0.0
 10
55.986591254340276
 20
168.29653184678818
 30
0.0
  0
LINE
  5
305
100
AcDbEntity
  8
レイヤー_2
 62
     7
100
AcDbLine
 10
54.432681
 20
183.153506
 30
0.0
 11
54.432681
 21
172.686789
 31
0.0
  0
LINE
  5
304
100
AcDbEntity
  8
レイヤー_2
 62
     7
100
AcDbLine
 10
54.432681
 20
170.386671
 30
0.0
 11
54.432681
 21
168.520119
 31
0.0
  0
LINE
  5
303
100
AcDbEntity
  8
レイヤー_2
 62
     7
100
AcDbLine
 10
48.651294
 20
170.386671
 30
0.0
 11
48.651294
 21
168.520119
 31
0.0
  0
LINE
  5
302
100
AcDbEntity
  8
レイヤー_2
 62
     7
100
AcDbLine
 10
48.651294
 20
183.153506
 30
0.0
 11
48.651294
 21
172.6861
 31
0.0
  0
LINE
  5
301
100
AcDbEntity
  8
レイヤー_2
 62
     7
100
AcDbLine
 10
76.565008
 20
164.95255
 30
0.0
 11
76.565008
 21
162.415754
 31
0.0
  0
LINE
  5
300
100
AcDbEntity
  8
レイヤー_2
 62
     7
100
AcDbLine
 10
75.997084
 20
177.596739
 30
0.0
 11
75.997084
 21
172.694541
 31
0.0
  0
LINE
  5
2FF
100
AcDbEntity
  8
レイヤー_2
 62
     7
100
AcDbLine
 10
75.37645
 20
177.596739
 30
0.0
 11
75.37645
 21
172.694541
 31
0.0
  0
LINE
  5
2FE
100
AcDbEntity
  8
レイヤー_2
 62
     7
100
AcDbLine
 10
73.246692
 20
177.596739
 30
0.0
 11
73.246692
 21
172.694541
 31
0.0
  0
LINE
  5
2FD
100
AcDbEntity
  8
レイヤー_2
 62
     7
100
AcDbLine
 10
72.607627
 20
177.596739
 30
0.0
 11
72.607627
 21
172.694541
 31
0.0
  0
LINE
  5
2FC
100
AcDbEntity
  8
レイヤー_2
 62
     7
100
AcDbLine
 10
70.477524
 20
177.596739
 30
0.0
 11
70.477524
 21
172.694541
 31
0.0
  0
SPLINE
  5
2FB
100
AcDbEntity
  8
レイヤー_2
 62
     7
100
AcDbSpline
210
0.0
220
0.0
230
1.0
 70
     8
 71
     3
 72
    14
 73
    10
 74
     0
 42
0.00000001
 43
0.00000001
 40
0.0
 40
0.0
 40
0.0
 40
0.0
 40
1.0
 40
1.0
 40
1.0
 40
2.0
 40
2.0
 40
2.0
 40
3.0
 40
3.0
 40
3.0
 40
3.0
 10
70.373826768663193
 20
148.99779595269095
 30
0.0
 10
70.32662896050347
 20
148.99779595269095
 30
0.0
 10
71.190658908420133
 20
149.51903889973957
 30
0.0
 10
72.199555121527766
 20
149.37468939887151
 30
0.0
 10
73.2082790798611
 20
149.23033989800345
 30
0.0
 10
73.544348144531241
 20
148.79866943359374
 30
0.0
 10
74.216141764322913
 20
148.79866943359374
 30
0.0
 10
74.888624403211793
 20
148.79866943359374
 30
0.0
 10
75.41692979600694
 20
149.23033989800345
 30
0.0
 10
75.41692979600694
 20
149.23033989800345
 30
0.0
  0
SPLINE
  5
2FA
100
AcDbEntity
  8
レイヤー_2
 62
     7
100
AcDbSpline
210
0.0
220
0.0
230
1.0
 70
     8
 71
     3
 72
     8
 73
     4
 74
     0
 42
0.00000001
 43
0.00000001
 40
0.0
 40
0.0
 40
0.0
 40
0.0
 40
1.0
 40
1.0
 40
1.0
 40
1.0
 10
67.885089789496519
 20
183.34746500651039
 30
0.0
 10
67.966738552517356
 20
183.22430284288194
 30
0.0
 10
68.101441786024296
 20
183.15643446180553
 30
0.0
 10
68.240795898437497
 20
183.15557318793401
 30
0.0
  0
SPLINE
  5
2F9
100
AcDbEntity
  8
レイヤー_2
 62
     7
100
AcDbSpline
210
0.0
220
0.0
230
1.0
 70
     8
 71
     3
 72
     8
 73
     4
 74
     0
 42
0.00000001
 43
0.00000001
 40
0.0
 40
0.0
 40
0.0
 40
0.0
 40
1.0
 40
1.0
 40
1.0
 40
1.0
 10
77.61300591362847
 20
183.15557318793401
 30
0.0
 10
77.761145019531241
 20
183.15557318793401
 30
0.0
 10
77.891714138454859
 20
183.23136528862847
 30
0.0
 10
77.969056532118046
 20
183.34746500651039
 30
0.0
  0
LINE
  5
2F8
100
AcDbEntity
  8
レイヤー_2
 62
     7
100
AcDbLine
 10
68.240796
 20
183.155573
 30
0.0
 11
77.613006
 21
183.155573
 31
0.0
  0
LINE
  5
2F7
100
AcDbEntity
  8
レイヤー_2
 62
     7
100
AcDbLine
 10
76.54761
 20
170.812313
 30
0.0
 11
76.140228
 21
170.884832
 31
0.0
  0
LINE
  5
2F6
100
AcDbEntity
  8
レイヤー_2
 62
     7
100
AcDbLine
 10
76.54761
 20
170.501393
 30
0.0
 11
76.54761
 21
170.812313
 31
0.0
  0
LINE
  5
2F5
100
AcDbEntity
  8
レイヤー_2
 62
     7
100
AcDbLine
 10
76.22825
 20
169.947938
 30
0.0
 11
76.54761
 21
170.501393
 31
0.0
  0
LINE
  5
2F4
100
AcDbEntity
  8
レイヤー_2
 62
     7
100
AcDbLine
 10
76.22825
 20
164.96323
 30
0.0
 11
76.22825
 21
169.947938
 31
0.0
  0
LINE
  5
2F3
100
AcDbEntity
  8
レイヤー_2
 62
     7
100
AcDbLine
 10
76.54761
 20
162.406624
 30
0.0
 11
76.561735
 21
162.414548
 31
0.0
  0
LINE
  5
2F2
100
AcDbEntity
  8
レイヤー_2
 62
     7
100
AcDbLine
 10
76.561735
 20
164.954961
 30
0.0
 11
76.54761
 21
164.96323
 31
0.0
  0
LINE
  5
2F1
100
AcDbEntity
  8
レイヤー_2
 62
     7
100
AcDbLine
 10
78.473763
 20
170.991113
 30
0.0
 11
78.473763
 21
172.269071
 31
0.0
  0
LINE
  5
2F0
100
AcDbEntity
  8
レイヤー_2
 62
     7
100
AcDbLine
 10
67.397781
 20
172.269071
 30
0.0
 11
67.397781
 21
170.991113
 31
0.0
  0
SPLINE
  5
2EF
100
AcDbEntity
  8
レイヤー_2
 62
     7
100
AcDbSpline
210
0.0
220
0.0
230
1.0
 70
     8
 71
     3
 72
     8
 73
     4
 74
     0
 42
0.00000001
 43
0.00000001
 40
0.0
 40
0.0
 40
0.0
 40
0.0
 40
1.0
 40
1.0
 40
1.0
 40
1.0
 10
67.397781032986103
 20
170.99111328124999
 30
0.0
 10
67.397781032986103
 20
170.93202989366318
 30
0.0
 10
67.445151095920139
 20
170.88483208550346
 30
0.0
 10
67.503889973958323
 20
170.88483208550346
 30
0.0
  0
SPLINE
  5
2EE
100
AcDbEntity
  8
レイヤー_2
 62
     7
100
AcDbSpline
210
0.0
220
0.0
230
1.0
 70
     8
 71
     3
 72
     8
 73
     4
 74
     0
 42
0.00000001
 43
0.00000001
 40
0.0
 40
0.0
 40
0.0
 40
0.0
 40
1.0
 40
1.0
 40
1.0
 40
1.0
 10
78.366965060763889
 20
170.88483208550346
 30
0.0
 10
78.426048448350684
 20
170.88483208550346
 30
0.0
 10
78.473763020833331
 20
170.93202989366318
 30
0.0
 10
78.473763020833331
 20
170.99111328124999
 30
0.0
  0
SPLINE
  5
2ED
100
AcDbEntity
  8
レイヤー_2
 62
     7
100
AcDbSpline
210
0.0
220
0.0
230
1.0
 70
     8
 71
     3
 72
     8
 73
     4
 74
     0
 42
0.00000001
 43
0.00000001
 40
0.0
 40
0.0
 40
0.0
 40
0.0
 40
1.0
 40
1.0
 40
1.0
 40
1.0
 10
67.503889973958323
 20
172.37569715711803
 30
0.0
 10
67.445151095920139
 20
172.37569715711803
 30
0.0
 10
67.397781032986103
 20
172.32781032986111
 30
0.0
 10
67.397781032986103
 20
172.2690714518229
 30
0.0
  0
SPLINE
  5
2EC
100
AcDbEntity
  8
レイヤー_2
 62
     7
100
AcDbSpline
210
0.0
220
0.0
230
1.0
 70
     8
 71
     3
 72
     8
 73
     4
 74
     0
 42
0.00000001
 43
0.00000001
 40
0.0
 40
0.0
 40
0.0
 40
0.0
 40
1.0
 40
1.0
 40
1.0
 40
1.0
 10
78.473763020833331
 20
172.2690714518229
 30
0.0
 10
78.473763020833331
 20
172.32781032986111
 30
0.0
 10
78.426048448350684
 20
172.37569715711803
 30
0.0
 10
78.366965060763889
 20
172.37569715711803
 30
0.0
  0
LINE
  5
2EB
100
AcDbEntity
  8
レイヤー_2
 62
     7
100
AcDbLine
 10
73.468728
 20
172.269071
 30
0.0
 11
73.468728
 21
170.991113
 31
0.0
  0
SPLINE
  5
2EA
100
AcDbEntity
  8
レイヤー_2
 62
     7
100
AcDbSpline
210
0.0
220
0.0
230
1.0
 70
     8
 71
     3
 72
     8
 73
     4
 74
     0
 42
0.00000001
 43
0.00000001
 40
0.0
 40
0.0
 40
0.0
 40
0.0
 40
1.0
 40
1.0
 40
1.0
 40
1.0
 10
73.575354003906241
 20
172.37569715711803
 30
0.0
 10
73.516959635416654
 20
172.37569715711803
 30
0.0
 10
73.468728298611111
 20
172.32781032986111
 30
0.0
 10
73.468728298611111
 20
172.2690714518229
 30
0.0
  0
SPLINE
  5
2E9
100
AcDbEntity
  8
レイヤー_2
 62
     7
100
AcDbSpline
210
0.0
220
0.0
230
1.0
 70
     8
 71
     3
 72
     8
 73
     4
 74
     0
 42
0.00000001
 43
0.00000001
 40
0.0
 40
0.0
 40
0.0
 40
0.0
 40
1.0
 40
1.0
 40
1.0
 40
1.0
 10
73.468728298611111
 20
170.99111328124999
 30
0.0
 10
73.468728298611111
 20
170.93202989366318
 30
0.0
 10
73.516959635416654
 20
170.88483208550346
 30
0.0
 10
73.575354003906241
 20
170.88483208550346
 30
0.0
  0
LINE
  5
2E8
100
AcDbEntity
  8
レイヤー_2
 62
     7
100
AcDbLine
 10
69.398348
 20
171.978994
 30
0.0
 11
69.398348
 21
172.269071
 31
0.0
  0
SPLINE
  5
2E7
100
AcDbEntity
  8
レイヤー_2
 62
     7
100
AcDbSpline
210
0.0
220
0.0
230
1.0
 70
     8
 71
     3
 72
     8
 73
     4
 74
     0
 42
0.00000001
 43
0.00000001
 40
0.0
 40
0.0
 40
0.0
 40
0.0
 40
1.0
 40
1.0
 40
1.0
 40
1.0
 10
69.398347981770826
 20
172.2690714518229
 30
0.0
 10
69.398347981770826
 20
172.32781032986111
 30
0.0
 10
69.35046115451388
 20
172.37569715711803
 30
0.0
 10
69.29137776692707
 20
172.37569715711803
 30
0.0
  0
LINE
  5
2E6
100
AcDbEntity
  8
レイヤー_2
 62
     7
100
AcDbLine
 10
69.597302
 20
170.991113
 30
0.0
 11
69.597302
 21
171.949194
 31
0.0
  0
SPLINE
  5
2E5
100
AcDbEntity
  8
レイヤー_2
 62
     7
100
AcDbSpline
210
0.0
220
0.0
230
1.0
 70
     8
 71
     3
 72
     8
 73
     4
 74
     0
 42
0.00000001
 43
0.00000001
 40
0.0
 40
0.0
 40
0.0
 40
0.0
 40
1.0
 40
1.0
 40
1.0
 40
1.0
 10
69.597302246093747
 20
171.94919433593748
 30
0.0
 10
69.597302246093747
 20
172.00862223307291
 30
0.0
 10
69.549243164062489
 20
172.05616455078123
 30
0.0
 10
69.490159776475693
 20
172.05616455078123
 30
0.0
  0
LINE
  5
2E4
100
AcDbEntity
  8
レイヤー_2
 62
     7
100
AcDbLine
 10
67.823595
 20
172.694541
 30
0.0
 11
67.823595
 21
172.375697
 31
0.0
  0
LINE
  5
2E3
100
AcDbEntity
  8
レイヤー_2
 62
     7
100
AcDbLine
 10
78.047605
 20
172.375697
 30
0.0
 11
78.047605
 21
172.694541
 31
0.0
  0
SPLINE
  5
2E2
100
AcDbEntity
  8
レイヤー_2
 62
     7
100
AcDbSpline
210
0.0
220
0.0
230
1.0
 70
     8
 71
     3
 72
     8
 73
     4
 74
     0
 42
0.00000001
 43
0.00000001
 40
0.0
 40
0.0
 40
0.0
 40
0.0
 40
1.0
 40
1.0
 40
1.0
 40
1.0
 10
75.376449924045133
 20
149.2003675672743
 30
0.0
 10
75.376449924045133
 20
162.61918674045137
 30
0.0
 10
75.376449924045133
 20
170.81231282552082
 30
0.0
 10
75.376449924045133
 20
170.81231282552082
 30
0.0
  0
LINE
  5
2E1
100
AcDbEntity
  8
レイヤー_2
 62
     7
100
AcDbLine
 10
75.37645
 20
177.596739
 30
0.0
 11
75.37645
 21
183.155573
 31
0.0
  0
LINE
  5
2E0
100
AcDbEntity
  8
レイヤー_2
 62
     7
100
AcDbLine
 10
73.246692
 20
183.155573
 30
0.0
 11
73.246692
 21
177.596739
 31
0.0
  0
SPLINE
  5
2DF
100
AcDbEntity
  8
レイヤー_2
 62
     7
100
AcDbSpline
210
0.0
220
0.0
230
1.0
 70
     8
 71
     3
 72
     8
 73
     4
 74
     0
 42
0.00000001
 43
0.00000001
 40
0.0
 40
0.0
 40
0.0
 40
0.0
 40
1.0
 40
1.0
 40
1.0
 40
1.0
 10
73.246691894531239
 20
172.05616455078123
 30
0.0
 10
73.246691894531239
 20
172.05616455078123
 30
0.0
 10
73.246691894531239
 20
162.98626166449651
 30
0.0
 10
73.246691894531239
 20
149.07014295789929
 30
0.0
  0
SPLINE
  5
2DE
100
AcDbEntity
  8
レイヤー_2
 62
     7
100
AcDbSpline
210
0.0
220
0.0
230
1.0
 70
     8
 71
     3
 72
     8
 73
     4
 74
     0
 42
0.00000001
 43
0.00000001
 40
0.0
 40
0.0
 40
0.0
 40
0.0
 40
1.0
 40
1.0
 40
1.0
 40
1.0
 10
72.607626681857639
 20
149.2937296549479
 30
0.0
 10
72.607626681857639
 20
163.16178927951387
 30
0.0
 10
72.607626681857639
 20
172.05616455078123
 30
0.0
 10
72.607626681857639
 20
172.05616455078123
 30
0.0
  0
LINE
  5
2DD
100
AcDbEntity
  8
レイヤー_2
 62
     7
100
AcDbLine
 10
72.607627
 20
177.596739
 30
0.0
 11
72.607627
 21
183.155573
 31
0.0
  0
LINE
  5
2DC
100
AcDbEntity
  8
レイヤー_2
 62
     7
100
AcDbLine
 10
70.477524
 20
183.155573
 30
0.0
 11
70.477524
 21
177.596739
 31
0.0
  0
SPLINE
  5
2DB
100
AcDbEntity
  8
レイヤー_2
 62
     7
100
AcDbSpline
210
0.0
220
0.0
230
1.0
 70
     8
 71
     3
 72
     8
 73
     4
 74
     0
 42
0.00000001
 43
0.00000001
 40
0.0
 40
0.0
 40
0.0
 40
0.0
 40
1.0
 40
1.0
 40
1.0
 40
1.0
 10
70.477524142795133
 20
171.94919433593748
 30
0.0
 10
70.477524142795133
 20
171.94919433593748
 30
0.0
 10
70.477524142795133
 20
161.28231743706596
 30
0.0
 10
70.477524142795133
 20
149.08599039713539
 30
0.0
  0
LINE
  5
2DA
100
AcDbEntity
  8
レイヤー_2
 62
     7
100
AcDbLine
 10
75.997084
 20
177.596739
 30
0.0
 11
75.997084
 21
183.155573
 31
0.0
  0
SPLINE
  5
2D9
100
AcDbEntity
  8
レイヤー_2
 62
     7
100
AcDbSpline
210
0.0
220
0.0
230
1.0
 70
     8
 71
     3
 72
    11
 73
     7
 74
     0
 42
0.00000001
 43
0.00000001
 40
0.0
 40
0.0
 40
0.0
 40
0.0
 40
1.0
 40
1.0
 40
1.0
 40
2.0
 40
2.0
 40
2.0
 40
2.0
 10
72.617272949218744
 20
206.82372368706595
 30
0.0
 10
72.617272949218744
 20
206.82372368706595
 30
0.0
 10
72.626230197482627
 20
206.82372368706595
 30
0.0
 10
72.626230197482627
 20
206.82372368706595
 30
0.0
 10
72.723554144965277
 20
206.82579074435762
 30
0.0
 10
72.82501220703125
 20
206.82579074435762
 30
0.0
 10
72.927331542968744
 20
206.82579074435762
 30
0.0
  0
SPLINE
  5
2D8
100
AcDbEntity
  8
レイヤー_2
 62
     7
100
AcDbSpline
210
0.0
220
0.0
230
1.0
 70
     8
 71
     3
 72
    17
 73
    13
 74
     0
 42
0.00000001
 43
0.00000001
 40
0.0
 40
0.0
 40
0.0
 40
0.0
 40
1.0
 40
1.0
 40
1.0
 40
2.0
 40
2.0
 40
2.0
 40
3.0
 40
3.0
 40
3.0
 40
4.0
 40
4.0
 40
4.0
 40
4.0
 10
71.521904839409714
 20
206.77618136935763
 30
0.0
 10
71.57030843098957
 20
206.78014322916664
 30
0.0
 10
71.618539767795127
 20
206.7846218532986
 30
0.0
 10
71.671938747829856
 20
206.78892822265624
 30
0.0
 10
71.75823838975694
 20
206.79495713975692
 30
0.0
 10
71.8560791015625
 20
206.8004692925347
 30
0.0
 10
71.959087456597217
 20
206.80494791666663
 30
0.0
 10
72.061406792534711
 20
206.80977105034719
 30
0.0
 10
72.16906602647569
 20
206.81442192925346
 30
0.0
 10
72.281203884548603
 20
206.81717800564235
 30
0.0
 10
72.390068901909714
 20
206.82010633680554
 30
0.0
 10
72.503929307725684
 20
206.82165662977428
 30
0.0
 10
72.617272949218744
 20
206.82372368706595
 30
0.0
  0
SPLINE
  5
2D7
100
AcDbEntity
  8
レイヤー_2
 62
     7
100
AcDbSpline
210
0.0
220
0.0
230
1.0
 70
     8
 71
     3
 72
    11
 73
     7
 74
     0
 42
0.00000001
 43
0.00000001
 40
0.0
 40
0.0
 40
0.0
 40
0.0
 40
1.0
 40
1.0
 40
1.0
 40
2.0
 40
2.0
 40
2.0
 40
2.0
 10
74.090912543402766
 20
206.79426812065969
 30
0.0
 10
74.090912543402766
 20
206.79426812065969
 30
0.0
 10
74.095563422309027
 20
206.79426812065969
 30
0.0
 10
74.095563422309027
 20
206.79426812065969
 30
0.0
 10
74.15878092447916
 20
206.79099527994791
 30
0.0
 10
74.208390299479163
 20
206.78703342013887
 30
0.0
 10
74.258516438802076
 20
206.78169352213538
 30
0.0
  0
SPLINE
  5
2D6
100
AcDbEntity
  8
レイヤー_2
 62
     7
100
AcDbSpline
210
0.0
220
0.0
230
1.0
 70
     8
 71
     3
 72
    17
 73
    13
 74
     0
 42
0.00000001
 43
0.00000001
 40
0.0
 40
0.0
 40
0.0
 40
0.0
 40
1.0
 40
1.0
 40
1.0
 40
2.0
 40
2.0
 40
2.0
 40
3.0
 40
3.0
 40
3.0
 40
4.0
 40
4.0
 40
4.0
 40
4.0
 10
72.927331542968744
 20
206.82579074435762
 30
0.0
 10
72.989343261718744
 20
206.82579074435762
 30
0.0
 10
73.051354980468744
 20
206.82579074435762
 30
0.0
 10
73.113366699218744
 20
206.82544623480902
 30
0.0
 10
73.232394748263886
 20
206.82424045138887
 30
0.0
 10
73.349011230468747
 20
206.82217339409721
 30
0.0
 10
73.463732910156239
 20
206.81924506293402
 30
0.0
 10
73.578971354166654
 20
206.81717800564235
 30
0.0
 10
73.690420193142359
 20
206.81373291015623
 30
0.0
 10
73.795323350694431
 20
206.8092542860243
 30
0.0
 10
73.897814941406239
 20
206.80494791666663
 30
0.0
 10
73.994449869791666
 20
206.79995252821178
 30
0.0
 10
74.090912543402766
 20
206.79426812065969
 30
0.0
  0
LINE
  5
2D5
100
AcDbEntity
  8
レイヤー_2
 62
     7
100
AcDbLine
 10
70.956909
 20
206.782555
 30
0.0
 11
70.956909
 21
206.740008
 31
0.0
  0
LINE
  5
2D4
100
AcDbEntity
  8
レイヤー_2
 62
     7
100
AcDbLine
 10
74.897237
 20
206.740008
 30
0.0
 11
74.897237
 21
206.782555
 31
0.0
  0
LINE
  5
2D3
100
AcDbEntity
  8
レイヤー_2
 62
     7
100
AcDbLine
 10
74.311571
 20
206.708657
 30
0.0
 11
74.311571
 21
206.774459
 31
0.0
  0
LINE
  5
2D2
100
AcDbEntity
  8
レイヤー_2
 62
     7
100
AcDbLine
 10
71.542403
 20
206.774459
 30
0.0
 11
71.542403
 21
206.708657
 31
0.0
  0
LINE
  5
2D1
100
AcDbEntity
  8
レイヤー_2
 62
     7
100
AcDbLine
 10
73.949664
 20
206.708657
 30
0.0
 11
73.949664
 21
206.77377
 31
0.0
  0
LINE
  5
2D0
100
AcDbEntity
  8
レイヤー_2
 62
     7
100
AcDbLine
 10
71.90431
 20
206.77377
 30
0.0
 11
71.90431
 21
206.708657
 31
0.0
  0
LINE
  5
2CF
100
AcDbEntity
  8
レイヤー_2
 62
     7
100
AcDbLine
 10
73.566052
 20
206.708657
 30
0.0
 11
73.566052
 21
206.764468
 31
0.0
  0
LINE
  5
2CE
100
AcDbEntity
  8
レイヤー_2
 62
     7
100
AcDbLine
 10
72.28775
 20
206.764468
 30
0.0
 11
72.28775
 21
206.708657
 31
0.0
  0
LINE
  5
2CD
100
AcDbEntity
  8
レイヤー_2
 62
     7
100
AcDbLine
 10
75.483076
 20
207.568209
 30
0.0
 11
75.483076
 21
208.523534
 31
0.0
  0
LINE
  5
2CC
100
AcDbEntity
  8
レイヤー_2
 62
     7
100
AcDbLine
 10
70.370554
 20
208.523534
 30
0.0
 11
70.370554
 21
207.568209
 31
0.0
  0
LINE
  5
2CB
100
AcDbEntity
  8
レイヤー_2
 62
     7
100
AcDbLine
 10
75.322706
 20
208.593986
 30
0.0
 11
75.322706
 21
208.626198
 31
0.0
  0
LINE
  5
2CA
100
AcDbEntity
  8
レイヤー_2
 62
     7
100
AcDbLine
 10
70.530579
 20
208.626198
 30
0.0
 11
70.530579
 21
208.593986
 31
0.0
  0
LINE
  5
2C9
100
AcDbEntity
  8
レイヤー_2
 62
     7
100
AcDbLine
 10
70.583978
 20
206.706418
 30
0.0
 11
70.605682
 21
206.693499
 31
0.0
  0
LINE
  5
2C8
100
AcDbEntity
  8
レイヤー_2
 62
     7
100
AcDbLine
 10
75.24812
 20
206.693499
 30
0.0
 11
75.269824
 21
206.706418
 31
0.0
  0
SPLINE
  5
2C7
100
AcDbEntity
  8
レイヤー_2
 62
     7
100
AcDbSpline
210
0.0
220
0.0
230
1.0
 70
     8
 71
     3
 72
     8
 73
     4
 74
     0
 42
0.00000001
 43
0.00000001
 40
0.0
 40
0.0
 40
0.0
 40
0.0
 40
1.0
 40
1.0
 40
1.0
 40
1.0
 10
68.465416124131934
 20
212.30969373914928
 30
0.0
 10
68.375154622395826
 20
212.30969373914928
 30
0.0
 10
68.302118598090274
 20
212.24027506510416
 30
0.0
 10
68.295056152343747
 20
212.15173611111109
 30
0.0
  0
SPLINE
  5
2C6
100
AcDbEntity
  8
レイヤー_2
 62
     7
100
AcDbSpline
210
0.0
220
0.0
230
1.0
 70
     8
 71
     3
 72
     8
 73
     4
 74
     0
 42
0.00000001
 43
0.00000001
 40
0.0
 40
0.0
 40
0.0
 40
0.0
 40
1.0
 40
1.0
 40
1.0
 40
1.0
 10
77.558917914496519
 20
212.15173611111109
 30
0.0
 10
77.552027723524304
 20
212.24130859374998
 30
0.0
 10
77.477613661024293
 20
212.30969373914928
 30
0.0
 10
77.388041178385407
 20
212.30969373914928
 30
0.0
  0
SPLINE
  5
2C5
100
AcDbEntity
  8
レイヤー_2
 62
     7
100
AcDbSpline
210
0.0
220
0.0
230
1.0
 70
     8
 71
     3
 72
    11
 73
     7
 74
     0
 42
0.00000001
 43
0.00000001
 40
0.0
 40
0.0
 40
0.0
 40
0.0
 40
1.0
 40
1.0
 40
1.0
 40
2.0
 40
2.0
 40
2.0
 40
2.0
 10
77.587684461805551
 20
211.56503634982636
 30
0.0
 10
77.586478678385404
 20
211.59449191623261
 30
0.0
 10
77.585272894965271
 20
211.62377522786457
 30
0.0
 10
77.58441162109375
 20
211.6527140299479
 30
0.0
 10
77.578210449218744
 20
211.81825086805554
 30
0.0
 10
77.567530653211804
 20
211.984821234809
 30
0.0
 10
77.55685085720485
 20
212.15173611111109
 30
0.0
  0
SPLINE
  5
2C4
100
AcDbEntity
  8
レイヤー_2
 62
     7
100
AcDbSpline
210
0.0
220
0.0
230
1.0
 70
     8
 71
     3
 72
    11
 73
     7
 74
     0
 42
0.00000001
 43
0.00000001
 40
0.0
 40
0.0
 40
0.0
 40
0.0
 40
1.0
 40
1.0
 40
1.0
 40
2.0
 40
2.0
 40
2.0
 40
2.0
 10
68.29626193576388
 20
212.15173611111109
 30
0.0
 10
68.29333360460069
 20
212.12193603515624
 30
0.0
 10
68.291266547309021
 20
212.09265272352428
 30
0.0
 10
68.289716254340277
 20
212.0625081380208
 30
0.0
 10
68.278519694010413
 20
211.89611002604164
 30
0.0
 10
68.272835286458331
 20
211.73091769748262
 30
0.0
 10
68.266978624131937
 20
211.56503634982636
 30
0.0
  0
SPLINE
  5
2C3
100
AcDbEntity
  8
レイヤー_2
 62
     7
100
AcDbSpline
210
0.0
220
0.0
230
1.0
 70
     8
 71
     3
 72
     8
 73
     4
 74
     0
 42
0.00000001
 43
0.00000001
 40
0.0
 40
0.0
 40
0.0
 40
0.0
 40
1.0
 40
1.0
 40
1.0
 40
1.0
 10
77.625752766927079
 20
211.55177273220485
 30
0.0
 10
77.625752766927079
 20
211.59397515190972
 30
0.0
 10
77.610766601562489
 20
211.63187120225692
 30
0.0
 10
77.585789659288181
 20
211.66132676866317
 30
0.0
  0
LINE
  5
2C2
100
AcDbEntity
  8
レイヤー_2
 62
     7
100
AcDbLine
 10
77.627475
 20
211.532997
 30
0.0
 11
77.626614
 21
211.551773
 31
0.0
  0
SPLINE
  5
2C1
100
AcDbEntity
  8
レイヤー_2
 62
     7
100
AcDbSpline
210
0.0
220
0.0
230
1.0
 70
     8
 71
     3
 72
     8
 73
     4
 74
     0
 42
0.00000001
 43
0.00000001
 40
0.0
 40
0.0
 40
0.0
 40
0.0
 40
1.0
 40
1.0
 40
1.0
 40
1.0
 10
68.271284993489573
 20
211.66546088324651
 30
0.0
 10
68.242346191406241
 20
211.63273247612847
 30
0.0
 10
68.227876790364576
 20
211.59225260416665
 30
0.0
 10
68.227876790364576
 20
211.55177273220485
 30
0.0
  0
LINE
  5
2C0
100
AcDbEntity
  8
レイヤー_2
 62
     7
100
AcDbLine
 10
68.226671
 20
211.551773
 30
0.0
 11
68.226671
 21
211.532997
 31
0.0
  0
SPLINE
  5
2BF
100
AcDbEntity
  8
レイヤー_2
 62
     7
100
AcDbSpline
210
0.0
220
0.0
230
1.0
 70
     8
 71
     3
 72
    11
 73
     7
 74
     0
 42
0.00000001
 43
0.00000001
 40
0.0
 40
0.0
 40
0.0
 40
0.0
 40
1.0
 40
1.0
 40
1.0
 40
2.0
 40
2.0
 40
2.0
 40
2.0
 10
78.896131727430543
 20
183.39035644531248
 30
0.0
 10
78.857374403211793
 20
184.24008924696179
 30
0.0
 10
78.819306098090266
 20
185.0899943033854
 30
0.0
 10
78.78106553819444
 20
185.93938259548608
 30
0.0
 10
78.396592881944443
 20
194.47098931206597
 30
0.0
 10
78.011603461371521
 20
203.00139024522568
 30
0.0
 10
77.6266140407986
 20
211.53299696180554
 30
0.0
  0
SPLINE
  5
2BE
100
AcDbEntity
  8
レイヤー_2
 62
     7
100
AcDbSpline
210
0.0
220
0.0
230
1.0
 70
     8
 71
     3
 72
    11
 73
     7
 74
     0
 42
0.00000001
 43
0.00000001
 40
0.0
 40
0.0
 40
0.0
 40
0.0
 40
1.0
 40
1.0
 40
1.0
 40
2.0
 40
2.0
 40
2.0
 40
2.0
 10
68.227015516493054
 20
211.53299696180554
 30
0.0
 10
68.133997938368054
 20
209.47403564453123
 30
0.0
 10
68.041152615017353
 20
207.41455756293402
 30
0.0
 10
67.948307291666666
 20
205.35559624565971
 30
0.0
 10
67.618267144097217
 20
198.03356255425345
 30
0.0
 10
67.287882486979157
 20
190.71170111762152
 30
0.0
 10
66.957842339409723
 20
183.39035644531248
 30
0.0
  0
LINE
  5
2BD
100
AcDbEntity
  8
レイヤー_2
 62
     7
100
AcDbLine
 10
76.42307
 20
162.530648
 30
0.0
 11
75.682202
 21
162.406624
 31
0.0
  0
SPLINE
  5
2BC
100
AcDbEntity
  8
レイヤー_2
 62
     7
100
AcDbSpline
210
0.0
220
0.0
230
1.0
 70
     8
 71
     3
 72
    11
 73
     7
 74
     0
 42
0.00000001
 43
0.00000001
 40
0.0
 40
0.0
 40
0.0
 40
0.0
 40
1.0
 40
1.0
 40
1.0
 40
2.0
 40
2.0
 40
2.0
 40
2.0
 10
75.682202148437497
 20
162.40662434895833
 30
0.0
 10
75.664804416232627
 20
162.40662434895833
 30
0.0
 10
75.646717664930549
 20
162.40662434895833
 30
0.0
 10
75.629664442274304
 20
162.40748562282985
 30
0.0
 10
75.543709309895831
 20
162.41110297309027
 30
0.0
 10
75.460165744357639
 20
162.43194580078122
 30
0.0
 10
75.376449924045133
 20
162.45278862847221
 30
0.0
  0
SPLINE
  5
2BB
100
AcDbEntity
  8
レイヤー_2
 62
     7
100
AcDbSpline
210
0.0
220
0.0
230
1.0
 70
     8
 71
     3
 72
    11
 73
     7
 74
     0
 42
0.00000001
 43
0.00000001
 40
0.0
 40
0.0
 40
0.0
 40
0.0
 40
1.0
 40
1.0
 40
1.0
 40
2.0
 40
2.0
 40
2.0
 40
2.0
 10
75.682202148437497
 20
164.96322970920139
 30
0.0
 10
75.664804416232627
 20
164.96322970920139
 30
0.0
 10
75.646717664930549
 20
164.96322970920139
 30
0.0
 10
75.629664442274304
 20
164.96219618055554
 30
0.0
 10
75.543709309895831
 20
164.95857883029512
 30
0.0
 10
75.460165744357639
 20
164.93808051215277
 30
0.0
 10
75.376449924045133
 20
164.91654866536456
 30
0.0
  0
LINE
  5
2BA
100
AcDbEntity
  8
レイヤー_2
 62
     7
100
AcDbLine
 10
76.42307
 20
164.839206
 30
0.0
 11
75.682202
 21
164.96323
 31
0.0
  0
LINE
  5
2B9
100
AcDbEntity
  8
レイヤー_2
 62
     7
100
AcDbLine
 10
76.42307
 20
162.530648
 30
0.0
 11
76.42307
 21
164.839206
 31
0.0
  0
LINE
  5
2B8
100
AcDbEntity
  8
レイヤー_2
 62
     7
100
AcDbLine
 10
75.37645
 20
164.96323
 30
0.0
 11
75.682202
 21
164.96323
 31
0.0
  0
LINE
  5
2B7
100
AcDbEntity
  8
レイヤー_2
 62
     7
100
AcDbLine
 10
75.682202
 20
162.406624
 30
0.0
 11
75.37645
 21
162.406624
 31
0.0
  0
LINE
  5
2B6
100
AcDbEntity
  8
レイヤー_2
 62
     7
100
AcDbLine
 10
76.54761
 20
170.812313
 30
0.0
 11
75.37645
 21
170.812313
 31
0.0
  0
LINE
  5
2B5
100
AcDbEntity
  8
レイヤー_2
 62
     7
100
AcDbLine
 10
76.54761
 20
170.501393
 30
0.0
 11
75.37645
 21
170.501393
 31
0.0
  0
LINE
  5
2B4
100
AcDbEntity
  8
レイヤー_2
 62
     7
100
AcDbLine
 10
76.22825
 20
169.947938
 30
0.0
 11
75.37645
 21
169.947938
 31
0.0
  0
SPLINE
  5
2B3
100
AcDbEntity
  8
レイヤー_2
 62
     7
100
AcDbSpline
210
0.0
220
0.0
230
1.0
 70
     8
 71
     3
 72
    11
 73
     7
 74
     0
 42
0.00000001
 43
0.00000001
 40
0.0
 40
0.0
 40
0.0
 40
0.0
 40
1.0
 40
1.0
 40
1.0
 40
2.0
 40
2.0
 40
2.0
 40
2.0
 10
76.534863281249997
 20
164.96322970920139
 30
0.0
 10
76.506613498263889
 20
164.94944932725693
 30
0.0
 10
76.478535970052079
 20
164.93549669053817
 30
0.0
 10
76.451319715711804
 20
164.89122721354164
 30
0.0
 10
76.441673448350684
 20
164.87693006727429
 30
0.0
 10
76.432543945312489
 20
164.85780978732637
 30
0.0
 10
76.423069932725681
 20
164.83920627170139
 30
0.0
  0
LINE
  5
2B2
100
AcDbEntity
  8
レイヤー_2
 62
     7
100
AcDbLine
 10
75.682202
 20
164.96323
 30
0.0
 11
76.534863
 21
164.96323
 31
0.0
  0
SPLINE
  5
2B1
100
AcDbEntity
  8
レイヤー_2
 62
     7
100
AcDbSpline
210
0.0
220
0.0
230
1.0
 70
     8
 71
     3
 72
    11
 73
     7
 74
     0
 42
0.00000001
 43
0.00000001
 40
0.0
 40
0.0
 40
0.0
 40
0.0
 40
1.0
 40
1.0
 40
1.0
 40
2.0
 40
2.0
 40
2.0
 40
2.0
 10
76.534863281249997
 20
162.40662434895833
 30
0.0
 10
76.506613498263889
 20
162.42074924045139
 30
0.0
 10
76.478535970052079
 20
162.43470187717011
 30
0.0
 10
76.451319715711804
 20
162.47862684461805
 30
0.0
 10
76.441673448350684
 20
162.4930962456597
 30
0.0
 10
76.432543945312489
 20
162.51187201605902
 30
0.0
 10
76.423069932725681
 20
162.53064778645833
 30
0.0
  0
LINE
  5
2B0
100
AcDbEntity
  8
レイヤー_2
 62
     7
100
AcDbLine
 10
76.534863
 20
162.406624
 30
0.0
 11
75.682202
 21
162.406624
 31
0.0
  0
LINE
  5
2AF
100
AcDbEntity
  8
レイヤー_2
 62
     7
100
AcDbLine
 10
76.561563
 20
162.415754
 30
0.0
 11
76.534863
 21
162.406624
 31
0.0
  0
LINE
  5
2AE
100
AcDbEntity
  8
レイヤー_2
 62
     7
100
AcDbLine
 10
76.565008
 20
164.95255
 30
0.0
 11
76.534863
 21
164.96323
 31
0.0
  0
LINE
  5
2AD
100
AcDbEntity
  8
レイヤー_2
 62
     7
100
AcDbLine
 10
73.588445
 20
172.269071
 30
0.0
 11
73.588445
 21
170.991113
 31
0.0
  0
LINE
  5
2AC
100
AcDbEntity
  8
レイヤー_2
 62
     7
100
AcDbLine
 10
69.182685
 20
170.991113
 30
0.0
 11
69.182685
 21
172.269071
 31
0.0
  0
SPLINE
  5
2AB
100
AcDbEntity
  8
レイヤー_2
 62
     7
100
AcDbSpline
210
0.0
220
0.0
230
1.0
 70
     8
 71
     3
 72
     8
 73
     4
 74
     0
 42
0.00000001
 43
0.00000001
 40
0.0
 40
0.0
 40
0.0
 40
0.0
 40
1.0
 40
1.0
 40
1.0
 40
1.0
 10
73.589823404947907
 20
170.96493055555553
 30
0.0
 10
73.589823404947907
 20
170.97388780381942
 30
0.0
 10
73.588789876302073
 20
170.98336181640624
 30
0.0
 10
73.588445366753461
 20
170.99111328124999
 30
0.0
  0
SPLINE
  5
2AA
100
AcDbEntity
  8
レイヤー_2
 62
     7
100
AcDbSpline
210
0.0
220
0.0
230
1.0
 70
     8
 71
     3
 72
     8
 73
     4
 74
     0
 42
0.00000001
 43
0.00000001
 40
0.0
 40
0.0
 40
0.0
 40
0.0
 40
1.0
 40
1.0
 40
1.0
 40
1.0
 10
73.575354003906241
 20
170.88483208550346
 30
0.0
 10
73.585344780815959
 20
170.9111870659722
 30
0.0
 10
73.589823404947907
 20
170.93909233940971
 30
0.0
 10
73.589823404947907
 20
170.96493055555553
 30
0.0
  0
SPLINE
  5
2A9
100
AcDbEntity
  8
レイヤー_2
 62
     7
100
AcDbSpline
210
0.0
220
0.0
230
1.0
 70
     8
 71
     3
 72
     8
 73
     4
 74
     0
 42
0.00000001
 43
0.00000001
 40
0.0
 40
0.0
 40
0.0
 40
0.0
 40
1.0
 40
1.0
 40
1.0
 40
1.0
 10
69.182685004340271
 20
170.99111328124999
 30
0.0
 10
69.175278049045133
 20
170.9418484157986
 30
0.0
 10
69.207145182291654
 20
170.8956841362847
 30
0.0
 10
69.255204264322913
 20
170.88483208550346
 30
0.0
  0
LINE
  5
2A8
100
AcDbEntity
  8
レイヤー_2
 62
     7
100
AcDbLine
 10
69.255204
 20
170.884832
 30
0.0
 11
67.50389
 21
170.884832
 31
0.0
  0
LINE
  5
2A7
100
AcDbEntity
  8
レイヤー_2
 62
     7
100
AcDbLine
 10
78.366965
 20
170.884832
 30
0.0
 11
73.575354
 21
170.884832
 31
0.0
  0
LINE
  5
2A6
100
AcDbEntity
  8
レイヤー_2
 62
     7
100
AcDbLine
 10
73.575354
 20
172.375697
 30
0.0
 11
78.366965
 21
172.375697
 31
0.0
  0
LINE
  5
2A5
100
AcDbEntity
  8
レイヤー_2
 62
     7
100
AcDbLine
 10
67.50389
 20
172.375697
 30
0.0
 11
69.255204
 21
172.375697
 31
0.0
  0
SPLINE
  5
2A4
100
AcDbEntity
  8
レイヤー_2
 62
     7
100
AcDbSpline
210
0.0
220
0.0
230
1.0
 70
     8
 71
     3
 72
     8
 73
     4
 74
     0
 42
0.00000001
 43
0.00000001
 40
0.0
 40
0.0
 40
0.0
 40
0.0
 40
1.0
 40
1.0
 40
1.0
 40
1.0
 10
69.255204264322913
 20
172.37569715711803
 30
0.0
 10
69.207145182291654
 20
172.36467285156249
 30
0.0
 10
69.175622558593744
 20
172.31764729817706
 30
0.0
 10
69.182685004340271
 20
172.2690714518229
 30
0.0
  0
SPLINE
  5
2A3
100
AcDbEntity
  8
レイヤー_2
 62
     7
100
AcDbSpline
210
0.0
220
0.0
230
1.0
 70
     8
 71
     3
 72
     8
 73
     4
 74
     0
 42
0.00000001
 43
0.00000001
 40
0.0
 40
0.0
 40
0.0
 40
0.0
 40
1.0
 40
1.0
 40
1.0
 40
1.0
 10
73.589823404947907
 20
172.29525417751734
 30
0.0
 10
73.589823404947907
 20
172.32419297960067
 30
0.0
 10
73.584828016493049
 20
172.35158148871525
 30
0.0
 10
73.575354003906241
 20
172.37569715711803
 30
0.0
  0
SPLINE
  5
2A2
100
AcDbEntity
  8
レイヤー_2
 62
     7
100
AcDbSpline
210
0.0
220
0.0
230
1.0
 70
     8
 71
     3
 72
     8
 73
     4
 74
     0
 42
0.00000001
 43
0.00000001
 40
0.0
 40
0.0
 40
0.0
 40
0.0
 40
1.0
 40
1.0
 40
1.0
 40
1.0
 10
73.588445366753461
 20
172.2690714518229
 30
0.0
 10
73.589478895399296
 20
172.27802870008679
 30
0.0
 10
73.589823404947907
 20
172.28750271267359
 30
0.0
 10
73.589823404947907
 20
172.29525417751734
 30
0.0
  0
LINE
  5
2A1
100
AcDbEntity
  8
レイヤー_2
 62
     7
100
AcDbLine
 10
69.360624
 20
170.991113
 30
0.0
 11
69.182685
 21
170.991113
 31
0.0
  0
SPLINE
  5
2A0
100
AcDbEntity
  8
レイヤー_2
 62
     7
100
AcDbSpline
210
0.0
220
0.0
230
1.0
 70
     8
 71
     3
 72
     8
 73
     4
 74
     0
 42
0.00000001
 43
0.00000001
 40
0.0
 40
0.0
 40
0.0
 40
0.0
 40
1.0
 40
1.0
 40
1.0
 40
1.0
 10
69.255204264322913
 20
170.88483208550346
 30
0.0
 10
69.313081868489576
 20
170.88483208550346
 30
0.0
 10
69.36062418619791
 20
170.93202989366318
 30
0.0
 10
69.36062418619791
 20
170.99025200737844
 30
0.0
  0
LINE
  5
29F
100
AcDbEntity
  8
レイヤー_2
 62
     7
100
AcDbLine
 10
69.360624
 20
172.269071
 30
0.0
 11
69.182685
 21
172.269071
 31
0.0
  0
LINE
  5
29E
100
AcDbEntity
  8
レイヤー_2
 62
     7
100
AcDbLine
 10
69.360624
 20
172.269071
 30
0.0
 11
69.360624
 21
170.991113
 31
0.0
  0
SPLINE
  5
29D
100
AcDbEntity
  8
レイヤー_2
 62
     7
100
AcDbSpline
210
0.0
220
0.0
230
1.0
 70
     8
 71
     3
 72
     8
 73
     4
 74
     0
 42
0.00000001
 43
0.00000001
 40
0.0
 40
0.0
 40
0.0
 40
0.0
 40
1.0
 40
1.0
 40
1.0
 40
1.0
 10
69.36062418619791
 20
172.26976047092012
 30
0.0
 10
69.36062418619791
 20
172.32781032986111
 30
0.0
 10
69.313081868489576
 20
172.37552490234373
 30
0.0
 10
69.255204264322913
 20
172.37569715711803
 30
0.0
  0
SPLINE
  5
29C
100
AcDbEntity
  8
レイヤー_2
 62
     7
100
AcDbSpline
210
0.0
220
0.0
230
1.0
 70
     8
 71
     3
 72
     8
 73
     4
 74
     0
 42
0.00000001
 43
0.00000001
 40
0.0
 40
0.0
 40
0.0
 40
0.0
 40
1.0
 40
1.0
 40
1.0
 40
1.0
 10
69.490159776475693
 20
170.88483208550346
 30
0.0
 10
69.54907090928819
 20
170.88483208550346
 30
0.0
 10
69.595751953124989
 20
170.93202989366318
 30
0.0
 10
69.595751953124989
 20
170.99025200737844
 30
0.0
  0
LINE
  5
29B
100
AcDbEntity
  8
レイヤー_2
 62
     7
100
AcDbLine
 10
69.360624
 20
170.991113
 30
0.0
 11
69.595752
 21
170.991113
 31
0.0
  0
LINE
  5
29A
100
AcDbEntity
  8
レイヤー_2
 62
     7
100
AcDbLine
 10
69.49016
 20
170.884832
 30
0.0
 11
69.255204
 21
170.884832
 31
0.0
  0
SPLINE
  5
299
100
AcDbEntity
  8
レイヤー_2
 62
     7
100
AcDbSpline
210
0.0
220
0.0
230
1.0
 70
     8
 71
     3
 72
     8
 73
     4
 74
     0
 42
0.00000001
 43
0.00000001
 40
0.0
 40
0.0
 40
0.0
 40
0.0
 40
1.0
 40
1.0
 40
1.0
 40
1.0
 10
69.396625434027769
 20
172.26976047092012
 30
0.0
 10
69.396625434027769
 20
172.32781032986111
 30
0.0
 10
69.349772135416657
 20
172.37552490234373
 30
0.0
 10
69.29137776692707
 20
172.37569715711803
 30
0.0
  0
LINE
  5
298
100
AcDbEntity
  8
レイヤー_2
 62
     7
100
AcDbLine
 10
69.396625
 20
172.269071
 30
0.0
 11
69.360624
 21
172.269071
 31
0.0
  0
LINE
  5
297
100
AcDbEntity
  8
レイヤー_2
 62
     7
100
AcDbLine
 10
69.255204
 20
172.375697
 30
0.0
 11
69.291378
 21
172.375697
 31
0.0
  0
LINE
  5
296
100
AcDbEntity
  8
レイヤー_2
 62
     7
100
AcDbLine
 10
69.396625
 20
171.949194
 30
0.0
 11
69.396625
 21
172.269071
 31
0.0
  0
LINE
  5
295
100
AcDbEntity
  8
レイヤー_2
 62
     7
100
AcDbLine
 10
69.595752
 20
171.949194
 30
0.0
 11
69.396625
 21
171.949194
 31
0.0
  0
LINE
  5
294
100
AcDbEntity
  8
レイヤー_2
 62
     7
100
AcDbLine
 10
69.595752
 20
170.991113
 30
0.0
 11
69.595752
 21
171.949194
 31
0.0
  0
SPLINE
  5
293
100
AcDbEntity
  8
レイヤー_2
 62
     7
100
AcDbSpline
210
0.0
220
0.0
230
1.0
 70
     8
 71
     3
 72
     8
 73
     4
 74
     0
 42
0.00000001
 43
0.00000001
 40
0.0
 40
0.0
 40
0.0
 40
0.0
 40
1.0
 40
1.0
 40
1.0
 40
1.0
 10
69.396625434027769
 20
171.94919433593748
 30
0.0
 10
69.401965332031239
 20
171.96865912543402
 30
0.0
 10
69.401965332031239
 20
171.98657362196178
 30
0.0
 10
69.398347981770826
 20
172.00121527777776
 30
0.0
  0
SPLINE
  5
292
100
AcDbEntity
  8
レイヤー_2
 62
     7
100
AcDbSpline
210
0.0
220
0.0
230
1.0
 70
     8
 71
     3
 72
     8
 73
     4
 74
     0
 42
0.00000001
 43
0.00000001
 40
0.0
 40
0.0
 40
0.0
 40
0.0
 40
1.0
 40
1.0
 40
1.0
 40
1.0
 10
69.595751953124989
 20
171.9498833550347
 30
0.0
 10
69.595751953124989
 20
172.00862223307291
 30
0.0
 10
69.54907090928819
 20
172.05547553168401
 30
0.0
 10
69.490159776475693
 20
172.05616455078123
 30
0.0
  0
LINE
  5
291
100
AcDbEntity
  8
レイヤー_2
 62
     7
100
AcDbLine
 10
70.477524
 20
170.884832
 30
0.0
 11
69.49016
 21
170.884832
 31
0.0
  0
LINE
  5
290
100
AcDbEntity
  8
レイヤー_2
 62
     7
100
AcDbLine
 10
74.903266
 20
172.694541
 30
0.0
 11
67.823595
 21
172.694541
 31
0.0
  0
LINE
  5
28F
100
AcDbEntity
  8
レイヤー_2
 62
     7
100
AcDbLine
 10
78.047605
 20
172.694541
 30
0.0
 11
74.903266
 21
172.694541
 31
0.0
  0
LINE
  5
28E
100
AcDbEntity
  8
レイヤー_2
 62
     7
100
AcDbLine
 10
73.468728
 20
172.056165
 30
0.0
 11
69.398348
 21
172.056165
 31
0.0
  0
POLYLINE
  5
286
100
AcDbEntity
  8
レイヤー_2
 62
     7
100
AcDb2dPolyline
 66
     1
 10
0.0
 20
0.0
 30
0.0
  0
VERTEX
  5
287
100
AcDbEntity
  8
レイヤー_2
 62
     7
100
AcDbVertex
100
AcDb2dVertex
 10
74.578049
 20
206.82424
 30
0.0
  0
VERTEX
  5
288
100
AcDbEntity
  8
レイヤー_2
 62
     7
100
AcDbVertex
100
AcDb2dVertex
 10
74.747031
 20
206.798919
 30
0.0
  0
VERTEX
  5
289
100
AcDbEntity
  8
レイヤー_2
 62
     7
100
AcDbVertex
100
AcDb2dVertex
 10
74.859169
 20
206.770152
 30
0.0
  0
VERTEX
  5
28A
100
AcDbEntity
  8
レイヤー_2
 62
     7
100
AcDbVertex
100
AcDb2dVertex
 10
74.897237
 20
206.740008
 30
0.0
  0
VERTEX
  5
28B
100
AcDbEntity
  8
レイヤー_2
 62
     7
100
AcDbVertex
100
AcDb2dVertex
 10
74.859169
 20
206.710036
 30
0.0
  0
VERTEX
  5
28C
100
AcDbEntity
  8
レイヤー_2
 62
     7
100
AcDbVertex
100
AcDb2dVertex
 10
74.790611
 20
206.690054
 30
0.0
  0
SEQEND
  5
28D
100
AcDbEntity
  8
レイヤー_2
 62
     7
  0
POLYLINE
  5
27E
100
AcDbEntity
  8
レイヤー_2
 62
     7
100
AcDb2dPolyline
 66
     1
 10
0.0
 20
0.0
 30
0.0
  0
VERTEX
  5
27F
100
AcDbEntity
  8
レイヤー_2
 62
     7
100
AcDbVertex
100
AcDb2dVertex
 10
71.069736
 20
206.688331
 30
0.0
  0
VERTEX
  5
280
100
AcDbEntity
  8
レイヤー_2
 62
     7
100
AcDbVertex
100
AcDb2dVertex
 10
70.994116
 20
206.710036
 30
0.0
  0
VERTEX
  5
281
100
AcDbEntity
  8
レイヤー_2
 62
     7
100
AcDbVertex
100
AcDb2dVertex
 10
70.956909
 20
206.740008
 30
0.0
  0
VERTEX
  5
282
100
AcDbEntity
  8
レイヤー_2
 62
     7
100
AcDbVertex
100
AcDb2dVertex
 10
70.994116
 20
206.770152
 30
0.0
  0
VERTEX
  5
283
100
AcDbEntity
  8
レイヤー_2
 62
     7
100
AcDbVertex
100
AcDb2dVertex
 10
71.106599
 20
206.798919
 30
0.0
  0
VERTEX
  5
284
100
AcDbEntity
  8
レイヤー_2
 62
     7
100
AcDbVertex
100
AcDb2dVertex
 10
71.275581
 20
206.82424
 30
0.0
  0
SEQEND
  5
285
100
AcDbEntity
  8
レイヤー_2
 62
     7
  0
POLYLINE
  5
26B
100
AcDbEntity
  8
レイヤー_2
 62
     7
100
AcDb2dPolyline
 66
     1
 10
0.0
 20
0.0
 30
0.0
  0
VERTEX
  5
26C
100
AcDbEntity
  8
レイヤー_2
 62
     7
100
AcDbVertex
100
AcDb2dVertex
 10
71.020643
 20
206.674551
 30
0.0
  0
VERTEX
  5
26D
100
AcDbEntity
  8
レイヤー_2
 62
     7
100
AcDbVertex
100
AcDb2dVertex
 10
71.023055
 20
206.668867
 30
0.0
  0
VERTEX
  5
26E
100
AcDbEntity
  8
レイヤー_2
 62
     7
100
AcDbVertex
100
AcDb2dVertex
 10
71.081277
 20
206.639067
 30
0.0
  0
VERTEX
  5
26F
100
AcDbEntity
  8
レイヤー_2
 62
     7
100
AcDbVertex
100
AcDb2dVertex
 10
71.215464
 20
206.610472
 30
0.0
  0
VERTEX
  5
270
100
AcDbEntity
  8
レイヤー_2
 62
     7
100
AcDbVertex
100
AcDb2dVertex
 10
71.419241
 20
206.584634
 30
0.0
  0
VERTEX
  5
271
100
AcDbEntity
  8
レイヤー_2
 62
     7
100
AcDbVertex
100
AcDb2dVertex
 10
71.685202
 20
206.56293
 30
0.0
  0
VERTEX
  5
272
100
AcDbEntity
  8
レイヤー_2
 62
     7
100
AcDbVertex
100
AcDb2dVertex
 10
72.001462
 20
206.545704
 30
0.0
  0
VERTEX
  5
273
100
AcDbEntity
  8
レイヤー_2
 62
     7
100
AcDbVertex
100
AcDb2dVertex
 10
72.356135
 20
206.533991
 30
0.0
  0
VERTEX
  5
274
100
AcDbEntity
  8
レイヤー_2
 62
     7
100
AcDbVertex
100
AcDb2dVertex
 10
72.734234
 20
206.52779
 30
0.0
  0
VERTEX
  5
275
100
AcDbEntity
  8
レイヤー_2
 62
     7
100
AcDbVertex
100
AcDb2dVertex
 10
73.120085
 20
206.52779
 30
0.0
  0
VERTEX
  5
276
100
AcDbEntity
  8
レイヤー_2
 62
     7
100
AcDbVertex
100
AcDb2dVertex
 10
73.497667
 20
206.533991
 30
0.0
  0
VERTEX
  5
277
100
AcDbEntity
  8
レイヤー_2
 62
     7
100
AcDbVertex
100
AcDb2dVertex
 10
73.851823
 20
206.545704
 30
0.0
  0
VERTEX
  5
278
100
AcDbEntity
  8
レイヤー_2
 62
     7
100
AcDbVertex
100
AcDb2dVertex
 10
74.168427
 20
206.56293
 30
0.0
  0
VERTEX
  5
279
100
AcDbEntity
  8
レイヤー_2
 62
     7
100
AcDbVertex
100
AcDb2dVertex
 10
74.434561
 20
206.584634
 30
0.0
  0
VERTEX
  5
27A
100
AcDbEntity
  8
レイヤー_2
 62
     7
100
AcDbVertex
100
AcDb2dVertex
 10
74.638166
 20
206.610472
 30
0.0
  0
VERTEX
  5
27B
100
AcDbEntity
  8
レイヤー_2
 62
     7
100
AcDbVertex
100
AcDb2dVertex
 10
74.772352
 20
206.639067
 30
0.0
  0
VERTEX
  5
27C
100
AcDbEntity
  8
レイヤー_2
 62
     7
100
AcDbVertex
100
AcDb2dVertex
 10
74.823857
 20
206.661115
 30
0.0
  0
SEQEND
  5
27D
100
AcDbEntity
  8
レイヤー_2
 62
     7
  0
POLYLINE
  5
249
100
AcDbEntity
  8
レイヤー_2
 62
     7
100
AcDb2dPolyline
 66
     1
 10
0.0
 20
0.0
 30
0.0
  0
VERTEX
  5
24A
100
AcDbEntity
  8
レイヤー_2
 62
     7
100
AcDbVertex
100
AcDb2dVertex
 10
72.927332
 20
206.822862
 30
0.0
  0
VERTEX
  5
24B
100
AcDbEntity
  8
レイヤー_2
 62
     7
100
AcDbVertex
100
AcDb2dVertex
 10
73.302158
 20
206.819245
 30
0.0
  0
VERTEX
  5
24C
100
AcDbEntity
  8
レイヤー_2
 62
     7
100
AcDbVertex
100
AcDb2dVertex
 10
73.661998
 20
206.810632
 30
0.0
  0
VERTEX
  5
24D
100
AcDbEntity
  8
レイヤー_2
 62
     7
100
AcDbVertex
100
AcDb2dVertex
 10
73.991694
 20
206.796335
 30
0.0
  0
VERTEX
  5
24E
100
AcDbEntity
  8
レイヤー_2
 62
     7
100
AcDbVertex
100
AcDb2dVertex
 10
74.277464
 20
206.777559
 30
0.0
  0
VERTEX
  5
24F
100
AcDbEntity
  8
レイヤー_2
 62
     7
100
AcDbVertex
100
AcDb2dVertex
 10
74.508803
 20
206.753788
 30
0.0
  0
VERTEX
  5
250
100
AcDbEntity
  8
レイヤー_2
 62
     7
100
AcDbVertex
100
AcDb2dVertex
 10
74.675028
 20
206.727089
 30
0.0
  0
VERTEX
  5
251
100
AcDbEntity
  8
レイヤー_2
 62
     7
100
AcDbVertex
100
AcDb2dVertex
 10
74.768907
 20
206.698839
 30
0.0
  0
VERTEX
  5
252
100
AcDbEntity
  8
レイヤー_2
 62
     7
100
AcDbVertex
100
AcDb2dVertex
 10
74.7882
 20
206.668867
 30
0.0
  0
VERTEX
  5
253
100
AcDbEntity
  8
レイヤー_2
 62
     7
100
AcDbVertex
100
AcDb2dVertex
 10
74.731356
 20
206.639928
 30
0.0
  0
VERTEX
  5
254
100
AcDbEntity
  8
レイヤー_2
 62
     7
100
AcDbVertex
100
AcDb2dVertex
 10
74.60027
 20
206.612023
 30
0.0
  0
VERTEX
  5
255
100
AcDbEntity
  8
レイヤー_2
 62
     7
100
AcDbVertex
100
AcDb2dVertex
 10
74.400454
 20
206.587046
 30
0.0
  0
VERTEX
  5
256
100
AcDbEntity
  8
レイヤー_2
 62
     7
100
AcDbVertex
100
AcDb2dVertex
 10
74.141383
 20
206.565342
 30
0.0
  0
VERTEX
  5
257
100
AcDbEntity
  8
レイヤー_2
 62
     7
100
AcDbVertex
100
AcDb2dVertex
 10
73.831325
 20
206.548288
 30
0.0
  0
VERTEX
  5
258
100
AcDbEntity
  8
レイヤー_2
 62
     7
100
AcDbVertex
100
AcDb2dVertex
 10
73.484576
 20
206.536747
 30
0.0
  0
VERTEX
  5
259
100
AcDbEntity
  8
レイヤー_2
 62
     7
100
AcDbVertex
100
AcDb2dVertex
 10
73.115434
 20
206.530718
 30
0.0
  0
VERTEX
  5
25A
100
AcDbEntity
  8
レイヤー_2
 62
     7
100
AcDbVertex
100
AcDb2dVertex
 10
72.73854
 20
206.530718
 30
0.0
  0
VERTEX
  5
25B
100
AcDbEntity
  8
レイヤー_2
 62
     7
100
AcDbVertex
100
AcDb2dVertex
 10
72.369226
 20
206.536747
 30
0.0
  0
VERTEX
  5
25C
100
AcDbEntity
  8
レイヤー_2
 62
     7
100
AcDbVertex
100
AcDb2dVertex
 10
72.022822
 20
206.548288
 30
0.0
  0
VERTEX
  5
25D
100
AcDbEntity
  8
レイヤー_2
 62
     7
100
AcDbVertex
100
AcDb2dVertex
 10
71.712763
 20
206.565342
 30
0.0
  0
VERTEX
  5
25E
100
AcDbEntity
  8
レイヤー_2
 62
     7
100
AcDbVertex
100
AcDb2dVertex
 10
71.452831
 20
206.587046
 30
0.0
  0
VERTEX
  5
25F
100
AcDbEntity
  8
レイヤー_2
 62
     7
100
AcDbVertex
100
AcDb2dVertex
 10
71.253876
 20
206.612023
 30
0.0
  0
VERTEX
  5
260
100
AcDbEntity
  8
レイヤー_2
 62
     7
100
AcDbVertex
100
AcDb2dVertex
 10
71.122274
 20
206.639928
 30
0.0
  0
VERTEX
  5
261
100
AcDbEntity
  8
レイヤー_2
 62
     7
100
AcDbVertex
100
AcDb2dVertex
 10
71.065085
 20
206.668867
 30
0.0
  0
VERTEX
  5
262
100
AcDbEntity
  8
レイヤー_2
 62
     7
100
AcDbVertex
100
AcDb2dVertex
 10
71.08455
 20
206.698839
 30
0.0
  0
VERTEX
  5
263
100
AcDbEntity
  8
レイヤー_2
 62
     7
100
AcDbVertex
100
AcDb2dVertex
 10
71.17929
 20
206.727089
 30
0.0
  0
VERTEX
  5
264
100
AcDbEntity
  8
レイヤー_2
 62
     7
100
AcDbVertex
100
AcDb2dVertex
 10
71.345516
 20
206.753788
 30
0.0
  0
VERTEX
  5
265
100
AcDbEntity
  8
レイヤー_2
 62
     7
100
AcDbVertex
100
AcDb2dVertex
 10
71.575821
 20
206.777559
 30
0.0
  0
VERTEX
  5
266
100
AcDbEntity
  8
レイヤー_2
 62
     7
100
AcDbVertex
100
AcDb2dVertex
 10
71.862108
 20
206.796335
 30
0.0
  0
VERTEX
  5
267
100
AcDbEntity
  8
レイヤー_2
 62
     7
100
AcDbVertex
100
AcDb2dVertex
 10
72.191976
 20
206.810632
 30
0.0
  0
VERTEX
  5
268
100
AcDbEntity
  8
レイヤー_2
 62
     7
100
AcDbVertex
100
AcDb2dVertex
 10
72.552161
 20
206.819245
 30
0.0
  0
VERTEX
  5
269
100
AcDbEntity
  8
レイヤー_2
 62
     7
100
AcDbVertex
100
AcDb2dVertex
 10
72.927332
 20
206.822862
 30
0.0
  0
SEQEND
  5
26A
100
AcDbEntity
  8
レイヤー_2
 62
     7
  0
POLYLINE
  5
237
100
AcDbEntity
  8
レイヤー_2
 62
     7
100
AcDb2dPolyline
 66
     1
 10
0.0
 20
0.0
 30
0.0
  0
VERTEX
  5
238
100
AcDbEntity
  8
レイヤー_2
 62
     7
100
AcDbVertex
100
AcDb2dVertex
 10
71.074042
 20
206.692466
 30
0.0
  0
VERTEX
  5
239
100
AcDbEntity
  8
レイヤー_2
 62
     7
100
AcDbVertex
100
AcDb2dVertex
 10
71.148973
 20
206.66456
 30
0.0
  0
VERTEX
  5
23A
100
AcDbEntity
  8
レイヤー_2
 62
     7
100
AcDbVertex
100
AcDb2dVertex
 10
71.296596
 20
206.637344
 30
0.0
  0
VERTEX
  5
23B
100
AcDbEntity
  8
レイヤー_2
 62
     7
100
AcDbVertex
100
AcDb2dVertex
 10
71.512431
 20
206.613573
 30
0.0
  0
VERTEX
  5
23C
100
AcDbEntity
  8
レイヤー_2
 62
     7
100
AcDbVertex
100
AcDb2dVertex
 10
71.786144
 20
206.592386
 30
0.0
  0
VERTEX
  5
23D
100
AcDbEntity
  8
レイヤー_2
 62
     7
100
AcDbVertex
100
AcDb2dVertex
 10
72.106365
 20
206.577399
 30
0.0
  0
VERTEX
  5
23E
100
AcDbEntity
  8
レイヤー_2
 62
     7
100
AcDbVertex
100
AcDb2dVertex
 10
72.45966
 20
206.566892
 30
0.0
  0
VERTEX
  5
23F
100
AcDbEntity
  8
レイヤー_2
 62
     7
100
AcDbVertex
100
AcDb2dVertex
 10
72.832247
 20
206.562241
 30
0.0
  0
VERTEX
  5
240
100
AcDbEntity
  8
レイヤー_2
 62
     7
100
AcDbVertex
100
AcDb2dVertex
 10
73.208624
 20
206.563791
 30
0.0
  0
VERTEX
  5
241
100
AcDbEntity
  8
レイヤー_2
 62
     7
100
AcDbVertex
100
AcDb2dVertex
 10
73.574493
 20
206.571026
 30
0.0
  0
VERTEX
  5
242
100
AcDbEntity
  8
レイヤー_2
 62
     7
100
AcDbVertex
100
AcDb2dVertex
 10
73.912801
 20
206.58429
 30
0.0
  0
VERTEX
  5
243
100
AcDbEntity
  8
レイヤー_2
 62
     7
100
AcDbVertex
100
AcDb2dVertex
 10
74.211146
 20
206.602549
 30
0.0
  0
VERTEX
  5
244
100
AcDbEntity
  8
レイヤー_2
 62
     7
100
AcDbVertex
100
AcDb2dVertex
 10
74.456954
 20
206.624942
 30
0.0
  0
VERTEX
  5
245
100
AcDbEntity
  8
レイヤー_2
 62
     7
100
AcDbVertex
100
AcDb2dVertex
 10
74.639544
 20
206.65078
 30
0.0
  0
VERTEX
  5
246
100
AcDbEntity
  8
レイヤー_2
 62
     7
100
AcDbVertex
100
AcDb2dVertex
 10
74.752371
 20
206.678857
 30
0.0
  0
VERTEX
  5
247
100
AcDbEntity
  8
レイヤー_2
 62
     7
100
AcDbVertex
100
AcDb2dVertex
 10
74.779759
 20
206.692466
 30
0.0
  0
SEQEND
  5
248
100
AcDbEntity
  8
レイヤー_2
 62
     7
  0
POLYLINE
  5
232
100
AcDbEntity
  8
レイヤー_2
 62
     7
100
AcDb2dPolyline
 66
     1
 10
0.0
 20
0.0
 30
0.0
  0
VERTEX
  5
233
100
AcDbEntity
  8
レイヤー_2
 62
     7
100
AcDbVertex
100
AcDb2dVertex
 10
74.630414
 20
206.708657
 30
0.0
  0
VERTEX
  5
234
100
AcDbEntity
  8
レイヤー_2
 62
     7
100
AcDbVertex
100
AcDb2dVertex
 10
74.590968
 20
206.736735
 30
0.0
  0
VERTEX
  5
235
100
AcDbEntity
  8
レイヤー_2
 62
     7
100
AcDbVertex
100
AcDb2dVertex
 10
74.556517
 20
206.747587
 30
0.0
  0
SEQEND
  5
236
100
AcDbEntity
  8
レイヤー_2
 62
     7
  0
POLYLINE
  5
21F
100
AcDbEntity
  8
レイヤー_2
 62
     7
100
AcDb2dPolyline
 66
     1
 10
0.0
 20
0.0
 30
0.0
  0
VERTEX
  5
220
100
AcDbEntity
  8
レイヤー_2
 62
     7
100
AcDbVertex
100
AcDb2dVertex
 10
71.297629
 20
206.747587
 30
0.0
  0
VERTEX
  5
221
100
AcDbEntity
  8
レイヤー_2
 62
     7
100
AcDbVertex
100
AcDb2dVertex
 10
71.232689
 20
206.722955
 30
0.0
  0
VERTEX
  5
222
100
AcDbEntity
  8
レイヤー_2
 62
     7
100
AcDbVertex
100
AcDb2dVertex
 10
71.232689
 20
206.693499
 30
0.0
  0
VERTEX
  5
223
100
AcDbEntity
  8
レイヤー_2
 62
     7
100
AcDbVertex
100
AcDb2dVertex
 10
71.311926
 20
206.665766
 30
0.0
  0
VERTEX
  5
224
100
AcDbEntity
  8
レイヤー_2
 62
     7
100
AcDbVertex
100
AcDb2dVertex
 10
71.466956
 20
206.639411
 30
0.0
  0
VERTEX
  5
225
100
AcDbEntity
  8
レイヤー_2
 62
     7
100
AcDbVertex
100
AcDb2dVertex
 10
71.689853
 20
206.616157
 30
0.0
  0
VERTEX
  5
226
100
AcDbEntity
  8
レイヤー_2
 62
     7
100
AcDbVertex
100
AcDb2dVertex
 10
71.970456
 20
206.597381
 30
0.0
  0
VERTEX
  5
227
100
AcDbEntity
  8
レイヤー_2
 62
     7
100
AcDbVertex
100
AcDb2dVertex
 10
72.296707
 20
206.583945
 30
0.0
  0
VERTEX
  5
228
100
AcDbEntity
  8
レイヤー_2
 62
     7
100
AcDbVertex
100
AcDb2dVertex
 10
72.651379
 20
206.576366
 30
0.0
  0
VERTEX
  5
229
100
AcDbEntity
  8
レイヤー_2
 62
     7
100
AcDbVertex
100
AcDb2dVertex
 10
73.019143
 20
206.574299
 30
0.0
  0
VERTEX
  5
22A
100
AcDbEntity
  8
レイヤー_2
 62
     7
100
AcDbVertex
100
AcDb2dVertex
 10
73.38329
 20
206.579294
 30
0.0
  0
VERTEX
  5
22B
100
AcDbEntity
  8
レイヤー_2
 62
     7
100
AcDbVertex
100
AcDb2dVertex
 10
73.725216
 20
206.590318
 30
0.0
  0
VERTEX
  5
22C
100
AcDbEntity
  8
レイヤー_2
 62
     7
100
AcDbVertex
100
AcDb2dVertex
 10
74.029762
 20
206.606855
 30
0.0
  0
VERTEX
  5
22D
100
AcDbEntity
  8
レイヤー_2
 62
     7
100
AcDbVertex
100
AcDb2dVertex
 10
74.283493
 20
206.627009
 30
0.0
  0
VERTEX
  5
22E
100
AcDbEntity
  8
レイヤー_2
 62
     7
100
AcDbVertex
100
AcDb2dVertex
 10
74.472974
 20
206.652158
 30
0.0
  0
VERTEX
  5
22F
100
AcDbEntity
  8
レイヤー_2
 62
     7
100
AcDbVertex
100
AcDb2dVertex
 10
74.590968
 20
206.679891
 30
0.0
  0
VERTEX
  5
230
100
AcDbEntity
  8
レイヤー_2
 62
     7
100
AcDbVertex
100
AcDb2dVertex
 10
74.630414
 20
206.708657
 30
0.0
  0
SEQEND
  5
231
100
AcDbEntity
  8
レイヤー_2
 62
     7
  0
LINE
  5
21E
100
AcDbEntity
  8
レイヤー_2
 62
     7
100
AcDbLine
 10
71.433021
 20
206.760851
 30
0.0
 11
71.433021
 21
206.763435
 31
0.0
  0
LINE
  5
21D
100
AcDbEntity
  8
レイヤー_2
 62
     7
100
AcDbLine
 10
71.433021
 20
206.760851
 30
0.0
 11
71.469884
 21
206.755855
 31
0.0
  0
LINE
  5
21C
100
AcDbEntity
  8
レイヤー_2
 62
     7
100
AcDbLine
 10
74.383573
 20
206.755855
 30
0.0
 11
74.421125
 21
206.760851
 31
0.0
  0
LINE
  5
21B
100
AcDbEntity
  8
レイヤー_2
 62
     7
100
AcDbLine
 10
74.421125
 20
206.763435
 30
0.0
 11
74.421125
 21
206.760851
 31
0.0
  0
POLYLINE
  5
1FD
100
AcDbEntity
  8
レイヤー_2
 62
     7
100
AcDb2dPolyline
 66
     1
 10
0.0
 20
0.0
 30
0.0
  0
VERTEX
  5
1FE
100
AcDbEntity
  8
レイヤー_2
 62
     7
100
AcDbVertex
100
AcDb2dVertex
 10
74.311571
 20
206.708657
 30
0.0
  0
VERTEX
  5
1FF
100
AcDbEntity
  8
レイヤー_2
 62
     7
100
AcDbVertex
100
AcDb2dVertex
 10
74.274192
 20
206.73329
 30
0.0
  0
VERTEX
  5
200
100
AcDbEntity
  8
レイヤー_2
 62
     7
100
AcDbVertex
100
AcDb2dVertex
 10
74.164293
 20
206.757233
 30
0.0
  0
VERTEX
  5
201
100
AcDbEntity
  8
レイヤー_2
 62
     7
100
AcDbVertex
100
AcDb2dVertex
 10
73.987732
 20
206.778076
 30
0.0
  0
VERTEX
  5
202
100
AcDbEntity
  8
レイヤー_2
 62
     7
100
AcDbVertex
100
AcDb2dVertex
 10
73.753465
 20
206.795302
 30
0.0
  0
VERTEX
  5
203
100
AcDbEntity
  8
レイヤー_2
 62
     7
100
AcDbVertex
100
AcDb2dVertex
 10
73.475274
 20
206.807876
 30
0.0
  0
VERTEX
  5
204
100
AcDbEntity
  8
レイヤー_2
 62
     7
100
AcDbVertex
100
AcDb2dVertex
 10
73.167455
 20
206.814766
 30
0.0
  0
VERTEX
  5
205
100
AcDbEntity
  8
レイヤー_2
 62
     7
100
AcDbVertex
100
AcDb2dVertex
 10
72.8462
 20
206.816317
 30
0.0
  0
VERTEX
  5
206
100
AcDbEntity
  8
レイヤー_2
 62
     7
100
AcDbVertex
100
AcDb2dVertex
 10
72.529595
 20
206.812527
 30
0.0
  0
VERTEX
  5
207
100
AcDbEntity
  8
レイヤー_2
 62
     7
100
AcDbVertex
100
AcDb2dVertex
 10
72.234523
 20
206.80202
 30
0.0
  0
VERTEX
  5
208
100
AcDbEntity
  8
レイヤー_2
 62
     7
100
AcDbVertex
100
AcDb2dVertex
 10
71.977174
 20
206.787378
 30
0.0
  0
VERTEX
  5
209
100
AcDbEntity
  8
レイヤー_2
 62
     7
100
AcDbVertex
100
AcDb2dVertex
 10
71.770296
 20
206.768085
 30
0.0
  0
VERTEX
  5
20A
100
AcDbEntity
  8
レイヤー_2
 62
     7
100
AcDbVertex
100
AcDb2dVertex
 10
71.625774
 20
206.745348
 30
0.0
  0
VERTEX
  5
20B
100
AcDbEntity
  8
レイヤー_2
 62
     7
100
AcDbVertex
100
AcDb2dVertex
 10
71.551877
 20
206.720888
 30
0.0
  0
VERTEX
  5
20C
100
AcDbEntity
  8
レイヤー_2
 62
     7
100
AcDbVertex
100
AcDb2dVertex
 10
71.551877
 20
206.695738
 30
0.0
  0
VERTEX
  5
20D
100
AcDbEntity
  8
レイヤー_2
 62
     7
100
AcDbVertex
100
AcDb2dVertex
 10
71.625774
 20
206.671278
 30
0.0
  0
VERTEX
  5
20E
100
AcDbEntity
  8
レイヤー_2
 62
     7
100
AcDbVertex
100
AcDb2dVertex
 10
71.770296
 20
206.648713
 30
0.0
  0
VERTEX
  5
20F
100
AcDbEntity
  8
レイヤー_2
 62
     7
100
AcDbVertex
100
AcDb2dVertex
 10
71.977174
 20
206.62942
 30
0.0
  0
VERTEX
  5
210
100
AcDbEntity
  8
レイヤー_2
 62
     7
100
AcDbVertex
100
AcDb2dVertex
 10
72.234523
 20
206.614262
 30
0.0
  0
VERTEX
  5
211
100
AcDbEntity
  8
レイヤー_2
 62
     7
100
AcDbVertex
100
AcDb2dVertex
 10
72.529595
 20
206.604271
 30
0.0
  0
VERTEX
  5
212
100
AcDbEntity
  8
レイヤー_2
 62
     7
100
AcDbVertex
100
AcDb2dVertex
 10
72.8462
 20
206.599965
 30
0.0
  0
VERTEX
  5
213
100
AcDbEntity
  8
レイヤー_2
 62
     7
100
AcDbVertex
100
AcDb2dVertex
 10
73.167455
 20
206.601171
 30
0.0
  0
VERTEX
  5
214
100
AcDbEntity
  8
レイヤー_2
 62
     7
100
AcDbVertex
100
AcDb2dVertex
 10
73.475274
 20
206.608233
 30
0.0
  0
VERTEX
  5
215
100
AcDbEntity
  8
レイヤー_2
 62
     7
100
AcDbVertex
100
AcDb2dVertex
 10
73.753465
 20
206.621324
 30
0.0
  0
VERTEX
  5
216
100
AcDbEntity
  8
レイヤー_2
 62
     7
100
AcDbVertex
100
AcDb2dVertex
 10
73.987732
 20
206.638722
 30
0.0
  0
VERTEX
  5
217
100
AcDbEntity
  8
レイヤー_2
 62
     7
100
AcDbVertex
100
AcDb2dVertex
 10
74.164293
 20
206.659565
 30
0.0
  0
VERTEX
  5
218
100
AcDbEntity
  8
レイヤー_2
 62
     7
100
AcDbVertex
100
AcDb2dVertex
 10
74.274192
 20
206.683508
 30
0.0
  0
VERTEX
  5
219
100
AcDbEntity
  8
レイヤー_2
 62
     7
100
AcDbVertex
100
AcDb2dVertex
 10
74.311571
 20
206.708657
 30
0.0
  0
SEQEND
  5
21A
100
AcDbEntity
  8
レイヤー_2
 62
     7
  0
POLYLINE
  5
1E0
100
AcDbEntity
  8
レイヤー_2
 62
     7
100
AcDb2dPolyline
 66
     1
 10
0.0
 20
0.0
 30
0.0
  0
VERTEX
  5
1E1
100
AcDbEntity
  8
レイヤー_2
 62
     7
100
AcDbVertex
100
AcDb2dVertex
 10
74.247664
 20
206.708657
 30
0.0
  0
VERTEX
  5
1E2
100
AcDbEntity
  8
レイヤー_2
 62
     7
100
AcDbVertex
100
AcDb2dVertex
 10
74.209079
 20
206.73329
 30
0.0
  0
VERTEX
  5
1E3
100
AcDbEntity
  8
レイヤー_2
 62
     7
100
AcDbVertex
100
AcDb2dVertex
 10
74.09608
 20
206.7562
 30
0.0
  0
VERTEX
  5
1E4
100
AcDbEntity
  8
レイヤー_2
 62
     7
100
AcDbVertex
100
AcDb2dVertex
 10
73.915902
 20
206.776698
 30
0.0
  0
VERTEX
  5
1E5
100
AcDbEntity
  8
レイヤー_2
 62
     7
100
AcDbVertex
100
AcDb2dVertex
 10
73.676984
 20
206.793407
 30
0.0
  0
VERTEX
  5
1E6
100
AcDbEntity
  8
レイヤー_2
 62
     7
100
AcDbVertex
100
AcDb2dVertex
 10
73.395348
 20
206.80512
 30
0.0
  0
VERTEX
  5
1E7
100
AcDbEntity
  8
レイヤー_2
 62
     7
100
AcDbVertex
100
AcDb2dVertex
 10
73.08615
 20
206.811321
 30
0.0
  0
VERTEX
  5
1E8
100
AcDbEntity
  8
レイヤー_2
 62
     7
100
AcDbVertex
100
AcDb2dVertex
 10
72.767307
 20
206.811321
 30
0.0
  0
VERTEX
  5
1E9
100
AcDbEntity
  8
レイヤー_2
 62
     7
100
AcDbVertex
100
AcDb2dVertex
 10
72.458971
 20
206.80512
 30
0.0
  0
VERTEX
  5
1EA
100
AcDbEntity
  8
レイヤー_2
 62
     7
100
AcDbVertex
100
AcDb2dVertex
 10
72.176301
 20
206.793407
 30
0.0
  0
VERTEX
  5
1EB
100
AcDbEntity
  8
レイヤー_2
 62
     7
100
AcDbVertex
100
AcDb2dVertex
 10
71.938072
 20
206.776698
 30
0.0
  0
VERTEX
  5
1EC
100
AcDbEntity
  8
レイヤー_2
 62
     7
100
AcDbVertex
100
AcDb2dVertex
 10
71.757549
 20
206.7562
 30
0.0
  0
VERTEX
  5
1ED
100
AcDbEntity
  8
レイヤー_2
 62
     7
100
AcDbVertex
100
AcDb2dVertex
 10
71.64455
 20
206.73329
 30
0.0
  0
VERTEX
  5
1EE
100
AcDbEntity
  8
レイヤー_2
 62
     7
100
AcDbVertex
100
AcDb2dVertex
 10
71.60631
 20
206.708657
 30
0.0
  0
VERTEX
  5
1EF
100
AcDbEntity
  8
レイヤー_2
 62
     7
100
AcDbVertex
100
AcDb2dVertex
 10
71.64455
 20
206.683508
 30
0.0
  0
VERTEX
  5
1F0
100
AcDbEntity
  8
レイヤー_2
 62
     7
100
AcDbVertex
100
AcDb2dVertex
 10
71.757549
 20
206.660254
 30
0.0
  0
VERTEX
  5
1F1
100
AcDbEntity
  8
レイヤー_2
 62
     7
100
AcDbVertex
100
AcDb2dVertex
 10
71.938072
 20
206.639411
 30
0.0
  0
VERTEX
  5
1F2
100
AcDbEntity
  8
レイヤー_2
 62
     7
100
AcDbVertex
100
AcDb2dVertex
 10
72.176301
 20
206.623219
 30
0.0
  0
VERTEX
  5
1F3
100
AcDbEntity
  8
レイヤー_2
 62
     7
100
AcDbVertex
100
AcDb2dVertex
 10
72.458971
 20
206.611161
 30
0.0
  0
VERTEX
  5
1F4
100
AcDbEntity
  8
レイヤー_2
 62
     7
100
AcDbVertex
100
AcDb2dVertex
 10
72.767307
 20
206.605477
 30
0.0
  0
VERTEX
  5
1F5
100
AcDbEntity
  8
レイヤー_2
 62
     7
100
AcDbVertex
100
AcDb2dVertex
 10
73.08615
 20
206.605477
 30
0.0
  0
VERTEX
  5
1F6
100
AcDbEntity
  8
レイヤー_2
 62
     7
100
AcDbVertex
100
AcDb2dVertex
 10
73.395348
 20
206.611161
 30
0.0
  0
VERTEX
  5
1F7
100
AcDbEntity
  8
レイヤー_2
 62
     7
100
AcDbVertex
100
AcDb2dVertex
 10
73.676984
 20
206.623219
 30
0.0
  0
VERTEX
  5
1F8
100
AcDbEntity
  8
レイヤー_2
 62
     7
100
AcDbVertex
100
AcDb2dVertex
 10
73.915902
 20
206.639411
 30
0.0
  0
VERTEX
  5
1F9
100
AcDbEntity
  8
レイヤー_2
 62
     7
100
AcDbVertex
100
AcDb2dVertex
 10
74.09608
 20
206.660254
 30
0.0
  0
VERTEX
  5
1FA
100
AcDbEntity
  8
レイヤー_2
 62
     7
100
AcDbVertex
100
AcDb2dVertex
 10
74.209079
 20
206.683508
 30
0.0
  0
VERTEX
  5
1FB
100
AcDbEntity
  8
レイヤー_2
 62
     7
100
AcDbVertex
100
AcDb2dVertex
 10
74.247664
 20
206.708657
 30
0.0
  0
SEQEND
  5
1FC
100
AcDbEntity
  8
レイヤー_2
 62
     7
  0
POLYLINE
  5
1C6
100
AcDbEntity
  8
レイヤー_2
 62
     7
100
AcDb2dPolyline
 66
     1
 10
0.0
 20
0.0
 30
0.0
  0
VERTEX
  5
1C7
100
AcDbEntity
  8
レイヤー_2
 62
     7
100
AcDbVertex
100
AcDb2dVertex
 10
73.949664
 20
206.708657
 30
0.0
  0
VERTEX
  5
1C8
100
AcDbEntity
  8
レイヤー_2
 62
     7
100
AcDbVertex
100
AcDb2dVertex
 10
73.911251
 20
206.729673
 30
0.0
  0
VERTEX
  5
1C9
100
AcDbEntity
  8
レイヤー_2
 62
     7
100
AcDbVertex
100
AcDb2dVertex
 10
73.800319
 20
206.749999
 30
0.0
  0
VERTEX
  5
1CA
100
AcDbEntity
  8
レイヤー_2
 62
     7
100
AcDbVertex
100
AcDb2dVertex
 10
73.625136
 20
206.767224
 30
0.0
  0
VERTEX
  5
1CB
100
AcDbEntity
  8
レイヤー_2
 62
     7
100
AcDbVertex
100
AcDb2dVertex
 10
73.397415
 20
206.779626
 30
0.0
  0
VERTEX
  5
1CC
100
AcDbEntity
  8
レイヤー_2
 62
     7
100
AcDbVertex
100
AcDb2dVertex
 10
73.135415
 20
206.787033
 30
0.0
  0
VERTEX
  5
1CD
100
AcDbEntity
  8
レイヤー_2
 62
     7
100
AcDbVertex
100
AcDb2dVertex
 10
72.856879
 20
206.788584
 30
0.0
  0
VERTEX
  5
1CE
100
AcDbEntity
  8
レイヤー_2
 62
     7
100
AcDbVertex
100
AcDb2dVertex
 10
72.584717
 20
206.783933
 30
0.0
  0
VERTEX
  5
1CF
100
AcDbEntity
  8
レイヤー_2
 62
     7
100
AcDbVertex
100
AcDb2dVertex
 10
72.337359
 20
206.77377
 30
0.0
  0
VERTEX
  5
1D0
100
AcDbEntity
  8
レイヤー_2
 62
     7
100
AcDbVertex
100
AcDb2dVertex
 10
72.133754
 20
206.758784
 30
0.0
  0
VERTEX
  5
1D1
100
AcDbEntity
  8
レイヤー_2
 62
     7
100
AcDbVertex
100
AcDb2dVertex
 10
71.989577
 20
206.740352
 30
0.0
  0
VERTEX
  5
1D2
100
AcDbEntity
  8
レイヤー_2
 62
     7
100
AcDbVertex
100
AcDb2dVertex
 10
71.913957
 20
206.71951
 30
0.0
  0
VERTEX
  5
1D3
100
AcDbEntity
  8
レイヤー_2
 62
     7
100
AcDbVertex
100
AcDb2dVertex
 10
71.913957
 20
206.697116
 30
0.0
  0
VERTEX
  5
1D4
100
AcDbEntity
  8
レイヤー_2
 62
     7
100
AcDbVertex
100
AcDb2dVertex
 10
71.989577
 20
206.675929
 30
0.0
  0
VERTEX
  5
1D5
100
AcDbEntity
  8
レイヤー_2
 62
     7
100
AcDbVertex
100
AcDb2dVertex
 10
72.133754
 20
206.657326
 30
0.0
  0
VERTEX
  5
1D6
100
AcDbEntity
  8
レイヤー_2
 62
     7
100
AcDbVertex
100
AcDb2dVertex
 10
72.337359
 20
206.642339
 30
0.0
  0
VERTEX
  5
1D7
100
AcDbEntity
  8
レイヤー_2
 62
     7
100
AcDbVertex
100
AcDb2dVertex
 10
72.584717
 20
206.632865
 30
0.0
  0
VERTEX
  5
1D8
100
AcDbEntity
  8
レイヤー_2
 62
     7
100
AcDbVertex
100
AcDb2dVertex
 10
72.856879
 20
206.628215
 30
0.0
  0
VERTEX
  5
1D9
100
AcDbEntity
  8
レイヤー_2
 62
     7
100
AcDbVertex
100
AcDb2dVertex
 10
73.135415
 20
206.630109
 30
0.0
  0
VERTEX
  5
1DA
100
AcDbEntity
  8
レイヤー_2
 62
     7
100
AcDbVertex
100
AcDb2dVertex
 10
73.397415
 20
206.637344
 30
0.0
  0
VERTEX
  5
1DB
100
AcDbEntity
  8
レイヤー_2
 62
     7
100
AcDbVertex
100
AcDb2dVertex
 10
73.625136
 20
206.649919
 30
0.0
  0
VERTEX
  5
1DC
100
AcDbEntity
  8
レイヤー_2
 62
     7
100
AcDbVertex
100
AcDb2dVertex
 10
73.800319
 20
206.666627
 30
0.0
  0
VERTEX
  5
1DD
100
AcDbEntity
  8
レイヤー_2
 62
     7
100
AcDbVertex
100
AcDb2dVertex
 10
73.911251
 20
206.686953
 30
0.0
  0
VERTEX
  5
1DE
100
AcDbEntity
  8
レイヤー_2
 62
     7
100
AcDbVertex
100
AcDb2dVertex
 10
73.949664
 20
206.708657
 30
0.0
  0
SEQEND
  5
1DF
100
AcDbEntity
  8
レイヤー_2
 62
     7
  0
POLYLINE
  5
1AD
100
AcDbEntity
  8
レイヤー_2
 62
     7
100
AcDb2dPolyline
 66
     1
 10
0.0
 20
0.0
 30
0.0
  0
VERTEX
  5
1AE
100
AcDbEntity
  8
レイヤー_2
 62
     7
100
AcDbVertex
100
AcDb2dVertex
 10
73.885068
 20
206.708657
 30
0.0
  0
VERTEX
  5
1AF
100
AcDbEntity
  8
レイヤー_2
 62
     7
100
AcDbVertex
100
AcDb2dVertex
 10
73.846828
 20
206.7295
 30
0.0
  0
VERTEX
  5
1B0
100
AcDbEntity
  8
レイヤー_2
 62
     7
100
AcDbVertex
100
AcDb2dVertex
 10
73.733656
 20
206.749482
 30
0.0
  0
VERTEX
  5
1B1
100
AcDbEntity
  8
レイヤー_2
 62
     7
100
AcDbVertex
100
AcDb2dVertex
 10
73.554339
 20
206.765157
 30
0.0
  0
VERTEX
  5
1B2
100
AcDbEntity
  8
レイヤー_2
 62
     7
100
AcDbVertex
100
AcDb2dVertex
 10
73.325412
 20
206.776698
 30
0.0
  0
VERTEX
  5
1B3
100
AcDbEntity
  8
レイヤー_2
 62
     7
100
AcDbVertex
100
AcDb2dVertex
 10
73.063585
 20
206.782555
 30
0.0
  0
VERTEX
  5
1B4
100
AcDbEntity
  8
レイヤー_2
 62
     7
100
AcDbVertex
100
AcDb2dVertex
 10
72.790561
 20
206.782555
 30
0.0
  0
VERTEX
  5
1B5
100
AcDbEntity
  8
レイヤー_2
 62
     7
100
AcDbVertex
100
AcDb2dVertex
 10
72.529079
 20
206.776698
 30
0.0
  0
VERTEX
  5
1B6
100
AcDbEntity
  8
レイヤー_2
 62
     7
100
AcDbVertex
100
AcDb2dVertex
 10
72.299118
 20
206.765157
 30
0.0
  0
VERTEX
  5
1B7
100
AcDbEntity
  8
レイヤー_2
 62
     7
100
AcDbVertex
100
AcDb2dVertex
 10
72.120662
 20
206.749482
 30
0.0
  0
VERTEX
  5
1B8
100
AcDbEntity
  8
レイヤー_2
 62
     7
100
AcDbVertex
100
AcDb2dVertex
 10
72.007319
 20
206.7295
 30
0.0
  0
VERTEX
  5
1B9
100
AcDbEntity
  8
レイヤー_2
 62
     7
100
AcDbVertex
100
AcDb2dVertex
 10
71.968045
 20
206.708657
 30
0.0
  0
VERTEX
  5
1BA
100
AcDbEntity
  8
レイヤー_2
 62
     7
100
AcDbVertex
100
AcDb2dVertex
 10
72.007319
 20
206.687126
 30
0.0
  0
VERTEX
  5
1BB
100
AcDbEntity
  8
レイヤー_2
 62
     7
100
AcDbVertex
100
AcDb2dVertex
 10
72.120662
 20
206.668005
 30
0.0
  0
VERTEX
  5
1BC
100
AcDbEntity
  8
レイヤー_2
 62
     7
100
AcDbVertex
100
AcDb2dVertex
 10
72.299118
 20
206.651469
 30
0.0
  0
VERTEX
  5
1BD
100
AcDbEntity
  8
レイヤー_2
 62
     7
100
AcDbVertex
100
AcDb2dVertex
 10
72.529079
 20
206.639928
 30
0.0
  0
VERTEX
  5
1BE
100
AcDbEntity
  8
レイヤー_2
 62
     7
100
AcDbVertex
100
AcDb2dVertex
 10
72.790561
 20
206.634071
 30
0.0
  0
VERTEX
  5
1BF
100
AcDbEntity
  8
レイヤー_2
 62
     7
100
AcDbVertex
100
AcDb2dVertex
 10
73.063585
 20
206.634071
 30
0.0
  0
VERTEX
  5
1C0
100
AcDbEntity
  8
レイヤー_2
 62
     7
100
AcDbVertex
100
AcDb2dVertex
 10
73.325412
 20
206.639928
 30
0.0
  0
VERTEX
  5
1C1
100
AcDbEntity
  8
レイヤー_2
 62
     7
100
AcDbVertex
100
AcDb2dVertex
 10
73.554339
 20
206.651469
 30
0.0
  0
VERTEX
  5
1C2
100
AcDbEntity
  8
レイヤー_2
 62
     7
100
AcDbVertex
100
AcDb2dVertex
 10
73.733656
 20
206.668005
 30
0.0
  0
VERTEX
  5
1C3
100
AcDbEntity
  8
レイヤー_2
 62
     7
100
AcDbVertex
100
AcDb2dVertex
 10
73.846828
 20
206.687126
 30
0.0
  0
VERTEX
  5
1C4
100
AcDbEntity
  8
レイヤー_2
 62
     7
100
AcDbVertex
100
AcDb2dVertex
 10
73.885068
 20
206.708657
 30
0.0
  0
SEQEND
  5
1C5
100
AcDbEntity
  8
レイヤー_2
 62
     7
  0
POLYLINE
  5
198
100
AcDbEntity
  8
レイヤー_2
 62
     7
100
AcDb2dPolyline
 66
     1
 10
0.0
 20
0.0
 30
0.0
  0
VERTEX
  5
199
100
AcDbEntity
  8
レイヤー_2
 62
     7
100
AcDbVertex
100
AcDb2dVertex
 10
73.566052
 20
206.708657
 30
0.0
  0
VERTEX
  5
19A
100
AcDbEntity
  8
レイヤー_2
 62
     7
100
AcDbVertex
100
AcDb2dVertex
 10
73.527467
 20
206.725538
 30
0.0
  0
VERTEX
  5
19B
100
AcDbEntity
  8
レイヤー_2
 62
     7
100
AcDbVertex
100
AcDb2dVertex
 10
73.416191
 20
206.740352
 30
0.0
  0
VERTEX
  5
19C
100
AcDbEntity
  8
レイヤー_2
 62
     7
100
AcDbVertex
100
AcDb2dVertex
 10
73.246692
 20
206.751377
 30
0.0
  0
VERTEX
  5
19D
100
AcDbEntity
  8
レイヤー_2
 62
     7
100
AcDbVertex
100
AcDb2dVertex
 10
73.037747
 20
206.75775
 30
0.0
  0
VERTEX
  5
19E
100
AcDbEntity
  8
レイヤー_2
 62
     7
100
AcDbVertex
100
AcDb2dVertex
 10
72.81571
 20
206.75775
 30
0.0
  0
VERTEX
  5
19F
100
AcDbEntity
  8
レイヤー_2
 62
     7
100
AcDbVertex
100
AcDb2dVertex
 10
72.607627
 20
206.751377
 30
0.0
  0
VERTEX
  5
1A0
100
AcDbEntity
  8
レイヤー_2
 62
     7
100
AcDbVertex
100
AcDb2dVertex
 10
72.437094
 20
206.740352
 30
0.0
  0
VERTEX
  5
1A1
100
AcDbEntity
  8
レイヤー_2
 62
     7
100
AcDbVertex
100
AcDb2dVertex
 10
72.326679
 20
206.725538
 30
0.0
  0
VERTEX
  5
1A2
100
AcDbEntity
  8
レイヤー_2
 62
     7
100
AcDbVertex
100
AcDb2dVertex
 10
72.28775
 20
206.708657
 30
0.0
  0
VERTEX
  5
1A3
100
AcDbEntity
  8
レイヤー_2
 62
     7
100
AcDbVertex
100
AcDb2dVertex
 10
72.326679
 20
206.691088
 30
0.0
  0
VERTEX
  5
1A4
100
AcDbEntity
  8
レイヤー_2
 62
     7
100
AcDbVertex
100
AcDb2dVertex
 10
72.437094
 20
206.675929
 30
0.0
  0
VERTEX
  5
1A5
100
AcDbEntity
  8
レイヤー_2
 62
     7
100
AcDbVertex
100
AcDb2dVertex
 10
72.607627
 20
206.66456
 30
0.0
  0
VERTEX
  5
1A6
100
AcDbEntity
  8
レイヤー_2
 62
     7
100
AcDbVertex
100
AcDb2dVertex
 10
72.81571
 20
206.65922
 30
0.0
  0
VERTEX
  5
1A7
100
AcDbEntity
  8
レイヤー_2
 62
     7
100
AcDbVertex
100
AcDb2dVertex
 10
73.037747
 20
206.65922
 30
0.0
  0
VERTEX
  5
1A8
100
AcDbEntity
  8
レイヤー_2
 62
     7
100
AcDbVertex
100
AcDb2dVertex
 10
73.246692
 20
206.66456
 30
0.0
  0
VERTEX
  5
1A9
100
AcDbEntity
  8
レイヤー_2
 62
     7
100
AcDbVertex
100
AcDb2dVertex
 10
73.416191
 20
206.675929
 30
0.0
  0
VERTEX
  5
1AA
100
AcDbEntity
  8
レイヤー_2
 62
     7
100
AcDbVertex
100
AcDb2dVertex
 10
73.527467
 20
206.691088
 30
0.0
  0
VERTEX
  5
1AB
100
AcDbEntity
  8
レイヤー_2
 62
     7
100
AcDbVertex
100
AcDb2dVertex
 10
73.566052
 20
206.708657
 30
0.0
  0
SEQEND
  5
1AC
100
AcDbEntity
  8
レイヤー_2
 62
     7
  0
POLYLINE
  5
184
100
AcDbEntity
  8
レイヤー_2
 62
     7
100
AcDb2dPolyline
 66
     1
 10
0.0
 20
0.0
 30
0.0
  0
VERTEX
  5
185
100
AcDbEntity
  8
レイヤー_2
 62
     7
100
AcDbVertex
100
AcDb2dVertex
 10
73.501973
 20
206.708657
 30
0.0
  0
VERTEX
  5
186
100
AcDbEntity
  8
レイヤー_2
 62
     7
100
AcDbVertex
100
AcDb2dVertex
 10
73.463216
 20
206.724677
 30
0.0
  0
VERTEX
  5
187
100
AcDbEntity
  8
レイヤー_2
 62
     7
100
AcDbVertex
100
AcDb2dVertex
 10
73.352112
 20
206.738974
 30
0.0
  0
VERTEX
  5
188
100
AcDbEntity
  8
レイヤー_2
 62
     7
100
AcDbVertex
100
AcDb2dVertex
 10
73.183474
 20
206.748448
 30
0.0
  0
VERTEX
  5
189
100
AcDbEntity
  8
レイヤー_2
 62
     7
100
AcDbVertex
100
AcDb2dVertex
 10
72.979869
 20
206.753099
 30
0.0
  0
VERTEX
  5
18A
100
AcDbEntity
  8
レイヤー_2
 62
     7
100
AcDbVertex
100
AcDb2dVertex
 10
72.769718
 20
206.751377
 30
0.0
  0
VERTEX
  5
18B
100
AcDbEntity
  8
レイヤー_2
 62
     7
100
AcDbVertex
100
AcDb2dVertex
 10
72.580066
 20
206.744486
 30
0.0
  0
VERTEX
  5
18C
100
AcDbEntity
  8
レイヤー_2
 62
     7
100
AcDbVertex
100
AcDb2dVertex
 10
72.437956
 20
206.732084
 30
0.0
  0
VERTEX
  5
18D
100
AcDbEntity
  8
レイヤー_2
 62
     7
100
AcDbVertex
100
AcDb2dVertex
 10
72.361475
 20
206.716409
 30
0.0
  0
VERTEX
  5
18E
100
AcDbEntity
  8
レイヤー_2
 62
     7
100
AcDbVertex
100
AcDb2dVertex
 10
72.361475
 20
206.700389
 30
0.0
  0
VERTEX
  5
18F
100
AcDbEntity
  8
レイヤー_2
 62
     7
100
AcDbVertex
100
AcDb2dVertex
 10
72.437956
 20
206.684886
 30
0.0
  0
VERTEX
  5
190
100
AcDbEntity
  8
レイヤー_2
 62
     7
100
AcDbVertex
100
AcDb2dVertex
 10
72.580066
 20
206.672656
 30
0.0
  0
VERTEX
  5
191
100
AcDbEntity
  8
レイヤー_2
 62
     7
100
AcDbVertex
100
AcDb2dVertex
 10
72.769718
 20
206.66456
 30
0.0
  0
VERTEX
  5
192
100
AcDbEntity
  8
レイヤー_2
 62
     7
100
AcDbVertex
100
AcDb2dVertex
 10
72.979869
 20
206.66301
 30
0.0
  0
VERTEX
  5
193
100
AcDbEntity
  8
レイヤー_2
 62
     7
100
AcDbVertex
100
AcDb2dVertex
 10
73.183474
 20
206.668005
 30
0.0
  0
VERTEX
  5
194
100
AcDbEntity
  8
レイヤー_2
 62
     7
100
AcDbVertex
100
AcDb2dVertex
 10
73.352112
 20
206.677652
 30
0.0
  0
VERTEX
  5
195
100
AcDbEntity
  8
レイヤー_2
 62
     7
100
AcDbVertex
100
AcDb2dVertex
 10
73.463216
 20
206.691777
 30
0.0
  0
VERTEX
  5
196
100
AcDbEntity
  8
レイヤー_2
 62
     7
100
AcDbVertex
100
AcDb2dVertex
 10
73.501973
 20
206.708657
 30
0.0
  0
SEQEND
  5
197
100
AcDbEntity
  8
レイヤー_2
 62
     7
  0
LINE
  5
183
100
AcDbEntity
  8
レイヤー_2
 62
     7
100
AcDbLine
 10
74.383573
 20
206.755855
 30
0.0
 11
74.311571
 21
206.758784
 31
0.0
  0
LINE
  5
182
100
AcDbEntity
  8
レイヤー_2
 62
     7
100
AcDbLine
 10
74.311571
 20
206.765846
 30
0.0
 11
74.421125
 21
206.760851
 31
0.0
  0
LINE
  5
181
100
AcDbEntity
  8
レイヤー_2
 62
     7
100
AcDbLine
 10
71.433021
 20
206.760851
 30
0.0
 11
71.542403
 21
206.765846
 31
0.0
  0
LINE
  5
180
100
AcDbEntity
  8
レイヤー_2
 62
     7
100
AcDbLine
 10
71.542403
 20
206.758784
 30
0.0
 11
71.469884
 21
206.755855
 31
0.0
  0
SPLINE
  5
17F
100
AcDbEntity
  8
レイヤー_2
 62
     7
100
AcDbSpline
210
0.0
220
0.0
230
1.0
 70
     8
 71
     3
 72
     8
 73
     4
 74
     0
 42
0.00000001
 43
0.00000001
 40
0.0
 40
0.0
 40
0.0
 40
0.0
 40
1.0
 40
1.0
 40
1.0
 40
1.0
 10
75.269824218749989
 20
206.92139214409721
 30
0.0
 10
73.629442003038193
 20
207.10794406467011
 30
0.0
 10
72.011797417534709
 20
207.09743652343749
 30
0.0
 10
70.583460828993054
 20
206.92139214409721
 30
0.0
  0
SPLINE
  5
17E
100
AcDbEntity
  8
レイヤー_2
 62
     7
100
AcDbSpline
210
0.0
220
0.0
230
1.0
 70
     8
 71
     3
 72
    11
 73
     7
 74
     0
 42
0.00000001
 43
0.00000001
 40
0.0
 40
0.0
 40
0.0
 40
0.0
 40
1.0
 40
1.0
 40
1.0
 40
2.0
 40
2.0
 40
2.0
 40
2.0
 10
75.269824218749989
 20
206.71864827473956
 30
0.0
 10
75.269824218749989
 20
206.71864827473956
 30
0.0
 10
75.269824218749989
 20
206.73535698784721
 30
0.0
 10
75.269824218749989
 20
206.74689805772567
 30
0.0
 10
75.269824218749989
 20
206.78307156032983
 30
0.0
 10
75.269824218749989
 20
206.85231797960068
 30
0.0
 10
75.269824218749989
 20
206.92139214409721
 30
0.0
  0
POLYLINE
  5
16A
100
AcDbEntity
  8
レイヤー_2
 62
     7
100
AcDb2dPolyline
 66
     1
 10
0.0
 20
0.0
 30
0.0
  0
VERTEX
  5
16B
100
AcDbEntity
  8
レイヤー_2
 62
     7
100
AcDbVertex
100
AcDb2dVertex
 10
75.269824
 20
206.718648
 30
0.0
  0
VERTEX
  5
16C
100
AcDbEntity
  8
レイヤー_2
 62
     7
100
AcDbVertex
100
AcDb2dVertex
 10
75.23055
 20
206.752582
 30
0.0
  0
VERTEX
  5
16D
100
AcDbEntity
  8
レイヤー_2
 62
     7
100
AcDbVertex
100
AcDb2dVertex
 10
75.111694
 20
206.785483
 30
0.0
  0
VERTEX
  5
16E
100
AcDbEntity
  8
レイヤー_2
 62
     7
100
AcDbVertex
100
AcDb2dVertex
 10
74.919113
 20
206.815628
 30
0.0
  0
VERTEX
  5
16F
100
AcDbEntity
  8
レイヤー_2
 62
     7
100
AcDbVertex
100
AcDb2dVertex
 10
74.658492
 20
206.842672
 30
0.0
  0
VERTEX
  5
170
100
AcDbEntity
  8
レイヤー_2
 62
     7
100
AcDbVertex
100
AcDb2dVertex
 10
74.338787
 20
206.865409
 30
0.0
  0
VERTEX
  5
171
100
AcDbEntity
  8
レイヤー_2
 62
     7
100
AcDbVertex
100
AcDb2dVertex
 10
73.971368
 20
206.883496
 30
0.0
  0
VERTEX
  5
172
100
AcDbEntity
  8
レイヤー_2
 62
     7
100
AcDbVertex
100
AcDb2dVertex
 10
73.567947
 20
206.895898
 30
0.0
  0
VERTEX
  5
173
100
AcDbEntity
  8
レイヤー_2
 62
     7
100
AcDbVertex
100
AcDb2dVertex
 10
73.143339
 20
206.901927
 30
0.0
  0
VERTEX
  5
174
100
AcDbEntity
  8
レイヤー_2
 62
     7
100
AcDbVertex
100
AcDb2dVertex
 10
72.711324
 20
206.901927
 30
0.0
  0
VERTEX
  5
175
100
AcDbEntity
  8
レイヤー_2
 62
     7
100
AcDbVertex
100
AcDb2dVertex
 10
72.28551
 20
206.895898
 30
0.0
  0
VERTEX
  5
176
100
AcDbEntity
  8
レイヤー_2
 62
     7
100
AcDbVertex
100
AcDb2dVertex
 10
71.882262
 20
206.883496
 30
0.0
  0
VERTEX
  5
177
100
AcDbEntity
  8
レイヤー_2
 62
     7
100
AcDbVertex
100
AcDb2dVertex
 10
71.514842
 20
206.865409
 30
0.0
  0
VERTEX
  5
178
100
AcDbEntity
  8
レイヤー_2
 62
     7
100
AcDbVertex
100
AcDb2dVertex
 10
71.195138
 20
206.842672
 30
0.0
  0
VERTEX
  5
179
100
AcDbEntity
  8
レイヤー_2
 62
     7
100
AcDbVertex
100
AcDb2dVertex
 10
70.934861
 20
206.815628
 30
0.0
  0
VERTEX
  5
17A
100
AcDbEntity
  8
レイヤー_2
 62
     7
100
AcDbVertex
100
AcDb2dVertex
 10
70.741935
 20
206.785483
 30
0.0
  0
VERTEX
  5
17B
100
AcDbEntity
  8
レイヤー_2
 62
     7
100
AcDbVertex
100
AcDb2dVertex
 10
70.623768
 20
206.752582
 30
0.0
  0
VERTEX
  5
17C
100
AcDbEntity
  8
レイヤー_2
 62
     7
100
AcDbVertex
100
AcDb2dVertex
 10
70.583978
 20
206.718648
 30
0.0
  0
SEQEND
  5
17D
100
AcDbEntity
  8
レイヤー_2
 62
     7
  0
SPLINE
  5
169
100
AcDbEntity
  8
レイヤー_2
 62
     7
100
AcDbSpline
210
0.0
220
0.0
230
1.0
 70
     8
 71
     3
 72
    11
 73
     7
 74
     0
 42
0.00000001
 43
0.00000001
 40
0.0
 40
0.0
 40
0.0
 40
0.0
 40
1.0
 40
1.0
 40
1.0
 40
2.0
 40
2.0
 40
2.0
 40
2.0
 10
70.583977593315964
 20
206.71864827473956
 30
0.0
 10
70.583977593315964
 20
206.71864827473956
 30
0.0
 10
70.583977593315964
 20
206.73535698784721
 30
0.0
 10
70.583977593315964
 20
206.74689805772567
 30
0.0
 10
70.583977593315964
 20
206.78307156032983
 30
0.0
 10
70.583977593315964
 20
206.85231797960068
 30
0.0
 10
70.583977593315964
 20
206.92139214409721
 30
0.0
  0
LINE
  5
168
100
AcDbEntity
  8
レイヤー_2
 62
     7
100
AcDbLine
 10
75.269824
 20
206.921392
 30
0.0
 11
75.269824
 21
207.648135
 31
0.0
  0
LINE
  5
167
100
AcDbEntity
  8
レイヤー_2
 62
     7
100
AcDbLine
 10
70.583978
 20
206.921392
 30
0.0
 11
70.583978
 21
207.648135
 31
0.0
  0
POLYLINE
  5
15C
100
AcDbEntity
  8
レイヤー_2
 62
     7
100
AcDb2dPolyline
 66
     1
 10
0.0
 20
0.0
 30
0.0
  0
VERTEX
  5
15D
100
AcDbEntity
  8
レイヤー_2
 62
     7
100
AcDbVertex
100
AcDb2dVertex
 10
70.583978
 20
207.488627
 30
0.0
  0
VERTEX
  5
15E
100
AcDbEntity
  8
レイヤー_2
 62
     7
100
AcDbVertex
100
AcDb2dVertex
 10
70.491305
 20
207.507231
 30
0.0
  0
VERTEX
  5
15F
100
AcDbEntity
  8
レイヤー_2
 62
     7
100
AcDbVertex
100
AcDb2dVertex
 10
70.424297
 20
207.527212
 30
0.0
  0
VERTEX
  5
160
100
AcDbEntity
  8
レイヤー_2
 62
     7
100
AcDbVertex
100
AcDb2dVertex
 10
70.384679
 20
207.547538
 30
0.0
  0
VERTEX
  5
161
100
AcDbEntity
  8
レイヤー_2
 62
     7
100
AcDbVertex
100
AcDb2dVertex
 10
70.370554
 20
207.568209
 30
0.0
  0
VERTEX
  5
162
100
AcDbEntity
  8
レイヤー_2
 62
     7
100
AcDbVertex
100
AcDb2dVertex
 10
70.384679
 20
207.588879
 30
0.0
  0
VERTEX
  5
163
100
AcDbEntity
  8
レイヤー_2
 62
     7
100
AcDbVertex
100
AcDb2dVertex
 10
70.424297
 20
207.609205
 30
0.0
  0
VERTEX
  5
164
100
AcDbEntity
  8
レイヤー_2
 62
     7
100
AcDbVertex
100
AcDb2dVertex
 10
70.491305
 20
207.629187
 30
0.0
  0
VERTEX
  5
165
100
AcDbEntity
  8
レイヤー_2
 62
     7
100
AcDbVertex
100
AcDb2dVertex
 10
70.583978
 20
207.648135
 30
0.0
  0
SEQEND
  5
166
100
AcDbEntity
  8
レイヤー_2
 62
     7
  0
POLYLINE
  5
151
100
AcDbEntity
  8
レイヤー_2
 62
     7
100
AcDb2dPolyline
 66
     1
 10
0.0
 20
0.0
 30
0.0
  0
VERTEX
  5
152
100
AcDbEntity
  8
レイヤー_2
 62
     7
100
AcDbVertex
100
AcDb2dVertex
 10
75.269824
 20
207.648135
 30
0.0
  0
VERTEX
  5
153
100
AcDbEntity
  8
レイヤー_2
 62
     7
100
AcDbVertex
100
AcDb2dVertex
 10
75.362497
 20
207.629187
 30
0.0
  0
VERTEX
  5
154
100
AcDbEntity
  8
レイヤー_2
 62
     7
100
AcDbVertex
100
AcDb2dVertex
 10
75.429332
 20
207.609205
 30
0.0
  0
VERTEX
  5
155
100
AcDbEntity
  8
レイヤー_2
 62
     7
100
AcDbVertex
100
AcDb2dVertex
 10
75.469468
 20
207.588879
 30
0.0
  0
VERTEX
  5
156
100
AcDbEntity
  8
レイヤー_2
 62
     7
100
AcDbVertex
100
AcDb2dVertex
 10
75.483076
 20
207.568209
 30
0.0
  0
VERTEX
  5
157
100
AcDbEntity
  8
レイヤー_2
 62
     7
100
AcDbVertex
100
AcDb2dVertex
 10
75.469468
 20
207.547538
 30
0.0
  0
VERTEX
  5
158
100
AcDbEntity
  8
レイヤー_2
 62
     7
100
AcDbVertex
100
AcDb2dVertex
 10
75.429332
 20
207.527212
 30
0.0
  0
VERTEX
  5
159
100
AcDbEntity
  8
レイヤー_2
 62
     7
100
AcDbVertex
100
AcDb2dVertex
 10
75.362497
 20
207.507231
 30
0.0
  0
VERTEX
  5
15A
100
AcDbEntity
  8
レイヤー_2
 62
     7
100
AcDbVertex
100
AcDb2dVertex
 10
75.269824
 20
207.488627
 30
0.0
  0
SEQEND
  5
15B
100
AcDbEntity
  8
レイヤー_2
 62
     7
  0
POLYLINE
  5
13C
100
AcDbEntity
  8
レイヤー_2
 62
     7
100
AcDb2dPolyline
 66
     1
 10
0.0
 20
0.0
 30
0.0
  0
VERTEX
  5
13D
100
AcDbEntity
  8
レイヤー_2
 62
     7
100
AcDbVertex
100
AcDb2dVertex
 10
75.483076
 20
208.523534
 30
0.0
  0
VERTEX
  5
13E
100
AcDbEntity
  8
レイヤー_2
 62
     7
100
AcDbVertex
100
AcDb2dVertex
 10
75.444146
 20
208.558329
 30
0.0
  0
VERTEX
  5
13F
100
AcDbEntity
  8
レイヤー_2
 62
     7
100
AcDbVertex
100
AcDb2dVertex
 10
75.328908
 20
208.592436
 30
0.0
  0
VERTEX
  5
140
100
AcDbEntity
  8
レイヤー_2
 62
     7
100
AcDbVertex
100
AcDb2dVertex
 10
75.140805
 20
208.624131
 30
0.0
  0
VERTEX
  5
141
100
AcDbEntity
  8
レイヤー_2
 62
     7
100
AcDbVertex
100
AcDb2dVertex
 10
74.884835
 20
208.652897
 30
0.0
  0
VERTEX
  5
142
100
AcDbEntity
  8
レイヤー_2
 62
     7
100
AcDbVertex
100
AcDb2dVertex
 10
74.570125
 20
208.67753
 30
0.0
  0
VERTEX
  5
143
100
AcDbEntity
  8
レイヤー_2
 62
     7
100
AcDbVertex
100
AcDb2dVertex
 10
74.205117
 20
208.697856
 30
0.0
  0
VERTEX
  5
144
100
AcDbEntity
  8
レイヤー_2
 62
     7
100
AcDbVertex
100
AcDb2dVertex
 10
73.800836
 20
208.712325
 30
0.0
  0
VERTEX
  5
145
100
AcDbEntity
  8
レイヤー_2
 62
     7
100
AcDbVertex
100
AcDb2dVertex
 10
73.370888
 20
208.721282
 30
0.0
  0
VERTEX
  5
146
100
AcDbEntity
  8
レイヤー_2
 62
     7
100
AcDbVertex
100
AcDb2dVertex
 10
72.927332
 20
208.724555
 30
0.0
  0
VERTEX
  5
147
100
AcDbEntity
  8
レイヤー_2
 62
     7
100
AcDbVertex
100
AcDb2dVertex
 10
72.482914
 20
208.721282
 30
0.0
  0
VERTEX
  5
148
100
AcDbEntity
  8
レイヤー_2
 62
     7
100
AcDbVertex
100
AcDb2dVertex
 10
72.052966
 20
208.712325
 30
0.0
  0
VERTEX
  5
149
100
AcDbEntity
  8
レイヤー_2
 62
     7
100
AcDbVertex
100
AcDb2dVertex
 10
71.649029
 20
208.697856
 30
0.0
  0
VERTEX
  5
14A
100
AcDbEntity
  8
レイヤー_2
 62
     7
100
AcDbVertex
100
AcDb2dVertex
 10
71.284193
 20
208.67753
 30
0.0
  0
VERTEX
  5
14B
100
AcDbEntity
  8
レイヤー_2
 62
     7
100
AcDbVertex
100
AcDb2dVertex
 10
70.968795
 20
208.652897
 30
0.0
  0
VERTEX
  5
14C
100
AcDbEntity
  8
レイヤー_2
 62
     7
100
AcDbVertex
100
AcDb2dVertex
 10
70.713341
 20
208.624131
 30
0.0
  0
VERTEX
  5
14D
100
AcDbEntity
  8
レイヤー_2
 62
     7
100
AcDbVertex
100
AcDb2dVertex
 10
70.525583
 20
208.592436
 30
0.0
  0
VERTEX
  5
14E
100
AcDbEntity
  8
レイヤー_2
 62
     7
100
AcDbVertex
100
AcDb2dVertex
 10
70.409828
 20
208.558329
 30
0.0
  0
VERTEX
  5
14F
100
AcDbEntity
  8
レイヤー_2
 62
     7
100
AcDbVertex
100
AcDb2dVertex
 10
70.370554
 20
208.523534
 30
0.0
  0
SEQEND
  5
150
100
AcDbEntity
  8
レイヤー_2
 62
     7
  0
POLYLINE
  5
122
100
AcDbEntity
  8
レイヤー_2
 62
     7
100
AcDb2dPolyline
 66
     1
 10
0.0
 20
0.0
 30
0.0
  0
VERTEX
  5
123
100
AcDbEntity
  8
レイヤー_2
 62
     7
100
AcDbVertex
100
AcDb2dVertex
 10
74.748065
 20
206.632004
 30
0.0
  0
VERTEX
  5
124
100
AcDbEntity
  8
レイヤー_2
 62
     7
100
AcDbVertex
100
AcDb2dVertex
 10
74.864164
 20
206.649919
 30
0.0
  0
VERTEX
  5
125
100
AcDbEntity
  8
レイヤー_2
 62
     7
100
AcDbVertex
100
AcDb2dVertex
 10
74.997145
 20
206.679891
 30
0.0
  0
VERTEX
  5
126
100
AcDbEntity
  8
レイヤー_2
 62
     7
100
AcDbVertex
100
AcDb2dVertex
 10
75.05485
 20
206.711069
 30
0.0
  0
VERTEX
  5
127
100
AcDbEntity
  8
レイヤー_2
 62
     7
100
AcDbVertex
100
AcDb2dVertex
 10
75.035385
 20
206.742936
 30
0.0
  0
VERTEX
  5
128
100
AcDbEntity
  8
レイヤー_2
 62
     7
100
AcDbVertex
100
AcDb2dVertex
 10
74.939612
 20
206.77377
 30
0.0
  0
VERTEX
  5
129
100
AcDbEntity
  8
レイヤー_2
 62
     7
100
AcDbVertex
100
AcDb2dVertex
 10
74.772008
 20
206.802881
 30
0.0
  0
VERTEX
  5
12A
100
AcDbEntity
  8
レイヤー_2
 62
     7
100
AcDbVertex
100
AcDb2dVertex
 10
74.53688
 20
206.828375
 30
0.0
  0
VERTEX
  5
12B
100
AcDbEntity
  8
レイヤー_2
 62
     7
100
AcDbVertex
100
AcDb2dVertex
 10
74.243703
 20
206.850423
 30
0.0
  0
VERTEX
  5
12C
100
AcDbEntity
  8
レイヤー_2
 62
     7
100
AcDbVertex
100
AcDb2dVertex
 10
73.90281
 20
206.867649
 30
0.0
  0
VERTEX
  5
12D
100
AcDbEntity
  8
レイヤー_2
 62
     7
100
AcDbVertex
100
AcDb2dVertex
 10
73.52695
 20
206.879362
 30
0.0
  0
VERTEX
  5
12E
100
AcDbEntity
  8
レイヤー_2
 62
     7
100
AcDbVertex
100
AcDb2dVertex
 10
73.129559
 20
206.885046
 30
0.0
  0
VERTEX
  5
12F
100
AcDbEntity
  8
レイヤー_2
 62
     7
100
AcDbVertex
100
AcDb2dVertex
 10
72.724243
 20
206.885046
 30
0.0
  0
VERTEX
  5
130
100
AcDbEntity
  8
レイヤー_2
 62
     7
100
AcDbVertex
100
AcDb2dVertex
 10
72.326851
 20
206.879362
 30
0.0
  0
VERTEX
  5
131
100
AcDbEntity
  8
レイヤー_2
 62
     7
100
AcDbVertex
100
AcDb2dVertex
 10
71.950991
 20
206.867649
 30
0.0
  0
VERTEX
  5
132
100
AcDbEntity
  8
レイヤー_2
 62
     7
100
AcDbVertex
100
AcDb2dVertex
 10
71.609927
 20
206.850423
 30
0.0
  0
VERTEX
  5
133
100
AcDbEntity
  8
レイヤー_2
 62
     7
100
AcDbVertex
100
AcDb2dVertex
 10
71.316922
 20
206.828375
 30
0.0
  0
VERTEX
  5
134
100
AcDbEntity
  8
レイヤー_2
 62
     7
100
AcDbVertex
100
AcDb2dVertex
 10
71.082483
 20
206.802881
 30
0.0
  0
VERTEX
  5
135
100
AcDbEntity
  8
レイヤー_2
 62
     7
100
AcDbVertex
100
AcDb2dVertex
 10
70.914362
 20
206.77377
 30
0.0
  0
VERTEX
  5
136
100
AcDbEntity
  8
レイヤー_2
 62
     7
100
AcDbVertex
100
AcDb2dVertex
 10
70.818244
 20
206.742936
 30
0.0
  0
VERTEX
  5
137
100
AcDbEntity
  8
レイヤー_2
 62
     7
100
AcDbVertex
100
AcDb2dVertex
 10
70.799468
 20
206.711069
 30
0.0
  0
VERTEX
  5
138
100
AcDbEntity
  8
レイヤー_2
 62
     7
100
AcDbVertex
100
AcDb2dVertex
 10
70.857001
 20
206.679891
 30
0.0
  0
VERTEX
  5
139
100
AcDbEntity
  8
レイヤー_2
 62
     7
100
AcDbVertex
100
AcDb2dVertex
 10
70.989121
 20
206.649919
 30
0.0
  0
VERTEX
  5
13A
100
AcDbEntity
  8
レイヤー_2
 62
     7
100
AcDbVertex
100
AcDb2dVertex
 10
71.105565
 20
206.632004
 30
0.0
  0
SEQEND
  5
13B
100
AcDbEntity
  8
レイヤー_2
 62
     7
  0
SPLINE
  5
121
100
AcDbEntity
  8
レイヤー_2
 62
     7
100
AcDbSpline
210
0.0
220
0.0
230
1.0
 70
     8
 71
     3
 72
     8
 73
     4
 74
     0
 42
0.00000001
 43
0.00000001
 40
0.0
 40
0.0
 40
0.0
 40
0.0
 40
1.0
 40
1.0
 40
1.0
 40
1.0
 10
70.583977593315964
 20
206.71864827473956
 30
0.0
 10
70.955875651041666
 20
206.59531385633679
 30
0.0
 10
71.334491644965269
 20
206.5460489908854
 30
0.0
 10
71.68124050564235
 20
206.56361897786456
 30
0.0
  0
SPLINE
  5
120
100
AcDbEntity
  8
レイヤー_2
 62
     7
100
AcDbSpline
210
0.0
220
0.0
230
1.0
 70
     8
 71
     3
 72
     8
 73
     4
 74
     0
 42
0.00000001
 43
0.00000001
 40
0.0
 40
0.0
 40
0.0
 40
0.0
 40
1.0
 40
1.0
 40
1.0
 40
1.0
 10
74.172733561197916
 20
206.56361897786456
 30
0.0
 10
74.563751898871516
 20
206.54777153862847
 30
0.0
 10
74.941506618923597
 20
206.60616590711803
 30
0.0
 10
75.269824218749989
 20
206.71864827473956
 30
0.0
  0
LINE
  5
11F
100
AcDbEntity
  8
レイヤー_2
 62
     7
100
AcDbLine
 10
68.465416
 20
212.309694
 30
0.0
 11
77.388041
 21
212.309694
 31
0.0
  0
SPLINE
  5
11E
100
AcDbEntity
  8
レイヤー_2
 62
     7
100
AcDbSpline
210
0.0
220
0.0
230
1.0
 70
     8
 71
     3
 72
    11
 73
     7
 74
     0
 42
0.00000001
 43
0.00000001
 40
0.0
 40
0.0
 40
0.0
 40
0.0
 40
1.0
 40
1.0
 40
1.0
 40
2.0
 40
2.0
 40
2.0
 40
2.0
 10
77.549616156684024
 20
212.08266194661456
 30
0.0
 10
77.370643446180551
 20
211.57140977647566
 30
0.0
 10
77.193221028645823
 20
211.05964084201386
 30
0.0
 10
77.015281846788184
 20
210.54735514322914
 30
0.0
 10
76.837170410156247
 20
210.03593071831597
 30
0.0
 10
76.65957573784722
 20
209.52381727430554
 30
0.0
 10
76.481636555989581
 20
209.01222059461804
 30
0.0
  0
SPLINE
  5
11D
100
AcDbEntity
  8
レイヤー_2
 62
     7
100
AcDbSpline
210
0.0
220
0.0
230
1.0
 70
     8
 71
     3
 72
    11
 73
     7
 74
     0
 42
0.00000001
 43
0.00000001
 40
0.0
 40
0.0
 40
0.0
 40
0.0
 40
1.0
 40
1.0
 40
1.0
 40
2.0
 40
2.0
 40
2.0
 40
2.0
 10
69.371820746527774
 20
209.01222059461804
 30
0.0
 10
69.19491509331597
 20
209.52381727430554
 30
0.0
 10
69.016975911458331
 20
210.03593071831597
 30
0.0
 10
68.83886447482638
 20
210.54735514322914
 30
0.0
 10
68.661442057291666
 20
211.05964084201386
 30
0.0
 10
68.482813856336804
 20
211.57140977647566
 30
0.0
 10
68.304874674479166
 20
212.08266194661456
 30
0.0
  0
POLYLINE
  5
118
100
AcDbEntity
  8
レイヤー_2
 62
     7
100
AcDb2dPolyline
 66
     1
 10
0.0
 20
0.0
 30
0.0
  0
VERTEX
  5
119
100
AcDbEntity
  8
レイヤー_2
 62
     7
100
AcDbVertex
100
AcDb2dVertex
 10
77.587684
 20
211.565036
 30
0.0
  0
VERTEX
  5
11A
100
AcDbEntity
  8
レイヤー_2
 62
     7
100
AcDbVertex
100
AcDb2dVertex
 10
77.586823
 20
211.543849
 30
0.0
  0
VERTEX
  5
11B
100
AcDbEntity
  8
レイヤー_2
 62
     7
100
AcDbVertex
100
AcDb2dVertex
 10
77.57821
 20
211.504403
 30
0.0
  0
SEQEND
  5
11C
100
AcDbEntity
  8
レイヤー_2
 62
     7
  0
LINE
  5
117
100
AcDbEntity
  8
レイヤー_2
 62
     7
100
AcDbLine
 10
76.033602
 20
207.124825
 30
0.0
 11
76.011726
 21
207.051961
 31
0.0
  0
SPLINE
  5
116
100
AcDbEntity
  8
レイヤー_2
 62
     7
100
AcDbSpline
210
0.0
220
0.0
230
1.0
 70
     8
 71
     3
 72
    20
 73
    16
 74
     0
 42
0.00000001
 43
0.00000001
 40
0.0
 40
0.0
 40
0.0
 40
0.0
 40
1.0
 40
1.0
 40
1.0
 40
2.0
 40
2.0
 40
2.0
 40
3.0
 40
3.0
 40
3.0
 40
4.0
 40
4.0
 40
4.0
 40
5.0
 40
5.0
 40
5.0
 40
5.0
 10
76.481636555989581
 20
209.01222059461804
 30
0.0
 10
76.479741753472211
 20
209.00360785590277
 30
0.0
 10
76.477846950954856
 20
208.99430609809025
 30
0.0
 10
76.475090874565964
 20
208.98552110460068
 30
0.0
 10
76.467511664496527
 20
208.95003662109374
 30
0.0
 10
76.458726671006943
 20
208.91437988281248
 30
0.0
 10
76.45028618706597
 20
208.87820638020833
 30
0.0
 10
76.417041015624989
 20
208.73626844618053
 30
0.0
 10
76.3829345703125
 20
208.59398600260414
 30
0.0
 10
76.349000379774296
 20
208.45153130425345
 30
0.0
 10
76.296979437934027
 20
208.23018391927081
 30
0.0
 10
76.244097222222209
 20
208.0095255533854
 30
0.0
 10
76.191559516059016
 20
207.78835042317706
 30
0.0
 10
76.139021809895823
 20
207.56683078342013
 30
0.0
 10
76.086828613281241
 20
207.34617241753472
 30
0.0
 10
76.033601888020826
 20
207.12482503255205
 30
0.0
  0
SPLINE
  5
115
100
AcDbEntity
  8
レイヤー_2
 62
     7
100
AcDbSpline
210
0.0
220
0.0
230
1.0
 70
     8
 71
     3
 72
    11
 73
     7
 74
     0
 42
0.00000001
 43
0.00000001
 40
0.0
 40
0.0
 40
0.0
 40
0.0
 40
1.0
 40
1.0
 40
1.0
 40
2.0
 40
2.0
 40
2.0
 40
2.0
 10
76.011725531684021
 20
207.05196126302081
 30
0.0
 10
76.193109809027774
 20
207.5690700954861
 30
0.0
 10
76.375010850694437
 20
208.08583441840275
 30
0.0
 10
76.557084147135413
 20
208.60242648654511
 30
0.0
 10
76.897287326388877
 20
209.56963704427082
 30
0.0
 10
77.238007269965266
 20
210.5365030924479
 30
0.0
 10
77.578210449218744
 20
211.5044026692708
 30
0.0
  0
SPLINE
  5
114
100
AcDbEntity
  8
レイヤー_2
 62
     7
100
AcDbSpline
210
0.0
220
0.0
230
1.0
 70
     8
 71
     3
 72
    20
 73
    16
 74
     0
 42
0.00000001
 43
0.00000001
 40
0.0
 40
0.0
 40
0.0
 40
0.0
 40
1.0
 40
1.0
 40
1.0
 40
2.0
 40
2.0
 40
2.0
 40
3.0
 40
3.0
 40
3.0
 40
4.0
 40
4.0
 40
4.0
 40
5.0
 40
5.0
 40
5.0
 40
5.0
 10
69.82037217881944
 20
207.12482503255205
 30
0.0
 10
69.818132866753473
 20
207.13343777126735
 30
0.0
 10
69.815893554687491
 20
207.14273952907985
 30
0.0
 10
69.813654242621524
 20
207.15152452256942
 30
0.0
 10
69.805041503906239
 20
207.18718126085068
 30
0.0
 10
69.796945529513877
 20
207.22249348958331
 30
0.0
 10
69.788505045572904
 20
207.25866699218747
 30
0.0
 10
69.754570855034714
 20
207.40112169053816
 30
0.0
 10
69.720808919270823
 20
207.54305962456596
 30
0.0
 10
69.68670247395832
 20
207.68568657769094
 30
0.0
 10
69.633648003472217
 20
207.90668945312498
 30
0.0
 10
69.581110297309024
 20
208.12803683810762
 30
0.0
 10
69.529089355468741
 20
208.34903971354166
 30
0.0
 10
69.476034884982639
 20
208.57021484374999
 30
0.0
 10
69.423841688368043
 20
208.791217719184
 30
0.0
 10
69.371820746527774
 20
209.01222059461804
 30
0.0
  0
LINE
  5
113
100
AcDbEntity
  8
レイヤー_2
 62
     7
100
AcDbLine
 10
69.842249
 20
207.051961
 30
0.0
 11
69.820372
 21
207.124825
 31
0.0
  0
SPLINE
  5
112
100
AcDbEntity
  8
レイヤー_2
 62
     7
100
AcDbSpline
210
0.0
220
0.0
230
1.0
 70
     8
 71
     3
 72
    11
 73
     7
 74
     0
 42
0.00000001
 43
0.00000001
 40
0.0
 40
0.0
 40
0.0
 40
0.0
 40
1.0
 40
1.0
 40
1.0
 40
2.0
 40
2.0
 40
2.0
 40
2.0
 10
68.274730088975687
 20
211.5044026692708
 30
0.0
 10
68.441817220052073
 20
211.03070203993053
 30
0.0
 10
68.608559841579861
 20
210.55786268446178
 30
0.0
 10
68.775130208333323
 20
210.08416205512151
 30
0.0
 10
69.130836317274301
 20
209.07354329427082
 30
0.0
 10
69.486542426215266
 20
208.0625800238715
 30
0.0
 10
69.842248535156244
 20
207.05196126302081
 30
0.0
  0
SPLINE
  5
111
100
AcDbEntity
  8
レイヤー_2
 62
     7
100
AcDbSpline
210
0.0
220
0.0
230
1.0
 70
     8
 71
     3
 72
     8
 73
     4
 74
     0
 42
0.00000001
 43
0.00000001
 40
0.0
 40
0.0
 40
0.0
 40
0.0
 40
1.0
 40
1.0
 40
1.0
 40
1.0
 10
76.3209228515625
 20
208.89870469835068
 30
0.0
 10
76.394992404513886
 20
208.89870469835068
 30
0.0
 10
76.457693142361109
 20
208.94521348741318
 30
0.0
 10
76.481636555989581
 20
209.01222059461804
 30
0.0
  0
LINE
  5
110
100
AcDbEntity
  8
レイヤー_2
 62
     7
100
AcDbLine
 10
76.320923
 20
208.898705
 30
0.0
 11
69.532707
 21
208.898705
 31
0.0
  0
SPLINE
  5
10F
100
AcDbEntity
  8
レイヤー_2
 62
     7
100
AcDbSpline
210
0.0
220
0.0
230
1.0
 70
     8
 71
     3
 72
     8
 73
     4
 74
     0
 42
0.00000001
 43
0.00000001
 40
0.0
 40
0.0
 40
0.0
 40
0.0
 40
1.0
 40
1.0
 40
1.0
 40
1.0
 10
69.371820746527774
 20
209.01222059461804
 30
0.0
 10
69.396280924479157
 20
208.94262966579859
 30
0.0
 10
69.46139322916666
 20
208.89870469835068
 30
0.0
 10
69.532706705729154
 20
208.89870469835068
 30
0.0
  0
POLYLINE
  5
101
100
AcDbEntity
  8
レイヤー_2
 62
     7
100
AcDb2dPolyline
 66
     1
 10
0.0
 20
0.0
 30
0.0
  0
VERTEX
  5
102
100
AcDbEntity
  8
レイヤー_2
 62
     7
100
AcDbVertex
100
AcDb2dVertex
 10
72.927332
 20
208.749877
 30
0.0
  0
VERTEX
  5
103
100
AcDbEntity
  8
レイヤー_2
 62
     7
100
AcDbVertex
100
AcDb2dVertex
 10
72.486187
 20
208.74712
 30
0.0
  0
VERTEX
  5
104
100
AcDbEntity
  8
レイヤー_2
 62
     7
100
AcDbVertex
100
AcDb2dVertex
 10
72.057962
 20
208.737991
 30
0.0
  0
VERTEX
  5
105
100
AcDbEntity
  8
レイヤー_2
 62
     7
100
AcDbVertex
100
AcDb2dVertex
 10
71.654369
 20
208.724038
 30
0.0
  0
VERTEX
  5
106
100
AcDbEntity
  8
レイヤー_2
 62
     7
100
AcDbVertex
100
AcDb2dVertex
 10
71.287983
 20
208.704401
 30
0.0
  0
VERTEX
  5
107
100
AcDbEntity
  8
レイヤー_2
 62
     7
100
AcDbVertex
100
AcDb2dVertex
 10
70.968278
 20
208.680802
 30
0.0
  0
VERTEX
  5
108
100
AcDbEntity
  8
レイヤー_2
 62
     7
100
AcDbVertex
100
AcDb2dVertex
 10
70.705245
 20
208.65238
 30
0.0
  0
VERTEX
  5
109
100
AcDbEntity
  8
レイヤー_2
 62
     7
100
AcDbVertex
100
AcDb2dVertex
 10
70.505946
 20
208.621202
 30
0.0
  0
VERTEX
  5
10A
100
AcDbEntity
  8
レイヤー_2
 62
     7
100
AcDbVertex
100
AcDb2dVertex
 10
70.375894
 20
208.587957
 30
0.0
  0
VERTEX
  5
10B
100
AcDbEntity
  8
レイヤー_2
 62
     7
100
AcDbVertex
100
AcDb2dVertex
 10
70.320256
 20
208.553334
 30
0.0
  0
VERTEX
  5
10C
100
AcDbEntity
  8
レイヤー_2
 62
     7
100
AcDbVertex
100
AcDb2dVertex
 10
70.338342
 20
208.519572
 30
0.0
  0
VERTEX
  5
10D
100
AcDbEntity
  8
レイヤー_2
 62
     7
100
AcDbVertex
100
AcDb2dVertex
 10
70.370554
 20
208.504241
 30
0.0
  0
SEQEND
  5
10E
100
AcDbEntity
  8
レイヤー_2
 62
     7
  0
POLYLINE
  5
F3
100
AcDbEntity
  8
レイヤー_2
 62
     7
100
AcDb2dPolyline
 66
     1
 10
0.0
 20
0.0
 30
0.0
  0
VERTEX
  5
F4
100
AcDbEntity
  8
レイヤー_2
 62
     7
100
AcDbVertex
100
AcDb2dVertex
 10
75.483076
 20
208.504241
 30
0.0
  0
VERTEX
  5
F5
100
AcDbEntity
  8
レイヤー_2
 62
     7
100
AcDbVertex
100
AcDb2dVertex
 10
75.515287
 20
208.519572
 30
0.0
  0
VERTEX
  5
F6
100
AcDbEntity
  8
レイヤー_2
 62
     7
100
AcDbVertex
100
AcDb2dVertex
 10
75.533719
 20
208.553334
 30
0.0
  0
VERTEX
  5
F7
100
AcDbEntity
  8
レイヤー_2
 62
     7
100
AcDbVertex
100
AcDb2dVertex
 10
75.477391
 20
208.587957
 30
0.0
  0
VERTEX
  5
F8
100
AcDbEntity
  8
レイヤー_2
 62
     7
100
AcDbVertex
100
AcDb2dVertex
 10
75.348028
 20
208.621202
 30
0.0
  0
VERTEX
  5
F9
100
AcDbEntity
  8
レイヤー_2
 62
     7
100
AcDbVertex
100
AcDb2dVertex
 10
75.148901
 20
208.65238
 30
0.0
  0
VERTEX
  5
FA
100
AcDbEntity
  8
レイヤー_2
 62
     7
100
AcDbVertex
100
AcDb2dVertex
 10
74.885696
 20
208.680802
 30
0.0
  0
VERTEX
  5
FB
100
AcDbEntity
  8
レイヤー_2
 62
     7
100
AcDbVertex
100
AcDb2dVertex
 10
74.566508
 20
208.704401
 30
0.0
  0
VERTEX
  5
FC
100
AcDbEntity
  8
レイヤー_2
 62
     7
100
AcDbVertex
100
AcDb2dVertex
 10
74.199433
 20
208.724038
 30
0.0
  0
VERTEX
  5
FD
100
AcDbEntity
  8
レイヤー_2
 62
     7
100
AcDbVertex
100
AcDb2dVertex
 10
73.796357
 20
208.737991
 30
0.0
  0
VERTEX
  5
FE
100
AcDbEntity
  8
レイヤー_2
 62
     7
100
AcDbVertex
100
AcDb2dVertex
 10
73.367959
 20
208.74712
 30
0.0
  0
VERTEX
  5
FF
100
AcDbEntity
  8
レイヤー_2
 62
     7
100
AcDbVertex
100
AcDb2dVertex
 10
72.927332
 20
208.749877
 30
0.0
  0
SEQEND
  5
100
100
AcDbEntity
  8
レイヤー_2
 62
     7
  0
SPLINE
  5
F2
100
AcDbEntity
  8
レイヤー_2
 62
     7
100
AcDbSpline
210
0.0
220
0.0
230
1.0
 70
     8
 71
     3
 72
    11
 73
     7
 74
     0
 42
0.00000001
 43
0.00000001
 40
0.0
 40
0.0
 40
0.0
 40
0.0
 40
1.0
 40
1.0
 40
1.0
 40
2.0
 40
2.0
 40
2.0
 40
2.0
 10
76.011725531684021
 20
207.05196126302081
 30
0.0
 10
76.011725531684021
 20
207.05196126302081
 30
0.0
 10
76.007419162326386
 20
207.03766411675346
 30
0.0
 10
76.006213378906239
 20
207.02905137803816
 30
0.0
 10
76.002940538194437
 20
207.00441894531249
 30
0.0
 10
76.006213378906239
 20
206.96755642361109
 30
0.0
 10
76.008624945746519
 20
206.93069390190971
 30
0.0
  0
SPLINE
  5
F1
100
AcDbEntity
  8
レイヤー_2
 62
     7
100
AcDbSpline
210
0.0
220
0.0
230
1.0
 70
     8
 71
     3
 72
    11
 73
     7
 74
     0
 42
0.00000001
 43
0.00000001
 40
0.0
 40
0.0
 40
0.0
 40
0.0
 40
1.0
 40
1.0
 40
1.0
 40
2.0
 40
2.0
 40
2.0
 40
2.0
 10
69.844660101996524
 20
206.93069390190971
 30
0.0
 10
69.845865885416657
 20
206.9401679144965
 30
0.0
 10
69.847588433159714
 20
206.94998643663192
 30
0.0
 10
69.848277452256937
 20
206.95859917534722
 30
0.0
 10
69.852928331163184
 20
206.99907904730901
 30
0.0
 10
69.847588433159714
 20
207.02526177300345
 30
0.0
 10
69.842248535156244
 20
207.05196126302081
 30
0.0
  0
SPLINE
  5
F0
100
AcDbEntity
  8
レイヤー_2
 62
     7
100
AcDbSpline
210
0.0
220
0.0
230
1.0
 70
     8
 71
     3
 72
    11
 73
     7
 74
     0
 42
0.00000001
 43
0.00000001
 40
0.0
 40
0.0
 40
0.0
 40
0.0
 40
1.0
 40
1.0
 40
1.0
 40
2.0
 40
2.0
 40
2.0
 40
2.0
 10
77.62368570963541
 20
211.53919813368054
 30
0.0
 10
77.60869954427082
 20
211.53161892361109
 30
0.0
 10
77.586823187934016
 20
211.51542697482637
 30
0.0
 10
77.586823187934016
 20
211.51542697482637
 30
0.0
 10
77.586823187934016
 20
211.51542697482637
 30
0.0
 10
77.578210449218744
 20
211.5044026692708
 30
0.0
 10
77.578210449218744
 20
211.5044026692708
 30
0.0
  0
LINE
  5
EF
100
AcDbEntity
  8
レイヤー_2
 62
     7
100
AcDbLine
 10
77.623686
 20
211.518011
 30
0.0
 11
77.623686
 21
211.539198
 31
0.0
  0
LINE
  5
EE
100
AcDbEntity
  8
レイヤー_2
 62
     7
100
AcDbLine
 10
68.230288
 20
211.539198
 30
0.0
 11
68.229944
 21
211.518011
 31
0.0
  0
SPLINE
  5
ED
100
AcDbEntity
  8
レイヤー_2
 62
     7
100
AcDbSpline
210
0.0
220
0.0
230
1.0
 70
     8
 71
     3
 72
    11
 73
     7
 74
     0
 42
0.00000001
 43
0.00000001
 40
0.0
 40
0.0
 40
0.0
 40
0.0
 40
1.0
 40
1.0
 40
1.0
 40
2.0
 40
2.0
 40
2.0
 40
2.0
 10
68.274730088975687
 20
211.5044026692708
 30
0.0
 10
68.26818440755207
 20
211.51370442708333
 30
0.0
 10
68.261121961805543
 20
211.5224894205729
 30
0.0
 10
68.24493001302082
 20
211.53161892361109
 30
0.0
 10
68.24493001302082
 20
211.53161892361109
 30
0.0
 10
68.230288357204856
 20
211.53919813368054
 30
0.0
 10
68.230288357204856
 20
211.53919813368054
 30
0.0
  0
LINE
  5
EC
100
AcDbEntity
  8
レイヤー_2
 62
     7
100
AcDbLine
 10
76.008625
 20
206.930694
 30
0.0
 11
76.028262
 21
206.708485
 31
0.0
  0
LINE
  5
EB
100
AcDbEntity
  8
レイヤー_2
 62
     7
100
AcDbLine
 10
69.825884
 20
206.708485
 30
0.0
 11
69.84466
 21
206.930694
 31
0.0
  0
SPLINE
  5
EA
100
AcDbEntity
  8
レイヤー_2
 62
     7
100
AcDbSpline
210
0.0
220
0.0
230
1.0
 70
     8
 71
     3
 72
    20
 73
    16
 74
     0
 42
0.00000001
 43
0.00000001
 40
0.0
 40
0.0
 40
0.0
 40
0.0
 40
1.0
 40
1.0
 40
1.0
 40
2.0
 40
2.0
 40
2.0
 40
3.0
 40
3.0
 40
3.0
 40
4.0
 40
4.0
 40
4.0
 40
5.0
 40
5.0
 40
5.0
 40
5.0
 10
68.769445800781241
 20
183.38983968098955
 30
0.0
 10
68.774096679687489
 20
183.4931925455729
 30
0.0
 10
68.779092068142361
 20
183.59568413628472
 30
0.0
 10
68.783398437499997
 20
183.69852023654514
 30
0.0
 10
68.802690972222223
 20
184.110553656684
 30
0.0
 10
68.821122233072913
 20
184.52172580295138
 30
0.0
 10
68.839725748697916
 20
184.93324245876735
 30
0.0
 10
68.914139811197913
 20
186.57896457248262
 30
0.0
 10
68.988726128472223
 20
188.22485894097221
 30
0.0
 10
69.063484700520831
 20
189.87075330946178
 30
0.0
 10
69.19060872395832
 20
192.6774726019965
 30
0.0
 10
69.317388237847211
 20
195.4833306206597
 30
0.0
 10
69.444512261284714
 20
198.2890163845486
 30
0.0
 10
69.571464029947904
 20
201.095563422309
 30
0.0
 10
69.69876030815972
 20
203.9015936957465
 30
0.0
 10
69.825884331597223
 20
206.70848524305555
 30
0.0
  0
SPLINE
  5
E9
100
AcDbEntity
  8
レイヤー_2
 62
     7
100
AcDbSpline
210
0.0
220
0.0
230
1.0
 70
     8
 71
     3
 72
    23
 73
    19
 74
     0
 42
0.00000001
 43
0.00000001
 40
0.0
 40
0.0
 40
0.0
 40
0.0
 40
1.0
 40
1.0
 40
1.0
 40
2.0
 40
2.0
 40
2.0
 40
3.0
 40
3.0
 40
3.0
 40
4.0
 40
4.0
 40
4.0
 40
5.0
 40
5.0
 40
5.0
 40
6.0
 40
6.0
 40
6.0
 40
6.0
 10
76.028261990017356
 20
206.70848524305555
 30
0.0
 10
76.033257378472214
 20
206.60496012369791
 30
0.0
 10
76.037908257378461
 20
206.50195176866316
 30
0.0
 10
76.042559136284709
 20
206.39928792317707
 30
0.0
 10
76.060645887586801
 20
205.9879435221354
 30
0.0
 10
76.079593912760416
 20
205.57625461154512
 30
0.0
 10
76.098197428385404
 20
205.16491021050345
 30
0.0
 10
76.172611490885416
 20
203.51918809678818
 30
0.0
 10
76.247542317708323
 20
201.87260470920137
 30
0.0
 10
76.321611870659709
 20
200.2268825954861
 30
0.0
 10
76.448908148871524
 20
197.42068006727428
 30
0.0
 10
76.575859917534714
 20
194.61430528428818
 30
0.0
 10
76.702983940972217
 20
191.80844726562498
 30
0.0
 10
76.744325086805546
 20
190.89205186631943
 30
0.0
 10
76.785493977864576
 20
189.97479519314234
 30
0.0
 10
76.827524142795127
 20
189.05753851996525
 30
0.0
 10
76.91296251085069
 20
187.16876491970484
 30
0.0
 10
76.998400878906239
 20
185.27930230034721
 30
0.0
 10
77.0840115017361
 20
183.38983968098955
 30
0.0
  0
LINE
  5
E8
100
AcDbEntity
  8
レイヤー_2
 62
     7
100
AcDbLine
 10
73.588445
 20
170.991113
 30
0.0
 11
78.473763
 21
170.991113
 31
0.0
  0
LINE
  5
E7
100
AcDbEntity
  8
レイヤー_2
 62
     7
100
AcDbLine
 10
67.397781
 20
170.991113
 30
0.0
 11
69.182685
 21
170.991113
 31
0.0
  0
LINE
  5
E6
100
AcDbEntity
  8
レイヤー_2
 62
     7
100
AcDbLine
 10
69.182685
 20
172.269071
 30
0.0
 11
67.397781
 21
172.269071
 31
0.0
  0
LINE
  5
E5
100
AcDbEntity
  8
レイヤー_2
 62
     7
100
AcDbLine
 10
78.473763
 20
172.269071
 30
0.0
 11
73.588445
 21
172.269071
 31
0.0
  0
LINE
  5
E4
100
AcDbEntity
  8
レイヤー_2
 62
     7
100
AcDbLine
 10
73.468728
 20
170.991113
 30
0.0
 11
73.588445
 21
170.991113
 31
0.0
  0
LINE
  5
E3
100
AcDbEntity
  8
レイヤー_2
 62
     7
100
AcDbLine
 10
73.588445
 20
172.269071
 30
0.0
 11
73.468728
 21
172.269071
 31
0.0
  0
LINE
  5
E2
100
AcDbEntity
  8
レイヤー_2
 62
     7
100
AcDbLine
 10
69.398348
 20
172.269071
 30
0.0
 11
69.396625
 21
172.269071
 31
0.0
  0
LINE
  5
E1
100
AcDbEntity
  8
レイヤー_2
 62
     7
100
AcDbLine
 10
70.477524
 20
171.949194
 30
0.0
 11
69.597302
 21
171.949194
 31
0.0
  0
LINE
  5
E0
100
AcDbEntity
  8
レイヤー_2
 62
     7
100
AcDbLine
 10
69.597302
 20
170.991113
 30
0.0
 11
70.477524
 21
170.991113
 31
0.0
  0
LINE
  5
DF
100
AcDbEntity
  8
レイヤー_2
 62
     7
100
AcDbLine
 10
69.595752
 20
170.991113
 30
0.0
 11
69.597302
 21
170.991113
 31
0.0
  0
LINE
  5
DE
100
AcDbEntity
  8
レイヤー_2
 62
     7
100
AcDbLine
 10
69.597302
 20
171.949194
 30
0.0
 11
69.595752
 21
171.949194
 31
0.0
  0
POLYLINE
  5
D3
100
AcDbEntity
  8
レイヤー_2
 62
     7
100
AcDb2dPolyline
 66
     1
 10
0.0
 20
0.0
 30
0.0
  0
VERTEX
  5
D4
100
AcDbEntity
  8
レイヤー_2
 62
     7
100
AcDbVertex
100
AcDb2dVertex
 10
72.927332
 20
206.825791
 30
0.0
  0
VERTEX
  5
D5
100
AcDbEntity
  8
レイヤー_2
 62
     7
100
AcDbVertex
100
AcDb2dVertex
 10
72.543031
 20
206.822862
 30
0.0
  0
VERTEX
  5
D6
100
AcDbEntity
  8
レイヤー_2
 62
     7
100
AcDbVertex
100
AcDb2dVertex
 10
72.174923
 20
206.814422
 30
0.0
  0
VERTEX
  5
D7
100
AcDbEntity
  8
レイヤー_2
 62
     7
100
AcDbVertex
100
AcDb2dVertex
 10
71.837992
 20
206.798919
 30
0.0
  0
VERTEX
  5
D8
100
AcDbEntity
  8
レイヤー_2
 62
     7
100
AcDbVertex
100
AcDb2dVertex
 10
71.545159
 20
206.779626
 30
0.0
  0
VERTEX
  5
D9
100
AcDbEntity
  8
レイヤー_2
 62
     7
100
AcDbVertex
100
AcDb2dVertex
 10
71.308826
 20
206.755855
 30
0.0
  0
VERTEX
  5
DA
100
AcDbEntity
  8
レイヤー_2
 62
     7
100
AcDbVertex
100
AcDb2dVertex
 10
71.138638
 20
206.728639
 30
0.0
  0
VERTEX
  5
DB
100
AcDbEntity
  8
レイヤー_2
 62
     7
100
AcDbVertex
100
AcDb2dVertex
 10
71.042864
 20
206.699011
 30
0.0
  0
VERTEX
  5
DC
100
AcDbEntity
  8
レイヤー_2
 62
     7
100
AcDbVertex
100
AcDb2dVertex
 10
71.020643
 20
206.674551
 30
0.0
  0
SEQEND
  5
DD
100
AcDbEntity
  8
レイヤー_2
 62
     7
  0
POLYLINE
  5
C7
100
AcDbEntity
  8
レイヤー_2
 62
     7
100
AcDb2dPolyline
 66
     1
 10
0.0
 20
0.0
 30
0.0
  0
VERTEX
  5
C8
100
AcDbEntity
  8
レイヤー_2
 62
     7
100
AcDbVertex
100
AcDb2dVertex
 10
74.823857
 20
206.661115
 30
0.0
  0
VERTEX
  5
C9
100
AcDbEntity
  8
レイヤー_2
 62
     7
100
AcDbVertex
100
AcDb2dVertex
 10
74.830919
 20
206.668867
 30
0.0
  0
VERTEX
  5
CA
100
AcDbEntity
  8
レイヤー_2
 62
     7
100
AcDbVertex
100
AcDb2dVertex
 10
74.811454
 20
206.699011
 30
0.0
  0
VERTEX
  5
CB
100
AcDbEntity
  8
レイヤー_2
 62
     7
100
AcDbVertex
100
AcDb2dVertex
 10
74.714303
 20
206.728639
 30
0.0
  0
VERTEX
  5
CC
100
AcDbEntity
  8
レイヤー_2
 62
     7
100
AcDbVertex
100
AcDb2dVertex
 10
74.544976
 20
206.755855
 30
0.0
  0
VERTEX
  5
CD
100
AcDbEntity
  8
レイヤー_2
 62
     7
100
AcDbVertex
100
AcDb2dVertex
 10
74.308643
 20
206.779626
 30
0.0
  0
VERTEX
  5
CE
100
AcDbEntity
  8
レイヤー_2
 62
     7
100
AcDbVertex
100
AcDb2dVertex
 10
74.015982
 20
206.798919
 30
0.0
  0
VERTEX
  5
CF
100
AcDbEntity
  8
レイヤー_2
 62
     7
100
AcDbVertex
100
AcDb2dVertex
 10
73.678362
 20
206.814422
 30
0.0
  0
VERTEX
  5
D0
100
AcDbEntity
  8
レイヤー_2
 62
     7
100
AcDbVertex
100
AcDb2dVertex
 10
73.310943
 20
206.822862
 30
0.0
  0
VERTEX
  5
D1
100
AcDbEntity
  8
レイヤー_2
 62
     7
100
AcDbVertex
100
AcDb2dVertex
 10
72.927332
 20
206.825791
 30
0.0
  0
SEQEND
  5
D2
100
AcDbEntity
  8
レイヤー_2
 62
     7
  0
POLYLINE
  5
C2
100
AcDbEntity
  8
レイヤー_2
 62
     7
100
AcDb2dPolyline
 66
     1
 10
0.0
 20
0.0
 30
0.0
  0
VERTEX
  5
C3
100
AcDbEntity
  8
レイヤー_2
 62
     7
100
AcDbVertex
100
AcDb2dVertex
 10
68.295056
 20
212.151736
 30
0.0
  0
VERTEX
  5
C4
100
AcDbEntity
  8
レイヤー_2
 62
     7
100
AcDbVertex
100
AcDb2dVertex
 10
68.296262
 20
212.122453
 30
0.0
  0
VERTEX
  5
C5
100
AcDbEntity
  8
レイヤー_2
 62
     7
100
AcDbVertex
100
AcDb2dVertex
 10
68.304875
 20
212.082662
 30
0.0
  0
SEQEND
  5
C6
100
AcDbEntity
  8
レイヤー_2
 62
     7
  0
POLYLINE
  5
BD
100
AcDbEntity
  8
レイヤー_2
 62
     7
100
AcDb2dPolyline
 66
     1
 10
0.0
 20
0.0
 30
0.0
  0
VERTEX
  5
BE
100
AcDbEntity
  8
レイヤー_2
 62
     7
100
AcDbVertex
100
AcDb2dVertex
 10
77.558918
 20
212.151736
 30
0.0
  0
VERTEX
  5
BF
100
AcDbEntity
  8
レイヤー_2
 62
     7
100
AcDbVertex
100
AcDb2dVertex
 10
77.55754
 20
212.122453
 30
0.0
  0
VERTEX
  5
C0
100
AcDbEntity
  8
レイヤー_2
 62
     7
100
AcDbVertex
100
AcDb2dVertex
 10
77.549616
 20
212.082662
 30
0.0
  0
SEQEND
  5
C1
100
AcDbEntity
  8
レイヤー_2
 62
     7
  0
POLYLINE
  5
B8
100
AcDbEntity
  8
レイヤー_2
 62
     7
100
AcDb2dPolyline
 66
     1
 10
0.0
 20
0.0
 30
0.0
  0
VERTEX
  5
B9
100
AcDbEntity
  8
レイヤー_2
 62
     7
100
AcDbVertex
100
AcDb2dVertex
 10
68.266117
 20
211.565036
 30
0.0
  0
VERTEX
  5
BA
100
AcDbEntity
  8
レイヤー_2
 62
     7
100
AcDbVertex
100
AcDb2dVertex
 10
68.266979
 20
211.543849
 30
0.0
  0
VERTEX
  5
BB
100
AcDbEntity
  8
レイヤー_2
 62
     7
100
AcDbVertex
100
AcDb2dVertex
 10
68.27473
 20
211.504403
 30
0.0
  0
SEQEND
  5
BC
100
AcDbEntity
  8
レイヤー_2
 62
     7
  0
LINE
  5
B7
100
AcDbEntity
  8
レイヤー_2
 62
     7
100
AcDbLine
 10
75.97004
 20
206.849562
 30
0.0
 11
75.275164
 21
206.849562
 31
0.0
  0
LINE
  5
B6
100
AcDbEntity
  8
レイヤー_2
 62
     7
100
AcDbLine
 10
70.584322
 20
206.849562
 30
0.0
 11
69.974023
 21
206.849562
 31
0.0
  0
SPLINE
  5
B5
100
AcDbEntity
  8
レイヤー_2
 62
     7
100
AcDbSpline
210
0.0
220
0.0
230
1.0
 70
     8
 71
     3
 72
     8
 73
     4
 74
     0
 42
0.00000001
 43
0.00000001
 40
0.0
 40
0.0
 40
0.0
 40
0.0
 40
1.0
 40
1.0
 40
1.0
 40
1.0
 10
77.624030219184021
 20
211.55177273220485
 30
0.0
 10
77.624030219184021
 20
211.59363064236109
 30
0.0
 10
77.60869954427082
 20
211.63169894748262
 30
0.0
 10
77.584756130642347
 20
211.66063774956595
 30
0.0
  0
SPLINE
  5
B4
100
AcDbEntity
  8
レイヤー_2
 62
     7
100
AcDbSpline
210
0.0
220
0.0
230
1.0
 70
     8
 71
     3
 72
     8
 73
     4
 74
     0
 42
0.00000001
 43
0.00000001
 40
0.0
 40
0.0
 40
0.0
 40
0.0
 40
1.0
 40
1.0
 40
1.0
 40
1.0
 10
77.62368570963541
 20
211.53919813368054
 30
0.0
 10
77.62368570963541
 20
211.54333224826388
 30
0.0
 10
77.624030219184021
 20
211.54832763671874
 30
0.0
 10
77.624030219184021
 20
211.55177273220485
 30
0.0
  0
SPLINE
  5
B3
100
AcDbEntity
  8
レイヤー_2
 62
     7
100
AcDbSpline
210
0.0
220
0.0
230
1.0
 70
     8
 71
     3
 72
     8
 73
     4
 74
     0
 42
0.00000001
 43
0.00000001
 40
0.0
 40
0.0
 40
0.0
 40
0.0
 40
1.0
 40
1.0
 40
1.0
 40
1.0
 10
68.269734700520829
 20
211.6616712782118
 30
0.0
 10
68.239934624565961
 20
211.62618679470484
 30
0.0
 10
68.227015516493054
 20
211.58260633680553
 30
0.0
 10
68.230288357204856
 20
211.53919813368054
 30
0.0
  0
LINE
  5
B2
100
AcDbEntity
  8
レイヤー_2
 62
     7
100
AcDbLine
 10
77.623686
 20
211.539198
 30
0.0
 11
77.625753
 21
211.551773
 31
0.0
  0
LINE
  5
B1
100
AcDbEntity
  8
レイヤー_2
 62
     7
100
AcDbLine
 10
77.623686
 20
211.518011
 30
0.0
 11
77.626614
 21
211.532997
 31
0.0
  0
LINE
  5
B0
100
AcDbEntity
  8
レイヤー_2
 62
     7
100
AcDbLine
 10
68.227877
 20
211.551773
 30
0.0
 11
68.230288
 21
211.539198
 31
0.0
  0
LINE
  5
AF
100
AcDbEntity
  8
レイヤー_2
 62
     7
100
AcDbLine
 10
68.227016
 20
211.53248
 30
0.0
 11
68.229944
 21
211.518011
 31
0.0
  0
LINE
  5
AE
100
AcDbEntity
  8
レイヤー_2
 62
     7
100
AcDbLine
 10
78.896132
 20
183.390356
 30
0.0
 11
66.957842
 21
183.390356
 31
0.0
  0
LINE
  5
AD
100
AcDbEntity
  8
レイヤー_2
  6
AI9-LType1
 62
     7
100
AcDbLine
 10
51.565845
 20
136.920497
 30
0.0
 11
51.565845
 21
194.628258
 31
0.0
  0
INSERT
  5
98
100
AcDbEntity
  8
レイヤー_2
 62
     7
100
AcDbBlockReference
  2
AI9-BLK1
 10
94.055672
 20
160.416307
 30
0.0
  0
LINE
  5
96
100
AcDbEntity
  8
レイヤー_2
 62
     7
100
AcDbLine
 10
51.565845
 20
194.628258
 30
0.0
 11
51.565845
 21
195.479713
 31
0.0
  0
LINE
  5
95
100
AcDbEntity
  8
レイヤー_2
  6
AI9-LType1
 62
     7
100
AcDbLine
 10
94.028197
 20
137.165788
 30
0.0
 11
94.028197
 21
194.628258
 31
0.0
  0
LINE
  5
94
100
AcDbEntity
  8
レイヤー_2
 62
     7
100
AcDbLine
 10
94.028197
 20
194.628258
 30
0.0
 11
94.028197
 21
195.479713
 31
0.0
  0
LINE
  5
93
100
AcDbEntity
  8
レイヤー_2
  6
AI9-LType1
 62
     7
100
AcDbLine
 10
72.853606
 20
214.076339
 30
0.0
 11
72.853606
 21
147.810444
 31
0.0
  0
LINE
  5
92
100
AcDbEntity
  8
レイヤー_2
 62
     7
100
AcDbLine
 10
72.853606
 20
147.810444
 30
0.0
 11
72.853606
 21
146.958127
 31
0.0
  0
LINE
  5
91
100
AcDbEntity
  8
レイヤー_2
  6
AI9-LType1
 62
     7
100
AcDbLine
 10
168.986412
 20
205.510798
 30
0.0
 11
168.717695
 21
209.095592
 31
0.0
  0
LINE
  5
90
100
AcDbEntity
  8
レイヤー_2
 62
     7
100
AcDbLine
 10
168.717695
 20
209.095592
 30
0.0
 11
168.653961
 21
209.945325
 31
0.0
  0
LINE
  5
8F
100
AcDbEntity
  8
レイヤー_2
  6
AI9-LType1
 62
     7
100
AcDbLine
 10
132.719203
 20
145.362359
 30
0.0
 11
132.719203
 21
186.180884
 31
0.0
  0
LINE
  5
8E
100
AcDbEntity
  8
レイヤー_2
 62
     7
100
AcDbLine
 10
132.719203
 20
186.180884
 30
0.0
 11
132.719203
 21
187.033373
 31
0.0
  0
LINE
  5
8D
100
AcDbEntity
  8
レイヤー_2
  6
AI9-LType1
 62
     7
100
AcDbLine
 10
72.877378
 20
106.197135
 30
0.0
 11
72.877378
 21
96.896067
 31
0.0
  0
LINE
  5
8C
100
AcDbEntity
  8
レイヤー_2
  6
AI9-LType1
 62
     7
100
AcDbLine
 10
51.576869
 20
106.197135
 30
0.0
 11
51.576869
 21
96.896067
 31
0.0
  0
LINE
  5
8B
100
AcDbEntity
  8
レイヤー_2
  6
AI9-LType1
 62
     7
100
AcDbLine
 10
94.178059
 20
106.197135
 30
0.0
 11
94.178059
 21
96.896067
 31
0.0
  0
LINE
  5
8A
100
AcDbEntity
  8
レイヤー_2
  6
AI9-LType1
 62
     7
100
AcDbLine
 10
47.172314
 20
101.507671
 30
0.0
 11
98.152837
 21
101.507671
 31
0.0
  0
LINE
  5
89
100
AcDbEntity
  8
レイヤー_2
 62
     7
100
AcDbLine
 10
98.152837
 20
101.507671
 30
0.0
 11
99.00481
 21
101.507671
 31
0.0
  0
LINE
  5
88
100
AcDbEntity
  8
レイヤー_2
 62
     7
100
AcDbLine
 10
183.433076
 20
183.402242
 30
0.0
 11
182.390245
 21
184.329662
 31
0.0
  0
LINE
  5
87
100
AcDbEntity
  8
レイヤー_2
 62
     7
100
AcDbLine
 10
146.141984
 20
183.390356
 30
0.0
 11
194.045692
 21
183.390356
 31
0.0
  0
LINE
  5
86
100
AcDbEntity
  8
レイヤー_2
 62
     7
100
AcDbLine
 10
109.663246
 20
183.37537
 30
0.0
 11
110.706765
 21
182.448467
 31
0.0
  0
LINE
  5
85
100
AcDbEntity
  8
レイヤー_2
 62
     7
100
AcDbLine
 10
108.619382
 20
184.303134
 30
0.0
 11
109.663246
 21
183.37537
 31
0.0
  0
LINE
  5
84
100
AcDbEntity
  8
レイヤー_2
 62
     7
100
AcDbLine
 10
63.281925
 20
166.875602
 30
0.0
 11
61.021426
 21
169.414293
 31
0.0
  0
LINE
  5
83
100
AcDbEntity
  8
レイヤー_2
 62
     7
100
AcDbLine
 10
95.002125
 20
111.288298
 30
0.0
 11
93.129371
 21
109.175765
 31
0.0
  0
LINE
  5
82
100
AcDbEntity
  8
レイヤー_2
 62
     7
100
AcDbLine
 10
71.991988
 20
110.136947
 30
0.0
 11
95.04071
 21
110.134191
 31
0.0
  0
LINE
  5
81
100
AcDbEntity
  8
レイヤー_2
 62
     7
100
AcDbLine
 10
52.446583
 20
111.123622
 30
0.0
 11
50.574002
 21
109.011778
 31
0.0
  0
LINE
  5
80
100
AcDbEntity
  8
レイヤー_2
 62
     7
100
AcDbLine
 10
73.722976
 20
111.213883
 30
0.0
 11
71.850395
 21
109.101351
 31
0.0
  0
LINE
  5
7F
100
AcDbEntity
  8
レイヤー_2
 62
     7
100
AcDbLine
 10
50.154734
 20
110.172087
 30
0.0
 11
73.263745
 21
110.136947
 31
0.0
  0
LINE
  5
7E
100
AcDbEntity
  8
レイヤー_2
 62
     7
100
AcDbLine
 10
36.600178
 20
182.106714
 30
0.0
 11
34.339334
 21
184.645405
 31
0.0
  0
LINE
  5
7D
100
AcDbEntity
  8
レイヤー_2
 62
     7
100
AcDbLine
 10
34.358799
 20
173.964058
 30
0.0
 11
36.618953
 21
171.425195
 31
0.0
  0
LINE
  5
7C
100
AcDbEntity
  8
レイヤー_2
 62
     7
100
AcDbLine
 10
58.913544
 20
163.759169
 30
0.0
 11
63.209578
 21
163.759169
 31
0.0
  0
LINE
  5
7B
100
AcDbEntity
  8
レイヤー_2
 62
     7
100
AcDbLine
 10
59.084938
 20
168.161829
 30
0.0
 11
63.05386
 21
168.161829
 31
0.0
  0
LINE
  5
7A
100
AcDbEntity
  8
レイヤー_2
 62
     7
100
AcDbLine
 10
63.281925
 20
162.466914
 30
0.0
 11
61.021426
 21
165.005777
 31
0.0
  0
LINE
  5
79
100
AcDbEntity
  8
レイヤー_2
 62
     7
100
AcDbLine
 10
62.177083
 20
169.542967
 30
0.0
 11
62.177083
 21
145.191482
 31
0.0
  0
LINE
  5
78
100
AcDbEntity
  8
レイヤー_2
 62
     7
100
AcDbLine
 10
50.022097
 20
172.720034
 30
0.0
 11
34.382225
 21
172.720034
 31
0.0
  0
LINE
  5
77
100
AcDbEntity
  8
レイヤー_2
 62
     7
100
AcDbLine
 10
168.516501
 20
235.079536
 30
0.0
 11
168.516501
 21
213.066581
 31
0.0
  0
LINE
  5
76
100
AcDbEntity
  8
レイヤー_2
 62
     7
100
AcDbLine
 10
132.669938
 20
233.862383
 30
0.0
 11
131.742518
 21
232.819208
 31
0.0
  0
LINE
  5
75
100
AcDbEntity
  8
レイヤー_2
 62
     7
100
AcDbLine
 10
133.597358
 20
234.906075
 30
0.0
 11
132.669938
 21
233.862383
 31
0.0
  0
LINE
  5
74
100
AcDbEntity
  8
レイヤー_2
 62
     7
100
AcDbLine
 10
168.516501
 20
233.862383
 30
0.0
 11
167.588392
 21
232.819208
 31
0.0
  0
LINE
  5
73
100
AcDbEntity
  8
レイヤー_2
 62
     7
100
AcDbLine
 10
169.443576
 20
234.906075
 30
0.0
 11
168.516501
 21
233.862383
 31
0.0
  0
LINE
  5
72
100
AcDbEntity
  8
レイヤー_2
 62
     7
100
AcDbLine
 10
132.654435
 20
235.009772
 30
0.0
 11
132.654435
 21
197.076687
 31
0.0
  0
LINE
  5
71
100
AcDbEntity
  8
レイヤー_2
 62
     7
100
AcDbLine
 10
131.204739
 20
233.862383
 30
0.0
 11
169.668541
 21
233.862383
 31
0.0
  0
LINE
  5
70
100
AcDbEntity
  8
レイヤー_2
 62
     7
100
AcDbLine
 10
193.042825
 20
212.139678
 30
0.0
 11
191.998961
 21
213.066926
 31
0.0
  0
LINE
  5
6F
100
AcDbEntity
  8
レイヤー_2
 62
     7
100
AcDbLine
 10
194.086344
 20
211.212775
 30
0.0
 11
193.042825
 21
212.139678
 31
0.0
  0
LINE
  5
6E
100
AcDbEntity
  8
レイヤー_2
 62
     7
100
AcDbLine
 10
193.009063
 20
183.402242
 30
0.0
 11
191.964855
 21
184.329662
 31
0.0
  0
LINE
  5
6D
100
AcDbEntity
  8
レイヤー_2
 62
     7
100
AcDbLine
 10
194.052238
 20
182.475167
 30
0.0
 11
193.009063
 21
183.402242
 31
0.0
  0
LINE
  5
6C
100
AcDbEntity
  8
レイヤー_2
 62
     7
100
AcDbLine
 10
184.553076
 20
206.620463
 30
0.0
 11
171.543018
 21
206.620463
 31
0.0
  0
LINE
  5
6B
100
AcDbEntity
  8
レイヤー_2
 62
     7
100
AcDbLine
 10
183.457536
 20
207.463822
 30
0.0
 11
183.457536
 21
182.335813
 31
0.0
  0
LINE
  5
6A
100
AcDbEntity
  8
レイヤー_2
 62
     7
100
AcDbLine
 10
176.07194
 20
212.143123
 30
0.0
 11
194.180051
 21
212.143123
 31
0.0
  0
LINE
  5
69
100
AcDbEntity
  8
レイヤー_2
 62
     7
100
AcDbLine
 10
193.009063
 20
213.280522
 30
0.0
 11
193.009063
 21
182.482057
 31
0.0
  0
LINE
  5
68
100
AcDbEntity
  8
レイヤー_2
 62
     7
100
AcDbLine
 10
183.457536
 20
206.620463
 30
0.0
 11
182.414016
 21
207.547538
 31
0.0
  0
LINE
  5
67
100
AcDbEntity
  8
レイヤー_2
 62
     7
100
AcDbLine
 10
184.500366
 20
205.693043
 30
0.0
 11
183.457536
 21
206.620463
 31
0.0
  0
LINE
  5
66
100
AcDbEntity
  8
レイヤー_2
 62
     7
100
AcDbLine
 10
34.160706
 20
183.390356
 30
0.0
 11
42.062032
 21
183.390356
 31
0.0
  0
LINE
  5
65
100
AcDbEntity
  8
レイヤー_2
 62
     7
100
AcDbLine
 10
184.477284
 20
182.475167
 30
0.0
 11
183.433076
 21
183.402242
 31
0.0
  0
LINE
  5
64
100
AcDbEntity
  8
レイヤー_2
 62
     7
100
AcDbLine
 10
183.433076
 20
183.402242
 30
0.0
 11
182.390245
 21
184.329662
 31
0.0
  0
LINE
  5
63
100
AcDbEntity
  8
レイヤー_2
 62
     7
100
AcDbLine
 10
78.959005
 20
235.099689
 30
0.0
 11
78.959005
 21
185.371286
 31
0.0
  0
LINE
  5
62
100
AcDbEntity
  8
レイヤー_2
 62
     7
100
AcDbLine
 10
88.148797
 20
233.862383
 30
0.0
 11
87.221377
 21
232.819208
 31
0.0
  0
LINE
  5
61
100
AcDbEntity
  8
レイヤー_2
 62
     7
100
AcDbLine
 10
89.075528
 20
234.906075
 30
0.0
 11
88.148797
 21
233.862383
 31
0.0
  0
LINE
  5
60
100
AcDbEntity
  8
レイヤー_2
 62
     7
100
AcDbLine
 10
99.872974
 20
233.838784
 30
0.0
 11
98.945726
 21
232.795093
 31
0.0
  0
LINE
  5
5F
100
AcDbEntity
  8
レイヤー_2
 62
     7
100
AcDbLine
 10
100.800393
 20
234.881787
 30
0.0
 11
99.872974
 21
233.838784
 31
0.0
  0
LINE
  5
5E
100
AcDbEntity
  8
レイヤー_2
 62
     7
100
AcDbLine
 10
88.148797
 20
235.007705
 30
0.0
 11
88.148797
 21
185.609515
 31
0.0
  0
LINE
  5
5D
100
AcDbEntity
  8
レイヤー_2
 62
     7
100
AcDbLine
 10
87.106139
 20
233.862383
 30
0.0
 11
100.938369
 21
233.862383
 31
0.0
  0
LINE
  5
5C
100
AcDbEntity
  8
レイヤー_2
 62
     7
100
AcDbLine
 10
35.496541
 20
184.646955
 30
0.0
 11
35.496541
 21
151.296019
 31
0.0
  0
LINE
  5
5B
100
AcDbEntity
  8
レイヤー_2
 62
     7
100
AcDbLine
 10
94.028197
 20
109.158539
 30
0.0
 11
94.028197
 21
136.348611
 31
0.0
  0
LINE
  5
5A
100
AcDbEntity
  8
レイヤー_2
 62
     7
100
AcDbLine
 10
51.576869
 20
108.862261
 30
0.0
 11
51.576869
 21
136.081961
 31
0.0
  0
LINE
  5
59
100
AcDbEntity
  8
レイヤー_2
 62
     7
100
AcDbLine
 10
72.853606
 20
108.862261
 30
0.0
 11
72.853606
 21
145.435395
 31
0.0
  0
LINE
  5
58
100
AcDbEntity
  8
レイヤー_2
 62
     7
100
AcDbLine
 10
96.008955
 20
175.223069
 30
0.0
 11
98.54799
 21
177.483396
 31
0.0
  0
LINE
  5
57
100
AcDbEntity
  8
レイヤー_2
 62
     7
100
AcDbLine
 10
92.135461
 20
177.551436
 30
0.0
 11
89.597287
 21
175.291798
 31
0.0
  0
LINE
  5
56
100
AcDbEntity
  8
レイヤー_2
 62
     7
100
AcDbLine
 10
109.663246
 20
176.389061
 30
0.0
 11
89.722689
 21
176.389061
 31
0.0
  0
LINE
  5
55
100
AcDbEntity
  8
レイヤー_2
 62
     7
100
AcDbLine
 10
109.663246
 20
176.389061
 30
0.0
 11
109.663246
 21
143.807243
 31
0.0
  0
LINE
  5
54
100
AcDbEntity
  8
レイヤー_2
 62
     7
100
AcDbLine
 10
97.909958
 20
194.31751
 30
0.0
 11
110.701598
 21
194.31751
 31
0.0
  0
LINE
  5
53
100
AcDbEntity
  8
レイヤー_2
 62
     7
100
AcDbLine
 10
109.638097
 20
194.415523
 30
0.0
 11
110.681272
 21
193.488104
 31
0.0
  0
LINE
  5
52
100
AcDbEntity
  8
レイヤー_2
 62
     7
100
AcDbLine
 10
108.594577
 20
195.342598
 30
0.0
 11
109.638097
 21
194.415523
 31
0.0
  0
LINE
  5
51
100
AcDbEntity
  8
レイヤー_2
 62
     7
100
AcDbLine
 10
103.612108
 20
183.37537
 30
0.0
 11
110.553803
 21
183.37537
 31
0.0
  0
LINE
  5
50
100
AcDbEntity
  8
レイヤー_2
 62
     7
100
AcDbLine
 10
109.663246
 20
182.335813
 30
0.0
 11
109.663246
 21
195.389452
 31
0.0
  0
LINE
  5
4F
100
AcDbEntity
  8
レイヤー_2
 62
     7
100
AcDbLine
 10
99.845757
 20
235.099689
 30
0.0
 11
99.845757
 21
185.371286
 31
0.0
  0
LINE
  5
4E
100
AcDbEntity
  8
レイヤー_2
 62
     7
100
AcDbLine
 10
67.262217
 20
233.862383
 30
0.0
 11
66.334625
 21
232.819208
 31
0.0
  0
LINE
  5
4D
100
AcDbEntity
  8
レイヤー_2
 62
     7
100
AcDbLine
 10
68.189464
 20
234.906075
 30
0.0
 11
67.262217
 21
233.862383
 31
0.0
  0
LINE
  5
4C
100
AcDbEntity
  8
レイヤー_2
 62
     7
100
AcDbLine
 10
78.987082
 20
233.838784
 30
0.0
 11
78.059318
 21
232.795093
 31
0.0
  0
LINE
  5
4B
100
AcDbEntity
  8
レイヤー_2
 62
     7
100
AcDbLine
 10
79.914157
 20
234.881787
 30
0.0
 11
78.987082
 21
233.838784
 31
0.0
  0
LINE
  5
4A
100
AcDbEntity
  8
レイヤー_2
 62
     7
100
AcDbLine
 10
66.219731
 20
233.862383
 30
0.0
 11
80.052134
 21
233.862383
 31
0.0
  0
LINE
  5
49
100
AcDbEntity
  8
レイヤー_2
 62
     7
100
AcDbLine
 10
66.949574
 20
235.007705
 30
0.0
 11
66.949574
 21
185.609515
 31
0.0
  0
SPLINE
  5
48
100
AcDbEntity
  8
レイヤー_2
 62
     7
100
AcDbSpline
210
0.0
220
0.0
230
1.0
 70
     8
 71
     3
 72
    17
 73
    13
 74
     0
 42
0.00000001
 43
0.00000001
 40
0.0
 40
0.0
 40
0.0
 40
0.0
 40
1.0
 40
1.0
 40
1.0
 40
2.0
 40
2.0
 40
2.0
 40
3.0
 40
3.0
 40
3.0
 40
4.0
 40
4.0
 40
4.0
 40
4.0
 10
55.062444390190969
 20
101.50767144097222
 30
0.0
 10
55.062444390190969
 20
103.39007161458332
 30
0.0
 10
53.536267089843747
 20
104.91624891493055
 30
0.0
 10
51.654211425781249
 20
104.91624891493055
 30
0.0
 10
49.771638997395826
 20
104.91624891493055
 30
0.0
 10
48.245806206597216
 20
103.39007161458332
 30
0.0
 10
48.245806206597216
 20
101.50767144097222
 30
0.0
 10
48.245806206597216
 20
99.6252712673611
 30
0.0
 10
49.771638997395826
 20
98.099782986111109
 30
0.0
 10
51.654211425781249
 20
98.099782986111109
 30
0.0
 10
53.536267089843747
 20
98.099782986111109
 30
0.0
 10
55.062444390190969
 20
99.6252712673611
 30
0.0
 10
55.062444390190969
 20
101.50767144097222
 30
0.0
  0
LINE
  5
47
100
AcDbEntity
  8
レイヤー_2
 62
     7
100
AcDbLine
 10
58.355783
 20
94.798692
 30
0.0
 11
48.217212
 21
104.936919
 31
0.0
  0
LINE
  5
46
100
AcDbEntity
  8
レイヤー_2
 62
     7
100
AcDbLine
 10
100.956628
 20
94.798692
 30
0.0
 11
112.11891
 21
94.798692
 31
0.0
  0
LINE
  5
45
100
AcDbEntity
  8
レイヤー_2
 62
     7
100
AcDbLine
 10
47.931786
 20
103.884787
 30
0.0
 11
50.720074
 21
103.884787
 31
0.0
  0
LINE
  5
44
100
AcDbEntity
  8
レイヤー_2
 62
     7
100
AcDbLine
 10
52.602474
 20
99.127799
 30
0.0
 11
55.390417
 21
99.127799
 31
0.0
  0
SPLINE
  5
43
100
AcDbEntity
  8
レイヤー_2
 62
     7
100
AcDbSpline
210
0.0
220
0.0
230
1.0
 70
     8
 71
     3
 72
    17
 73
    13
 74
     0
 42
0.00000001
 43
0.00000001
 40
0.0
 40
0.0
 40
0.0
 40
0.0
 40
1.0
 40
1.0
 40
1.0
 40
2.0
 40
2.0
 40
2.0
 40
3.0
 40
3.0
 40
3.0
 40
4.0
 40
4.0
 40
4.0
 40
4.0
 10
76.682485622829859
 20
101.50767144097222
 30
0.0
 10
76.682485622829859
 20
103.56646050347221
 30
0.0
 10
75.012992350260404
 20
105.23526475694443
 30
0.0
 10
72.954547797309019
 20
105.23526475694443
 30
0.0
 10
70.895586480034723
 20
105.23526475694443
 30
0.0
 10
69.226782226562491
 20
103.56646050347221
 30
0.0
 10
69.226782226562491
 20
101.50767144097222
 30
0.0
 10
69.226782226562491
 20
99.449571397569429
 30
0.0
 10
70.895586480034723
 20
97.780767144097211
 30
0.0
 10
72.954547797309019
 20
97.780767144097211
 30
0.0
 10
75.012992350260404
 20
97.780767144097211
 30
0.0
 10
76.682485622829859
 20
99.449571397569429
 30
0.0
 10
76.682485622829859
 20
101.50767144097222
 30
0.0
  0
LINE
  5
42
100
AcDbEntity
  8
レイヤー_2
 62
     7
100
AcDbLine
 10
79.655775
 20
94.798692
 30
0.0
 11
69.517032
 21
104.936919
 31
0.0
  0
LINE
  5
41
100
AcDbEntity
  8
レイヤー_2
 62
     7
100
AcDbLine
 10
79.655775
 20
94.798692
 30
0.0
 11
90.141785
 21
94.798692
 31
0.0
  0
LINE
  5
40
100
AcDbEntity
  8
レイヤー_2
 62
     7
100
AcDbLine
 10
69.064174
 20
104.085981
 30
0.0
 11
71.852806
 21
104.085981
 31
0.0
  0
LINE
  5
3F
100
AcDbEntity
  8
レイヤー_2
 62
     7
100
AcDbLine
 10
74.154475
 20
98.842546
 30
0.0
 11
76.943107
 21
98.842546
 31
0.0
  0
SPLINE
  5
3E
100
AcDbEntity
  8
レイヤー_2
 62
     7
100
AcDbSpline
210
0.0
220
0.0
230
1.0
 70
     8
 71
     3
 72
    17
 73
    13
 74
     0
 42
0.00000001
 43
0.00000001
 40
0.0
 40
0.0
 40
0.0
 40
0.0
 40
1.0
 40
1.0
 40
1.0
 40
2.0
 40
2.0
 40
2.0
 40
3.0
 40
3.0
 40
3.0
 40
4.0
 40
4.0
 40
4.0
 40
4.0
 10
97.663289388020829
 20
101.50767144097222
 30
0.0
 10
97.663289388020829
 20
103.39007161458332
 30
0.0
 10
96.1371120876736
 20
104.91624891493055
 30
0.0
 10
94.254539659288184
 20
104.91624891493055
 30
0.0
 10
92.372656249999991
 20
104.91624891493055
 30
0.0
 10
90.846478949652763
 20
103.39007161458332
 30
0.0
 10
90.846478949652763
 20
101.50767144097222
 30
0.0
 10
90.846478949652763
 20
99.6252712673611
 30
0.0
 10
92.372656249999991
 20
98.099782986111109
 30
0.0
 10
94.254539659288184
 20
98.099782986111109
 30
0.0
 10
96.1371120876736
 20
98.099782986111109
 30
0.0
 10
97.663289388020829
 20
99.6252712673611
 30
0.0
 10
97.663289388020829
 20
101.50767144097222
 30
0.0
  0
LINE
  5
3D
100
AcDbEntity
  8
レイヤー_2
 62
     7
100
AcDbLine
 10
100.956628
 20
94.798692
 30
0.0
 11
90.817712
 21
104.936919
 31
0.0
  0
LINE
  5
3C
100
AcDbEntity
  8
レイヤー_2
 62
     7
100
AcDbLine
 10
90.532631
 20
103.884787
 30
0.0
 11
93.320747
 21
103.884787
 31
0.0
  0
LINE
  5
3B
100
AcDbEntity
  8
レイヤー_2
 62
     7
100
AcDbLine
 10
95.203319
 20
99.127799
 30
0.0
 11
97.991779
 21
99.127799
 31
0.0
  0
LINE
  5
3A
100
AcDbEntity
  8
レイヤー_2
 62
     7
100
AcDbLine
 10
58.355094
 20
94.798692
 30
0.0
 11
68.562223
 21
94.798692
 31
0.0
  0
LINE
  5
39
100
AcDbEntity
  8
レイヤー_2
 62
     7
100
AcDbLine
 10
42.777234
 20
183.390356
 30
0.0
 11
103.154772
 21
183.390356
 31
0.0
  0
LINE
  5
38
100
AcDbEntity
  8
レイヤー_2
 62
     7
100
AcDbLine
 10
121.001055
 20
183.390356
 30
0.0
 11
144.444586
 21
183.390356
 31
0.0
  0
POLYLINE
  5
33
100
AcDbEntity
  8
レイヤー_2
  6
AI9-LType1
 62
     7
100
AcDb2dPolyline
 66
     1
 10
0.0
 20
0.0
 30
0.0
  0
VERTEX
  5
34
100
AcDbEntity
  8
レイヤー_2
  6
AI9-LType1
 62
     7
100
AcDbVertex
100
AcDb2dVertex
 10
53.191069
 20
165.881003
 30
0.0
  0
VERTEX
  5
35
100
AcDbEntity
  8
レイヤー_2
  6
AI9-LType1
 62
     7
100
AcDbVertex
100
AcDb2dVertex
 10
65.029278
 20
165.881003
 30
0.0
  0
VERTEX
  5
36
100
AcDbEntity
  8
レイヤー_2
  6
AI9-LType1
 62
     7
100
AcDbVertex
100
AcDb2dVertex
 10
65.029278
 20
137.413835
 30
0.0
  0
SEQEND
  5
37
100
AcDbEntity
  8
レイヤー_2
  6
AI9-LType1
 62
     7
  0
LINE
  5
32
100
AcDbEntity
  8
レイヤー_2
  6
AI9-LType1
 62
     7
100
AcDbLine
 10
71.507608
 20
200.904361
 30
0.0
 11
71.507608
 21
137.413835
 31
0.0
  0
LINE
  5
31
100
AcDbEntity
  8
レイヤー_2
  6
AI9-LType1
 62
     7
100
AcDbLine
 10
74.401488
 20
200.904361
 30
0.0
 11
74.401488
 21
137.413835
 31
0.0
  0
SPLINE
  5
30
100
AcDbEntity
  8
レイヤー_2
  6
AI9-LType1
 62
     7
100
AcDbSpline
210
0.0
220
0.0
230
1.0
 70
     8
 71
     3
 72
    11
 73
     7
 74
     0
 42
0.00000001
 43
0.00000001
 40
0.0
 40
0.0
 40
0.0
 40
0.0
 40
1.0
 40
1.0
 40
1.0
 40
2.0
 40
2.0
 40
2.0
 40
2.0
 10
71.507607693142361
 20
137.41383463541666
 30
0.0
 10
71.507607693142361
 20
135.62514105902775
 30
0.0
 10
70.057394748263889
 20
134.17475585937498
 30
0.0
 10
68.268528917100681
 20
134.17475585937498
 30
0.0
 10
66.47949083116319
 20
134.17475585937498
 30
0.0
 10
65.029277886284717
 20
135.62514105902775
 30
0.0
 10
65.029277886284717
 20
137.41383463541666
 30
0.0
  0
POLYLINE
  5
2B
100
AcDbEntity
  8
レイヤー_2
  6
AI9-LType1
 62
     7
100
AcDb2dPolyline
 66
     1
 10
0.0
 20
0.0
 30
0.0
  0
VERTEX
  5
2C
100
AcDbEntity
  8
レイヤー_2
  6
AI9-LType1
 62
     7
100
AcDbVertex
100
AcDb2dVertex
 10
92.718027
 20
165.881003
 30
0.0
  0
VERTEX
  5
2D
100
AcDbEntity
  8
レイヤー_2
  6
AI9-LType1
 62
     7
100
AcDbVertex
100
AcDb2dVertex
 10
80.879818
 20
165.881003
 30
0.0
  0
VERTEX
  5
2E
100
AcDbEntity
  8
レイヤー_2
  6
AI9-LType1
 62
     7
100
AcDbVertex
100
AcDb2dVertex
 10
80.879818
 20
137.413835
 30
0.0
  0
SEQEND
  5
2F
100
AcDbEntity
  8
レイヤー_2
  6
AI9-LType1
 62
     7
  0
SPLINE
  5
2A
100
AcDbEntity
  8
レイヤー_2
  6
AI9-LType1
 62
     7
100
AcDbSpline
210
0.0
220
0.0
230
1.0
 70
     8
 71
     3
 72
    11
 73
     7
 74
     0
 42
0.00000001
 43
0.00000001
 40
0.0
 40
0.0
 40
0.0
 40
0.0
 40
1.0
 40
1.0
 40
1.0
 40
2.0
 40
2.0
 40
2.0
 40
2.0
 10
74.40148790147569
 20
137.41383463541666
 30
0.0
 10
74.40148790147569
 20
135.62514105902775
 30
0.0
 10
75.851700846354163
 20
134.17475585937498
 30
0.0
 10
77.640566677517356
 20
134.17475585937498
 30
0.0
 10
79.429604763454847
 20
134.17475585937498
 30
0.0
 10
80.87981770833332
 20
135.62514105902775
 30
0.0
 10
80.87981770833332
 20
137.41383463541666
 30
0.0
  0
ENDSEC
  0
SECTION
  2
OBJECTS
  0
DICTIONARY
  5
19
100
AcDbDictionary
280
     0
281
     1
  3
ACAD_GROUP
350
1A
  3
ACAD_MLINESTYLE
350
1B
  3
ACAD_LAYOUT
350
1E
  3
ACAD_PLOTSETTINGS
350
22
  3
ACAD_PLOTSTYLENAME
350
1F
  3
ACAD_WIPEOUT_VARS
350
23
  0
DICTIONARY
  5
1A
102
{ACAD_REACTORS
330
19
102
}
100
AcDbDictionary
280
     0
281
     1
  0
DICTIONARY
  5
1B
102
{ACAD_REACTORS
330
19
102
}
100
AcDbDictionary
280
     0
281
     1
  3
Standard
350
1C
  0
MLINESTYLE
  5
1C
102
{ACAD_REACTORS
330
1B
102
}
100
AcDbMlineStyle
  2
Standard
 70
     0
  3

 62
     0
 51
90.0
 52
90.0
 71
     2
 49
0.5
 62
   256
  6
ByLayer
 49
-0.5
 62
   256
  6
ByLayer
  0
ACDBDICTIONARYWDFLT
  5
1F
102
{ACAD_REACTORS
330
19
102
}
100
AcDbDictionary
281
     1
  3
Normal
350
1D
100
AcDbDictionaryWithDefault
340
1D
  0
ACDBPLACEHOLDER
  5
1D
102
{ACAD_REACTORS
330
1F
102
}
  0
LAYOUT
  5
20
102
{ACAD_REACTORS
330
1E
102
}
100
AcDbPlotSettings
  1

  2

  4

  6

 40
0.0
 41
0.0
 42
0.0
 43
0.0
 44
0.0
 45
0.0
 46
0.0
 47
0.0
 48
0.0
 49
0.0
140
0.0
141
0.0
142
1.0
143
1.0
 70
  1024
 72
     0
 73
     0
 74
     0
  7

 75
     0
147
1.0
148
0.0
149
0.0
100
AcDbLayout
  1
Model
 70
     0
 71
     0
 10
0.0
 20
0.0
 11
0.0
 21
0.0
 12
0.0
 22
0.0
 32
0.0
 14
0.0
 24
0.0
 34
0.0
 15
0.0
 25
0.0
 35
0.0
146
0.0
 13
0.0
 23
0.0
 33
0.0
 16
0.0
 26
0.0
 36
0.0
 17
0.0
 27
0.0
 37
0.0
 76
     0
330
A
331
0
345
0
346
0
  0
LAYOUT
  5
21
102
{ACAD_REACTORS
330
1E
102
}
100
AcDbPlotSettings
  1

  2

  4

  6

 40
0.0
 41
0.0
 42
0.0
 43
0.0
 44
0.0
 45
0.0
 46
0.0
 47
0.0
 48
0.0
 49
0.0
140
0.0
141
0.0
142
1.0
143
1.0
 70
     0
 72
     0
 73
     0
 74
     0
  7

 75
     0
147
1.0
148
0.0
149
0.0
100
AcDbLayout
  1
Layout1
 70
     0
 71
     0
 10
0.0
 20
0.0
 11
0.0
 21
0.0
 12
0.0
 22
0.0
 32
0.0
 14
0.0
 24
0.0
 34
0.0
 15
0.0
 25
0.0
 35
0.0
146
0.0
 13
0.0
 23
0.0
 33
0.0
 16
0.0
 26
0.0
 36
0.0
 17
0.0
 27
0.0
 37
0.0
 76
     0
330
B
331
0
345
0
346
0
  0
DICTIONARY
  5
1E
102
{ACAD_REACTORS
330
19
102
}
100
AcDbDictionary
280
     0
281
     1
  3
Layout1
350
21
  3
Model
350
20
  0
DICTIONARY
  5
22
102
{ACAD_REACTORS
330
19
102
}
100
AcDbDictionary
280
     0
281
     1
  0
WIPEOUTVARIABLES
  5
23
100
AcDbWipeoutVariables
 70
     1
  0
IMAGEDEF_REACTOR
  5
578
100
AcDbRasterImageDefReactor
 90
        2
330
577
  0
IMAGEDEF
  5
579
100
AcDbRasterImageDef
 90
        0
  1
\\192.168.6.3\free(2009_04\組織\営業本部\営推G\エンジニアリングサービスチーム\丸茂 from 081001\DBカタログ品参考図ＡＩ\SUPERNOVA\20713730_1.bmp
 10
70.0
 20
9.0
 11
0.352778
 21
0.352778
280
     1
281
     0
  0
IMAGEDEF_REACTOR
  5
57B
100
AcDbRasterImageDefReactor
 90
        2
330
57A
  0
IMAGEDEF
  5
57C
100
AcDbRasterImageDef
 90
        0
  1
\\192.168.6.3\free(2009_04\組織\営業本部\営推G\エンジニアリングサービスチーム\丸茂 from 081001\DBカタログ品参考図ＡＩ\SUPERNOVA\20713730_2.bmp
 10
70.0
 20
9.0
 11
0.352778
 21
0.352778
280
     1
281
     0
  0
ENDSEC
  0
EOF
