  0
SECTION
  2
HEADER
  9
$ACADVER
  1
AC1015
  9
$ACADMAINTVER
 70
     6
  9
$DWGCODEPAGE
  3
ANSI_932
  9
$INSBASE
 10
0.0
 20
0.0
 30
0.0
  9
$EXTMIN
 10
23.283333
 20
26.811111
 30
1.000000E+20
  9
$EXTMAX
 10
198.966667
 20
276.930556
 30
-1.000000E+20
  9
$LIMMIN
 10
23.283333
 20
26.811111
  9
$LIMMAX
 10
198.966667
 20
276.930556
  9
$ORTHOMODE
 70
     0
  9
$REGENMODE
 70
     1
  9
$FILLMODE
 70
     1
  9
$QTEXTMODE
 70
     0
  9
$MIRRTEXT
 70
     1
  9
$LTSCALE
 40
1.0
  9
$ATTMODE
 70
     1
  9
$TEXTSIZE
 40
0.2
  9
$TRACEWID
 40
0.05
  9
$TEXTSTYLE
  7
Standard
  9
$CLAYER
  8
0
  9
$CELTYPE
  6
Continuous
  9
$CECOLOR
 62
   256
  9
$CELTSCALE
 40
1.0
  9
$DISPSILH
 70
     0
  9
$DIMSCALE
 40
1.0
  9
$DIMASZ
 40
0.18
  9
$DIMEXO
 40
0.0625
  9
$DIMDLI
 40
0.38
  9
$DIMRND
 40
0.0
  9
$DIMDLE
 40
0.0
  9
$DIMEXE
 40
0.18
  9
$DIMTP
 40
0.0
  9
$DIMTM
 40
0.0
  9
$DIMTXT
 40
0.18
  9
$DIMCEN
 40
0.09
  9
$DIMTSZ
 40
0.0
  9
$DIMTOL
 70
     0
  9
$DIMLIM
 70
     0
  9
$DIMTIH
 70
     1
  9
$DIMTOH
 70
     1
  9
$DIMSE1
 70
     0
  9
$DIMSE2
 70
     0
  9
$DIMTAD
 70
     0
  9
$DIMZIN
 70
     0
  9
$DIMBLK
  1

  9
$DIMASO
 70
     1
  9
$DIMSHO
 70
     1
  9
$DIMPOST
  1

  9
$DIMAPOST
  1

  9
$DIMALT
 70
     0
  9
$DIMALTD
 70
     2
  9
$DIMALTF
 40
25.4
  9
$DIMLFAC
 40
1.0
  9
$DIMTOFL
 70
     0
  9
$DIMTVP
 40
0.0
  9
$DIMTIX
 70
     0
  9
$DIMSOXD
 70
     0
  9
$DIMSAH
 70
     0
  9
$DIMBLK1
  1

  9
$DIMBLK2
  1

  9
$DIMSTYLE
  2
Standard
  9
$DIMCLRD
 70
     0
  9
$DIMCLRE
 70
     0
  9
$DIMCLRT
 70
     0
  9
$DIMTFAC
 40
1.0
  9
$DIMGAP
 40
0.09
  9
$DIMJUST
 70
     0
  9
$DIMSD1
 70
     0
  9
$DIMSD2
 70
     0
  9
$DIMTOLJ
 70
     1
  9
$DIMTZIN
 70
     0
  9
$DIMALTZ
 70
     0
  9
$DIMALTTZ
 70
     0
  9
$DIMUPT
 70
     0
  9
$DIMDEC
 70
     4
  9
$DIMTDEC
 70
     4
  9
$DIMALTU
 70
     2
  9
$DIMALTTD
 70
     2
  9
$DIMTXSTY
  7
Standard
  9
$DIMAUNIT
 70
     0
  9
$DIMADEC
 70
     0
  9
$DIMALTRND
 40
0.0
  9
$DIMAZIN
 70
     0
  9
$DIMDSEP
 70
     0
  9
$DIMATFIT
 70
     3
  9
$DIMFRAC
 70
     0
  9
$DIMLDRBLK
  1

  9
$DIMLUNIT
 70
     2
  9
$DIMLWD
 70
     0
  9
$DIMLWE
 70
     0
  9
$DIMTMOVE
 70
     0
  9
$LUNITS
 70
     2
  9
$LUPREC
 70
     4
  9
$SKETCHINC
 40
0.1
  9
$FILLETRAD
 40
0.0
  9
$AUNITS
 70
     0
  9
$AUPREC
 70
     0
  9
$MENU
  1
acad
  9
$ELEVATION
 40
0.0
  9
$PELEVATION
 40
0.0
  9
$THICKNESS
 40
0.0
  9
$LIMCHECK
 70
     0
  9
$CHAMFERA
 40
0.0
  9
$CHAMFERB
 40
0.0
  9
$CHAMFERC
 40
0.0
  9
$CHAMFERD
 40
0.0
  9
$SKPOLY
 70
     0
  9
$TDCREATE
 40
0.000000000
  9
$TDUCREATE
 40
0.000000000
  9
$TDUPDATE
 40
0.000000000
  9
$TDUUPDATE
 40
0.000000000
  9
$TDINDWG
 40
0.0000000000
  9
$TDUSRTIMER
 40
0.0000000000
  9
$USRTIMER
 70
     1
  9
$ANGBASE
 50
0.0
  9
$ANGDIR
 70
     0
  9
$PDMODE
 70
     0
  9
$PDSIZE
 40
0.0
  9
$PLINEWID
 40
0.0
  9
$SPLFRAME
 70
     0
  9
$SPLINETYPE
 70
     6
  9
$SPLINESEGS
 70
     8
  9
$HANDSEED
  5
5BD
  9
$SURFTAB1
 70
     6
  9
$SURFTAB2
 70
     6
  9
$SURFTYPE
 70
     6
  9
$SURFU
 70
     6
  9
$SURFV
 70
     6
  9
$UCSBASE
  2

  9
$UCSNAME
  2

  9
$UCSORG
 10
0.0
 20
0.0
 30
0.0
  9
$UCSXDIR
 10
1.0
 20
0.0
 30
0.0
  9
$UCSYDIR
 10
0.0
 20
1.0
 30
0.0
  9
$UCSORTHOREF
  2

  9
$UCSORTHOVIEW
 70
     0
  9
$UCSORGTOP
 10
0.0
 20
0.0
 30
0.0
  9
$UCSORGBOTTOM
 10
0.0
 20
0.0
 30
0.0
  9
$UCSORGLEFT
 10
0.0
 20
0.0
 30
0.0
  9
$UCSORGRIGHT
 10
0.0
 20
0.0
 30
0.0
  9
$UCSORGFRONT
 10
0.0
 20
0.0
 30
0.0
  9
$UCSORGBACK
 10
0.0
 20
0.0
 30
0.0
  9
$PUCSBASE
  2

  9
$PUCSNAME
  2

  9
$PUCSORG
 10
0.0
 20
0.0
 30
0.0
  9
$PUCSXDIR
 10
1.0
 20
0.0
 30
0.0
  9
$PUCSYDIR
 10
0.0
 20
1.0
 30
0.0
  9
$PUCSORTHOREF
  2

  9
$PUCSORTHOVIEW
 70
     0
  9
$PUCSORGTOP
 10
0.0
 20
0.0
 30
0.0
  9
$PUCSORGBOTTOM
 10
0.0
 20
0.0
 30
0.0
  9
$PUCSORGLEFT
 10
0.0
 20
0.0
 30
0.0
  9
$PUCSORGRIGHT
 10
0.0
 20
0.0
 30
0.0
  9
$PUCSORGFRONT
 10
0.0
 20
0.0
 30
0.0
  9
$PUCSORGBACK
 10
0.0
 20
0.0
 30
0.0
  9
$USERI1
 70
     0
  9
$USERI2
 70
     0
  9
$USERI3
 70
     0
  9
$USERI4
 70
     0
  9
$USERI5
 70
     0
  9
$USERR1
 40
0.0
  9
$USERR2
 40
0.0
  9
$USERR3
 40
0.0
  9
$USERR4
 40
0.0
  9
$USERR5
 40
0.0
  9
$WORLDVIEW
 70
     1
  9
$SHADEDGE
 70
     3
  9
$SHADEDIF
 70
    70
  9
$TILEMODE
 70
     1
  9
$MAXACTVP
 70
    16
  9
$PINSBASE
 10
0.0
 20
0.0
 30
0.0
  9
$PLIMCHECK
 70
     0
  9
$PEXTMIN
 10
1.000000E+20
 20
1.000000E+20
 30
1.000000E+20
  9
$PEXTMAX
 10
-1.000000E+20
 20
-1.000000E+20
 30
-1.000000E+20
  9
$PLIMMIN
 10
0.0
 20
0.0
  9
$PLIMMAX
 10
12.0
 20
9.0
  9
$UNITMODE
 70
     0
  9
$VISRETAIN
 70
     0
  9
$PLINEGEN
 70
     1
  9
$PSLTSCALE
 70
     0
  9
$TREEDEPTH
 70
  3020
  9
$CMLSTYLE
  2
Standard
  9
$CMLJUST
 70
     0
  9
$CMLSCALE
 40
1.0
  9
$PROXYGRAPHICS
 70
     0
  9
$MEASUREMENT
 70
     1
  9
$CELWEIGHT
370
     0
  9
$ENDCAPS
280
     0
  9
$JOINSTYLE
280
     0
  9
$LWDISPLAY
290
     0
  9
$INSUNITS
 70
     0
  9
$HYPERLINKBASE
  1

  9
$STYLESHEET
  1

  9
$XEDIT
290
     1
  9
$CEPSNTYPE
380
     0
  9
$PSTYLEMODE
290
     1
  9
$FINGERPRINTGUID
  2

  9
$VERSIONGUID
  2

  9
$EXTNAMES
290
     1
  9
$PSVPSCALE
 40
0.0
  0
ENDSEC
  0
SECTION
  2
CLASSES
  0
CLASS
  1
LWPOLYLINE
  2
AcDbPolyline
  3
AutoCAD 2000
 90
    32768
280
     0
281
     1
  0
CLASS
  1
IMAGE
  2
AcDbRasterImage
  3
ISM
 90
      127
280
     0
281
     1
  0
CLASS
  1
OLE2FRAME
  2
AcDbOle2Frame
  3
AutoCAD 2000
 90
    32768
280
     0
281
     1
  0
CLASS
  1
HATCH
  2
AcDbHatch
  3
AutoCAD 2000
 90
    32768
280
     0
281
     1
  0
CLASS
  1
DICTIONARYVAR
  2
AcDbDictionaryVar
  3
AutoCAD 2000
 90
    32768
280
     0
281
     0
  0
CLASS
  1
RASTERVARIABLES
  2
AcDbRasterVariables
  3
ISM
 90
    32768
280
     0
281
     0
  0
CLASS
  1
IMAGEDEF
  2
AcDbRasterImageDef
  3
ISM
 90
        0
280
     0
281
     0
  0
CLASS
  1
IMAGEDEF_REACTOR
  2
AcDbRasterImageDefReactor
  3
ISM
 90
        1
280
     0
281
     0
  0
CLASS
  1
IDBUFFER
  2
AcDbIdBuffer
  3
AutoCAD 2000
 90
    32768
280
     0
281
     0
  0
CLASS
  1
SPATIAL_FILTER
  2
AcDbSpatialFilter
  3
AutoCAD 2000
 90
    32768
280
     0
281
     0
  0
CLASS
  1
XRECORD
  2
AcDbXrecord
  3
AutoCAD 2000
 90
    32768
280
     0
281
     0
  0
CLASS
  1
SORTENTSTABLE
  2
AcDbSortentsTable
  3
AutoCAD 2000
 90
    32768
280
     0
281
     0
  0
CLASS
  1
LAYER_INDEX
  2
AcDbLayerIndex
  3
AutoCAD 2000
 90
    32768
280
     0
281
     0
  0
CLASS
  1
SPATIAL_INDEX
  2
AcDbSpatialIndex
  3
AutoCAD 2000
 90
    32768
280
     0
281
     0
  0
CLASS
  1
OBJECT_PTR
  2
CAseDLPNTableRecord
  3
"ASE-LPNTableRecord"
 90
    32769
280
     0
281
     0
  0
CLASS
  1
LAYOUT
  2
AcDbLayout
  3
AutoCAD 2000
 90
        0
280
     0
281
     0
  0
CLASS
  1
PLOTSETTINGS
  2
AcDbPlotSettings
  3
AutoCAD 2000
 90
    32768
280
     0
281
     0
  0
CLASS
  1
ACDBDICTIONARYWDFLT
  2
AcDbDictionaryWithDefault
  3
AutoCAD 2000
 90
        0
280
     0
281
     0
  0
CLASS
  1
ACDBPLACEHOLDER
  2
AcDbPlaceHolder
  3
AutoCAD 2000
 90
        0
280
     0
281
     0
  0
CLASS
  1
VBA_PROJECT
  2
AcDbVbaProject
  3
acadvba
 90
    32768
280
     0
281
     0
  0
CLASS
  1
WIPEOUT
  2
AcDbWipeout
  3
WipeOut|AutoCAD Express Tool|expresstools@autodesk.com
 90
    32895
280
     0
281
     1
  0
CLASS
  1
WIPEOUTVARIABLES
  2
AcDbWipeoutVariables
  3
WipeOut|AutoCAD Express Tool|expresstools@autodesk.com
 90
        0
280
     0
281
     0
  0
CLASS
  1
RTEXT
  2
RText
  3
RText|AutoCAD Express Tool|expresstools@autodesk.com
 90
    32768
280
     0
281
     1
  0
CLASS
  1
ARCALIGNEDTEXT
  2
AcDbArcAlignedText
  3
ATEXT|AutoCAD Express Tool|expresstools@autodesk.com
 90
    32768
280
     0
281
     1
  0
ENDSEC
  0
SECTION
  2
TABLES
  0
TABLE
  2
VPORT
  5
7
100
AcDbSymbolTable
 70
     1
  0
VPORT
  5
15
100
AcDbSymbolTableRecord
100
AcDbViewportTableRecord
  2
*ACTIVE
 70
     0
 10
0.0
 20
0.0
 11
1.0
 21
1.0
 12
6.591288
 22
4.579184
 13
0.0
 23
0.0
 14
1.0
 24
1.0
 15
0.0
 25
0.0
 16
0.0
 26
0.0
 36
1.0
 17
0.0
 27
0.0
 37
0.0
 40
9.158369
 41
0.688564
 42
50.0
 43
0.0
 44
0.0
 50
0.0
 51
0.0
 71
     0
 72
   100
 73
     1
 74
     1
 75
     0
 76
     0
 77
     0
 78
     0
281
     0
 65
     0
110
0.0
120
0.0
130
0.0
111
1.0
121
0.0
131
0.0
112
0.0
122
1.0
132
0.0
345
0
346
0
 79
     0
146
0.0
  0
ENDTAB
  0
TABLE
  2
LTYPE
  5
4
100
AcDbSymbolTable
 70
     4
  0
LTYPE
  5
11
100
AcDbSymbolTableRecord
100
AcDbLinetypeTableRecord
  2
ByBlock
 70
    64
  3

 72
    65
 73
     0
 40
0.0
  0
LTYPE
  5
12
100
AcDbSymbolTableRecord
100
AcDbLinetypeTableRecord
  2
ByLayer
 70
    64
  3

 72
    65
 73
     0
 40
0.0
  0
LTYPE
  5
13
100
AcDbSymbolTableRecord
100
AcDbLinetypeTableRecord
  2
Continuous
 70
    64
  3
Solid line
 72
    65
 73
     0
 40
0.0
  0
LTYPE
  5
C7
100
AcDbSymbolTableRecord
100
AcDbLinetypeTableRecord
  2
AI9-LType1
 70
    64
  3
Illustrator Dash Style No.1
 72
    65
 73
     4
 40
8.000295
 49
4.99992
 74
     0
 49
-1.000125
 74
     0
 49
1.000125
 74
     0
 49
-1.000125
 74
     0
  0
ENDTAB
  0
TABLE
  2
LAYER
  5
2
100
AcDbSymbolTable
 70
     3
  0
LAYER
  5
14
100
AcDbSymbolTableRecord
100
AcDbLayerTableRecord
  2
0
 70
     0
 62
     7
  6
Continuous
290
     1
370
    -3
390
1D
  0
LAYER
  5
28
100
AcDbSymbolTableRecord
100
AcDbLayerTableRecord
  2
レイヤー_2
 70
     0
 62
     1
  6
Continuous
290
     1
370
    -3
390
1D
  0
LAYER
  5
5A2
100
AcDbSymbolTableRecord
100
AcDbLayerTableRecord
  2
レイヤー_1
 70
     0
 62
   160
  6
Continuous
290
     1
370
    -3
390
1D
  0
ENDTAB
  0
TABLE
  2
STYLE
  5
3
100
AcDbSymbolTable
 70
     5
  0
STYLE
  5
17
100
AcDbSymbolTableRecord
100
AcDbTextStyleTableRecord
  2
Standard
 70
     0
 40
0.0
 41
1.0
 50
0.0
 71
     0
 42
0.0
  3
txt
  4

  0
STYLE
  5
24
100
AcDbSymbolTableRecord
100
AcDbTextStyleTableRecord
  2
STD
 70
     0
 40
0.0
 41
1.0
 50
0.0
 71
     0
 42
0.0
  3
txt
  4

  0
STYLE
  5
25
100
AcDbSymbolTableRecord
100
AcDbTextStyleTableRecord
  2
TATESTD
 70
     4
 40
0.0
 41
1.0
 50
0.0
 71
     0
 42
0.0
  3
txt
  4

  0
STYLE
  5
26
100
AcDbSymbolTableRecord
100
AcDbTextStyleTableRecord
  2
KANJISTD
 70
     0
 40
0.0
 41
1.0
 50
0.0
 71
     0
 42
0.0
  3
txt
  4
extfont
  0
STYLE
  5
27
100
AcDbSymbolTableRecord
100
AcDbTextStyleTableRecord
  2
KANJITATE
 70
     4
 40
0.0
 41
1.0
 50
0.0
 71
     0
 42
0.0
  3
txt
  4
extfont
  0
ENDTAB
  0
TABLE
  2
VIEW
  5
5
100
AcDbSymbolTable
 70
     0
  0
ENDTAB
  0
TABLE
  2
UCS
  5
6
100
AcDbSymbolTable
 70
     0
  0
ENDTAB
  0
TABLE
  2
APPID
  5
8
100
AcDbSymbolTable
 70
     1
  0
APPID
  5
16
100
AcDbSymbolTableRecord
100
AcDbRegAppTableRecord
  2
ACAD
 70
     0
  0
ENDTAB
  0
TABLE
  2
DIMSTYLE
  5
9
100
AcDbSymbolTable
 70
     1
100
AcDbDimStyleTable
 71
     0
  0
DIMSTYLE
105
18
100
AcDbSymbolTableRecord
100
AcDbDimStyleTableRecord
  2
Standard
 70
     0
  3

  4

 40
1.0
 41
0.18
 42
0.0625
 43
0.38
 44
0.18
 45
0.0
 46
0.0
 47
0.0
 48
0.0
 71
     0
 72
     0
 73
     1
 74
     1
 75
     0
 76
     0
 77
     0
 78
     0
 79
     0
140
0.18
141
0.09
142
0.0
143
25.4
144
1.0
145
0.0
146
1.0
147
0.09
148
0.0
170
     0
171
     2
172
     0
173
     0
174
     0
175
     0
176
     0
177
     0
178
     0
179
     0
271
     4
272
     4
273
     2
274
     2
275
     0
276
     0
277
     2
278
    46
279
     0
280
     0
281
     0
282
     0
283
     1
284
     0
285
     0
286
     0
288
     0
340
17
341
0
342
0
343
0
344
0
371
    -2
372
    -2
  0
ENDTAB
  0
TABLE
  2
BLOCK_RECORD
  5
1
100
AcDbSymbolTable
 70
    11
  0
BLOCK_RECORD
  5
A
100
AcDbSymbolTableRecord
100
AcDbBlockTableRecord
  2
*MODEL_SPACE
340
20
  0
BLOCK_RECORD
  5
B
100
AcDbSymbolTableRecord
100
AcDbBlockTableRecord
  2
*PAPER_SPACE
340
21
  0
BLOCK_RECORD
  5
2B
100
AcDbSymbolTableRecord
100
AcDbBlockTableRecord
  2
AI9-BLK1
340
0
102
{BLKREFS
331
2C
102
}
  0
BLOCK_RECORD
  5
34
100
AcDbSymbolTableRecord
100
AcDbBlockTableRecord
  2
AI9-BLK2
340
0
102
{BLKREFS
331
35
102
}
  0
BLOCK_RECORD
  5
65
100
AcDbSymbolTableRecord
100
AcDbBlockTableRecord
  2
AI9-BLK3
340
0
102
{BLKREFS
331
66
102
}
  0
BLOCK_RECORD
  5
96
100
AcDbSymbolTableRecord
100
AcDbBlockTableRecord
  2
AI9-BLK4
340
0
102
{BLKREFS
331
97
102
}
  0
BLOCK_RECORD
  5
12C
100
AcDbSymbolTableRecord
100
AcDbBlockTableRecord
  2
AI9-BLK5
340
0
102
{BLKREFS
331
12D
102
}
  0
BLOCK_RECORD
  5
517
100
AcDbSymbolTableRecord
100
AcDbBlockTableRecord
  2
AI9-BLK6
340
0
102
{BLKREFS
331
518
102
}
  0
BLOCK_RECORD
  5
532
100
AcDbSymbolTableRecord
100
AcDbBlockTableRecord
  2
AI9-BLK7
340
0
102
{BLKREFS
331
533
102
}
  0
BLOCK_RECORD
  5
538
100
AcDbSymbolTableRecord
100
AcDbBlockTableRecord
  2
AI9-BLK8
340
0
102
{BLKREFS
331
539
102
}
  0
BLOCK_RECORD
  5
53B
100
AcDbSymbolTableRecord
100
AcDbBlockTableRecord
  2
AI9-BLK9
340
0
102
{BLKREFS
331
53C
102
}
  0
BLOCK_RECORD
  5
53E
100
AcDbSymbolTableRecord
100
AcDbBlockTableRecord
  2
AI9-BLK10
340
0
102
{BLKREFS
331
53F
102
}
  0
BLOCK_RECORD
  5
567
100
AcDbSymbolTableRecord
100
AcDbBlockTableRecord
  2
AI9-BLK11
340
0
102
{BLKREFS
331
568
102
}
  0
ENDTAB
  0
ENDSEC
  0
SECTION
  2
BLOCKS
  0
BLOCK
  5
D
100
AcDbEntity
  8
0
100
AcDbBlockBegin
  2
*MODEL_SPACE
 70
     0
 10
0.0
 20
0.0
 30
0.0
  3
*MODEL_SPACE
  1

  0
ENDBLK
  5
E
100
AcDbEntity
  8
0
100
AcDbBlockEnd
  0
BLOCK
  5
F
100
AcDbEntity
 67
     1
  8
0
100
AcDbBlockBegin
  2
*PAPER_SPACE
 70
     0
 10
0.0
 20
0.0
 30
0.0
  3
*PAPER_SPACE
  1

  0
ENDBLK
  5
10
100
AcDbEntity
 67
     1
  8
0
100
AcDbBlockEnd
  0
BLOCK
  5
2D
100
AcDbEntity
  8
レイヤー_2
 62
     7
100
AcDbBlockBegin
  2
AI9-BLK1
 70
     0
 10
0.0
 20
0.0
 30
0.0
  3
AI9-BLK1
  1

  0
SPLINE
  5
32
100
AcDbEntity
  8
レイヤー_2
 62
     7
100
AcDbSpline
210
0.0
220
0.0
230
1.0
 70
     8
 71
     3
 72
     8
 73
     4
 74
     0
 42
0.00000001
 43
0.00000001
 40
0.0
 40
0.0
 40
0.0
 40
0.0
 40
1.0
 40
1.0
 40
1.0
 40
1.0
 10
-2.1035753038194445
 20
-0.1633836534288194
 30
0.0
 10
-2.1194227430555554
 20
-0.2562289767795138
 30
0.0
 10
-2.0574110243055554
 20
-0.3447679307725694
 30
0.0
 10
-1.9650824652777776
 20
-0.3614766438802083
 30
0.0
  0
LINE
  5
31
100
AcDbEntity
  8
レイヤー_2
 62
     7
100
AcDbLine
 10
-2.103575
 20
-0.163384
 30
0.0
 11
-1.977485
 21
0.550096
 31
0.0
  0
SPLINE
  5
30
100
AcDbEntity
  8
レイヤー_2
 62
     7
100
AcDbSpline
210
0.0
220
0.0
230
1.0
 70
     8
 71
     3
 72
    11
 73
     7
 74
     0
 42
0.00000001
 43
0.00000001
 40
0.0
 40
0.0
 40
0.0
 40
0.0
 40
1.0
 40
1.0
 40
1.0
 40
2.0
 40
2.0
 40
2.0
 40
2.0
 10
-1.7797363281249998
 20
0.6887607150607639
 30
0.0
 10
-1.7893825954861109
 20
0.6904832628038193
 30
0.0
 10
-1.8004069010416666
 20
0.6911722819010416
 30
0.0
 10
-1.8100531684027776
 20
0.6911722819010416
 30
0.0
 10
-1.8927354600694444
 20
0.6911722819010416
 30
0.0
 10
-1.9630154079861108
 20
0.6310553656684027
 30
0.0
 10
-1.9774848090277777
 20
0.5500956217447917
 30
0.0
  0
LINE
  5
2F
100
AcDbEntity
  8
レイヤー_2
 62
     7
100
AcDbLine
 10
-0.095085
 20
-0.691172
 30
0.0
 11
-1.965082
 21
-0.361477
 31
0.0
  0
LINE
  5
2E
100
AcDbEntity
  8
レイヤー_2
 62
     7
100
AcDbLine
 10
-1.779736
 20
0.688761
 30
0.0
 11
2.106331
 21
0.003187
 31
0.0
  0
ENDBLK
  5
33
100
AcDbEntity
  8
レイヤー_2
100
AcDbBlockEnd
  0
BLOCK
  5
36
100
AcDbEntity
  8
レイヤー_2
 62
     7
100
AcDbBlockBegin
  2
AI9-BLK2
 70
     0
 10
0.0
 20
0.0
 30
0.0
  3
AI9-BLK2
  1

  0
LINE
  5
5A
100
AcDbEntity
  8
レイヤー_2
 62
     7
100
AcDbLine
 10
-1.172711
 20
-3.252342
 30
0.0
 11
-1.172711
 21
-3.466627
 31
0.0
  0
LINE
  5
59
100
AcDbEntity
  8
レイヤー_2
 62
     7
100
AcDbLine
 10
1.173055
 20
-3.466627
 30
0.0
 11
1.172711
 21
-3.252342
 31
0.0
  0
LINE
  5
58
100
AcDbEntity
  8
レイヤー_2
 62
     7
100
AcDbLine
 10
-1.262627
 20
-3.466627
 30
0.0
 11
-5.667182
 21
-3.490398
 31
0.0
  0
LINE
  5
57
100
AcDbEntity
  8
レイヤー_2
 62
     7
100
AcDbLine
 10
5.667182
 20
-3.490398
 30
0.0
 11
1.262972
 21
-3.466627
 31
0.0
  0
SPLINE
  5
56
100
AcDbEntity
  8
レイヤー_2
 62
     7
100
AcDbSpline
210
0.0
220
0.0
230
1.0
 70
     8
 71
     3
 72
     8
 73
     4
 74
     0
 42
0.00000001
 43
0.00000001
 40
0.0
 40
0.0
 40
0.0
 40
0.0
 40
1.0
 40
1.0
 40
1.0
 40
1.0
 10
-5.6671820746527777
 20
-3.4903984917534721
 30
0.0
 10
-5.7595106336805548
 20
-3.4916042751736107
 30
0.0
 10
-5.8346137152777775
 20
-3.5658460828993053
 30
0.0
 10
-5.8356472439236109
 20
-3.6581746419270829
 30
0.0
  0
SPLINE
  5
55
100
AcDbEntity
  8
レイヤー_2
 62
     7
100
AcDbSpline
210
0.0
220
0.0
230
1.0
 70
     8
 71
     3
 72
     8
 73
     4
 74
     0
 42
0.00000001
 43
0.00000001
 40
0.0
 40
0.0
 40
0.0
 40
0.0
 40
1.0
 40
1.0
 40
1.0
 40
1.0
 10
5.8366807725694443
 20
-3.6581746419270829
 30
0.0
 10
5.8353027343749995
 20
-3.5658460828993053
 30
0.0
 10
5.7595106336805548
 20
-3.4916042751736107
 30
0.0
 10
5.6671820746527777
 20
-3.4903984917534721
 30
0.0
  0
LINE
  5
54
100
AcDbEntity
  8
レイヤー_2
 62
     7
100
AcDbLine
 10
5.691987
 20
-5.277886
 30
0.0
 11
-5.692676
 21
-5.277886
 31
0.0
  0
SPLINE
  5
53
100
AcDbEntity
  8
レイヤー_2
 62
     7
100
AcDbSpline
210
0.0
220
0.0
230
1.0
 70
     8
 71
     3
 72
    14
 73
    10
 74
     0
 42
0.00000001
 43
0.00000001
 40
0.0
 40
0.0
 40
0.0
 40
0.0
 40
1.0
 40
1.0
 40
1.0
 40
2.0
 40
2.0
 40
2.0
 40
3.0
 40
3.0
 40
3.0
 40
3.0
 10
-5.8635525173611107
 20
-5.2131184895833327
 30
0.0
 10
-5.8635525173611107
 20
-5.2136352539062498
 30
0.0
 10
-5.8635525173611107
 20
-5.2136352539062498
 30
0.0
 10
-5.8635525173611107
 20
-5.2143242730034718
 30
0.0
 10
-5.8635525173611107
 20
-5.2498087565104159
 30
0.0
 10
-5.8346137152777775
 20
-5.2778862847222214
 30
0.0
 10
-5.798784722222222
 20
-5.2778862847222214
 30
0.0
 10
-5.798784722222222
 20
-5.2778862847222214
 30
0.0
 10
-5.798784722222222
 20
-5.2778862847222214
 30
0.0
 10
-5.798784722222222
 20
-5.2778862847222214
 30
0.0
  0
SPLINE
  5
52
100
AcDbEntity
  8
レイヤー_2
 62
     7
100
AcDbSpline
210
0.0
220
0.0
230
1.0
 70
     8
 71
     3
 72
    11
 73
     7
 74
     0
 42
0.00000001
 43
0.00000001
 40
0.0
 40
0.0
 40
0.0
 40
0.0
 40
1.0
 40
1.0
 40
1.0
 40
2.0
 40
2.0
 40
2.0
 40
2.0
 10
5.7994737413194439
 20
-5.2778862847222214
 30
0.0
 10
5.8353027343749995
 20
-5.2778862847222214
 30
0.0
 10
5.8635525173611107
 20
-5.2498087565104159
 30
0.0
 10
5.8635525173611107
 20
-5.2143242730034718
 30
0.0
 10
5.8635525173611107
 20
-5.2136352539062498
 30
0.0
 10
5.8635525173611107
 20
-5.2136352539062498
 30
0.0
 10
5.8635525173611107
 20
-5.2131184895833327
 30
0.0
  0
LINE
  5
51
100
AcDbEntity
  8
レイヤー_2
 62
     7
100
AcDbLine
 10
-5.863553
 20
-5.213118
 30
0.0
 11
-5.836336
 21
-3.683324
 31
0.0
  0
LINE
  5
50
100
AcDbEntity
  8
レイヤー_2
 62
     7
100
AcDbLine
 10
5.83737
 20
-3.683324
 30
0.0
 11
5.863553
 21
-5.213118
 31
0.0
  0
LINE
  5
4F
100
AcDbEntity
  8
レイヤー_2
 62
     7
100
AcDbLine
 10
0.0
 20
-3.466627
 30
0.0
 11
1.262972
 21
-3.466627
 31
0.0
  0
LINE
  5
4E
100
AcDbEntity
  8
レイヤー_2
 62
     7
100
AcDbLine
 10
-1.262627
 20
-3.466627
 30
0.0
 11
0.0
 21
-3.466627
 31
0.0
  0
LINE
  5
4D
100
AcDbEntity
  8
レイヤー_2
 62
     7
100
AcDbLine
 10
-5.667182
 20
-3.490398
 30
0.0
 11
-5.667182
 21
-3.51572
 31
0.0
  0
LINE
  5
4C
100
AcDbEntity
  8
レイヤー_2
 62
     7
100
AcDbLine
 10
-1.172711
 20
-3.252342
 30
0.0
 11
-1.172711
 21
-3.466627
 31
0.0
  0
LINE
  5
4B
100
AcDbEntity
  8
レイヤー_2
 62
     7
100
AcDbLine
 10
1.173055
 20
-3.466627
 30
0.0
 11
1.173055
 21
-3.252342
 31
0.0
  0
SPLINE
  5
4A
100
AcDbEntity
  8
レイヤー_2
 62
     7
100
AcDbSpline
210
0.0
220
0.0
230
1.0
 70
     8
 71
     3
 72
     8
 73
     4
 74
     0
 42
0.00000001
 43
0.00000001
 40
0.0
 40
0.0
 40
0.0
 40
0.0
 40
1.0
 40
1.0
 40
1.0
 40
1.0
 10
-2.5590169270833329
 20
3.992693413628472
 30
0.0
 10
-2.5590169270833329
 20
3.9341267903645831
 30
0.0
 10
-2.5107855902777776
 20
3.8862399631076388
 30
0.0
 10
-2.4522189670138888
 20
3.8862399631076388
 30
0.0
  0
LINE
  5
49
100
AcDbEntity
  8
レイヤー_2
 62
     7
100
AcDbLine
 10
-2.559017
 20
3.992693
 30
0.0
 11
-2.559017
 21
5.171261
 31
0.0
  0
SPLINE
  5
48
100
AcDbEntity
  8
レイヤー_2
 62
     7
100
AcDbSpline
210
0.0
220
0.0
230
1.0
 70
     8
 71
     3
 72
     8
 73
     4
 74
     0
 42
0.00000001
 43
0.00000001
 40
0.0
 40
0.0
 40
0.0
 40
0.0
 40
1.0
 40
1.0
 40
1.0
 40
1.0
 10
-2.4522189670138888
 20
5.2778862847222214
 30
0.0
 10
-2.5107855902777776
 20
5.2778862847222214
 30
0.0
 10
-2.5590169270833329
 20
5.2298272026909718
 30
0.0
 10
-2.5590169270833329
 20
5.1712605794270825
 30
0.0
  0
LINE
  5
47
100
AcDbEntity
  8
レイヤー_2
 62
     7
100
AcDbLine
 10
-2.452219
 20
5.277886
 30
0.0
 11
2.452908
 21
5.277886
 31
0.0
  0
LINE
  5
46
100
AcDbEntity
  8
レイヤー_2
 62
     7
100
AcDbLine
 10
2.452908
 20
3.88624
 30
0.0
 11
-2.452219
 21
3.88624
 31
0.0
  0
SPLINE
  5
45
100
AcDbEntity
  8
レイヤー_2
 62
     7
100
AcDbSpline
210
0.0
220
0.0
230
1.0
 70
     8
 71
     3
 72
     8
 73
     4
 74
     0
 42
0.00000001
 43
0.00000001
 40
0.0
 40
0.0
 40
0.0
 40
0.0
 40
1.0
 40
1.0
 40
1.0
 40
1.0
 10
2.5590169270833329
 20
5.1712605794270825
 30
0.0
 10
2.5590169270833329
 20
5.2298272026909718
 30
0.0
 10
2.5114746093749996
 20
5.2778862847222214
 30
0.0
 10
2.4529079861111107
 20
5.2778862847222214
 30
0.0
  0
LINE
  5
44
100
AcDbEntity
  8
レイヤー_2
 62
     7
100
AcDbLine
 10
2.559017
 20
5.171261
 30
0.0
 11
2.559017
 21
3.992693
 31
0.0
  0
SPLINE
  5
43
100
AcDbEntity
  8
レイヤー_2
 62
     7
100
AcDbSpline
210
0.0
220
0.0
230
1.0
 70
     8
 71
     3
 72
     8
 73
     4
 74
     0
 42
0.00000001
 43
0.00000001
 40
0.0
 40
0.0
 40
0.0
 40
0.0
 40
1.0
 40
1.0
 40
1.0
 40
1.0
 10
2.4529079861111107
 20
3.8862399631076388
 30
0.0
 10
2.5114746093749996
 20
3.8862399631076388
 30
0.0
 10
2.5590169270833329
 20
3.9341267903645831
 30
0.0
 10
2.5590169270833329
 20
3.992693413628472
 30
0.0
  0
LINE
  5
42
100
AcDbEntity
  8
レイヤー_2
 62
     7
100
AcDbLine
 10
-2.559017
 20
3.269396
 30
0.0
 11
-2.559017
 21
3.992693
 31
0.0
  0
SPLINE
  5
41
100
AcDbEntity
  8
レイヤー_2
 62
     7
100
AcDbSpline
210
0.0
220
0.0
230
1.0
 70
     8
 71
     3
 72
     8
 73
     4
 74
     0
 42
0.00000001
 43
0.00000001
 40
0.0
 40
0.0
 40
0.0
 40
0.0
 40
1.0
 40
1.0
 40
1.0
 40
1.0
 10
-2.5590169270833329
 20
3.2693956163194442
 30
0.0
 10
-2.5590169270833329
 20
3.2106567382812496
 30
0.0
 10
-2.5107855902777776
 20
3.1624254014756943
 30
0.0
 10
-2.4522189670138888
 20
3.1624254014756943
 30
0.0
  0
LINE
  5
40
100
AcDbEntity
  8
レイヤー_2
 62
     7
100
AcDbLine
 10
-2.452219
 20
3.162425
 30
0.0
 11
2.452908
 21
3.162425
 31
0.0
  0
LINE
  5
3F
100
AcDbEntity
  8
レイヤー_2
 62
     7
100
AcDbLine
 10
2.559017
 20
3.992693
 30
0.0
 11
2.559017
 21
3.269396
 31
0.0
  0
SPLINE
  5
3E
100
AcDbEntity
  8
レイヤー_2
 62
     7
100
AcDbSpline
210
0.0
220
0.0
230
1.0
 70
     8
 71
     3
 72
     8
 73
     4
 74
     0
 42
0.00000001
 43
0.00000001
 40
0.0
 40
0.0
 40
0.0
 40
0.0
 40
1.0
 40
1.0
 40
1.0
 40
1.0
 10
2.4529079861111107
 20
3.1624254014756943
 30
0.0
 10
2.5114746093749996
 20
3.1624254014756943
 30
0.0
 10
2.5590169270833329
 20
3.2106567382812496
 30
0.0
 10
2.5590169270833329
 20
3.2693956163194442
 30
0.0
  0
LINE
  5
3D
100
AcDbEntity
  8
レイヤー_2
 62
     7
100
AcDbLine
 10
-2.559017
 20
2.847716
 30
0.0
 11
-2.559017
 21
3.269396
 31
0.0
  0
LINE
  5
3C
100
AcDbEntity
  8
レイヤー_2
 62
     7
100
AcDbLine
 10
2.559017
 20
3.269396
 30
0.0
 11
2.559017
 21
2.847716
 31
0.0
  0
LINE
  5
3B
100
AcDbEntity
  8
レイヤー_2
 62
     7
100
AcDbLine
 10
-2.452219
 20
-3.252342
 30
0.0
 11
-2.559017
 21
-3.252342
 31
0.0
  0
LINE
  5
3A
100
AcDbEntity
  8
レイヤー_2
 62
     7
100
AcDbLine
 10
-2.559017
 20
-3.252342
 30
0.0
 11
-2.559017
 21
2.847716
 31
0.0
  0
LINE
  5
39
100
AcDbEntity
  8
レイヤー_2
 62
     7
100
AcDbLine
 10
-2.452219
 20
-3.252342
 30
0.0
 11
2.452908
 21
-3.252342
 31
0.0
  0
LINE
  5
38
100
AcDbEntity
  8
レイヤー_2
 62
     7
100
AcDbLine
 10
2.559017
 20
-3.252342
 30
0.0
 11
2.452908
 21
-3.252342
 31
0.0
  0
LINE
  5
37
100
AcDbEntity
  8
レイヤー_2
 62
     7
100
AcDbLine
 10
2.559017
 20
2.847716
 30
0.0
 11
2.559017
 21
-3.252342
 31
0.0
  0
ENDBLK
  5
5B
100
AcDbEntity
  8
レイヤー_2
100
AcDbBlockEnd
  0
BLOCK
  5
67
100
AcDbEntity
  8
レイヤー_2
 62
     7
100
AcDbBlockBegin
  2
AI9-BLK3
 70
     0
 10
0.0
 20
0.0
 30
0.0
  3
AI9-BLK3
  1

  0
LINE
  5
94
100
AcDbEntity
  8
レイヤー_2
 62
     7
100
AcDbLine
 10
-7.091385
 20
-3.252601
 30
0.0
 11
-7.091385
 21
-3.467575
 31
0.0
  0
LINE
  5
93
100
AcDbEntity
  8
レイヤー_2
 62
     7
100
AcDbLine
 10
-4.745619
 20
-3.467575
 30
0.0
 11
-4.745619
 21
-3.252601
 31
0.0
  0
SPLINE
  5
92
100
AcDbEntity
  8
レイヤー_2
 62
     7
100
AcDbSpline
210
0.0
220
0.0
230
1.0
 70
     8
 71
     3
 72
     8
 73
     4
 74
     0
 42
0.00000001
 43
0.00000001
 40
0.0
 40
0.0
 40
0.0
 40
0.0
 40
1.0
 40
1.0
 40
1.0
 40
1.0
 10
11.674911838107638
 20
5.2771111382378466
 30
0.0
 10
11.733478461371528
 20
5.2771111382378466
 30
0.0
 10
11.781709798177083
 20
5.2292243109809027
 30
0.0
 10
11.781709798177083
 20
5.1704854329427077
 30
0.0
  0
LINE
  5
91
100
AcDbEntity
  8
レイヤー_2
 62
     7
100
AcDbLine
 10
-6.470923
 20
5.277111
 30
0.0
 11
11.674912
 21
5.277111
 31
0.0
  0
LINE
  5
90
100
AcDbEntity
  8
レイヤー_2
 62
     7
100
AcDbLine
 10
-8.261683
 20
-3.252601
 30
0.0
 11
-8.370893
 21
-3.252601
 31
0.0
  0
LINE
  5
8F
100
AcDbEntity
  8
レイヤー_2
 62
     7
100
AcDbLine
 10
-8.370893
 20
-3.252601
 30
0.0
 11
-6.575654
 21
5.192706
 31
0.0
  0
LINE
  5
8E
100
AcDbEntity
  8
レイヤー_2
 62
     7
100
AcDbLine
 10
-3.575665
 20
-3.252601
 30
0.0
 11
-8.261683
 21
-3.252601
 31
0.0
  0
LINE
  5
8D
100
AcDbEntity
  8
レイヤー_2
 62
     7
100
AcDbLine
 10
11.78171
 20
5.170485
 30
0.0
 11
11.78171
 21
3.992091
 31
0.0
  0
LINE
  5
8C
100
AcDbEntity
  8
レイヤー_2
 62
     7
100
AcDbLine
 10
-3.466111
 20
-3.252601
 30
0.0
 11
-3.575665
 21
-3.252601
 31
0.0
  0
LINE
  5
8B
100
AcDbEntity
  8
レイヤー_2
 62
     7
100
AcDbLine
 10
-2.1742
 20
2.825064
 30
0.0
 11
-3.466111
 21
-3.252601
 31
0.0
  0
LINE
  5
8A
100
AcDbEntity
  8
レイヤー_2
 62
     7
100
AcDbLine
 10
11.680424
 20
3.885637
 30
0.0
 11
-1.780081
 21
3.162684
 31
0.0
  0
SPLINE
  5
89
100
AcDbEntity
  8
レイヤー_2
 62
     7
100
AcDbSpline
210
0.0
220
0.0
230
1.0
 70
     8
 71
     3
 72
     8
 73
     4
 74
     0
 42
0.00000001
 43
0.00000001
 40
0.0
 40
0.0
 40
0.0
 40
0.0
 40
1.0
 40
1.0
 40
1.0
 40
1.0
 10
-2.1741997612847221
 20
2.8250644259982636
 30
0.0
 10
-2.1335476345486111
 20
3.0167839898003468
 30
0.0
 10
-1.9699055989583332
 20
3.1506259494357636
 30
0.0
 10
-1.780080837673611
 20
3.1626837836371524
 30
0.0
  0
SPLINE
  5
88
100
AcDbEntity
  8
レイヤー_2
 62
     7
100
AcDbSpline
210
0.0
220
0.0
230
1.0
 70
     8
 71
     3
 72
     8
 73
     4
 74
     0
 42
0.00000001
 43
0.00000001
 40
0.0
 40
0.0
 40
0.0
 40
0.0
 40
1.0
 40
1.0
 40
1.0
 40
1.0
 10
-6.5756537543402773
 20
5.1927062988281243
 30
0.0
 10
-6.5653184678819443
 20
5.2424879286024302
 30
0.0
 10
-6.521565755208333
 20
5.2765943739149304
 30
0.0
 10
-6.4709228515624995
 20
5.2771111382378466
 30
0.0
  0
SPLINE
  5
87
100
AcDbEntity
  8
レイヤー_2
 62
     7
100
AcDbSpline
210
0.0
220
0.0
230
1.0
 70
     8
 71
     3
 72
     8
 73
     4
 74
     0
 42
0.00000001
 43
0.00000001
 40
0.0
 40
0.0
 40
0.0
 40
0.0
 40
1.0
 40
1.0
 40
1.0
 40
1.0
 10
11.781709798177083
 20
3.9920905219184024
 30
0.0
 10
11.781709798177083
 20
3.9352464463975689
 30
0.0
 10
11.737612575954859
 20
3.8882208930121522
 30
0.0
 10
11.680423990885416
 20
3.8856370713975692
 30
0.0
  0
LINE
  5
86
100
AcDbEntity
  8
レイヤー_2
 62
     7
100
AcDbLine
 10
-6.771335
 20
-3.890288
 30
0.0
 11
-5.065668
 21
-3.890288
 31
0.0
  0
LINE
  5
85
100
AcDbEntity
  8
レイヤー_2
 62
     7
100
AcDbLine
 10
-7.091385
 20
-3.25174
 30
0.0
 11
-7.091385
 21
-3.46568
 31
0.0
  0
LINE
  5
84
100
AcDbEntity
  8
レイヤー_2
 62
     7
100
AcDbLine
 10
-4.745619
 20
-3.46568
 30
0.0
 11
-4.745619
 21
-3.25174
 31
0.0
  0
SPLINE
  5
83
100
AcDbEntity
  8
レイヤー_2
 62
     7
100
AcDbSpline
210
0.0
220
0.0
230
1.0
 70
     8
 71
     3
 72
     8
 73
     4
 74
     0
 42
0.00000001
 43
0.00000001
 40
0.0
 40
0.0
 40
0.0
 40
0.0
 40
1.0
 40
1.0
 40
1.0
 40
1.0
 10
-0.2511474609375
 20
-3.4894510904947915
 30
0.0
 10
-0.1591634114583333
 20
-3.4906568739149302
 30
0.0
 10
-0.0837158203125
 20
-3.5654154459635414
 30
0.0
 10
-0.0826822916666667
 20
-3.6575717502170138
 30
0.0
  0
LINE
  5
82
100
AcDbEntity
  8
レイヤー_2
 62
     7
100
AcDbLine
 10
-7.181302
 20
-3.46568
 30
0.0
 11
-11.585512
 21
-3.489451
 31
0.0
  0
LINE
  5
81
100
AcDbEntity
  8
レイヤー_2
 62
     7
100
AcDbLine
 10
-0.251147
 20
-3.489451
 30
0.0
 11
-4.656047
 21
-3.46568
 31
0.0
  0
SPLINE
  5
80
100
AcDbEntity
  8
レイヤー_2
 62
     7
100
AcDbSpline
210
0.0
220
0.0
230
1.0
 70
     8
 71
     3
 72
     8
 73
     4
 74
     0
 42
0.00000001
 43
0.00000001
 40
0.0
 40
0.0
 40
0.0
 40
0.0
 40
1.0
 40
1.0
 40
1.0
 40
1.0
 10
-11.754321289062499
 20
-3.6575717502170138
 30
0.0
 10
-11.752943250868055
 20
-3.564726426866319
 30
0.0
 10
-11.677840169270832
 20
-3.4906568739149302
 30
0.0
 10
-11.585511610243055
 20
-3.4894510904947915
 30
0.0
  0
LINE
  5
7F
100
AcDbEntity
  8
レイヤー_2
 62
     7
100
AcDbLine
 10
-0.225998
 20
-5.277111
 30
0.0
 11
-11.611005
 21
-5.277111
 31
0.0
  0
LINE
  5
7E
100
AcDbEntity
  8
レイヤー_2
 62
     7
100
AcDbLine
 10
-0.118856
 20
-5.277111
 30
0.0
 11
-0.225998
 21
-5.277111
 31
0.0
  0
SPLINE
  5
7D
100
AcDbEntity
  8
レイヤー_2
 62
     7
100
AcDbSpline
210
0.0
220
0.0
230
1.0
 70
     8
 71
     3
 72
    11
 73
     7
 74
     0
 42
0.00000001
 43
0.00000001
 40
0.0
 40
0.0
 40
0.0
 40
0.0
 40
1.0
 40
1.0
 40
1.0
 40
2.0
 40
2.0
 40
2.0
 40
2.0
 10
-0.0554660373263889
 20
-5.2119988335503464
 30
0.0
 10
-0.0554660373263889
 20
-5.2126878526475693
 30
0.0
 10
-0.0554660373263889
 20
-5.2130323621961798
 30
0.0
 10
-0.0554660373263889
 20
-5.213549126519097
 30
0.0
 10
-0.0554660373263889
 20
-5.2490336100260411
 30
0.0
 10
-0.0837158203125
 20
-5.2771111382378466
 30
0.0
 10
-0.1188557942708333
 20
-5.2771111382378466
 30
0.0
  0
LINE
  5
7C
100
AcDbEntity
  8
レイヤー_2
 62
     7
100
AcDbLine
 10
-11.611005
 20
-5.277111
 30
0.0
 11
-11.717803
 21
-5.277111
 31
0.0
  0
SPLINE
  5
7B
100
AcDbEntity
  8
レイヤー_2
 62
     7
100
AcDbSpline
210
0.0
220
0.0
230
1.0
 70
     8
 71
     3
 72
     8
 73
     4
 74
     0
 42
0.00000001
 43
0.00000001
 40
0.0
 40
0.0
 40
0.0
 40
0.0
 40
1.0
 40
1.0
 40
1.0
 40
1.0
 10
-11.781537543402777
 20
-5.213549126519097
 30
0.0
 10
-11.781537543402777
 20
-5.2130323621961798
 30
0.0
 10
-11.781537543402777
 20
-5.2126878526475693
 30
0.0
 10
-11.781537543402777
 20
-5.2119988335503464
 30
0.0
  0
SPLINE
  5
7A
100
AcDbEntity
  8
レイヤー_2
 62
     7
100
AcDbSpline
210
0.0
220
0.0
230
1.0
 70
     8
 71
     3
 72
    11
 73
     7
 74
     0
 42
0.00000001
 43
0.00000001
 40
0.0
 40
0.0
 40
0.0
 40
0.0
 40
1.0
 40
1.0
 40
1.0
 40
2.0
 40
2.0
 40
2.0
 40
2.0
 10
-11.717803276909722
 20
-5.2771111382378466
 30
0.0
 10
-11.717803276909722
 20
-5.2771111382378466
 30
0.0
 10
-11.717803276909722
 20
-5.2771111382378466
 30
0.0
 10
-11.717803276909722
 20
-5.2771111382378466
 30
0.0
 10
-11.752943250868055
 20
-5.2771111382378466
 30
0.0
 10
-11.781537543402777
 20
-5.2490336100260411
 30
0.0
 10
-11.781537543402777
 20
-5.213549126519097
 30
0.0
  0
LINE
  5
79
100
AcDbEntity
  8
レイヤー_2
 62
     7
100
AcDbLine
 10
-0.081993
 20
-3.682893
 30
0.0
 11
-0.055466
 21
-5.211999
 31
0.0
  0
LINE
  5
78
100
AcDbEntity
  8
レイヤー_2
 62
     7
100
AcDbLine
 10
-5.065668
 20
-4.210165
 30
0.0
 11
-5.065668
 21
-3.890288
 31
0.0
  0
LINE
  5
77
100
AcDbEntity
  8
レイヤー_2
 62
     7
100
AcDbLine
 10
-6.771335
 20
-3.890288
 30
0.0
 11
-6.771335
 21
-4.210165
 31
0.0
  0
LINE
  5
76
100
AcDbEntity
  8
レイヤー_2
 62
     7
100
AcDbLine
 10
-6.771335
 20
-4.210165
 30
0.0
 11
-5.065668
 21
-4.210165
 31
0.0
  0
LINE
  5
75
100
AcDbEntity
  8
レイヤー_2
 62
     7
100
AcDbLine
 10
-11.781538
 20
-5.211999
 30
0.0
 11
-11.75501
 21
-3.682893
 31
0.0
  0
LINE
  5
74
100
AcDbEntity
  8
レイヤー_2
 62
     7
100
AcDbLine
 10
-7.181302
 20
-3.46568
 30
0.0
 11
-4.656047
 21
-3.46568
 31
0.0
  0
POLYLINE
  5
6E
100
AcDbEntity
  8
レイヤー_2
 62
     7
100
AcDb2dPolyline
 66
     1
 10
0.0
 20
0.0
 30
0.0
  0
VERTEX
  5
6F
100
AcDbEntity
  8
レイヤー_2
 62
     7
100
AcDbVertex
100
AcDb2dVertex
 10
-0.251147
 20
-3.514773
 30
0.0
  0
VERTEX
  5
70
100
AcDbEntity
  8
レイヤー_2
 62
     7
100
AcDbVertex
100
AcDb2dVertex
 10
-0.251147
 20
-3.496686
 30
0.0
  0
VERTEX
  5
71
100
AcDbEntity
  8
レイヤー_2
 62
     7
100
AcDbVertex
100
AcDb2dVertex
 10
-0.251147
 20
-3.490829
 30
0.0
  0
VERTEX
  5
72
100
AcDbEntity
  8
レイヤー_2
 62
     7
100
AcDbVertex
100
AcDb2dVertex
 10
-0.251147
 20
-3.489451
 30
0.0
  0
SEQEND
  5
73
100
AcDbEntity
  8
レイヤー_2
 62
     7
  0
LINE
  5
6D
100
AcDbEntity
  8
レイヤー_2
 62
     7
100
AcDbLine
 10
-7.091385
 20
-3.252601
 30
0.0
 11
-7.091385
 21
-3.46568
 31
0.0
  0
LINE
  5
6C
100
AcDbEntity
  8
レイヤー_2
 62
     7
100
AcDbLine
 10
-4.745619
 20
-3.46568
 30
0.0
 11
-4.745619
 21
-3.252601
 31
0.0
  0
LINE
  5
6B
100
AcDbEntity
  8
レイヤー_2
 62
     7
100
AcDbLine
 10
-6.771335
 20
-4.212577
 30
0.0
 11
-5.065668
 21
-4.212577
 31
0.0
  0
LINE
  5
6A
100
AcDbEntity
  8
レイヤー_2
 62
     7
100
AcDbLine
 10
-6.771335
 20
-3.8927
 30
0.0
 11
-6.771335
 21
-4.212577
 31
0.0
  0
LINE
  5
69
100
AcDbEntity
  8
レイヤー_2
 62
     7
100
AcDbLine
 10
-5.065668
 20
-4.212577
 30
0.0
 11
-5.065668
 21
-3.8927
 31
0.0
  0
LINE
  5
68
100
AcDbEntity
  8
レイヤー_2
 62
     7
100
AcDbLine
 10
-5.065668
 20
-3.8927
 30
0.0
 11
-6.771335
 21
-3.8927
 31
0.0
  0
ENDBLK
  5
95
100
AcDbEntity
  8
レイヤー_2
100
AcDbBlockEnd
  0
BLOCK
  5
98
100
AcDbEntity
  8
レイヤー_2
 62
     7
100
AcDbBlockBegin
  2
AI9-BLK4
 70
     0
 10
0.0
 20
0.0
 30
0.0
  3
AI9-BLK4
  1

  0
LINE
  5
C5
100
AcDbEntity
  8
レイヤー_2
 62
     7
100
AcDbLine
 10
7.091557
 20
-3.252601
 30
0.0
 11
7.091557
 21
-3.467575
 31
0.0
  0
LINE
  5
C4
100
AcDbEntity
  8
レイヤー_2
 62
     7
100
AcDbLine
 10
4.745791
 20
-3.467575
 30
0.0
 11
4.745791
 21
-3.252601
 31
0.0
  0
SPLINE
  5
C3
100
AcDbEntity
  8
レイヤー_2
 62
     7
100
AcDbSpline
210
0.0
220
0.0
230
1.0
 70
     8
 71
     3
 72
     8
 73
     4
 74
     0
 42
0.00000001
 43
0.00000001
 40
0.0
 40
0.0
 40
0.0
 40
0.0
 40
1.0
 40
1.0
 40
1.0
 40
1.0
 10
-11.674567328559027
 20
5.2771111382378466
 30
0.0
 10
-11.733478461371528
 20
5.2771111382378466
 30
0.0
 10
-11.781709798177083
 20
5.2292243109809027
 30
0.0
 10
-11.781709798177083
 20
5.1704854329427077
 30
0.0
  0
LINE
  5
C2
100
AcDbEntity
  8
レイヤー_2
 62
     7
100
AcDbLine
 10
6.471095
 20
5.277111
 30
0.0
 11
-11.674567
 21
5.277111
 31
0.0
  0
LINE
  5
C1
100
AcDbEntity
  8
レイヤー_2
 62
     7
100
AcDbLine
 10
8.261856
 20
-3.252601
 30
0.0
 11
8.371065
 21
-3.252601
 31
0.0
  0
LINE
  5
C0
100
AcDbEntity
  8
レイヤー_2
 62
     7
100
AcDbLine
 10
8.371065
 20
-3.252601
 30
0.0
 11
6.575826
 21
5.192706
 31
0.0
  0
LINE
  5
BF
100
AcDbEntity
  8
レイヤー_2
 62
     7
100
AcDbLine
 10
3.575837
 20
-3.252601
 30
0.0
 11
8.261856
 21
-3.252601
 31
0.0
  0
LINE
  5
BE
100
AcDbEntity
  8
レイヤー_2
 62
     7
100
AcDbLine
 10
-11.78171
 20
5.170485
 30
0.0
 11
-11.78171
 21
3.992091
 31
0.0
  0
LINE
  5
BD
100
AcDbEntity
  8
レイヤー_2
 62
     7
100
AcDbLine
 10
3.466283
 20
-3.252601
 30
0.0
 11
3.575837
 21
-3.252601
 31
0.0
  0
LINE
  5
BC
100
AcDbEntity
  8
レイヤー_2
 62
     7
100
AcDbLine
 10
2.174372
 20
2.825064
 30
0.0
 11
3.466283
 21
-3.252601
 31
0.0
  0
LINE
  5
BB
100
AcDbEntity
  8
レイヤー_2
 62
     7
100
AcDbLine
 10
-11.680424
 20
3.885637
 30
0.0
 11
1.780253
 21
3.162684
 31
0.0
  0
SPLINE
  5
BA
100
AcDbEntity
  8
レイヤー_2
 62
     7
100
AcDbSpline
210
0.0
220
0.0
230
1.0
 70
     8
 71
     3
 72
     8
 73
     4
 74
     0
 42
0.00000001
 43
0.00000001
 40
0.0
 40
0.0
 40
0.0
 40
0.0
 40
1.0
 40
1.0
 40
1.0
 40
1.0
 10
2.1743720160590274
 20
2.8250644259982636
 30
0.0
 10
2.1337198893229163
 20
3.0167839898003468
 30
0.0
 10
1.9700778537326387
 20
3.1506259494357636
 30
0.0
 10
1.7802530924479165
 20
3.1626837836371524
 30
0.0
  0
SPLINE
  5
B9
100
AcDbEntity
  8
レイヤー_2
 62
     7
100
AcDbSpline
210
0.0
220
0.0
230
1.0
 70
     8
 71
     3
 72
     8
 73
     4
 74
     0
 42
0.00000001
 43
0.00000001
 40
0.0
 40
0.0
 40
0.0
 40
0.0
 40
1.0
 40
1.0
 40
1.0
 40
1.0
 10
6.575826009114583
 20
5.1927062988281243
 30
0.0
 10
6.5654907226562491
 20
5.2424879286024302
 30
0.0
 10
6.5217380099826379
 20
5.2765943739149304
 30
0.0
 10
6.4710951063368052
 20
5.2771111382378466
 30
0.0
  0
SPLINE
  5
B8
100
AcDbEntity
  8
レイヤー_2
 62
     7
100
AcDbSpline
210
0.0
220
0.0
230
1.0
 70
     8
 71
     3
 72
     8
 73
     4
 74
     0
 42
0.00000001
 43
0.00000001
 40
0.0
 40
0.0
 40
0.0
 40
0.0
 40
1.0
 40
1.0
 40
1.0
 40
1.0
 10
-11.781709798177083
 20
3.9920905219184024
 30
0.0
 10
-11.781709798177083
 20
3.9352464463975689
 30
0.0
 10
-11.73726806640625
 20
3.8882208930121522
 30
0.0
 10
-11.680423990885416
 20
3.8856370713975692
 30
0.0
  0
LINE
  5
B7
100
AcDbEntity
  8
レイヤー_2
 62
     7
100
AcDbLine
 10
6.771507
 20
-3.890288
 30
0.0
 11
5.065841
 21
-3.890288
 31
0.0
  0
LINE
  5
B6
100
AcDbEntity
  8
レイヤー_2
 62
     7
100
AcDbLine
 10
7.091557
 20
-3.25174
 30
0.0
 11
7.091557
 21
-3.46568
 31
0.0
  0
LINE
  5
B5
100
AcDbEntity
  8
レイヤー_2
 62
     7
100
AcDbLine
 10
4.745791
 20
-3.46568
 30
0.0
 11
4.745791
 21
-3.25174
 31
0.0
  0
SPLINE
  5
B4
100
AcDbEntity
  8
レイヤー_2
 62
     7
100
AcDbSpline
210
0.0
220
0.0
230
1.0
 70
     8
 71
     3
 72
     8
 73
     4
 74
     0
 42
0.00000001
 43
0.00000001
 40
0.0
 40
0.0
 40
0.0
 40
0.0
 40
1.0
 40
1.0
 40
1.0
 40
1.0
 10
0.2513197157118056
 20
-3.4894510904947915
 30
0.0
 10
0.1593356662326389
 20
-3.4906568739149302
 30
0.0
 10
0.0838880750868055
 20
-3.5654154459635414
 30
0.0
 10
0.0828545464409722
 20
-3.6575717502170138
 30
0.0
  0
LINE
  5
B3
100
AcDbEntity
  8
レイヤー_2
 62
     7
100
AcDbLine
 10
7.181474
 20
-3.46568
 30
0.0
 11
11.585684
 21
-3.489451
 31
0.0
  0
LINE
  5
B2
100
AcDbEntity
  8
レイヤー_2
 62
     7
100
AcDbLine
 10
0.25132
 20
-3.489451
 30
0.0
 11
4.656219
 21
-3.46568
 31
0.0
  0
SPLINE
  5
B1
100
AcDbEntity
  8
レイヤー_2
 62
     7
100
AcDbSpline
210
0.0
220
0.0
230
1.0
 70
     8
 71
     3
 72
     8
 73
     4
 74
     0
 42
0.00000001
 43
0.00000001
 40
0.0
 40
0.0
 40
0.0
 40
0.0
 40
1.0
 40
1.0
 40
1.0
 40
1.0
 10
11.754493543836805
 20
-3.6575717502170138
 30
0.0
 10
11.753115505642359
 20
-3.564726426866319
 30
0.0
 10
11.678012424045138
 20
-3.4906568739149302
 30
0.0
 10
11.58568386501736
 20
-3.4894510904947915
 30
0.0
  0
LINE
  5
B0
100
AcDbEntity
  8
レイヤー_2
 62
     7
100
AcDbLine
 10
0.226171
 20
-5.277111
 30
0.0
 11
11.611178
 21
-5.277111
 31
0.0
  0
LINE
  5
AF
100
AcDbEntity
  8
レイヤー_2
 62
     7
100
AcDbLine
 10
0.119028
 20
-5.277111
 30
0.0
 11
0.226171
 21
-5.277111
 31
0.0
  0
SPLINE
  5
AE
100
AcDbEntity
  8
レイヤー_2
 62
     7
100
AcDbSpline
210
0.0
220
0.0
230
1.0
 70
     8
 71
     3
 72
    11
 73
     7
 74
     0
 42
0.00000001
 43
0.00000001
 40
0.0
 40
0.0
 40
0.0
 40
0.0
 40
1.0
 40
1.0
 40
1.0
 40
2.0
 40
2.0
 40
2.0
 40
2.0
 10
0.0556382921006944
 20
-5.2119988335503464
 30
0.0
 10
0.0556382921006944
 20
-5.2126878526475693
 30
0.0
 10
0.0556382921006944
 20
-5.2130323621961798
 30
0.0
 10
0.0556382921006944
 20
-5.213549126519097
 30
0.0
 10
0.0556382921006944
 20
-5.2490336100260411
 30
0.0
 10
0.0838880750868055
 20
-5.2771111382378466
 30
0.0
 10
0.1190280490451389
 20
-5.2771111382378466
 30
0.0
  0
LINE
  5
AD
100
AcDbEntity
  8
レイヤー_2
 62
     7
100
AcDbLine
 10
11.611178
 20
-5.277111
 30
0.0
 11
11.717976
 21
-5.277111
 31
0.0
  0
SPLINE
  5
AC
100
AcDbEntity
  8
レイヤー_2
 62
     7
100
AcDbSpline
210
0.0
220
0.0
230
1.0
 70
     8
 71
     3
 72
     8
 73
     4
 74
     0
 42
0.00000001
 43
0.00000001
 40
0.0
 40
0.0
 40
0.0
 40
0.0
 40
1.0
 40
1.0
 40
1.0
 40
1.0
 10
11.781709798177083
 20
-5.213549126519097
 30
0.0
 10
11.781709798177083
 20
-5.2130323621961798
 30
0.0
 10
11.781709798177083
 20
-5.2126878526475693
 30
0.0
 10
11.781709798177083
 20
-5.2119988335503464
 30
0.0
  0
SPLINE
  5
AB
100
AcDbEntity
  8
レイヤー_2
 62
     7
100
AcDbSpline
210
0.0
220
0.0
230
1.0
 70
     8
 71
     3
 72
    11
 73
     7
 74
     0
 42
0.00000001
 43
0.00000001
 40
0.0
 40
0.0
 40
0.0
 40
0.0
 40
1.0
 40
1.0
 40
1.0
 40
2.0
 40
2.0
 40
2.0
 40
2.0
 10
11.717975531684028
 20
-5.2771111382378466
 30
0.0
 10
11.717975531684028
 20
-5.2771111382378466
 30
0.0
 10
11.717975531684028
 20
-5.2771111382378466
 30
0.0
 10
11.717975531684028
 20
-5.2771111382378466
 30
0.0
 10
11.753115505642359
 20
-5.2771111382378466
 30
0.0
 10
11.781709798177083
 20
-5.2490336100260411
 30
0.0
 10
11.781709798177083
 20
-5.213549126519097
 30
0.0
  0
LINE
  5
AA
100
AcDbEntity
  8
レイヤー_2
 62
     7
100
AcDbLine
 10
0.082166
 20
-3.682893
 30
0.0
 11
0.055638
 21
-5.211999
 31
0.0
  0
LINE
  5
A9
100
AcDbEntity
  8
レイヤー_2
 62
     7
100
AcDbLine
 10
5.065841
 20
-4.210165
 30
0.0
 11
5.065841
 21
-3.890288
 31
0.0
  0
LINE
  5
A8
100
AcDbEntity
  8
レイヤー_2
 62
     7
100
AcDbLine
 10
6.771507
 20
-3.890288
 30
0.0
 11
6.771507
 21
-4.210165
 31
0.0
  0
LINE
  5
A7
100
AcDbEntity
  8
レイヤー_2
 62
     7
100
AcDbLine
 10
6.771507
 20
-4.210165
 30
0.0
 11
5.065841
 21
-4.210165
 31
0.0
  0
LINE
  5
A6
100
AcDbEntity
  8
レイヤー_2
 62
     7
100
AcDbLine
 10
11.78171
 20
-5.211999
 30
0.0
 11
11.755183
 21
-3.682893
 31
0.0
  0
LINE
  5
A5
100
AcDbEntity
  8
レイヤー_2
 62
     7
100
AcDbLine
 10
7.181474
 20
-3.46568
 30
0.0
 11
4.656219
 21
-3.46568
 31
0.0
  0
POLYLINE
  5
9F
100
AcDbEntity
  8
レイヤー_2
 62
     7
100
AcDb2dPolyline
 66
     1
 10
0.0
 20
0.0
 30
0.0
  0
VERTEX
  5
A0
100
AcDbEntity
  8
レイヤー_2
 62
     7
100
AcDbVertex
100
AcDb2dVertex
 10
0.25132
 20
-3.514773
 30
0.0
  0
VERTEX
  5
A1
100
AcDbEntity
  8
レイヤー_2
 62
     7
100
AcDbVertex
100
AcDb2dVertex
 10
0.25132
 20
-3.496686
 30
0.0
  0
VERTEX
  5
A2
100
AcDbEntity
  8
レイヤー_2
 62
     7
100
AcDbVertex
100
AcDb2dVertex
 10
0.25132
 20
-3.490829
 30
0.0
  0
VERTEX
  5
A3
100
AcDbEntity
  8
レイヤー_2
 62
     7
100
AcDbVertex
100
AcDb2dVertex
 10
0.25132
 20
-3.489451
 30
0.0
  0
SEQEND
  5
A4
100
AcDbEntity
  8
レイヤー_2
 62
     7
  0
LINE
  5
9E
100
AcDbEntity
  8
レイヤー_2
 62
     7
100
AcDbLine
 10
7.091557
 20
-3.252601
 30
0.0
 11
7.091557
 21
-3.46568
 31
0.0
  0
LINE
  5
9D
100
AcDbEntity
  8
レイヤー_2
 62
     7
100
AcDbLine
 10
4.745791
 20
-3.46568
 30
0.0
 11
4.745791
 21
-3.252601
 31
0.0
  0
LINE
  5
9C
100
AcDbEntity
  8
レイヤー_2
 62
     7
100
AcDbLine
 10
6.771507
 20
-4.212577
 30
0.0
 11
5.065841
 21
-4.212577
 31
0.0
  0
LINE
  5
9B
100
AcDbEntity
  8
レイヤー_2
 62
     7
100
AcDbLine
 10
6.771507
 20
-3.8927
 30
0.0
 11
6.771507
 21
-4.212577
 31
0.0
  0
LINE
  5
9A
100
AcDbEntity
  8
レイヤー_2
 62
     7
100
AcDbLine
 10
5.065841
 20
-4.212577
 30
0.0
 11
5.065841
 21
-3.8927
 31
0.0
  0
LINE
  5
99
100
AcDbEntity
  8
レイヤー_2
 62
     7
100
AcDbLine
 10
5.065841
 20
-3.8927
 30
0.0
 11
6.771507
 21
-3.8927
 31
0.0
  0
ENDBLK
  5
C6
100
AcDbEntity
  8
レイヤー_2
100
AcDbBlockEnd
  0
BLOCK
  5
12E
100
AcDbEntity
  8
レイヤー_2
  6
AI9-LType1
 62
     7
100
AcDbBlockBegin
  2
AI9-BLK5
 70
     0
 10
0.0
 20
0.0
 30
0.0
  3
AI9-BLK5
  1

  0
LINE
  5
140
100
AcDbEntity
  8
レイヤー_2
 62
     7
100
AcDbLine
 10
2.524308
 20
1.403446
 30
0.0
 11
-2.568405
 21
1.403446
 31
0.0
  0
POLYLINE
  5
13B
100
AcDbEntity
  8
レイヤー_2
 62
     7
100
AcDb2dPolyline
 66
     1
 10
0.0
 20
0.0
 30
0.0
  0
VERTEX
  5
13C
100
AcDbEntity
  8
レイヤー_2
 62
     7
100
AcDbVertex
100
AcDb2dVertex
 10
2.524308
 20
1.403446
 30
0.0
  0
VERTEX
  5
13D
100
AcDbEntity
  8
レイヤー_2
 62
     7
100
AcDbVertex
100
AcDb2dVertex
 10
2.524308
 20
2.352742
 30
0.0
  0
VERTEX
  5
13E
100
AcDbEntity
  8
レイヤー_2
 62
     7
100
AcDbVertex
100
AcDb2dVertex
 10
2.524308
 20
1.403446
 30
0.0
  0
SEQEND
  5
13F
100
AcDbEntity
  8
レイヤー_2
 62
     7
  0
LINE
  5
13A
100
AcDbEntity
  8
レイヤー_2
 62
     7
100
AcDbLine
 10
-2.326731
 20
-1.975332
 30
0.0
 11
2.259207
 21
-1.975332
 31
0.0
  0
LINE
  5
139
100
AcDbEntity
  8
レイヤー_2
 62
     7
100
AcDbLine
 10
-1.96069
 20
-2.201674
 30
0.0
 11
-2.222345
 21
1.413609
 31
0.0
  0
LINE
  5
138
100
AcDbEntity
  8
レイヤー_2
 62
     7
100
AcDbLine
 10
1.862505
 20
-2.237503
 30
0.0
 11
2.122954
 21
1.396383
 31
0.0
  0
POLYLINE
  5
12F
100
AcDbEntity
  8
レイヤー_2
 62
     7
100
AcDb2dPolyline
 66
     1
 10
0.0
 20
0.0
 30
0.0
  0
VERTEX
  5
130
100
AcDbEntity
  8
レイヤー_2
 62
     7
100
AcDbVertex
100
AcDb2dVertex
 10
-2.568405
 20
2.352742
 30
0.0
  0
VERTEX
  5
131
100
AcDbEntity
  8
レイヤー_2
 62
     7
100
AcDbVertex
100
AcDb2dVertex
 10
-2.568405
 20
1.403446
 30
0.0
  0
VERTEX
  5
132
100
AcDbEntity
  8
レイヤー_2
 62
     7
100
AcDbVertex
100
AcDb2dVertex
 10
-2.322253
 20
-1.965858
 30
0.0
  0
VERTEX
  5
133
100
AcDbEntity
  8
レイヤー_2
 62
     7
100
AcDbVertex
100
AcDb2dVertex
 10
-2.067488
 20
-2.201674
 30
0.0
  0
VERTEX
  5
134
100
AcDbEntity
  8
レイヤー_2
 62
     7
100
AcDbVertex
100
AcDb2dVertex
 10
2.003926
 20
-2.220278
 30
0.0
  0
VERTEX
  5
135
100
AcDbEntity
  8
レイヤー_2
 62
     7
100
AcDbVertex
100
AcDb2dVertex
 10
2.259207
 20
-1.975332
 30
0.0
  0
VERTEX
  5
136
100
AcDbEntity
  8
レイヤー_2
 62
     7
100
AcDbVertex
100
AcDb2dVertex
 10
2.524308
 20
1.403446
 30
0.0
  0
SEQEND
  5
137
100
AcDbEntity
  8
レイヤー_2
 62
     7
  0
ENDBLK
  5
141
100
AcDbEntity
  8
レイヤー_2
100
AcDbBlockEnd
  0
BLOCK
  5
519
100
AcDbEntity
  8
レイヤー_2
 62
     7
100
AcDbBlockBegin
  2
AI9-BLK6
 70
     0
 10
0.0
 20
0.0
 30
0.0
  3
AI9-BLK6
  1

  0
LINE
  5
52B
100
AcDbEntity
  8
レイヤー_2
 62
     7
100
AcDbLine
 10
2.524308
 20
1.403446
 30
0.0
 11
-2.568405
 21
1.403446
 31
0.0
  0
POLYLINE
  5
526
100
AcDbEntity
  8
レイヤー_2
 62
     7
100
AcDb2dPolyline
 66
     1
 10
0.0
 20
0.0
 30
0.0
  0
VERTEX
  5
527
100
AcDbEntity
  8
レイヤー_2
 62
     7
100
AcDbVertex
100
AcDb2dVertex
 10
2.524308
 20
1.403446
 30
0.0
  0
VERTEX
  5
528
100
AcDbEntity
  8
レイヤー_2
 62
     7
100
AcDbVertex
100
AcDb2dVertex
 10
2.524308
 20
2.352742
 30
0.0
  0
VERTEX
  5
529
100
AcDbEntity
  8
レイヤー_2
 62
     7
100
AcDbVertex
100
AcDb2dVertex
 10
2.524308
 20
1.403446
 30
0.0
  0
SEQEND
  5
52A
100
AcDbEntity
  8
レイヤー_2
 62
     7
  0
LINE
  5
525
100
AcDbEntity
  8
レイヤー_2
 62
     7
100
AcDbLine
 10
-2.326731
 20
-1.975332
 30
0.0
 11
2.259207
 21
-1.975332
 31
0.0
  0
LINE
  5
524
100
AcDbEntity
  8
レイヤー_2
 62
     7
100
AcDbLine
 10
-1.96069
 20
-2.201674
 30
0.0
 11
-2.222345
 21
1.413609
 31
0.0
  0
LINE
  5
523
100
AcDbEntity
  8
レイヤー_2
 62
     7
100
AcDbLine
 10
1.862505
 20
-2.237503
 30
0.0
 11
2.122954
 21
1.396383
 31
0.0
  0
POLYLINE
  5
51A
100
AcDbEntity
  8
レイヤー_2
 62
     7
100
AcDb2dPolyline
 66
     1
 10
0.0
 20
0.0
 30
0.0
  0
VERTEX
  5
51B
100
AcDbEntity
  8
レイヤー_2
 62
     7
100
AcDbVertex
100
AcDb2dVertex
 10
-2.568405
 20
2.352742
 30
0.0
  0
VERTEX
  5
51C
100
AcDbEntity
  8
レイヤー_2
 62
     7
100
AcDbVertex
100
AcDb2dVertex
 10
-2.568405
 20
1.403446
 30
0.0
  0
VERTEX
  5
51D
100
AcDbEntity
  8
レイヤー_2
 62
     7
100
AcDbVertex
100
AcDb2dVertex
 10
-2.322253
 20
-1.965858
 30
0.0
  0
VERTEX
  5
51E
100
AcDbEntity
  8
レイヤー_2
 62
     7
100
AcDbVertex
100
AcDb2dVertex
 10
-2.067488
 20
-2.201674
 30
0.0
  0
VERTEX
  5
51F
100
AcDbEntity
  8
レイヤー_2
 62
     7
100
AcDbVertex
100
AcDb2dVertex
 10
2.003926
 20
-2.220278
 30
0.0
  0
VERTEX
  5
520
100
AcDbEntity
  8
レイヤー_2
 62
     7
100
AcDbVertex
100
AcDb2dVertex
 10
2.259207
 20
-1.975332
 30
0.0
  0
VERTEX
  5
521
100
AcDbEntity
  8
レイヤー_2
 62
     7
100
AcDbVertex
100
AcDb2dVertex
 10
2.524308
 20
1.403446
 30
0.0
  0
SEQEND
  5
522
100
AcDbEntity
  8
レイヤー_2
 62
     7
  0
ENDBLK
  5
52C
100
AcDbEntity
  8
レイヤー_2
100
AcDbBlockEnd
  0
BLOCK
  5
534
100
AcDbEntity
  8
レイヤー_2
 62
     7
100
AcDbBlockBegin
  2
AI9-BLK7
 70
     0
 10
0.0
 20
0.0
 30
0.0
  3
AI9-BLK7
  1

  0
MTEXT
  5
536
100
AcDbEntity
  8
レイヤー_2
 62
     7
100
AcDbMText
 10
-9.383751
 20
3.60407
 30
0.0
 40
2.728843
 41
0.0
 71
     1
 72
     2
  1
\fMS PGothic|b0|i0|c128;\H2.7288;\C7;\U+63A5\U+7D9A\U+30BD\U+30B1\U+30C3\U+30C8
  7
STD
210
0.0
220
0.0
230
1.0
 73
     1
 44
1.0
  0
MTEXT
  5
535
100
AcDbEntity
  8
レイヤー_2
 62
     7
100
AcDbMText
 10
-9.383751
 20
-0.797039
 30
0.0
 40
2.728843
 41
0.0
 71
     1
 72
     2
  1
\fMS PGothic|b0|i0|c128;\H2.7288;\C7;\U+FF08\U+9006\U+6B62\U+5F01\U+4ED8\U+FF09
  7
STD
210
0.0
220
0.0
230
1.0
 73
     1
 44
1.0
  0
ENDBLK
  5
537
100
AcDbEntity
  8
レイヤー_2
100
AcDbBlockEnd
  0
BLOCK
  5
53A
100
AcDbEntity
  8
レイヤー_2
 62
     7
100
AcDbBlockBegin
  2
AI9-BLK8
 70
     0
 10
0.0
 20
0.0
 30
0.0
  3
AI9-BLK8
  1

  0
INSERT
  5
53C
100
AcDbEntity
  8
レイヤー_2
 62
     7
100
AcDbBlockReference
  2
AI9-BLK9
 10
0.0
 20
0.0
 30
0.0
  0
ENDBLK
  5
591
100
AcDbEntity
  8
レイヤー_2
100
AcDbBlockEnd
  0
BLOCK
  5
53D
100
AcDbEntity
  8
レイヤー_2
 62
     7
100
AcDbBlockBegin
  2
AI9-BLK9
 70
     0
 10
0.0
 20
0.0
 30
0.0
  3
AI9-BLK9
  1

  0
INSERT
  5
568
100
AcDbEntity
  8
レイヤー_2
 62
     7
100
AcDbBlockReference
  2
AI9-BLK11
 10
-21.23109
 20
0.0
 30
0.0
  0
INSERT
  5
53F
100
AcDbEntity
  8
レイヤー_2
 62
     7
100
AcDbBlockReference
  2
AI9-BLK10
 10
21.231262
 20
0.0
 30
0.0
  0
ENDBLK
  5
590
100
AcDbEntity
  8
レイヤー_2
100
AcDbBlockEnd
  0
BLOCK
  5
540
100
AcDbEntity
  8
レイヤー_2
 62
     7
100
AcDbBlockBegin
  2
AI9-BLK10
 70
     0
 10
0.0
 20
0.0
 30
0.0
  3
AI9-BLK10
  1

  0
LINE
  5
565
100
AcDbEntity
  8
レイヤー_2
 62
     7
100
AcDbLine
 10
-2.065335
 20
-0.639754
 30
0.0
 11
-1.944067
 21
-0.639754
 31
0.0
  0
LINE
  5
564
100
AcDbEntity
  8
レイヤー_2
 62
     7
100
AcDbLine
 10
-1.544436
 20
-3.556372
 30
0.0
 11
-1.544436
 21
-0.639754
 31
0.0
  0
LINE
  5
563
100
AcDbEntity
  8
レイヤー_2
 62
     7
100
AcDbLine
 10
-1.944067
 20
-0.639754
 30
0.0
 11
-2.065335
 21
-0.428914
 31
0.0
  0
LINE
  5
562
100
AcDbEntity
  8
レイヤー_2
 62
     7
100
AcDbLine
 10
1.943378
 20
-0.639754
 30
0.0
 11
2.06499
 21
-0.639754
 31
0.0
  0
LINE
  5
561
100
AcDbEntity
  8
レイヤー_2
 62
     7
100
AcDbLine
 10
1.515498
 20
-0.639754
 30
0.0
 11
1.515498
 21
-3.556372
 31
0.0
  0
LINE
  5
560
100
AcDbEntity
  8
レイヤー_2
 62
     7
100
AcDbLine
 10
2.06499
 20
-0.428914
 30
0.0
 11
1.943378
 21
-0.639754
 31
0.0
  0
LINE
  5
55F
100
AcDbEntity
  8
レイヤー_2
 62
     7
100
AcDbLine
 10
-1.75941
 20
-3.556372
 30
0.0
 11
0.0
 21
-3.556372
 31
0.0
  0
LINE
  5
55E
100
AcDbEntity
  8
レイヤー_2
 62
     7
100
AcDbLine
 10
2.06499
 20
-3.556372
 30
0.0
 11
-2.065335
 21
-3.556372
 31
0.0
  0
LINE
  5
55D
100
AcDbEntity
  8
レイヤー_2
 62
     7
100
AcDbLine
 10
2.885267
 20
3.338642
 30
0.0
 11
3.158119
 21
3.191881
 31
0.0
  0
LINE
  5
55C
100
AcDbEntity
  8
レイヤー_2
 62
     7
100
AcDbLine
 10
-3.158119
 20
3.191881
 30
0.0
 11
-2.885267
 21
3.338642
 31
0.0
  0
LINE
  5
55B
100
AcDbEntity
  8
レイヤー_2
 62
     7
100
AcDbLine
 10
3.158119
 20
0.167087
 30
0.0
 11
2.885267
 21
0.021015
 31
0.0
  0
LINE
  5
55A
100
AcDbEntity
  8
レイヤー_2
 62
     7
100
AcDbLine
 10
-2.885267
 20
0.021015
 30
0.0
 11
-3.158119
 21
0.167087
 31
0.0
  0
LINE
  5
559
100
AcDbEntity
  8
レイヤー_2
 62
     7
100
AcDbLine
 10
2.793628
 20
3.556372
 30
0.0
 11
-2.794317
 21
3.556372
 31
0.0
  0
LINE
  5
558
100
AcDbEntity
  8
レイヤー_2
 62
     7
100
AcDbLine
 10
1.91754
 20
3.191881
 30
0.0
 11
1.215085
 21
3.191881
 31
0.0
  0
LINE
  5
557
100
AcDbEntity
  8
レイヤー_2
 62
     7
100
AcDbLine
 10
-1.215085
 20
3.191881
 30
0.0
 11
-1.91754
 21
3.191881
 31
0.0
  0
LINE
  5
556
100
AcDbEntity
  8
レイヤー_2
 62
     7
100
AcDbLine
 10
-3.158119
 20
3.191881
 30
0.0
 11
-2.794317
 21
3.556372
 31
0.0
  0
LINE
  5
555
100
AcDbEntity
  8
レイヤー_2
 62
     7
100
AcDbLine
 10
3.158119
 20
3.191881
 30
0.0
 11
2.793628
 21
3.556372
 31
0.0
  0
LINE
  5
554
100
AcDbEntity
  8
レイヤー_2
 62
     7
100
AcDbLine
 10
-2.794317
 20
-0.198093
 30
0.0
 11
2.793628
 21
-0.198093
 31
0.0
  0
LINE
  5
553
100
AcDbEntity
  8
レイヤー_2
 62
     7
100
AcDbLine
 10
-2.794317
 20
-0.198093
 30
0.0
 11
-3.158119
 21
0.167087
 31
0.0
  0
LINE
  5
552
100
AcDbEntity
  8
レイヤー_2
 62
     7
100
AcDbLine
 10
-1.91754
 20
0.167087
 30
0.0
 11
-1.215085
 21
0.167087
 31
0.0
  0
LINE
  5
551
100
AcDbEntity
  8
レイヤー_2
 62
     7
100
AcDbLine
 10
1.215085
 20
0.167087
 30
0.0
 11
1.91754
 21
0.167087
 31
0.0
  0
LINE
  5
550
100
AcDbEntity
  8
レイヤー_2
 62
     7
100
AcDbLine
 10
2.793628
 20
-0.198093
 30
0.0
 11
3.158119
 21
0.167087
 31
0.0
  0
LINE
  5
54F
100
AcDbEntity
  8
レイヤー_2
 62
     7
100
AcDbLine
 10
3.158119
 20
3.191881
 30
0.0
 11
3.158119
 21
0.167087
 31
0.0
  0
LINE
  5
54E
100
AcDbEntity
  8
レイヤー_2
 62
     7
100
AcDbLine
 10
1.91754
 20
3.191881
 30
0.0
 11
1.91754
 21
0.167087
 31
0.0
  0
LINE
  5
54D
100
AcDbEntity
  8
レイヤー_2
 62
     7
100
AcDbLine
 10
1.215085
 20
3.191881
 30
0.0
 11
1.215085
 21
0.167087
 31
0.0
  0
LINE
  5
54C
100
AcDbEntity
  8
レイヤー_2
 62
     7
100
AcDbLine
 10
-1.215085
 20
3.191881
 30
0.0
 11
-1.215085
 21
0.167087
 31
0.0
  0
LINE
  5
54B
100
AcDbEntity
  8
レイヤー_2
 62
     7
100
AcDbLine
 10
-1.91754
 20
3.191881
 30
0.0
 11
-1.91754
 21
0.167087
 31
0.0
  0
LINE
  5
54A
100
AcDbEntity
  8
レイヤー_2
 62
     7
100
AcDbLine
 10
-3.158119
 20
3.191881
 30
0.0
 11
-3.158119
 21
0.167087
 31
0.0
  0
SPLINE
  5
549
100
AcDbEntity
  8
レイヤー_2
 62
     7
100
AcDbSpline
210
0.0
220
0.0
230
1.0
 70
     8
 71
     3
 72
     8
 73
     4
 74
     0
 42
0.00000001
 43
0.00000001
 40
0.0
 40
0.0
 40
0.0
 40
0.0
 40
1.0
 40
1.0
 40
1.0
 40
1.0
 10
2.8852674696180554
 20
3.3386420355902775
 30
0.0
 10
2.5659071180555553
 20
3.5095187717013885
 30
0.0
 10
2.1717881944444444
 20
3.4495741102430553
 30
0.0
 10
1.9175401475694442
 20
3.1918809678819442
 30
0.0
  0
SPLINE
  5
548
100
AcDbEntity
  8
レイヤー_2
 62
     7
100
AcDbSpline
210
0.0
220
0.0
230
1.0
 70
     8
 71
     3
 72
     8
 73
     4
 74
     0
 42
0.00000001
 43
0.00000001
 40
0.0
 40
0.0
 40
0.0
 40
0.0
 40
1.0
 40
1.0
 40
1.0
 40
1.0
 10
-1.9175401475694442
 20
3.1918809678819442
 30
0.0
 10
-2.1721327039930554
 20
3.4495741102430553
 30
0.0
 10
-2.5659071180555553
 20
3.5095187717013885
 30
0.0
 10
-2.8852674696180554
 20
3.3386420355902775
 30
0.0
  0
SPLINE
  5
547
100
AcDbEntity
  8
レイヤー_2
 62
     7
100
AcDbSpline
210
0.0
220
0.0
230
1.0
 70
     8
 71
     3
 72
     8
 73
     4
 74
     0
 42
0.00000001
 43
0.00000001
 40
0.0
 40
0.0
 40
0.0
 40
0.0
 40
1.0
 40
1.0
 40
1.0
 40
1.0
 10
1.2150851779513887
 20
3.1918809678819442
 30
0.0
 10
0.4368381076388889
 20
3.5164089626736108
 30
0.0
 10
-0.4378716362847222
 20
3.5164089626736108
 30
0.0
 10
-1.2150851779513887
 20
3.1918809678819442
 30
0.0
  0
SPLINE
  5
546
100
AcDbEntity
  8
レイヤー_2
 62
     7
100
AcDbSpline
210
0.0
220
0.0
230
1.0
 70
     8
 71
     3
 72
     8
 73
     4
 74
     0
 42
0.00000001
 43
0.00000001
 40
0.0
 40
0.0
 40
0.0
 40
0.0
 40
1.0
 40
1.0
 40
1.0
 40
1.0
 10
1.9175401475694442
 20
0.1670871310763889
 30
0.0
 10
2.1717881944444444
 20
-0.0912950303819444
 30
0.0
 10
2.5659071180555553
 20
-0.1505506727430555
 30
0.0
 10
2.8852674696180554
 20
0.0210150824652778
 30
0.0
  0
SPLINE
  5
545
100
AcDbEntity
  8
レイヤー_2
 62
     7
100
AcDbSpline
210
0.0
220
0.0
230
1.0
 70
     8
 71
     3
 72
     8
 73
     4
 74
     0
 42
0.00000001
 43
0.00000001
 40
0.0
 40
0.0
 40
0.0
 40
0.0
 40
1.0
 40
1.0
 40
1.0
 40
1.0
 10
-2.8852674696180554
 20
0.0210150824652778
 30
0.0
 10
-2.5659071180555553
 20
-0.1505506727430555
 30
0.0
 10
-2.1721327039930554
 20
-0.0912950303819444
 30
0.0
 10
-1.9175401475694442
 20
0.1670871310763889
 30
0.0
  0
SPLINE
  5
544
100
AcDbEntity
  8
レイヤー_2
 62
     7
100
AcDbSpline
210
0.0
220
0.0
230
1.0
 70
     8
 71
     3
 72
     8
 73
     4
 74
     0
 42
0.00000001
 43
0.00000001
 40
0.0
 40
0.0
 40
0.0
 40
0.0
 40
1.0
 40
1.0
 40
1.0
 40
1.0
 10
-1.2150851779513887
 20
0.1670871310763889
 30
0.0
 10
-0.4378716362847222
 20
-0.1567518446180556
 30
0.0
 10
0.4368381076388889
 20
-0.1567518446180556
 30
0.0
 10
1.2150851779513887
 20
0.1670871310763889
 30
0.0
  0
LINE
  5
543
100
AcDbEntity
  8
レイヤー_2
 62
     7
100
AcDbLine
 10
-2.065335
 20
-0.428914
 30
0.0
 11
-2.065335
 21
-3.556372
 31
0.0
  0
LINE
  5
542
100
AcDbEntity
  8
レイヤー_2
 62
     7
100
AcDbLine
 10
2.06499
 20
-3.556372
 30
0.0
 11
2.06499
 21
-0.428914
 31
0.0
  0
LINE
  5
541
100
AcDbEntity
  8
レイヤー_2
 62
     7
100
AcDbLine
 10
1.943378
 20
-0.639754
 30
0.0
 11
-1.944067
 21
-0.639754
 31
0.0
  0
ENDBLK
  5
566
100
AcDbEntity
  8
レイヤー_2
100
AcDbBlockEnd
  0
BLOCK
  5
569
100
AcDbEntity
  8
レイヤー_2
 62
     7
100
AcDbBlockBegin
  2
AI9-BLK11
 70
     0
 10
0.0
 20
0.0
 30
0.0
  3
AI9-BLK11
  1

  0
LINE
  5
58E
100
AcDbEntity
  8
レイヤー_2
 62
     7
100
AcDbLine
 10
-2.065162
 20
-0.639754
 30
0.0
 11
-1.94424
 21
-0.639754
 31
0.0
  0
LINE
  5
58D
100
AcDbEntity
  8
レイヤー_2
 62
     7
100
AcDbLine
 10
-1.544953
 20
-3.556372
 30
0.0
 11
-1.544953
 21
-0.639754
 31
0.0
  0
LINE
  5
58C
100
AcDbEntity
  8
レイヤー_2
 62
     7
100
AcDbLine
 10
-1.94424
 20
-0.639754
 30
0.0
 11
-2.065162
 21
-0.428914
 31
0.0
  0
LINE
  5
58B
100
AcDbEntity
  8
レイヤー_2
 62
     7
100
AcDbLine
 10
1.943206
 20
-0.639754
 30
0.0
 11
2.065162
 21
-0.639754
 31
0.0
  0
LINE
  5
58A
100
AcDbEntity
  8
レイヤー_2
 62
     7
100
AcDbLine
 10
1.514981
 20
-0.639754
 30
0.0
 11
1.514981
 21
-3.556372
 31
0.0
  0
LINE
  5
589
100
AcDbEntity
  8
レイヤー_2
 62
     7
100
AcDbLine
 10
2.065162
 20
-0.428914
 30
0.0
 11
1.943206
 21
-0.639754
 31
0.0
  0
LINE
  5
588
100
AcDbEntity
  8
レイヤー_2
 62
     7
100
AcDbLine
 10
-1.759238
 20
-3.556372
 30
0.0
 11
0.000172
 21
-3.556372
 31
0.0
  0
LINE
  5
587
100
AcDbEntity
  8
レイヤー_2
 62
     7
100
AcDbLine
 10
2.065162
 20
-3.556372
 30
0.0
 11
-2.065162
 21
-3.556372
 31
0.0
  0
LINE
  5
586
100
AcDbEntity
  8
レイヤー_2
 62
     7
100
AcDbLine
 10
2.885095
 20
3.338642
 30
0.0
 11
3.158291
 21
3.191881
 31
0.0
  0
LINE
  5
585
100
AcDbEntity
  8
レイヤー_2
 62
     7
100
AcDbLine
 10
-3.158291
 20
3.191881
 30
0.0
 11
-2.88544
 21
3.338642
 31
0.0
  0
LINE
  5
584
100
AcDbEntity
  8
レイヤー_2
 62
     7
100
AcDbLine
 10
3.158291
 20
0.167087
 30
0.0
 11
2.885095
 21
0.021015
 31
0.0
  0
LINE
  5
583
100
AcDbEntity
  8
レイヤー_2
 62
     7
100
AcDbLine
 10
-2.88544
 20
0.021015
 30
0.0
 11
-3.158291
 21
0.167087
 31
0.0
  0
LINE
  5
582
100
AcDbEntity
  8
レイヤー_2
 62
     7
100
AcDbLine
 10
2.793456
 20
3.556372
 30
0.0
 11
-2.794489
 21
3.556372
 31
0.0
  0
LINE
  5
581
100
AcDbEntity
  8
レイヤー_2
 62
     7
100
AcDbLine
 10
1.917712
 20
3.191881
 30
0.0
 11
1.214913
 21
3.191881
 31
0.0
  0
LINE
  5
580
100
AcDbEntity
  8
レイヤー_2
 62
     7
100
AcDbLine
 10
-1.214568
 20
3.191881
 30
0.0
 11
-1.917368
 21
3.191881
 31
0.0
  0
LINE
  5
57F
100
AcDbEntity
  8
レイヤー_2
 62
     7
100
AcDbLine
 10
-3.158291
 20
3.191881
 30
0.0
 11
-2.794489
 21
3.556372
 31
0.0
  0
LINE
  5
57E
100
AcDbEntity
  8
レイヤー_2
 62
     7
100
AcDbLine
 10
3.158291
 20
3.191881
 30
0.0
 11
2.793456
 21
3.556372
 31
0.0
  0
LINE
  5
57D
100
AcDbEntity
  8
レイヤー_2
 62
     7
100
AcDbLine
 10
-2.794489
 20
-0.198093
 30
0.0
 11
2.793456
 21
-0.198093
 31
0.0
  0
LINE
  5
57C
100
AcDbEntity
  8
レイヤー_2
 62
     7
100
AcDbLine
 10
-2.794489
 20
-0.198093
 30
0.0
 11
-3.158291
 21
0.167087
 31
0.0
  0
LINE
  5
57B
100
AcDbEntity
  8
レイヤー_2
 62
     7
100
AcDbLine
 10
-1.917368
 20
0.167087
 30
0.0
 11
-1.214568
 21
0.167087
 31
0.0
  0
LINE
  5
57A
100
AcDbEntity
  8
レイヤー_2
 62
     7
100
AcDbLine
 10
1.214913
 20
0.167087
 30
0.0
 11
1.917712
 21
0.167087
 31
0.0
  0
LINE
  5
579
100
AcDbEntity
  8
レイヤー_2
 62
     7
100
AcDbLine
 10
2.793456
 20
-0.198093
 30
0.0
 11
3.158291
 21
0.167087
 31
0.0
  0
LINE
  5
578
100
AcDbEntity
  8
レイヤー_2
 62
     7
100
AcDbLine
 10
3.158291
 20
3.191881
 30
0.0
 11
3.158291
 21
0.167087
 31
0.0
  0
LINE
  5
577
100
AcDbEntity
  8
レイヤー_2
 62
     7
100
AcDbLine
 10
1.917712
 20
3.191881
 30
0.0
 11
1.917712
 21
0.167087
 31
0.0
  0
LINE
  5
576
100
AcDbEntity
  8
レイヤー_2
 62
     7
100
AcDbLine
 10
1.214913
 20
3.191881
 30
0.0
 11
1.214913
 21
0.167087
 31
0.0
  0
LINE
  5
575
100
AcDbEntity
  8
レイヤー_2
 62
     7
100
AcDbLine
 10
-1.214568
 20
3.191881
 30
0.0
 11
-1.214568
 21
0.167087
 31
0.0
  0
LINE
  5
574
100
AcDbEntity
  8
レイヤー_2
 62
     7
100
AcDbLine
 10
-1.917368
 20
3.191881
 30
0.0
 11
-1.917368
 21
0.167087
 31
0.0
  0
LINE
  5
573
100
AcDbEntity
  8
レイヤー_2
 62
     7
100
AcDbLine
 10
-3.158291
 20
3.191881
 30
0.0
 11
-3.158291
 21
0.167087
 31
0.0
  0
SPLINE
  5
572
100
AcDbEntity
  8
レイヤー_2
 62
     7
100
AcDbSpline
210
0.0
220
0.0
230
1.0
 70
     8
 71
     3
 72
     8
 73
     4
 74
     0
 42
0.00000001
 43
0.00000001
 40
0.0
 40
0.0
 40
0.0
 40
0.0
 40
1.0
 40
1.0
 40
1.0
 40
1.0
 10
2.8850952148437496
 20
3.3386420355902775
 30
0.0
 10
2.566079372829861
 20
3.5095187717013885
 30
0.0
 10
2.1719604492187496
 20
3.4495741102430553
 30
0.0
 10
1.9177124023437497
 20
3.1918809678819442
 30
0.0
  0
SPLINE
  5
571
100
AcDbEntity
  8
レイヤー_2
 62
     7
100
AcDbSpline
210
0.0
220
0.0
230
1.0
 70
     8
 71
     3
 72
     8
 73
     4
 74
     0
 42
0.00000001
 43
0.00000001
 40
0.0
 40
0.0
 40
0.0
 40
0.0
 40
1.0
 40
1.0
 40
1.0
 40
1.0
 10
-1.9173678927951388
 20
3.1918809678819442
 30
0.0
 10
-2.1716159396701387
 20
3.4495741102430553
 30
0.0
 10
-2.5657348632812496
 20
3.5095187717013885
 30
0.0
 10
-2.8854397243923606
 20
3.3386420355902775
 30
0.0
  0
SPLINE
  5
570
100
AcDbEntity
  8
レイヤー_2
 62
     7
100
AcDbSpline
210
0.0
220
0.0
230
1.0
 70
     8
 71
     3
 72
     8
 73
     4
 74
     0
 42
0.00000001
 43
0.00000001
 40
0.0
 40
0.0
 40
0.0
 40
0.0
 40
1.0
 40
1.0
 40
1.0
 40
1.0
 10
1.2149129231770832
 20
3.1918809678819442
 30
0.0
 10
0.4370103624131944
 20
3.5164089626736108
 30
0.0
 10
-0.4376993815104167
 20
3.5164089626736108
 30
0.0
 10
-1.214568413628472
 20
3.1918809678819442
 30
0.0
  0
SPLINE
  5
56F
100
AcDbEntity
  8
レイヤー_2
 62
     7
100
AcDbSpline
210
0.0
220
0.0
230
1.0
 70
     8
 71
     3
 72
     8
 73
     4
 74
     0
 42
0.00000001
 43
0.00000001
 40
0.0
 40
0.0
 40
0.0
 40
0.0
 40
1.0
 40
1.0
 40
1.0
 40
1.0
 10
1.9177124023437497
 20
0.1670871310763889
 30
0.0
 10
2.1719604492187496
 20
-0.0912950303819444
 30
0.0
 10
2.566079372829861
 20
-0.1505506727430555
 30
0.0
 10
2.8850952148437496
 20
0.0210150824652778
 30
0.0
  0
SPLINE
  5
56E
100
AcDbEntity
  8
レイヤー_2
 62
     7
100
AcDbSpline
210
0.0
220
0.0
230
1.0
 70
     8
 71
     3
 72
     8
 73
     4
 74
     0
 42
0.00000001
 43
0.00000001
 40
0.0
 40
0.0
 40
0.0
 40
0.0
 40
1.0
 40
1.0
 40
1.0
 40
1.0
 10
-2.8854397243923606
 20
0.0210150824652778
 30
0.0
 10
-2.5657348632812496
 20
-0.1505506727430555
 30
0.0
 10
-2.1716159396701387
 20
-0.0912950303819444
 30
0.0
 10
-1.9173678927951388
 20
0.1670871310763889
 30
0.0
  0
SPLINE
  5
56D
100
AcDbEntity
  8
レイヤー_2
 62
     7
100
AcDbSpline
210
0.0
220
0.0
230
1.0
 70
     8
 71
     3
 72
     8
 73
     4
 74
     0
 42
0.00000001
 43
0.00000001
 40
0.0
 40
0.0
 40
0.0
 40
0.0
 40
1.0
 40
1.0
 40
1.0
 40
1.0
 10
-1.214568413628472
 20
0.1670871310763889
 30
0.0
 10
-0.4376993815104167
 20
-0.1567518446180556
 30
0.0
 10
0.4370103624131944
 20
-0.1567518446180556
 30
0.0
 10
1.2149129231770832
 20
0.1670871310763889
 30
0.0
  0
LINE
  5
56C
100
AcDbEntity
  8
レイヤー_2
 62
     7
100
AcDbLine
 10
-2.065162
 20
-0.428914
 30
0.0
 11
-2.065162
 21
-3.556372
 31
0.0
  0
LINE
  5
56B
100
AcDbEntity
  8
レイヤー_2
 62
     7
100
AcDbLine
 10
2.065162
 20
-3.556372
 30
0.0
 11
2.065162
 21
-0.428914
 31
0.0
  0
LINE
  5
56A
100
AcDbEntity
  8
レイヤー_2
 62
     7
100
AcDbLine
 10
1.943206
 20
-0.639754
 30
0.0
 11
-1.94424
 21
-0.639754
 31
0.0
  0
ENDBLK
  5
58F
100
AcDbEntity
  8
レイヤー_2
100
AcDbBlockEnd
  0
ENDSEC
  0
SECTION
  2
ENTITIES
  0
MTEXT
  5
5BC
100
AcDbEntity
  8
レイヤー_1
 62
     7
100
AcDbMText
 10
47.801389
 20
55.180324
 30
0.0
 40
3.674768
 41
0.0
 71
     1
 72
     2
  1
\fMS Gothic|b0|i0|c128;\H3.6748;\C7;\U+0032\U+0030\U+002E\U+0037\U+0031\U+0033\U+002E\U+0037\U+0033\U+0032\U+002E\U+0058\U+0058
  7
STD
210
0.0
220
0.0
230
1.0
 73
     1
 44
1.0
  0
MTEXT
  5
5BB
100
AcDbEntity
  8
レイヤー_1
 62
     7
100
AcDbMText
 10
39.6875
 20
57.666567
 30
0.0
 40
1.574901
 41
0.0
 71
     1
 72
     2
  1
\fOsaka|b0|i0|c128;\H1.5749;\C7;\U+54C1\U+756A
  7
STD
210
0.0
220
0.0
230
1.0
 73
     1
 44
1.0
  0
MTEXT
  5
5BA
100
AcDbEntity
  8
レイヤー_1
 62
     7
100
AcDbMText
 10
47.801389
 20
34.017542
 30
0.0
 40
3.149486
 41
0.0
 71
     1
 72
     2
  1
\fOsaka|b0|i0|c128;\H3.1495;\C7;\U+FF13\U+7A74\U+578B\U+FF12\U+30D0\U+30EB\U+30D6\U+6D17\U+9762\U+7528\U+6DF7\U+5408\U+6813
  7
STD
210
0.0
220
0.0
230
1.0
 73
     1
 44
1.0
  0
MTEXT
  5
5B9
100
AcDbEntity
  8
レイヤー_1
 62
     7
100
AcDbMText
 10
39.6875
 20
36.499901
 30
0.0
 40
1.574901
 41
0.0
 71
     1
 72
     2
  1
\fOsaka|b0|i0|c128;\H1.5749;\C7;\U+54C1
  7
STD
210
0.0
220
0.0
230
1.0
 73
     1
 44
1.0
  0
MTEXT
  5
5B8
100
AcDbEntity
  8
レイヤー_1
 62
     7
100
AcDbMText
 10
47.801389
 20
44.013142
 30
0.0
 40
3.149486
 41
0.0
 71
     1
 72
     2
  1
\fMS Gothic|b0|i0|c128;\H3.1495;\C7;\U+0053\U+0055\U+0050\U+0045\U+0052\U+004E\U+004F\U+0056\U+0041
  7
STD
210
0.0
220
0.0
230
1.0
 73
     1
 44
1.0
  0
POLYLINE
  5
5B2
100
AcDbEntity
  8
レイヤー_1
 62
     7
100
AcDb2dPolyline
 66
     1
 10
0.0
 20
0.0
 30
0.0
 70
     1
  0
VERTEX
  5
5B3
100
AcDbEntity
  8
レイヤー_1
 62
     7
100
AcDbVertex
100
AcDb2dVertex
 10
23.636111
 20
27.163889
 30
0.0
  0
VERTEX
  5
5B4
100
AcDbEntity
  8
レイヤー_1
 62
     7
100
AcDbVertex
100
AcDb2dVertex
 10
198.613889
 20
27.163889
 30
0.0
  0
VERTEX
  5
5B5
100
AcDbEntity
  8
レイヤー_1
 62
     7
100
AcDbVertex
100
AcDb2dVertex
 10
198.613889
 20
276.577778
 30
0.0
  0
VERTEX
  5
5B6
100
AcDbEntity
  8
レイヤー_1
 62
     7
100
AcDbVertex
100
AcDb2dVertex
 10
23.636111
 20
276.577778
 30
0.0
  0
SEQEND
  5
5B7
100
AcDbEntity
  8
レイヤー_1
 62
     7
  0
LINE
  5
5B1
100
AcDbEntity
  8
レイヤー_1
 62
     7
100
AcDbLine
 10
170.568056
 20
37.570833
 30
0.0
 11
27.693056
 21
37.570833
 31
0.0
  0
LINE
  5
5B0
100
AcDbEntity
  8
レイヤー_1
 62
     7
100
AcDbLine
 10
170.568056
 20
48.154167
 30
0.0
 11
27.693056
 21
48.154167
 31
0.0
  0
LINE
  5
5AF
100
AcDbEntity
  8
レイヤー_1
 62
     7
100
AcDbLine
 10
23.636111
 20
58.913889
 30
0.0
 11
198.261111
 21
58.913889
 31
0.0
  0
LINE
  5
5AE
100
AcDbEntity
  8
レイヤー_1
 62
     7
100
AcDbLine
 10
170.744444
 20
58.913889
 30
0.0
 11
170.744444
 21
27.516667
 31
0.0
  0
MTEXT
  5
5AD
100
AcDbEntity
  8
レイヤー_1
 62
     7
100
AcDbMText
 10
29.104167
 20
47.083234
 30
0.0
 40
1.574901
 41
0.0
 71
     1
 72
     2
  1
\fOsaka|b0|i0|c128;\H1.5749;\C7;\U+30BB\U+30EC\U+30AF\U+30B7\U+30E7\U+30F3
  7
STD
210
0.0
220
0.0
230
1.0
 73
     1
 44
1.0
  0
MTEXT
  5
5AC
100
AcDbEntity
  8
レイヤー_1
 62
     7
100
AcDbMText
 10
174.095833
 20
55.713375
 30
0.0
 40
3.149801
 41
0.0
 71
     1
 72
     2
  1
\fHeiseiKakuGothicCAN W9|b0|i0|c128;\H3.1498;\C253;\U+5BF8\U+6CD5\U+53C2\U+8003\U+56F3
  7
STD
210
0.0
220
0.0
230
1.0
 11
0.9999
 21
0.0
 31
0.0
 73
     1
 44
1.0
  0
LINE
  5
5AB
100
AcDbEntity
  8
レイヤー_1
 62
     7
100
AcDbLine
 10
27.516667
 20
58.913889
 30
0.0
 11
27.516667
 21
27.516667
 31
0.0
  0
IMAGE
  5
5A8
100
AcDbEntity
  8
レイヤー_1
 62
     7
 92
        0
100
AcDbRasterImage
 90
        0
 10
172.155556
 20
29.633016
 30
0.0
 11
0.352531
 21
0.0
 31
0.0
 12
0.0
 22
0.352813
 32
0.0
 13
70.0
 23
9.0
340
5AA
 70
     7
280
     0
281
    50
282
    50
283
     0
360
5A9
 71
     1
 91
        2
 14
-0.5
 24
-0.5
 14
69.5
 24
8.5
  0
IMAGE
  5
5A5
100
AcDbEntity
  8
レイヤー_1
 62
     7
 92
        0
100
AcDbRasterImage
 90
        0
 10
172.155556
 20
29.633016
 30
0.0
 11
0.352531
 21
0.0
 31
0.0
 12
0.0
 22
0.352813
 32
0.0
 13
70.0
 23
9.0
340
5A7
 70
     7
280
     0
281
    50
282
    50
283
     0
360
5A6
 71
     1
 91
        2
 14
-0.5
 24
-0.5
 14
69.5
 24
8.5
  0
MTEXT
  5
5A4
100
AcDbEntity
  8
レイヤー_1
 62
     7
100
AcDbMText
 10
113.418056
 20
47.083234
 30
0.0
 40
1.574901
 41
0.0
 71
     1
 72
     2
  1
\fOsaka|b0|i0|c128;\H1.5749;\C7;\U+4ED5\U+4E0A
  7
STD
210
0.0
220
0.0
230
1.0
 73
     1
 44
1.0
  0
MTEXT
  5
5A3
100
AcDbEntity
  8
レイヤー_1
 62
     7
100
AcDbMText
 10
124.765511
 20
42.026497
 30
0.0
 40
1.162842
 41
0.0
 71
     1
 72
     2
  1
\fOsaka|b0|i0|c128;\H1.1628;\W2.71;\C7;
  7
STD
210
0.0
220
0.0
230
1.0
 73
     1
 44
1.0
  0
MTEXT
  5
5A1
100
AcDbEntity
  8
レイヤー_2
 62
     7
100
AcDbMText
 10
149.621875
 20
239.645247
 30
0.0
 40
4.724702
 41
0.0
 71
     1
 72
     2
  1
\fMS Gothic|b0|i0|c128;\H4.7247;\C7;\U+0031\U+0037\U+0030
  7
STD
210
0.0
220
0.0
230
1.0
 73
     1
 44
1.0
  0
MTEXT
  5
5A0
100
AcDbEntity
  8
レイヤー_2
 62
     7
100
AcDbMText
 10
108.186924
 20
147.900361
 30
0.0
 40
4.724702
 41
0.0
 71
     1
 72
     2
  1
\fMS PGothic|b0|i0|c128;\H4.7247;\C7;\U+004D\U+0033\U+0030\U+00D7\U+0031\U+002E\U+0035
  7
STD
210
0.0
220
0.0
230
1.0
 11
0.0
 21
1.0
 31
0.0
 73
     1
 44
1.0
  0
MTEXT
  5
59F
100
AcDbEntity
  8
レイヤー_2
 62
     7
100
AcDbMText
 10
91.156365
 20
239.998024
 30
0.0
 40
4.724702
 41
0.0
 71
     1
 72
     2
  1
\fMS Gothic|b0|i0|c128;\H4.7247;\C7;\U+25A1\U+0035\U+0035
  7
STD
210
0.0
220
0.0
230
1.0
 73
     1
 44
1.0
  0
MTEXT
  5
59E
100
AcDbEntity
  8
レイヤー_2
 62
     7
100
AcDbMText
 10
82.510209
 20
115.590631
 30
0.0
 40
4.724702
 41
0.0
 71
     1
 72
     2
  1
\fMS Gothic|b0|i0|c128;\H4.7247;\C7;\U+0031\U+0030\U+0030
  7
STD
210
0.0
220
0.0
230
1.0
 73
     1
 44
1.0
  0
MTEXT
  5
59D
100
AcDbEntity
  8
レイヤー_2
 62
     7
100
AcDbMText
 10
61.206772
 20
115.590631
 30
0.0
 40
4.724702
 41
0.0
 71
     1
 72
     2
  1
\fMS Gothic|b0|i0|c128;\H4.7247;\C7;\U+0031\U+0030\U+0030
  7
STD
210
0.0
220
0.0
230
1.0
 73
     1
 44
1.0
  0
MTEXT
  5
59C
100
AcDbEntity
  8
レイヤー_2
 62
     7
100
AcDbMText
 10
74.033207
 20
239.645247
 30
0.0
 40
4.724702
 41
0.0
 71
     1
 72
     2
  1
\fMS Gothic|b0|i0|c128;\H4.7247;\C7;\U+0035\U+0036
  7
STD
210
0.0
220
0.0
230
1.0
 73
     1
 44
1.0
  0
MTEXT
  5
59B
100
AcDbEntity
  8
レイヤー_2
 62
     7
100
AcDbMText
 10
43.741172
 20
239.468858
 30
0.0
 40
4.724702
 41
0.0
 71
     1
 72
     2
  1
\fMS Gothic|b0|i0|c128;\H4.7247;\C7;\U+0038\U+0033
  7
STD
210
0.0
220
0.0
230
1.0
 73
     1
 44
1.0
  0
MTEXT
  5
59A
100
AcDbEntity
  8
レイヤー_2
 62
     7
100
AcDbMText
 10
188.357741
 20
192.711407
 30
0.0
 40
4.724702
 41
0.0
 71
     1
 72
     2
  1
\fMS Gothic|b0|i0|c128;\H4.7247;\C7;\U+0031\U+0033\U+0036
  7
STD
210
0.0
220
0.0
230
1.0
 11
0.0
 21
1.0
 31
0.0
 73
     1
 44
1.0
  0
MTEXT
  5
599
100
AcDbEntity
  8
レイヤー_2
 62
     7
100
AcDbMText
 10
180.217325
 20
190.56649
 30
0.0
 40
4.724702
 41
0.0
 71
     1
 72
     2
  1
\fMS Gothic|b0|i0|c128;\H4.7247;\C7;\U+0031\U+0030\U+0039
  7
STD
210
0.0
220
0.0
230
1.0
 11
0.0
 21
1.0
 31
0.0
 73
     1
 44
1.0
  0
MTEXT
  5
598
100
AcDbEntity
  8
レイヤー_2
 62
     7
100
AcDbMText
 10
28.296021
 20
185.644827
 30
0.0
 40
4.724702
 41
0.0
 71
     1
 72
     2
  1
\fMS Gothic|b0|i0|c128;\H4.7247;\C7;\U+0035\U+0030
  7
STD
210
0.0
220
0.0
230
1.0
 11
0.0
 21
1.0
 31
0.0
 73
     1
 44
1.0
  0
MTEXT
  5
597
100
AcDbEntity
  8
レイヤー_2
 62
     7
100
AcDbMText
 10
28.296021
 20
151.694444
 30
0.0
 40
4.724702
 41
0.0
 71
     1
 72
     2
  1
\fMS Gothic|b0|i0|c128;\H4.7247;\C7;\U+006D\U+0061\U+0078\U+002E\U+0035\U+0030
  7
STD
210
0.0
220
0.0
230
1.0
 11
0.0
 21
1.0
 31
0.0
 73
     1
 44
1.0
  0
MTEXT
  5
596
100
AcDbEntity
  8
レイヤー_2
 62
     7
100
AcDbMText
 10
60.347984
 20
145.57561
 30
0.0
 40
4.724702
 41
0.0
 71
     1
 72
     2
  1
\fMS PGothic|b0|i0|c128;\H4.7247;\C7;\U+0047\U+0031\U+002F\U+0032
  7
STD
210
0.0
220
0.0
230
1.0
 11
0.0
 21
1.0
 31
0.0
 73
     1
 44
1.0
  0
MTEXT
  5
595
100
AcDbEntity
  8
レイヤー_2
 62
     7
100
AcDbMText
 10
61.250697
 20
99.703639
 30
0.0
 40
4.199735
 41
0.0
 71
     1
 72
     2
  1
\fMS Gothic|b0|i0|c128;\H4.1997;\C7;\U+03C6\U+0033\U+0032
  7
STD
210
0.0
220
0.0
230
1.0
 73
     1
 44
1.0
  0
MTEXT
  5
594
100
AcDbEntity
  8
レイヤー_2
 62
     7
100
AcDbMText
 10
82.551378
 20
99.703639
 30
0.0
 40
4.199735
 41
0.0
 71
     1
 72
     2
  1
\fMS Gothic|b0|i0|c128;\H4.1997;\C7;\U+03C6\U+0033\U+0035
  7
STD
210
0.0
220
0.0
230
1.0
 73
     1
 44
1.0
  0
MTEXT
  5
593
100
AcDbEntity
  8
レイヤー_2
 62
     7
100
AcDbMText
 10
104.557787
 20
99.703639
 30
0.0
 40
4.199735
 41
0.0
 71
     1
 72
     2
  1
\fMS Gothic|b0|i0|c128;\H4.1997;\C7;\U+03C6\U+0033\U+0032
  7
STD
210
0.0
220
0.0
230
1.0
 73
     1
 44
1.0
  0
MTEXT
  5
592
100
AcDbEntity
  8
レイヤー_2
 62
     7
100
AcDbMText
 10
102.791831
 20
133.220563
 30
0.0
 40
4.724702
 41
0.0
 71
     1
 72
     2
  1
\fMS PGothic|b0|i0|c128;\H4.7247;\C7;\U+0047\U+0031\U+002F\U+0032
  7
STD
210
0.0
220
0.0
230
1.0
 73
     1
 44
1.0
  0
INSERT
  5
539
100
AcDbEntity
  8
レイヤー_2
 62
     7
100
AcDbBlockReference
  2
AI9-BLK8
 10
76.750871
 20
138.774303
 30
0.0
  0
INSERT
  5
533
100
AcDbEntity
  8
レイヤー_2
 62
     7
100
AcDbBlockReference
  2
AI9-BLK7
 10
111.148082
 20
122.610776
 30
0.0
  0
LINE
  5
531
100
AcDbEntity
  8
レイヤー_2
 62
     7
100
AcDbLine
 10
95.829293
 20
134.202317
 30
0.0
 11
95.829293
 21
126.155263
 31
0.0
  0
LINE
  5
530
100
AcDbEntity
  8
レイヤー_2
 62
     7
100
AcDbLine
 10
100.047123
 20
134.202317
 30
0.0
 11
100.042989
 21
126.155263
 31
0.0
  0
LINE
  5
52F
100
AcDbEntity
  8
レイヤー_2
 62
     7
100
AcDbLine
 10
94.389932
 20
126.140793
 30
0.0
 11
96.88487
 21
128.637109
 31
0.0
  0
LINE
  5
52E
100
AcDbEntity
  8
レイヤー_2
 62
     7
100
AcDbLine
 10
101.309406
 20
128.637109
 30
0.0
 11
98.813779
 21
126.140793
 31
0.0
  0
LINE
  5
52D
100
AcDbEntity
  8
レイヤー_2
 62
     7
100
AcDbLine
 10
94.522913
 20
127.389296
 30
0.0
 11
120.542169
 21
127.389296
 31
0.0
  0
INSERT
  5
518
100
AcDbEntity
  8
レイヤー_2
 62
     7
100
AcDbBlockReference
  2
AI9-BLK6
 10
55.547255
 20
160.416307
 30
0.0
  0
LINE
  5
516
100
AcDbEntity
  8
レイヤー_2
 62
     7
100
AcDbLine
 10
139.571498
 20
179.278807
 30
0.0
 11
139.571498
 21
177.72972
 31
0.0
  0
LINE
  5
515
100
AcDbEntity
  8
レイヤー_2
 62
     7
100
AcDbLine
 10
139.445752
 20
179.278807
 30
0.0
 11
139.445752
 21
177.72972
 31
0.0
  0
LINE
  5
514
100
AcDbEntity
  8
レイヤー_2
 62
     7
100
AcDbLine
 10
133.094029
 20
179.278807
 30
0.0
 11
133.094029
 21
177.72972
 31
0.0
  0
SPLINE
  5
513
100
AcDbEntity
  8
レイヤー_2
 62
     7
100
AcDbSpline
210
0.0
220
0.0
230
1.0
 70
     8
 71
     3
 72
    14
 73
    10
 74
     0
 42
0.00000001
 43
0.00000001
 40
0.0
 40
0.0
 40
0.0
 40
0.0
 40
1.0
 40
1.0
 40
1.0
 40
2.0
 40
2.0
 40
2.0
 40
3.0
 40
3.0
 40
3.0
 40
3.0
 10
134.42314724392361
 20
147.83249240451389
 30
0.0
 10
134.42314724392361
 20
147.83249240451389
 30
0.0
 10
135.06083441840278
 20
148.4252210828993
 30
0.0
 10
135.92762044270833
 20
148.01508246527777
 30
0.0
 10
136.79475097656248
 20
147.6037380642361
 30
0.0
 10
137.34148763020832
 20
147.19446072048609
 30
0.0
 10
138.1624538845486
 20
147.6037380642361
 30
0.0
 10
138.9841091579861
 20
148.01508246527777
 30
0.0
 10
139.71309136284722
 20
148.10672200520833
 30
0.0
 10
139.75960015190972
 20
148.06124674479165
 30
0.0
  0
LINE
  5
512
100
AcDbEntity
  8
レイヤー_2
 62
     7
100
AcDbLine
 10
133.074737
 20
163.474259
 30
0.0
 11
133.074737
 21
162.835194
 31
0.0
  0
LINE
  5
511
100
AcDbEntity
  8
レイヤー_2
 62
     7
100
AcDbLine
 10
139.465389
 20
162.835194
 30
0.0
 11
139.465389
 21
163.474259
 31
0.0
  0
LINE
  5
510
100
AcDbEntity
  8
レイヤー_2
 62
     7
100
AcDbLine
 10
133.447841
 20
161.924139
 30
0.0
 11
133.713802
 21
161.769971
 31
0.0
  0
LINE
  5
50F
100
AcDbEntity
  8
レイヤー_2
 62
     7
100
AcDbLine
 10
138.826324
 20
161.769971
 30
0.0
 11
139.092285
 21
161.924139
 31
0.0
  0
LINE
  5
50E
100
AcDbEntity
  8
レイヤー_2
 62
     7
100
AcDbLine
 10
133.447841
 20
162.835194
 30
0.0
 11
133.447841
 21
161.924139
 31
0.0
  0
LINE
  5
50D
100
AcDbEntity
  8
レイヤー_2
 62
     7
100
AcDbLine
 10
139.092285
 20
161.924139
 30
0.0
 11
139.092285
 21
162.835194
 31
0.0
  0
LINE
  5
50C
100
AcDbEntity
  8
レイヤー_2
 62
     7
100
AcDbLine
 10
140.530268
 20
163.474259
 30
0.0
 11
140.530268
 21
168.586264
 31
0.0
  0
LINE
  5
50B
100
AcDbEntity
  8
レイヤー_2
 62
     7
100
AcDbLine
 10
132.010202
 20
168.586264
 30
0.0
 11
132.010202
 21
163.474259
 31
0.0
  0
LINE
  5
50A
100
AcDbEntity
  8
レイヤー_2
 62
     7
100
AcDbLine
 10
131.477591
 20
177.090655
 30
0.0
 11
131.477591
 21
176.707388
 31
0.0
  0
LINE
  5
509
100
AcDbEntity
  8
レイヤー_2
 62
     7
100
AcDbLine
 10
141.062191
 20
176.707388
 30
0.0
 11
141.062191
 21
177.090655
 31
0.0
  0
SPLINE
  5
508
100
AcDbEntity
  8
レイヤー_2
 62
     7
100
AcDbSpline
210
0.0
220
0.0
230
1.0
 70
     8
 71
     3
 72
     8
 73
     4
 74
     0
 42
0.00000001
 43
0.00000001
 40
0.0
 40
0.0
 40
0.0
 40
0.0
 40
1.0
 40
1.0
 40
1.0
 40
1.0
 10
132.25962727864581
 20
183.39035644531248
 30
0.0
 10
132.31612684461805
 20
183.2825249565972
 30
0.0
 10
132.42671440972222
 20
183.2206854926215
 30
0.0
 10
132.54212510850692
 20
183.21982421874998
 30
0.0
  0
SPLINE
  5
507
100
AcDbEntity
  8
レイヤー_2
 62
     7
100
AcDbSpline
210
0.0
220
0.0
230
1.0
 70
     8
 71
     3
 72
     8
 73
     4
 74
     0
 42
0.00000001
 43
0.00000001
 40
0.0
 40
0.0
 40
0.0
 40
0.0
 40
1.0
 40
1.0
 40
1.0
 40
1.0
 10
139.99765624999998
 20
183.21982421874998
 30
0.0
 10
140.11926812065971
 20
183.21982421874998
 30
0.0
 10
140.22503255208332
 20
183.28803710937498
 30
0.0
 10
140.27980957031249
 20
183.39035644531248
 30
0.0
  0
LINE
  5
506
100
AcDbEntity
  8
レイヤー_2
 62
     7
100
AcDbLine
 10
132.542125
 20
183.219824
 30
0.0
 11
139.997656
 21
183.219824
 31
0.0
  0
LINE
  5
505
100
AcDbEntity
  8
レイヤー_2
 62
     7
100
AcDbLine
 10
133.094029
 20
168.731131
 30
0.0
 11
133.239068
 21
168.586264
 31
0.0
  0
LINE
  5
504
100
AcDbEntity
  8
レイヤー_2
 62
     7
100
AcDbLine
 10
139.301058
 20
168.586264
 30
0.0
 11
139.445752
 21
168.731131
 31
0.0
  0
LINE
  5
503
100
AcDbEntity
  8
レイヤー_2
 62
     7
100
AcDbLine
 10
133.094029
 20
183.219824
 30
0.0
 11
133.094029
 21
179.278807
 31
0.0
  0
LINE
  5
502
100
AcDbEntity
  8
レイヤー_2
 62
     7
100
AcDbLine
 10
133.094029
 20
175.445449
 30
0.0
 11
133.094029
 21
168.731131
 31
0.0
  0
LINE
  5
501
100
AcDbEntity
  8
レイヤー_2
 62
     7
100
AcDbLine
 10
139.445752
 20
168.731131
 30
0.0
 11
139.445752
 21
175.445449
 31
0.0
  0
LINE
  5
500
100
AcDbEntity
  8
レイヤー_2
 62
     7
100
AcDbLine
 10
139.445752
 20
179.278807
 30
0.0
 11
139.445752
 21
183.219824
 31
0.0
  0
LINE
  5
4FF
100
AcDbEntity
  8
レイヤー_2
 62
     7
100
AcDbLine
 10
134.053833
 20
161.769971
 30
0.0
 11
134.053833
 21
158.947921
 31
0.0
  0
LINE
  5
4FE
100
AcDbEntity
  8
レイヤー_2
 62
     7
100
AcDbLine
 10
138.485948
 20
158.947921
 30
0.0
 11
138.485948
 21
161.769971
 31
0.0
  0
LINE
  5
4FD
100
AcDbEntity
  8
レイヤー_2
 62
     7
100
AcDbLine
 10
134.053833
 20
158.947921
 30
0.0
 11
134.319794
 21
158.681787
 31
0.0
  0
LINE
  5
4FC
100
AcDbEntity
  8
レイヤー_2
 62
     7
100
AcDbLine
 10
138.219987
 20
158.681787
 30
0.0
 11
138.485948
 21
158.947921
 31
0.0
  0
SPLINE
  5
4FB
100
AcDbEntity
  8
レイヤー_2
 62
     7
100
AcDbSpline
210
0.0
220
0.0
230
1.0
 70
     8
 71
     3
 72
     8
 73
     4
 74
     0
 42
0.00000001
 43
0.00000001
 40
0.0
 40
0.0
 40
0.0
 40
0.0
 40
1.0
 40
1.0
 40
1.0
 40
1.0
 10
130.74688585069444
 20
174.12494439019096
 30
0.0
 10
130.74688585069444
 20
174.06534423828123
 30
0.0
 10
130.79373914930554
 20
174.0181464301215
 30
0.0
 10
130.85299479166665
 20
174.0181464301215
 30
0.0
  0
SPLINE
  5
4FA
100
AcDbEntity
  8
レイヤー_2
 62
     7
100
AcDbSpline
210
0.0
220
0.0
230
1.0
 70
     8
 71
     3
 72
     8
 73
     4
 74
     0
 42
0.00000001
 43
0.00000001
 40
0.0
 40
0.0
 40
0.0
 40
0.0
 40
1.0
 40
1.0
 40
1.0
 40
1.0
 10
130.85299479166665
 20
175.5090115017361
 30
0.0
 10
130.79373914930554
 20
175.5090115017361
 30
0.0
 10
130.74688585069444
 20
175.46164143880208
 30
0.0
 10
130.74688585069444
 20
175.40238579644097
 30
0.0
  0
LINE
  5
4F9
100
AcDbEntity
  8
レイヤー_2
 62
     7
100
AcDbLine
 10
130.746886
 20
175.402386
 30
0.0
 11
130.746886
 21
174.124944
 31
0.0
  0
SPLINE
  5
4F8
100
AcDbEntity
  8
レイヤー_2
 62
     7
100
AcDbSpline
210
0.0
220
0.0
230
1.0
 70
     8
 71
     3
 72
     8
 73
     4
 74
     0
 42
0.00000001
 43
0.00000001
 40
0.0
 40
0.0
 40
0.0
 40
0.0
 40
1.0
 40
1.0
 40
1.0
 40
1.0
 10
140.38626302083333
 20
175.40238579644097
 30
0.0
 10
140.38626302083333
 20
175.46164143880208
 30
0.0
 10
140.33803168402775
 20
175.5090115017361
 30
0.0
 10
140.27912055121527
 20
175.5090115017361
 30
0.0
  0
LINE
  5
4F7
100
AcDbEntity
  8
レイヤー_2
 62
     7
100
AcDbLine
 10
140.386263
 20
174.124944
 30
0.0
 11
140.386263
 21
175.402386
 31
0.0
  0
SPLINE
  5
4F6
100
AcDbEntity
  8
レイヤー_2
 62
     7
100
AcDbSpline
210
0.0
220
0.0
230
1.0
 70
     8
 71
     3
 72
     8
 73
     4
 74
     0
 42
0.00000001
 43
0.00000001
 40
0.0
 40
0.0
 40
0.0
 40
0.0
 40
1.0
 40
1.0
 40
1.0
 40
1.0
 10
140.27912055121527
 20
174.0181464301215
 30
0.0
 10
140.33803168402775
 20
174.0181464301215
 30
0.0
 10
140.38626302083333
 20
174.06534423828123
 30
0.0
 10
140.38626302083333
 20
174.12494439019096
 30
0.0
  0
SPLINE
  5
4F5
100
AcDbEntity
  8
レイヤー_2
 62
     7
100
AcDbSpline
210
0.0
220
0.0
230
1.0
 70
     8
 71
     3
 72
     8
 73
     4
 74
     0
 42
0.00000001
 43
0.00000001
 40
0.0
 40
0.0
 40
0.0
 40
0.0
 40
1.0
 40
1.0
 40
1.0
 40
1.0
 10
141.78462727864581
 20
175.40238579644097
 30
0.0
 10
141.78462727864581
 20
175.46164143880208
 30
0.0
 10
141.73777398003472
 20
175.5090115017361
 30
0.0
 10
141.67817382812498
 20
175.5090115017361
 30
0.0
  0
LINE
  5
4F4
100
AcDbEntity
  8
レイヤー_2
 62
     7
100
AcDbLine
 10
141.784627
 20
174.124944
 30
0.0
 11
141.784627
 21
175.402386
 31
0.0
  0
LINE
  5
4F3
100
AcDbEntity
  8
レイヤー_2
 62
     7
100
AcDbLine
 10
131.1727
 20
175.828544
 30
0.0
 11
131.1727
 21
175.509012
 31
0.0
  0
LINE
  5
4F2
100
AcDbEntity
  8
レイヤー_2
 62
     7
100
AcDbLine
 10
141.397054
 20
175.189479
 30
0.0
 11
141.397054
 21
175.828544
 31
0.0
  0
LINE
  5
4F1
100
AcDbEntity
  8
レイヤー_2
 62
     7
100
AcDbLine
 10
141.38224
 20
177.090655
 30
0.0
 11
141.38224
 21
177.72972
 31
0.0
  0
LINE
  5
4F0
100
AcDbEntity
  8
レイヤー_2
 62
     7
100
AcDbLine
 10
131.157886
 20
177.72972
 30
0.0
 11
131.157886
 21
177.090655
 31
0.0
  0
LINE
  5
4EF
100
AcDbEntity
  8
レイヤー_2
 62
     7
100
AcDbLine
 10
131.796951
 20
183.390356
 30
0.0
 11
131.796951
 21
183.283731
 31
0.0
  0
LINE
  5
4EE
100
AcDbEntity
  8
レイヤー_2
 62
     7
100
AcDbLine
 10
140.955737
 20
183.283731
 30
0.0
 11
140.955737
 21
183.390356
 31
0.0
  0
SPLINE
  5
4ED
100
AcDbEntity
  8
レイヤー_2
 62
     7
100
AcDbSpline
210
0.0
220
0.0
230
1.0
 70
     8
 71
     3
 72
     8
 73
     4
 74
     0
 42
0.00000001
 43
0.00000001
 40
0.0
 40
0.0
 40
0.0
 40
0.0
 40
1.0
 40
1.0
 40
1.0
 40
1.0
 10
135.41774631076387
 20
148.16046549479165
 30
0.0
 10
135.41774631076387
 20
154.95660536024303
 30
0.0
 10
135.41774631076387
 20
158.68178710937499
 30
0.0
 10
135.41774631076387
 20
158.68178710937499
 30
0.0
  0
SPLINE
  5
4EC
100
AcDbEntity
  8
レイヤー_2
 62
     7
100
AcDbSpline
210
0.0
220
0.0
230
1.0
 70
     8
 71
     3
 72
     8
 73
     4
 74
     0
 42
0.00000001
 43
0.00000001
 40
0.0
 40
0.0
 40
0.0
 40
0.0
 40
1.0
 40
1.0
 40
1.0
 40
1.0
 10
134.56611870659722
 20
158.68178710937499
 30
0.0
 10
134.56611870659722
 20
158.68178710937499
 30
0.0
 10
134.56611870659722
 20
154.84653455946179
 30
0.0
 10
134.56611870659722
 20
147.94686957465277
 30
0.0
  0
SPLINE
  5
4EB
100
AcDbEntity
  8
レイヤー_2
 62
     7
100
AcDbSpline
210
0.0
220
0.0
230
1.0
 70
     8
 71
     3
 72
     8
 73
     4
 74
     0
 42
0.00000001
 43
0.00000001
 40
0.0
 40
0.0
 40
0.0
 40
0.0
 40
1.0
 40
1.0
 40
1.0
 40
1.0
 10
139.57149793836805
 20
148.07089301215277
 30
0.0
 10
139.57149793836805
 20
157.0451944986979
 30
0.0
 10
139.57149793836805
 20
163.47425944010416
 30
0.0
 10
139.57149793836805
 20
163.47425944010416
 30
0.0
  0
LINE
  5
4EA
100
AcDbEntity
  8
レイヤー_2
 62
     7
100
AcDbLine
 10
139.571498
 20
168.586264
 30
0.0
 11
139.571498
 21
174.018146
 31
0.0
  0
LINE
  5
4E9
100
AcDbEntity
  8
レイヤー_2
 62
     7
100
AcDbLine
 10
139.571498
 20
179.278807
 30
0.0
 11
139.571498
 21
183.219824
 31
0.0
  0
SPLINE
  5
4E8
100
AcDbEntity
  8
レイヤー_2
 62
     7
100
AcDbSpline
210
0.0
220
0.0
230
1.0
 70
     8
 71
     3
 72
     8
 73
     4
 74
     0
 42
0.00000001
 43
0.00000001
 40
0.0
 40
0.0
 40
0.0
 40
0.0
 40
1.0
 40
1.0
 40
1.0
 40
1.0
 10
137.44105088975692
 20
158.68178710937499
 30
0.0
 10
137.44105088975692
 20
158.68178710937499
 30
0.0
 10
137.44105088975692
 20
154.36611599392359
 30
0.0
 10
137.44105088975692
 20
147.44044053819442
 30
0.0
  0
SPLINE
  5
4E7
100
AcDbEntity
  8
レイヤー_2
 62
     7
100
AcDbSpline
210
0.0
220
0.0
230
1.0
 70
     8
 71
     3
 72
     8
 73
     4
 74
     0
 42
0.00000001
 43
0.00000001
 40
0.0
 40
0.0
 40
0.0
 40
0.0
 40
1.0
 40
1.0
 40
1.0
 40
1.0
 10
170.44678819444442
 20
206.56499701605901
 30
0.0
 10
170.45884602864581
 20
206.53984781901039
 30
0.0
 10
170.48433973524303
 20
206.52555067274304
 30
0.0
 10
170.51086697048609
 20
206.52675645616318
 30
0.0
  0
SPLINE
  5
4E6
100
AcDbEntity
  8
レイヤー_2
 62
     7
100
AcDbSpline
210
0.0
220
0.0
230
1.0
 70
     8
 71
     3
 72
     8
 73
     4
 74
     0
 42
0.00000001
 43
0.00000001
 40
0.0
 40
0.0
 40
0.0
 40
0.0
 40
1.0
 40
1.0
 40
1.0
 40
1.0
 10
174.31184082031248
 20
206.82647976345484
 30
0.0
 10
174.33905707465277
 20
206.82837456597221
 30
0.0
 10
174.36145019531247
 20
206.84732259114583
 30
0.0
 10
174.36868489583333
 20
206.87367757161456
 30
0.0
  0
LINE
  5
4E5
100
AcDbEntity
  8
レイヤー_2
 62
     7
100
AcDbLine
 10
174.947116
 20
207.041626
 30
0.0
 11
174.813791
 21
208.724555
 31
0.0
  0
LINE
  5
4E4
100
AcDbEntity
  8
レイヤー_2
 62
     7
100
AcDbLine
 10
169.717461
 20
208.323374
 30
0.0
 11
169.850442
 21
206.641134
 31
0.0
  0
LINE
  5
4E3
100
AcDbEntity
  8
レイヤー_2
 62
     7
100
AcDbLine
 10
174.654283
 20
208.712325
 30
0.0
 11
174.65325
 21
208.732996
 31
0.0
  0
LINE
  5
4E2
100
AcDbEntity
  8
レイヤー_2
 62
     7
100
AcDbLine
 10
169.874902
 20
208.356963
 30
0.0
 11
169.876969
 21
208.335948
 31
0.0
  0
LINE
  5
4E1
100
AcDbEntity
  8
レイヤー_2
 62
     7
100
AcDbLine
 10
169.850442
 20
206.641134
 30
0.0
 11
170.071617
 21
206.535541
 31
0.0
  0
LINE
  5
4E0
100
AcDbEntity
  8
レイヤー_2
 62
     7
100
AcDbLine
 10
174.743511
 20
206.902961
 30
0.0
 11
174.947116
 21
207.041626
 31
0.0
  0
LINE
  5
4DF
100
AcDbEntity
  8
レイヤー_2
 62
     7
100
AcDbLine
 10
141.955849
 20
183.390356
 30
0.0
 11
130.583588
 21
183.390356
 31
0.0
  0
LINE
  5
4DE
100
AcDbEntity
  8
レイヤー_2
 62
     7
100
AcDbLine
 10
130.583588
 20
183.390356
 30
0.0
 11
130.477479
 21
183.390356
 31
0.0
  0
SPLINE
  5
4DD
100
AcDbEntity
  8
レイヤー_2
 62
     7
100
AcDbSpline
210
0.0
220
0.0
230
1.0
 70
     8
 71
     3
 72
    14
 73
    10
 74
     0
 42
0.00000001
 43
0.00000001
 40
0.0
 40
0.0
 40
0.0
 40
0.0
 40
1.0
 40
1.0
 40
1.0
 40
2.0
 40
2.0
 40
2.0
 40
3.0
 40
3.0
 40
3.0
 40
3.0
 10
130.41305609809027
 20
183.45529649522567
 30
0.0
 10
130.41305609809027
 20
183.45477973090277
 30
0.0
 10
130.41305609809027
 20
183.45477973090277
 30
0.0
 10
130.41305609809027
 20
183.45409071180555
 30
0.0
 10
130.41305609809027
 20
183.41860622829859
 30
0.0
 10
130.441650390625
 20
183.39035644531248
 30
0.0
 10
130.47747938368053
 20
183.39035644531248
 30
0.0
 10
130.47747938368053
 20
183.39035644531248
 30
0.0
 10
130.47747938368053
 20
183.39035644531248
 30
0.0
 10
130.47747938368053
 20
183.39035644531248
 30
0.0
  0
LINE
  5
4DC
100
AcDbEntity
  8
レイヤー_2
 62
     7
100
AcDbLine
 10
142.062646
 20
183.390356
 30
0.0
 11
141.955849
 21
183.390356
 31
0.0
  0
SPLINE
  5
4DB
100
AcDbEntity
  8
レイヤー_2
 62
     7
100
AcDbSpline
210
0.0
220
0.0
230
1.0
 70
     8
 71
     3
 72
    11
 73
     7
 74
     0
 42
0.00000001
 43
0.00000001
 40
0.0
 40
0.0
 40
0.0
 40
0.0
 40
1.0
 40
1.0
 40
1.0
 40
2.0
 40
2.0
 40
2.0
 40
2.0
 10
142.06264648437499
 20
183.39035644531248
 30
0.0
 10
142.09778645833333
 20
183.39035644531248
 30
0.0
 10
142.12638075086804
 20
183.41860622829859
 30
0.0
 10
142.12638075086804
 20
183.45409071180555
 30
0.0
 10
142.12638075086804
 20
183.45477973090277
 30
0.0
 10
142.12638075086804
 20
183.45477973090277
 30
0.0
 10
142.12638075086804
 20
183.45529649522567
 30
0.0
  0
LINE
  5
4DA
100
AcDbEntity
  8
レイヤー_2
 62
     7
100
AcDbLine
 10
136.270407
 20
162.835194
 30
0.0
 11
139.465389
 21
162.835194
 31
0.0
  0
LINE
  5
4D9
100
AcDbEntity
  8
レイヤー_2
 62
     7
100
AcDbLine
 10
133.074737
 20
162.835194
 30
0.0
 11
136.270407
 21
162.835194
 31
0.0
  0
SPLINE
  5
4D8
100
AcDbEntity
  8
レイヤー_2
 62
     7
100
AcDbSpline
210
0.0
220
0.0
230
1.0
 70
     8
 71
     3
 72
    11
 73
     7
 74
     0
 42
0.00000001
 43
0.00000001
 40
0.0
 40
0.0
 40
0.0
 40
0.0
 40
1.0
 40
1.0
 40
1.0
 40
2.0
 40
2.0
 40
2.0
 40
2.0
 10
136.27040744357637
 20
161.76997070312498
 30
0.0
 10
135.90178222656249
 20
161.79477539062498
 30
0.0
 10
135.5335015190972
 20
161.81889105902778
 30
0.0
 10
135.17521158854166
 20
161.90002305772569
 30
0.0
 10
135.14144965277777
 20
161.90743001302081
 30
0.0
 10
135.10734320746528
 20
161.91569824218749
 30
0.0
 10
135.07323676215276
 20
161.92413872612846
 30
0.0
  0
LINE
  5
4D7
100
AcDbEntity
  8
レイヤー_2
 62
     7
100
AcDbLine
 10
134.0559
 20
161.769971
 30
0.0
 11
136.270407
 21
161.769971
 31
0.0
  0
SPLINE
  5
4D6
100
AcDbEntity
  8
レイヤー_2
 62
     7
100
AcDbSpline
210
0.0
220
0.0
230
1.0
 70
     8
 71
     3
 72
    11
 73
     7
 74
     0
 42
0.00000001
 43
0.00000001
 40
0.0
 40
0.0
 40
0.0
 40
0.0
 40
1.0
 40
1.0
 40
1.0
 40
2.0
 40
2.0
 40
2.0
 40
2.0
 10
134.65396864149304
 20
161.92413872612846
 30
0.0
 10
134.55716145833333
 20
161.88004150390623
 30
0.0
 10
134.45966525607636
 20
161.83646104600692
 30
0.0
 10
134.35941297743054
 20
161.81148410373262
 30
0.0
 10
134.25950520833331
 20
161.78530137803818
 30
0.0
 10
134.15787489149304
 20
161.77806667751736
 30
0.0
 10
134.05590006510417
 20
161.76997070312498
 30
0.0
  0
LINE
  5
4D5
100
AcDbEntity
  8
レイヤー_2
 62
     7
100
AcDbLine
 10
134.653969
 20
161.924139
 30
0.0
 11
135.073237
 21
161.924139
 31
0.0
  0
LINE
  5
4D4
100
AcDbEntity
  8
レイヤー_2
 62
     7
100
AcDbLine
 10
135.073237
 20
161.924139
 30
0.0
 11
135.073237
 21
162.835194
 31
0.0
  0
LINE
  5
4D3
100
AcDbEntity
  8
レイヤー_2
 62
     7
100
AcDbLine
 10
134.653969
 20
162.835194
 30
0.0
 11
134.653969
 21
161.924139
 31
0.0
  0
SPLINE
  5
4D2
100
AcDbEntity
  8
レイヤー_2
 62
     7
100
AcDbSpline
210
0.0
220
0.0
230
1.0
 70
     8
 71
     3
 72
    11
 73
     7
 74
     0
 42
0.00000001
 43
0.00000001
 40
0.0
 40
0.0
 40
0.0
 40
0.0
 40
1.0
 40
1.0
 40
1.0
 40
2.0
 40
2.0
 40
2.0
 40
2.0
 10
137.46654459635414
 20
161.92413872612846
 30
0.0
 10
137.20471733940971
 20
161.86781141493054
 30
0.0
 10
136.94323459201388
 20
161.81182861328122
 30
0.0
 10
136.67796223958331
 20
161.7890909830729
 30
0.0
 10
136.54256998697915
 20
161.77634412977429
 30
0.0
 10
136.40683322482639
 20
161.77393256293402
 30
0.0
 10
136.27040744357637
 20
161.76997070312498
 30
0.0
  0
LINE
  5
4D1
100
AcDbEntity
  8
レイヤー_2
 62
     7
100
AcDbLine
 10
137.466545
 20
162.835194
 30
0.0
 11
137.466545
 21
161.924139
 31
0.0
  0
SPLINE
  5
4D0
100
AcDbEntity
  8
レイヤー_2
 62
     7
100
AcDbSpline
210
0.0
220
0.0
230
1.0
 70
     8
 71
     3
 72
    11
 73
     7
 74
     0
 42
0.00000001
 43
0.00000001
 40
0.0
 40
0.0
 40
0.0
 40
0.0
 40
1.0
 40
1.0
 40
1.0
 40
2.0
 40
2.0
 40
2.0
 40
2.0
 10
138.48353678385416
 20
161.76997070312498
 30
0.0
 10
138.42944878472221
 20
161.77238226996528
 30
0.0
 10
138.37432725694444
 20
161.77427707248262
 30
0.0
 10
138.32058376736109
 20
161.78202853732637
 30
0.0
 10
138.17382269965276
 20
161.80252685546873
 30
0.0
 10
138.03016221788192
 20
161.86350504557291
 30
0.0
 10
137.88512369791664
 20
161.92413872612846
 30
0.0
  0
LINE
  5
4CF
100
AcDbEntity
  8
レイヤー_2
 62
     7
100
AcDbLine
 10
137.466545
 20
161.924139
 30
0.0
 11
137.885124
 21
161.924139
 31
0.0
  0
LINE
  5
4CE
100
AcDbEntity
  8
レイヤー_2
 62
     7
100
AcDbLine
 10
136.270407
 20
161.769971
 30
0.0
 11
138.483537
 21
161.769971
 31
0.0
  0
LINE
  5
4CD
100
AcDbEntity
  8
レイヤー_2
 62
     7
100
AcDbLine
 10
137.885124
 20
161.924139
 30
0.0
 11
137.885124
 21
162.835194
 31
0.0
  0
SPLINE
  5
4CC
100
AcDbEntity
  8
レイヤー_2
 62
     7
100
AcDbSpline
210
0.0
220
0.0
230
1.0
 70
     8
 71
     3
 72
    11
 73
     7
 74
     0
 42
0.00000001
 43
0.00000001
 40
0.0
 40
0.0
 40
0.0
 40
0.0
 40
1.0
 40
1.0
 40
1.0
 40
2.0
 40
2.0
 40
2.0
 40
2.0
 10
134.05590006510417
 20
161.76997070312498
 30
0.0
 10
134.00215657552081
 20
161.77238226996528
 30
0.0
 10
133.94772406684027
 20
161.77427707248262
 30
0.0
 10
133.89363606770831
 20
161.78202853732637
 30
0.0
 10
133.74756401909721
 20
161.80252685546873
 30
0.0
 10
133.60252549913193
 20
161.86350504557291
 30
0.0
 10
133.45783148871527
 20
161.92413872612846
 30
0.0
  0
LINE
  5
4CB
100
AcDbEntity
  8
レイヤー_2
 62
     7
100
AcDbLine
 10
133.457831
 20
161.924139
 30
0.0
 11
133.457831
 21
162.835194
 31
0.0
  0
SPLINE
  5
4CA
100
AcDbEntity
  8
レイヤー_2
 62
     7
100
AcDbSpline
210
0.0
220
0.0
230
1.0
 70
     8
 71
     3
 72
    11
 73
     7
 74
     0
 42
0.00000001
 43
0.00000001
 40
0.0
 40
0.0
 40
0.0
 40
0.0
 40
1.0
 40
1.0
 40
1.0
 40
2.0
 40
2.0
 40
2.0
 40
2.0
 10
139.08160536024303
 20
161.92413872612846
 30
0.0
 10
138.9841091579861
 20
161.88004150390623
 30
0.0
 10
138.88626844618054
 20
161.83646104600692
 30
0.0
 10
138.78704969618053
 20
161.81148410373262
 30
0.0
 10
138.68679741753471
 20
161.78530137803818
 30
0.0
 10
138.58551161024303
 20
161.77806667751736
 30
0.0
 10
138.48353678385416
 20
161.76997070312498
 30
0.0
  0
LINE
  5
4C9
100
AcDbEntity
  8
レイヤー_2
 62
     7
100
AcDbLine
 10
139.081605
 20
162.835194
 30
0.0
 11
139.081605
 21
161.924139
 31
0.0
  0
LINE
  5
4C8
100
AcDbEntity
  8
レイヤー_2
 62
     7
100
AcDbLine
 10
133.447841
 20
161.924139
 30
0.0
 11
133.457831
 21
161.924139
 31
0.0
  0
LINE
  5
4C7
100
AcDbEntity
  8
レイヤー_2
 62
     7
100
AcDbLine
 10
133.713802
 20
161.769971
 30
0.0
 11
134.0559
 21
161.769971
 31
0.0
  0
LINE
  5
4C6
100
AcDbEntity
  8
レイヤー_2
 62
     7
100
AcDbLine
 10
139.081605
 20
161.924139
 30
0.0
 11
139.092285
 21
161.924139
 31
0.0
  0
LINE
  5
4C5
100
AcDbEntity
  8
レイヤー_2
 62
     7
100
AcDbLine
 10
138.483537
 20
161.769971
 30
0.0
 11
138.826324
 21
161.769971
 31
0.0
  0
LINE
  5
4C4
100
AcDbEntity
  8
レイヤー_2
 62
     7
100
AcDbLine
 10
132.010202
 20
163.474259
 30
0.0
 11
140.530268
 21
163.474259
 31
0.0
  0
LINE
  5
4C3
100
AcDbEntity
  8
レイヤー_2
 62
     7
100
AcDbLine
 10
140.530268
 20
168.586264
 30
0.0
 11
132.010202
 21
168.586264
 31
0.0
  0
LINE
  5
4C2
100
AcDbEntity
  8
レイヤー_2
 62
     7
100
AcDbLine
 10
131.477591
 20
176.707388
 30
0.0
 11
141.062191
 21
176.707388
 31
0.0
  0
LINE
  5
4C1
100
AcDbEntity
  8
レイヤー_2
 62
     7
100
AcDbLine
 10
131.477591
 20
177.090655
 30
0.0
 11
141.062191
 21
177.090655
 31
0.0
  0
LINE
  5
4C0
100
AcDbEntity
  8
レイヤー_2
 62
     7
100
AcDbLine
 10
135.992044
 20
176.723063
 30
0.0
 11
135.992044
 21
175.445449
 31
0.0
  0
LINE
  5
4BF
100
AcDbEntity
  8
レイヤー_2
 62
     7
100
AcDbLine
 10
136.546704
 20
176.723063
 30
0.0
 11
136.546704
 21
175.445449
 31
0.0
  0
LINE
  5
4BE
100
AcDbEntity
  8
レイヤー_2
 62
     7
100
AcDbLine
 10
136.546704
 20
175.445449
 30
0.0
 11
135.992044
 21
175.445449
 31
0.0
  0
LINE
  5
4BD
100
AcDbEntity
  8
レイヤー_2
 62
     7
100
AcDbLine
 10
136.546704
 20
176.723063
 30
0.0
 11
135.992044
 21
176.723063
 31
0.0
  0
LINE
  5
4BC
100
AcDbEntity
  8
レイヤー_2
 62
     7
100
AcDbLine
 10
132.818766
 20
176.723063
 30
0.0
 11
132.818766
 21
175.445449
 31
0.0
  0
LINE
  5
4BB
100
AcDbEntity
  8
レイヤー_2
 62
     7
100
AcDbLine
 10
132.818766
 20
175.445449
 30
0.0
 11
135.992044
 21
175.445449
 31
0.0
  0
LINE
  5
4BA
100
AcDbEntity
  8
レイヤー_2
 62
     7
100
AcDbLine
 10
132.818766
 20
176.723063
 30
0.0
 11
135.992044
 21
176.723063
 31
0.0
  0
LINE
  5
4B9
100
AcDbEntity
  8
レイヤー_2
 62
     7
100
AcDbLine
 10
139.720326
 20
176.723063
 30
0.0
 11
139.720326
 21
175.445449
 31
0.0
  0
LINE
  5
4B8
100
AcDbEntity
  8
レイヤー_2
 62
     7
100
AcDbLine
 10
139.720326
 20
175.445449
 30
0.0
 11
136.546704
 21
175.445449
 31
0.0
  0
LINE
  5
4B7
100
AcDbEntity
  8
レイヤー_2
 62
     7
100
AcDbLine
 10
139.720326
 20
176.723063
 30
0.0
 11
136.546704
 21
176.723063
 31
0.0
  0
LINE
  5
4B6
100
AcDbEntity
  8
レイヤー_2
 62
     7
100
AcDbLine
 10
132.542125
 20
176.723063
 30
0.0
 11
132.542125
 21
175.445449
 31
0.0
  0
LINE
  5
4B5
100
AcDbEntity
  8
レイヤー_2
 62
     7
100
AcDbLine
 10
132.818766
 20
175.445449
 30
0.0
 11
132.542125
 21
175.445449
 31
0.0
  0
LINE
  5
4B4
100
AcDbEntity
  8
レイヤー_2
 62
     7
100
AcDbLine
 10
132.818766
 20
176.723063
 30
0.0
 11
132.542125
 21
176.723063
 31
0.0
  0
LINE
  5
4B3
100
AcDbEntity
  8
レイヤー_2
 62
     7
100
AcDbLine
 10
139.997656
 20
176.723063
 30
0.0
 11
139.997656
 21
175.445449
 31
0.0
  0
LINE
  5
4B2
100
AcDbEntity
  8
レイヤー_2
 62
     7
100
AcDbLine
 10
139.997656
 20
175.445449
 30
0.0
 11
139.720326
 21
175.445449
 31
0.0
  0
LINE
  5
4B1
100
AcDbEntity
  8
レイヤー_2
 62
     7
100
AcDbLine
 10
139.997656
 20
176.723063
 30
0.0
 11
139.720326
 21
176.723063
 31
0.0
  0
LINE
  5
4B0
100
AcDbEntity
  8
レイヤー_2
 62
     7
100
AcDbLine
 10
133.094029
 20
168.731131
 30
0.0
 11
139.445752
 21
168.731131
 31
0.0
  0
LINE
  5
4AF
100
AcDbEntity
  8
レイヤー_2
 62
     7
100
AcDbLine
 10
134.053833
 20
158.947921
 30
0.0
 11
138.485948
 21
158.947921
 31
0.0
  0
LINE
  5
4AE
100
AcDbEntity
  8
レイヤー_2
 62
     7
100
AcDbLine
 10
137.548193
 20
159.533931
 30
0.0
 11
134.991588
 21
159.533931
 31
0.0
  0
LINE
  5
4AD
100
AcDbEntity
  8
レイヤー_2
 62
     7
100
AcDbLine
 10
137.548193
 20
161.769971
 30
0.0
 11
137.548193
 21
159.533931
 31
0.0
  0
LINE
  5
4AC
100
AcDbEntity
  8
レイヤー_2
 62
     7
100
AcDbLine
 10
134.991588
 20
159.533931
 30
0.0
 11
134.991588
 21
161.769971
 31
0.0
  0
LINE
  5
4AB
100
AcDbEntity
  8
レイヤー_2
 62
     7
100
AcDbLine
 10
134.319794
 20
158.681787
 30
0.0
 11
138.219987
 21
158.681787
 31
0.0
  0
SPLINE
  5
4AA
100
AcDbEntity
  8
レイヤー_2
 62
     7
100
AcDbSpline
210
0.0
220
0.0
230
1.0
 70
     8
 71
     3
 72
     8
 73
     4
 74
     0
 42
0.00000001
 43
0.00000001
 40
0.0
 40
0.0
 40
0.0
 40
0.0
 40
1.0
 40
1.0
 40
1.0
 40
1.0
 10
141.67817382812498
 20
174.0181464301215
 30
0.0
 10
141.73708496093749
 20
174.0181464301215
 30
0.0
 10
141.78428276909722
 20
174.06586100260415
 30
0.0
 10
141.78428276909722
 20
174.12494439019096
 30
0.0
  0
SPLINE
  5
4A9
100
AcDbEntity
  8
レイヤー_2
 62
     7
100
AcDbSpline
210
0.0
220
0.0
230
1.0
 70
     8
 71
     3
 72
     8
 73
     4
 74
     0
 42
0.00000001
 43
0.00000001
 40
0.0
 40
0.0
 40
0.0
 40
0.0
 40
1.0
 40
1.0
 40
1.0
 40
1.0
 10
140.35904676649304
 20
174.11236979166665
 30
0.0
 10
140.35904676649304
 20
174.11702067057291
 30
0.0
 10
140.35835774739581
 20
174.12098253038192
 30
0.0
 10
140.35801323784722
 20
174.12494439019096
 30
0.0
  0
SPLINE
  5
4A8
100
AcDbEntity
  8
レイヤー_2
 62
     7
100
AcDbSpline
210
0.0
220
0.0
230
1.0
 70
     8
 71
     3
 72
     8
 73
     4
 74
     0
 42
0.00000001
 43
0.00000001
 40
0.0
 40
0.0
 40
0.0
 40
0.0
 40
1.0
 40
1.0
 40
1.0
 40
1.0
 10
140.27912055121527
 20
174.0181464301215
 30
0.0
 10
140.32597384982637
 20
174.02624240451388
 30
0.0
 10
140.35835774739581
 20
174.06655002170137
 30
0.0
 10
140.35904676649304
 20
174.11236979166665
 30
0.0
  0
LINE
  5
4A7
100
AcDbEntity
  8
レイヤー_2
 62
     7
100
AcDbLine
 10
140.279121
 20
174.018146
 30
0.0
 11
139.445752
 21
174.018146
 31
0.0
  0
LINE
  5
4A6
100
AcDbEntity
  8
レイヤー_2
 62
     7
100
AcDbLine
 10
133.094029
 20
174.018146
 30
0.0
 11
130.852995
 21
174.018146
 31
0.0
  0
LINE
  5
4A5
100
AcDbEntity
  8
レイヤー_2
 62
     7
100
AcDbLine
 10
130.852995
 20
175.509012
 30
0.0
 11
132.542125
 21
175.509012
 31
0.0
  0
LINE
  5
4A4
100
AcDbEntity
  8
レイヤー_2
 62
     7
100
AcDbLine
 10
139.997656
 20
175.509012
 30
0.0
 11
140.279121
 21
175.509012
 31
0.0
  0
LINE
  5
4A3
100
AcDbEntity
  8
レイヤー_2
 62
     7
100
AcDbLine
 10
141.397054
 20
175.509012
 30
0.0
 11
141.460099
 21
175.509012
 31
0.0
  0
LINE
  5
4A2
100
AcDbEntity
  8
レイヤー_2
 62
     7
100
AcDbLine
 10
141.678174
 20
174.018146
 30
0.0
 11
140.355257
 21
174.018146
 31
0.0
  0
SPLINE
  5
4A1
100
AcDbEntity
  8
レイヤー_2
 62
     7
100
AcDbSpline
210
0.0
220
0.0
230
1.0
 70
     8
 71
     3
 72
     8
 73
     4
 74
     0
 42
0.00000001
 43
0.00000001
 40
0.0
 40
0.0
 40
0.0
 40
0.0
 40
1.0
 40
1.0
 40
1.0
 40
1.0
 10
141.46009928385416
 20
175.5090115017361
 30
0.0
 10
141.44459635416666
 20
175.47352701822916
 30
0.0
 10
141.4401177300347
 20
175.43700900607638
 30
0.0
 10
141.44528537326389
 20
175.40238579644097
 30
0.0
  0
LINE
  5
4A0
100
AcDbEntity
  8
レイヤー_2
 62
     7
100
AcDbLine
 10
141.460099
 20
175.509012
 30
0.0
 11
141.678174
 21
175.509012
 31
0.0
  0
SPLINE
  5
49F
100
AcDbEntity
  8
レイヤー_2
 62
     7
100
AcDbSpline
210
0.0
220
0.0
230
1.0
 70
     8
 71
     3
 72
     8
 73
     4
 74
     0
 42
0.00000001
 43
0.00000001
 40
0.0
 40
0.0
 40
0.0
 40
0.0
 40
1.0
 40
1.0
 40
1.0
 40
1.0
 10
141.25270453559025
 20
175.18586154513886
 30
0.0
 10
141.27165256076387
 20
175.17328694661458
 30
0.0
 10
141.35192328559026
 20
175.13056776258679
 30
0.0
 10
141.44459635416666
 20
175.08268093532985
 30
0.0
  0
LINE
  5
49E
100
AcDbEntity
  8
レイヤー_2
 62
     7
100
AcDbLine
 10
140.355257
 20
174.018146
 30
0.0
 11
140.279121
 21
174.018146
 31
0.0
  0
LINE
  5
49D
100
AcDbEntity
  8
レイヤー_2
 62
     7
100
AcDbLine
 10
141.397054
 20
175.189479
 30
0.0
 11
140.386263
 21
175.189479
 31
0.0
  0
LINE
  5
49C
100
AcDbEntity
  8
レイヤー_2
 62
     7
100
AcDbLine
 10
141.397054
 20
175.828544
 30
0.0
 11
139.997656
 21
175.828544
 31
0.0
  0
LINE
  5
49B
100
AcDbEntity
  8
レイヤー_2
 62
     7
100
AcDbLine
 10
132.542125
 20
175.828544
 30
0.0
 11
131.1727
 21
175.828544
 31
0.0
  0
LINE
  5
49A
100
AcDbEntity
  8
レイヤー_2
 62
     7
100
AcDbLine
 10
136.270407
 20
177.090655
 30
0.0
 11
141.38224
 21
177.090655
 31
0.0
  0
LINE
  5
499
100
AcDbEntity
  8
レイヤー_2
 62
     7
100
AcDbLine
 10
131.157886
 20
177.090655
 30
0.0
 11
136.270407
 21
177.090655
 31
0.0
  0
LINE
  5
498
100
AcDbEntity
  8
レイヤー_2
 62
     7
100
AcDbLine
 10
136.270407
 20
177.72972
 30
0.0
 11
141.38224
 21
177.72972
 31
0.0
  0
LINE
  5
497
100
AcDbEntity
  8
レイヤー_2
 62
     7
100
AcDbLine
 10
131.157886
 20
177.72972
 30
0.0
 11
136.270407
 21
177.72972
 31
0.0
  0
LINE
  5
496
100
AcDbEntity
  8
レイヤー_2
 62
     7
100
AcDbLine
 10
140.955737
 20
183.283731
 30
0.0
 11
140.188859
 21
183.283731
 31
0.0
  0
LINE
  5
495
100
AcDbEntity
  8
レイヤー_2
 62
     7
100
AcDbLine
 10
132.350233
 20
183.283731
 30
0.0
 11
131.796951
 21
183.283731
 31
0.0
  0
POLYLINE
  5
482
100
AcDbEntity
  8
レイヤー_2
 62
     7
100
AcDb2dPolyline
 66
     1
 10
0.0
 20
0.0
 30
0.0
  0
VERTEX
  5
483
100
AcDbEntity
  8
レイヤー_2
 62
     7
100
AcDbVertex
100
AcDb2dVertex
 10
174.311841
 20
206.82648
 30
0.0
  0
VERTEX
  5
484
100
AcDbEntity
  8
レイヤー_2
 62
     7
100
AcDbVertex
100
AcDb2dVertex
 10
174.272567
 20
206.822862
 30
0.0
  0
VERTEX
  5
485
100
AcDbEntity
  8
レイヤー_2
 62
     7
100
AcDbVertex
100
AcDb2dVertex
 10
174.157845
 20
206.814422
 30
0.0
  0
VERTEX
  5
486
100
AcDbEntity
  8
レイヤー_2
 62
     7
100
AcDbVertex
100
AcDb2dVertex
 10
173.971465
 20
206.798919
 30
0.0
  0
VERTEX
  5
487
100
AcDbEntity
  8
レイヤー_2
 62
     7
100
AcDbVertex
100
AcDb2dVertex
 10
173.720662
 20
206.779626
 30
0.0
  0
VERTEX
  5
488
100
AcDbEntity
  8
レイヤー_2
 62
     7
100
AcDbVertex
100
AcDb2dVertex
 10
173.41715
 20
206.755855
 30
0.0
  0
VERTEX
  5
489
100
AcDbEntity
  8
レイヤー_2
 62
     7
100
AcDbVertex
100
AcDb2dVertex
 10
173.071262
 20
206.728639
 30
0.0
  0
VERTEX
  5
48A
100
AcDbEntity
  8
レイヤー_2
 62
     7
100
AcDbVertex
100
AcDb2dVertex
 10
172.699192
 20
206.699011
 30
0.0
  0
VERTEX
  5
48B
100
AcDbEntity
  8
レイヤー_2
 62
     7
100
AcDbVertex
100
AcDb2dVertex
 10
172.315063
 20
206.668867
 30
0.0
  0
VERTEX
  5
48C
100
AcDbEntity
  8
レイヤー_2
 62
     7
100
AcDbVertex
100
AcDb2dVertex
 10
171.934725
 20
206.639067
 30
0.0
  0
VERTEX
  5
48D
100
AcDbEntity
  8
レイヤー_2
 62
     7
100
AcDbVertex
100
AcDb2dVertex
 10
171.574368
 20
206.610472
 30
0.0
  0
VERTEX
  5
48E
100
AcDbEntity
  8
レイヤー_2
 62
     7
100
AcDbVertex
100
AcDb2dVertex
 10
171.247773
 20
206.584634
 30
0.0
  0
VERTEX
  5
48F
100
AcDbEntity
  8
レイヤー_2
 62
     7
100
AcDbVertex
100
AcDb2dVertex
 10
170.969065
 20
206.56293
 30
0.0
  0
VERTEX
  5
490
100
AcDbEntity
  8
レイヤー_2
 62
     7
100
AcDbVertex
100
AcDb2dVertex
 10
170.749268
 20
206.546049
 30
0.0
  0
VERTEX
  5
491
100
AcDbEntity
  8
レイヤー_2
 62
     7
100
AcDbVertex
100
AcDb2dVertex
 10
170.597683
 20
206.533991
 30
0.0
  0
VERTEX
  5
492
100
AcDbEntity
  8
レイヤー_2
 62
     7
100
AcDbVertex
100
AcDb2dVertex
 10
170.520858
 20
206.52779
 30
0.0
  0
VERTEX
  5
493
100
AcDbEntity
  8
レイヤー_2
 62
     7
100
AcDbVertex
100
AcDb2dVertex
 10
170.510867
 20
206.526756
 30
0.0
  0
SEQEND
  5
494
100
AcDbEntity
  8
レイヤー_2
 62
     7
  0
POLYLINE
  5
478
100
AcDbEntity
  8
レイヤー_2
 62
     7
100
AcDb2dPolyline
 66
     1
 10
0.0
 20
0.0
 30
0.0
  0
VERTEX
  5
479
100
AcDbEntity
  8
レイヤー_2
 62
     7
100
AcDbVertex
100
AcDb2dVertex
 10
174.947116
 20
207.041626
 30
0.0
  0
VERTEX
  5
47A
100
AcDbEntity
  8
レイヤー_2
 62
     7
100
AcDbVertex
100
AcDb2dVertex
 10
174.936092
 20
207.041109
 30
0.0
  0
VERTEX
  5
47B
100
AcDbEntity
  8
レイヤー_2
 62
     7
100
AcDbVertex
100
AcDb2dVertex
 10
174.855821
 20
207.035253
 30
0.0
  0
VERTEX
  5
47C
100
AcDbEntity
  8
レイヤー_2
 62
     7
100
AcDbVertex
100
AcDb2dVertex
 10
174.697002
 20
207.022333
 30
0.0
  0
VERTEX
  5
47D
100
AcDbEntity
  8
レイヤー_2
 62
     7
100
AcDbVertex
100
AcDb2dVertex
 10
174.465492
 20
207.004419
 30
0.0
  0
VERTEX
  5
47E
100
AcDbEntity
  8
レイヤー_2
 62
     7
100
AcDbVertex
100
AcDb2dVertex
 10
174.16818
 20
206.981337
 30
0.0
  0
VERTEX
  5
47F
100
AcDbEntity
  8
レイヤー_2
 62
     7
100
AcDbVertex
100
AcDb2dVertex
 10
173.814369
 20
206.952915
 30
0.0
  0
VERTEX
  5
480
100
AcDbEntity
  8
レイヤー_2
 62
     7
100
AcDbVertex
100
AcDb2dVertex
 10
173.41715
 20
206.922081
 30
0.0
  0
SEQEND
  5
481
100
AcDbEntity
  8
レイヤー_2
 62
     7
  0
LINE
  5
477
100
AcDbEntity
  8
レイヤー_2
 62
     7
100
AcDbLine
 10
173.41715
 20
206.922081
 30
0.0
 11
173.359616
 21
207.648824
 31
0.0
  0
POLYLINE
  5
46C
100
AcDbEntity
  8
レイヤー_2
 62
     7
100
AcDb2dPolyline
 66
     1
 10
0.0
 20
0.0
 30
0.0
  0
VERTEX
  5
46D
100
AcDbEntity
  8
レイヤー_2
 62
     7
100
AcDbVertex
100
AcDb2dVertex
 10
171.322876
 20
207.488627
 30
0.0
  0
VERTEX
  5
46E
100
AcDbEntity
  8
レイヤー_2
 62
     7
100
AcDbVertex
100
AcDb2dVertex
 10
171.567478
 20
207.507747
 30
0.0
  0
VERTEX
  5
46F
100
AcDbEntity
  8
レイヤー_2
 62
     7
100
AcDbVertex
100
AcDb2dVertex
 10
171.821037
 20
207.527212
 30
0.0
  0
VERTEX
  5
470
100
AcDbEntity
  8
レイヤー_2
 62
     7
100
AcDbVertex
100
AcDb2dVertex
 10
172.079419
 20
207.547883
 30
0.0
  0
VERTEX
  5
471
100
AcDbEntity
  8
レイヤー_2
 62
     7
100
AcDbVertex
100
AcDb2dVertex
 10
172.341246
 20
207.568209
 30
0.0
  0
VERTEX
  5
472
100
AcDbEntity
  8
レイヤー_2
 62
     7
100
AcDbVertex
100
AcDb2dVertex
 10
172.60204
 20
207.588879
 30
0.0
  0
VERTEX
  5
473
100
AcDbEntity
  8
レイヤー_2
 62
     7
100
AcDbVertex
100
AcDb2dVertex
 10
172.860767
 20
207.609205
 30
0.0
  0
VERTEX
  5
474
100
AcDbEntity
  8
レイヤー_2
 62
     7
100
AcDbVertex
100
AcDb2dVertex
 10
173.11467
 20
207.629187
 30
0.0
  0
VERTEX
  5
475
100
AcDbEntity
  8
レイヤー_2
 62
     7
100
AcDbVertex
100
AcDb2dVertex
 10
173.359616
 20
207.648824
 30
0.0
  0
SEQEND
  5
476
100
AcDbEntity
  8
レイヤー_2
 62
     7
  0
LINE
  5
46B
100
AcDbEntity
  8
レイヤー_2
 62
     7
100
AcDbLine
 10
171.322876
 20
207.488627
 30
0.0
 11
171.379376
 21
206.761712
 31
0.0
  0
POLYLINE
  5
461
100
AcDbEntity
  8
レイヤー_2
 62
     7
100
AcDb2dPolyline
 66
     1
 10
0.0
 20
0.0
 30
0.0
  0
VERTEX
  5
462
100
AcDbEntity
  8
レイヤー_2
 62
     7
100
AcDbVertex
100
AcDb2dVertex
 10
171.379376
 20
206.761712
 30
0.0
  0
VERTEX
  5
463
100
AcDbEntity
  8
レイヤー_2
 62
     7
100
AcDbVertex
100
AcDb2dVertex
 10
170.981123
 20
206.729673
 30
0.0
  0
VERTEX
  5
464
100
AcDbEntity
  8
レイヤー_2
 62
     7
100
AcDbVertex
100
AcDb2dVertex
 10
170.628
 20
206.702112
 30
0.0
  0
VERTEX
  5
465
100
AcDbEntity
  8
レイヤー_2
 62
     7
100
AcDbVertex
100
AcDb2dVertex
 10
170.331033
 20
206.678857
 30
0.0
  0
VERTEX
  5
466
100
AcDbEntity
  8
レイヤー_2
 62
     7
100
AcDbVertex
100
AcDb2dVertex
 10
170.099178
 20
206.660771
 30
0.0
  0
VERTEX
  5
467
100
AcDbEntity
  8
レイヤー_2
 62
     7
100
AcDbVertex
100
AcDb2dVertex
 10
169.941048
 20
206.648024
 30
0.0
  0
VERTEX
  5
468
100
AcDbEntity
  8
レイヤー_2
 62
     7
100
AcDbVertex
100
AcDb2dVertex
 10
169.860433
 20
206.642339
 30
0.0
  0
VERTEX
  5
469
100
AcDbEntity
  8
レイヤー_2
 62
     7
100
AcDbVertex
100
AcDb2dVertex
 10
169.850442
 20
206.641134
 30
0.0
  0
SEQEND
  5
46A
100
AcDbEntity
  8
レイヤー_2
 62
     7
  0
POLYLINE
  5
455
100
AcDbEntity
  8
レイヤー_2
 62
     7
100
AcDb2dPolyline
 66
     1
 10
0.0
 20
0.0
 30
0.0
  0
VERTEX
  5
456
100
AcDbEntity
  8
レイヤー_2
 62
     7
100
AcDbVertex
100
AcDb2dVertex
 10
172.407737
 20
206.718648
 30
0.0
  0
VERTEX
  5
457
100
AcDbEntity
  8
レイヤー_2
 62
     7
100
AcDbVertex
100
AcDb2dVertex
 10
171.978478
 20
206.685403
 30
0.0
  0
VERTEX
  5
458
100
AcDbEntity
  8
レイヤー_2
 62
     7
100
AcDbVertex
100
AcDb2dVertex
 10
171.564377
 20
206.652158
 30
0.0
  0
VERTEX
  5
459
100
AcDbEntity
  8
レイヤー_2
 62
     7
100
AcDbVertex
100
AcDb2dVertex
 10
171.178182
 20
206.622013
 30
0.0
  0
VERTEX
  5
45A
100
AcDbEntity
  8
レイヤー_2
 62
     7
100
AcDbVertex
100
AcDb2dVertex
 10
170.834361
 20
206.595314
 30
0.0
  0
VERTEX
  5
45B
100
AcDbEntity
  8
レイヤー_2
 62
     7
100
AcDbVertex
100
AcDb2dVertex
 10
170.54394
 20
206.572059
 30
0.0
  0
VERTEX
  5
45C
100
AcDbEntity
  8
レイヤー_2
 62
     7
100
AcDbVertex
100
AcDb2dVertex
 10
170.317597
 20
206.554834
 30
0.0
  0
VERTEX
  5
45D
100
AcDbEntity
  8
レイヤー_2
 62
     7
100
AcDbVertex
100
AcDb2dVertex
 10
170.161534
 20
206.541915
 30
0.0
  0
VERTEX
  5
45E
100
AcDbEntity
  8
レイヤー_2
 62
     7
100
AcDbVertex
100
AcDb2dVertex
 10
170.081608
 20
206.53623
 30
0.0
  0
VERTEX
  5
45F
100
AcDbEntity
  8
レイヤー_2
 62
     7
100
AcDbVertex
100
AcDb2dVertex
 10
170.071617
 20
206.535541
 30
0.0
  0
SEQEND
  5
460
100
AcDbEntity
  8
レイヤー_2
 62
     7
  0
LINE
  5
454
100
AcDbEntity
  8
レイヤー_2
 62
     7
100
AcDbLine
 10
171.379376
 20
206.761712
 30
0.0
 11
172.407737
 21
206.718648
 31
0.0
  0
SPLINE
  5
453
100
AcDbEntity
  8
レイヤー_2
 62
     7
100
AcDbSpline
210
0.0
220
0.0
230
1.0
 70
     8
 71
     3
 72
    11
 73
     7
 74
     0
 42
0.00000001
 43
0.00000001
 40
0.0
 40
0.0
 40
0.0
 40
0.0
 40
1.0
 40
1.0
 40
1.0
 40
2.0
 40
2.0
 40
2.0
 40
2.0
 10
172.40773654513887
 20
206.71864827473956
 30
0.0
 10
172.49317491319442
 20
206.72743326822913
 30
0.0
 10
172.57861328124997
 20
206.73552924262151
 30
0.0
 10
172.66405164930555
 20
206.7475870768229
 30
0.0
 10
172.91864420572915
 20
206.78307156032983
 30
0.0
 10
173.16772460937497
 20
206.85231797960068
 30
0.0
 10
173.41714952256942
 20
206.92208116319443
 30
0.0
  0
POLYLINE
  5
447
100
AcDbEntity
  8
レイヤー_2
 62
     7
100
AcDb2dPolyline
 66
     1
 10
0.0
 20
0.0
 30
0.0
  0
VERTEX
  5
448
100
AcDbEntity
  8
レイヤー_2
 62
     7
100
AcDbVertex
100
AcDb2dVertex
 10
174.743511
 20
206.902961
 30
0.0
  0
VERTEX
  5
449
100
AcDbEntity
  8
レイヤー_2
 62
     7
100
AcDbVertex
100
AcDb2dVertex
 10
174.733521
 20
206.901927
 30
0.0
  0
VERTEX
  5
44A
100
AcDbEntity
  8
レイヤー_2
 62
     7
100
AcDbVertex
100
AcDb2dVertex
 10
174.654283
 20
206.895898
 30
0.0
  0
VERTEX
  5
44B
100
AcDbEntity
  8
レイヤー_2
 62
     7
100
AcDbVertex
100
AcDb2dVertex
 10
174.499254
 20
206.883496
 30
0.0
  0
VERTEX
  5
44C
100
AcDbEntity
  8
レイヤー_2
 62
     7
100
AcDbVertex
100
AcDb2dVertex
 10
174.271533
 20
206.865409
 30
0.0
  0
VERTEX
  5
44D
100
AcDbEntity
  8
レイヤー_2
 62
     7
100
AcDbVertex
100
AcDb2dVertex
 10
173.981801
 20
206.842672
 30
0.0
  0
VERTEX
  5
44E
100
AcDbEntity
  8
レイヤー_2
 62
     7
100
AcDbVertex
100
AcDb2dVertex
 10
173.637636
 20
206.815628
 30
0.0
  0
VERTEX
  5
44F
100
AcDbEntity
  8
レイヤー_2
 62
     7
100
AcDbVertex
100
AcDb2dVertex
 10
173.25144
 20
206.785483
 30
0.0
  0
VERTEX
  5
450
100
AcDbEntity
  8
レイヤー_2
 62
     7
100
AcDbVertex
100
AcDb2dVertex
 10
172.836995
 20
206.752582
 30
0.0
  0
VERTEX
  5
451
100
AcDbEntity
  8
レイヤー_2
 62
     7
100
AcDbVertex
100
AcDb2dVertex
 10
172.407737
 20
206.718648
 30
0.0
  0
SEQEND
  5
452
100
AcDbEntity
  8
レイヤー_2
 62
     7
  0
SPLINE
  5
446
100
AcDbEntity
  8
レイヤー_2
 62
     7
100
AcDbSpline
210
0.0
220
0.0
230
1.0
 70
     8
 71
     3
 72
    11
 73
     7
 74
     0
 42
0.00000001
 43
0.00000001
 40
0.0
 40
0.0
 40
0.0
 40
0.0
 40
1.0
 40
1.0
 40
1.0
 40
2.0
 40
2.0
 40
2.0
 40
2.0
 10
131.99332139756945
 20
185.1830118815104
 30
0.0
 10
132.4415283203125
 20
186.14298773871525
 30
0.0
 10
132.88904622395833
 20
187.10348036024303
 30
0.0
 10
133.33690863715276
 20
188.0638007269965
 30
0.0
 10
133.47781304253471
 20
188.36507432725693
 30
0.0
 10
133.57048611111111
 20
188.56402859157984
 30
0.0
 10
133.71104600694443
 20
188.86581895616317
 30
0.0
  0
SPLINE
  5
445
100
AcDbEntity
  8
レイヤー_2
 62
     7
100
AcDbSpline
210
0.0
220
0.0
230
1.0
 70
     8
 71
     3
 72
    11
 73
     7
 74
     0
 42
0.00000001
 43
0.00000001
 40
0.0
 40
0.0
 40
0.0
 40
0.0
 40
1.0
 40
1.0
 40
1.0
 40
2.0
 40
2.0
 40
2.0
 40
2.0
 10
152.25496148003469
 20
206.93069390190971
 30
0.0
 10
151.38094075520831
 20
207.44797498914929
 30
0.0
 10
150.50657552083331
 20
207.96473931206594
 30
0.0
 10
149.63186577690971
 20
208.48202039930553
 30
0.0
 10
147.91965332031248
 20
209.49384494357636
 30
0.0
 10
146.20778537326387
 20
210.50618625217012
 30
0.0
 10
144.49626193576387
 20
211.51852756076386
 30
0.0
  0
SPLINE
  5
444
100
AcDbEntity
  8
レイヤー_2
 62
     7
100
AcDbSpline
210
0.0
220
0.0
230
1.0
 70
     8
 71
     3
 72
     8
 73
     4
 74
     0
 42
0.00000001
 43
0.00000001
 40
0.0
 40
0.0
 40
0.0
 40
0.0
 40
1.0
 40
1.0
 40
1.0
 40
1.0
 10
144.47490234374999
 20
211.72161593967013
 30
0.0
 10
144.6268310546875
 20
211.72471652560762
 30
0.0
 10
144.77944878472221
 20
211.72661132812499
 30
0.0
 10
144.93344455295139
 20
211.72971191406248
 30
0.0
  0
SPLINE
  5
443
100
AcDbEntity
  8
レイヤー_2
 62
     7
100
AcDbSpline
210
0.0
220
0.0
230
1.0
 70
     8
 71
     3
 72
     8
 73
     4
 74
     0
 42
0.00000001
 43
0.00000001
 40
0.0
 40
0.0
 40
0.0
 40
0.0
 40
1.0
 40
1.0
 40
1.0
 40
1.0
 10
144.50556369357636
 20
211.53919813368054
 30
0.0
 10
144.44182942708332
 20
211.5689982096354
 30
0.0
 10
144.37775065104165
 20
211.59897054036458
 30
0.0
 10
144.3233181423611
 20
211.62377522786457
 30
0.0
  0
SPLINE
  5
442
100
AcDbEntity
  8
レイヤー_2
 62
     7
100
AcDbSpline
210
0.0
220
0.0
230
1.0
 70
     8
 71
     3
 72
     8
 73
     4
 74
     0
 42
0.00000001
 43
0.00000001
 40
0.0
 40
0.0
 40
0.0
 40
0.0
 40
1.0
 40
1.0
 40
1.0
 40
1.0
 10
144.31057128906249
 20
211.5972479926215
 30
0.0
 10
144.31504991319443
 20
211.6060329861111
 30
0.0
 10
144.31883951822914
 20
211.61481797960067
 30
0.0
 10
144.3233181423611
 20
211.62377522786457
 30
0.0
  0
SPLINE
  5
441
100
AcDbEntity
  8
レイヤー_2
 62
     7
100
AcDbSpline
210
0.0
220
0.0
230
1.0
 70
     8
 71
     3
 72
     8
 73
     4
 74
     0
 42
0.00000001
 43
0.00000001
 40
0.0
 40
0.0
 40
0.0
 40
0.0
 40
1.0
 40
1.0
 40
1.0
 40
1.0
 10
144.47490234374999
 20
211.72161593967013
 30
0.0
 10
144.40772298177083
 20
211.72023790147568
 30
0.0
 10
144.35053439670136
 20
211.68079155815971
 30
0.0
 10
144.3233181423611
 20
211.62377522786457
 30
0.0
  0
SPLINE
  5
440
100
AcDbEntity
  8
レイヤー_2
 62
     7
100
AcDbSpline
210
0.0
220
0.0
230
1.0
 70
     8
 71
     3
 72
    14
 73
    10
 74
     0
 42
0.00000001
 43
0.00000001
 40
0.0
 40
0.0
 40
0.0
 40
0.0
 40
1.0
 40
1.0
 40
1.0
 40
2.0
 40
2.0
 40
2.0
 40
3.0
 40
3.0
 40
3.0
 40
3.0
 10
144.93344455295139
 20
211.72971191406248
 30
0.0
 10
149.26117350260415
 20
211.80533175998261
 30
0.0
 10
153.58890245225692
 20
211.88060709635414
 30
0.0
 10
157.91697591145831
 20
211.9565714518229
 30
0.0
 10
162.2450493706597
 20
212.03167453342013
 30
0.0
 10
166.57312282986109
 20
212.10763888888886
 30
0.0
 10
170.90119628906248
 20
212.18325873480902
 30
0.0
 10
173.32482096354164
 20
212.22511664496525
 30
0.0
 10
175.74844563802083
 20
212.26749131944442
 30
0.0
 10
178.17275933159721
 20
212.30969373914928
 30
0.0
  0
SPLINE
  5
43F
100
AcDbEntity
  8
レイヤー_2
 62
     7
100
AcDbSpline
210
0.0
220
0.0
230
1.0
 70
     8
 71
     3
 72
    11
 73
     7
 74
     0
 42
0.00000001
 43
0.00000001
 40
0.0
 40
0.0
 40
0.0
 40
0.0
 40
1.0
 40
1.0
 40
1.0
 40
2.0
 40
2.0
 40
2.0
 40
2.0
 10
178.34570312499997
 20
212.13950602213541
 30
0.0
 10
178.34570312499997
 20
212.23355712890623
 30
0.0
 10
178.26922200520832
 20
212.30969373914928
 30
0.0
 10
178.17517089843747
 20
212.30969373914928
 30
0.0
 10
178.17379286024303
 20
212.30969373914928
 30
0.0
 10
178.1731038411458
 20
212.30969373914928
 30
0.0
 10
178.17275933159721
 20
212.30969373914928
 30
0.0
  0
SPLINE
  5
43E
100
AcDbEntity
  8
レイヤー_2
 62
     7
100
AcDbSpline
210
0.0
220
0.0
230
1.0
 70
     8
 71
     3
 72
     8
 73
     4
 74
     0
 42
0.00000001
 43
0.00000001
 40
0.0
 40
0.0
 40
0.0
 40
0.0
 40
1.0
 40
1.0
 40
1.0
 40
1.0
 10
178.32985568576387
 20
212.06733127170136
 30
0.0
 10
178.34053548177081
 20
212.09075792100691
 30
0.0
 10
178.3460476345486
 20
212.11625162760416
 30
0.0
 10
178.34570312499997
 20
212.13950602213541
 30
0.0
  0
SPLINE
  5
43D
100
AcDbEntity
  8
レイヤー_2
 62
     7
100
AcDbSpline
210
0.0
220
0.0
230
1.0
 70
     8
 71
     3
 72
    11
 73
     7
 74
     0
 42
0.00000001
 43
0.00000001
 40
0.0
 40
0.0
 40
0.0
 40
0.0
 40
1.0
 40
1.0
 40
1.0
 40
2.0
 40
2.0
 40
2.0
 40
2.0
 10
178.32985568576387
 20
212.06733127170136
 30
0.0
 10
178.09042154947915
 20
211.55573459201386
 30
0.0
 10
177.85236545138886
 20
211.04413791232636
 30
0.0
 10
177.61362033420139
 20
210.53271348741316
 30
0.0
 10
177.37487521701388
 20
210.02042778862847
 30
0.0
 10
177.13613009982637
 20
209.50865885416664
 30
0.0
 10
176.89738498263887
 20
208.99671766493054
 30
0.0
  0
SPLINE
  5
43C
100
AcDbEntity
  8
レイヤー_2
 62
     7
100
AcDbSpline
210
0.0
220
0.0
230
1.0
 70
     8
 71
     3
 72
    14
 73
    10
 74
     0
 42
0.00000001
 43
0.00000001
 40
0.0
 40
0.0
 40
0.0
 40
0.0
 40
1.0
 40
1.0
 40
1.0
 40
2.0
 40
2.0
 40
2.0
 40
3.0
 40
3.0
 40
3.0
 40
3.0
 10
152.22464463975692
 20
206.64233940972221
 30
0.0
 10
150.39598795572914
 20
202.72044270833331
 30
0.0
 10
148.56733127170136
 20
198.79837375217011
 30
0.0
 10
146.73833007812499
 20
194.87596028645831
 30
0.0
 10
145.82365722656249
 20
192.91483968098956
 30
0.0
 10
144.90863986545136
 20
190.95354682074651
 30
0.0
 10
143.99396701388886
 20
188.99242621527776
 30
0.0
 10
143.36282552083333
 20
187.639020453559
 30
0.0
 10
142.73133951822916
 20
186.28475341796874
 30
0.0
 10
142.10054253472222
 20
184.93169216579858
 30
0.0
  0
SPLINE
  5
43B
100
AcDbEntity
  8
レイヤー_2
 62
     7
100
AcDbSpline
210
0.0
220
0.0
230
1.0
 70
     8
 71
     3
 72
    11
 73
     7
 74
     0
 42
0.00000001
 43
0.00000001
 40
0.0
 40
0.0
 40
0.0
 40
0.0
 40
1.0
 40
1.0
 40
1.0
 40
2.0
 40
2.0
 40
2.0
 40
2.0
 10
176.75613606770833
 20
208.89870469835068
 30
0.0
 10
172.75638020833333
 20
208.58365071614583
 30
0.0
 10
168.75524631076388
 20
208.26911349826386
 30
0.0
 10
164.75514594184025
 20
207.95440402560763
 30
0.0
 10
160.75504557291666
 20
207.63935004340277
 30
0.0
 10
156.75425618489581
 20
207.32429606119788
 30
0.0
 10
152.75346679687499
 20
207.00941433376735
 30
0.0
  0
SPLINE
  5
43A
100
AcDbEntity
  8
レイヤー_2
 62
     7
100
AcDbSpline
210
0.0
220
0.0
230
1.0
 70
     8
 71
     3
 72
     8
 73
     4
 74
     0
 42
0.00000001
 43
0.00000001
 40
0.0
 40
0.0
 40
0.0
 40
0.0
 40
1.0
 40
1.0
 40
1.0
 40
1.0
 10
176.75613606770833
 20
208.89870469835068
 30
0.0
 10
176.81987033420137
 20
208.90404459635414
 30
0.0
 10
176.87189127604165
 20
208.94228515624999
 30
0.0
 10
176.89738498263887
 20
208.99671766493054
 30
0.0
  0
SPLINE
  5
439
100
AcDbEntity
  8
レイヤー_2
 62
     7
100
AcDbSpline
210
0.0
220
0.0
230
1.0
 70
     8
 71
     3
 72
     8
 73
     4
 74
     0
 42
0.00000001
 43
0.00000001
 40
0.0
 40
0.0
 40
0.0
 40
0.0
 40
1.0
 40
1.0
 40
1.0
 40
1.0
 10
152.75346679687499
 20
207.00941433376735
 30
0.0
 10
152.67664116753471
 20
207.00355767144094
 30
0.0
 10
152.60394965277777
 20
206.98409288194443
 30
0.0
 10
152.53504774305554
 20
206.95257025824651
 30
0.0
  0
SPLINE
  5
438
100
AcDbEntity
  8
レイヤー_2
 62
     7
100
AcDbSpline
210
0.0
220
0.0
230
1.0
 70
     8
 71
     3
 72
     8
 73
     4
 74
     0
 42
0.00000001
 43
0.00000001
 40
0.0
 40
0.0
 40
0.0
 40
0.0
 40
1.0
 40
1.0
 40
1.0
 40
1.0
 10
152.34625651041665
 20
206.81872829861109
 30
0.0
 10
152.3231743706597
 20
206.86403130425344
 30
0.0
 10
152.29079047309025
 20
206.9026163736979
 30
0.0
 10
152.25496148003469
 20
206.93069390190971
 30
0.0
  0
SPLINE
  5
437
100
AcDbEntity
  8
レイヤー_2
 62
     7
100
AcDbSpline
210
0.0
220
0.0
230
1.0
 70
     8
 71
     3
 72
     8
 73
     4
 74
     0
 42
0.00000001
 43
0.00000001
 40
0.0
 40
0.0
 40
0.0
 40
0.0
 40
1.0
 40
1.0
 40
1.0
 40
1.0
 10
152.34625651041665
 20
206.81872829861109
 30
0.0
 10
152.29595811631944
 20
206.76722412109373
 30
0.0
 10
152.25565049913192
 20
206.70865749782985
 30
0.0
 10
152.22464463975692
 20
206.64233940972221
 30
0.0
  0
SPLINE
  5
436
100
AcDbEntity
  8
レイヤー_2
 62
     7
100
AcDbSpline
210
0.0
220
0.0
230
1.0
 70
     8
 71
     3
 72
    11
 73
     7
 74
     0
 42
0.00000001
 43
0.00000001
 40
0.0
 40
0.0
 40
0.0
 40
0.0
 40
1.0
 40
1.0
 40
1.0
 40
2.0
 40
2.0
 40
2.0
 40
2.0
 10
152.53504774305554
 20
206.95257025824651
 30
0.0
 10
152.49956325954861
 20
206.93568929036456
 30
0.0
 10
152.46614583333331
 20
206.91674126519095
 30
0.0
 10
152.43479546440972
 20
206.89452039930555
 30
0.0
 10
152.40378960503472
 20
206.87195502387152
 30
0.0
 10
152.37416178385416
 20
206.8468058268229
 30
0.0
 10
152.34625651041665
 20
206.81872829861109
 30
0.0
  0
SPLINE
  5
435
100
AcDbEntity
  8
レイヤー_2
 62
     7
100
AcDbSpline
210
0.0
220
0.0
230
1.0
 70
     8
 71
     3
 72
     8
 73
     4
 74
     0
 42
0.00000001
 43
0.00000001
 40
0.0
 40
0.0
 40
0.0
 40
0.0
 40
1.0
 40
1.0
 40
1.0
 40
1.0
 10
141.46009928385416
 20
175.5090115017361
 30
0.0
 10
141.43598361545136
 20
175.5090115017361
 30
0.0
 10
141.41462402343748
 20
175.50126003689235
 30
0.0
 10
141.39705403645831
 20
175.48799641927081
 30
0.0
  0
LINE
  5
434
100
AcDbEntity
  8
レイヤー_2
 62
     7
100
AcDbLine
 10
140.386263
 20
175.402386
 30
0.0
 11
140.358013
 21
175.402386
 31
0.0
  0
SPLINE
  5
433
100
AcDbEntity
  8
レイヤー_2
 62
     7
100
AcDbSpline
210
0.0
220
0.0
230
1.0
 70
     8
 71
     3
 72
     8
 73
     4
 74
     0
 42
0.00000001
 43
0.00000001
 40
0.0
 40
0.0
 40
0.0
 40
0.0
 40
1.0
 40
1.0
 40
1.0
 40
1.0
 10
140.34595540364583
 20
174.04191758897568
 30
0.0
 10
140.34595540364583
 20
174.03244357638889
 30
0.0
 10
140.34940049913195
 20
174.02417534722221
 30
0.0
 10
140.35525716145833
 20
174.0181464301215
 30
0.0
  0
LINE
  5
432
100
AcDbEntity
  8
レイヤー_2
 62
     7
100
AcDbLine
 10
141.445285
 20
175.082681
 30
0.0
 11
140.386263
 21
175.082681
 31
0.0
  0
SPLINE
  5
431
100
AcDbEntity
  8
レイヤー_2
 62
     7
100
AcDbSpline
210
0.0
220
0.0
230
1.0
 70
     8
 71
     3
 72
     8
 73
     4
 74
     0
 42
0.00000001
 43
0.00000001
 40
0.0
 40
0.0
 40
0.0
 40
0.0
 40
1.0
 40
1.0
 40
1.0
 40
1.0
 10
141.39429796006942
 20
175.1898234049479
 30
0.0
 10
141.41014539930555
 20
175.15606146918401
 30
0.0
 10
141.42737087673609
 20
175.11850992838541
 30
0.0
 10
141.44528537326389
 20
175.08268093532985
 30
0.0
  0
POLYLINE
  5
42C
100
AcDbEntity
  8
レイヤー_2
 62
     7
100
AcDb2dPolyline
 66
     1
 10
0.0
 20
0.0
 30
0.0
  0
VERTEX
  5
42D
100
AcDbEntity
  8
レイヤー_2
 62
     7
100
AcDbVertex
100
AcDb2dVertex
 10
141.274753
 20
175.189479
 30
0.0
  0
VERTEX
  5
42E
100
AcDbEntity
  8
レイヤー_2
 62
     7
100
AcDbVertex
100
AcDb2dVertex
 10
141.271997
 20
175.189134
 30
0.0
  0
VERTEX
  5
42F
100
AcDbEntity
  8
レイヤー_2
 62
     7
100
AcDbVertex
100
AcDb2dVertex
 10
141.252705
 20
175.185862
 30
0.0
  0
SEQEND
  5
430
100
AcDbEntity
  8
レイヤー_2
 62
     7
  0
POLYLINE
  5
427
100
AcDbEntity
  8
レイヤー_2
 62
     7
100
AcDb2dPolyline
 66
     1
 10
0.0
 20
0.0
 30
0.0
  0
VERTEX
  5
428
100
AcDbEntity
  8
レイヤー_2
 62
     7
100
AcDbVertex
100
AcDb2dVertex
 10
140.355257
 20
174.018146
 30
0.0
  0
VERTEX
  5
429
100
AcDbEntity
  8
レイヤー_2
 62
     7
100
AcDbVertex
100
AcDb2dVertex
 10
140.335276
 20
174.020213
 30
0.0
  0
VERTEX
  5
42A
100
AcDbEntity
  8
レイヤー_2
 62
     7
100
AcDbVertex
100
AcDb2dVertex
 10
140.317361
 20
174.025209
 30
0.0
  0
SEQEND
  5
42B
100
AcDbEntity
  8
レイヤー_2
 62
     7
  0
LINE
  5
426
100
AcDbEntity
  8
レイヤー_2
 62
     7
100
AcDbLine
 10
103.747673
 20
183.348671
 30
0.0
 11
103.641391
 21
183.348671
 31
0.0
  0
SPLINE
  5
425
100
AcDbEntity
  8
レイヤー_2
 62
     7
100
AcDbSpline
210
0.0
220
0.0
230
1.0
 70
     8
 71
     3
 72
     8
 73
     4
 74
     0
 42
0.00000001
 43
0.00000001
 40
0.0
 40
0.0
 40
0.0
 40
0.0
 40
1.0
 40
1.0
 40
1.0
 40
1.0
 10
103.81157904730902
 20
183.41274956597221
 30
0.0
 10
103.81157904730902
 20
183.41274956597221
 30
0.0
 10
103.81157904730902
 20
183.41361083984373
 30
0.0
 10
103.81157904730902
 20
183.41429985894095
 30
0.0
  0
SPLINE
  5
424
100
AcDbEntity
  8
レイヤー_2
 62
     7
100
AcDbSpline
210
0.0
220
0.0
230
1.0
 70
     8
 71
     3
 72
     8
 73
     4
 74
     0
 42
0.00000001
 43
0.00000001
 40
0.0
 40
0.0
 40
0.0
 40
0.0
 40
1.0
 40
1.0
 40
1.0
 40
1.0
 10
103.74767252604165
 20
183.34867078993054
 30
0.0
 10
103.7833292643229
 20
183.34867078993054
 30
0.0
 10
103.81157904730902
 20
183.37760959201387
 30
0.0
 10
103.81157904730902
 20
183.41274956597221
 30
0.0
  0
LINE
  5
423
100
AcDbEntity
  8
レイヤー_2
 62
     7
100
AcDbLine
 10
92.268959
 20
183.348671
 30
0.0
 11
92.162505
 21
183.348671
 31
0.0
  0
SPLINE
  5
422
100
AcDbEntity
  8
レイヤー_2
 62
     7
100
AcDbSpline
210
0.0
220
0.0
230
1.0
 70
     8
 71
     3
 72
    14
 73
    10
 74
     0
 42
0.00000001
 43
0.00000001
 40
0.0
 40
0.0
 40
0.0
 40
0.0
 40
1.0
 40
1.0
 40
1.0
 40
2.0
 40
2.0
 40
2.0
 40
3.0
 40
3.0
 40
3.0
 40
3.0
 10
92.098771158854163
 20
183.41429985894095
 30
0.0
 10
92.098771158854163
 20
183.41361083984373
 30
0.0
 10
92.098771158854163
 20
183.41274956597221
 30
0.0
 10
92.098771158854163
 20
183.41274956597221
 30
0.0
 10
92.098771158854163
 20
183.37760959201387
 30
0.0
 10
92.127365451388883
 20
183.34867078993054
 30
0.0
 10
92.16250542534722
 20
183.34867078993054
 30
0.0
 10
92.16250542534722
 20
183.34867078993054
 30
0.0
 10
92.16250542534722
 20
183.34867078993054
 30
0.0
 10
92.16250542534722
 20
183.34867078993054
 30
0.0
  0
LINE
  5
421
100
AcDbEntity
  8
レイヤー_2
 62
     7
100
AcDbLine
 10
103.066922
 20
172.071323
 30
0.0
 11
103.066922
 21
172.710044
 31
0.0
  0
LINE
  5
420
100
AcDbEntity
  8
レイヤー_2
 62
     7
100
AcDbLine
 10
92.843256
 20
172.710044
 30
0.0
 11
92.843256
 21
172.071323
 31
0.0
  0
LINE
  5
41F
100
AcDbEntity
  8
レイヤー_2
 62
     7
100
AcDbLine
 10
92.843256
 20
172.071323
 30
0.0
 11
103.066922
 21
172.071323
 31
0.0
  0
LINE
  5
41E
100
AcDbEntity
  8
レイヤー_2
 62
     7
100
AcDbLine
 10
92.843256
 20
172.710044
 30
0.0
 11
103.066922
 21
172.710044
 31
0.0
  0
LINE
  5
41D
100
AcDbEntity
  8
レイヤー_2
 62
     7
100
AcDbLine
 10
93.162617
 20
172.071323
 30
0.0
 11
93.162617
 21
171.688401
 31
0.0
  0
LINE
  5
41C
100
AcDbEntity
  8
レイヤー_2
 62
     7
100
AcDbLine
 10
102.747906
 20
171.688401
 30
0.0
 11
102.747906
 21
172.071323
 31
0.0
  0
LINE
  5
41B
100
AcDbEntity
  8
レイヤー_2
 62
     7
100
AcDbLine
 10
97.955089
 20
171.688401
 30
0.0
 11
102.747906
 21
171.688401
 31
0.0
  0
LINE
  5
41A
100
AcDbEntity
  8
レイヤー_2
 62
     7
100
AcDbLine
 10
93.162617
 20
171.688401
 30
0.0
 11
97.955089
 21
171.688401
 31
0.0
  0
LINE
  5
419
100
AcDbEntity
  8
レイヤー_2
 62
     7
100
AcDbLine
 10
97.955089
 20
172.071323
 30
0.0
 11
102.747906
 21
172.071323
 31
0.0
  0
LINE
  5
418
100
AcDbEntity
  8
レイヤー_2
 62
     7
100
AcDbLine
 10
93.162617
 20
172.071323
 30
0.0
 11
97.955089
 21
172.071323
 31
0.0
  0
LINE
  5
417
100
AcDbEntity
  8
レイヤー_2
 62
     7
100
AcDbLine
 10
93.801337
 20
171.688401
 30
0.0
 11
93.801337
 21
170.409926
 31
0.0
  0
LINE
  5
416
100
AcDbEntity
  8
レイヤー_2
 62
     7
100
AcDbLine
 10
102.109185
 20
170.409926
 30
0.0
 11
102.109185
 21
171.688401
 31
0.0
  0
LINE
  5
415
100
AcDbEntity
  8
レイヤー_2
 62
     7
100
AcDbLine
 10
96.12247
 20
171.688401
 30
0.0
 11
96.12247
 21
170.409926
 31
0.0
  0
LINE
  5
414
100
AcDbEntity
  8
レイヤー_2
 62
     7
100
AcDbLine
 10
96.12247
 20
171.688401
 30
0.0
 11
99.787191
 21
171.688401
 31
0.0
  0
LINE
  5
413
100
AcDbEntity
  8
レイヤー_2
 62
     7
100
AcDbLine
 10
99.787191
 20
171.688401
 30
0.0
 11
99.787191
 21
170.409926
 31
0.0
  0
LINE
  5
412
100
AcDbEntity
  8
レイヤー_2
 62
     7
100
AcDbLine
 10
96.12247
 20
170.409926
 30
0.0
 11
99.787191
 21
170.409926
 31
0.0
  0
LINE
  5
411
100
AcDbEntity
  8
レイヤー_2
 62
     7
100
AcDbLine
 10
96.12247
 20
170.409926
 30
0.0
 11
95.643085
 21
170.409926
 31
0.0
  0
LINE
  5
410
100
AcDbEntity
  8
レイヤー_2
 62
     7
100
AcDbLine
 10
95.643085
 20
171.688401
 30
0.0
 11
95.643085
 21
170.409926
 31
0.0
  0
LINE
  5
40F
100
AcDbEntity
  8
レイヤー_2
 62
     7
100
AcDbLine
 10
96.12247
 20
171.688401
 30
0.0
 11
95.643085
 21
171.688401
 31
0.0
  0
LINE
  5
40E
100
AcDbEntity
  8
レイヤー_2
 62
     7
100
AcDbLine
 10
100.267093
 20
171.688401
 30
0.0
 11
100.267093
 21
170.409926
 31
0.0
  0
LINE
  5
40D
100
AcDbEntity
  8
レイヤー_2
 62
     7
100
AcDbLine
 10
100.267093
 20
170.409926
 30
0.0
 11
99.787191
 21
170.409926
 31
0.0
  0
LINE
  5
40C
100
AcDbEntity
  8
レイヤー_2
 62
     7
100
AcDbLine
 10
100.267093
 20
171.688401
 30
0.0
 11
99.787191
 21
171.688401
 31
0.0
  0
LINE
  5
40B
100
AcDbEntity
  8
レイヤー_2
 62
     7
100
AcDbLine
 10
102.099539
 20
171.688401
 30
0.0
 11
102.099539
 21
170.409926
 31
0.0
  0
LINE
  5
40A
100
AcDbEntity
  8
レイヤー_2
 62
     7
100
AcDbLine
 10
100.267093
 20
170.409926
 30
0.0
 11
102.099539
 21
170.409926
 31
0.0
  0
LINE
  5
409
100
AcDbEntity
  8
レイヤー_2
 62
     7
100
AcDbLine
 10
100.267093
 20
171.688401
 30
0.0
 11
102.099539
 21
171.688401
 31
0.0
  0
LINE
  5
408
100
AcDbEntity
  8
レイヤー_2
 62
     7
100
AcDbLine
 10
93.810639
 20
171.688401
 30
0.0
 11
93.810639
 21
170.409926
 31
0.0
  0
LINE
  5
407
100
AcDbEntity
  8
レイヤー_2
 62
     7
100
AcDbLine
 10
95.643085
 20
170.409926
 30
0.0
 11
93.810639
 21
170.409926
 31
0.0
  0
LINE
  5
406
100
AcDbEntity
  8
レイヤー_2
 62
     7
100
AcDbLine
 10
95.643085
 20
171.688401
 30
0.0
 11
93.810639
 21
171.688401
 31
0.0
  0
LINE
  5
405
100
AcDbEntity
  8
レイヤー_2
 62
     7
100
AcDbLine
 10
93.810639
 20
170.409926
 30
0.0
 11
93.801337
 21
170.409926
 31
0.0
  0
LINE
  5
404
100
AcDbEntity
  8
レイヤー_2
 62
     7
100
AcDbLine
 10
93.810639
 20
171.688401
 30
0.0
 11
93.801337
 21
171.688401
 31
0.0
  0
LINE
  5
403
100
AcDbEntity
  8
レイヤー_2
 62
     7
100
AcDbLine
 10
102.109185
 20
170.409926
 30
0.0
 11
102.099539
 21
170.409926
 31
0.0
  0
LINE
  5
402
100
AcDbEntity
  8
レイヤー_2
 62
     7
100
AcDbLine
 10
102.109185
 20
171.688401
 30
0.0
 11
102.099539
 21
171.688401
 31
0.0
  0
SPLINE
  5
401
100
AcDbEntity
  8
レイヤー_2
 62
     7
100
AcDbSpline
210
0.0
220
0.0
230
1.0
 70
     8
 71
     3
 72
     8
 73
     4
 74
     0
 42
0.00000001
 43
0.00000001
 40
0.0
 40
0.0
 40
0.0
 40
0.0
 40
1.0
 40
1.0
 40
1.0
 40
1.0
 10
93.945170084635407
 20
183.34746500651039
 30
0.0
 10
94.001497395833326
 20
183.23928900824652
 30
0.0
 10
94.111912706163181
 20
183.17865532769096
 30
0.0
 10
94.227495659722209
 20
183.17727728949652
 30
0.0
  0
SPLINE
  5
400
100
AcDbEntity
  8
レイヤー_2
 62
     7
100
AcDbSpline
210
0.0
220
0.0
230
1.0
 70
     8
 71
     3
 72
     8
 73
     4
 74
     0
 42
0.00000001
 43
0.00000001
 40
0.0
 40
0.0
 40
0.0
 40
0.0
 40
1.0
 40
1.0
 40
1.0
 40
1.0
 10
101.68251003689235
 20
183.17727728949652
 30
0.0
 10
101.80515543619791
 20
183.17727728949652
 30
0.0
 10
101.91040310329861
 20
183.24531792534719
 30
0.0
 10
101.96552463107638
 20
183.34746500651039
 30
0.0
  0
LINE
  5
3FF
100
AcDbEntity
  8
レイヤー_2
 62
     7
100
AcDbLine
 10
94.227496
 20
183.177277
 30
0.0
 11
101.68251
 21
183.177277
 31
0.0
  0
LINE
  5
3FE
100
AcDbEntity
  8
レイヤー_2
 62
     7
100
AcDbLine
 10
94.778883
 20
183.177277
 30
0.0
 11
94.786807
 21
172.710044
 31
0.0
  0
SPLINE
  5
3FD
100
AcDbEntity
  8
レイヤー_2
 62
     7
100
AcDbSpline
210
0.0
220
0.0
230
1.0
 70
     8
 71
     3
 72
     8
 73
     4
 74
     0
 42
0.00000001
 43
0.00000001
 40
0.0
 40
0.0
 40
0.0
 40
0.0
 40
1.0
 40
1.0
 40
1.0
 40
1.0
 10
94.778883192274293
 20
170.40992567274304
 30
0.0
 10
94.778883192274293
 20
169.13007269965277
 30
0.0
 10
94.778883192274293
 20
168.68841145833332
 30
0.0
 10
94.778883192274293
 20
168.68841145833332
 30
0.0
  0
SPLINE
  5
3FC
100
AcDbEntity
  8
レイヤー_2
 62
     7
100
AcDbSpline
210
0.0
220
0.0
230
1.0
 70
     8
 71
     3
 72
     8
 73
     4
 74
     0
 42
0.00000001
 43
0.00000001
 40
0.0
 40
0.0
 40
0.0
 40
0.0
 40
1.0
 40
1.0
 40
1.0
 40
1.0
 10
101.13095024956597
 20
168.68841145833332
 30
0.0
 10
101.13095024956597
 20
168.68841145833332
 30
0.0
 10
101.13095024956597
 20
169.13007269965277
 30
0.0
 10
101.13095024956597
 20
170.40992567274304
 30
0.0
  0
LINE
  5
3FB
100
AcDbEntity
  8
レイヤー_2
 62
     7
100
AcDbLine
 10
101.121132
 20
172.710044
 30
0.0
 11
101.13095
 21
183.177277
 31
0.0
  0
SPLINE
  5
3FA
100
AcDbEntity
  8
レイヤー_2
 62
     7
100
AcDbSpline
210
0.0
220
0.0
230
1.0
 70
     8
 71
     3
 72
     8
 73
     4
 74
     0
 42
0.00000001
 43
0.00000001
 40
0.0
 40
0.0
 40
0.0
 40
0.0
 40
1.0
 40
1.0
 40
1.0
 40
1.0
 10
94.778883192274293
 20
170.40992567274304
 30
0.0
 10
94.778883192274293
 20
169.13007269965277
 30
0.0
 10
94.778883192274293
 20
168.68841145833332
 30
0.0
 10
94.778883192274293
 20
168.68841145833332
 30
0.0
  0
LINE
  5
3F9
100
AcDbEntity
  8
レイヤー_2
 62
     7
100
AcDbLine
 10
94.759935
 20
163.431368
 30
0.0
 11
94.759935
 21
162.792475
 31
0.0
  0
LINE
  5
3F8
100
AcDbEntity
  8
レイヤー_2
 62
     7
100
AcDbLine
 10
101.150415
 20
162.792475
 30
0.0
 11
101.150415
 21
163.431368
 31
0.0
  0
LINE
  5
3F7
100
AcDbEntity
  8
レイヤー_2
 62
     7
100
AcDbLine
 10
102.215122
 20
163.431368
 30
0.0
 11
102.215122
 21
168.543717
 31
0.0
  0
SPLINE
  5
3F6
100
AcDbEntity
  8
レイヤー_2
 62
     7
100
AcDbSpline
210
0.0
220
0.0
230
1.0
 70
     8
 71
     3
 72
    23
 73
    19
 74
     0
 42
0.00000001
 43
0.00000001
 40
0.0
 40
0.0
 40
0.0
 40
0.0
 40
1.0
 40
1.0
 40
1.0
 40
2.0
 40
2.0
 40
2.0
 40
3.0
 40
3.0
 40
3.0
 40
4.0
 40
4.0
 40
4.0
 40
5.0
 40
5.0
 40
5.0
 40
6.0
 40
6.0
 40
6.0
 40
6.0
 10
93.479909939236109
 20
163.64238009982637
 30
0.0
 10
93.497824435763874
 20
163.64220784505207
 30
0.0
 10
93.516427951388877
 20
163.64220784505207
 30
0.0
 10
93.533825683593747
 20
163.63824598524303
 30
0.0
 10
93.559319390190964
 20
163.6335951063368
 30
0.0
 10
93.582746039496513
 20
163.62188178168401
 30
0.0
 10
93.60427788628472
 20
163.60655110677081
 30
0.0
 10
93.624948459201377
 20
163.59156494140623
 30
0.0
 10
93.642862955729157
 20
163.57433946397569
 30
0.0
 10
93.656987847222211
 20
163.55315212673611
 30
0.0
 10
93.668012152777763
 20
163.53747694227428
 30
0.0
 10
93.67748616536457
 20
163.51939019097222
 30
0.0
 10
93.684031846788187
 20
163.5006144205729
 30
0.0
 10
93.68954399956597
 20
163.4847669813368
 30
0.0
 10
93.693333604600681
 20
163.46805826822916
 30
0.0
 10
93.694539388020829
 20
163.45152180989581
 30
0.0
 10
93.694539388020829
 20
163.45152180989581
 30
0.0
 10
93.694539388020829
 20
163.43085123697915
 30
0.0
 10
93.694539388020829
 20
163.43085123697915
 30
0.0
  0
SPLINE
  5
3F5
100
AcDbEntity
  8
レイヤー_2
 62
     7
100
AcDbSpline
210
0.0
220
0.0
230
1.0
 70
     8
 71
     3
 72
    20
 73
    16
 74
     0
 42
0.00000001
 43
0.00000001
 40
0.0
 40
0.0
 40
0.0
 40
0.0
 40
1.0
 40
1.0
 40
1.0
 40
2.0
 40
2.0
 40
2.0
 40
3.0
 40
3.0
 40
3.0
 40
4.0
 40
4.0
 40
4.0
 40
5.0
 40
5.0
 40
5.0
 40
5.0
 10
93.693161349826383
 20
168.53613823784721
 30
0.0
 10
93.693161349826383
 20
168.52580295138887
 30
0.0
 10
93.693161349826383
 20
168.51546766493055
 30
0.0
 10
93.691266547309013
 20
168.50564914279514
 30
0.0
 10
93.688682725694434
 20
168.48205023871526
 30
0.0
 10
93.67989773220485
 20
168.45879584418401
 30
0.0
 10
93.666634114583331
 20
168.43778076171873
 30
0.0
 10
93.65371500651041
 20
168.41607666015622
 30
0.0
 10
93.637867567274299
 20
168.39712863498264
 30
0.0
 10
93.619091796874997
 20
168.38076443142359
 30
0.0
 10
93.59945475260416
 20
168.36388346354164
 30
0.0
 10
93.576372612847209
 20
168.35010308159721
 30
0.0
 10
93.552256944444437
 20
168.34235161675346
 30
0.0
 10
93.530725097656244
 20
168.33597819010416
 30
0.0
 10
93.508676486545127
 20
168.33391113281249
 30
0.0
 10
93.486455620659711
 20
168.3313273111979
 30
0.0
  0
LINE
  5
3F4
100
AcDbEntity
  8
レイヤー_2
 62
     7
100
AcDbLine
 10
93.268898
 20
163.644447
 30
0.0
 11
93.481977
 21
163.644447
 31
0.0
  0
LINE
  5
3F3
100
AcDbEntity
  8
レイヤー_2
 62
     7
100
AcDbLine
 10
93.488523
 20
168.330983
 30
0.0
 11
93.268898
 21
168.330983
 31
0.0
  0
LINE
  5
3F2
100
AcDbEntity
  8
レイヤー_2
 62
     7
100
AcDbLine
 10
90.819435
 20
168.202653
 30
0.0
 11
90.713154
 21
168.096372
 31
0.0
  0
LINE
  5
3F1
100
AcDbEntity
  8
レイヤー_2
 62
     7
100
AcDbLine
 10
90.713154
 20
163.878714
 30
0.0
 11
90.819435
 21
163.772088
 31
0.0
  0
LINE
  5
3F0
100
AcDbEntity
  8
レイヤー_2
 62
     7
100
AcDbLine
 10
90.819435
 20
163.772088
 30
0.0
 11
93.268898
 21
163.772088
 31
0.0
  0
LINE
  5
3EF
100
AcDbEntity
  8
レイヤー_2
 62
     7
100
AcDbLine
 10
93.268898
 20
168.202653
 30
0.0
 11
90.819435
 21
168.202653
 31
0.0
  0
LINE
  5
3EE
100
AcDbEntity
  8
レイヤー_2
 62
     7
100
AcDbLine
 10
94.778883
 20
168.688411
 30
0.0
 11
94.924266
 21
168.543717
 31
0.0
  0
LINE
  5
3ED
100
AcDbEntity
  8
レイヤー_2
 62
     7
100
AcDbLine
 10
100.985739
 20
168.543717
 30
0.0
 11
101.13095
 21
168.688411
 31
0.0
  0
LINE
  5
3EC
100
AcDbEntity
  8
レイヤー_2
 62
     7
100
AcDbLine
 10
94.759935
 20
162.792475
 30
0.0
 11
101.150415
 21
162.792475
 31
0.0
  0
SPLINE
  5
3EB
100
AcDbEntity
  8
レイヤー_2
 62
     7
100
AcDbSpline
210
0.0
220
0.0
230
1.0
 70
     8
 71
     3
 72
    50
 73
    46
 74
     0
 42
0.00000001
 43
0.00000001
 40
0.0
 40
0.0
 40
0.0
 40
0.0
 40
1.0
 40
1.0
 40
1.0
 40
2.0
 40
2.0
 40
2.0
 40
3.0
 40
3.0
 40
3.0
 40
4.0
 40
4.0
 40
4.0
 40
5.0
 40
5.0
 40
5.0
 40
6.0
 40
6.0
 40
6.0
 40
7.0
 40
7.0
 40
7.0
 40
8.0
 40
8.0
 40
8.0
 40
9.0
 40
9.0
 40
9.0
 40
10.0
 40
10.0
 40
10.0
 40
11.0
 40
11.0
 40
11.0
 40
12.0
 40
12.0
 40
12.0
 40
13.0
 40
13.0
 40
13.0
 40
14.0
 40
14.0
 40
14.0
 40
15.0
 40
15.0
 40
15.0
 40
15.0
 10
93.69488389756944
 20
168.54371744791666
 30
0.0
 10
93.69488389756944
 20
168.54371744791666
 30
0.0
 10
93.698845757378464
 20
168.53734402126736
 30
0.0
 10
93.703841145833323
 20
168.52735324435761
 30
0.0
 10
93.711764865451386
 20
168.51219482421874
 30
0.0
 10
93.729162597656241
 20
168.48101671006944
 30
0.0
 10
93.75155571831597
 20
168.43933105468747
 30
0.0
 10
93.774465603298609
 20
168.39437255859374
 30
0.0
 10
93.804437934027774
 20
168.33856201171872
 30
0.0
 10
93.838027615017353
 20
168.27086588541664
 30
0.0
 10
93.87127278645832
 20
168.20403103298611
 30
0.0
 10
93.90951334635416
 20
168.12617187499998
 30
0.0
 10
93.950165473090266
 20
168.03952772352429
 30
0.0
 10
93.991162109374997
 20
167.950299750434
 30
0.0
 10
94.035776095920127
 20
167.8503919813368
 30
0.0
 10
94.080217827690959
 20
167.74290500217012
 30
0.0
 10
94.156182183159714
 20
167.55790337456597
 30
0.0
 10
94.233524576822902
 20
167.34671902126735
 30
0.0
 10
94.297258843315959
 20
167.11744791666666
 30
0.0
 10
94.355308702256934
 20
166.90953640407986
 30
0.0
 10
94.403367784288193
 20
166.68629421657985
 30
0.0
 10
94.430411783854154
 20
166.45581732855902
 30
0.0
 10
94.446431477864579
 20
166.32714301215276
 30
0.0
 10
94.455905490451386
 20
166.19571261935764
 30
0.0
 10
94.45797254774304
 20
166.06497124565971
 30
0.0
 10
94.460900878906244
 20
165.92854546440969
 30
0.0
 10
94.456422254774296
 20
165.79246419270831
 30
0.0
 10
94.445053439670133
 20
165.65810546874999
 30
0.0
 10
94.432134331597211
 20
165.50721028645833
 30
0.0
 10
94.41043023003472
 20
165.35803765190971
 30
0.0
 10
94.382008192274299
 20
165.2150661892361
 30
0.0
 10
94.353241644965266
 20
165.06572129991318
 30
0.0
 10
94.316723632812497
 20
164.92206081814234
 30
0.0
 10
94.276071506076377
 20
164.78494601779514
 30
0.0
 10
94.201829698350693
 20
164.53328179253469
 30
0.0
 10
94.112946234809016
 20
164.30487196180553
 30
0.0
 10
94.028369140624989
 20
164.11005181206596
 30
0.0
 10
93.954644097222214
 20
163.93969184027776
 30
0.0
 10
93.884019639756943
 20
163.7949978298611
 30
0.0
 10
93.826486545138877
 20
163.68165418836804
 30
0.0
 10
93.77291531032985
 20
163.57571750217014
 30
0.0
 10
93.730712890624986
 20
163.49751383463541
 30
0.0
 10
93.711420355902774
 20
163.46237386067708
 30
0.0
 10
93.701774088541654
 20
163.44411485460068
 30
0.0
 10
93.69488389756944
 20
163.43136800130208
 30
0.0
 10
93.69488389756944
 20
163.43136800130208
 30
0.0
  0
LINE
  5
3EA
100
AcDbEntity
  8
レイヤー_2
 62
     7
100
AcDbLine
 10
102.215122
 20
168.543717
 30
0.0
 11
93.694884
 21
168.543717
 31
0.0
  0
LINE
  5
3E9
100
AcDbEntity
  8
レイヤー_2
 62
     7
100
AcDbLine
 10
93.694884
 20
163.431368
 30
0.0
 11
102.215122
 21
163.431368
 31
0.0
  0
LINE
  5
3E8
100
AcDbEntity
  8
レイヤー_2
 62
     7
100
AcDbLine
 10
93.268898
 20
163.644447
 30
0.0
 11
93.268898
 21
168.330983
 31
0.0
  0
LINE
  5
3E7
100
AcDbEntity
  8
レイヤー_2
 62
     7
100
AcDbLine
 10
90.713154
 20
163.878714
 30
0.0
 11
90.713154
 21
168.096372
 31
0.0
  0
LINE
  5
3E6
100
AcDbEntity
  8
レイヤー_2
 62
     7
100
AcDbLine
 10
90.819435
 20
163.772088
 30
0.0
 11
90.819435
 21
168.202653
 31
0.0
  0
LINE
  5
3E5
100
AcDbEntity
  8
レイヤー_2
 62
     7
100
AcDbLine
 10
97.955089
 20
168.688411
 30
0.0
 11
101.13095
 21
168.688411
 31
0.0
  0
LINE
  5
3E4
100
AcDbEntity
  8
レイヤー_2
 62
     7
100
AcDbLine
 10
94.778883
 20
168.688411
 30
0.0
 11
97.955089
 21
168.688411
 31
0.0
  0
SPLINE
  5
3E3
100
AcDbEntity
  8
レイヤー_2
 62
     7
100
AcDbSpline
210
0.0
220
0.0
230
1.0
 70
     8
 71
     3
 72
    50
 73
    46
 74
     0
 42
0.00000001
 43
0.00000001
 40
0.0
 40
0.0
 40
0.0
 40
0.0
 40
1.0
 40
1.0
 40
1.0
 40
2.0
 40
2.0
 40
2.0
 40
3.0
 40
3.0
 40
3.0
 40
4.0
 40
4.0
 40
4.0
 40
5.0
 40
5.0
 40
5.0
 40
6.0
 40
6.0
 40
6.0
 40
7.0
 40
7.0
 40
7.0
 40
8.0
 40
8.0
 40
8.0
 40
9.0
 40
9.0
 40
9.0
 40
10.0
 40
10.0
 40
10.0
 40
11.0
 40
11.0
 40
11.0
 40
12.0
 40
12.0
 40
12.0
 40
13.0
 40
13.0
 40
13.0
 40
14.0
 40
14.0
 40
14.0
 40
15.0
 40
15.0
 40
15.0
 40
15.0
 10
93.481976996527763
 20
163.64444715711804
 30
0.0
 10
93.481976996527763
 20
163.64444715711804
 30
0.0
 10
93.489383951822902
 20
163.65616048177083
 30
0.0
 10
93.499374728732633
 20
163.67269694010415
 30
0.0
 10
93.51952853732638
 20
163.70525309244789
 30
0.0
 10
93.5636257595486
 20
163.77656656901041
 30
0.0
 10
93.619953070746519
 20
163.87423502604165
 30
0.0
 10
93.680069986979163
 20
163.97776014539929
 30
0.0
 10
93.753795030381937
 20
164.11005181206596
 30
0.0
 10
93.83199869791666
 20
164.26645914713541
 30
0.0
 10
93.920020887586801
 20
164.44336480034721
 30
0.0
 10
94.013038465711801
 20
164.65179307725694
 30
0.0
 10
94.092447916666657
 20
164.88588731553818
 30
0.0
 10
94.158421495225681
 20
165.07950168185764
 30
0.0
 10
94.214059787326377
 20
165.29120279947915
 30
0.0
 10
94.247821723090269
 20
165.51220567491319
 30
0.0
 10
94.256606716579853
 20
165.56956651475693
 30
0.0
 10
94.26366916232638
 20
165.62692735460067
 30
0.0
 10
94.269525824652774
 20
165.68549397786458
 30
0.0
 10
94.280894639756937
 20
165.80383300781247
 30
0.0
 10
94.285890028211796
 20
165.92458360460068
 30
0.0
 10
94.283822970920127
 20
166.04533420138887
 30
0.0
 10
94.280894639756937
 20
166.17004665798609
 30
0.0
 10
94.271592881944443
 20
166.29441460503472
 30
0.0
 10
94.254367404513886
 20
166.41688774956594
 30
0.0
 10
94.225084092881943
 20
166.62927788628471
 30
0.0
 10
94.174785698784717
 20
166.834088812934
 30
0.0
 10
94.11397976345485
 20
167.02322455512152
 30
0.0
 10
94.04662814670138
 20
167.23544243706596
 30
0.0
 10
93.965668402777766
 20
167.42819552951389
 30
0.0
 10
93.886603461371521
 20
167.59648844401039
 30
0.0
 10
93.840955946180543
 20
167.69277886284721
 30
0.0
 10
93.79565294053819
 20
167.78183458116317
 30
0.0
 10
93.752933756510402
 20
167.86210530598956
 30
0.0
 10
93.709181043836793
 20
167.94444308810762
 30
0.0
 10
93.668012152777763
 20
168.01799587673611
 30
0.0
 10
93.632183159722217
 20
168.080524359809
 30
0.0
 10
93.59755995008679
 20
168.13995225694444
 30
0.0
 10
93.568793402777771
 20
168.18921712239583
 30
0.0
 10
93.544160970052076
 20
168.22986924913192
 30
0.0
 10
93.518322753906247
 20
168.27224392361109
 30
0.0
 10
93.498341200086799
 20
168.30445556640623
 30
0.0
 10
93.491278754340271
 20
168.31599663628469
 30
0.0
 10
93.491278754340271
 20
168.31599663628469
 30
0.0
 10
93.48852267795138
 20
168.31961398654514
 30
0.0
 10
93.48852267795138
 20
168.31961398654514
 30
0.0
  0
LINE
  5
3E2
100
AcDbEntity
  8
レイヤー_2
 62
     7
100
AcDbLine
 10
95.04295
 20
183.177277
 30
0.0
 11
95.04295
 21
172.710044
 31
0.0
  0
LINE
  5
3E1
100
AcDbEntity
  8
レイヤー_2
 62
     7
100
AcDbLine
 10
95.04295
 20
170.409926
 30
0.0
 11
95.04295
 21
168.543717
 31
0.0
  0
LINE
  5
3E0
100
AcDbEntity
  8
レイヤー_2
 62
     7
100
AcDbLine
 10
100.823475
 20
170.409926
 30
0.0
 11
100.823475
 21
168.543717
 31
0.0
  0
LINE
  5
3DF
100
AcDbEntity
  8
レイヤー_2
 62
     7
100
AcDbLine
 10
100.823475
 20
183.177277
 30
0.0
 11
100.823475
 21
172.710044
 31
0.0
  0
LINE
  5
3DE
100
AcDbEntity
  8
レイヤー_2
 62
     7
100
AcDbLine
 10
49.681205
 20
183.325416
 30
0.0
 11
49.787831
 21
183.325416
 31
0.0
  0
SPLINE
  5
3DD
100
AcDbEntity
  8
レイヤー_2
 62
     7
100
AcDbSpline
210
0.0
220
0.0
230
1.0
 70
     8
 71
     3
 72
    11
 73
     7
 74
     0
 42
0.00000001
 43
0.00000001
 40
0.0
 40
0.0
 40
0.0
 40
0.0
 40
1.0
 40
1.0
 40
1.0
 40
2.0
 40
2.0
 40
2.0
 40
2.0
 10
49.617815483940966
 20
183.39035644531248
 30
0.0
 10
49.617815483940966
 20
183.38983968098955
 30
0.0
 10
49.617815483940966
 20
183.38949517144096
 30
0.0
 10
49.617815483940966
 20
183.38880615234373
 30
0.0
 10
49.617815483940966
 20
183.3536661783854
 30
0.0
 10
49.646065266927081
 20
183.32541639539929
 30
0.0
 10
49.681205240885411
 20
183.32541639539929
 30
0.0
  0
LINE
  5
3DC
100
AcDbEntity
  8
レイヤー_2
 62
     7
100
AcDbLine
 10
61.160091
 20
183.325416
 30
0.0
 11
61.267061
 21
183.325416
 31
0.0
  0
SPLINE
  5
3DB
100
AcDbEntity
  8
レイヤー_2
 62
     7
100
AcDbSpline
210
0.0
220
0.0
230
1.0
 70
     8
 71
     3
 72
     8
 73
     4
 74
     0
 42
0.00000001
 43
0.00000001
 40
0.0
 40
0.0
 40
0.0
 40
0.0
 40
1.0
 40
1.0
 40
1.0
 40
1.0
 10
61.330451117621521
 20
183.38880615234373
 30
0.0
 10
61.330451117621521
 20
183.38949517144096
 30
0.0
 10
61.330451117621521
 20
183.38983968098955
 30
0.0
 10
61.330451117621521
 20
183.39035644531248
 30
0.0
  0
SPLINE
  5
3DA
100
AcDbEntity
  8
レイヤー_2
 62
     7
100
AcDbSpline
210
0.0
220
0.0
230
1.0
 70
     8
 71
     3
 72
    11
 73
     7
 74
     0
 42
0.00000001
 43
0.00000001
 40
0.0
 40
0.0
 40
0.0
 40
0.0
 40
1.0
 40
1.0
 40
1.0
 40
2.0
 40
2.0
 40
2.0
 40
2.0
 10
61.267061360677076
 20
183.32541639539929
 30
0.0
 10
61.267061360677076
 20
183.32541639539929
 30
0.0
 10
61.267061360677076
 20
183.32541639539929
 30
0.0
 10
61.267061360677076
 20
183.32541639539929
 30
0.0
 10
61.30151231553819
 20
183.32541639539929
 30
0.0
 10
61.330451117621521
 20
183.3536661783854
 30
0.0
 10
61.330451117621521
 20
183.38880615234373
 30
0.0
  0
LINE
  5
3D9
100
AcDbEntity
  8
レイヤー_2
 62
     7
100
AcDbLine
 10
50.362301
 20
172.047552
 30
0.0
 11
50.362301
 21
172.686789
 31
0.0
  0
LINE
  5
3D8
100
AcDbEntity
  8
レイヤー_2
 62
     7
100
AcDbLine
 10
60.585966
 20
172.686789
 30
0.0
 11
60.585966
 21
172.047552
 31
0.0
  0
LINE
  5
3D7
100
AcDbEntity
  8
レイヤー_2
 62
     7
100
AcDbLine
 10
60.585966
 20
172.047552
 30
0.0
 11
50.362301
 21
172.047552
 31
0.0
  0
LINE
  5
3D6
100
AcDbEntity
  8
レイヤー_2
 62
     7
100
AcDbLine
 10
60.585966
 20
172.686789
 30
0.0
 11
50.362301
 21
172.686789
 31
0.0
  0
LINE
  5
3D5
100
AcDbEntity
  8
レイヤー_2
 62
     7
100
AcDbLine
 10
60.266606
 20
172.047552
 30
0.0
 11
60.266606
 21
171.664629
 31
0.0
  0
LINE
  5
3D4
100
AcDbEntity
  8
レイヤー_2
 62
     7
100
AcDbLine
 10
50.681316
 20
171.664629
 30
0.0
 11
50.681316
 21
172.047552
 31
0.0
  0
LINE
  5
3D3
100
AcDbEntity
  8
レイヤー_2
 62
     7
100
AcDbLine
 10
55.473961
 20
171.664629
 30
0.0
 11
50.681316
 21
171.664629
 31
0.0
  0
LINE
  5
3D2
100
AcDbEntity
  8
レイヤー_2
 62
     7
100
AcDbLine
 10
60.266606
 20
171.664629
 30
0.0
 11
55.473961
 21
171.664629
 31
0.0
  0
LINE
  5
3D1
100
AcDbEntity
  8
レイヤー_2
 62
     7
100
AcDbLine
 10
55.473961
 20
172.047552
 30
0.0
 11
50.681316
 21
172.047552
 31
0.0
  0
LINE
  5
3D0
100
AcDbEntity
  8
レイヤー_2
 62
     7
100
AcDbLine
 10
60.266606
 20
172.047552
 30
0.0
 11
55.473961
 21
172.047552
 31
0.0
  0
LINE
  5
3CF
100
AcDbEntity
  8
レイヤー_2
 62
     7
100
AcDbLine
 10
59.627885
 20
171.664629
 30
0.0
 11
59.627885
 21
170.386671
 31
0.0
  0
LINE
  5
3CE
100
AcDbEntity
  8
レイヤー_2
 62
     7
100
AcDbLine
 10
51.320554
 20
170.386671
 30
0.0
 11
51.320554
 21
171.664629
 31
0.0
  0
LINE
  5
3CD
100
AcDbEntity
  8
レイヤー_2
 62
     7
100
AcDbLine
 10
57.306063
 20
171.664629
 30
0.0
 11
57.306063
 21
170.386671
 31
0.0
  0
LINE
  5
3CC
100
AcDbEntity
  8
レイヤー_2
 62
     7
100
AcDbLine
 10
57.306063
 20
171.664629
 30
0.0
 11
53.642032
 21
171.664629
 31
0.0
  0
LINE
  5
3CB
100
AcDbEntity
  8
レイヤー_2
 62
     7
100
AcDbLine
 10
53.642032
 20
171.664629
 30
0.0
 11
53.642032
 21
170.386671
 31
0.0
  0
LINE
  5
3CA
100
AcDbEntity
  8
レイヤー_2
 62
     7
100
AcDbLine
 10
57.306063
 20
170.386671
 30
0.0
 11
53.642032
 21
170.386671
 31
0.0
  0
LINE
  5
3C9
100
AcDbEntity
  8
レイヤー_2
 62
     7
100
AcDbLine
 10
57.306063
 20
170.386671
 30
0.0
 11
57.785965
 21
170.386671
 31
0.0
  0
LINE
  5
3C8
100
AcDbEntity
  8
レイヤー_2
 62
     7
100
AcDbLine
 10
57.785965
 20
171.664629
 30
0.0
 11
57.785965
 21
170.386671
 31
0.0
  0
LINE
  5
3C7
100
AcDbEntity
  8
レイヤー_2
 62
     7
100
AcDbLine
 10
57.306063
 20
171.664629
 30
0.0
 11
57.785965
 21
171.664629
 31
0.0
  0
LINE
  5
3C6
100
AcDbEntity
  8
レイヤー_2
 62
     7
100
AcDbLine
 10
53.162474
 20
171.664629
 30
0.0
 11
53.162474
 21
170.386671
 31
0.0
  0
LINE
  5
3C5
100
AcDbEntity
  8
レイヤー_2
 62
     7
100
AcDbLine
 10
53.162474
 20
170.386671
 30
0.0
 11
53.642032
 21
170.386671
 31
0.0
  0
LINE
  5
3C4
100
AcDbEntity
  8
レイヤー_2
 62
     7
100
AcDbLine
 10
53.162474
 20
171.664629
 30
0.0
 11
53.642032
 21
171.664629
 31
0.0
  0
LINE
  5
3C3
100
AcDbEntity
  8
レイヤー_2
 62
     7
100
AcDbLine
 10
51.329856
 20
171.664629
 30
0.0
 11
51.329856
 21
170.386671
 31
0.0
  0
LINE
  5
3C2
100
AcDbEntity
  8
レイヤー_2
 62
     7
100
AcDbLine
 10
53.162474
 20
170.386671
 30
0.0
 11
51.329856
 21
170.386671
 31
0.0
  0
LINE
  5
3C1
100
AcDbEntity
  8
レイヤー_2
 62
     7
100
AcDbLine
 10
53.162474
 20
171.664629
 30
0.0
 11
51.329856
 21
171.664629
 31
0.0
  0
LINE
  5
3C0
100
AcDbEntity
  8
レイヤー_2
 62
     7
100
AcDbLine
 10
59.618239
 20
171.664629
 30
0.0
 11
59.618239
 21
170.386671
 31
0.0
  0
LINE
  5
3BF
100
AcDbEntity
  8
レイヤー_2
 62
     7
100
AcDbLine
 10
57.785965
 20
170.386671
 30
0.0
 11
59.618239
 21
170.386671
 31
0.0
  0
LINE
  5
3BE
100
AcDbEntity
  8
レイヤー_2
 62
     7
100
AcDbLine
 10
57.785965
 20
171.664629
 30
0.0
 11
59.618239
 21
171.664629
 31
0.0
  0
LINE
  5
3BD
100
AcDbEntity
  8
レイヤー_2
 62
     7
100
AcDbLine
 10
59.618239
 20
170.386671
 30
0.0
 11
59.627885
 21
170.386671
 31
0.0
  0
LINE
  5
3BC
100
AcDbEntity
  8
レイヤー_2
 62
     7
100
AcDbLine
 10
59.618239
 20
171.664629
 30
0.0
 11
59.627885
 21
171.664629
 31
0.0
  0
LINE
  5
3BB
100
AcDbEntity
  8
レイヤー_2
 62
     7
100
AcDbLine
 10
51.320554
 20
170.386671
 30
0.0
 11
51.329856
 21
170.386671
 31
0.0
  0
LINE
  5
3BA
100
AcDbEntity
  8
レイヤー_2
 62
     7
100
AcDbLine
 10
51.320554
 20
171.664629
 30
0.0
 11
51.329856
 21
171.664629
 31
0.0
  0
SPLINE
  5
3B9
100
AcDbEntity
  8
レイヤー_2
 62
     7
100
AcDbSpline
210
0.0
220
0.0
230
1.0
 70
     8
 71
     3
 72
     8
 73
     4
 74
     0
 42
0.00000001
 43
0.00000001
 40
0.0
 40
0.0
 40
0.0
 40
0.0
 40
1.0
 40
1.0
 40
1.0
 40
1.0
 10
59.20207112630208
 20
183.15350613064234
 30
0.0
 10
59.323510742187494
 20
183.15350613064234
 30
0.0
 10
59.429447428385409
 20
183.22189127604165
 30
0.0
 10
59.484396701388881
 20
183.32421061197914
 30
0.0
  0
SPLINE
  5
3B8
100
AcDbEntity
  8
レイヤー_2
 62
     7
100
AcDbSpline
210
0.0
220
0.0
230
1.0
 70
     8
 71
     3
 72
     8
 73
     4
 74
     0
 42
0.00000001
 43
0.00000001
 40
0.0
 40
0.0
 40
0.0
 40
0.0
 40
1.0
 40
1.0
 40
1.0
 40
1.0
 10
51.463869900173606
 20
183.32421061197914
 30
0.0
 10
51.521230740017359
 20
183.21637912326386
 30
0.0
 10
51.630784776475693
 20
183.15402289496527
 30
0.0
 10
51.746712239583331
 20
183.15350613064234
 30
0.0
  0
LINE
  5
3B7
100
AcDbEntity
  8
レイヤー_2
 62
     7
100
AcDbLine
 10
59.202071
 20
183.153506
 30
0.0
 11
51.746712
 21
183.153506
 31
0.0
  0
LINE
  5
3B6
100
AcDbEntity
  8
レイヤー_2
 62
     7
100
AcDbLine
 10
58.649995
 20
183.153506
 30
0.0
 11
58.642588
 21
172.686789
 31
0.0
  0
SPLINE
  5
3B5
100
AcDbEntity
  8
レイヤー_2
 62
     7
100
AcDbSpline
210
0.0
220
0.0
230
1.0
 70
     8
 71
     3
 72
     8
 73
     4
 74
     0
 42
0.00000001
 43
0.00000001
 40
0.0
 40
0.0
 40
0.0
 40
0.0
 40
1.0
 40
1.0
 40
1.0
 40
1.0
 10
58.649994574652773
 20
170.38667127821179
 30
0.0
 10
58.649994574652773
 20
169.1064737955729
 30
0.0
 10
58.649994574652773
 20
168.66481255425344
 30
0.0
 10
58.649994574652773
 20
168.66481255425344
 30
0.0
  0
SPLINE
  5
3B4
100
AcDbEntity
  8
レイヤー_2
 62
     7
100
AcDbSpline
210
0.0
220
0.0
230
1.0
 70
     8
 71
     3
 72
     8
 73
     4
 74
     0
 42
0.00000001
 43
0.00000001
 40
0.0
 40
0.0
 40
0.0
 40
0.0
 40
1.0
 40
1.0
 40
1.0
 40
1.0
 10
52.297927517361103
 20
168.66481255425344
 30
0.0
 10
52.297927517361103
 20
168.66481255425344
 30
0.0
 10
52.297927517361103
 20
169.1064737955729
 30
0.0
 10
52.297927517361103
 20
170.38667127821179
 30
0.0
  0
LINE
  5
3B3
100
AcDbEntity
  8
レイヤー_2
 62
     7
100
AcDbLine
 10
52.307918
 20
172.686789
 30
0.0
 11
52.297928
 21
183.153506
 31
0.0
  0
SPLINE
  5
3B2
100
AcDbEntity
  8
レイヤー_2
 62
     7
100
AcDbSpline
210
0.0
220
0.0
230
1.0
 70
     8
 71
     3
 72
     8
 73
     4
 74
     0
 42
0.00000001
 43
0.00000001
 40
0.0
 40
0.0
 40
0.0
 40
0.0
 40
1.0
 40
1.0
 40
1.0
 40
1.0
 10
58.649994574652773
 20
170.38667127821179
 30
0.0
 10
58.649994574652773
 20
169.1064737955729
 30
0.0
 10
58.649994574652773
 20
168.66481255425344
 30
0.0
 10
58.649994574652773
 20
168.66481255425344
 30
0.0
  0
LINE
  5
3B1
100
AcDbEntity
  8
レイヤー_2
 62
     7
100
AcDbLine
 10
58.669287
 20
163.408114
 30
0.0
 11
58.669287
 21
162.769048
 31
0.0
  0
LINE
  5
3B0
100
AcDbEntity
  8
レイヤー_2
 62
     7
100
AcDbLine
 10
52.278807
 20
162.769048
 30
0.0
 11
52.278807
 21
163.408114
 31
0.0
  0
LINE
  5
3AF
100
AcDbEntity
  8
レイヤー_2
 62
     7
100
AcDbLine
 10
51.2141
 20
163.408114
 30
0.0
 11
51.2141
 21
168.520119
 31
0.0
  0
SPLINE
  5
3AE
100
AcDbEntity
  8
レイヤー_2
 62
     7
100
AcDbSpline
210
0.0
220
0.0
230
1.0
 70
     8
 71
     3
 72
    23
 73
    19
 74
     0
 42
0.00000001
 43
0.00000001
 40
0.0
 40
0.0
 40
0.0
 40
0.0
 40
1.0
 40
1.0
 40
1.0
 40
2.0
 40
2.0
 40
2.0
 40
3.0
 40
3.0
 40
3.0
 40
4.0
 40
4.0
 40
4.0
 40
5.0
 40
5.0
 40
5.0
 40
6.0
 40
6.0
 40
6.0
 40
6.0
 10
59.949484592013881
 20
163.61895345052082
 30
0.0
 10
59.930536566840274
 20
163.61895345052082
 30
0.0
 10
59.912622070312494
 20
163.6182644314236
 30
0.0
 10
59.894363064236103
 20
163.61516384548611
 30
0.0
 10
59.869558376736109
 20
163.609479437934
 30
0.0
 10
59.846131727430553
 20
163.59811062282984
 30
0.0
 10
59.824944390190964
 20
163.58277994791666
 30
0.0
 10
59.8042738172743
 20
163.56848280164928
 30
0.0
 10
59.786531575520826
 20
163.55056830512152
 30
0.0
 10
59.771717664930549
 20
163.53006998697916
 30
0.0
 10
59.760693359374997
 20
163.51353352864581
 30
0.0
 10
59.751736111111107
 20
163.49561903211804
 30
0.0
 10
59.745018174913191
 20
163.47684326171873
 30
0.0
 10
59.739506022135409
 20
163.46099582248263
 30
0.0
 10
59.735371907552079
 20
163.44411485460068
 30
0.0
 10
59.734855143229161
 20
163.42757839626734
 30
0.0
 10
59.734855143229161
 20
163.42757839626734
 30
0.0
 10
59.735027398003467
 20
163.40708007812498
 30
0.0
 10
59.735027398003467
 20
163.40708007812498
 30
0.0
  0
SPLINE
  5
3AD
100
AcDbEntity
  8
レイヤー_2
 62
     7
100
AcDbSpline
210
0.0
220
0.0
230
1.0
 70
     8
 71
     3
 72
    20
 73
    16
 74
     0
 42
0.00000001
 43
0.00000001
 40
0.0
 40
0.0
 40
0.0
 40
0.0
 40
1.0
 40
1.0
 40
1.0
 40
2.0
 40
2.0
 40
2.0
 40
3.0
 40
3.0
 40
3.0
 40
4.0
 40
4.0
 40
4.0
 40
5.0
 40
5.0
 40
5.0
 40
5.0
 10
59.736405436197913
 20
168.51253933376734
 30
0.0
 10
59.736405436197913
 20
168.50220404730902
 30
0.0
 10
59.736405436197913
 20
168.4925577799479
 30
0.0
 10
59.737094455295136
 20
168.48222249348956
 30
0.0
 10
59.740195041232631
 20
168.45845133463541
 30
0.0
 10
59.749669053819439
 20
168.43502468532984
 30
0.0
 10
59.762243652343741
 20
168.41452636718748
 30
0.0
 10
59.774645996093746
 20
168.39265001085067
 30
0.0
 10
59.79118245442708
 20
168.37352973090276
 30
0.0
 10
59.810130479600687
 20
168.35716552734374
 30
0.0
 10
59.830112033420136
 20
168.33994004991317
 30
0.0
 10
59.85319417317708
 20
168.32667643229166
 30
0.0
 10
59.876965332031247
 20
168.31926947699651
 30
0.0
 10
59.89849717881944
 20
168.31220703124998
 30
0.0
 10
59.92054578993055
 20
168.30979546440972
 30
0.0
 10
59.94259440104166
 20
168.30755615234372
 30
0.0
  0
LINE
  5
3AC
100
AcDbEntity
  8
レイヤー_2
 62
     7
100
AcDbLine
 10
60.15998
 20
163.621365
 30
0.0
 11
59.947418
 21
163.621365
 31
0.0
  0
LINE
  5
3AB
100
AcDbEntity
  8
レイヤー_2
 62
     7
100
AcDbLine
 10
59.940527
 20
168.306867
 30
0.0
 11
60.15998
 21
168.306867
 31
0.0
  0
LINE
  5
3AA
100
AcDbEntity
  8
レイヤー_2
 62
     7
100
AcDbLine
 10
62.609443
 20
168.179399
 30
0.0
 11
62.716069
 21
168.072601
 31
0.0
  0
LINE
  5
3A9
100
AcDbEntity
  8
レイヤー_2
 62
     7
100
AcDbLine
 10
62.716069
 20
163.855632
 30
0.0
 11
62.609443
 21
163.748317
 31
0.0
  0
LINE
  5
3A8
100
AcDbEntity
  8
レイヤー_2
 62
     7
100
AcDbLine
 10
62.609443
 20
163.748317
 30
0.0
 11
60.15998
 21
163.748317
 31
0.0
  0
LINE
  5
3A7
100
AcDbEntity
  8
レイヤー_2
 62
     7
100
AcDbLine
 10
60.15998
 20
168.179399
 30
0.0
 11
62.609443
 21
168.179399
 31
0.0
  0
LINE
  5
3A6
100
AcDbEntity
  8
レイヤー_2
 62
     7
100
AcDbLine
 10
58.649995
 20
168.664813
 30
0.0
 11
58.504784
 21
168.520119
 31
0.0
  0
LINE
  5
3A5
100
AcDbEntity
  8
レイヤー_2
 62
     7
100
AcDbLine
 10
52.442794
 20
168.520119
 30
0.0
 11
52.297928
 21
168.664813
 31
0.0
  0
LINE
  5
3A4
100
AcDbEntity
  8
レイヤー_2
 62
     7
100
AcDbLine
 10
58.669287
 20
162.769048
 30
0.0
 11
52.278807
 21
162.769048
 31
0.0
  0
SPLINE
  5
3A3
100
AcDbEntity
  8
レイヤー_2
 62
     7
100
AcDbSpline
210
0.0
220
0.0
230
1.0
 70
     8
 71
     3
 72
    50
 73
    46
 74
     0
 42
0.00000001
 43
0.00000001
 40
0.0
 40
0.0
 40
0.0
 40
0.0
 40
1.0
 40
1.0
 40
1.0
 40
2.0
 40
2.0
 40
2.0
 40
3.0
 40
3.0
 40
3.0
 40
4.0
 40
4.0
 40
4.0
 40
5.0
 40
5.0
 40
5.0
 40
6.0
 40
6.0
 40
6.0
 40
7.0
 40
7.0
 40
7.0
 40
8.0
 40
8.0
 40
8.0
 40
9.0
 40
9.0
 40
9.0
 40
10.0
 40
10.0
 40
10.0
 40
11.0
 40
11.0
 40
11.0
 40
12.0
 40
12.0
 40
12.0
 40
13.0
 40
13.0
 40
13.0
 40
14.0
 40
14.0
 40
14.0
 40
15.0
 40
15.0
 40
15.0
 40
15.0
 10
59.733993869357633
 20
168.52011854383679
 30
0.0
 10
59.733993869357633
 20
168.52011854383679
 30
0.0
 10
59.73037651909722
 20
168.51340060763889
 30
0.0
 10
59.725381130642354
 20
168.50340983072914
 30
0.0
 10
59.717112901475687
 20
168.48894042968749
 30
0.0
 10
59.700059678819436
 20
168.45707329644097
 30
0.0
 10
59.678011067708326
 20
168.4152153862847
 30
0.0
 10
59.654756673177076
 20
168.37129041883679
 30
0.0
 10
59.624956597222216
 20
168.31461859809025
 30
0.0
 10
59.591022406684026
 20
168.24692247178817
 30
0.0
 10
59.557777235243051
 20
168.18060438368053
 30
0.0
 10
59.519364420572913
 20
168.10257297092014
 30
0.0
 10
59.479401312934023
 20
168.01558430989581
 30
0.0
 10
59.437026638454853
 20
167.92618408203123
 30
0.0
 10
59.39344618055555
 20
167.82713758680555
 30
0.0
 10
59.349004448784719
 20
167.71913384331594
 30
0.0
 10
59.273212348090276
 20
167.53344319661457
 30
0.0
 10
59.195697699652776
 20
167.3236368815104
 30
0.0
 10
59.132135687934024
 20
167.09367675781249
 30
0.0
 10
59.073396809895826
 20
166.88610975477428
 30
0.0
 10
59.026199001736103
 20
166.6628675672743
 30
0.0
 10
58.998638237847217
 20
166.43221842447915
 30
0.0
 10
58.982790798611106
 20
166.30319959852429
 30
0.0
 10
58.97366129557291
 20
166.17228597005206
 30
0.0
 10
58.970905219184026
 20
166.04120008680553
 30
0.0
 10
58.967804633246523
 20
165.90546332465277
 30
0.0
 10
58.973144531249993
 20
165.76869303385416
 30
0.0
 10
58.983652072482634
 20
165.63450656467012
 30
0.0
 10
58.996743435329854
 20
165.48309461805553
 30
0.0
 10
59.018792046440964
 20
165.33512776692706
 30
0.0
 10
59.04704182942708
 20
165.19112277560762
 30
0.0
 10
59.075980631510411
 20
165.041950141059
 30
0.0
 10
59.112154134114576
 20
164.89846191406249
 30
0.0
 10
59.152806260850689
 20
164.76134711371526
 30
0.0
 10
59.227220323350686
 20
164.50968288845485
 30
0.0
 10
59.316792805989579
 20
164.28110080295139
 30
0.0
 10
59.400680881076383
 20
164.08696967230901
 30
0.0
 10
59.47457817925347
 20
163.91574842664929
 30
0.0
 10
59.545547146267353
 20
163.77122667100693
 30
0.0
 10
59.6027357313368
 20
163.65805528428817
 30
0.0
 10
59.656306966145827
 20
163.55194634331596
 30
0.0
 10
59.698337131076386
 20
163.47374267578124
 30
0.0
 10
59.717457411024299
 20
163.43929172092012
 30
0.0
 10
59.727103678385411
 20
163.42017144097221
 30
0.0
 10
59.733993869357633
 20
163.40811360677083
 30
0.0
 10
59.733993869357633
 20
163.40811360677083
 30
0.0
  0
LINE
  5
3A2
100
AcDbEntity
  8
レイヤー_2
 62
     7
100
AcDbLine
 10
51.2141
 20
168.520119
 30
0.0
 11
59.733994
 21
168.520119
 31
0.0
  0
LINE
  5
3A1
100
AcDbEntity
  8
レイヤー_2
 62
     7
100
AcDbLine
 10
59.733994
 20
163.408114
 30
0.0
 11
51.2141
 21
163.408114
 31
0.0
  0
LINE
  5
3A0
100
AcDbEntity
  8
レイヤー_2
 62
     7
100
AcDbLine
 10
60.15998
 20
163.621365
 30
0.0
 11
60.15998
 21
168.306867
 31
0.0
  0
LINE
  5
39F
100
AcDbEntity
  8
レイヤー_2
 62
     7
100
AcDbLine
 10
62.716069
 20
163.855632
 30
0.0
 11
62.716069
 21
168.072601
 31
0.0
  0
LINE
  5
39E
100
AcDbEntity
  8
レイヤー_2
 62
     7
100
AcDbLine
 10
62.609443
 20
163.748317
 30
0.0
 11
62.609443
 21
168.179399
 31
0.0
  0
LINE
  5
39D
100
AcDbEntity
  8
レイヤー_2
 62
     7
100
AcDbLine
 10
55.473961
 20
168.664813
 30
0.0
 11
52.297928
 21
168.664813
 31
0.0
  0
LINE
  5
39C
100
AcDbEntity
  8
レイヤー_2
 62
     7
100
AcDbLine
 10
58.649995
 20
168.664813
 30
0.0
 11
55.473961
 21
168.664813
 31
0.0
  0
SPLINE
  5
39B
100
AcDbEntity
  8
レイヤー_2
 62
     7
100
AcDbSpline
210
0.0
220
0.0
230
1.0
 70
     8
 71
     3
 72
    50
 73
    46
 74
     0
 42
0.00000001
 43
0.00000001
 40
0.0
 40
0.0
 40
0.0
 40
0.0
 40
1.0
 40
1.0
 40
1.0
 40
2.0
 40
2.0
 40
2.0
 40
3.0
 40
3.0
 40
3.0
 40
4.0
 40
4.0
 40
4.0
 40
5.0
 40
5.0
 40
5.0
 40
6.0
 40
6.0
 40
6.0
 40
7.0
 40
7.0
 40
7.0
 40
8.0
 40
8.0
 40
8.0
 40
9.0
 40
9.0
 40
9.0
 40
10.0
 40
10.0
 40
10.0
 40
11.0
 40
11.0
 40
11.0
 40
12.0
 40
12.0
 40
12.0
 40
13.0
 40
13.0
 40
13.0
 40
14.0
 40
14.0
 40
14.0
 40
15.0
 40
15.0
 40
15.0
 40
15.0
 10
59.94741753472222
 20
163.62136501736109
 30
0.0
 10
59.94741753472222
 20
163.62136501736109
 30
0.0
 10
59.93966606987847
 20
163.63238932291665
 30
0.0
 10
59.929330783420134
 20
163.6490980360243
 30
0.0
 10
59.909693739149297
 20
163.68113742404512
 30
0.0
 10
59.865941026475689
 20
163.75279541015624
 30
0.0
 10
59.808924696180547
 20
163.8506361219618
 30
0.0
 10
59.749152289496521
 20
163.95347222222222
 30
0.0
 10
59.67491048177083
 20
164.08559163411456
 30
0.0
 10
59.597740342881941
 20
164.24268798828123
 30
0.0
 10
59.509373643663189
 20
164.41959364149304
 30
0.0
 10
59.416011555989577
 20
164.62802191840277
 30
0.0
 10
59.336602105034714
 20
164.86211615668401
 30
0.0
 10
59.271145290798607
 20
165.05624728732639
 30
0.0
 10
59.214990234374994
 20
165.2679484049479
 30
0.0
 10
59.181228298611103
 20
165.48860677083331
 30
0.0
 10
59.17227105034722
 20
165.54562310112846
 30
0.0
 10
59.165208604600686
 20
165.60332845052082
 30
0.0
 10
59.159351942274299
 20
165.66189507378471
 30
0.0
 10
59.148499891493053
 20
165.78006184895833
 30
0.0
 10
59.143332248263881
 20
165.90098470052081
 30
0.0
 10
59.14539930555555
 20
166.0213907877604
 30
0.0
 10
59.147466362847219
 20
166.14679226345484
 30
0.0
 10
59.157801649305547
 20
166.27098795572914
 30
0.0
 10
59.174854871961799
 20
166.3931165907118
 30
0.0
 10
59.204138183593741
 20
166.60619574652776
 30
0.0
 10
59.254264322916661
 20
166.81048990885415
 30
0.0
 10
59.315070258246521
 20
166.99979790581597
 30
0.0
 10
59.382938639322909
 20
167.21167127821178
 30
0.0
 10
59.463898383246523
 20
167.40425211588541
 30
0.0
 10
59.542791069878469
 20
167.57271728515624
 30
0.0
 10
59.588610839843746
 20
167.66969672309025
 30
0.0
 10
59.633569335937494
 20
167.75806342230902
 30
0.0
 10
59.67611626519097
 20
167.83781738281249
 30
0.0
 10
59.719352213541661
 20
167.92101643880207
 30
0.0
 10
59.761210123697914
 20
167.99474148220486
 30
0.0
 10
59.796866861979161
 20
168.05692545572916
 30
0.0
 10
59.830973307291664
 20
168.11600884331597
 30
0.0
 10
59.860601128472219
 20
168.16647949218748
 30
0.0
 10
59.88540581597222
 20
168.20627034505208
 30
0.0
 10
59.911244032118049
 20
168.24847276475694
 30
0.0
 10
59.930536566840274
 20
168.28085666232639
 30
0.0
 10
59.937943522135413
 20
168.29256998697915
 30
0.0
 10
59.937943522135413
 20
168.29256998697915
 30
0.0
 10
59.940527343749991
 20
168.29653184678818
 30
0.0
 10
59.940527343749991
 20
168.29653184678818
 30
0.0
  0
LINE
  5
39A
100
AcDbEntity
  8
レイヤー_2
 62
     7
100
AcDbLine
 10
58.386617
 20
183.153506
 30
0.0
 11
58.386617
 21
172.686789
 31
0.0
  0
LINE
  5
399
100
AcDbEntity
  8
レイヤー_2
 62
     7
100
AcDbLine
 10
58.386617
 20
170.386671
 30
0.0
 11
58.386617
 21
168.520119
 31
0.0
  0
LINE
  5
398
100
AcDbEntity
  8
レイヤー_2
 62
     7
100
AcDbLine
 10
52.60523
 20
170.386671
 30
0.0
 11
52.60523
 21
168.520119
 31
0.0
  0
LINE
  5
397
100
AcDbEntity
  8
レイヤー_2
 62
     7
100
AcDbLine
 10
52.60523
 20
183.153506
 30
0.0
 11
52.60523
 21
172.6861
 31
0.0
  0
LINE
  5
396
100
AcDbEntity
  8
レイヤー_2
 62
     7
100
AcDbLine
 10
80.518944
 20
164.95255
 30
0.0
 11
80.518944
 21
162.415754
 31
0.0
  0
LINE
  5
395
100
AcDbEntity
  8
レイヤー_2
 62
     7
100
AcDbLine
 10
79.95102
 20
177.596739
 30
0.0
 11
79.95102
 21
172.694541
 31
0.0
  0
LINE
  5
394
100
AcDbEntity
  8
レイヤー_2
 62
     7
100
AcDbLine
 10
79.330386
 20
177.596739
 30
0.0
 11
79.330386
 21
172.694541
 31
0.0
  0
LINE
  5
393
100
AcDbEntity
  8
レイヤー_2
 62
     7
100
AcDbLine
 10
77.200628
 20
177.596739
 30
0.0
 11
77.200628
 21
172.694541
 31
0.0
  0
LINE
  5
392
100
AcDbEntity
  8
レイヤー_2
 62
     7
100
AcDbLine
 10
76.561563
 20
177.596739
 30
0.0
 11
76.561563
 21
172.694541
 31
0.0
  0
LINE
  5
391
100
AcDbEntity
  8
レイヤー_2
 62
     7
100
AcDbLine
 10
74.43146
 20
177.596739
 30
0.0
 11
74.43146
 21
172.694541
 31
0.0
  0
SPLINE
  5
390
100
AcDbEntity
  8
レイヤー_2
 62
     7
100
AcDbSpline
210
0.0
220
0.0
230
1.0
 70
     8
 71
     3
 72
    14
 73
    10
 74
     0
 42
0.00000001
 43
0.00000001
 40
0.0
 40
0.0
 40
0.0
 40
0.0
 40
1.0
 40
1.0
 40
1.0
 40
2.0
 40
2.0
 40
2.0
 40
3.0
 40
3.0
 40
3.0
 40
3.0
 10
74.327762858072916
 20
148.99779595269095
 30
0.0
 10
74.280565049913193
 20
148.99779595269095
 30
0.0
 10
75.144594997829856
 20
149.51903889973957
 30
0.0
 10
76.153491210937489
 20
149.37468939887151
 30
0.0
 10
77.162215169270823
 20
149.23033989800345
 30
0.0
 10
77.498284233940964
 20
148.79866943359374
 30
0.0
 10
78.170077853732636
 20
148.79866943359374
 30
0.0
 10
78.842560492621516
 20
148.79866943359374
 30
0.0
 10
79.370865885416663
 20
149.23033989800345
 30
0.0
 10
79.370865885416663
 20
149.23033989800345
 30
0.0
  0
SPLINE
  5
38F
100
AcDbEntity
  8
レイヤー_2
 62
     7
100
AcDbSpline
210
0.0
220
0.0
230
1.0
 70
     8
 71
     3
 72
     8
 73
     4
 74
     0
 42
0.00000001
 43
0.00000001
 40
0.0
 40
0.0
 40
0.0
 40
0.0
 40
1.0
 40
1.0
 40
1.0
 40
1.0
 10
71.839025878906241
 20
183.34746500651039
 30
0.0
 10
71.920674641927079
 20
183.22430284288194
 30
0.0
 10
72.055377875434019
 20
183.15643446180553
 30
0.0
 10
72.19473198784722
 20
183.15557318793401
 30
0.0
  0
SPLINE
  5
38E
100
AcDbEntity
  8
レイヤー_2
 62
     7
100
AcDbSpline
210
0.0
220
0.0
230
1.0
 70
     8
 71
     3
 72
     8
 73
     4
 74
     0
 42
0.00000001
 43
0.00000001
 40
0.0
 40
0.0
 40
0.0
 40
0.0
 40
1.0
 40
1.0
 40
1.0
 40
1.0
 10
81.566942003038193
 20
183.15557318793401
 30
0.0
 10
81.715081108940964
 20
183.15557318793401
 30
0.0
 10
81.845650227864581
 20
183.23136528862847
 30
0.0
 10
81.922992621527769
 20
183.34746500651039
 30
0.0
  0
LINE
  5
38D
100
AcDbEntity
  8
レイヤー_2
 62
     7
100
AcDbLine
 10
72.194732
 20
183.155573
 30
0.0
 11
81.566942
 21
183.155573
 31
0.0
  0
LINE
  5
38C
100
AcDbEntity
  8
レイヤー_2
 62
     7
100
AcDbLine
 10
80.501546
 20
170.812313
 30
0.0
 11
80.094164
 21
170.884832
 31
0.0
  0
LINE
  5
38B
100
AcDbEntity
  8
レイヤー_2
 62
     7
100
AcDbLine
 10
80.501546
 20
170.501393
 30
0.0
 11
80.501546
 21
170.812313
 31
0.0
  0
LINE
  5
38A
100
AcDbEntity
  8
レイヤー_2
 62
     7
100
AcDbLine
 10
80.182186
 20
169.947938
 30
0.0
 11
80.501546
 21
170.501393
 31
0.0
  0
LINE
  5
389
100
AcDbEntity
  8
レイヤー_2
 62
     7
100
AcDbLine
 10
80.182186
 20
164.96323
 30
0.0
 11
80.182186
 21
169.947938
 31
0.0
  0
LINE
  5
388
100
AcDbEntity
  8
レイヤー_2
 62
     7
100
AcDbLine
 10
80.501546
 20
162.406624
 30
0.0
 11
80.515671
 21
162.414548
 31
0.0
  0
LINE
  5
387
100
AcDbEntity
  8
レイヤー_2
 62
     7
100
AcDbLine
 10
80.515671
 20
164.954961
 30
0.0
 11
80.501546
 21
164.96323
 31
0.0
  0
LINE
  5
386
100
AcDbEntity
  8
レイヤー_2
 62
     7
100
AcDbLine
 10
82.427699
 20
170.991113
 30
0.0
 11
82.427699
 21
172.269071
 31
0.0
  0
LINE
  5
385
100
AcDbEntity
  8
レイヤー_2
 62
     7
100
AcDbLine
 10
71.351717
 20
172.269071
 30
0.0
 11
71.351717
 21
170.991113
 31
0.0
  0
SPLINE
  5
384
100
AcDbEntity
  8
レイヤー_2
 62
     7
100
AcDbSpline
210
0.0
220
0.0
230
1.0
 70
     8
 71
     3
 72
     8
 73
     4
 74
     0
 42
0.00000001
 43
0.00000001
 40
0.0
 40
0.0
 40
0.0
 40
0.0
 40
1.0
 40
1.0
 40
1.0
 40
1.0
 10
71.351717122395826
 20
170.99111328124999
 30
0.0
 10
71.351717122395826
 20
170.93202989366318
 30
0.0
 10
71.399087185329861
 20
170.88483208550346
 30
0.0
 10
71.457826063368046
 20
170.88483208550346
 30
0.0
  0
SPLINE
  5
383
100
AcDbEntity
  8
レイヤー_2
 62
     7
100
AcDbSpline
210
0.0
220
0.0
230
1.0
 70
     8
 71
     3
 72
     8
 73
     4
 74
     0
 42
0.00000001
 43
0.00000001
 40
0.0
 40
0.0
 40
0.0
 40
0.0
 40
1.0
 40
1.0
 40
1.0
 40
1.0
 10
82.320901150173597
 20
170.88483208550346
 30
0.0
 10
82.379984537760407
 20
170.88483208550346
 30
0.0
 10
82.427699110243054
 20
170.93202989366318
 30
0.0
 10
82.427699110243054
 20
170.99111328124999
 30
0.0
  0
SPLINE
  5
382
100
AcDbEntity
  8
レイヤー_2
 62
     7
100
AcDbSpline
210
0.0
220
0.0
230
1.0
 70
     8
 71
     3
 72
     8
 73
     4
 74
     0
 42
0.00000001
 43
0.00000001
 40
0.0
 40
0.0
 40
0.0
 40
0.0
 40
1.0
 40
1.0
 40
1.0
 40
1.0
 10
71.457826063368046
 20
172.37569715711803
 30
0.0
 10
71.399087185329861
 20
172.37569715711803
 30
0.0
 10
71.351717122395826
 20
172.32781032986111
 30
0.0
 10
71.351717122395826
 20
172.2690714518229
 30
0.0
  0
SPLINE
  5
381
100
AcDbEntity
  8
レイヤー_2
 62
     7
100
AcDbSpline
210
0.0
220
0.0
230
1.0
 70
     8
 71
     3
 72
     8
 73
     4
 74
     0
 42
0.00000001
 43
0.00000001
 40
0.0
 40
0.0
 40
0.0
 40
0.0
 40
1.0
 40
1.0
 40
1.0
 40
1.0
 10
82.427699110243054
 20
172.2690714518229
 30
0.0
 10
82.427699110243054
 20
172.32781032986111
 30
0.0
 10
82.379984537760407
 20
172.37569715711803
 30
0.0
 10
82.320901150173597
 20
172.37569715711803
 30
0.0
  0
LINE
  5
380
100
AcDbEntity
  8
レイヤー_2
 62
     7
100
AcDbLine
 10
77.422664
 20
172.269071
 30
0.0
 11
77.422664
 21
170.991113
 31
0.0
  0
SPLINE
  5
37F
100
AcDbEntity
  8
レイヤー_2
 62
     7
100
AcDbSpline
210
0.0
220
0.0
230
1.0
 70
     8
 71
     3
 72
     8
 73
     4
 74
     0
 42
0.00000001
 43
0.00000001
 40
0.0
 40
0.0
 40
0.0
 40
0.0
 40
1.0
 40
1.0
 40
1.0
 40
1.0
 10
77.529290093315964
 20
172.37569715711803
 30
0.0
 10
77.470895724826377
 20
172.37569715711803
 30
0.0
 10
77.42266438802082
 20
172.32781032986111
 30
0.0
 10
77.42266438802082
 20
172.2690714518229
 30
0.0
  0
SPLINE
  5
37E
100
AcDbEntity
  8
レイヤー_2
 62
     7
100
AcDbSpline
210
0.0
220
0.0
230
1.0
 70
     8
 71
     3
 72
     8
 73
     4
 74
     0
 42
0.00000001
 43
0.00000001
 40
0.0
 40
0.0
 40
0.0
 40
0.0
 40
1.0
 40
1.0
 40
1.0
 40
1.0
 10
77.42266438802082
 20
170.99111328124999
 30
0.0
 10
77.42266438802082
 20
170.93202989366318
 30
0.0
 10
77.470895724826377
 20
170.88483208550346
 30
0.0
 10
77.529290093315964
 20
170.88483208550346
 30
0.0
  0
LINE
  5
37D
100
AcDbEntity
  8
レイヤー_2
 62
     7
100
AcDbLine
 10
73.352284
 20
171.978994
 30
0.0
 11
73.352284
 21
172.269071
 31
0.0
  0
SPLINE
  5
37C
100
AcDbEntity
  8
レイヤー_2
 62
     7
100
AcDbSpline
210
0.0
220
0.0
230
1.0
 70
     8
 71
     3
 72
     8
 73
     4
 74
     0
 42
0.00000001
 43
0.00000001
 40
0.0
 40
0.0
 40
0.0
 40
0.0
 40
1.0
 40
1.0
 40
1.0
 40
1.0
 10
73.352284071180549
 20
172.2690714518229
 30
0.0
 10
73.352284071180549
 20
172.32781032986111
 30
0.0
 10
73.304397243923603
 20
172.37569715711803
 30
0.0
 10
73.245313856336793
 20
172.37569715711803
 30
0.0
  0
LINE
  5
37B
100
AcDbEntity
  8
レイヤー_2
 62
     7
100
AcDbLine
 10
73.551238
 20
170.991113
 30
0.0
 11
73.551238
 21
171.949194
 31
0.0
  0
SPLINE
  5
37A
100
AcDbEntity
  8
レイヤー_2
 62
     7
100
AcDbSpline
210
0.0
220
0.0
230
1.0
 70
     8
 71
     3
 72
     8
 73
     4
 74
     0
 42
0.00000001
 43
0.00000001
 40
0.0
 40
0.0
 40
0.0
 40
0.0
 40
1.0
 40
1.0
 40
1.0
 40
1.0
 10
73.55123833550347
 20
171.94919433593748
 30
0.0
 10
73.55123833550347
 20
172.00862223307291
 30
0.0
 10
73.503179253472211
 20
172.05616455078123
 30
0.0
 10
73.444095865885416
 20
172.05616455078123
 30
0.0
  0
LINE
  5
379
100
AcDbEntity
  8
レイヤー_2
 62
     7
100
AcDbLine
 10
71.777531
 20
172.694541
 30
0.0
 11
71.777531
 21
172.375697
 31
0.0
  0
LINE
  5
378
100
AcDbEntity
  8
レイヤー_2
 62
     7
100
AcDbLine
 10
82.001541
 20
172.375697
 30
0.0
 11
82.001541
 21
172.694541
 31
0.0
  0
SPLINE
  5
377
100
AcDbEntity
  8
レイヤー_2
 62
     7
100
AcDbSpline
210
0.0
220
0.0
230
1.0
 70
     8
 71
     3
 72
     8
 73
     4
 74
     0
 42
0.00000001
 43
0.00000001
 40
0.0
 40
0.0
 40
0.0
 40
0.0
 40
1.0
 40
1.0
 40
1.0
 40
1.0
 10
79.330386013454856
 20
149.2003675672743
 30
0.0
 10
79.330386013454856
 20
162.61918674045137
 30
0.0
 10
79.330386013454856
 20
170.81231282552082
 30
0.0
 10
79.330386013454856
 20
170.81231282552082
 30
0.0
  0
LINE
  5
376
100
AcDbEntity
  8
レイヤー_2
 62
     7
100
AcDbLine
 10
79.330386
 20
177.596739
 30
0.0
 11
79.330386
 21
183.155573
 31
0.0
  0
LINE
  5
375
100
AcDbEntity
  8
レイヤー_2
 62
     7
100
AcDbLine
 10
77.200628
 20
183.155573
 30
0.0
 11
77.200628
 21
177.596739
 31
0.0
  0
SPLINE
  5
374
100
AcDbEntity
  8
レイヤー_2
 62
     7
100
AcDbSpline
210
0.0
220
0.0
230
1.0
 70
     8
 71
     3
 72
     8
 73
     4
 74
     0
 42
0.00000001
 43
0.00000001
 40
0.0
 40
0.0
 40
0.0
 40
0.0
 40
1.0
 40
1.0
 40
1.0
 40
1.0
 10
77.200627983940961
 20
172.05616455078123
 30
0.0
 10
77.200627983940961
 20
172.05616455078123
 30
0.0
 10
77.200627983940961
 20
162.98626166449651
 30
0.0
 10
77.200627983940961
 20
149.07014295789929
 30
0.0
  0
SPLINE
  5
373
100
AcDbEntity
  8
レイヤー_2
 62
     7
100
AcDbSpline
210
0.0
220
0.0
230
1.0
 70
     8
 71
     3
 72
     8
 73
     4
 74
     0
 42
0.00000001
 43
0.00000001
 40
0.0
 40
0.0
 40
0.0
 40
0.0
 40
1.0
 40
1.0
 40
1.0
 40
1.0
 10
76.561562771267347
 20
149.2937296549479
 30
0.0
 10
76.561562771267347
 20
163.16178927951387
 30
0.0
 10
76.561562771267347
 20
172.05616455078123
 30
0.0
 10
76.561562771267347
 20
172.05616455078123
 30
0.0
  0
LINE
  5
372
100
AcDbEntity
  8
レイヤー_2
 62
     7
100
AcDbLine
 10
76.561563
 20
177.596739
 30
0.0
 11
76.561563
 21
183.155573
 31
0.0
  0
LINE
  5
371
100
AcDbEntity
  8
レイヤー_2
 62
     7
100
AcDbLine
 10
74.43146
 20
183.155573
 30
0.0
 11
74.43146
 21
177.596739
 31
0.0
  0
SPLINE
  5
370
100
AcDbEntity
  8
レイヤー_2
 62
     7
100
AcDbSpline
210
0.0
220
0.0
230
1.0
 70
     8
 71
     3
 72
     8
 73
     4
 74
     0
 42
0.00000001
 43
0.00000001
 40
0.0
 40
0.0
 40
0.0
 40
0.0
 40
1.0
 40
1.0
 40
1.0
 40
1.0
 10
74.431460232204856
 20
171.94919433593748
 30
0.0
 10
74.431460232204856
 20
171.94919433593748
 30
0.0
 10
74.431460232204856
 20
161.28231743706596
 30
0.0
 10
74.431460232204856
 20
149.08599039713539
 30
0.0
  0
LINE
  5
36F
100
AcDbEntity
  8
レイヤー_2
 62
     7
100
AcDbLine
 10
79.95102
 20
177.596739
 30
0.0
 11
79.95102
 21
183.155573
 31
0.0
  0
SPLINE
  5
36E
100
AcDbEntity
  8
レイヤー_2
 62
     7
100
AcDbSpline
210
0.0
220
0.0
230
1.0
 70
     8
 71
     3
 72
    11
 73
     7
 74
     0
 42
0.00000001
 43
0.00000001
 40
0.0
 40
0.0
 40
0.0
 40
0.0
 40
1.0
 40
1.0
 40
1.0
 40
2.0
 40
2.0
 40
2.0
 40
2.0
 10
76.571209038628467
 20
206.82372368706595
 30
0.0
 10
76.571209038628467
 20
206.82372368706595
 30
0.0
 10
76.58016628689235
 20
206.82372368706595
 30
0.0
 10
76.58016628689235
 20
206.82372368706595
 30
0.0
 10
76.677490234375
 20
206.82579074435762
 30
0.0
 10
76.778948296440959
 20
206.82579074435762
 30
0.0
 10
76.881267632378467
 20
206.82579074435762
 30
0.0
  0
SPLINE
  5
36D
100
AcDbEntity
  8
レイヤー_2
 62
     7
100
AcDbSpline
210
0.0
220
0.0
230
1.0
 70
     8
 71
     3
 72
    17
 73
    13
 74
     0
 42
0.00000001
 43
0.00000001
 40
0.0
 40
0.0
 40
0.0
 40
0.0
 40
1.0
 40
1.0
 40
1.0
 40
2.0
 40
2.0
 40
2.0
 40
3.0
 40
3.0
 40
3.0
 40
4.0
 40
4.0
 40
4.0
 40
4.0
 10
75.475840928819437
 20
206.77618136935763
 30
0.0
 10
75.524244520399293
 20
206.78014322916664
 30
0.0
 10
75.57247585720485
 20
206.7846218532986
 30
0.0
 10
75.625874837239579
 20
206.78892822265624
 30
0.0
 10
75.712174479166663
 20
206.79495713975692
 30
0.0
 10
75.810015190972209
 20
206.8004692925347
 30
0.0
 10
75.91302354600694
 20
206.80494791666663
 30
0.0
 10
76.015342881944434
 20
206.80977105034719
 30
0.0
 10
76.123002115885413
 20
206.81442192925346
 30
0.0
 10
76.235139973958326
 20
206.81717800564235
 30
0.0
 10
76.344004991319437
 20
206.82010633680554
 30
0.0
 10
76.457865397135407
 20
206.82165662977428
 30
0.0
 10
76.571209038628467
 20
206.82372368706595
 30
0.0
  0
SPLINE
  5
36C
100
AcDbEntity
  8
レイヤー_2
 62
     7
100
AcDbSpline
210
0.0
220
0.0
230
1.0
 70
     8
 71
     3
 72
    11
 73
     7
 74
     0
 42
0.00000001
 43
0.00000001
 40
0.0
 40
0.0
 40
0.0
 40
0.0
 40
1.0
 40
1.0
 40
1.0
 40
2.0
 40
2.0
 40
2.0
 40
2.0
 10
78.044848632812489
 20
206.79426812065969
 30
0.0
 10
78.044848632812489
 20
206.79426812065969
 30
0.0
 10
78.04949951171875
 20
206.79426812065969
 30
0.0
 10
78.04949951171875
 20
206.79426812065969
 30
0.0
 10
78.112717013888883
 20
206.79099527994791
 30
0.0
 10
78.162326388888886
 20
206.78703342013887
 30
0.0
 10
78.212452528211799
 20
206.78169352213538
 30
0.0
  0
SPLINE
  5
36B
100
AcDbEntity
  8
レイヤー_2
 62
     7
100
AcDbSpline
210
0.0
220
0.0
230
1.0
 70
     8
 71
     3
 72
    17
 73
    13
 74
     0
 42
0.00000001
 43
0.00000001
 40
0.0
 40
0.0
 40
0.0
 40
0.0
 40
1.0
 40
1.0
 40
1.0
 40
2.0
 40
2.0
 40
2.0
 40
3.0
 40
3.0
 40
3.0
 40
4.0
 40
4.0
 40
4.0
 40
4.0
 10
76.881267632378467
 20
206.82579074435762
 30
0.0
 10
76.943279351128467
 20
206.82579074435762
 30
0.0
 10
77.005291069878467
 20
206.82579074435762
 30
0.0
 10
77.067302788628467
 20
206.82544623480902
 30
0.0
 10
77.186330837673609
 20
206.82424045138887
 30
0.0
 10
77.30294731987847
 20
206.82217339409721
 30
0.0
 10
77.417668999565961
 20
206.81924506293402
 30
0.0
 10
77.532907443576377
 20
206.81717800564235
 30
0.0
 10
77.644356282552081
 20
206.81373291015623
 30
0.0
 10
77.749259440104154
 20
206.8092542860243
 30
0.0
 10
77.851751030815961
 20
206.80494791666663
 30
0.0
 10
77.948385959201389
 20
206.79995252821178
 30
0.0
 10
78.044848632812489
 20
206.79426812065969
 30
0.0
  0
LINE
  5
36A
100
AcDbEntity
  8
レイヤー_2
 62
     7
100
AcDbLine
 10
74.910845
 20
206.782555
 30
0.0
 11
74.910845
 21
206.740008
 31
0.0
  0
LINE
  5
369
100
AcDbEntity
  8
レイヤー_2
 62
     7
100
AcDbLine
 10
78.851173
 20
206.740008
 30
0.0
 11
78.851173
 21
206.782555
 31
0.0
  0
LINE
  5
368
100
AcDbEntity
  8
レイヤー_2
 62
     7
100
AcDbLine
 10
78.265507
 20
206.708657
 30
0.0
 11
78.265507
 21
206.774459
 31
0.0
  0
LINE
  5
367
100
AcDbEntity
  8
レイヤー_2
 62
     7
100
AcDbLine
 10
75.496339
 20
206.774459
 30
0.0
 11
75.496339
 21
206.708657
 31
0.0
  0
LINE
  5
366
100
AcDbEntity
  8
レイヤー_2
 62
     7
100
AcDbLine
 10
77.9036
 20
206.708657
 30
0.0
 11
77.9036
 21
206.77377
 31
0.0
  0
LINE
  5
365
100
AcDbEntity
  8
レイヤー_2
 62
     7
100
AcDbLine
 10
75.858247
 20
206.77377
 30
0.0
 11
75.858247
 21
206.708657
 31
0.0
  0
LINE
  5
364
100
AcDbEntity
  8
レイヤー_2
 62
     7
100
AcDbLine
 10
77.519988
 20
206.708657
 30
0.0
 11
77.519988
 21
206.764468
 31
0.0
  0
LINE
  5
363
100
AcDbEntity
  8
レイヤー_2
 62
     7
100
AcDbLine
 10
76.241686
 20
206.764468
 30
0.0
 11
76.241686
 21
206.708657
 31
0.0
  0
LINE
  5
362
100
AcDbEntity
  8
レイヤー_2
 62
     7
100
AcDbLine
 10
79.437012
 20
207.568209
 30
0.0
 11
79.437012
 21
208.523534
 31
0.0
  0
LINE
  5
361
100
AcDbEntity
  8
レイヤー_2
 62
     7
100
AcDbLine
 10
74.32449
 20
208.523534
 30
0.0
 11
74.32449
 21
207.568209
 31
0.0
  0
LINE
  5
360
100
AcDbEntity
  8
レイヤー_2
 62
     7
100
AcDbLine
 10
79.276643
 20
208.593986
 30
0.0
 11
79.276643
 21
208.626198
 31
0.0
  0
LINE
  5
35F
100
AcDbEntity
  8
レイヤー_2
 62
     7
100
AcDbLine
 10
74.484515
 20
208.626198
 30
0.0
 11
74.484515
 21
208.593986
 31
0.0
  0
LINE
  5
35E
100
AcDbEntity
  8
レイヤー_2
 62
     7
100
AcDbLine
 10
74.537914
 20
206.706418
 30
0.0
 11
74.559618
 21
206.693499
 31
0.0
  0
LINE
  5
35D
100
AcDbEntity
  8
レイヤー_2
 62
     7
100
AcDbLine
 10
79.202056
 20
206.693499
 30
0.0
 11
79.22376
 21
206.706418
 31
0.0
  0
SPLINE
  5
35C
100
AcDbEntity
  8
レイヤー_2
 62
     7
100
AcDbSpline
210
0.0
220
0.0
230
1.0
 70
     8
 71
     3
 72
     8
 73
     4
 74
     0
 42
0.00000001
 43
0.00000001
 40
0.0
 40
0.0
 40
0.0
 40
0.0
 40
1.0
 40
1.0
 40
1.0
 40
1.0
 10
72.419352213541657
 20
212.30969373914928
 30
0.0
 10
72.329090711805549
 20
212.30969373914928
 30
0.0
 10
72.256054687499997
 20
212.24027506510416
 30
0.0
 10
72.24899224175347
 20
212.15173611111109
 30
0.0
  0
SPLINE
  5
35B
100
AcDbEntity
  8
レイヤー_2
 62
     7
100
AcDbSpline
210
0.0
220
0.0
230
1.0
 70
     8
 71
     3
 72
     8
 73
     4
 74
     0
 42
0.00000001
 43
0.00000001
 40
0.0
 40
0.0
 40
0.0
 40
0.0
 40
1.0
 40
1.0
 40
1.0
 40
1.0
 10
81.512854003906241
 20
212.15173611111109
 30
0.0
 10
81.505963812934027
 20
212.24130859374998
 30
0.0
 10
81.431549750434016
 20
212.30969373914928
 30
0.0
 10
81.34197726779513
 20
212.30969373914928
 30
0.0
  0
SPLINE
  5
35A
100
AcDbEntity
  8
レイヤー_2
 62
     7
100
AcDbSpline
210
0.0
220
0.0
230
1.0
 70
     8
 71
     3
 72
    11
 73
     7
 74
     0
 42
0.00000001
 43
0.00000001
 40
0.0
 40
0.0
 40
0.0
 40
0.0
 40
1.0
 40
1.0
 40
1.0
 40
2.0
 40
2.0
 40
2.0
 40
2.0
 10
81.541620551215274
 20
211.56503634982636
 30
0.0
 10
81.540414767795127
 20
211.59449191623261
 30
0.0
 10
81.539208984374994
 20
211.62377522786457
 30
0.0
 10
81.538347710503459
 20
211.6527140299479
 30
0.0
 10
81.532146538628467
 20
211.81825086805554
 30
0.0
 10
81.521466742621527
 20
211.984821234809
 30
0.0
 10
81.510786946614573
 20
212.15173611111109
 30
0.0
  0
SPLINE
  5
359
100
AcDbEntity
  8
レイヤー_2
 62
     7
100
AcDbSpline
210
0.0
220
0.0
230
1.0
 70
     8
 71
     3
 72
    11
 73
     7
 74
     0
 42
0.00000001
 43
0.00000001
 40
0.0
 40
0.0
 40
0.0
 40
0.0
 40
1.0
 40
1.0
 40
1.0
 40
2.0
 40
2.0
 40
2.0
 40
2.0
 10
72.250198025173603
 20
212.15173611111109
 30
0.0
 10
72.247269694010413
 20
212.12193603515624
 30
0.0
 10
72.245202636718744
 20
212.09265272352428
 30
0.0
 10
72.24365234375
 20
212.0625081380208
 30
0.0
 10
72.232455783420136
 20
211.89611002604164
 30
0.0
 10
72.226771375868054
 20
211.73091769748262
 30
0.0
 10
72.22091471354166
 20
211.56503634982636
 30
0.0
  0
SPLINE
  5
358
100
AcDbEntity
  8
レイヤー_2
 62
     7
100
AcDbSpline
210
0.0
220
0.0
230
1.0
 70
     8
 71
     3
 72
     8
 73
     4
 74
     0
 42
0.00000001
 43
0.00000001
 40
0.0
 40
0.0
 40
0.0
 40
0.0
 40
1.0
 40
1.0
 40
1.0
 40
1.0
 10
81.579688856336801
 20
211.55177273220485
 30
0.0
 10
81.579688856336801
 20
211.59397515190972
 30
0.0
 10
81.564702690972211
 20
211.63187120225692
 30
0.0
 10
81.539725748697904
 20
211.66132676866317
 30
0.0
  0
LINE
  5
357
100
AcDbEntity
  8
レイヤー_2
 62
     7
100
AcDbLine
 10
81.581411
 20
211.532997
 30
0.0
 11
81.58055
 21
211.551773
 31
0.0
  0
SPLINE
  5
356
100
AcDbEntity
  8
レイヤー_2
 62
     7
100
AcDbSpline
210
0.0
220
0.0
230
1.0
 70
     8
 71
     3
 72
     8
 73
     4
 74
     0
 42
0.00000001
 43
0.00000001
 40
0.0
 40
0.0
 40
0.0
 40
0.0
 40
1.0
 40
1.0
 40
1.0
 40
1.0
 10
72.225221082899296
 20
211.66546088324651
 30
0.0
 10
72.196282280815964
 20
211.63273247612847
 30
0.0
 10
72.181812879774299
 20
211.59225260416665
 30
0.0
 10
72.181812879774299
 20
211.55177273220485
 30
0.0
  0
LINE
  5
355
100
AcDbEntity
  8
レイヤー_2
 62
     7
100
AcDbLine
 10
72.180607
 20
211.551773
 30
0.0
 11
72.180607
 21
211.532997
 31
0.0
  0
SPLINE
  5
354
100
AcDbEntity
  8
レイヤー_2
 62
     7
100
AcDbSpline
210
0.0
220
0.0
230
1.0
 70
     8
 71
     3
 72
    11
 73
     7
 74
     0
 42
0.00000001
 43
0.00000001
 40
0.0
 40
0.0
 40
0.0
 40
0.0
 40
1.0
 40
1.0
 40
1.0
 40
2.0
 40
2.0
 40
2.0
 40
2.0
 10
82.850067816840266
 20
183.39035644531248
 30
0.0
 10
82.811310492621516
 20
184.24008924696179
 30
0.0
 10
82.773242187499989
 20
185.0899943033854
 30
0.0
 10
82.735001627604163
 20
185.93938259548608
 30
0.0
 10
82.350528971354166
 20
194.47098931206597
 30
0.0
 10
81.965539550781244
 20
203.00139024522568
 30
0.0
 10
81.580550130208323
 20
211.53299696180554
 30
0.0
  0
SPLINE
  5
353
100
AcDbEntity
  8
レイヤー_2
 62
     7
100
AcDbSpline
210
0.0
220
0.0
230
1.0
 70
     8
 71
     3
 72
    11
 73
     7
 74
     0
 42
0.00000001
 43
0.00000001
 40
0.0
 40
0.0
 40
0.0
 40
0.0
 40
1.0
 40
1.0
 40
1.0
 40
2.0
 40
2.0
 40
2.0
 40
2.0
 10
72.180951605902777
 20
211.53299696180554
 30
0.0
 10
72.087934027777777
 20
209.47403564453123
 30
0.0
 10
71.995088704427076
 20
207.41455756293402
 30
0.0
 10
71.902243381076389
 20
205.35559624565971
 30
0.0
 10
71.57220323350694
 20
198.03356255425345
 30
0.0
 10
71.24181857638888
 20
190.71170111762152
 30
0.0
 10
70.911778428819431
 20
183.39035644531248
 30
0.0
  0
LINE
  5
352
100
AcDbEntity
  8
レイヤー_2
 62
     7
100
AcDbLine
 10
80.377006
 20
162.530648
 30
0.0
 11
79.636138
 21
162.406624
 31
0.0
  0
SPLINE
  5
351
100
AcDbEntity
  8
レイヤー_2
 62
     7
100
AcDbSpline
210
0.0
220
0.0
230
1.0
 70
     8
 71
     3
 72
    11
 73
     7
 74
     0
 42
0.00000001
 43
0.00000001
 40
0.0
 40
0.0
 40
0.0
 40
0.0
 40
1.0
 40
1.0
 40
1.0
 40
2.0
 40
2.0
 40
2.0
 40
2.0
 10
79.63613823784722
 20
162.40662434895833
 30
0.0
 10
79.61874050564235
 20
162.40662434895833
 30
0.0
 10
79.600653754340271
 20
162.40662434895833
 30
0.0
 10
79.583600531684027
 20
162.40748562282985
 30
0.0
 10
79.497645399305554
 20
162.41110297309027
 30
0.0
 10
79.414101833767347
 20
162.43194580078122
 30
0.0
 10
79.330386013454856
 20
162.45278862847221
 30
0.0
  0
SPLINE
  5
350
100
AcDbEntity
  8
レイヤー_2
 62
     7
100
AcDbSpline
210
0.0
220
0.0
230
1.0
 70
     8
 71
     3
 72
    11
 73
     7
 74
     0
 42
0.00000001
 43
0.00000001
 40
0.0
 40
0.0
 40
0.0
 40
0.0
 40
1.0
 40
1.0
 40
1.0
 40
2.0
 40
2.0
 40
2.0
 40
2.0
 10
79.63613823784722
 20
164.96322970920139
 30
0.0
 10
79.61874050564235
 20
164.96322970920139
 30
0.0
 10
79.600653754340271
 20
164.96322970920139
 30
0.0
 10
79.583600531684027
 20
164.96219618055554
 30
0.0
 10
79.497645399305554
 20
164.95857883029512
 30
0.0
 10
79.414101833767347
 20
164.93808051215277
 30
0.0
 10
79.330386013454856
 20
164.91654866536456
 30
0.0
  0
LINE
  5
34F
100
AcDbEntity
  8
レイヤー_2
 62
     7
100
AcDbLine
 10
80.377006
 20
164.839206
 30
0.0
 11
79.636138
 21
164.96323
 31
0.0
  0
LINE
  5
34E
100
AcDbEntity
  8
レイヤー_2
 62
     7
100
AcDbLine
 10
80.377006
 20
162.530648
 30
0.0
 11
80.377006
 21
164.839206
 31
0.0
  0
LINE
  5
34D
100
AcDbEntity
  8
レイヤー_2
 62
     7
100
AcDbLine
 10
79.330386
 20
164.96323
 30
0.0
 11
79.636138
 21
164.96323
 31
0.0
  0
LINE
  5
34C
100
AcDbEntity
  8
レイヤー_2
 62
     7
100
AcDbLine
 10
79.636138
 20
162.406624
 30
0.0
 11
79.330386
 21
162.406624
 31
0.0
  0
LINE
  5
34B
100
AcDbEntity
  8
レイヤー_2
 62
     7
100
AcDbLine
 10
80.501546
 20
170.812313
 30
0.0
 11
79.330386
 21
170.812313
 31
0.0
  0
LINE
  5
34A
100
AcDbEntity
  8
レイヤー_2
 62
     7
100
AcDbLine
 10
80.501546
 20
170.501393
 30
0.0
 11
79.330386
 21
170.501393
 31
0.0
  0
LINE
  5
349
100
AcDbEntity
  8
レイヤー_2
 62
     7
100
AcDbLine
 10
80.182186
 20
169.947938
 30
0.0
 11
79.330386
 21
169.947938
 31
0.0
  0
SPLINE
  5
348
100
AcDbEntity
  8
レイヤー_2
 62
     7
100
AcDbSpline
210
0.0
220
0.0
230
1.0
 70
     8
 71
     3
 72
    11
 73
     7
 74
     0
 42
0.00000001
 43
0.00000001
 40
0.0
 40
0.0
 40
0.0
 40
0.0
 40
1.0
 40
1.0
 40
1.0
 40
2.0
 40
2.0
 40
2.0
 40
2.0
 10
80.48879937065972
 20
164.96322970920139
 30
0.0
 10
80.460549587673597
 20
164.94944932725693
 30
0.0
 10
80.432472059461801
 20
164.93549669053817
 30
0.0
 10
80.405255805121527
 20
164.89122721354164
 30
0.0
 10
80.395609537760407
 20
164.87693006727429
 30
0.0
 10
80.386480034722211
 20
164.85780978732637
 30
0.0
 10
80.377006022135404
 20
164.83920627170139
 30
0.0
  0
LINE
  5
347
100
AcDbEntity
  8
レイヤー_2
 62
     7
100
AcDbLine
 10
79.636138
 20
164.96323
 30
0.0
 11
80.488799
 21
164.96323
 31
0.0
  0
SPLINE
  5
346
100
AcDbEntity
  8
レイヤー_2
 62
     7
100
AcDbSpline
210
0.0
220
0.0
230
1.0
 70
     8
 71
     3
 72
    11
 73
     7
 74
     0
 42
0.00000001
 43
0.00000001
 40
0.0
 40
0.0
 40
0.0
 40
0.0
 40
1.0
 40
1.0
 40
1.0
 40
2.0
 40
2.0
 40
2.0
 40
2.0
 10
80.48879937065972
 20
162.40662434895833
 30
0.0
 10
80.460549587673597
 20
162.42074924045139
 30
0.0
 10
80.432472059461801
 20
162.43470187717011
 30
0.0
 10
80.405255805121527
 20
162.47862684461805
 30
0.0
 10
80.395609537760407
 20
162.4930962456597
 30
0.0
 10
80.386480034722211
 20
162.51187201605902
 30
0.0
 10
80.377006022135404
 20
162.53064778645833
 30
0.0
  0
LINE
  5
345
100
AcDbEntity
  8
レイヤー_2
 62
     7
100
AcDbLine
 10
80.488799
 20
162.406624
 30
0.0
 11
79.636138
 21
162.406624
 31
0.0
  0
LINE
  5
344
100
AcDbEntity
  8
レイヤー_2
 62
     7
100
AcDbLine
 10
80.515499
 20
162.415754
 30
0.0
 11
80.488799
 21
162.406624
 31
0.0
  0
LINE
  5
343
100
AcDbEntity
  8
レイヤー_2
 62
     7
100
AcDbLine
 10
80.518944
 20
164.95255
 30
0.0
 11
80.488799
 21
164.96323
 31
0.0
  0
LINE
  5
342
100
AcDbEntity
  8
レイヤー_2
 62
     7
100
AcDbLine
 10
77.542381
 20
172.269071
 30
0.0
 11
77.542381
 21
170.991113
 31
0.0
  0
LINE
  5
341
100
AcDbEntity
  8
レイヤー_2
 62
     7
100
AcDbLine
 10
73.136621
 20
170.991113
 30
0.0
 11
73.136621
 21
172.269071
 31
0.0
  0
SPLINE
  5
340
100
AcDbEntity
  8
レイヤー_2
 62
     7
100
AcDbSpline
210
0.0
220
0.0
230
1.0
 70
     8
 71
     3
 72
     8
 73
     4
 74
     0
 42
0.00000001
 43
0.00000001
 40
0.0
 40
0.0
 40
0.0
 40
0.0
 40
1.0
 40
1.0
 40
1.0
 40
1.0
 10
77.54375949435763
 20
170.96493055555553
 30
0.0
 10
77.54375949435763
 20
170.97388780381942
 30
0.0
 10
77.542725965711796
 20
170.98336181640624
 30
0.0
 10
77.542381456163184
 20
170.99111328124999
 30
0.0
  0
SPLINE
  5
33F
100
AcDbEntity
  8
レイヤー_2
 62
     7
100
AcDbSpline
210
0.0
220
0.0
230
1.0
 70
     8
 71
     3
 72
     8
 73
     4
 74
     0
 42
0.00000001
 43
0.00000001
 40
0.0
 40
0.0
 40
0.0
 40
0.0
 40
1.0
 40
1.0
 40
1.0
 40
1.0
 10
77.529290093315964
 20
170.88483208550346
 30
0.0
 10
77.539280870225681
 20
170.9111870659722
 30
0.0
 10
77.54375949435763
 20
170.93909233940971
 30
0.0
 10
77.54375949435763
 20
170.96493055555553
 30
0.0
  0
SPLINE
  5
33E
100
AcDbEntity
  8
レイヤー_2
 62
     7
100
AcDbSpline
210
0.0
220
0.0
230
1.0
 70
     8
 71
     3
 72
     8
 73
     4
 74
     0
 42
0.00000001
 43
0.00000001
 40
0.0
 40
0.0
 40
0.0
 40
0.0
 40
1.0
 40
1.0
 40
1.0
 40
1.0
 10
73.136621093749994
 20
170.99111328124999
 30
0.0
 10
73.129214138454856
 20
170.9418484157986
 30
0.0
 10
73.161081271701377
 20
170.8956841362847
 30
0.0
 10
73.209140353732636
 20
170.88483208550346
 30
0.0
  0
LINE
  5
33D
100
AcDbEntity
  8
レイヤー_2
 62
     7
100
AcDbLine
 10
73.20914
 20
170.884832
 30
0.0
 11
71.457826
 21
170.884832
 31
0.0
  0
LINE
  5
33C
100
AcDbEntity
  8
レイヤー_2
 62
     7
100
AcDbLine
 10
82.320901
 20
170.884832
 30
0.0
 11
77.52929
 21
170.884832
 31
0.0
  0
LINE
  5
33B
100
AcDbEntity
  8
レイヤー_2
 62
     7
100
AcDbLine
 10
77.52929
 20
172.375697
 30
0.0
 11
82.320901
 21
172.375697
 31
0.0
  0
LINE
  5
33A
100
AcDbEntity
  8
レイヤー_2
 62
     7
100
AcDbLine
 10
71.457826
 20
172.375697
 30
0.0
 11
73.20914
 21
172.375697
 31
0.0
  0
SPLINE
  5
339
100
AcDbEntity
  8
レイヤー_2
 62
     7
100
AcDbSpline
210
0.0
220
0.0
230
1.0
 70
     8
 71
     3
 72
     8
 73
     4
 74
     0
 42
0.00000001
 43
0.00000001
 40
0.0
 40
0.0
 40
0.0
 40
0.0
 40
1.0
 40
1.0
 40
1.0
 40
1.0
 10
73.209140353732636
 20
172.37569715711803
 30
0.0
 10
73.161081271701377
 20
172.36467285156249
 30
0.0
 10
73.129558648003467
 20
172.31764729817706
 30
0.0
 10
73.136621093749994
 20
172.2690714518229
 30
0.0
  0
SPLINE
  5
338
100
AcDbEntity
  8
レイヤー_2
 62
     7
100
AcDbSpline
210
0.0
220
0.0
230
1.0
 70
     8
 71
     3
 72
     8
 73
     4
 74
     0
 42
0.00000001
 43
0.00000001
 40
0.0
 40
0.0
 40
0.0
 40
0.0
 40
1.0
 40
1.0
 40
1.0
 40
1.0
 10
77.54375949435763
 20
172.29525417751734
 30
0.0
 10
77.54375949435763
 20
172.32419297960067
 30
0.0
 10
77.538764105902771
 20
172.35158148871525
 30
0.0
 10
77.529290093315964
 20
172.37569715711803
 30
0.0
  0
SPLINE
  5
337
100
AcDbEntity
  8
レイヤー_2
 62
     7
100
AcDbSpline
210
0.0
220
0.0
230
1.0
 70
     8
 71
     3
 72
     8
 73
     4
 74
     0
 42
0.00000001
 43
0.00000001
 40
0.0
 40
0.0
 40
0.0
 40
0.0
 40
1.0
 40
1.0
 40
1.0
 40
1.0
 10
77.542381456163184
 20
172.2690714518229
 30
0.0
 10
77.543414984809019
 20
172.27802870008679
 30
0.0
 10
77.54375949435763
 20
172.28750271267359
 30
0.0
 10
77.54375949435763
 20
172.29525417751734
 30
0.0
  0
LINE
  5
336
100
AcDbEntity
  8
レイヤー_2
 62
     7
100
AcDbLine
 10
73.31456
 20
170.991113
 30
0.0
 11
73.136621
 21
170.991113
 31
0.0
  0
SPLINE
  5
335
100
AcDbEntity
  8
レイヤー_2
 62
     7
100
AcDbSpline
210
0.0
220
0.0
230
1.0
 70
     8
 71
     3
 72
     8
 73
     4
 74
     0
 42
0.00000001
 43
0.00000001
 40
0.0
 40
0.0
 40
0.0
 40
0.0
 40
1.0
 40
1.0
 40
1.0
 40
1.0
 10
73.209140353732636
 20
170.88483208550346
 30
0.0
 10
73.267017957899299
 20
170.88483208550346
 30
0.0
 10
73.314560275607633
 20
170.93202989366318
 30
0.0
 10
73.314560275607633
 20
170.99025200737844
 30
0.0
  0
LINE
  5
334
100
AcDbEntity
  8
レイヤー_2
 62
     7
100
AcDbLine
 10
73.31456
 20
172.269071
 30
0.0
 11
73.136621
 21
172.269071
 31
0.0
  0
LINE
  5
333
100
AcDbEntity
  8
レイヤー_2
 62
     7
100
AcDbLine
 10
73.31456
 20
172.269071
 30
0.0
 11
73.31456
 21
170.991113
 31
0.0
  0
SPLINE
  5
332
100
AcDbEntity
  8
レイヤー_2
 62
     7
100
AcDbSpline
210
0.0
220
0.0
230
1.0
 70
     8
 71
     3
 72
     8
 73
     4
 74
     0
 42
0.00000001
 43
0.00000001
 40
0.0
 40
0.0
 40
0.0
 40
0.0
 40
1.0
 40
1.0
 40
1.0
 40
1.0
 10
73.314560275607633
 20
172.26976047092012
 30
0.0
 10
73.314560275607633
 20
172.32781032986111
 30
0.0
 10
73.267017957899299
 20
172.37552490234373
 30
0.0
 10
73.209140353732636
 20
172.37569715711803
 30
0.0
  0
SPLINE
  5
331
100
AcDbEntity
  8
レイヤー_2
 62
     7
100
AcDbSpline
210
0.0
220
0.0
230
1.0
 70
     8
 71
     3
 72
     8
 73
     4
 74
     0
 42
0.00000001
 43
0.00000001
 40
0.0
 40
0.0
 40
0.0
 40
0.0
 40
1.0
 40
1.0
 40
1.0
 40
1.0
 10
73.444095865885416
 20
170.88483208550346
 30
0.0
 10
73.503006998697913
 20
170.88483208550346
 30
0.0
 10
73.549688042534711
 20
170.93202989366318
 30
0.0
 10
73.549688042534711
 20
170.99025200737844
 30
0.0
  0
LINE
  5
330
100
AcDbEntity
  8
レイヤー_2
 62
     7
100
AcDbLine
 10
73.31456
 20
170.991113
 30
0.0
 11
73.549688
 21
170.991113
 31
0.0
  0
LINE
  5
32F
100
AcDbEntity
  8
レイヤー_2
 62
     7
100
AcDbLine
 10
73.444096
 20
170.884832
 30
0.0
 11
73.20914
 21
170.884832
 31
0.0
  0
SPLINE
  5
32E
100
AcDbEntity
  8
レイヤー_2
 62
     7
100
AcDbSpline
210
0.0
220
0.0
230
1.0
 70
     8
 71
     3
 72
     8
 73
     4
 74
     0
 42
0.00000001
 43
0.00000001
 40
0.0
 40
0.0
 40
0.0
 40
0.0
 40
1.0
 40
1.0
 40
1.0
 40
1.0
 10
73.350561523437491
 20
172.26976047092012
 30
0.0
 10
73.350561523437491
 20
172.32781032986111
 30
0.0
 10
73.30370822482638
 20
172.37552490234373
 30
0.0
 10
73.245313856336793
 20
172.37569715711803
 30
0.0
  0
LINE
  5
32D
100
AcDbEntity
  8
レイヤー_2
 62
     7
100
AcDbLine
 10
73.350562
 20
172.269071
 30
0.0
 11
73.31456
 21
172.269071
 31
0.0
  0
LINE
  5
32C
100
AcDbEntity
  8
レイヤー_2
 62
     7
100
AcDbLine
 10
73.20914
 20
172.375697
 30
0.0
 11
73.245314
 21
172.375697
 31
0.0
  0
LINE
  5
32B
100
AcDbEntity
  8
レイヤー_2
 62
     7
100
AcDbLine
 10
73.350562
 20
171.949194
 30
0.0
 11
73.350562
 21
172.269071
 31
0.0
  0
LINE
  5
32A
100
AcDbEntity
  8
レイヤー_2
 62
     7
100
AcDbLine
 10
73.549688
 20
171.949194
 30
0.0
 11
73.350562
 21
171.949194
 31
0.0
  0
LINE
  5
329
100
AcDbEntity
  8
レイヤー_2
 62
     7
100
AcDbLine
 10
73.549688
 20
170.991113
 30
0.0
 11
73.549688
 21
171.949194
 31
0.0
  0
SPLINE
  5
328
100
AcDbEntity
  8
レイヤー_2
 62
     7
100
AcDbSpline
210
0.0
220
0.0
230
1.0
 70
     8
 71
     3
 72
     8
 73
     4
 74
     0
 42
0.00000001
 43
0.00000001
 40
0.0
 40
0.0
 40
0.0
 40
0.0
 40
1.0
 40
1.0
 40
1.0
 40
1.0
 10
73.350561523437491
 20
171.94919433593748
 30
0.0
 10
73.355901421440961
 20
171.96865912543402
 30
0.0
 10
73.355901421440961
 20
171.98657362196178
 30
0.0
 10
73.352284071180549
 20
172.00121527777776
 30
0.0
  0
SPLINE
  5
327
100
AcDbEntity
  8
レイヤー_2
 62
     7
100
AcDbSpline
210
0.0
220
0.0
230
1.0
 70
     8
 71
     3
 72
     8
 73
     4
 74
     0
 42
0.00000001
 43
0.00000001
 40
0.0
 40
0.0
 40
0.0
 40
0.0
 40
1.0
 40
1.0
 40
1.0
 40
1.0
 10
73.549688042534711
 20
171.9498833550347
 30
0.0
 10
73.549688042534711
 20
172.00862223307291
 30
0.0
 10
73.503006998697913
 20
172.05547553168401
 30
0.0
 10
73.444095865885416
 20
172.05616455078123
 30
0.0
  0
LINE
  5
326
100
AcDbEntity
  8
レイヤー_2
 62
     7
100
AcDbLine
 10
74.43146
 20
170.884832
 30
0.0
 11
73.444096
 21
170.884832
 31
0.0
  0
LINE
  5
325
100
AcDbEntity
  8
レイヤー_2
 62
     7
100
AcDbLine
 10
78.857202
 20
172.694541
 30
0.0
 11
71.777531
 21
172.694541
 31
0.0
  0
LINE
  5
324
100
AcDbEntity
  8
レイヤー_2
 62
     7
100
AcDbLine
 10
82.001541
 20
172.694541
 30
0.0
 11
78.857202
 21
172.694541
 31
0.0
  0
LINE
  5
323
100
AcDbEntity
  8
レイヤー_2
 62
     7
100
AcDbLine
 10
77.422664
 20
172.056165
 30
0.0
 11
73.352284
 21
172.056165
 31
0.0
  0
POLYLINE
  5
31B
100
AcDbEntity
  8
レイヤー_2
 62
     7
100
AcDb2dPolyline
 66
     1
 10
0.0
 20
0.0
 30
0.0
  0
VERTEX
  5
31C
100
AcDbEntity
  8
レイヤー_2
 62
     7
100
AcDbVertex
100
AcDb2dVertex
 10
78.531985
 20
206.82424
 30
0.0
  0
VERTEX
  5
31D
100
AcDbEntity
  8
レイヤー_2
 62
     7
100
AcDbVertex
100
AcDb2dVertex
 10
78.700967
 20
206.798919
 30
0.0
  0
VERTEX
  5
31E
100
AcDbEntity
  8
レイヤー_2
 62
     7
100
AcDbVertex
100
AcDb2dVertex
 10
78.813105
 20
206.770152
 30
0.0
  0
VERTEX
  5
31F
100
AcDbEntity
  8
レイヤー_2
 62
     7
100
AcDbVertex
100
AcDb2dVertex
 10
78.851173
 20
206.740008
 30
0.0
  0
VERTEX
  5
320
100
AcDbEntity
  8
レイヤー_2
 62
     7
100
AcDbVertex
100
AcDb2dVertex
 10
78.813105
 20
206.710036
 30
0.0
  0
VERTEX
  5
321
100
AcDbEntity
  8
レイヤー_2
 62
     7
100
AcDbVertex
100
AcDb2dVertex
 10
78.744548
 20
206.690054
 30
0.0
  0
SEQEND
  5
322
100
AcDbEntity
  8
レイヤー_2
 62
     7
  0
POLYLINE
  5
313
100
AcDbEntity
  8
レイヤー_2
 62
     7
100
AcDb2dPolyline
 66
     1
 10
0.0
 20
0.0
 30
0.0
  0
VERTEX
  5
314
100
AcDbEntity
  8
レイヤー_2
 62
     7
100
AcDbVertex
100
AcDb2dVertex
 10
75.023672
 20
206.688331
 30
0.0
  0
VERTEX
  5
315
100
AcDbEntity
  8
レイヤー_2
 62
     7
100
AcDbVertex
100
AcDb2dVertex
 10
74.948052
 20
206.710036
 30
0.0
  0
VERTEX
  5
316
100
AcDbEntity
  8
レイヤー_2
 62
     7
100
AcDbVertex
100
AcDb2dVertex
 10
74.910845
 20
206.740008
 30
0.0
  0
VERTEX
  5
317
100
AcDbEntity
  8
レイヤー_2
 62
     7
100
AcDbVertex
100
AcDb2dVertex
 10
74.948052
 20
206.770152
 30
0.0
  0
VERTEX
  5
318
100
AcDbEntity
  8
レイヤー_2
 62
     7
100
AcDbVertex
100
AcDb2dVertex
 10
75.060535
 20
206.798919
 30
0.0
  0
VERTEX
  5
319
100
AcDbEntity
  8
レイヤー_2
 62
     7
100
AcDbVertex
100
AcDb2dVertex
 10
75.229517
 20
206.82424
 30
0.0
  0
SEQEND
  5
31A
100
AcDbEntity
  8
レイヤー_2
 62
     7
  0
POLYLINE
  5
300
100
AcDbEntity
  8
レイヤー_2
 62
     7
100
AcDb2dPolyline
 66
     1
 10
0.0
 20
0.0
 30
0.0
  0
VERTEX
  5
301
100
AcDbEntity
  8
レイヤー_2
 62
     7
100
AcDbVertex
100
AcDb2dVertex
 10
74.97458
 20
206.674551
 30
0.0
  0
VERTEX
  5
302
100
AcDbEntity
  8
レイヤー_2
 62
     7
100
AcDbVertex
100
AcDb2dVertex
 10
74.976991
 20
206.668867
 30
0.0
  0
VERTEX
  5
303
100
AcDbEntity
  8
レイヤー_2
 62
     7
100
AcDbVertex
100
AcDb2dVertex
 10
75.035213
 20
206.639067
 30
0.0
  0
VERTEX
  5
304
100
AcDbEntity
  8
レイヤー_2
 62
     7
100
AcDbVertex
100
AcDb2dVertex
 10
75.1694
 20
206.610472
 30
0.0
  0
VERTEX
  5
305
100
AcDbEntity
  8
レイヤー_2
 62
     7
100
AcDbVertex
100
AcDb2dVertex
 10
75.373177
 20
206.584634
 30
0.0
  0
VERTEX
  5
306
100
AcDbEntity
  8
レイヤー_2
 62
     7
100
AcDbVertex
100
AcDb2dVertex
 10
75.639138
 20
206.56293
 30
0.0
  0
VERTEX
  5
307
100
AcDbEntity
  8
レイヤー_2
 62
     7
100
AcDbVertex
100
AcDb2dVertex
 10
75.955398
 20
206.545704
 30
0.0
  0
VERTEX
  5
308
100
AcDbEntity
  8
レイヤー_2
 62
     7
100
AcDbVertex
100
AcDb2dVertex
 10
76.310071
 20
206.533991
 30
0.0
  0
VERTEX
  5
309
100
AcDbEntity
  8
レイヤー_2
 62
     7
100
AcDbVertex
100
AcDb2dVertex
 10
76.68817
 20
206.52779
 30
0.0
  0
VERTEX
  5
30A
100
AcDbEntity
  8
レイヤー_2
 62
     7
100
AcDbVertex
100
AcDb2dVertex
 10
77.074021
 20
206.52779
 30
0.0
  0
VERTEX
  5
30B
100
AcDbEntity
  8
レイヤー_2
 62
     7
100
AcDbVertex
100
AcDb2dVertex
 10
77.451603
 20
206.533991
 30
0.0
  0
VERTEX
  5
30C
100
AcDbEntity
  8
レイヤー_2
 62
     7
100
AcDbVertex
100
AcDb2dVertex
 10
77.805759
 20
206.545704
 30
0.0
  0
VERTEX
  5
30D
100
AcDbEntity
  8
レイヤー_2
 62
     7
100
AcDbVertex
100
AcDb2dVertex
 10
78.122363
 20
206.56293
 30
0.0
  0
VERTEX
  5
30E
100
AcDbEntity
  8
レイヤー_2
 62
     7
100
AcDbVertex
100
AcDb2dVertex
 10
78.388497
 20
206.584634
 30
0.0
  0
VERTEX
  5
30F
100
AcDbEntity
  8
レイヤー_2
 62
     7
100
AcDbVertex
100
AcDb2dVertex
 10
78.592102
 20
206.610472
 30
0.0
  0
VERTEX
  5
310
100
AcDbEntity
  8
レイヤー_2
 62
     7
100
AcDbVertex
100
AcDb2dVertex
 10
78.726289
 20
206.639067
 30
0.0
  0
VERTEX
  5
311
100
AcDbEntity
  8
レイヤー_2
 62
     7
100
AcDbVertex
100
AcDb2dVertex
 10
78.777793
 20
206.661115
 30
0.0
  0
SEQEND
  5
312
100
AcDbEntity
  8
レイヤー_2
 62
     7
  0
POLYLINE
  5
2DE
100
AcDbEntity
  8
レイヤー_2
 62
     7
100
AcDb2dPolyline
 66
     1
 10
0.0
 20
0.0
 30
0.0
  0
VERTEX
  5
2DF
100
AcDbEntity
  8
レイヤー_2
 62
     7
100
AcDbVertex
100
AcDb2dVertex
 10
76.881268
 20
206.822862
 30
0.0
  0
VERTEX
  5
2E0
100
AcDbEntity
  8
レイヤー_2
 62
     7
100
AcDbVertex
100
AcDb2dVertex
 10
77.256094
 20
206.819245
 30
0.0
  0
VERTEX
  5
2E1
100
AcDbEntity
  8
レイヤー_2
 62
     7
100
AcDbVertex
100
AcDb2dVertex
 10
77.615934
 20
206.810632
 30
0.0
  0
VERTEX
  5
2E2
100
AcDbEntity
  8
レイヤー_2
 62
     7
100
AcDbVertex
100
AcDb2dVertex
 10
77.94563
 20
206.796335
 30
0.0
  0
VERTEX
  5
2E3
100
AcDbEntity
  8
レイヤー_2
 62
     7
100
AcDbVertex
100
AcDb2dVertex
 10
78.231401
 20
206.777559
 30
0.0
  0
VERTEX
  5
2E4
100
AcDbEntity
  8
レイヤー_2
 62
     7
100
AcDbVertex
100
AcDb2dVertex
 10
78.462739
 20
206.753788
 30
0.0
  0
VERTEX
  5
2E5
100
AcDbEntity
  8
レイヤー_2
 62
     7
100
AcDbVertex
100
AcDb2dVertex
 10
78.628965
 20
206.727089
 30
0.0
  0
VERTEX
  5
2E6
100
AcDbEntity
  8
レイヤー_2
 62
     7
100
AcDbVertex
100
AcDb2dVertex
 10
78.722843
 20
206.698839
 30
0.0
  0
VERTEX
  5
2E7
100
AcDbEntity
  8
レイヤー_2
 62
     7
100
AcDbVertex
100
AcDb2dVertex
 10
78.742136
 20
206.668867
 30
0.0
  0
VERTEX
  5
2E8
100
AcDbEntity
  8
レイヤー_2
 62
     7
100
AcDbVertex
100
AcDb2dVertex
 10
78.685292
 20
206.639928
 30
0.0
  0
VERTEX
  5
2E9
100
AcDbEntity
  8
レイヤー_2
 62
     7
100
AcDbVertex
100
AcDb2dVertex
 10
78.554206
 20
206.612023
 30
0.0
  0
VERTEX
  5
2EA
100
AcDbEntity
  8
レイヤー_2
 62
     7
100
AcDbVertex
100
AcDb2dVertex
 10
78.35439
 20
206.587046
 30
0.0
  0
VERTEX
  5
2EB
100
AcDbEntity
  8
レイヤー_2
 62
     7
100
AcDbVertex
100
AcDb2dVertex
 10
78.095319
 20
206.565342
 30
0.0
  0
VERTEX
  5
2EC
100
AcDbEntity
  8
レイヤー_2
 62
     7
100
AcDbVertex
100
AcDb2dVertex
 10
77.785261
 20
206.548288
 30
0.0
  0
VERTEX
  5
2ED
100
AcDbEntity
  8
レイヤー_2
 62
     7
100
AcDbVertex
100
AcDb2dVertex
 10
77.438512
 20
206.536747
 30
0.0
  0
VERTEX
  5
2EE
100
AcDbEntity
  8
レイヤー_2
 62
     7
100
AcDbVertex
100
AcDb2dVertex
 10
77.06937
 20
206.530718
 30
0.0
  0
VERTEX
  5
2EF
100
AcDbEntity
  8
レイヤー_2
 62
     7
100
AcDbVertex
100
AcDb2dVertex
 10
76.692476
 20
206.530718
 30
0.0
  0
VERTEX
  5
2F0
100
AcDbEntity
  8
レイヤー_2
 62
     7
100
AcDbVertex
100
AcDb2dVertex
 10
76.323162
 20
206.536747
 30
0.0
  0
VERTEX
  5
2F1
100
AcDbEntity
  8
レイヤー_2
 62
     7
100
AcDbVertex
100
AcDb2dVertex
 10
75.976758
 20
206.548288
 30
0.0
  0
VERTEX
  5
2F2
100
AcDbEntity
  8
レイヤー_2
 62
     7
100
AcDbVertex
100
AcDb2dVertex
 10
75.666699
 20
206.565342
 30
0.0
  0
VERTEX
  5
2F3
100
AcDbEntity
  8
レイヤー_2
 62
     7
100
AcDbVertex
100
AcDb2dVertex
 10
75.406767
 20
206.587046
 30
0.0
  0
VERTEX
  5
2F4
100
AcDbEntity
  8
レイヤー_2
 62
     7
100
AcDbVertex
100
AcDb2dVertex
 10
75.207812
 20
206.612023
 30
0.0
  0
VERTEX
  5
2F5
100
AcDbEntity
  8
レイヤー_2
 62
     7
100
AcDbVertex
100
AcDb2dVertex
 10
75.07621
 20
206.639928
 30
0.0
  0
VERTEX
  5
2F6
100
AcDbEntity
  8
レイヤー_2
 62
     7
100
AcDbVertex
100
AcDb2dVertex
 10
75.019021
 20
206.668867
 30
0.0
  0
VERTEX
  5
2F7
100
AcDbEntity
  8
レイヤー_2
 62
     7
100
AcDbVertex
100
AcDb2dVertex
 10
75.038486
 20
206.698839
 30
0.0
  0
VERTEX
  5
2F8
100
AcDbEntity
  8
レイヤー_2
 62
     7
100
AcDbVertex
100
AcDb2dVertex
 10
75.133226
 20
206.727089
 30
0.0
  0
VERTEX
  5
2F9
100
AcDbEntity
  8
レイヤー_2
 62
     7
100
AcDbVertex
100
AcDb2dVertex
 10
75.299452
 20
206.753788
 30
0.0
  0
VERTEX
  5
2FA
100
AcDbEntity
  8
レイヤー_2
 62
     7
100
AcDbVertex
100
AcDb2dVertex
 10
75.529757
 20
206.777559
 30
0.0
  0
VERTEX
  5
2FB
100
AcDbEntity
  8
レイヤー_2
 62
     7
100
AcDbVertex
100
AcDb2dVertex
 10
75.816044
 20
206.796335
 30
0.0
  0
VERTEX
  5
2FC
100
AcDbEntity
  8
レイヤー_2
 62
     7
100
AcDbVertex
100
AcDb2dVertex
 10
76.145912
 20
206.810632
 30
0.0
  0
VERTEX
  5
2FD
100
AcDbEntity
  8
レイヤー_2
 62
     7
100
AcDbVertex
100
AcDb2dVertex
 10
76.506097
 20
206.819245
 30
0.0
  0
VERTEX
  5
2FE
100
AcDbEntity
  8
レイヤー_2
 62
     7
100
AcDbVertex
100
AcDb2dVertex
 10
76.881268
 20
206.822862
 30
0.0
  0
SEQEND
  5
2FF
100
AcDbEntity
  8
レイヤー_2
 62
     7
  0
POLYLINE
  5
2CC
100
AcDbEntity
  8
レイヤー_2
 62
     7
100
AcDb2dPolyline
 66
     1
 10
0.0
 20
0.0
 30
0.0
  0
VERTEX
  5
2CD
100
AcDbEntity
  8
レイヤー_2
 62
     7
100
AcDbVertex
100
AcDb2dVertex
 10
75.027979
 20
206.692466
 30
0.0
  0
VERTEX
  5
2CE
100
AcDbEntity
  8
レイヤー_2
 62
     7
100
AcDbVertex
100
AcDb2dVertex
 10
75.102909
 20
206.66456
 30
0.0
  0
VERTEX
  5
2CF
100
AcDbEntity
  8
レイヤー_2
 62
     7
100
AcDbVertex
100
AcDb2dVertex
 10
75.250532
 20
206.637344
 30
0.0
  0
VERTEX
  5
2D0
100
AcDbEntity
  8
レイヤー_2
 62
     7
100
AcDbVertex
100
AcDb2dVertex
 10
75.466367
 20
206.613573
 30
0.0
  0
VERTEX
  5
2D1
100
AcDbEntity
  8
レイヤー_2
 62
     7
100
AcDbVertex
100
AcDb2dVertex
 10
75.74008
 20
206.592386
 30
0.0
  0
VERTEX
  5
2D2
100
AcDbEntity
  8
レイヤー_2
 62
     7
100
AcDbVertex
100
AcDb2dVertex
 10
76.060301
 20
206.577399
 30
0.0
  0
VERTEX
  5
2D3
100
AcDbEntity
  8
レイヤー_2
 62
     7
100
AcDbVertex
100
AcDb2dVertex
 10
76.413596
 20
206.566892
 30
0.0
  0
VERTEX
  5
2D4
100
AcDbEntity
  8
レイヤー_2
 62
     7
100
AcDbVertex
100
AcDb2dVertex
 10
76.786183
 20
206.562241
 30
0.0
  0
VERTEX
  5
2D5
100
AcDbEntity
  8
レイヤー_2
 62
     7
100
AcDbVertex
100
AcDb2dVertex
 10
77.16256
 20
206.563791
 30
0.0
  0
VERTEX
  5
2D6
100
AcDbEntity
  8
レイヤー_2
 62
     7
100
AcDbVertex
100
AcDb2dVertex
 10
77.528429
 20
206.571026
 30
0.0
  0
VERTEX
  5
2D7
100
AcDbEntity
  8
レイヤー_2
 62
     7
100
AcDbVertex
100
AcDb2dVertex
 10
77.866737
 20
206.58429
 30
0.0
  0
VERTEX
  5
2D8
100
AcDbEntity
  8
レイヤー_2
 62
     7
100
AcDbVertex
100
AcDb2dVertex
 10
78.165082
 20
206.602549
 30
0.0
  0
VERTEX
  5
2D9
100
AcDbEntity
  8
レイヤー_2
 62
     7
100
AcDbVertex
100
AcDb2dVertex
 10
78.41089
 20
206.624942
 30
0.0
  0
VERTEX
  5
2DA
100
AcDbEntity
  8
レイヤー_2
 62
     7
100
AcDbVertex
100
AcDb2dVertex
 10
78.59348
 20
206.65078
 30
0.0
  0
VERTEX
  5
2DB
100
AcDbEntity
  8
レイヤー_2
 62
     7
100
AcDbVertex
100
AcDb2dVertex
 10
78.706307
 20
206.678857
 30
0.0
  0
VERTEX
  5
2DC
100
AcDbEntity
  8
レイヤー_2
 62
     7
100
AcDbVertex
100
AcDb2dVertex
 10
78.733695
 20
206.692466
 30
0.0
  0
SEQEND
  5
2DD
100
AcDbEntity
  8
レイヤー_2
 62
     7
  0
POLYLINE
  5
2C7
100
AcDbEntity
  8
レイヤー_2
 62
     7
100
AcDb2dPolyline
 66
     1
 10
0.0
 20
0.0
 30
0.0
  0
VERTEX
  5
2C8
100
AcDbEntity
  8
レイヤー_2
 62
     7
100
AcDbVertex
100
AcDb2dVertex
 10
78.584351
 20
206.708657
 30
0.0
  0
VERTEX
  5
2C9
100
AcDbEntity
  8
レイヤー_2
 62
     7
100
AcDbVertex
100
AcDb2dVertex
 10
78.544904
 20
206.736735
 30
0.0
  0
VERTEX
  5
2CA
100
AcDbEntity
  8
レイヤー_2
 62
     7
100
AcDbVertex
100
AcDb2dVertex
 10
78.510453
 20
206.747587
 30
0.0
  0
SEQEND
  5
2CB
100
AcDbEntity
  8
レイヤー_2
 62
     7
  0
POLYLINE
  5
2B4
100
AcDbEntity
  8
レイヤー_2
 62
     7
100
AcDb2dPolyline
 66
     1
 10
0.0
 20
0.0
 30
0.0
  0
VERTEX
  5
2B5
100
AcDbEntity
  8
レイヤー_2
 62
     7
100
AcDbVertex
100
AcDb2dVertex
 10
75.251565
 20
206.747587
 30
0.0
  0
VERTEX
  5
2B6
100
AcDbEntity
  8
レイヤー_2
 62
     7
100
AcDbVertex
100
AcDb2dVertex
 10
75.186625
 20
206.722955
 30
0.0
  0
VERTEX
  5
2B7
100
AcDbEntity
  8
レイヤー_2
 62
     7
100
AcDbVertex
100
AcDb2dVertex
 10
75.186625
 20
206.693499
 30
0.0
  0
VERTEX
  5
2B8
100
AcDbEntity
  8
レイヤー_2
 62
     7
100
AcDbVertex
100
AcDb2dVertex
 10
75.265862
 20
206.665766
 30
0.0
  0
VERTEX
  5
2B9
100
AcDbEntity
  8
レイヤー_2
 62
     7
100
AcDbVertex
100
AcDb2dVertex
 10
75.420892
 20
206.639411
 30
0.0
  0
VERTEX
  5
2BA
100
AcDbEntity
  8
レイヤー_2
 62
     7
100
AcDbVertex
100
AcDb2dVertex
 10
75.643789
 20
206.616157
 30
0.0
  0
VERTEX
  5
2BB
100
AcDbEntity
  8
レイヤー_2
 62
     7
100
AcDbVertex
100
AcDb2dVertex
 10
75.924392
 20
206.597381
 30
0.0
  0
VERTEX
  5
2BC
100
AcDbEntity
  8
レイヤー_2
 62
     7
100
AcDbVertex
100
AcDb2dVertex
 10
76.250643
 20
206.583945
 30
0.0
  0
VERTEX
  5
2BD
100
AcDbEntity
  8
レイヤー_2
 62
     7
100
AcDbVertex
100
AcDb2dVertex
 10
76.605315
 20
206.576366
 30
0.0
  0
VERTEX
  5
2BE
100
AcDbEntity
  8
レイヤー_2
 62
     7
100
AcDbVertex
100
AcDb2dVertex
 10
76.973079
 20
206.574299
 30
0.0
  0
VERTEX
  5
2BF
100
AcDbEntity
  8
レイヤー_2
 62
     7
100
AcDbVertex
100
AcDb2dVertex
 10
77.337226
 20
206.579294
 30
0.0
  0
VERTEX
  5
2C0
100
AcDbEntity
  8
レイヤー_2
 62
     7
100
AcDbVertex
100
AcDb2dVertex
 10
77.679152
 20
206.590318
 30
0.0
  0
VERTEX
  5
2C1
100
AcDbEntity
  8
レイヤー_2
 62
     7
100
AcDbVertex
100
AcDb2dVertex
 10
77.983698
 20
206.606855
 30
0.0
  0
VERTEX
  5
2C2
100
AcDbEntity
  8
レイヤー_2
 62
     7
100
AcDbVertex
100
AcDb2dVertex
 10
78.237429
 20
206.627009
 30
0.0
  0
VERTEX
  5
2C3
100
AcDbEntity
  8
レイヤー_2
 62
     7
100
AcDbVertex
100
AcDb2dVertex
 10
78.42691
 20
206.652158
 30
0.0
  0
VERTEX
  5
2C4
100
AcDbEntity
  8
レイヤー_2
 62
     7
100
AcDbVertex
100
AcDb2dVertex
 10
78.544904
 20
206.679891
 30
0.0
  0
VERTEX
  5
2C5
100
AcDbEntity
  8
レイヤー_2
 62
     7
100
AcDbVertex
100
AcDb2dVertex
 10
78.584351
 20
206.708657
 30
0.0
  0
SEQEND
  5
2C6
100
AcDbEntity
  8
レイヤー_2
 62
     7
  0
LINE
  5
2B3
100
AcDbEntity
  8
レイヤー_2
 62
     7
100
AcDbLine
 10
75.386957
 20
206.760851
 30
0.0
 11
75.386957
 21
206.763435
 31
0.0
  0
LINE
  5
2B2
100
AcDbEntity
  8
レイヤー_2
 62
     7
100
AcDbLine
 10
75.386957
 20
206.760851
 30
0.0
 11
75.42382
 21
206.755855
 31
0.0
  0
LINE
  5
2B1
100
AcDbEntity
  8
レイヤー_2
 62
     7
100
AcDbLine
 10
78.337509
 20
206.755855
 30
0.0
 11
78.375061
 21
206.760851
 31
0.0
  0
LINE
  5
2B0
100
AcDbEntity
  8
レイヤー_2
 62
     7
100
AcDbLine
 10
78.375061
 20
206.763435
 30
0.0
 11
78.375061
 21
206.760851
 31
0.0
  0
POLYLINE
  5
292
100
AcDbEntity
  8
レイヤー_2
 62
     7
100
AcDb2dPolyline
 66
     1
 10
0.0
 20
0.0
 30
0.0
  0
VERTEX
  5
293
100
AcDbEntity
  8
レイヤー_2
 62
     7
100
AcDbVertex
100
AcDb2dVertex
 10
78.265507
 20
206.708657
 30
0.0
  0
VERTEX
  5
294
100
AcDbEntity
  8
レイヤー_2
 62
     7
100
AcDbVertex
100
AcDb2dVertex
 10
78.228128
 20
206.73329
 30
0.0
  0
VERTEX
  5
295
100
AcDbEntity
  8
レイヤー_2
 62
     7
100
AcDbVertex
100
AcDb2dVertex
 10
78.118229
 20
206.757233
 30
0.0
  0
VERTEX
  5
296
100
AcDbEntity
  8
レイヤー_2
 62
     7
100
AcDbVertex
100
AcDb2dVertex
 10
77.941668
 20
206.778076
 30
0.0
  0
VERTEX
  5
297
100
AcDbEntity
  8
レイヤー_2
 62
     7
100
AcDbVertex
100
AcDb2dVertex
 10
77.707402
 20
206.795302
 30
0.0
  0
VERTEX
  5
298
100
AcDbEntity
  8
レイヤー_2
 62
     7
100
AcDbVertex
100
AcDb2dVertex
 10
77.42921
 20
206.807876
 30
0.0
  0
VERTEX
  5
299
100
AcDbEntity
  8
レイヤー_2
 62
     7
100
AcDbVertex
100
AcDb2dVertex
 10
77.121391
 20
206.814766
 30
0.0
  0
VERTEX
  5
29A
100
AcDbEntity
  8
レイヤー_2
 62
     7
100
AcDbVertex
100
AcDb2dVertex
 10
76.800136
 20
206.816317
 30
0.0
  0
VERTEX
  5
29B
100
AcDbEntity
  8
レイヤー_2
 62
     7
100
AcDbVertex
100
AcDb2dVertex
 10
76.483531
 20
206.812527
 30
0.0
  0
VERTEX
  5
29C
100
AcDbEntity
  8
レイヤー_2
 62
     7
100
AcDbVertex
100
AcDb2dVertex
 10
76.188459
 20
206.80202
 30
0.0
  0
VERTEX
  5
29D
100
AcDbEntity
  8
レイヤー_2
 62
     7
100
AcDbVertex
100
AcDb2dVertex
 10
75.93111
 20
206.787378
 30
0.0
  0
VERTEX
  5
29E
100
AcDbEntity
  8
レイヤー_2
 62
     7
100
AcDbVertex
100
AcDb2dVertex
 10
75.724232
 20
206.768085
 30
0.0
  0
VERTEX
  5
29F
100
AcDbEntity
  8
レイヤー_2
 62
     7
100
AcDbVertex
100
AcDb2dVertex
 10
75.579711
 20
206.745348
 30
0.0
  0
VERTEX
  5
2A0
100
AcDbEntity
  8
レイヤー_2
 62
     7
100
AcDbVertex
100
AcDb2dVertex
 10
75.505813
 20
206.720888
 30
0.0
  0
VERTEX
  5
2A1
100
AcDbEntity
  8
レイヤー_2
 62
     7
100
AcDbVertex
100
AcDb2dVertex
 10
75.505813
 20
206.695738
 30
0.0
  0
VERTEX
  5
2A2
100
AcDbEntity
  8
レイヤー_2
 62
     7
100
AcDbVertex
100
AcDb2dVertex
 10
75.579711
 20
206.671278
 30
0.0
  0
VERTEX
  5
2A3
100
AcDbEntity
  8
レイヤー_2
 62
     7
100
AcDbVertex
100
AcDb2dVertex
 10
75.724232
 20
206.648713
 30
0.0
  0
VERTEX
  5
2A4
100
AcDbEntity
  8
レイヤー_2
 62
     7
100
AcDbVertex
100
AcDb2dVertex
 10
75.93111
 20
206.62942
 30
0.0
  0
VERTEX
  5
2A5
100
AcDbEntity
  8
レイヤー_2
 62
     7
100
AcDbVertex
100
AcDb2dVertex
 10
76.188459
 20
206.614262
 30
0.0
  0
VERTEX
  5
2A6
100
AcDbEntity
  8
レイヤー_2
 62
     7
100
AcDbVertex
100
AcDb2dVertex
 10
76.483531
 20
206.604271
 30
0.0
  0
VERTEX
  5
2A7
100
AcDbEntity
  8
レイヤー_2
 62
     7
100
AcDbVertex
100
AcDb2dVertex
 10
76.800136
 20
206.599965
 30
0.0
  0
VERTEX
  5
2A8
100
AcDbEntity
  8
レイヤー_2
 62
     7
100
AcDbVertex
100
AcDb2dVertex
 10
77.121391
 20
206.601171
 30
0.0
  0
VERTEX
  5
2A9
100
AcDbEntity
  8
レイヤー_2
 62
     7
100
AcDbVertex
100
AcDb2dVertex
 10
77.42921
 20
206.608233
 30
0.0
  0
VERTEX
  5
2AA
100
AcDbEntity
  8
レイヤー_2
 62
     7
100
AcDbVertex
100
AcDb2dVertex
 10
77.707402
 20
206.621324
 30
0.0
  0
VERTEX
  5
2AB
100
AcDbEntity
  8
レイヤー_2
 62
     7
100
AcDbVertex
100
AcDb2dVertex
 10
77.941668
 20
206.638722
 30
0.0
  0
VERTEX
  5
2AC
100
AcDbEntity
  8
レイヤー_2
 62
     7
100
AcDbVertex
100
AcDb2dVertex
 10
78.118229
 20
206.659565
 30
0.0
  0
VERTEX
  5
2AD
100
AcDbEntity
  8
レイヤー_2
 62
     7
100
AcDbVertex
100
AcDb2dVertex
 10
78.228128
 20
206.683508
 30
0.0
  0
VERTEX
  5
2AE
100
AcDbEntity
  8
レイヤー_2
 62
     7
100
AcDbVertex
100
AcDb2dVertex
 10
78.265507
 20
206.708657
 30
0.0
  0
SEQEND
  5
2AF
100
AcDbEntity
  8
レイヤー_2
 62
     7
  0
POLYLINE
  5
275
100
AcDbEntity
  8
レイヤー_2
 62
     7
100
AcDb2dPolyline
 66
     1
 10
0.0
 20
0.0
 30
0.0
  0
VERTEX
  5
276
100
AcDbEntity
  8
レイヤー_2
 62
     7
100
AcDbVertex
100
AcDb2dVertex
 10
78.2016
 20
206.708657
 30
0.0
  0
VERTEX
  5
277
100
AcDbEntity
  8
レイヤー_2
 62
     7
100
AcDbVertex
100
AcDb2dVertex
 10
78.163015
 20
206.73329
 30
0.0
  0
VERTEX
  5
278
100
AcDbEntity
  8
レイヤー_2
 62
     7
100
AcDbVertex
100
AcDb2dVertex
 10
78.050016
 20
206.7562
 30
0.0
  0
VERTEX
  5
279
100
AcDbEntity
  8
レイヤー_2
 62
     7
100
AcDbVertex
100
AcDb2dVertex
 10
77.869838
 20
206.776698
 30
0.0
  0
VERTEX
  5
27A
100
AcDbEntity
  8
レイヤー_2
 62
     7
100
AcDbVertex
100
AcDb2dVertex
 10
77.63092
 20
206.793407
 30
0.0
  0
VERTEX
  5
27B
100
AcDbEntity
  8
レイヤー_2
 62
     7
100
AcDbVertex
100
AcDb2dVertex
 10
77.349284
 20
206.80512
 30
0.0
  0
VERTEX
  5
27C
100
AcDbEntity
  8
レイヤー_2
 62
     7
100
AcDbVertex
100
AcDb2dVertex
 10
77.040087
 20
206.811321
 30
0.0
  0
VERTEX
  5
27D
100
AcDbEntity
  8
レイヤー_2
 62
     7
100
AcDbVertex
100
AcDb2dVertex
 10
76.721243
 20
206.811321
 30
0.0
  0
VERTEX
  5
27E
100
AcDbEntity
  8
レイヤー_2
 62
     7
100
AcDbVertex
100
AcDb2dVertex
 10
76.412907
 20
206.80512
 30
0.0
  0
VERTEX
  5
27F
100
AcDbEntity
  8
レイヤー_2
 62
     7
100
AcDbVertex
100
AcDb2dVertex
 10
76.130237
 20
206.793407
 30
0.0
  0
VERTEX
  5
280
100
AcDbEntity
  8
レイヤー_2
 62
     7
100
AcDbVertex
100
AcDb2dVertex
 10
75.892008
 20
206.776698
 30
0.0
  0
VERTEX
  5
281
100
AcDbEntity
  8
レイヤー_2
 62
     7
100
AcDbVertex
100
AcDb2dVertex
 10
75.711485
 20
206.7562
 30
0.0
  0
VERTEX
  5
282
100
AcDbEntity
  8
レイヤー_2
 62
     7
100
AcDbVertex
100
AcDb2dVertex
 10
75.598486
 20
206.73329
 30
0.0
  0
VERTEX
  5
283
100
AcDbEntity
  8
レイヤー_2
 62
     7
100
AcDbVertex
100
AcDb2dVertex
 10
75.560246
 20
206.708657
 30
0.0
  0
VERTEX
  5
284
100
AcDbEntity
  8
レイヤー_2
 62
     7
100
AcDbVertex
100
AcDb2dVertex
 10
75.598486
 20
206.683508
 30
0.0
  0
VERTEX
  5
285
100
AcDbEntity
  8
レイヤー_2
 62
     7
100
AcDbVertex
100
AcDb2dVertex
 10
75.711485
 20
206.660254
 30
0.0
  0
VERTEX
  5
286
100
AcDbEntity
  8
レイヤー_2
 62
     7
100
AcDbVertex
100
AcDb2dVertex
 10
75.892008
 20
206.639411
 30
0.0
  0
VERTEX
  5
287
100
AcDbEntity
  8
レイヤー_2
 62
     7
100
AcDbVertex
100
AcDb2dVertex
 10
76.130237
 20
206.623219
 30
0.0
  0
VERTEX
  5
288
100
AcDbEntity
  8
レイヤー_2
 62
     7
100
AcDbVertex
100
AcDb2dVertex
 10
76.412907
 20
206.611161
 30
0.0
  0
VERTEX
  5
289
100
AcDbEntity
  8
レイヤー_2
 62
     7
100
AcDbVertex
100
AcDb2dVertex
 10
76.721243
 20
206.605477
 30
0.0
  0
VERTEX
  5
28A
100
AcDbEntity
  8
レイヤー_2
 62
     7
100
AcDbVertex
100
AcDb2dVertex
 10
77.040087
 20
206.605477
 30
0.0
  0
VERTEX
  5
28B
100
AcDbEntity
  8
レイヤー_2
 62
     7
100
AcDbVertex
100
AcDb2dVertex
 10
77.349284
 20
206.611161
 30
0.0
  0
VERTEX
  5
28C
100
AcDbEntity
  8
レイヤー_2
 62
     7
100
AcDbVertex
100
AcDb2dVertex
 10
77.63092
 20
206.623219
 30
0.0
  0
VERTEX
  5
28D
100
AcDbEntity
  8
レイヤー_2
 62
     7
100
AcDbVertex
100
AcDb2dVertex
 10
77.869838
 20
206.639411
 30
0.0
  0
VERTEX
  5
28E
100
AcDbEntity
  8
レイヤー_2
 62
     7
100
AcDbVertex
100
AcDb2dVertex
 10
78.050016
 20
206.660254
 30
0.0
  0
VERTEX
  5
28F
100
AcDbEntity
  8
レイヤー_2
 62
     7
100
AcDbVertex
100
AcDb2dVertex
 10
78.163015
 20
206.683508
 30
0.0
  0
VERTEX
  5
290
100
AcDbEntity
  8
レイヤー_2
 62
     7
100
AcDbVertex
100
AcDb2dVertex
 10
78.2016
 20
206.708657
 30
0.0
  0
SEQEND
  5
291
100
AcDbEntity
  8
レイヤー_2
 62
     7
  0
POLYLINE
  5
25B
100
AcDbEntity
  8
レイヤー_2
 62
     7
100
AcDb2dPolyline
 66
     1
 10
0.0
 20
0.0
 30
0.0
  0
VERTEX
  5
25C
100
AcDbEntity
  8
レイヤー_2
 62
     7
100
AcDbVertex
100
AcDb2dVertex
 10
77.9036
 20
206.708657
 30
0.0
  0
VERTEX
  5
25D
100
AcDbEntity
  8
レイヤー_2
 62
     7
100
AcDbVertex
100
AcDb2dVertex
 10
77.865187
 20
206.729673
 30
0.0
  0
VERTEX
  5
25E
100
AcDbEntity
  8
レイヤー_2
 62
     7
100
AcDbVertex
100
AcDb2dVertex
 10
77.754255
 20
206.749999
 30
0.0
  0
VERTEX
  5
25F
100
AcDbEntity
  8
レイヤー_2
 62
     7
100
AcDbVertex
100
AcDb2dVertex
 10
77.579072
 20
206.767224
 30
0.0
  0
VERTEX
  5
260
100
AcDbEntity
  8
レイヤー_2
 62
     7
100
AcDbVertex
100
AcDb2dVertex
 10
77.351351
 20
206.779626
 30
0.0
  0
VERTEX
  5
261
100
AcDbEntity
  8
レイヤー_2
 62
     7
100
AcDbVertex
100
AcDb2dVertex
 10
77.089351
 20
206.787033
 30
0.0
  0
VERTEX
  5
262
100
AcDbEntity
  8
レイヤー_2
 62
     7
100
AcDbVertex
100
AcDb2dVertex
 10
76.810815
 20
206.788584
 30
0.0
  0
VERTEX
  5
263
100
AcDbEntity
  8
レイヤー_2
 62
     7
100
AcDbVertex
100
AcDb2dVertex
 10
76.538653
 20
206.783933
 30
0.0
  0
VERTEX
  5
264
100
AcDbEntity
  8
レイヤー_2
 62
     7
100
AcDbVertex
100
AcDb2dVertex
 10
76.291295
 20
206.77377
 30
0.0
  0
VERTEX
  5
265
100
AcDbEntity
  8
レイヤー_2
 62
     7
100
AcDbVertex
100
AcDb2dVertex
 10
76.08769
 20
206.758784
 30
0.0
  0
VERTEX
  5
266
100
AcDbEntity
  8
レイヤー_2
 62
     7
100
AcDbVertex
100
AcDb2dVertex
 10
75.943513
 20
206.740352
 30
0.0
  0
VERTEX
  5
267
100
AcDbEntity
  8
レイヤー_2
 62
     7
100
AcDbVertex
100
AcDb2dVertex
 10
75.867893
 20
206.71951
 30
0.0
  0
VERTEX
  5
268
100
AcDbEntity
  8
レイヤー_2
 62
     7
100
AcDbVertex
100
AcDb2dVertex
 10
75.867893
 20
206.697116
 30
0.0
  0
VERTEX
  5
269
100
AcDbEntity
  8
レイヤー_2
 62
     7
100
AcDbVertex
100
AcDb2dVertex
 10
75.943513
 20
206.675929
 30
0.0
  0
VERTEX
  5
26A
100
AcDbEntity
  8
レイヤー_2
 62
     7
100
AcDbVertex
100
AcDb2dVertex
 10
76.08769
 20
206.657326
 30
0.0
  0
VERTEX
  5
26B
100
AcDbEntity
  8
レイヤー_2
 62
     7
100
AcDbVertex
100
AcDb2dVertex
 10
76.291295
 20
206.642339
 30
0.0
  0
VERTEX
  5
26C
100
AcDbEntity
  8
レイヤー_2
 62
     7
100
AcDbVertex
100
AcDb2dVertex
 10
76.538653
 20
206.632865
 30
0.0
  0
VERTEX
  5
26D
100
AcDbEntity
  8
レイヤー_2
 62
     7
100
AcDbVertex
100
AcDb2dVertex
 10
76.810815
 20
206.628215
 30
0.0
  0
VERTEX
  5
26E
100
AcDbEntity
  8
レイヤー_2
 62
     7
100
AcDbVertex
100
AcDb2dVertex
 10
77.089351
 20
206.630109
 30
0.0
  0
VERTEX
  5
26F
100
AcDbEntity
  8
レイヤー_2
 62
     7
100
AcDbVertex
100
AcDb2dVertex
 10
77.351351
 20
206.637344
 30
0.0
  0
VERTEX
  5
270
100
AcDbEntity
  8
レイヤー_2
 62
     7
100
AcDbVertex
100
AcDb2dVertex
 10
77.579072
 20
206.649919
 30
0.0
  0
VERTEX
  5
271
100
AcDbEntity
  8
レイヤー_2
 62
     7
100
AcDbVertex
100
AcDb2dVertex
 10
77.754255
 20
206.666627
 30
0.0
  0
VERTEX
  5
272
100
AcDbEntity
  8
レイヤー_2
 62
     7
100
AcDbVertex
100
AcDb2dVertex
 10
77.865187
 20
206.686953
 30
0.0
  0
VERTEX
  5
273
100
AcDbEntity
  8
レイヤー_2
 62
     7
100
AcDbVertex
100
AcDb2dVertex
 10
77.9036
 20
206.708657
 30
0.0
  0
SEQEND
  5
274
100
AcDbEntity
  8
レイヤー_2
 62
     7
  0
POLYLINE
  5
242
100
AcDbEntity
  8
レイヤー_2
 62
     7
100
AcDb2dPolyline
 66
     1
 10
0.0
 20
0.0
 30
0.0
  0
VERTEX
  5
243
100
AcDbEntity
  8
レイヤー_2
 62
     7
100
AcDbVertex
100
AcDb2dVertex
 10
77.839004
 20
206.708657
 30
0.0
  0
VERTEX
  5
244
100
AcDbEntity
  8
レイヤー_2
 62
     7
100
AcDbVertex
100
AcDb2dVertex
 10
77.800764
 20
206.7295
 30
0.0
  0
VERTEX
  5
245
100
AcDbEntity
  8
レイヤー_2
 62
     7
100
AcDbVertex
100
AcDb2dVertex
 10
77.687592
 20
206.749482
 30
0.0
  0
VERTEX
  5
246
100
AcDbEntity
  8
レイヤー_2
 62
     7
100
AcDbVertex
100
AcDb2dVertex
 10
77.508275
 20
206.765157
 30
0.0
  0
VERTEX
  5
247
100
AcDbEntity
  8
レイヤー_2
 62
     7
100
AcDbVertex
100
AcDb2dVertex
 10
77.279348
 20
206.776698
 30
0.0
  0
VERTEX
  5
248
100
AcDbEntity
  8
レイヤー_2
 62
     7
100
AcDbVertex
100
AcDb2dVertex
 10
77.017521
 20
206.782555
 30
0.0
  0
VERTEX
  5
249
100
AcDbEntity
  8
レイヤー_2
 62
     7
100
AcDbVertex
100
AcDb2dVertex
 10
76.744497
 20
206.782555
 30
0.0
  0
VERTEX
  5
24A
100
AcDbEntity
  8
レイヤー_2
 62
     7
100
AcDbVertex
100
AcDb2dVertex
 10
76.483015
 20
206.776698
 30
0.0
  0
VERTEX
  5
24B
100
AcDbEntity
  8
レイヤー_2
 62
     7
100
AcDbVertex
100
AcDb2dVertex
 10
76.253054
 20
206.765157
 30
0.0
  0
VERTEX
  5
24C
100
AcDbEntity
  8
レイヤー_2
 62
     7
100
AcDbVertex
100
AcDb2dVertex
 10
76.074599
 20
206.749482
 30
0.0
  0
VERTEX
  5
24D
100
AcDbEntity
  8
レイヤー_2
 62
     7
100
AcDbVertex
100
AcDb2dVertex
 10
75.961255
 20
206.7295
 30
0.0
  0
VERTEX
  5
24E
100
AcDbEntity
  8
レイヤー_2
 62
     7
100
AcDbVertex
100
AcDb2dVertex
 10
75.921981
 20
206.708657
 30
0.0
  0
VERTEX
  5
24F
100
AcDbEntity
  8
レイヤー_2
 62
     7
100
AcDbVertex
100
AcDb2dVertex
 10
75.961255
 20
206.687126
 30
0.0
  0
VERTEX
  5
250
100
AcDbEntity
  8
レイヤー_2
 62
     7
100
AcDbVertex
100
AcDb2dVertex
 10
76.074599
 20
206.668005
 30
0.0
  0
VERTEX
  5
251
100
AcDbEntity
  8
レイヤー_2
 62
     7
100
AcDbVertex
100
AcDb2dVertex
 10
76.253054
 20
206.651469
 30
0.0
  0
VERTEX
  5
252
100
AcDbEntity
  8
レイヤー_2
 62
     7
100
AcDbVertex
100
AcDb2dVertex
 10
76.483015
 20
206.639928
 30
0.0
  0
VERTEX
  5
253
100
AcDbEntity
  8
レイヤー_2
 62
     7
100
AcDbVertex
100
AcDb2dVertex
 10
76.744497
 20
206.634071
 30
0.0
  0
VERTEX
  5
254
100
AcDbEntity
  8
レイヤー_2
 62
     7
100
AcDbVertex
100
AcDb2dVertex
 10
77.017521
 20
206.634071
 30
0.0
  0
VERTEX
  5
255
100
AcDbEntity
  8
レイヤー_2
 62
     7
100
AcDbVertex
100
AcDb2dVertex
 10
77.279348
 20
206.639928
 30
0.0
  0
VERTEX
  5
256
100
AcDbEntity
  8
レイヤー_2
 62
     7
100
AcDbVertex
100
AcDb2dVertex
 10
77.508275
 20
206.651469
 30
0.0
  0
VERTEX
  5
257
100
AcDbEntity
  8
レイヤー_2
 62
     7
100
AcDbVertex
100
AcDb2dVertex
 10
77.687592
 20
206.668005
 30
0.0
  0
VERTEX
  5
258
100
AcDbEntity
  8
レイヤー_2
 62
     7
100
AcDbVertex
100
AcDb2dVertex
 10
77.800764
 20
206.687126
 30
0.0
  0
VERTEX
  5
259
100
AcDbEntity
  8
レイヤー_2
 62
     7
100
AcDbVertex
100
AcDb2dVertex
 10
77.839004
 20
206.708657
 30
0.0
  0
SEQEND
  5
25A
100
AcDbEntity
  8
レイヤー_2
 62
     7
  0
POLYLINE
  5
22D
100
AcDbEntity
  8
レイヤー_2
 62
     7
100
AcDb2dPolyline
 66
     1
 10
0.0
 20
0.0
 30
0.0
  0
VERTEX
  5
22E
100
AcDbEntity
  8
レイヤー_2
 62
     7
100
AcDbVertex
100
AcDb2dVertex
 10
77.519988
 20
206.708657
 30
0.0
  0
VERTEX
  5
22F
100
AcDbEntity
  8
レイヤー_2
 62
     7
100
AcDbVertex
100
AcDb2dVertex
 10
77.481403
 20
206.725538
 30
0.0
  0
VERTEX
  5
230
100
AcDbEntity
  8
レイヤー_2
 62
     7
100
AcDbVertex
100
AcDb2dVertex
 10
77.370127
 20
206.740352
 30
0.0
  0
VERTEX
  5
231
100
AcDbEntity
  8
レイヤー_2
 62
     7
100
AcDbVertex
100
AcDb2dVertex
 10
77.200628
 20
206.751377
 30
0.0
  0
VERTEX
  5
232
100
AcDbEntity
  8
レイヤー_2
 62
     7
100
AcDbVertex
100
AcDb2dVertex
 10
76.991683
 20
206.75775
 30
0.0
  0
VERTEX
  5
233
100
AcDbEntity
  8
レイヤー_2
 62
     7
100
AcDbVertex
100
AcDb2dVertex
 10
76.769647
 20
206.75775
 30
0.0
  0
VERTEX
  5
234
100
AcDbEntity
  8
レイヤー_2
 62
     7
100
AcDbVertex
100
AcDb2dVertex
 10
76.561563
 20
206.751377
 30
0.0
  0
VERTEX
  5
235
100
AcDbEntity
  8
レイヤー_2
 62
     7
100
AcDbVertex
100
AcDb2dVertex
 10
76.391031
 20
206.740352
 30
0.0
  0
VERTEX
  5
236
100
AcDbEntity
  8
レイヤー_2
 62
     7
100
AcDbVertex
100
AcDb2dVertex
 10
76.280615
 20
206.725538
 30
0.0
  0
VERTEX
  5
237
100
AcDbEntity
  8
レイヤー_2
 62
     7
100
AcDbVertex
100
AcDb2dVertex
 10
76.241686
 20
206.708657
 30
0.0
  0
VERTEX
  5
238
100
AcDbEntity
  8
レイヤー_2
 62
     7
100
AcDbVertex
100
AcDb2dVertex
 10
76.280615
 20
206.691088
 30
0.0
  0
VERTEX
  5
239
100
AcDbEntity
  8
レイヤー_2
 62
     7
100
AcDbVertex
100
AcDb2dVertex
 10
76.391031
 20
206.675929
 30
0.0
  0
VERTEX
  5
23A
100
AcDbEntity
  8
レイヤー_2
 62
     7
100
AcDbVertex
100
AcDb2dVertex
 10
76.561563
 20
206.66456
 30
0.0
  0
VERTEX
  5
23B
100
AcDbEntity
  8
レイヤー_2
 62
     7
100
AcDbVertex
100
AcDb2dVertex
 10
76.769647
 20
206.65922
 30
0.0
  0
VERTEX
  5
23C
100
AcDbEntity
  8
レイヤー_2
 62
     7
100
AcDbVertex
100
AcDb2dVertex
 10
76.991683
 20
206.65922
 30
0.0
  0
VERTEX
  5
23D
100
AcDbEntity
  8
レイヤー_2
 62
     7
100
AcDbVertex
100
AcDb2dVertex
 10
77.200628
 20
206.66456
 30
0.0
  0
VERTEX
  5
23E
100
AcDbEntity
  8
レイヤー_2
 62
     7
100
AcDbVertex
100
AcDb2dVertex
 10
77.370127
 20
206.675929
 30
0.0
  0
VERTEX
  5
23F
100
AcDbEntity
  8
レイヤー_2
 62
     7
100
AcDbVertex
100
AcDb2dVertex
 10
77.481403
 20
206.691088
 30
0.0
  0
VERTEX
  5
240
100
AcDbEntity
  8
レイヤー_2
 62
     7
100
AcDbVertex
100
AcDb2dVertex
 10
77.519988
 20
206.708657
 30
0.0
  0
SEQEND
  5
241
100
AcDbEntity
  8
レイヤー_2
 62
     7
  0
POLYLINE
  5
219
100
AcDbEntity
  8
レイヤー_2
 62
     7
100
AcDb2dPolyline
 66
     1
 10
0.0
 20
0.0
 30
0.0
  0
VERTEX
  5
21A
100
AcDbEntity
  8
レイヤー_2
 62
     7
100
AcDbVertex
100
AcDb2dVertex
 10
77.45591
 20
206.708657
 30
0.0
  0
VERTEX
  5
21B
100
AcDbEntity
  8
レイヤー_2
 62
     7
100
AcDbVertex
100
AcDb2dVertex
 10
77.417152
 20
206.724677
 30
0.0
  0
VERTEX
  5
21C
100
AcDbEntity
  8
レイヤー_2
 62
     7
100
AcDbVertex
100
AcDb2dVertex
 10
77.306048
 20
206.738974
 30
0.0
  0
VERTEX
  5
21D
100
AcDbEntity
  8
レイヤー_2
 62
     7
100
AcDbVertex
100
AcDb2dVertex
 10
77.13741
 20
206.748448
 30
0.0
  0
VERTEX
  5
21E
100
AcDbEntity
  8
レイヤー_2
 62
     7
100
AcDbVertex
100
AcDb2dVertex
 10
76.933805
 20
206.753099
 30
0.0
  0
VERTEX
  5
21F
100
AcDbEntity
  8
レイヤー_2
 62
     7
100
AcDbVertex
100
AcDb2dVertex
 10
76.723655
 20
206.751377
 30
0.0
  0
VERTEX
  5
220
100
AcDbEntity
  8
レイヤー_2
 62
     7
100
AcDbVertex
100
AcDb2dVertex
 10
76.534002
 20
206.744486
 30
0.0
  0
VERTEX
  5
221
100
AcDbEntity
  8
レイヤー_2
 62
     7
100
AcDbVertex
100
AcDb2dVertex
 10
76.391892
 20
206.732084
 30
0.0
  0
VERTEX
  5
222
100
AcDbEntity
  8
レイヤー_2
 62
     7
100
AcDbVertex
100
AcDb2dVertex
 10
76.315411
 20
206.716409
 30
0.0
  0
VERTEX
  5
223
100
AcDbEntity
  8
レイヤー_2
 62
     7
100
AcDbVertex
100
AcDb2dVertex
 10
76.315411
 20
206.700389
 30
0.0
  0
VERTEX
  5
224
100
AcDbEntity
  8
レイヤー_2
 62
     7
100
AcDbVertex
100
AcDb2dVertex
 10
76.391892
 20
206.684886
 30
0.0
  0
VERTEX
  5
225
100
AcDbEntity
  8
レイヤー_2
 62
     7
100
AcDbVertex
100
AcDb2dVertex
 10
76.534002
 20
206.672656
 30
0.0
  0
VERTEX
  5
226
100
AcDbEntity
  8
レイヤー_2
 62
     7
100
AcDbVertex
100
AcDb2dVertex
 10
76.723655
 20
206.66456
 30
0.0
  0
VERTEX
  5
227
100
AcDbEntity
  8
レイヤー_2
 62
     7
100
AcDbVertex
100
AcDb2dVertex
 10
76.933805
 20
206.66301
 30
0.0
  0
VERTEX
  5
228
100
AcDbEntity
  8
レイヤー_2
 62
     7
100
AcDbVertex
100
AcDb2dVertex
 10
77.13741
 20
206.668005
 30
0.0
  0
VERTEX
  5
229
100
AcDbEntity
  8
レイヤー_2
 62
     7
100
AcDbVertex
100
AcDb2dVertex
 10
77.306048
 20
206.677652
 30
0.0
  0
VERTEX
  5
22A
100
AcDbEntity
  8
レイヤー_2
 62
     7
100
AcDbVertex
100
AcDb2dVertex
 10
77.417152
 20
206.691777
 30
0.0
  0
VERTEX
  5
22B
100
AcDbEntity
  8
レイヤー_2
 62
     7
100
AcDbVertex
100
AcDb2dVertex
 10
77.45591
 20
206.708657
 30
0.0
  0
SEQEND
  5
22C
100
AcDbEntity
  8
レイヤー_2
 62
     7
  0
LINE
  5
218
100
AcDbEntity
  8
レイヤー_2
 62
     7
100
AcDbLine
 10
78.337509
 20
206.755855
 30
0.0
 11
78.265507
 21
206.758784
 31
0.0
  0
LINE
  5
217
100
AcDbEntity
  8
レイヤー_2
 62
     7
100
AcDbLine
 10
78.265507
 20
206.765846
 30
0.0
 11
78.375061
 21
206.760851
 31
0.0
  0
LINE
  5
216
100
AcDbEntity
  8
レイヤー_2
 62
     7
100
AcDbLine
 10
75.386957
 20
206.760851
 30
0.0
 11
75.496339
 21
206.765846
 31
0.0
  0
LINE
  5
215
100
AcDbEntity
  8
レイヤー_2
 62
     7
100
AcDbLine
 10
75.496339
 20
206.758784
 30
0.0
 11
75.42382
 21
206.755855
 31
0.0
  0
SPLINE
  5
214
100
AcDbEntity
  8
レイヤー_2
 62
     7
100
AcDbSpline
210
0.0
220
0.0
230
1.0
 70
     8
 71
     3
 72
     8
 73
     4
 74
     0
 42
0.00000001
 43
0.00000001
 40
0.0
 40
0.0
 40
0.0
 40
0.0
 40
1.0
 40
1.0
 40
1.0
 40
1.0
 10
79.223760308159711
 20
206.92139214409721
 30
0.0
 10
77.583378092447916
 20
207.10794406467011
 30
0.0
 10
75.965733506944431
 20
207.09743652343749
 30
0.0
 10
74.537396918402777
 20
206.92139214409721
 30
0.0
  0
SPLINE
  5
213
100
AcDbEntity
  8
レイヤー_2
 62
     7
100
AcDbSpline
210
0.0
220
0.0
230
1.0
 70
     8
 71
     3
 72
    11
 73
     7
 74
     0
 42
0.00000001
 43
0.00000001
 40
0.0
 40
0.0
 40
0.0
 40
0.0
 40
1.0
 40
1.0
 40
1.0
 40
2.0
 40
2.0
 40
2.0
 40
2.0
 10
79.223760308159711
 20
206.71864827473956
 30
0.0
 10
79.223760308159711
 20
206.71864827473956
 30
0.0
 10
79.223760308159711
 20
206.73535698784721
 30
0.0
 10
79.223760308159711
 20
206.74689805772567
 30
0.0
 10
79.223760308159711
 20
206.78307156032983
 30
0.0
 10
79.223760308159711
 20
206.85231797960068
 30
0.0
 10
79.223760308159711
 20
206.92139214409721
 30
0.0
  0
POLYLINE
  5
1FF
100
AcDbEntity
  8
レイヤー_2
 62
     7
100
AcDb2dPolyline
 66
     1
 10
0.0
 20
0.0
 30
0.0
  0
VERTEX
  5
200
100
AcDbEntity
  8
レイヤー_2
 62
     7
100
AcDbVertex
100
AcDb2dVertex
 10
79.22376
 20
206.718648
 30
0.0
  0
VERTEX
  5
201
100
AcDbEntity
  8
レイヤー_2
 62
     7
100
AcDbVertex
100
AcDb2dVertex
 10
79.184486
 20
206.752582
 30
0.0
  0
VERTEX
  5
202
100
AcDbEntity
  8
レイヤー_2
 62
     7
100
AcDbVertex
100
AcDb2dVertex
 10
79.06563
 20
206.785483
 30
0.0
  0
VERTEX
  5
203
100
AcDbEntity
  8
レイヤー_2
 62
     7
100
AcDbVertex
100
AcDb2dVertex
 10
78.87305
 20
206.815628
 30
0.0
  0
VERTEX
  5
204
100
AcDbEntity
  8
レイヤー_2
 62
     7
100
AcDbVertex
100
AcDb2dVertex
 10
78.612428
 20
206.842672
 30
0.0
  0
VERTEX
  5
205
100
AcDbEntity
  8
レイヤー_2
 62
     7
100
AcDbVertex
100
AcDb2dVertex
 10
78.292723
 20
206.865409
 30
0.0
  0
VERTEX
  5
206
100
AcDbEntity
  8
レイヤー_2
 62
     7
100
AcDbVertex
100
AcDb2dVertex
 10
77.925304
 20
206.883496
 30
0.0
  0
VERTEX
  5
207
100
AcDbEntity
  8
レイヤー_2
 62
     7
100
AcDbVertex
100
AcDb2dVertex
 10
77.521883
 20
206.895898
 30
0.0
  0
VERTEX
  5
208
100
AcDbEntity
  8
レイヤー_2
 62
     7
100
AcDbVertex
100
AcDb2dVertex
 10
77.097275
 20
206.901927
 30
0.0
  0
VERTEX
  5
209
100
AcDbEntity
  8
レイヤー_2
 62
     7
100
AcDbVertex
100
AcDb2dVertex
 10
76.66526
 20
206.901927
 30
0.0
  0
VERTEX
  5
20A
100
AcDbEntity
  8
レイヤー_2
 62
     7
100
AcDbVertex
100
AcDb2dVertex
 10
76.239446
 20
206.895898
 30
0.0
  0
VERTEX
  5
20B
100
AcDbEntity
  8
レイヤー_2
 62
     7
100
AcDbVertex
100
AcDb2dVertex
 10
75.836198
 20
206.883496
 30
0.0
  0
VERTEX
  5
20C
100
AcDbEntity
  8
レイヤー_2
 62
     7
100
AcDbVertex
100
AcDb2dVertex
 10
75.468778
 20
206.865409
 30
0.0
  0
VERTEX
  5
20D
100
AcDbEntity
  8
レイヤー_2
 62
     7
100
AcDbVertex
100
AcDb2dVertex
 10
75.149074
 20
206.842672
 30
0.0
  0
VERTEX
  5
20E
100
AcDbEntity
  8
レイヤー_2
 62
     7
100
AcDbVertex
100
AcDb2dVertex
 10
74.888797
 20
206.815628
 30
0.0
  0
VERTEX
  5
20F
100
AcDbEntity
  8
レイヤー_2
 62
     7
100
AcDbVertex
100
AcDb2dVertex
 10
74.695871
 20
206.785483
 30
0.0
  0
VERTEX
  5
210
100
AcDbEntity
  8
レイヤー_2
 62
     7
100
AcDbVertex
100
AcDb2dVertex
 10
74.577705
 20
206.752582
 30
0.0
  0
VERTEX
  5
211
100
AcDbEntity
  8
レイヤー_2
 62
     7
100
AcDbVertex
100
AcDb2dVertex
 10
74.537914
 20
206.718648
 30
0.0
  0
SEQEND
  5
212
100
AcDbEntity
  8
レイヤー_2
 62
     7
  0
SPLINE
  5
1FE
100
AcDbEntity
  8
レイヤー_2
 62
     7
100
AcDbSpline
210
0.0
220
0.0
230
1.0
 70
     8
 71
     3
 72
    11
 73
     7
 74
     0
 42
0.00000001
 43
0.00000001
 40
0.0
 40
0.0
 40
0.0
 40
0.0
 40
1.0
 40
1.0
 40
1.0
 40
2.0
 40
2.0
 40
2.0
 40
2.0
 10
74.537913682725687
 20
206.71864827473956
 30
0.0
 10
74.537913682725687
 20
206.71864827473956
 30
0.0
 10
74.537913682725687
 20
206.73535698784721
 30
0.0
 10
74.537913682725687
 20
206.74689805772567
 30
0.0
 10
74.537913682725687
 20
206.78307156032983
 30
0.0
 10
74.537913682725687
 20
206.85231797960068
 30
0.0
 10
74.537913682725687
 20
206.92139214409721
 30
0.0
  0
LINE
  5
1FD
100
AcDbEntity
  8
レイヤー_2
 62
     7
100
AcDbLine
 10
79.22376
 20
206.921392
 30
0.0
 11
79.22376
 21
207.648135
 31
0.0
  0
LINE
  5
1FC
100
AcDbEntity
  8
レイヤー_2
 62
     7
100
AcDbLine
 10
74.537914
 20
206.921392
 30
0.0
 11
74.537914
 21
207.648135
 31
0.0
  0
POLYLINE
  5
1F1
100
AcDbEntity
  8
レイヤー_2
 62
     7
100
AcDb2dPolyline
 66
     1
 10
0.0
 20
0.0
 30
0.0
  0
VERTEX
  5
1F2
100
AcDbEntity
  8
レイヤー_2
 62
     7
100
AcDbVertex
100
AcDb2dVertex
 10
74.537914
 20
207.488627
 30
0.0
  0
VERTEX
  5
1F3
100
AcDbEntity
  8
レイヤー_2
 62
     7
100
AcDbVertex
100
AcDb2dVertex
 10
74.445241
 20
207.507231
 30
0.0
  0
VERTEX
  5
1F4
100
AcDbEntity
  8
レイヤー_2
 62
     7
100
AcDbVertex
100
AcDb2dVertex
 10
74.378234
 20
207.527212
 30
0.0
  0
VERTEX
  5
1F5
100
AcDbEntity
  8
レイヤー_2
 62
     7
100
AcDbVertex
100
AcDb2dVertex
 10
74.338615
 20
207.547538
 30
0.0
  0
VERTEX
  5
1F6
100
AcDbEntity
  8
レイヤー_2
 62
     7
100
AcDbVertex
100
AcDb2dVertex
 10
74.32449
 20
207.568209
 30
0.0
  0
VERTEX
  5
1F7
100
AcDbEntity
  8
レイヤー_2
 62
     7
100
AcDbVertex
100
AcDb2dVertex
 10
74.338615
 20
207.588879
 30
0.0
  0
VERTEX
  5
1F8
100
AcDbEntity
  8
レイヤー_2
 62
     7
100
AcDbVertex
100
AcDb2dVertex
 10
74.378234
 20
207.609205
 30
0.0
  0
VERTEX
  5
1F9
100
AcDbEntity
  8
レイヤー_2
 62
     7
100
AcDbVertex
100
AcDb2dVertex
 10
74.445241
 20
207.629187
 30
0.0
  0
VERTEX
  5
1FA
100
AcDbEntity
  8
レイヤー_2
 62
     7
100
AcDbVertex
100
AcDb2dVertex
 10
74.537914
 20
207.648135
 30
0.0
  0
SEQEND
  5
1FB
100
AcDbEntity
  8
レイヤー_2
 62
     7
  0
POLYLINE
  5
1E6
100
AcDbEntity
  8
レイヤー_2
 62
     7
100
AcDb2dPolyline
 66
     1
 10
0.0
 20
0.0
 30
0.0
  0
VERTEX
  5
1E7
100
AcDbEntity
  8
レイヤー_2
 62
     7
100
AcDbVertex
100
AcDb2dVertex
 10
79.22376
 20
207.648135
 30
0.0
  0
VERTEX
  5
1E8
100
AcDbEntity
  8
レイヤー_2
 62
     7
100
AcDbVertex
100
AcDb2dVertex
 10
79.316433
 20
207.629187
 30
0.0
  0
VERTEX
  5
1E9
100
AcDbEntity
  8
レイヤー_2
 62
     7
100
AcDbVertex
100
AcDb2dVertex
 10
79.383268
 20
207.609205
 30
0.0
  0
VERTEX
  5
1EA
100
AcDbEntity
  8
レイヤー_2
 62
     7
100
AcDbVertex
100
AcDb2dVertex
 10
79.423404
 20
207.588879
 30
0.0
  0
VERTEX
  5
1EB
100
AcDbEntity
  8
レイヤー_2
 62
     7
100
AcDbVertex
100
AcDb2dVertex
 10
79.437012
 20
207.568209
 30
0.0
  0
VERTEX
  5
1EC
100
AcDbEntity
  8
レイヤー_2
 62
     7
100
AcDbVertex
100
AcDb2dVertex
 10
79.423404
 20
207.547538
 30
0.0
  0
VERTEX
  5
1ED
100
AcDbEntity
  8
レイヤー_2
 62
     7
100
AcDbVertex
100
AcDb2dVertex
 10
79.383268
 20
207.527212
 30
0.0
  0
VERTEX
  5
1EE
100
AcDbEntity
  8
レイヤー_2
 62
     7
100
AcDbVertex
100
AcDb2dVertex
 10
79.316433
 20
207.507231
 30
0.0
  0
VERTEX
  5
1EF
100
AcDbEntity
  8
レイヤー_2
 62
     7
100
AcDbVertex
100
AcDb2dVertex
 10
79.22376
 20
207.488627
 30
0.0
  0
SEQEND
  5
1F0
100
AcDbEntity
  8
レイヤー_2
 62
     7
  0
POLYLINE
  5
1D1
100
AcDbEntity
  8
レイヤー_2
 62
     7
100
AcDb2dPolyline
 66
     1
 10
0.0
 20
0.0
 30
0.0
  0
VERTEX
  5
1D2
100
AcDbEntity
  8
レイヤー_2
 62
     7
100
AcDbVertex
100
AcDb2dVertex
 10
79.437012
 20
208.523534
 30
0.0
  0
VERTEX
  5
1D3
100
AcDbEntity
  8
レイヤー_2
 62
     7
100
AcDbVertex
100
AcDb2dVertex
 10
79.398082
 20
208.558329
 30
0.0
  0
VERTEX
  5
1D4
100
AcDbEntity
  8
レイヤー_2
 62
     7
100
AcDbVertex
100
AcDb2dVertex
 10
79.282844
 20
208.592436
 30
0.0
  0
VERTEX
  5
1D5
100
AcDbEntity
  8
レイヤー_2
 62
     7
100
AcDbVertex
100
AcDb2dVertex
 10
79.094741
 20
208.624131
 30
0.0
  0
VERTEX
  5
1D6
100
AcDbEntity
  8
レイヤー_2
 62
     7
100
AcDbVertex
100
AcDb2dVertex
 10
78.838771
 20
208.652897
 30
0.0
  0
VERTEX
  5
1D7
100
AcDbEntity
  8
レイヤー_2
 62
     7
100
AcDbVertex
100
AcDb2dVertex
 10
78.524061
 20
208.67753
 30
0.0
  0
VERTEX
  5
1D8
100
AcDbEntity
  8
レイヤー_2
 62
     7
100
AcDbVertex
100
AcDb2dVertex
 10
78.159054
 20
208.697856
 30
0.0
  0
VERTEX
  5
1D9
100
AcDbEntity
  8
レイヤー_2
 62
     7
100
AcDbVertex
100
AcDb2dVertex
 10
77.754772
 20
208.712325
 30
0.0
  0
VERTEX
  5
1DA
100
AcDbEntity
  8
レイヤー_2
 62
     7
100
AcDbVertex
100
AcDb2dVertex
 10
77.324824
 20
208.721282
 30
0.0
  0
VERTEX
  5
1DB
100
AcDbEntity
  8
レイヤー_2
 62
     7
100
AcDbVertex
100
AcDb2dVertex
 10
76.881268
 20
208.724555
 30
0.0
  0
VERTEX
  5
1DC
100
AcDbEntity
  8
レイヤー_2
 62
     7
100
AcDbVertex
100
AcDb2dVertex
 10
76.43685
 20
208.721282
 30
0.0
  0
VERTEX
  5
1DD
100
AcDbEntity
  8
レイヤー_2
 62
     7
100
AcDbVertex
100
AcDb2dVertex
 10
76.006902
 20
208.712325
 30
0.0
  0
VERTEX
  5
1DE
100
AcDbEntity
  8
レイヤー_2
 62
     7
100
AcDbVertex
100
AcDb2dVertex
 10
75.602965
 20
208.697856
 30
0.0
  0
VERTEX
  5
1DF
100
AcDbEntity
  8
レイヤー_2
 62
     7
100
AcDbVertex
100
AcDb2dVertex
 10
75.238129
 20
208.67753
 30
0.0
  0
VERTEX
  5
1E0
100
AcDbEntity
  8
レイヤー_2
 62
     7
100
AcDbVertex
100
AcDb2dVertex
 10
74.922731
 20
208.652897
 30
0.0
  0
VERTEX
  5
1E1
100
AcDbEntity
  8
レイヤー_2
 62
     7
100
AcDbVertex
100
AcDb2dVertex
 10
74.667277
 20
208.624131
 30
0.0
  0
VERTEX
  5
1E2
100
AcDbEntity
  8
レイヤー_2
 62
     7
100
AcDbVertex
100
AcDb2dVertex
 10
74.479519
 20
208.592436
 30
0.0
  0
VERTEX
  5
1E3
100
AcDbEntity
  8
レイヤー_2
 62
     7
100
AcDbVertex
100
AcDb2dVertex
 10
74.363764
 20
208.558329
 30
0.0
  0
VERTEX
  5
1E4
100
AcDbEntity
  8
レイヤー_2
 62
     7
100
AcDbVertex
100
AcDb2dVertex
 10
74.32449
 20
208.523534
 30
0.0
  0
SEQEND
  5
1E5
100
AcDbEntity
  8
レイヤー_2
 62
     7
  0
POLYLINE
  5
1B7
100
AcDbEntity
  8
レイヤー_2
 62
     7
100
AcDb2dPolyline
 66
     1
 10
0.0
 20
0.0
 30
0.0
  0
VERTEX
  5
1B8
100
AcDbEntity
  8
レイヤー_2
 62
     7
100
AcDbVertex
100
AcDb2dVertex
 10
78.702001
 20
206.632004
 30
0.0
  0
VERTEX
  5
1B9
100
AcDbEntity
  8
レイヤー_2
 62
     7
100
AcDbVertex
100
AcDb2dVertex
 10
78.8181
 20
206.649919
 30
0.0
  0
VERTEX
  5
1BA
100
AcDbEntity
  8
レイヤー_2
 62
     7
100
AcDbVertex
100
AcDb2dVertex
 10
78.951081
 20
206.679891
 30
0.0
  0
VERTEX
  5
1BB
100
AcDbEntity
  8
レイヤー_2
 62
     7
100
AcDbVertex
100
AcDb2dVertex
 10
79.008786
 20
206.711069
 30
0.0
  0
VERTEX
  5
1BC
100
AcDbEntity
  8
レイヤー_2
 62
     7
100
AcDbVertex
100
AcDb2dVertex
 10
78.989322
 20
206.742936
 30
0.0
  0
VERTEX
  5
1BD
100
AcDbEntity
  8
レイヤー_2
 62
     7
100
AcDbVertex
100
AcDb2dVertex
 10
78.893548
 20
206.77377
 30
0.0
  0
VERTEX
  5
1BE
100
AcDbEntity
  8
レイヤー_2
 62
     7
100
AcDbVertex
100
AcDb2dVertex
 10
78.725944
 20
206.802881
 30
0.0
  0
VERTEX
  5
1BF
100
AcDbEntity
  8
レイヤー_2
 62
     7
100
AcDbVertex
100
AcDb2dVertex
 10
78.490816
 20
206.828375
 30
0.0
  0
VERTEX
  5
1C0
100
AcDbEntity
  8
レイヤー_2
 62
     7
100
AcDbVertex
100
AcDb2dVertex
 10
78.197639
 20
206.850423
 30
0.0
  0
VERTEX
  5
1C1
100
AcDbEntity
  8
レイヤー_2
 62
     7
100
AcDbVertex
100
AcDb2dVertex
 10
77.856746
 20
206.867649
 30
0.0
  0
VERTEX
  5
1C2
100
AcDbEntity
  8
レイヤー_2
 62
     7
100
AcDbVertex
100
AcDb2dVertex
 10
77.480887
 20
206.879362
 30
0.0
  0
VERTEX
  5
1C3
100
AcDbEntity
  8
レイヤー_2
 62
     7
100
AcDbVertex
100
AcDb2dVertex
 10
77.083495
 20
206.885046
 30
0.0
  0
VERTEX
  5
1C4
100
AcDbEntity
  8
レイヤー_2
 62
     7
100
AcDbVertex
100
AcDb2dVertex
 10
76.678179
 20
206.885046
 30
0.0
  0
VERTEX
  5
1C5
100
AcDbEntity
  8
レイヤー_2
 62
     7
100
AcDbVertex
100
AcDb2dVertex
 10
76.280787
 20
206.879362
 30
0.0
  0
VERTEX
  5
1C6
100
AcDbEntity
  8
レイヤー_2
 62
     7
100
AcDbVertex
100
AcDb2dVertex
 10
75.904928
 20
206.867649
 30
0.0
  0
VERTEX
  5
1C7
100
AcDbEntity
  8
レイヤー_2
 62
     7
100
AcDbVertex
100
AcDb2dVertex
 10
75.563863
 20
206.850423
 30
0.0
  0
VERTEX
  5
1C8
100
AcDbEntity
  8
レイヤー_2
 62
     7
100
AcDbVertex
100
AcDb2dVertex
 10
75.270858
 20
206.828375
 30
0.0
  0
VERTEX
  5
1C9
100
AcDbEntity
  8
レイヤー_2
 62
     7
100
AcDbVertex
100
AcDb2dVertex
 10
75.036419
 20
206.802881
 30
0.0
  0
VERTEX
  5
1CA
100
AcDbEntity
  8
レイヤー_2
 62
     7
100
AcDbVertex
100
AcDb2dVertex
 10
74.868298
 20
206.77377
 30
0.0
  0
VERTEX
  5
1CB
100
AcDbEntity
  8
レイヤー_2
 62
     7
100
AcDbVertex
100
AcDb2dVertex
 10
74.77218
 20
206.742936
 30
0.0
  0
VERTEX
  5
1CC
100
AcDbEntity
  8
レイヤー_2
 62
     7
100
AcDbVertex
100
AcDb2dVertex
 10
74.753404
 20
206.711069
 30
0.0
  0
VERTEX
  5
1CD
100
AcDbEntity
  8
レイヤー_2
 62
     7
100
AcDbVertex
100
AcDb2dVertex
 10
74.810937
 20
206.679891
 30
0.0
  0
VERTEX
  5
1CE
100
AcDbEntity
  8
レイヤー_2
 62
     7
100
AcDbVertex
100
AcDb2dVertex
 10
74.943057
 20
206.649919
 30
0.0
  0
VERTEX
  5
1CF
100
AcDbEntity
  8
レイヤー_2
 62
     7
100
AcDbVertex
100
AcDb2dVertex
 10
75.059501
 20
206.632004
 30
0.0
  0
SEQEND
  5
1D0
100
AcDbEntity
  8
レイヤー_2
 62
     7
  0
SPLINE
  5
1B6
100
AcDbEntity
  8
レイヤー_2
 62
     7
100
AcDbSpline
210
0.0
220
0.0
230
1.0
 70
     8
 71
     3
 72
     8
 73
     4
 74
     0
 42
0.00000001
 43
0.00000001
 40
0.0
 40
0.0
 40
0.0
 40
0.0
 40
1.0
 40
1.0
 40
1.0
 40
1.0
 10
74.537913682725687
 20
206.71864827473956
 30
0.0
 10
74.909811740451389
 20
206.59531385633679
 30
0.0
 10
75.288427734374991
 20
206.5460489908854
 30
0.0
 10
75.635176595052073
 20
206.56361897786456
 30
0.0
  0
SPLINE
  5
1B5
100
AcDbEntity
  8
レイヤー_2
 62
     7
100
AcDbSpline
210
0.0
220
0.0
230
1.0
 70
     8
 71
     3
 72
     8
 73
     4
 74
     0
 42
0.00000001
 43
0.00000001
 40
0.0
 40
0.0
 40
0.0
 40
0.0
 40
1.0
 40
1.0
 40
1.0
 40
1.0
 10
78.126669650607639
 20
206.56361897786456
 30
0.0
 10
78.517687988281239
 20
206.54777153862847
 30
0.0
 10
78.89544270833332
 20
206.60616590711803
 30
0.0
 10
79.223760308159711
 20
206.71864827473956
 30
0.0
  0
LINE
  5
1B4
100
AcDbEntity
  8
レイヤー_2
 62
     7
100
AcDbLine
 10
72.419352
 20
212.309694
 30
0.0
 11
81.341977
 21
212.309694
 31
0.0
  0
SPLINE
  5
1B3
100
AcDbEntity
  8
レイヤー_2
 62
     7
100
AcDbSpline
210
0.0
220
0.0
230
1.0
 70
     8
 71
     3
 72
    11
 73
     7
 74
     0
 42
0.00000001
 43
0.00000001
 40
0.0
 40
0.0
 40
0.0
 40
0.0
 40
1.0
 40
1.0
 40
1.0
 40
2.0
 40
2.0
 40
2.0
 40
2.0
 10
81.503552246093747
 20
212.08266194661456
 30
0.0
 10
81.324579535590274
 20
211.57140977647566
 30
0.0
 10
81.147157118055546
 20
211.05964084201386
 30
0.0
 10
80.969217936197907
 20
210.54735514322914
 30
0.0
 10
80.79110649956597
 20
210.03593071831597
 30
0.0
 10
80.613511827256943
 20
209.52381727430554
 30
0.0
 10
80.435572645399304
 20
209.01222059461804
 30
0.0
  0
SPLINE
  5
1B2
100
AcDbEntity
  8
レイヤー_2
 62
     7
100
AcDbSpline
210
0.0
220
0.0
230
1.0
 70
     8
 71
     3
 72
    11
 73
     7
 74
     0
 42
0.00000001
 43
0.00000001
 40
0.0
 40
0.0
 40
0.0
 40
0.0
 40
1.0
 40
1.0
 40
1.0
 40
2.0
 40
2.0
 40
2.0
 40
2.0
 10
73.325756835937497
 20
209.01222059461804
 30
0.0
 10
73.148851182725693
 20
209.52381727430554
 30
0.0
 10
72.970912000868054
 20
210.03593071831597
 30
0.0
 10
72.792800564236103
 20
210.54735514322914
 30
0.0
 10
72.615378146701389
 20
211.05964084201386
 30
0.0
 10
72.436749945746527
 20
211.57140977647566
 30
0.0
 10
72.258810763888889
 20
212.08266194661456
 30
0.0
  0
POLYLINE
  5
1AD
100
AcDbEntity
  8
レイヤー_2
 62
     7
100
AcDb2dPolyline
 66
     1
 10
0.0
 20
0.0
 30
0.0
  0
VERTEX
  5
1AE
100
AcDbEntity
  8
レイヤー_2
 62
     7
100
AcDbVertex
100
AcDb2dVertex
 10
81.541621
 20
211.565036
 30
0.0
  0
VERTEX
  5
1AF
100
AcDbEntity
  8
レイヤー_2
 62
     7
100
AcDbVertex
100
AcDb2dVertex
 10
81.540759
 20
211.543849
 30
0.0
  0
VERTEX
  5
1B0
100
AcDbEntity
  8
レイヤー_2
 62
     7
100
AcDbVertex
100
AcDb2dVertex
 10
81.532147
 20
211.504403
 30
0.0
  0
SEQEND
  5
1B1
100
AcDbEntity
  8
レイヤー_2
 62
     7
  0
LINE
  5
1AC
100
AcDbEntity
  8
レイヤー_2
 62
     7
100
AcDbLine
 10
79.987538
 20
207.124825
 30
0.0
 11
79.965662
 21
207.051961
 31
0.0
  0
SPLINE
  5
1AB
100
AcDbEntity
  8
レイヤー_2
 62
     7
100
AcDbSpline
210
0.0
220
0.0
230
1.0
 70
     8
 71
     3
 72
    20
 73
    16
 74
     0
 42
0.00000001
 43
0.00000001
 40
0.0
 40
0.0
 40
0.0
 40
0.0
 40
1.0
 40
1.0
 40
1.0
 40
2.0
 40
2.0
 40
2.0
 40
3.0
 40
3.0
 40
3.0
 40
4.0
 40
4.0
 40
4.0
 40
5.0
 40
5.0
 40
5.0
 40
5.0
 10
80.435572645399304
 20
209.01222059461804
 30
0.0
 10
80.433677842881934
 20
209.00360785590277
 30
0.0
 10
80.431783040364579
 20
208.99430609809025
 30
0.0
 10
80.429026963975687
 20
208.98552110460068
 30
0.0
 10
80.421447753906236
 20
208.95003662109374
 30
0.0
 10
80.412662760416666
 20
208.91437988281248
 30
0.0
 10
80.404222276475693
 20
208.87820638020833
 30
0.0
 10
80.370977105034711
 20
208.73626844618053
 30
0.0
 10
80.336870659722209
 20
208.59398600260414
 30
0.0
 10
80.302936469184019
 20
208.45153130425345
 30
0.0
 10
80.250915527343736
 20
208.23018391927081
 30
0.0
 10
80.198033311631931
 20
208.0095255533854
 30
0.0
 10
80.145495605468739
 20
207.78835042317706
 30
0.0
 10
80.092957899305546
 20
207.56683078342013
 30
0.0
 10
80.040764702690964
 20
207.34617241753472
 30
0.0
 10
79.987537977430549
 20
207.12482503255205
 30
0.0
  0
SPLINE
  5
1AA
100
AcDbEntity
  8
レイヤー_2
 62
     7
100
AcDbSpline
210
0.0
220
0.0
230
1.0
 70
     8
 71
     3
 72
    11
 73
     7
 74
     0
 42
0.00000001
 43
0.00000001
 40
0.0
 40
0.0
 40
0.0
 40
0.0
 40
1.0
 40
1.0
 40
1.0
 40
2.0
 40
2.0
 40
2.0
 40
2.0
 10
79.965661621093744
 20
207.05196126302081
 30
0.0
 10
80.147045898437497
 20
207.5690700954861
 30
0.0
 10
80.32894694010416
 20
208.08583441840275
 30
0.0
 10
80.511020236545136
 20
208.60242648654511
 30
0.0
 10
80.8512234157986
 20
209.56963704427082
 30
0.0
 10
81.191943359374989
 20
210.5365030924479
 30
0.0
 10
81.532146538628467
 20
211.5044026692708
 30
0.0
  0
SPLINE
  5
1A9
100
AcDbEntity
  8
レイヤー_2
 62
     7
100
AcDbSpline
210
0.0
220
0.0
230
1.0
 70
     8
 71
     3
 72
    20
 73
    16
 74
     0
 42
0.00000001
 43
0.00000001
 40
0.0
 40
0.0
 40
0.0
 40
0.0
 40
1.0
 40
1.0
 40
1.0
 40
2.0
 40
2.0
 40
2.0
 40
3.0
 40
3.0
 40
3.0
 40
4.0
 40
4.0
 40
4.0
 40
5.0
 40
5.0
 40
5.0
 40
5.0
 10
73.774308268229163
 20
207.12482503255205
 30
0.0
 10
73.772068956163181
 20
207.13343777126735
 30
0.0
 10
73.769829644097214
 20
207.14273952907985
 30
0.0
 10
73.767590332031247
 20
207.15152452256942
 30
0.0
 10
73.758977593315961
 20
207.18718126085068
 30
0.0
 10
73.7508816189236
 20
207.22249348958331
 30
0.0
 10
73.742441134982627
 20
207.25866699218747
 30
0.0
 10
73.708506944444437
 20
207.40112169053816
 30
0.0
 10
73.674745008680546
 20
207.54305962456596
 30
0.0
 10
73.640638563368043
 20
207.68568657769094
 30
0.0
 10
73.58758409288194
 20
207.90668945312498
 30
0.0
 10
73.535046386718747
 20
208.12803683810762
 30
0.0
 10
73.483025444878464
 20
208.34903971354166
 30
0.0
 10
73.429970974392361
 20
208.57021484374999
 30
0.0
 10
73.377777777777766
 20
208.791217719184
 30
0.0
 10
73.325756835937497
 20
209.01222059461804
 30
0.0
  0
LINE
  5
1A8
100
AcDbEntity
  8
レイヤー_2
 62
     7
100
AcDbLine
 10
73.796185
 20
207.051961
 30
0.0
 11
73.774308
 21
207.124825
 31
0.0
  0
SPLINE
  5
1A7
100
AcDbEntity
  8
レイヤー_2
 62
     7
100
AcDbSpline
210
0.0
220
0.0
230
1.0
 70
     8
 71
     3
 72
    11
 73
     7
 74
     0
 42
0.00000001
 43
0.00000001
 40
0.0
 40
0.0
 40
0.0
 40
0.0
 40
1.0
 40
1.0
 40
1.0
 40
2.0
 40
2.0
 40
2.0
 40
2.0
 10
72.22866617838541
 20
211.5044026692708
 30
0.0
 10
72.395753309461796
 20
211.03070203993053
 30
0.0
 10
72.56249593098957
 20
210.55786268446178
 30
0.0
 10
72.729066297743046
 20
210.08416205512151
 30
0.0
 10
73.084772406684024
 20
209.07354329427082
 30
0.0
 10
73.440478515624989
 20
208.0625800238715
 30
0.0
 10
73.796184624565967
 20
207.05196126302081
 30
0.0
  0
SPLINE
  5
1A6
100
AcDbEntity
  8
レイヤー_2
 62
     7
100
AcDbSpline
210
0.0
220
0.0
230
1.0
 70
     8
 71
     3
 72
     8
 73
     4
 74
     0
 42
0.00000001
 43
0.00000001
 40
0.0
 40
0.0
 40
0.0
 40
0.0
 40
1.0
 40
1.0
 40
1.0
 40
1.0
 10
80.274858940972209
 20
208.89870469835068
 30
0.0
 10
80.348928493923609
 20
208.89870469835068
 30
0.0
 10
80.411629231770831
 20
208.94521348741318
 30
0.0
 10
80.435572645399304
 20
209.01222059461804
 30
0.0
  0
LINE
  5
1A5
100
AcDbEntity
  8
レイヤー_2
 62
     7
100
AcDbLine
 10
80.274859
 20
208.898705
 30
0.0
 11
73.486643
 21
208.898705
 31
0.0
  0
SPLINE
  5
1A4
100
AcDbEntity
  8
レイヤー_2
 62
     7
100
AcDbSpline
210
0.0
220
0.0
230
1.0
 70
     8
 71
     3
 72
     8
 73
     4
 74
     0
 42
0.00000001
 43
0.00000001
 40
0.0
 40
0.0
 40
0.0
 40
0.0
 40
1.0
 40
1.0
 40
1.0
 40
1.0
 10
73.325756835937497
 20
209.01222059461804
 30
0.0
 10
73.35021701388888
 20
208.94262966579859
 30
0.0
 10
73.415329318576383
 20
208.89870469835068
 30
0.0
 10
73.486642795138877
 20
208.89870469835068
 30
0.0
  0
POLYLINE
  5
196
100
AcDbEntity
  8
レイヤー_2
 62
     7
100
AcDb2dPolyline
 66
     1
 10
0.0
 20
0.0
 30
0.0
  0
VERTEX
  5
197
100
AcDbEntity
  8
レイヤー_2
 62
     7
100
AcDbVertex
100
AcDb2dVertex
 10
76.881268
 20
208.749877
 30
0.0
  0
VERTEX
  5
198
100
AcDbEntity
  8
レイヤー_2
 62
     7
100
AcDbVertex
100
AcDb2dVertex
 10
76.440123
 20
208.74712
 30
0.0
  0
VERTEX
  5
199
100
AcDbEntity
  8
レイヤー_2
 62
     7
100
AcDbVertex
100
AcDb2dVertex
 10
76.011898
 20
208.737991
 30
0.0
  0
VERTEX
  5
19A
100
AcDbEntity
  8
レイヤー_2
 62
     7
100
AcDbVertex
100
AcDb2dVertex
 10
75.608305
 20
208.724038
 30
0.0
  0
VERTEX
  5
19B
100
AcDbEntity
  8
レイヤー_2
 62
     7
100
AcDbVertex
100
AcDb2dVertex
 10
75.241919
 20
208.704401
 30
0.0
  0
VERTEX
  5
19C
100
AcDbEntity
  8
レイヤー_2
 62
     7
100
AcDbVertex
100
AcDb2dVertex
 10
74.922214
 20
208.680802
 30
0.0
  0
VERTEX
  5
19D
100
AcDbEntity
  8
レイヤー_2
 62
     7
100
AcDbVertex
100
AcDb2dVertex
 10
74.659181
 20
208.65238
 30
0.0
  0
VERTEX
  5
19E
100
AcDbEntity
  8
レイヤー_2
 62
     7
100
AcDbVertex
100
AcDb2dVertex
 10
74.459882
 20
208.621202
 30
0.0
  0
VERTEX
  5
19F
100
AcDbEntity
  8
レイヤー_2
 62
     7
100
AcDbVertex
100
AcDb2dVertex
 10
74.32983
 20
208.587957
 30
0.0
  0
VERTEX
  5
1A0
100
AcDbEntity
  8
レイヤー_2
 62
     7
100
AcDbVertex
100
AcDb2dVertex
 10
74.274192
 20
208.553334
 30
0.0
  0
VERTEX
  5
1A1
100
AcDbEntity
  8
レイヤー_2
 62
     7
100
AcDbVertex
100
AcDb2dVertex
 10
74.292278
 20
208.519572
 30
0.0
  0
VERTEX
  5
1A2
100
AcDbEntity
  8
レイヤー_2
 62
     7
100
AcDbVertex
100
AcDb2dVertex
 10
74.32449
 20
208.504241
 30
0.0
  0
SEQEND
  5
1A3
100
AcDbEntity
  8
レイヤー_2
 62
     7
  0
POLYLINE
  5
188
100
AcDbEntity
  8
レイヤー_2
 62
     7
100
AcDb2dPolyline
 66
     1
 10
0.0
 20
0.0
 30
0.0
  0
VERTEX
  5
189
100
AcDbEntity
  8
レイヤー_2
 62
     7
100
AcDbVertex
100
AcDb2dVertex
 10
79.437012
 20
208.504241
 30
0.0
  0
VERTEX
  5
18A
100
AcDbEntity
  8
レイヤー_2
 62
     7
100
AcDbVertex
100
AcDb2dVertex
 10
79.469223
 20
208.519572
 30
0.0
  0
VERTEX
  5
18B
100
AcDbEntity
  8
レイヤー_2
 62
     7
100
AcDbVertex
100
AcDb2dVertex
 10
79.487655
 20
208.553334
 30
0.0
  0
VERTEX
  5
18C
100
AcDbEntity
  8
レイヤー_2
 62
     7
100
AcDbVertex
100
AcDb2dVertex
 10
79.431327
 20
208.587957
 30
0.0
  0
VERTEX
  5
18D
100
AcDbEntity
  8
レイヤー_2
 62
     7
100
AcDbVertex
100
AcDb2dVertex
 10
79.301964
 20
208.621202
 30
0.0
  0
VERTEX
  5
18E
100
AcDbEntity
  8
レイヤー_2
 62
     7
100
AcDbVertex
100
AcDb2dVertex
 10
79.102837
 20
208.65238
 30
0.0
  0
VERTEX
  5
18F
100
AcDbEntity
  8
レイヤー_2
 62
     7
100
AcDbVertex
100
AcDb2dVertex
 10
78.839632
 20
208.680802
 30
0.0
  0
VERTEX
  5
190
100
AcDbEntity
  8
レイヤー_2
 62
     7
100
AcDbVertex
100
AcDb2dVertex
 10
78.520444
 20
208.704401
 30
0.0
  0
VERTEX
  5
191
100
AcDbEntity
  8
レイヤー_2
 62
     7
100
AcDbVertex
100
AcDb2dVertex
 10
78.153369
 20
208.724038
 30
0.0
  0
VERTEX
  5
192
100
AcDbEntity
  8
レイヤー_2
 62
     7
100
AcDbVertex
100
AcDb2dVertex
 10
77.750293
 20
208.737991
 30
0.0
  0
VERTEX
  5
193
100
AcDbEntity
  8
レイヤー_2
 62
     7
100
AcDbVertex
100
AcDb2dVertex
 10
77.321895
 20
208.74712
 30
0.0
  0
VERTEX
  5
194
100
AcDbEntity
  8
レイヤー_2
 62
     7
100
AcDbVertex
100
AcDb2dVertex
 10
76.881268
 20
208.749877
 30
0.0
  0
SEQEND
  5
195
100
AcDbEntity
  8
レイヤー_2
 62
     7
  0
SPLINE
  5
187
100
AcDbEntity
  8
レイヤー_2
 62
     7
100
AcDbSpline
210
0.0
220
0.0
230
1.0
 70
     8
 71
     3
 72
    11
 73
     7
 74
     0
 42
0.00000001
 43
0.00000001
 40
0.0
 40
0.0
 40
0.0
 40
0.0
 40
1.0
 40
1.0
 40
1.0
 40
2.0
 40
2.0
 40
2.0
 40
2.0
 10
79.965661621093744
 20
207.05196126302081
 30
0.0
 10
79.965661621093744
 20
207.05196126302081
 30
0.0
 10
79.961355251736109
 20
207.03766411675346
 30
0.0
 10
79.960149468315961
 20
207.02905137803816
 30
0.0
 10
79.95687662760416
 20
207.00441894531249
 30
0.0
 10
79.960149468315961
 20
206.96755642361109
 30
0.0
 10
79.962561035156241
 20
206.93069390190971
 30
0.0
  0
SPLINE
  5
186
100
AcDbEntity
  8
レイヤー_2
 62
     7
100
AcDbSpline
210
0.0
220
0.0
230
1.0
 70
     8
 71
     3
 72
    11
 73
     7
 74
     0
 42
0.00000001
 43
0.00000001
 40
0.0
 40
0.0
 40
0.0
 40
0.0
 40
1.0
 40
1.0
 40
1.0
 40
2.0
 40
2.0
 40
2.0
 40
2.0
 10
73.798596191406247
 20
206.93069390190971
 30
0.0
 10
73.79980197482638
 20
206.9401679144965
 30
0.0
 10
73.801524522569437
 20
206.94998643663192
 30
0.0
 10
73.80221354166666
 20
206.95859917534722
 30
0.0
 10
73.806864420572907
 20
206.99907904730901
 30
0.0
 10
73.801524522569437
 20
207.02526177300345
 30
0.0
 10
73.796184624565967
 20
207.05196126302081
 30
0.0
  0
SPLINE
  5
185
100
AcDbEntity
  8
レイヤー_2
 62
     7
100
AcDbSpline
210
0.0
220
0.0
230
1.0
 70
     8
 71
     3
 72
    11
 73
     7
 74
     0
 42
0.00000001
 43
0.00000001
 40
0.0
 40
0.0
 40
0.0
 40
0.0
 40
1.0
 40
1.0
 40
1.0
 40
2.0
 40
2.0
 40
2.0
 40
2.0
 10
81.577621799045133
 20
211.53919813368054
 30
0.0
 10
81.562635633680543
 20
211.53161892361109
 30
0.0
 10
81.540759277343739
 20
211.51542697482637
 30
0.0
 10
81.540759277343739
 20
211.51542697482637
 30
0.0
 10
81.540759277343739
 20
211.51542697482637
 30
0.0
 10
81.532146538628467
 20
211.5044026692708
 30
0.0
 10
81.532146538628467
 20
211.5044026692708
 30
0.0
  0
LINE
  5
184
100
AcDbEntity
  8
レイヤー_2
 62
     7
100
AcDbLine
 10
81.577622
 20
211.518011
 30
0.0
 11
81.577622
 21
211.539198
 31
0.0
  0
LINE
  5
183
100
AcDbEntity
  8
レイヤー_2
 62
     7
100
AcDbLine
 10
72.184224
 20
211.539198
 30
0.0
 11
72.18388
 21
211.518011
 31
0.0
  0
SPLINE
  5
182
100
AcDbEntity
  8
レイヤー_2
 62
     7
100
AcDbSpline
210
0.0
220
0.0
230
1.0
 70
     8
 71
     3
 72
    11
 73
     7
 74
     0
 42
0.00000001
 43
0.00000001
 40
0.0
 40
0.0
 40
0.0
 40
0.0
 40
1.0
 40
1.0
 40
1.0
 40
2.0
 40
2.0
 40
2.0
 40
2.0
 10
72.22866617838541
 20
211.5044026692708
 30
0.0
 10
72.222120496961793
 20
211.51370442708333
 30
0.0
 10
72.215058051215266
 20
211.5224894205729
 30
0.0
 10
72.198866102430543
 20
211.53161892361109
 30
0.0
 10
72.198866102430543
 20
211.53161892361109
 30
0.0
 10
72.184224446614579
 20
211.53919813368054
 30
0.0
 10
72.184224446614579
 20
211.53919813368054
 30
0.0
  0
LINE
  5
181
100
AcDbEntity
  8
レイヤー_2
 62
     7
100
AcDbLine
 10
79.962561
 20
206.930694
 30
0.0
 11
79.982198
 21
206.708485
 31
0.0
  0
LINE
  5
180
100
AcDbEntity
  8
レイヤー_2
 62
     7
100
AcDbLine
 10
73.77982
 20
206.708485
 30
0.0
 11
73.798596
 21
206.930694
 31
0.0
  0
SPLINE
  5
17F
100
AcDbEntity
  8
レイヤー_2
 62
     7
100
AcDbSpline
210
0.0
220
0.0
230
1.0
 70
     8
 71
     3
 72
    20
 73
    16
 74
     0
 42
0.00000001
 43
0.00000001
 40
0.0
 40
0.0
 40
0.0
 40
0.0
 40
1.0
 40
1.0
 40
1.0
 40
2.0
 40
2.0
 40
2.0
 40
3.0
 40
3.0
 40
3.0
 40
4.0
 40
4.0
 40
4.0
 40
5.0
 40
5.0
 40
5.0
 40
5.0
 10
72.723381890190964
 20
183.38983968098955
 30
0.0
 10
72.728032769097211
 20
183.4931925455729
 30
0.0
 10
72.73302815755207
 20
183.59568413628472
 30
0.0
 10
72.73733452690972
 20
183.69852023654514
 30
0.0
 10
72.756627061631931
 20
184.110553656684
 30
0.0
 10
72.775058322482636
 20
184.52172580295138
 30
0.0
 10
72.793661838107639
 20
184.93324245876735
 30
0.0
 10
72.868075900607636
 20
186.57896457248262
 30
0.0
 10
72.942662217881931
 20
188.22485894097221
 30
0.0
 10
73.017420789930554
 20
189.87075330946178
 30
0.0
 10
73.144544813368043
 20
192.6774726019965
 30
0.0
 10
73.271324327256934
 20
195.4833306206597
 30
0.0
 10
73.398448350694437
 20
198.2890163845486
 30
0.0
 10
73.525400119357627
 20
201.095563422309
 30
0.0
 10
73.652696397569443
 20
203.9015936957465
 30
0.0
 10
73.779820421006931
 20
206.70848524305555
 30
0.0
  0
SPLINE
  5
17E
100
AcDbEntity
  8
レイヤー_2
 62
     7
100
AcDbSpline
210
0.0
220
0.0
230
1.0
 70
     8
 71
     3
 72
    23
 73
    19
 74
     0
 42
0.00000001
 43
0.00000001
 40
0.0
 40
0.0
 40
0.0
 40
0.0
 40
1.0
 40
1.0
 40
1.0
 40
2.0
 40
2.0
 40
2.0
 40
3.0
 40
3.0
 40
3.0
 40
4.0
 40
4.0
 40
4.0
 40
5.0
 40
5.0
 40
5.0
 40
6.0
 40
6.0
 40
6.0
 40
6.0
 10
79.982198079427079
 20
206.70848524305555
 30
0.0
 10
79.987193467881937
 20
206.60496012369791
 30
0.0
 10
79.991844346788184
 20
206.50195176866316
 30
0.0
 10
79.996495225694431
 20
206.39928792317707
 30
0.0
 10
80.014581976996524
 20
205.9879435221354
 30
0.0
 10
80.033530002170139
 20
205.57625461154512
 30
0.0
 10
80.052133517795127
 20
205.16491021050345
 30
0.0
 10
80.126547580295139
 20
203.51918809678818
 30
0.0
 10
80.201478407118046
 20
201.87260470920137
 30
0.0
 10
80.275547960069431
 20
200.2268825954861
 30
0.0
 10
80.402844238281247
 20
197.42068006727428
 30
0.0
 10
80.529796006944437
 20
194.61430528428818
 30
0.0
 10
80.65692003038194
 20
191.80844726562498
 30
0.0
 10
80.698261176215269
 20
190.89205186631943
 30
0.0
 10
80.739430067274299
 20
189.97479519314234
 30
0.0
 10
80.78146023220485
 20
189.05753851996525
 30
0.0
 10
80.866898600260413
 20
187.16876491970484
 30
0.0
 10
80.952336968315961
 20
185.27930230034721
 30
0.0
 10
81.037947591145823
 20
183.38983968098955
 30
0.0
  0
LINE
  5
17D
100
AcDbEntity
  8
レイヤー_2
 62
     7
100
AcDbLine
 10
77.542381
 20
170.991113
 30
0.0
 11
82.427699
 21
170.991113
 31
0.0
  0
LINE
  5
17C
100
AcDbEntity
  8
レイヤー_2
 62
     7
100
AcDbLine
 10
71.351717
 20
170.991113
 30
0.0
 11
73.136621
 21
170.991113
 31
0.0
  0
LINE
  5
17B
100
AcDbEntity
  8
レイヤー_2
 62
     7
100
AcDbLine
 10
73.136621
 20
172.269071
 30
0.0
 11
71.351717
 21
172.269071
 31
0.0
  0
LINE
  5
17A
100
AcDbEntity
  8
レイヤー_2
 62
     7
100
AcDbLine
 10
82.427699
 20
172.269071
 30
0.0
 11
77.542381
 21
172.269071
 31
0.0
  0
LINE
  5
179
100
AcDbEntity
  8
レイヤー_2
 62
     7
100
AcDbLine
 10
77.422664
 20
170.991113
 30
0.0
 11
77.542381
 21
170.991113
 31
0.0
  0
LINE
  5
178
100
AcDbEntity
  8
レイヤー_2
 62
     7
100
AcDbLine
 10
77.542381
 20
172.269071
 30
0.0
 11
77.422664
 21
172.269071
 31
0.0
  0
LINE
  5
177
100
AcDbEntity
  8
レイヤー_2
 62
     7
100
AcDbLine
 10
73.352284
 20
172.269071
 30
0.0
 11
73.350562
 21
172.269071
 31
0.0
  0
LINE
  5
176
100
AcDbEntity
  8
レイヤー_2
 62
     7
100
AcDbLine
 10
74.43146
 20
171.949194
 30
0.0
 11
73.551238
 21
171.949194
 31
0.0
  0
LINE
  5
175
100
AcDbEntity
  8
レイヤー_2
 62
     7
100
AcDbLine
 10
73.551238
 20
170.991113
 30
0.0
 11
74.43146
 21
170.991113
 31
0.0
  0
LINE
  5
174
100
AcDbEntity
  8
レイヤー_2
 62
     7
100
AcDbLine
 10
73.549688
 20
170.991113
 30
0.0
 11
73.551238
 21
170.991113
 31
0.0
  0
LINE
  5
173
100
AcDbEntity
  8
レイヤー_2
 62
     7
100
AcDbLine
 10
73.551238
 20
171.949194
 30
0.0
 11
73.549688
 21
171.949194
 31
0.0
  0
POLYLINE
  5
168
100
AcDbEntity
  8
レイヤー_2
 62
     7
100
AcDb2dPolyline
 66
     1
 10
0.0
 20
0.0
 30
0.0
  0
VERTEX
  5
169
100
AcDbEntity
  8
レイヤー_2
 62
     7
100
AcDbVertex
100
AcDb2dVertex
 10
76.881268
 20
206.825791
 30
0.0
  0
VERTEX
  5
16A
100
AcDbEntity
  8
レイヤー_2
 62
     7
100
AcDbVertex
100
AcDb2dVertex
 10
76.496967
 20
206.822862
 30
0.0
  0
VERTEX
  5
16B
100
AcDbEntity
  8
レイヤー_2
 62
     7
100
AcDbVertex
100
AcDb2dVertex
 10
76.128859
 20
206.814422
 30
0.0
  0
VERTEX
  5
16C
100
AcDbEntity
  8
レイヤー_2
 62
     7
100
AcDbVertex
100
AcDb2dVertex
 10
75.791928
 20
206.798919
 30
0.0
  0
VERTEX
  5
16D
100
AcDbEntity
  8
レイヤー_2
 62
     7
100
AcDbVertex
100
AcDb2dVertex
 10
75.499095
 20
206.779626
 30
0.0
  0
VERTEX
  5
16E
100
AcDbEntity
  8
レイヤー_2
 62
     7
100
AcDbVertex
100
AcDb2dVertex
 10
75.262762
 20
206.755855
 30
0.0
  0
VERTEX
  5
16F
100
AcDbEntity
  8
レイヤー_2
 62
     7
100
AcDbVertex
100
AcDb2dVertex
 10
75.092574
 20
206.728639
 30
0.0
  0
VERTEX
  5
170
100
AcDbEntity
  8
レイヤー_2
 62
     7
100
AcDbVertex
100
AcDb2dVertex
 10
74.9968
 20
206.699011
 30
0.0
  0
VERTEX
  5
171
100
AcDbEntity
  8
レイヤー_2
 62
     7
100
AcDbVertex
100
AcDb2dVertex
 10
74.97458
 20
206.674551
 30
0.0
  0
SEQEND
  5
172
100
AcDbEntity
  8
レイヤー_2
 62
     7
  0
POLYLINE
  5
15C
100
AcDbEntity
  8
レイヤー_2
 62
     7
100
AcDb2dPolyline
 66
     1
 10
0.0
 20
0.0
 30
0.0
  0
VERTEX
  5
15D
100
AcDbEntity
  8
レイヤー_2
 62
     7
100
AcDbVertex
100
AcDb2dVertex
 10
78.777793
 20
206.661115
 30
0.0
  0
VERTEX
  5
15E
100
AcDbEntity
  8
レイヤー_2
 62
     7
100
AcDbVertex
100
AcDb2dVertex
 10
78.784855
 20
206.668867
 30
0.0
  0
VERTEX
  5
15F
100
AcDbEntity
  8
レイヤー_2
 62
     7
100
AcDbVertex
100
AcDb2dVertex
 10
78.76539
 20
206.699011
 30
0.0
  0
VERTEX
  5
160
100
AcDbEntity
  8
レイヤー_2
 62
     7
100
AcDbVertex
100
AcDb2dVertex
 10
78.668239
 20
206.728639
 30
0.0
  0
VERTEX
  5
161
100
AcDbEntity
  8
レイヤー_2
 62
     7
100
AcDbVertex
100
AcDb2dVertex
 10
78.498912
 20
206.755855
 30
0.0
  0
VERTEX
  5
162
100
AcDbEntity
  8
レイヤー_2
 62
     7
100
AcDbVertex
100
AcDb2dVertex
 10
78.262579
 20
206.779626
 30
0.0
  0
VERTEX
  5
163
100
AcDbEntity
  8
レイヤー_2
 62
     7
100
AcDbVertex
100
AcDb2dVertex
 10
77.969918
 20
206.798919
 30
0.0
  0
VERTEX
  5
164
100
AcDbEntity
  8
レイヤー_2
 62
     7
100
AcDbVertex
100
AcDb2dVertex
 10
77.632298
 20
206.814422
 30
0.0
  0
VERTEX
  5
165
100
AcDbEntity
  8
レイヤー_2
 62
     7
100
AcDbVertex
100
AcDb2dVertex
 10
77.264879
 20
206.822862
 30
0.0
  0
VERTEX
  5
166
100
AcDbEntity
  8
レイヤー_2
 62
     7
100
AcDbVertex
100
AcDb2dVertex
 10
76.881268
 20
206.825791
 30
0.0
  0
SEQEND
  5
167
100
AcDbEntity
  8
レイヤー_2
 62
     7
  0
POLYLINE
  5
157
100
AcDbEntity
  8
レイヤー_2
 62
     7
100
AcDb2dPolyline
 66
     1
 10
0.0
 20
0.0
 30
0.0
  0
VERTEX
  5
158
100
AcDbEntity
  8
レイヤー_2
 62
     7
100
AcDbVertex
100
AcDb2dVertex
 10
72.248992
 20
212.151736
 30
0.0
  0
VERTEX
  5
159
100
AcDbEntity
  8
レイヤー_2
 62
     7
100
AcDbVertex
100
AcDb2dVertex
 10
72.250198
 20
212.122453
 30
0.0
  0
VERTEX
  5
15A
100
AcDbEntity
  8
レイヤー_2
 62
     7
100
AcDbVertex
100
AcDb2dVertex
 10
72.258811
 20
212.082662
 30
0.0
  0
SEQEND
  5
15B
100
AcDbEntity
  8
レイヤー_2
 62
     7
  0
POLYLINE
  5
152
100
AcDbEntity
  8
レイヤー_2
 62
     7
100
AcDb2dPolyline
 66
     1
 10
0.0
 20
0.0
 30
0.0
  0
VERTEX
  5
153
100
AcDbEntity
  8
レイヤー_2
 62
     7
100
AcDbVertex
100
AcDb2dVertex
 10
81.512854
 20
212.151736
 30
0.0
  0
VERTEX
  5
154
100
AcDbEntity
  8
レイヤー_2
 62
     7
100
AcDbVertex
100
AcDb2dVertex
 10
81.511476
 20
212.122453
 30
0.0
  0
VERTEX
  5
155
100
AcDbEntity
  8
レイヤー_2
 62
     7
100
AcDbVertex
100
AcDb2dVertex
 10
81.503552
 20
212.082662
 30
0.0
  0
SEQEND
  5
156
100
AcDbEntity
  8
レイヤー_2
 62
     7
  0
POLYLINE
  5
14D
100
AcDbEntity
  8
レイヤー_2
 62
     7
100
AcDb2dPolyline
 66
     1
 10
0.0
 20
0.0
 30
0.0
  0
VERTEX
  5
14E
100
AcDbEntity
  8
レイヤー_2
 62
     7
100
AcDbVertex
100
AcDb2dVertex
 10
72.220053
 20
211.565036
 30
0.0
  0
VERTEX
  5
14F
100
AcDbEntity
  8
レイヤー_2
 62
     7
100
AcDbVertex
100
AcDb2dVertex
 10
72.220915
 20
211.543849
 30
0.0
  0
VERTEX
  5
150
100
AcDbEntity
  8
レイヤー_2
 62
     7
100
AcDbVertex
100
AcDb2dVertex
 10
72.228666
 20
211.504403
 30
0.0
  0
SEQEND
  5
151
100
AcDbEntity
  8
レイヤー_2
 62
     7
  0
LINE
  5
14C
100
AcDbEntity
  8
レイヤー_2
 62
     7
100
AcDbLine
 10
79.923976
 20
206.849562
 30
0.0
 11
79.2291
 21
206.849562
 31
0.0
  0
LINE
  5
14B
100
AcDbEntity
  8
レイヤー_2
 62
     7
100
AcDbLine
 10
74.538258
 20
206.849562
 30
0.0
 11
73.92796
 21
206.849562
 31
0.0
  0
SPLINE
  5
14A
100
AcDbEntity
  8
レイヤー_2
 62
     7
100
AcDbSpline
210
0.0
220
0.0
230
1.0
 70
     8
 71
     3
 72
     8
 73
     4
 74
     0
 42
0.00000001
 43
0.00000001
 40
0.0
 40
0.0
 40
0.0
 40
0.0
 40
1.0
 40
1.0
 40
1.0
 40
1.0
 10
81.577966308593744
 20
211.55177273220485
 30
0.0
 10
81.577966308593744
 20
211.59363064236109
 30
0.0
 10
81.562635633680543
 20
211.63169894748262
 30
0.0
 10
81.53869222005207
 20
211.66063774956595
 30
0.0
  0
SPLINE
  5
149
100
AcDbEntity
  8
レイヤー_2
 62
     7
100
AcDbSpline
210
0.0
220
0.0
230
1.0
 70
     8
 71
     3
 72
     8
 73
     4
 74
     0
 42
0.00000001
 43
0.00000001
 40
0.0
 40
0.0
 40
0.0
 40
0.0
 40
1.0
 40
1.0
 40
1.0
 40
1.0
 10
81.577621799045133
 20
211.53919813368054
 30
0.0
 10
81.577621799045133
 20
211.54333224826388
 30
0.0
 10
81.577966308593744
 20
211.54832763671874
 30
0.0
 10
81.577966308593744
 20
211.55177273220485
 30
0.0
  0
SPLINE
  5
148
100
AcDbEntity
  8
レイヤー_2
 62
     7
100
AcDbSpline
210
0.0
220
0.0
230
1.0
 70
     8
 71
     3
 72
     8
 73
     4
 74
     0
 42
0.00000001
 43
0.00000001
 40
0.0
 40
0.0
 40
0.0
 40
0.0
 40
1.0
 40
1.0
 40
1.0
 40
1.0
 10
72.223670789930551
 20
211.6616712782118
 30
0.0
 10
72.193870713975684
 20
211.62618679470484
 30
0.0
 10
72.180951605902777
 20
211.58260633680553
 30
0.0
 10
72.184224446614579
 20
211.53919813368054
 30
0.0
  0
LINE
  5
147
100
AcDbEntity
  8
レイヤー_2
 62
     7
100
AcDbLine
 10
81.577622
 20
211.539198
 30
0.0
 11
81.579689
 21
211.551773
 31
0.0
  0
LINE
  5
146
100
AcDbEntity
  8
レイヤー_2
 62
     7
100
AcDbLine
 10
81.577622
 20
211.518011
 30
0.0
 11
81.58055
 21
211.532997
 31
0.0
  0
LINE
  5
145
100
AcDbEntity
  8
レイヤー_2
 62
     7
100
AcDbLine
 10
72.181813
 20
211.551773
 30
0.0
 11
72.184224
 21
211.539198
 31
0.0
  0
LINE
  5
144
100
AcDbEntity
  8
レイヤー_2
 62
     7
100
AcDbLine
 10
72.180952
 20
211.53248
 30
0.0
 11
72.18388
 21
211.518011
 31
0.0
  0
LINE
  5
143
100
AcDbEntity
  8
レイヤー_2
 62
     7
100
AcDbLine
 10
82.850068
 20
183.390356
 30
0.0
 11
70.911778
 21
183.390356
 31
0.0
  0
LINE
  5
142
100
AcDbEntity
  8
レイヤー_2
  6
AI9-LType1
 62
     7
100
AcDbLine
 10
55.519781
 20
133.039941
 30
0.0
 11
55.519781
 21
188.339236
 31
0.0
  0
INSERT
  5
12D
100
AcDbEntity
  8
レイヤー_2
  6
AI9-LType1
 62
     7
100
AcDbBlockReference
  2
AI9-BLK5
 10
98.009608
 20
160.416307
 30
0.0
  0
LINE
  5
12B
100
AcDbEntity
  8
レイヤー_2
  6
AI9-LType1
 62
     7
100
AcDbLine
 10
97.982133
 20
137.165788
 30
0.0
 11
97.982133
 21
188.339236
 31
0.0
  0
LINE
  5
12A
100
AcDbEntity
  8
レイヤー_2
  6
AI9-LType1
 62
     7
100
AcDbLine
 10
76.807543
 20
214.076339
 30
0.0
 11
76.807543
 21
147.810444
 31
0.0
  0
LINE
  5
129
100
AcDbEntity
  8
レイヤー_2
 62
     7
100
AcDbLine
 10
76.807543
 20
147.810444
 30
0.0
 11
76.807543
 21
146.958127
 31
0.0
  0
LINE
  5
128
100
AcDbEntity
  8
レイヤー_2
  6
AI9-LType1
 62
     7
100
AcDbLine
 10
172.587571
 20
205.510798
 30
0.0
 11
172.318853
 21
209.095592
 31
0.0
  0
LINE
  5
127
100
AcDbEntity
  8
レイヤー_2
 62
     7
100
AcDbLine
 10
172.318853
 20
209.095592
 30
0.0
 11
172.255119
 21
209.945325
 31
0.0
  0
LINE
  5
126
100
AcDbEntity
  8
レイヤー_2
  6
AI9-LType1
 62
     7
100
AcDbLine
 10
136.320361
 20
145.362359
 30
0.0
 11
136.320361
 21
196.629514
 31
0.0
  0
LINE
  5
125
100
AcDbEntity
  8
レイヤー_2
  6
AI9-LType1
 62
     7
100
AcDbLine
 10
76.831314
 20
106.197135
 30
0.0
 11
76.831314
 21
96.896067
 31
0.0
  0
LINE
  5
124
100
AcDbEntity
  8
レイヤー_2
  6
AI9-LType1
 62
     7
100
AcDbLine
 10
55.530805
 20
106.197135
 30
0.0
 11
55.530805
 21
96.896067
 31
0.0
  0
LINE
  5
123
100
AcDbEntity
  8
レイヤー_2
  6
AI9-LType1
 62
     7
100
AcDbLine
 10
98.131995
 20
106.197135
 30
0.0
 11
98.131995
 21
96.896067
 31
0.0
  0
LINE
  5
122
100
AcDbEntity
  8
レイヤー_2
  6
AI9-LType1
 62
     7
100
AcDbLine
 10
51.126251
 20
101.507671
 30
0.0
 11
102.106774
 21
101.507671
 31
0.0
  0
LINE
  5
121
100
AcDbEntity
  8
レイヤー_2
 62
     7
100
AcDbLine
 10
102.106774
 20
101.507671
 30
0.0
 11
102.958746
 21
101.507671
 31
0.0
  0
LINE
  5
120
100
AcDbEntity
  8
レイヤー_2
 62
     7
100
AcDbLine
 10
185.623123
 20
183.402242
 30
0.0
 11
184.580292
 21
184.329662
 31
0.0
  0
LINE
  5
11F
100
AcDbEntity
  8
レイヤー_2
 62
     7
100
AcDbLine
 10
149.743142
 20
183.390356
 30
0.0
 11
194.824628
 21
183.390356
 31
0.0
  0
LINE
  5
11E
100
AcDbEntity
  8
レイヤー_2
 62
     7
100
AcDbLine
 10
66.883084
 20
166.875602
 30
0.0
 11
64.622584
 21
169.414293
 31
0.0
  0
LINE
  5
11D
100
AcDbEntity
  8
レイヤー_2
 62
     7
100
AcDbLine
 10
98.956061
 20
111.288298
 30
0.0
 11
97.083308
 21
109.175765
 31
0.0
  0
LINE
  5
11C
100
AcDbEntity
  8
レイヤー_2
 62
     7
100
AcDbLine
 10
75.945924
 20
110.136947
 30
0.0
 11
98.994647
 21
110.134191
 31
0.0
  0
LINE
  5
11B
100
AcDbEntity
  8
レイヤー_2
 62
     7
100
AcDbLine
 10
56.400519
 20
111.123622
 30
0.0
 11
54.527938
 21
109.011778
 31
0.0
  0
LINE
  5
11A
100
AcDbEntity
  8
レイヤー_2
 62
     7
100
AcDbLine
 10
77.676912
 20
111.213883
 30
0.0
 11
75.804331
 21
109.101351
 31
0.0
  0
LINE
  5
119
100
AcDbEntity
  8
レイヤー_2
 62
     7
100
AcDbLine
 10
54.10867
 20
110.172087
 30
0.0
 11
77.217681
 21
110.136947
 31
0.0
  0
LINE
  5
118
100
AcDbEntity
  8
レイヤー_2
 62
     7
100
AcDbLine
 10
34.829915
 20
182.106714
 30
0.0
 11
32.569071
 21
184.645405
 31
0.0
  0
LINE
  5
117
100
AcDbEntity
  8
レイヤー_2
 62
     7
100
AcDbLine
 10
32.588536
 20
173.964058
 30
0.0
 11
34.848691
 21
171.425195
 31
0.0
  0
LINE
  5
116
100
AcDbEntity
  8
レイヤー_2
 62
     7
100
AcDbLine
 10
62.86748
 20
163.759169
 30
0.0
 11
66.810737
 21
163.759169
 31
0.0
  0
LINE
  5
115
100
AcDbEntity
  8
レイヤー_2
 62
     7
100
AcDbLine
 10
63.038874
 20
168.161829
 30
0.0
 11
66.655018
 21
168.161829
 31
0.0
  0
LINE
  5
114
100
AcDbEntity
  8
レイヤー_2
 62
     7
100
AcDbLine
 10
66.883084
 20
162.466914
 30
0.0
 11
64.622584
 21
165.005777
 31
0.0
  0
LINE
  5
113
100
AcDbEntity
  8
レイヤー_2
 62
     7
100
AcDbLine
 10
65.778242
 20
169.542967
 30
0.0
 11
65.778242
 21
145.191482
 31
0.0
  0
LINE
  5
112
100
AcDbEntity
  8
レイヤー_2
 62
     7
100
AcDbLine
 10
53.976034
 20
172.720034
 30
0.0
 11
32.611963
 21
172.720034
 31
0.0
  0
LINE
  5
111
100
AcDbEntity
  8
レイヤー_2
 62
     7
100
AcDbLine
 10
172.11766
 20
235.079536
 30
0.0
 11
172.11766
 21
213.066581
 31
0.0
  0
LINE
  5
110
100
AcDbEntity
  8
レイヤー_2
 62
     7
100
AcDbLine
 10
136.335864
 20
233.862383
 30
0.0
 11
135.408445
 21
232.819208
 31
0.0
  0
LINE
  5
10F
100
AcDbEntity
  8
レイヤー_2
 62
     7
100
AcDbLine
 10
137.263284
 20
234.906075
 30
0.0
 11
136.335864
 21
233.862383
 31
0.0
  0
LINE
  5
10E
100
AcDbEntity
  8
レイヤー_2
 62
     7
100
AcDbLine
 10
172.11766
 20
233.862383
 30
0.0
 11
171.189551
 21
232.819208
 31
0.0
  0
LINE
  5
10D
100
AcDbEntity
  8
レイヤー_2
 62
     7
100
AcDbLine
 10
173.044735
 20
234.906075
 30
0.0
 11
172.11766
 21
233.862383
 31
0.0
  0
LINE
  5
10C
100
AcDbEntity
  8
レイヤー_2
 62
     7
100
AcDbLine
 10
136.320361
 20
235.009772
 30
0.0
 11
136.320361
 21
197.429465
 31
0.0
  0
LINE
  5
10B
100
AcDbEntity
  8
レイヤー_2
 62
     7
100
AcDbLine
 10
134.870665
 20
233.862383
 30
0.0
 11
173.269699
 21
233.862383
 31
0.0
  0
LINE
  5
10A
100
AcDbEntity
  8
レイヤー_2
 62
     7
100
AcDbLine
 10
193.821761
 20
212.139678
 30
0.0
 11
192.777897
 21
213.066926
 31
0.0
  0
LINE
  5
109
100
AcDbEntity
  8
レイヤー_2
 62
     7
100
AcDbLine
 10
194.86528
 20
211.212775
 30
0.0
 11
193.821761
 21
212.139678
 31
0.0
  0
LINE
  5
108
100
AcDbEntity
  8
レイヤー_2
 62
     7
100
AcDbLine
 10
193.787999
 20
183.402242
 30
0.0
 11
192.743791
 21
184.329662
 31
0.0
  0
LINE
  5
107
100
AcDbEntity
  8
レイヤー_2
 62
     7
100
AcDbLine
 10
194.831174
 20
182.475167
 30
0.0
 11
193.787999
 21
183.402242
 31
0.0
  0
LINE
  5
106
100
AcDbEntity
  8
レイヤー_2
 62
     7
100
AcDbLine
 10
186.743123
 20
206.620463
 30
0.0
 11
175.144176
 21
206.620463
 31
0.0
  0
LINE
  5
105
100
AcDbEntity
  8
レイヤー_2
 62
     7
100
AcDbLine
 10
185.647583
 20
207.463822
 30
0.0
 11
185.647583
 21
182.335813
 31
0.0
  0
LINE
  5
104
100
AcDbEntity
  8
レイヤー_2
 62
     7
100
AcDbLine
 10
179.422984
 20
212.143123
 30
0.0
 11
194.958987
 21
212.143123
 31
0.0
  0
LINE
  5
103
100
AcDbEntity
  8
レイヤー_2
 62
     7
100
AcDbLine
 10
193.787999
 20
213.280522
 30
0.0
 11
193.787999
 21
182.482057
 31
0.0
  0
LINE
  5
102
100
AcDbEntity
  8
レイヤー_2
 62
     7
100
AcDbLine
 10
185.647583
 20
206.620463
 30
0.0
 11
184.604064
 21
207.547538
 31
0.0
  0
LINE
  5
101
100
AcDbEntity
  8
レイヤー_2
 62
     7
100
AcDbLine
 10
186.690413
 20
205.693043
 30
0.0
 11
185.647583
 21
206.620463
 31
0.0
  0
LINE
  5
100
100
AcDbEntity
  8
レイヤー_2
 62
     7
100
AcDbLine
 10
32.390443
 20
183.390356
 30
0.0
 11
46.015968
 21
183.390356
 31
0.0
  0
LINE
  5
FF
100
AcDbEntity
  8
レイヤー_2
 62
     7
100
AcDbLine
 10
186.667331
 20
182.475167
 30
0.0
 11
185.623123
 21
183.402242
 31
0.0
  0
LINE
  5
FE
100
AcDbEntity
  8
レイヤー_2
 62
     7
100
AcDbLine
 10
185.623123
 20
183.402242
 30
0.0
 11
184.580292
 21
184.329662
 31
0.0
  0
LINE
  5
FD
100
AcDbEntity
  8
レイヤー_2
 62
     7
100
AcDbLine
 10
82.912941
 20
235.099689
 30
0.0
 11
82.912941
 21
185.371286
 31
0.0
  0
LINE
  5
FC
100
AcDbEntity
  8
レイヤー_2
 62
     7
100
AcDbLine
 10
92.102733
 20
233.862383
 30
0.0
 11
91.175313
 21
232.819208
 31
0.0
  0
LINE
  5
FB
100
AcDbEntity
  8
レイヤー_2
 62
     7
100
AcDbLine
 10
93.029464
 20
234.906075
 30
0.0
 11
92.102733
 21
233.862383
 31
0.0
  0
LINE
  5
FA
100
AcDbEntity
  8
レイヤー_2
 62
     7
100
AcDbLine
 10
103.82691
 20
233.838784
 30
0.0
 11
102.899662
 21
232.795093
 31
0.0
  0
LINE
  5
F9
100
AcDbEntity
  8
レイヤー_2
 62
     7
100
AcDbLine
 10
104.754329
 20
234.881787
 30
0.0
 11
103.82691
 21
233.838784
 31
0.0
  0
LINE
  5
F8
100
AcDbEntity
  8
レイヤー_2
 62
     7
100
AcDbLine
 10
92.102733
 20
235.007705
 30
0.0
 11
92.102733
 21
185.609515
 31
0.0
  0
LINE
  5
F7
100
AcDbEntity
  8
レイヤー_2
 62
     7
100
AcDbLine
 10
91.060075
 20
233.862383
 30
0.0
 11
104.892306
 21
233.862383
 31
0.0
  0
LINE
  5
F6
100
AcDbEntity
  8
レイヤー_2
 62
     7
100
AcDbLine
 10
33.726279
 20
195.379978
 30
0.0
 11
33.726279
 21
151.296019
 31
0.0
  0
LINE
  5
F5
100
AcDbEntity
  8
レイヤー_2
 62
     7
100
AcDbLine
 10
97.982133
 20
109.158539
 30
0.0
 11
97.982133
 21
136.348611
 31
0.0
  0
LINE
  5
F4
100
AcDbEntity
  8
レイヤー_2
 62
     7
100
AcDbLine
 10
55.530805
 20
108.862261
 30
0.0
 11
55.530805
 21
132.201405
 31
0.0
  0
LINE
  5
F3
100
AcDbEntity
  8
レイヤー_2
 62
     7
100
AcDbLine
 10
76.807543
 20
108.862261
 30
0.0
 11
76.807543
 21
145.435395
 31
0.0
  0
LINE
  5
F2
100
AcDbEntity
  8
レイヤー_2
 62
     7
100
AcDbLine
 10
99.962891
 20
175.223069
 30
0.0
 11
102.501926
 21
177.483396
 31
0.0
  0
LINE
  5
F1
100
AcDbEntity
  8
レイヤー_2
 62
     7
100
AcDbLine
 10
96.089398
 20
177.551436
 30
0.0
 11
93.551223
 21
175.291798
 31
0.0
  0
LINE
  5
F0
100
AcDbEntity
  8
レイヤー_2
 62
     7
100
AcDbLine
 10
113.617182
 20
176.389061
 30
0.0
 11
93.676625
 21
176.389061
 31
0.0
  0
LINE
  5
EF
100
AcDbEntity
  8
レイヤー_2
 62
     7
100
AcDbLine
 10
113.617182
 20
176.389061
 30
0.0
 11
113.617182
 21
147.687798
 31
0.0
  0
LINE
  5
EE
100
AcDbEntity
  8
レイヤー_2
 62
     7
100
AcDbLine
 10
103.799693
 20
191.146644
 30
0.0
 11
103.799693
 21
185.371286
 31
0.0
  0
LINE
  5
ED
100
AcDbEntity
  8
レイヤー_2
 62
     7
100
AcDbLine
 10
103.799693
 20
235.099689
 30
0.0
 11
103.799693
 21
194.644967
 31
0.0
  0
LINE
  5
EC
100
AcDbEntity
  8
レイヤー_2
 62
     7
100
AcDbLine
 10
71.216153
 20
233.862383
 30
0.0
 11
70.288561
 21
232.819208
 31
0.0
  0
LINE
  5
EB
100
AcDbEntity
  8
レイヤー_2
 62
     7
100
AcDbLine
 10
72.1434
 20
234.906075
 30
0.0
 11
71.216153
 21
233.862383
 31
0.0
  0
LINE
  5
EA
100
AcDbEntity
  8
レイヤー_2
 62
     7
100
AcDbLine
 10
82.941018
 20
233.838784
 30
0.0
 11
82.013254
 21
232.795093
 31
0.0
  0
LINE
  5
E9
100
AcDbEntity
  8
レイヤー_2
 62
     7
100
AcDbLine
 10
83.868094
 20
234.881787
 30
0.0
 11
82.941018
 21
233.838784
 31
0.0
  0
LINE
  5
E8
100
AcDbEntity
  8
レイヤー_2
 62
     7
100
AcDbLine
 10
70.173667
 20
233.862383
 30
0.0
 11
84.00607
 21
233.862383
 31
0.0
  0
LINE
  5
E7
100
AcDbEntity
  8
レイヤー_2
 62
     7
100
AcDbLine
 10
70.90351
 20
235.007705
 30
0.0
 11
70.90351
 21
185.609515
 31
0.0
  0
SPLINE
  5
E6
100
AcDbEntity
  8
レイヤー_2
 62
     7
100
AcDbSpline
210
0.0
220
0.0
230
1.0
 70
     8
 71
     3
 72
    17
 73
    13
 74
     0
 42
0.00000001
 43
0.00000001
 40
0.0
 40
0.0
 40
0.0
 40
0.0
 40
1.0
 40
1.0
 40
1.0
 40
2.0
 40
2.0
 40
2.0
 40
3.0
 40
3.0
 40
3.0
 40
4.0
 40
4.0
 40
4.0
 40
4.0
 10
59.016380479600691
 20
101.50767144097222
 30
0.0
 10
59.016380479600691
 20
103.39007161458332
 30
0.0
 10
57.49020317925347
 20
104.91624891493055
 30
0.0
 10
55.608147515190964
 20
104.91624891493055
 30
0.0
 10
53.725575086805549
 20
104.91624891493055
 30
0.0
 10
52.199742296006939
 20
103.39007161458332
 30
0.0
 10
52.199742296006939
 20
101.50767144097222
 30
0.0
 10
52.199742296006939
 20
99.6252712673611
 30
0.0
 10
53.725575086805549
 20
98.099782986111109
 30
0.0
 10
55.608147515190964
 20
98.099782986111109
 30
0.0
 10
57.49020317925347
 20
98.099782986111109
 30
0.0
 10
59.016380479600691
 20
99.6252712673611
 30
0.0
 10
59.016380479600691
 20
101.50767144097222
 30
0.0
  0
LINE
  5
E5
100
AcDbEntity
  8
レイヤー_2
 62
     7
100
AcDbLine
 10
62.30972
 20
94.798692
 30
0.0
 11
52.171148
 21
104.936919
 31
0.0
  0
LINE
  5
E4
100
AcDbEntity
  8
レイヤー_2
 62
     7
100
AcDbLine
 10
104.910565
 20
94.798692
 30
0.0
 11
116.072846
 21
94.798692
 31
0.0
  0
LINE
  5
E3
100
AcDbEntity
  8
レイヤー_2
 62
     7
100
AcDbLine
 10
51.885722
 20
103.884787
 30
0.0
 11
54.67401
 21
103.884787
 31
0.0
  0
LINE
  5
E2
100
AcDbEntity
  8
レイヤー_2
 62
     7
100
AcDbLine
 10
56.55641
 20
99.127799
 30
0.0
 11
59.344354
 21
99.127799
 31
0.0
  0
SPLINE
  5
E1
100
AcDbEntity
  8
レイヤー_2
 62
     7
100
AcDbSpline
210
0.0
220
0.0
230
1.0
 70
     8
 71
     3
 72
    17
 73
    13
 74
     0
 42
0.00000001
 43
0.00000001
 40
0.0
 40
0.0
 40
0.0
 40
0.0
 40
1.0
 40
1.0
 40
1.0
 40
2.0
 40
2.0
 40
2.0
 40
3.0
 40
3.0
 40
3.0
 40
4.0
 40
4.0
 40
4.0
 40
4.0
 10
80.636421712239581
 20
101.50767144097222
 30
0.0
 10
80.636421712239581
 20
103.56646050347221
 30
0.0
 10
78.966928439670127
 20
105.23526475694443
 30
0.0
 10
76.908483886718741
 20
105.23526475694443
 30
0.0
 10
74.849522569444431
 20
105.23526475694443
 30
0.0
 10
73.180718315972214
 20
103.56646050347221
 30
0.0
 10
73.180718315972214
 20
101.50767144097222
 30
0.0
 10
73.180718315972214
 20
99.449571397569429
 30
0.0
 10
74.849522569444431
 20
97.780767144097211
 30
0.0
 10
76.908483886718741
 20
97.780767144097211
 30
0.0
 10
78.966928439670127
 20
97.780767144097211
 30
0.0
 10
80.636421712239581
 20
99.449571397569429
 30
0.0
 10
80.636421712239581
 20
101.50767144097222
 30
0.0
  0
LINE
  5
E0
100
AcDbEntity
  8
レイヤー_2
 62
     7
100
AcDbLine
 10
83.609711
 20
94.798692
 30
0.0
 11
73.470968
 21
104.936919
 31
0.0
  0
LINE
  5
DF
100
AcDbEntity
  8
レイヤー_2
 62
     7
100
AcDbLine
 10
83.609711
 20
94.798692
 30
0.0
 11
94.095721
 21
94.798692
 31
0.0
  0
LINE
  5
DE
100
AcDbEntity
  8
レイヤー_2
 62
     7
100
AcDbLine
 10
73.01811
 20
104.085981
 30
0.0
 11
75.806742
 21
104.085981
 31
0.0
  0
LINE
  5
DD
100
AcDbEntity
  8
レイヤー_2
 62
     7
100
AcDbLine
 10
78.108411
 20
98.842546
 30
0.0
 11
80.897043
 21
98.842546
 31
0.0
  0
SPLINE
  5
DC
100
AcDbEntity
  8
レイヤー_2
 62
     7
100
AcDbSpline
210
0.0
220
0.0
230
1.0
 70
     8
 71
     3
 72
    17
 73
    13
 74
     0
 42
0.00000001
 43
0.00000001
 40
0.0
 40
0.0
 40
0.0
 40
0.0
 40
1.0
 40
1.0
 40
1.0
 40
2.0
 40
2.0
 40
2.0
 40
3.0
 40
3.0
 40
3.0
 40
4.0
 40
4.0
 40
4.0
 40
4.0
 10
101.61722547743055
 20
101.50767144097222
 30
0.0
 10
101.61722547743055
 20
103.39007161458332
 30
0.0
 10
100.09104817708332
 20
104.91624891493055
 30
0.0
 10
98.208475748697907
 20
104.91624891493055
 30
0.0
 10
96.326592339409714
 20
104.91624891493055
 30
0.0
 10
94.800415039062486
 20
103.39007161458332
 30
0.0
 10
94.800415039062486
 20
101.50767144097222
 30
0.0
 10
94.800415039062486
 20
99.6252712673611
 30
0.0
 10
96.326592339409714
 20
98.099782986111109
 30
0.0
 10
98.208475748697907
 20
98.099782986111109
 30
0.0
 10
100.09104817708332
 20
98.099782986111109
 30
0.0
 10
101.61722547743055
 20
99.6252712673611
 30
0.0
 10
101.61722547743055
 20
101.50767144097222
 30
0.0
  0
LINE
  5
DB
100
AcDbEntity
  8
レイヤー_2
 62
     7
100
AcDbLine
 10
104.910565
 20
94.798692
 30
0.0
 11
94.771648
 21
104.936919
 31
0.0
  0
LINE
  5
DA
100
AcDbEntity
  8
レイヤー_2
 62
     7
100
AcDbLine
 10
94.486567
 20
103.884787
 30
0.0
 11
97.274683
 21
103.884787
 31
0.0
  0
LINE
  5
D9
100
AcDbEntity
  8
レイヤー_2
 62
     7
100
AcDbLine
 10
99.157255
 20
99.127799
 30
0.0
 11
101.945715
 21
99.127799
 31
0.0
  0
LINE
  5
D8
100
AcDbEntity
  8
レイヤー_2
 62
     7
100
AcDbLine
 10
62.30903
 20
94.798692
 30
0.0
 11
72.516159
 21
94.798692
 31
0.0
  0
LINE
  5
D7
100
AcDbEntity
  8
レイヤー_2
 62
     7
100
AcDbLine
 10
46.73117
 20
183.390356
 30
0.0
 11
107.108708
 21
183.390356
 31
0.0
  0
LINE
  5
D6
100
AcDbEntity
  8
レイヤー_2
 62
     7
100
AcDbLine
 10
124.602214
 20
183.390356
 30
0.0
 11
148.045744
 21
183.390356
 31
0.0
  0
POLYLINE
  5
D1
100
AcDbEntity
  8
レイヤー_2
  6
AI9-LType1
 62
     7
100
AcDb2dPolyline
 66
     1
 10
0.0
 20
0.0
 30
0.0
  0
VERTEX
  5
D2
100
AcDbEntity
  8
レイヤー_2
  6
AI9-LType1
 62
     7
100
AcDbVertex
100
AcDb2dVertex
 10
57.145005
 20
165.881003
 30
0.0
  0
VERTEX
  5
D3
100
AcDbEntity
  8
レイヤー_2
  6
AI9-LType1
 62
     7
100
AcDbVertex
100
AcDb2dVertex
 10
68.983214
 20
165.881003
 30
0.0
  0
VERTEX
  5
D4
100
AcDbEntity
  8
レイヤー_2
  6
AI9-LType1
 62
     7
100
AcDbVertex
100
AcDb2dVertex
 10
68.983214
 20
137.413835
 30
0.0
  0
SEQEND
  5
D5
100
AcDbEntity
  8
レイヤー_2
  6
AI9-LType1
 62
     7
  0
LINE
  5
D0
100
AcDbEntity
  8
レイヤー_2
  6
AI9-LType1
 62
     7
100
AcDbLine
 10
75.461544
 20
183.390356
 30
0.0
 11
75.461544
 21
137.413835
 31
0.0
  0
LINE
  5
CF
100
AcDbEntity
  8
レイヤー_2
  6
AI9-LType1
 62
     7
100
AcDbLine
 10
78.355424
 20
183.390356
 30
0.0
 11
78.355424
 21
137.413835
 31
0.0
  0
SPLINE
  5
CE
100
AcDbEntity
  8
レイヤー_2
  6
AI9-LType1
 62
     7
100
AcDbSpline
210
0.0
220
0.0
230
1.0
 70
     8
 71
     3
 72
    11
 73
     7
 74
     0
 42
0.00000001
 43
0.00000001
 40
0.0
 40
0.0
 40
0.0
 40
0.0
 40
1.0
 40
1.0
 40
1.0
 40
2.0
 40
2.0
 40
2.0
 40
2.0
 10
75.46154378255207
 20
137.41383463541666
 30
0.0
 10
75.46154378255207
 20
135.62514105902775
 30
0.0
 10
74.011330837673611
 20
134.17475585937498
 30
0.0
 10
72.222465006510404
 20
134.17475585937498
 30
0.0
 10
70.433426920572913
 20
134.17475585937498
 30
0.0
 10
68.98321397569444
 20
135.62514105902775
 30
0.0
 10
68.98321397569444
 20
137.41383463541666
 30
0.0
  0
POLYLINE
  5
C9
100
AcDbEntity
  8
レイヤー_2
  6
AI9-LType1
 62
     7
100
AcDb2dPolyline
 66
     1
 10
0.0
 20
0.0
 30
0.0
  0
VERTEX
  5
CA
100
AcDbEntity
  8
レイヤー_2
  6
AI9-LType1
 62
     7
100
AcDbVertex
100
AcDb2dVertex
 10
96.671963
 20
165.881003
 30
0.0
  0
VERTEX
  5
CB
100
AcDbEntity
  8
レイヤー_2
  6
AI9-LType1
 62
     7
100
AcDbVertex
100
AcDb2dVertex
 10
84.833754
 20
165.881003
 30
0.0
  0
VERTEX
  5
CC
100
AcDbEntity
  8
レイヤー_2
  6
AI9-LType1
 62
     7
100
AcDbVertex
100
AcDb2dVertex
 10
84.833754
 20
137.413835
 30
0.0
  0
SEQEND
  5
CD
100
AcDbEntity
  8
レイヤー_2
  6
AI9-LType1
 62
     7
  0
SPLINE
  5
C8
100
AcDbEntity
  8
レイヤー_2
  6
AI9-LType1
 62
     7
100
AcDbSpline
210
0.0
220
0.0
230
1.0
 70
     8
 71
     3
 72
    11
 73
     7
 74
     0
 42
0.00000001
 43
0.00000001
 40
0.0
 40
0.0
 40
0.0
 40
0.0
 40
1.0
 40
1.0
 40
1.0
 40
2.0
 40
2.0
 40
2.0
 40
2.0
 10
78.355423990885413
 20
137.41383463541666
 30
0.0
 10
78.355423990885413
 20
135.62514105902775
 30
0.0
 10
79.805636935763886
 20
134.17475585937498
 30
0.0
 10
81.594502766927079
 20
134.17475585937498
 30
0.0
 10
83.38354085286457
 20
134.17475585937498
 30
0.0
 10
84.833753797743043
 20
135.62514105902775
 30
0.0
 10
84.833753797743043
 20
137.41383463541666
 30
0.0
  0
INSERT
  5
97
100
AcDbEntity
  8
レイヤー_2
 62
     7
100
AcDbBlockReference
  2
AI9-BLK4
 10
49.555115
 20
188.602355
 30
0.0
  0
INSERT
  5
66
100
AcDbEntity
  8
レイヤー_2
 62
     7
100
AcDbBlockReference
  2
AI9-BLK3
 10
103.946627
 20
188.602355
 30
0.0
  0
LINE
  5
64
100
AcDbEntity
  8
レイヤー_2
 62
     7
100
AcDbLine
 10
37.78753
 20
233.920089
 30
0.0
 11
36.859766
 21
232.87588
 31
0.0
  0
LINE
  5
63
100
AcDbEntity
  8
レイヤー_2
 62
     7
100
AcDbLine
 10
38.716328
 20
234.965331
 30
0.0
 11
37.78753
 21
233.920089
 31
0.0
  0
LINE
  5
62
100
AcDbEntity
  8
レイヤー_2
 62
     7
100
AcDbLine
 10
55.528738
 20
233.896834
 30
0.0
 11
54.599251
 21
232.851765
 31
0.0
  0
LINE
  5
61
100
AcDbEntity
  8
レイヤー_2
 62
     7
100
AcDbLine
 10
56.456847
 20
234.94087
 30
0.0
 11
55.528738
 21
233.896834
 31
0.0
  0
LINE
  5
60
100
AcDbEntity
  8
レイヤー_2
 62
     7
100
AcDbLine
 10
37.78753
 20
235.066961
 30
0.0
 11
37.78753
 21
194.4672
 31
0.0
  0
LINE
  5
5F
100
AcDbEntity
  8
レイヤー_2
 62
     7
100
AcDbLine
 10
36.632389
 20
233.920089
 30
0.0
 11
56.594651
 21
233.920089
 31
0.0
  0
LINE
  5
5E
100
AcDbEntity
  8
レイヤー_2
 62
     7
100
AcDbLine
 10
55.500488
 20
235.15929
 30
0.0
 11
55.500488
 21
188.780208
 31
0.0
  0
LINE
  5
5D
100
AcDbEntity
  8
レイヤー_2
 62
     7
100
AcDbLine
 10
34.870567
 20
192.594446
 30
0.0
 11
32.60714
 21
195.136237
 31
0.0
  0
LINE
  5
5C
100
AcDbEntity
  8
レイヤー_2
 62
     7
100
AcDbLine
 10
32.325331
 20
193.879466
 30
0.0
 11
37.196007
 21
193.879466
 31
0.0
  0
INSERT
  5
35
100
AcDbEntity
  8
レイヤー_2
 62
     7
100
AcDbBlockReference
  2
AI9-BLK2
 10
136.270063
 20
188.668243
 30
0.0
  0
INSERT
  5
2C
100
AcDbEntity
  8
レイヤー_2
 62
     7
100
AcDbBlockReference
  2
AI9-BLK1
 10
133.806131
 20
194.176003
 30
0.0
  0
SPLINE
  5
2A
100
AcDbEntity
  8
レイヤー_2
 62
     7
100
AcDbSpline
210
0.0
220
0.0
230
1.0
 70
     8
 71
     3
 72
     8
 73
     4
 74
     0
 42
0.00000001
 43
0.00000001
 40
0.0
 40
0.0
 40
0.0
 40
0.0
 40
1.0
 40
1.0
 40
1.0
 40
1.0
 10
136.0537109375
 20
194.01141357421872
 30
0.0
 10
136.0537109375
 20
194.09547390407985
 30
0.0
 10
135.99376627604164
 20
194.16489257812498
 30
0.0
 10
135.91246202256943
 20
194.17918972439233
 30
0.0
  0
SPLINE
  5
29
100
AcDbEntity
  8
レイヤー_2
 62
     7
100
AcDbSpline
210
0.0
220
0.0
230
1.0
 70
     8
 71
     3
 72
    11
 73
     7
 74
     0
 42
0.00000001
 43
0.00000001
 40
0.0
 40
0.0
 40
0.0
 40
0.0
 40
1.0
 40
1.0
 40
1.0
 40
2.0
 40
2.0
 40
2.0
 40
2.0
 10
136.07954915364581
 20
193.94612901475693
 30
0.0
 10
136.93083224826387
 20
195.7713406032986
 30
0.0
 10
137.98503146701387
 20
198.02339952256943
 30
0.0
 10
138.83597005208333
 20
199.84912787543402
 30
0.0
 10
140.66669379340277
 20
203.77601996527775
 30
0.0
 10
142.49810655381944
 20
207.70273980034722
 30
0.0
 10
144.32917480468748
 20
211.62963189019095
 30
0.0
  0
ENDSEC
  0
SECTION
  2
OBJECTS
  0
DICTIONARY
  5
19
100
AcDbDictionary
280
     0
281
     1
  3
ACAD_GROUP
350
1A
  3
ACAD_MLINESTYLE
350
1B
  3
ACAD_LAYOUT
350
1E
  3
ACAD_PLOTSETTINGS
350
22
  3
ACAD_PLOTSTYLENAME
350
1F
  3
ACAD_WIPEOUT_VARS
350
23
  0
DICTIONARY
  5
1A
102
{ACAD_REACTORS
330
19
102
}
100
AcDbDictionary
280
     0
281
     1
  0
DICTIONARY
  5
1B
102
{ACAD_REACTORS
330
19
102
}
100
AcDbDictionary
280
     0
281
     1
  3
Standard
350
1C
  0
MLINESTYLE
  5
1C
102
{ACAD_REACTORS
330
1B
102
}
100
AcDbMlineStyle
  2
Standard
 70
     0
  3

 62
     0
 51
90.0
 52
90.0
 71
     2
 49
0.5
 62
   256
  6
ByLayer
 49
-0.5
 62
   256
  6
ByLayer
  0
ACDBDICTIONARYWDFLT
  5
1F
102
{ACAD_REACTORS
330
19
102
}
100
AcDbDictionary
281
     1
  3
Normal
350
1D
100
AcDbDictionaryWithDefault
340
1D
  0
ACDBPLACEHOLDER
  5
1D
102
{ACAD_REACTORS
330
1F
102
}
  0
LAYOUT
  5
20
102
{ACAD_REACTORS
330
1E
102
}
100
AcDbPlotSettings
  1

  2

  4

  6

 40
0.0
 41
0.0
 42
0.0
 43
0.0
 44
0.0
 45
0.0
 46
0.0
 47
0.0
 48
0.0
 49
0.0
140
0.0
141
0.0
142
1.0
143
1.0
 70
  1024
 72
     0
 73
     0
 74
     0
  7

 75
     0
147
1.0
148
0.0
149
0.0
100
AcDbLayout
  1
Model
 70
     0
 71
     0
 10
0.0
 20
0.0
 11
0.0
 21
0.0
 12
0.0
 22
0.0
 32
0.0
 14
0.0
 24
0.0
 34
0.0
 15
0.0
 25
0.0
 35
0.0
146
0.0
 13
0.0
 23
0.0
 33
0.0
 16
0.0
 26
0.0
 36
0.0
 17
0.0
 27
0.0
 37
0.0
 76
     0
330
A
331
0
345
0
346
0
  0
LAYOUT
  5
21
102
{ACAD_REACTORS
330
1E
102
}
100
AcDbPlotSettings
  1

  2

  4

  6

 40
0.0
 41
0.0
 42
0.0
 43
0.0
 44
0.0
 45
0.0
 46
0.0
 47
0.0
 48
0.0
 49
0.0
140
0.0
141
0.0
142
1.0
143
1.0
 70
     0
 72
     0
 73
     0
 74
     0
  7

 75
     0
147
1.0
148
0.0
149
0.0
100
AcDbLayout
  1
Layout1
 70
     0
 71
     0
 10
0.0
 20
0.0
 11
0.0
 21
0.0
 12
0.0
 22
0.0
 32
0.0
 14
0.0
 24
0.0
 34
0.0
 15
0.0
 25
0.0
 35
0.0
146
0.0
 13
0.0
 23
0.0
 33
0.0
 16
0.0
 26
0.0
 36
0.0
 17
0.0
 27
0.0
 37
0.0
 76
     0
330
B
331
0
345
0
346
0
  0
DICTIONARY
  5
1E
102
{ACAD_REACTORS
330
19
102
}
100
AcDbDictionary
280
     0
281
     1
  3
Layout1
350
21
  3
Model
350
20
  0
DICTIONARY
  5
22
102
{ACAD_REACTORS
330
19
102
}
100
AcDbDictionary
280
     0
281
     1
  0
WIPEOUTVARIABLES
  5
23
100
AcDbWipeoutVariables
 70
     1
  0
IMAGEDEF_REACTOR
  5
5A6
100
AcDbRasterImageDefReactor
 90
        2
330
5A5
  0
IMAGEDEF
  5
5A7
100
AcDbRasterImageDef
 90
        0
  1
\\192.168.6.3\free(2009_04\組織\営業本部\営推G\エンジニアリングサービスチーム\丸茂 from 081001\DBカタログ品参考図ＡＩ\SUPERNOVA\20713732_1.bmp
 10
70.0
 20
9.0
 11
0.352778
 21
0.352778
280
     1
281
     0
  0
IMAGEDEF_REACTOR
  5
5A9
100
AcDbRasterImageDefReactor
 90
        2
330
5A8
  0
IMAGEDEF
  5
5AA
100
AcDbRasterImageDef
 90
        0
  1
\\192.168.6.3\free(2009_04\組織\営業本部\営推G\エンジニアリングサービスチーム\丸茂 from 081001\DBカタログ品参考図ＡＩ\SUPERNOVA\20713732_2.bmp
 10
70.0
 20
9.0
 11
0.352778
 21
0.352778
280
     1
281
     0
  0
ENDSEC
  0
EOF
