  0
SECTION
  2
HEADER
  9
$ACADVER
  1
AC1015
  9
$ACADMAINTVER
 70
     6
  9
$DWGCODEPAGE
  3
ANSI_932
  9
$INSBASE
 10
0.0
 20
0.0
 30
0.0
  9
$EXTMIN
 10
23.283333
 20
25.752778
 30
1.000000E+20
  9
$EXTMAX
 10
198.966667
 20
276.930556
 30
-1.000000E+20
  9
$LIMMIN
 10
23.283333
 20
25.752778
  9
$LIMMAX
 10
198.966667
 20
276.930556
  9
$ORTHOMODE
 70
     0
  9
$REGENMODE
 70
     1
  9
$FILLMODE
 70
     1
  9
$QTEXTMODE
 70
     0
  9
$MIRRTEXT
 70
     1
  9
$LTSCALE
 40
1.0
  9
$ATTMODE
 70
     1
  9
$TEXTSIZE
 40
0.2
  9
$TRACEWID
 40
0.05
  9
$TEXTSTYLE
  7
Standard
  9
$CLAYER
  8
0
  9
$CELTYPE
  6
Continuous
  9
$CECOLOR
 62
   256
  9
$CELTSCALE
 40
1.0
  9
$DISPSILH
 70
     0
  9
$DIMSCALE
 40
1.0
  9
$DIMASZ
 40
0.18
  9
$DIMEXO
 40
0.0625
  9
$DIMDLI
 40
0.38
  9
$DIMRND
 40
0.0
  9
$DIMDLE
 40
0.0
  9
$DIMEXE
 40
0.18
  9
$DIMTP
 40
0.0
  9
$DIMTM
 40
0.0
  9
$DIMTXT
 40
0.18
  9
$DIMCEN
 40
0.09
  9
$DIMTSZ
 40
0.0
  9
$DIMTOL
 70
     0
  9
$DIMLIM
 70
     0
  9
$DIMTIH
 70
     1
  9
$DIMTOH
 70
     1
  9
$DIMSE1
 70
     0
  9
$DIMSE2
 70
     0
  9
$DIMTAD
 70
     0
  9
$DIMZIN
 70
     0
  9
$DIMBLK
  1

  9
$DIMASO
 70
     1
  9
$DIMSHO
 70
     1
  9
$DIMPOST
  1

  9
$DIMAPOST
  1

  9
$DIMALT
 70
     0
  9
$DIMALTD
 70
     2
  9
$DIMALTF
 40
25.4
  9
$DIMLFAC
 40
1.0
  9
$DIMTOFL
 70
     0
  9
$DIMTVP
 40
0.0
  9
$DIMTIX
 70
     0
  9
$DIMSOXD
 70
     0
  9
$DIMSAH
 70
     0
  9
$DIMBLK1
  1

  9
$DIMBLK2
  1

  9
$DIMSTYLE
  2
Standard
  9
$DIMCLRD
 70
     0
  9
$DIMCLRE
 70
     0
  9
$DIMCLRT
 70
     0
  9
$DIMTFAC
 40
1.0
  9
$DIMGAP
 40
0.09
  9
$DIMJUST
 70
     0
  9
$DIMSD1
 70
     0
  9
$DIMSD2
 70
     0
  9
$DIMTOLJ
 70
     1
  9
$DIMTZIN
 70
     0
  9
$DIMALTZ
 70
     0
  9
$DIMALTTZ
 70
     0
  9
$DIMUPT
 70
     0
  9
$DIMDEC
 70
     4
  9
$DIMTDEC
 70
     4
  9
$DIMALTU
 70
     2
  9
$DIMALTTD
 70
     2
  9
$DIMTXSTY
  7
Standard
  9
$DIMAUNIT
 70
     0
  9
$DIMADEC
 70
     0
  9
$DIMALTRND
 40
0.0
  9
$DIMAZIN
 70
     0
  9
$DIMDSEP
 70
     0
  9
$DIMATFIT
 70
     3
  9
$DIMFRAC
 70
     0
  9
$DIMLDRBLK
  1

  9
$DIMLUNIT
 70
     2
  9
$DIMLWD
 70
     0
  9
$DIMLWE
 70
     0
  9
$DIMTMOVE
 70
     0
  9
$LUNITS
 70
     2
  9
$LUPREC
 70
     4
  9
$SKETCHINC
 40
0.1
  9
$FILLETRAD
 40
0.0
  9
$AUNITS
 70
     0
  9
$AUPREC
 70
     0
  9
$MENU
  1
acad
  9
$ELEVATION
 40
0.0
  9
$PELEVATION
 40
0.0
  9
$THICKNESS
 40
0.0
  9
$LIMCHECK
 70
     0
  9
$CHAMFERA
 40
0.0
  9
$CHAMFERB
 40
0.0
  9
$CHAMFERC
 40
0.0
  9
$CHAMFERD
 40
0.0
  9
$SKPOLY
 70
     0
  9
$TDCREATE
 40
0.000000000
  9
$TDUCREATE
 40
0.000000000
  9
$TDUPDATE
 40
0.000000000
  9
$TDUUPDATE
 40
0.000000000
  9
$TDINDWG
 40
0.0000000000
  9
$TDUSRTIMER
 40
0.0000000000
  9
$USRTIMER
 70
     1
  9
$ANGBASE
 50
0.0
  9
$ANGDIR
 70
     0
  9
$PDMODE
 70
     0
  9
$PDSIZE
 40
0.0
  9
$PLINEWID
 40
0.0
  9
$SPLFRAME
 70
     0
  9
$SPLINETYPE
 70
     6
  9
$SPLINESEGS
 70
     8
  9
$HANDSEED
  5
4C4
  9
$SURFTAB1
 70
     6
  9
$SURFTAB2
 70
     6
  9
$SURFTYPE
 70
     6
  9
$SURFU
 70
     6
  9
$SURFV
 70
     6
  9
$UCSBASE
  2

  9
$UCSNAME
  2

  9
$UCSORG
 10
0.0
 20
0.0
 30
0.0
  9
$UCSXDIR
 10
1.0
 20
0.0
 30
0.0
  9
$UCSYDIR
 10
0.0
 20
1.0
 30
0.0
  9
$UCSORTHOREF
  2

  9
$UCSORTHOVIEW
 70
     0
  9
$UCSORGTOP
 10
0.0
 20
0.0
 30
0.0
  9
$UCSORGBOTTOM
 10
0.0
 20
0.0
 30
0.0
  9
$UCSORGLEFT
 10
0.0
 20
0.0
 30
0.0
  9
$UCSORGRIGHT
 10
0.0
 20
0.0
 30
0.0
  9
$UCSORGFRONT
 10
0.0
 20
0.0
 30
0.0
  9
$UCSORGBACK
 10
0.0
 20
0.0
 30
0.0
  9
$PUCSBASE
  2

  9
$PUCSNAME
  2

  9
$PUCSORG
 10
0.0
 20
0.0
 30
0.0
  9
$PUCSXDIR
 10
1.0
 20
0.0
 30
0.0
  9
$PUCSYDIR
 10
0.0
 20
1.0
 30
0.0
  9
$PUCSORTHOREF
  2

  9
$PUCSORTHOVIEW
 70
     0
  9
$PUCSORGTOP
 10
0.0
 20
0.0
 30
0.0
  9
$PUCSORGBOTTOM
 10
0.0
 20
0.0
 30
0.0
  9
$PUCSORGLEFT
 10
0.0
 20
0.0
 30
0.0
  9
$PUCSORGRIGHT
 10
0.0
 20
0.0
 30
0.0
  9
$PUCSORGFRONT
 10
0.0
 20
0.0
 30
0.0
  9
$PUCSORGBACK
 10
0.0
 20
0.0
 30
0.0
  9
$USERI1
 70
     0
  9
$USERI2
 70
     0
  9
$USERI3
 70
     0
  9
$USERI4
 70
     0
  9
$USERI5
 70
     0
  9
$USERR1
 40
0.0
  9
$USERR2
 40
0.0
  9
$USERR3
 40
0.0
  9
$USERR4
 40
0.0
  9
$USERR5
 40
0.0
  9
$WORLDVIEW
 70
     1
  9
$SHADEDGE
 70
     3
  9
$SHADEDIF
 70
    70
  9
$TILEMODE
 70
     1
  9
$MAXACTVP
 70
    16
  9
$PINSBASE
 10
0.0
 20
0.0
 30
0.0
  9
$PLIMCHECK
 70
     0
  9
$PEXTMIN
 10
1.000000E+20
 20
1.000000E+20
 30
1.000000E+20
  9
$PEXTMAX
 10
-1.000000E+20
 20
-1.000000E+20
 30
-1.000000E+20
  9
$PLIMMIN
 10
0.0
 20
0.0
  9
$PLIMMAX
 10
12.0
 20
9.0
  9
$UNITMODE
 70
     0
  9
$VISRETAIN
 70
     0
  9
$PLINEGEN
 70
     1
  9
$PSLTSCALE
 70
     0
  9
$TREEDEPTH
 70
  3020
  9
$CMLSTYLE
  2
Standard
  9
$CMLJUST
 70
     0
  9
$CMLSCALE
 40
1.0
  9
$PROXYGRAPHICS
 70
     0
  9
$MEASUREMENT
 70
     1
  9
$CELWEIGHT
370
     0
  9
$ENDCAPS
280
     0
  9
$JOINSTYLE
280
     0
  9
$LWDISPLAY
290
     0
  9
$INSUNITS
 70
     0
  9
$HYPERLINKBASE
  1

  9
$STYLESHEET
  1

  9
$XEDIT
290
     1
  9
$CEPSNTYPE
380
     0
  9
$PSTYLEMODE
290
     1
  9
$FINGERPRINTGUID
  2

  9
$VERSIONGUID
  2

  9
$EXTNAMES
290
     1
  9
$PSVPSCALE
 40
0.0
  0
ENDSEC
  0
SECTION
  2
CLASSES
  0
CLASS
  1
LWPOLYLINE
  2
AcDbPolyline
  3
AutoCAD 2000
 90
    32768
280
     0
281
     1
  0
CLASS
  1
IMAGE
  2
AcDbRasterImage
  3
ISM
 90
      127
280
     0
281
     1
  0
CLASS
  1
OLE2FRAME
  2
AcDbOle2Frame
  3
AutoCAD 2000
 90
    32768
280
     0
281
     1
  0
CLASS
  1
HATCH
  2
AcDbHatch
  3
AutoCAD 2000
 90
        0
280
     0
281
     1
  0
CLASS
  1
DICTIONARYVAR
  2
AcDbDictionaryVar
  3
AutoCAD 2000
 90
    32768
280
     0
281
     0
  0
CLASS
  1
RASTERVARIABLES
  2
AcDbRasterVariables
  3
ISM
 90
    32768
280
     0
281
     0
  0
CLASS
  1
IMAGEDEF
  2
AcDbRasterImageDef
  3
ISM
 90
        0
280
     0
281
     0
  0
CLASS
  1
IMAGEDEF_REACTOR
  2
AcDbRasterImageDefReactor
  3
ISM
 90
        1
280
     0
281
     0
  0
CLASS
  1
IDBUFFER
  2
AcDbIdBuffer
  3
AutoCAD 2000
 90
    32768
280
     0
281
     0
  0
CLASS
  1
SPATIAL_FILTER
  2
AcDbSpatialFilter
  3
AutoCAD 2000
 90
    32768
280
     0
281
     0
  0
CLASS
  1
XRECORD
  2
AcDbXrecord
  3
AutoCAD 2000
 90
    32768
280
     0
281
     0
  0
CLASS
  1
SORTENTSTABLE
  2
AcDbSortentsTable
  3
AutoCAD 2000
 90
    32768
280
     0
281
     0
  0
CLASS
  1
LAYER_INDEX
  2
AcDbLayerIndex
  3
AutoCAD 2000
 90
    32768
280
     0
281
     0
  0
CLASS
  1
SPATIAL_INDEX
  2
AcDbSpatialIndex
  3
AutoCAD 2000
 90
    32768
280
     0
281
     0
  0
CLASS
  1
OBJECT_PTR
  2
CAseDLPNTableRecord
  3
"ASE-LPNTableRecord"
 90
    32769
280
     0
281
     0
  0
CLASS
  1
LAYOUT
  2
AcDbLayout
  3
AutoCAD 2000
 90
        0
280
     0
281
     0
  0
CLASS
  1
PLOTSETTINGS
  2
AcDbPlotSettings
  3
AutoCAD 2000
 90
    32768
280
     0
281
     0
  0
CLASS
  1
ACDBDICTIONARYWDFLT
  2
AcDbDictionaryWithDefault
  3
AutoCAD 2000
 90
        0
280
     0
281
     0
  0
CLASS
  1
ACDBPLACEHOLDER
  2
AcDbPlaceHolder
  3
AutoCAD 2000
 90
        0
280
     0
281
     0
  0
CLASS
  1
VBA_PROJECT
  2
AcDbVbaProject
  3
acadvba
 90
    32768
280
     0
281
     0
  0
CLASS
  1
WIPEOUT
  2
AcDbWipeout
  3
WipeOut|AutoCAD Express Tool|expresstools@autodesk.com
 90
    32895
280
     0
281
     1
  0
CLASS
  1
WIPEOUTVARIABLES
  2
AcDbWipeoutVariables
  3
WipeOut|AutoCAD Express Tool|expresstools@autodesk.com
 90
        0
280
     0
281
     0
  0
CLASS
  1
RTEXT
  2
RText
  3
RText|AutoCAD Express Tool|expresstools@autodesk.com
 90
    32768
280
     0
281
     1
  0
CLASS
  1
ARCALIGNEDTEXT
  2
AcDbArcAlignedText
  3
ATEXT|AutoCAD Express Tool|expresstools@autodesk.com
 90
    32768
280
     0
281
     1
  0
ENDSEC
  0
SECTION
  2
TABLES
  0
TABLE
  2
VPORT
  5
7
100
AcDbSymbolTable
 70
     1
  0
VPORT
  5
15
100
AcDbSymbolTableRecord
100
AcDbViewportTableRecord
  2
*ACTIVE
 70
     0
 10
0.0
 20
0.0
 11
1.0
 21
1.0
 12
6.591288
 22
4.579184
 13
0.0
 23
0.0
 14
1.0
 24
1.0
 15
0.0
 25
0.0
 16
0.0
 26
0.0
 36
1.0
 17
0.0
 27
0.0
 37
0.0
 40
9.158369
 41
0.688564
 42
50.0
 43
0.0
 44
0.0
 50
0.0
 51
0.0
 71
     0
 72
   100
 73
     1
 74
     1
 75
     0
 76
     0
 77
     0
 78
     0
281
     0
 65
     0
110
0.0
120
0.0
130
0.0
111
1.0
121
0.0
131
0.0
112
0.0
122
1.0
132
0.0
345
0
346
0
 79
     0
146
0.0
  0
ENDTAB
  0
TABLE
  2
LTYPE
  5
4
100
AcDbSymbolTable
 70
     5
  0
LTYPE
  5
11
100
AcDbSymbolTableRecord
100
AcDbLinetypeTableRecord
  2
ByBlock
 70
    64
  3

 72
    65
 73
     0
 40
0.0
  0
LTYPE
  5
12
100
AcDbSymbolTableRecord
100
AcDbLinetypeTableRecord
  2
ByLayer
 70
    64
  3

 72
    65
 73
     0
 40
0.0
  0
LTYPE
  5
13
100
AcDbSymbolTableRecord
100
AcDbLinetypeTableRecord
  2
Continuous
 70
    64
  3
Solid line
 72
    65
 73
     0
 40
0.0
  0
LTYPE
  5
50
100
AcDbSymbolTableRecord
100
AcDbLinetypeTableRecord
  2
AI9-LType1
 70
    64
  3
Illustrator Dash Style No.1
 72
    65
 73
     4
 40
8.000295
 49
4.99992
 74
     0
 49
-1.000125
 74
     0
 49
1.000125
 74
     0
 49
-1.000125
 74
     0
  0
LTYPE
  5
3F2
100
AcDbSymbolTableRecord
100
AcDbLinetypeTableRecord
  2
AI9-LType2
 70
    64
  3
Illustrator Dash Style No.2
 72
    65
 73
     4
 40
14.795182
 49
9.246975
 74
     0
 49
-1.849402
 74
     0
 49
1.849402
 74
     0
 49
-1.849402
 74
     0
  0
ENDTAB
  0
TABLE
  2
LAYER
  5
2
100
AcDbSymbolTable
 70
     3
  0
LAYER
  5
14
100
AcDbSymbolTableRecord
100
AcDbLayerTableRecord
  2
0
 70
     0
 62
     7
  6
Continuous
290
     1
370
    -3
390
1D
  0
LAYER
  5
28
100
AcDbSymbolTableRecord
100
AcDbLayerTableRecord
  2
レイヤー_2
 70
     0
 62
     1
  6
Continuous
290
     1
370
    -3
390
1D
  0
LAYER
  5
4A8
100
AcDbSymbolTableRecord
100
AcDbLayerTableRecord
  2
レイヤー_1
 70
     0
 62
   160
  6
Continuous
290
     1
370
    -3
390
1D
  0
ENDTAB
  0
TABLE
  2
STYLE
  5
3
100
AcDbSymbolTable
 70
     5
  0
STYLE
  5
17
100
AcDbSymbolTableRecord
100
AcDbTextStyleTableRecord
  2
Standard
 70
     0
 40
0.0
 41
1.0
 50
0.0
 71
     0
 42
0.0
  3
txt
  4

  0
STYLE
  5
24
100
AcDbSymbolTableRecord
100
AcDbTextStyleTableRecord
  2
STD
 70
     0
 40
0.0
 41
1.0
 50
0.0
 71
     0
 42
0.0
  3
txt
  4

  0
STYLE
  5
25
100
AcDbSymbolTableRecord
100
AcDbTextStyleTableRecord
  2
TATESTD
 70
     4
 40
0.0
 41
1.0
 50
0.0
 71
     0
 42
0.0
  3
txt
  4

  0
STYLE
  5
26
100
AcDbSymbolTableRecord
100
AcDbTextStyleTableRecord
  2
KANJISTD
 70
     0
 40
0.0
 41
1.0
 50
0.0
 71
     0
 42
0.0
  3
txt
  4
extfont
  0
STYLE
  5
27
100
AcDbSymbolTableRecord
100
AcDbTextStyleTableRecord
  2
KANJITATE
 70
     4
 40
0.0
 41
1.0
 50
0.0
 71
     0
 42
0.0
  3
txt
  4
extfont
  0
ENDTAB
  0
TABLE
  2
VIEW
  5
5
100
AcDbSymbolTable
 70
     0
  0
ENDTAB
  0
TABLE
  2
UCS
  5
6
100
AcDbSymbolTable
 70
     0
  0
ENDTAB
  0
TABLE
  2
APPID
  5
8
100
AcDbSymbolTable
 70
     1
  0
APPID
  5
16
100
AcDbSymbolTableRecord
100
AcDbRegAppTableRecord
  2
ACAD
 70
     0
  0
ENDTAB
  0
TABLE
  2
DIMSTYLE
  5
9
100
AcDbSymbolTable
 70
     1
100
AcDbDimStyleTable
 71
     0
  0
DIMSTYLE
105
18
100
AcDbSymbolTableRecord
100
AcDbDimStyleTableRecord
  2
Standard
 70
     0
  3

  4

 40
1.0
 41
0.18
 42
0.0625
 43
0.38
 44
0.18
 45
0.0
 46
0.0
 47
0.0
 48
0.0
 71
     0
 72
     0
 73
     1
 74
     1
 75
     0
 76
     0
 77
     0
 78
     0
 79
     0
140
0.18
141
0.09
142
0.0
143
25.4
144
1.0
145
0.0
146
1.0
147
0.09
148
0.0
170
     0
171
     2
172
     0
173
     0
174
     0
175
     0
176
     0
177
     0
178
     0
179
     0
271
     4
272
     4
273
     2
274
     2
275
     0
276
     0
277
     2
278
    46
279
     0
280
     0
281
     0
282
     0
283
     1
284
     0
285
     0
286
     0
288
     0
340
17
341
0
342
0
343
0
344
0
371
    -2
372
    -2
  0
ENDTAB
  0
TABLE
  2
BLOCK_RECORD
  5
1
100
AcDbSymbolTable
 70
    10
  0
BLOCK_RECORD
  5
A
100
AcDbSymbolTableRecord
100
AcDbBlockTableRecord
  2
*MODEL_SPACE
340
20
  0
BLOCK_RECORD
  5
B
100
AcDbSymbolTableRecord
100
AcDbBlockTableRecord
  2
*PAPER_SPACE
340
21
  0
BLOCK_RECORD
  5
3E6
100
AcDbSymbolTableRecord
100
AcDbBlockTableRecord
  2
AI9-BLK1
340
0
102
{BLKREFS
331
3E7
102
}
  0
BLOCK_RECORD
  5
3EC
100
AcDbSymbolTableRecord
100
AcDbBlockTableRecord
  2
AI9-BLK2
340
0
102
{BLKREFS
331
3ED
102
}
  0
BLOCK_RECORD
  5
3EF
100
AcDbSymbolTableRecord
100
AcDbBlockTableRecord
  2
AI9-BLK3
340
0
102
{BLKREFS
331
3F0
102
}
  0
BLOCK_RECORD
  5
3F4
100
AcDbSymbolTableRecord
100
AcDbBlockTableRecord
  2
AI9-BLK4
340
0
102
{BLKREFS
331
3F5
102
}
  0
BLOCK_RECORD
  5
43E
100
AcDbSymbolTableRecord
100
AcDbBlockTableRecord
  2
AI9-BLK5
340
0
102
{BLKREFS
331
43F
102
}
  0
BLOCK_RECORD
  5
444
100
AcDbSymbolTableRecord
100
AcDbBlockTableRecord
  2
AI9-BLK6
340
0
102
{BLKREFS
331
445
102
}
  0
BLOCK_RECORD
  5
447
100
AcDbSymbolTableRecord
100
AcDbBlockTableRecord
  2
AI9-BLK7
340
0
102
{BLKREFS
331
448
102
}
  0
BLOCK_RECORD
  5
44A
100
AcDbSymbolTableRecord
100
AcDbBlockTableRecord
  2
AI9-BLK8
340
0
102
{BLKREFS
331
44B
102
}
  0
BLOCK_RECORD
  5
495
100
AcDbSymbolTableRecord
100
AcDbBlockTableRecord
  2
AI9-BLK9
340
0
102
{BLKREFS
331
496
102
}
  0
BLOCK_RECORD
  5
49B
100
AcDbSymbolTableRecord
100
AcDbBlockTableRecord
  2
AI9-BLK10
340
0
102
{BLKREFS
331
49C
102
}
  0
ENDTAB
  0
ENDSEC
  0
SECTION
  2
BLOCKS
  0
BLOCK
  5
D
100
AcDbEntity
  8
0
100
AcDbBlockBegin
  2
*MODEL_SPACE
 70
     0
 10
0.0
 20
0.0
 30
0.0
  3
*MODEL_SPACE
  1

  0
ENDBLK
  5
E
100
AcDbEntity
  8
0
100
AcDbBlockEnd
  0
BLOCK
  5
F
100
AcDbEntity
 67
     1
  8
0
100
AcDbBlockBegin
  2
*PAPER_SPACE
 70
     0
 10
0.0
 20
0.0
 30
0.0
  3
*PAPER_SPACE
  1

  0
ENDBLK
  5
10
100
AcDbEntity
 67
     1
  8
0
100
AcDbBlockEnd
  0
BLOCK
  5
3E8
100
AcDbEntity
  8
レイヤー_2
 62
     7
100
AcDbBlockBegin
  2
AI9-BLK1
 70
     0
 10
0.0
 20
0.0
 30
0.0
  3
AI9-BLK1
  1

  0
MTEXT
  5
3EA
100
AcDbEntity
  8
レイヤー_2
 62
     7
100
AcDbMText
 10
-8.123535
 20
3.155412
 30
0.0
 40
2.362351
 41
0.0
 71
     1
 72
     2
  1
\fMS PGothic|b0|i0|c128;\H2.3624;\C7;\U+63A5\U+7D9A\U+30BD\U+30B1\U+30C3\U+30C8
  7
STD
210
0.0
220
0.0
230
1.0
 73
     1
 44
1.0
  0
MTEXT
  5
3E9
100
AcDbEntity
  8
レイヤー_2
 62
     7
100
AcDbMText
 10
-8.123535
 20
-0.725143
 30
0.0
 40
2.362351
 41
0.0
 71
     1
 72
     2
  1
\fMS PGothic|b0|i0|c128;\H2.3624;\C7;\U+FF08\U+9006\U+6B62\U+5F01\U+4ED8\U+FF09
  7
STD
210
0.0
220
0.0
230
1.0
 73
     1
 44
1.0
  0
ENDBLK
  5
3EB
100
AcDbEntity
  8
レイヤー_2
100
AcDbBlockEnd
  0
BLOCK
  5
3EE
100
AcDbEntity
  8
レイヤー_2
 62
     7
100
AcDbBlockBegin
  2
AI9-BLK2
 70
     0
 10
0.0
 20
0.0
 30
0.0
  3
AI9-BLK2
  1

  0
INSERT
  5
43F
100
AcDbEntity
  8
レイヤー_2
  6
AI9-LType2
 62
     7
100
AcDbBlockReference
  2
AI9-BLK5
 10
-2.478746
 20
-35.683955
 30
0.0
  0
INSERT
  5
3F0
100
AcDbEntity
  8
レイヤー_2
 62
     7
100
AcDbBlockReference
  2
AI9-BLK3
 10
1.667426
 20
4.848627
 30
0.0
  0
ENDBLK
  5
443
100
AcDbEntity
  8
レイヤー_2
100
AcDbBlockEnd
  0
BLOCK
  5
3F1
100
AcDbEntity
  8
レイヤー_2
 62
     7
100
AcDbBlockBegin
  2
AI9-BLK3
 70
     0
 10
0.0
 20
0.0
 30
0.0
  3
AI9-BLK3
  1

  0
LINE
  5
43C
100
AcDbEntity
  8
レイヤー_2
  6
AI9-LType2
 62
     7
100
AcDbLine
 10
8.131459
 20
-25.088219
 30
0.0
 11
8.131459
 21
34.43683
 31
0.0
  0
LINE
  5
43B
100
AcDbEntity
  8
レイヤー_2
  6
AI9-LType2
 62
     7
100
AcDbLine
 10
-5.005379
 20
-13.483759
 30
0.0
 11
-5.005379
 21
-34.43683
 31
0.0
  0
INSERT
  5
3F5
100
AcDbEntity
  8
レイヤー_2
  6
AI9-LType2
 62
     7
100
AcDbBlockReference
  2
AI9-BLK4
 10
-5.005379
 20
-27.394021
 30
0.0
  0
LINE
  5
3F3
100
AcDbEntity
  8
レイヤー_2
  6
AI9-LType2
 62
     7
100
AcDbLine
 10
8.125258
 20
-25.066859
 30
0.0
 11
-5.005379
 21
-13.483759
 31
0.0
  0
ENDBLK
  5
43D
100
AcDbEntity
  8
レイヤー_2
100
AcDbBlockEnd
  0
BLOCK
  5
3F6
100
AcDbEntity
  8
レイヤー_2
  6
AI9-LType2
 62
     7
100
AcDbBlockBegin
  2
AI9-BLK4
 70
     0
 10
0.0
 20
0.0
 30
0.0
  3
AI9-BLK4
  1

  0
SPLINE
  5
439
100
AcDbEntity
  8
レイヤー_2
 62
     7
100
AcDbSpline
210
0.0
220
0.0
230
1.0
 70
     8
 71
     3
 72
    95
 73
    91
 74
     0
 42
0.00000001
 43
0.00000001
 40
0.0
 40
0.0
 40
0.0
 40
0.0
 40
1.0
 40
1.0
 40
1.0
 40
2.0
 40
2.0
 40
2.0
 40
3.0
 40
3.0
 40
3.0
 40
4.0
 40
4.0
 40
4.0
 40
5.0
 40
5.0
 40
5.0
 40
6.0
 40
6.0
 40
6.0
 40
7.0
 40
7.0
 40
7.0
 40
8.0
 40
8.0
 40
8.0
 40
9.0
 40
9.0
 40
9.0
 40
10.0
 40
10.0
 40
10.0
 40
11.0
 40
11.0
 40
11.0
 40
12.0
 40
12.0
 40
12.0
 40
13.0
 40
13.0
 40
13.0
 40
14.0
 40
14.0
 40
14.0
 40
15.0
 40
15.0
 40
15.0
 40
16.0
 40
16.0
 40
16.0
 40
17.0
 40
17.0
 40
17.0
 40
18.0
 40
18.0
 40
18.0
 40
19.0
 40
19.0
 40
19.0
 40
20.0
 40
20.0
 40
20.0
 40
21.0
 40
21.0
 40
21.0
 40
22.0
 40
22.0
 40
22.0
 40
23.0
 40
23.0
 40
23.0
 40
24.0
 40
24.0
 40
24.0
 40
25.0
 40
25.0
 40
25.0
 40
26.0
 40
26.0
 40
26.0
 40
27.0
 40
27.0
 40
27.0
 40
28.0
 40
28.0
 40
28.0
 40
29.0
 40
29.0
 40
29.0
 40
30.0
 40
30.0
 40
30.0
 40
30.0
 10
-1.1100097656249999
 20
6.2993570963541661
 30
0.0
 10
-1.0976074218749998
 20
6.2959120008680554
 30
0.0
 10
-1.085205078125
 20
6.2924669053819438
 30
0.0
 10
-1.072802734375
 20
6.289021809895833
 30
0.0
 10
-1.0604003906249999
 20
6.2855767144097214
 30
0.0
 10
-1.0479980468749999
 20
6.2828206380208327
 30
0.0
 10
-1.0355957031249998
 20
6.2800645616319439
 30
0.0
 10
-1.023193359375
 20
6.2766194661458323
 30
0.0
 10
-1.010791015625
 20
6.2745524088541664
 30
0.0
 10
-0.9983886718749999
 20
6.2724853515624996
 30
0.0
 10
-0.9859863281249999
 20
6.2704182942708329
 30
0.0
 10
-0.9735839843749999
 20
6.2683512369791661
 30
0.0
 10
-0.9611816406249999
 20
6.2676622178819441
 30
0.0
 10
-0.9480902777777777
 20
6.2662841796874993
 30
0.0
 10
-0.9356879340277777
 20
6.2662841796874993
 30
0.0
 10
-0.9232855902777777
 20
6.2662841796874993
 30
0.0
 10
-0.8943467881944444
 20
6.2669731987847213
 30
0.0
 10
-0.8660970052083332
 20
6.2704182942708329
 30
0.0
 10
-0.8385362413194444
 20
6.2773084852430552
 30
0.0
 10
-0.8102864583333332
 20
6.2841986762152775
 30
0.0
 10
-0.7820366753472221
 20
6.2917778862847218
 30
0.0
 10
-0.7537868923611111
 20
6.2993570963541661
 30
0.0
 10
-0.7255371093749999
 20
6.3083143446180552
 30
0.0
 10
-0.6979763454861111
 20
6.3158935546874995
 30
0.0
 10
-0.6697265625
 20
6.3234727647569438
 30
0.0
 10
-0.6428548177083333
 20
6.331051974826388
 30
0.0
 10
-0.6152940538194444
 20
6.3365641276041664
 30
0.0
 10
-0.5877332899305555
 20
6.3393202039930552
 30
0.0
 10
-0.5622395833333332
 20
6.3427652994791659
 30
0.0
 10
-0.5360568576388889
 20
6.341387261284722
 30
0.0
 10
-0.5098741319444444
 20
6.3365641276041664
 30
0.0
 10
-0.4712890625
 20
6.3282958984374993
 30
0.0
 10
-0.4347710503472222
 20
6.3110704210069439
 30
0.0
 10
-0.4030761718749999
 20
6.2876437717013882
 30
0.0
 10
-0.3672471788194444
 20
6.2621500651041657
 30
0.0
 10
-0.3334852430555556
 20
6.2339002821180554
 30
0.0
 10
-0.3024793836805556
 20
6.2028944227430554
 30
0.0
 10
-0.2700954861111111
 20
6.1705105251736105
 30
0.0
 10
-0.2377115885416667
 20
6.1388156467013886
 30
0.0
 10
-0.204638671875
 20
6.1071207682291657
 30
0.0
 10
-0.1743218315972222
 20
6.0774929470486105
 30
0.0
 10
-0.1405598958333333
 20
6.0506212022569441
 30
0.0
 10
-0.105419921875
 20
6.0265055338541664
 30
0.0
 10
-0.0737250434027778
 20
6.0051459418402775
 30
0.0
 10
-0.0378960503472222
 20
5.9913655598958329
 30
0.0
 10
0.0
 20
5.9865424262152773
 30
0.0
 10
0.0365180121527778
 20
5.9817192925347218
 30
0.0
 10
0.0737250434027778
 20
5.9872314453124993
 30
0.0
 10
0.1081759982638889
 20
6.0023898654513888
 30
0.0
 10
0.1453830295138889
 20
6.0189263237847213
 30
0.0
 10
0.1832790798611111
 20
6.0361518012152775
 30
0.0
 10
0.2211751302083333
 20
6.0533772786458329
 30
0.0
 10
0.26044921875
 20
6.0712917751736102
 30
0.0
 10
0.2990342881944444
 20
6.0919623480902771
 30
0.0
 10
0.3355523003472222
 20
6.1153889973958329
 30
0.0
 10
0.3720703124999999
 20
6.135370551215277
 30
0.0
 10
0.40927734375
 20
6.1519070095486104
 30
0.0
 10
0.4485514322916666
 20
6.1643093532986102
 30
0.0
 10
0.4823133680555555
 20
6.1767116970486109
 30
0.0
 10
0.5195203993055555
 20
6.1808458116319436
 30
0.0
 10
0.555349392361111
 20
6.1767116970486109
 30
0.0
 10
0.5815321180555555
 20
6.1718885633680554
 30
0.0
 10
0.6063368055555555
 20
6.1629313151041663
 30
0.0
 10
0.6297634548611111
 20
6.1498399522569436
 30
0.0
 10
0.6545681423611111
 20
6.1360595703124998
 30
0.0
 10
0.6786838107638888
 20
6.1195231119791664
 30
0.0
 10
0.700732421875
 20
6.1016086154513882
 30
0.0
 10
0.7248480902777778
 20
6.0823160807291661
 30
0.0
 10
0.7489637586805555
 20
6.062334526909722
 30
0.0
 10
0.7717013888888888
 20
6.042352973090277
 30
0.0
 10
0.7958170572916666
 20
6.0223714192708329
 30
0.0
 10
0.8199327256944444
 20
6.0030788845486107
 30
0.0
 10
0.8454264322916666
 20
5.9844753689236105
 30
0.0
 10
0.8695421006944444
 20
5.9672498914930552
 30
0.0
 10
0.8957248263888888
 20
5.9527804904513886
 30
0.0
 10
0.9232855902777777
 20
5.9403781467013888
 30
0.0
 10
0.9349989149305554
 20
5.9355550130208332
 30
0.0
 10
0.9467122395833333
 20
5.9314208984374996
 30
0.0
 10
0.9591145833333332
 20
5.9286648220486109
 30
0.0
 10
0.9715169270833333
 20
5.9252197265624993
 30
0.0
 10
0.983230251736111
 20
5.9224636501736105
 30
0.0
 10
0.9956325954861111
 20
5.9197075737847218
 30
0.0
 10
1.008034939236111
 20
5.916951497395833
 30
0.0
 10
1.0211263020833332
 20
5.9155734592013882
 30
0.0
 10
1.0335286458333333
 20
5.9141954210069443
 30
0.0
 10
1.0459309895833333
 20
5.9128173828124995
 30
0.0
 10
1.0590223524305555
 20
5.9114393446180546
 30
0.0
 10
1.0714246961805554
 20
5.9107503255208327
 30
0.0
 10
1.0845160590277776
 20
5.9093722873263888
 30
0.0
 10
1.0976074218749998
 20
5.9079942491319439
 30
0.0
 10
1.1100097656249999
 20
5.9079942491319439
 30
0.0
  0
LINE
  5
438
100
AcDbEntity
  8
レイヤー_2
 62
     7
100
AcDbLine
 10
1.986442
 20
-0.541225
 30
0.0
 11
1.869998
 21
-0.541225
 31
0.0
  0
LINE
  5
437
100
AcDbEntity
  8
レイヤー_2
 62
     7
100
AcDbLine
 10
1.869998
 20
0.525377
 30
0.0
 11
1.869998
 21
-0.541225
 31
0.0
  0
LINE
  5
436
100
AcDbEntity
  8
レイヤー_2
 62
     7
100
AcDbLine
 10
1.869998
 20
-0.541225
 30
0.0
 11
1.986442
 21
-0.743796
 31
0.0
  0
LINE
  5
435
100
AcDbEntity
  8
レイヤー_2
 62
     7
100
AcDbLine
 10
-1.869309
 20
-0.541225
 30
0.0
 11
-1.986442
 21
-0.541225
 31
0.0
  0
LINE
  5
434
100
AcDbEntity
  8
レイヤー_2
 62
     7
100
AcDbLine
 10
-1.869309
 20
-0.541225
 30
0.0
 11
-1.869309
 21
0.525377
 31
0.0
  0
LINE
  5
433
100
AcDbEntity
  8
レイヤー_2
 62
     7
100
AcDbLine
 10
-1.986442
 20
-0.743796
 30
0.0
 11
-1.869309
 21
-0.541225
 31
0.0
  0
LINE
  5
432
100
AcDbEntity
  8
レイヤー_2
 62
     7
100
AcDbLine
 10
-1.096229
 20
0.634931
 30
0.0
 11
-1.577165
 21
0.634931
 31
0.0
  0
LINE
  5
431
100
AcDbEntity
  8
レイヤー_2
 62
     7
100
AcDbLine
 10
-1.096229
 20
3.087839
 30
0.0
 11
-1.096229
 21
0.634931
 31
0.0
  0
LINE
  5
430
100
AcDbEntity
  8
レイヤー_2
 62
     7
100
AcDbLine
 10
-1.577165
 20
3.087839
 30
0.0
 11
-1.096229
 21
3.087839
 31
0.0
  0
LINE
  5
42F
100
AcDbEntity
  8
レイヤー_2
 62
     7
100
AcDbLine
 10
-1.577165
 20
3.087839
 30
0.0
 11
-1.577165
 21
0.634931
 31
0.0
  0
LINE
  5
42E
100
AcDbEntity
  8
レイヤー_2
 62
     7
100
AcDbLine
 10
-1.752865
 20
4.707034
 30
0.0
 11
0.0
 21
4.707034
 31
0.0
  0
LINE
  5
42D
100
AcDbEntity
  8
レイヤー_2
 62
     7
100
AcDbLine
 10
-2.453597
 20
0.500572
 30
0.0
 11
0.0
 21
0.500572
 31
0.0
  0
LINE
  5
42C
100
AcDbEntity
  8
レイヤー_2
 62
     7
100
AcDbLine
 10
-2.687174
 20
0.634931
 30
0.0
 11
-2.453597
 21
0.500572
 31
0.0
  0
LINE
  5
42B
100
AcDbEntity
  8
レイヤー_2
 62
     7
100
AcDbLine
 10
-1.752865
 20
4.707034
 30
0.0
 11
-2.560395
 21
3.308325
 31
0.0
  0
LINE
  5
42A
100
AcDbEntity
  8
レイヤー_2
 62
     7
100
AcDbLine
 10
-2.687174
 20
3.087839
 30
0.0
 11
-2.687174
 21
0.634931
 31
0.0
  0
LINE
  5
429
100
AcDbEntity
  8
レイヤー_2
 62
     7
100
AcDbLine
 10
1.18029
 20
4.707034
 30
0.0
 11
0.0
 21
4.707034
 31
0.0
  0
LINE
  5
428
100
AcDbEntity
  8
レイヤー_2
 62
     7
100
AcDbLine
 10
2.045009
 20
0.500572
 30
0.0
 11
0.0
 21
0.500572
 31
0.0
  0
LINE
  5
427
100
AcDbEntity
  8
レイヤー_2
 62
     7
100
AcDbLine
 10
1.577165
 20
0.634931
 30
0.0
 11
1.096229
 21
0.634931
 31
0.0
  0
LINE
  5
426
100
AcDbEntity
  8
レイヤー_2
 62
     7
100
AcDbLine
 10
1.096229
 20
0.634931
 30
0.0
 11
1.096229
 21
3.087839
 31
0.0
  0
LINE
  5
425
100
AcDbEntity
  8
レイヤー_2
 62
     7
100
AcDbLine
 10
1.096229
 20
3.087839
 30
0.0
 11
1.577165
 21
3.087839
 31
0.0
  0
LINE
  5
424
100
AcDbEntity
  8
レイヤー_2
 62
     7
100
AcDbLine
 10
1.577165
 20
0.634931
 30
0.0
 11
1.577165
 21
3.087839
 31
0.0
  0
LINE
  5
423
100
AcDbEntity
  8
レイヤー_2
 62
     7
100
AcDbLine
 10
0.0
 20
4.707034
 30
0.0
 11
1.752865
 21
4.707034
 31
0.0
  0
LINE
  5
422
100
AcDbEntity
  8
レイヤー_2
 62
     7
100
AcDbLine
 10
0.0
 20
0.500572
 30
0.0
 11
2.453597
 21
0.500572
 31
0.0
  0
LINE
  5
421
100
AcDbEntity
  8
レイヤー_2
 62
     7
100
AcDbLine
 10
2.453597
 20
0.500572
 30
0.0
 11
2.687863
 21
0.634931
 31
0.0
  0
LINE
  5
420
100
AcDbEntity
  8
レイヤー_2
 62
     7
100
AcDbLine
 10
2.687863
 20
3.087839
 30
0.0
 11
1.752865
 21
4.707034
 31
0.0
  0
LINE
  5
41F
100
AcDbEntity
  8
レイヤー_2
 62
     7
100
AcDbLine
 10
2.687863
 20
0.634931
 30
0.0
 11
2.687863
 21
3.087839
 31
0.0
  0
LINE
  5
41E
100
AcDbEntity
  8
レイヤー_2
 62
     7
100
AcDbLine
 10
-2.560395
 20
3.308325
 30
0.0
 11
-2.687174
 21
3.087839
 31
0.0
  0
SPLINE
  5
41D
100
AcDbEntity
  8
レイヤー_2
 62
     7
100
AcDbSpline
210
0.0
220
0.0
230
1.0
 70
     8
 71
     3
 72
     8
 73
     4
 74
     0
 42
0.00000001
 43
0.00000001
 40
0.0
 40
0.0
 40
0.0
 40
0.0
 40
1.0
 40
1.0
 40
1.0
 40
1.0
 10
-1.0962293836805554
 20
0.6349310980902777
 30
0.0
 10
-0.737939453125
 20
0.5453586154513889
 30
0.0
 10
-0.3693142361111111
 20
0.5005723741319444
 30
0.0
 10
0.0
 20
0.5005723741319444
 30
0.0
  0
SPLINE
  5
41C
100
AcDbEntity
  8
レイヤー_2
 62
     7
100
AcDbSpline
210
0.0
220
0.0
230
1.0
 70
     8
 71
     3
 72
     8
 73
     4
 74
     0
 42
0.00000001
 43
0.00000001
 40
0.0
 40
0.0
 40
0.0
 40
0.0
 40
1.0
 40
1.0
 40
1.0
 40
1.0
 10
-2.6871744791666665
 20
0.6349310980902777
 30
0.0
 10
-2.3392198350694442
 20
0.4550971137152777
 30
0.0
 10
-1.9251193576388888
 20
0.4550971137152777
 30
0.0
 10
-1.5771647135416664
 20
0.6349310980902777
 30
0.0
  0
SPLINE
  5
41B
100
AcDbEntity
  8
レイヤー_2
 62
     7
100
AcDbSpline
210
0.0
220
0.0
230
1.0
 70
     8
 71
     3
 72
     8
 73
     4
 74
     0
 42
0.00000001
 43
0.00000001
 40
0.0
 40
0.0
 40
0.0
 40
0.0
 40
1.0
 40
1.0
 40
1.0
 40
1.0
 10
0.0
 20
3.4922932942708331
 30
0.0
 10
-0.4016981336805555
 20
3.4922932942708331
 30
0.0
 10
-0.7903049045138888
 20
3.348977322048611
 30
0.0
 10
-1.0962293836805554
 20
3.0878390842013888
 30
0.0
  0
SPLINE
  5
41A
100
AcDbEntity
  8
レイヤー_2
 62
     7
100
AcDbSpline
210
0.0
220
0.0
230
1.0
 70
     8
 71
     3
 72
    11
 73
     7
 74
     0
 42
0.00000001
 43
0.00000001
 40
0.0
 40
0.0
 40
0.0
 40
0.0
 40
1.0
 40
1.0
 40
1.0
 40
2.0
 40
2.0
 40
2.0
 40
2.0
 10
-1.5771647135416664
 20
3.0878390842013888
 30
0.0
 10
-1.6729383680555554
 20
3.3944525824652776
 30
0.0
 10
-1.9988444010416664
 20
3.5653293185763886
 30
0.0
 10
-2.3054578993055554
 20
3.4695556640624998
 30
0.0
 10
-2.403298611111111
 20
3.4392388237847218
 30
0.0
 10
-2.490804036458333
 20
3.3834282769097217
 30
0.0
 10
-2.5603949652777773
 20
3.3083251953124999
 30
0.0
  0
SPLINE
  5
419
100
AcDbEntity
  8
レイヤー_2
 62
     7
100
AcDbSpline
210
0.0
220
0.0
230
1.0
 70
     8
 71
     3
 72
     8
 73
     4
 74
     0
 42
0.00000001
 43
0.00000001
 40
0.0
 40
0.0
 40
0.0
 40
0.0
 40
1.0
 40
1.0
 40
1.0
 40
1.0
 10
0.0
 20
0.5005723741319444
 30
0.0
 10
0.3693142361111111
 20
0.5005723741319444
 30
0.0
 10
0.737939453125
 20
0.5453586154513889
 30
0.0
 10
1.0962293836805554
 20
0.6349310980902777
 30
0.0
  0
SPLINE
  5
418
100
AcDbEntity
  8
レイヤー_2
 62
     7
100
AcDbSpline
210
0.0
220
0.0
230
1.0
 70
     8
 71
     3
 72
     8
 73
     4
 74
     0
 42
0.00000001
 43
0.00000001
 40
0.0
 40
0.0
 40
0.0
 40
0.0
 40
1.0
 40
1.0
 40
1.0
 40
1.0
 10
1.5771647135416664
 20
0.6349310980902777
 30
0.0
 10
1.9251193576388888
 20
0.4550971137152777
 30
0.0
 10
2.3392198350694442
 20
0.4550971137152777
 30
0.0
 10
2.6878634982638885
 20
0.6349310980902777
 30
0.0
  0
SPLINE
  5
417
100
AcDbEntity
  8
レイヤー_2
 62
     7
100
AcDbSpline
210
0.0
220
0.0
230
1.0
 70
     8
 71
     3
 72
     8
 73
     4
 74
     0
 42
0.00000001
 43
0.00000001
 40
0.0
 40
0.0
 40
0.0
 40
0.0
 40
1.0
 40
1.0
 40
1.0
 40
1.0
 10
1.0962293836805554
 20
3.0878390842013888
 30
0.0
 10
0.7909939236111111
 20
3.348977322048611
 30
0.0
 10
0.4016981336805555
 20
3.4922932942708331
 30
0.0
 10
0.0
 20
3.4922932942708331
 30
0.0
  0
SPLINE
  5
416
100
AcDbEntity
  8
レイヤー_2
 62
     7
100
AcDbSpline
210
0.0
220
0.0
230
1.0
 70
     8
 71
     3
 72
    11
 73
     7
 74
     0
 42
0.00000001
 43
0.00000001
 40
0.0
 40
0.0
 40
0.0
 40
0.0
 40
1.0
 40
1.0
 40
1.0
 40
2.0
 40
2.0
 40
2.0
 40
2.0
 10
2.6878634982638885
 20
3.0878390842013888
 30
0.0
 10
2.5920898437499997
 20
3.3944525824652776
 30
0.0
 10
2.2654947916666663
 20
3.5653293185763886
 30
0.0
 10
1.9588812934027775
 20
3.4695556640624998
 30
0.0
 10
1.7769802517361108
 20
3.4123670789930554
 30
0.0
 10
1.6343532986111109
 20
3.2697401258680552
 30
0.0
 10
1.5771647135416664
 20
3.0878390842013888
 30
0.0
  0
LINE
  5
415
100
AcDbEntity
  8
レイヤー_2
 62
     7
100
AcDbLine
 10
-2.775369
 20
-6.131925
 30
0.0
 11
-3.037885
 21
-5.990677
 31
0.0
  0
LINE
  5
414
100
AcDbEntity
  8
レイヤー_2
 62
     7
100
AcDbLine
 10
3.037885
 20
-5.990677
 30
0.0
 11
2.775369
 21
-6.131925
 31
0.0
  0
LINE
  5
413
100
AcDbEntity
  8
レイヤー_2
 62
     7
100
AcDbLine
 10
-3.037885
 20
-1.31706
 30
0.0
 11
-2.775369
 21
-1.1765
 31
0.0
  0
LINE
  5
412
100
AcDbEntity
  8
レイヤー_2
 62
     7
100
AcDbLine
 10
2.775369
 20
-1.1765
 30
0.0
 11
3.037885
 21
-1.31706
 31
0.0
  0
LINE
  5
411
100
AcDbEntity
  8
レイヤー_2
 62
     7
100
AcDbLine
 10
-2.687174
 20
-6.341387
 30
0.0
 11
2.687863
 21
-6.341387
 31
0.0
  0
LINE
  5
410
100
AcDbEntity
  8
レイヤー_2
 62
     7
100
AcDbLine
 10
-1.844504
 20
-5.990677
 30
0.0
 11
-1.168576
 21
-5.990677
 31
0.0
  0
LINE
  5
40F
100
AcDbEntity
  8
レイヤー_2
 62
     7
100
AcDbLine
 10
1.168576
 20
-5.990677
 30
0.0
 11
1.844504
 21
-5.990677
 31
0.0
  0
LINE
  5
40E
100
AcDbEntity
  8
レイヤー_2
 62
     7
100
AcDbLine
 10
3.037885
 20
-5.990677
 30
0.0
 11
2.687863
 21
-6.341387
 31
0.0
  0
LINE
  5
40D
100
AcDbEntity
  8
レイヤー_2
 62
     7
100
AcDbLine
 10
-3.037885
 20
-5.990677
 30
0.0
 11
-2.687174
 21
-6.341387
 31
0.0
  0
LINE
  5
40C
100
AcDbEntity
  8
レイヤー_2
 62
     7
100
AcDbLine
 10
2.687863
 20
-0.966349
 30
0.0
 11
-2.687174
 21
-0.966349
 31
0.0
  0
LINE
  5
40B
100
AcDbEntity
  8
レイヤー_2
 62
     7
100
AcDbLine
 10
2.687863
 20
-0.966349
 30
0.0
 11
3.037885
 21
-1.31706
 31
0.0
  0
LINE
  5
40A
100
AcDbEntity
  8
レイヤー_2
 62
     7
100
AcDbLine
 10
1.844504
 20
-1.31706
 30
0.0
 11
1.168576
 21
-1.31706
 31
0.0
  0
LINE
  5
409
100
AcDbEntity
  8
レイヤー_2
 62
     7
100
AcDbLine
 10
-1.168576
 20
-1.31706
 30
0.0
 11
-1.844504
 21
-1.31706
 31
0.0
  0
LINE
  5
408
100
AcDbEntity
  8
レイヤー_2
 62
     7
100
AcDbLine
 10
-2.687174
 20
-0.966349
 30
0.0
 11
-3.037885
 21
-1.31706
 31
0.0
  0
LINE
  5
407
100
AcDbEntity
  8
レイヤー_2
 62
     7
100
AcDbLine
 10
-3.037885
 20
-5.990677
 30
0.0
 11
-3.037885
 21
-1.31706
 31
0.0
  0
LINE
  5
406
100
AcDbEntity
  8
レイヤー_2
 62
     7
100
AcDbLine
 10
-1.844504
 20
-5.990677
 30
0.0
 11
-1.844504
 21
-1.31706
 31
0.0
  0
LINE
  5
405
100
AcDbEntity
  8
レイヤー_2
 62
     7
100
AcDbLine
 10
-1.168576
 20
-5.990677
 30
0.0
 11
-1.168576
 21
-1.31706
 31
0.0
  0
LINE
  5
404
100
AcDbEntity
  8
レイヤー_2
 62
     7
100
AcDbLine
 10
1.168576
 20
-5.990677
 30
0.0
 11
1.168576
 21
-1.31706
 31
0.0
  0
LINE
  5
403
100
AcDbEntity
  8
レイヤー_2
 62
     7
100
AcDbLine
 10
1.844504
 20
-5.990677
 30
0.0
 11
1.844504
 21
-1.31706
 31
0.0
  0
LINE
  5
402
100
AcDbEntity
  8
レイヤー_2
 62
     7
100
AcDbLine
 10
3.037885
 20
-5.990677
 30
0.0
 11
3.037885
 21
-1.31706
 31
0.0
  0
SPLINE
  5
401
100
AcDbEntity
  8
レイヤー_2
 62
     7
100
AcDbSpline
210
0.0
220
0.0
230
1.0
 70
     8
 71
     3
 72
     8
 73
     4
 74
     0
 42
0.00000001
 43
0.00000001
 40
0.0
 40
0.0
 40
0.0
 40
0.0
 40
1.0
 40
1.0
 40
1.0
 40
1.0
 10
-2.775368923611111
 20
-6.1319254557291663
 30
0.0
 10
-2.4680664062499997
 20
-6.2959120008680554
 30
0.0
 10
-2.0891059027777774
 20
-6.2387234157986109
 30
0.0
 10
-1.8445041232638888
 20
-5.9906765407986109
 30
0.0
  0
SPLINE
  5
400
100
AcDbEntity
  8
レイヤー_2
 62
     7
100
AcDbSpline
210
0.0
220
0.0
230
1.0
 70
     8
 71
     3
 72
     8
 73
     4
 74
     0
 42
0.00000001
 43
0.00000001
 40
0.0
 40
0.0
 40
0.0
 40
0.0
 40
1.0
 40
1.0
 40
1.0
 40
1.0
 10
1.8445041232638888
 20
-5.9906765407986109
 30
0.0
 10
2.0891059027777774
 20
-6.2387234157986109
 30
0.0
 10
2.4680664062499997
 20
-6.2959120008680554
 30
0.0
 10
2.775368923611111
 20
-6.1319254557291663
 30
0.0
  0
SPLINE
  5
3FF
100
AcDbEntity
  8
レイヤー_2
 62
     7
100
AcDbSpline
210
0.0
220
0.0
230
1.0
 70
     8
 71
     3
 72
     8
 73
     4
 74
     0
 42
0.00000001
 43
0.00000001
 40
0.0
 40
0.0
 40
0.0
 40
0.0
 40
1.0
 40
1.0
 40
1.0
 40
1.0
 10
-1.1685763888888887
 20
-5.9906765407986109
 30
0.0
 10
-0.4203016493055555
 20
-6.3028021918402768
 30
0.0
 10
0.4209906684027777
 20
-6.3028021918402768
 30
0.0
 10
1.1685763888888887
 20
-5.9906765407986109
 30
0.0
  0
SPLINE
  5
3FE
100
AcDbEntity
  8
レイヤー_2
 62
     7
100
AcDbSpline
210
0.0
220
0.0
230
1.0
 70
     8
 71
     3
 72
     8
 73
     4
 74
     0
 42
0.00000001
 43
0.00000001
 40
0.0
 40
0.0
 40
0.0
 40
0.0
 40
1.0
 40
1.0
 40
1.0
 40
1.0
 10
-1.8445041232638888
 20
-1.3170600043402776
 30
0.0
 10
-2.0891059027777774
 20
-1.0690131293402776
 30
0.0
 10
-2.4680664062499997
 20
-1.0118245442708333
 30
0.0
 10
-2.775368923611111
 20
-1.1765001085069444
 30
0.0
  0
SPLINE
  5
3FD
100
AcDbEntity
  8
レイヤー_2
 62
     7
100
AcDbSpline
210
0.0
220
0.0
230
1.0
 70
     8
 71
     3
 72
     8
 73
     4
 74
     0
 42
0.00000001
 43
0.00000001
 40
0.0
 40
0.0
 40
0.0
 40
0.0
 40
1.0
 40
1.0
 40
1.0
 40
1.0
 10
2.775368923611111
 20
-1.1765001085069444
 30
0.0
 10
2.4680664062499997
 20
-1.0118245442708333
 30
0.0
 10
2.0891059027777774
 20
-1.0690131293402776
 30
0.0
 10
1.8445041232638888
 20
-1.3170600043402776
 30
0.0
  0
SPLINE
  5
3FC
100
AcDbEntity
  8
レイヤー_2
 62
     7
100
AcDbSpline
210
0.0
220
0.0
230
1.0
 70
     8
 71
     3
 72
     8
 73
     4
 74
     0
 42
0.00000001
 43
0.00000001
 40
0.0
 40
0.0
 40
0.0
 40
0.0
 40
1.0
 40
1.0
 40
1.0
 40
1.0
 10
1.1685763888888887
 20
-1.3170600043402776
 30
0.0
 10
0.4209906684027777
 20
-1.0056233723958332
 30
0.0
 10
-0.4203016493055555
 20
-1.0056233723958332
 30
0.0
 10
-1.1685763888888887
 20
-1.3170600043402776
 30
0.0
  0
LINE
  5
3FB
100
AcDbEntity
  8
レイヤー_2
 62
     7
100
AcDbLine
 10
-1.11001
 20
4.707034
 30
0.0
 11
-1.11001
 21
6.306247
 31
0.0
  0
LINE
  5
3FA
100
AcDbEntity
  8
レイヤー_2
 62
     7
100
AcDbLine
 10
1.11001
 20
4.707034
 30
0.0
 11
1.11001
 21
5.907994
 31
0.0
  0
LINE
  5
3F9
100
AcDbEntity
  8
レイヤー_2
 62
     7
100
AcDbLine
 10
1.986442
 20
-0.743796
 30
0.0
 11
1.986442
 21
0.500572
 31
0.0
  0
LINE
  5
3F8
100
AcDbEntity
  8
レイヤー_2
 62
     7
100
AcDbLine
 10
-1.986442
 20
0.500572
 30
0.0
 11
-1.986442
 21
-0.743796
 31
0.0
  0
LINE
  5
3F7
100
AcDbEntity
  8
レイヤー_2
 62
     7
100
AcDbLine
 10
-1.869309
 20
-0.541225
 30
0.0
 11
1.869998
 21
-0.541225
 31
0.0
  0
ENDBLK
  5
43A
100
AcDbEntity
  8
レイヤー_2
100
AcDbBlockEnd
  0
BLOCK
  5
440
100
AcDbEntity
  8
レイヤー_2
  6
AI9-LType2
 62
     7
100
AcDbBlockBegin
  2
AI9-BLK5
 70
     0
 10
0.0
 20
0.0
 30
0.0
  3
AI9-BLK5
  1

  0
MTEXT
  5
441
100
AcDbEntity
  8
レイヤー_2
  6
AI9-LType2
 62
     7
100
AcDbMText
 10
-7.408333
 20
2.835313
 30
0.0
 40
5.512152
 41
0.0
 71
     1
 72
     2
  1
\fMS Gothic|b0|i0|c128;\H5.5122;\C7;\U+0047\U+0031\U+002F\U+0032
  7
STD
210
0.0
220
0.0
230
1.0
 73
     1
 44
1.0
  0
ENDBLK
  5
442
100
AcDbEntity
  8
レイヤー_2
100
AcDbBlockEnd
  0
BLOCK
  5
446
100
AcDbEntity
  8
レイヤー_2
  6
AI9-LType2
 62
     7
100
AcDbBlockBegin
  2
AI9-BLK6
 70
     0
 10
0.0
 20
0.0
 30
0.0
  3
AI9-BLK6
  1

  0
INSERT
  5
496
100
AcDbEntity
  8
レイヤー_2
  6
AI9-LType2
 62
     7
100
AcDbBlockReference
  2
AI9-BLK9
 10
4.312226
 20
-35.683955
 30
0.0
  0
INSERT
  5
448
100
AcDbEntity
  8
レイヤー_2
  6
AI9-LType2
 62
     7
100
AcDbBlockReference
  2
AI9-BLK7
 10
-2.938064
 20
4.790061
 30
0.0
  0
ENDBLK
  5
49A
100
AcDbEntity
  8
レイヤー_2
100
AcDbBlockEnd
  0
BLOCK
  5
449
100
AcDbEntity
  8
レイヤー_2
  6
AI9-LType2
 62
     7
100
AcDbBlockBegin
  2
AI9-BLK7
 70
     0
 10
0.0
 20
0.0
 30
0.0
  3
AI9-BLK7
  1

  0
LINE
  5
493
100
AcDbEntity
  8
レイヤー_2
  6
AI9-LType2
 62
     7
100
AcDbLine
 10
-8.694301
 20
-25.264608
 30
0.0
 11
-8.694301
 21
34.495397
 31
0.0
  0
LINE
  5
492
100
AcDbEntity
  8
レイヤー_2
  6
AI9-LType2
 62
     7
100
AcDbLine
 10
-8.570278
 20
-25.183303
 30
0.0
 11
5.567533
 21
-13.543015
 31
0.0
  0
LINE
  5
491
100
AcDbEntity
  8
レイヤー_2
  6
AI9-LType2
 62
     7
100
AcDbLine
 10
5.567533
 20
-13.543015
 30
0.0
 11
5.567533
 21
-34.495397
 31
0.0
  0
INSERT
  5
44B
100
AcDbEntity
  8
レイヤー_2
  6
AI9-LType2
 62
     7
100
AcDbBlockReference
  2
AI9-BLK8
 10
5.567963
 20
-27.453105
 30
0.0
  0
ENDBLK
  5
494
100
AcDbEntity
  8
レイヤー_2
100
AcDbBlockEnd
  0
BLOCK
  5
44C
100
AcDbEntity
  8
レイヤー_2
  6
AI9-LType2
 62
     7
100
AcDbBlockBegin
  2
AI9-BLK8
 70
     0
 10
0.0
 20
0.0
 30
0.0
  3
AI9-BLK8
  1

  0
SPLINE
  5
48F
100
AcDbEntity
  8
レイヤー_2
 62
     7
100
AcDbSpline
210
0.0
220
0.0
230
1.0
 70
     8
 71
     3
 72
    95
 73
    91
 74
     0
 42
0.00000001
 43
0.00000001
 40
0.0
 40
0.0
 40
0.0
 40
0.0
 40
1.0
 40
1.0
 40
1.0
 40
2.0
 40
2.0
 40
2.0
 40
3.0
 40
3.0
 40
3.0
 40
4.0
 40
4.0
 40
4.0
 40
5.0
 40
5.0
 40
5.0
 40
6.0
 40
6.0
 40
6.0
 40
7.0
 40
7.0
 40
7.0
 40
8.0
 40
8.0
 40
8.0
 40
9.0
 40
9.0
 40
9.0
 40
10.0
 40
10.0
 40
10.0
 40
11.0
 40
11.0
 40
11.0
 40
12.0
 40
12.0
 40
12.0
 40
13.0
 40
13.0
 40
13.0
 40
14.0
 40
14.0
 40
14.0
 40
15.0
 40
15.0
 40
15.0
 40
16.0
 40
16.0
 40
16.0
 40
17.0
 40
17.0
 40
17.0
 40
18.0
 40
18.0
 40
18.0
 40
19.0
 40
19.0
 40
19.0
 40
20.0
 40
20.0
 40
20.0
 40
21.0
 40
21.0
 40
21.0
 40
22.0
 40
22.0
 40
22.0
 40
23.0
 40
23.0
 40
23.0
 40
24.0
 40
24.0
 40
24.0
 40
25.0
 40
25.0
 40
25.0
 40
26.0
 40
26.0
 40
26.0
 40
27.0
 40
27.0
 40
27.0
 40
28.0
 40
28.0
 40
28.0
 40
29.0
 40
29.0
 40
29.0
 40
30.0
 40
30.0
 40
30.0
 40
30.0
 10
-1.1102681477864582
 20
6.2991848415798604
 30
0.0
 10
-1.0978658040364582
 20
6.2957397460937496
 30
0.0
 10
-1.0854634602864581
 20
6.292294650607638
 30
0.0
 10
-1.0730611165364583
 20
6.2888495551215273
 30
0.0
 10
-1.0606587727864583
 20
6.2854044596354157
 30
0.0
 10
-1.0482564290364582
 20
6.282648383246527
 30
0.0
 10
-1.0358540852864582
 20
6.2798923068576382
 30
0.0
 10
-1.0234517415364583
 20
6.2771362304687495
 30
0.0
 10
-1.0110493977864583
 20
6.2743801540798607
 30
0.0
 10
-0.9986470540364583
 20
6.2723130967881939
 30
0.0
 10
-0.9862447102864582
 20
6.2702460394965271
 30
0.0
 10
-0.9738423665364583
 20
6.2688680013020823
 30
0.0
 10
-0.9607510036892361
 20
6.2674899631076384
 30
0.0
 10
-0.948348659939236
 20
6.2661119249131936
 30
0.0
 10
-0.9359463161892361
 20
6.2661119249131936
 30
0.0
 10
-0.9230272081163193
 20
6.2661119249131936
 30
0.0
 10
-0.8947774251302083
 20
6.2668009440104164
 30
0.0
 10
-0.8665276421440972
 20
6.2702460394965271
 30
0.0
 10
-0.8389668782552082
 20
6.2771362304687495
 30
0.0
 10
-0.8100280761718749
 20
6.2840264214409718
 30
0.0
 10
-0.7817782931857639
 20
6.2916056315104161
 30
0.0
 10
-0.7542175292968749
 20
6.2998738606770823
 30
0.0
 10
-0.7259677463107638
 20
6.3081420898437495
 30
0.0
 10
-0.6977179633246528
 20
6.3164103190104157
 30
0.0
 10
-0.6701571994357638
 20
6.3239895290798609
 30
0.0
 10
-0.6432854546440971
 20
6.3308797200520823
 30
0.0
 10
-0.6157246907552083
 20
6.3363918728298607
 30
0.0
 10
-0.5881639268663194
 20
6.3398369683159714
 30
0.0
 10
-0.5626702202690972
 20
6.3425930447048602
 30
0.0
 10
-0.5357984754774305
 20
6.3419040256076382
 30
0.0
 10
-0.5103047688802083
 20
6.3370808919270827
 30
0.0
 10
-0.4717196994357639
 20
6.3281236436631936
 30
0.0
 10
-0.4352016872829861
 20
6.3115871853298602
 30
0.0
 10
-0.4035068088107638
 20
6.2881605360243054
 30
0.0
 10
-0.3676778157552083
 20
6.2619778103298609
 30
0.0
 10
-0.3339158799913194
 20
6.2337280273437496
 30
0.0
 10
-0.3029100206163194
 20
6.2027221679687496
 30
0.0
 10
-0.270526123046875
 20
6.1703382703993048
 30
0.0
 10
-0.2374532063802083
 20
6.1386433919270829
 30
0.0
 10
-0.2050693088107639
 20
6.1069485134548609
 30
0.0
 10
-0.1740634494357639
 20
6.0773206922743048
 30
0.0
 10
-0.1409905327690972
 20
6.0504489474826384
 30
0.0
 10
-0.1051615397135417
 20
6.0263332790798607
 30
0.0
 10
-0.0741556803385417
 20
6.0049736870659718
 30
0.0
 10
-0.0376376681857639
 20
5.9918823242187491
 30
0.0
 10
-0.0004306369357639
 20
5.9863701714409716
 30
0.0
 10
0.0367763943142361
 20
5.982236056857638
 30
0.0
 10
0.0739834255642361
 20
5.9870591905381936
 30
0.0
 10
0.107745361328125
 20
6.002217610677083
 30
0.0
 10
0.1456414116753472
 20
6.0187540690104164
 30
0.0
 10
0.1828484429253472
 20
6.0359795464409718
 30
0.0
 10
0.2207444932725694
 20
6.0532050238715271
 30
0.0
 10
0.2600185818142361
 20
6.0718085394965273
 30
0.0
 10
0.2986036512586806
 20
6.0924791124131943
 30
0.0
 10
0.3358106825086805
 20
6.1152167426215271
 30
0.0
 10
0.3716396755642361
 20
6.1351982964409713
 30
0.0
 10
0.4095357259114583
 20
6.1517347547743046
 30
0.0
 10
0.4481207953559027
 20
6.1648261176215273
 30
0.0
 10
0.4825717502170138
 20
6.1765394422743052
 30
0.0
 10
0.5190897623697917
 20
6.1806735568576388
 30
0.0
 10
0.5549187554253472
 20
6.1765394422743052
 30
0.0
 10
0.5811014811197917
 20
6.1724053276909716
 30
0.0
 10
0.6065951877170138
 20
6.1634480794270825
 30
0.0
 10
0.6293328179253471
 20
6.1503567165798607
 30
0.0
 10
0.6541375054253472
 20
6.1358873155381941
 30
0.0
 10
0.6782531738281249
 20
6.1193508572048607
 30
0.0
 10
0.7009908040364583
 20
6.1014363606770825
 30
0.0
 10
0.7244174533420138
 20
6.0821438259548604
 30
0.0
 10
0.7485331217447916
 20
6.0621622721354163
 30
0.0
 10
0.7719597710503472
 20
6.0421807183159713
 30
0.0
 10
0.7953864203559027
 20
6.0221991644965271
 30
0.0
 10
0.8195020887586805
 20
6.002906629774305
 30
0.0
 10
0.8449957953559028
 20
5.9849921332465268
 30
0.0
 10
0.8691114637586804
 20
5.9670776367187495
 30
0.0
 10
0.8952941894531249
 20
5.9526082356770829
 30
0.0
 10
0.9228549533420138
 20
5.940894911024305
 30
0.0
 10
0.9345682779947916
 20
5.9353827582465275
 30
0.0
 10
0.9462816026475693
 20
5.9312486436631939
 30
0.0
 10
0.9586839463975694
 20
5.9284925672743052
 30
0.0
 10
0.9710862901475693
 20
5.9250474717881936
 30
0.0
 10
0.9834886338975694
 20
5.9222913953993048
 30
0.0
 10
0.9958909776475694
 20
5.9195353190104161
 30
0.0
 10
1.0082933213975693
 20
5.9174682617187493
 30
0.0
 10
1.0206956651475694
 20
5.9154012044270825
 30
0.0
 10
1.0330980088975694
 20
5.9140231662326386
 30
0.0
 10
1.0461893717447917
 20
5.9126451280381938
 30
0.0
 10
1.0585917154947915
 20
5.9119561089409718
 30
0.0
 10
1.0716830783420137
 20
5.910578070746527
 30
0.0
 10
1.0840854220920138
 20
5.909200032552083
 30
0.0
 10
1.097176784939236
 20
5.9085110134548602
 30
0.0
 10
1.109579128689236
 20
5.9078219943576382
 30
0.0
  0
LINE
  5
48E
100
AcDbEntity
  8
レイヤー_2
 62
     7
100
AcDbLine
 10
1.986011
 20
-0.541397
 30
0.0
 11
1.869567
 21
-0.541397
 31
0.0
  0
LINE
  5
48D
100
AcDbEntity
  8
レイヤー_2
 62
     7
100
AcDbLine
 10
1.869567
 20
0.525894
 30
0.0
 11
1.869567
 21
-0.541397
 31
0.0
  0
LINE
  5
48C
100
AcDbEntity
  8
レイヤー_2
 62
     7
100
AcDbLine
 10
1.869567
 20
-0.541397
 30
0.0
 11
1.986011
 21
-0.743279
 31
0.0
  0
LINE
  5
48B
100
AcDbEntity
  8
レイヤー_2
 62
     7
100
AcDbLine
 10
-1.869567
 20
-0.541397
 30
0.0
 11
-1.9867
 21
-0.541397
 31
0.0
  0
LINE
  5
48A
100
AcDbEntity
  8
レイヤー_2
 62
     7
100
AcDbLine
 10
-1.869567
 20
-0.541397
 30
0.0
 11
-1.869567
 21
0.525894
 31
0.0
  0
LINE
  5
489
100
AcDbEntity
  8
レイヤー_2
 62
     7
100
AcDbLine
 10
-1.9867
 20
-0.743279
 30
0.0
 11
-1.869567
 21
-0.541397
 31
0.0
  0
LINE
  5
488
100
AcDbEntity
  8
レイヤー_2
 62
     7
100
AcDbLine
 10
-1.096488
 20
0.635448
 30
0.0
 11
-1.576734
 21
0.635448
 31
0.0
  0
LINE
  5
487
100
AcDbEntity
  8
レイヤー_2
 62
     7
100
AcDbLine
 10
-1.096488
 20
3.087667
 30
0.0
 11
-1.096488
 21
0.635448
 31
0.0
  0
LINE
  5
486
100
AcDbEntity
  8
レイヤー_2
 62
     7
100
AcDbLine
 10
-1.576734
 20
3.087667
 30
0.0
 11
-1.096488
 21
3.087667
 31
0.0
  0
LINE
  5
485
100
AcDbEntity
  8
レイヤー_2
 62
     7
100
AcDbLine
 10
-1.576734
 20
3.087667
 30
0.0
 11
-1.576734
 21
0.635448
 31
0.0
  0
LINE
  5
484
100
AcDbEntity
  8
レイヤー_2
 62
     7
100
AcDbLine
 10
-1.752434
 20
4.706862
 30
0.0
 11
-0.000431
 21
4.706862
 31
0.0
  0
LINE
  5
483
100
AcDbEntity
  8
レイヤー_2
 62
     7
100
AcDbLine
 10
-2.453855
 20
0.5004
 30
0.0
 11
-0.000431
 21
0.5004
 31
0.0
  0
LINE
  5
482
100
AcDbEntity
  8
レイヤー_2
 62
     7
100
AcDbLine
 10
-2.687433
 20
0.635448
 30
0.0
 11
-2.453855
 21
0.5004
 31
0.0
  0
LINE
  5
481
100
AcDbEntity
  8
レイヤー_2
 62
     7
100
AcDbLine
 10
-1.752434
 20
4.706862
 30
0.0
 11
-2.559964
 21
3.308842
 31
0.0
  0
LINE
  5
480
100
AcDbEntity
  8
レイヤー_2
 62
     7
100
AcDbLine
 10
-2.687433
 20
3.087667
 30
0.0
 11
-2.687433
 21
0.635448
 31
0.0
  0
LINE
  5
47F
100
AcDbEntity
  8
レイヤー_2
 62
     7
100
AcDbLine
 10
1.179859
 20
4.706862
 30
0.0
 11
-0.000431
 21
4.706862
 31
0.0
  0
LINE
  5
47E
100
AcDbEntity
  8
レイヤー_2
 62
     7
100
AcDbLine
 10
2.044578
 20
0.5004
 30
0.0
 11
-0.000431
 21
0.5004
 31
0.0
  0
LINE
  5
47D
100
AcDbEntity
  8
レイヤー_2
 62
     7
100
AcDbLine
 10
1.576734
 20
0.635448
 30
0.0
 11
1.095799
 21
0.635448
 31
0.0
  0
LINE
  5
47C
100
AcDbEntity
  8
レイヤー_2
 62
     7
100
AcDbLine
 10
1.095799
 20
0.635448
 30
0.0
 11
1.095799
 21
3.087667
 31
0.0
  0
LINE
  5
47B
100
AcDbEntity
  8
レイヤー_2
 62
     7
100
AcDbLine
 10
1.095799
 20
3.087667
 30
0.0
 11
1.576734
 21
3.087667
 31
0.0
  0
LINE
  5
47A
100
AcDbEntity
  8
レイヤー_2
 62
     7
100
AcDbLine
 10
1.576734
 20
0.635448
 30
0.0
 11
1.576734
 21
3.087667
 31
0.0
  0
LINE
  5
479
100
AcDbEntity
  8
レイヤー_2
 62
     7
100
AcDbLine
 10
-0.000431
 20
4.706862
 30
0.0
 11
1.752434
 21
4.706862
 31
0.0
  0
LINE
  5
478
100
AcDbEntity
  8
レイヤー_2
 62
     7
100
AcDbLine
 10
-0.000431
 20
0.5004
 30
0.0
 11
2.453855
 21
0.5004
 31
0.0
  0
LINE
  5
477
100
AcDbEntity
  8
レイヤー_2
 62
     7
100
AcDbLine
 10
2.453855
 20
0.5004
 30
0.0
 11
2.687433
 21
0.635448
 31
0.0
  0
LINE
  5
476
100
AcDbEntity
  8
レイヤー_2
 62
     7
100
AcDbLine
 10
2.687433
 20
3.087667
 30
0.0
 11
1.752434
 21
4.706862
 31
0.0
  0
LINE
  5
475
100
AcDbEntity
  8
レイヤー_2
 62
     7
100
AcDbLine
 10
2.687433
 20
0.635448
 30
0.0
 11
2.687433
 21
3.087667
 31
0.0
  0
LINE
  5
474
100
AcDbEntity
  8
レイヤー_2
 62
     7
100
AcDbLine
 10
-2.559964
 20
3.308842
 30
0.0
 11
-2.687433
 21
3.087667
 31
0.0
  0
SPLINE
  5
473
100
AcDbEntity
  8
レイヤー_2
 62
     7
100
AcDbSpline
210
0.0
220
0.0
230
1.0
 70
     8
 71
     3
 72
     8
 73
     4
 74
     0
 42
0.00000001
 43
0.00000001
 40
0.0
 40
0.0
 40
0.0
 40
0.0
 40
1.0
 40
1.0
 40
1.0
 40
1.0
 10
-1.0964877658420138
 20
0.6354478624131944
 30
0.0
 10
-0.7376810709635416
 20
0.5458753797743056
 30
0.0
 10
-0.369744873046875
 20
0.5004001193576388
 30
0.0
 10
-0.0004306369357639
 20
0.5004001193576388
 30
0.0
  0
SPLINE
  5
472
100
AcDbEntity
  8
レイヤー_2
 62
     7
100
AcDbSpline
210
0.0
220
0.0
230
1.0
 70
     8
 71
     3
 72
     8
 73
     4
 74
     0
 42
0.00000001
 43
0.00000001
 40
0.0
 40
0.0
 40
0.0
 40
0.0
 40
1.0
 40
1.0
 40
1.0
 40
1.0
 10
-2.6874328613281246
 20
0.6354478624131944
 30
0.0
 10
-2.3394782172309028
 20
0.4549248589409722
 30
0.0
 10
-1.9253777398003471
 20
0.4549248589409722
 30
0.0
 10
-1.5767340766059026
 20
0.6354478624131944
 30
0.0
  0
SPLINE
  5
471
100
AcDbEntity
  8
レイヤー_2
 62
     7
100
AcDbSpline
210
0.0
220
0.0
230
1.0
 70
     8
 71
     3
 72
     8
 73
     4
 74
     0
 42
0.00000001
 43
0.00000001
 40
0.0
 40
0.0
 40
0.0
 40
0.0
 40
1.0
 40
1.0
 40
1.0
 40
1.0
 10
-0.0004306369357639
 20
3.4928100585937498
 30
0.0
 10
-0.4021287706163194
 20
3.4928100585937498
 30
0.0
 10
-0.7907355414496528
 20
3.3494940863715277
 30
0.0
 10
-1.0964877658420138
 20
3.087666829427083
 30
0.0
  0
SPLINE
  5
470
100
AcDbEntity
  8
レイヤー_2
 62
     7
100
AcDbSpline
210
0.0
220
0.0
230
1.0
 70
     8
 71
     3
 72
    11
 73
     7
 74
     0
 42
0.00000001
 43
0.00000001
 40
0.0
 40
0.0
 40
0.0
 40
0.0
 40
1.0
 40
1.0
 40
1.0
 40
2.0
 40
2.0
 40
2.0
 40
2.0
 10
-1.5767340766059026
 20
3.087666829427083
 30
0.0
 10
-1.6725077311197916
 20
3.3949693467881943
 30
0.0
 10
-1.9991027832031247
 20
3.5658460828993053
 30
0.0
 10
-2.3057162814670136
 20
3.4693834092881941
 30
0.0
 10
-2.4035569932725691
 20
3.4390665690104165
 30
0.0
 10
-2.4910624186197916
 20
3.3839450412326384
 30
0.0
 10
-2.5599643283420135
 20
3.3088419596354162
 30
0.0
  0
SPLINE
  5
46F
100
AcDbEntity
  8
レイヤー_2
 62
     7
100
AcDbSpline
210
0.0
220
0.0
230
1.0
 70
     8
 71
     3
 72
     8
 73
     4
 74
     0
 42
0.00000001
 43
0.00000001
 40
0.0
 40
0.0
 40
0.0
 40
0.0
 40
1.0
 40
1.0
 40
1.0
 40
1.0
 10
-0.0004306369357639
 20
0.5004001193576388
 30
0.0
 10
0.3695726182725694
 20
0.5004001193576388
 30
0.0
 10
0.737508816189236
 20
0.5458753797743056
 30
0.0
 10
1.0957987467447916
 20
0.6354478624131944
 30
0.0
  0
SPLINE
  5
46E
100
AcDbEntity
  8
レイヤー_2
 62
     7
100
AcDbSpline
210
0.0
220
0.0
230
1.0
 70
     8
 71
     3
 72
     8
 73
     4
 74
     0
 42
0.00000001
 43
0.00000001
 40
0.0
 40
0.0
 40
0.0
 40
0.0
 40
1.0
 40
1.0
 40
1.0
 40
1.0
 10
1.5767340766059026
 20
0.6354478624131944
 30
0.0
 10
1.9253777398003471
 20
0.4549248589409722
 30
0.0
 10
2.3394782172309028
 20
0.4549248589409722
 30
0.0
 10
2.6874328613281246
 20
0.6354478624131944
 30
0.0
  0
SPLINE
  5
46D
100
AcDbEntity
  8
レイヤー_2
 62
     7
100
AcDbSpline
210
0.0
220
0.0
230
1.0
 70
     8
 71
     3
 72
     8
 73
     4
 74
     0
 42
0.00000001
 43
0.00000001
 40
0.0
 40
0.0
 40
0.0
 40
0.0
 40
1.0
 40
1.0
 40
1.0
 40
1.0
 10
1.0957987467447916
 20
3.087666829427083
 30
0.0
 10
0.7905632866753471
 20
3.3494940863715277
 30
0.0
 10
0.4019565158420139
 20
3.4928100585937498
 30
0.0
 10
-0.0004306369357639
 20
3.4928100585937498
 30
0.0
  0
SPLINE
  5
46C
100
AcDbEntity
  8
レイヤー_2
 62
     7
100
AcDbSpline
210
0.0
220
0.0
230
1.0
 70
     8
 71
     3
 72
    11
 73
     7
 74
     0
 42
0.00000001
 43
0.00000001
 40
0.0
 40
0.0
 40
0.0
 40
0.0
 40
1.0
 40
1.0
 40
1.0
 40
2.0
 40
2.0
 40
2.0
 40
2.0
 10
2.6874328613281246
 20
3.087666829427083
 30
0.0
 10
2.5916592068142359
 20
3.3949693467881943
 30
0.0
 10
2.2650641547309025
 20
3.5658460828993053
 30
0.0
 10
1.9584506564670137
 20
3.4693834092881941
 30
0.0
 10
1.776549614800347
 20
3.4128838433159721
 30
0.0
 10
1.6339226616753471
 20
3.2702568901909719
 30
0.0
 10
1.5767340766059026
 20
3.087666829427083
 30
0.0
  0
LINE
  5
46B
100
AcDbEntity
  8
レイヤー_2
 62
     7
100
AcDbLine
 10
-2.774938
 20
-6.131409
 30
0.0
 11
-3.038144
 21
-5.990849
 31
0.0
  0
LINE
  5
46A
100
AcDbEntity
  8
レイヤー_2
 62
     7
100
AcDbLine
 10
3.038144
 20
-5.990849
 30
0.0
 11
2.774938
 21
-6.131409
 31
0.0
  0
LINE
  5
469
100
AcDbEntity
  8
レイヤー_2
 62
     7
100
AcDbLine
 10
-3.038144
 20
-1.316543
 30
0.0
 11
-2.774938
 21
-1.175983
 31
0.0
  0
LINE
  5
468
100
AcDbEntity
  8
レイヤー_2
 62
     7
100
AcDbLine
 10
2.774938
 20
-1.175983
 30
0.0
 11
3.038144
 21
-1.316543
 31
0.0
  0
LINE
  5
467
100
AcDbEntity
  8
レイヤー_2
 62
     7
100
AcDbLine
 10
-2.687433
 20
-6.34156
 30
0.0
 11
2.687433
 21
-6.34156
 31
0.0
  0
LINE
  5
466
100
AcDbEntity
  8
レイヤー_2
 62
     7
100
AcDbLine
 10
-1.844763
 20
-5.990849
 30
0.0
 11
-1.168835
 21
-5.990849
 31
0.0
  0
LINE
  5
465
100
AcDbEntity
  8
レイヤー_2
 62
     7
100
AcDbLine
 10
1.168146
 20
-5.990849
 30
0.0
 11
1.844073
 21
-5.990849
 31
0.0
  0
LINE
  5
464
100
AcDbEntity
  8
レイヤー_2
 62
     7
100
AcDbLine
 10
3.038144
 20
-5.990849
 30
0.0
 11
2.687433
 21
-6.34156
 31
0.0
  0
LINE
  5
463
100
AcDbEntity
  8
レイヤー_2
 62
     7
100
AcDbLine
 10
-3.038144
 20
-5.990849
 30
0.0
 11
-2.687433
 21
-6.34156
 31
0.0
  0
LINE
  5
462
100
AcDbEntity
  8
レイヤー_2
 62
     7
100
AcDbLine
 10
2.687433
 20
-0.965833
 30
0.0
 11
-2.687433
 21
-0.965833
 31
0.0
  0
LINE
  5
461
100
AcDbEntity
  8
レイヤー_2
 62
     7
100
AcDbLine
 10
2.687433
 20
-0.965833
 30
0.0
 11
3.038144
 21
-1.316543
 31
0.0
  0
LINE
  5
460
100
AcDbEntity
  8
レイヤー_2
 62
     7
100
AcDbLine
 10
1.844073
 20
-1.316543
 30
0.0
 11
1.168146
 21
-1.316543
 31
0.0
  0
LINE
  5
45F
100
AcDbEntity
  8
レイヤー_2
 62
     7
100
AcDbLine
 10
-1.168835
 20
-1.316543
 30
0.0
 11
-1.844763
 21
-1.316543
 31
0.0
  0
LINE
  5
45E
100
AcDbEntity
  8
レイヤー_2
 62
     7
100
AcDbLine
 10
-2.687433
 20
-0.965833
 30
0.0
 11
-3.038144
 21
-1.316543
 31
0.0
  0
LINE
  5
45D
100
AcDbEntity
  8
レイヤー_2
 62
     7
100
AcDbLine
 10
-3.038144
 20
-5.990849
 30
0.0
 11
-3.038144
 21
-1.316543
 31
0.0
  0
LINE
  5
45C
100
AcDbEntity
  8
レイヤー_2
 62
     7
100
AcDbLine
 10
-1.844763
 20
-5.990849
 30
0.0
 11
-1.844763
 21
-1.316543
 31
0.0
  0
LINE
  5
45B
100
AcDbEntity
  8
レイヤー_2
 62
     7
100
AcDbLine
 10
-1.168835
 20
-5.990849
 30
0.0
 11
-1.168835
 21
-1.316543
 31
0.0
  0
LINE
  5
45A
100
AcDbEntity
  8
レイヤー_2
 62
     7
100
AcDbLine
 10
1.168146
 20
-5.990849
 30
0.0
 11
1.168146
 21
-1.316543
 31
0.0
  0
LINE
  5
459
100
AcDbEntity
  8
レイヤー_2
 62
     7
100
AcDbLine
 10
1.844073
 20
-5.990849
 30
0.0
 11
1.844073
 21
-1.316543
 31
0.0
  0
LINE
  5
458
100
AcDbEntity
  8
レイヤー_2
 62
     7
100
AcDbLine
 10
3.038144
 20
-5.990849
 30
0.0
 11
3.038144
 21
-1.316543
 31
0.0
  0
SPLINE
  5
457
100
AcDbEntity
  8
レイヤー_2
 62
     7
100
AcDbSpline
210
0.0
220
0.0
230
1.0
 70
     8
 71
     3
 72
     8
 73
     4
 74
     0
 42
0.00000001
 43
0.00000001
 40
0.0
 40
0.0
 40
0.0
 40
0.0
 40
1.0
 40
1.0
 40
1.0
 40
1.0
 10
-2.7749382866753471
 20
-6.1314086914062491
 30
0.0
 10
-2.4683247884114583
 20
-6.2960842556423602
 30
0.0
 10
-2.089364284939236
 20
-6.2388956705729157
 30
0.0
 10
-1.8447625054253471
 20
-5.9908487955729157
 30
0.0
  0
SPLINE
  5
456
100
AcDbEntity
  8
レイヤー_2
 62
     7
100
AcDbSpline
210
0.0
220
0.0
230
1.0
 70
     8
 71
     3
 72
     8
 73
     4
 74
     0
 42
0.00000001
 43
0.00000001
 40
0.0
 40
0.0
 40
0.0
 40
0.0
 40
1.0
 40
1.0
 40
1.0
 40
1.0
 10
1.8440734863281247
 20
-5.9908487955729157
 30
0.0
 10
2.089364284939236
 20
-6.2388956705729157
 30
0.0
 10
2.4676357693142359
 20
-6.2960842556423602
 30
0.0
 10
2.7749382866753471
 20
-6.1314086914062491
 30
0.0
  0
SPLINE
  5
455
100
AcDbEntity
  8
レイヤー_2
 62
     7
100
AcDbSpline
210
0.0
220
0.0
230
1.0
 70
     8
 71
     3
 72
     8
 73
     4
 74
     0
 42
0.00000001
 43
0.00000001
 40
0.0
 40
0.0
 40
0.0
 40
0.0
 40
1.0
 40
1.0
 40
1.0
 40
1.0
 10
-1.1688347710503471
 20
-5.9908487955729157
 30
0.0
 10
-0.4207322862413194
 20
-6.3022854275173605
 30
0.0
 10
0.4205600314670139
 20
-6.3022854275173605
 30
0.0
 10
1.1681457519531249
 20
-5.9908487955729157
 30
0.0
  0
SPLINE
  5
454
100
AcDbEntity
  8
レイヤー_2
 62
     7
100
AcDbSpline
210
0.0
220
0.0
230
1.0
 70
     8
 71
     3
 72
     8
 73
     4
 74
     0
 42
0.00000001
 43
0.00000001
 40
0.0
 40
0.0
 40
0.0
 40
0.0
 40
1.0
 40
1.0
 40
1.0
 40
1.0
 10
-1.8447625054253471
 20
-1.3165432400173609
 30
0.0
 10
-2.089364284939236
 20
-1.0691853841145833
 30
0.0
 10
-2.4683247884114583
 20
-1.0119967990451388
 30
0.0
 10
-2.7749382866753471
 20
-1.1759833441840277
 30
0.0
  0
SPLINE
  5
453
100
AcDbEntity
  8
レイヤー_2
 62
     7
100
AcDbSpline
210
0.0
220
0.0
230
1.0
 70
     8
 71
     3
 72
     8
 73
     4
 74
     0
 42
0.00000001
 43
0.00000001
 40
0.0
 40
0.0
 40
0.0
 40
0.0
 40
1.0
 40
1.0
 40
1.0
 40
1.0
 10
2.7749382866753471
 20
-1.1759833441840277
 30
0.0
 10
2.4676357693142359
 20
-1.0119967990451388
 30
0.0
 10
2.089364284939236
 20
-1.0691853841145833
 30
0.0
 10
1.8440734863281247
 20
-1.3165432400173609
 30
0.0
  0
SPLINE
  5
452
100
AcDbEntity
  8
レイヤー_2
 62
     7
100
AcDbSpline
210
0.0
220
0.0
230
1.0
 70
     8
 71
     3
 72
     8
 73
     4
 74
     0
 42
0.00000001
 43
0.00000001
 40
0.0
 40
0.0
 40
0.0
 40
0.0
 40
1.0
 40
1.0
 40
1.0
 40
1.0
 10
1.1681457519531249
 20
-1.3165432400173609
 30
0.0
 10
0.4205600314670139
 20
-1.0051066080729165
 30
0.0
 10
-0.4207322862413194
 20
-1.0051066080729165
 30
0.0
 10
-1.1688347710503471
 20
-1.3165432400173609
 30
0.0
  0
LINE
  5
451
100
AcDbEntity
  8
レイヤー_2
 62
     7
100
AcDbLine
 10
-1.110268
 20
4.706862
 30
0.0
 11
-1.110268
 21
6.306764
 31
0.0
  0
LINE
  5
450
100
AcDbEntity
  8
レイヤー_2
 62
     7
100
AcDbLine
 10
1.109579
 20
4.706862
 30
0.0
 11
1.109579
 21
5.907822
 31
0.0
  0
LINE
  5
44F
100
AcDbEntity
  8
レイヤー_2
 62
     7
100
AcDbLine
 10
1.986011
 20
-0.743279
 30
0.0
 11
1.986011
 21
0.5004
 31
0.0
  0
LINE
  5
44E
100
AcDbEntity
  8
レイヤー_2
 62
     7
100
AcDbLine
 10
-1.9867
 20
0.5004
 30
0.0
 11
-1.9867
 21
-0.743279
 31
0.0
  0
LINE
  5
44D
100
AcDbEntity
  8
レイヤー_2
 62
     7
100
AcDbLine
 10
-1.869567
 20
-0.541397
 30
0.0
 11
1.869567
 21
-0.541397
 31
0.0
  0
ENDBLK
  5
490
100
AcDbEntity
  8
レイヤー_2
100
AcDbBlockEnd
  0
BLOCK
  5
497
100
AcDbEntity
  8
レイヤー_2
  6
AI9-LType2
 62
     7
100
AcDbBlockBegin
  2
AI9-BLK9
 70
     0
 10
0.0
 20
0.0
 30
0.0
  3
AI9-BLK9
  1

  0
MTEXT
  5
498
100
AcDbEntity
  8
レイヤー_2
  6
AI9-LType2
 62
     7
100
AcDbMText
 10
-7.408333
 20
2.835313
 30
0.0
 40
5.512152
 41
0.0
 71
     1
 72
     2
  1
\fMS Gothic|b0|i0|c128;\H5.5122;\C7;\U+0047\U+0031\U+002F\U+0032
  7
STD
210
0.0
220
0.0
230
1.0
 73
     1
 44
1.0
  0
ENDBLK
  5
499
100
AcDbEntity
  8
レイヤー_2
100
AcDbBlockEnd
  0
BLOCK
  5
49D
100
AcDbEntity
  8
レイヤー_2
  6
AI9-LType2
 62
     7
100
AcDbBlockBegin
  2
AI9-BLK10
 70
     0
 10
0.0
 20
0.0
 30
0.0
  3
AI9-BLK10
  1

  0
SPLINE
  5
4A5
100
AcDbEntity
  8
レイヤー_2
 62
     7
100
AcDbSpline
210
0.0
220
0.0
230
1.0
 70
     8
 71
     3
 72
    17
 73
    13
 74
     0
 42
0.00000001
 43
0.00000001
 40
0.0
 40
0.0
 40
0.0
 40
0.0
 40
1.0
 40
1.0
 40
1.0
 40
2.0
 40
2.0
 40
2.0
 40
3.0
 40
3.0
 40
3.0
 40
4.0
 40
4.0
 40
4.0
 40
4.0
 10
-4.8534505208333325
 20
1.4710557725694444
 30
0.0
 10
-4.8534505208333325
 20
3.5250217013888885
 30
0.0
 10
-6.5188096788194443
 20
5.1903808593749998
 30
0.0
 10
-8.5720865885416657
 20
5.1903808593749998
 30
0.0
 10
-10.62605251736111
 20
5.1903808593749998
 30
0.0
 10
-12.29106716579861
 20
3.5250217013888885
 30
0.0
 10
-12.29106716579861
 20
1.4710557725694444
 30
0.0
 10
-12.29106716579861
 20
-0.5822211371527777
 30
0.0
 10
-10.62605251736111
 20
-2.2468912760416666
 30
0.0
 10
-8.5720865885416657
 20
-2.2468912760416666
 30
0.0
 10
-6.5188096788194443
 20
-2.2468912760416666
 30
0.0
 10
-4.8534505208333325
 20
-0.5822211371527777
 30
0.0
 10
-4.8534505208333325
 20
1.4710557725694444
 30
0.0
  0
LINE
  5
4A4
100
AcDbEntity
  8
レイヤー_2
  6
AI9-LType1
 62
     7
100
AcDbLine
 10
-12.937023
 20
1.471056
 30
0.0
 11
-4.885145
 21
1.471056
 31
0.0
  0
LINE
  5
4A3
100
AcDbEntity
  8
レイヤー_2
 62
     7
100
AcDbLine
 10
-4.885145
 20
1.471056
 30
0.0
 11
-4.035585
 21
1.471056
 31
0.0
  0
LINE
  5
4A2
100
AcDbEntity
  8
レイヤー_2
 62
     7
100
AcDbLine
 10
-1.810742
 20
-5.222076
 30
0.0
 11
-12.254205
 21
5.222076
 31
0.0
  0
LINE
  5
4A1
100
AcDbEntity
  8
レイヤー_2
 62
     7
100
AcDbLine
 10
-1.810742
 20
-5.222076
 30
0.0
 11
12.937023
 21
-5.222076
 31
0.0
  0
LINE
  5
4A0
100
AcDbEntity
  8
レイヤー_2
 62
     7
100
AcDbLine
 10
-12.378228
 20
4.092084
 30
0.0
 11
-9.596658
 21
4.092084
 31
0.0
  0
LINE
  5
49F
100
AcDbEntity
  8
レイヤー_2
 62
     7
100
AcDbLine
 10
-7.303602
 20
-1.118278
 30
0.0
 11
-4.522721
 21
-1.118278
 31
0.0
  0
MTEXT
  5
49E
100
AcDbEntity
  8
レイヤー_2
  6
AI9-LType2
 62
     7
100
AcDbMText
 10
-2.288921
 20
1.377004
 30
0.0
 40
5.512152
 41
0.0
 71
     1
 72
     2
  1
\fMS Gothic|b0|i0|c128;\H5.5122;\C7;\U+03C6\U+0033\U+0035
  7
STD
210
0.0
220
0.0
230
1.0
 73
     1
 44
1.0
  0
ENDBLK
  5
4A6
100
AcDbEntity
  8
レイヤー_2
100
AcDbBlockEnd
  0
ENDSEC
  0
SECTION
  2
ENTITIES
  0
MTEXT
  5
4C3
100
AcDbEntity
  8
レイヤー_1
 62
     7
100
AcDbMText
 10
47.801389
 20
54.121991
 30
0.0
 40
3.674768
 41
0.0
 71
     1
 72
     2
  1
\fOsaka|b0|i0|c128;\H3.6748;\C7;\U+0032\U+0032\U+002E\U+0033\U+0030\U+0032\U+002E\U+0038\U+0039\U+0032\U+002E\U+0058\U+0058
  7
STD
210
0.0
220
0.0
230
1.0
 73
     1
 44
1.0
  0
MTEXT
  5
4C2
100
AcDbEntity
  8
レイヤー_1
 62
     7
100
AcDbMText
 10
39.6875
 20
56.608234
 30
0.0
 40
1.574901
 41
0.0
 71
     1
 72
     2
  1
\fOsaka|b0|i0|c128;\H1.5749;\C7;\U+54C1\U+756A
  7
STD
210
0.0
220
0.0
230
1.0
 73
     1
 44
1.0
  0
MTEXT
  5
4C1
100
AcDbEntity
  8
レイヤー_1
 62
     7
100
AcDbMText
 10
47.801389
 20
32.959209
 30
0.0
 40
3.149486
 41
0.0
 71
     1
 72
     2
  1
\fOsaka|b0|i0|c128;\H3.1495;\C7;\U+FF11\U+7A74\U+578B\U+FF12\U+30D0\U+30EB\U+30D6\U+6D17\U+9762\U+7528\U+6DF7\U+5408\U+6813
  7
STD
210
0.0
220
0.0
230
1.0
 73
     1
 44
1.0
  0
MTEXT
  5
4C0
100
AcDbEntity
  8
レイヤー_1
 62
     7
100
AcDbMText
 10
39.6875
 20
35.441567
 30
0.0
 40
1.574901
 41
0.0
 71
     1
 72
     2
  1
\fOsaka|b0|i0|c128;\H1.5749;\C7;\U+54C1
  7
STD
210
0.0
220
0.0
230
1.0
 73
     1
 44
1.0
  0
MTEXT
  5
4BF
100
AcDbEntity
  8
レイヤー_1
 62
     7
100
AcDbMText
 10
47.319248
 20
43.304752
 30
0.0
 40
3.499429
 41
0.0
 71
     1
 72
     2
  1
\fOsaka|b0|i0|c128;\H3.4994;\W0.90;\C7;\U+FF34\U+FF41\U+FF52\U+FF41
  7
STD
210
0.0
220
0.0
230
1.0
 73
     1
 44
1.0
  0
POLYLINE
  5
4B9
100
AcDbEntity
  8
レイヤー_1
 62
     7
100
AcDb2dPolyline
 66
     1
 10
0.0
 20
0.0
 30
0.0
 70
     1
  0
VERTEX
  5
4BA
100
AcDbEntity
  8
レイヤー_1
 62
     7
100
AcDbVertex
100
AcDb2dVertex
 10
23.636111
 20
26.105556
 30
0.0
  0
VERTEX
  5
4BB
100
AcDbEntity
  8
レイヤー_1
 62
     7
100
AcDbVertex
100
AcDb2dVertex
 10
198.613889
 20
26.105556
 30
0.0
  0
VERTEX
  5
4BC
100
AcDbEntity
  8
レイヤー_1
 62
     7
100
AcDbVertex
100
AcDb2dVertex
 10
198.613889
 20
276.577778
 30
0.0
  0
VERTEX
  5
4BD
100
AcDbEntity
  8
レイヤー_1
 62
     7
100
AcDbVertex
100
AcDb2dVertex
 10
23.636111
 20
276.577778
 30
0.0
  0
SEQEND
  5
4BE
100
AcDbEntity
  8
レイヤー_1
 62
     7
  0
LINE
  5
4B8
100
AcDbEntity
  8
レイヤー_1
 62
     7
100
AcDbLine
 10
170.568056
 20
36.5125
 30
0.0
 11
27.693056
 21
36.5125
 31
0.0
  0
LINE
  5
4B7
100
AcDbEntity
  8
レイヤー_1
 62
     7
100
AcDbLine
 10
170.568056
 20
47.095833
 30
0.0
 11
27.693056
 21
47.095833
 31
0.0
  0
LINE
  5
4B6
100
AcDbEntity
  8
レイヤー_1
 62
     7
100
AcDbLine
 10
23.636111
 20
57.855556
 30
0.0
 11
198.261111
 21
57.855556
 31
0.0
  0
LINE
  5
4B5
100
AcDbEntity
  8
レイヤー_1
 62
     7
100
AcDbLine
 10
170.744444
 20
57.855556
 30
0.0
 11
170.744444
 21
26.458333
 31
0.0
  0
MTEXT
  5
4B4
100
AcDbEntity
  8
レイヤー_1
 62
     7
100
AcDbMText
 10
33.3375
 20
46.024901
 30
0.0
 40
1.574901
 41
0.0
 71
     1
 72
     2
  1
\fOsaka|b0|i0|c128;\H1.5749;\C7;\U+30B7\U+30EA\U+30FC\U+30BA
  7
STD
210
0.0
220
0.0
230
1.0
 73
     1
 44
1.0
  0
MTEXT
  5
4B3
100
AcDbEntity
  8
レイヤー_1
 62
     7
100
AcDbMText
 10
174.095833
 20
54.655042
 30
0.0
 40
3.149486
 41
0.0
 71
     1
 72
     2
  1
\fHeiseiKakuGothicCAN W9|b0|i0|c128;\H3.1495;\C253;\U+5BF8\U+6CD5\U+53C2\U+8003\U+56F3
  7
STD
210
0.0
220
0.0
230
1.0
 73
     1
 44
1.0
  0
LINE
  5
4B2
100
AcDbEntity
  8
レイヤー_1
 62
     7
100
AcDbLine
 10
27.516667
 20
57.855556
 30
0.0
 11
27.516667
 21
26.458333
 31
0.0
  0
IMAGE
  5
4AF
100
AcDbEntity
  8
レイヤー_1
 62
     7
 92
        0
100
AcDbRasterImage
 90
        0
 10
172.155556
 20
28.574682
 30
0.0
 11
0.352531
 21
0.0
 31
0.0
 12
0.0
 22
0.352813
 32
0.0
 13
70.0
 23
9.0
340
4B1
 70
     7
280
     0
281
    50
282
    50
283
     0
360
4B0
 71
     1
 91
        2
 14
-0.5
 24
-0.5
 14
69.5
 24
8.5
  0
IMAGE
  5
4AC
100
AcDbEntity
  8
レイヤー_1
 62
     7
 92
        0
100
AcDbRasterImage
 90
        0
 10
172.155556
 20
28.574682
 30
0.0
 11
0.352531
 21
0.0
 31
0.0
 12
0.0
 22
0.352813
 32
0.0
 13
70.0
 23
9.0
340
4AE
 70
     7
280
     0
281
    50
282
    50
283
     0
360
4AD
 71
     1
 91
        2
 14
-0.5
 24
-0.5
 14
69.5
 24
8.5
  0
MTEXT
  5
4AB
100
AcDbEntity
  8
レイヤー_1
 62
     7
100
AcDbMText
 10
113.418056
 20
46.024901
 30
0.0
 40
1.574901
 41
0.0
 71
     1
 72
     2
  1
\fOsaka|b0|i0|c128;\H1.5749;\C7;\U+4ED5\U+4E0A
  7
STD
210
0.0
220
0.0
230
1.0
 73
     1
 44
1.0
  0
MTEXT
  5
4AA
100
AcDbEntity
  8
レイヤー_1
 62
     7
100
AcDbMText
 10
124.765511
 20
40.968164
 30
0.0
 40
1.162842
 41
0.0
 71
     1
 72
     2
  1
\fOsaka|b0|i0|c128;\H1.1628;\W2.71;\C7;
  7
STD
210
0.0
220
0.0
230
1.0
 73
     1
 44
1.0
  0
HATCH
  5
4A9
100
AcDbEntity
  8
レイヤー_1
 62
     7
100
AcDbHatch
 10
0.0
 20
0.0
 30
0.0
210
0.0
220
0.0
230
1.0
  2
SOLID
 70
     1
 71
     0
 91
        1
 92
        1
 93
        1
 72
     4
 94
        3
 73
     0
 74
     0
 95
       17
 96
       13
 40
0.0
 40
0.0
 40
0.0
 40
0.0
 40
1.0
 40
1.0
 40
1.0
 40
2.0
 40
2.0
 40
2.0
 40
3.0
 40
3.0
 40
3.0
 40
4.0
 40
4.0
 40
4.0
 40
4.0
 10
58.155967881944441
 20
40.211154513888886
 10
58.155967881944441
 20
40.016162109374996
 10
57.998010253906244
 20
39.858376736111104
 10
57.80319010416666
 20
39.858376736111104
 10
57.608369954427076
 20
39.858376736111104
 10
57.450412326388886
 20
40.016162109374996
 10
57.450412326388886
 20
40.211154513888886
 10
57.450412326388886
 20
40.406146918402776
 10
57.608369954427076
 20
40.56393229166666
 10
57.80319010416666
 20
40.56393229166666
 10
57.998010253906244
 20
40.56393229166666
 10
58.155967881944441
 20
40.406146918402776
 10
58.155967881944441
 20
40.211154513888886
 97
        0
 75
     2
 76
     1
 98
        1
 10
0.0
 20
0.0
  0
MTEXT
  5
4A7
100
AcDbEntity
  8
レイヤー_2
 62
     7
100
AcDbMText
 10
36.106324
 20
128.232311
 30
0.0
 40
5.512152
 41
0.0
 71
     1
 72
     2
  1
\fMS Gothic|b0|i0|c128;\H5.5122;\C7;\U+006D\U+0061\U+0078\U+002E\U+0033\U+0035
  7
STD
210
0.0
220
0.0
230
1.0
 11
0.0
 21
1.0
 31
0.0
 73
     1
 44
1.0
  0
INSERT
  5
49C
100
AcDbEntity
  8
レイヤー_2
  6
AI9-LType2
 62
     7
100
AcDbBlockReference
  2
AI9-BLK10
 10
139.946669
 20
102.244922
 30
0.0
  0
INSERT
  5
445
100
AcDbEntity
  8
レイヤー_2
  6
AI9-LType2
 62
     7
100
AcDbBlockReference
  2
AI9-BLK6
 10
84.363498
 20
125.652623
 30
0.0
  0
INSERT
  5
3ED
100
AcDbEntity
  8
レイヤー_2
 62
     7
100
AcDbBlockReference
  2
AI9-BLK2
 10
59.463382
 20
125.652623
 30
0.0
  0
INSERT
  5
3E7
100
AcDbEntity
  8
レイヤー_2
 62
     7
100
AcDbBlockReference
  2
AI9-BLK1
 10
71.224938
 20
97.981272
 30
0.0
  0
MTEXT
  5
3E5
100
AcDbEntity
  8
レイヤー_2
 62
     7
100
AcDbMText
 10
65.601336
 20
233.076901
 30
0.0
 40
5.512152
 41
0.0
 71
     1
 72
     2
  1
\fMS Gothic|b0|i0|c128;\H5.5122;\C7;\U+0031\U+0038\U+0030
  7
STD
210
0.0
220
0.0
230
1.0
 73
     1
 44
1.0
  0
MTEXT
  5
3E4
100
AcDbEntity
  8
レイヤー_2
 62
     7
100
AcDbMText
 10
124.393785
 20
233.076901
 30
0.0
 40
5.512152
 41
0.0
 71
     1
 72
     2
  1
\fMS Gothic|b0|i0|c128;\H5.5122;\C7;\U+0033\U+0030
  7
STD
210
0.0
220
0.0
230
1.0
 73
     1
 44
1.0
  0
MTEXT
  5
3E3
100
AcDbEntity
  8
レイヤー_2
 62
     7
100
AcDbMText
 10
141.533824
 20
162.117925
 30
0.0
 40
5.512152
 41
0.0
 71
     1
 72
     2
  1
\fMS Gothic|b0|i0|c128;\H5.5122;\C7;\U+03C6\U+0035\U+0039
  7
STD
210
0.0
220
0.0
230
1.0
 73
     1
 44
1.0
  0
MTEXT
  5
3E2
100
AcDbEntity
  8
レイヤー_2
 62
     7
100
AcDbMText
 10
36.121999
 20
170.865367
 30
0.0
 40
5.512152
 41
0.0
 71
     1
 72
     2
  1
\fMS Gothic|b0|i0|c128;\H5.5122;\C7;\U+0031\U+0031\U+0037
  7
STD
210
0.0
220
0.0
230
1.0
 11
0.0
 21
1.0
 31
0.0
 73
     1
 44
1.0
  0
MTEXT
  5
3E1
100
AcDbEntity
  8
レイヤー_2
 62
     7
100
AcDbMText
 10
173.511545
 20
171.743867
 30
0.0
 40
5.512152
 41
0.0
 71
     1
 72
     2
  1
\fMS Gothic|b0|i0|c128;\H5.5122;\C7;\U+0031\U+0033\U+0034
  7
STD
210
0.0
220
0.0
230
1.0
 11
0.0
 21
1.0
 31
0.0
 73
     1
 44
1.0
  0
MTEXT
  5
3E0
100
AcDbEntity
  8
レイヤー_2
 62
     7
100
AcDbMText
 10
183.571913
 20
183.577081
 30
0.0
 40
5.512152
 41
0.0
 71
     1
 72
     2
  1
\fMS Gothic|b0|i0|c128;\H5.5122;\C7;\U+0032\U+0033\U+0035
  7
STD
210
0.0
220
0.0
230
1.0
 11
0.0
 21
1.0
 31
0.0
 73
     1
 44
1.0
  0
MTEXT
  5
3DF
100
AcDbEntity
  8
レイヤー_2
 62
     7
100
AcDbMText
 10
137.267763
 20
233.076901
 30
0.0
 40
5.512152
 41
0.0
 71
     1
 72
     2
  1
\fMS Gothic|b0|i0|c128;\H5.5122;\C7;\U+0031\U+0030\U+0030
  7
STD
210
0.0
220
0.0
230
1.0
 73
     1
 44
1.0
  0
POLYLINE
  5
3C4
100
AcDbEntity
  8
レイヤー_2
 62
     7
100
AcDb2dPolyline
 66
     1
 10
0.0
 20
0.0
 30
0.0
  0
VERTEX
  5
3C5
100
AcDbEntity
  8
レイヤー_2
 62
     7
100
AcDbVertex
100
AcDb2dVertex
 10
66.518248
 20
178.710539
 30
0.0
  0
VERTEX
  5
3C6
100
AcDbEntity
  8
レイヤー_2
 62
     7
100
AcDbVertex
100
AcDb2dVertex
 10
66.541158
 20
178.628718
 30
0.0
  0
VERTEX
  5
3C7
100
AcDbEntity
  8
レイヤー_2
 62
     7
100
AcDbVertex
100
AcDb2dVertex
 10
66.57647
 20
178.505556
 30
0.0
  0
VERTEX
  5
3C8
100
AcDbEntity
  8
レイヤー_2
 62
     7
100
AcDbVertex
100
AcDb2dVertex
 10
66.622462
 20
178.343464
 30
0.0
  0
VERTEX
  5
3C9
100
AcDbEntity
  8
レイヤー_2
 62
     7
100
AcDbVertex
100
AcDb2dVertex
 10
66.716686
 20
178.00395
 30
0.0
  0
VERTEX
  5
3CA
100
AcDbEntity
  8
レイヤー_2
 62
     7
100
AcDbVertex
100
AcDb2dVertex
 10
66.824517
 20
177.616032
 30
0.0
  0
VERTEX
  5
3CB
100
AcDbEntity
  8
レイヤー_2
 62
     7
100
AcDbVertex
100
AcDb2dVertex
 10
67.038285
 20
176.826588
 30
0.0
  0
VERTEX
  5
3CC
100
AcDbEntity
  8
レイヤー_2
 62
     7
100
AcDbVertex
100
AcDb2dVertex
 10
67.258944
 20
175.980817
 30
0.0
  0
VERTEX
  5
3CD
100
AcDbEntity
  8
レイヤー_2
 62
     7
100
AcDbVertex
100
AcDb2dVertex
 10
67.475468
 20
175.106624
 30
0.0
  0
VERTEX
  5
3CE
100
AcDbEntity
  8
レイヤー_2
 62
     7
100
AcDbVertex
100
AcDb2dVertex
 10
67.745391
 20
173.922201
 30
0.0
  0
VERTEX
  5
3CF
100
AcDbEntity
  8
レイヤー_2
 62
     7
100
AcDbVertex
100
AcDb2dVertex
 10
67.976729
 20
172.708321
 30
0.0
  0
VERTEX
  5
3D0
100
AcDbEntity
  8
レイヤー_2
 62
     7
100
AcDbVertex
100
AcDb2dVertex
 10
68.13641
 20
171.472738
 30
0.0
  0
VERTEX
  5
3D1
100
AcDbEntity
  8
レイヤー_2
 62
     7
100
AcDbVertex
100
AcDb2dVertex
 10
68.179818
 20
170.75254
 30
0.0
  0
VERTEX
  5
3D2
100
AcDbEntity
  8
レイヤー_2
 62
     7
100
AcDbVertex
100
AcDb2dVertex
 10
68.166899
 20
170.031654
 30
0.0
  0
VERTEX
  5
3D3
100
AcDbEntity
  8
レイヤー_2
 62
     7
100
AcDbVertex
100
AcDb2dVertex
 10
68.073192
 20
169.308012
 30
0.0
  0
VERTEX
  5
3D4
100
AcDbEntity
  8
レイヤー_2
 62
     7
100
AcDbVertex
100
AcDb2dVertex
 10
67.884745
 20
168.622782
 30
0.0
  0
VERTEX
  5
3D5
100
AcDbEntity
  8
レイヤー_2
 62
     7
100
AcDbVertex
100
AcDb2dVertex
 10
67.697677
 20
168.191801
 30
0.0
  0
VERTEX
  5
3D6
100
AcDbEntity
  8
レイヤー_2
 62
     7
100
AcDbVertex
100
AcDb2dVertex
 10
67.480636
 20
167.810429
 30
0.0
  0
VERTEX
  5
3D7
100
AcDbEntity
  8
レイヤー_2
 62
     7
100
AcDbVertex
100
AcDb2dVertex
 10
67.253948
 20
167.487279
 30
0.0
  0
VERTEX
  5
3D8
100
AcDbEntity
  8
レイヤー_2
 62
     7
100
AcDbVertex
100
AcDb2dVertex
 10
67.03484
 20
167.222179
 30
0.0
  0
VERTEX
  5
3D9
100
AcDbEntity
  8
レイヤー_2
 62
     7
100
AcDbVertex
100
AcDb2dVertex
 10
66.832269
 20
167.003932
 30
0.0
  0
VERTEX
  5
3DA
100
AcDbEntity
  8
レイヤー_2
 62
     7
100
AcDbVertex
100
AcDb2dVertex
 10
66.671727
 20
166.846147
 30
0.0
  0
VERTEX
  5
3DB
100
AcDbEntity
  8
レイヤー_2
 62
     7
100
AcDbVertex
100
AcDb2dVertex
 10
66.562001
 20
166.743827
 30
0.0
  0
VERTEX
  5
3DC
100
AcDbEntity
  8
レイヤー_2
 62
     7
100
AcDbVertex
100
AcDb2dVertex
 10
66.518248
 20
166.704381
 30
0.0
  0
VERTEX
  5
3DD
100
AcDbEntity
  8
レイヤー_2
 62
     7
100
AcDbVertex
100
AcDb2dVertex
 10
66.521693
 20
166.707137
 30
0.0
  0
SEQEND
  5
3DE
100
AcDbEntity
  8
レイヤー_2
 62
     7
  0
POLYLINE
  5
3AC
100
AcDbEntity
  8
レイヤー_2
 62
     7
100
AcDb2dPolyline
 66
     1
 10
0.0
 20
0.0
 30
0.0
  0
VERTEX
  5
3AD
100
AcDbEntity
  8
レイヤー_2
 62
     7
100
AcDbVertex
100
AcDb2dVertex
 10
75.582122
 20
166.707137
 30
0.0
  0
VERTEX
  5
3AE
100
AcDbEntity
  8
レイヤー_2
 62
     7
100
AcDbVertex
100
AcDb2dVertex
 10
75.557145
 20
166.730219
 30
0.0
  0
VERTEX
  5
3AF
100
AcDbEntity
  8
レイヤー_2
 62
     7
100
AcDbVertex
100
AcDb2dVertex
 10
75.459649
 20
166.820308
 30
0.0
  0
VERTEX
  5
3B0
100
AcDbEntity
  8
レイヤー_2
 62
     7
100
AcDbVertex
100
AcDb2dVertex
 10
75.299108
 20
166.976888
 30
0.0
  0
VERTEX
  5
3B1
100
AcDbEntity
  8
レイヤー_2
 62
     7
100
AcDbVertex
100
AcDb2dVertex
 10
75.088612
 20
167.200819
 30
0.0
  0
VERTEX
  5
3B2
100
AcDbEntity
  8
レイヤー_2
 62
     7
100
AcDbVertex
100
AcDb2dVertex
 10
74.843666
 20
167.496236
 30
0.0
  0
VERTEX
  5
3B3
100
AcDbEntity
  8
レイヤー_2
 62
     7
100
AcDbVertex
100
AcDb2dVertex
 10
74.588729
 20
167.865034
 30
0.0
  0
VERTEX
  5
3B4
100
AcDbEntity
  8
レイヤー_2
 62
     7
100
AcDbVertex
100
AcDb2dVertex
 10
74.364281
 20
168.279134
 30
0.0
  0
VERTEX
  5
3B5
100
AcDbEntity
  8
レイヤー_2
 62
     7
100
AcDbVertex
100
AcDb2dVertex
 10
74.176351
 20
168.74715
 30
0.0
  0
VERTEX
  5
3B6
100
AcDbEntity
  8
レイヤー_2
 62
     7
100
AcDbVertex
100
AcDb2dVertex
 10
74.048366
 20
169.219645
 30
0.0
  0
VERTEX
  5
3B7
100
AcDbEntity
  8
レイヤー_2
 62
     7
100
AcDbVertex
100
AcDb2dVertex
 10
73.966545
 20
169.711433
 30
0.0
  0
VERTEX
  5
3B8
100
AcDbEntity
  8
レイヤー_2
 62
     7
100
AcDbVertex
100
AcDb2dVertex
 10
73.922792
 20
170.684328
 30
0.0
  0
VERTEX
  5
3B9
100
AcDbEntity
  8
レイヤー_2
 62
     7
100
AcDbVertex
100
AcDb2dVertex
 10
73.98532
 20
171.658256
 30
0.0
  0
VERTEX
  5
3BA
100
AcDbEntity
  8
レイヤー_2
 62
     7
100
AcDbVertex
100
AcDb2dVertex
 10
74.19995
 20
173.130345
 30
0.0
  0
VERTEX
  5
3BB
100
AcDbEntity
  8
レイヤー_2
 62
     7
100
AcDbVertex
100
AcDb2dVertex
 10
74.499501
 20
174.570223
 30
0.0
  0
VERTEX
  5
3BC
100
AcDbEntity
  8
レイヤー_2
 62
     7
100
AcDbVertex
100
AcDb2dVertex
 10
74.839532
 20
175.959285
 30
0.0
  0
VERTEX
  5
3BD
100
AcDbEntity
  8
レイヤー_2
 62
     7
100
AcDbVertex
100
AcDb2dVertex
 10
75.130815
 20
177.068089
 30
0.0
  0
VERTEX
  5
3BE
100
AcDbEntity
  8
レイヤー_2
 62
     7
100
AcDbVertex
100
AcDb2dVertex
 10
75.288944
 20
177.648588
 30
0.0
  0
VERTEX
  5
3BF
100
AcDbEntity
  8
レイヤー_2
 62
     7
100
AcDbVertex
100
AcDb2dVertex
 10
75.433122
 20
178.169142
 30
0.0
  0
VERTEX
  5
3C0
100
AcDbEntity
  8
レイヤー_2
 62
     7
100
AcDbVertex
100
AcDb2dVertex
 10
75.530446
 20
178.513307
 30
0.0
  0
VERTEX
  5
3C1
100
AcDbEntity
  8
レイヤー_2
 62
     7
100
AcDbVertex
100
AcDb2dVertex
 10
75.579022
 20
178.685734
 30
0.0
  0
VERTEX
  5
3C2
100
AcDbEntity
  8
レイヤー_2
 62
     7
100
AcDbVertex
100
AcDb2dVertex
 10
75.585567
 20
178.710539
 30
0.0
  0
SEQEND
  5
3C3
100
AcDbEntity
  8
レイヤー_2
 62
     7
  0
LINE
  5
3AB
100
AcDbEntity
  8
レイヤー_2
 62
     7
100
AcDbLine
 10
57.515697
 20
180.803779
 30
0.0
 11
57.515697
 21
181.394613
 31
0.0
  0
LINE
  5
3AA
100
AcDbEntity
  8
レイヤー_2
 62
     7
100
AcDbLine
 10
59.748808
 20
182.665336
 30
0.0
 11
59.248235
 21
182.665336
 31
0.0
  0
LINE
  5
3A9
100
AcDbEntity
  8
レイヤー_2
 62
     7
100
AcDbLine
 10
84.660638
 20
180.786898
 30
0.0
 11
84.660638
 21
181.431303
 31
0.0
  0
LINE
  5
3A8
100
AcDbEntity
  8
レイヤー_2
 62
     7
100
AcDbLine
 10
82.383602
 20
182.746296
 30
0.0
 11
83.013365
 21
182.746296
 31
0.0
  0
SPLINE
  5
3A7
100
AcDbEntity
  8
レイヤー_2
 62
     7
100
AcDbSpline
210
0.0
220
0.0
230
1.0
 70
     8
 71
     3
 72
    11
 73
     7
 74
     0
 42
0.00000001
 43
0.00000001
 40
0.0
 40
0.0
 40
0.0
 40
0.0
 40
1.0
 40
1.0
 40
1.0
 40
2.0
 40
2.0
 40
2.0
 40
2.0
 10
68.289371744791666
 20
133.40546603732636
 30
0.0
 10
69.418501790364573
 20
133.67590603298609
 30
0.0
 10
70.84115397135416
 20
133.70553385416665
 30
0.0
 10
72.420213487413193
 20
133.0371853298611
 30
0.0
 10
72.974529351128467
 20
132.80257432725693
 30
0.0
 10
73.473551432291657
 20
132.63514268663192
 30
0.0
 10
73.922791883680546
 20
132.52042100694445
 30
0.0
  0
LINE
  5
3A6
100
AcDbEntity
  8
レイヤー_2
 62
     7
100
AcDbLine
 10
70.542809
 20
152.484749
 30
0.0
 11
70.880428
 21
151.900289
 31
0.0
  0
LINE
  5
3A5
100
AcDbEntity
  8
レイヤー_2
 62
     7
100
AcDbLine
 10
73.130248
 20
151.900289
 30
0.0
 11
73.467523
 21
152.484749
 31
0.0
  0
LINE
  5
3A4
100
AcDbEntity
  8
レイヤー_2
 62
     7
100
AcDbLine
 10
73.467523
 20
152.8141
 30
0.0
 11
73.036369
 21
152.88972
 31
0.0
  0
LINE
  5
3A3
100
AcDbEntity
  8
レイヤー_2
 62
     7
100
AcDbLine
 10
70.973101
 20
152.88972
 30
0.0
 11
70.542809
 21
152.8141
 31
0.0
  0
LINE
  5
3A2
100
AcDbEntity
  8
レイヤー_2
 62
     7
100
AcDbLine
 10
73.467523
 20
152.484749
 30
0.0
 11
73.467523
 21
152.8141
 31
0.0
  0
LINE
  5
3A1
100
AcDbEntity
  8
レイヤー_2
 62
     7
100
AcDbLine
 10
70.542809
 20
152.8141
 30
0.0
 11
70.542809
 21
152.484749
 31
0.0
  0
LINE
  5
3A0
100
AcDbEntity
  8
レイヤー_2
 62
     7
100
AcDbLine
 10
73.130248
 20
146.634633
 30
0.0
 11
73.130248
 21
151.900289
 31
0.0
  0
LINE
  5
39F
100
AcDbEntity
  8
レイヤー_2
 62
     7
100
AcDbLine
 10
70.880428
 20
151.900289
 30
0.0
 11
70.880428
 21
146.634633
 31
0.0
  0
LINE
  5
39E
100
AcDbEntity
  8
レイヤー_2
 62
     7
100
AcDbLine
 10
73.534874
 20
146.596392
 30
0.0
 11
73.467523
 21
146.634633
 31
0.0
  0
LINE
  5
39D
100
AcDbEntity
  8
レイヤー_2
 62
     7
100
AcDbLine
 10
73.467523
 20
143.9354
 30
0.0
 11
73.534874
 21
143.973641
 31
0.0
  0
LINE
  5
39C
100
AcDbEntity
  8
レイヤー_2
 62
     7
100
AcDbLine
 10
70.542809
 20
146.634633
 30
0.0
 11
70.47494
 21
146.596392
 31
0.0
  0
LINE
  5
39B
100
AcDbEntity
  8
レイヤー_2
 62
     7
100
AcDbLine
 10
70.47494
 20
143.973641
 30
0.0
 11
70.542809
 21
143.9354
 31
0.0
  0
SPLINE
  5
39A
100
AcDbEntity
  8
レイヤー_2
 62
     7
100
AcDbSpline
210
0.0
220
0.0
230
1.0
 70
     8
 71
     3
 72
     8
 73
     4
 74
     0
 42
0.00000001
 43
0.00000001
 40
0.0
 40
0.0
 40
0.0
 40
0.0
 40
1.0
 40
1.0
 40
1.0
 40
1.0
 10
77.127764214409709
 20
154.35233561197916
 30
0.0
 10
77.127764214409709
 20
154.41434733072916
 30
0.0
 10
77.077638075086796
 20
154.46447347005207
 30
0.0
 10
77.015626356336796
 20
154.46447347005207
 30
0.0
  0
SPLINE
  5
399
100
AcDbEntity
  8
レイヤー_2
 62
     7
100
AcDbSpline
210
0.0
220
0.0
230
1.0
 70
     8
 71
     3
 72
     8
 73
     4
 74
     0
 42
0.00000001
 43
0.00000001
 40
0.0
 40
0.0
 40
0.0
 40
0.0
 40
1.0
 40
1.0
 40
1.0
 40
1.0
 10
77.015626356336796
 20
152.88972032335067
 30
0.0
 10
77.077638075086796
 20
152.88972032335067
 30
0.0
 10
77.127764214409709
 20
152.94001871744791
 30
0.0
 10
77.127764214409709
 20
153.00254720052081
 30
0.0
  0
LINE
  5
398
100
AcDbEntity
  8
レイヤー_2
 62
     7
100
AcDbLine
 10
77.127764
 20
153.002547
 30
0.0
 11
77.127764
 21
154.352336
 31
0.0
  0
LINE
  5
397
100
AcDbEntity
  8
レイヤー_2
 62
     7
100
AcDbLine
 10
65.522271
 20
154.352336
 30
0.0
 11
65.522271
 21
153.002547
 31
0.0
  0
SPLINE
  5
396
100
AcDbEntity
  8
レイヤー_2
 62
     7
100
AcDbSpline
210
0.0
220
0.0
230
1.0
 70
     8
 71
     3
 72
     8
 73
     4
 74
     0
 42
0.00000001
 43
0.00000001
 40
0.0
 40
0.0
 40
0.0
 40
0.0
 40
1.0
 40
1.0
 40
1.0
 40
1.0
 10
65.522271050347214
 20
153.00254720052081
 30
0.0
 10
65.522271050347214
 20
152.94001871744791
 30
0.0
 10
65.572913953993051
 20
152.88972032335067
 30
0.0
 10
65.635270182291663
 20
152.88972032335067
 30
0.0
  0
SPLINE
  5
395
100
AcDbEntity
  8
レイヤー_2
 62
     7
100
AcDbSpline
210
0.0
220
0.0
230
1.0
 70
     8
 71
     3
 72
     8
 73
     4
 74
     0
 42
0.00000001
 43
0.00000001
 40
0.0
 40
0.0
 40
0.0
 40
0.0
 40
1.0
 40
1.0
 40
1.0
 40
1.0
 10
65.635270182291663
 20
154.46447347005207
 30
0.0
 10
65.572913953993051
 20
154.46447347005207
 30
0.0
 10
65.522271050347214
 20
154.41434733072916
 30
0.0
 10
65.522271050347214
 20
154.35233561197916
 30
0.0
  0
LINE
  5
394
100
AcDbEntity
  8
レイヤー_2
 62
     7
100
AcDbLine
 10
71.55515
 20
133.341387
 30
0.0
 11
71.55515
 21
143.9354
 31
0.0
  0
LINE
  5
393
100
AcDbEntity
  8
レイヤー_2
 62
     7
100
AcDbLine
 10
70.655119
 20
161.305055
 30
0.0
 11
70.655119
 21
161.290241
 31
0.0
  0
LINE
  5
392
100
AcDbEntity
  8
レイヤー_2
 62
     7
100
AcDbLine
 10
70.655119
 20
160.516817
 30
0.0
 11
70.655119
 21
158.492479
 31
0.0
  0
LINE
  5
391
100
AcDbEntity
  8
レイヤー_2
 62
     7
100
AcDbLine
 10
70.655119
 20
157.254484
 30
0.0
 11
70.655119
 21
154.801921
 31
0.0
  0
LINE
  5
390
100
AcDbEntity
  8
レイヤー_2
 62
     7
100
AcDbLine
 10
70.655119
 20
152.88972
 30
0.0
 11
70.655119
 21
152.833049
 31
0.0
  0
LINE
  5
38F
100
AcDbEntity
  8
レイヤー_2
 62
     7
100
AcDbLine
 10
70.655119
 20
152.290101
 30
0.0
 11
70.655119
 21
146.634633
 31
0.0
  0
LINE
  5
38E
100
AcDbEntity
  8
レイヤー_2
 62
     7
100
AcDbLine
 10
70.655119
 20
143.9354
 30
0.0
 11
70.655119
 21
133.527422
 31
0.0
  0
SPLINE
  5
38D
100
AcDbEntity
  8
レイヤー_2
 62
     7
100
AcDbSpline
210
0.0
220
0.0
230
1.0
 70
     8
 71
     3
 72
     8
 73
     4
 74
     0
 42
0.00000001
 43
0.00000001
 40
0.0
 40
0.0
 40
0.0
 40
0.0
 40
1.0
 40
1.0
 40
1.0
 40
1.0
 10
74.141899956597214
 20
158.08664686414929
 30
0.0
 10
74.141899956597214
 20
158.2361640082465
 30
0.0
 10
74.100042046440961
 20
158.37620713975693
 30
0.0
 10
74.030106608072913
 20
158.49247911241318
 30
0.0
  0
LINE
  5
38C
100
AcDbEntity
  8
レイヤー_2
 62
     7
100
AcDbLine
 10
74.1419
 20
157.254484
 30
0.0
 11
74.1419
 21
158.086647
 31
0.0
  0
SPLINE
  5
38B
100
AcDbEntity
  8
レイヤー_2
 62
     7
100
AcDbSpline
210
0.0
220
0.0
230
1.0
 70
     8
 71
     3
 72
     8
 73
     4
 74
     0
 42
0.00000001
 43
0.00000001
 40
0.0
 40
0.0
 40
0.0
 40
0.0
 40
1.0
 40
1.0
 40
1.0
 40
1.0
 10
74.141899956597214
 20
160.92299397786456
 30
0.0
 10
74.141899956597214
 20
161.03685438368055
 30
0.0
 10
74.118473307291666
 20
161.14503038194442
 30
0.0
 10
74.077476671006934
 20
161.2371866861979
 30
0.0
  0
SPLINE
  5
38A
100
AcDbEntity
  8
レイヤー_2
 62
     7
100
AcDbSpline
210
0.0
220
0.0
230
1.0
 70
     8
 71
     3
 72
     8
 73
     4
 74
     0
 42
0.00000001
 43
0.00000001
 40
0.0
 40
0.0
 40
0.0
 40
0.0
 40
1.0
 40
1.0
 40
1.0
 40
1.0
 10
74.030106608072913
 20
160.51681722005208
 30
0.0
 10
74.10693223741319
 20
160.64549153645831
 30
0.0
 10
74.143450249565959
 20
160.7872572157118
 30
0.0
 10
74.141899956597214
 20
160.92299397786456
 30
0.0
  0
SPLINE
  5
389
100
AcDbEntity
  8
レイヤー_2
 62
     7
100
AcDbSpline
210
0.0
220
0.0
230
1.0
 70
     8
 71
     3
 72
     8
 73
     4
 74
     0
 42
0.00000001
 43
0.00000001
 40
0.0
 40
0.0
 40
0.0
 40
0.0
 40
1.0
 40
1.0
 40
1.0
 40
1.0
 10
74.077476671006934
 20
161.2371866861979
 30
0.0
 10
74.058184136284709
 20
161.27904459635414
 30
0.0
 10
74.017876519097214
 20
161.30436604817706
 30
0.0
 10
73.973607042100681
 20
161.30505506727428
 30
0.0
  0
LINE
  5
388
100
AcDbEntity
  8
レイヤー_2
 62
     7
100
AcDbLine
 10
74.030107
 20
161.305055
 30
0.0
 11
74.030107
 21
162.474665
 31
0.0
  0
LINE
  5
387
100
AcDbEntity
  8
レイヤー_2
 62
     7
100
AcDbLine
 10
73.917107
 20
132.52111
 30
0.0
 11
73.917107
 21
152.88972
 31
0.0
  0
LINE
  5
386
100
AcDbEntity
  8
レイヤー_2
 62
     7
100
AcDbLine
 10
73.917107
 20
154.801921
 30
0.0
 11
73.917107
 21
157.254484
 31
0.0
  0
LINE
  5
385
100
AcDbEntity
  8
レイヤー_2
 62
     7
100
AcDbLine
 10
71.66746
 20
143.9354
 30
0.0
 11
71.66746
 21
133.308659
 31
0.0
  0
LINE
  5
384
100
AcDbEntity
  8
レイヤー_2
 62
     7
100
AcDbLine
 10
70.767257
 20
157.254484
 30
0.0
 11
70.767257
 21
158.086647
 31
0.0
  0
LINE
  5
383
100
AcDbEntity
  8
レイヤー_2
 62
     7
100
AcDbLine
 10
68.067335
 20
158.086647
 30
0.0
 11
68.067335
 21
157.254484
 31
0.0
  0
SPLINE
  5
382
100
AcDbEntity
  8
レイヤー_2
 62
     7
100
AcDbSpline
210
0.0
220
0.0
230
1.0
 70
     8
 71
     3
 72
     8
 73
     4
 74
     0
 42
0.00000001
 43
0.00000001
 40
0.0
 40
0.0
 40
0.0
 40
0.0
 40
1.0
 40
1.0
 40
1.0
 40
1.0
 10
70.767256673177073
 20
158.08664686414929
 30
0.0
 10
70.767256673177073
 20
158.2361640082465
 30
0.0
 10
70.72539876302082
 20
158.37620713975693
 30
0.0
 10
70.65511881510416
 20
158.49247911241318
 30
0.0
  0
SPLINE
  5
381
100
AcDbEntity
  8
レイヤー_2
 62
     7
100
AcDbSpline
210
0.0
220
0.0
230
1.0
 70
     8
 71
     3
 72
     8
 73
     4
 74
     0
 42
0.00000001
 43
0.00000001
 40
0.0
 40
0.0
 40
0.0
 40
0.0
 40
1.0
 40
1.0
 40
1.0
 40
1.0
 10
68.179817708333331
 20
158.49247911241318
 30
0.0
 10
68.102992078993054
 20
158.36414930555554
 30
0.0
 10
68.066301812065973
 20
158.22272813585067
 30
0.0
 10
68.067335340711793
 20
158.08664686414929
 30
0.0
  0
SPLINE
  5
380
100
AcDbEntity
  8
レイヤー_2
 62
     7
100
AcDbSpline
210
0.0
220
0.0
230
1.0
 70
     8
 71
     3
 72
     8
 73
     4
 74
     0
 42
0.00000001
 43
0.00000001
 40
0.0
 40
0.0
 40
0.0
 40
0.0
 40
1.0
 40
1.0
 40
1.0
 40
1.0
 10
70.767256673177073
 20
160.92299397786456
 30
0.0
 10
70.767256673177073
 20
161.03685438368055
 30
0.0
 10
70.743657769097211
 20
161.14503038194442
 30
0.0
 10
70.70162760416666
 20
161.2371866861979
 30
0.0
  0
SPLINE
  5
37F
100
AcDbEntity
  8
レイヤー_2
 62
     7
100
AcDbSpline
210
0.0
220
0.0
230
1.0
 70
     8
 71
     3
 72
     8
 73
     4
 74
     0
 42
0.00000001
 43
0.00000001
 40
0.0
 40
0.0
 40
0.0
 40
0.0
 40
1.0
 40
1.0
 40
1.0
 40
1.0
 10
70.65511881510416
 20
160.51681722005208
 30
0.0
 10
70.732288953993049
 20
160.64549153645831
 30
0.0
 10
70.768290201822907
 20
160.7872572157118
 30
0.0
 10
70.767256673177073
 20
160.92299397786456
 30
0.0
  0
SPLINE
  5
37E
100
AcDbEntity
  8
レイヤー_2
 62
     7
100
AcDbSpline
210
0.0
220
0.0
230
1.0
 70
     8
 71
     3
 72
     8
 73
     4
 74
     0
 42
0.00000001
 43
0.00000001
 40
0.0
 40
0.0
 40
0.0
 40
0.0
 40
1.0
 40
1.0
 40
1.0
 40
1.0
 10
68.132792154947907
 20
161.2371866861979
 30
0.0
 10
68.02788899739582
 20
160.9956854926215
 30
0.0
 10
68.053382703993051
 20
160.72989637586804
 30
0.0
 10
68.179817708333331
 20
160.51681722005208
 30
0.0
  0
SPLINE
  5
37D
100
AcDbEntity
  8
レイヤー_2
 62
     7
100
AcDbSpline
210
0.0
220
0.0
230
1.0
 70
     8
 71
     3
 72
     8
 73
     4
 74
     0
 42
0.00000001
 43
0.00000001
 40
0.0
 40
0.0
 40
0.0
 40
0.0
 40
1.0
 40
1.0
 40
1.0
 40
1.0
 10
70.70162760416666
 20
161.2371866861979
 30
0.0
 10
70.684229871961804
 20
161.27904459635414
 30
0.0
 10
70.642716471354163
 20
161.30436604817706
 30
0.0
 10
70.598963758680554
 20
161.30505506727428
 30
0.0
  0
SPLINE
  5
37C
100
AcDbEntity
  8
レイヤー_2
 62
     7
100
AcDbSpline
210
0.0
220
0.0
230
1.0
 70
     8
 71
     3
 72
     8
 73
     4
 74
     0
 42
0.00000001
 43
0.00000001
 40
0.0
 40
0.0
 40
0.0
 40
0.0
 40
1.0
 40
1.0
 40
1.0
 40
1.0
 10
68.235972764756937
 20
161.30505506727428
 30
0.0
 10
68.190325249565973
 20
161.30505506727428
 30
0.0
 10
68.151051161024299
 20
161.2771497938368
 30
0.0
 10
68.132792154947907
 20
161.2371866861979
 30
0.0
  0
LINE
  5
37B
100
AcDbEntity
  8
レイヤー_2
 62
     7
100
AcDbLine
 10
70.655119
 20
161.305055
 30
0.0
 11
70.655119
 21
162.474665
 31
0.0
  0
LINE
  5
37A
100
AcDbEntity
  8
レイヤー_2
 62
     7
100
AcDbLine
 10
68.179818
 20
162.474665
 30
0.0
 11
68.179818
 21
161.305055
 31
0.0
  0
LINE
  5
379
100
AcDbEntity
  8
レイヤー_2
 62
     7
100
AcDbLine
 10
70.542809
 20
133.541892
 30
0.0
 11
70.542809
 21
143.9354
 31
0.0
  0
LINE
  5
378
100
AcDbEntity
  8
レイヤー_2
 62
     7
100
AcDbLine
 10
70.542809
 20
146.634633
 30
0.0
 11
70.542809
 21
152.484749
 31
0.0
  0
LINE
  5
377
100
AcDbEntity
  8
レイヤー_2
 62
     7
100
AcDbLine
 10
70.542809
 20
152.8141
 30
0.0
 11
70.542809
 21
152.88972
 31
0.0
  0
LINE
  5
376
100
AcDbEntity
  8
レイヤー_2
 62
     7
100
AcDbLine
 10
70.542809
 20
154.801921
 30
0.0
 11
70.542809
 21
157.254484
 31
0.0
  0
LINE
  5
375
100
AcDbEntity
  8
レイヤー_2
 62
     7
100
AcDbLine
 10
68.292128
 20
157.254484
 30
0.0
 11
68.292128
 21
154.801921
 31
0.0
  0
LINE
  5
374
100
AcDbEntity
  8
レイヤー_2
 62
     7
100
AcDbLine
 10
68.292128
 20
152.88972
 30
0.0
 11
68.292128
 21
133.4065
 31
0.0
  0
LINE
  5
373
100
AcDbEntity
  8
レイヤー_2
 62
     7
100
AcDbLine
 10
72.904766
 20
154.801921
 30
0.0
 11
72.904766
 21
162.474665
 31
0.0
  0
LINE
  5
372
100
AcDbEntity
  8
レイヤー_2
 62
     7
100
AcDbLine
 10
71.104704
 20
162.474665
 30
0.0
 11
71.104704
 21
154.801921
 31
0.0
  0
LINE
  5
371
100
AcDbEntity
  8
レイヤー_2
 62
     7
100
AcDbLine
 10
83.773698
 20
177.762965
 30
0.0
 11
84.17953
 21
178.245795
 31
0.0
  0
LINE
  5
370
100
AcDbEntity
  8
レイヤー_2
 62
     7
100
AcDbLine
 10
79.956532
 20
181.788732
 30
0.0
 11
79.551217
 21
181.306074
 31
0.0
  0
LINE
  5
36F
100
AcDbEntity
  8
レイヤー_2
 62
     7
100
AcDbLine
 10
62.658708
 20
181.306074
 30
0.0
 11
62.253392
 21
181.788732
 31
0.0
  0
LINE
  5
36E
100
AcDbEntity
  8
レイヤー_2
 62
     7
100
AcDbLine
 10
58.031083
 20
178.245795
 30
0.0
 11
58.435365
 21
177.762965
 31
0.0
  0
LINE
  5
36D
100
AcDbEntity
  8
レイヤー_2
 62
     7
100
AcDbLine
 10
82.257167
 20
182.563017
 30
0.0
 11
80.98162
 21
181.016341
 31
0.0
  0
LINE
  5
36C
100
AcDbEntity
  8
レイヤー_2
 62
     7
100
AcDbLine
 10
83.240053
 20
179.121022
 30
0.0
 11
84.541954
 21
180.64496
 31
0.0
  0
SPLINE
  5
36B
100
AcDbEntity
  8
レイヤー_2
 62
     7
100
AcDbSpline
210
0.0
220
0.0
230
1.0
 70
     8
 71
     3
 72
     8
 73
     4
 74
     0
 42
0.00000001
 43
0.00000001
 40
0.0
 40
0.0
 40
0.0
 40
0.0
 40
1.0
 40
1.0
 40
1.0
 40
1.0
 10
83.14514024522569
 20
179.11258138020833
 30
0.0
 10
83.17373453776041
 20
179.08881022135415
 30
0.0
 10
83.215764702690961
 20
179.09277208116319
 30
0.0
 10
83.240052625868046
 20
179.1210218641493
 30
0.0
  0
SPLINE
  5
36A
100
AcDbEntity
  8
レイヤー_2
 62
     7
100
AcDbSpline
210
0.0
220
0.0
230
1.0
 70
     8
 71
     3
 72
     8
 73
     4
 74
     0
 42
0.00000001
 43
0.00000001
 40
0.0
 40
0.0
 40
0.0
 40
0.0
 40
1.0
 40
1.0
 40
1.0
 40
1.0
 10
80.981620279947904
 20
181.01634114583331
 30
0.0
 10
80.957676866319431
 20
180.9879191080729
 30
0.0
 10
80.96163872612847
 20
180.94502766927081
 30
0.0
 10
80.989888509114579
 20
180.92160101996527
 30
0.0
  0
SPLINE
  5
369
100
AcDbEntity
  8
レイヤー_2
 62
     7
100
AcDbSpline
210
0.0
220
0.0
230
1.0
 70
     8
 71
     3
 72
     8
 73
     4
 74
     0
 42
0.00000001
 43
0.00000001
 40
0.0
 40
0.0
 40
0.0
 40
0.0
 40
1.0
 40
1.0
 40
1.0
 40
1.0
 10
89.408668348524301
 20
176.79437662760415
 30
0.0
 10
89.484977213541654
 20
176.73047010633678
 30
0.0
 10
89.598148600260402
 20
176.7404608832465
 30
0.0
 10
89.662571885850681
 20
176.81694200303818
 30
0.0
  0
SPLINE
  5
368
100
AcDbEntity
  8
レイヤー_2
 62
     7
100
AcDbSpline
210
0.0
220
0.0
230
1.0
 70
     8
 71
     3
 72
     8
 73
     4
 74
     0
 42
0.00000001
 43
0.00000001
 40
0.0
 40
0.0
 40
0.0
 40
0.0
 40
1.0
 40
1.0
 40
1.0
 40
1.0
 10
91.281077745225687
 20
178.8113077799479
 30
0.0
 10
91.281077745225687
 20
178.86608479817707
 30
0.0
 10
91.255928548177081
 20
178.91552191840276
 30
0.0
 10
91.216309950086796
 20
178.94962836371525
 30
0.0
  0
SPLINE
  5
367
100
AcDbEntity
  8
レイヤー_2
 62
     7
100
AcDbSpline
210
0.0
220
0.0
230
1.0
 70
     8
 71
     3
 72
     8
 73
     4
 74
     0
 42
0.00000001
 43
0.00000001
 40
0.0
 40
0.0
 40
0.0
 40
0.0
 40
1.0
 40
1.0
 40
1.0
 40
1.0
 10
91.239219835069434
 20
178.69538031684027
 30
0.0
 10
91.267125108506931
 20
178.72965901692706
 30
0.0
 10
91.281422254774299
 20
178.77031114366318
 30
0.0
 10
91.281077745225687
 20
178.8113077799479
 30
0.0
  0
LINE
  5
366
100
AcDbEntity
  8
レイヤー_2
 62
     7
100
AcDbLine
 10
84.793791
 20
180.666664
 30
0.0
 11
89.408668
 21
176.794377
 31
0.0
  0
LINE
  5
365
100
AcDbEntity
  8
レイヤー_2
 62
     7
100
AcDbLine
 10
91.21631
 20
178.949628
 30
0.0
 11
85.321752
 21
183.894718
 31
0.0
  0
LINE
  5
364
100
AcDbEntity
  8
レイヤー_2
 62
     7
100
AcDbLine
 10
77.619552
 20
186.686796
 30
0.0
 11
82.237874
 21
182.811408
 31
0.0
  0
LINE
  5
363
100
AcDbEntity
  8
レイヤー_2
 62
     7
100
AcDbLine
 10
85.321752
 20
183.894718
 30
0.0
 11
79.427193
 21
188.841359
 31
0.0
  0
SPLINE
  5
362
100
AcDbEntity
  8
レイヤー_2
 62
     7
100
AcDbSpline
210
0.0
220
0.0
230
1.0
 70
     8
 71
     3
 72
     8
 73
     4
 74
     0
 42
0.00000001
 43
0.00000001
 40
0.0
 40
0.0
 40
0.0
 40
0.0
 40
1.0
 40
1.0
 40
1.0
 40
1.0
 10
79.427193196614581
 20
188.8413587782118
 30
0.0
 10
79.351228841145826
 20
188.90526529947914
 30
0.0
 10
79.237540690104154
 20
188.89527452256942
 30
0.0
 10
79.173289659288187
 20
188.81931016710067
 30
0.0
  0
SPLINE
  5
361
100
AcDbEntity
  8
レイヤー_2
 62
     7
100
AcDbSpline
210
0.0
220
0.0
230
1.0
 70
     8
 71
     3
 72
     8
 73
     4
 74
     0
 42
0.00000001
 43
0.00000001
 40
0.0
 40
0.0
 40
0.0
 40
0.0
 40
1.0
 40
1.0
 40
1.0
 40
1.0
 10
77.597330729166657
 20
186.9410441080729
 30
0.0
 10
77.53307969835069
 20
186.86473524305555
 30
0.0
 10
77.543070475260407
 20
186.75087483723956
 30
0.0
 10
77.619551595052073
 20
186.6867960611979
 30
0.0
  0
SPLINE
  5
360
100
AcDbEntity
  8
レイヤー_2
 62
     7
100
AcDbSpline
210
0.0
220
0.0
230
1.0
 70
     8
 71
     3
 72
     8
 73
     4
 74
     0
 42
0.00000001
 43
0.00000001
 40
0.0
 40
0.0
 40
0.0
 40
0.0
 40
1.0
 40
1.0
 40
1.0
 40
1.0
 10
82.300919596354163
 20
182.67739393446178
 30
0.0
 10
82.300919596354163
 20
182.7307929144965
 30
0.0
 10
82.276114908854154
 20
182.77902425130208
 30
0.0
 10
82.23632405598957
 20
182.80985785590275
 30
0.0
  0
SPLINE
  5
35F
100
AcDbEntity
  8
レイヤー_2
 62
     7
100
AcDbSpline
210
0.0
220
0.0
230
1.0
 70
     8
 71
     3
 72
     8
 73
     4
 74
     0
 42
0.00000001
 43
0.00000001
 40
0.0
 40
0.0
 40
0.0
 40
0.0
 40
1.0
 40
1.0
 40
1.0
 40
1.0
 10
82.256477864583331
 20
182.56387803819442
 30
0.0
 10
82.286277940538184
 20
182.59591742621527
 30
0.0
 10
82.300919596354163
 20
182.63674180772568
 30
0.0
 10
82.300919596354163
 20
182.67739393446178
 30
0.0
  0
SPLINE
  5
35E
100
AcDbEntity
  8
レイヤー_2
 62
     7
100
AcDbSpline
210
0.0
220
0.0
230
1.0
 70
     8
 71
     3
 72
     8
 73
     4
 74
     0
 42
0.00000001
 43
0.00000001
 40
0.0
 40
0.0
 40
0.0
 40
0.0
 40
1.0
 40
1.0
 40
1.0
 40
1.0
 10
84.79430745442707
 20
180.66666395399304
 30
0.0
 10
84.718343098958329
 20
180.72988145616318
 30
0.0
 10
84.605860731336804
 20
180.72006293402777
 30
0.0
 10
84.541954210069434
 20
180.64495985243053
 30
0.0
  0
LINE
  5
35D
100
AcDbEntity
  8
レイヤー_2
 62
     7
100
AcDbLine
 10
57.66797
 20
180.645304
 30
0.0
 11
58.969872
 21
179.121022
 31
0.0
  0
LINE
  5
35C
100
AcDbEntity
  8
レイヤー_2
 62
     7
100
AcDbLine
 10
61.228993
 20
181.016341
 30
0.0
 11
59.953446
 21
182.563017
 31
0.0
  0
SPLINE
  5
35B
100
AcDbEntity
  8
レイヤー_2
 62
     7
100
AcDbSpline
210
0.0
220
0.0
230
1.0
 70
     8
 71
     3
 72
     8
 73
     4
 74
     0
 42
0.00000001
 43
0.00000001
 40
0.0
 40
0.0
 40
0.0
 40
0.0
 40
1.0
 40
1.0
 40
1.0
 40
1.0
 10
61.244151475694437
 20
180.97327745225692
 30
0.0
 10
61.244151475694437
 20
180.98946940104165
 30
0.0
 10
61.23829481336805
 20
181.00462782118055
 30
0.0
 10
61.228993055555549
 20
181.01634114583331
 30
0.0
  0
SPLINE
  5
35A
100
AcDbEntity
  8
レイヤー_2
 62
     7
100
AcDbSpline
210
0.0
220
0.0
230
1.0
 70
     8
 71
     3
 72
     8
 73
     4
 74
     0
 42
0.00000001
 43
0.00000001
 40
0.0
 40
0.0
 40
0.0
 40
0.0
 40
1.0
 40
1.0
 40
1.0
 40
1.0
 10
61.219691297743047
 20
180.92160101996527
 30
0.0
 10
61.235710991753464
 20
180.93452012803817
 30
0.0
 10
61.244151475694437
 20
180.95346815321179
 30
0.0
 10
61.244151475694437
 20
180.97327745225692
 30
0.0
  0
SPLINE
  5
359
100
AcDbEntity
  8
レイヤー_2
 62
     7
100
AcDbSpline
210
0.0
220
0.0
230
1.0
 70
     8
 71
     3
 72
     8
 73
     4
 74
     0
 42
0.00000001
 43
0.00000001
 40
0.0
 40
0.0
 40
0.0
 40
0.0
 40
1.0
 40
1.0
 40
1.0
 40
1.0
 10
58.969871690538191
 20
179.1210218641493
 30
0.0
 10
58.993470594618053
 20
179.09277208116319
 30
0.0
 10
59.036189778645827
 20
179.08881022135415
 30
0.0
 10
59.064784071180547
 20
179.11258138020833
 30
0.0
  0
SPLINE
  5
358
100
AcDbEntity
  8
レイヤー_2
 62
     7
100
AcDbSpline
210
0.0
220
0.0
230
1.0
 70
     8
 71
     3
 72
     8
 73
     4
 74
     0
 42
0.00000001
 43
0.00000001
 40
0.0
 40
0.0
 40
0.0
 40
0.0
 40
1.0
 40
1.0
 40
1.0
 40
1.0
 10
64.654796006944437
 20
186.82477213541665
 30
0.0
 10
64.654796006944437
 20
186.86938612196178
 30
0.0
 10
64.639293077256937
 20
186.90969373914928
 30
0.0
 10
64.612938096788184
 20
186.9410441080729
 30
0.0
  0
SPLINE
  5
357
100
AcDbEntity
  8
レイヤー_2
 62
     7
100
AcDbSpline
210
0.0
220
0.0
230
1.0
 70
     8
 71
     3
 72
     8
 73
     4
 74
     0
 42
0.00000001
 43
0.00000001
 40
0.0
 40
0.0
 40
0.0
 40
0.0
 40
1.0
 40
1.0
 40
1.0
 40
1.0
 10
64.590372721354157
 20
186.6867960611979
 30
0.0
 10
64.633091905381931
 20
186.72279730902775
 30
0.0
 10
64.654796006944437
 20
186.77292344835067
 30
0.0
 10
64.654796006944437
 20
186.82477213541665
 30
0.0
  0
SPLINE
  5
356
100
AcDbEntity
  8
レイヤー_2
 62
     7
100
AcDbSpline
210
0.0
220
0.0
230
1.0
 70
     8
 71
     3
 72
     8
 73
     4
 74
     0
 42
0.00000001
 43
0.00000001
 40
0.0
 40
0.0
 40
0.0
 40
0.0
 40
1.0
 40
1.0
 40
1.0
 40
1.0
 10
63.036290147569439
 20
188.81931016710067
 30
0.0
 10
62.972728135850687
 20
188.89527452256942
 30
0.0
 10
62.859212239583329
 20
188.90526529947914
 30
0.0
 10
62.782903374565969
 20
188.8413587782118
 30
0.0
  0
LINE
  5
355
100
AcDbEntity
  8
レイヤー_2
 62
     7
100
AcDbLine
 10
59.976012
 20
182.814681
 30
0.0
 11
64.590373
 21
186.686796
 31
0.0
  0
LINE
  5
354
100
AcDbEntity
  8
レイヤー_2
 62
     7
100
AcDbLine
 10
62.782903
 20
188.841359
 30
0.0
 11
56.888173
 21
183.894718
 31
0.0
  0
LINE
  5
353
100
AcDbEntity
  8
レイヤー_2
 62
     7
100
AcDbLine
 10
52.8016
 20
176.794377
 30
0.0
 11
57.42044
 21
180.670454
 31
0.0
  0
LINE
  5
352
100
AcDbEntity
  8
レイヤー_2
 62
     7
100
AcDbLine
 10
56.888173
 20
183.894718
 30
0.0
 11
50.99327
 21
178.949628
 31
0.0
  0
SPLINE
  5
351
100
AcDbEntity
  8
レイヤー_2
 62
     7
100
AcDbSpline
210
0.0
220
0.0
230
1.0
 70
     8
 71
     3
 72
     8
 73
     4
 74
     0
 42
0.00000001
 43
0.00000001
 40
0.0
 40
0.0
 40
0.0
 40
0.0
 40
1.0
 40
1.0
 40
1.0
 40
1.0
 10
50.99326985677083
 20
178.94962836371525
 30
0.0
 10
50.917305501302081
 20
178.88503282335068
 30
0.0
 10
50.907486979166663
 20
178.77151692708333
 30
0.0
 10
50.97122124565972
 20
178.69538031684027
 30
0.0
  0
SPLINE
  5
350
100
AcDbEntity
  8
レイヤー_2
 62
     7
100
AcDbSpline
210
0.0
220
0.0
230
1.0
 70
     8
 71
     3
 72
     8
 73
     4
 74
     0
 42
0.00000001
 43
0.00000001
 40
0.0
 40
0.0
 40
0.0
 40
0.0
 40
1.0
 40
1.0
 40
1.0
 40
1.0
 10
52.547352430555549
 20
176.81694200303818
 30
0.0
 10
52.611431206597217
 20
176.7404608832465
 30
0.0
 10
52.724947102864576
 20
176.73047010633678
 30
0.0
 10
52.801600477430554
 20
176.79437662760415
 30
0.0
  0
SPLINE
  5
34F
100
AcDbEntity
  8
レイヤー_2
 62
     7
100
AcDbSpline
210
0.0
220
0.0
230
1.0
 70
     8
 71
     3
 72
    11
 73
     7
 74
     0
 42
0.00000001
 43
0.00000001
 40
0.0
 40
0.0
 40
0.0
 40
0.0
 40
1.0
 40
1.0
 40
1.0
 40
2.0
 40
2.0
 40
2.0
 40
2.0
 10
57.666936577690969
 20
180.64495985243053
 30
0.0
 10
57.634380425347217
 20
180.68836805555554
 30
0.0
 10
57.584771050347214
 20
180.71162245008679
 30
0.0
 10
57.533955891927079
 20
180.71162245008679
 30
0.0
 10
57.490547688802081
 20
180.71162245008679
 30
0.0
 10
57.450929090711803
 20
180.69491373697915
 30
0.0
 10
57.421129014756936
 20
180.66752522786456
 30
0.0
  0
SPLINE
  5
34E
100
AcDbEntity
  8
レイヤー_2
 62
     7
100
AcDbSpline
210
0.0
220
0.0
230
1.0
 70
     8
 71
     3
 72
     8
 73
     4
 74
     0
 42
0.00000001
 43
0.00000001
 40
0.0
 40
0.0
 40
0.0
 40
0.0
 40
1.0
 40
1.0
 40
1.0
 40
1.0
 10
59.97601182725694
 20
182.81502549913193
 30
0.0
 10
59.900736490885414
 20
182.75111897786456
 30
0.0
 10
59.89074571397569
 20
182.63898111979165
 30
0.0
 10
59.953446451822913
 20
182.5630167643229
 30
0.0
  0
LINE
  5
34D
100
AcDbEntity
  8
レイヤー_2
 62
     7
100
AcDbLine
 10
67.664776
 20
168.427101
 30
0.0
 11
67.687514
 21
168.399885
 31
0.0
  0
LINE
  5
34C
100
AcDbEntity
  8
レイヤー_2
 62
     7
100
AcDbLine
 10
64.4679
 20
164.589781
 30
0.0
 11
64.4679
 21
162.677409
 31
0.0
  0
LINE
  5
34B
100
AcDbEntity
  8
レイヤー_2
 62
     7
100
AcDbLine
 10
77.742714
 20
162.677409
 30
0.0
 11
77.742714
 21
164.589781
 31
0.0
  0
SPLINE
  5
34A
100
AcDbEntity
  8
レイヤー_2
 62
     7
100
AcDbSpline
210
0.0
220
0.0
230
1.0
 70
     8
 71
     3
 72
     8
 73
     4
 74
     0
 42
0.00000001
 43
0.00000001
 40
0.0
 40
0.0
 40
0.0
 40
0.0
 40
1.0
 40
1.0
 40
1.0
 40
1.0
 10
77.742713758680551
 20
164.58978135850694
 30
0.0
 10
77.742713758680551
 20
164.65213758680554
 30
0.0
 10
77.691898600260416
 20
164.70209147135415
 30
0.0
 10
77.630059136284714
 20
164.70209147135415
 30
0.0
  0
SPLINE
  5
349
100
AcDbEntity
  8
レイヤー_2
 62
     7
100
AcDbSpline
210
0.0
220
0.0
230
1.0
 70
     8
 71
     3
 72
     8
 73
     4
 74
     0
 42
0.00000001
 43
0.00000001
 40
0.0
 40
0.0
 40
0.0
 40
0.0
 40
1.0
 40
1.0
 40
1.0
 40
1.0
 10
64.579692925347217
 20
164.70209147135415
 30
0.0
 10
64.517681206597217
 20
164.70209147135415
 30
0.0
 10
64.467899576822916
 20
164.65213758680554
 30
0.0
 10
64.467899576822916
 20
164.58978135850694
 30
0.0
  0
SPLINE
  5
348
100
AcDbEntity
  8
レイヤー_2
 62
     7
100
AcDbSpline
210
0.0
220
0.0
230
1.0
 70
     8
 71
     3
 72
     8
 73
     4
 74
     0
 42
0.00000001
 43
0.00000001
 40
0.0
 40
0.0
 40
0.0
 40
0.0
 40
1.0
 40
1.0
 40
1.0
 40
1.0
 10
66.627629937065961
 20
164.88226996527777
 30
0.0
 10
66.627629937065961
 20
164.78270670572914
 30
0.0
 10
66.708245171440964
 20
164.70209147135415
 30
0.0
 10
66.807808430989581
 20
164.70209147135415
 30
0.0
  0
SPLINE
  5
347
100
AcDbEntity
  8
レイヤー_2
 62
     7
100
AcDbSpline
210
0.0
220
0.0
230
1.0
 70
     8
 71
     3
 72
     8
 73
     4
 74
     0
 42
0.00000001
 43
0.00000001
 40
0.0
 40
0.0
 40
0.0
 40
0.0
 40
1.0
 40
1.0
 40
1.0
 40
1.0
 10
75.402288140190961
 20
164.70209147135415
 30
0.0
 10
75.50219590928819
 20
164.70209147135415
 30
0.0
 10
75.58212212456597
 20
164.78270670572914
 30
0.0
 10
75.58212212456597
 20
164.88226996527777
 30
0.0
  0
SPLINE
  5
346
100
AcDbEntity
  8
レイヤー_2
 62
     7
100
AcDbSpline
210
0.0
220
0.0
230
1.0
 70
     8
 71
     3
 72
     8
 73
     4
 74
     0
 42
0.00000001
 43
0.00000001
 40
0.0
 40
0.0
 40
0.0
 40
0.0
 40
1.0
 40
1.0
 40
1.0
 40
1.0
 10
75.58212212456597
 20
182.29722764756943
 30
0.0
 10
75.58212212456597
 20
182.39679090711803
 30
0.0
 10
75.50219590928819
 20
182.47671712239583
 30
0.0
 10
75.402288140190961
 20
182.47671712239583
 30
0.0
  0
SPLINE
  5
345
100
AcDbEntity
  8
レイヤー_2
 62
     7
100
AcDbSpline
210
0.0
220
0.0
230
1.0
 70
     8
 71
     3
 72
     8
 73
     4
 74
     0
 42
0.00000001
 43
0.00000001
 40
0.0
 40
0.0
 40
0.0
 40
0.0
 40
1.0
 40
1.0
 40
1.0
 40
1.0
 10
66.807808430989581
 20
182.47671712239583
 30
0.0
 10
66.708245171440964
 20
182.47671712239583
 30
0.0
 10
66.627629937065961
 20
182.39679090711803
 30
0.0
 10
66.627629937065961
 20
182.29722764756943
 30
0.0
  0
LINE
  5
344
100
AcDbEntity
  8
レイヤー_2
 62
     7
100
AcDbLine
 10
75.582122
 20
178.724836
 30
0.0
 11
75.582122
 21
182.297228
 31
0.0
  0
LINE
  5
343
100
AcDbEntity
  8
レイヤー_2
 62
     7
100
AcDbLine
 10
75.582122
 20
164.88227
 30
0.0
 11
75.582122
 21
166.912809
 31
0.0
  0
LINE
  5
342
100
AcDbEntity
  8
レイヤー_2
 62
     7
100
AcDbLine
 10
66.62763
 20
166.91436
 30
0.0
 11
66.62763
 21
164.88227
 31
0.0
  0
LINE
  5
341
100
AcDbEntity
  8
レイヤー_2
 62
     7
100
AcDbLine
 10
66.62763
 20
182.297228
 30
0.0
 11
66.62763
 21
178.728453
 31
0.0
  0
SPLINE
  5
340
100
AcDbEntity
  8
レイヤー_2
 62
     7
100
AcDbSpline
210
0.0
220
0.0
230
1.0
 70
     8
 71
     3
 72
     8
 73
     4
 74
     0
 42
0.00000001
 43
0.00000001
 40
0.0
 40
0.0
 40
0.0
 40
0.0
 40
1.0
 40
1.0
 40
1.0
 40
1.0
 10
66.638481987847214
 20
166.9357191297743
 30
0.0
 10
66.638481987847214
 20
167.03924424913194
 30
0.0
 10
66.594557020399293
 20
167.13329535590276
 30
0.0
 10
66.52358805338541
 20
167.19857991536458
 30
0.0
  0
SPLINE
  5
33F
100
AcDbEntity
  8
レイヤー_2
 62
     7
100
AcDbSpline
210
0.0
220
0.0
230
1.0
 70
     8
 71
     3
 72
     8
 73
     4
 74
     0
 42
0.00000001
 43
0.00000001
 40
0.0
 40
0.0
 40
0.0
 40
0.0
 40
1.0
 40
1.0
 40
1.0
 40
1.0
 10
66.637620713975693
 20
166.91246473524305
 30
0.0
 10
66.638309733072916
 20
166.9205607096354
 30
0.0
 10
66.638481987847214
 20
166.92882893880207
 30
0.0
 10
66.638481987847214
 20
166.9357191297743
 30
0.0
  0
SPLINE
  5
33E
100
AcDbEntity
  8
レイヤー_2
 62
     7
100
AcDbSpline
210
0.0
220
0.0
230
1.0
 70
     8
 71
     3
 72
     8
 73
     4
 74
     0
 42
0.00000001
 43
0.00000001
 40
0.0
 40
0.0
 40
0.0
 40
0.0
 40
1.0
 40
1.0
 40
1.0
 40
1.0
 10
66.634864637586801
 20
178.70554334852429
 30
0.0
 10
66.634864637586801
 20
178.71329481336804
 30
0.0
 10
66.63452012803819
 20
178.72070176866319
 30
0.0
 10
66.63452012803819
 20
178.72724745008679
 30
0.0
  0
SPLINE
  5
33D
100
AcDbEntity
  8
レイヤー_2
 62
     7
100
AcDbSpline
210
0.0
220
0.0
230
1.0
 70
     8
 71
     3
 72
    11
 73
     7
 74
     0
 42
0.00000001
 43
0.00000001
 40
0.0
 40
0.0
 40
0.0
 40
0.0
 40
1.0
 40
1.0
 40
1.0
 40
2.0
 40
2.0
 40
2.0
 40
2.0
 10
65.835430230034717
 20
178.43269178602429
 30
0.0
 10
65.923280164930546
 20
178.31952039930553
 30
0.0
 10
66.054021538628461
 20
178.2597479926215
 30
0.0
 10
66.188724772135416
 20
178.2594034830729
 30
0.0
 10
66.435221354166657
 20
178.2594034830729
 30
0.0
 10
66.634864637586801
 20
178.45939127604166
 30
0.0
 10
66.634864637586801
 20
178.70554334852429
 30
0.0
  0
SPLINE
  5
33C
100
AcDbEntity
  8
レイヤー_2
 62
     7
100
AcDbSpline
210
0.0
220
0.0
230
1.0
 70
     8
 71
     3
 72
    14
 73
    10
 74
     0
 42
0.00000001
 43
0.00000001
 40
0.0
 40
0.0
 40
0.0
 40
0.0
 40
1.0
 40
1.0
 40
1.0
 40
2.0
 40
2.0
 40
2.0
 40
3.0
 40
3.0
 40
3.0
 40
3.0
 10
75.575748697916666
 20
178.72690294053817
 30
0.0
 10
75.575404188368054
 20
178.72225206163193
 30
0.0
 10
75.575404188368054
 20
178.7182902018229
 30
0.0
 10
75.575404188368054
 20
178.71484510633678
 30
0.0
 10
75.575404188368054
 20
178.46679823133678
 30
0.0
 10
75.776253255208331
 20
178.2659491644965
 30
0.0
 10
76.024300130208331
 20
178.2659491644965
 30
0.0
 10
76.164860026041666
 20
178.2659491644965
 30
0.0
 10
76.289744737413187
 20
178.3303724500868
 30
0.0
 10
76.37277153862847
 20
178.43183051215277
 30
0.0
  0
SPLINE
  5
33B
100
AcDbEntity
  8
レイヤー_2
 62
     7
100
AcDbSpline
210
0.0
220
0.0
230
1.0
 70
     8
 71
     3
 72
     8
 73
     4
 74
     0
 42
0.00000001
 43
0.00000001
 40
0.0
 40
0.0
 40
0.0
 40
0.0
 40
1.0
 40
1.0
 40
1.0
 40
1.0
 10
75.687886555989579
 20
167.1968573676215
 30
0.0
 10
75.605721028645831
 20
167.12399359809027
 30
0.0
 10
75.568858506944437
 20
167.0194349500868
 30
0.0
 10
75.578160264756931
 20
166.91677110460068
 30
0.0
  0
LINE
  5
33A
100
AcDbEntity
  8
レイヤー_2
 62
     7
100
AcDbLine
 10
65.843182
 20
178.438548
 30
0.0
 11
63.230938
 21
181.551537
 31
0.0
  0
LINE
  5
339
100
AcDbEntity
  8
レイヤー_2
 62
     7
100
AcDbLine
 10
58.094817
 20
177.241722
 30
0.0
 11
66.522038
 21
167.198063
 31
0.0
  0
LINE
  5
338
100
AcDbEntity
  8
レイヤー_2
 62
     7
100
AcDbLine
 10
75.687887
 20
167.198063
 30
0.0
 11
84.114935
 21
177.241722
 31
0.0
  0
LINE
  5
337
100
AcDbEntity
  8
レイヤー_2
 62
     7
100
AcDbLine
 10
78.978814
 20
181.551537
 30
0.0
 11
76.366398
 21
178.437687
 31
0.0
  0
SPLINE
  5
336
100
AcDbEntity
  8
レイヤー_2
 62
     7
100
AcDbSpline
210
0.0
220
0.0
230
1.0
 70
     8
 71
     3
 72
     8
 73
     4
 74
     0
 42
0.00000001
 43
0.00000001
 40
0.0
 40
0.0
 40
0.0
 40
0.0
 40
1.0
 40
1.0
 40
1.0
 40
1.0
 10
84.157137044270826
 20
177.35713297526041
 30
0.0
 10
84.157137044270826
 20
177.41294352213541
 30
0.0
 10
84.132676866319443
 20
177.46151936848958
 30
0.0
 10
84.093058268229157
 20
177.49510904947914
 30
0.0
  0
SPLINE
  5
335
100
AcDbEntity
  8
レイヤー_2
 62
     7
100
AcDbSpline
210
0.0
220
0.0
230
1.0
 70
     8
 71
     3
 72
     8
 73
     4
 74
     0
 42
0.00000001
 43
0.00000001
 40
0.0
 40
0.0
 40
0.0
 40
0.0
 40
1.0
 40
1.0
 40
1.0
 40
1.0
 10
84.114934624565961
 20
177.24172227647568
 30
0.0
 10
84.14318440755207
 20
177.27531195746525
 30
0.0
 10
84.157137044270826
 20
177.31648084852429
 30
0.0
 10
84.157137044270826
 20
177.35713297526041
 30
0.0
  0
SPLINE
  5
334
100
AcDbEntity
  8
レイヤー_2
 62
     7
100
AcDbSpline
210
0.0
220
0.0
230
1.0
 70
     8
 71
     3
 72
     8
 73
     4
 74
     0
 42
0.00000001
 43
0.00000001
 40
0.0
 40
0.0
 40
0.0
 40
0.0
 40
1.0
 40
1.0
 40
1.0
 40
1.0
 10
79.232545301649296
 20
181.57427435980901
 30
0.0
 10
79.156580946180554
 20
181.63749186197916
 30
0.0
 10
79.04272054036457
 20
181.62784559461804
 30
0.0
 10
78.978814019097214
 20
181.55153672960068
 30
0.0
  0
SPLINE
  5
333
100
AcDbEntity
  8
レイヤー_2
 62
     7
100
AcDbSpline
210
0.0
220
0.0
230
1.0
 70
     8
 71
     3
 72
     8
 73
     4
 74
     0
 42
0.00000001
 43
0.00000001
 40
0.0
 40
0.0
 40
0.0
 40
0.0
 40
1.0
 40
1.0
 40
1.0
 40
1.0
 10
63.230938042534717
 20
181.55153672960068
 30
0.0
 10
63.167376030815966
 20
181.62784559461804
 30
0.0
 10
63.05334337022569
 20
181.63749186197916
 30
0.0
 10
62.977723524305553
 20
181.57427435980901
 30
0.0
  0
SPLINE
  5
332
100
AcDbEntity
  8
レイヤー_2
 62
     7
100
AcDbSpline
210
0.0
220
0.0
230
1.0
 70
     8
 71
     3
 72
     8
 73
     4
 74
     0
 42
0.00000001
 43
0.00000001
 40
0.0
 40
0.0
 40
0.0
 40
0.0
 40
1.0
 40
1.0
 40
1.0
 40
1.0
 10
58.11686604817708
 20
177.49510904947914
 30
0.0
 10
58.04055718315972
 20
177.4312025282118
 30
0.0
 10
58.031083170572913
 20
177.31768663194444
 30
0.0
 10
58.09481743706597
 20
177.24172227647568
 30
0.0
  0
SPLINE
  5
331
100
AcDbEntity
  8
レイヤー_2
 62
     7
100
AcDbSpline
210
0.0
220
0.0
230
1.0
 70
     8
 71
     3
 72
     8
 73
     4
 74
     0
 42
0.00000001
 43
0.00000001
 40
0.0
 40
0.0
 40
0.0
 40
0.0
 40
1.0
 40
1.0
 40
1.0
 40
1.0
 10
65.952046712239579
 20
162.67740885416666
 30
0.0
 10
66.038346354166663
 20
162.54718424479165
 30
0.0
 10
66.180284288194443
 20
162.47518174913193
 30
0.0
 10
66.327217610677081
 20
162.47466498480901
 30
0.0
  0
SPLINE
  5
330
100
AcDbEntity
  8
レイヤー_2
 62
     7
100
AcDbSpline
210
0.0
220
0.0
230
1.0
 70
     8
 71
     3
 72
     8
 73
     4
 74
     0
 42
0.00000001
 43
0.00000001
 40
0.0
 40
0.0
 40
0.0
 40
0.0
 40
1.0
 40
1.0
 40
1.0
 40
1.0
 10
76.228077528211799
 20
162.47466498480901
 30
0.0
 10
76.384657118055543
 20
162.47466498480901
 30
0.0
 10
76.521599663628464
 20
162.5545912000868
 30
0.0
 10
76.603765190972211
 20
162.67740885416666
 30
0.0
  0
LINE
  5
32F
100
AcDbEntity
  8
レイヤー_2
 62
     7
100
AcDbLine
 10
66.327218
 20
162.474665
 30
0.0
 11
76.228078
 21
162.474665
 31
0.0
  0
LINE
  5
32E
100
AcDbEntity
  8
レイヤー_2
 62
     7
100
AcDbLine
 10
76.677662
 20
154.464473
 30
0.0
 11
76.677662
 21
154.801921
 31
0.0
  0
LINE
  5
32D
100
AcDbEntity
  8
レイヤー_2
 62
     7
100
AcDbLine
 10
65.878322
 20
154.801921
 30
0.0
 11
65.878322
 21
154.464473
 31
0.0
  0
LINE
  5
32C
100
AcDbEntity
  8
レイヤー_2
 62
     7
100
AcDbLine
 10
73.641155
 20
144.065625
 30
0.0
 11
73.050838
 21
143.9354
 31
0.0
  0
POLYLINE
  5
327
100
AcDbEntity
  8
レイヤー_2
 62
     7
100
AcDb2dPolyline
 66
     1
 10
0.0
 20
0.0
 30
0.0
  0
VERTEX
  5
328
100
AcDbEntity
  8
レイヤー_2
 62
     7
100
AcDbVertex
100
AcDb2dVertex
 10
73.050838
 20
143.9354
 30
0.0
  0
VERTEX
  5
329
100
AcDbEntity
  8
レイヤー_2
 62
     7
100
AcDbVertex
100
AcDb2dVertex
 10
73.008636
 20
143.935745
 30
0.0
  0
VERTEX
  5
32A
100
AcDbEntity
  8
レイヤー_2
 62
     7
100
AcDbVertex
100
AcDb2dVertex
 10
72.460866
 20
144.065625
 30
0.0
  0
SEQEND
  5
32B
100
AcDbEntity
  8
レイヤー_2
 62
     7
  0
LINE
  5
326
100
AcDbEntity
  8
レイヤー_2
 62
     7
100
AcDbLine
 10
72.460866
 20
144.065625
 30
0.0
 11
72.460866
 21
146.503719
 31
0.0
  0
POLYLINE
  5
321
100
AcDbEntity
  8
レイヤー_2
 62
     7
100
AcDb2dPolyline
 66
     1
 10
0.0
 20
0.0
 30
0.0
  0
VERTEX
  5
322
100
AcDbEntity
  8
レイヤー_2
 62
     7
100
AcDbVertex
100
AcDb2dVertex
 10
73.050838
 20
146.634633
 30
0.0
  0
VERTEX
  5
323
100
AcDbEntity
  8
レイヤー_2
 62
     7
100
AcDbVertex
100
AcDb2dVertex
 10
73.008636
 20
146.634288
 30
0.0
  0
VERTEX
  5
324
100
AcDbEntity
  8
レイヤー_2
 62
     7
100
AcDbVertex
100
AcDb2dVertex
 10
72.460866
 20
146.503719
 30
0.0
  0
SEQEND
  5
325
100
AcDbEntity
  8
レイヤー_2
 62
     7
  0
LINE
  5
320
100
AcDbEntity
  8
レイヤー_2
 62
     7
100
AcDbLine
 10
73.641155
 20
146.503719
 30
0.0
 11
73.050838
 21
146.634633
 31
0.0
  0
LINE
  5
31F
100
AcDbEntity
  8
レイヤー_2
 62
     7
100
AcDbLine
 10
73.641155
 20
144.065625
 30
0.0
 11
73.641155
 21
146.503719
 31
0.0
  0
LINE
  5
31E
100
AcDbEntity
  8
レイヤー_2
 62
     7
100
AcDbLine
 10
71.642311
 20
152.484749
 30
0.0
 11
70.542809
 21
152.484749
 31
0.0
  0
LINE
  5
31D
100
AcDbEntity
  8
レイヤー_2
 62
     7
100
AcDbLine
 10
73.467523
 20
152.484749
 30
0.0
 11
71.642311
 21
152.484749
 31
0.0
  0
LINE
  5
31C
100
AcDbEntity
  8
レイヤー_2
 62
     7
100
AcDbLine
 10
71.726371
 20
151.900289
 30
0.0
 11
70.880428
 21
151.900289
 31
0.0
  0
LINE
  5
31B
100
AcDbEntity
  8
レイヤー_2
 62
     7
100
AcDbLine
 10
73.130248
 20
151.900289
 30
0.0
 11
71.726371
 21
151.900289
 31
0.0
  0
LINE
  5
31A
100
AcDbEntity
  8
レイヤー_2
 62
     7
100
AcDbLine
 10
71.642311
 20
152.8141
 30
0.0
 11
70.542809
 21
152.8141
 31
0.0
  0
LINE
  5
319
100
AcDbEntity
  8
レイヤー_2
 62
     7
100
AcDbLine
 10
73.467523
 20
152.8141
 30
0.0
 11
71.642311
 21
152.8141
 31
0.0
  0
POLYLINE
  5
314
100
AcDbEntity
  8
レイヤー_2
 62
     7
100
AcDb2dPolyline
 66
     1
 10
0.0
 20
0.0
 30
0.0
  0
VERTEX
  5
315
100
AcDbEntity
  8
レイヤー_2
 62
     7
100
AcDbVertex
100
AcDb2dVertex
 10
72.460866
 20
146.503719
 30
0.0
  0
VERTEX
  5
316
100
AcDbEntity
  8
レイヤー_2
 62
     7
100
AcDbVertex
100
AcDb2dVertex
 10
72.254332
 20
146.559874
 30
0.0
  0
VERTEX
  5
317
100
AcDbEntity
  8
レイヤー_2
 62
     7
100
AcDbVertex
100
AcDb2dVertex
 10
71.642311
 20
146.634633
 30
0.0
  0
SEQEND
  5
318
100
AcDbEntity
  8
レイヤー_2
 62
     7
  0
LINE
  5
313
100
AcDbEntity
  8
レイヤー_2
 62
     7
100
AcDbLine
 10
73.050838
 20
146.634633
 30
0.0
 11
71.642311
 21
146.634633
 31
0.0
  0
POLYLINE
  5
30E
100
AcDbEntity
  8
レイヤー_2
 62
     7
100
AcDb2dPolyline
 66
     1
 10
0.0
 20
0.0
 30
0.0
  0
VERTEX
  5
30F
100
AcDbEntity
  8
レイヤー_2
 62
     7
100
AcDbVertex
100
AcDb2dVertex
 10
72.460866
 20
144.065625
 30
0.0
  0
VERTEX
  5
310
100
AcDbEntity
  8
レイヤー_2
 62
     7
100
AcDbVertex
100
AcDb2dVertex
 10
72.254332
 20
144.010159
 30
0.0
  0
VERTEX
  5
311
100
AcDbEntity
  8
レイヤー_2
 62
     7
100
AcDbVertex
100
AcDb2dVertex
 10
71.642311
 20
143.9354
 30
0.0
  0
SEQEND
  5
312
100
AcDbEntity
  8
レイヤー_2
 62
     7
  0
LINE
  5
30D
100
AcDbEntity
  8
レイヤー_2
 62
     7
100
AcDbLine
 10
73.050838
 20
143.9354
 30
0.0
 11
71.642311
 21
143.9354
 31
0.0
  0
POLYLINE
  5
308
100
AcDbEntity
  8
レイヤー_2
 62
     7
100
AcDb2dPolyline
 66
     1
 10
0.0
 20
0.0
 30
0.0
  0
VERTEX
  5
309
100
AcDbEntity
  8
レイヤー_2
 62
     7
100
AcDbVertex
100
AcDb2dVertex
 10
71.642311
 20
143.9354
 30
0.0
  0
VERTEX
  5
30A
100
AcDbEntity
  8
レイヤー_2
 62
     7
100
AcDbVertex
100
AcDb2dVertex
 10
71.41993
 20
143.945047
 30
0.0
  0
VERTEX
  5
30B
100
AcDbEntity
  8
レイヤー_2
 62
     7
100
AcDbVertex
100
AcDb2dVertex
 10
70.824273
 20
144.065625
 30
0.0
  0
SEQEND
  5
30C
100
AcDbEntity
  8
レイヤー_2
 62
     7
  0
LINE
  5
307
100
AcDbEntity
  8
レイヤー_2
 62
     7
100
AcDbLine
 10
70.824273
 20
144.065625
 30
0.0
 11
70.824273
 21
146.503719
 31
0.0
  0
POLYLINE
  5
302
100
AcDbEntity
  8
レイヤー_2
 62
     7
100
AcDb2dPolyline
 66
     1
 10
0.0
 20
0.0
 30
0.0
  0
VERTEX
  5
303
100
AcDbEntity
  8
レイヤー_2
 62
     7
100
AcDbVertex
100
AcDb2dVertex
 10
71.642311
 20
146.634633
 30
0.0
  0
VERTEX
  5
304
100
AcDbEntity
  8
レイヤー_2
 62
     7
100
AcDbVertex
100
AcDb2dVertex
 10
71.41993
 20
146.624642
 30
0.0
  0
VERTEX
  5
305
100
AcDbEntity
  8
レイヤー_2
 62
     7
100
AcDbVertex
100
AcDb2dVertex
 10
70.824273
 20
146.503719
 30
0.0
  0
SEQEND
  5
306
100
AcDbEntity
  8
レイヤー_2
 62
     7
  0
LINE
  5
301
100
AcDbEntity
  8
レイヤー_2
 62
     7
100
AcDbLine
 10
70.824273
 20
146.503719
 30
0.0
 11
70.596724
 21
146.634633
 31
0.0
  0
LINE
  5
300
100
AcDbEntity
  8
レイヤー_2
 62
     7
100
AcDbLine
 10
71.642311
 20
146.634633
 30
0.0
 11
70.596724
 21
146.634633
 31
0.0
  0
LINE
  5
2FF
100
AcDbEntity
  8
レイヤー_2
 62
     7
100
AcDbLine
 10
70.824273
 20
144.065625
 30
0.0
 11
70.596724
 21
143.9354
 31
0.0
  0
LINE
  5
2FE
100
AcDbEntity
  8
レイヤー_2
 62
     7
100
AcDbLine
 10
71.642311
 20
143.9354
 30
0.0
 11
70.596724
 21
143.9354
 31
0.0
  0
POLYLINE
  5
2F9
100
AcDbEntity
  8
レイヤー_2
 62
     7
100
AcDb2dPolyline
 66
     1
 10
0.0
 20
0.0
 30
0.0
  0
VERTEX
  5
2FA
100
AcDbEntity
  8
レイヤー_2
 62
     7
100
AcDbVertex
100
AcDb2dVertex
 10
70.596724
 20
143.9354
 30
0.0
  0
VERTEX
  5
2FB
100
AcDbEntity
  8
レイヤー_2
 62
     7
100
AcDbVertex
100
AcDb2dVertex
 10
70.580016
 20
143.935745
 30
0.0
  0
VERTEX
  5
2FC
100
AcDbEntity
  8
レイヤー_2
 62
     7
100
AcDbVertex
100
AcDb2dVertex
 10
70.368487
 20
144.065625
 30
0.0
  0
SEQEND
  5
2FD
100
AcDbEntity
  8
レイヤー_2
 62
     7
  0
LINE
  5
2F8
100
AcDbEntity
  8
レイヤー_2
 62
     7
100
AcDbLine
 10
70.368487
 20
144.065625
 30
0.0
 11
70.368487
 21
146.503719
 31
0.0
  0
POLYLINE
  5
2F3
100
AcDbEntity
  8
レイヤー_2
 62
     7
100
AcDb2dPolyline
 66
     1
 10
0.0
 20
0.0
 30
0.0
  0
VERTEX
  5
2F4
100
AcDbEntity
  8
レイヤー_2
 62
     7
100
AcDbVertex
100
AcDb2dVertex
 10
70.596724
 20
146.634633
 30
0.0
  0
VERTEX
  5
2F5
100
AcDbEntity
  8
レイヤー_2
 62
     7
100
AcDbVertex
100
AcDb2dVertex
 10
70.580016
 20
146.634288
 30
0.0
  0
VERTEX
  5
2F6
100
AcDbEntity
  8
レイヤー_2
 62
     7
100
AcDbVertex
100
AcDb2dVertex
 10
70.368487
 20
146.503719
 30
0.0
  0
SEQEND
  5
2F7
100
AcDbEntity
  8
レイヤー_2
 62
     7
  0
LINE
  5
2F2
100
AcDbEntity
  8
レイヤー_2
 62
     7
100
AcDbLine
 10
73.524022
 20
146.575722
 30
0.0
 11
73.641155
 21
146.503719
 31
0.0
  0
LINE
  5
2F1
100
AcDbEntity
  8
レイヤー_2
 62
     7
100
AcDbLine
 10
73.467523
 20
146.634633
 30
0.0
 11
73.050838
 21
146.634633
 31
0.0
  0
LINE
  5
2F0
100
AcDbEntity
  8
レイヤー_2
 62
     7
100
AcDbLine
 10
73.524022
 20
143.993623
 30
0.0
 11
73.641155
 21
144.065625
 31
0.0
  0
LINE
  5
2EF
100
AcDbEntity
  8
レイヤー_2
 62
     7
100
AcDbLine
 10
73.467523
 20
143.9354
 30
0.0
 11
73.050838
 21
143.9354
 31
0.0
  0
LINE
  5
2EE
100
AcDbEntity
  8
レイヤー_2
 62
     7
100
AcDbLine
 10
70.596724
 20
146.634633
 30
0.0
 11
70.542809
 21
146.634633
 31
0.0
  0
LINE
  5
2ED
100
AcDbEntity
  8
レイヤー_2
 62
     7
100
AcDbLine
 10
70.596724
 20
143.9354
 30
0.0
 11
70.542809
 21
143.9354
 31
0.0
  0
LINE
  5
2EC
100
AcDbEntity
  8
レイヤー_2
 62
     7
100
AcDbLine
 10
65.63527
 20
154.464473
 30
0.0
 11
77.015626
 21
154.464473
 31
0.0
  0
LINE
  5
2EB
100
AcDbEntity
  8
レイヤー_2
 62
     7
100
AcDbLine
 10
77.015626
 20
152.88972
 30
0.0
 11
65.63527
 21
152.88972
 31
0.0
  0
LINE
  5
2EA
100
AcDbEntity
  8
レイヤー_2
 62
     7
100
AcDbLine
 10
76.677662
 20
154.464473
 30
0.0
 11
76.790489
 21
154.464473
 31
0.0
  0
LINE
  5
2E9
100
AcDbEntity
  8
レイヤー_2
 62
     7
100
AcDbLine
 10
75.586256
 20
152.88972
 30
0.0
 11
75.524245
 21
152.88972
 31
0.0
  0
LINE
  5
2E8
100
AcDbEntity
  8
レイヤー_2
 62
     7
100
AcDbLine
 10
75.524245
 20
152.88972
 30
0.0
 11
73.917107
 21
152.88972
 31
0.0
  0
LINE
  5
2E7
100
AcDbEntity
  8
レイヤー_2
 62
     7
100
AcDbLine
 10
70.655119
 20
152.88972
 30
0.0
 11
70.542809
 21
152.88972
 31
0.0
  0
LINE
  5
2E6
100
AcDbEntity
  8
レイヤー_2
 62
     7
100
AcDbLine
 10
68.292128
 20
152.88972
 30
0.0
 11
66.818316
 21
152.88972
 31
0.0
  0
LINE
  5
2E5
100
AcDbEntity
  8
レイヤー_2
 62
     7
100
AcDbLine
 10
73.123357
 20
158.492479
 30
0.0
 11
72.904766
 21
158.492479
 31
0.0
  0
LINE
  5
2E4
100
AcDbEntity
  8
レイヤー_2
 62
     7
100
AcDbLine
 10
73.401893
 20
158.492479
 30
0.0
 11
73.123357
 21
158.492479
 31
0.0
  0
LINE
  5
2E3
100
AcDbEntity
  8
レイヤー_2
 62
     7
100
AcDbLine
 10
73.869393
 20
158.492479
 30
0.0
 11
73.401893
 21
158.492479
 31
0.0
  0
LINE
  5
2E2
100
AcDbEntity
  8
レイヤー_2
 62
     7
100
AcDbLine
 10
73.985148
 20
158.492479
 30
0.0
 11
73.869393
 21
158.492479
 31
0.0
  0
LINE
  5
2E1
100
AcDbEntity
  8
レイヤー_2
 62
     7
100
AcDbLine
 10
74.030107
 20
158.492479
 30
0.0
 11
73.985148
 21
158.492479
 31
0.0
  0
LINE
  5
2E0
100
AcDbEntity
  8
レイヤー_2
 62
     7
100
AcDbLine
 10
74.1419
 20
157.254484
 30
0.0
 11
72.904766
 21
157.254484
 31
0.0
  0
LINE
  5
2DF
100
AcDbEntity
  8
レイヤー_2
 62
     7
100
AcDbLine
 10
74.030107
 20
160.516817
 30
0.0
 11
73.985148
 21
160.516817
 31
0.0
  0
LINE
  5
2DE
100
AcDbEntity
  8
レイヤー_2
 62
     7
100
AcDbLine
 10
73.985148
 20
160.516817
 30
0.0
 11
73.869393
 21
160.516817
 31
0.0
  0
LINE
  5
2DD
100
AcDbEntity
  8
レイヤー_2
 62
     7
100
AcDbLine
 10
73.869393
 20
160.516817
 30
0.0
 11
73.401893
 21
160.516817
 31
0.0
  0
LINE
  5
2DC
100
AcDbEntity
  8
レイヤー_2
 62
     7
100
AcDbLine
 10
73.401893
 20
160.516817
 30
0.0
 11
73.123357
 21
160.516817
 31
0.0
  0
LINE
  5
2DB
100
AcDbEntity
  8
レイヤー_2
 62
     7
100
AcDbLine
 10
73.123357
 20
160.516817
 30
0.0
 11
72.904766
 21
160.516817
 31
0.0
  0
LINE
  5
2DA
100
AcDbEntity
  8
レイヤー_2
 62
     7
100
AcDbLine
 10
74.024767
 20
161.529848
 30
0.0
 11
73.508864
 21
161.529848
 31
0.0
  0
LINE
  5
2D9
100
AcDbEntity
  8
レイヤー_2
 62
     7
100
AcDbLine
 10
74.024767
 20
161.529848
 30
0.0
 11
74.024767
 21
162.474665
 31
0.0
  0
LINE
  5
2D8
100
AcDbEntity
  8
レイヤー_2
 62
     7
100
AcDbLine
 10
73.508864
 20
162.474665
 30
0.0
 11
73.508864
 21
161.529848
 31
0.0
  0
LINE
  5
2D7
100
AcDbEntity
  8
レイヤー_2
 62
     7
100
AcDbLine
 10
74.030107
 20
161.305055
 30
0.0
 11
72.904766
 21
161.305055
 31
0.0
  0
LINE
  5
2D6
100
AcDbEntity
  8
レイヤー_2
 62
     7
100
AcDbLine
 10
73.308187
 20
161.529848
 30
0.0
 11
72.904766
 21
161.529848
 31
0.0
  0
LINE
  5
2D5
100
AcDbEntity
  8
レイヤー_2
 62
     7
100
AcDbLine
 10
73.308187
 20
161.529848
 30
0.0
 11
73.308187
 21
162.474665
 31
0.0
  0
LINE
  5
2D4
100
AcDbEntity
  8
レイヤー_2
 62
     7
100
AcDbLine
 10
73.123357
 20
158.492479
 30
0.0
 11
73.123357
 21
160.516817
 31
0.0
  0
LINE
  5
2D3
100
AcDbEntity
  8
レイヤー_2
 62
     7
100
AcDbLine
 10
73.401893
 20
160.516817
 30
0.0
 11
73.401893
 21
158.492479
 31
0.0
  0
LINE
  5
2D2
100
AcDbEntity
  8
レイヤー_2
 62
     7
100
AcDbLine
 10
73.869393
 20
158.492479
 30
0.0
 11
73.869393
 21
160.516817
 31
0.0
  0
LINE
  5
2D1
100
AcDbEntity
  8
レイヤー_2
 62
     7
100
AcDbLine
 10
73.985148
 20
160.516817
 30
0.0
 11
73.985148
 21
158.492479
 31
0.0
  0
LINE
  5
2D0
100
AcDbEntity
  8
レイヤー_2
 62
     7
100
AcDbLine
 10
70.767257
 20
157.254484
 30
0.0
 11
68.067335
 21
157.254484
 31
0.0
  0
LINE
  5
2CF
100
AcDbEntity
  8
レイヤー_2
 62
     7
100
AcDbLine
 10
68.225121
 20
158.492479
 30
0.0
 11
68.179818
 21
158.492479
 31
0.0
  0
LINE
  5
2CE
100
AcDbEntity
  8
レイヤー_2
 62
     7
100
AcDbLine
 10
68.340187
 20
158.492479
 30
0.0
 11
68.225121
 21
158.492479
 31
0.0
  0
LINE
  5
2CD
100
AcDbEntity
  8
レイヤー_2
 62
     7
100
AcDbLine
 10
68.808031
 20
158.492479
 30
0.0
 11
68.340187
 21
158.492479
 31
0.0
  0
LINE
  5
2CC
100
AcDbEntity
  8
レイヤー_2
 62
     7
100
AcDbLine
 10
69.086395
 20
158.492479
 30
0.0
 11
68.808031
 21
158.492479
 31
0.0
  0
LINE
  5
2CB
100
AcDbEntity
  8
レイヤー_2
 62
     7
100
AcDbLine
 10
69.74837
 20
158.492479
 30
0.0
 11
69.086395
 21
158.492479
 31
0.0
  0
LINE
  5
2CA
100
AcDbEntity
  8
レイヤー_2
 62
     7
100
AcDbLine
 10
70.026906
 20
158.492479
 30
0.0
 11
69.74837
 21
158.492479
 31
0.0
  0
LINE
  5
2C9
100
AcDbEntity
  8
レイヤー_2
 62
     7
100
AcDbLine
 10
70.49475
 20
158.492479
 30
0.0
 11
70.026906
 21
158.492479
 31
0.0
  0
LINE
  5
2C8
100
AcDbEntity
  8
レイヤー_2
 62
     7
100
AcDbLine
 10
70.61016
 20
158.492479
 30
0.0
 11
70.49475
 21
158.492479
 31
0.0
  0
LINE
  5
2C7
100
AcDbEntity
  8
レイヤー_2
 62
     7
100
AcDbLine
 10
70.655119
 20
158.492479
 30
0.0
 11
70.61016
 21
158.492479
 31
0.0
  0
LINE
  5
2C6
100
AcDbEntity
  8
レイヤー_2
 62
     7
100
AcDbLine
 10
70.655119
 20
160.516817
 30
0.0
 11
70.61016
 21
160.516817
 31
0.0
  0
LINE
  5
2C5
100
AcDbEntity
  8
レイヤー_2
 62
     7
100
AcDbLine
 10
70.61016
 20
160.516817
 30
0.0
 11
70.49475
 21
160.516817
 31
0.0
  0
LINE
  5
2C4
100
AcDbEntity
  8
レイヤー_2
 62
     7
100
AcDbLine
 10
70.49475
 20
160.516817
 30
0.0
 11
70.026906
 21
160.516817
 31
0.0
  0
LINE
  5
2C3
100
AcDbEntity
  8
レイヤー_2
 62
     7
100
AcDbLine
 10
70.026906
 20
160.516817
 30
0.0
 11
69.74837
 21
160.516817
 31
0.0
  0
LINE
  5
2C2
100
AcDbEntity
  8
レイヤー_2
 62
     7
100
AcDbLine
 10
69.74837
 20
160.516817
 30
0.0
 11
69.086395
 21
160.516817
 31
0.0
  0
LINE
  5
2C1
100
AcDbEntity
  8
レイヤー_2
 62
     7
100
AcDbLine
 10
69.086395
 20
160.516817
 30
0.0
 11
68.808031
 21
160.516817
 31
0.0
  0
LINE
  5
2C0
100
AcDbEntity
  8
レイヤー_2
 62
     7
100
AcDbLine
 10
68.808031
 20
160.516817
 30
0.0
 11
68.340187
 21
160.516817
 31
0.0
  0
LINE
  5
2BF
100
AcDbEntity
  8
レイヤー_2
 62
     7
100
AcDbLine
 10
68.340187
 20
160.516817
 30
0.0
 11
68.225121
 21
160.516817
 31
0.0
  0
LINE
  5
2BE
100
AcDbEntity
  8
レイヤー_2
 62
     7
100
AcDbLine
 10
68.225121
 20
160.516817
 30
0.0
 11
68.179818
 21
160.516817
 31
0.0
  0
LINE
  5
2BD
100
AcDbEntity
  8
レイヤー_2
 62
     7
100
AcDbLine
 10
70.649779
 20
161.529848
 30
0.0
 11
70.133876
 21
161.529848
 31
0.0
  0
LINE
  5
2BC
100
AcDbEntity
  8
レイヤー_2
 62
     7
100
AcDbLine
 10
70.649779
 20
161.529848
 30
0.0
 11
70.649779
 21
162.474665
 31
0.0
  0
LINE
  5
2BB
100
AcDbEntity
  8
レイヤー_2
 62
     7
100
AcDbLine
 10
70.133876
 20
162.474665
 30
0.0
 11
70.133876
 21
161.529848
 31
0.0
  0
LINE
  5
2BA
100
AcDbEntity
  8
レイヤー_2
 62
     7
100
AcDbLine
 10
69.933199
 20
161.529848
 30
0.0
 11
68.901737
 21
161.529848
 31
0.0
  0
LINE
  5
2B9
100
AcDbEntity
  8
レイヤー_2
 62
     7
100
AcDbLine
 10
69.933199
 20
161.529848
 30
0.0
 11
69.933199
 21
162.474665
 31
0.0
  0
LINE
  5
2B8
100
AcDbEntity
  8
レイヤー_2
 62
     7
100
AcDbLine
 10
68.901737
 20
162.474665
 30
0.0
 11
68.901737
 21
161.529848
 31
0.0
  0
LINE
  5
2B7
100
AcDbEntity
  8
レイヤー_2
 62
     7
100
AcDbLine
 10
68.701405
 20
161.529848
 30
0.0
 11
68.185158
 21
161.529848
 31
0.0
  0
LINE
  5
2B6
100
AcDbEntity
  8
レイヤー_2
 62
     7
100
AcDbLine
 10
68.701405
 20
161.529848
 30
0.0
 11
68.701405
 21
162.474665
 31
0.0
  0
LINE
  5
2B5
100
AcDbEntity
  8
レイヤー_2
 62
     7
100
AcDbLine
 10
68.185158
 20
162.474665
 30
0.0
 11
68.185158
 21
161.529848
 31
0.0
  0
LINE
  5
2B4
100
AcDbEntity
  8
レイヤー_2
 62
     7
100
AcDbLine
 10
70.655119
 20
161.305055
 30
0.0
 11
68.179818
 21
161.305055
 31
0.0
  0
LINE
  5
2B3
100
AcDbEntity
  8
レイヤー_2
 62
     7
100
AcDbLine
 10
69.086395
 20
160.516817
 30
0.0
 11
69.086395
 21
158.492479
 31
0.0
  0
LINE
  5
2B2
100
AcDbEntity
  8
レイヤー_2
 62
     7
100
AcDbLine
 10
69.74837
 20
158.492479
 30
0.0
 11
69.74837
 21
160.516817
 31
0.0
  0
LINE
  5
2B1
100
AcDbEntity
  8
レイヤー_2
 62
     7
100
AcDbLine
 10
68.808031
 20
158.492479
 30
0.0
 11
68.808031
 21
160.516817
 31
0.0
  0
LINE
  5
2B0
100
AcDbEntity
  8
レイヤー_2
 62
     7
100
AcDbLine
 10
70.026906
 20
160.516817
 30
0.0
 11
70.026906
 21
158.492479
 31
0.0
  0
LINE
  5
2AF
100
AcDbEntity
  8
レイヤー_2
 62
     7
100
AcDbLine
 10
68.340187
 20
160.516817
 30
0.0
 11
68.340187
 21
158.492479
 31
0.0
  0
LINE
  5
2AE
100
AcDbEntity
  8
レイヤー_2
 62
     7
100
AcDbLine
 10
70.49475
 20
158.492479
 30
0.0
 11
70.49475
 21
160.516817
 31
0.0
  0
LINE
  5
2AD
100
AcDbEntity
  8
レイヤー_2
 62
     7
100
AcDbLine
 10
70.61016
 20
160.516817
 30
0.0
 11
70.61016
 21
158.492479
 31
0.0
  0
LINE
  5
2AC
100
AcDbEntity
  8
レイヤー_2
 62
     7
100
AcDbLine
 10
68.225121
 20
158.492479
 30
0.0
 11
68.225121
 21
160.516817
 31
0.0
  0
LINE
  5
2AB
100
AcDbEntity
  8
レイヤー_2
 62
     7
100
AcDbLine
 10
84.17953
 20
178.245795
 30
0.0
 11
79.956532
 21
181.788732
 31
0.0
  0
LINE
  5
2AA
100
AcDbEntity
  8
レイヤー_2
 62
     7
100
AcDbLine
 10
62.253392
 20
181.788732
 30
0.0
 11
58.031083
 21
178.245795
 31
0.0
  0
SPLINE
  5
2A9
100
AcDbEntity
  8
レイヤー_2
 62
     7
100
AcDbSpline
210
0.0
220
0.0
230
1.0
 70
     8
 71
     3
 72
    17
 73
    13
 74
     0
 42
0.00000001
 43
0.00000001
 40
0.0
 40
0.0
 40
0.0
 40
0.0
 40
1.0
 40
1.0
 40
1.0
 40
2.0
 40
2.0
 40
2.0
 40
3.0
 40
3.0
 40
3.0
 40
4.0
 40
4.0
 40
4.0
 40
4.0
 10
85.824046495225687
 20
182.81778157552083
 30
0.0
 10
85.824046495225687
 20
183.59482286241317
 30
0.0
 10
85.194627549913193
 20
184.22424180772569
 30
0.0
 10
84.417930772569434
 20
184.22424180772569
 30
0.0
 10
83.64123399522569
 20
184.22424180772569
 30
0.0
 10
83.011815049913181
 20
183.59482286241317
 30
0.0
 10
83.011815049913181
 20
182.81778157552083
 30
0.0
 10
83.011815049913181
 20
182.04091254340275
 30
0.0
 10
83.64123399522569
 20
181.41149359809026
 30
0.0
 10
84.417930772569434
 20
181.41149359809026
 30
0.0
 10
85.194627549913193
 20
181.41149359809026
 30
0.0
 10
85.824046495225687
 20
182.04091254340275
 30
0.0
 10
85.824046495225687
 20
182.81778157552083
 30
0.0
  0
LINE
  5
2A8
100
AcDbEntity
  8
レイヤー_2
 62
     7
100
AcDbLine
 10
91.23922
 20
178.69538
 30
0.0
 11
89.662572
 21
176.816942
 31
0.0
  0
LINE
  5
2A7
100
AcDbEntity
  8
レイヤー_2
 62
     7
100
AcDbLine
 10
77.597331
 20
186.941044
 30
0.0
 11
79.17329
 21
188.81931
 31
0.0
  0
SPLINE
  5
2A6
100
AcDbEntity
  8
レイヤー_2
 62
     7
100
AcDbSpline
210
0.0
220
0.0
230
1.0
 70
     8
 71
     3
 72
    17
 73
    13
 74
     0
 42
0.00000001
 43
0.00000001
 40
0.0
 40
0.0
 40
0.0
 40
0.0
 40
1.0
 40
1.0
 40
1.0
 40
2.0
 40
2.0
 40
2.0
 40
3.0
 40
3.0
 40
3.0
 40
4.0
 40
4.0
 40
4.0
 40
4.0
 10
59.19845377604166
 20
182.81778157552083
 30
0.0
 10
59.19845377604166
 20
183.59482286241317
 30
0.0
 10
58.568690321180547
 20
184.22424180772569
 30
0.0
 10
57.791993543836803
 20
184.22424180772569
 30
0.0
 10
57.015813530815969
 20
184.22424180772569
 30
0.0
 10
56.385533311631939
 20
183.59482286241317
 30
0.0
 10
56.385533311631939
 20
182.81778157552083
 30
0.0
 10
56.385533311631939
 20
182.04091254340275
 30
0.0
 10
57.015813530815969
 20
181.41149359809026
 30
0.0
 10
57.791993543836803
 20
181.41149359809026
 30
0.0
 10
58.568690321180547
 20
181.41149359809026
 30
0.0
 10
59.19845377604166
 20
182.04091254340275
 30
0.0
 10
59.19845377604166
 20
182.81778157552083
 30
0.0
  0
LINE
  5
2A5
100
AcDbEntity
  8
レイヤー_2
 62
     7
100
AcDbLine
 10
63.03629
 20
188.81931
 30
0.0
 11
64.612938
 21
186.941044
 31
0.0
  0
LINE
  5
2A4
100
AcDbEntity
  8
レイヤー_2
 62
     7
100
AcDbLine
 10
52.547352
 20
176.816942
 30
0.0
 11
50.971221
 21
178.69538
 31
0.0
  0
LINE
  5
2A3
100
AcDbEntity
  8
レイヤー_2
 62
     7
100
AcDbLine
 10
71.104704
 20
162.677409
 30
0.0
 11
77.742714
 21
162.677409
 31
0.0
  0
LINE
  5
2A2
100
AcDbEntity
  8
レイヤー_2
 62
     7
100
AcDbLine
 10
64.4679
 20
162.677409
 30
0.0
 11
71.104704
 21
162.677409
 31
0.0
  0
LINE
  5
2A1
100
AcDbEntity
  8
レイヤー_2
 62
     7
100
AcDbLine
 10
64.579693
 20
164.702091
 30
0.0
 11
77.630059
 21
164.702091
 31
0.0
  0
LINE
  5
2A0
100
AcDbEntity
  8
レイヤー_2
 62
     7
100
AcDbLine
 10
66.807808
 20
182.476717
 30
0.0
 11
75.402288
 21
182.476717
 31
0.0
  0
LINE
  5
29F
100
AcDbEntity
  8
レイヤー_2
 62
     7
100
AcDbLine
 10
75.57816
 20
178.724836
 30
0.0
 11
75.578505
 21
178.726903
 31
0.0
  0
LINE
  5
29E
100
AcDbEntity
  8
レイヤー_2
 62
     7
100
AcDbLine
 10
66.528239
 20
167.203231
 30
0.0
 11
66.526689
 21
167.201681
 31
0.0
  0
LINE
  5
29D
100
AcDbEntity
  8
レイヤー_2
 62
     7
100
AcDbLine
 10
76.371049
 20
178.433381
 30
0.0
 11
76.371049
 21
178.433898
 31
0.0
  0
LINE
  5
29C
100
AcDbEntity
  8
レイヤー_2
 62
     7
100
AcDbLine
 10
75.681685
 20
167.203575
 30
0.0
 11
75.683236
 21
167.201681
 31
0.0
  0
LINE
  5
29B
100
AcDbEntity
  8
レイヤー_2
 62
     7
100
AcDbLine
 10
79.232545
 20
181.574274
 30
0.0
 11
84.093058
 21
177.495109
 31
0.0
  0
LINE
  5
29A
100
AcDbEntity
  8
レイヤー_2
 62
     7
100
AcDbLine
 10
58.116866
 20
177.495109
 30
0.0
 11
62.977724
 21
181.574274
 31
0.0
  0
LINE
  5
299
100
AcDbEntity
  8
レイヤー_2
 62
     7
100
AcDbLine
 10
76.430477
 20
154.801921
 30
0.0
 11
76.677662
 21
154.801921
 31
0.0
  0
LINE
  5
298
100
AcDbEntity
  8
レイヤー_2
 62
     7
100
AcDbLine
 10
65.878322
 20
154.801921
 30
0.0
 11
76.430477
 21
154.801921
 31
0.0
  0
SPLINE
  5
297
100
AcDbEntity
  8
レイヤー_2
 62
     7
100
AcDbSpline
210
0.0
220
0.0
230
1.0
 70
     8
 71
     3
 72
    11
 73
     7
 74
     0
 42
0.00000001
 43
0.00000001
 40
0.0
 40
0.0
 40
0.0
 40
0.0
 40
1.0
 40
1.0
 40
1.0
 40
2.0
 40
2.0
 40
2.0
 40
2.0
 10
129.61069335937498
 20
133.18704698350695
 30
0.0
 10
130.37205946180555
 20
133.1705105251736
 30
0.0
 10
131.20715060763888
 20
133.0154812282986
 30
0.0
 10
132.0918511284722
 20
132.64065483940971
 30
0.0
 10
132.38055013020832
 20
132.51800944010415
 30
0.0
 10
132.65546874999998
 20
132.41431206597221
 30
0.0
 10
132.91591796874999
 20
132.32646213107637
 30
0.0
  0
LINE
  5
296
100
AcDbEntity
  8
レイヤー_2
 62
     7
100
AcDbLine
 10
135.123535
 20
152.781889
 30
0.0
 11
134.692898
 21
152.857509
 31
0.0
  0
LINE
  5
295
100
AcDbEntity
  8
レイヤー_2
 62
     7
100
AcDbLine
 10
132.629975
 20
152.857509
 30
0.0
 11
132.199338
 21
152.781889
 31
0.0
  0
LINE
  5
294
100
AcDbEntity
  8
レイヤー_2
 62
     7
100
AcDbLine
 10
132.199338
 20
152.452882
 30
0.0
 11
132.536268
 21
151.86756
 31
0.0
  0
LINE
  5
293
100
AcDbEntity
  8
レイヤー_2
 62
     7
100
AcDbLine
 10
134.785916
 20
151.86756
 30
0.0
 11
135.123535
 21
152.452882
 31
0.0
  0
LINE
  5
292
100
AcDbEntity
  8
レイヤー_2
 62
     7
100
AcDbLine
 10
135.123535
 20
152.452882
 30
0.0
 11
135.123535
 21
152.781889
 31
0.0
  0
LINE
  5
291
100
AcDbEntity
  8
レイヤー_2
 62
     7
100
AcDbLine
 10
132.199338
 20
152.781889
 30
0.0
 11
132.199338
 21
152.452882
 31
0.0
  0
LINE
  5
290
100
AcDbEntity
  8
レイヤー_2
 62
     7
100
AcDbLine
 10
134.785916
 20
146.602593
 30
0.0
 11
134.785916
 21
151.86756
 31
0.0
  0
LINE
  5
28F
100
AcDbEntity
  8
レイヤー_2
 62
     7
100
AcDbLine
 10
132.536268
 20
151.86756
 30
0.0
 11
132.536268
 21
146.602593
 31
0.0
  0
LINE
  5
28E
100
AcDbEntity
  8
レイヤー_2
 62
     7
100
AcDbLine
 10
132.199338
 20
146.602593
 30
0.0
 11
132.151796
 21
146.575377
 31
0.0
  0
LINE
  5
28D
100
AcDbEntity
  8
レイヤー_2
 62
     7
100
AcDbLine
 10
132.151796
 20
143.929544
 30
0.0
 11
132.199338
 21
143.902672
 31
0.0
  0
LINE
  5
28C
100
AcDbEntity
  8
レイヤー_2
 62
     7
100
AcDbLine
 10
135.170388
 20
146.575377
 30
0.0
 11
135.123535
 21
146.602593
 31
0.0
  0
LINE
  5
28B
100
AcDbEntity
  8
レイヤー_2
 62
     7
100
AcDbLine
 10
135.123535
 20
143.902672
 30
0.0
 11
135.170388
 21
143.929544
 31
0.0
  0
SPLINE
  5
28A
100
AcDbEntity
  8
レイヤー_2
 62
     7
100
AcDbSpline
210
0.0
220
0.0
230
1.0
 70
     8
 71
     3
 72
     8
 73
     4
 74
     0
 42
0.00000001
 43
0.00000001
 40
0.0
 40
0.0
 40
0.0
 40
0.0
 40
1.0
 40
1.0
 40
1.0
 40
1.0
 10
125.61231553819444
 20
154.43260633680555
 30
0.0
 10
125.55030381944444
 20
154.43260633680555
 30
0.0
 10
125.49931640624999
 20
154.38213568793401
 30
0.0
 10
125.49931640624999
 20
154.32012396918401
 30
0.0
  0
SPLINE
  5
289
100
AcDbEntity
  8
レイヤー_2
 62
     7
100
AcDbSpline
210
0.0
220
0.0
230
1.0
 70
     8
 71
     3
 72
     8
 73
     4
 74
     0
 42
0.00000001
 43
0.00000001
 40
0.0
 40
0.0
 40
0.0
 40
0.0
 40
1.0
 40
1.0
 40
1.0
 40
1.0
 10
137.19954969618055
 20
154.32012396918401
 30
0.0
 10
137.19954969618055
 20
154.38213568793401
 30
0.0
 10
137.14925130208331
 20
154.43260633680555
 30
0.0
 10
137.08723958333331
 20
154.43260633680555
 30
0.0
  0
LINE
  5
288
100
AcDbEntity
  8
レイヤー_2
 62
     7
100
AcDbLine
 10
137.19955
 20
152.969991
 30
0.0
 11
137.19955
 21
154.320124
 31
0.0
  0
LINE
  5
287
100
AcDbEntity
  8
レイヤー_2
 62
     7
100
AcDbLine
 10
125.499316
 20
154.320124
 30
0.0
 11
125.499316
 21
152.969991
 31
0.0
  0
SPLINE
  5
286
100
AcDbEntity
  8
レイヤー_2
 62
     7
100
AcDbSpline
210
0.0
220
0.0
230
1.0
 70
     8
 71
     3
 72
     8
 73
     4
 74
     0
 42
0.00000001
 43
0.00000001
 40
0.0
 40
0.0
 40
0.0
 40
0.0
 40
1.0
 40
1.0
 40
1.0
 40
1.0
 10
125.49931640624999
 20
152.96999104817706
 30
0.0
 10
125.49931640624999
 20
152.90797932942706
 30
0.0
 10
125.55030381944444
 20
152.85750868055555
 30
0.0
 10
125.61231553819444
 20
152.85750868055555
 30
0.0
  0
SPLINE
  5
285
100
AcDbEntity
  8
レイヤー_2
 62
     7
100
AcDbSpline
210
0.0
220
0.0
230
1.0
 70
     8
 71
     3
 72
     8
 73
     4
 74
     0
 42
0.00000001
 43
0.00000001
 40
0.0
 40
0.0
 40
0.0
 40
0.0
 40
1.0
 40
1.0
 40
1.0
 40
1.0
 10
137.08723958333331
 20
152.85750868055555
 30
0.0
 10
137.14925130208331
 20
152.85750868055555
 30
0.0
 10
137.19954969618055
 20
152.90797932942706
 30
0.0
 10
137.19954969618055
 20
152.96999104817706
 30
0.0
  0
LINE
  5
284
100
AcDbEntity
  8
レイヤー_2
 62
     7
100
AcDbLine
 10
132.27513
 20
154.320124
 30
0.0
 11
132.27513
 21
152.969991
 31
0.0
  0
SPLINE
  5
283
100
AcDbEntity
  8
レイヤー_2
 62
     7
100
AcDbSpline
210
0.0
220
0.0
230
1.0
 70
     8
 71
     3
 72
     8
 73
     4
 74
     0
 42
0.00000001
 43
0.00000001
 40
0.0
 40
0.0
 40
0.0
 40
0.0
 40
1.0
 40
1.0
 40
1.0
 40
1.0
 10
132.38744032118055
 20
154.43260633680555
 30
0.0
 10
132.32542860243055
 20
154.43260633680555
 30
0.0
 10
132.27513020833331
 20
154.38213568793401
 30
0.0
 10
132.27513020833331
 20
154.32012396918401
 30
0.0
  0
SPLINE
  5
282
100
AcDbEntity
  8
レイヤー_2
 62
     7
100
AcDbSpline
210
0.0
220
0.0
230
1.0
 70
     8
 71
     3
 72
     8
 73
     4
 74
     0
 42
0.00000001
 43
0.00000001
 40
0.0
 40
0.0
 40
0.0
 40
0.0
 40
1.0
 40
1.0
 40
1.0
 40
1.0
 10
132.27513020833331
 20
152.96999104817706
 30
0.0
 10
132.27513020833331
 20
152.90797932942706
 30
0.0
 10
132.32542860243055
 20
152.85750868055555
 30
0.0
 10
132.38744032118055
 20
152.85750868055555
 30
0.0
  0
SPLINE
  5
281
100
AcDbEntity
  8
レイヤー_2
 62
     7
100
AcDbSpline
210
0.0
220
0.0
230
1.0
 70
     8
 71
     3
 72
     8
 73
     4
 74
     0
 42
0.00000001
 43
0.00000001
 40
0.0
 40
0.0
 40
0.0
 40
0.0
 40
1.0
 40
1.0
 40
1.0
 40
1.0
 10
127.87229817708332
 20
154.32012396918401
 30
0.0
 10
127.87229817708332
 20
154.38213568793401
 30
0.0
 10
127.8219997829861
 20
154.43260633680555
 30
0.0
 10
127.7599880642361
 20
154.43260633680555
 30
0.0
  0
LINE
  5
280
100
AcDbEntity
  8
レイヤー_2
 62
     7
100
AcDbLine
 10
127.872298
 20
153.999213
 30
0.0
 11
127.872298
 21
154.320124
 31
0.0
  0
SPLINE
  5
27F
100
AcDbEntity
  8
レイヤー_2
 62
     7
100
AcDbSpline
210
0.0
220
0.0
230
1.0
 70
     8
 71
     3
 72
     8
 73
     4
 74
     0
 42
0.00000001
 43
0.00000001
 40
0.0
 40
0.0
 40
0.0
 40
0.0
 40
1.0
 40
1.0
 40
1.0
 40
1.0
 10
127.98736436631943
 20
153.98216010199653
 30
0.0
 10
127.98736436631943
 20
154.04468858506942
 30
0.0
 10
127.93637695312499
 20
154.09533148871526
 30
0.0
 10
127.87436523437499
 20
154.09533148871526
 30
0.0
  0
LINE
  5
27E
100
AcDbEntity
  8
レイヤー_2
 62
     7
100
AcDbLine
 10
127.987364
 20
152.969991
 30
0.0
 11
127.987364
 21
153.98216
 31
0.0
  0
SPLINE
  5
27D
100
AcDbEntity
  8
レイヤー_2
 62
     7
100
AcDbSpline
210
0.0
220
0.0
230
1.0
 70
     8
 71
     3
 72
     8
 73
     4
 74
     0
 42
0.00000001
 43
0.00000001
 40
0.0
 40
0.0
 40
0.0
 40
0.0
 40
1.0
 40
1.0
 40
1.0
 40
1.0
 10
132.19933810763888
 20
154.09533148871526
 30
0.0
 10
132.13663736979166
 20
154.09533148871526
 30
0.0
 10
132.08702799479167
 20
154.04468858506942
 30
0.0
 10
132.08702799479167
 20
153.98216010199653
 30
0.0
  0
SPLINE
  5
27C
100
AcDbEntity
  8
レイヤー_2
 62
     7
100
AcDbSpline
210
0.0
220
0.0
230
1.0
 70
     8
 71
     3
 72
     8
 73
     4
 74
     0
 42
0.00000001
 43
0.00000001
 40
0.0
 40
0.0
 40
0.0
 40
0.0
 40
1.0
 40
1.0
 40
1.0
 40
1.0
 10
132.08702799479167
 20
152.96999104817706
 30
0.0
 10
132.08702799479167
 20
152.90797932942706
 30
0.0
 10
132.13663736979166
 20
152.85750868055555
 30
0.0
 10
132.19933810763888
 20
152.85750868055555
 30
0.0
  0
LINE
  5
27B
100
AcDbEntity
  8
レイヤー_2
 62
     7
100
AcDbLine
 10
132.087028
 20
153.98216
 30
0.0
 11
132.087028
 21
152.969991
 31
0.0
  0
LINE
  5
27A
100
AcDbEntity
  8
レイヤー_2
 62
     7
100
AcDbLine
 10
132.915229
 20
132.326462
 30
0.0
 11
131.861719
 21
140.90785
 31
0.0
  0
LINE
  5
279
100
AcDbEntity
  8
レイヤー_2
 62
     7
100
AcDbLine
 10
129.543859
 20
159.782323
 30
0.0
 11
129.443951
 21
160.594676
 31
0.0
  0
LINE
  5
278
100
AcDbEntity
  8
レイヤー_2
 62
     7
100
AcDbLine
 10
129.394341
 20
161.001198
 30
0.0
 11
129.217263
 21
162.442626
 31
0.0
  0
LINE
  5
277
100
AcDbEntity
  8
レイヤー_2
 62
     7
100
AcDbLine
 10
128.310514
 20
162.442626
 30
0.0
 11
129.252403
 21
154.769881
 31
0.0
  0
LINE
  5
276
100
AcDbEntity
  8
レイヤー_2
 62
     7
100
AcDbLine
 10
129.335086
 20
154.095331
 30
0.0
 11
129.611382
 21
151.847579
 31
0.0
  0
LINE
  5
275
100
AcDbEntity
  8
レイヤー_2
 62
     7
100
AcDbLine
 10
131.861719
 20
133.522599
 30
0.0
 11
131.963694
 21
132.69302
 31
0.0
  0
LINE
  5
274
100
AcDbEntity
  8
レイヤー_2
 62
     7
100
AcDbLine
 10
127.024805
 20
169.732448
 30
0.0
 11
124.912272
 21
169.732448
 31
0.0
  0
LINE
  5
273
100
AcDbEntity
  8
レイヤー_2
 62
     7
100
AcDbLine
 10
124.912272
 20
168.157694
 30
0.0
 11
126.984842
 21
168.157694
 31
0.0
  0
SPLINE
  5
272
100
AcDbEntity
  8
レイヤー_2
 62
     7
100
AcDbSpline
210
0.0
220
0.0
230
1.0
 70
     8
 71
     3
 72
     8
 73
     4
 74
     0
 42
0.00000001
 43
0.00000001
 40
0.0
 40
0.0
 40
0.0
 40
0.0
 40
1.0
 40
1.0
 40
1.0
 40
1.0
 10
132.08702799479167
 20
158.05477973090277
 30
0.0
 10
132.08702799479167
 20
158.20378011067706
 30
0.0
 10
132.04430881076388
 20
158.34434000651041
 30
0.0
 10
131.97402886284721
 20
158.46026746961803
 30
0.0
  0
SPLINE
  5
271
100
AcDbEntity
  8
レイヤー_2
 62
     7
100
AcDbSpline
210
0.0
220
0.0
230
1.0
 70
     8
 71
     3
 72
     8
 73
     4
 74
     0
 42
0.00000001
 43
0.00000001
 40
0.0
 40
0.0
 40
0.0
 40
0.0
 40
1.0
 40
1.0
 40
1.0
 40
1.0
 10
129.49907226562499
 20
158.46026746961803
 30
0.0
 10
129.42121310763886
 20
158.3315931532118
 30
0.0
 10
129.38538411458333
 20
158.19017198350693
 30
0.0
 10
129.38607313368055
 20
158.05477973090277
 30
0.0
  0
LINE
  5
270
100
AcDbEntity
  8
レイヤー_2
 62
     7
100
AcDbLine
 10
132.087028
 20
157.222789
 30
0.0
 11
132.087028
 21
158.05478
 31
0.0
  0
LINE
  5
26F
100
AcDbEntity
  8
レイヤー_2
 62
     7
100
AcDbLine
 10
129.386073
 20
158.05478
 30
0.0
 11
129.386073
 21
157.222789
 31
0.0
  0
SPLINE
  5
26E
100
AcDbEntity
  8
レイヤー_2
 62
     7
100
AcDbSpline
210
0.0
220
0.0
230
1.0
 70
     8
 71
     3
 72
     8
 73
     4
 74
     0
 42
0.00000001
 43
0.00000001
 40
0.0
 40
0.0
 40
0.0
 40
0.0
 40
1.0
 40
1.0
 40
1.0
 40
1.0
 10
132.08702799479167
 20
160.89078233506942
 30
0.0
 10
132.08702799479167
 20
161.0042982313368
 30
0.0
 10
132.06222330729165
 20
161.11212972005208
 30
0.0
 10
132.02088216145833
 20
161.20514729817708
 30
0.0
  0
SPLINE
  5
26D
100
AcDbEntity
  8
レイヤー_2
 62
     7
100
AcDbSpline
210
0.0
220
0.0
230
1.0
 70
     8
 71
     3
 72
     8
 73
     4
 74
     0
 42
0.00000001
 43
0.00000001
 40
0.0
 40
0.0
 40
0.0
 40
0.0
 40
1.0
 40
1.0
 40
1.0
 40
1.0
 10
131.97402886284721
 20
160.48495008680555
 30
0.0
 10
132.05050998263889
 20
160.61396891276041
 30
0.0
 10
132.08771701388886
 20
160.75504557291666
 30
0.0
 10
132.08702799479167
 20
160.89078233506942
 30
0.0
  0
SPLINE
  5
26C
100
AcDbEntity
  8
レイヤー_2
 62
     7
100
AcDbSpline
210
0.0
220
0.0
230
1.0
 70
     8
 71
     3
 72
     8
 73
     4
 74
     0
 42
0.00000001
 43
0.00000001
 40
0.0
 40
0.0
 40
0.0
 40
0.0
 40
1.0
 40
1.0
 40
1.0
 40
1.0
 10
129.45221896701386
 20
161.20514729817708
 30
0.0
 10
129.34679904513888
 20
160.96312934027776
 30
0.0
 10
129.3722927517361
 20
160.69802924262152
 30
0.0
 10
129.49907226562499
 20
160.48495008680555
 30
0.0
  0
SPLINE
  5
26B
100
AcDbEntity
  8
レイヤー_2
 62
     7
100
AcDbSpline
210
0.0
220
0.0
230
1.0
 70
     8
 71
     3
 72
     8
 73
     4
 74
     0
 42
0.00000001
 43
0.00000001
 40
0.0
 40
0.0
 40
0.0
 40
0.0
 40
1.0
 40
1.0
 40
1.0
 40
1.0
 10
132.02088216145833
 20
161.20514729817708
 30
0.0
 10
132.00227864583331
 20
161.24700520833332
 30
0.0
 10
131.96162651909722
 20
161.27215440538194
 30
0.0
 10
131.91821831597221
 20
161.27249891493054
 30
0.0
  0
SPLINE
  5
26A
100
AcDbEntity
  8
レイヤー_2
 62
     7
100
AcDbSpline
210
0.0
220
0.0
230
1.0
 70
     8
 71
     3
 72
     8
 73
     4
 74
     0
 42
0.00000001
 43
0.00000001
 40
0.0
 40
0.0
 40
0.0
 40
0.0
 40
1.0
 40
1.0
 40
1.0
 40
1.0
 10
129.55419379340276
 20
161.27249891493054
 30
0.0
 10
129.50871853298611
 20
161.27249891493054
 30
0.0
 10
129.47013346354166
 20
161.24493815104165
 30
0.0
 10
129.45221896701386
 20
161.20514729817708
 30
0.0
  0
LINE
  5
269
100
AcDbEntity
  8
レイヤー_2
 62
     7
100
AcDbLine
 10
131.974029
 20
161.272499
 30
0.0
 11
131.974029
 21
161.497636
 31
0.0
  0
LINE
  5
268
100
AcDbEntity
  8
レイヤー_2
 62
     7
100
AcDbLine
 10
129.499072
 20
161.497636
 30
0.0
 11
129.499072
 21
161.272499
 31
0.0
  0
LINE
  5
267
100
AcDbEntity
  8
レイヤー_2
 62
     7
100
AcDbLine
 10
131.861719
 20
132.733672
 30
0.0
 11
131.861719
 21
154.095331
 31
0.0
  0
LINE
  5
266
100
AcDbEntity
  8
レイヤー_2
 62
     7
100
AcDbLine
 10
131.861719
 20
154.769881
 30
0.0
 11
131.861719
 21
157.222789
 31
0.0
  0
LINE
  5
265
100
AcDbEntity
  8
レイヤー_2
 62
     7
100
AcDbLine
 10
129.611382
 20
157.222789
 30
0.0
 11
129.611382
 21
154.769881
 31
0.0
  0
LINE
  5
264
100
AcDbEntity
  8
レイヤー_2
 62
     7
100
AcDbLine
 10
129.611382
 20
154.095331
 30
0.0
 11
129.611382
 21
133.187047
 31
0.0
  0
LINE
  5
263
100
AcDbEntity
  8
レイヤー_2
 62
     7
100
AcDbLine
 10
134.561296
 20
154.769881
 30
0.0
 11
134.561296
 21
162.442626
 31
0.0
  0
LINE
  5
262
100
AcDbEntity
  8
レイヤー_2
 62
     7
100
AcDbLine
 10
132.761578
 20
162.442626
 30
0.0
 11
132.761578
 21
154.769881
 31
0.0
  0
LINE
  5
261
100
AcDbEntity
  8
レイヤー_2
 62
     7
100
AcDbLine
 10
134.167866
 20
179.209733
 30
0.0
 11
134.167866
 21
179.98488
 31
0.0
  0
LINE
  5
260
100
AcDbEntity
  8
レイヤー_2
 62
     7
100
AcDbLine
 10
128.655024
 20
179.98488
 30
0.0
 11
128.655024
 21
179.209733
 31
0.0
  0
POLYLINE
  5
24E
100
AcDbEntity
  8
レイヤー_2
 62
     7
100
AcDb2dPolyline
 66
     1
 10
0.0
 20
0.0
 30
0.0
  0
VERTEX
  5
24F
100
AcDbEntity
  8
レイヤー_2
 62
     7
100
AcDbVertex
100
AcDb2dVertex
 10
130.010324
 20
177.882338
 30
0.0
  0
VERTEX
  5
250
100
AcDbEntity
  8
レイヤー_2
 62
     7
100
AcDbVertex
100
AcDb2dVertex
 10
130.022038
 20
177.666503
 30
0.0
  0
VERTEX
  5
251
100
AcDbEntity
  8
レイヤー_2
 62
     7
100
AcDbVertex
100
AcDb2dVertex
 10
130.104031
 20
177.425346
 30
0.0
  0
VERTEX
  5
252
100
AcDbEntity
  8
レイヤー_2
 62
     7
100
AcDbVertex
100
AcDb2dVertex
 10
130.250792
 20
177.20641
 30
0.0
  0
VERTEX
  5
253
100
AcDbEntity
  8
レイヤー_2
 62
     7
100
AcDbVertex
100
AcDb2dVertex
 10
130.454053
 20
177.017274
 30
0.0
  0
VERTEX
  5
254
100
AcDbEntity
  8
レイヤー_2
 62
     7
100
AcDbVertex
100
AcDb2dVertex
 10
130.707612
 20
176.869652
 30
0.0
  0
VERTEX
  5
255
100
AcDbEntity
  8
レイヤー_2
 62
     7
100
AcDbVertex
100
AcDb2dVertex
 10
130.996311
 20
176.769227
 30
0.0
  0
VERTEX
  5
256
100
AcDbEntity
  8
レイヤー_2
 62
     7
100
AcDbVertex
100
AcDb2dVertex
 10
131.309125
 20
176.723063
 30
0.0
  0
VERTEX
  5
257
100
AcDbEntity
  8
レイヤー_2
 62
     7
100
AcDbVertex
100
AcDb2dVertex
 10
131.626763
 20
176.733226
 30
0.0
  0
VERTEX
  5
258
100
AcDbEntity
  8
レイヤー_2
 62
     7
100
AcDbVertex
100
AcDb2dVertex
 10
131.933377
 20
176.799889
 30
0.0
  0
VERTEX
  5
259
100
AcDbEntity
  8
レイヤー_2
 62
     7
100
AcDbVertex
100
AcDb2dVertex
 10
132.215875
 20
176.920467
 30
0.0
  0
VERTEX
  5
25A
100
AcDbEntity
  8
レイヤー_2
 62
     7
100
AcDbVertex
100
AcDb2dVertex
 10
132.45772
 20
177.089449
 30
0.0
  0
VERTEX
  5
25B
100
AcDbEntity
  8
レイヤー_2
 62
     7
100
AcDbVertex
100
AcDb2dVertex
 10
132.645133
 20
177.300117
 30
0.0
  0
VERTEX
  5
25C
100
AcDbEntity
  8
レイヤー_2
 62
     7
100
AcDbVertex
100
AcDb2dVertex
 10
132.766401
 20
177.540412
 30
0.0
  0
VERTEX
  5
25D
100
AcDbEntity
  8
レイヤー_2
 62
     7
100
AcDbVertex
100
AcDb2dVertex
 10
132.81601
 20
177.79466
 30
0.0
  0
VERTEX
  5
25E
100
AcDbEntity
  8
レイヤー_2
 62
     7
100
AcDbVertex
100
AcDb2dVertex
 10
132.813254
 20
177.828078
 30
0.0
  0
SEQEND
  5
25F
100
AcDbEntity
  8
レイヤー_2
 62
     7
  0
LINE
  5
24D
100
AcDbEntity
  8
レイヤー_2
 62
     7
100
AcDbLine
 10
132.818077
 20
177.839619
 30
0.0
 11
132.818077
 21
181.766511
 31
0.0
  0
LINE
  5
24C
100
AcDbEntity
  8
レイヤー_2
 62
     7
100
AcDbLine
 10
130.004812
 20
181.766511
 30
0.0
 11
130.004812
 21
177.839619
 31
0.0
  0
SPLINE
  5
24B
100
AcDbEntity
  8
レイヤー_2
 62
     7
100
AcDbSpline
210
0.0
220
0.0
230
1.0
 70
     8
 71
     3
 72
     8
 73
     4
 74
     0
 42
0.00000001
 43
0.00000001
 40
0.0
 40
0.0
 40
0.0
 40
0.0
 40
1.0
 40
1.0
 40
1.0
 40
1.0
 10
123.71613498263888
 20
184.19168565538192
 30
0.0
 10
123.61691623263887
 20
184.19168565538192
 30
0.0
 10
123.53630099826388
 20
184.11210394965275
 30
0.0
 10
123.53630099826388
 20
184.01185167100692
 30
0.0
  0
SPLINE
  5
24A
100
AcDbEntity
  8
レイヤー_2
 62
     7
100
AcDbSpline
210
0.0
220
0.0
230
1.0
 70
     8
 71
     3
 72
     8
 73
     4
 74
     0
 42
0.00000001
 43
0.00000001
 40
0.0
 40
0.0
 40
0.0
 40
0.0
 40
1.0
 40
1.0
 40
1.0
 40
1.0
 10
123.53630099826388
 20
181.55928819444443
 30
0.0
 10
123.53630099826388
 20
181.46006944444443
 30
0.0
 10
123.61691623263887
 20
181.37945421006944
 30
0.0
 10
123.71613498263888
 20
181.37945421006944
 30
0.0
  0
LINE
  5
249
100
AcDbEntity
  8
レイヤー_2
 62
     7
100
AcDbLine
 10
130.391352
 20
184.191686
 30
0.0
 11
123.716135
 21
184.191686
 31
0.0
  0
LINE
  5
248
100
AcDbEntity
  8
レイヤー_2
 62
     7
100
AcDbLine
 10
123.716135
 20
181.379454
 30
0.0
 11
130.004812
 21
181.379454
 31
0.0
  0
LINE
  5
247
100
AcDbEntity
  8
レイヤー_2
 62
     7
100
AcDbLine
 10
139.106755
 20
184.191686
 30
0.0
 11
132.430849
 21
184.191686
 31
0.0
  0
LINE
  5
246
100
AcDbEntity
  8
レイヤー_2
 62
     7
100
AcDbLine
 10
132.818077
 20
181.379454
 30
0.0
 11
139.106755
 21
181.379454
 31
0.0
  0
SPLINE
  5
245
100
AcDbEntity
  8
レイヤー_2
 62
     7
100
AcDbSpline
210
0.0
220
0.0
230
1.0
 70
     8
 71
     3
 72
     8
 73
     4
 74
     0
 42
0.00000001
 43
0.00000001
 40
0.0
 40
0.0
 40
0.0
 40
0.0
 40
1.0
 40
1.0
 40
1.0
 40
1.0
 10
139.10675455729165
 20
181.37945421006944
 30
0.0
 10
139.20597330729166
 20
181.37945421006944
 30
0.0
 10
139.28658854166665
 20
181.46006944444443
 30
0.0
 10
139.28658854166665
 20
181.55928819444443
 30
0.0
  0
SPLINE
  5
244
100
AcDbEntity
  8
レイヤー_2
 62
     7
100
AcDbSpline
210
0.0
220
0.0
230
1.0
 70
     8
 71
     3
 72
     8
 73
     4
 74
     0
 42
0.00000001
 43
0.00000001
 40
0.0
 40
0.0
 40
0.0
 40
0.0
 40
1.0
 40
1.0
 40
1.0
 40
1.0
 10
139.28658854166665
 20
184.01185167100692
 30
0.0
 10
139.28658854166665
 20
184.11210394965275
 30
0.0
 10
139.20597330729166
 20
184.19168565538192
 30
0.0
 10
139.10675455729165
 20
184.19168565538192
 30
0.0
  0
LINE
  5
243
100
AcDbEntity
  8
レイヤー_2
 62
     7
100
AcDbLine
 10
132.818077
 20
184.191686
 30
0.0
 11
132.818077
 21
187.73221
 31
0.0
  0
LINE
  5
242
100
AcDbEntity
  8
レイヤー_2
 62
     7
100
AcDbLine
 10
130.004812
 20
187.73221
 30
0.0
 11
130.004812
 21
184.191686
 31
0.0
  0
LINE
  5
241
100
AcDbEntity
  8
レイヤー_2
 62
     7
100
AcDbLine
 10
129.92213
 20
181.379454
 30
0.0
 11
129.936599
 21
180.028805
 31
0.0
  0
LINE
  5
240
100
AcDbEntity
  8
レイヤー_2
 62
     7
100
AcDbLine
 10
132.88629
 20
180.028805
 30
0.0
 11
132.90076
 21
181.379454
 31
0.0
  0
POLYLINE
  5
22E
100
AcDbEntity
  8
レイヤー_2
 62
     7
100
AcDb2dPolyline
 66
     1
 10
0.0
 20
0.0
 30
0.0
  0
VERTEX
  5
22F
100
AcDbEntity
  8
レイヤー_2
 62
     7
100
AcDbVertex
100
AcDb2dVertex
 10
132.809809
 20
187.733761
 30
0.0
  0
VERTEX
  5
230
100
AcDbEntity
  8
レイヤー_2
 62
     7
100
AcDbVertex
100
AcDb2dVertex
 10
132.800852
 20
187.904982
 30
0.0
  0
VERTEX
  5
231
100
AcDbEntity
  8
レイヤー_2
 62
     7
100
AcDbVertex
100
AcDb2dVertex
 10
132.718859
 20
188.146828
 30
0.0
  0
VERTEX
  5
232
100
AcDbEntity
  8
レイヤー_2
 62
     7
100
AcDbVertex
100
AcDb2dVertex
 10
132.571408
 20
188.365763
 30
0.0
  0
VERTEX
  5
233
100
AcDbEntity
  8
レイヤー_2
 62
     7
100
AcDbVertex
100
AcDb2dVertex
 10
132.368148
 20
188.553866
 30
0.0
  0
VERTEX
  5
234
100
AcDbEntity
  8
レイヤー_2
 62
     7
100
AcDbVertex
100
AcDb2dVertex
 10
132.114589
 20
188.701832
 30
0.0
  0
VERTEX
  5
235
100
AcDbEntity
  8
レイヤー_2
 62
     7
100
AcDbVertex
100
AcDb2dVertex
 10
131.82589
 20
188.801912
 30
0.0
  0
VERTEX
  5
236
100
AcDbEntity
  8
レイヤー_2
 62
     7
100
AcDbVertex
100
AcDb2dVertex
 10
131.513764
 20
188.848249
 30
0.0
  0
VERTEX
  5
237
100
AcDbEntity
  8
レイヤー_2
 62
     7
100
AcDbVertex
100
AcDb2dVertex
 10
131.196815
 20
188.838258
 30
0.0
  0
VERTEX
  5
238
100
AcDbEntity
  8
レイヤー_2
 62
     7
100
AcDbVertex
100
AcDb2dVertex
 10
130.889513
 20
188.77194
 30
0.0
  0
VERTEX
  5
239
100
AcDbEntity
  8
レイヤー_2
 62
     7
100
AcDbVertex
100
AcDb2dVertex
 10
130.606326
 20
188.651362
 30
0.0
  0
VERTEX
  5
23A
100
AcDbEntity
  8
レイヤー_2
 62
     7
100
AcDbVertex
100
AcDb2dVertex
 10
130.365169
 20
188.481691
 30
0.0
  0
VERTEX
  5
23B
100
AcDbEntity
  8
レイヤー_2
 62
     7
100
AcDbVertex
100
AcDb2dVertex
 10
130.177756
 20
188.27154
 30
0.0
  0
VERTEX
  5
23C
100
AcDbEntity
  8
レイヤー_2
 62
     7
100
AcDbVertex
100
AcDb2dVertex
 10
130.0558
 20
188.0309
 30
0.0
  0
VERTEX
  5
23D
100
AcDbEntity
  8
レイヤー_2
 62
     7
100
AcDbVertex
100
AcDb2dVertex
 10
130.00619
 20
187.776997
 30
0.0
  0
VERTEX
  5
23E
100
AcDbEntity
  8
レイヤー_2
 62
     7
100
AcDbVertex
100
AcDb2dVertex
 10
130.015837
 20
187.6795
 30
0.0
  0
SEQEND
  5
23F
100
AcDbEntity
  8
レイヤー_2
 62
     7
  0
SPLINE
  5
22D
100
AcDbEntity
  8
レイヤー_2
 62
     7
100
AcDbSpline
210
0.0
220
0.0
230
1.0
 70
     8
 71
     3
 72
     8
 73
     4
 74
     0
 42
0.00000001
 43
0.00000001
 40
0.0
 40
0.0
 40
0.0
 40
0.0
 40
1.0
 40
1.0
 40
1.0
 40
1.0
 10
138.04842122395831
 20
164.55756971571179
 30
0.0
 10
138.04842122395831
 20
164.61958143446179
 30
0.0
 10
137.9981228298611
 20
164.669879828559
 30
0.0
 10
137.9361111111111
 20
164.669879828559
 30
0.0
  0
SPLINE
  5
22C
100
AcDbEntity
  8
レイヤー_2
 62
     7
100
AcDbSpline
210
0.0
220
0.0
230
1.0
 70
     8
 71
     3
 72
     8
 73
     4
 74
     0
 42
0.00000001
 43
0.00000001
 40
0.0
 40
0.0
 40
0.0
 40
0.0
 40
1.0
 40
1.0
 40
1.0
 40
1.0
 10
124.88677842881944
 20
164.669879828559
 30
0.0
 10
124.82476671006944
 20
164.669879828559
 30
0.0
 10
124.77377929687499
 20
164.61958143446179
 30
0.0
 10
124.77377929687499
 20
164.55756971571179
 30
0.0
  0
LINE
  5
22B
100
AcDbEntity
  8
レイヤー_2
 62
     7
100
AcDbLine
 10
124.773779
 20
164.55757
 30
0.0
 11
124.773779
 21
162.645369
 31
0.0
  0
LINE
  5
22A
100
AcDbEntity
  8
レイヤー_2
 62
     7
100
AcDbLine
 10
138.048421
 20
162.645369
 30
0.0
 11
138.048421
 21
164.55757
 31
0.0
  0
SPLINE
  5
229
100
AcDbEntity
  8
レイヤー_2
 62
     7
100
AcDbSpline
210
0.0
220
0.0
230
1.0
 70
     8
 71
     3
 72
     8
 73
     4
 74
     0
 42
0.00000001
 43
0.00000001
 40
0.0
 40
0.0
 40
0.0
 40
0.0
 40
1.0
 40
1.0
 40
1.0
 40
1.0
 10
134.75559895833331
 20
179.40438096788193
 30
0.0
 10
134.69427625868053
 20
180.13112386067706
 30
0.0
 10
134.2464138454861
 20
180.73298204210067
 30
0.0
 10
133.62147352430554
 20
181.02874348958332
 30
0.0
  0
POLYLINE
  5
21F
100
AcDbEntity
  8
レイヤー_2
 62
     7
100
AcDb2dPolyline
 66
     1
 10
0.0
 20
0.0
 30
0.0
  0
VERTEX
  5
220
100
AcDbEntity
  8
レイヤー_2
 62
     7
100
AcDbVertex
100
AcDb2dVertex
 10
129.175233
 20
181.01393
 30
0.0
  0
VERTEX
  5
221
100
AcDbEntity
  8
レイヤー_2
 62
     7
100
AcDbVertex
100
AcDb2dVertex
 10
128.986442
 20
180.901619
 30
0.0
  0
VERTEX
  5
222
100
AcDbEntity
  8
レイヤー_2
 62
     7
100
AcDbVertex
100
AcDb2dVertex
 10
128.670871
 20
180.648749
 30
0.0
  0
VERTEX
  5
223
100
AcDbEntity
  8
レイヤー_2
 62
     7
100
AcDbVertex
100
AcDb2dVertex
 10
128.415934
 20
180.366252
 30
0.0
  0
VERTEX
  5
224
100
AcDbEntity
  8
レイヤー_2
 62
     7
100
AcDbVertex
100
AcDb2dVertex
 10
128.225765
 20
180.061188
 30
0.0
  0
VERTEX
  5
225
100
AcDbEntity
  8
レイヤー_2
 62
     7
100
AcDbVertex
100
AcDb2dVertex
 10
128.106565
 20
179.739933
 30
0.0
  0
VERTEX
  5
226
100
AcDbEntity
  8
レイヤー_2
 62
     7
100
AcDbVertex
100
AcDb2dVertex
 10
128.059711
 20
179.412477
 30
0.0
  0
VERTEX
  5
227
100
AcDbEntity
  8
レイヤー_2
 62
     7
100
AcDbVertex
100
AcDb2dVertex
 10
128.075559
 20
179.205943
 30
0.0
  0
SEQEND
  5
228
100
AcDbEntity
  8
レイヤー_2
 62
     7
  0
LINE
  5
21E
100
AcDbEntity
  8
レイヤー_2
 62
     7
100
AcDbLine
 10
134.763178
 20
170.664174
 30
0.0
 11
134.763178
 21
179.364418
 31
0.0
  0
LINE
  5
21D
100
AcDbEntity
  8
レイヤー_2
 62
     7
100
AcDbLine
 10
128.058333
 20
179.364418
 30
0.0
 11
128.058333
 21
170.665724
 31
0.0
  0
LINE
  5
21C
100
AcDbEntity
  8
レイヤー_2
 62
     7
100
AcDbLine
 10
135.889035
 20
164.850231
 30
0.0
 11
135.889035
 21
181.379454
 31
0.0
  0
LINE
  5
21B
100
AcDbEntity
  8
レイヤー_2
 62
     7
100
AcDbLine
 10
126.933854
 20
167.826793
 30
0.0
 11
126.933854
 21
164.850231
 31
0.0
  0
LINE
  5
21A
100
AcDbEntity
  8
レイヤー_2
 62
     7
100
AcDbLine
 10
126.933854
 20
178.698136
 30
0.0
 11
126.933854
 21
175.008956
 31
0.0
  0
LINE
  5
219
100
AcDbEntity
  8
レイヤー_2
 62
     7
100
AcDbLine
 10
126.933854
 20
181.379454
 30
0.0
 11
126.933854
 21
180.350404
 31
0.0
  0
SPLINE
  5
218
100
AcDbEntity
  8
レイヤー_2
 62
     7
100
AcDbSpline
210
0.0
220
0.0
230
1.0
 70
     8
 71
     3
 72
     8
 73
     4
 74
     0
 42
0.00000001
 43
0.00000001
 40
0.0
 40
0.0
 40
0.0
 40
0.0
 40
1.0
 40
1.0
 40
1.0
 40
1.0
 10
126.93385416666665
 20
164.85023057725692
 30
0.0
 10
126.93385416666665
 20
164.75066731770832
 30
0.0
 10
127.01446940104165
 20
164.669879828559
 30
0.0
 10
127.11368815104166
 20
164.669879828559
 30
0.0
  0
SPLINE
  5
217
100
AcDbEntity
  8
レイヤー_2
 62
     7
100
AcDbSpline
210
0.0
220
0.0
230
1.0
 70
     8
 71
     3
 72
     8
 73
     4
 74
     0
 42
0.00000001
 43
0.00000001
 40
0.0
 40
0.0
 40
0.0
 40
0.0
 40
1.0
 40
1.0
 40
1.0
 40
1.0
 10
135.70920138888889
 20
164.669879828559
 30
0.0
 10
135.80842013888886
 20
164.669879828559
 30
0.0
 10
135.88903537326388
 20
164.75066731770832
 30
0.0
 10
135.88903537326388
 20
164.85023057725692
 30
0.0
  0
SPLINE
  5
216
100
AcDbEntity
  8
レイヤー_2
 62
     7
100
AcDbSpline
210
0.0
220
0.0
230
1.0
 70
     8
 71
     3
 72
     8
 73
     4
 74
     0
 42
0.00000001
 43
0.00000001
 40
0.0
 40
0.0
 40
0.0
 40
0.0
 40
1.0
 40
1.0
 40
1.0
 40
1.0
 10
126.0236599392361
 20
162.64536946614581
 30
0.0
 10
126.10978732638888
 20
162.51462809244791
 30
0.0
 10
126.25241427951387
 20
162.44297010633679
 30
0.0
 10
126.39986436631943
 20
162.44262559678819
 30
0.0
  0
SPLINE
  5
215
100
AcDbEntity
  8
レイヤー_2
 62
     7
100
AcDbSpline
210
0.0
220
0.0
230
1.0
 70
     8
 71
     3
 72
     8
 73
     4
 74
     0
 42
0.00000001
 43
0.00000001
 40
0.0
 40
0.0
 40
0.0
 40
0.0
 40
1.0
 40
1.0
 40
1.0
 40
1.0
 10
136.29969075520833
 20
162.44262559678819
 30
0.0
 10
136.45609809027778
 20
162.44262559678819
 30
0.0
 10
136.59321289062498
 20
162.52237955729166
 30
0.0
 10
136.67520616319445
 20
162.64536946614581
 30
0.0
  0
LINE
  5
214
100
AcDbEntity
  8
レイヤー_2
 62
     7
100
AcDbLine
 10
126.399864
 20
162.442626
 30
0.0
 11
136.299691
 21
162.442626
 31
0.0
  0
LINE
  5
213
100
AcDbEntity
  8
レイヤー_2
 62
     7
100
AcDbLine
 10
136.74962
 20
154.432606
 30
0.0
 11
136.74962
 21
154.769881
 31
0.0
  0
LINE
  5
212
100
AcDbEntity
  8
レイヤー_2
 62
     7
100
AcDbLine
 10
125.949246
 20
154.769881
 30
0.0
 11
125.949246
 21
154.432606
 31
0.0
  0
LINE
  5
211
100
AcDbEntity
  8
レイヤー_2
 62
     7
100
AcDbLine
 10
134.869287
 20
144.033586
 30
0.0
 11
134.055556
 21
143.902672
 31
0.0
  0
POLYLINE
  5
20C
100
AcDbEntity
  8
レイヤー_2
 62
     7
100
AcDb2dPolyline
 66
     1
 10
0.0
 20
0.0
 30
0.0
  0
VERTEX
  5
20D
100
AcDbEntity
  8
レイヤー_2
 62
     7
100
AcDbVertex
100
AcDb2dVertex
 10
134.055556
 20
143.902672
 30
0.0
  0
VERTEX
  5
20E
100
AcDbEntity
  8
レイヤー_2
 62
     7
100
AcDbVertex
100
AcDb2dVertex
 10
133.997678
 20
143.903016
 30
0.0
  0
VERTEX
  5
20F
100
AcDbEntity
  8
レイヤー_2
 62
     7
100
AcDbVertex
100
AcDb2dVertex
 10
133.242513
 20
144.033586
 30
0.0
  0
SEQEND
  5
210
100
AcDbEntity
  8
レイヤー_2
 62
     7
  0
LINE
  5
20B
100
AcDbEntity
  8
レイヤー_2
 62
     7
100
AcDbLine
 10
133.242513
 20
144.033586
 30
0.0
 11
133.242513
 21
146.47168
 31
0.0
  0
POLYLINE
  5
206
100
AcDbEntity
  8
レイヤー_2
 62
     7
100
AcDb2dPolyline
 66
     1
 10
0.0
 20
0.0
 30
0.0
  0
VERTEX
  5
207
100
AcDbEntity
  8
レイヤー_2
 62
     7
100
AcDbVertex
100
AcDb2dVertex
 10
134.055556
 20
146.602593
 30
0.0
  0
VERTEX
  5
208
100
AcDbEntity
  8
レイヤー_2
 62
     7
100
AcDbVertex
100
AcDb2dVertex
 10
133.997678
 20
146.601904
 30
0.0
  0
VERTEX
  5
209
100
AcDbEntity
  8
レイヤー_2
 62
     7
100
AcDbVertex
100
AcDb2dVertex
 10
133.242513
 20
146.47168
 30
0.0
  0
SEQEND
  5
20A
100
AcDbEntity
  8
レイヤー_2
 62
     7
  0
LINE
  5
205
100
AcDbEntity
  8
レイヤー_2
 62
     7
100
AcDbLine
 10
134.869287
 20
146.47168
 30
0.0
 11
134.055556
 21
146.602593
 31
0.0
  0
LINE
  5
204
100
AcDbEntity
  8
レイヤー_2
 62
     7
100
AcDbLine
 10
134.869287
 20
144.033586
 30
0.0
 11
134.869287
 21
146.47168
 31
0.0
  0
LINE
  5
203
100
AcDbEntity
  8
レイヤー_2
 62
     7
100
AcDbLine
 10
133.242513
 20
146.47168
 30
0.0
 11
132.639621
 21
146.602593
 31
0.0
  0
LINE
  5
202
100
AcDbEntity
  8
レイヤー_2
 62
     7
100
AcDbLine
 10
134.055556
 20
146.602593
 30
0.0
 11
132.639621
 21
146.602593
 31
0.0
  0
LINE
  5
201
100
AcDbEntity
  8
レイヤー_2
 62
     7
100
AcDbLine
 10
134.055556
 20
143.902672
 30
0.0
 11
132.639621
 21
143.902672
 31
0.0
  0
LINE
  5
200
100
AcDbEntity
  8
レイヤー_2
 62
     7
100
AcDbLine
 10
133.242513
 20
144.033586
 30
0.0
 11
132.639621
 21
143.902672
 31
0.0
  0
LINE
  5
1FF
100
AcDbEntity
  8
レイヤー_2
 62
     7
100
AcDbLine
 10
135.07806
 20
152.781889
 30
0.0
 11
132.199338
 21
152.781889
 31
0.0
  0
LINE
  5
1FE
100
AcDbEntity
  8
レイヤー_2
 62
     7
100
AcDbLine
 10
135.123535
 20
152.781889
 30
0.0
 11
135.07806
 21
152.781889
 31
0.0
  0
LINE
  5
1FD
100
AcDbEntity
  8
レイヤー_2
 62
     7
100
AcDbLine
 10
135.07806
 20
152.452882
 30
0.0
 11
132.199338
 21
152.452882
 31
0.0
  0
LINE
  5
1FC
100
AcDbEntity
  8
レイヤー_2
 62
     7
100
AcDbLine
 10
135.123535
 20
152.452882
 30
0.0
 11
135.07806
 21
152.452882
 31
0.0
  0
LINE
  5
1FB
100
AcDbEntity
  8
レイヤー_2
 62
     7
100
AcDbLine
 10
134.785916
 20
151.86756
 30
0.0
 11
132.536268
 21
151.86756
 31
0.0
  0
POLYLINE
  5
1F6
100
AcDbEntity
  8
レイヤー_2
 62
     7
100
AcDb2dPolyline
 66
     1
 10
0.0
 20
0.0
 30
0.0
  0
VERTEX
  5
1F7
100
AcDbEntity
  8
レイヤー_2
 62
     7
100
AcDbVertex
100
AcDb2dVertex
 10
132.639621
 20
143.902672
 30
0.0
  0
VERTEX
  5
1F8
100
AcDbEntity
  8
レイヤー_2
 62
     7
100
AcDbVertex
100
AcDb2dVertex
 10
132.596213
 20
143.903016
 30
0.0
  0
VERTEX
  5
1F9
100
AcDbEntity
  8
レイヤー_2
 62
     7
100
AcDbVertex
100
AcDb2dVertex
 10
132.035352
 20
144.033586
 30
0.0
  0
SEQEND
  5
1FA
100
AcDbEntity
  8
レイヤー_2
 62
     7
  0
LINE
  5
1F5
100
AcDbEntity
  8
レイヤー_2
 62
     7
100
AcDbLine
 10
132.035352
 20
144.033586
 30
0.0
 11
132.035352
 21
146.47168
 31
0.0
  0
POLYLINE
  5
1F0
100
AcDbEntity
  8
レイヤー_2
 62
     7
100
AcDb2dPolyline
 66
     1
 10
0.0
 20
0.0
 30
0.0
  0
VERTEX
  5
1F1
100
AcDbEntity
  8
レイヤー_2
 62
     7
100
AcDbVertex
100
AcDb2dVertex
 10
132.639621
 20
146.602593
 30
0.0
  0
VERTEX
  5
1F2
100
AcDbEntity
  8
レイヤー_2
 62
     7
100
AcDbVertex
100
AcDb2dVertex
 10
132.596213
 20
146.601904
 30
0.0
  0
VERTEX
  5
1F3
100
AcDbEntity
  8
レイヤー_2
 62
     7
100
AcDbVertex
100
AcDb2dVertex
 10
132.035352
 20
146.47168
 30
0.0
  0
SEQEND
  5
1F4
100
AcDbEntity
  8
レイヤー_2
 62
     7
  0
POLYLINE
  5
1EB
100
AcDbEntity
  8
レイヤー_2
 62
     7
100
AcDb2dPolyline
 66
     1
 10
0.0
 20
0.0
 30
0.0
  0
VERTEX
  5
1EC
100
AcDbEntity
  8
レイヤー_2
 62
     7
100
AcDbVertex
100
AcDb2dVertex
 10
135.07806
 20
146.602593
 30
0.0
  0
VERTEX
  5
1ED
100
AcDbEntity
  8
レイヤー_2
 62
     7
100
AcDbVertex
100
AcDb2dVertex
 10
135.020871
 20
146.592947
 30
0.0
  0
VERTEX
  5
1EE
100
AcDbEntity
  8
レイヤー_2
 62
     7
100
AcDbVertex
100
AcDb2dVertex
 10
134.869287
 20
146.47168
 30
0.0
  0
SEQEND
  5
1EF
100
AcDbEntity
  8
レイヤー_2
 62
     7
  0
LINE
  5
1EA
100
AcDbEntity
  8
レイヤー_2
 62
     7
100
AcDbLine
 10
135.07806
 20
146.602593
 30
0.0
 11
134.055556
 21
146.602593
 31
0.0
  0
POLYLINE
  5
1E5
100
AcDbEntity
  8
レイヤー_2
 62
     7
100
AcDb2dPolyline
 66
     1
 10
0.0
 20
0.0
 30
0.0
  0
VERTEX
  5
1E6
100
AcDbEntity
  8
レイヤー_2
 62
     7
100
AcDbVertex
100
AcDb2dVertex
 10
135.07806
 20
143.902672
 30
0.0
  0
VERTEX
  5
1E7
100
AcDbEntity
  8
レイヤー_2
 62
     7
100
AcDbVertex
100
AcDb2dVertex
 10
135.020871
 20
143.912663
 30
0.0
  0
VERTEX
  5
1E8
100
AcDbEntity
  8
レイヤー_2
 62
     7
100
AcDbVertex
100
AcDb2dVertex
 10
134.869287
 20
144.033586
 30
0.0
  0
SEQEND
  5
1E9
100
AcDbEntity
  8
レイヤー_2
 62
     7
  0
LINE
  5
1E4
100
AcDbEntity
  8
レイヤー_2
 62
     7
100
AcDbLine
 10
135.07806
 20
143.902672
 30
0.0
 11
134.055556
 21
143.902672
 31
0.0
  0
POLYLINE
  5
1DF
100
AcDbEntity
  8
レイヤー_2
 62
     7
100
AcDb2dPolyline
 66
     1
 10
0.0
 20
0.0
 30
0.0
  0
VERTEX
  5
1E0
100
AcDbEntity
  8
レイヤー_2
 62
     7
100
AcDbVertex
100
AcDb2dVertex
 10
135.287522
 20
144.033586
 30
0.0
  0
VERTEX
  5
1E1
100
AcDbEntity
  8
レイヤー_2
 62
     7
100
AcDbVertex
100
AcDb2dVertex
 10
135.234467
 20
143.977431
 30
0.0
  0
VERTEX
  5
1E2
100
AcDbEntity
  8
レイヤー_2
 62
     7
100
AcDbVertex
100
AcDb2dVertex
 10
135.07806
 20
143.902672
 30
0.0
  0
SEQEND
  5
1E3
100
AcDbEntity
  8
レイヤー_2
 62
     7
  0
POLYLINE
  5
1DA
100
AcDbEntity
  8
レイヤー_2
 62
     7
100
AcDb2dPolyline
 66
     1
 10
0.0
 20
0.0
 30
0.0
  0
VERTEX
  5
1DB
100
AcDbEntity
  8
レイヤー_2
 62
     7
100
AcDbVertex
100
AcDb2dVertex
 10
135.287522
 20
146.47168
 30
0.0
  0
VERTEX
  5
1DC
100
AcDbEntity
  8
レイヤー_2
 62
     7
100
AcDbVertex
100
AcDb2dVertex
 10
135.234467
 20
146.526801
 30
0.0
  0
VERTEX
  5
1DD
100
AcDbEntity
  8
レイヤー_2
 62
     7
100
AcDbVertex
100
AcDb2dVertex
 10
135.07806
 20
146.602593
 30
0.0
  0
SEQEND
  5
1DE
100
AcDbEntity
  8
レイヤー_2
 62
     7
  0
LINE
  5
1D9
100
AcDbEntity
  8
レイヤー_2
 62
     7
100
AcDbLine
 10
135.287522
 20
144.033586
 30
0.0
 11
135.287522
 21
146.47168
 31
0.0
  0
LINE
  5
1D8
100
AcDbEntity
  8
レイヤー_2
 62
     7
100
AcDbLine
 10
132.035352
 20
146.47168
 30
0.0
 11
132.153863
 21
146.565386
 31
0.0
  0
LINE
  5
1D7
100
AcDbEntity
  8
レイヤー_2
 62
     7
100
AcDbLine
 10
132.639621
 20
146.602593
 30
0.0
 11
132.199338
 21
146.602593
 31
0.0
  0
LINE
  5
1D6
100
AcDbEntity
  8
レイヤー_2
 62
     7
100
AcDbLine
 10
132.035352
 20
144.033586
 30
0.0
 11
132.153863
 21
143.93919
 31
0.0
  0
LINE
  5
1D5
100
AcDbEntity
  8
レイヤー_2
 62
     7
100
AcDbLine
 10
132.639621
 20
143.902672
 30
0.0
 11
132.199338
 21
143.902672
 31
0.0
  0
LINE
  5
1D4
100
AcDbEntity
  8
レイヤー_2
 62
     7
100
AcDbLine
 10
135.123535
 20
146.602593
 30
0.0
 11
135.07806
 21
146.602593
 31
0.0
  0
LINE
  5
1D3
100
AcDbEntity
  8
レイヤー_2
 62
     7
100
AcDbLine
 10
135.123535
 20
143.902672
 30
0.0
 11
135.07806
 21
143.902672
 31
0.0
  0
LINE
  5
1D2
100
AcDbEntity
  8
レイヤー_2
 62
     7
100
AcDbLine
 10
132.38744
 20
154.432606
 30
0.0
 11
137.08724
 21
154.432606
 31
0.0
  0
LINE
  5
1D1
100
AcDbEntity
  8
レイヤー_2
 62
     7
100
AcDbLine
 10
125.612316
 20
154.432606
 30
0.0
 11
127.739317
 21
154.432606
 31
0.0
  0
LINE
  5
1D0
100
AcDbEntity
  8
レイヤー_2
 62
     7
100
AcDbLine
 10
127.739317
 20
152.857509
 30
0.0
 11
125.612316
 21
152.857509
 31
0.0
  0
LINE
  5
1CF
100
AcDbEntity
  8
レイヤー_2
 62
     7
100
AcDbLine
 10
137.08724
 20
152.857509
 30
0.0
 11
132.38744
 21
152.857509
 31
0.0
  0
LINE
  5
1CE
100
AcDbEntity
  8
レイヤー_2
 62
     7
100
AcDbLine
 10
125.836936
 20
154.432606
 30
0.0
 11
125.949246
 21
154.432606
 31
0.0
  0
LINE
  5
1CD
100
AcDbEntity
  8
レイヤー_2
 62
     7
100
AcDbLine
 10
136.74962
 20
154.432606
 30
0.0
 11
136.862619
 21
154.432606
 31
0.0
  0
SPLINE
  5
1CC
100
AcDbEntity
  8
レイヤー_2
 62
     7
100
AcDbSpline
210
0.0
220
0.0
230
1.0
 70
     8
 71
     3
 72
     8
 73
     4
 74
     0
 42
0.00000001
 43
0.00000001
 40
0.0
 40
0.0
 40
0.0
 40
0.0
 40
1.0
 40
1.0
 40
1.0
 40
1.0
 10
127.85231662326387
 20
154.32012396918401
 30
0.0
 10
127.85231662326387
 20
154.38213568793401
 30
0.0
 10
127.80132921006943
 20
154.43191731770833
 30
0.0
 10
127.73931749131943
 20
154.43260633680555
 30
0.0
  0
SPLINE
  5
1CB
100
AcDbEntity
  8
レイヤー_2
 62
     7
100
AcDbSpline
210
0.0
220
0.0
230
1.0
 70
     8
 71
     3
 72
     8
 73
     4
 74
     0
 42
0.00000001
 43
0.00000001
 40
0.0
 40
0.0
 40
0.0
 40
0.0
 40
1.0
 40
1.0
 40
1.0
 40
1.0
 10
127.73931749131943
 20
152.85750868055555
 30
0.0
 10
127.80132921006943
 20
152.85750868055555
 30
0.0
 10
127.85231662326387
 20
152.90797932942706
 30
0.0
 10
127.85231662326387
 20
152.96999104817706
 30
0.0
  0
SPLINE
  5
1CA
100
AcDbEntity
  8
レイヤー_2
 62
     7
100
AcDbSpline
210
0.0
220
0.0
230
1.0
 70
     8
 71
     3
 72
     8
 73
     4
 74
     0
 42
0.00000001
 43
0.00000001
 40
0.0
 40
0.0
 40
0.0
 40
0.0
 40
1.0
 40
1.0
 40
1.0
 40
1.0
 10
127.87436523437499
 20
152.85750868055555
 30
0.0
 10
127.93637695312499
 20
152.85750868055555
 30
0.0
 10
127.98736436631943
 20
152.90797932942706
 30
0.0
 10
127.98736436631943
 20
152.96999104817706
 30
0.0
  0
LINE
  5
1C9
100
AcDbEntity
  8
レイヤー_2
 62
     7
100
AcDbLine
 10
127.874365
 20
152.857509
 30
0.0
 11
127.739317
 21
152.857509
 31
0.0
  0
LINE
  5
1C8
100
AcDbEntity
  8
レイヤー_2
 62
     7
100
AcDbLine
 10
127.739317
 20
154.432606
 30
0.0
 11
127.759988
 21
154.432606
 31
0.0
  0
LINE
  5
1C7
100
AcDbEntity
  8
レイヤー_2
 62
     7
100
AcDbLine
 10
134.123079
 20
152.857509
 30
0.0
 11
133.032362
 21
152.857509
 31
0.0
  0
POLYLINE
  5
1C2
100
AcDbEntity
  8
レイヤー_2
 62
     7
100
AcDb2dPolyline
 66
     1
 10
0.0
 20
0.0
 30
0.0
  0
VERTEX
  5
1C3
100
AcDbEntity
  8
レイヤー_2
 62
     7
100
AcDbVertex
100
AcDb2dVertex
 10
127.872298
 20
154.014027
 30
0.0
  0
VERTEX
  5
1C4
100
AcDbEntity
  8
レイヤー_2
 62
     7
100
AcDbVertex
100
AcDb2dVertex
 10
127.873676
 20
154.00352
 30
0.0
  0
VERTEX
  5
1C5
100
AcDbEntity
  8
レイヤー_2
 62
     7
100
AcDbVertex
100
AcDb2dVertex
 10
127.872298
 20
153.98216
 30
0.0
  0
SEQEND
  5
1C6
100
AcDbEntity
  8
レイヤー_2
 62
     7
  0
LINE
  5
1C1
100
AcDbEntity
  8
レイヤー_2
 62
     7
100
AcDbLine
 10
129.487359
 20
152.857509
 30
0.0
 11
126.962104
 21
152.857509
 31
0.0
  0
LINE
  5
1C0
100
AcDbEntity
  8
レイヤー_2
 62
     7
100
AcDbLine
 10
133.032362
 20
152.857509
 30
0.0
 11
132.199338
 21
152.857509
 31
0.0
  0
LINE
  5
1BF
100
AcDbEntity
  8
レイヤー_2
 62
     7
100
AcDbLine
 10
132.629975
 20
152.857509
 30
0.0
 11
131.861719
 21
152.857509
 31
0.0
  0
LINE
  5
1BE
100
AcDbEntity
  8
レイヤー_2
 62
     7
100
AcDbLine
 10
124.912272
 20
168.944899
 30
0.0
 11
124.912272
 21
169.732448
 31
0.0
  0
LINE
  5
1BD
100
AcDbEntity
  8
レイヤー_2
 62
     7
100
AcDbLine
 10
124.912272
 20
168.157694
 30
0.0
 11
124.912272
 21
168.944899
 31
0.0
  0
LINE
  5
1BC
100
AcDbEntity
  8
レイヤー_2
 62
     7
100
AcDbLine
 10
129.543859
 20
158.460267
 30
0.0
 11
129.499072
 21
158.460267
 31
0.0
  0
LINE
  5
1BB
100
AcDbEntity
  8
レイヤー_2
 62
     7
100
AcDbLine
 10
129.658925
 20
158.460267
 30
0.0
 11
129.543859
 21
158.460267
 31
0.0
  0
LINE
  5
1BA
100
AcDbEntity
  8
レイヤー_2
 62
     7
100
AcDbLine
 10
130.126769
 20
158.460267
 30
0.0
 11
129.658925
 21
158.460267
 31
0.0
  0
LINE
  5
1B9
100
AcDbEntity
  8
レイヤー_2
 62
     7
100
AcDbLine
 10
130.405821
 20
158.460267
 30
0.0
 11
130.126769
 21
158.460267
 31
0.0
  0
LINE
  5
1B8
100
AcDbEntity
  8
レイヤー_2
 62
     7
100
AcDbLine
 10
131.066591
 20
158.460267
 30
0.0
 11
130.405821
 21
158.460267
 31
0.0
  0
LINE
  5
1B7
100
AcDbEntity
  8
レイヤー_2
 62
     7
100
AcDbLine
 10
131.345643
 20
158.460267
 30
0.0
 11
131.066591
 21
158.460267
 31
0.0
  0
LINE
  5
1B6
100
AcDbEntity
  8
レイヤー_2
 62
     7
100
AcDbLine
 10
131.814176
 20
158.460267
 30
0.0
 11
131.345643
 21
158.460267
 31
0.0
  0
LINE
  5
1B5
100
AcDbEntity
  8
レイヤー_2
 62
     7
100
AcDbLine
 10
131.928554
 20
158.460267
 30
0.0
 11
131.814176
 21
158.460267
 31
0.0
  0
LINE
  5
1B4
100
AcDbEntity
  8
レイヤー_2
 62
     7
100
AcDbLine
 10
131.974029
 20
158.460267
 30
0.0
 11
131.928554
 21
158.460267
 31
0.0
  0
LINE
  5
1B3
100
AcDbEntity
  8
レイヤー_2
 62
     7
100
AcDbLine
 10
132.087028
 20
157.222789
 30
0.0
 11
129.386073
 21
157.222789
 31
0.0
  0
LINE
  5
1B2
100
AcDbEntity
  8
レイヤー_2
 62
     7
100
AcDbLine
 10
131.974029
 20
160.48495
 30
0.0
 11
131.928554
 21
160.48495
 31
0.0
  0
LINE
  5
1B1
100
AcDbEntity
  8
レイヤー_2
 62
     7
100
AcDbLine
 10
131.928554
 20
160.48495
 30
0.0
 11
131.814176
 21
160.48495
 31
0.0
  0
LINE
  5
1B0
100
AcDbEntity
  8
レイヤー_2
 62
     7
100
AcDbLine
 10
131.814176
 20
160.48495
 30
0.0
 11
131.345643
 21
160.48495
 31
0.0
  0
LINE
  5
1AF
100
AcDbEntity
  8
レイヤー_2
 62
     7
100
AcDbLine
 10
131.345643
 20
160.48495
 30
0.0
 11
131.066591
 21
160.48495
 31
0.0
  0
LINE
  5
1AE
100
AcDbEntity
  8
レイヤー_2
 62
     7
100
AcDbLine
 10
131.066591
 20
160.48495
 30
0.0
 11
130.405821
 21
160.48495
 31
0.0
  0
LINE
  5
1AD
100
AcDbEntity
  8
レイヤー_2
 62
     7
100
AcDbLine
 10
130.405821
 20
160.48495
 30
0.0
 11
130.126769
 21
160.48495
 31
0.0
  0
LINE
  5
1AC
100
AcDbEntity
  8
レイヤー_2
 62
     7
100
AcDbLine
 10
130.126769
 20
160.48495
 30
0.0
 11
129.658925
 21
160.48495
 31
0.0
  0
LINE
  5
1AB
100
AcDbEntity
  8
レイヤー_2
 62
     7
100
AcDbLine
 10
129.658925
 20
160.48495
 30
0.0
 11
129.543859
 21
160.48495
 31
0.0
  0
LINE
  5
1AA
100
AcDbEntity
  8
レイヤー_2
 62
     7
100
AcDbLine
 10
129.543859
 20
160.48495
 30
0.0
 11
129.499072
 21
160.48495
 31
0.0
  0
LINE
  5
1A9
100
AcDbEntity
  8
レイヤー_2
 62
     7
100
AcDbLine
 10
129.727827
 20
162.442626
 30
0.0
 11
129.727827
 21
161.497636
 31
0.0
  0
LINE
  5
1A8
100
AcDbEntity
  8
レイヤー_2
 62
     7
100
AcDbLine
 10
130.620106
 20
161.497636
 30
0.0
 11
129.727827
 21
161.497636
 31
0.0
  0
LINE
  5
1A7
100
AcDbEntity
  8
レイヤー_2
 62
     7
100
AcDbLine
 10
130.620106
 20
161.497636
 30
0.0
 11
130.620106
 21
162.442626
 31
0.0
  0
LINE
  5
1A6
100
AcDbEntity
  8
レイヤー_2
 62
     7
100
AcDbLine
 10
129.611382
 20
161.497636
 30
0.0
 11
129.499072
 21
161.497636
 31
0.0
  0
LINE
  5
1A5
100
AcDbEntity
  8
レイヤー_2
 62
     7
100
AcDbLine
 10
129.611382
 20
161.497636
 30
0.0
 11
129.611382
 21
162.442626
 31
0.0
  0
LINE
  5
1A4
100
AcDbEntity
  8
レイヤー_2
 62
     7
100
AcDbLine
 10
131.974029
 20
161.497636
 30
0.0
 11
131.861719
 21
161.497636
 31
0.0
  0
LINE
  5
1A3
100
AcDbEntity
  8
レイヤー_2
 62
     7
100
AcDbLine
 10
131.861719
 20
162.442626
 30
0.0
 11
131.861719
 21
161.497636
 31
0.0
  0
LINE
  5
1A2
100
AcDbEntity
  8
レイヤー_2
 62
     7
100
AcDbLine
 10
131.745275
 20
161.497636
 30
0.0
 11
130.852995
 21
161.497636
 31
0.0
  0
LINE
  5
1A1
100
AcDbEntity
  8
レイヤー_2
 62
     7
100
AcDbLine
 10
131.745275
 20
161.497636
 30
0.0
 11
131.745275
 21
162.442626
 31
0.0
  0
LINE
  5
1A0
100
AcDbEntity
  8
レイヤー_2
 62
     7
100
AcDbLine
 10
130.852995
 20
162.442626
 30
0.0
 11
130.852995
 21
161.497636
 31
0.0
  0
LINE
  5
19F
100
AcDbEntity
  8
レイヤー_2
 62
     7
100
AcDbLine
 10
131.974029
 20
161.272499
 30
0.0
 11
129.499072
 21
161.272499
 31
0.0
  0
LINE
  5
19E
100
AcDbEntity
  8
レイヤー_2
 62
     7
100
AcDbLine
 10
130.405821
 20
160.48495
 30
0.0
 11
130.405821
 21
158.460267
 31
0.0
  0
LINE
  5
19D
100
AcDbEntity
  8
レイヤー_2
 62
     7
100
AcDbLine
 10
130.126769
 20
158.460267
 30
0.0
 11
130.126769
 21
160.48495
 31
0.0
  0
LINE
  5
19C
100
AcDbEntity
  8
レイヤー_2
 62
     7
100
AcDbLine
 10
131.066591
 20
158.460267
 30
0.0
 11
131.066591
 21
160.48495
 31
0.0
  0
LINE
  5
19B
100
AcDbEntity
  8
レイヤー_2
 62
     7
100
AcDbLine
 10
131.345643
 20
160.48495
 30
0.0
 11
131.345643
 21
158.460267
 31
0.0
  0
LINE
  5
19A
100
AcDbEntity
  8
レイヤー_2
 62
     7
100
AcDbLine
 10
129.658925
 20
160.48495
 30
0.0
 11
129.658925
 21
158.460267
 31
0.0
  0
LINE
  5
199
100
AcDbEntity
  8
レイヤー_2
 62
     7
100
AcDbLine
 10
131.814176
 20
158.460267
 30
0.0
 11
131.814176
 21
160.48495
 31
0.0
  0
LINE
  5
198
100
AcDbEntity
  8
レイヤー_2
 62
     7
100
AcDbLine
 10
131.928554
 20
160.48495
 30
0.0
 11
131.928554
 21
158.460267
 31
0.0
  0
LINE
  5
197
100
AcDbEntity
  8
レイヤー_2
 62
     7
100
AcDbLine
 10
129.543859
 20
158.460267
 30
0.0
 11
129.543859
 21
160.48495
 31
0.0
  0
POLYLINE
  5
192
100
AcDbEntity
  8
レイヤー_2
 62
     7
100
AcDb2dPolyline
 66
     1
 10
0.0
 20
0.0
 30
0.0
  0
VERTEX
  5
193
100
AcDbEntity
  8
レイヤー_2
 62
     7
100
AcDbVertex
100
AcDb2dVertex
 10
134.167866
 20
179.209733
 30
0.0
  0
VERTEX
  5
194
100
AcDbEntity
  8
レイヤー_2
 62
     7
100
AcDbVertex
100
AcDb2dVertex
 10
134.167177
 20
179.171493
 30
0.0
  0
VERTEX
  5
195
100
AcDbEntity
  8
レイヤー_2
 62
     7
100
AcDbVertex
100
AcDb2dVertex
 10
134.123079
 20
178.893473
 30
0.0
  0
SEQEND
  5
196
100
AcDbEntity
  8
レイヤー_2
 62
     7
  0
POLYLINE
  5
18D
100
AcDbEntity
  8
レイヤー_2
 62
     7
100
AcDb2dPolyline
 66
     1
 10
0.0
 20
0.0
 30
0.0
  0
VERTEX
  5
18E
100
AcDbEntity
  8
レイヤー_2
 62
     7
100
AcDbVertex
100
AcDb2dVertex
 10
128.69981
 20
178.893473
 30
0.0
  0
VERTEX
  5
18F
100
AcDbEntity
  8
レイヤー_2
 62
     7
100
AcDbVertex
100
AcDb2dVertex
 10
128.660536
 20
179.096562
 30
0.0
  0
VERTEX
  5
190
100
AcDbEntity
  8
レイヤー_2
 62
     7
100
AcDbVertex
100
AcDb2dVertex
 10
128.655024
 20
179.209733
 30
0.0
  0
SEQEND
  5
191
100
AcDbEntity
  8
レイヤー_2
 62
     7
  0
LINE
  5
18C
100
AcDbEntity
  8
レイヤー_2
 62
     7
100
AcDbLine
 10
129.462554
 20
181.237516
 30
0.0
 11
129.71129
 21
181.379454
 31
0.0
  0
POLYLINE
  5
17D
100
AcDbEntity
  8
レイヤー_2
 62
     7
100
AcDb2dPolyline
 66
     1
 10
0.0
 20
0.0
 30
0.0
  0
VERTEX
  5
17E
100
AcDbEntity
  8
レイヤー_2
 62
     7
100
AcDbVertex
100
AcDb2dVertex
 10
133.11091
 20
181.379454
 30
0.0
  0
VERTEX
  5
17F
100
AcDbEntity
  8
レイヤー_2
 62
     7
100
AcDbVertex
100
AcDb2dVertex
 10
133.275586
 20
181.289882
 30
0.0
  0
VERTEX
  5
180
100
AcDbEntity
  8
レイヤー_2
 62
     7
100
AcDbVertex
100
AcDb2dVertex
 10
133.591846
 20
181.068534
 30
0.0
  0
VERTEX
  5
181
100
AcDbEntity
  8
レイヤー_2
 62
     7
100
AcDbVertex
100
AcDb2dVertex
 10
133.845405
 20
180.816353
 30
0.0
  0
VERTEX
  5
182
100
AcDbEntity
  8
レイヤー_2
 62
     7
100
AcDbVertex
100
AcDb2dVertex
 10
134.028684
 20
180.540229
 30
0.0
  0
VERTEX
  5
183
100
AcDbEntity
  8
レイヤー_2
 62
     7
100
AcDbVertex
100
AcDb2dVertex
 10
134.137549
 20
180.247396
 30
0.0
  0
VERTEX
  5
184
100
AcDbEntity
  8
レイヤー_2
 62
     7
100
AcDbVertex
100
AcDb2dVertex
 10
134.167177
 20
179.947328
 30
0.0
  0
VERTEX
  5
185
100
AcDbEntity
  8
レイヤー_2
 62
     7
100
AcDbVertex
100
AcDb2dVertex
 10
134.117567
 20
179.648121
 30
0.0
  0
VERTEX
  5
186
100
AcDbEntity
  8
レイヤー_2
 62
     7
100
AcDbVertex
100
AcDb2dVertex
 10
133.990099
 20
179.359078
 30
0.0
  0
VERTEX
  5
187
100
AcDbEntity
  8
レイヤー_2
 62
     7
100
AcDbVertex
100
AcDb2dVertex
 10
133.788905
 20
179.088121
 30
0.0
  0
VERTEX
  5
188
100
AcDbEntity
  8
レイヤー_2
 62
     7
100
AcDbVertex
100
AcDb2dVertex
 10
133.51881
 20
178.843175
 30
0.0
  0
VERTEX
  5
189
100
AcDbEntity
  8
レイヤー_2
 62
     7
100
AcDbVertex
100
AcDb2dVertex
 10
133.188081
 20
178.630785
 30
0.0
  0
VERTEX
  5
18A
100
AcDbEntity
  8
レイヤー_2
 62
     7
100
AcDbVertex
100
AcDb2dVertex
 10
132.818077
 20
178.461286
 30
0.0
  0
SEQEND
  5
18B
100
AcDbEntity
  8
レイヤー_2
 62
     7
  0
POLYLINE
  5
16F
100
AcDbEntity
  8
レイヤー_2
 62
     7
100
AcDb2dPolyline
 66
     1
 10
0.0
 20
0.0
 30
0.0
  0
VERTEX
  5
170
100
AcDbEntity
  8
レイヤー_2
 62
     7
100
AcDbVertex
100
AcDb2dVertex
 10
130.004812
 20
178.461286
 30
0.0
  0
VERTEX
  5
171
100
AcDbEntity
  8
レイヤー_2
 62
     7
100
AcDbVertex
100
AcDb2dVertex
 10
129.725071
 20
178.583415
 30
0.0
  0
VERTEX
  5
172
100
AcDbEntity
  8
レイヤー_2
 62
     7
100
AcDbVertex
100
AcDb2dVertex
 10
129.38125
 20
178.786848
 30
0.0
  0
VERTEX
  5
173
100
AcDbEntity
  8
レイヤー_2
 62
     7
100
AcDbVertex
100
AcDb2dVertex
 10
129.095996
 20
179.024042
 30
0.0
  0
VERTEX
  5
174
100
AcDbEntity
  8
レイヤー_2
 62
     7
100
AcDbVertex
100
AcDb2dVertex
 10
128.876199
 20
179.289659
 30
0.0
  0
VERTEX
  5
175
100
AcDbEntity
  8
レイヤー_2
 62
     7
100
AcDbVertex
100
AcDb2dVertex
 10
128.730127
 20
179.574913
 30
0.0
  0
VERTEX
  5
176
100
AcDbEntity
  8
レイヤー_2
 62
     7
100
AcDbVertex
100
AcDb2dVertex
 10
128.660536
 20
179.872569
 30
0.0
  0
VERTEX
  5
177
100
AcDbEntity
  8
レイヤー_2
 62
     7
100
AcDbVertex
100
AcDb2dVertex
 10
128.670871
 20
180.172465
 30
0.0
  0
VERTEX
  5
178
100
AcDbEntity
  8
レイヤー_2
 62
     7
100
AcDbVertex
100
AcDb2dVertex
 10
128.759066
 20
180.467537
 30
0.0
  0
VERTEX
  5
179
100
AcDbEntity
  8
レイヤー_2
 62
     7
100
AcDbVertex
100
AcDb2dVertex
 10
128.925119
 20
180.748829
 30
0.0
  0
VERTEX
  5
17A
100
AcDbEntity
  8
レイヤー_2
 62
     7
100
AcDbVertex
100
AcDb2dVertex
 10
129.160764
 20
181.008073
 30
0.0
  0
VERTEX
  5
17B
100
AcDbEntity
  8
レイヤー_2
 62
     7
100
AcDbVertex
100
AcDb2dVertex
 10
129.462554
 20
181.237516
 30
0.0
  0
SEQEND
  5
17C
100
AcDbEntity
  8
レイヤー_2
 62
     7
  0
LINE
  5
16E
100
AcDbEntity
  8
レイヤー_2
 62
     7
100
AcDbLine
 10
130.004812
 20
177.839619
 30
0.0
 11
130.00619
 21
177.878376
 31
0.0
  0
LINE
  5
16D
100
AcDbEntity
  8
レイヤー_2
 62
     7
100
AcDbLine
 10
130.00619
 20
181.819221
 30
0.0
 11
130.004812
 21
181.766511
 31
0.0
  0
LINE
  5
16C
100
AcDbEntity
  8
レイヤー_2
 62
     7
100
AcDbLine
 10
132.818077
 20
181.766511
 30
0.0
 11
132.817388
 21
181.798033
 31
0.0
  0
LINE
  5
16B
100
AcDbEntity
  8
レイヤー_2
 62
     7
100
AcDbLine
 10
123.536301
 20
181.997504
 30
0.0
 11
123.536301
 21
184.011852
 31
0.0
  0
LINE
  5
16A
100
AcDbEntity
  8
レイヤー_2
 62
     7
100
AcDbLine
 10
123.536301
 20
181.559288
 30
0.0
 11
123.536301
 21
181.997504
 31
0.0
  0
LINE
  5
169
100
AcDbEntity
  8
レイヤー_2
 62
     7
100
AcDbLine
 10
130.391352
 20
184.191686
 30
0.0
 11
130.360346
 21
184.191686
 31
0.0
  0
POLYLINE
  5
164
100
AcDbEntity
  8
レイヤー_2
 62
     7
100
AcDb2dPolyline
 66
     1
 10
0.0
 20
0.0
 30
0.0
  0
VERTEX
  5
165
100
AcDbEntity
  8
レイヤー_2
 62
     7
100
AcDbVertex
100
AcDb2dVertex
 10
132.47219
 20
184.191169
 30
0.0
  0
VERTEX
  5
166
100
AcDbEntity
  8
レイヤー_2
 62
     7
100
AcDbVertex
100
AcDb2dVertex
 10
132.441184
 20
184.191686
 30
0.0
  0
VERTEX
  5
167
100
AcDbEntity
  8
レイヤー_2
 62
     7
100
AcDbVertex
100
AcDb2dVertex
 10
132.430849
 20
184.191686
 30
0.0
  0
SEQEND
  5
168
100
AcDbEntity
  8
レイヤー_2
 62
     7
  0
LINE
  5
163
100
AcDbEntity
  8
レイヤー_2
 62
     7
100
AcDbLine
 10
139.286589
 20
184.011852
 30
0.0
 11
139.286589
 21
181.559288
 31
0.0
  0
SPLINE
  5
162
100
AcDbEntity
  8
レイヤー_2
 62
     7
100
AcDbSpline
210
0.0
220
0.0
230
1.0
 70
     8
 71
     3
 72
     8
 73
     4
 74
     0
 42
0.00000001
 43
0.00000001
 40
0.0
 40
0.0
 40
0.0
 40
0.0
 40
1.0
 40
1.0
 40
1.0
 40
1.0
 10
129.9365993923611
 20
180.02880452473957
 30
0.0
 10
129.93935546874999
 20
179.92527940538193
 30
0.0
 10
129.96553819444443
 20
179.82709418402777
 30
0.0
 10
130.00894639756945
 20
179.74458414713541
 30
0.0
  0
SPLINE
  5
161
100
AcDbEntity
  8
レイヤー_2
 62
     7
100
AcDbSpline
210
0.0
220
0.0
230
1.0
 70
     8
 71
     3
 72
     8
 73
     4
 74
     0
 42
0.00000001
 43
0.00000001
 40
0.0
 40
0.0
 40
0.0
 40
0.0
 40
1.0
 40
1.0
 40
1.0
 40
1.0
 10
132.81807725694443
 20
179.75130208333331
 30
0.0
 10
132.86286349826386
 20
179.84259711371527
 30
0.0
 10
132.88491210937499
 20
179.93802625868054
 30
0.0
 10
132.88629014756944
 20
180.02880452473957
 30
0.0
  0
LINE
  5
160
100
AcDbEntity
  8
レイヤー_2
 62
     7
100
AcDbLine
 10
124.886778
 20
164.66988
 30
0.0
 11
137.936111
 21
164.66988
 31
0.0
  0
LINE
  5
15F
100
AcDbEntity
  8
レイヤー_2
 62
     7
100
AcDbLine
 10
124.773779
 20
162.645369
 30
0.0
 11
138.048421
 21
162.645369
 31
0.0
  0
LINE
  5
15E
100
AcDbEntity
  8
レイヤー_2
 62
     7
100
AcDbLine
 10
134.763178
 20
179.400936
 30
0.0
 11
134.763178
 21
179.364418
 31
0.0
  0
LINE
  5
15D
100
AcDbEntity
  8
レイヤー_2
 62
     7
100
AcDbLine
 10
128.066602
 20
179.216451
 30
0.0
 11
128.058333
 21
179.364418
 31
0.0
  0
POLYLINE
  5
152
100
AcDbEntity
  8
レイヤー_2
 62
     7
100
AcDb2dPolyline
 66
     1
 10
0.0
 20
0.0
 30
0.0
  0
VERTEX
  5
153
100
AcDbEntity
  8
レイヤー_2
 62
     7
100
AcDbVertex
100
AcDb2dVertex
 10
132.818077
 20
177.892329
 30
0.0
  0
VERTEX
  5
154
100
AcDbEntity
  8
レイヤー_2
 62
     7
100
AcDbVertex
100
AcDb2dVertex
 10
133.21633
 20
178.065617
 30
0.0
  0
VERTEX
  5
155
100
AcDbEntity
  8
レイヤー_2
 62
     7
100
AcDbVertex
100
AcDb2dVertex
 10
133.568419
 20
178.282313
 30
0.0
  0
VERTEX
  5
156
100
AcDbEntity
  8
レイヤー_2
 62
     7
100
AcDbVertex
100
AcDb2dVertex
 10
133.857118
 20
178.533805
 30
0.0
  0
VERTEX
  5
157
100
AcDbEntity
  8
レイヤー_2
 62
     7
100
AcDbVertex
100
AcDb2dVertex
 10
134.076915
 20
178.813719
 30
0.0
  0
VERTEX
  5
158
100
AcDbEntity
  8
レイヤー_2
 62
     7
100
AcDbVertex
100
AcDb2dVertex
 10
134.220231
 20
179.11327
 30
0.0
  0
VERTEX
  5
159
100
AcDbEntity
  8
レイヤー_2
 62
     7
100
AcDbVertex
100
AcDb2dVertex
 10
134.281554
 20
179.423674
 30
0.0
  0
VERTEX
  5
15A
100
AcDbEntity
  8
レイヤー_2
 62
     7
100
AcDbVertex
100
AcDb2dVertex
 10
134.260194
 20
179.737177
 30
0.0
  0
VERTEX
  5
15B
100
AcDbEntity
  8
レイヤー_2
 62
     7
100
AcDbVertex
100
AcDb2dVertex
 10
134.166488
 20
180.024498
 30
0.0
  0
SEQEND
  5
15C
100
AcDbEntity
  8
レイヤー_2
 62
     7
  0
POLYLINE
  5
146
100
AcDbEntity
  8
レイヤー_2
 62
     7
100
AcDb2dPolyline
 66
     1
 10
0.0
 20
0.0
 30
0.0
  0
VERTEX
  5
147
100
AcDbEntity
  8
レイヤー_2
 62
     7
100
AcDbVertex
100
AcDb2dVertex
 10
128.655713
 20
180.024498
 30
0.0
  0
VERTEX
  5
148
100
AcDbEntity
  8
レイヤー_2
 62
     7
100
AcDbVertex
100
AcDb2dVertex
 10
128.562006
 20
179.737177
 30
0.0
  0
VERTEX
  5
149
100
AcDbEntity
  8
レイヤー_2
 62
     7
100
AcDbVertex
100
AcDb2dVertex
 10
128.540647
 20
179.423674
 30
0.0
  0
VERTEX
  5
14A
100
AcDbEntity
  8
レイヤー_2
 62
     7
100
AcDbVertex
100
AcDb2dVertex
 10
128.602658
 20
179.11327
 30
0.0
  0
VERTEX
  5
14B
100
AcDbEntity
  8
レイヤー_2
 62
     7
100
AcDbVertex
100
AcDb2dVertex
 10
128.745974
 20
178.813719
 30
0.0
  0
VERTEX
  5
14C
100
AcDbEntity
  8
レイヤー_2
 62
     7
100
AcDbVertex
100
AcDb2dVertex
 10
128.965082
 20
178.533805
 30
0.0
  0
VERTEX
  5
14D
100
AcDbEntity
  8
レイヤー_2
 62
     7
100
AcDbVertex
100
AcDb2dVertex
 10
129.25447
 20
178.282313
 30
0.0
  0
VERTEX
  5
14E
100
AcDbEntity
  8
レイヤー_2
 62
     7
100
AcDbVertex
100
AcDb2dVertex
 10
129.606559
 20
178.065617
 30
0.0
  0
VERTEX
  5
14F
100
AcDbEntity
  8
レイヤー_2
 62
     7
100
AcDbVertex
100
AcDb2dVertex
 10
130.010324
 20
177.889745
 30
0.0
  0
VERTEX
  5
150
100
AcDbEntity
  8
レイヤー_2
 62
     7
100
AcDbVertex
100
AcDb2dVertex
 10
130.02066
 20
177.886644
 30
0.0
  0
SEQEND
  5
151
100
AcDbEntity
  8
レイヤー_2
 62
     7
  0
SPLINE
  5
145
100
AcDbEntity
  8
レイヤー_2
 62
     7
100
AcDbSpline
210
0.0
220
0.0
230
1.0
 70
     8
 71
     3
 72
     8
 73
     4
 74
     0
 42
0.00000001
 43
0.00000001
 40
0.0
 40
0.0
 40
0.0
 40
0.0
 40
1.0
 40
1.0
 40
1.0
 40
1.0
 10
134.22367621527778
 20
179.33031141493055
 30
0.0
 10
134.22367621527778
 20
179.45829671223956
 30
0.0
 10
134.20300564236109
 20
179.58180338541666
 30
0.0
 10
134.16786566840275
 20
179.68963487413194
 30
0.0
  0
SPLINE
  5
144
100
AcDbEntity
  8
レイヤー_2
 62
     7
100
AcDbSpline
210
0.0
220
0.0
230
1.0
 70
     8
 71
     3
 72
     8
 73
     4
 74
     0
 42
0.00000001
 43
0.00000001
 40
0.0
 40
0.0
 40
0.0
 40
0.0
 40
1.0
 40
1.0
 40
1.0
 40
1.0
 10
134.1782009548611
 20
179.00509440104165
 30
0.0
 10
134.20989583333332
 20
179.11671549479166
 30
0.0
 10
134.224365234375
 20
179.22868109809025
 30
0.0
 10
134.22367621527778
 20
179.33031141493055
 30
0.0
  0
SPLINE
  5
143
100
AcDbEntity
  8
レイヤー_2
 62
     7
100
AcDbSpline
210
0.0
220
0.0
230
1.0
 70
     8
 71
     3
 72
     8
 73
     4
 74
     0
 42
0.00000001
 43
0.00000001
 40
0.0
 40
0.0
 40
0.0
 40
0.0
 40
1.0
 40
1.0
 40
1.0
 40
1.0
 10
128.65502387152776
 20
179.68963487413194
 30
0.0
 10
128.58060980902778
 20
179.45674641927081
 30
0.0
 10
128.58198784722222
 20
179.21869032118053
 30
0.0
 10
128.64468858506945
 20
179.00509440104165
 30
0.0
  0
SPLINE
  5
142
100
AcDbEntity
  8
レイヤー_2
 62
     7
100
AcDbSpline
210
0.0
220
0.0
230
1.0
 70
     8
 71
     3
 72
     8
 73
     4
 74
     0
 42
0.00000001
 43
0.00000001
 40
0.0
 40
0.0
 40
0.0
 40
0.0
 40
1.0
 40
1.0
 40
1.0
 40
1.0
 10
126.93454318576387
 20
167.82679307725692
 30
0.0
 10
126.99448784722222
 20
168.13685167100692
 30
0.0
 10
127.02135959201388
 20
168.44535997178818
 30
0.0
 10
127.01998155381943
 20
168.71941731770832
 30
0.0
  0
POLYLINE
  5
13D
100
AcDbEntity
  8
レイヤー_2
 62
     7
100
AcDb2dPolyline
 66
     1
 10
0.0
 20
0.0
 30
0.0
  0
VERTEX
  5
13E
100
AcDbEntity
  8
レイヤー_2
 62
     7
100
AcDbVertex
100
AcDb2dVertex
 10
127.019982
 20
168.726308
 30
0.0
  0
VERTEX
  5
13F
100
AcDbEntity
  8
レイヤー_2
 62
     7
100
AcDbVertex
100
AcDb2dVertex
 10
127.02136
 20
168.74405
 30
0.0
  0
VERTEX
  5
140
100
AcDbEntity
  8
レイヤー_2
 62
     7
100
AcDbVertex
100
AcDb2dVertex
 10
127.024805
 20
168.944899
 30
0.0
  0
SEQEND
  5
141
100
AcDbEntity
  8
レイヤー_2
 62
     7
  0
LINE
  5
13C
100
AcDbEntity
  8
レイヤー_2
 62
     7
100
AcDbLine
 10
127.024805
 20
168.944899
 30
0.0
 11
127.024805
 21
174.120466
 31
0.0
  0
SPLINE
  5
13B
100
AcDbEntity
  8
レイヤー_2
 62
     7
100
AcDbSpline
210
0.0
220
0.0
230
1.0
 70
     8
 71
     3
 72
     8
 73
     4
 74
     0
 42
0.00000001
 43
0.00000001
 40
0.0
 40
0.0
 40
0.0
 40
0.0
 40
1.0
 40
1.0
 40
1.0
 40
1.0
 10
127.02480468749999
 20
174.120465766059
 30
0.0
 10
127.02480468749999
 20
174.43448621961804
 30
0.0
 10
126.99173177083333
 20
174.74213324652777
 30
0.0
 10
126.93592122395832
 20
175.00895589192706
 30
0.0
  0
SPLINE
  5
13A
100
AcDbEntity
  8
レイヤー_2
 62
     7
100
AcDbSpline
210
0.0
220
0.0
230
1.0
 70
     8
 71
     3
 72
     8
 73
     4
 74
     0
 42
0.00000001
 43
0.00000001
 40
0.0
 40
0.0
 40
0.0
 40
0.0
 40
1.0
 40
1.0
 40
1.0
 40
1.0
 10
126.93592122395832
 20
178.69813639322916
 30
0.0
 10
126.98897569444443
 20
178.98339029947914
 30
0.0
 10
127.01378038194443
 20
179.26829969618055
 30
0.0
 10
127.01171332465276
 20
179.52013617621526
 30
0.0
  0
SPLINE
  5
139
100
AcDbEntity
  8
レイヤー_2
 62
     7
100
AcDbSpline
210
0.0
220
0.0
230
1.0
 70
     8
 71
     3
 72
     8
 73
     4
 74
     0
 42
0.00000001
 43
0.00000001
 40
0.0
 40
0.0
 40
0.0
 40
0.0
 40
1.0
 40
1.0
 40
1.0
 40
1.0
 10
127.01171332465276
 20
179.52013617621526
 30
0.0
 10
127.01102430555554
 20
179.81400282118054
 30
0.0
 10
126.98346354166665
 20
180.10080702039929
 30
0.0
 10
126.93454318576387
 20
180.35040418836803
 30
0.0
  0
LINE
  5
138
100
AcDbEntity
  8
レイヤー_2
 62
     7
100
AcDbLine
 10
125.949246
 20
154.769881
 30
0.0
 11
136.74962
 21
154.769881
 31
0.0
  0
LINE
  5
137
100
AcDbEntity
  8
レイヤー_2
 62
     7
100
AcDbLine
 10
127.874365
 20
154.095331
 30
0.0
 11
132.27513
 21
154.095331
 31
0.0
  0
POLYLINE
  5
11D
100
AcDbEntity
  8
レイヤー_2
 62
     7
100
AcDb2dPolyline
 66
     1
 10
0.0
 20
0.0
 30
0.0
  0
VERTEX
  5
11E
100
AcDbEntity
  8
レイヤー_2
 62
     7
100
AcDbVertex
100
AcDb2dVertex
 10
128.058333
 20
170.665724
 30
0.0
  0
VERTEX
  5
11F
100
AcDbEntity
  8
レイヤー_2
 62
     7
100
AcDbVertex
100
AcDb2dVertex
 10
128.057644
 20
170.492436
 30
0.0
  0
VERTEX
  5
120
100
AcDbEntity
  8
レイヤー_2
 62
     7
100
AcDbVertex
100
AcDb2dVertex
 10
128.107254
 20
169.814269
 30
0.0
  0
VERTEX
  5
121
100
AcDbEntity
  8
レイヤー_2
 62
     7
100
AcDbVertex
100
AcDb2dVertex
 10
128.240923
 20
169.159701
 30
0.0
  0
VERTEX
  5
122
100
AcDbEntity
  8
レイヤー_2
 62
     7
100
AcDbVertex
100
AcDb2dVertex
 10
128.386995
 20
168.765065
 30
0.0
  0
VERTEX
  5
123
100
AcDbEntity
  8
レイヤー_2
 62
     7
100
AcDbVertex
100
AcDb2dVertex
 10
128.585433
 20
168.409186
 30
0.0
  0
VERTEX
  5
124
100
AcDbEntity
  8
レイヤー_2
 62
     7
100
AcDbVertex
100
AcDb2dVertex
 10
128.836925
 20
168.102401
 30
0.0
  0
VERTEX
  5
125
100
AcDbEntity
  8
レイヤー_2
 62
     7
100
AcDbVertex
100
AcDb2dVertex
 10
129.134581
 20
167.84488
 30
0.0
  0
VERTEX
  5
126
100
AcDbEntity
  8
レイヤー_2
 62
     7
100
AcDbVertex
100
AcDb2dVertex
 10
129.499761
 20
167.623188
 30
0.0
  0
VERTEX
  5
127
100
AcDbEntity
  8
レイヤー_2
 62
     7
100
AcDbVertex
100
AcDb2dVertex
 10
129.901459
 20
167.451622
 30
0.0
  0
VERTEX
  5
128
100
AcDbEntity
  8
レイヤー_2
 62
     7
100
AcDbVertex
100
AcDb2dVertex
 10
130.403065
 20
167.311579
 30
0.0
  0
VERTEX
  5
129
100
AcDbEntity
  8
レイヤー_2
 62
     7
100
AcDbVertex
100
AcDb2dVertex
 10
130.932232
 20
167.229414
 30
0.0
  0
VERTEX
  5
12A
100
AcDbEntity
  8
レイヤー_2
 62
     7
100
AcDbVertex
100
AcDb2dVertex
 10
131.50274
 20
167.203575
 30
0.0
  0
VERTEX
  5
12B
100
AcDbEntity
  8
レイヤー_2
 62
     7
100
AcDbVertex
100
AcDb2dVertex
 10
132.072559
 20
167.237682
 30
0.0
  0
VERTEX
  5
12C
100
AcDbEntity
  8
レイヤー_2
 62
     7
100
AcDbVertex
100
AcDb2dVertex
 10
132.62653
 20
167.33535
 30
0.0
  0
VERTEX
  5
12D
100
AcDbEntity
  8
レイヤー_2
 62
     7
100
AcDbVertex
100
AcDb2dVertex
 10
133.148117
 20
167.498131
 30
0.0
  0
VERTEX
  5
12E
100
AcDbEntity
  8
レイヤー_2
 62
     7
100
AcDbVertex
100
AcDb2dVertex
 10
133.619406
 20
167.731019
 30
0.0
  0
VERTEX
  5
12F
100
AcDbEntity
  8
レイヤー_2
 62
     7
100
AcDbVertex
100
AcDb2dVertex
 10
134.027995
 20
168.041078
 30
0.0
  0
VERTEX
  5
130
100
AcDbEntity
  8
レイヤー_2
 62
     7
100
AcDbVertex
100
AcDb2dVertex
 10
134.291889
 20
168.341146
 30
0.0
  0
VERTEX
  5
131
100
AcDbEntity
  8
レイヤー_2
 62
     7
100
AcDbVertex
100
AcDb2dVertex
 10
134.462077
 20
168.700297
 30
0.0
  0
VERTEX
  5
132
100
AcDbEntity
  8
レイヤー_2
 62
     7
100
AcDbVertex
100
AcDb2dVertex
 10
134.610216
 20
169.083736
 30
0.0
  0
VERTEX
  5
133
100
AcDbEntity
  8
レイヤー_2
 62
     7
100
AcDbVertex
100
AcDb2dVertex
 10
134.683941
 20
169.498009
 30
0.0
  0
VERTEX
  5
134
100
AcDbEntity
  8
レイヤー_2
 62
     7
100
AcDbVertex
100
AcDb2dVertex
 10
134.772135
 20
170.08936
 30
0.0
  0
VERTEX
  5
135
100
AcDbEntity
  8
レイヤー_2
 62
     7
100
AcDbVertex
100
AcDb2dVertex
 10
134.763178
 20
170.664174
 30
0.0
  0
SEQEND
  5
136
100
AcDbEntity
  8
レイヤー_2
 62
     7
  0
SPLINE
  5
11C
100
AcDbEntity
  8
レイヤー_2
 62
     7
100
AcDbSpline
210
0.0
220
0.0
230
1.0
 70
     8
 71
     3
 72
    11
 73
     7
 74
     0
 42
0.00000001
 43
0.00000001
 40
0.0
 40
0.0
 40
0.0
 40
0.0
 40
1.0
 40
1.0
 40
1.0
 40
2.0
 40
2.0
 40
2.0
 40
2.0
 10
132.81807725694443
 20
177.93969862196178
 30
0.0
 10
132.81807725694443
 20
178.61097547743054
 30
0.0
 10
132.18900282118054
 20
179.15512830946179
 30
0.0
 10
131.41385633680554
 20
179.15512830946179
 30
0.0
 10
130.63870985243054
 20
179.15512830946179
 30
0.0
 10
130.00963541666667
 20
178.61097547743054
 30
0.0
 10
130.00963541666667
 20
177.93969862196178
 30
0.0
  0
SPLINE
  5
11B
100
AcDbEntity
  8
レイヤー_2
 62
     7
100
AcDbSpline
210
0.0
220
0.0
230
1.0
 70
     8
 71
     3
 72
     8
 73
     4
 74
     0
 42
0.00000001
 43
0.00000001
 40
0.0
 40
0.0
 40
0.0
 40
0.0
 40
1.0
 40
1.0
 40
1.0
 40
1.0
 10
130.00963541666667
 20
177.93969862196178
 30
0.0
 10
130.00963541666667
 20
177.92195638020831
 30
0.0
 10
130.01032443576386
 20
177.90473090277777
 30
0.0
 10
130.01170247395831
 20
177.88974473741317
 30
0.0
  0
HATCH
  5
11A
100
AcDbEntity
  8
レイヤー_2
 62
     7
100
AcDbHatch
 10
0.0
 20
0.0
 30
0.0
210
0.0
220
0.0
230
1.0
  2
SOLID
 70
     1
 71
     0
 91
        1
 92
        1
 93
        1
 72
     4
 94
        3
 73
     0
 74
     0
 95
       17
 96
       13
 40
0.0
 40
0.0
 40
0.0
 40
0.0
 40
1.0
 40
1.0
 40
1.0
 40
2.0
 40
2.0
 40
2.0
 40
3.0
 40
3.0
 40
3.0
 40
4.0
 40
4.0
 40
4.0
 40
4.0
 10
130.47679036458331
 20
178.75050184461804
 10
130.21840820312499
 20
178.52605387369789
 10
130.16742078993053
 20
178.23304850260416
 10
130.16742078993053
 20
177.93969862196178
 10
130.16742078993053
 20
177.93969862196178
 10
129.8525390625
 20
177.93969862196178
 10
129.8525390625
 20
177.93969862196178
 10
129.8525390625
 20
178.2687052408854
 10
130.07578124999998
 20
178.59702284071179
 10
130.3644802517361
 20
178.84782579210068
 10
130.3644802517361
 20
178.84782579210068
 10
130.47679036458331
 20
178.75050184461804
 10
130.47679036458331
 20
178.75050184461804
 97
        0
 75
     0
 76
     1
 98
        1
 10
0.0
 20
0.0
  0
SPLINE
  5
119
100
AcDbEntity
  8
レイヤー_2
 62
     7
100
AcDbSpline
210
0.0
220
0.0
230
1.0
 70
     8
 71
     3
 72
     8
 73
     4
 74
     0
 42
0.00000001
 43
0.00000001
 40
0.0
 40
0.0
 40
0.0
 40
0.0
 40
1.0
 40
1.0
 40
1.0
 40
1.0
 10
132.81807725694443
 20
181.76651068793402
 30
0.0
 10
132.81807725694443
 20
181.76651068793402
 30
0.0
 10
132.39777560763886
 20
183.42928602430553
 30
0.0
 10
130.39135199652776
 20
184.19168565538192
 30
0.0
  0
SPLINE
  5
118
100
AcDbEntity
  8
レイヤー_2
 62
     7
100
AcDbSpline
210
0.0
220
0.0
230
1.0
 70
     8
 71
     3
 72
     8
 73
     4
 74
     0
 42
0.00000001
 43
0.00000001
 40
0.0
 40
0.0
 40
0.0
 40
0.0
 40
1.0
 40
1.0
 40
1.0
 40
1.0
 10
130.00481228298611
 20
181.76651068793402
 30
0.0
 10
130.00481228298611
 20
181.76651068793402
 30
0.0
 10
130.42580295138887
 20
183.42928602430553
 30
0.0
 10
132.43084852430553
 20
184.19168565538192
 30
0.0
  0
LINE
  5
117
100
AcDbEntity
  8
レイヤー_2
 62
     7
100
AcDbLine
 10
73.355385
 20
197.216903
 30
0.0
 11
73.355385
 21
202.647407
 31
0.0
  0
LINE
  5
116
100
AcDbEntity
  8
レイヤー_2
 62
     7
100
AcDbLine
 10
68.855401
 20
202.647407
 30
0.0
 11
68.855401
 21
197.216903
 31
0.0
  0
SPLINE
  5
115
100
AcDbEntity
  8
レイヤー_2
 62
     7
100
AcDbSpline
210
0.0
220
0.0
230
1.0
 70
     8
 71
     3
 72
    11
 73
     7
 74
     0
 42
0.00000001
 43
0.00000001
 40
0.0
 40
0.0
 40
0.0
 40
0.0
 40
1.0
 40
1.0
 40
1.0
 40
2.0
 40
2.0
 40
2.0
 40
2.0
 10
73.355384657118051
 20
213.50496961805553
 30
0.0
 10
73.355384657118051
 20
214.74744330512152
 30
0.0
 10
72.348038736979163
 20
215.7547892252604
 30
0.0
 10
71.10470377604166
 20
215.7547892252604
 30
0.0
 10
69.861885579427081
 20
215.7547892252604
 30
0.0
 10
68.855400933159714
 20
214.74744330512152
 30
0.0
 10
68.855400933159714
 20
213.50496961805553
 30
0.0
  0
LINE
  5
114
100
AcDbEntity
  8
レイヤー_2
 62
     7
100
AcDbLine
 10
68.855401
 20
213.50497
 30
0.0
 11
68.855401
 21
202.647407
 31
0.0
  0
LINE
  5
113
100
AcDbEntity
  8
レイヤー_2
 62
     7
100
AcDbLine
 10
73.355385
 20
202.647407
 30
0.0
 11
73.355385
 21
213.50497
 31
0.0
  0
LINE
  5
112
100
AcDbEntity
  8
レイヤー_2
 62
     7
100
AcDbLine
 10
73.355385
 20
182.476717
 30
0.0
 11
73.355385
 21
192.80942
 31
0.0
  0
LINE
  5
111
100
AcDbEntity
  8
レイヤー_2
 62
     7
100
AcDbLine
 10
68.855401
 20
192.80942
 30
0.0
 11
68.855401
 21
182.476717
 31
0.0
  0
LINE
  5
110
100
AcDbEntity
  8
レイヤー_2
 62
     7
100
AcDbLine
 10
69.608671
 20
192.840253
 30
0.0
 11
69.608671
 21
192.80942
 31
0.0
  0
LINE
  5
10F
100
AcDbEntity
  8
レイヤー_2
 62
     7
100
AcDbLine
 10
72.601253
 20
192.80942
 30
0.0
 11
72.601253
 21
192.840253
 31
0.0
  0
LINE
  5
10E
100
AcDbEntity
  8
レイヤー_2
 62
     7
100
AcDbLine
 10
68.855401
 20
197.216903
 30
0.0
 11
68.855401
 21
192.80942
 31
0.0
  0
LINE
  5
10D
100
AcDbEntity
  8
レイヤー_2
 62
     7
100
AcDbLine
 10
73.355385
 20
192.80942
 30
0.0
 11
73.355385
 21
197.216903
 31
0.0
  0
POLYLINE
  5
F9
100
AcDbEntity
  8
レイヤー_2
 62
     7
100
AcDb2dPolyline
 66
     1
 10
0.0
 20
0.0
 30
0.0
  0
VERTEX
  5
FA
100
AcDbEntity
  8
レイヤー_2
 62
     7
100
AcDbVertex
100
AcDb2dVertex
 10
73.355385
 20
197.216903
 30
0.0
  0
VERTEX
  5
FB
100
AcDbEntity
  8
レイヤー_2
 62
     7
100
AcDbVertex
100
AcDb2dVertex
 10
73.344877
 20
197.224482
 30
0.0
  0
VERTEX
  5
FC
100
AcDbEntity
  8
レイヤー_2
 62
     7
100
AcDbVertex
100
AcDb2dVertex
 10
73.263917
 20
197.238951
 30
0.0
  0
VERTEX
  5
FD
100
AcDbEntity
  8
レイヤー_2
 62
     7
100
AcDbVertex
100
AcDb2dVertex
 10
73.105098
 20
197.252559
 30
0.0
  0
VERTEX
  5
FE
100
AcDbEntity
  8
レイヤー_2
 62
     7
100
AcDbVertex
100
AcDb2dVertex
 10
72.87376
 20
197.265306
 30
0.0
  0
VERTEX
  5
FF
100
AcDbEntity
  8
レイヤー_2
 62
     7
100
AcDbVertex
100
AcDb2dVertex
 10
72.577999
 20
197.276503
 30
0.0
  0
VERTEX
  5
100
100
AcDbEntity
  8
レイヤー_2
 62
     7
100
AcDbVertex
100
AcDb2dVertex
 10
72.230216
 20
197.285116
 30
0.0
  0
VERTEX
  5
101
100
AcDbEntity
  8
レイヤー_2
 62
     7
100
AcDbVertex
100
AcDb2dVertex
 10
71.841265
 20
197.2908
 30
0.0
  0
VERTEX
  5
102
100
AcDbEntity
  8
レイヤー_2
 62
     7
100
AcDbVertex
100
AcDb2dVertex
 10
71.42527
 20
197.294417
 30
0.0
  0
VERTEX
  5
103
100
AcDbEntity
  8
レイヤー_2
 62
     7
100
AcDbVertex
100
AcDb2dVertex
 10
70.997734
 20
197.295451
 30
0.0
  0
VERTEX
  5
104
100
AcDbEntity
  8
レイヤー_2
 62
     7
100
AcDbVertex
100
AcDb2dVertex
 10
70.574676
 20
197.293212
 30
0.0
  0
VERTEX
  5
105
100
AcDbEntity
  8
レイヤー_2
 62
     7
100
AcDbVertex
100
AcDb2dVertex
 10
70.170049
 20
197.288216
 30
0.0
  0
VERTEX
  5
106
100
AcDbEntity
  8
レイヤー_2
 62
     7
100
AcDbVertex
100
AcDb2dVertex
 10
69.800218
 20
197.280465
 30
0.0
  0
VERTEX
  5
107
100
AcDbEntity
  8
レイヤー_2
 62
     7
100
AcDbVertex
100
AcDb2dVertex
 10
69.476896
 20
197.271507
 30
0.0
  0
VERTEX
  5
108
100
AcDbEntity
  8
レイヤー_2
 62
     7
100
AcDbVertex
100
AcDb2dVertex
 10
69.212313
 20
197.259794
 30
0.0
  0
VERTEX
  5
109
100
AcDbEntity
  8
レイヤー_2
 62
     7
100
AcDbVertex
100
AcDb2dVertex
 10
69.016115
 20
197.245841
 30
0.0
  0
VERTEX
  5
10A
100
AcDbEntity
  8
レイヤー_2
 62
     7
100
AcDbVertex
100
AcDb2dVertex
 10
68.895709
 20
197.2312
 30
0.0
  0
VERTEX
  5
10B
100
AcDbEntity
  8
レイヤー_2
 62
     7
100
AcDbVertex
100
AcDb2dVertex
 10
68.855401
 20
197.216903
 30
0.0
  0
SEQEND
  5
10C
100
AcDbEntity
  8
レイヤー_2
 62
     7
  0
POLYLINE
  5
DC
100
AcDbEntity
  8
レイヤー_2
 62
     7
100
AcDb2dPolyline
 66
     1
 10
0.0
 20
0.0
 30
0.0
  0
VERTEX
  5
DD
100
AcDbEntity
  8
レイヤー_2
 62
     7
100
AcDbVertex
100
AcDb2dVertex
 10
71.104704
 20
192.856962
 30
0.0
  0
VERTEX
  5
DE
100
AcDbEntity
  8
レイヤー_2
 62
     7
100
AcDbVertex
100
AcDb2dVertex
 10
71.433538
 20
192.855929
 30
0.0
  0
VERTEX
  5
DF
100
AcDbEntity
  8
レイヤー_2
 62
     7
100
AcDbVertex
100
AcDb2dVertex
 10
71.742391
 20
192.851967
 30
0.0
  0
VERTEX
  5
E0
100
AcDbEntity
  8
レイヤー_2
 62
     7
100
AcDbVertex
100
AcDb2dVertex
 10
72.014898
 20
192.845076
 30
0.0
  0
VERTEX
  5
E1
100
AcDbEntity
  8
レイヤー_2
 62
     7
100
AcDbVertex
100
AcDb2dVertex
 10
72.234867
 20
192.837153
 30
0.0
  0
VERTEX
  5
E2
100
AcDbEntity
  8
レイヤー_2
 62
     7
100
AcDbVertex
100
AcDb2dVertex
 10
72.388346
 20
192.826301
 30
0.0
  0
VERTEX
  5
E3
100
AcDbEntity
  8
レイヤー_2
 62
     7
100
AcDbVertex
100
AcDb2dVertex
 10
72.467584
 20
192.815449
 30
0.0
  0
VERTEX
  5
E4
100
AcDbEntity
  8
レイヤー_2
 62
     7
100
AcDbVertex
100
AcDb2dVertex
 10
72.467584
 20
192.803219
 30
0.0
  0
VERTEX
  5
E5
100
AcDbEntity
  8
レイヤー_2
 62
     7
100
AcDbVertex
100
AcDb2dVertex
 10
72.388346
 20
192.792367
 30
0.0
  0
VERTEX
  5
E6
100
AcDbEntity
  8
レイヤー_2
 62
     7
100
AcDbVertex
100
AcDb2dVertex
 10
72.234867
 20
192.781859
 30
0.0
  0
VERTEX
  5
E7
100
AcDbEntity
  8
レイヤー_2
 62
     7
100
AcDbVertex
100
AcDb2dVertex
 10
72.014898
 20
192.773246
 30
0.0
  0
VERTEX
  5
E8
100
AcDbEntity
  8
レイヤー_2
 62
     7
100
AcDbVertex
100
AcDb2dVertex
 10
71.742391
 20
192.767045
 30
0.0
  0
VERTEX
  5
E9
100
AcDbEntity
  8
レイヤー_2
 62
     7
100
AcDbVertex
100
AcDb2dVertex
 10
71.433538
 20
192.762739
 30
0.0
  0
VERTEX
  5
EA
100
AcDbEntity
  8
レイヤー_2
 62
     7
100
AcDbVertex
100
AcDb2dVertex
 10
71.104704
 20
192.761361
 30
0.0
  0
VERTEX
  5
EB
100
AcDbEntity
  8
レイヤー_2
 62
     7
100
AcDbVertex
100
AcDb2dVertex
 10
70.776214
 20
192.762739
 30
0.0
  0
VERTEX
  5
EC
100
AcDbEntity
  8
レイヤー_2
 62
     7
100
AcDbVertex
100
AcDb2dVertex
 10
70.467533
 20
192.767045
 30
0.0
  0
VERTEX
  5
ED
100
AcDbEntity
  8
レイヤー_2
 62
     7
100
AcDbVertex
100
AcDb2dVertex
 10
70.194682
 20
192.773246
 30
0.0
  0
VERTEX
  5
EE
100
AcDbEntity
  8
レイヤー_2
 62
     7
100
AcDbVertex
100
AcDb2dVertex
 10
69.975401
 20
192.781859
 30
0.0
  0
VERTEX
  5
EF
100
AcDbEntity
  8
レイヤー_2
 62
     7
100
AcDbVertex
100
AcDb2dVertex
 10
69.821922
 20
192.792367
 30
0.0
  0
VERTEX
  5
F0
100
AcDbEntity
  8
レイヤー_2
 62
     7
100
AcDbVertex
100
AcDb2dVertex
 10
69.742169
 20
192.803219
 30
0.0
  0
VERTEX
  5
F1
100
AcDbEntity
  8
レイヤー_2
 62
     7
100
AcDbVertex
100
AcDb2dVertex
 10
69.742169
 20
192.815449
 30
0.0
  0
VERTEX
  5
F2
100
AcDbEntity
  8
レイヤー_2
 62
     7
100
AcDbVertex
100
AcDb2dVertex
 10
69.821922
 20
192.826301
 30
0.0
  0
VERTEX
  5
F3
100
AcDbEntity
  8
レイヤー_2
 62
     7
100
AcDbVertex
100
AcDb2dVertex
 10
69.975401
 20
192.837153
 30
0.0
  0
VERTEX
  5
F4
100
AcDbEntity
  8
レイヤー_2
 62
     7
100
AcDbVertex
100
AcDb2dVertex
 10
70.194682
 20
192.845076
 30
0.0
  0
VERTEX
  5
F5
100
AcDbEntity
  8
レイヤー_2
 62
     7
100
AcDbVertex
100
AcDb2dVertex
 10
70.467533
 20
192.851967
 30
0.0
  0
VERTEX
  5
F6
100
AcDbEntity
  8
レイヤー_2
 62
     7
100
AcDbVertex
100
AcDb2dVertex
 10
70.776214
 20
192.855929
 30
0.0
  0
VERTEX
  5
F7
100
AcDbEntity
  8
レイヤー_2
 62
     7
100
AcDbVertex
100
AcDb2dVertex
 10
71.104704
 20
192.856962
 30
0.0
  0
SEQEND
  5
F8
100
AcDbEntity
  8
レイヤー_2
 62
     7
  0
POLYLINE
  5
BE
100
AcDbEntity
  8
レイヤー_2
 62
     7
100
AcDb2dPolyline
 66
     1
 10
0.0
 20
0.0
 30
0.0
  0
VERTEX
  5
BF
100
AcDbEntity
  8
レイヤー_2
 62
     7
100
AcDbVertex
100
AcDb2dVertex
 10
71.104704
 20
192.861268
 30
0.0
  0
VERTEX
  5
C0
100
AcDbEntity
  8
レイヤー_2
 62
     7
100
AcDbVertex
100
AcDb2dVertex
 10
71.450419
 20
192.860579
 30
0.0
  0
VERTEX
  5
C1
100
AcDbEntity
  8
レイヤー_2
 62
     7
100
AcDbVertex
100
AcDb2dVertex
 10
71.776153
 20
192.855929
 30
0.0
  0
VERTEX
  5
C2
100
AcDbEntity
  8
レイヤー_2
 62
     7
100
AcDbVertex
100
AcDb2dVertex
 10
72.066402
 20
192.849555
 30
0.0
  0
VERTEX
  5
C3
100
AcDbEntity
  8
レイヤー_2
 62
     7
100
AcDbVertex
100
AcDb2dVertex
 10
72.305147
 20
192.840253
 30
0.0
  0
VERTEX
  5
C4
100
AcDbEntity
  8
レイヤー_2
 62
     7
100
AcDbVertex
100
AcDb2dVertex
 10
72.478436
 20
192.829918
 30
0.0
  0
VERTEX
  5
C5
100
AcDbEntity
  8
レイヤー_2
 62
     7
100
AcDbVertex
100
AcDb2dVertex
 10
72.577999
 20
192.818549
 30
0.0
  0
VERTEX
  5
C6
100
AcDbEntity
  8
レイヤー_2
 62
     7
100
AcDbVertex
100
AcDb2dVertex
 10
72.599186
 20
192.806147
 30
0.0
  0
VERTEX
  5
C7
100
AcDbEntity
  8
レイヤー_2
 62
     7
100
AcDbVertex
100
AcDb2dVertex
 10
72.53838
 20
192.794606
 30
0.0
  0
VERTEX
  5
C8
100
AcDbEntity
  8
レイヤー_2
 62
     7
100
AcDbVertex
100
AcDb2dVertex
 10
72.400749
 20
192.783065
 30
0.0
  0
VERTEX
  5
C9
100
AcDbEntity
  8
レイヤー_2
 62
     7
100
AcDbVertex
100
AcDb2dVertex
 10
72.193182
 20
192.773246
 30
0.0
  0
VERTEX
  5
CA
100
AcDbEntity
  8
レイヤー_2
 62
     7
100
AcDbVertex
100
AcDb2dVertex
 10
71.92722
 20
192.766012
 30
0.0
  0
VERTEX
  5
CB
100
AcDbEntity
  8
レイヤー_2
 62
     7
100
AcDbVertex
100
AcDb2dVertex
 10
71.616817
 20
192.760844
 30
0.0
  0
VERTEX
  5
CC
100
AcDbEntity
  8
レイヤー_2
 62
     7
100
AcDbVertex
100
AcDb2dVertex
 10
71.278853
 20
192.757054
 30
0.0
  0
VERTEX
  5
CD
100
AcDbEntity
  8
レイヤー_2
 62
     7
100
AcDbVertex
100
AcDb2dVertex
 10
70.931243
 20
192.757054
 30
0.0
  0
VERTEX
  5
CE
100
AcDbEntity
  8
レイヤー_2
 62
     7
100
AcDbVertex
100
AcDb2dVertex
 10
70.593279
 20
192.760844
 30
0.0
  0
VERTEX
  5
CF
100
AcDbEntity
  8
レイヤー_2
 62
     7
100
AcDbVertex
100
AcDb2dVertex
 10
70.282704
 20
192.766012
 30
0.0
  0
VERTEX
  5
D0
100
AcDbEntity
  8
レイヤー_2
 62
     7
100
AcDbVertex
100
AcDb2dVertex
 10
70.016398
 20
192.773246
 30
0.0
  0
VERTEX
  5
D1
100
AcDbEntity
  8
レイヤー_2
 62
     7
100
AcDbVertex
100
AcDb2dVertex
 10
69.809176
 20
192.783065
 30
0.0
  0
VERTEX
  5
D2
100
AcDbEntity
  8
レイヤー_2
 62
     7
100
AcDbVertex
100
AcDb2dVertex
 10
69.671889
 20
192.794606
 30
0.0
  0
VERTEX
  5
D3
100
AcDbEntity
  8
レイヤー_2
 62
     7
100
AcDbVertex
100
AcDb2dVertex
 10
69.611772
 20
192.806147
 30
0.0
  0
VERTEX
  5
D4
100
AcDbEntity
  8
レイヤー_2
 62
     7
100
AcDbVertex
100
AcDb2dVertex
 10
69.631581
 20
192.818549
 30
0.0
  0
VERTEX
  5
D5
100
AcDbEntity
  8
レイヤー_2
 62
     7
100
AcDbVertex
100
AcDb2dVertex
 10
69.7308
 20
192.829918
 30
0.0
  0
VERTEX
  5
D6
100
AcDbEntity
  8
レイヤー_2
 62
     7
100
AcDbVertex
100
AcDb2dVertex
 10
69.904949
 20
192.840253
 30
0.0
  0
VERTEX
  5
D7
100
AcDbEntity
  8
レイヤー_2
 62
     7
100
AcDbVertex
100
AcDb2dVertex
 10
70.143178
 20
192.849555
 30
0.0
  0
VERTEX
  5
D8
100
AcDbEntity
  8
レイヤー_2
 62
     7
100
AcDbVertex
100
AcDb2dVertex
 10
70.433427
 20
192.855929
 30
0.0
  0
VERTEX
  5
D9
100
AcDbEntity
  8
レイヤー_2
 62
     7
100
AcDbVertex
100
AcDb2dVertex
 10
70.759505
 20
192.860579
 30
0.0
  0
VERTEX
  5
DA
100
AcDbEntity
  8
レイヤー_2
 62
     7
100
AcDbVertex
100
AcDb2dVertex
 10
71.104704
 20
192.861268
 30
0.0
  0
SEQEND
  5
DB
100
AcDbEntity
  8
レイヤー_2
 62
     7
  0
POLYLINE
  5
AA
100
AcDbEntity
  8
レイヤー_2
 62
     7
100
AcDb2dPolyline
 66
     1
 10
0.0
 20
0.0
 30
0.0
  0
VERTEX
  5
AB
100
AcDbEntity
  8
レイヤー_2
 62
     7
100
AcDbVertex
100
AcDb2dVertex
 10
68.855401
 20
197.216903
 30
0.0
  0
VERTEX
  5
AC
100
AcDbEntity
  8
レイヤー_2
 62
     7
100
AcDbVertex
100
AcDb2dVertex
 10
68.889507
 20
197.230683
 30
0.0
  0
VERTEX
  5
AD
100
AcDbEntity
  8
レイヤー_2
 62
     7
100
AcDbVertex
100
AcDb2dVertex
 10
69.004918
 20
197.244808
 30
0.0
  0
VERTEX
  5
AE
100
AcDbEntity
  8
レイヤー_2
 62
     7
100
AcDbVertex
100
AcDb2dVertex
 10
69.195949
 20
197.257899
 30
0.0
  0
VERTEX
  5
AF
100
AcDbEntity
  8
レイヤー_2
 62
     7
100
AcDbVertex
100
AcDb2dVertex
 10
69.455709
 20
197.270302
 30
0.0
  0
VERTEX
  5
B0
100
AcDbEntity
  8
レイヤー_2
 62
     7
100
AcDbVertex
100
AcDb2dVertex
 10
69.775069
 20
197.280465
 30
0.0
  0
VERTEX
  5
B1
100
AcDbEntity
  8
レイヤー_2
 62
     7
100
AcDbVertex
100
AcDb2dVertex
 10
70.142144
 20
197.288216
 30
0.0
  0
VERTEX
  5
B2
100
AcDbEntity
  8
レイヤー_2
 62
     7
100
AcDbVertex
100
AcDb2dVertex
 10
70.545048
 20
197.293212
 30
0.0
  0
VERTEX
  5
B3
100
AcDbEntity
  8
レイヤー_2
 62
     7
100
AcDbVertex
100
AcDb2dVertex
 10
70.967244
 20
197.295451
 30
0.0
  0
VERTEX
  5
B4
100
AcDbEntity
  8
レイヤー_2
 62
     7
100
AcDbVertex
100
AcDb2dVertex
 10
71.394781
 20
197.294417
 30
0.0
  0
VERTEX
  5
B5
100
AcDbEntity
  8
レイヤー_2
 62
     7
100
AcDbVertex
100
AcDb2dVertex
 10
71.812154
 20
197.291317
 30
0.0
  0
VERTEX
  5
B6
100
AcDbEntity
  8
レイヤー_2
 62
     7
100
AcDbVertex
100
AcDb2dVertex
 10
72.203517
 20
197.28546
 30
0.0
  0
VERTEX
  5
B7
100
AcDbEntity
  8
レイヤー_2
 62
     7
100
AcDbVertex
100
AcDb2dVertex
 10
72.555778
 20
197.276503
 30
0.0
  0
VERTEX
  5
B8
100
AcDbEntity
  8
レイヤー_2
 62
     7
100
AcDbVertex
100
AcDb2dVertex
 10
72.85464
 20
197.265995
 30
0.0
  0
VERTEX
  5
B9
100
AcDbEntity
  8
レイヤー_2
 62
     7
100
AcDbVertex
100
AcDb2dVertex
 10
73.090285
 20
197.253593
 30
0.0
  0
VERTEX
  5
BA
100
AcDbEntity
  8
レイヤー_2
 62
     7
100
AcDbVertex
100
AcDb2dVertex
 10
73.255132
 20
197.239985
 30
0.0
  0
VERTEX
  5
BB
100
AcDbEntity
  8
レイヤー_2
 62
     7
100
AcDbVertex
100
AcDb2dVertex
 10
73.341777
 20
197.225688
 30
0.0
  0
VERTEX
  5
BC
100
AcDbEntity
  8
レイヤー_2
 62
     7
100
AcDbVertex
100
AcDb2dVertex
 10
73.355385
 20
197.216903
 30
0.0
  0
SEQEND
  5
BD
100
AcDbEntity
  8
レイヤー_2
 62
     7
  0
POLYLINE
  5
86
100
AcDbEntity
  8
レイヤー_2
 62
     7
100
AcDb2dPolyline
 66
     1
 10
0.0
 20
0.0
 30
0.0
  0
VERTEX
  5
87
100
AcDbEntity
  8
レイヤー_2
 62
     7
100
AcDbVertex
100
AcDb2dVertex
 10
69.824679
 20
192.744652
 30
0.0
  0
VERTEX
  5
88
100
AcDbEntity
  8
レイヤー_2
 62
     7
100
AcDbVertex
100
AcDb2dVertex
 10
69.498256
 20
192.753954
 30
0.0
  0
VERTEX
  5
89
100
AcDbEntity
  8
レイヤー_2
 62
     7
100
AcDbVertex
100
AcDb2dVertex
 10
69.228849
 20
192.766012
 30
0.0
  0
VERTEX
  5
8A
100
AcDbEntity
  8
レイヤー_2
 62
     7
100
AcDbVertex
100
AcDb2dVertex
 10
69.027828
 20
192.779792
 30
0.0
  0
VERTEX
  5
8B
100
AcDbEntity
  8
レイヤー_2
 62
     7
100
AcDbVertex
100
AcDb2dVertex
 10
68.901737
 20
192.793745
 30
0.0
  0
VERTEX
  5
8C
100
AcDbEntity
  8
レイヤー_2
 62
     7
100
AcDbVertex
100
AcDb2dVertex
 10
68.855401
 20
192.808214
 30
0.0
  0
VERTEX
  5
8D
100
AcDbEntity
  8
レイヤー_2
 62
     7
100
AcDbVertex
100
AcDb2dVertex
 10
68.889507
 20
192.8232
 30
0.0
  0
VERTEX
  5
8E
100
AcDbEntity
  8
レイヤー_2
 62
     7
100
AcDbVertex
100
AcDb2dVertex
 10
69.004918
 20
192.83767
 30
0.0
  0
VERTEX
  5
8F
100
AcDbEntity
  8
レイヤー_2
 62
     7
100
AcDbVertex
100
AcDb2dVertex
 10
69.195949
 20
192.851278
 30
0.0
  0
VERTEX
  5
90
100
AcDbEntity
  8
レイヤー_2
 62
     7
100
AcDbVertex
100
AcDb2dVertex
 10
69.455709
 20
192.862819
 30
0.0
  0
VERTEX
  5
91
100
AcDbEntity
  8
レイヤー_2
 62
     7
100
AcDbVertex
100
AcDb2dVertex
 10
69.775069
 20
192.87281
 30
0.0
  0
VERTEX
  5
92
100
AcDbEntity
  8
レイヤー_2
 62
     7
100
AcDbVertex
100
AcDb2dVertex
 10
70.142144
 20
192.880561
 30
0.0
  0
VERTEX
  5
93
100
AcDbEntity
  8
レイヤー_2
 62
     7
100
AcDbVertex
100
AcDb2dVertex
 10
70.545048
 20
192.885384
 30
0.0
  0
VERTEX
  5
94
100
AcDbEntity
  8
レイヤー_2
 62
     7
100
AcDbVertex
100
AcDb2dVertex
 10
70.967244
 20
192.887623
 30
0.0
  0
VERTEX
  5
95
100
AcDbEntity
  8
レイヤー_2
 62
     7
100
AcDbVertex
100
AcDb2dVertex
 10
71.394781
 20
192.887279
 30
0.0
  0
VERTEX
  5
96
100
AcDbEntity
  8
レイヤー_2
 62
     7
100
AcDbVertex
100
AcDb2dVertex
 10
71.812154
 20
192.884178
 30
0.0
  0
VERTEX
  5
97
100
AcDbEntity
  8
レイヤー_2
 62
     7
100
AcDbVertex
100
AcDb2dVertex
 10
72.203517
 20
192.877977
 30
0.0
  0
VERTEX
  5
98
100
AcDbEntity
  8
レイヤー_2
 62
     7
100
AcDbVertex
100
AcDb2dVertex
 10
72.555778
 20
192.869709
 30
0.0
  0
VERTEX
  5
99
100
AcDbEntity
  8
レイヤー_2
 62
     7
100
AcDbVertex
100
AcDb2dVertex
 10
72.85464
 20
192.858857
 30
0.0
  0
VERTEX
  5
9A
100
AcDbEntity
  8
レイヤー_2
 62
     7
100
AcDbVertex
100
AcDb2dVertex
 10
73.090285
 20
192.846455
 30
0.0
  0
VERTEX
  5
9B
100
AcDbEntity
  8
レイヤー_2
 62
     7
100
AcDbVertex
100
AcDb2dVertex
 10
73.255132
 20
192.832674
 30
0.0
  0
VERTEX
  5
9C
100
AcDbEntity
  8
レイヤー_2
 62
     7
100
AcDbVertex
100
AcDb2dVertex
 10
73.341777
 20
192.81786
 30
0.0
  0
VERTEX
  5
9D
100
AcDbEntity
  8
レイヤー_2
 62
     7
100
AcDbVertex
100
AcDb2dVertex
 10
73.347289
 20
192.803046
 30
0.0
  0
VERTEX
  5
9E
100
AcDbEntity
  8
レイヤー_2
 62
     7
100
AcDbVertex
100
AcDb2dVertex
 10
73.272186
 20
192.78806
 30
0.0
  0
VERTEX
  5
9F
100
AcDbEntity
  8
レイヤー_2
 62
     7
100
AcDbVertex
100
AcDb2dVertex
 10
73.118707
 20
192.773763
 30
0.0
  0
VERTEX
  5
A0
100
AcDbEntity
  8
レイヤー_2
 62
     7
100
AcDbVertex
100
AcDb2dVertex
 10
72.892364
 20
192.761361
 30
0.0
  0
VERTEX
  5
A1
100
AcDbEntity
  8
レイヤー_2
 62
     7
100
AcDbVertex
100
AcDb2dVertex
 10
72.601253
 20
192.750853
 30
0.0
  0
VERTEX
  5
A2
100
AcDbEntity
  8
レイヤー_2
 62
     7
100
AcDbVertex
100
AcDb2dVertex
 10
72.256227
 20
192.74224
 30
0.0
  0
VERTEX
  5
A3
100
AcDbEntity
  8
レイヤー_2
 62
     7
100
AcDbVertex
100
AcDb2dVertex
 10
71.869859
 20
192.73535
 30
0.0
  0
VERTEX
  5
A4
100
AcDbEntity
  8
レイヤー_2
 62
     7
100
AcDbVertex
100
AcDb2dVertex
 10
71.455587
 20
192.731733
 30
0.0
  0
VERTEX
  5
A5
100
AcDbEntity
  8
レイヤー_2
 62
     7
100
AcDbVertex
100
AcDb2dVertex
 10
71.02805
 20
192.731388
 30
0.0
  0
VERTEX
  5
A6
100
AcDbEntity
  8
レイヤー_2
 62
     7
100
AcDbVertex
100
AcDb2dVertex
 10
70.604131
 20
192.732939
 30
0.0
  0
VERTEX
  5
A7
100
AcDbEntity
  8
レイヤー_2
 62
     7
100
AcDbVertex
100
AcDb2dVertex
 10
70.197955
 20
192.737245
 30
0.0
  0
VERTEX
  5
A8
100
AcDbEntity
  8
レイヤー_2
 62
     7
100
AcDbVertex
100
AcDb2dVertex
 10
69.824679
 20
192.744652
 30
0.0
  0
SEQEND
  5
A9
100
AcDbEntity
  8
レイヤー_2
 62
     7
  0
POLYLINE
  5
66
100
AcDbEntity
  8
レイヤー_2
 62
     7
100
AcDb2dPolyline
 66
     1
 10
0.0
 20
0.0
 30
0.0
  0
VERTEX
  5
67
100
AcDbEntity
  8
レイヤー_2
 62
     7
100
AcDbVertex
100
AcDb2dVertex
 10
70.112689
 20
192.759638
 30
0.0
  0
VERTEX
  5
68
100
AcDbEntity
  8
レイヤー_2
 62
     7
100
AcDbVertex
100
AcDb2dVertex
 10
69.827435
 20
192.767906
 30
0.0
  0
VERTEX
  5
69
100
AcDbEntity
  8
レイヤー_2
 62
     7
100
AcDbVertex
100
AcDb2dVertex
 10
69.602642
 20
192.778242
 30
0.0
  0
VERTEX
  5
6A
100
AcDbEntity
  8
レイヤー_2
 62
     7
100
AcDbVertex
100
AcDb2dVertex
 10
69.447096
 20
192.790644
 30
0.0
  0
VERTEX
  5
6B
100
AcDbEntity
  8
レイヤー_2
 62
     7
100
AcDbVertex
100
AcDb2dVertex
 10
69.370098
 20
192.803219
 30
0.0
  0
VERTEX
  5
6C
100
AcDbEntity
  8
レイヤー_2
 62
     7
100
AcDbVertex
100
AcDb2dVertex
 10
69.373543
 20
192.81631
 30
0.0
  0
VERTEX
  5
6D
100
AcDbEntity
  8
レイヤー_2
 62
     7
100
AcDbVertex
100
AcDb2dVertex
 10
69.457604
 20
192.829401
 30
0.0
  0
VERTEX
  5
6E
100
AcDbEntity
  8
レイヤー_2
 62
     7
100
AcDbVertex
100
AcDb2dVertex
 10
69.619695
 20
192.841459
 30
0.0
  0
VERTEX
  5
6F
100
AcDbEntity
  8
レイヤー_2
 62
     7
100
AcDbVertex
100
AcDb2dVertex
 10
69.850172
 20
192.851967
 30
0.0
  0
VERTEX
  5
70
100
AcDbEntity
  8
レイヤー_2
 62
     7
100
AcDbVertex
100
AcDb2dVertex
 10
70.139733
 20
192.859718
 30
0.0
  0
VERTEX
  5
71
100
AcDbEntity
  8
レイヤー_2
 62
     7
100
AcDbVertex
100
AcDb2dVertex
 10
70.47494
 20
192.865919
 30
0.0
  0
VERTEX
  5
72
100
AcDbEntity
  8
レイヤー_2
 62
     7
100
AcDbVertex
100
AcDb2dVertex
 10
70.838915
 20
192.869709
 30
0.0
  0
VERTEX
  5
73
100
AcDbEntity
  8
レイヤー_2
 62
     7
100
AcDbVertex
100
AcDb2dVertex
 10
71.21598
 20
192.87057
 30
0.0
  0
VERTEX
  5
74
100
AcDbEntity
  8
レイヤー_2
 62
     7
100
AcDbVertex
100
AcDb2dVertex
 10
71.587017
 20
192.868159
 30
0.0
  0
VERTEX
  5
75
100
AcDbEntity
  8
レイヤー_2
 62
     7
100
AcDbVertex
100
AcDb2dVertex
 10
71.936178
 20
192.862819
 30
0.0
  0
VERTEX
  5
76
100
AcDbEntity
  8
レイヤー_2
 62
     7
100
AcDbVertex
100
AcDb2dVertex
 10
72.246581
 20
192.855929
 30
0.0
  0
VERTEX
  5
77
100
AcDbEntity
  8
レイヤー_2
 62
     7
100
AcDbVertex
100
AcDb2dVertex
 10
72.502724
 20
192.845766
 30
0.0
  0
VERTEX
  5
78
100
AcDbEntity
  8
レイヤー_2
 62
     7
100
AcDbVertex
100
AcDb2dVertex
 10
72.694271
 20
192.834569
 30
0.0
  0
VERTEX
  5
79
100
AcDbEntity
  8
レイヤー_2
 62
     7
100
AcDbVertex
100
AcDb2dVertex
 10
72.811232
 20
192.82165
 30
0.0
  0
VERTEX
  5
7A
100
AcDbEntity
  8
レイヤー_2
 62
     7
100
AcDbVertex
100
AcDb2dVertex
 10
72.848783
 20
192.808558
 30
0.0
  0
VERTEX
  5
7B
100
AcDbEntity
  8
レイヤー_2
 62
     7
100
AcDbVertex
100
AcDb2dVertex
 10
72.804342
 20
192.795467
 30
0.0
  0
VERTEX
  5
7C
100
AcDbEntity
  8
レイヤー_2
 62
     7
100
AcDbVertex
100
AcDb2dVertex
 10
72.680663
 20
192.783065
 30
0.0
  0
VERTEX
  5
7D
100
AcDbEntity
  8
レイヤー_2
 62
     7
100
AcDbVertex
100
AcDb2dVertex
 10
72.482914
 20
192.771696
 30
0.0
  0
VERTEX
  5
7E
100
AcDbEntity
  8
レイヤー_2
 62
     7
100
AcDbVertex
100
AcDb2dVertex
 10
72.221087
 20
192.762739
 30
0.0
  0
VERTEX
  5
7F
100
AcDbEntity
  8
レイヤー_2
 62
     7
100
AcDbVertex
100
AcDb2dVertex
 10
71.907756
 20
192.755849
 30
0.0
  0
VERTEX
  5
80
100
AcDbEntity
  8
レイヤー_2
 62
     7
100
AcDbVertex
100
AcDb2dVertex
 10
71.555495
 20
192.750853
 30
0.0
  0
VERTEX
  5
81
100
AcDbEntity
  8
レイヤー_2
 62
     7
100
AcDbVertex
100
AcDb2dVertex
 10
71.183424
 20
192.748442
 30
0.0
  0
VERTEX
  5
82
100
AcDbEntity
  8
レイヤー_2
 62
     7
100
AcDbVertex
100
AcDb2dVertex
 10
70.806359
 20
192.749647
 30
0.0
  0
VERTEX
  5
83
100
AcDbEntity
  8
レイヤー_2
 62
     7
100
AcDbVertex
100
AcDb2dVertex
 10
70.444451
 20
192.752748
 30
0.0
  0
VERTEX
  5
84
100
AcDbEntity
  8
レイヤー_2
 62
     7
100
AcDbVertex
100
AcDb2dVertex
 10
70.112689
 20
192.759638
 30
0.0
  0
SEQEND
  5
85
100
AcDbEntity
  8
レイヤー_2
 62
     7
  0
SPLINE
  5
65
100
AcDbEntity
  8
レイヤー_2
 62
     7
100
AcDbSpline
210
0.0
220
0.0
230
1.0
 70
     8
 71
     3
 72
     8
 73
     4
 74
     0
 42
0.00000001
 43
0.00000001
 40
0.0
 40
0.0
 40
0.0
 40
0.0
 40
1.0
 40
1.0
 40
1.0
 40
1.0
 10
73.215858289930551
 20
197.2442911783854
 30
0.0
 10
72.476024034288187
 20
197.31491563585067
 30
0.0
 10
71.743424479166663
 20
197.33661973741317
 30
0.0
 10
71.10470377604166
 20
197.31302083333333
 30
0.0
  0
SPLINE
  5
64
100
AcDbEntity
  8
レイヤー_2
 62
     7
100
AcDbSpline
210
0.0
220
0.0
230
1.0
 70
     8
 71
     3
 72
     8
 73
     4
 74
     0
 42
0.00000001
 43
0.00000001
 40
0.0
 40
0.0
 40
0.0
 40
0.0
 40
1.0
 40
1.0
 40
1.0
 40
1.0
 10
71.10470377604166
 20
197.31302083333333
 30
0.0
 10
70.362113444010404
 20
197.33541395399303
 30
0.0
 10
69.62899712456597
 20
197.30940348307291
 30
0.0
 10
68.994410536024304
 20
197.2442911783854
 30
0.0
  0
SPLINE
  5
63
100
AcDbEntity
  8
レイヤー_2
 62
     7
100
AcDbSpline
210
0.0
220
0.0
230
1.0
 70
     8
 71
     3
 72
    11
 73
     7
 74
     0
 42
0.00000001
 43
0.00000001
 40
0.0
 40
0.0
 40
0.0
 40
0.0
 40
1.0
 40
1.0
 40
1.0
 40
2.0
 40
2.0
 40
2.0
 40
2.0
 10
151.73578559027777
 20
202.49857855902775
 30
0.0
 10
151.56628689236109
 20
207.35564643012151
 30
0.0
 10
147.57824435763888
 20
211.17935791015623
 30
0.0
 10
142.74133029513888
 20
211.18469780815971
 30
0.0
 10
137.77074652777776
 20
211.18469780815971
 30
0.0
 10
133.74067382812498
 20
207.15479736328123
 30
0.0
 10
133.74067382812498
 20
202.18473036024304
 30
0.0
  0
SPLINE
  5
62
100
AcDbEntity
  8
レイヤー_2
 62
     7
100
AcDbSpline
210
0.0
220
0.0
230
1.0
 70
     8
 71
     3
 72
    11
 73
     7
 74
     0
 42
0.00000001
 43
0.00000001
 40
0.0
 40
0.0
 40
0.0
 40
0.0
 40
1.0
 40
1.0
 40
1.0
 40
2.0
 40
2.0
 40
2.0
 40
2.0
 10
156.23301323784722
 20
202.65567491319442
 30
0.0
 10
155.97807617187499
 20
209.94153510199652
 30
0.0
 10
149.99601236979166
 20
215.67624104817708
 30
0.0
 10
142.74133029513888
 20
215.68468153211805
 30
0.0
 10
135.2854546440972
 20
215.68468153211805
 30
0.0
 10
129.24137912326387
 20
209.64008924696179
 30
0.0
 10
129.24137912326387
 20
202.18473036024304
 30
0.0
  0
LINE
  5
61
100
AcDbEntity
  8
レイヤー_2
 62
     7
100
AcDbLine
 10
133.740674
 20
184.191686
 30
0.0
 11
133.740674
 21
202.18473
 31
0.0
  0
LINE
  5
60
100
AcDbEntity
  8
レイヤー_2
 62
     7
100
AcDbLine
 10
129.241379
 20
202.18473
 30
0.0
 11
129.241379
 21
184.116066
 31
0.0
  0
LINE
  5
5F
100
AcDbEntity
  8
レイヤー_2
 62
     7
100
AcDbLine
 10
156.422493
 20
197.224999
 30
0.0
 11
156.233013
 21
202.655675
 31
0.0
  0
LINE
  5
5E
100
AcDbEntity
  8
レイヤー_2
 62
     7
100
AcDbLine
 10
151.735786
 20
202.498579
 30
0.0
 11
151.925266
 21
197.067902
 31
0.0
  0
LINE
  5
5D
100
AcDbEntity
  8
レイヤー_2
 62
     7
100
AcDbLine
 10
151.925266
 20
197.067902
 30
0.0
 11
152.079606
 21
192.660419
 31
0.0
  0
LINE
  5
5C
100
AcDbEntity
  8
レイヤー_2
 62
     7
100
AcDbLine
 10
156.576145
 20
192.81786
 30
0.0
 11
156.422493
 21
197.224999
 31
0.0
  0
LINE
  5
5B
100
AcDbEntity
  8
レイヤー_2
 62
     7
100
AcDbLine
 10
154.174224
 20
197.146967
 30
0.0
 11
151.925266
 21
197.067902
 31
0.0
  0
LINE
  5
5A
100
AcDbEntity
  8
レイヤー_2
 62
     7
100
AcDbLine
 10
156.422493
 20
197.224999
 30
0.0
 11
154.174224
 21
197.146967
 31
0.0
  0
LINE
  5
59
100
AcDbEntity
  8
レイヤー_2
 62
     7
100
AcDbLine
 10
152.324897
 20
197.081855
 30
0.0
 11
156.422493
 21
197.224999
 31
0.0
  0
LINE
  5
58
100
AcDbEntity
  8
レイヤー_2
 62
     7
100
AcDbLine
 10
151.925266
 20
197.067902
 30
0.0
 11
152.324897
 21
197.081855
 31
0.0
  0
LINE
  5
57
100
AcDbEntity
  8
レイヤー_2
 62
     7
100
AcDbLine
 10
152.478548
 20
192.674544
 30
0.0
 11
156.576145
 21
192.81786
 31
0.0
  0
LINE
  5
56
100
AcDbEntity
  8
レイヤー_2
 62
     7
100
AcDbLine
 10
152.079606
 20
192.660419
 30
0.0
 11
152.478548
 21
192.674544
 31
0.0
  0
LINE
  5
55
100
AcDbEntity
  8
レイヤー_2
  6
AI9-LType1
 62
     7
100
AcDbLine
 10
71.12503
 20
217.364855
 30
0.0
 11
71.12503
 21
131.677062
 31
0.0
  0
LINE
  5
54
100
AcDbEntity
  8
レイヤー_2
 62
     7
100
AcDbLine
 10
71.12503
 20
131.677062
 30
0.0
 11
71.12503
 21
130.777203
 31
0.0
  0
LINE
  5
53
100
AcDbEntity
  8
レイヤー_2
  6
AI9-LType1
 62
     7
100
AcDbLine
 10
131.374582
 20
98.484256
 30
0.0
 11
131.374582
 21
200.778959
 31
0.0
  0
LINE
  5
52
100
AcDbEntity
  8
レイヤー_2
 62
     7
100
AcDbLine
 10
131.374582
 20
200.778959
 30
0.0
 11
131.374582
 21
201.678646
 31
0.0
  0
LINE
  5
51
100
AcDbEntity
  8
レイヤー_2
  6
AI9-LType1
 62
     7
100
AcDbLine
 10
154.142529
 20
198.489693
 30
0.0
 11
154.338211
 21
192.723637
 31
0.0
  0
LINE
  5
4F
100
AcDbEntity
  8
レイヤー_2
 62
     7
100
AcDbLine
 10
154.338211
 20
192.723637
 30
0.0
 11
154.368528
 21
191.824984
 31
0.0
  0
LINE
  5
4E
100
AcDbEntity
  8
レイヤー_2
 62
     7
100
AcDbLine
 10
54.771334
 20
162.697563
 30
0.0
 11
41.473954
 21
162.697563
 31
0.0
  0
LINE
  5
4D
100
AcDbEntity
  8
レイヤー_2
 62
     7
100
AcDbLine
 10
65.393941
 20
154.944203
 30
0.0
 11
41.473954
 21
154.944203
 31
0.0
  0
LINE
  5
4C
100
AcDbEntity
  8
レイヤー_2
 62
     7
100
AcDbLine
 10
144.058735
 20
162.783173
 30
0.0
 11
191.377121
 21
162.796092
 31
0.0
  0
LINE
  5
4B
100
AcDbEntity
  8
レイヤー_2
 62
     7
100
AcDbLine
 10
42.745367
 20
150.423204
 30
0.0
 11
42.793254
 21
126.807419
 31
0.0
  0
LINE
  5
4A
100
AcDbEntity
  8
レイヤー_2
 62
     7
100
AcDbLine
 10
51.025309
 20
227.526164
 30
0.0
 11
51.025309
 21
179.349604
 31
0.0
  0
LINE
  5
49
100
AcDbEntity
  8
レイヤー_2
 62
     7
100
AcDbLine
 10
131.374582
 20
227.400073
 30
0.0
 11
131.374582
 21
210.485688
 31
0.0
  0
LINE
  5
48
100
AcDbEntity
  8
レイヤー_2
 62
     7
100
AcDbLine
 10
154.203852
 20
227.982983
 30
0.0
 11
154.203852
 21
206.664216
 31
0.0
  0
LINE
  5
47
100
AcDbEntity
  8
レイヤー_2
 62
     7
100
AcDbLine
 10
130.089562
 20
224.937347
 30
0.0
 11
132.756755
 21
227.604023
 31
0.0
  0
LINE
  5
46
100
AcDbEntity
  8
レイヤー_2
 62
     7
100
AcDbLine
 10
155.661127
 20
227.708237
 30
0.0
 11
152.993245
 21
225.041561
 31
0.0
  0
LINE
  5
45
100
AcDbEntity
  8
レイヤー_2
 62
     7
100
AcDbLine
 10
124.128857
 20
226.270426
 30
0.0
 11
155.942936
 21
226.270426
 31
0.0
  0
LINE
  5
44
100
AcDbEntity
  8
レイヤー_2
 62
     7
100
AcDbLine
 10
191.206245
 20
161.316252
 30
0.0
 11
188.539741
 21
163.983272
 31
0.0
  0
LINE
  5
43
100
AcDbEntity
  8
レイヤー_2
 62
     7
100
AcDbLine
 10
188.509424
 20
217.017417
 30
0.0
 11
191.175928
 21
214.350396
 31
0.0
  0
LINE
  5
42
100
AcDbEntity
  8
レイヤー_2
 62
     7
100
AcDbLine
 10
191.277214
 20
215.684682
 30
0.0
 11
150.290913
 21
215.684682
 31
0.0
  0
LINE
  5
41
100
AcDbEntity
  8
レイヤー_2
 62
     7
100
AcDbLine
 10
189.872993
 20
161.316252
 30
0.0
 11
189.872993
 21
217.397238
 31
0.0
  0
LINE
  5
40
100
AcDbEntity
  8
レイヤー_2
 62
     7
100
AcDbLine
 10
178.802523
 20
193.919774
 30
0.0
 11
181.469716
 21
191.252926
 31
0.0
  0
LINE
  5
3F
100
AcDbEntity
  8
レイヤー_2
 62
     7
100
AcDbLine
 10
181.469716
 20
161.415126
 30
0.0
 11
178.802523
 21
164.082491
 31
0.0
  0
LINE
  5
3E
100
AcDbEntity
  8
レイヤー_2
 62
     7
100
AcDbLine
 10
180.136464
 20
161.390321
 30
0.0
 11
180.136464
 21
194.050343
 31
0.0
  0
LINE
  5
3D
100
AcDbEntity
  8
レイヤー_2
 62
     7
100
AcDbLine
 10
157.73163
 20
192.464393
 30
0.0
 11
181.836274
 21
192.464393
 31
0.0
  0
LINE
  5
3C
100
AcDbEntity
  8
レイヤー_2
 62
     7
100
AcDbLine
 10
123.525277
 20
154.798131
 30
0.0
 11
126.19247
 21
157.465324
 31
0.0
  0
LINE
  5
3B
100
AcDbEntity
  8
レイヤー_2
 62
     7
100
AcDbLine
 10
139.417502
 20
157.437074
 30
0.0
 11
136.74962
 21
154.769881
 31
0.0
  0
LINE
  5
3A
100
AcDbEntity
  8
レイヤー_2
 62
     7
100
AcDbLine
 10
49.78318
 20
225.004009
 30
0.0
 11
52.450028
 21
227.670858
 31
0.0
  0
LINE
  5
39
100
AcDbEntity
  8
レイヤー_2
 62
     7
100
AcDbLine
 10
92.365422
 20
227.686188
 30
0.0
 11
89.698229
 21
225.018823
 31
0.0
  0
LINE
  5
38
100
AcDbEntity
  8
レイヤー_2
 62
     7
100
AcDbLine
 10
92.51046
 20
226.352247
 30
0.0
 11
49.617299
 21
226.352247
 31
0.0
  0
LINE
  5
37
100
AcDbEntity
  8
レイヤー_2
 62
     7
100
AcDbLine
 10
91.051979
 20
228.044651
 30
0.0
 11
91.051979
 21
179.721674
 31
0.0
  0
LINE
  5
36
100
AcDbEntity
  8
レイヤー_2
 62
     7
100
AcDbLine
 10
41.585231
 20
189.00569
 30
0.0
 11
61.978646
 21
189.00569
 31
0.0
  0
LINE
  5
35
100
AcDbEntity
  8
レイヤー_2
 62
     7
100
AcDbLine
 10
41.448805
 20
190.331535
 30
0.0
 11
44.115826
 21
187.664686
 31
0.0
  0
LINE
  5
34
100
AcDbEntity
  8
レイヤー_2
 62
     7
100
AcDbLine
 10
44.079652
 20
161.25424
 30
0.0
 11
41.412804
 21
163.921261
 31
0.0
  0
LINE
  5
33
100
AcDbEntity
  8
レイヤー_2
 62
     7
100
AcDbLine
 10
42.745367
 20
163.153693
 30
0.0
 11
42.745367
 21
190.589228
 31
0.0
  0
LINE
  5
32
100
AcDbEntity
  8
レイヤー_2
 62
     7
100
AcDbLine
 10
124.936388
 20
170.233192
 30
0.0
 11
124.936388
 21
180.715068
 31
0.0
  0
LINE
  5
31
100
AcDbEntity
  8
レイヤー_2
 62
     7
100
AcDbLine
 10
124.90676
 20
185.359745
 30
0.0
 11
124.90676
 21
227.549418
 31
0.0
  0
LINE
  5
30
100
AcDbEntity
  8
レイヤー_2
 62
     7
100
AcDbLine
 10
125.950624
 20
227.414543
 30
0.0
 11
123.994499
 21
225.213643
 31
0.0
  0
LINE
  5
2F
100
AcDbEntity
  8
レイヤー_2
 62
     7
100
AcDbLine
 10
44.078446
 20
153.551179
 30
0.0
 11
41.411598
 21
156.218199
 31
0.0
  0
LINE
  5
2E
100
AcDbEntity
  8
レイヤー_2
 62
     7
100
AcDbLine
 10
42.745367
 20
163.153693
 30
0.0
 11
42.745367
 21
150.295219
 31
0.0
  0
LINE
  5
2D
100
AcDbEntity
  8
レイヤー_2
 62
     7
100
AcDbLine
 10
122.687429
 20
156.082118
 30
0.0
 11
156.334988
 21
156.082118
 31
0.0
  0
LINE
  5
2C
100
AcDbEntity
  8
レイヤー_2
 62
     7
100
AcDbLine
 10
124.7662
 20
162.210426
 30
0.0
 11
124.7662
 21
154.686854
 31
0.0
  0
LINE
  5
2B
100
AcDbEntity
  8
レイヤー_2
 62
     7
100
AcDbLine
 10
138.048421
 20
162.210426
 30
0.0
 11
138.048421
 21
154.686854
 31
0.0
  0
LINE
  5
2A
100
AcDbEntity
  8
レイヤー_2
 62
     7
100
AcDbLine
 10
56.266505
 20
162.677409
 30
0.0
 11
86.434517
 21
162.677409
 31
0.0
  0
LINE
  5
29
100
AcDbEntity
  8
レイヤー_2
 62
     7
100
AcDbLine
 10
119.036317
 20
162.654499
 30
0.0
 11
143.36696
 21
162.609713
 31
0.0
  0
ENDSEC
  0
SECTION
  2
OBJECTS
  0
DICTIONARY
  5
19
100
AcDbDictionary
280
     0
281
     1
  3
ACAD_GROUP
350
1A
  3
ACAD_MLINESTYLE
350
1B
  3
ACAD_LAYOUT
350
1E
  3
ACAD_PLOTSETTINGS
350
22
  3
ACAD_PLOTSTYLENAME
350
1F
  3
ACAD_WIPEOUT_VARS
350
23
  0
DICTIONARY
  5
1A
102
{ACAD_REACTORS
330
19
102
}
100
AcDbDictionary
280
     0
281
     1
  0
DICTIONARY
  5
1B
102
{ACAD_REACTORS
330
19
102
}
100
AcDbDictionary
280
     0
281
     1
  3
Standard
350
1C
  0
MLINESTYLE
  5
1C
102
{ACAD_REACTORS
330
1B
102
}
100
AcDbMlineStyle
  2
Standard
 70
     0
  3

 62
     0
 51
90.0
 52
90.0
 71
     2
 49
0.5
 62
   256
  6
ByLayer
 49
-0.5
 62
   256
  6
ByLayer
  0
ACDBDICTIONARYWDFLT
  5
1F
102
{ACAD_REACTORS
330
19
102
}
100
AcDbDictionary
281
     1
  3
Normal
350
1D
100
AcDbDictionaryWithDefault
340
1D
  0
ACDBPLACEHOLDER
  5
1D
102
{ACAD_REACTORS
330
1F
102
}
  0
LAYOUT
  5
20
102
{ACAD_REACTORS
330
1E
102
}
100
AcDbPlotSettings
  1

  2

  4

  6

 40
0.0
 41
0.0
 42
0.0
 43
0.0
 44
0.0
 45
0.0
 46
0.0
 47
0.0
 48
0.0
 49
0.0
140
0.0
141
0.0
142
1.0
143
1.0
 70
  1024
 72
     0
 73
     0
 74
     0
  7

 75
     0
147
1.0
148
0.0
149
0.0
100
AcDbLayout
  1
Model
 70
     0
 71
     0
 10
0.0
 20
0.0
 11
0.0
 21
0.0
 12
0.0
 22
0.0
 32
0.0
 14
0.0
 24
0.0
 34
0.0
 15
0.0
 25
0.0
 35
0.0
146
0.0
 13
0.0
 23
0.0
 33
0.0
 16
0.0
 26
0.0
 36
0.0
 17
0.0
 27
0.0
 37
0.0
 76
     0
330
A
331
0
345
0
346
0
  0
LAYOUT
  5
21
102
{ACAD_REACTORS
330
1E
102
}
100
AcDbPlotSettings
  1

  2

  4

  6

 40
0.0
 41
0.0
 42
0.0
 43
0.0
 44
0.0
 45
0.0
 46
0.0
 47
0.0
 48
0.0
 49
0.0
140
0.0
141
0.0
142
1.0
143
1.0
 70
     0
 72
     0
 73
     0
 74
     0
  7

 75
     0
147
1.0
148
0.0
149
0.0
100
AcDbLayout
  1
Layout1
 70
     0
 71
     0
 10
0.0
 20
0.0
 11
0.0
 21
0.0
 12
0.0
 22
0.0
 32
0.0
 14
0.0
 24
0.0
 34
0.0
 15
0.0
 25
0.0
 35
0.0
146
0.0
 13
0.0
 23
0.0
 33
0.0
 16
0.0
 26
0.0
 36
0.0
 17
0.0
 27
0.0
 37
0.0
 76
     0
330
B
331
0
345
0
346
0
  0
DICTIONARY
  5
1E
102
{ACAD_REACTORS
330
19
102
}
100
AcDbDictionary
280
     0
281
     1
  3
Layout1
350
21
  3
Model
350
20
  0
DICTIONARY
  5
22
102
{ACAD_REACTORS
330
19
102
}
100
AcDbDictionary
280
     0
281
     1
  0
WIPEOUTVARIABLES
  5
23
100
AcDbWipeoutVariables
 70
     1
  0
IMAGEDEF_REACTOR
  5
4AD
100
AcDbRasterImageDefReactor
 90
        2
330
4AC
  0
IMAGEDEF
  5
4AE
100
AcDbRasterImageDef
 90
        0
  1
\\192.168.6.3\free(2009_04\一過性\DB_WEB用DXF_丸茂\Tara．\22302892_1.bmp
 10
70.0
 20
9.0
 11
0.352778
 21
0.352778
280
     1
281
     0
  0
IMAGEDEF_REACTOR
  5
4B0
100
AcDbRasterImageDefReactor
 90
        2
330
4AF
  0
IMAGEDEF
  5
4B1
100
AcDbRasterImageDef
 90
        0
  1
\\192.168.6.3\free(2009_04\一過性\DB_WEB用DXF_丸茂\Tara．\22302892_2.bmp
 10
70.0
 20
9.0
 11
0.352778
 21
0.352778
280
     1
281
     0
  0
ENDSEC
  0
EOF
