  0
SECTION
  2
HEADER
  9
$ACADVER
  1
AC1015
  9
$ACADMAINTVER
 70
     6
  9
$DWGCODEPAGE
  3
ANSI_932
  9
$INSBASE
 10
0.0
 20
0.0
 30
0.0
  9
$EXTMIN
 10
23.283333
 20
25.752778
 30
1.000000E+20
  9
$EXTMAX
 10
198.966667
 20
276.930556
 30
-1.000000E+20
  9
$LIMMIN
 10
23.283333
 20
25.752778
  9
$LIMMAX
 10
198.966667
 20
276.930556
  9
$ORTHOMODE
 70
     0
  9
$REGENMODE
 70
     1
  9
$FILLMODE
 70
     1
  9
$QTEXTMODE
 70
     0
  9
$MIRRTEXT
 70
     1
  9
$LTSCALE
 40
1.0
  9
$ATTMODE
 70
     1
  9
$TEXTSIZE
 40
0.2
  9
$TRACEWID
 40
0.05
  9
$TEXTSTYLE
  7
Standard
  9
$CLAYER
  8
0
  9
$CELTYPE
  6
Continuous
  9
$CECOLOR
 62
   256
  9
$CELTSCALE
 40
1.0
  9
$DISPSILH
 70
     0
  9
$DIMSCALE
 40
1.0
  9
$DIMASZ
 40
0.18
  9
$DIMEXO
 40
0.0625
  9
$DIMDLI
 40
0.38
  9
$DIMRND
 40
0.0
  9
$DIMDLE
 40
0.0
  9
$DIMEXE
 40
0.18
  9
$DIMTP
 40
0.0
  9
$DIMTM
 40
0.0
  9
$DIMTXT
 40
0.18
  9
$DIMCEN
 40
0.09
  9
$DIMTSZ
 40
0.0
  9
$DIMTOL
 70
     0
  9
$DIMLIM
 70
     0
  9
$DIMTIH
 70
     1
  9
$DIMTOH
 70
     1
  9
$DIMSE1
 70
     0
  9
$DIMSE2
 70
     0
  9
$DIMTAD
 70
     0
  9
$DIMZIN
 70
     0
  9
$DIMBLK
  1

  9
$DIMASO
 70
     1
  9
$DIMSHO
 70
     1
  9
$DIMPOST
  1

  9
$DIMAPOST
  1

  9
$DIMALT
 70
     0
  9
$DIMALTD
 70
     2
  9
$DIMALTF
 40
25.4
  9
$DIMLFAC
 40
1.0
  9
$DIMTOFL
 70
     0
  9
$DIMTVP
 40
0.0
  9
$DIMTIX
 70
     0
  9
$DIMSOXD
 70
     0
  9
$DIMSAH
 70
     0
  9
$DIMBLK1
  1

  9
$DIMBLK2
  1

  9
$DIMSTYLE
  2
Standard
  9
$DIMCLRD
 70
     0
  9
$DIMCLRE
 70
     0
  9
$DIMCLRT
 70
     0
  9
$DIMTFAC
 40
1.0
  9
$DIMGAP
 40
0.09
  9
$DIMJUST
 70
     0
  9
$DIMSD1
 70
     0
  9
$DIMSD2
 70
     0
  9
$DIMTOLJ
 70
     1
  9
$DIMTZIN
 70
     0
  9
$DIMALTZ
 70
     0
  9
$DIMALTTZ
 70
     0
  9
$DIMUPT
 70
     0
  9
$DIMDEC
 70
     4
  9
$DIMTDEC
 70
     4
  9
$DIMALTU
 70
     2
  9
$DIMALTTD
 70
     2
  9
$DIMTXSTY
  7
Standard
  9
$DIMAUNIT
 70
     0
  9
$DIMADEC
 70
     0
  9
$DIMALTRND
 40
0.0
  9
$DIMAZIN
 70
     0
  9
$DIMDSEP
 70
     0
  9
$DIMATFIT
 70
     3
  9
$DIMFRAC
 70
     0
  9
$DIMLDRBLK
  1

  9
$DIMLUNIT
 70
     2
  9
$DIMLWD
 70
     0
  9
$DIMLWE
 70
     0
  9
$DIMTMOVE
 70
     0
  9
$LUNITS
 70
     2
  9
$LUPREC
 70
     4
  9
$SKETCHINC
 40
0.1
  9
$FILLETRAD
 40
0.0
  9
$AUNITS
 70
     0
  9
$AUPREC
 70
     0
  9
$MENU
  1
acad
  9
$ELEVATION
 40
0.0
  9
$PELEVATION
 40
0.0
  9
$THICKNESS
 40
0.0
  9
$LIMCHECK
 70
     0
  9
$CHAMFERA
 40
0.0
  9
$CHAMFERB
 40
0.0
  9
$CHAMFERC
 40
0.0
  9
$CHAMFERD
 40
0.0
  9
$SKPOLY
 70
     0
  9
$TDCREATE
 40
0.000000000
  9
$TDUCREATE
 40
0.000000000
  9
$TDUPDATE
 40
0.000000000
  9
$TDUUPDATE
 40
0.000000000
  9
$TDINDWG
 40
0.0000000000
  9
$TDUSRTIMER
 40
0.0000000000
  9
$USRTIMER
 70
     1
  9
$ANGBASE
 50
0.0
  9
$ANGDIR
 70
     0
  9
$PDMODE
 70
     0
  9
$PDSIZE
 40
0.0
  9
$PLINEWID
 40
0.0
  9
$SPLFRAME
 70
     0
  9
$SPLINETYPE
 70
     6
  9
$SPLINESEGS
 70
     8
  9
$HANDSEED
  5
4DD
  9
$SURFTAB1
 70
     6
  9
$SURFTAB2
 70
     6
  9
$SURFTYPE
 70
     6
  9
$SURFU
 70
     6
  9
$SURFV
 70
     6
  9
$UCSBASE
  2

  9
$UCSNAME
  2

  9
$UCSORG
 10
0.0
 20
0.0
 30
0.0
  9
$UCSXDIR
 10
1.0
 20
0.0
 30
0.0
  9
$UCSYDIR
 10
0.0
 20
1.0
 30
0.0
  9
$UCSORTHOREF
  2

  9
$UCSORTHOVIEW
 70
     0
  9
$UCSORGTOP
 10
0.0
 20
0.0
 30
0.0
  9
$UCSORGBOTTOM
 10
0.0
 20
0.0
 30
0.0
  9
$UCSORGLEFT
 10
0.0
 20
0.0
 30
0.0
  9
$UCSORGRIGHT
 10
0.0
 20
0.0
 30
0.0
  9
$UCSORGFRONT
 10
0.0
 20
0.0
 30
0.0
  9
$UCSORGBACK
 10
0.0
 20
0.0
 30
0.0
  9
$PUCSBASE
  2

  9
$PUCSNAME
  2

  9
$PUCSORG
 10
0.0
 20
0.0
 30
0.0
  9
$PUCSXDIR
 10
1.0
 20
0.0
 30
0.0
  9
$PUCSYDIR
 10
0.0
 20
1.0
 30
0.0
  9
$PUCSORTHOREF
  2

  9
$PUCSORTHOVIEW
 70
     0
  9
$PUCSORGTOP
 10
0.0
 20
0.0
 30
0.0
  9
$PUCSORGBOTTOM
 10
0.0
 20
0.0
 30
0.0
  9
$PUCSORGLEFT
 10
0.0
 20
0.0
 30
0.0
  9
$PUCSORGRIGHT
 10
0.0
 20
0.0
 30
0.0
  9
$PUCSORGFRONT
 10
0.0
 20
0.0
 30
0.0
  9
$PUCSORGBACK
 10
0.0
 20
0.0
 30
0.0
  9
$USERI1
 70
     0
  9
$USERI2
 70
     0
  9
$USERI3
 70
     0
  9
$USERI4
 70
     0
  9
$USERI5
 70
     0
  9
$USERR1
 40
0.0
  9
$USERR2
 40
0.0
  9
$USERR3
 40
0.0
  9
$USERR4
 40
0.0
  9
$USERR5
 40
0.0
  9
$WORLDVIEW
 70
     1
  9
$SHADEDGE
 70
     3
  9
$SHADEDIF
 70
    70
  9
$TILEMODE
 70
     1
  9
$MAXACTVP
 70
    16
  9
$PINSBASE
 10
0.0
 20
0.0
 30
0.0
  9
$PLIMCHECK
 70
     0
  9
$PEXTMIN
 10
1.000000E+20
 20
1.000000E+20
 30
1.000000E+20
  9
$PEXTMAX
 10
-1.000000E+20
 20
-1.000000E+20
 30
-1.000000E+20
  9
$PLIMMIN
 10
0.0
 20
0.0
  9
$PLIMMAX
 10
12.0
 20
9.0
  9
$UNITMODE
 70
     0
  9
$VISRETAIN
 70
     0
  9
$PLINEGEN
 70
     1
  9
$PSLTSCALE
 70
     0
  9
$TREEDEPTH
 70
  3020
  9
$CMLSTYLE
  2
Standard
  9
$CMLJUST
 70
     0
  9
$CMLSCALE
 40
1.0
  9
$PROXYGRAPHICS
 70
     0
  9
$MEASUREMENT
 70
     1
  9
$CELWEIGHT
370
     0
  9
$ENDCAPS
280
     0
  9
$JOINSTYLE
280
     0
  9
$LWDISPLAY
290
     0
  9
$INSUNITS
 70
     0
  9
$HYPERLINKBASE
  1

  9
$STYLESHEET
  1

  9
$XEDIT
290
     1
  9
$CEPSNTYPE
380
     0
  9
$PSTYLEMODE
290
     1
  9
$FINGERPRINTGUID
  2

  9
$VERSIONGUID
  2

  9
$EXTNAMES
290
     1
  9
$PSVPSCALE
 40
0.0
  0
ENDSEC
  0
SECTION
  2
CLASSES
  0
CLASS
  1
LWPOLYLINE
  2
AcDbPolyline
  3
AutoCAD 2000
 90
    32768
280
     0
281
     1
  0
CLASS
  1
IMAGE
  2
AcDbRasterImage
  3
ISM
 90
      127
280
     0
281
     1
  0
CLASS
  1
OLE2FRAME
  2
AcDbOle2Frame
  3
AutoCAD 2000
 90
    32768
280
     0
281
     1
  0
CLASS
  1
HATCH
  2
AcDbHatch
  3
AutoCAD 2000
 90
        0
280
     0
281
     1
  0
CLASS
  1
DICTIONARYVAR
  2
AcDbDictionaryVar
  3
AutoCAD 2000
 90
    32768
280
     0
281
     0
  0
CLASS
  1
RASTERVARIABLES
  2
AcDbRasterVariables
  3
ISM
 90
    32768
280
     0
281
     0
  0
CLASS
  1
IMAGEDEF
  2
AcDbRasterImageDef
  3
ISM
 90
        0
280
     0
281
     0
  0
CLASS
  1
IMAGEDEF_REACTOR
  2
AcDbRasterImageDefReactor
  3
ISM
 90
        1
280
     0
281
     0
  0
CLASS
  1
IDBUFFER
  2
AcDbIdBuffer
  3
AutoCAD 2000
 90
    32768
280
     0
281
     0
  0
CLASS
  1
SPATIAL_FILTER
  2
AcDbSpatialFilter
  3
AutoCAD 2000
 90
    32768
280
     0
281
     0
  0
CLASS
  1
XRECORD
  2
AcDbXrecord
  3
AutoCAD 2000
 90
    32768
280
     0
281
     0
  0
CLASS
  1
SORTENTSTABLE
  2
AcDbSortentsTable
  3
AutoCAD 2000
 90
    32768
280
     0
281
     0
  0
CLASS
  1
LAYER_INDEX
  2
AcDbLayerIndex
  3
AutoCAD 2000
 90
    32768
280
     0
281
     0
  0
CLASS
  1
SPATIAL_INDEX
  2
AcDbSpatialIndex
  3
AutoCAD 2000
 90
    32768
280
     0
281
     0
  0
CLASS
  1
OBJECT_PTR
  2
CAseDLPNTableRecord
  3
"ASE-LPNTableRecord"
 90
    32769
280
     0
281
     0
  0
CLASS
  1
LAYOUT
  2
AcDbLayout
  3
AutoCAD 2000
 90
        0
280
     0
281
     0
  0
CLASS
  1
PLOTSETTINGS
  2
AcDbPlotSettings
  3
AutoCAD 2000
 90
    32768
280
     0
281
     0
  0
CLASS
  1
ACDBDICTIONARYWDFLT
  2
AcDbDictionaryWithDefault
  3
AutoCAD 2000
 90
        0
280
     0
281
     0
  0
CLASS
  1
ACDBPLACEHOLDER
  2
AcDbPlaceHolder
  3
AutoCAD 2000
 90
        0
280
     0
281
     0
  0
CLASS
  1
VBA_PROJECT
  2
AcDbVbaProject
  3
acadvba
 90
    32768
280
     0
281
     0
  0
CLASS
  1
WIPEOUT
  2
AcDbWipeout
  3
WipeOut|AutoCAD Express Tool|expresstools@autodesk.com
 90
    32895
280
     0
281
     1
  0
CLASS
  1
WIPEOUTVARIABLES
  2
AcDbWipeoutVariables
  3
WipeOut|AutoCAD Express Tool|expresstools@autodesk.com
 90
        0
280
     0
281
     0
  0
CLASS
  1
RTEXT
  2
RText
  3
RText|AutoCAD Express Tool|expresstools@autodesk.com
 90
    32768
280
     0
281
     1
  0
CLASS
  1
ARCALIGNEDTEXT
  2
AcDbArcAlignedText
  3
ATEXT|AutoCAD Express Tool|expresstools@autodesk.com
 90
    32768
280
     0
281
     1
  0
ENDSEC
  0
SECTION
  2
TABLES
  0
TABLE
  2
VPORT
  5
7
100
AcDbSymbolTable
 70
     1
  0
VPORT
  5
15
100
AcDbSymbolTableRecord
100
AcDbViewportTableRecord
  2
*ACTIVE
 70
     0
 10
0.0
 20
0.0
 11
1.0
 21
1.0
 12
6.591288
 22
4.579184
 13
0.0
 23
0.0
 14
1.0
 24
1.0
 15
0.0
 25
0.0
 16
0.0
 26
0.0
 36
1.0
 17
0.0
 27
0.0
 37
0.0
 40
9.158369
 41
0.688564
 42
50.0
 43
0.0
 44
0.0
 50
0.0
 51
0.0
 71
     0
 72
   100
 73
     1
 74
     1
 75
     0
 76
     0
 77
     0
 78
     0
281
     0
 65
     0
110
0.0
120
0.0
130
0.0
111
1.0
121
0.0
131
0.0
112
0.0
122
1.0
132
0.0
345
0
346
0
 79
     0
146
0.0
  0
ENDTAB
  0
TABLE
  2
LTYPE
  5
4
100
AcDbSymbolTable
 70
     6
  0
LTYPE
  5
11
100
AcDbSymbolTableRecord
100
AcDbLinetypeTableRecord
  2
ByBlock
 70
    64
  3

 72
    65
 73
     0
 40
0.0
  0
LTYPE
  5
12
100
AcDbSymbolTableRecord
100
AcDbLinetypeTableRecord
  2
ByLayer
 70
    64
  3

 72
    65
 73
     0
 40
0.0
  0
LTYPE
  5
13
100
AcDbSymbolTableRecord
100
AcDbLinetypeTableRecord
  2
Continuous
 70
    64
  3
Solid line
 72
    65
 73
     0
 40
0.0
  0
LTYPE
  5
2E
100
AcDbSymbolTableRecord
100
AcDbLinetypeTableRecord
  2
AI9-LType1
 70
    64
  3
Illustrator Dash Style No.1
 72
    65
 73
     4
 40
7.280282
 49
4.549951
 74
     0
 49
-0.91011
 74
     0
 49
0.91011
 74
     0
 49
-0.91011
 74
     0
  0
LTYPE
  5
54
100
AcDbSymbolTableRecord
100
AcDbLinetypeTableRecord
  2
AI9-LType2
 70
    64
  3
Illustrator Dash Style No.2
 72
    65
 73
     4
 40
8.000295
 49
4.99992
 74
     0
 49
-1.000125
 74
     0
 49
1.000125
 74
     0
 49
-1.000125
 74
     0
  0
LTYPE
  5
419
100
AcDbSymbolTableRecord
100
AcDbLinetypeTableRecord
  2
AI9-LType3
 70
    64
  3
Illustrator Dash Style No.3
 72
    65
 73
     4
 40
14.795182
 49
9.246975
 74
     0
 49
-1.849402
 74
     0
 49
1.849402
 74
     0
 49
-1.849402
 74
     0
  0
ENDTAB
  0
TABLE
  2
LAYER
  5
2
100
AcDbSymbolTable
 70
     3
  0
LAYER
  5
14
100
AcDbSymbolTableRecord
100
AcDbLayerTableRecord
  2
0
 70
     0
 62
     7
  6
Continuous
290
     1
370
    -3
390
1D
  0
LAYER
  5
28
100
AcDbSymbolTableRecord
100
AcDbLayerTableRecord
  2
レイヤー_2
 70
     0
 62
     1
  6
Continuous
290
     1
370
    -3
390
1D
  0
LAYER
  5
4C1
100
AcDbSymbolTableRecord
100
AcDbLayerTableRecord
  2
レイヤー_1
 70
     4
 62
   160
  6
Continuous
290
     1
370
    -3
390
1D
  0
ENDTAB
  0
TABLE
  2
STYLE
  5
3
100
AcDbSymbolTable
 70
     5
  0
STYLE
  5
17
100
AcDbSymbolTableRecord
100
AcDbTextStyleTableRecord
  2
Standard
 70
     0
 40
0.0
 41
1.0
 50
0.0
 71
     0
 42
0.0
  3
txt
  4

  0
STYLE
  5
24
100
AcDbSymbolTableRecord
100
AcDbTextStyleTableRecord
  2
STD
 70
     0
 40
0.0
 41
1.0
 50
0.0
 71
     0
 42
0.0
  3
txt
  4

  0
STYLE
  5
25
100
AcDbSymbolTableRecord
100
AcDbTextStyleTableRecord
  2
TATESTD
 70
     4
 40
0.0
 41
1.0
 50
0.0
 71
     0
 42
0.0
  3
txt
  4

  0
STYLE
  5
26
100
AcDbSymbolTableRecord
100
AcDbTextStyleTableRecord
  2
KANJISTD
 70
     0
 40
0.0
 41
1.0
 50
0.0
 71
     0
 42
0.0
  3
txt
  4
extfont
  0
STYLE
  5
27
100
AcDbSymbolTableRecord
100
AcDbTextStyleTableRecord
  2
KANJITATE
 70
     4
 40
0.0
 41
1.0
 50
0.0
 71
     0
 42
0.0
  3
txt
  4
extfont
  0
ENDTAB
  0
TABLE
  2
VIEW
  5
5
100
AcDbSymbolTable
 70
     0
  0
ENDTAB
  0
TABLE
  2
UCS
  5
6
100
AcDbSymbolTable
 70
     0
  0
ENDTAB
  0
TABLE
  2
APPID
  5
8
100
AcDbSymbolTable
 70
     1
  0
APPID
  5
16
100
AcDbSymbolTableRecord
100
AcDbRegAppTableRecord
  2
ACAD
 70
     0
  0
ENDTAB
  0
TABLE
  2
DIMSTYLE
  5
9
100
AcDbSymbolTable
 70
     1
100
AcDbDimStyleTable
 71
     0
  0
DIMSTYLE
105
18
100
AcDbSymbolTableRecord
100
AcDbDimStyleTableRecord
  2
Standard
 70
     0
  3

  4

 40
1.0
 41
0.18
 42
0.0625
 43
0.38
 44
0.18
 45
0.0
 46
0.0
 47
0.0
 48
0.0
 71
     0
 72
     0
 73
     1
 74
     1
 75
     0
 76
     0
 77
     0
 78
     0
 79
     0
140
0.18
141
0.09
142
0.0
143
25.4
144
1.0
145
0.0
146
1.0
147
0.09
148
0.0
170
     0
171
     2
172
     0
173
     0
174
     0
175
     0
176
     0
177
     0
178
     0
179
     0
271
     4
272
     4
273
     2
274
     2
275
     0
276
     0
277
     2
278
    46
279
     0
280
     0
281
     0
282
     0
283
     1
284
     0
285
     0
286
     0
288
     0
340
17
341
0
342
0
343
0
344
0
371
    -2
372
    -2
  0
ENDTAB
  0
TABLE
  2
BLOCK_RECORD
  5
1
100
AcDbSymbolTable
 70
     7
  0
BLOCK_RECORD
  5
A
100
AcDbSymbolTableRecord
100
AcDbBlockTableRecord
  2
*MODEL_SPACE
340
20
  0
BLOCK_RECORD
  5
B
100
AcDbSymbolTableRecord
100
AcDbBlockTableRecord
  2
*PAPER_SPACE
340
21
  0
BLOCK_RECORD
  5
40D
100
AcDbSymbolTableRecord
100
AcDbBlockTableRecord
  2
AI9-BLK1
340
0
102
{BLKREFS
331
40E
102
}
  0
BLOCK_RECORD
  5
413
100
AcDbSymbolTableRecord
100
AcDbBlockTableRecord
  2
AI9-BLK2
340
0
102
{BLKREFS
331
414
102
}
  0
BLOCK_RECORD
  5
416
100
AcDbSymbolTableRecord
100
AcDbBlockTableRecord
  2
AI9-BLK3
340
0
102
{BLKREFS
331
417
102
}
  0
BLOCK_RECORD
  5
41B
100
AcDbSymbolTableRecord
100
AcDbBlockTableRecord
  2
AI9-BLK4
340
0
102
{BLKREFS
331
41C
102
}
  0
BLOCK_RECORD
  5
467
100
AcDbSymbolTableRecord
100
AcDbBlockTableRecord
  2
AI9-BLK5
340
0
102
{BLKREFS
331
468
102
}
  0
BLOCK_RECORD
  5
46A
100
AcDbSymbolTableRecord
100
AcDbBlockTableRecord
  2
AI9-BLK6
340
0
102
{BLKREFS
331
46B
102
}
  0
BLOCK_RECORD
  5
46D
100
AcDbSymbolTableRecord
100
AcDbBlockTableRecord
  2
AI9-BLK7
340
0
102
{BLKREFS
331
46E
102
}
  0
ENDTAB
  0
ENDSEC
  0
SECTION
  2
BLOCKS
  0
BLOCK
  5
D
100
AcDbEntity
  8
0
100
AcDbBlockBegin
  2
*MODEL_SPACE
 70
     0
 10
0.0
 20
0.0
 30
0.0
  3
*MODEL_SPACE
  1

  0
ENDBLK
  5
E
100
AcDbEntity
  8
0
100
AcDbBlockEnd
  0
BLOCK
  5
F
100
AcDbEntity
 67
     1
  8
0
100
AcDbBlockBegin
  2
*PAPER_SPACE
 70
     0
 10
0.0
 20
0.0
 30
0.0
  3
*PAPER_SPACE
  1

  0
ENDBLK
  5
10
100
AcDbEntity
 67
     1
  8
0
100
AcDbBlockEnd
  0
BLOCK
  5
40F
100
AcDbEntity
  8
レイヤー_2
 62
     7
100
AcDbBlockBegin
  2
AI9-BLK1
 70
     0
 10
0.0
 20
0.0
 30
0.0
  3
AI9-BLK1
  1

  0
MTEXT
  5
411
100
AcDbEntity
  8
レイヤー_2
 62
     7
100
AcDbMText
 10
-9.02615
 20
3.096468
 30
0.0
 40
2.624835
 41
0.0
 71
     1
 72
     2
  1
\fMS PGothic|b0|i0|c128;\H2.6248;\C7;\U+63A5\U+7D9A\U+30BD\U+30B1\U+30C3\U+30C8
  7
STD
210
0.0
220
0.0
230
1.0
 73
     1
 44
1.0
  0
MTEXT
  5
410
100
AcDbEntity
  8
レイヤー_2
 62
     7
100
AcDbMText
 10
-9.02615
 20
-0.39617
 30
0.0
 40
2.624835
 41
0.0
 71
     1
 72
     2
  1
\fMS PGothic|b0|i0|c128;\H2.6248;\C7;\U+FF08\U+9006\U+6B62\U+5F01\U+4ED8\U+FF09
  7
STD
210
0.0
220
0.0
230
1.0
 73
     1
 44
1.0
  0
ENDBLK
  5
412
100
AcDbEntity
  8
レイヤー_2
100
AcDbBlockEnd
  0
BLOCK
  5
415
100
AcDbEntity
  8
レイヤー_2
 62
     7
100
AcDbBlockBegin
  2
AI9-BLK2
 70
     0
 10
0.0
 20
0.0
 30
0.0
  3
AI9-BLK2
  1

  0
MTEXT
  5
465
100
AcDbEntity
  8
レイヤー_2
  6
AI9-LType3
 62
     7
100
AcDbMText
 10
-9.784674
 20
-28.991512
 30
0.0
 40
5.512152
 41
0.0
 71
     1
 72
     2
  1
\fMS PGothic|b0|i0|c128;\H5.5122;\C7;\U+0047\U+0031\U+002F\U+0032
  7
STD
210
0.0
220
0.0
230
1.0
 73
     1
 44
1.0
  0
INSERT
  5
417
100
AcDbEntity
  8
レイヤー_2
 62
     7
100
AcDbBlockReference
  2
AI9-BLK3
 10
2.373757
 20
4.409894
 30
0.0
  0
ENDBLK
  5
466
100
AcDbEntity
  8
レイヤー_2
100
AcDbBlockEnd
  0
BLOCK
  5
418
100
AcDbEntity
  8
レイヤー_2
 62
     7
100
AcDbBlockBegin
  2
AI9-BLK3
 70
     0
 10
0.0
 20
0.0
 30
0.0
  3
AI9-BLK3
  1

  0
LINE
  5
463
100
AcDbEntity
  8
レイヤー_2
  6
AI9-LType3
 62
     7
100
AcDbLine
 10
7.322723
 20
-20.487811
 30
0.0
 11
7.322723
 21
31.018434
 31
0.0
  0
LINE
  5
462
100
AcDbEntity
  8
レイヤー_2
  6
AI9-LType3
 62
     7
100
AcDbLine
 10
-4.500328
 20
-10.749559
 30
0.0
 11
-4.500328
 21
-31.018434
 31
0.0
  0
INSERT
  5
41C
100
AcDbEntity
  8
レイヤー_2
  6
AI9-LType3
 62
     7
100
AcDbBlockReference
  2
AI9-BLK4
 10
-4.500414
 20
-24.679803
 30
0.0
  0
LINE
  5
41A
100
AcDbEntity
  8
レイヤー_2
  6
AI9-LType3
 62
     7
100
AcDbLine
 10
7.317211
 20
-20.468518
 30
0.0
 11
-4.500328
 21
-10.749559
 31
0.0
  0
ENDBLK
  5
464
100
AcDbEntity
  8
レイヤー_2
100
AcDbBlockEnd
  0
BLOCK
  5
41D
100
AcDbEntity
  8
レイヤー_2
  6
AI9-LType3
 62
     7
100
AcDbBlockBegin
  2
AI9-BLK4
 70
     0
 10
0.0
 20
0.0
 30
0.0
  3
AI9-BLK4
  1

  0
SPLINE
  5
460
100
AcDbEntity
  8
レイヤー_2
 62
     7
100
AcDbSpline
210
0.0
220
0.0
230
1.0
 70
     8
 71
     3
 72
    95
 73
    91
 74
     0
 42
0.00000001
 43
0.00000001
 40
0.0
 40
0.0
 40
0.0
 40
0.0
 40
1.0
 40
1.0
 40
1.0
 40
2.0
 40
2.0
 40
2.0
 40
3.0
 40
3.0
 40
3.0
 40
4.0
 40
4.0
 40
4.0
 40
5.0
 40
5.0
 40
5.0
 40
6.0
 40
6.0
 40
6.0
 40
7.0
 40
7.0
 40
7.0
 40
8.0
 40
8.0
 40
8.0
 40
9.0
 40
9.0
 40
9.0
 40
10.0
 40
10.0
 40
10.0
 40
11.0
 40
11.0
 40
11.0
 40
12.0
 40
12.0
 40
12.0
 40
13.0
 40
13.0
 40
13.0
 40
14.0
 40
14.0
 40
14.0
 40
15.0
 40
15.0
 40
15.0
 40
16.0
 40
16.0
 40
16.0
 40
17.0
 40
17.0
 40
17.0
 40
18.0
 40
18.0
 40
18.0
 40
19.0
 40
19.0
 40
19.0
 40
20.0
 40
20.0
 40
20.0
 40
21.0
 40
21.0
 40
21.0
 40
22.0
 40
22.0
 40
22.0
 40
23.0
 40
23.0
 40
23.0
 40
24.0
 40
24.0
 40
24.0
 40
25.0
 40
25.0
 40
25.0
 40
26.0
 40
26.0
 40
26.0
 40
27.0
 40
27.0
 40
27.0
 40
28.0
 40
28.0
 40
28.0
 40
29.0
 40
29.0
 40
29.0
 40
30.0
 40
30.0
 40
30.0
 40
30.0
 10
-0.9989915635850694
 20
5.669593641493055
 30
0.0
 10
-0.9877950032552082
 20
5.6664930555555548
 30
0.0
 10
-0.9765984429253471
 20
5.6633924696180546
 30
0.0
 10
-0.965401882595486
 20
5.6602918836805554
 30
0.0
 10
-0.9543775770399304
 20
5.6571912977430552
 30
0.0
 10
-0.9431810167100694
 20
5.6544352213541664
 30
0.0
 10
-0.9319844563802082
 20
5.6520236545138882
 30
0.0
 10
-0.9207878960503472
 20
5.648923068576388
 30
0.0
 10
-0.909591335720486
 20
5.6472005208333327
 30
0.0
 10
-0.8985670301649305
 20
5.6451334635416659
 30
0.0
 10
-0.8873704698350694
 20
5.6434109157986105
 30
0.0
 10
-0.8761739095052082
 20
5.6416883680555552
 30
0.0
 10
-0.8649773491753472
 20
5.6409993489583332
 30
0.0
 10
-0.8532640245225693
 20
5.6396213107638884
 30
0.0
 10
-0.8420674641927083
 20
5.6396213107638884
 30
0.0
 10
-0.8308709038628471
 20
5.6396213107638884
 30
0.0
 10
-0.8048604329427083
 20
5.6403103298611104
 30
0.0
 10
-0.7793667263454861
 20
5.6434109157986105
 30
0.0
 10
-0.754562038845486
 20
5.6496120876736109
 30
0.0
 10
-0.7292405870225693
 20
5.6558132595486104
 30
0.0
 10
-0.7037468804253472
 20
5.6627034505208327
 30
0.0
 10
-0.6784254286024305
 20
5.669593641493055
 30
0.0
 10
-0.6529317220052083
 20
5.6775173611111107
 30
0.0
 10
-0.6281270345052082
 20
5.684407552083333
 30
0.0
 10
-0.6026333279079861
 20
5.6912977430555554
 30
0.0
 10
-0.5785176595052083
 20
5.6978434244791663
 30
0.0
 10
-0.5537129720052083
 20
5.7030110677083332
 30
0.0
 10
-0.5289082845052083
 20
5.7054226345486105
 30
0.0
 10
-0.5059983995225694
 20
5.7085232204861107
 30
0.0
 10
-0.4823994954427083
 20
5.7071451822916659
 30
0.0
 10
-0.4588005913628472
 20
5.7030110677083332
 30
0.0
 10
-0.4241773817274305
 20
5.695431857638888
 30
0.0
 10
-0.3912767198350694
 20
5.679928927951388
 30
0.0
 10
-0.3626824273003472
 20
5.6589138454861105
 30
0.0
 10
-0.3304707845052083
 20
5.6358317057291663
 30
0.0
 10
-0.3001539442274305
 20
5.6106825086805552
 30
0.0
 10
-0.2722486707899305
 20
5.5827772352430554
 30
0.0
 10
-0.2429653591579861
 20
5.5534939236111107
 30
0.0
 10
-0.2138543023003472
 20
5.524899631076388
 30
0.0
 10
-0.1840542263454861
 20
5.4963053385416663
 30
0.0
 10
-0.1568379720052083
 20
5.4697781032986104
 30
0.0
 10
-0.1265211317274305
 20
5.4456624348958327
 30
0.0
 10
-0.0948262532552083
 20
5.4239583333333332
 30
0.0
 10
-0.0662319607204861
 20
5.4046657986111102
 30
0.0
 10
-0.0340203179253472
 20
5.3922634548611104
 30
0.0
 10
0.0000861273871528
 20
5.3877848307291663
 30
0.0
 10
0.0329867892795139
 20
5.3836507161458327
 30
0.0
 10
0.0664042154947917
 20
5.3884738498263882
 30
0.0
 10
0.0974100748697917
 20
5.4022542317708329
 30
0.0
 10
0.1308275010850694
 20
5.4170681423611109
 30
0.0
 10
0.1649339463975694
 20
5.4325710720486109
 30
0.0
 10
0.1990403917100694
 20
5.4480740017361109
 30
0.0
 10
0.2345248752170139
 20
5.4642659505208329
 30
0.0
 10
0.2691480848524305
 20
5.482869466145833
 30
0.0
 10
0.3020487467447917
 20
5.5038845486111105
 30
0.0
 10
0.3349494086371527
 20
5.5217990451388888
 30
0.0
 10
0.3683668348524306
 20
5.5366129557291659
 30
0.0
 10
0.4036790635850694
 20
5.5479817708333332
 30
0.0
 10
0.4341681586371528
 20
5.5590060763888882
 30
0.0
 10
0.4675855848524305
 20
5.5627956814236104
 30
0.0
 10
0.4997972276475694
 20
5.5590060763888882
 30
0.0
 10
0.5233961317274305
 20
5.5548719618055546
 30
0.0
 10
0.5457892523871527
 20
5.5466037326388884
 30
0.0
 10
0.5668043348524305
 20
5.5348904079861105
 30
0.0
 10
0.5891974555121528
 20
5.5224880642361107
 30
0.0
 10
0.6109015570746528
 20
5.5076741536458327
 30
0.0
 10
0.6307108561197916
 20
5.4914822048611107
 30
0.0
 10
0.6524149576822916
 20
5.4742567274305554
 30
0.0
 10
0.6741190592447917
 20
5.4559977213541666
 30
0.0
 10
0.6946173773871527
 20
5.4380832248263884
 30
0.0
 10
0.7163214789496527
 20
5.4201687282986102
 30
0.0
 10
0.7380255805121527
 20
5.4029432508680548
 30
0.0
 10
0.7609354654947916
 20
5.3860622829861109
 30
0.0
 10
0.7826395670572915
 20
5.3705593532986109
 30
0.0
 10
0.8062384711371528
 20
5.3574679904513882
 30
0.0
 10
0.8310431586371527
 20
5.3464436848958332
 30
0.0
 10
0.8415506998697916
 20
5.3419650607638882
 30
0.0
 10
0.8520582411024305
 20
5.3381754557291661
 30
0.0
 10
0.8632548014322916
 20
5.3357638888888888
 30
0.0
 10
0.8744513617621527
 20
5.3326633029513886
 30
0.0
 10
0.8849589029947916
 20
5.3302517361111104
 30
0.0
 10
0.8961554633246527
 20
5.327840169270833
 30
0.0
 10
0.9073520236545138
 20
5.3254286024305548
 30
0.0
 10
0.9190653483072916
 20
5.3240505642361109
 30
0.0
 10
0.9302619086371528
 20
5.3226725260416661
 30
0.0
 10
0.9414584689670138
 20
5.3216389973958327
 30
0.0
 10
0.9531717936197915
 20
5.3202609592013888
 30
0.0
 10
0.9643683539496527
 20
5.3195719401041659
 30
0.0
 10
0.9760816786024305
 20
5.3185384114583325
 30
0.0
 10
0.9879672580295138
 20
5.3171603732638886
 30
0.0
 10
0.9989915635850694
 20
5.3171603732638886
 30
0.0
  0
LINE
  5
45F
100
AcDbEntity
  8
レイヤー_2
 62
     7
100
AcDbLine
 10
1.787918
 20
-0.487137
 30
0.0
 11
1.683015
 21
-0.487137
 31
0.0
  0
LINE
  5
45E
100
AcDbEntity
  8
レイヤー_2
 62
     7
100
AcDbLine
 10
1.683015
 20
0.473012
 30
0.0
 11
1.683015
 21
-0.487137
 31
0.0
  0
LINE
  5
45D
100
AcDbEntity
  8
レイヤー_2
 62
     7
100
AcDbLine
 10
1.683015
 20
-0.487137
 30
0.0
 11
1.787918
 21
-0.669382
 31
0.0
  0
LINE
  5
45C
100
AcDbEntity
  8
レイヤー_2
 62
     7
100
AcDbLine
 10
-1.682326
 20
-0.487137
 30
0.0
 11
-1.787746
 21
-0.487137
 31
0.0
  0
LINE
  5
45B
100
AcDbEntity
  8
レイヤー_2
 62
     7
100
AcDbLine
 10
-1.682326
 20
-0.487137
 30
0.0
 11
-1.682326
 21
0.473012
 31
0.0
  0
LINE
  5
45A
100
AcDbEntity
  8
レイヤー_2
 62
     7
100
AcDbLine
 10
-1.787746
 20
-0.669382
 30
0.0
 11
-1.682326
 21
-0.487137
 31
0.0
  0
LINE
  5
459
100
AcDbEntity
  8
レイヤー_2
 62
     7
100
AcDbLine
 10
-0.986589
 20
0.571541
 30
0.0
 11
-1.419465
 21
0.571541
 31
0.0
  0
LINE
  5
458
100
AcDbEntity
  8
レイヤー_2
 62
     7
100
AcDbLine
 10
-0.986589
 20
2.779159
 30
0.0
 11
-0.986589
 21
0.571541
 31
0.0
  0
LINE
  5
457
100
AcDbEntity
  8
レイヤー_2
 62
     7
100
AcDbLine
 10
-1.419465
 20
2.779159
 30
0.0
 11
-0.986589
 21
2.779159
 31
0.0
  0
LINE
  5
456
100
AcDbEntity
  8
レイヤー_2
 62
     7
100
AcDbLine
 10
-1.419465
 20
2.779159
 30
0.0
 11
-1.419465
 21
0.571541
 31
0.0
  0
LINE
  5
455
100
AcDbEntity
  8
レイヤー_2
 62
     7
100
AcDbLine
 10
-1.577595
 20
4.236434
 30
0.0
 11
0.000086
 21
4.236434
 31
0.0
  0
LINE
  5
454
100
AcDbEntity
  8
レイヤー_2
 62
     7
100
AcDbLine
 10
-2.20822
 20
0.450618
 30
0.0
 11
0.000086
 21
0.450618
 31
0.0
  0
LINE
  5
453
100
AcDbEntity
  8
レイヤー_2
 62
     7
100
AcDbLine
 10
-2.418371
 20
0.571541
 30
0.0
 11
-2.20822
 21
0.450618
 31
0.0
  0
LINE
  5
452
100
AcDbEntity
  8
レイヤー_2
 62
     7
100
AcDbLine
 10
-1.577595
 20
4.236434
 30
0.0
 11
-2.304338
 21
2.977596
 31
0.0
  0
LINE
  5
451
100
AcDbEntity
  8
レイヤー_2
 62
     7
100
AcDbLine
 10
-2.418371
 20
2.779159
 30
0.0
 11
-2.418371
 21
0.571541
 31
0.0
  0
LINE
  5
450
100
AcDbEntity
  8
レイヤー_2
 62
     7
100
AcDbLine
 10
1.062381
 20
4.236434
 30
0.0
 11
0.000086
 21
4.236434
 31
0.0
  0
LINE
  5
44F
100
AcDbEntity
  8
レイヤー_2
 62
     7
100
AcDbLine
 10
1.840628
 20
0.450618
 30
0.0
 11
0.000086
 21
0.450618
 31
0.0
  0
LINE
  5
44E
100
AcDbEntity
  8
レイヤー_2
 62
     7
100
AcDbLine
 10
1.419465
 20
0.571541
 30
0.0
 11
0.986589
 21
0.571541
 31
0.0
  0
LINE
  5
44D
100
AcDbEntity
  8
レイヤー_2
 62
     7
100
AcDbLine
 10
0.986589
 20
0.571541
 30
0.0
 11
0.986589
 21
2.779159
 31
0.0
  0
LINE
  5
44C
100
AcDbEntity
  8
レイヤー_2
 62
     7
100
AcDbLine
 10
0.986589
 20
2.779159
 30
0.0
 11
1.419465
 21
2.779159
 31
0.0
  0
LINE
  5
44B
100
AcDbEntity
  8
レイヤー_2
 62
     7
100
AcDbLine
 10
1.419465
 20
0.571541
 30
0.0
 11
1.419465
 21
2.779159
 31
0.0
  0
LINE
  5
44A
100
AcDbEntity
  8
レイヤー_2
 62
     7
100
AcDbLine
 10
0.000086
 20
4.236434
 30
0.0
 11
1.577595
 21
4.236434
 31
0.0
  0
LINE
  5
449
100
AcDbEntity
  8
レイヤー_2
 62
     7
100
AcDbLine
 10
0.000086
 20
0.450618
 30
0.0
 11
2.20822
 21
0.450618
 31
0.0
  0
LINE
  5
448
100
AcDbEntity
  8
レイヤー_2
 62
     7
100
AcDbLine
 10
2.20822
 20
0.450618
 30
0.0
 11
2.41906
 21
0.571541
 31
0.0
  0
LINE
  5
447
100
AcDbEntity
  8
レイヤー_2
 62
     7
100
AcDbLine
 10
2.41906
 20
2.779159
 30
0.0
 11
1.577595
 21
4.236434
 31
0.0
  0
LINE
  5
446
100
AcDbEntity
  8
レイヤー_2
 62
     7
100
AcDbLine
 10
2.41906
 20
0.571541
 30
0.0
 11
2.41906
 21
2.779159
 31
0.0
  0
LINE
  5
445
100
AcDbEntity
  8
レイヤー_2
 62
     7
100
AcDbLine
 10
-2.304338
 20
2.977596
 30
0.0
 11
-2.418371
 21
2.779159
 31
0.0
  0
SPLINE
  5
444
100
AcDbEntity
  8
レイヤー_2
 62
     7
100
AcDbSpline
210
0.0
220
0.0
230
1.0
 70
     8
 71
     3
 72
     8
 73
     4
 74
     0
 42
0.00000001
 43
0.00000001
 40
0.0
 40
0.0
 40
0.0
 40
0.0
 40
1.0
 40
1.0
 40
1.0
 40
1.0
 10
-0.9865892198350693
 20
0.5715413411458333
 30
0.0
 10
-0.6641282823350694
 20
0.4909261067708333
 30
0.0
 10
-0.3323655870225694
 20
0.4506184895833333
 30
0.0
 10
0.0000861273871528
 20
0.4506184895833333
 30
0.0
  0
SPLINE
  5
443
100
AcDbEntity
  8
レイヤー_2
 62
     7
100
AcDbSpline
210
0.0
220
0.0
230
1.0
 70
     8
 71
     3
 72
     8
 73
     4
 74
     0
 42
0.00000001
 43
0.00000001
 40
0.0
 40
0.0
 40
0.0
 40
0.0
 40
1.0
 40
1.0
 40
1.0
 40
1.0
 10
-2.4183709038628471
 20
0.5715413411458333
 30
0.0
 10
-2.105211724175347
 20
0.4096218532986111
 30
0.0
 10
-1.7326246473524305
 20
0.4096218532986111
 30
0.0
 10
-1.4194654676649305
 20
0.5715413411458333
 30
0.0
  0
SPLINE
  5
442
100
AcDbEntity
  8
レイヤー_2
 62
     7
100
AcDbSpline
210
0.0
220
0.0
230
1.0
 70
     8
 71
     3
 72
     8
 73
     4
 74
     0
 42
0.00000001
 43
0.00000001
 40
0.0
 40
0.0
 40
0.0
 40
0.0
 40
1.0
 40
1.0
 40
1.0
 40
1.0
 10
0.0000861273871528
 20
3.1429606119791664
 30
0.0
 10
-0.3614766438802083
 20
3.1429606119791664
 30
0.0
 10
-0.7111538357204861
 20
3.0141140407986109
 30
0.0
 10
-0.9865892198350693
 20
2.7791585286458331
 30
0.0
  0
SPLINE
  5
441
100
AcDbEntity
  8
レイヤー_2
 62
     7
100
AcDbSpline
210
0.0
220
0.0
230
1.0
 70
     8
 71
     3
 72
    11
 73
     7
 74
     0
 42
0.00000001
 43
0.00000001
 40
0.0
 40
0.0
 40
0.0
 40
0.0
 40
1.0
 40
1.0
 40
1.0
 40
2.0
 40
2.0
 40
2.0
 40
2.0
 10
-1.4194654676649305
 20
2.7791585286458331
 30
0.0
 10
-1.5055928548177082
 20
3.0551106770833329
 30
0.0
 10
-1.7989427354600693
 20
3.2087619357638886
 30
0.0
 10
-2.0748948838975694
 20
3.1226345486111109
 30
0.0
 10
-2.1629170735677081
 20
3.095418294270833
 30
0.0
 10
-2.2416375054253472
 20
3.0451199001736109
 30
0.0
 10
-2.3043382432725692
 20
2.9775960286458329
 30
0.0
  0
SPLINE
  5
440
100
AcDbEntity
  8
レイヤー_2
 62
     7
100
AcDbSpline
210
0.0
220
0.0
230
1.0
 70
     8
 71
     3
 72
     8
 73
     4
 74
     0
 42
0.00000001
 43
0.00000001
 40
0.0
 40
0.0
 40
0.0
 40
0.0
 40
1.0
 40
1.0
 40
1.0
 40
1.0
 10
0.0000861273871528
 20
0.4506184895833333
 30
0.0
 10
0.3323655870225694
 20
0.4506184895833333
 30
0.0
 10
0.6641282823350694
 20
0.4909261067708333
 30
0.0
 10
0.9865892198350693
 20
0.5715413411458333
 30
0.0
  0
SPLINE
  5
43F
100
AcDbEntity
  8
レイヤー_2
 62
     7
100
AcDbSpline
210
0.0
220
0.0
230
1.0
 70
     8
 71
     3
 72
     8
 73
     4
 74
     0
 42
0.00000001
 43
0.00000001
 40
0.0
 40
0.0
 40
0.0
 40
0.0
 40
1.0
 40
1.0
 40
1.0
 40
1.0
 10
1.4194654676649305
 20
0.5715413411458333
 30
0.0
 10
1.7326246473524305
 20
0.4096218532986111
 30
0.0
 10
2.1053839789496527
 20
0.4096218532986111
 30
0.0
 10
2.4190599229600691
 20
0.5715413411458333
 30
0.0
  0
SPLINE
  5
43E
100
AcDbEntity
  8
レイヤー_2
 62
     7
100
AcDbSpline
210
0.0
220
0.0
230
1.0
 70
     8
 71
     3
 72
     8
 73
     4
 74
     0
 42
0.00000001
 43
0.00000001
 40
0.0
 40
0.0
 40
0.0
 40
0.0
 40
1.0
 40
1.0
 40
1.0
 40
1.0
 10
0.9865892198350693
 20
2.7791585286458331
 30
0.0
 10
0.7120151095920139
 20
3.0141140407986109
 30
0.0
 10
0.3616488986545138
 20
3.1429606119791664
 30
0.0
 10
0.0000861273871528
 20
3.1429606119791664
 30
0.0
  0
SPLINE
  5
43D
100
AcDbEntity
  8
レイヤー_2
 62
     7
100
AcDbSpline
210
0.0
220
0.0
230
1.0
 70
     8
 71
     3
 72
    11
 73
     7
 74
     0
 42
0.00000001
 43
0.00000001
 40
0.0
 40
0.0
 40
0.0
 40
0.0
 40
1.0
 40
1.0
 40
1.0
 40
2.0
 40
2.0
 40
2.0
 40
2.0
 10
2.4190599229600691
 20
2.7791585286458331
 30
0.0
 10
2.3329325358072914
 20
3.0551106770833329
 30
0.0
 10
2.0390658908420138
 20
3.2087619357638886
 30
0.0
 10
1.7631137424045138
 20
3.1226345486111109
 30
0.0
 10
1.5992994520399304
 20
3.0713026258680554
 30
0.0
 10
1.4709696451822916
 20
2.9428005642361108
 30
0.0
 10
1.4194654676649305
 20
2.7791585286458331
 30
0.0
  0
LINE
  5
43C
100
AcDbEntity
  8
レイヤー_2
 62
     7
100
AcDbLine
 10
-2.49778
 20
-5.518698
 30
0.0
 11
-2.734114
 21
-5.391574
 31
0.0
  0
LINE
  5
43B
100
AcDbEntity
  8
レイヤー_2
 62
     7
100
AcDbLine
 10
2.734114
 20
-5.391574
 30
0.0
 11
2.497953
 21
-5.518698
 31
0.0
  0
LINE
  5
43A
100
AcDbEntity
  8
レイヤー_2
 62
     7
100
AcDbLine
 10
-2.734114
 20
-1.185457
 30
0.0
 11
-2.49778
 21
-1.058678
 31
0.0
  0
LINE
  5
439
100
AcDbEntity
  8
レイヤー_2
 62
     7
100
AcDbLine
 10
2.497953
 20
-1.058678
 30
0.0
 11
2.734114
 21
-1.185457
 31
0.0
  0
LINE
  5
438
100
AcDbEntity
  8
レイヤー_2
 62
     7
100
AcDbLine
 10
-2.418371
 20
-5.707145
 30
0.0
 11
2.41906
 21
-5.707145
 31
0.0
  0
LINE
  5
437
100
AcDbEntity
  8
レイヤー_2
 62
     7
100
AcDbLine
 10
-1.659933
 20
-5.391574
 30
0.0
 11
-1.051702
 21
-5.391574
 31
0.0
  0
LINE
  5
436
100
AcDbEntity
  8
レイヤー_2
 62
     7
100
AcDbLine
 10
1.051702
 20
-5.391574
 30
0.0
 11
1.660105
 21
-5.391574
 31
0.0
  0
LINE
  5
435
100
AcDbEntity
  8
レイヤー_2
 62
     7
100
AcDbLine
 10
2.734114
 20
-5.391574
 30
0.0
 11
2.41906
 21
-5.707145
 31
0.0
  0
LINE
  5
434
100
AcDbEntity
  8
レイヤー_2
 62
     7
100
AcDbLine
 10
-2.734114
 20
-5.391574
 30
0.0
 11
-2.418371
 21
-5.707145
 31
0.0
  0
LINE
  5
433
100
AcDbEntity
  8
レイヤー_2
 62
     7
100
AcDbLine
 10
2.41906
 20
-0.869542
 30
0.0
 11
-2.418371
 21
-0.869542
 31
0.0
  0
LINE
  5
432
100
AcDbEntity
  8
レイヤー_2
 62
     7
100
AcDbLine
 10
2.41906
 20
-0.869542
 30
0.0
 11
2.734114
 21
-1.185457
 31
0.0
  0
LINE
  5
431
100
AcDbEntity
  8
レイヤー_2
 62
     7
100
AcDbLine
 10
1.660105
 20
-1.185457
 30
0.0
 11
1.051702
 21
-1.185457
 31
0.0
  0
LINE
  5
430
100
AcDbEntity
  8
レイヤー_2
 62
     7
100
AcDbLine
 10
-1.051702
 20
-1.185457
 30
0.0
 11
-1.659933
 21
-1.185457
 31
0.0
  0
LINE
  5
42F
100
AcDbEntity
  8
レイヤー_2
 62
     7
100
AcDbLine
 10
-2.418371
 20
-0.869542
 30
0.0
 11
-2.734114
 21
-1.185457
 31
0.0
  0
LINE
  5
42E
100
AcDbEntity
  8
レイヤー_2
 62
     7
100
AcDbLine
 10
-2.734114
 20
-5.391574
 30
0.0
 11
-2.734114
 21
-1.185457
 31
0.0
  0
LINE
  5
42D
100
AcDbEntity
  8
レイヤー_2
 62
     7
100
AcDbLine
 10
-1.659933
 20
-5.391574
 30
0.0
 11
-1.659933
 21
-1.185457
 31
0.0
  0
LINE
  5
42C
100
AcDbEntity
  8
レイヤー_2
 62
     7
100
AcDbLine
 10
-1.051702
 20
-5.391574
 30
0.0
 11
-1.051702
 21
-1.185457
 31
0.0
  0
LINE
  5
42B
100
AcDbEntity
  8
レイヤー_2
 62
     7
100
AcDbLine
 10
1.051702
 20
-5.391574
 30
0.0
 11
1.051702
 21
-1.185457
 31
0.0
  0
LINE
  5
42A
100
AcDbEntity
  8
レイヤー_2
 62
     7
100
AcDbLine
 10
1.660105
 20
-5.391574
 30
0.0
 11
1.660105
 21
-1.185457
 31
0.0
  0
LINE
  5
429
100
AcDbEntity
  8
レイヤー_2
 62
     7
100
AcDbLine
 10
2.734114
 20
-5.391574
 30
0.0
 11
2.734114
 21
-1.185457
 31
0.0
  0
SPLINE
  5
428
100
AcDbEntity
  8
レイヤー_2
 62
     7
100
AcDbSpline
210
0.0
220
0.0
230
1.0
 70
     8
 71
     3
 72
     8
 73
     4
 74
     0
 42
0.00000001
 43
0.00000001
 40
0.0
 40
0.0
 40
0.0
 40
0.0
 40
1.0
 40
1.0
 40
1.0
 40
1.0
 10
-2.4977803548177082
 20
-5.5186984592013886
 30
0.0
 10
-2.221139187282986
 20
-5.6661485460069443
 30
0.0
 10
-1.880074734157986
 20
-5.6148166232638888
 30
0.0
 10
-1.659933132595486
 20
-5.3915744357638884
 30
0.0
  0
SPLINE
  5
427
100
AcDbEntity
  8
レイヤー_2
 62
     7
100
AcDbSpline
210
0.0
220
0.0
230
1.0
 70
     8
 71
     3
 72
     8
 73
     4
 74
     0
 42
0.00000001
 43
0.00000001
 40
0.0
 40
0.0
 40
0.0
 40
0.0
 40
1.0
 40
1.0
 40
1.0
 40
1.0
 10
1.6601053873697915
 20
-5.3915744357638884
 30
0.0
 10
1.8802469889322915
 20
-5.6148166232638888
 30
0.0
 10
2.2213114420572913
 20
-5.6661485460069443
 30
0.0
 10
2.4979526095920135
 20
-5.5186984592013886
 30
0.0
  0
SPLINE
  5
426
100
AcDbEntity
  8
レイヤー_2
 62
     7
100
AcDbSpline
210
0.0
220
0.0
230
1.0
 70
     8
 71
     3
 72
     8
 73
     4
 74
     0
 42
0.00000001
 43
0.00000001
 40
0.0
 40
0.0
 40
0.0
 40
0.0
 40
1.0
 40
1.0
 40
1.0
 40
1.0
 10
-1.0517015245225694
 20
-5.3915744357638884
 30
0.0
 10
-0.3781853569878472
 20
-5.6723497178819438
 30
0.0
 10
0.3788743760850694
 20
-5.6723497178819438
 30
0.0
 10
1.0517015245225694
 20
-5.3915744357638884
 30
0.0
  0
SPLINE
  5
425
100
AcDbEntity
  8
レイヤー_2
 62
     7
100
AcDbSpline
210
0.0
220
0.0
230
1.0
 70
     8
 71
     3
 72
     8
 73
     4
 74
     0
 42
0.00000001
 43
0.00000001
 40
0.0
 40
0.0
 40
0.0
 40
0.0
 40
1.0
 40
1.0
 40
1.0
 40
1.0
 10
-1.659933132595486
 20
-1.1854573567708333
 30
0.0
 10
-1.880074734157986
 20
-0.9622151692708333
 30
0.0
 10
-2.221139187282986
 20
-0.9105387369791665
 30
0.0
 10
-2.4977803548177082
 20
-1.0586778428819443
 30
0.0
  0
SPLINE
  5
424
100
AcDbEntity
  8
レイヤー_2
 62
     7
100
AcDbSpline
210
0.0
220
0.0
230
1.0
 70
     8
 71
     3
 72
     8
 73
     4
 74
     0
 42
0.00000001
 43
0.00000001
 40
0.0
 40
0.0
 40
0.0
 40
0.0
 40
1.0
 40
1.0
 40
1.0
 40
1.0
 10
2.4979526095920135
 20
-1.0586778428819443
 30
0.0
 10
2.2213114420572913
 20
-0.9105387369791665
 30
0.0
 10
1.8802469889322915
 20
-0.9622151692708333
 30
0.0
 10
1.6601053873697915
 20
-1.1854573567708333
 30
0.0
  0
SPLINE
  5
423
100
AcDbEntity
  8
レイヤー_2
 62
     7
100
AcDbSpline
210
0.0
220
0.0
230
1.0
 70
     8
 71
     3
 72
     8
 73
     4
 74
     0
 42
0.00000001
 43
0.00000001
 40
0.0
 40
0.0
 40
0.0
 40
0.0
 40
1.0
 40
1.0
 40
1.0
 40
1.0
 10
1.0517015245225694
 20
-1.1854573567708333
 30
0.0
 10
0.3788743760850694
 20
-0.9050265842013888
 30
0.0
 10
-0.3781853569878472
 20
-0.9050265842013888
 30
0.0
 10
-1.0517015245225694
 20
-1.1854573567708333
 30
0.0
  0
LINE
  5
422
100
AcDbEntity
  8
レイヤー_2
 62
     7
100
AcDbLine
 10
-0.998992
 20
4.236434
 30
0.0
 11
-0.998992
 21
5.675795
 31
0.0
  0
LINE
  5
421
100
AcDbEntity
  8
レイヤー_2
 62
     7
100
AcDbLine
 10
0.998992
 20
4.236434
 30
0.0
 11
0.998992
 21
5.31716
 31
0.0
  0
LINE
  5
420
100
AcDbEntity
  8
レイヤー_2
 62
     7
100
AcDbLine
 10
1.787918
 20
-0.669382
 30
0.0
 11
1.787918
 21
0.450618
 31
0.0
  0
LINE
  5
41F
100
AcDbEntity
  8
レイヤー_2
 62
     7
100
AcDbLine
 10
-1.787746
 20
0.450618
 30
0.0
 11
-1.787746
 21
-0.669382
 31
0.0
  0
LINE
  5
41E
100
AcDbEntity
  8
レイヤー_2
 62
     7
100
AcDbLine
 10
-1.682326
 20
-0.487137
 30
0.0
 11
1.683015
 21
-0.487137
 31
0.0
  0
ENDBLK
  5
461
100
AcDbEntity
  8
レイヤー_2
100
AcDbBlockEnd
  0
BLOCK
  5
469
100
AcDbEntity
  8
レイヤー_2
  6
AI9-LType3
 62
     7
100
AcDbBlockBegin
  2
AI9-BLK5
 70
     0
 10
0.0
 20
0.0
 30
0.0
  3
AI9-BLK5
  1

  0
MTEXT
  5
4B8
100
AcDbEntity
  8
レイヤー_2
  6
AI9-LType3
 62
     7
100
AcDbMText
 10
-4.477849
 20
-28.991512
 30
0.0
 40
5.512152
 41
0.0
 71
     1
 72
     2
  1
\fMS PGothic|b0|i0|c128;\H5.5122;\C7;\U+0047\U+0031\U+002F\U+0032
  7
STD
210
0.0
220
0.0
230
1.0
 73
     1
 44
1.0
  0
INSERT
  5
46B
100
AcDbEntity
  8
レイヤー_2
  6
AI9-LType3
 62
     7
100
AcDbBlockReference
  2
AI9-BLK6
 10
-2.567199
 20
4.357185
 30
0.0
  0
ENDBLK
  5
4B9
100
AcDbEntity
  8
レイヤー_2
100
AcDbBlockEnd
  0
BLOCK
  5
46C
100
AcDbEntity
  8
レイヤー_2
  6
AI9-LType3
 62
     7
100
AcDbBlockBegin
  2
AI9-BLK6
 70
     0
 10
0.0
 20
0.0
 30
0.0
  3
AI9-BLK6
  1

  0
LINE
  5
4B6
100
AcDbEntity
  8
レイヤー_2
  6
AI9-LType3
 62
     7
100
AcDbLine
 10
-7.829324
 20
-20.64663
 30
0.0
 11
-7.829324
 21
31.071144
 31
0.0
  0
LINE
  5
4B5
100
AcDbEntity
  8
レイヤー_2
  6
AI9-LType3
 62
     7
100
AcDbLine
 10
-7.717703
 20
-20.573593
 30
0.0
 11
5.006413
 21
-10.802614
 31
0.0
  0
LINE
  5
4B4
100
AcDbEntity
  8
レイヤー_2
  6
AI9-LType3
 62
     7
100
AcDbLine
 10
5.006413
 20
-10.802614
 30
0.0
 11
5.006413
 21
-31.071144
 31
0.0
  0
INSERT
  5
46E
100
AcDbEntity
  8
レイヤー_2
  6
AI9-LType3
 62
     7
100
AcDbBlockReference
  2
AI9-BLK7
 10
5.006757
 20
-24.73303
 30
0.0
  0
ENDBLK
  5
4B7
100
AcDbEntity
  8
レイヤー_2
100
AcDbBlockEnd
  0
BLOCK
  5
46F
100
AcDbEntity
  8
レイヤー_2
  6
AI9-LType3
 62
     7
100
AcDbBlockBegin
  2
AI9-BLK7
 70
     0
 10
0.0
 20
0.0
 30
0.0
  3
AI9-BLK7
  1

  0
SPLINE
  5
4B2
100
AcDbEntity
  8
レイヤー_2
 62
     7
100
AcDbSpline
210
0.0
220
0.0
230
1.0
 70
     8
 71
     3
 72
    95
 73
    91
 74
     0
 42
0.00000001
 43
0.00000001
 40
0.0
 40
0.0
 40
0.0
 40
0.0
 40
1.0
 40
1.0
 40
1.0
 40
2.0
 40
2.0
 40
2.0
 40
3.0
 40
3.0
 40
3.0
 40
4.0
 40
4.0
 40
4.0
 40
5.0
 40
5.0
 40
5.0
 40
6.0
 40
6.0
 40
6.0
 40
7.0
 40
7.0
 40
7.0
 40
8.0
 40
8.0
 40
8.0
 40
9.0
 40
9.0
 40
9.0
 40
10.0
 40
10.0
 40
10.0
 40
11.0
 40
11.0
 40
11.0
 40
12.0
 40
12.0
 40
12.0
 40
13.0
 40
13.0
 40
13.0
 40
14.0
 40
14.0
 40
14.0
 40
15.0
 40
15.0
 40
15.0
 40
16.0
 40
16.0
 40
16.0
 40
17.0
 40
17.0
 40
17.0
 40
18.0
 40
18.0
 40
18.0
 40
19.0
 40
19.0
 40
19.0
 40
20.0
 40
20.0
 40
20.0
 40
21.0
 40
21.0
 40
21.0
 40
22.0
 40
22.0
 40
22.0
 40
23.0
 40
23.0
 40
23.0
 40
24.0
 40
24.0
 40
24.0
 40
25.0
 40
25.0
 40
25.0
 40
26.0
 40
26.0
 40
26.0
 40
27.0
 40
27.0
 40
27.0
 40
28.0
 40
28.0
 40
28.0
 40
29.0
 40
29.0
 40
29.0
 40
30.0
 40
30.0
 40
30.0
 40
30.0
 10
-0.9992499457465277
 20
5.6694213867187493
 30
0.0
 10
-0.9880533854166665
 20
5.6663208007812491
 30
0.0
 10
-0.977029079861111
 20
5.6632202148437498
 30
0.0
 10
-0.9658325195312499
 20
5.6601196289062496
 30
0.0
 10
-0.9546359592013888
 20
5.6570190429687495
 30
0.0
 10
-0.9434393988715277
 20
5.6546074761284721
 30
0.0
 10
-0.9322428385416666
 20
5.6518513997395825
 30
0.0
 10
-0.921218532986111
 20
5.6494398328993052
 30
0.0
 10
-0.91002197265625
 20
5.647028266059027
 30
0.0
 10
-0.8988254123263888
 20
5.6453057183159716
 30
0.0
 10
-0.8876288519965278
 20
5.6432386610243048
 30
0.0
 10
-0.8764322916666666
 20
5.6422051323784714
 30
0.0
 10
-0.8647189670138888
 20
5.6408270941840275
 30
0.0
 10
-0.8535224066840277
 20
5.6394490559895827
 30
0.0
 10
-0.8423258463541666
 20
5.6394490559895827
 30
0.0
 10
-0.8306125217013888
 20
5.6394490559895827
 30
0.0
 10
-0.8051188151041666
 20
5.6401380750868046
 30
0.0
 10
-0.7797973632812499
 20
5.6432386610243048
 30
0.0
 10
-0.75499267578125
 20
5.6494398328993052
 30
0.0
 10
-0.7289822048611111
 20
5.6556410047743046
 30
0.0
 10
-0.7034884982638888
 20
5.662531195746527
 30
0.0
 10
-0.6786838107638888
 20
5.6701104058159721
 30
0.0
 10
-0.6531901041666666
 20
5.677345106336805
 30
0.0
 10
-0.6278686523437499
 20
5.6849243164062493
 30
0.0
 10
-0.6030639648437499
 20
5.6918145073784716
 30
0.0
 10
-0.5787760416666666
 20
5.698015679253472
 30
0.0
 10
-0.5539713541666667
 20
5.7028388129340275
 30
0.0
 10
-0.5291666666666666
 20
5.7059393988715277
 30
0.0
 10
-0.5062567816840278
 20
5.708350965711805
 30
0.0
 10
-0.48214111328125
 20
5.707661946614583
 30
0.0
 10
-0.4592312282986111
 20
5.7035278320312495
 30
0.0
 10
-0.4244357638888889
 20
5.6952596028645832
 30
0.0
 10
-0.3915351019965278
 20
5.6804456922743052
 30
0.0
 10
-0.3631130642361111
 20
5.6594306098090277
 30
0.0
 10
-0.3307291666666666
 20
5.636003960503472
 30
0.0
 10
-0.3004123263888889
 20
5.6105102539062495
 30
0.0
 10
-0.2725070529513889
 20
5.5826049804687496
 30
0.0
 10
-0.24339599609375
 20
5.553321668836805
 30
0.0
 10
-0.2135959201388889
 20
5.5247273763020832
 30
0.0
 10
-0.18448486328125
 20
5.496477593315972
 30
0.0
 10
-0.15657958984375
 20
5.4696058485243046
 30
0.0
 10
-0.1267795138888889
 20
5.445490180121527
 30
0.0
 10
-0.09456787109375
 20
5.4237860785590275
 30
0.0
 10
-0.06666259765625
 20
5.4044935438368054
 30
0.0
 10
-0.0337619357638889
 20
5.3927802191840275
 30
0.0
 10
-0.0003445095486111
 20
5.387957085503472
 30
0.0
 10
0.0332451714409722
 20
5.3841674804687498
 30
0.0
 10
0.06666259765625
 20
5.3883015950520825
 30
0.0
 10
0.0971516927083333
 20
5.4020819769965271
 30
0.0
 10
0.1312581380208333
 20
5.4168958875868052
 30
0.0
 10
0.1646755642361111
 20
5.4323988172743052
 30
0.0
 10
0.1987820095486111
 20
5.4479017469618052
 30
0.0
 10
0.23409423828125
 20
5.4647827148437491
 30
0.0
 10
0.2688897026909722
 20
5.4833862304687493
 30
0.0
 10
0.30230712890625
 20
5.5037122938368048
 30
0.0
 10
0.3345187717013889
 20
5.521626790364583
 30
0.0
 10
0.3686252170138888
 20
5.5367852105034716
 30
0.0
 10
0.4034206814236111
 20
5.5484985351562495
 30
0.0
 10
0.4344265407986111
 20
5.5588338216145825
 30
0.0
 10
0.4673272026909722
 20
5.5626234266493046
 30
0.0
 10
0.4995388454861111
 20
5.5588338216145825
 30
0.0
 10
0.5231377495659721
 20
5.5553887261284718
 30
0.0
 10
0.5460476345486111
 20
5.5471204969618046
 30
0.0
 10
0.5665459526909722
 20
5.5354071723090277
 30
0.0
 10
0.5887668185763888
 20
5.522315809461805
 30
0.0
 10
0.6104709201388888
 20
5.507501898871527
 30
0.0
 10
0.63096923828125
 20
5.491309950086805
 30
0.0
 10
0.6521565755208333
 20
5.4740844726562496
 30
0.0
 10
0.6738606770833333
 20
5.4561699761284714
 30
0.0
 10
0.694875759548611
 20
5.4379109700520827
 30
0.0
 10
0.7158908420138889
 20
5.4199964735243054
 30
0.0
 10
0.7375949435763888
 20
5.4027709960937491
 30
0.0
 10
0.7606770833333333
 20
5.3865790473090271
 30
0.0
 10
0.7823811848958333
 20
5.3703870985243052
 30
0.0
 10
0.8058078342013888
 20
5.3572957356770825
 30
0.0
 10
0.8306125217013888
 20
5.3469604492187495
 30
0.0
 10
0.8412923177083332
 20
5.3417928059895825
 30
0.0
 10
0.8517998589409721
 20
5.3383477105034718
 30
0.0
 10
0.8629964192708333
 20
5.335591634114583
 30
0.0
 10
0.8740207248263888
 20
5.3324910481770829
 30
0.0
 10
0.8852172851562499
 20
5.3300794813368046
 30
0.0
 10
0.896413845486111
 20
5.3276679144965273
 30
0.0
 10
0.9076104058159722
 20
5.325945366753472
 30
0.0
 10
0.9188069661458332
 20
5.3238783094618052
 30
0.0
 10
0.9298312717013888
 20
5.3228447808159718
 30
0.0
 10
0.9417168511284721
 20
5.321466742621527
 30
0.0
 10
0.9529134114583332
 20
5.320777723524305
 30
0.0
 10
0.9646267361111111
 20
5.3197441948784716
 30
0.0
 10
0.9758232964409721
 20
5.3183661566840277
 30
0.0
 10
0.98753662109375
 20
5.3176771375868048
 30
0.0
 10
0.998733181423611
 20
5.3169881184895829
 30
0.0
  0
LINE
  5
4B1
100
AcDbEntity
  8
レイヤー_2
 62
     7
100
AcDbLine
 10
1.787488
 20
-0.487309
 30
0.0
 11
1.682757
 21
-0.487309
 31
0.0
  0
LINE
  5
4B0
100
AcDbEntity
  8
レイヤー_2
 62
     7
100
AcDbLine
 10
1.682757
 20
0.473528
 30
0.0
 11
1.682757
 21
-0.487309
 31
0.0
  0
LINE
  5
4AF
100
AcDbEntity
  8
レイヤー_2
 62
     7
100
AcDbLine
 10
1.682757
 20
-0.487309
 30
0.0
 11
1.787488
 21
-0.668865
 31
0.0
  0
LINE
  5
4AE
100
AcDbEntity
  8
レイヤー_2
 62
     7
100
AcDbLine
 10
-1.682585
 20
-0.487309
 30
0.0
 11
-1.788005
 21
-0.487309
 31
0.0
  0
LINE
  5
4AD
100
AcDbEntity
  8
レイヤー_2
 62
     7
100
AcDbLine
 10
-1.682585
 20
-0.487309
 30
0.0
 11
-1.682585
 21
0.473528
 31
0.0
  0
LINE
  5
4AC
100
AcDbEntity
  8
レイヤー_2
 62
     7
100
AcDbLine
 10
-1.788005
 20
-0.668865
 30
0.0
 11
-1.682585
 21
-0.487309
 31
0.0
  0
LINE
  5
4AB
100
AcDbEntity
  8
レイヤー_2
 62
     7
100
AcDbLine
 10
-0.986848
 20
0.572058
 30
0.0
 11
-1.419035
 21
0.572058
 31
0.0
  0
LINE
  5
4AA
100
AcDbEntity
  8
レイヤー_2
 62
     7
100
AcDbLine
 10
-0.986848
 20
2.778986
 30
0.0
 11
-0.986848
 21
0.572058
 31
0.0
  0
LINE
  5
4A9
100
AcDbEntity
  8
レイヤー_2
 62
     7
100
AcDbLine
 10
-1.419035
 20
2.778986
 30
0.0
 11
-0.986848
 21
2.778986
 31
0.0
  0
LINE
  5
4A8
100
AcDbEntity
  8
レイヤー_2
 62
     7
100
AcDbLine
 10
-1.419035
 20
2.778986
 30
0.0
 11
-1.419035
 21
0.572058
 31
0.0
  0
LINE
  5
4A7
100
AcDbEntity
  8
レイヤー_2
 62
     7
100
AcDbLine
 10
-1.577165
 20
4.236262
 30
0.0
 11
-0.000345
 21
4.236262
 31
0.0
  0
LINE
  5
4A6
100
AcDbEntity
  8
レイヤー_2
 62
     7
100
AcDbLine
 10
-2.208478
 20
0.450446
 30
0.0
 11
-0.000345
 21
0.450446
 31
0.0
  0
LINE
  5
4A5
100
AcDbEntity
  8
レイヤー_2
 62
     7
100
AcDbLine
 10
-2.418802
 20
0.572058
 30
0.0
 11
-2.208478
 21
0.450446
 31
0.0
  0
LINE
  5
4A4
100
AcDbEntity
  8
レイヤー_2
 62
     7
100
AcDbLine
 10
-1.577165
 20
4.236262
 30
0.0
 11
-2.30408
 21
2.978113
 31
0.0
  0
LINE
  5
4A3
100
AcDbEntity
  8
レイヤー_2
 62
     7
100
AcDbLine
 10
-2.418802
 20
2.778986
 30
0.0
 11
-2.418802
 21
0.572058
 31
0.0
  0
LINE
  5
4A2
100
AcDbEntity
  8
レイヤー_2
 62
     7
100
AcDbLine
 10
1.061951
 20
4.236262
 30
0.0
 11
-0.000345
 21
4.236262
 31
0.0
  0
LINE
  5
4A1
100
AcDbEntity
  8
レイヤー_2
 62
     7
100
AcDbLine
 10
1.840198
 20
0.450446
 30
0.0
 11
-0.000345
 21
0.450446
 31
0.0
  0
LINE
  5
4A0
100
AcDbEntity
  8
レイヤー_2
 62
     7
100
AcDbLine
 10
1.419207
 20
0.572058
 30
0.0
 11
0.986331
 21
0.572058
 31
0.0
  0
LINE
  5
49F
100
AcDbEntity
  8
レイヤー_2
 62
     7
100
AcDbLine
 10
0.986331
 20
0.572058
 30
0.0
 11
0.986331
 21
2.778986
 31
0.0
  0
LINE
  5
49E
100
AcDbEntity
  8
レイヤー_2
 62
     7
100
AcDbLine
 10
0.986331
 20
2.778986
 30
0.0
 11
1.419207
 21
2.778986
 31
0.0
  0
LINE
  5
49D
100
AcDbEntity
  8
レイヤー_2
 62
     7
100
AcDbLine
 10
1.419207
 20
0.572058
 30
0.0
 11
1.419207
 21
2.778986
 31
0.0
  0
LINE
  5
49C
100
AcDbEntity
  8
レイヤー_2
 62
     7
100
AcDbLine
 10
-0.000345
 20
4.236262
 30
0.0
 11
1.577337
 21
4.236262
 31
0.0
  0
LINE
  5
49B
100
AcDbEntity
  8
レイヤー_2
 62
     7
100
AcDbLine
 10
-0.000345
 20
0.450446
 30
0.0
 11
2.208651
 21
0.450446
 31
0.0
  0
LINE
  5
49A
100
AcDbEntity
  8
レイヤー_2
 62
     7
100
AcDbLine
 10
2.208651
 20
0.450446
 30
0.0
 11
2.418802
 21
0.572058
 31
0.0
  0
LINE
  5
499
100
AcDbEntity
  8
レイヤー_2
 62
     7
100
AcDbLine
 10
2.418802
 20
2.778986
 30
0.0
 11
1.577337
 21
4.236262
 31
0.0
  0
LINE
  5
498
100
AcDbEntity
  8
レイヤー_2
 62
     7
100
AcDbLine
 10
2.418802
 20
0.572058
 30
0.0
 11
2.418802
 21
2.778986
 31
0.0
  0
LINE
  5
497
100
AcDbEntity
  8
レイヤー_2
 62
     7
100
AcDbLine
 10
-2.30408
 20
2.978113
 30
0.0
 11
-2.418802
 21
2.778986
 31
0.0
  0
SPLINE
  5
496
100
AcDbEntity
  8
レイヤー_2
 62
     7
100
AcDbSpline
210
0.0
220
0.0
230
1.0
 70
     8
 71
     3
 72
     8
 73
     4
 74
     0
 42
0.00000001
 43
0.00000001
 40
0.0
 40
0.0
 40
0.0
 40
0.0
 40
1.0
 40
1.0
 40
1.0
 40
1.0
 10
-0.9868476019965277
 20
0.5720581054687499
 30
0.0
 10
-0.663869900173611
 20
0.49144287109375
 30
0.0
 10
-0.3326239691840278
 20
0.4504462348090277
 30
0.0
 10
-0.0003445095486111
 20
0.4504462348090277
 30
0.0
  0
SPLINE
  5
495
100
AcDbEntity
  8
レイヤー_2
 62
     7
100
AcDbSpline
210
0.0
220
0.0
230
1.0
 70
     8
 71
     3
 72
     8
 73
     4
 74
     0
 42
0.00000001
 43
0.00000001
 40
0.0
 40
0.0
 40
0.0
 40
0.0
 40
1.0
 40
1.0
 40
1.0
 40
1.0
 10
-2.418801540798611
 20
0.5720581054687499
 30
0.0
 10
-2.1056423611111108
 20
0.4094495985243055
 30
0.0
 10
-1.7328830295138888
 20
0.4094495985243055
 30
0.0
 10
-1.4190348307291665
 20
0.5720581054687499
 30
0.0
  0
SPLINE
  5
494
100
AcDbEntity
  8
レイヤー_2
 62
     7
100
AcDbSpline
210
0.0
220
0.0
230
1.0
 70
     8
 71
     3
 72
     8
 73
     4
 74
     0
 42
0.00000001
 43
0.00000001
 40
0.0
 40
0.0
 40
0.0
 40
0.0
 40
1.0
 40
1.0
 40
1.0
 40
1.0
 10
-0.0003445095486111
 20
3.1434773763020831
 30
0.0
 10
-0.3617350260416666
 20
3.1434773763020831
 30
0.0
 10
-0.7115844726562499
 20
3.0146308051215276
 30
0.0
 10
-0.9868476019965277
 20
2.7789862738715274
 30
0.0
  0
SPLINE
  5
493
100
AcDbEntity
  8
レイヤー_2
 62
     7
100
AcDbSpline
210
0.0
220
0.0
230
1.0
 70
     8
 71
     3
 72
    11
 73
     7
 74
     0
 42
0.00000001
 43
0.00000001
 40
0.0
 40
0.0
 40
0.0
 40
0.0
 40
1.0
 40
1.0
 40
1.0
 40
2.0
 40
2.0
 40
2.0
 40
2.0
 10
-1.4190348307291665
 20
2.7789862738715274
 30
0.0
 10
-1.5053344726562499
 20
3.0556274414062496
 30
0.0
 10
-1.7992011176215277
 20
3.2092787000868053
 30
0.0
 10
-2.0751532660590275
 20
3.1224622938368052
 30
0.0
 10
-2.1631754557291663
 20
3.0952460394965273
 30
0.0
 10
-2.2420681423611111
 20
3.0456366644965276
 30
0.0
 10
-2.3040798611111111
 20
2.9781127929687496
 30
0.0
  0
SPLINE
  5
492
100
AcDbEntity
  8
レイヤー_2
 62
     7
100
AcDbSpline
210
0.0
220
0.0
230
1.0
 70
     8
 71
     3
 72
     8
 73
     4
 74
     0
 42
0.00000001
 43
0.00000001
 40
0.0
 40
0.0
 40
0.0
 40
0.0
 40
1.0
 40
1.0
 40
1.0
 40
1.0
 10
-0.0003445095486111
 20
0.4504462348090277
 30
0.0
 10
0.3327962239583333
 20
0.4504462348090277
 30
0.0
 10
0.663869900173611
 20
0.49144287109375
 30
0.0
 10
0.9863308376736111
 20
0.5720581054687499
 30
0.0
  0
SPLINE
  5
491
100
AcDbEntity
  8
レイヤー_2
 62
     7
100
AcDbSpline
210
0.0
220
0.0
230
1.0
 70
     8
 71
     3
 72
     8
 73
     4
 74
     0
 42
0.00000001
 43
0.00000001
 40
0.0
 40
0.0
 40
0.0
 40
0.0
 40
1.0
 40
1.0
 40
1.0
 40
1.0
 10
1.4192070855034722
 20
0.5720581054687499
 30
0.0
 10
1.7328830295138888
 20
0.4094495985243055
 30
0.0
 10
2.1056423611111108
 20
0.4094495985243055
 30
0.0
 10
2.418801540798611
 20
0.5720581054687499
 30
0.0
  0
SPLINE
  5
490
100
AcDbEntity
  8
レイヤー_2
 62
     7
100
AcDbSpline
210
0.0
220
0.0
230
1.0
 70
     8
 71
     3
 72
     8
 73
     4
 74
     0
 42
0.00000001
 43
0.00000001
 40
0.0
 40
0.0
 40
0.0
 40
0.0
 40
1.0
 40
1.0
 40
1.0
 40
1.0
 10
0.9863308376736111
 20
2.7789862738715274
 30
0.0
 10
0.7115844726562499
 20
3.0146308051215276
 30
0.0
 10
0.3619072808159722
 20
3.1434773763020831
 30
0.0
 10
-0.0003445095486111
 20
3.1434773763020831
 30
0.0
  0
SPLINE
  5
48F
100
AcDbEntity
  8
レイヤー_2
 62
     7
100
AcDbSpline
210
0.0
220
0.0
230
1.0
 70
     8
 71
     3
 72
    11
 73
     7
 74
     0
 42
0.00000001
 43
0.00000001
 40
0.0
 40
0.0
 40
0.0
 40
0.0
 40
1.0
 40
1.0
 40
1.0
 40
2.0
 40
2.0
 40
2.0
 40
2.0
 10
2.418801540798611
 20
2.7789862738715274
 30
0.0
 10
2.3326741536458333
 20
3.0556274414062496
 30
0.0
 10
2.03863525390625
 20
3.2092787000868053
 30
0.0
 10
1.7626831054687497
 20
3.1224622938368052
 30
0.0
 10
1.5990410698784721
 20
3.0718193901909721
 30
0.0
 10
1.4707112630208332
 20
2.9433173285590275
 30
0.0
 10
1.4192070855034722
 20
2.7789862738715274
 30
0.0
  0
LINE
  5
48E
100
AcDbEntity
  8
レイヤー_2
 62
     7
100
AcDbLine
 10
-2.497522
 20
-5.518182
 30
0.0
 11
-2.734372
 21
-5.391747
 31
0.0
  0
LINE
  5
48D
100
AcDbEntity
  8
レイヤー_2
 62
     7
100
AcDbLine
 10
2.734372
 20
-5.391747
 30
0.0
 11
2.497522
 21
-5.518182
 31
0.0
  0
LINE
  5
48C
100
AcDbEntity
  8
レイヤー_2
 62
     7
100
AcDbLine
 10
-2.734372
 20
-1.184941
 30
0.0
 11
-2.497522
 21
-1.058161
 31
0.0
  0
LINE
  5
48B
100
AcDbEntity
  8
レイヤー_2
 62
     7
100
AcDbLine
 10
2.497522
 20
-1.058161
 30
0.0
 11
2.734372
 21
-1.184941
 31
0.0
  0
LINE
  5
48A
100
AcDbEntity
  8
レイヤー_2
 62
     7
100
AcDbLine
 10
-2.418802
 20
-5.707317
 30
0.0
 11
2.418802
 21
-5.707317
 31
0.0
  0
LINE
  5
489
100
AcDbEntity
  8
レイヤー_2
 62
     7
100
AcDbLine
 10
-1.660364
 20
-5.391747
 30
0.0
 11
-1.05196
 21
-5.391747
 31
0.0
  0
LINE
  5
488
100
AcDbEntity
  8
レイヤー_2
 62
     7
100
AcDbLine
 10
1.051443
 20
-5.391747
 30
0.0
 11
1.659847
 21
-5.391747
 31
0.0
  0
LINE
  5
487
100
AcDbEntity
  8
レイヤー_2
 62
     7
100
AcDbLine
 10
2.734372
 20
-5.391747
 30
0.0
 11
2.418802
 21
-5.707317
 31
0.0
  0
LINE
  5
486
100
AcDbEntity
  8
レイヤー_2
 62
     7
100
AcDbLine
 10
-2.734372
 20
-5.391747
 30
0.0
 11
-2.418802
 21
-5.707317
 31
0.0
  0
LINE
  5
485
100
AcDbEntity
  8
レイヤー_2
 62
     7
100
AcDbLine
 10
2.418802
 20
-0.869025
 30
0.0
 11
-2.418802
 21
-0.869025
 31
0.0
  0
LINE
  5
484
100
AcDbEntity
  8
レイヤー_2
 62
     7
100
AcDbLine
 10
2.418802
 20
-0.869025
 30
0.0
 11
2.734372
 21
-1.184941
 31
0.0
  0
LINE
  5
483
100
AcDbEntity
  8
レイヤー_2
 62
     7
100
AcDbLine
 10
1.659847
 20
-1.184941
 30
0.0
 11
1.051443
 21
-1.184941
 31
0.0
  0
LINE
  5
482
100
AcDbEntity
  8
レイヤー_2
 62
     7
100
AcDbLine
 10
-1.05196
 20
-1.184941
 30
0.0
 11
-1.660364
 21
-1.184941
 31
0.0
  0
LINE
  5
481
100
AcDbEntity
  8
レイヤー_2
 62
     7
100
AcDbLine
 10
-2.418802
 20
-0.869025
 30
0.0
 11
-2.734372
 21
-1.184941
 31
0.0
  0
LINE
  5
480
100
AcDbEntity
  8
レイヤー_2
 62
     7
100
AcDbLine
 10
-2.734372
 20
-5.391747
 30
0.0
 11
-2.734372
 21
-1.184941
 31
0.0
  0
LINE
  5
47F
100
AcDbEntity
  8
レイヤー_2
 62
     7
100
AcDbLine
 10
-1.660364
 20
-5.391747
 30
0.0
 11
-1.660364
 21
-1.184941
 31
0.0
  0
LINE
  5
47E
100
AcDbEntity
  8
レイヤー_2
 62
     7
100
AcDbLine
 10
-1.05196
 20
-5.391747
 30
0.0
 11
-1.05196
 21
-1.184941
 31
0.0
  0
LINE
  5
47D
100
AcDbEntity
  8
レイヤー_2
 62
     7
100
AcDbLine
 10
1.051443
 20
-5.391747
 30
0.0
 11
1.051443
 21
-1.184941
 31
0.0
  0
LINE
  5
47C
100
AcDbEntity
  8
レイヤー_2
 62
     7
100
AcDbLine
 10
1.659847
 20
-5.391747
 30
0.0
 11
1.659847
 21
-1.184941
 31
0.0
  0
LINE
  5
47B
100
AcDbEntity
  8
レイヤー_2
 62
     7
100
AcDbLine
 10
2.734372
 20
-5.391747
 30
0.0
 11
2.734372
 21
-1.184941
 31
0.0
  0
SPLINE
  5
47A
100
AcDbEntity
  8
レイヤー_2
 62
     7
100
AcDbSpline
210
0.0
220
0.0
230
1.0
 70
     8
 71
     3
 72
     8
 73
     4
 74
     0
 42
0.00000001
 43
0.00000001
 40
0.0
 40
0.0
 40
0.0
 40
0.0
 40
1.0
 40
1.0
 40
1.0
 40
1.0
 10
-2.4975219726562496
 20
-5.5181816948784714
 30
0.0
 10
-2.2215698242187498
 20
-5.6663208007812491
 30
0.0
 10
-1.8805053710937498
 20
-5.6149888780381936
 30
0.0
 10
-1.6603637695312499
 20
-5.3917466905381941
 30
0.0
  0
SPLINE
  5
479
100
AcDbEntity
  8
レイヤー_2
 62
     7
100
AcDbSpline
210
0.0
220
0.0
230
1.0
 70
     8
 71
     3
 72
     8
 73
     4
 74
     0
 42
0.00000001
 43
0.00000001
 40
0.0
 40
0.0
 40
0.0
 40
0.0
 40
1.0
 40
1.0
 40
1.0
 40
1.0
 10
1.6598470052083332
 20
-5.3917466905381941
 30
0.0
 10
1.8805053710937498
 20
-5.6149888780381936
 30
0.0
 10
2.2210530598958331
 20
-5.6663208007812491
 30
0.0
 10
2.4975219726562496
 20
-5.5181816948784714
 30
0.0
  0
SPLINE
  5
478
100
AcDbEntity
  8
レイヤー_2
 62
     7
100
AcDbSpline
210
0.0
220
0.0
230
1.0
 70
     8
 71
     3
 72
     8
 73
     4
 74
     0
 42
0.00000001
 43
0.00000001
 40
0.0
 40
0.0
 40
0.0
 40
0.0
 40
1.0
 40
1.0
 40
1.0
 40
1.0
 10
-1.0519599066840277
 20
-5.3917466905381941
 30
0.0
 10
-0.3786159939236111
 20
-5.6718329535590275
 30
0.0
 10
0.3786159939236111
 20
-5.6718329535590275
 30
0.0
 10
1.051443142361111
 20
-5.3917466905381941
 30
0.0
  0
SPLINE
  5
477
100
AcDbEntity
  8
レイヤー_2
 62
     7
100
AcDbSpline
210
0.0
220
0.0
230
1.0
 70
     8
 71
     3
 72
     8
 73
     4
 74
     0
 42
0.00000001
 43
0.00000001
 40
0.0
 40
0.0
 40
0.0
 40
0.0
 40
1.0
 40
1.0
 40
1.0
 40
1.0
 10
-1.6603637695312499
 20
-1.1849405924479166
 30
0.0
 10
-1.8805053710937498
 20
-0.9620429144965277
 30
0.0
 10
-2.2215698242187498
 20
-0.9107109917534721
 30
0.0
 10
-2.4975219726562496
 20
-1.0581610785590276
 30
0.0
  0
SPLINE
  5
476
100
AcDbEntity
  8
レイヤー_2
 62
     7
100
AcDbSpline
210
0.0
220
0.0
230
1.0
 70
     8
 71
     3
 72
     8
 73
     4
 74
     0
 42
0.00000001
 43
0.00000001
 40
0.0
 40
0.0
 40
0.0
 40
0.0
 40
1.0
 40
1.0
 40
1.0
 40
1.0
 10
2.4975219726562496
 20
-1.0581610785590276
 30
0.0
 10
2.2210530598958331
 20
-0.9107109917534721
 30
0.0
 10
1.8805053710937498
 20
-0.9620429144965277
 30
0.0
 10
1.6598470052083332
 20
-1.1849405924479166
 30
0.0
  0
SPLINE
  5
475
100
AcDbEntity
  8
レイヤー_2
 62
     7
100
AcDbSpline
210
0.0
220
0.0
230
1.0
 70
     8
 71
     3
 72
     8
 73
     4
 74
     0
 42
0.00000001
 43
0.00000001
 40
0.0
 40
0.0
 40
0.0
 40
0.0
 40
1.0
 40
1.0
 40
1.0
 40
1.0
 10
1.051443142361111
 20
-1.1849405924479166
 30
0.0
 10
0.3786159939236111
 20
-0.9045098198784721
 30
0.0
 10
-0.3786159939236111
 20
-0.9045098198784721
 30
0.0
 10
-1.0519599066840277
 20
-1.1849405924479166
 30
0.0
  0
LINE
  5
474
100
AcDbEntity
  8
レイヤー_2
 62
     7
100
AcDbLine
 10
-0.99925
 20
4.236262
 30
0.0
 11
-0.99925
 21
5.676312
 31
0.0
  0
LINE
  5
473
100
AcDbEntity
  8
レイヤー_2
 62
     7
100
AcDbLine
 10
0.998733
 20
4.236262
 30
0.0
 11
0.998733
 21
5.316988
 31
0.0
  0
LINE
  5
472
100
AcDbEntity
  8
レイヤー_2
 62
     7
100
AcDbLine
 10
1.787488
 20
-0.668865
 30
0.0
 11
1.787488
 21
0.450446
 31
0.0
  0
LINE
  5
471
100
AcDbEntity
  8
レイヤー_2
 62
     7
100
AcDbLine
 10
-1.788005
 20
0.450446
 30
0.0
 11
-1.788005
 21
-0.668865
 31
0.0
  0
LINE
  5
470
100
AcDbEntity
  8
レイヤー_2
 62
     7
100
AcDbLine
 10
-1.682585
 20
-0.487309
 30
0.0
 11
1.682757
 21
-0.487309
 31
0.0
  0
ENDBLK
  5
4B3
100
AcDbEntity
  8
レイヤー_2
100
AcDbBlockEnd
  0
ENDSEC
  0
SECTION
  2
ENTITIES
  0
MTEXT
  5
4DC
100
AcDbEntity
  8
レイヤー_1
 62
     7
100
AcDbMText
 10
47.801389
 20
54.121991
 30
0.0
 40
3.674768
 41
0.0
 71
     1
 72
     2
  1
\fOsaka|b0|i0|c128;\H3.6748;\C7;\U+0032\U+0032\U+002E\U+0038\U+0031\U+0035\U+002E\U+0038\U+0039\U+0032\U+002E\U+0058\U+0058
  7
STD
210
0.0
220
0.0
230
1.0
 73
     1
 44
1.0
  0
MTEXT
  5
4DB
100
AcDbEntity
  8
レイヤー_1
 62
     7
100
AcDbMText
 10
39.6875
 20
56.608234
 30
0.0
 40
1.574901
 41
0.0
 71
     1
 72
     2
  1
\fOsaka|b0|i0|c128;\H1.5749;\C7;\U+54C1\U+756A
  7
STD
210
0.0
220
0.0
230
1.0
 73
     1
 44
1.0
  0
MTEXT
  5
4DA
100
AcDbEntity
  8
レイヤー_1
 62
     7
100
AcDbMText
 10
47.801389
 20
32.959209
 30
0.0
 40
3.149486
 41
0.0
 71
     1
 72
     2
  1
\fOsaka|b0|i0|c128;\H3.1495;\C7;\U+FF11\U+7A74\U+578B\U+FF12\U+30D0\U+30EB\U+30D6\U+30AD\U+30C3\U+30C1\U+30F3\U+7528\U+6DF7\U+5408\U+6813
  7
STD
210
0.0
220
0.0
230
1.0
 73
     1
 44
1.0
  0
MTEXT
  5
4D9
100
AcDbEntity
  8
レイヤー_1
 62
     7
100
AcDbMText
 10
39.6875
 20
35.441567
 30
0.0
 40
1.574901
 41
0.0
 71
     1
 72
     2
  1
\fOsaka|b0|i0|c128;\H1.5749;\C7;\U+54C1
  7
STD
210
0.0
220
0.0
230
1.0
 73
     1
 44
1.0
  0
MTEXT
  5
4D8
100
AcDbEntity
  8
レイヤー_1
 62
     7
100
AcDbMText
 10
47.319248
 20
43.304752
 30
0.0
 40
3.499429
 41
0.0
 71
     1
 72
     2
  1
\fOsaka|b0|i0|c128;\H3.4994;\W0.90;\C7;\U+FF34\U+FF41\U+FF52\U+FF41
  7
STD
210
0.0
220
0.0
230
1.0
 73
     1
 44
1.0
  0
POLYLINE
  5
4D2
100
AcDbEntity
  8
レイヤー_1
 62
     7
100
AcDb2dPolyline
 66
     1
 10
0.0
 20
0.0
 30
0.0
 70
     1
  0
VERTEX
  5
4D3
100
AcDbEntity
  8
レイヤー_1
 62
     7
100
AcDbVertex
100
AcDb2dVertex
 10
23.636111
 20
26.105556
 30
0.0
  0
VERTEX
  5
4D4
100
AcDbEntity
  8
レイヤー_1
 62
     7
100
AcDbVertex
100
AcDb2dVertex
 10
198.613889
 20
26.105556
 30
0.0
  0
VERTEX
  5
4D5
100
AcDbEntity
  8
レイヤー_1
 62
     7
100
AcDbVertex
100
AcDb2dVertex
 10
198.613889
 20
276.577778
 30
0.0
  0
VERTEX
  5
4D6
100
AcDbEntity
  8
レイヤー_1
 62
     7
100
AcDbVertex
100
AcDb2dVertex
 10
23.636111
 20
276.577778
 30
0.0
  0
SEQEND
  5
4D7
100
AcDbEntity
  8
レイヤー_1
 62
     7
  0
LINE
  5
4D1
100
AcDbEntity
  8
レイヤー_1
 62
     7
100
AcDbLine
 10
170.568056
 20
36.5125
 30
0.0
 11
27.693056
 21
36.5125
 31
0.0
  0
LINE
  5
4D0
100
AcDbEntity
  8
レイヤー_1
 62
     7
100
AcDbLine
 10
170.568056
 20
47.095833
 30
0.0
 11
27.693056
 21
47.095833
 31
0.0
  0
LINE
  5
4CF
100
AcDbEntity
  8
レイヤー_1
 62
     7
100
AcDbLine
 10
23.636111
 20
57.855556
 30
0.0
 11
198.261111
 21
57.855556
 31
0.0
  0
LINE
  5
4CE
100
AcDbEntity
  8
レイヤー_1
 62
     7
100
AcDbLine
 10
170.744444
 20
57.855556
 30
0.0
 11
170.744444
 21
26.458333
 31
0.0
  0
MTEXT
  5
4CD
100
AcDbEntity
  8
レイヤー_1
 62
     7
100
AcDbMText
 10
33.3375
 20
46.024901
 30
0.0
 40
1.574901
 41
0.0
 71
     1
 72
     2
  1
\fOsaka|b0|i0|c128;\H1.5749;\C7;\U+30B7\U+30EA\U+30FC\U+30BA
  7
STD
210
0.0
220
0.0
230
1.0
 73
     1
 44
1.0
  0
MTEXT
  5
4CC
100
AcDbEntity
  8
レイヤー_1
 62
     7
100
AcDbMText
 10
174.095833
 20
54.655042
 30
0.0
 40
3.149486
 41
0.0
 71
     1
 72
     2
  1
\fHeiseiKakuGothicCAN W9|b0|i0|c128;\H3.1495;\C253;\U+5BF8\U+6CD5\U+53C2\U+8003\U+56F3
  7
STD
210
0.0
220
0.0
230
1.0
 73
     1
 44
1.0
  0
LINE
  5
4CB
100
AcDbEntity
  8
レイヤー_1
 62
     7
100
AcDbLine
 10
27.516667
 20
57.855556
 30
0.0
 11
27.516667
 21
26.458333
 31
0.0
  0
IMAGE
  5
4C8
100
AcDbEntity
  8
レイヤー_1
 62
     7
 92
        0
100
AcDbRasterImage
 90
        0
 10
172.155556
 20
28.574682
 30
0.0
 11
0.352531
 21
0.0
 31
0.0
 12
0.0
 22
0.352813
 32
0.0
 13
70.0
 23
9.0
340
4CA
 70
     7
280
     0
281
    50
282
    50
283
     0
360
4C9
 71
     1
 91
        2
 14
-0.5
 24
-0.5
 14
69.5
 24
8.5
  0
IMAGE
  5
4C5
100
AcDbEntity
  8
レイヤー_1
 62
     7
 92
        0
100
AcDbRasterImage
 90
        0
 10
172.155556
 20
28.574682
 30
0.0
 11
0.352531
 21
0.0
 31
0.0
 12
0.0
 22
0.352813
 32
0.0
 13
70.0
 23
9.0
340
4C7
 70
     7
280
     0
281
    50
282
    50
283
     0
360
4C6
 71
     1
 91
        2
 14
-0.5
 24
-0.5
 14
69.5
 24
8.5
  0
MTEXT
  5
4C4
100
AcDbEntity
  8
レイヤー_1
 62
     7
100
AcDbMText
 10
113.418056
 20
46.024901
 30
0.0
 40
1.574901
 41
0.0
 71
     1
 72
     2
  1
\fOsaka|b0|i0|c128;\H1.5749;\C7;\U+4ED5\U+4E0A
  7
STD
210
0.0
220
0.0
230
1.0
 73
     1
 44
1.0
  0
MTEXT
  5
4C3
100
AcDbEntity
  8
レイヤー_1
 62
     7
100
AcDbMText
 10
124.765511
 20
40.968164
 30
0.0
 40
1.162842
 41
0.0
 71
     1
 72
     2
  1
\fOsaka|b0|i0|c128;\H1.1628;\W2.71;\C7;
  7
STD
210
0.0
220
0.0
230
1.0
 73
     1
 44
1.0
  0
HATCH
  5
4C2
100
AcDbEntity
  8
レイヤー_1
 62
     7
100
AcDbHatch
 10
0.0
 20
0.0
 30
0.0
210
0.0
220
0.0
230
1.0
  2
SOLID
 70
     1
 71
     0
 91
        1
 92
        1
 93
        1
 72
     4
 94
        3
 73
     0
 74
     0
 95
       17
 96
       13
 40
0.0
 40
0.0
 40
0.0
 40
0.0
 40
1.0
 40
1.0
 40
1.0
 40
2.0
 40
2.0
 40
2.0
 40
3.0
 40
3.0
 40
3.0
 40
4.0
 40
4.0
 40
4.0
 40
4.0
 10
58.155967881944441
 20
40.211154513888886
 10
58.155967881944441
 20
40.016162109374996
 10
57.998010253906244
 20
39.858376736111104
 10
57.80319010416666
 20
39.858376736111104
 10
57.608369954427076
 20
39.858376736111104
 10
57.450412326388886
 20
40.016162109374996
 10
57.450412326388886
 20
40.211154513888886
 10
57.450412326388886
 20
40.406146918402776
 10
57.608369954427076
 20
40.56393229166666
 10
57.80319010416666
 20
40.56393229166666
 10
57.998010253906244
 20
40.56393229166666
 10
58.155967881944441
 20
40.406146918402776
 10
58.155967881944441
 20
40.211154513888886
 97
        0
 75
     2
 76
     1
 98
        1
 10
0.0
 20
0.0
  0
MTEXT
  5
4C0
100
AcDbEntity
  8
レイヤー_2
  6
AI9-LType3
 62
     7
100
AcDbMText
 10
62.168987
 20
251.487664
 30
0.0
 40
5.512152
 41
0.0
 71
     1
 72
     2
  1
\fMS Gothic|b0|i0|c128;\H5.5122;\C7;\U+0031\U+0038\U+0030
  7
STD
210
0.0
220
0.0
230
1.0
 73
     1
 44
1.0
  0
MTEXT
  5
4BF
100
AcDbEntity
  8
レイヤー_2
  6
AI9-LType3
 62
     7
100
AcDbMText
 10
134.194048
 20
251.487664
 30
0.0
 40
5.512152
 41
0.0
 71
     1
 72
     2
  1
\fMS Gothic|b0|i0|c128;\H5.5122;\C7;\U+0032\U+0033\U+0035
  7
STD
210
0.0
220
0.0
230
1.0
 73
     1
 44
1.0
  0
MTEXT
  5
4BE
100
AcDbEntity
  8
レイヤー_2
  6
AI9-LType3
 62
     7
100
AcDbMText
 10
180.544363
 20
192.168115
 30
0.0
 40
5.512152
 41
0.0
 71
     1
 72
     2
  1
\fMS Gothic|b0|i0|c128;\H5.5122;\C7;\U+0033\U+0037\U+0039
  7
STD
210
0.0
220
0.0
230
1.0
 11
0.0
 21
1.0
 31
0.0
 73
     1
 44
1.0
  0
MTEXT
  5
4BD
100
AcDbEntity
  8
レイヤー_2
  6
AI9-LType3
 62
     7
100
AcDbMText
 10
167.890528
 20
176.410593
 30
0.0
 40
5.512152
 41
0.0
 71
     1
 72
     2
  1
\fMS Gothic|b0|i0|c128;\H5.5122;\C7;\U+0032\U+0032\U+0030
  7
STD
210
0.0
220
0.0
230
1.0
 11
0.0
 21
1.0
 31
0.0
 73
     1
 44
1.0
  0
MTEXT
  5
4BC
100
AcDbEntity
  8
レイヤー_2
  6
AI9-LType3
 62
     7
100
AcDbMText
 10
35.852248
 20
167.739632
 30
0.0
 40
5.512152
 41
0.0
 71
     1
 72
     2
  1
\fMS Gothic|b0|i0|c128;\H5.5122;\C7;\U+0031\U+0031\U+0037
  7
STD
210
0.0
220
0.0
230
1.0
 11
0.0
 21
1.0
 31
0.0
 73
     1
 44
1.0
  0
MTEXT
  5
4BB
100
AcDbEntity
  8
レイヤー_2
  6
AI9-LType3
 62
     7
100
AcDbMText
 10
35.852248
 20
124.887123
 30
0.0
 40
5.512152
 41
0.0
 71
     1
 72
     2
  1
\fMS Gothic|b0|i0|c128;\H5.5122;\C7;\U+006D\U+0061\U+0078\U+002E\U+0036\U+0035
  7
STD
210
0.0
220
0.0
230
1.0
 11
0.0
 21
1.0
 31
0.0
 73
     1
 44
1.0
  0
MTEXT
  5
4BA
100
AcDbEntity
  8
レイヤー_2
  6
AI9-LType3
 62
     7
100
AcDbMText
 10
123.459475
 20
158.399117
 30
0.0
 40
5.512152
 41
0.0
 71
     1
 72
     2
  1
\fMS Gothic|b0|i0|c128;\H5.5122;\C7;\U+03C6\U+0035\U+0039
  7
STD
210
0.0
220
0.0
230
1.0
 73
     1
 44
1.0
  0
INSERT
  5
468
100
AcDbEntity
  8
レイヤー_2
  6
AI9-LType3
 62
     7
100
AcDbBlockReference
  2
AI9-BLK5
 10
79.4197
 20
124.987375
 30
0.0
  0
INSERT
  5
414
100
AcDbEntity
  8
レイヤー_2
 62
     7
100
AcDbBlockReference
  2
AI9-BLK2
 10
56.317062
 20
124.987375
 30
0.0
  0
INSERT
  5
40E
100
AcDbEntity
  8
レイヤー_2
 62
     7
100
AcDbBlockReference
  2
AI9-BLK1
 10
68.295573
 20
102.392372
 30
0.0
  0
POLYLINE
  5
3F2
100
AcDbEntity
  8
レイヤー_2
 62
     7
100
AcDb2dPolyline
 66
     1
 10
0.0
 20
0.0
 30
0.0
  0
VERTEX
  5
3F3
100
AcDbEntity
  8
レイヤー_2
 62
     7
100
AcDbVertex
100
AcDb2dVertex
 10
63.471406
 20
174.847553
 30
0.0
  0
VERTEX
  5
3F4
100
AcDbEntity
  8
レイヤー_2
 62
     7
100
AcDbVertex
100
AcDb2dVertex
 10
63.491904
 20
174.774862
 30
0.0
  0
VERTEX
  5
3F5
100
AcDbEntity
  8
レイヤー_2
 62
     7
100
AcDbVertex
100
AcDb2dVertex
 10
63.523254
 20
174.665308
 30
0.0
  0
VERTEX
  5
3F6
100
AcDbEntity
  8
レイヤー_2
 62
     7
100
AcDbVertex
100
AcDb2dVertex
 10
63.564079
 20
174.521303
 30
0.0
  0
VERTEX
  5
3F7
100
AcDbEntity
  8
レイヤー_2
 62
     7
100
AcDbVertex
100
AcDb2dVertex
 10
63.647795
 20
174.219512
 30
0.0
  0
VERTEX
  5
3F8
100
AcDbEntity
  8
レイヤー_2
 62
     7
100
AcDbVertex
100
AcDb2dVertex
 10
63.743741
 20
173.874658
 30
0.0
  0
VERTEX
  5
3F9
100
AcDbEntity
  8
レイヤー_2
 62
     7
100
AcDbVertex
100
AcDb2dVertex
 10
63.933738
 20
173.172892
 30
0.0
  0
VERTEX
  5
3FA
100
AcDbEntity
  8
レイヤー_2
 62
     7
100
AcDbVertex
100
AcDb2dVertex
 10
64.129936
 20
172.421172
 30
0.0
  0
VERTEX
  5
3FB
100
AcDbEntity
  8
レイヤー_2
 62
     7
100
AcDbVertex
100
AcDb2dVertex
 10
64.322344
 20
171.644303
 30
0.0
  0
VERTEX
  5
3FC
100
AcDbEntity
  8
レイヤー_2
 62
     7
100
AcDbVertex
100
AcDb2dVertex
 10
64.562295
 20
170.591482
 30
0.0
  0
VERTEX
  5
3FD
100
AcDbEntity
  8
レイヤー_2
 62
     7
100
AcDbVertex
100
AcDb2dVertex
 10
64.767967
 20
169.512478
 30
0.0
  0
VERTEX
  5
3FE
100
AcDbEntity
  8
レイヤー_2
 62
     7
100
AcDbVertex
100
AcDb2dVertex
 10
64.909905
 20
168.414182
 30
0.0
  0
VERTEX
  5
3FF
100
AcDbEntity
  8
レイヤー_2
 62
     7
100
AcDbVertex
100
AcDb2dVertex
 10
64.94849
 20
167.773739
 30
0.0
  0
VERTEX
  5
400
100
AcDbEntity
  8
レイヤー_2
 62
     7
100
AcDbVertex
100
AcDb2dVertex
 10
64.936949
 20
167.132951
 30
0.0
  0
VERTEX
  5
401
100
AcDbEntity
  8
レイヤー_2
 62
     7
100
AcDbVertex
100
AcDb2dVertex
 10
64.853578
 20
166.489752
 30
0.0
  0
VERTEX
  5
402
100
AcDbEntity
  8
レイヤー_2
 62
     7
100
AcDbVertex
100
AcDb2dVertex
 10
64.686146
 20
165.880659
 30
0.0
  0
VERTEX
  5
403
100
AcDbEntity
  8
レイヤー_2
 62
     7
100
AcDbVertex
100
AcDb2dVertex
 10
64.519921
 20
165.497564
 30
0.0
  0
VERTEX
  5
404
100
AcDbEntity
  8
レイヤー_2
 62
     7
100
AcDbVertex
100
AcDb2dVertex
 10
64.326995
 20
165.158567
 30
0.0
  0
VERTEX
  5
405
100
AcDbEntity
  8
レイヤー_2
 62
     7
100
AcDbVertex
100
AcDb2dVertex
 10
64.125457
 20
164.871246
 30
0.0
  0
VERTEX
  5
406
100
AcDbEntity
  8
レイヤー_2
 62
     7
100
AcDbVertex
100
AcDb2dVertex
 10
63.930637
 20
164.635601
 30
0.0
  0
VERTEX
  5
407
100
AcDbEntity
  8
レイヤー_2
 62
     7
100
AcDbVertex
100
AcDb2dVertex
 10
63.750631
 20
164.441642
 30
0.0
  0
VERTEX
  5
408
100
AcDbEntity
  8
レイヤー_2
 62
     7
100
AcDbVertex
100
AcDb2dVertex
 10
63.607831
 20
164.301427
 30
0.0
  0
VERTEX
  5
409
100
AcDbEntity
  8
レイヤー_2
 62
     7
100
AcDbVertex
100
AcDb2dVertex
 10
63.510335
 20
164.210476
 30
0.0
  0
VERTEX
  5
40A
100
AcDbEntity
  8
レイヤー_2
 62
     7
100
AcDbVertex
100
AcDb2dVertex
 10
63.471406
 20
164.175336
 30
0.0
  0
VERTEX
  5
40B
100
AcDbEntity
  8
レイヤー_2
 62
     7
100
AcDbVertex
100
AcDb2dVertex
 10
63.474506
 20
164.178092
 30
0.0
  0
SEQEND
  5
40C
100
AcDbEntity
  8
レイヤー_2
 62
     7
  0
POLYLINE
  5
3DA
100
AcDbEntity
  8
レイヤー_2
 62
     7
100
AcDb2dPolyline
 66
     1
 10
0.0
 20
0.0
 30
0.0
  0
VERTEX
  5
3DB
100
AcDbEntity
  8
レイヤー_2
 62
     7
100
AcDbVertex
100
AcDb2dVertex
 10
71.528278
 20
164.178092
 30
0.0
  0
VERTEX
  5
3DC
100
AcDbEntity
  8
レイヤー_2
 62
     7
100
AcDbVertex
100
AcDb2dVertex
 10
71.506057
 20
164.198419
 30
0.0
  0
VERTEX
  5
3DD
100
AcDbEntity
  8
レイヤー_2
 62
     7
100
AcDbVertex
100
AcDb2dVertex
 10
71.419413
 20
164.278689
 30
0.0
  0
VERTEX
  5
3DE
100
AcDbEntity
  8
レイヤー_2
 62
     7
100
AcDbVertex
100
AcDb2dVertex
 10
71.276614
 20
164.417871
 30
0.0
  0
VERTEX
  5
3DF
100
AcDbEntity
  8
レイヤー_2
 62
     7
100
AcDbVertex
100
AcDb2dVertex
 10
71.089545
 20
164.616653
 30
0.0
  0
VERTEX
  5
3E0
100
AcDbEntity
  8
レイヤー_2
 62
     7
100
AcDbVertex
100
AcDb2dVertex
 10
70.871815
 20
164.879514
 30
0.0
  0
VERTEX
  5
3E1
100
AcDbEntity
  8
レイヤー_2
 62
     7
100
AcDbVertex
100
AcDb2dVertex
 10
70.6453
 20
165.207142
 30
0.0
  0
VERTEX
  5
3E2
100
AcDbEntity
  8
レイヤー_2
 62
     7
100
AcDbVertex
100
AcDb2dVertex
 10
70.445657
 20
165.575423
 30
0.0
  0
VERTEX
  5
3E3
100
AcDbEntity
  8
レイヤー_2
 62
     7
100
AcDbVertex
100
AcDb2dVertex
 10
70.278742
 20
165.991246
 30
0.0
  0
VERTEX
  5
3E4
100
AcDbEntity
  8
レイヤー_2
 62
     7
100
AcDbVertex
100
AcDb2dVertex
 10
70.164882
 20
166.411203
 30
0.0
  0
VERTEX
  5
3E5
100
AcDbEntity
  8
レイヤー_2
 62
     7
100
AcDbVertex
100
AcDb2dVertex
 10
70.09219
 20
166.848386
 30
0.0
  0
VERTEX
  5
3E6
100
AcDbEntity
  8
レイヤー_2
 62
     7
100
AcDbVertex
100
AcDb2dVertex
 10
70.053261
 20
167.713105
 30
0.0
  0
VERTEX
  5
3E7
100
AcDbEntity
  8
レイヤー_2
 62
     7
100
AcDbVertex
100
AcDb2dVertex
 10
70.108899
 20
168.578857
 30
0.0
  0
VERTEX
  5
3E8
100
AcDbEntity
  8
レイヤー_2
 62
     7
100
AcDbVertex
100
AcDb2dVertex
 10
70.299585
 20
169.887305
 30
0.0
  0
VERTEX
  5
3E9
100
AcDbEntity
  8
レイヤー_2
 62
     7
100
AcDbVertex
100
AcDb2dVertex
 10
70.565891
 20
171.167502
 30
0.0
  0
VERTEX
  5
3EA
100
AcDbEntity
  8
レイヤー_2
 62
     7
100
AcDbVertex
100
AcDb2dVertex
 10
70.868198
 20
172.402224
 30
0.0
  0
VERTEX
  5
3EB
100
AcDbEntity
  8
レイヤー_2
 62
     7
100
AcDbVertex
100
AcDb2dVertex
 10
71.127097
 20
173.387522
 30
0.0
  0
VERTEX
  5
3EC
100
AcDbEntity
  8
レイヤー_2
 62
     7
100
AcDbVertex
100
AcDb2dVertex
 10
71.267657
 20
173.903597
 30
0.0
  0
VERTEX
  5
3ED
100
AcDbEntity
  8
レイヤー_2
 62
     7
100
AcDbVertex
100
AcDb2dVertex
 10
71.395814
 20
174.366273
 30
0.0
  0
VERTEX
  5
3EE
100
AcDbEntity
  8
レイヤー_2
 62
     7
100
AcDbVertex
100
AcDb2dVertex
 10
71.482286
 20
174.672198
 30
0.0
  0
VERTEX
  5
3EF
100
AcDbEntity
  8
レイヤー_2
 62
     7
100
AcDbVertex
100
AcDb2dVertex
 10
71.525522
 20
174.825505
 30
0.0
  0
VERTEX
  5
3F0
100
AcDbEntity
  8
レイヤー_2
 62
     7
100
AcDbVertex
100
AcDb2dVertex
 10
71.531379
 20
174.847553
 30
0.0
  0
SEQEND
  5
3F1
100
AcDbEntity
  8
レイヤー_2
 62
     7
  0
LINE
  5
3D9
100
AcDbEntity
  8
レイヤー_2
 62
     7
100
AcDbLine
 10
55.469138
 20
176.708249
 30
0.0
 11
55.469138
 21
177.233626
 31
0.0
  0
LINE
  5
3D8
100
AcDbEntity
  8
レイヤー_2
 62
     7
100
AcDbLine
 10
57.454202
 20
178.362929
 30
0.0
 11
57.009268
 21
178.362929
 31
0.0
  0
LINE
  5
3D7
100
AcDbEntity
  8
レイヤー_2
 62
     7
100
AcDbLine
 10
79.59807
 20
176.693435
 30
0.0
 11
79.59807
 21
177.26601
 31
0.0
  0
LINE
  5
3D6
100
AcDbEntity
  8
レイヤー_2
 62
     7
100
AcDbLine
 10
77.574076
 20
178.434931
 30
0.0
 11
78.133732
 21
178.434931
 31
0.0
  0
SPLINE
  5
3D5
100
AcDbEntity
  8
レイヤー_2
 62
     7
100
AcDbSpline
210
0.0
220
0.0
230
1.0
 70
     8
 71
     3
 72
     8
 73
     4
 74
     0
 42
0.00000001
 43
0.00000001
 40
0.0
 40
0.0
 40
0.0
 40
0.0
 40
1.0
 40
1.0
 40
1.0
 40
1.0
 10
65.045814344618051
 20
134.57645399305554
 30
0.0
 10
65.631997341579861
 20
134.71666937934026
 30
0.0
 10
66.308269585503467
 20
134.78419325086804
 30
0.0
 10
67.048103841145831
 20
134.69737684461805
 30
0.0
  0
SPLINE
  5
3D4
100
AcDbEntity
  8
レイヤー_2
 62
     7
100
AcDbSpline
210
0.0
220
0.0
230
1.0
 70
     8
 71
     3
 72
    11
 73
     7
 74
     0
 42
0.00000001
 43
0.00000001
 40
0.0
 40
0.0
 40
0.0
 40
0.0
 40
1.0
 40
1.0
 40
1.0
 40
2.0
 40
2.0
 40
2.0
 40
2.0
 10
68.04821506076388
 20
134.49032660590277
 30
0.0
 10
68.267323133680549
 20
134.42486979166665
 30
0.0
 10
68.490909830729166
 20
134.34528808593748
 30
0.0
 10
68.717597113715271
 20
134.24882541232637
 30
0.0
 10
69.21041802300347
 20
134.04039713541667
 30
0.0
 10
69.653974066840277
 20
133.89156901041665
 30
0.0
 10
70.053260633680551
 20
133.78959418402778
 30
0.0
  0
LINE
  5
3D3
100
AcDbEntity
  8
レイヤー_2
 62
     7
100
AcDbLine
 10
67.048793
 20
146.545749
 30
0.0
 11
67.349033
 21
146.026229
 31
0.0
  0
LINE
  5
3D2
100
AcDbEntity
  8
レイヤー_2
 62
     7
100
AcDbLine
 10
69.348739
 20
146.026229
 30
0.0
 11
69.648634
 21
146.545749
 31
0.0
  0
LINE
  5
3D1
100
AcDbEntity
  8
レイヤー_2
 62
     7
100
AcDbLine
 10
69.648634
 20
146.838238
 30
0.0
 11
69.265367
 21
146.905762
 31
0.0
  0
LINE
  5
3D0
100
AcDbEntity
  8
レイヤー_2
 62
     7
100
AcDbLine
 10
67.431371
 20
146.905762
 30
0.0
 11
67.048793
 21
146.838238
 31
0.0
  0
LINE
  5
3CF
100
AcDbEntity
  8
レイヤー_2
 62
     7
100
AcDbLine
 10
69.648634
 20
146.545749
 30
0.0
 11
69.648634
 21
146.838238
 31
0.0
  0
LINE
  5
3CE
100
AcDbEntity
  8
レイヤー_2
 62
     7
100
AcDbLine
 10
67.048793
 20
146.838238
 30
0.0
 11
67.048793
 21
146.545749
 31
0.0
  0
LINE
  5
3CD
100
AcDbEntity
  8
レイヤー_2
 62
     7
100
AcDbLine
 10
69.348739
 20
141.345722
 30
0.0
 11
69.348739
 21
146.026229
 31
0.0
  0
LINE
  5
3CC
100
AcDbEntity
  8
レイヤー_2
 62
     7
100
AcDbLine
 10
67.349033
 20
146.026229
 30
0.0
 11
67.349033
 21
141.345722
 31
0.0
  0
LINE
  5
3CB
100
AcDbEntity
  8
レイヤー_2
 62
     7
100
AcDbLine
 10
69.708407
 20
141.310927
 30
0.0
 11
69.648634
 21
141.345722
 31
0.0
  0
LINE
  5
3CA
100
AcDbEntity
  8
レイヤー_2
 62
     7
100
AcDbLine
 10
69.648634
 20
138.945869
 30
0.0
 11
69.708407
 21
138.980664
 31
0.0
  0
LINE
  5
3C9
100
AcDbEntity
  8
レイヤー_2
 62
     7
100
AcDbLine
 10
67.048793
 20
141.345722
 30
0.0
 11
66.988504
 21
141.310927
 31
0.0
  0
LINE
  5
3C8
100
AcDbEntity
  8
レイヤー_2
 62
     7
100
AcDbLine
 10
66.988504
 20
138.980664
 30
0.0
 11
67.048793
 21
138.945869
 31
0.0
  0
SPLINE
  5
3C7
100
AcDbEntity
  8
レイヤー_2
 62
     7
100
AcDbSpline
210
0.0
220
0.0
230
1.0
 70
     8
 71
     3
 72
     8
 73
     4
 74
     0
 42
0.00000001
 43
0.00000001
 40
0.0
 40
0.0
 40
0.0
 40
0.0
 40
1.0
 40
1.0
 40
1.0
 40
1.0
 10
72.902182345920139
 20
148.20594075520833
 30
0.0
 10
72.902182345920139
 20
148.26071777343748
 30
0.0
 10
72.857568359374994
 20
148.30584852430553
 30
0.0
 10
72.802446831597209
 20
148.30584852430553
 30
0.0
  0
SPLINE
  5
3C6
100
AcDbEntity
  8
レイヤー_2
 62
     7
100
AcDbSpline
210
0.0
220
0.0
230
1.0
 70
     8
 71
     3
 72
     8
 73
     4
 74
     0
 42
0.00000001
 43
0.00000001
 40
0.0
 40
0.0
 40
0.0
 40
0.0
 40
1.0
 40
1.0
 40
1.0
 40
1.0
 10
72.802446831597209
 20
146.90576171875
 30
0.0
 10
72.857568359374994
 20
146.90576171875
 30
0.0
 10
72.902182345920139
 20
146.95054796006943
 30
0.0
 10
72.902182345920139
 20
147.0056694878472
 30
0.0
  0
LINE
  5
3C5
100
AcDbEntity
  8
レイヤー_2
 62
     7
100
AcDbLine
 10
72.902182
 20
147.005669
 30
0.0
 11
72.902182
 21
148.205941
 31
0.0
  0
LINE
  5
3C4
100
AcDbEntity
  8
レイヤー_2
 62
     7
100
AcDbLine
 10
62.586188
 20
148.205941
 30
0.0
 11
62.586188
 21
147.005669
 31
0.0
  0
SPLINE
  5
3C3
100
AcDbEntity
  8
レイヤー_2
 62
     7
100
AcDbSpline
210
0.0
220
0.0
230
1.0
 70
     8
 71
     3
 72
     8
 73
     4
 74
     0
 42
0.00000001
 43
0.00000001
 40
0.0
 40
0.0
 40
0.0
 40
0.0
 40
1.0
 40
1.0
 40
1.0
 40
1.0
 10
62.586188422309021
 20
147.0056694878472
 30
0.0
 10
62.586188422309021
 20
146.95054796006943
 30
0.0
 10
62.63114691840277
 20
146.90576171875
 30
0.0
 10
62.68661295572916
 20
146.90576171875
 30
0.0
  0
SPLINE
  5
3C2
100
AcDbEntity
  8
レイヤー_2
 62
     7
100
AcDbSpline
210
0.0
220
0.0
230
1.0
 70
     8
 71
     3
 72
     8
 73
     4
 74
     0
 42
0.00000001
 43
0.00000001
 40
0.0
 40
0.0
 40
0.0
 40
0.0
 40
1.0
 40
1.0
 40
1.0
 40
1.0
 10
62.68661295572916
 20
148.30584852430553
 30
0.0
 10
62.63114691840277
 20
148.30584852430553
 30
0.0
 10
62.586188422309021
 20
148.26071777343748
 30
0.0
 10
62.586188422309021
 20
148.20594075520833
 30
0.0
  0
LINE
  5
3C1
100
AcDbEntity
  8
レイヤー_2
 62
     7
100
AcDbLine
 10
67.148701
 20
159.375974
 30
0.0
 11
67.148701
 21
159.362882
 31
0.0
  0
LINE
  5
3C0
100
AcDbEntity
  8
レイヤー_2
 62
     7
100
AcDbLine
 10
67.148701
 20
158.675586
 30
0.0
 11
67.148701
 21
156.875868
 31
0.0
  0
LINE
  5
3BF
100
AcDbEntity
  8
レイヤー_2
 62
     7
100
AcDbLine
 10
67.148701
 20
155.775505
 30
0.0
 11
67.148701
 21
148.606261
 31
0.0
  0
LINE
  5
3BE
100
AcDbEntity
  8
レイヤー_2
 62
     7
100
AcDbLine
 10
67.148701
 20
146.905762
 30
0.0
 11
67.148701
 21
146.855808
 31
0.0
  0
SPLINE
  5
3BD
100
AcDbEntity
  8
レイヤー_2
 62
     7
100
AcDbSpline
210
0.0
220
0.0
230
1.0
 70
     8
 71
     3
 72
     8
 73
     4
 74
     0
 42
0.00000001
 43
0.00000001
 40
0.0
 40
0.0
 40
0.0
 40
0.0
 40
1.0
 40
1.0
 40
1.0
 40
1.0
 10
70.248080783420136
 20
156.51516655815971
 30
0.0
 10
70.248080783420136
 20
156.6481472439236
 30
0.0
 10
70.21087375217013
 20
156.7725151909722
 30
0.0
 10
70.148689778645831
 20
156.87586805555554
 30
0.0
  0
LINE
  5
3BC
100
AcDbEntity
  8
レイヤー_2
 62
     7
100
AcDbLine
 10
70.248081
 20
155.775505
 30
0.0
 11
70.248081
 21
156.515167
 31
0.0
  0
SPLINE
  5
3BB
100
AcDbEntity
  8
レイヤー_2
 62
     7
100
AcDbSpline
210
0.0
220
0.0
230
1.0
 70
     8
 71
     3
 72
     8
 73
     4
 74
     0
 42
0.00000001
 43
0.00000001
 40
0.0
 40
0.0
 40
0.0
 40
0.0
 40
1.0
 40
1.0
 40
1.0
 40
1.0
 10
70.248080783420136
 20
159.03663194444442
 30
0.0
 10
70.248080783420136
 20
159.13757324218747
 30
0.0
 10
70.227237955729166
 20
159.23369140624999
 30
0.0
 10
70.190719943576383
 20
159.31568467881942
 30
0.0
  0
SPLINE
  5
3BA
100
AcDbEntity
  8
レイヤー_2
 62
     7
100
AcDbSpline
210
0.0
220
0.0
230
1.0
 70
     8
 71
     3
 72
     8
 73
     4
 74
     0
 42
0.00000001
 43
0.00000001
 40
0.0
 40
0.0
 40
0.0
 40
0.0
 40
1.0
 40
1.0
 40
1.0
 40
1.0
 10
70.148689778645831
 20
158.67558593749999
 30
0.0
 10
70.216902669270823
 20
158.78996310763887
 30
0.0
 10
70.249458821614581
 20
158.91570909288194
 30
0.0
 10
70.248080783420136
 20
159.03663194444442
 30
0.0
  0
SPLINE
  5
3B9
100
AcDbEntity
  8
レイヤー_2
 62
     7
100
AcDbSpline
210
0.0
220
0.0
230
1.0
 70
     8
 71
     3
 72
     8
 73
     4
 74
     0
 42
0.00000001
 43
0.00000001
 40
0.0
 40
0.0
 40
0.0
 40
0.0
 40
1.0
 40
1.0
 40
1.0
 40
1.0
 10
70.190719943576383
 20
159.31568467881942
 30
0.0
 10
70.173666720920139
 20
159.35289171006943
 30
0.0
 10
70.137837727864579
 20
159.37562934027775
 30
0.0
 10
70.098391384548606
 20
159.37597384982638
 30
0.0
  0
LINE
  5
3B8
100
AcDbEntity
  8
レイヤー_2
 62
     7
100
AcDbLine
 10
70.14869
 20
159.375974
 30
0.0
 11
70.14869
 21
160.415704
 31
0.0
  0
LINE
  5
3B7
100
AcDbEntity
  8
レイヤー_2
 62
     7
100
AcDbLine
 10
70.048265
 20
133.789939
 30
0.0
 11
70.048265
 21
146.905762
 31
0.0
  0
LINE
  5
3B6
100
AcDbEntity
  8
レイヤー_2
 62
     7
100
AcDbLine
 10
70.048265
 20
148.606261
 30
0.0
 11
70.048265
 21
155.775505
 31
0.0
  0
LINE
  5
3B5
100
AcDbEntity
  8
レイヤー_2
 62
     7
100
AcDbLine
 10
68.04856
 20
143.936089
 30
0.0
 11
68.04856
 21
134.489982
 31
0.0
  0
LINE
  5
3B4
100
AcDbEntity
  8
レイヤー_2
 62
     7
100
AcDbLine
 10
67.248436
 20
155.775505
 30
0.0
 11
67.248436
 21
156.515167
 31
0.0
  0
LINE
  5
3B3
100
AcDbEntity
  8
レイヤー_2
 62
     7
100
AcDbLine
 10
64.84841
 20
156.515167
 30
0.0
 11
64.84841
 21
155.775505
 31
0.0
  0
SPLINE
  5
3B2
100
AcDbEntity
  8
レイヤー_2
 62
     7
100
AcDbSpline
210
0.0
220
0.0
230
1.0
 70
     8
 71
     3
 72
     8
 73
     4
 74
     0
 42
0.00000001
 43
0.00000001
 40
0.0
 40
0.0
 40
0.0
 40
0.0
 40
1.0
 40
1.0
 40
1.0
 40
1.0
 10
67.248436143663184
 20
156.51516655815971
 30
0.0
 10
67.248436143663184
 20
156.6481472439236
 30
0.0
 10
67.211229112413193
 20
156.7725151909722
 30
0.0
 10
67.148700629340269
 20
156.87586805555554
 30
0.0
  0
SPLINE
  5
3B1
100
AcDbEntity
  8
レイヤー_2
 62
     7
100
AcDbSpline
210
0.0
220
0.0
230
1.0
 70
     8
 71
     3
 72
     8
 73
     4
 74
     0
 42
0.00000001
 43
0.00000001
 40
0.0
 40
0.0
 40
0.0
 40
0.0
 40
1.0
 40
1.0
 40
1.0
 40
1.0
 10
64.948490397135416
 20
156.87586805555554
 30
0.0
 10
64.880105251736111
 20
156.76183539496526
 30
0.0
 10
64.847549099392353
 20
156.63608940972222
 30
0.0
 10
64.848410373263889
 20
156.51516655815971
 30
0.0
  0
SPLINE
  5
3B0
100
AcDbEntity
  8
レイヤー_2
 62
     7
100
AcDbSpline
210
0.0
220
0.0
230
1.0
 70
     8
 71
     3
 72
     8
 73
     4
 74
     0
 42
0.00000001
 43
0.00000001
 40
0.0
 40
0.0
 40
0.0
 40
0.0
 40
1.0
 40
1.0
 40
1.0
 40
1.0
 10
67.248436143663184
 20
159.03663194444442
 30
0.0
 10
67.248436143663184
 20
159.13757324218747
 30
0.0
 10
67.227421061197916
 20
159.23369140624999
 30
0.0
 10
67.190041775173611
 20
159.31568467881942
 30
0.0
  0
SPLINE
  5
3AF
100
AcDbEntity
  8
レイヤー_2
 62
     7
100
AcDbSpline
210
0.0
220
0.0
230
1.0
 70
     8
 71
     3
 72
     8
 73
     4
 74
     0
 42
0.00000001
 43
0.00000001
 40
0.0
 40
0.0
 40
0.0
 40
0.0
 40
1.0
 40
1.0
 40
1.0
 40
1.0
 10
67.148700629340269
 20
158.67558593749999
 30
0.0
 10
67.217258029513886
 20
158.78996310763887
 30
0.0
 10
67.24929741753472
 20
158.91570909288194
 30
0.0
 10
67.248436143663184
 20
159.03663194444442
 30
0.0
  0
SPLINE
  5
3AE
100
AcDbEntity
  8
レイヤー_2
 62
     7
100
AcDbSpline
210
0.0
220
0.0
230
1.0
 70
     8
 71
     3
 72
     8
 73
     4
 74
     0
 42
0.00000001
 43
0.00000001
 40
0.0
 40
0.0
 40
0.0
 40
0.0
 40
1.0
 40
1.0
 40
1.0
 40
1.0
 10
64.906632486979163
 20
159.31568467881942
 30
0.0
 10
64.81344265407985
 20
159.10105523003472
 30
0.0
 10
64.836008029513877
 20
158.86472167968748
 30
0.0
 10
64.948490397135416
 20
158.67558593749999
 30
0.0
  0
SPLINE
  5
3AD
100
AcDbEntity
  8
レイヤー_2
 62
     7
100
AcDbSpline
210
0.0
220
0.0
230
1.0
 70
     8
 71
     3
 72
     8
 73
     4
 74
     0
 42
0.00000001
 43
0.00000001
 40
0.0
 40
0.0
 40
0.0
 40
0.0
 40
1.0
 40
1.0
 40
1.0
 40
1.0
 10
67.190041775173611
 20
159.31568467881942
 30
0.0
 10
67.174538845486111
 20
159.35289171006943
 30
0.0
 10
67.137676323784717
 20
159.37562934027775
 30
0.0
 10
67.098746744791654
 20
159.37597384982638
 30
0.0
  0
SPLINE
  5
3AC
100
AcDbEntity
  8
レイヤー_2
 62
     7
100
AcDbSpline
210
0.0
220
0.0
230
1.0
 70
     8
 71
     3
 72
     8
 73
     4
 74
     0
 42
0.00000001
 43
0.00000001
 40
0.0
 40
0.0
 40
0.0
 40
0.0
 40
1.0
 40
1.0
 40
1.0
 40
1.0
 10
64.998272026909717
 20
159.37597384982638
 30
0.0
 10
64.95779215494791
 20
159.37597384982638
 30
0.0
 10
64.922824435763886
 20
159.35116916232639
 30
0.0
 10
64.906632486979163
 20
159.31568467881942
 30
0.0
  0
LINE
  5
3AB
100
AcDbEntity
  8
レイヤー_2
 62
     7
100
AcDbLine
 10
67.148701
 20
159.375974
 30
0.0
 11
67.148701
 21
160.415704
 31
0.0
  0
LINE
  5
3AA
100
AcDbEntity
  8
レイヤー_2
 62
     7
100
AcDbLine
 10
64.94849
 20
160.415704
 30
0.0
 11
64.94849
 21
159.375974
 31
0.0
  0
LINE
  5
3A9
100
AcDbEntity
  8
レイヤー_2
 62
     7
100
AcDbLine
 10
67.048793
 20
134.697377
 30
0.0
 11
67.048793
 21
138.967228
 31
0.0
  0
LINE
  5
3A8
100
AcDbEntity
  8
レイヤー_2
 62
     7
100
AcDbLine
 10
67.048793
 20
141.324363
 30
0.0
 11
67.048793
 21
143.936089
 31
0.0
  0
LINE
  5
3A7
100
AcDbEntity
  8
レイヤー_2
 62
     7
100
AcDbLine
 10
67.048793
 20
141.345722
 30
0.0
 11
67.048793
 21
146.545749
 31
0.0
  0
LINE
  5
3A6
100
AcDbEntity
  8
レイヤー_2
 62
     7
100
AcDbLine
 10
67.048793
 20
146.838238
 30
0.0
 11
67.048793
 21
146.905762
 31
0.0
  0
LINE
  5
3A5
100
AcDbEntity
  8
レイヤー_2
 62
     7
100
AcDbLine
 10
67.048793
 20
148.606261
 30
0.0
 11
67.048793
 21
155.775505
 31
0.0
  0
LINE
  5
3A4
100
AcDbEntity
  8
レイヤー_2
 62
     7
100
AcDbLine
 10
65.048226
 20
155.775505
 30
0.0
 11
65.048226
 21
148.606261
 31
0.0
  0
LINE
  5
3A3
100
AcDbEntity
  8
レイヤー_2
 62
     7
100
AcDbLine
 10
65.048226
 20
146.905762
 30
0.0
 11
65.048226
 21
134.577143
 31
0.0
  0
LINE
  5
3A2
100
AcDbEntity
  8
レイヤー_2
 62
     7
100
AcDbLine
 10
69.148406
 20
148.606261
 30
0.0
 11
69.148406
 21
160.415704
 31
0.0
  0
LINE
  5
3A1
100
AcDbEntity
  8
レイヤー_2
 62
     7
100
AcDbLine
 10
67.548332
 20
160.415704
 30
0.0
 11
67.548332
 21
153.595448
 31
0.0
  0
LINE
  5
3A0
100
AcDbEntity
  8
レイヤー_2
 62
     7
100
AcDbLine
 10
78.80966
 20
174.005227
 30
0.0
 11
79.170361
 21
174.434486
 31
0.0
  0
LINE
  5
39F
100
AcDbEntity
  8
レイヤー_2
 62
     7
100
AcDbLine
 10
75.416585
 20
177.583648
 30
0.0
 11
75.056401
 21
177.154734
 31
0.0
  0
LINE
  5
39E
100
AcDbEntity
  8
レイヤー_2
 62
     7
100
AcDbLine
 10
60.04078
 20
177.154734
 30
0.0
 11
59.680423
 21
177.583648
 31
0.0
  0
LINE
  5
39D
100
AcDbEntity
  8
レイヤー_2
 62
     7
100
AcDbLine
 10
55.927336
 20
174.434486
 30
0.0
 11
56.286659
 21
174.005227
 31
0.0
  0
LINE
  5
39C
100
AcDbEntity
  8
レイヤー_2
 62
     7
100
AcDbLine
 10
77.461594
 20
178.271978
 30
0.0
 11
76.327813
 21
176.897385
 31
0.0
  0
LINE
  5
39B
100
AcDbEntity
  8
レイヤー_2
 62
     7
100
AcDbLine
 10
78.33527
 20
175.212389
 30
0.0
 11
79.492478
 21
176.567
 31
0.0
  0
SPLINE
  5
39A
100
AcDbEntity
  8
レイヤー_2
 62
     7
100
AcDbSpline
210
0.0
220
0.0
230
1.0
 70
     8
 71
     3
 72
     8
 73
     4
 74
     0
 42
0.00000001
 43
0.00000001
 40
0.0
 40
0.0
 40
0.0
 40
0.0
 40
1.0
 40
1.0
 40
1.0
 40
1.0
 10
78.250865342881937
 20
175.2051540798611
 30
0.0
 10
78.276359049479154
 20
175.18379448784719
 30
0.0
 10
78.313738335503459
 20
175.18723958333331
 30
0.0
 10
78.335270182291666
 20
175.21238878038193
 30
0.0
  0
SPLINE
  5
399
100
AcDbEntity
  8
レイヤー_2
 62
     7
100
AcDbSpline
210
0.0
220
0.0
230
1.0
 70
     8
 71
     3
 72
     8
 73
     4
 74
     0
 42
0.00000001
 43
0.00000001
 40
0.0
 40
0.0
 40
0.0
 40
0.0
 40
1.0
 40
1.0
 40
1.0
 40
1.0
 10
76.327813042534714
 20
176.89738498263887
 30
0.0
 10
76.30645345052082
 20
176.87189127604165
 30
0.0
 10
76.310070800781247
 20
176.83399522569442
 30
0.0
 10
76.335219997829853
 20
176.81298014322914
 30
0.0
  0
SPLINE
  5
398
100
AcDbEntity
  8
レイヤー_2
 62
     7
100
AcDbSpline
210
0.0
220
0.0
230
1.0
 70
     8
 71
     3
 72
     8
 73
     4
 74
     0
 42
0.00000001
 43
0.00000001
 40
0.0
 40
0.0
 40
0.0
 40
0.0
 40
1.0
 40
1.0
 40
1.0
 40
1.0
 10
83.818484157986106
 20
173.14429796006942
 30
0.0
 10
83.886352539062486
 20
173.08745388454861
 30
0.0
 10
83.986949327256937
 20
173.09641113281248
 30
0.0
 10
84.044137912326377
 20
173.16427951388889
 30
0.0
  0
SPLINE
  5
397
100
AcDbEntity
  8
レイヤー_2
 62
     7
100
AcDbSpline
210
0.0
220
0.0
230
1.0
 70
     8
 71
     3
 72
     8
 73
     4
 74
     0
 42
0.00000001
 43
0.00000001
 40
0.0
 40
0.0
 40
0.0
 40
0.0
 40
1.0
 40
1.0
 40
1.0
 40
1.0
 10
85.482809787326374
 20
174.93712565104164
 30
0.0
 10
85.482809787326374
 20
174.98604600694443
 30
0.0
 10
85.460588921440959
 20
175.02979871961804
 30
0.0
 10
85.425276692708323
 20
175.06011555989582
 30
0.0
  0
SPLINE
  5
396
100
AcDbEntity
  8
レイヤー_2
 62
     7
100
AcDbSpline
210
0.0
220
0.0
230
1.0
 70
     8
 71
     3
 72
     8
 73
     4
 74
     0
 42
0.00000001
 43
0.00000001
 40
0.0
 40
0.0
 40
0.0
 40
0.0
 40
1.0
 40
1.0
 40
1.0
 40
1.0
 10
85.445602756076383
 20
174.83411729600692
 30
0.0
 10
85.470407443576377
 20
174.86477864583333
 30
0.0
 10
85.483154296874986
 20
174.90060763888889
 30
0.0
 10
85.482809787326374
 20
174.93712565104164
 30
0.0
  0
LINE
  5
395
100
AcDbEntity
  8
レイヤー_2
 62
     7
100
AcDbLine
 10
79.716409
 20
176.586293
 30
0.0
 11
83.818484
 21
173.144298
 31
0.0
  0
LINE
  5
394
100
AcDbEntity
  8
レイヤー_2
 62
     7
100
AcDbLine
 10
85.425277
 20
175.060116
 30
0.0
 11
80.185631
 21
179.455713
 31
0.0
  0
LINE
  5
393
100
AcDbEntity
  8
レイヤー_2
 62
     7
100
AcDbLine
 10
73.339365
 20
181.93756
 30
0.0
 11
77.444541
 21
178.492809
 31
0.0
  0
LINE
  5
392
100
AcDbEntity
  8
レイヤー_2
 62
     7
100
AcDbLine
 10
80.185631
 20
179.455713
 30
0.0
 11
74.946157
 21
183.852688
 31
0.0
  0
SPLINE
  5
391
100
AcDbEntity
  8
レイヤー_2
 62
     7
100
AcDbSpline
210
0.0
220
0.0
230
1.0
 70
     8
 71
     3
 72
     8
 73
     4
 74
     0
 42
0.00000001
 43
0.00000001
 40
0.0
 40
0.0
 40
0.0
 40
0.0
 40
1.0
 40
1.0
 40
1.0
 40
1.0
 10
74.946157497829859
 20
183.85268825954859
 30
0.0
 10
74.878633626302076
 20
183.90953233506943
 30
0.0
 10
74.777520073784714
 20
183.90057508680553
 30
0.0
 10
74.720331488715274
 20
183.83305121527775
 30
0.0
  0
SPLINE
  5
390
100
AcDbEntity
  8
レイヤー_2
 62
     7
100
AcDbSpline
210
0.0
220
0.0
230
1.0
 70
     8
 71
     3
 72
     8
 73
     4
 74
     0
 42
0.00000001
 43
0.00000001
 40
0.0
 40
0.0
 40
0.0
 40
0.0
 40
1.0
 40
1.0
 40
1.0
 40
1.0
 10
73.319555664062491
 20
182.16355794270831
 30
0.0
 10
73.262367078993051
 20
182.09568956163193
 30
0.0
 10
73.271324327256934
 20
181.99474826388888
 30
0.0
 10
73.339364963107627
 20
181.93755967881944
 30
0.0
  0
SPLINE
  5
38F
100
AcDbEntity
  8
レイヤー_2
 62
     7
100
AcDbSpline
210
0.0
220
0.0
230
1.0
 70
     8
 71
     3
 72
     8
 73
     4
 74
     0
 42
0.00000001
 43
0.00000001
 40
0.0
 40
0.0
 40
0.0
 40
0.0
 40
1.0
 40
1.0
 40
1.0
 40
1.0
 10
77.500523546006931
 20
178.37360839843748
 30
0.0
 10
77.500523546006931
 20
178.4211507161458
 30
0.0
 10
77.478474934895829
 20
178.46421440972222
 30
0.0
 10
77.443162706163193
 20
178.49143066406248
 30
0.0
  0
SPLINE
  5
38E
100
AcDbEntity
  8
レイヤー_2
 62
     7
100
AcDbSpline
210
0.0
220
0.0
230
1.0
 70
     8
 71
     3
 72
     8
 73
     4
 74
     0
 42
0.00000001
 43
0.00000001
 40
0.0
 40
0.0
 40
0.0
 40
0.0
 40
1.0
 40
1.0
 40
1.0
 40
1.0
 10
77.461077202690959
 20
178.27266710069443
 30
0.0
 10
77.487432183159711
 20
178.30126139322914
 30
0.0
 10
77.500523546006931
 20
178.33743489583333
 30
0.0
 10
77.500523546006931
 20
178.37360839843748
 30
0.0
  0
SPLINE
  5
38D
100
AcDbEntity
  8
レイヤー_2
 62
     7
100
AcDbSpline
210
0.0
220
0.0
230
1.0
 70
     8
 71
     3
 72
     8
 73
     4
 74
     0
 42
0.00000001
 43
0.00000001
 40
0.0
 40
0.0
 40
0.0
 40
0.0
 40
1.0
 40
1.0
 40
1.0
 40
1.0
 10
79.716925726996521
 20
176.58629286024305
 30
0.0
 10
79.649401855468739
 20
176.64244791666664
 30
0.0
 10
79.549321831597211
 20
176.63383517795137
 30
0.0
 10
79.492477756076383
 20
176.56700032552081
 30
0.0
  0
LINE
  5
38C
100
AcDbEntity
  8
レイヤー_2
 62
     7
100
AcDbLine
 10
55.60453
 20
176.567345
 30
0.0
 11
56.761738
 21
175.212389
 31
0.0
  0
LINE
  5
38B
100
AcDbEntity
  8
レイヤー_2
 62
     7
100
AcDbLine
 10
58.769884
 20
176.897385
 30
0.0
 11
57.636103
 21
178.271978
 31
0.0
  0
SPLINE
  5
38A
100
AcDbEntity
  8
レイヤー_2
 62
     7
100
AcDbSpline
210
0.0
220
0.0
230
1.0
 70
     8
 71
     3
 72
     8
 73
     4
 74
     0
 42
0.00000001
 43
0.00000001
 40
0.0
 40
0.0
 40
0.0
 40
0.0
 40
1.0
 40
1.0
 40
1.0
 40
1.0
 10
58.783319769965274
 20
176.85879991319442
 30
0.0
 10
58.783319769965274
 20
176.8732693142361
 30
0.0
 10
58.778152126736103
 20
176.88670518663193
 30
0.0
 10
58.769883897569436
 20
176.89738498263887
 30
0.0
  0
SPLINE
  5
389
100
AcDbEntity
  8
レイヤー_2
 62
     7
100
AcDbSpline
210
0.0
220
0.0
230
1.0
 70
     8
 71
     3
 72
     8
 73
     4
 74
     0
 42
0.00000001
 43
0.00000001
 40
0.0
 40
0.0
 40
0.0
 40
0.0
 40
1.0
 40
1.0
 40
1.0
 40
1.0
 10
58.761615668402776
 20
176.81298014322914
 30
0.0
 10
58.775912814670136
 20
176.82434895833333
 30
0.0
 10
58.783319769965274
 20
176.84122992621525
 30
0.0
 10
58.783319769965274
 20
176.85879991319442
 30
0.0
  0
SPLINE
  5
388
100
AcDbEntity
  8
レイヤー_2
 62
     7
100
AcDbSpline
210
0.0
220
0.0
230
1.0
 70
     8
 71
     3
 72
     8
 73
     4
 74
     0
 42
0.00000001
 43
0.00000001
 40
0.0
 40
0.0
 40
0.0
 40
0.0
 40
1.0
 40
1.0
 40
1.0
 40
1.0
 10
56.761737738715276
 20
175.21238878038193
 30
0.0
 10
56.782752821180551
 20
175.18723958333331
 30
0.0
 10
56.820821126302079
 20
175.18379448784719
 30
0.0
 10
56.846142578124997
 20
175.2051540798611
 30
0.0
  0
SPLINE
  5
387
100
AcDbEntity
  8
レイヤー_2
 62
     7
100
AcDbSpline
210
0.0
220
0.0
230
1.0
 70
     8
 71
     3
 72
     8
 73
     4
 74
     0
 42
0.00000001
 43
0.00000001
 40
0.0
 40
0.0
 40
0.0
 40
0.0
 40
1.0
 40
1.0
 40
1.0
 40
1.0
 10
61.815003797743053
 20
182.06020507812499
 30
0.0
 10
61.815003797743053
 20
182.09982367621527
 30
0.0
 10
61.801223415798603
 20
182.13565266927083
 30
0.0
 10
61.777796766493047
 20
182.16355794270831
 30
0.0
  0
SPLINE
  5
386
100
AcDbEntity
  8
レイヤー_2
 62
     7
100
AcDbSpline
210
0.0
220
0.0
230
1.0
 70
     8
 71
     3
 72
     8
 73
     4
 74
     0
 42
0.00000001
 43
0.00000001
 40
0.0
 40
0.0
 40
0.0
 40
0.0
 40
1.0
 40
1.0
 40
1.0
 40
1.0
 10
61.757815212673606
 20
181.93755967881944
 30
0.0
 10
61.795711263020827
 20
181.96959906684026
 30
0.0
 10
61.815003797743053
 20
182.01404079861109
 30
0.0
 10
61.815003797743053
 20
182.06020507812499
 30
0.0
  0
SPLINE
  5
385
100
AcDbEntity
  8
レイヤー_2
 62
     7
100
AcDbSpline
210
0.0
220
0.0
230
1.0
 70
     8
 71
     3
 72
     8
 73
     4
 74
     0
 42
0.00000001
 43
0.00000001
 40
0.0
 40
0.0
 40
0.0
 40
0.0
 40
1.0
 40
1.0
 40
1.0
 40
1.0
 10
60.376331922743049
 20
183.83305121527775
 30
0.0
 10
60.319832356770824
 20
183.90057508680553
 30
0.0
 10
60.219063313802074
 20
183.90953233506943
 30
0.0
 10
60.151194932725687
 20
183.85268825954859
 30
0.0
  0
LINE
  5
384
100
AcDbEntity
  8
レイヤー_2
 62
     7
100
AcDbLine
 10
57.656085
 20
178.495909
 30
0.0
 11
61.757815
 21
181.93756
 31
0.0
  0
LINE
  5
383
100
AcDbEntity
  8
レイヤー_2
 62
     7
100
AcDbLine
 10
60.151195
 20
183.852688
 30
0.0
 11
54.911377
 21
179.455713
 31
0.0
  0
LINE
  5
382
100
AcDbEntity
  8
レイヤー_2
 62
     7
100
AcDbLine
 10
51.278868
 20
173.144298
 30
0.0
 11
55.384561
 21
176.589738
 31
0.0
  0
LINE
  5
381
100
AcDbEntity
  8
レイヤー_2
 62
     7
100
AcDbLine
 10
54.911377
 20
179.455713
 30
0.0
 11
49.671559
 21
175.060116
 31
0.0
  0
SPLINE
  5
380
100
AcDbEntity
  8
レイヤー_2
 62
     7
100
AcDbSpline
210
0.0
220
0.0
230
1.0
 70
     8
 71
     3
 72
     8
 73
     4
 74
     0
 42
0.00000001
 43
0.00000001
 40
0.0
 40
0.0
 40
0.0
 40
0.0
 40
1.0
 40
1.0
 40
1.0
 40
1.0
 10
49.671558973524299
 20
175.06011555989582
 30
0.0
 10
49.604035101996523
 20
175.00258246527775
 30
0.0
 10
49.595250108506939
 20
174.90198567708333
 30
0.0
 10
49.651921929253469
 20
174.83411729600692
 30
0.0
  0
SPLINE
  5
37F
100
AcDbEntity
  8
レイヤー_2
 62
     7
100
AcDbSpline
210
0.0
220
0.0
230
1.0
 70
     8
 71
     3
 72
     8
 73
     4
 74
     0
 42
0.00000001
 43
0.00000001
 40
0.0
 40
0.0
 40
0.0
 40
0.0
 40
1.0
 40
1.0
 40
1.0
 40
1.0
 10
51.05287000868055
 20
173.16427951388889
 30
0.0
 10
51.109886338975691
 20
173.09641113281248
 30
0.0
 10
51.210827636718747
 20
173.08745388454861
 30
0.0
 10
51.27886827256944
 20
173.14429796006942
 30
0.0
  0
SPLINE
  5
37E
100
AcDbEntity
  8
レイヤー_2
 62
     7
100
AcDbSpline
210
0.0
220
0.0
230
1.0
 70
     8
 71
     3
 72
    11
 73
     7
 74
     0
 42
0.00000001
 43
0.00000001
 40
0.0
 40
0.0
 40
0.0
 40
0.0
 40
1.0
 40
1.0
 40
1.0
 40
2.0
 40
2.0
 40
2.0
 40
2.0
 10
55.603668891059023
 20
176.56700032552081
 30
0.0
 10
55.574730088975691
 20
176.60558539496526
 30
0.0
 10
55.530632866753464
 20
176.62625596788192
 30
0.0
 10
55.48550211588541
 20
176.62625596788192
 30
0.0
 10
55.446917046440966
 20
176.62625596788192
 30
0.0
 10
55.41160481770833
 20
176.61144205729164
 30
0.0
 10
55.385077582465271
 20
176.58732638888887
 30
0.0
  0
SPLINE
  5
37D
100
AcDbEntity
  8
レイヤー_2
 62
     7
100
AcDbSpline
210
0.0
220
0.0
230
1.0
 70
     8
 71
     3
 72
     8
 73
     4
 74
     0
 42
0.00000001
 43
0.00000001
 40
0.0
 40
0.0
 40
0.0
 40
0.0
 40
1.0
 40
1.0
 40
1.0
 40
1.0
 10
57.656084526909716
 20
178.49590928819444
 30
0.0
 10
57.589249674479163
 20
178.43940972222219
 30
0.0
 10
57.580292426215273
 20
178.33950195312499
 30
0.0
 10
57.636102973090274
 20
178.27197808159721
 30
0.0
  0
LINE
  5
37C
100
AcDbEntity
  8
レイヤー_2
 62
     7
100
AcDbLine
 10
64.490637
 20
165.706681
 30
0.0
 11
64.510791
 21
165.682566
 31
0.0
  0
LINE
  5
37B
100
AcDbEntity
  8
レイヤー_2
 62
     7
100
AcDbLine
 10
61.64895
 20
162.295692
 30
0.0
 11
61.64895
 21
160.595882
 31
0.0
  0
LINE
  5
37A
100
AcDbEntity
  8
レイヤー_2
 62
     7
100
AcDbLine
 10
73.448747
 20
160.595882
 30
0.0
 11
73.448747
 21
162.295692
 31
0.0
  0
SPLINE
  5
379
100
AcDbEntity
  8
レイヤー_2
 62
     7
100
AcDbSpline
210
0.0
220
0.0
230
1.0
 70
     8
 71
     3
 72
     8
 73
     4
 74
     0
 42
0.00000001
 43
0.00000001
 40
0.0
 40
0.0
 40
0.0
 40
0.0
 40
1.0
 40
1.0
 40
1.0
 40
1.0
 10
73.448746744791663
 20
162.29569227430554
 30
0.0
 10
73.448746744791663
 20
162.35115831163193
 30
0.0
 10
73.403615993923609
 20
162.39560004340277
 30
0.0
 10
73.348666720920136
 20
162.39560004340277
 30
0.0
  0
SPLINE
  5
378
100
AcDbEntity
  8
レイヤー_2
 62
     7
100
AcDbSpline
210
0.0
220
0.0
230
1.0
 70
     8
 71
     3
 72
     8
 73
     4
 74
     0
 42
0.00000001
 43
0.00000001
 40
0.0
 40
0.0
 40
0.0
 40
0.0
 40
1.0
 40
1.0
 40
1.0
 40
1.0
 10
61.748341200086799
 20
162.39560004340277
 30
0.0
 10
61.69321967230902
 20
162.39560004340277
 30
0.0
 10
61.648950195312494
 20
162.35115831163193
 30
0.0
 10
61.648950195312494
 20
162.29569227430554
 30
0.0
  0
SPLINE
  5
377
100
AcDbEntity
  8
レイヤー_2
 62
     7
100
AcDbSpline
210
0.0
220
0.0
230
1.0
 70
     8
 71
     3
 72
     8
 73
     4
 74
     0
 42
0.00000001
 43
0.00000001
 40
0.0
 40
0.0
 40
0.0
 40
0.0
 40
1.0
 40
1.0
 40
1.0
 40
1.0
 10
63.568729654947909
 20
162.55579698350692
 30
0.0
 10
63.568729654947909
 20
162.46725802951389
 30
0.0
 10
63.640387641059021
 20
162.39560004340277
 30
0.0
 10
63.72892659505208
 20
162.39560004340277
 30
0.0
  0
SPLINE
  5
376
100
AcDbEntity
  8
レイヤー_2
 62
     7
100
AcDbSpline
210
0.0
220
0.0
230
1.0
 70
     8
 71
     3
 72
     8
 73
     4
 74
     0
 42
0.00000001
 43
0.00000001
 40
0.0
 40
0.0
 40
0.0
 40
0.0
 40
1.0
 40
1.0
 40
1.0
 40
1.0
 10
71.368425835503459
 20
162.39560004340277
 30
0.0
 10
71.457137044270823
 20
162.39560004340277
 30
0.0
 10
71.528278266059019
 20
162.46725802951389
 30
0.0
 10
71.528278266059019
 20
162.55579698350692
 30
0.0
  0
SPLINE
  5
375
100
AcDbEntity
  8
レイヤー_2
 62
     7
100
AcDbSpline
210
0.0
220
0.0
230
1.0
 70
     8
 71
     3
 72
     8
 73
     4
 74
     0
 42
0.00000001
 43
0.00000001
 40
0.0
 40
0.0
 40
0.0
 40
0.0
 40
1.0
 40
1.0
 40
1.0
 40
1.0
 10
71.528278266059019
 20
178.03564453124997
 30
0.0
 10
71.528278266059019
 20
178.12418348524304
 30
0.0
 10
71.457137044270823
 20
178.19549696180553
 30
0.0
 10
71.368425835503459
 20
178.19549696180553
 30
0.0
  0
SPLINE
  5
374
100
AcDbEntity
  8
レイヤー_2
 62
     7
100
AcDbSpline
210
0.0
220
0.0
230
1.0
 70
     8
 71
     3
 72
     8
 73
     4
 74
     0
 42
0.00000001
 43
0.00000001
 40
0.0
 40
0.0
 40
0.0
 40
0.0
 40
1.0
 40
1.0
 40
1.0
 40
1.0
 10
63.72892659505208
 20
178.19549696180553
 30
0.0
 10
63.640387641059021
 20
178.19549696180553
 30
0.0
 10
63.568729654947909
 20
178.12418348524304
 30
0.0
 10
63.568729654947909
 20
178.03564453124997
 30
0.0
  0
LINE
  5
373
100
AcDbEntity
  8
レイヤー_2
 62
     7
100
AcDbLine
 10
71.528278
 20
174.8603
 30
0.0
 11
71.528278
 21
178.035645
 31
0.0
  0
LINE
  5
372
100
AcDbEntity
  8
レイヤー_2
 62
     7
100
AcDbLine
 10
71.528278
 20
162.555797
 30
0.0
 11
71.528278
 21
164.360683
 31
0.0
  0
LINE
  5
371
100
AcDbEntity
  8
レイヤー_2
 62
     7
100
AcDbLine
 10
63.56873
 20
164.362061
 30
0.0
 11
63.56873
 21
162.555797
 31
0.0
  0
LINE
  5
370
100
AcDbEntity
  8
レイヤー_2
 62
     7
100
AcDbLine
 10
63.56873
 20
178.035645
 30
0.0
 11
63.56873
 21
174.863401
 31
0.0
  0
SPLINE
  5
36F
100
AcDbEntity
  8
レイヤー_2
 62
     7
100
AcDbSpline
210
0.0
220
0.0
230
1.0
 70
     8
 71
     3
 72
     8
 73
     4
 74
     0
 42
0.00000001
 43
0.00000001
 40
0.0
 40
0.0
 40
0.0
 40
0.0
 40
1.0
 40
1.0
 40
1.0
 40
1.0
 10
63.578375922309021
 20
164.38100857204859
 30
0.0
 10
63.578375922309021
 20
164.47299262152777
 30
0.0
 10
63.53927408854166
 20
164.55670844184027
 30
0.0
 10
63.476228841145826
 20
164.61493055555553
 30
0.0
  0
SPLINE
  5
36E
100
AcDbEntity
  8
レイヤー_2
 62
     7
100
AcDbSpline
210
0.0
220
0.0
230
1.0
 70
     8
 71
     3
 72
     8
 73
     4
 74
     0
 42
0.00000001
 43
0.00000001
 40
0.0
 40
0.0
 40
0.0
 40
0.0
 40
1.0
 40
1.0
 40
1.0
 40
1.0
 10
63.577514648437493
 20
164.36033799913193
 30
0.0
 10
63.578203667534716
 20
164.36757269965275
 30
0.0
 10
63.578375922309021
 20
164.37515190972221
 30
0.0
 10
63.578375922309021
 20
164.38100857204859
 30
0.0
  0
SPLINE
  5
36D
100
AcDbEntity
  8
レイヤー_2
 62
     7
100
AcDbSpline
210
0.0
220
0.0
230
1.0
 70
     8
 71
     3
 72
     8
 73
     4
 74
     0
 42
0.00000001
 43
0.00000001
 40
0.0
 40
0.0
 40
0.0
 40
0.0
 40
1.0
 40
1.0
 40
1.0
 40
1.0
 10
63.575103081597213
 20
174.84307454427082
 30
0.0
 10
63.575103081597213
 20
174.84996473524305
 30
0.0
 10
63.574758572048609
 20
174.85651041666665
 30
0.0
 10
63.574758572048609
 20
174.86236707899303
 30
0.0
  0
SPLINE
  5
36C
100
AcDbEntity
  8
レイヤー_2
 62
     7
100
AcDbSpline
210
0.0
220
0.0
230
1.0
 70
     8
 71
     3
 72
    11
 73
     7
 74
     0
 42
0.00000001
 43
0.00000001
 40
0.0
 40
0.0
 40
0.0
 40
0.0
 40
1.0
 40
1.0
 40
1.0
 40
2.0
 40
2.0
 40
2.0
 40
2.0
 10
62.864552137586799
 20
174.6005398220486
 30
0.0
 10
62.942583550347216
 20
174.49994303385415
 30
0.0
 10
63.058855523003466
 20
174.44688856336805
 30
0.0
 10
63.17857259114583
 20
174.44654405381942
 30
0.0
 10
63.397680664062491
 20
174.44654405381942
 30
0.0
 10
63.575103081597213
 20
174.62431098090275
 30
0.0
 10
63.575103081597213
 20
174.84307454427082
 30
0.0
  0
SPLINE
  5
36B
100
AcDbEntity
  8
レイヤー_2
 62
     7
100
AcDbSpline
210
0.0
220
0.0
230
1.0
 70
     8
 71
     3
 72
    14
 73
    10
 74
     0
 42
0.00000001
 43
0.00000001
 40
0.0
 40
0.0
 40
0.0
 40
0.0
 40
1.0
 40
1.0
 40
1.0
 40
2.0
 40
2.0
 40
2.0
 40
3.0
 40
3.0
 40
3.0
 40
3.0
 10
71.522593858506937
 20
174.86202256944443
 30
0.0
 10
71.522249348958326
 20
174.8578884548611
 30
0.0
 10
71.522249348958326
 20
174.85444335937498
 30
0.0
 10
71.522249348958326
 20
174.85134277343749
 30
0.0
 10
71.522249348958326
 20
174.63085666232638
 30
0.0
 10
71.700877549913187
 20
174.45240071614583
 30
0.0
 10
71.921363661024301
 20
174.45240071614583
 30
0.0
 10
72.046248372395823
 20
174.45240071614583
 30
0.0
 10
72.157180447048603
 20
174.50958930121527
 30
0.0
 10
72.23107774522569
 20
174.59985080295138
 30
0.0
  0
SPLINE
  5
36A
100
AcDbEntity
  8
レイヤー_2
 62
     7
100
AcDbSpline
210
0.0
220
0.0
230
1.0
 70
     8
 71
     3
 72
     8
 73
     4
 74
     0
 42
0.00000001
 43
0.00000001
 40
0.0
 40
0.0
 40
0.0
 40
0.0
 40
1.0
 40
1.0
 40
1.0
 40
1.0
 10
71.622329372829853
 20
164.61320800781249
 30
0.0
 10
71.549293348524301
 20
164.5484402126736
 30
0.0
 10
71.516392686631931
 20
164.4554226345486
 30
0.0
 10
71.524660915798606
 20
164.36412760416664
 30
0.0
  0
LINE
  5
369
100
AcDbEntity
  8
レイヤー_2
 62
     7
100
AcDbLine
 10
62.871442
 20
174.605707
 30
0.0
 11
60.549448
 21
177.372808
 31
0.0
  0
LINE
  5
368
100
AcDbEntity
  8
レイヤー_2
 62
     7
100
AcDbLine
 10
55.984007
 20
173.541862
 30
0.0
 11
63.474851
 21
164.614242
 31
0.0
  0
LINE
  5
367
100
AcDbEntity
  8
レイヤー_2
 62
     7
100
AcDbLine
 10
71.622329
 20
164.614242
 30
0.0
 11
79.113
 21
173.541862
 31
0.0
  0
LINE
  5
366
100
AcDbEntity
  8
レイヤー_2
 62
     7
100
AcDbLine
 10
74.54756
 20
177.372808
 30
0.0
 11
72.225393
 21
174.605018
 31
0.0
  0
SPLINE
  5
365
100
AcDbEntity
  8
レイヤー_2
 62
     7
100
AcDbSpline
210
0.0
220
0.0
230
1.0
 70
     8
 71
     3
 72
     8
 73
     4
 74
     0
 42
0.00000001
 43
0.00000001
 40
0.0
 40
0.0
 40
0.0
 40
0.0
 40
1.0
 40
1.0
 40
1.0
 40
1.0
 10
79.150552029079847
 20
173.64452582465276
 30
0.0
 10
79.150552029079847
 20
173.69413519965275
 30
0.0
 10
79.128675672743043
 20
173.73754340277776
 30
0.0
 10
79.09353569878472
 20
173.76717122395831
 30
0.0
  0
SPLINE
  5
364
100
AcDbEntity
  8
レイヤー_2
 62
     7
100
AcDbSpline
210
0.0
220
0.0
230
1.0
 70
     8
 71
     3
 72
     8
 73
     4
 74
     0
 42
0.00000001
 43
0.00000001
 40
0.0
 40
0.0
 40
0.0
 40
0.0
 40
1.0
 40
1.0
 40
1.0
 40
1.0
 10
79.113000488281244
 20
173.54186197916664
 30
0.0
 10
79.13814968532985
 20
173.57183430989582
 30
0.0
 10
79.150552029079847
 20
173.6083523220486
 30
0.0
 10
79.150552029079847
 20
173.64452582465276
 30
0.0
  0
SPLINE
  5
363
100
AcDbEntity
  8
レイヤー_2
 62
     7
100
AcDbSpline
210
0.0
220
0.0
230
1.0
 70
     8
 71
     3
 72
     8
 73
     4
 74
     0
 42
0.00000001
 43
0.00000001
 40
0.0
 40
0.0
 40
0.0
 40
0.0
 40
1.0
 40
1.0
 40
1.0
 40
1.0
 10
74.773041449652766
 20
177.39313422309027
 30
0.0
 10
74.705517578124997
 20
177.44928927951386
 30
0.0
 10
74.604404025607636
 20
177.44067654079859
 30
0.0
 10
74.547559950086793
 20
177.37280815972221
 30
0.0
  0
SPLINE
  5
362
100
AcDbEntity
  8
レイヤー_2
 62
     7
100
AcDbSpline
210
0.0
220
0.0
230
1.0
 70
     8
 71
     3
 72
     8
 73
     4
 74
     0
 42
0.00000001
 43
0.00000001
 40
0.0
 40
0.0
 40
0.0
 40
0.0
 40
1.0
 40
1.0
 40
1.0
 40
1.0
 10
60.549447970920134
 20
177.37280815972221
 30
0.0
 10
60.49294840494791
 20
177.44067654079859
 30
0.0
 10
60.391490342881937
 20
177.44928927951386
 30
0.0
 10
60.324310980902773
 20
177.39313422309027
 30
0.0
  0
SPLINE
  5
361
100
AcDbEntity
  8
レイヤー_2
 62
     7
100
AcDbSpline
210
0.0
220
0.0
230
1.0
 70
     8
 71
     3
 72
     8
 73
     4
 74
     0
 42
0.00000001
 43
0.00000001
 40
0.0
 40
0.0
 40
0.0
 40
0.0
 40
1.0
 40
1.0
 40
1.0
 40
1.0
 10
56.00364447699652
 20
173.76717122395831
 30
0.0
 10
55.935776095920133
 20
173.71032714843747
 30
0.0
 10
55.92733561197916
 20
173.60938585069442
 30
0.0
 10
55.98400743272569
 20
173.54186197916664
 30
0.0
  0
SPLINE
  5
360
100
AcDbEntity
  8
レイヤー_2
 62
     7
100
AcDbSpline
210
0.0
220
0.0
230
1.0
 70
     8
 71
     3
 72
     8
 73
     4
 74
     0
 42
0.00000001
 43
0.00000001
 40
0.0
 40
0.0
 40
0.0
 40
0.0
 40
1.0
 40
1.0
 40
1.0
 40
1.0
 10
62.968249511718746
 20
160.59588216145832
 30
0.0
 10
63.044902886284717
 20
160.48012695312499
 30
0.0
 10
63.170993381076386
 20
160.41604817708333
 30
0.0
 10
63.301734754774301
 20
160.4157036675347
 30
0.0
  0
SPLINE
  5
35F
100
AcDbEntity
  8
レイヤー_2
 62
     7
100
AcDbSpline
210
0.0
220
0.0
230
1.0
 70
     8
 71
     3
 72
     8
 73
     4
 74
     0
 42
0.00000001
 43
0.00000001
 40
0.0
 40
0.0
 40
0.0
 40
0.0
 40
1.0
 40
1.0
 40
1.0
 40
1.0
 10
72.102403428819443
 20
160.4157036675347
 30
0.0
 10
72.241585286458331
 20
160.4157036675347
 30
0.0
 10
72.36336941189235
 20
160.4866726345486
 30
0.0
 10
72.436405436197916
 20
160.59588216145832
 30
0.0
  0
LINE
  5
35E
100
AcDbEntity
  8
レイヤー_2
 62
     7
100
AcDbLine
 10
63.301735
 20
160.415704
 30
0.0
 11
72.102403
 21
160.415704
 31
0.0
  0
LINE
  5
35D
100
AcDbEntity
  8
レイヤー_2
 62
     7
100
AcDbLine
 10
72.502035
 20
148.305849
 30
0.0
 11
72.502035
 21
148.606261
 31
0.0
  0
LINE
  5
35C
100
AcDbEntity
  8
レイヤー_2
 62
     7
100
AcDbLine
 10
62.90262
 20
148.606261
 30
0.0
 11
62.90262
 21
148.305849
 31
0.0
  0
LINE
  5
35B
100
AcDbEntity
  8
レイヤー_2
 62
     7
100
AcDbLine
 10
69.802974
 20
139.061968
 30
0.0
 11
69.278286
 21
138.945869
 31
0.0
  0
POLYLINE
  5
356
100
AcDbEntity
  8
レイヤー_2
 62
     7
100
AcDb2dPolyline
 66
     1
 10
0.0
 20
0.0
 30
0.0
  0
VERTEX
  5
357
100
AcDbEntity
  8
レイヤー_2
 62
     7
100
AcDbVertex
100
AcDb2dVertex
 10
69.278286
 20
138.945869
 30
0.0
  0
VERTEX
  5
358
100
AcDbEntity
  8
レイヤー_2
 62
     7
100
AcDbVertex
100
AcDb2dVertex
 10
69.240735
 20
138.946558
 30
0.0
  0
VERTEX
  5
359
100
AcDbEntity
  8
レイヤー_2
 62
     7
100
AcDbVertex
100
AcDb2dVertex
 10
68.753771
 20
139.061968
 30
0.0
  0
SEQEND
  5
35A
100
AcDbEntity
  8
レイヤー_2
 62
     7
  0
LINE
  5
355
100
AcDbEntity
  8
レイヤー_2
 62
     7
100
AcDbLine
 10
68.753771
 20
139.061968
 30
0.0
 11
68.753771
 21
141.229622
 31
0.0
  0
POLYLINE
  5
350
100
AcDbEntity
  8
レイヤー_2
 62
     7
100
AcDb2dPolyline
 66
     1
 10
0.0
 20
0.0
 30
0.0
  0
VERTEX
  5
351
100
AcDbEntity
  8
レイヤー_2
 62
     7
100
AcDbVertex
100
AcDb2dVertex
 10
69.278286
 20
141.345722
 30
0.0
  0
VERTEX
  5
352
100
AcDbEntity
  8
レイヤー_2
 62
     7
100
AcDbVertex
100
AcDb2dVertex
 10
69.240735
 20
141.345033
 30
0.0
  0
VERTEX
  5
353
100
AcDbEntity
  8
レイヤー_2
 62
     7
100
AcDbVertex
100
AcDb2dVertex
 10
68.753771
 20
141.229622
 30
0.0
  0
SEQEND
  5
354
100
AcDbEntity
  8
レイヤー_2
 62
     7
  0
LINE
  5
34F
100
AcDbEntity
  8
レイヤー_2
 62
     7
100
AcDbLine
 10
69.802974
 20
141.229622
 30
0.0
 11
69.278286
 21
141.345722
 31
0.0
  0
LINE
  5
34E
100
AcDbEntity
  8
レイヤー_2
 62
     7
100
AcDbLine
 10
69.802974
 20
139.061968
 30
0.0
 11
69.802974
 21
141.229622
 31
0.0
  0
LINE
  5
34D
100
AcDbEntity
  8
レイヤー_2
 62
     7
100
AcDbLine
 10
68.026166
 20
146.545749
 30
0.0
 11
67.048793
 21
146.545749
 31
0.0
  0
LINE
  5
34C
100
AcDbEntity
  8
レイヤー_2
 62
     7
100
AcDbLine
 10
69.648634
 20
146.545749
 30
0.0
 11
68.026166
 21
146.545749
 31
0.0
  0
LINE
  5
34B
100
AcDbEntity
  8
レイヤー_2
 62
     7
100
AcDbLine
 10
68.100925
 20
146.026229
 30
0.0
 11
67.349033
 21
146.026229
 31
0.0
  0
LINE
  5
34A
100
AcDbEntity
  8
レイヤー_2
 62
     7
100
AcDbLine
 10
69.348739
 20
146.026229
 30
0.0
 11
68.100925
 21
146.026229
 31
0.0
  0
LINE
  5
349
100
AcDbEntity
  8
レイヤー_2
 62
     7
100
AcDbLine
 10
68.026166
 20
146.838238
 30
0.0
 11
67.048793
 21
146.838238
 31
0.0
  0
LINE
  5
348
100
AcDbEntity
  8
レイヤー_2
 62
     7
100
AcDbLine
 10
69.648634
 20
146.838238
 30
0.0
 11
68.026166
 21
146.838238
 31
0.0
  0
POLYLINE
  5
343
100
AcDbEntity
  8
レイヤー_2
 62
     7
100
AcDb2dPolyline
 66
     1
 10
0.0
 20
0.0
 30
0.0
  0
VERTEX
  5
344
100
AcDbEntity
  8
レイヤー_2
 62
     7
100
AcDbVertex
100
AcDb2dVertex
 10
68.753771
 20
141.229622
 30
0.0
  0
VERTEX
  5
345
100
AcDbEntity
  8
レイヤー_2
 62
     7
100
AcDbVertex
100
AcDb2dVertex
 10
68.570147
 20
141.278543
 30
0.0
  0
VERTEX
  5
346
100
AcDbEntity
  8
レイヤー_2
 62
     7
100
AcDbVertex
100
AcDb2dVertex
 10
68.026166
 20
141.345722
 30
0.0
  0
SEQEND
  5
347
100
AcDbEntity
  8
レイヤー_2
 62
     7
  0
LINE
  5
342
100
AcDbEntity
  8
レイヤー_2
 62
     7
100
AcDbLine
 10
69.278286
 20
141.345722
 30
0.0
 11
68.026166
 21
141.345722
 31
0.0
  0
POLYLINE
  5
33D
100
AcDbEntity
  8
レイヤー_2
 62
     7
100
AcDb2dPolyline
 66
     1
 10
0.0
 20
0.0
 30
0.0
  0
VERTEX
  5
33E
100
AcDbEntity
  8
レイヤー_2
 62
     7
100
AcDbVertex
100
AcDb2dVertex
 10
68.753771
 20
139.061968
 30
0.0
  0
VERTEX
  5
33F
100
AcDbEntity
  8
レイヤー_2
 62
     7
100
AcDbVertex
100
AcDb2dVertex
 10
68.570147
 20
139.012359
 30
0.0
  0
VERTEX
  5
340
100
AcDbEntity
  8
レイヤー_2
 62
     7
100
AcDbVertex
100
AcDb2dVertex
 10
68.026166
 20
138.945869
 30
0.0
  0
SEQEND
  5
341
100
AcDbEntity
  8
レイヤー_2
 62
     7
  0
LINE
  5
33C
100
AcDbEntity
  8
レイヤー_2
 62
     7
100
AcDbLine
 10
69.278286
 20
138.945869
 30
0.0
 11
68.026166
 21
138.945869
 31
0.0
  0
POLYLINE
  5
337
100
AcDbEntity
  8
レイヤー_2
 62
     7
100
AcDb2dPolyline
 66
     1
 10
0.0
 20
0.0
 30
0.0
  0
VERTEX
  5
338
100
AcDbEntity
  8
レイヤー_2
 62
     7
100
AcDbVertex
100
AcDb2dVertex
 10
68.026166
 20
138.945869
 30
0.0
  0
VERTEX
  5
339
100
AcDbEntity
  8
レイヤー_2
 62
     7
100
AcDbVertex
100
AcDb2dVertex
 10
67.82859
 20
138.954826
 30
0.0
  0
VERTEX
  5
33A
100
AcDbEntity
  8
レイヤー_2
 62
     7
100
AcDbVertex
100
AcDb2dVertex
 10
67.299079
 20
139.061968
 30
0.0
  0
SEQEND
  5
33B
100
AcDbEntity
  8
レイヤー_2
 62
     7
  0
LINE
  5
336
100
AcDbEntity
  8
レイヤー_2
 62
     7
100
AcDbLine
 10
67.299079
 20
139.061968
 30
0.0
 11
67.299079
 21
141.229622
 31
0.0
  0
POLYLINE
  5
331
100
AcDbEntity
  8
レイヤー_2
 62
     7
100
AcDb2dPolyline
 66
     1
 10
0.0
 20
0.0
 30
0.0
  0
VERTEX
  5
332
100
AcDbEntity
  8
レイヤー_2
 62
     7
100
AcDbVertex
100
AcDb2dVertex
 10
68.026166
 20
141.345722
 30
0.0
  0
VERTEX
  5
333
100
AcDbEntity
  8
レイヤー_2
 62
     7
100
AcDbVertex
100
AcDb2dVertex
 10
67.82859
 20
141.33642
 30
0.0
  0
VERTEX
  5
334
100
AcDbEntity
  8
レイヤー_2
 62
     7
100
AcDbVertex
100
AcDb2dVertex
 10
67.299079
 20
141.229622
 30
0.0
  0
SEQEND
  5
335
100
AcDbEntity
  8
レイヤー_2
 62
     7
  0
LINE
  5
330
100
AcDbEntity
  8
レイヤー_2
 62
     7
100
AcDbLine
 10
67.299079
 20
141.229622
 30
0.0
 11
67.096852
 21
141.345722
 31
0.0
  0
LINE
  5
32F
100
AcDbEntity
  8
レイヤー_2
 62
     7
100
AcDbLine
 10
68.026166
 20
141.345722
 30
0.0
 11
67.096852
 21
141.345722
 31
0.0
  0
LINE
  5
32E
100
AcDbEntity
  8
レイヤー_2
 62
     7
100
AcDbLine
 10
67.299079
 20
139.061968
 30
0.0
 11
67.096852
 21
138.945869
 31
0.0
  0
LINE
  5
32D
100
AcDbEntity
  8
レイヤー_2
 62
     7
100
AcDbLine
 10
68.026166
 20
138.945869
 30
0.0
 11
67.096852
 21
138.945869
 31
0.0
  0
POLYLINE
  5
328
100
AcDbEntity
  8
レイヤー_2
 62
     7
100
AcDb2dPolyline
 66
     1
 10
0.0
 20
0.0
 30
0.0
  0
VERTEX
  5
329
100
AcDbEntity
  8
レイヤー_2
 62
     7
100
AcDbVertex
100
AcDb2dVertex
 10
67.096852
 20
138.945869
 30
0.0
  0
VERTEX
  5
32A
100
AcDbEntity
  8
レイヤー_2
 62
     7
100
AcDbVertex
100
AcDb2dVertex
 10
67.081866
 20
138.946558
 30
0.0
  0
VERTEX
  5
32B
100
AcDbEntity
  8
レイヤー_2
 62
     7
100
AcDbVertex
100
AcDb2dVertex
 10
66.893936
 20
139.061968
 30
0.0
  0
SEQEND
  5
32C
100
AcDbEntity
  8
レイヤー_2
 62
     7
  0
LINE
  5
327
100
AcDbEntity
  8
レイヤー_2
 62
     7
100
AcDbLine
 10
66.893936
 20
139.061968
 30
0.0
 11
66.893936
 21
141.229622
 31
0.0
  0
POLYLINE
  5
322
100
AcDbEntity
  8
レイヤー_2
 62
     7
100
AcDb2dPolyline
 66
     1
 10
0.0
 20
0.0
 30
0.0
  0
VERTEX
  5
323
100
AcDbEntity
  8
レイヤー_2
 62
     7
100
AcDbVertex
100
AcDb2dVertex
 10
67.096852
 20
141.345722
 30
0.0
  0
VERTEX
  5
324
100
AcDbEntity
  8
レイヤー_2
 62
     7
100
AcDbVertex
100
AcDb2dVertex
 10
67.081866
 20
141.345033
 30
0.0
  0
VERTEX
  5
325
100
AcDbEntity
  8
レイヤー_2
 62
     7
100
AcDbVertex
100
AcDb2dVertex
 10
66.893936
 20
141.229622
 30
0.0
  0
SEQEND
  5
326
100
AcDbEntity
  8
レイヤー_2
 62
     7
  0
LINE
  5
321
100
AcDbEntity
  8
レイヤー_2
 62
     7
100
AcDbLine
 10
69.69876
 20
141.294046
 30
0.0
 11
69.802974
 21
141.229622
 31
0.0
  0
LINE
  5
320
100
AcDbEntity
  8
レイヤー_2
 62
     7
100
AcDbLine
 10
69.648634
 20
141.345722
 30
0.0
 11
69.278286
 21
141.345722
 31
0.0
  0
LINE
  5
31F
100
AcDbEntity
  8
レイヤー_2
 62
     7
100
AcDbLine
 10
69.69876
 20
138.997545
 30
0.0
 11
69.802974
 21
139.061968
 31
0.0
  0
LINE
  5
31E
100
AcDbEntity
  8
レイヤー_2
 62
     7
100
AcDbLine
 10
69.648634
 20
138.945869
 30
0.0
 11
69.278286
 21
138.945869
 31
0.0
  0
LINE
  5
31D
100
AcDbEntity
  8
レイヤー_2
 62
     7
100
AcDbLine
 10
67.096852
 20
141.345722
 30
0.0
 11
67.048793
 21
141.345722
 31
0.0
  0
LINE
  5
31C
100
AcDbEntity
  8
レイヤー_2
 62
     7
100
AcDbLine
 10
67.096852
 20
138.945869
 30
0.0
 11
67.048793
 21
138.945869
 31
0.0
  0
LINE
  5
31B
100
AcDbEntity
  8
レイヤー_2
 62
     7
100
AcDbLine
 10
62.686613
 20
148.305849
 30
0.0
 11
72.802447
 21
148.305849
 31
0.0
  0
LINE
  5
31A
100
AcDbEntity
  8
レイヤー_2
 62
     7
100
AcDbLine
 10
72.802447
 20
146.905762
 30
0.0
 11
62.686613
 21
146.905762
 31
0.0
  0
LINE
  5
319
100
AcDbEntity
  8
レイヤー_2
 62
     7
100
AcDbLine
 10
72.502035
 20
148.305849
 30
0.0
 11
72.602287
 21
148.305849
 31
0.0
  0
LINE
  5
318
100
AcDbEntity
  8
レイヤー_2
 62
     7
100
AcDbLine
 10
71.531896
 20
146.905762
 30
0.0
 11
71.476774
 21
146.905762
 31
0.0
  0
LINE
  5
317
100
AcDbEntity
  8
レイヤー_2
 62
     7
100
AcDbLine
 10
71.476774
 20
146.905762
 30
0.0
 11
70.048265
 21
146.905762
 31
0.0
  0
LINE
  5
316
100
AcDbEntity
  8
レイヤー_2
 62
     7
100
AcDbLine
 10
67.148701
 20
146.905762
 30
0.0
 11
67.048793
 21
146.905762
 31
0.0
  0
LINE
  5
315
100
AcDbEntity
  8
レイヤー_2
 62
     7
100
AcDbLine
 10
65.048226
 20
146.905762
 30
0.0
 11
63.738228
 21
146.905762
 31
0.0
  0
LINE
  5
314
100
AcDbEntity
  8
レイヤー_2
 62
     7
100
AcDbLine
 10
69.34271
 20
156.875868
 30
0.0
 11
69.148406
 21
156.875868
 31
0.0
  0
LINE
  5
313
100
AcDbEntity
  8
レイヤー_2
 62
     7
100
AcDbLine
 10
69.59024
 20
156.875868
 30
0.0
 11
69.34271
 21
156.875868
 31
0.0
  0
LINE
  5
312
100
AcDbEntity
  8
レイヤー_2
 62
     7
100
AcDbLine
 10
70.005891
 20
156.875868
 30
0.0
 11
69.59024
 21
156.875868
 31
0.0
  0
LINE
  5
311
100
AcDbEntity
  8
レイヤー_2
 62
     7
100
AcDbLine
 10
70.108727
 20
156.875868
 30
0.0
 11
70.005891
 21
156.875868
 31
0.0
  0
LINE
  5
310
100
AcDbEntity
  8
レイヤー_2
 62
     7
100
AcDbLine
 10
70.14869
 20
156.875868
 30
0.0
 11
70.108727
 21
156.875868
 31
0.0
  0
LINE
  5
30F
100
AcDbEntity
  8
レイヤー_2
 62
     7
100
AcDbLine
 10
70.248081
 20
155.775505
 30
0.0
 11
69.148406
 21
155.775505
 31
0.0
  0
LINE
  5
30E
100
AcDbEntity
  8
レイヤー_2
 62
     7
100
AcDbLine
 10
70.14869
 20
158.675586
 30
0.0
 11
70.108727
 21
158.675586
 31
0.0
  0
LINE
  5
30D
100
AcDbEntity
  8
レイヤー_2
 62
     7
100
AcDbLine
 10
70.108727
 20
158.675586
 30
0.0
 11
70.005891
 21
158.675586
 31
0.0
  0
LINE
  5
30C
100
AcDbEntity
  8
レイヤー_2
 62
     7
100
AcDbLine
 10
70.005891
 20
158.675586
 30
0.0
 11
69.59024
 21
158.675586
 31
0.0
  0
LINE
  5
30B
100
AcDbEntity
  8
レイヤー_2
 62
     7
100
AcDbLine
 10
69.59024
 20
158.675586
 30
0.0
 11
69.34271
 21
158.675586
 31
0.0
  0
LINE
  5
30A
100
AcDbEntity
  8
レイヤー_2
 62
     7
100
AcDbLine
 10
69.34271
 20
158.675586
 30
0.0
 11
69.148406
 21
158.675586
 31
0.0
  0
LINE
  5
309
100
AcDbEntity
  8
レイヤー_2
 62
     7
100
AcDbLine
 10
70.143867
 20
159.575789
 30
0.0
 11
69.685324
 21
159.575789
 31
0.0
  0
LINE
  5
308
100
AcDbEntity
  8
レイヤー_2
 62
     7
100
AcDbLine
 10
70.143867
 20
159.575789
 30
0.0
 11
70.143867
 21
160.415704
 31
0.0
  0
LINE
  5
307
100
AcDbEntity
  8
レイヤー_2
 62
     7
100
AcDbLine
 10
69.685324
 20
160.415704
 30
0.0
 11
69.685324
 21
159.575789
 31
0.0
  0
LINE
  5
306
100
AcDbEntity
  8
レイヤー_2
 62
     7
100
AcDbLine
 10
70.14869
 20
159.375974
 30
0.0
 11
69.148406
 21
159.375974
 31
0.0
  0
LINE
  5
305
100
AcDbEntity
  8
レイヤー_2
 62
     7
100
AcDbLine
 10
69.507041
 20
159.575789
 30
0.0
 11
69.148406
 21
159.575789
 31
0.0
  0
LINE
  5
304
100
AcDbEntity
  8
レイヤー_2
 62
     7
100
AcDbLine
 10
69.507041
 20
159.575789
 30
0.0
 11
69.507041
 21
160.415704
 31
0.0
  0
LINE
  5
303
100
AcDbEntity
  8
レイヤー_2
 62
     7
100
AcDbLine
 10
69.34271
 20
156.875868
 30
0.0
 11
69.34271
 21
158.675586
 31
0.0
  0
LINE
  5
302
100
AcDbEntity
  8
レイヤー_2
 62
     7
100
AcDbLine
 10
69.59024
 20
158.675586
 30
0.0
 11
69.59024
 21
156.875868
 31
0.0
  0
LINE
  5
301
100
AcDbEntity
  8
レイヤー_2
 62
     7
100
AcDbLine
 10
70.005891
 20
156.875868
 30
0.0
 11
70.005891
 21
158.675586
 31
0.0
  0
LINE
  5
300
100
AcDbEntity
  8
レイヤー_2
 62
     7
100
AcDbLine
 10
70.108727
 20
158.675586
 30
0.0
 11
70.108727
 21
156.875868
 31
0.0
  0
LINE
  5
2FF
100
AcDbEntity
  8
レイヤー_2
 62
     7
100
AcDbLine
 10
67.248436
 20
155.775505
 30
0.0
 11
64.84841
 21
155.775505
 31
0.0
  0
LINE
  5
2FE
100
AcDbEntity
  8
レイヤー_2
 62
     7
100
AcDbLine
 10
64.988626
 20
156.875868
 30
0.0
 11
64.94849
 21
156.875868
 31
0.0
  0
LINE
  5
2FD
100
AcDbEntity
  8
レイヤー_2
 62
     7
100
AcDbLine
 10
65.090945
 20
156.875868
 30
0.0
 11
64.988626
 21
156.875868
 31
0.0
  0
LINE
  5
2FC
100
AcDbEntity
  8
レイヤー_2
 62
     7
100
AcDbLine
 10
65.506768
 20
156.875868
 30
0.0
 11
65.090945
 21
156.875868
 31
0.0
  0
LINE
  5
2FB
100
AcDbEntity
  8
レイヤー_2
 62
     7
100
AcDbLine
 10
65.754298
 20
156.875868
 30
0.0
 11
65.506768
 21
156.875868
 31
0.0
  0
LINE
  5
2FA
100
AcDbEntity
  8
レイヤー_2
 62
     7
100
AcDbLine
 10
66.342721
 20
156.875868
 30
0.0
 11
65.754298
 21
156.875868
 31
0.0
  0
LINE
  5
2F9
100
AcDbEntity
  8
レイヤー_2
 62
     7
100
AcDbLine
 10
66.590251
 20
156.875868
 30
0.0
 11
66.342721
 21
156.875868
 31
0.0
  0
LINE
  5
2F8
100
AcDbEntity
  8
レイヤー_2
 62
     7
100
AcDbLine
 10
67.006074
 20
156.875868
 30
0.0
 11
66.590251
 21
156.875868
 31
0.0
  0
LINE
  5
2F7
100
AcDbEntity
  8
レイヤー_2
 62
     7
100
AcDbLine
 10
67.108738
 20
156.875868
 30
0.0
 11
67.006074
 21
156.875868
 31
0.0
  0
LINE
  5
2F6
100
AcDbEntity
  8
レイヤー_2
 62
     7
100
AcDbLine
 10
67.148701
 20
156.875868
 30
0.0
 11
67.108738
 21
156.875868
 31
0.0
  0
LINE
  5
2F5
100
AcDbEntity
  8
レイヤー_2
 62
     7
100
AcDbLine
 10
67.148701
 20
158.675586
 30
0.0
 11
67.108738
 21
158.675586
 31
0.0
  0
LINE
  5
2F4
100
AcDbEntity
  8
レイヤー_2
 62
     7
100
AcDbLine
 10
67.108738
 20
158.675586
 30
0.0
 11
67.006074
 21
158.675586
 31
0.0
  0
LINE
  5
2F3
100
AcDbEntity
  8
レイヤー_2
 62
     7
100
AcDbLine
 10
67.006074
 20
158.675586
 30
0.0
 11
66.590251
 21
158.675586
 31
0.0
  0
LINE
  5
2F2
100
AcDbEntity
  8
レイヤー_2
 62
     7
100
AcDbLine
 10
66.590251
 20
158.675586
 30
0.0
 11
66.342721
 21
158.675586
 31
0.0
  0
LINE
  5
2F1
100
AcDbEntity
  8
レイヤー_2
 62
     7
100
AcDbLine
 10
66.342721
 20
158.675586
 30
0.0
 11
65.754298
 21
158.675586
 31
0.0
  0
LINE
  5
2F0
100
AcDbEntity
  8
レイヤー_2
 62
     7
100
AcDbLine
 10
65.754298
 20
158.675586
 30
0.0
 11
65.506768
 21
158.675586
 31
0.0
  0
LINE
  5
2EF
100
AcDbEntity
  8
レイヤー_2
 62
     7
100
AcDbLine
 10
65.506768
 20
158.675586
 30
0.0
 11
65.090945
 21
158.675586
 31
0.0
  0
LINE
  5
2EE
100
AcDbEntity
  8
レイヤー_2
 62
     7
100
AcDbLine
 10
65.090945
 20
158.675586
 30
0.0
 11
64.988626
 21
158.675586
 31
0.0
  0
LINE
  5
2ED
100
AcDbEntity
  8
レイヤー_2
 62
     7
100
AcDbLine
 10
64.988626
 20
158.675586
 30
0.0
 11
64.94849
 21
158.675586
 31
0.0
  0
LINE
  5
2EC
100
AcDbEntity
  8
レイヤー_2
 62
     7
100
AcDbLine
 10
67.143877
 20
159.575789
 30
0.0
 11
66.685335
 21
159.575789
 31
0.0
  0
LINE
  5
2EB
100
AcDbEntity
  8
レイヤー_2
 62
     7
100
AcDbLine
 10
67.143877
 20
159.575789
 30
0.0
 11
67.143877
 21
160.415704
 31
0.0
  0
LINE
  5
2EA
100
AcDbEntity
  8
レイヤー_2
 62
     7
100
AcDbLine
 10
66.685335
 20
160.415704
 30
0.0
 11
66.685335
 21
159.575789
 31
0.0
  0
LINE
  5
2E9
100
AcDbEntity
  8
レイヤー_2
 62
     7
100
AcDbLine
 10
66.507052
 20
159.575789
 30
0.0
 11
65.590139
 21
159.575789
 31
0.0
  0
LINE
  5
2E8
100
AcDbEntity
  8
レイヤー_2
 62
     7
100
AcDbLine
 10
66.507052
 20
159.575789
 30
0.0
 11
66.507052
 21
160.415704
 31
0.0
  0
LINE
  5
2E7
100
AcDbEntity
  8
レイヤー_2
 62
     7
100
AcDbLine
 10
65.590139
 20
160.415704
 30
0.0
 11
65.590139
 21
159.575789
 31
0.0
  0
LINE
  5
2E6
100
AcDbEntity
  8
レイヤー_2
 62
     7
100
AcDbLine
 10
65.412028
 20
159.575789
 30
0.0
 11
64.953141
 21
159.575789
 31
0.0
  0
LINE
  5
2E5
100
AcDbEntity
  8
レイヤー_2
 62
     7
100
AcDbLine
 10
65.412028
 20
159.575789
 30
0.0
 11
65.412028
 21
160.415704
 31
0.0
  0
LINE
  5
2E4
100
AcDbEntity
  8
レイヤー_2
 62
     7
100
AcDbLine
 10
64.953141
 20
160.415704
 30
0.0
 11
64.953141
 21
159.575789
 31
0.0
  0
LINE
  5
2E3
100
AcDbEntity
  8
レイヤー_2
 62
     7
100
AcDbLine
 10
67.148701
 20
159.375974
 30
0.0
 11
64.94849
 21
159.375974
 31
0.0
  0
LINE
  5
2E2
100
AcDbEntity
  8
レイヤー_2
 62
     7
100
AcDbLine
 10
65.754298
 20
158.675586
 30
0.0
 11
65.754298
 21
156.875868
 31
0.0
  0
LINE
  5
2E1
100
AcDbEntity
  8
レイヤー_2
 62
     7
100
AcDbLine
 10
66.342721
 20
156.875868
 30
0.0
 11
66.342721
 21
158.675586
 31
0.0
  0
LINE
  5
2E0
100
AcDbEntity
  8
レイヤー_2
 62
     7
100
AcDbLine
 10
65.506768
 20
156.875868
 30
0.0
 11
65.506768
 21
158.675586
 31
0.0
  0
LINE
  5
2DF
100
AcDbEntity
  8
レイヤー_2
 62
     7
100
AcDbLine
 10
66.590251
 20
158.675586
 30
0.0
 11
66.590251
 21
156.875868
 31
0.0
  0
LINE
  5
2DE
100
AcDbEntity
  8
レイヤー_2
 62
     7
100
AcDbLine
 10
65.090945
 20
158.675586
 30
0.0
 11
65.090945
 21
156.875868
 31
0.0
  0
LINE
  5
2DD
100
AcDbEntity
  8
レイヤー_2
 62
     7
100
AcDbLine
 10
67.006074
 20
156.875868
 30
0.0
 11
67.006074
 21
158.675586
 31
0.0
  0
LINE
  5
2DC
100
AcDbEntity
  8
レイヤー_2
 62
     7
100
AcDbLine
 10
67.108738
 20
158.675586
 30
0.0
 11
67.108738
 21
156.875868
 31
0.0
  0
LINE
  5
2DB
100
AcDbEntity
  8
レイヤー_2
 62
     7
100
AcDbLine
 10
64.988626
 20
156.875868
 30
0.0
 11
64.988626
 21
158.675586
 31
0.0
  0
LINE
  5
2DA
100
AcDbEntity
  8
レイヤー_2
 62
     7
100
AcDbLine
 10
79.170361
 20
174.434486
 30
0.0
 11
75.416585
 21
177.583648
 31
0.0
  0
LINE
  5
2D9
100
AcDbEntity
  8
レイヤー_2
 62
     7
100
AcDbLine
 10
59.680423
 20
177.583648
 30
0.0
 11
55.927336
 21
174.434486
 31
0.0
  0
SPLINE
  5
2D8
100
AcDbEntity
  8
レイヤー_2
 62
     7
100
AcDbSpline
210
0.0
220
0.0
230
1.0
 70
     8
 71
     3
 72
    17
 73
    13
 74
     0
 42
0.00000001
 43
0.00000001
 40
0.0
 40
0.0
 40
0.0
 40
0.0
 40
1.0
 40
1.0
 40
1.0
 40
2.0
 40
2.0
 40
2.0
 40
3.0
 40
3.0
 40
3.0
 40
4.0
 40
4.0
 40
4.0
 40
4.0
 10
80.632115342881931
 20
178.4986653645833
 30
0.0
 10
80.632115342881931
 20
179.18906249999998
 30
0.0
 10
80.072631835937486
 20
179.74854600694442
 30
0.0
 10
79.382234700520826
 20
179.74854600694442
 30
0.0
 10
78.691837565104166
 20
179.74854600694442
 30
0.0
 10
78.13235405815972
 20
179.18906249999998
 30
0.0
 10
78.13235405815972
 20
178.4986653645833
 30
0.0
 10
78.13235405815972
 20
177.80792371961803
 30
0.0
 10
78.691837565104166
 20
177.24844021267359
 30
0.0
 10
79.382234700520826
 20
177.24844021267359
 30
0.0
 10
80.072631835937486
 20
177.24844021267359
 30
0.0
 10
80.632115342881931
 20
177.80792371961803
 30
0.0
 10
80.632115342881931
 20
178.4986653645833
 30
0.0
  0
LINE
  5
2D7
100
AcDbEntity
  8
レイヤー_2
 62
     7
100
AcDbLine
 10
85.445603
 20
174.834117
 30
0.0
 11
84.044138
 21
173.16428
 31
0.0
  0
LINE
  5
2D6
100
AcDbEntity
  8
レイヤー_2
 62
     7
100
AcDbLine
 10
73.319556
 20
182.163558
 30
0.0
 11
74.720331
 21
183.833051
 31
0.0
  0
SPLINE
  5
2D5
100
AcDbEntity
  8
レイヤー_2
 62
     7
100
AcDbSpline
210
0.0
220
0.0
230
1.0
 70
     8
 71
     3
 72
    17
 73
    13
 74
     0
 42
0.00000001
 43
0.00000001
 40
0.0
 40
0.0
 40
0.0
 40
0.0
 40
1.0
 40
1.0
 40
1.0
 40
2.0
 40
2.0
 40
2.0
 40
3.0
 40
3.0
 40
3.0
 40
4.0
 40
4.0
 40
4.0
 40
4.0
 10
56.964998372395826
 20
178.4986653645833
 30
0.0
 10
56.964998372395826
 20
179.18906249999998
 30
0.0
 10
56.405170355902776
 20
179.74854600694442
 30
0.0
 10
55.714773220486109
 20
179.74854600694442
 30
0.0
 10
55.024892849392359
 20
179.74854600694442
 30
0.0
 10
54.464548068576384
 20
179.18906249999998
 30
0.0
 10
54.464548068576384
 20
178.4986653645833
 30
0.0
 10
54.464548068576384
 20
177.80792371961803
 30
0.0
 10
55.024892849392359
 20
177.24844021267359
 30
0.0
 10
55.714773220486109
 20
177.24844021267359
 30
0.0
 10
56.405170355902776
 20
177.24844021267359
 30
0.0
 10
56.964998372395826
 20
177.80792371961803
 30
0.0
 10
56.964998372395826
 20
178.4986653645833
 30
0.0
  0
LINE
  5
2D4
100
AcDbEntity
  8
レイヤー_2
 62
     7
100
AcDbLine
 10
60.376332
 20
183.833051
 30
0.0
 11
61.777797
 21
182.163558
 31
0.0
  0
LINE
  5
2D3
100
AcDbEntity
  8
レイヤー_2
 62
     7
100
AcDbLine
 10
51.05287
 20
173.16428
 30
0.0
 11
49.651922
 21
174.834117
 31
0.0
  0
LINE
  5
2D2
100
AcDbEntity
  8
レイヤー_2
 62
     7
100
AcDbLine
 10
67.548332
 20
160.595882
 30
0.0
 11
73.448747
 21
160.595882
 31
0.0
  0
LINE
  5
2D1
100
AcDbEntity
  8
レイヤー_2
 62
     7
100
AcDbLine
 10
61.64895
 20
160.595882
 30
0.0
 11
67.548332
 21
160.595882
 31
0.0
  0
LINE
  5
2D0
100
AcDbEntity
  8
レイヤー_2
 62
     7
100
AcDbLine
 10
61.748341
 20
162.3956
 30
0.0
 11
73.348667
 21
162.3956
 31
0.0
  0
LINE
  5
2CF
100
AcDbEntity
  8
レイヤー_2
 62
     7
100
AcDbLine
 10
63.728927
 20
178.195497
 30
0.0
 11
71.368426
 21
178.195497
 31
0.0
  0
LINE
  5
2CE
100
AcDbEntity
  8
レイヤー_2
 62
     7
100
AcDbLine
 10
71.524661
 20
174.8603
 30
0.0
 11
71.525005
 21
174.862023
 31
0.0
  0
LINE
  5
2CD
100
AcDbEntity
  8
レイヤー_2
 62
     7
100
AcDbLine
 10
63.480363
 20
164.619065
 30
0.0
 11
63.478985
 21
164.617687
 31
0.0
  0
LINE
  5
2CC
100
AcDbEntity
  8
レイヤー_2
 62
     7
100
AcDbLine
 10
72.229527
 20
174.601229
 30
0.0
 11
72.229527
 21
174.601573
 31
0.0
  0
LINE
  5
2CB
100
AcDbEntity
  8
レイヤー_2
 62
     7
100
AcDbLine
 10
71.616817
 20
164.619065
 30
0.0
 11
71.618195
 21
164.617687
 31
0.0
  0
LINE
  5
2CA
100
AcDbEntity
  8
レイヤー_2
 62
     7
100
AcDbLine
 10
74.773041
 20
177.393134
 30
0.0
 11
79.093536
 21
173.767171
 31
0.0
  0
LINE
  5
2C9
100
AcDbEntity
  8
レイヤー_2
 62
     7
100
AcDbLine
 10
56.003644
 20
173.767171
 30
0.0
 11
60.324311
 21
177.393134
 31
0.0
  0
LINE
  5
2C8
100
AcDbEntity
  8
レイヤー_2
 62
     7
100
AcDbLine
 10
72.28241
 20
148.606261
 30
0.0
 11
72.502035
 21
148.606261
 31
0.0
  0
LINE
  5
2C7
100
AcDbEntity
  8
レイヤー_2
 62
     7
100
AcDbLine
 10
62.90262
 20
148.606261
 30
0.0
 11
72.28241
 21
148.606261
 31
0.0
  0
SPLINE
  5
2C6
100
AcDbEntity
  8
レイヤー_2
 62
     7
100
AcDbSpline
210
0.0
220
0.0
230
1.0
 70
     8
 71
     3
 72
     8
 73
     4
 74
     0
 42
0.00000001
 43
0.00000001
 40
0.0
 40
0.0
 40
0.0
 40
0.0
 40
1.0
 40
1.0
 40
1.0
 40
1.0
 10
113.55654839409721
 20
134.38215060763886
 30
0.0
 10
114.17459852430555
 20
134.36871473524303
 30
0.0
 10
114.84673665364582
 20
134.25227050781248
 30
0.0
 10
115.55677083333332
 20
133.97976345486109
 30
0.0
  0
LINE
  5
2C5
100
AcDbEntity
  8
レイヤー_2
 62
     7
100
AcDbLine
 10
118.456508
 20
146.778293
 30
0.0
 11
118.074102
 21
146.845817
 31
0.0
  0
LINE
  5
2C4
100
AcDbEntity
  8
レイヤー_2
 62
     7
100
AcDbLine
 10
116.239933
 20
146.845817
 30
0.0
 11
115.857183
 21
146.778293
 31
0.0
  0
LINE
  5
2C3
100
AcDbEntity
  8
レイヤー_2
 62
     7
100
AcDbLine
 10
115.857183
 20
146.485805
 30
0.0
 11
116.156906
 21
145.96594
 31
0.0
  0
LINE
  5
2C2
100
AcDbEntity
  8
レイヤー_2
 62
     7
100
AcDbLine
 10
118.156784
 20
145.96594
 30
0.0
 11
118.456508
 21
146.485805
 31
0.0
  0
LINE
  5
2C1
100
AcDbEntity
  8
レイヤー_2
 62
     7
100
AcDbLine
 10
118.456508
 20
146.485805
 30
0.0
 11
118.456508
 21
146.778293
 31
0.0
  0
LINE
  5
2C0
100
AcDbEntity
  8
レイヤー_2
 62
     7
100
AcDbLine
 10
115.857183
 20
146.778293
 30
0.0
 11
115.857183
 21
146.485805
 31
0.0
  0
LINE
  5
2BF
100
AcDbEntity
  8
レイヤー_2
 62
     7
100
AcDbLine
 10
118.156784
 20
141.285777
 30
0.0
 11
118.156784
 21
145.96594
 31
0.0
  0
LINE
  5
2BE
100
AcDbEntity
  8
レイヤー_2
 62
     7
100
AcDbLine
 10
116.156906
 20
145.96594
 30
0.0
 11
116.156906
 21
141.285777
 31
0.0
  0
LINE
  5
2BD
100
AcDbEntity
  8
レイヤー_2
 62
     7
100
AcDbLine
 10
115.857183
 20
141.285777
 30
0.0
 11
115.815153
 21
141.261662
 31
0.0
  0
LINE
  5
2BC
100
AcDbEntity
  8
レイヤー_2
 62
     7
100
AcDbLine
 10
115.815153
 20
138.91004
 30
0.0
 11
115.857183
 21
138.885924
 31
0.0
  0
LINE
  5
2BB
100
AcDbEntity
  8
レイヤー_2
 62
     7
100
AcDbLine
 10
118.498538
 20
141.261662
 30
0.0
 11
118.456508
 21
141.285777
 31
0.0
  0
LINE
  5
2BA
100
AcDbEntity
  8
レイヤー_2
 62
     7
100
AcDbLine
 10
118.456508
 20
138.885924
 30
0.0
 11
118.498538
 21
138.91004
 31
0.0
  0
SPLINE
  5
2B9
100
AcDbEntity
  8
レイヤー_2
 62
     7
100
AcDbSpline
210
0.0
220
0.0
230
1.0
 70
     8
 71
     3
 72
     8
 73
     4
 74
     0
 42
0.00000001
 43
0.00000001
 40
0.0
 40
0.0
 40
0.0
 40
0.0
 40
1.0
 40
1.0
 40
1.0
 40
1.0
 10
110.00224338107638
 20
148.2455593532986
 30
0.0
 10
109.94677734374999
 20
148.2455593532986
 30
0.0
 10
109.90199110243054
 20
148.20111762152777
 30
0.0
 10
109.90199110243054
 20
148.14599609375
 30
0.0
  0
SPLINE
  5
2B8
100
AcDbEntity
  8
レイヤー_2
 62
     7
100
AcDbSpline
210
0.0
220
0.0
230
1.0
 70
     8
 71
     3
 72
     8
 73
     4
 74
     0
 42
0.00000001
 43
0.00000001
 40
0.0
 40
0.0
 40
0.0
 40
0.0
 40
1.0
 40
1.0
 40
1.0
 40
1.0
 10
120.30204535590276
 20
148.14599609375
 30
0.0
 10
120.30204535590276
 20
148.20111762152777
 30
0.0
 10
120.25725911458332
 20
148.2455593532986
 30
0.0
 10
120.20213758680555
 20
148.2455593532986
 30
0.0
  0
LINE
  5
2B7
100
AcDbEntity
  8
レイヤー_2
 62
     7
100
AcDbLine
 10
120.302045
 20
146.945725
 30
0.0
 11
120.302045
 21
148.145996
 31
0.0
  0
LINE
  5
2B6
100
AcDbEntity
  8
レイヤー_2
 62
     7
100
AcDbLine
 10
109.901991
 20
148.145996
 30
0.0
 11
109.901991
 21
146.945725
 31
0.0
  0
SPLINE
  5
2B5
100
AcDbEntity
  8
レイヤー_2
 62
     7
100
AcDbSpline
210
0.0
220
0.0
230
1.0
 70
     8
 71
     3
 72
     8
 73
     4
 74
     0
 42
0.00000001
 43
0.00000001
 40
0.0
 40
0.0
 40
0.0
 40
0.0
 40
1.0
 40
1.0
 40
1.0
 40
1.0
 10
109.90199110243054
 20
146.94572482638887
 30
0.0
 10
109.90199110243054
 20
146.8906032986111
 30
0.0
 10
109.94677734374999
 20
146.84581705729164
 30
0.0
 10
110.00224338107638
 20
146.84581705729164
 30
0.0
  0
SPLINE
  5
2B4
100
AcDbEntity
  8
レイヤー_2
 62
     7
100
AcDbSpline
210
0.0
220
0.0
230
1.0
 70
     8
 71
     3
 72
     8
 73
     4
 74
     0
 42
0.00000001
 43
0.00000001
 40
0.0
 40
0.0
 40
0.0
 40
0.0
 40
1.0
 40
1.0
 40
1.0
 40
1.0
 10
120.20213758680555
 20
146.84581705729164
 30
0.0
 10
120.25725911458332
 20
146.84581705729164
 30
0.0
 10
120.30204535590276
 20
146.8906032986111
 30
0.0
 10
120.30204535590276
 20
146.94572482638887
 30
0.0
  0
LINE
  5
2B3
100
AcDbEntity
  8
レイヤー_2
 62
     7
100
AcDbLine
 10
115.924707
 20
148.145996
 30
0.0
 11
115.924707
 21
146.945725
 31
0.0
  0
SPLINE
  5
2B2
100
AcDbEntity
  8
レイヤー_2
 62
     7
100
AcDbSpline
210
0.0
220
0.0
230
1.0
 70
     8
 71
     3
 72
     8
 73
     4
 74
     0
 42
0.00000001
 43
0.00000001
 40
0.0
 40
0.0
 40
0.0
 40
0.0
 40
1.0
 40
1.0
 40
1.0
 40
1.0
 10
116.02461480034721
 20
148.2455593532986
 30
0.0
 10
115.96983778211805
 20
148.2455593532986
 30
0.0
 10
115.92470703124999
 20
148.20111762152777
 30
0.0
 10
115.92470703124999
 20
148.14599609375
 30
0.0
  0
SPLINE
  5
2B1
100
AcDbEntity
  8
レイヤー_2
 62
     7
100
AcDbSpline
210
0.0
220
0.0
230
1.0
 70
     8
 71
     3
 72
     8
 73
     4
 74
     0
 42
0.00000001
 43
0.00000001
 40
0.0
 40
0.0
 40
0.0
 40
0.0
 40
1.0
 40
1.0
 40
1.0
 40
1.0
 10
115.92470703124999
 20
146.94572482638887
 30
0.0
 10
115.92470703124999
 20
146.8906032986111
 30
0.0
 10
115.96983778211805
 20
146.84581705729164
 30
0.0
 10
116.02461480034721
 20
146.84581705729164
 30
0.0
  0
SPLINE
  5
2B0
100
AcDbEntity
  8
レイヤー_2
 62
     7
100
AcDbSpline
210
0.0
220
0.0
230
1.0
 70
     8
 71
     3
 72
     8
 73
     4
 74
     0
 42
0.00000001
 43
0.00000001
 40
0.0
 40
0.0
 40
0.0
 40
0.0
 40
1.0
 40
1.0
 40
1.0
 40
1.0
 10
112.01142306857638
 20
148.14599609375
 30
0.0
 10
112.01142306857638
 20
148.20111762152777
 30
0.0
 10
111.96629231770832
 20
148.2455593532986
 30
0.0
 10
111.91151529947916
 20
148.2455593532986
 30
0.0
  0
LINE
  5
2AF
100
AcDbEntity
  8
レイヤー_2
 62
     7
100
AcDbLine
 10
112.011423
 20
147.860742
 30
0.0
 11
112.011423
 21
148.145996
 31
0.0
  0
SPLINE
  5
2AE
100
AcDbEntity
  8
レイヤー_2
 62
     7
100
AcDbSpline
210
0.0
220
0.0
230
1.0
 70
     8
 71
     3
 72
     8
 73
     4
 74
     0
 42
0.00000001
 43
0.00000001
 40
0.0
 40
0.0
 40
0.0
 40
0.0
 40
1.0
 40
1.0
 40
1.0
 40
1.0
 10
112.11305338541666
 20
147.84558376736109
 30
0.0
 10
112.11305338541666
 20
147.90070529513886
 30
0.0
 10
112.06792263454859
 20
147.94618055555554
 30
0.0
 10
112.01314561631943
 20
147.94618055555554
 30
0.0
  0
LINE
  5
2AD
100
AcDbEntity
  8
レイヤー_2
 62
     7
100
AcDbLine
 10
112.113053
 20
146.945725
 30
0.0
 11
112.113053
 21
147.845584
 31
0.0
  0
SPLINE
  5
2AC
100
AcDbEntity
  8
レイヤー_2
 62
     7
100
AcDbSpline
210
0.0
220
0.0
230
1.0
 70
     8
 71
     3
 72
     8
 73
     4
 74
     0
 42
0.00000001
 43
0.00000001
 40
0.0
 40
0.0
 40
0.0
 40
0.0
 40
1.0
 40
1.0
 40
1.0
 40
1.0
 10
115.85718315972221
 20
147.94618055555554
 30
0.0
 10
115.80137261284722
 20
147.94618055555554
 30
0.0
 10
115.75727539062498
 20
147.90070529513886
 30
0.0
 10
115.75727539062498
 20
147.84558376736109
 30
0.0
  0
SPLINE
  5
2AB
100
AcDbEntity
  8
レイヤー_2
 62
     7
100
AcDbSpline
210
0.0
220
0.0
230
1.0
 70
     8
 71
     3
 72
     8
 73
     4
 74
     0
 42
0.00000001
 43
0.00000001
 40
0.0
 40
0.0
 40
0.0
 40
0.0
 40
1.0
 40
1.0
 40
1.0
 40
1.0
 10
115.75727539062498
 20
146.94572482638887
 30
0.0
 10
115.75727539062498
 20
146.8906032986111
 30
0.0
 10
115.80137261284722
 20
146.84581705729164
 30
0.0
 10
115.85718315972221
 20
146.84581705729164
 30
0.0
  0
LINE
  5
2AA
100
AcDbEntity
  8
レイヤー_2
 62
     7
100
AcDbLine
 10
115.757275
 20
147.845584
 30
0.0
 11
115.757275
 21
146.945725
 31
0.0
  0
LINE
  5
2A9
100
AcDbEntity
  8
レイヤー_2
 62
     7
100
AcDbLine
 10
113.496948
 20
158.022396
 30
0.0
 11
113.408065
 21
158.744488
 31
0.0
  0
LINE
  5
2A8
100
AcDbEntity
  8
レイヤー_2
 62
     7
100
AcDbLine
 10
113.311602
 20
147.946181
 30
0.0
 11
113.557237
 21
145.948025
 31
0.0
  0
SPLINE
  5
2A7
100
AcDbEntity
  8
レイヤー_2
 62
     7
100
AcDbSpline
210
0.0
220
0.0
230
1.0
 70
     8
 71
     3
 72
     8
 73
     4
 74
     0
 42
0.00000001
 43
0.00000001
 40
0.0
 40
0.0
 40
0.0
 40
0.0
 40
1.0
 40
1.0
 40
1.0
 40
1.0
 10
115.75727539062498
 20
156.4869167751736
 30
0.0
 10
115.75727539062498
 20
156.61955295138887
 30
0.0
 10
115.72006835937499
 20
156.74426540798609
 30
0.0
 10
115.65667860243055
 20
156.84727376302081
 30
0.0
  0
SPLINE
  5
2A6
100
AcDbEntity
  8
レイヤー_2
 62
     7
100
AcDbSpline
210
0.0
220
0.0
230
1.0
 70
     8
 71
     3
 72
     8
 73
     4
 74
     0
 42
0.00000001
 43
0.00000001
 40
0.0
 40
0.0
 40
0.0
 40
0.0
 40
1.0
 40
1.0
 40
1.0
 40
1.0
 10
113.4569851345486
 20
156.84727376302081
 30
0.0
 10
113.38808322482637
 20
156.73289659288193
 30
0.0
 10
113.35638834635415
 20
156.60715060763889
 30
0.0
 10
113.35707736545137
 20
156.4869167751736
 30
0.0
  0
LINE
  5
2A5
100
AcDbEntity
  8
レイヤー_2
 62
     7
100
AcDbLine
 10
115.757275
 20
155.747255
 30
0.0
 11
115.757275
 21
156.486917
 31
0.0
  0
LINE
  5
2A4
100
AcDbEntity
  8
レイヤー_2
 62
     7
100
AcDbLine
 10
113.357077
 20
156.486917
 30
0.0
 11
113.357077
 21
155.747255
 31
0.0
  0
SPLINE
  5
2A3
100
AcDbEntity
  8
レイヤー_2
 62
     7
100
AcDbSpline
210
0.0
220
0.0
230
1.0
 70
     8
 71
     3
 72
     8
 73
     4
 74
     0
 42
0.00000001
 43
0.00000001
 40
0.0
 40
0.0
 40
0.0
 40
0.0
 40
1.0
 40
1.0
 40
1.0
 40
1.0
 10
115.75727539062498
 20
159.00769314236109
 30
0.0
 10
115.75727539062498
 20
159.10863444010414
 30
0.0
 10
115.73557128906249
 20
159.20475260416666
 30
0.0
 10
115.6987087673611
 20
159.28743489583331
 30
0.0
  0
SPLINE
  5
2A2
100
AcDbEntity
  8
レイヤー_2
 62
     7
100
AcDbSpline
210
0.0
220
0.0
230
1.0
 70
     8
 71
     3
 72
     8
 73
     4
 74
     0
 42
0.00000001
 43
0.00000001
 40
0.0
 40
0.0
 40
0.0
 40
0.0
 40
1.0
 40
1.0
 40
1.0
 40
1.0
 10
115.65667860243055
 20
158.64699164496525
 30
0.0
 10
115.72523600260416
 20
158.76171332465276
 30
0.0
 10
115.75796440972221
 20
158.88711480034721
 30
0.0
 10
115.75727539062498
 20
159.00769314236109
 30
0.0
  0
SPLINE
  5
2A1
100
AcDbEntity
  8
レイヤー_2
 62
     7
100
AcDbSpline
210
0.0
220
0.0
230
1.0
 70
     8
 71
     3
 72
     8
 73
     4
 74
     0
 42
0.00000001
 43
0.00000001
 40
0.0
 40
0.0
 40
0.0
 40
0.0
 40
1.0
 40
1.0
 40
1.0
 40
1.0
 10
113.41529947916666
 20
159.28743489583331
 30
0.0
 10
113.32159288194444
 20
159.07211642795139
 30
0.0
 10
113.34433051215277
 20
158.83647189670137
 30
0.0
 10
113.4569851345486
 20
158.64699164496525
 30
0.0
  0
SPLINE
  5
2A0
100
AcDbEntity
  8
レイヤー_2
 62
     7
100
AcDbSpline
210
0.0
220
0.0
230
1.0
 70
     8
 71
     3
 72
     8
 73
     4
 74
     0
 42
0.00000001
 43
0.00000001
 40
0.0
 40
0.0
 40
0.0
 40
0.0
 40
1.0
 40
1.0
 40
1.0
 40
1.0
 10
115.6987087673611
 20
159.28743489583331
 30
0.0
 10
115.68251681857637
 20
159.32464192708332
 30
0.0
 10
115.64599880642361
 20
159.34669053819442
 30
0.0
 10
115.60741373697915
 20
159.34703504774305
 30
0.0
  0
SPLINE
  5
29F
100
AcDbEntity
  8
レイヤー_2
 62
     7
100
AcDbSpline
210
0.0
220
0.0
230
1.0
 70
     8
 71
     3
 72
     8
 73
     4
 74
     0
 42
0.00000001
 43
0.00000001
 40
0.0
 40
0.0
 40
0.0
 40
0.0
 40
1.0
 40
1.0
 40
1.0
 40
1.0
 10
113.50624999999999
 20
159.34703504774305
 30
0.0
 10
113.46594238281249
 20
159.34703504774305
 30
0.0
 10
113.43114691840277
 20
159.32257486979165
 30
0.0
 10
113.41529947916666
 20
159.28743489583331
 30
0.0
  0
LINE
  5
29E
100
AcDbEntity
  8
レイヤー_2
 62
     7
100
AcDbLine
 10
115.656679
 20
159.347035
 30
0.0
 11
115.656679
 21
159.547195
 31
0.0
  0
LINE
  5
29D
100
AcDbEntity
  8
レイヤー_2
 62
     7
100
AcDbLine
 10
113.456985
 20
159.547195
 30
0.0
 11
113.456985
 21
159.347035
 31
0.0
  0
LINE
  5
29C
100
AcDbEntity
  8
レイヤー_2
 62
     7
100
AcDbLine
 10
115.55746
 20
133.979074
 30
0.0
 11
115.55746
 21
147.946181
 31
0.0
  0
LINE
  5
29B
100
AcDbEntity
  8
レイヤー_2
 62
     7
100
AcDbLine
 10
115.55746
 20
148.545627
 30
0.0
 11
115.55746
 21
155.747255
 31
0.0
  0
LINE
  5
29A
100
AcDbEntity
  8
レイヤー_2
 62
     7
100
AcDbLine
 10
113.557237
 20
155.747255
 30
0.0
 11
113.557237
 21
148.545627
 31
0.0
  0
LINE
  5
299
100
AcDbEntity
  8
レイヤー_2
 62
     7
100
AcDbLine
 10
113.557237
 20
147.946181
 30
0.0
 11
113.557237
 21
134.382151
 31
0.0
  0
LINE
  5
298
100
AcDbEntity
  8
レイヤー_2
 62
     7
100
AcDbLine
 10
117.956624
 20
148.545627
 30
0.0
 11
117.956624
 21
160.387109
 31
0.0
  0
LINE
  5
297
100
AcDbEntity
  8
レイヤー_2
 62
     7
100
AcDbLine
 10
116.356722
 20
160.387109
 30
0.0
 11
116.356722
 21
148.545627
 31
0.0
  0
LINE
  5
296
100
AcDbEntity
  8
レイヤー_2
 62
     7
100
AcDbLine
 10
117.607292
 20
175.291281
 30
0.0
 11
117.607292
 21
175.980301
 31
0.0
  0
LINE
  5
295
100
AcDbEntity
  8
レイヤー_2
 62
     7
100
AcDbLine
 10
112.706988
 20
175.980301
 30
0.0
 11
112.706988
 21
175.291281
 31
0.0
  0
POLYLINE
  5
283
100
AcDbEntity
  8
レイヤー_2
 62
     7
100
AcDb2dPolyline
 66
     1
 10
0.0
 20
0.0
 30
0.0
  0
VERTEX
  5
284
100
AcDbEntity
  8
レイヤー_2
 62
     7
100
AcDbVertex
100
AcDb2dVertex
 10
113.912082
 20
174.111336
 30
0.0
  0
VERTEX
  5
285
100
AcDbEntity
  8
レイヤー_2
 62
     7
100
AcDbVertex
100
AcDb2dVertex
 10
113.921729
 20
173.919444
 30
0.0
  0
VERTEX
  5
286
100
AcDbEntity
  8
レイヤー_2
 62
     7
100
AcDbVertex
100
AcDb2dVertex
 10
113.995454
 20
173.70516
 30
0.0
  0
VERTEX
  5
287
100
AcDbEntity
  8
レイヤー_2
 62
     7
100
AcDbVertex
100
AcDb2dVertex
 10
114.124989
 20
173.510512
 30
0.0
  0
VERTEX
  5
288
100
AcDbEntity
  8
レイヤー_2
 62
     7
100
AcDbVertex
100
AcDb2dVertex
 10
114.306201
 20
173.342391
 30
0.0
  0
VERTEX
  5
289
100
AcDbEntity
  8
レイヤー_2
 62
     7
100
AcDbVertex
100
AcDb2dVertex
 10
114.53151
 20
173.211133
 30
0.0
  0
VERTEX
  5
28A
100
AcDbEntity
  8
レイヤー_2
 62
     7
100
AcDbVertex
100
AcDb2dVertex
 10
114.788515
 20
173.121905
 30
0.0
  0
VERTEX
  5
28B
100
AcDbEntity
  8
レイヤー_2
 62
     7
100
AcDbVertex
100
AcDb2dVertex
 10
115.066189
 20
173.080908
 30
0.0
  0
VERTEX
  5
28C
100
AcDbEntity
  8
レイヤー_2
 62
     7
100
AcDbVertex
100
AcDb2dVertex
 10
115.348343
 20
173.089865
 30
0.0
  0
VERTEX
  5
28D
100
AcDbEntity
  8
レイヤー_2
 62
     7
100
AcDbVertex
100
AcDb2dVertex
 10
115.621194
 20
173.149121
 30
0.0
  0
VERTEX
  5
28E
100
AcDbEntity
  8
レイヤー_2
 62
     7
100
AcDbVertex
100
AcDb2dVertex
 10
115.872342
 20
173.256608
 30
0.0
  0
VERTEX
  5
28F
100
AcDbEntity
  8
レイヤー_2
 62
     7
100
AcDbVertex
100
AcDb2dVertex
 10
116.086971
 20
173.406814
 30
0.0
  0
VERTEX
  5
290
100
AcDbEntity
  8
レイヤー_2
 62
     7
100
AcDbVertex
100
AcDb2dVertex
 10
116.253369
 20
173.593883
 30
0.0
  0
VERTEX
  5
291
100
AcDbEntity
  8
レイヤー_2
 62
     7
100
AcDbVertex
100
AcDb2dVertex
 10
116.361545
 20
173.807479
 30
0.0
  0
VERTEX
  5
292
100
AcDbEntity
  8
レイヤー_2
 62
     7
100
AcDbVertex
100
AcDb2dVertex
 10
116.405642
 20
174.033477
 30
0.0
  0
VERTEX
  5
293
100
AcDbEntity
  8
レイヤー_2
 62
     7
100
AcDbVertex
100
AcDb2dVertex
 10
116.403231
 20
174.063105
 30
0.0
  0
SEQEND
  5
294
100
AcDbEntity
  8
レイヤー_2
 62
     7
  0
LINE
  5
282
100
AcDbEntity
  8
レイヤー_2
 62
     7
100
AcDbLine
 10
116.407365
 20
174.07344
 30
0.0
 11
116.407365
 21
177.564011
 31
0.0
  0
LINE
  5
281
100
AcDbEntity
  8
レイヤー_2
 62
     7
100
AcDbLine
 10
113.90657
 20
177.564011
 30
0.0
 11
113.90657
 21
174.07344
 31
0.0
  0
SPLINE
  5
280
100
AcDbEntity
  8
レイヤー_2
 62
     7
100
AcDbSpline
210
0.0
220
0.0
230
1.0
 70
     8
 71
     3
 72
     8
 73
     4
 74
     0
 42
0.00000001
 43
0.00000001
 40
0.0
 40
0.0
 40
0.0
 40
0.0
 40
1.0
 40
1.0
 40
1.0
 40
1.0
 10
108.31690266927082
 20
179.71960720486109
 30
0.0
 10
108.22836371527777
 20
179.71960720486109
 30
0.0
 10
108.15705023871527
 20
179.64898274739582
 30
0.0
 10
108.15705023871527
 20
179.55975477430553
 30
0.0
  0
SPLINE
  5
27F
100
AcDbEntity
  8
レイヤー_2
 62
     7
100
AcDbSpline
210
0.0
220
0.0
230
1.0
 70
     8
 71
     3
 72
     8
 73
     4
 74
     0
 42
0.00000001
 43
0.00000001
 40
0.0
 40
0.0
 40
0.0
 40
0.0
 40
1.0
 40
1.0
 40
1.0
 40
1.0
 10
108.15705023871527
 20
177.37969835069444
 30
0.0
 10
108.15705023871527
 20
177.29150390624997
 30
0.0
 10
108.22836371527777
 20
177.21984592013888
 30
0.0
 10
108.31690266927082
 20
177.21984592013888
 30
0.0
  0
LINE
  5
27E
100
AcDbEntity
  8
レイヤー_2
 62
     7
100
AcDbLine
 10
114.250391
 20
179.719607
 30
0.0
 11
108.316903
 21
179.719607
 31
0.0
  0
LINE
  5
27D
100
AcDbEntity
  8
レイヤー_2
 62
     7
100
AcDbLine
 10
108.316903
 20
177.219846
 30
0.0
 11
113.90657
 21
177.219846
 31
0.0
  0
LINE
  5
27C
100
AcDbEntity
  8
レイヤー_2
 62
     7
100
AcDbLine
 10
121.997032
 20
179.719607
 30
0.0
 11
116.0632
 21
179.719607
 31
0.0
  0
LINE
  5
27B
100
AcDbEntity
  8
レイヤー_2
 62
     7
100
AcDbLine
 10
116.407365
 20
177.219846
 30
0.0
 11
121.997032
 21
177.219846
 31
0.0
  0
SPLINE
  5
27A
100
AcDbEntity
  8
レイヤー_2
 62
     7
100
AcDbSpline
210
0.0
220
0.0
230
1.0
 70
     8
 71
     3
 72
     8
 73
     4
 74
     0
 42
0.00000001
 43
0.00000001
 40
0.0
 40
0.0
 40
0.0
 40
0.0
 40
1.0
 40
1.0
 40
1.0
 40
1.0
 10
121.99703233506943
 20
177.21984592013888
 30
0.0
 10
122.08557128906249
 20
177.21984592013888
 30
0.0
 10
122.15688476562499
 20
177.29150390624997
 30
0.0
 10
122.15688476562499
 20
177.37969835069444
 30
0.0
  0
SPLINE
  5
279
100
AcDbEntity
  8
レイヤー_2
 62
     7
100
AcDbSpline
210
0.0
220
0.0
230
1.0
 70
     8
 71
     3
 72
     8
 73
     4
 74
     0
 42
0.00000001
 43
0.00000001
 40
0.0
 40
0.0
 40
0.0
 40
0.0
 40
1.0
 40
1.0
 40
1.0
 40
1.0
 10
122.15688476562499
 20
179.55975477430553
 30
0.0
 10
122.15688476562499
 20
179.64898274739582
 30
0.0
 10
122.08557128906249
 20
179.71960720486109
 30
0.0
 10
121.99703233506943
 20
179.71960720486109
 30
0.0
  0
LINE
  5
278
100
AcDbEntity
  8
レイヤー_2
 62
     7
100
AcDbLine
 10
116.407365
 20
179.719607
 30
0.0
 11
116.407365
 21
182.867046
 31
0.0
  0
LINE
  5
277
100
AcDbEntity
  8
レイヤー_2
 62
     7
100
AcDbLine
 10
113.90657
 20
182.867046
 30
0.0
 11
113.90657
 21
179.719607
 31
0.0
  0
LINE
  5
276
100
AcDbEntity
  8
レイヤー_2
 62
     7
100
AcDbLine
 10
113.832845
 20
177.219846
 30
0.0
 11
113.846281
 21
176.019575
 31
0.0
  0
LINE
  5
275
100
AcDbEntity
  8
レイヤー_2
 62
     7
100
AcDbLine
 10
116.467654
 20
176.019575
 30
0.0
 11
116.48109
 21
177.219846
 31
0.0
  0
POLYLINE
  5
263
100
AcDbEntity
  8
レイヤー_2
 62
     7
100
AcDb2dPolyline
 66
     1
 10
0.0
 20
0.0
 30
0.0
  0
VERTEX
  5
264
100
AcDbEntity
  8
レイヤー_2
 62
     7
100
AcDbVertex
100
AcDb2dVertex
 10
116.399786
 20
182.868424
 30
0.0
  0
VERTEX
  5
265
100
AcDbEntity
  8
レイヤー_2
 62
     7
100
AcDbVertex
100
AcDb2dVertex
 10
116.392551
 20
183.020353
 30
0.0
  0
VERTEX
  5
266
100
AcDbEntity
  8
レイヤー_2
 62
     7
100
AcDbVertex
100
AcDb2dVertex
 10
116.318826
 20
183.235327
 30
0.0
  0
VERTEX
  5
267
100
AcDbEntity
  8
レイヤー_2
 62
     7
100
AcDbVertex
100
AcDb2dVertex
 10
116.188601
 20
183.429975
 30
0.0
  0
VERTEX
  5
268
100
AcDbEntity
  8
レイヤー_2
 62
     7
100
AcDbVertex
100
AcDb2dVertex
 10
116.007734
 20
183.597407
 30
0.0
  0
VERTEX
  5
269
100
AcDbEntity
  8
レイヤー_2
 62
     7
100
AcDbVertex
100
AcDb2dVertex
 10
115.78208
 20
183.728665
 30
0.0
  0
VERTEX
  5
26A
100
AcDbEntity
  8
レイヤー_2
 62
     7
100
AcDbVertex
100
AcDb2dVertex
 10
115.525076
 20
183.817893
 30
0.0
  0
VERTEX
  5
26B
100
AcDbEntity
  8
レイヤー_2
 62
     7
100
AcDbVertex
100
AcDb2dVertex
 10
115.247746
 20
183.858889
 30
0.0
  0
VERTEX
  5
26C
100
AcDbEntity
  8
レイヤー_2
 62
     7
100
AcDbVertex
100
AcDb2dVertex
 10
114.966281
 20
183.849932
 30
0.0
  0
VERTEX
  5
26D
100
AcDbEntity
  8
レイヤー_2
 62
     7
100
AcDbVertex
100
AcDb2dVertex
 10
114.692741
 20
183.791021
 30
0.0
  0
VERTEX
  5
26E
100
AcDbEntity
  8
レイヤー_2
 62
     7
100
AcDbVertex
100
AcDb2dVertex
 10
114.441938
 20
183.683879
 30
0.0
  0
VERTEX
  5
26F
100
AcDbEntity
  8
レイヤー_2
 62
     7
100
AcDbVertex
100
AcDb2dVertex
 10
114.227308
 20
183.532983
 30
0.0
  0
VERTEX
  5
270
100
AcDbEntity
  8
レイヤー_2
 62
     7
100
AcDbVertex
100
AcDb2dVertex
 10
114.060221
 20
183.346259
 30
0.0
  0
VERTEX
  5
271
100
AcDbEntity
  8
レイヤー_2
 62
     7
100
AcDbVertex
100
AcDb2dVertex
 10
113.952045
 20
183.132319
 30
0.0
  0
VERTEX
  5
272
100
AcDbEntity
  8
レイヤー_2
 62
     7
100
AcDbVertex
100
AcDb2dVertex
 10
113.907948
 20
182.906665
 30
0.0
  0
VERTEX
  5
273
100
AcDbEntity
  8
レイヤー_2
 62
     7
100
AcDbVertex
100
AcDb2dVertex
 10
113.916216
 20
182.820193
 30
0.0
  0
SEQEND
  5
274
100
AcDbEntity
  8
レイヤー_2
 62
     7
  0
SPLINE
  5
262
100
AcDbEntity
  8
レイヤー_2
 62
     7
100
AcDbSpline
210
0.0
220
0.0
230
1.0
 70
     8
 71
     3
 72
     8
 73
     4
 74
     0
 42
0.00000001
 43
0.00000001
 40
0.0
 40
0.0
 40
0.0
 40
0.0
 40
1.0
 40
1.0
 40
1.0
 40
1.0
 10
121.05686577690972
 20
162.26709798177083
 30
0.0
 10
121.05686577690972
 20
162.3222195095486
 30
0.0
 10
121.01207953559026
 20
162.36700575086803
 30
0.0
 10
120.95695800781249
 20
162.36700575086803
 30
0.0
  0
SPLINE
  5
261
100
AcDbEntity
  8
レイヤー_2
 62
     7
100
AcDbSpline
210
0.0
220
0.0
230
1.0
 70
     8
 71
     3
 72
     8
 73
     4
 74
     0
 42
0.00000001
 43
0.00000001
 40
0.0
 40
0.0
 40
0.0
 40
0.0
 40
1.0
 40
1.0
 40
1.0
 40
1.0
 10
109.35697699652776
 20
162.36700575086803
 30
0.0
 10
109.3021999782986
 20
162.36700575086803
 30
0.0
 10
109.25672471788194
 20
162.3222195095486
 30
0.0
 10
109.25672471788194
 20
162.26709798177083
 30
0.0
  0
LINE
  5
260
100
AcDbEntity
  8
レイヤー_2
 62
     7
100
AcDbLine
 10
109.256725
 20
162.267098
 30
0.0
 11
109.256725
 21
160.567632
 31
0.0
  0
LINE
  5
25F
100
AcDbEntity
  8
レイヤー_2
 62
     7
100
AcDbLine
 10
121.056866
 20
160.567632
 30
0.0
 11
121.056866
 21
162.267098
 31
0.0
  0
SPLINE
  5
25E
100
AcDbEntity
  8
レイヤー_2
 62
     7
100
AcDbSpline
210
0.0
220
0.0
230
1.0
 70
     8
 71
     3
 72
     8
 73
     4
 74
     0
 42
0.00000001
 43
0.00000001
 40
0.0
 40
0.0
 40
0.0
 40
0.0
 40
1.0
 40
1.0
 40
1.0
 40
1.0
 10
118.12956814236109
 20
175.46422526041664
 30
0.0
 10
118.07513563368055
 20
176.11052517361111
 30
0.0
 10
117.67757161458333
 20
176.64520399305553
 30
0.0
 10
117.12153320312498
 20
176.90840928819443
 30
0.0
  0
POLYLINE
  5
254
100
AcDbEntity
  8
レイヤー_2
 62
     7
100
AcDb2dPolyline
 66
     1
 10
0.0
 20
0.0
 30
0.0
  0
VERTEX
  5
255
100
AcDbEntity
  8
レイヤー_2
 62
     7
100
AcDbVertex
100
AcDb2dVertex
 10
113.16932
 20
176.894973
 30
0.0
  0
VERTEX
  5
256
100
AcDbEntity
  8
レイヤー_2
 62
     7
100
AcDbVertex
100
AcDb2dVertex
 10
113.001199
 20
176.79541
 30
0.0
  0
VERTEX
  5
257
100
AcDbEntity
  8
レイヤー_2
 62
     7
100
AcDbVertex
100
AcDb2dVertex
 10
112.721457
 20
176.570445
 30
0.0
  0
VERTEX
  5
258
100
AcDbEntity
  8
レイヤー_2
 62
     7
100
AcDbVertex
100
AcDb2dVertex
 10
112.494081
 20
176.319298
 30
0.0
  0
VERTEX
  5
259
100
AcDbEntity
  8
レイヤー_2
 62
     7
100
AcDbVertex
100
AcDb2dVertex
 10
112.325616
 20
176.048169
 30
0.0
  0
VERTEX
  5
25A
100
AcDbEntity
  8
レイヤー_2
 62
     7
100
AcDbVertex
100
AcDb2dVertex
 10
112.219507
 20
175.762571
 30
0.0
  0
VERTEX
  5
25B
100
AcDbEntity
  8
レイヤー_2
 62
     7
100
AcDbVertex
100
AcDb2dVertex
 10
112.177821
 20
175.47146
 30
0.0
  0
VERTEX
  5
25C
100
AcDbEntity
  8
レイヤー_2
 62
     7
100
AcDbVertex
100
AcDb2dVertex
 10
112.191602
 20
175.287836
 30
0.0
  0
SEQEND
  5
25D
100
AcDbEntity
  8
レイヤー_2
 62
     7
  0
LINE
  5
253
100
AcDbEntity
  8
レイヤー_2
 62
     7
100
AcDbLine
 10
118.136458
 20
167.69519
 30
0.0
 11
118.136458
 21
175.428741
 31
0.0
  0
LINE
  5
252
100
AcDbEntity
  8
レイヤー_2
 62
     7
100
AcDbLine
 10
112.176788
 20
175.428741
 30
0.0
 11
112.176788
 21
167.696568
 31
0.0
  0
LINE
  5
251
100
AcDbEntity
  8
レイヤー_2
 62
     7
100
AcDbLine
 10
119.136914
 20
162.527203
 30
0.0
 11
119.136914
 21
177.219846
 31
0.0
  0
LINE
  5
250
100
AcDbEntity
  8
レイヤー_2
 62
     7
100
AcDbLine
 10
111.177021
 20
165.173036
 30
0.0
 11
111.177021
 21
162.527203
 31
0.0
  0
LINE
  5
24F
100
AcDbEntity
  8
レイヤー_2
 62
     7
100
AcDbLine
 10
111.177021
 20
177.219846
 30
0.0
 11
111.177021
 21
165.173036
 31
0.0
  0
SPLINE
  5
24E
100
AcDbEntity
  8
レイヤー_2
 62
     7
100
AcDbSpline
210
0.0
220
0.0
230
1.0
 70
     8
 71
     3
 72
     8
 73
     4
 74
     0
 42
0.00000001
 43
0.00000001
 40
0.0
 40
0.0
 40
0.0
 40
0.0
 40
1.0
 40
1.0
 40
1.0
 40
1.0
 10
111.17702094184027
 20
162.52720269097222
 30
0.0
 10
111.17702094184027
 20
162.43900824652778
 30
0.0
 10
111.24833441840276
 20
162.36700575086803
 30
0.0
 10
111.33687337239583
 20
162.36700575086803
 30
0.0
  0
SPLINE
  5
24D
100
AcDbEntity
  8
レイヤー_2
 62
     7
100
AcDbSpline
210
0.0
220
0.0
230
1.0
 70
     8
 71
     3
 72
     8
 73
     4
 74
     0
 42
0.00000001
 43
0.00000001
 40
0.0
 40
0.0
 40
0.0
 40
0.0
 40
1.0
 40
1.0
 40
1.0
 40
1.0
 10
118.97706163194444
 20
162.36700575086803
 30
0.0
 10
119.06525607638888
 20
162.36700575086803
 30
0.0
 10
119.13691406249998
 20
162.43900824652778
 30
0.0
 10
119.13691406249998
 20
162.52720269097222
 30
0.0
  0
SPLINE
  5
24C
100
AcDbEntity
  8
レイヤー_2
 62
     7
100
AcDbSpline
210
0.0
220
0.0
230
1.0
 70
     8
 71
     3
 72
     8
 73
     4
 74
     0
 42
0.00000001
 43
0.00000001
 40
0.0
 40
0.0
 40
0.0
 40
0.0
 40
1.0
 40
1.0
 40
1.0
 40
1.0
 10
110.36776801215277
 20
160.56763237847221
 30
0.0
 10
110.44493815104165
 20
160.45118815104166
 30
0.0
 10
110.57068413628471
 20
160.38745388454859
 30
0.0
 10
110.70228678385416
 20
160.38710937499999
 30
0.0
  0
SPLINE
  5
24B
100
AcDbEntity
  8
レイヤー_2
 62
     7
100
AcDbSpline
210
0.0
220
0.0
230
1.0
 70
     8
 71
     3
 72
     8
 73
     4
 74
     0
 42
0.00000001
 43
0.00000001
 40
0.0
 40
0.0
 40
0.0
 40
0.0
 40
1.0
 40
1.0
 40
1.0
 40
1.0
 10
119.50209418402777
 20
160.38710937499999
 30
0.0
 10
119.64127604166666
 20
160.38710937499999
 30
0.0
 10
119.76323242187499
 20
160.45807834201386
 30
0.0
 10
119.83592393663193
 20
160.56763237847221
 30
0.0
  0
LINE
  5
24A
100
AcDbEntity
  8
レイヤー_2
 62
     7
100
AcDbLine
 10
110.702287
 20
160.387109
 30
0.0
 11
119.502094
 21
160.387109
 31
0.0
  0
LINE
  5
249
100
AcDbEntity
  8
レイヤー_2
 62
     7
100
AcDbLine
 10
119.901725
 20
148.245559
 30
0.0
 11
119.901725
 21
148.545627
 31
0.0
  0
LINE
  5
248
100
AcDbEntity
  8
レイヤー_2
 62
     7
100
AcDbLine
 10
110.302311
 20
148.545627
 30
0.0
 11
110.302311
 21
148.245559
 31
0.0
  0
LINE
  5
247
100
AcDbEntity
  8
レイヤー_2
 62
     7
100
AcDbLine
 10
118.230509
 20
139.002024
 30
0.0
 11
117.507728
 21
138.885924
 31
0.0
  0
POLYLINE
  5
242
100
AcDbEntity
  8
レイヤー_2
 62
     7
100
AcDb2dPolyline
 66
     1
 10
0.0
 20
0.0
 30
0.0
  0
VERTEX
  5
243
100
AcDbEntity
  8
レイヤー_2
 62
     7
100
AcDbVertex
100
AcDb2dVertex
 10
117.507728
 20
138.885924
 30
0.0
  0
VERTEX
  5
244
100
AcDbEntity
  8
レイヤー_2
 62
     7
100
AcDbVertex
100
AcDb2dVertex
 10
117.456052
 20
138.886613
 30
0.0
  0
VERTEX
  5
245
100
AcDbEntity
  8
レイヤー_2
 62
     7
100
AcDbVertex
100
AcDb2dVertex
 10
116.784947
 20
139.002024
 30
0.0
  0
SEQEND
  5
246
100
AcDbEntity
  8
レイヤー_2
 62
     7
  0
LINE
  5
241
100
AcDbEntity
  8
レイヤー_2
 62
     7
100
AcDbLine
 10
116.784947
 20
139.002024
 30
0.0
 11
116.784947
 21
141.169678
 31
0.0
  0
POLYLINE
  5
23C
100
AcDbEntity
  8
レイヤー_2
 62
     7
100
AcDb2dPolyline
 66
     1
 10
0.0
 20
0.0
 30
0.0
  0
VERTEX
  5
23D
100
AcDbEntity
  8
レイヤー_2
 62
     7
100
AcDbVertex
100
AcDb2dVertex
 10
117.507728
 20
141.285777
 30
0.0
  0
VERTEX
  5
23E
100
AcDbEntity
  8
レイヤー_2
 62
     7
100
AcDbVertex
100
AcDb2dVertex
 10
117.456052
 20
141.285433
 30
0.0
  0
VERTEX
  5
23F
100
AcDbEntity
  8
レイヤー_2
 62
     7
100
AcDbVertex
100
AcDb2dVertex
 10
116.784947
 20
141.169678
 30
0.0
  0
SEQEND
  5
240
100
AcDbEntity
  8
レイヤー_2
 62
     7
  0
LINE
  5
23B
100
AcDbEntity
  8
レイヤー_2
 62
     7
100
AcDbLine
 10
118.230509
 20
141.169678
 30
0.0
 11
117.507728
 21
141.285777
 31
0.0
  0
LINE
  5
23A
100
AcDbEntity
  8
レイヤー_2
 62
     7
100
AcDbLine
 10
118.230509
 20
139.002024
 30
0.0
 11
118.230509
 21
141.169678
 31
0.0
  0
LINE
  5
239
100
AcDbEntity
  8
レイヤー_2
 62
     7
100
AcDbLine
 10
116.784947
 20
141.169678
 30
0.0
 11
116.248546
 21
141.285777
 31
0.0
  0
LINE
  5
238
100
AcDbEntity
  8
レイヤー_2
 62
     7
100
AcDbLine
 10
117.507728
 20
141.285777
 30
0.0
 11
116.248546
 21
141.285777
 31
0.0
  0
LINE
  5
237
100
AcDbEntity
  8
レイヤー_2
 62
     7
100
AcDbLine
 10
117.507728
 20
138.885924
 30
0.0
 11
116.248546
 21
138.885924
 31
0.0
  0
LINE
  5
236
100
AcDbEntity
  8
レイヤー_2
 62
     7
100
AcDbLine
 10
116.784947
 20
139.002024
 30
0.0
 11
116.248546
 21
138.885924
 31
0.0
  0
LINE
  5
235
100
AcDbEntity
  8
レイヤー_2
 62
     7
100
AcDbLine
 10
118.416545
 20
146.778293
 30
0.0
 11
115.857183
 21
146.778293
 31
0.0
  0
LINE
  5
234
100
AcDbEntity
  8
レイヤー_2
 62
     7
100
AcDbLine
 10
118.456508
 20
146.778293
 30
0.0
 11
118.416545
 21
146.778293
 31
0.0
  0
LINE
  5
233
100
AcDbEntity
  8
レイヤー_2
 62
     7
100
AcDbLine
 10
118.416545
 20
146.485805
 30
0.0
 11
115.857183
 21
146.485805
 31
0.0
  0
LINE
  5
232
100
AcDbEntity
  8
レイヤー_2
 62
     7
100
AcDbLine
 10
118.456508
 20
146.485805
 30
0.0
 11
118.416545
 21
146.485805
 31
0.0
  0
LINE
  5
231
100
AcDbEntity
  8
レイヤー_2
 62
     7
100
AcDbLine
 10
118.156784
 20
145.96594
 30
0.0
 11
116.156906
 21
145.96594
 31
0.0
  0
POLYLINE
  5
22C
100
AcDbEntity
  8
レイヤー_2
 62
     7
100
AcDb2dPolyline
 66
     1
 10
0.0
 20
0.0
 30
0.0
  0
VERTEX
  5
22D
100
AcDbEntity
  8
レイヤー_2
 62
     7
100
AcDbVertex
100
AcDb2dVertex
 10
116.248546
 20
138.885924
 30
0.0
  0
VERTEX
  5
22E
100
AcDbEntity
  8
レイヤー_2
 62
     7
100
AcDbVertex
100
AcDb2dVertex
 10
116.209961
 20
138.886613
 30
0.0
  0
VERTEX
  5
22F
100
AcDbEntity
  8
レイヤー_2
 62
     7
100
AcDbVertex
100
AcDb2dVertex
 10
115.7118
 20
139.002024
 30
0.0
  0
SEQEND
  5
230
100
AcDbEntity
  8
レイヤー_2
 62
     7
  0
LINE
  5
22B
100
AcDbEntity
  8
レイヤー_2
 62
     7
100
AcDbLine
 10
115.7118
 20
139.002024
 30
0.0
 11
115.7118
 21
141.169678
 31
0.0
  0
POLYLINE
  5
226
100
AcDbEntity
  8
レイヤー_2
 62
     7
100
AcDb2dPolyline
 66
     1
 10
0.0
 20
0.0
 30
0.0
  0
VERTEX
  5
227
100
AcDbEntity
  8
レイヤー_2
 62
     7
100
AcDbVertex
100
AcDb2dVertex
 10
116.248546
 20
141.285777
 30
0.0
  0
VERTEX
  5
228
100
AcDbEntity
  8
レイヤー_2
 62
     7
100
AcDbVertex
100
AcDb2dVertex
 10
116.209961
 20
141.285433
 30
0.0
  0
VERTEX
  5
229
100
AcDbEntity
  8
レイヤー_2
 62
     7
100
AcDbVertex
100
AcDb2dVertex
 10
115.7118
 20
141.169678
 30
0.0
  0
SEQEND
  5
22A
100
AcDbEntity
  8
レイヤー_2
 62
     7
  0
POLYLINE
  5
221
100
AcDbEntity
  8
レイヤー_2
 62
     7
100
AcDb2dPolyline
 66
     1
 10
0.0
 20
0.0
 30
0.0
  0
VERTEX
  5
222
100
AcDbEntity
  8
レイヤー_2
 62
     7
100
AcDbVertex
100
AcDb2dVertex
 10
118.416545
 20
141.285777
 30
0.0
  0
VERTEX
  5
223
100
AcDbEntity
  8
レイヤー_2
 62
     7
100
AcDbVertex
100
AcDb2dVertex
 10
118.365902
 20
141.276476
 30
0.0
  0
VERTEX
  5
224
100
AcDbEntity
  8
レイヤー_2
 62
     7
100
AcDbVertex
100
AcDb2dVertex
 10
118.230509
 20
141.169678
 30
0.0
  0
SEQEND
  5
225
100
AcDbEntity
  8
レイヤー_2
 62
     7
  0
LINE
  5
220
100
AcDbEntity
  8
レイヤー_2
 62
     7
100
AcDbLine
 10
118.416545
 20
141.285777
 30
0.0
 11
117.507728
 21
141.285777
 31
0.0
  0
POLYLINE
  5
21B
100
AcDbEntity
  8
レイヤー_2
 62
     7
100
AcDb2dPolyline
 66
     1
 10
0.0
 20
0.0
 30
0.0
  0
VERTEX
  5
21C
100
AcDbEntity
  8
レイヤー_2
 62
     7
100
AcDbVertex
100
AcDb2dVertex
 10
118.416545
 20
138.885924
 30
0.0
  0
VERTEX
  5
21D
100
AcDbEntity
  8
レイヤー_2
 62
     7
100
AcDbVertex
100
AcDb2dVertex
 10
118.365902
 20
138.895226
 30
0.0
  0
VERTEX
  5
21E
100
AcDbEntity
  8
レイヤー_2
 62
     7
100
AcDbVertex
100
AcDb2dVertex
 10
118.230509
 20
139.002024
 30
0.0
  0
SEQEND
  5
21F
100
AcDbEntity
  8
レイヤー_2
 62
     7
  0
LINE
  5
21A
100
AcDbEntity
  8
レイヤー_2
 62
     7
100
AcDbLine
 10
118.416545
 20
138.885924
 30
0.0
 11
117.507728
 21
138.885924
 31
0.0
  0
POLYLINE
  5
215
100
AcDbEntity
  8
レイヤー_2
 62
     7
100
AcDb2dPolyline
 66
     1
 10
0.0
 20
0.0
 30
0.0
  0
VERTEX
  5
216
100
AcDbEntity
  8
レイヤー_2
 62
     7
100
AcDbVertex
100
AcDb2dVertex
 10
118.60258
 20
139.002024
 30
0.0
  0
VERTEX
  5
217
100
AcDbEntity
  8
レイヤー_2
 62
     7
100
AcDbVertex
100
AcDb2dVertex
 10
118.555382
 20
138.952414
 30
0.0
  0
VERTEX
  5
218
100
AcDbEntity
  8
レイヤー_2
 62
     7
100
AcDbVertex
100
AcDb2dVertex
 10
118.416545
 20
138.885924
 30
0.0
  0
SEQEND
  5
219
100
AcDbEntity
  8
レイヤー_2
 62
     7
  0
POLYLINE
  5
210
100
AcDbEntity
  8
レイヤー_2
 62
     7
100
AcDb2dPolyline
 66
     1
 10
0.0
 20
0.0
 30
0.0
  0
VERTEX
  5
211
100
AcDbEntity
  8
レイヤー_2
 62
     7
100
AcDbVertex
100
AcDb2dVertex
 10
118.60258
 20
141.169678
 30
0.0
  0
VERTEX
  5
212
100
AcDbEntity
  8
レイヤー_2
 62
     7
100
AcDbVertex
100
AcDb2dVertex
 10
118.555382
 20
141.218598
 30
0.0
  0
VERTEX
  5
213
100
AcDbEntity
  8
レイヤー_2
 62
     7
100
AcDbVertex
100
AcDb2dVertex
 10
118.416545
 20
141.285777
 30
0.0
  0
SEQEND
  5
214
100
AcDbEntity
  8
レイヤー_2
 62
     7
  0
LINE
  5
20F
100
AcDbEntity
  8
レイヤー_2
 62
     7
100
AcDbLine
 10
118.60258
 20
139.002024
 30
0.0
 11
118.60258
 21
141.169678
 31
0.0
  0
LINE
  5
20E
100
AcDbEntity
  8
レイヤー_2
 62
     7
100
AcDbLine
 10
115.7118
 20
141.169678
 30
0.0
 11
115.816531
 21
141.253049
 31
0.0
  0
LINE
  5
20D
100
AcDbEntity
  8
レイヤー_2
 62
     7
100
AcDbLine
 10
116.248546
 20
141.285777
 30
0.0
 11
115.857183
 21
141.285777
 31
0.0
  0
LINE
  5
20C
100
AcDbEntity
  8
レイヤー_2
 62
     7
100
AcDbLine
 10
115.7118
 20
139.002024
 30
0.0
 11
115.816531
 21
138.918652
 31
0.0
  0
LINE
  5
20B
100
AcDbEntity
  8
レイヤー_2
 62
     7
100
AcDbLine
 10
116.248546
 20
138.885924
 30
0.0
 11
115.857183
 21
138.885924
 31
0.0
  0
LINE
  5
20A
100
AcDbEntity
  8
レイヤー_2
 62
     7
100
AcDbLine
 10
118.456508
 20
141.285777
 30
0.0
 11
118.416545
 21
141.285777
 31
0.0
  0
LINE
  5
209
100
AcDbEntity
  8
レイヤー_2
 62
     7
100
AcDbLine
 10
118.456508
 20
138.885924
 30
0.0
 11
118.416545
 21
138.885924
 31
0.0
  0
LINE
  5
208
100
AcDbEntity
  8
レイヤー_2
 62
     7
100
AcDbLine
 10
116.024615
 20
148.245559
 30
0.0
 11
120.202138
 21
148.245559
 31
0.0
  0
LINE
  5
207
100
AcDbEntity
  8
レイヤー_2
 62
     7
100
AcDbLine
 10
110.002243
 20
148.245559
 30
0.0
 11
111.892912
 21
148.245559
 31
0.0
  0
LINE
  5
206
100
AcDbEntity
  8
レイヤー_2
 62
     7
100
AcDbLine
 10
111.892912
 20
146.845817
 30
0.0
 11
110.002243
 21
146.845817
 31
0.0
  0
LINE
  5
205
100
AcDbEntity
  8
レイヤー_2
 62
     7
100
AcDbLine
 10
120.202138
 20
146.845817
 30
0.0
 11
116.024615
 21
146.845817
 31
0.0
  0
LINE
  5
204
100
AcDbEntity
  8
レイヤー_2
 62
     7
100
AcDbLine
 10
110.202403
 20
148.245559
 30
0.0
 11
110.302311
 21
148.245559
 31
0.0
  0
LINE
  5
203
100
AcDbEntity
  8
レイヤー_2
 62
     7
100
AcDbLine
 10
119.901725
 20
148.245559
 30
0.0
 11
120.002322
 21
148.245559
 31
0.0
  0
SPLINE
  5
202
100
AcDbEntity
  8
レイヤー_2
 62
     7
100
AcDbSpline
210
0.0
220
0.0
230
1.0
 70
     8
 71
     3
 72
     8
 73
     4
 74
     0
 42
0.00000001
 43
0.00000001
 40
0.0
 40
0.0
 40
0.0
 40
0.0
 40
1.0
 40
1.0
 40
1.0
 40
1.0
 10
111.99281955295137
 20
148.14599609375
 30
0.0
 10
111.99281955295137
 20
148.20111762152777
 30
0.0
 10
111.94803331163193
 20
148.2455593532986
 30
0.0
 10
111.89291178385416
 20
148.2455593532986
 30
0.0
  0
SPLINE
  5
201
100
AcDbEntity
  8
レイヤー_2
 62
     7
100
AcDbSpline
210
0.0
220
0.0
230
1.0
 70
     8
 71
     3
 72
     8
 73
     4
 74
     0
 42
0.00000001
 43
0.00000001
 40
0.0
 40
0.0
 40
0.0
 40
0.0
 40
1.0
 40
1.0
 40
1.0
 40
1.0
 10
111.89291178385416
 20
146.84581705729164
 30
0.0
 10
111.94803331163193
 20
146.84581705729164
 30
0.0
 10
111.99281955295137
 20
146.8906032986111
 30
0.0
 10
111.99281955295137
 20
146.94572482638887
 30
0.0
  0
SPLINE
  5
200
100
AcDbEntity
  8
レイヤー_2
 62
     7
100
AcDbSpline
210
0.0
220
0.0
230
1.0
 70
     8
 71
     3
 72
     8
 73
     4
 74
     0
 42
0.00000001
 43
0.00000001
 40
0.0
 40
0.0
 40
0.0
 40
0.0
 40
1.0
 40
1.0
 40
1.0
 40
1.0
 10
112.01314561631943
 20
146.84581705729164
 30
0.0
 10
112.06792263454859
 20
146.84581705729164
 30
0.0
 10
112.11305338541666
 20
146.8906032986111
 30
0.0
 10
112.11305338541666
 20
146.94572482638887
 30
0.0
  0
LINE
  5
1FF
100
AcDbEntity
  8
レイヤー_2
 62
     7
100
AcDbLine
 10
112.013146
 20
146.845817
 30
0.0
 11
111.892912
 21
146.845817
 31
0.0
  0
LINE
  5
1FE
100
AcDbEntity
  8
レイヤー_2
 62
     7
100
AcDbLine
 10
111.892912
 20
148.245559
 30
0.0
 11
111.911515
 21
148.245559
 31
0.0
  0
LINE
  5
1FD
100
AcDbEntity
  8
レイヤー_2
 62
     7
100
AcDbLine
 10
117.567329
 20
146.845817
 30
0.0
 11
116.597879
 21
146.845817
 31
0.0
  0
POLYLINE
  5
1F8
100
AcDbEntity
  8
レイヤー_2
 62
     7
100
AcDb2dPolyline
 66
     1
 10
0.0
 20
0.0
 30
0.0
  0
VERTEX
  5
1F9
100
AcDbEntity
  8
レイヤー_2
 62
     7
100
AcDbVertex
100
AcDb2dVertex
 10
112.011423
 20
147.873489
 30
0.0
  0
VERTEX
  5
1FA
100
AcDbEntity
  8
レイヤー_2
 62
     7
100
AcDbVertex
100
AcDb2dVertex
 10
112.012457
 20
147.864532
 30
0.0
  0
VERTEX
  5
1FB
100
AcDbEntity
  8
レイヤー_2
 62
     7
100
AcDbVertex
100
AcDb2dVertex
 10
112.011079
 20
147.845584
 30
0.0
  0
SEQEND
  5
1FC
100
AcDbEntity
  8
レイヤー_2
 62
     7
  0
LINE
  5
1F7
100
AcDbEntity
  8
レイヤー_2
 62
     7
100
AcDbLine
 10
113.44665
 20
146.845817
 30
0.0
 11
111.20217
 21
146.845817
 31
0.0
  0
LINE
  5
1F6
100
AcDbEntity
  8
レイヤー_2
 62
     7
100
AcDbLine
 10
116.597879
 20
146.845817
 30
0.0
 11
115.857183
 21
146.845817
 31
0.0
  0
LINE
  5
1F5
100
AcDbEntity
  8
レイヤー_2
 62
     7
100
AcDbLine
 10
116.239933
 20
146.845817
 30
0.0
 11
115.55746
 21
146.845817
 31
0.0
  0
LINE
  5
1F4
100
AcDbEntity
  8
レイヤー_2
 62
     7
100
AcDbLine
 10
113.496948
 20
156.847274
 30
0.0
 11
113.456985
 21
156.847274
 31
0.0
  0
LINE
  5
1F3
100
AcDbEntity
  8
レイヤー_2
 62
     7
100
AcDbLine
 10
113.599612
 20
156.847274
 30
0.0
 11
113.496948
 21
156.847274
 31
0.0
  0
LINE
  5
1F2
100
AcDbEntity
  8
レイヤー_2
 62
     7
100
AcDbLine
 10
114.015091
 20
156.847274
 30
0.0
 11
113.599612
 21
156.847274
 31
0.0
  0
LINE
  5
1F1
100
AcDbEntity
  8
レイヤー_2
 62
     7
100
AcDbLine
 10
114.262793
 20
156.847274
 30
0.0
 11
114.015091
 21
156.847274
 31
0.0
  0
LINE
  5
1F0
100
AcDbEntity
  8
レイヤー_2
 62
     7
100
AcDbLine
 10
114.850871
 20
156.847274
 30
0.0
 11
114.262793
 21
156.847274
 31
0.0
  0
LINE
  5
1EF
100
AcDbEntity
  8
レイヤー_2
 62
     7
100
AcDbLine
 10
115.098573
 20
156.847274
 30
0.0
 11
114.850871
 21
156.847274
 31
0.0
  0
LINE
  5
1EE
100
AcDbEntity
  8
レイヤー_2
 62
     7
100
AcDbLine
 10
115.514741
 20
156.847274
 30
0.0
 11
115.098573
 21
156.847274
 31
0.0
  0
LINE
  5
1ED
100
AcDbEntity
  8
レイヤー_2
 62
     7
100
AcDbLine
 10
115.616715
 20
156.847274
 30
0.0
 11
115.514741
 21
156.847274
 31
0.0
  0
LINE
  5
1EC
100
AcDbEntity
  8
レイヤー_2
 62
     7
100
AcDbLine
 10
115.656679
 20
156.847274
 30
0.0
 11
115.616715
 21
156.847274
 31
0.0
  0
LINE
  5
1EB
100
AcDbEntity
  8
レイヤー_2
 62
     7
100
AcDbLine
 10
115.757275
 20
155.747255
 30
0.0
 11
113.357077
 21
155.747255
 31
0.0
  0
LINE
  5
1EA
100
AcDbEntity
  8
レイヤー_2
 62
     7
100
AcDbLine
 10
115.656679
 20
158.646992
 30
0.0
 11
115.616715
 21
158.646992
 31
0.0
  0
LINE
  5
1E9
100
AcDbEntity
  8
レイヤー_2
 62
     7
100
AcDbLine
 10
115.616715
 20
158.646992
 30
0.0
 11
115.514741
 21
158.646992
 31
0.0
  0
LINE
  5
1E8
100
AcDbEntity
  8
レイヤー_2
 62
     7
100
AcDbLine
 10
115.514741
 20
158.646992
 30
0.0
 11
115.098573
 21
158.646992
 31
0.0
  0
LINE
  5
1E7
100
AcDbEntity
  8
レイヤー_2
 62
     7
100
AcDbLine
 10
115.098573
 20
158.646992
 30
0.0
 11
114.850871
 21
158.646992
 31
0.0
  0
LINE
  5
1E6
100
AcDbEntity
  8
レイヤー_2
 62
     7
100
AcDbLine
 10
114.850871
 20
158.646992
 30
0.0
 11
114.262793
 21
158.646992
 31
0.0
  0
LINE
  5
1E5
100
AcDbEntity
  8
レイヤー_2
 62
     7
100
AcDbLine
 10
114.262793
 20
158.646992
 30
0.0
 11
114.015091
 21
158.646992
 31
0.0
  0
LINE
  5
1E4
100
AcDbEntity
  8
レイヤー_2
 62
     7
100
AcDbLine
 10
114.015091
 20
158.646992
 30
0.0
 11
113.599612
 21
158.646992
 31
0.0
  0
LINE
  5
1E3
100
AcDbEntity
  8
レイヤー_2
 62
     7
100
AcDbLine
 10
113.599612
 20
158.646992
 30
0.0
 11
113.496948
 21
158.646992
 31
0.0
  0
LINE
  5
1E2
100
AcDbEntity
  8
レイヤー_2
 62
     7
100
AcDbLine
 10
113.496948
 20
158.646992
 30
0.0
 11
113.456985
 21
158.646992
 31
0.0
  0
LINE
  5
1E1
100
AcDbEntity
  8
レイヤー_2
 62
     7
100
AcDbLine
 10
113.66059
 20
160.387109
 30
0.0
 11
113.66059
 21
159.547195
 31
0.0
  0
LINE
  5
1E0
100
AcDbEntity
  8
レイヤー_2
 62
     7
100
AcDbLine
 10
114.453996
 20
159.547195
 30
0.0
 11
113.66059
 21
159.547195
 31
0.0
  0
LINE
  5
1DF
100
AcDbEntity
  8
レイヤー_2
 62
     7
100
AcDbLine
 10
114.453996
 20
159.547195
 30
0.0
 11
114.453996
 21
160.387109
 31
0.0
  0
LINE
  5
1DE
100
AcDbEntity
  8
レイヤー_2
 62
     7
100
AcDbLine
 10
113.557237
 20
159.547195
 30
0.0
 11
113.456985
 21
159.547195
 31
0.0
  0
LINE
  5
1DD
100
AcDbEntity
  8
レイヤー_2
 62
     7
100
AcDbLine
 10
113.557237
 20
159.547195
 30
0.0
 11
113.557237
 21
160.387109
 31
0.0
  0
LINE
  5
1DC
100
AcDbEntity
  8
レイヤー_2
 62
     7
100
AcDbLine
 10
115.656679
 20
159.547195
 30
0.0
 11
115.55746
 21
159.547195
 31
0.0
  0
LINE
  5
1DB
100
AcDbEntity
  8
レイヤー_2
 62
     7
100
AcDbLine
 10
115.55746
 20
160.387109
 30
0.0
 11
115.55746
 21
159.547195
 31
0.0
  0
LINE
  5
1DA
100
AcDbEntity
  8
レイヤー_2
 62
     7
100
AcDbLine
 10
115.453762
 20
159.547195
 30
0.0
 11
114.660357
 21
159.547195
 31
0.0
  0
LINE
  5
1D9
100
AcDbEntity
  8
レイヤー_2
 62
     7
100
AcDbLine
 10
115.453762
 20
159.547195
 30
0.0
 11
115.453762
 21
160.387109
 31
0.0
  0
LINE
  5
1D8
100
AcDbEntity
  8
レイヤー_2
 62
     7
100
AcDbLine
 10
114.660357
 20
160.387109
 30
0.0
 11
114.660357
 21
159.547195
 31
0.0
  0
LINE
  5
1D7
100
AcDbEntity
  8
レイヤー_2
 62
     7
100
AcDbLine
 10
115.656679
 20
159.347035
 30
0.0
 11
113.456985
 21
159.347035
 31
0.0
  0
LINE
  5
1D6
100
AcDbEntity
  8
レイヤー_2
 62
     7
100
AcDbLine
 10
114.262793
 20
158.646992
 30
0.0
 11
114.262793
 21
156.847274
 31
0.0
  0
LINE
  5
1D5
100
AcDbEntity
  8
レイヤー_2
 62
     7
100
AcDbLine
 10
114.015091
 20
156.847274
 30
0.0
 11
114.015091
 21
158.646992
 31
0.0
  0
LINE
  5
1D4
100
AcDbEntity
  8
レイヤー_2
 62
     7
100
AcDbLine
 10
114.850871
 20
156.847274
 30
0.0
 11
114.850871
 21
158.646992
 31
0.0
  0
LINE
  5
1D3
100
AcDbEntity
  8
レイヤー_2
 62
     7
100
AcDbLine
 10
115.098573
 20
158.646992
 30
0.0
 11
115.098573
 21
156.847274
 31
0.0
  0
LINE
  5
1D2
100
AcDbEntity
  8
レイヤー_2
 62
     7
100
AcDbLine
 10
113.599612
 20
158.646992
 30
0.0
 11
113.599612
 21
156.847274
 31
0.0
  0
LINE
  5
1D1
100
AcDbEntity
  8
レイヤー_2
 62
     7
100
AcDbLine
 10
115.514741
 20
156.847274
 30
0.0
 11
115.514741
 21
158.646992
 31
0.0
  0
LINE
  5
1D0
100
AcDbEntity
  8
レイヤー_2
 62
     7
100
AcDbLine
 10
115.616715
 20
158.646992
 30
0.0
 11
115.616715
 21
156.847274
 31
0.0
  0
LINE
  5
1CF
100
AcDbEntity
  8
レイヤー_2
 62
     7
100
AcDbLine
 10
113.496948
 20
156.847274
 30
0.0
 11
113.496948
 21
158.646992
 31
0.0
  0
POLYLINE
  5
1CA
100
AcDbEntity
  8
レイヤー_2
 62
     7
100
AcDb2dPolyline
 66
     1
 10
0.0
 20
0.0
 30
0.0
  0
VERTEX
  5
1CB
100
AcDbEntity
  8
レイヤー_2
 62
     7
100
AcDbVertex
100
AcDb2dVertex
 10
117.607292
 20
175.291281
 30
0.0
  0
VERTEX
  5
1CC
100
AcDbEntity
  8
レイヤー_2
 62
     7
100
AcDbVertex
100
AcDb2dVertex
 10
117.606603
 20
175.25752
 30
0.0
  0
VERTEX
  5
1CD
100
AcDbEntity
  8
レイヤー_2
 62
     7
100
AcDbVertex
100
AcDb2dVertex
 10
117.567329
 20
175.010162
 30
0.0
  0
SEQEND
  5
1CE
100
AcDbEntity
  8
レイヤー_2
 62
     7
  0
POLYLINE
  5
1C5
100
AcDbEntity
  8
レイヤー_2
 62
     7
100
AcDb2dPolyline
 66
     1
 10
0.0
 20
0.0
 30
0.0
  0
VERTEX
  5
1C6
100
AcDbEntity
  8
レイヤー_2
 62
     7
100
AcDbVertex
100
AcDb2dVertex
 10
112.746262
 20
175.010162
 30
0.0
  0
VERTEX
  5
1C7
100
AcDbEntity
  8
レイヤー_2
 62
     7
100
AcDbVertex
100
AcDb2dVertex
 10
112.711811
 20
175.190685
 30
0.0
  0
VERTEX
  5
1C8
100
AcDbEntity
  8
レイヤー_2
 62
     7
100
AcDbVertex
100
AcDb2dVertex
 10
112.706988
 20
175.291281
 30
0.0
  0
SEQEND
  5
1C9
100
AcDbEntity
  8
レイヤー_2
 62
     7
  0
LINE
  5
1C4
100
AcDbEntity
  8
レイヤー_2
 62
     7
100
AcDbLine
 10
113.424257
 20
177.093755
 30
0.0
 11
113.645776
 21
177.219846
 31
0.0
  0
POLYLINE
  5
1B5
100
AcDbEntity
  8
レイヤー_2
 62
     7
100
AcDb2dPolyline
 66
     1
 10
0.0
 20
0.0
 30
0.0
  0
VERTEX
  5
1B6
100
AcDbEntity
  8
レイヤー_2
 62
     7
100
AcDbVertex
100
AcDb2dVertex
 10
116.668159
 20
177.219846
 30
0.0
  0
VERTEX
  5
1B7
100
AcDbEntity
  8
レイヤー_2
 62
     7
100
AcDbVertex
100
AcDb2dVertex
 10
116.813886
 20
177.140264
 30
0.0
  0
VERTEX
  5
1B8
100
AcDbEntity
  8
レイヤー_2
 62
     7
100
AcDbVertex
100
AcDb2dVertex
 10
117.095006
 20
176.943549
 30
0.0
  0
VERTEX
  5
1B9
100
AcDbEntity
  8
レイヤー_2
 62
     7
100
AcDbVertex
100
AcDb2dVertex
 10
117.32066
 20
176.719618
 30
0.0
  0
VERTEX
  5
1BA
100
AcDbEntity
  8
レイヤー_2
 62
     7
100
AcDbVertex
100
AcDb2dVertex
 10
117.483957
 20
176.473983
 30
0.0
  0
VERTEX
  5
1BB
100
AcDbEntity
  8
レイヤー_2
 62
     7
100
AcDbVertex
100
AcDb2dVertex
 10
117.580075
 20
176.213878
 30
0.0
  0
VERTEX
  5
1BC
100
AcDbEntity
  8
レイヤー_2
 62
     7
100
AcDbVertex
100
AcDb2dVertex
 10
117.606603
 20
175.946883
 30
0.0
  0
VERTEX
  5
1BD
100
AcDbEntity
  8
レイヤー_2
 62
     7
100
AcDbVertex
100
AcDb2dVertex
 10
117.562505
 20
175.680922
 30
0.0
  0
VERTEX
  5
1BE
100
AcDbEntity
  8
レイヤー_2
 62
     7
100
AcDbVertex
100
AcDb2dVertex
 10
117.448817
 20
175.424262
 30
0.0
  0
VERTEX
  5
1BF
100
AcDbEntity
  8
レイヤー_2
 62
     7
100
AcDbVertex
100
AcDb2dVertex
 10
117.270361
 20
175.183105
 30
0.0
  0
VERTEX
  5
1C0
100
AcDbEntity
  8
レイヤー_2
 62
     7
100
AcDbVertex
100
AcDb2dVertex
 10
117.029894
 20
174.965375
 30
0.0
  0
VERTEX
  5
1C1
100
AcDbEntity
  8
レイヤー_2
 62
     7
100
AcDbVertex
100
AcDb2dVertex
 10
116.736372
 20
174.776584
 30
0.0
  0
VERTEX
  5
1C2
100
AcDbEntity
  8
レイヤー_2
 62
     7
100
AcDbVertex
100
AcDb2dVertex
 10
116.407365
 20
174.626034
 30
0.0
  0
SEQEND
  5
1C3
100
AcDbEntity
  8
レイヤー_2
 62
     7
  0
POLYLINE
  5
1A7
100
AcDbEntity
  8
レイヤー_2
 62
     7
100
AcDb2dPolyline
 66
     1
 10
0.0
 20
0.0
 30
0.0
  0
VERTEX
  5
1A8
100
AcDbEntity
  8
レイヤー_2
 62
     7
100
AcDbVertex
100
AcDb2dVertex
 10
113.90657
 20
174.626034
 30
0.0
  0
VERTEX
  5
1A9
100
AcDbEntity
  8
レイヤー_2
 62
     7
100
AcDbVertex
100
AcDb2dVertex
 10
113.658523
 20
174.734554
 30
0.0
  0
VERTEX
  5
1AA
100
AcDbEntity
  8
レイヤー_2
 62
     7
100
AcDbVertex
100
AcDb2dVertex
 10
113.352599
 20
174.915422
 30
0.0
  0
VERTEX
  5
1AB
100
AcDbEntity
  8
レイヤー_2
 62
     7
100
AcDbVertex
100
AcDb2dVertex
 10
113.09904
 20
175.126261
 30
0.0
  0
VERTEX
  5
1AC
100
AcDbEntity
  8
レイヤー_2
 62
     7
100
AcDbVertex
100
AcDb2dVertex
 10
112.903358
 20
175.36225
 30
0.0
  0
VERTEX
  5
1AD
100
AcDbEntity
  8
レイヤー_2
 62
     7
100
AcDbVertex
100
AcDb2dVertex
 10
112.773478
 20
175.615809
 30
0.0
  0
VERTEX
  5
1AE
100
AcDbEntity
  8
レイヤー_2
 62
     7
100
AcDbVertex
100
AcDb2dVertex
 10
112.711811
 20
175.880393
 30
0.0
  0
VERTEX
  5
1AF
100
AcDbEntity
  8
レイヤー_2
 62
     7
100
AcDbVertex
100
AcDb2dVertex
 10
112.720768
 20
176.147043
 30
0.0
  0
VERTEX
  5
1B0
100
AcDbEntity
  8
レイヤー_2
 62
     7
100
AcDbVertex
100
AcDb2dVertex
 10
112.799661
 20
176.409559
 30
0.0
  0
VERTEX
  5
1B1
100
AcDbEntity
  8
レイヤー_2
 62
     7
100
AcDbVertex
100
AcDb2dVertex
 10
112.946422
 20
176.659329
 30
0.0
  0
VERTEX
  5
1B2
100
AcDbEntity
  8
レイヤー_2
 62
     7
100
AcDbVertex
100
AcDb2dVertex
 10
113.156917
 20
176.889806
 30
0.0
  0
VERTEX
  5
1B3
100
AcDbEntity
  8
レイヤー_2
 62
     7
100
AcDbVertex
100
AcDb2dVertex
 10
113.424257
 20
177.093755
 30
0.0
  0
SEQEND
  5
1B4
100
AcDbEntity
  8
レイヤー_2
 62
     7
  0
LINE
  5
1A6
100
AcDbEntity
  8
レイヤー_2
 62
     7
100
AcDbLine
 10
113.90657
 20
174.07344
 30
0.0
 11
113.907948
 21
174.107891
 31
0.0
  0
LINE
  5
1A5
100
AcDbEntity
  8
レイヤー_2
 62
     7
100
AcDbLine
 10
113.907948
 20
177.610864
 30
0.0
 11
113.90657
 21
177.564011
 31
0.0
  0
LINE
  5
1A4
100
AcDbEntity
  8
レイヤー_2
 62
     7
100
AcDbLine
 10
116.407365
 20
177.564011
 30
0.0
 11
116.406676
 21
177.591916
 31
0.0
  0
LINE
  5
1A3
100
AcDbEntity
  8
レイヤー_2
 62
     7
100
AcDbLine
 10
108.15705
 20
177.769339
 30
0.0
 11
108.15705
 21
179.559755
 31
0.0
  0
LINE
  5
1A2
100
AcDbEntity
  8
レイヤー_2
 62
     7
100
AcDbLine
 10
108.15705
 20
177.379698
 30
0.0
 11
108.15705
 21
177.769339
 31
0.0
  0
LINE
  5
1A1
100
AcDbEntity
  8
レイヤー_2
 62
     7
100
AcDbLine
 10
114.250391
 20
179.719607
 30
0.0
 11
114.22283
 21
179.719607
 31
0.0
  0
POLYLINE
  5
19C
100
AcDbEntity
  8
レイヤー_2
 62
     7
100
AcDb2dPolyline
 66
     1
 10
0.0
 20
0.0
 30
0.0
  0
VERTEX
  5
19D
100
AcDbEntity
  8
レイヤー_2
 62
     7
100
AcDbVertex
100
AcDb2dVertex
 10
116.099718
 20
179.719263
 30
0.0
  0
VERTEX
  5
19E
100
AcDbEntity
  8
レイヤー_2
 62
     7
100
AcDbVertex
100
AcDb2dVertex
 10
116.072846
 20
179.719607
 30
0.0
  0
VERTEX
  5
19F
100
AcDbEntity
  8
レイヤー_2
 62
     7
100
AcDbVertex
100
AcDb2dVertex
 10
116.0632
 20
179.719607
 30
0.0
  0
SEQEND
  5
1A0
100
AcDbEntity
  8
レイヤー_2
 62
     7
  0
LINE
  5
19B
100
AcDbEntity
  8
レイヤー_2
 62
     7
100
AcDbLine
 10
122.156885
 20
179.559755
 30
0.0
 11
122.156885
 21
177.379698
 31
0.0
  0
SPLINE
  5
19A
100
AcDbEntity
  8
レイヤー_2
 62
     7
100
AcDbSpline
210
0.0
220
0.0
230
1.0
 70
     8
 71
     3
 72
     8
 73
     4
 74
     0
 42
0.00000001
 43
0.00000001
 40
0.0
 40
0.0
 40
0.0
 40
0.0
 40
1.0
 40
1.0
 40
1.0
 40
1.0
 10
113.84628092447916
 20
176.01957465277775
 30
0.0
 10
113.84834798177083
 20
175.92724609374997
 30
0.0
 10
113.87143012152777
 20
175.84008517795138
 30
0.0
 10
113.91001519097222
 20
175.76670464409722
 30
0.0
  0
SPLINE
  5
199
100
AcDbEntity
  8
レイヤー_2
 62
     7
100
AcDbSpline
210
0.0
220
0.0
230
1.0
 70
     8
 71
     3
 72
     8
 73
     4
 74
     0
 42
0.00000001
 43
0.00000001
 40
0.0
 40
0.0
 40
0.0
 40
0.0
 40
1.0
 40
1.0
 40
1.0
 40
1.0
 10
116.40736490885416
 20
175.77290581597219
 30
0.0
 10
116.44732801649305
 20
175.85386555989581
 30
0.0
 10
116.46662055121527
 20
175.93861490885416
 30
0.0
 10
116.46765407986111
 20
176.01957465277775
 30
0.0
  0
LINE
  5
198
100
AcDbEntity
  8
レイヤー_2
 62
     7
100
AcDbLine
 10
109.356977
 20
162.367006
 30
0.0
 11
120.956958
 21
162.367006
 31
0.0
  0
LINE
  5
197
100
AcDbEntity
  8
レイヤー_2
 62
     7
100
AcDbLine
 10
109.256725
 20
160.567632
 30
0.0
 11
121.056866
 21
160.567632
 31
0.0
  0
LINE
  5
196
100
AcDbEntity
  8
レイヤー_2
 62
     7
100
AcDbLine
 10
118.136458
 20
175.461469
 30
0.0
 11
118.136458
 21
175.428741
 31
0.0
  0
LINE
  5
195
100
AcDbEntity
  8
レイヤー_2
 62
     7
100
AcDbLine
 10
112.184022
 20
175.297483
 30
0.0
 11
112.176788
 21
175.428741
 31
0.0
  0
POLYLINE
  5
18A
100
AcDbEntity
  8
レイヤー_2
 62
     7
100
AcDb2dPolyline
 66
     1
 10
0.0
 20
0.0
 30
0.0
  0
VERTEX
  5
18B
100
AcDbEntity
  8
レイヤー_2
 62
     7
100
AcDbVertex
100
AcDb2dVertex
 10
116.407365
 20
174.120294
 30
0.0
  0
VERTEX
  5
18C
100
AcDbEntity
  8
レイヤー_2
 62
     7
100
AcDbVertex
100
AcDb2dVertex
 10
116.761176
 20
174.274289
 30
0.0
  0
VERTEX
  5
18D
100
AcDbEntity
  8
レイヤー_2
 62
     7
100
AcDbVertex
100
AcDb2dVertex
 10
117.073991
 20
174.46687
 30
0.0
  0
VERTEX
  5
18E
100
AcDbEntity
  8
レイヤー_2
 62
     7
100
AcDbVertex
100
AcDb2dVertex
 10
117.33134
 20
174.690457
 30
0.0
  0
VERTEX
  5
18F
100
AcDbEntity
  8
レイヤー_2
 62
     7
100
AcDbVertex
100
AcDb2dVertex
 10
117.525987
 20
174.939193
 30
0.0
  0
VERTEX
  5
190
100
AcDbEntity
  8
レイヤー_2
 62
     7
100
AcDbVertex
100
AcDb2dVertex
 10
117.653456
 20
175.205499
 30
0.0
  0
VERTEX
  5
191
100
AcDbEntity
  8
レイヤー_2
 62
     7
100
AcDbVertex
100
AcDb2dVertex
 10
117.707888
 20
175.481451
 30
0.0
  0
VERTEX
  5
192
100
AcDbEntity
  8
レイヤー_2
 62
     7
100
AcDbVertex
100
AcDb2dVertex
 10
117.689629
 20
175.760159
 30
0.0
  0
VERTEX
  5
193
100
AcDbEntity
  8
レイヤー_2
 62
     7
100
AcDbVertex
100
AcDb2dVertex
 10
117.605914
 20
176.015441
 30
0.0
  0
SEQEND
  5
194
100
AcDbEntity
  8
レイヤー_2
 62
     7
  0
POLYLINE
  5
17E
100
AcDbEntity
  8
レイヤー_2
 62
     7
100
AcDb2dPolyline
 66
     1
 10
0.0
 20
0.0
 30
0.0
  0
VERTEX
  5
17F
100
AcDbEntity
  8
レイヤー_2
 62
     7
100
AcDbVertex
100
AcDb2dVertex
 10
112.707332
 20
176.015441
 30
0.0
  0
VERTEX
  5
180
100
AcDbEntity
  8
レイヤー_2
 62
     7
100
AcDbVertex
100
AcDb2dVertex
 10
112.624306
 20
175.760159
 30
0.0
  0
VERTEX
  5
181
100
AcDbEntity
  8
レイヤー_2
 62
     7
100
AcDbVertex
100
AcDb2dVertex
 10
112.605358
 20
175.481451
 30
0.0
  0
VERTEX
  5
182
100
AcDbEntity
  8
レイヤー_2
 62
     7
100
AcDbVertex
100
AcDb2dVertex
 10
112.660479
 20
175.205499
 30
0.0
  0
VERTEX
  5
183
100
AcDbEntity
  8
レイヤー_2
 62
     7
100
AcDbVertex
100
AcDb2dVertex
 10
112.787603
 20
174.939193
 30
0.0
  0
VERTEX
  5
184
100
AcDbEntity
  8
レイヤー_2
 62
     7
100
AcDbVertex
100
AcDb2dVertex
 10
112.982595
 20
174.690457
 30
0.0
  0
VERTEX
  5
185
100
AcDbEntity
  8
レイヤー_2
 62
     7
100
AcDbVertex
100
AcDb2dVertex
 10
113.239944
 20
174.46687
 30
0.0
  0
VERTEX
  5
186
100
AcDbEntity
  8
レイヤー_2
 62
     7
100
AcDbVertex
100
AcDb2dVertex
 10
113.552414
 20
174.274289
 30
0.0
  0
VERTEX
  5
187
100
AcDbEntity
  8
レイヤー_2
 62
     7
100
AcDbVertex
100
AcDb2dVertex
 10
113.911738
 20
174.117882
 30
0.0
  0
VERTEX
  5
188
100
AcDbEntity
  8
レイヤー_2
 62
     7
100
AcDbVertex
100
AcDb2dVertex
 10
113.921039
 20
174.115126
 30
0.0
  0
SEQEND
  5
189
100
AcDbEntity
  8
レイヤー_2
 62
     7
  0
SPLINE
  5
17D
100
AcDbEntity
  8
レイヤー_2
 62
     7
100
AcDbSpline
210
0.0
220
0.0
230
1.0
 70
     8
 71
     3
 72
     8
 73
     4
 74
     0
 42
0.00000001
 43
0.00000001
 40
0.0
 40
0.0
 40
0.0
 40
0.0
 40
1.0
 40
1.0
 40
1.0
 40
1.0
 10
117.65690104166666
 20
175.39842393663193
 30
0.0
 10
117.65690104166666
 20
175.51245659722221
 30
0.0
 10
117.63864203559027
 20
175.62201063368053
 30
0.0
 10
117.60729166666665
 20
175.71778428819442
 30
0.0
  0
SPLINE
  5
17C
100
AcDbEntity
  8
レイヤー_2
 62
     7
100
AcDbSpline
210
0.0
220
0.0
230
1.0
 70
     8
 71
     3
 72
     8
 73
     4
 74
     0
 42
0.00000001
 43
0.00000001
 40
0.0
 40
0.0
 40
0.0
 40
0.0
 40
1.0
 40
1.0
 40
1.0
 40
1.0
 10
117.61659342447916
 20
175.10938042534721
 30
0.0
 10
117.64484320746527
 20
175.20859917534722
 30
0.0
 10
117.65724555121527
 20
175.30816243489582
 30
0.0
 10
117.65690104166666
 20
175.39842393663193
 30
0.0
  0
SPLINE
  5
17B
100
AcDbEntity
  8
レイヤー_2
 62
     7
100
AcDbSpline
210
0.0
220
0.0
230
1.0
 70
     8
 71
     3
 72
     8
 73
     4
 74
     0
 42
0.00000001
 43
0.00000001
 40
0.0
 40
0.0
 40
0.0
 40
0.0
 40
1.0
 40
1.0
 40
1.0
 40
1.0
 10
112.70698784722221
 20
175.71778428819442
 30
0.0
 10
112.64084201388889
 20
175.51107855902777
 30
0.0
 10
112.64222005208332
 20
175.29920518663192
 30
0.0
 10
112.69768608940971
 20
175.10938042534721
 30
0.0
  0
LINE
  5
17A
100
AcDbEntity
  8
レイヤー_2
 62
     7
100
AcDbLine
 10
110.302311
 20
148.545627
 30
0.0
 11
119.901725
 21
148.545627
 31
0.0
  0
LINE
  5
179
100
AcDbEntity
  8
レイヤー_2
 62
     7
100
AcDbLine
 10
112.013146
 20
147.946181
 30
0.0
 11
115.924707
 21
147.946181
 31
0.0
  0
POLYLINE
  5
15F
100
AcDbEntity
  8
レイヤー_2
 62
     7
100
AcDb2dPolyline
 66
     1
 10
0.0
 20
0.0
 30
0.0
  0
VERTEX
  5
160
100
AcDbEntity
  8
レイヤー_2
 62
     7
100
AcDbVertex
100
AcDb2dVertex
 10
112.176788
 20
167.696568
 30
0.0
  0
VERTEX
  5
161
100
AcDbEntity
  8
レイヤー_2
 62
     7
100
AcDbVertex
100
AcDb2dVertex
 10
112.176099
 20
167.542573
 30
0.0
  0
VERTEX
  5
162
100
AcDbEntity
  8
レイヤー_2
 62
     7
100
AcDbVertex
100
AcDb2dVertex
 10
112.220196
 20
166.939681
 30
0.0
  0
VERTEX
  5
163
100
AcDbEntity
  8
レイヤー_2
 62
     7
100
AcDbVertex
100
AcDb2dVertex
 10
112.338707
 20
166.358149
 30
0.0
  0
VERTEX
  5
164
100
AcDbEntity
  8
レイヤー_2
 62
     7
100
AcDbVertex
100
AcDb2dVertex
 10
112.468932
 20
166.007094
 30
0.0
  0
VERTEX
  5
165
100
AcDbEntity
  8
レイヤー_2
 62
     7
100
AcDbVertex
100
AcDb2dVertex
 10
112.645321
 20
165.690834
 30
0.0
  0
VERTEX
  5
166
100
AcDbEntity
  8
レイヤー_2
 62
     7
100
AcDbVertex
100
AcDb2dVertex
 10
112.868218
 20
165.418327
 30
0.0
  0
VERTEX
  5
167
100
AcDbEntity
  8
レイヤー_2
 62
     7
100
AcDbVertex
100
AcDb2dVertex
 10
113.133146
 20
165.189228
 30
0.0
  0
VERTEX
  5
168
100
AcDbEntity
  8
レイヤー_2
 62
     7
100
AcDbVertex
100
AcDb2dVertex
 10
113.457674
 20
164.992169
 30
0.0
  0
VERTEX
  5
169
100
AcDbEntity
  8
レイヤー_2
 62
     7
100
AcDbVertex
100
AcDb2dVertex
 10
113.814931
 20
164.839551
 30
0.0
  0
VERTEX
  5
16A
100
AcDbEntity
  8
レイヤー_2
 62
     7
100
AcDbVertex
100
AcDb2dVertex
 10
114.260726
 20
164.715183
 30
0.0
  0
VERTEX
  5
16B
100
AcDbEntity
  8
レイヤー_2
 62
     7
100
AcDbVertex
100
AcDb2dVertex
 10
114.730981
 20
164.642147
 30
0.0
  0
VERTEX
  5
16C
100
AcDbEntity
  8
レイヤー_2
 62
     7
100
AcDbVertex
100
AcDb2dVertex
 10
115.238444
 20
164.619065
 30
0.0
  0
VERTEX
  5
16D
100
AcDbEntity
  8
レイヤー_2
 62
     7
100
AcDbVertex
100
AcDb2dVertex
 10
115.744529
 20
164.649382
 30
0.0
  0
VERTEX
  5
16E
100
AcDbEntity
  8
レイヤー_2
 62
     7
100
AcDbVertex
100
AcDb2dVertex
 10
116.236833
 20
164.736198
 30
0.0
  0
VERTEX
  5
16F
100
AcDbEntity
  8
レイヤー_2
 62
     7
100
AcDbVertex
100
AcDb2dVertex
 10
116.700887
 20
164.880892
 30
0.0
  0
VERTEX
  5
170
100
AcDbEntity
  8
レイヤー_2
 62
     7
100
AcDbVertex
100
AcDb2dVertex
 10
117.119466
 20
165.087942
 30
0.0
  0
VERTEX
  5
171
100
AcDbEntity
  8
レイヤー_2
 62
     7
100
AcDbVertex
100
AcDb2dVertex
 10
117.482579
 20
165.36355
 30
0.0
  0
VERTEX
  5
172
100
AcDbEntity
  8
レイヤー_2
 62
     7
100
AcDbVertex
100
AcDb2dVertex
 10
117.717535
 20
165.630545
 30
0.0
  0
VERTEX
  5
173
100
AcDbEntity
  8
レイヤー_2
 62
     7
100
AcDbVertex
100
AcDb2dVertex
 10
117.868774
 20
165.949561
 30
0.0
  0
VERTEX
  5
174
100
AcDbEntity
  8
レイヤー_2
 62
     7
100
AcDbVertex
100
AcDb2dVertex
 10
118.000033
 20
166.290625
 30
0.0
  0
VERTEX
  5
175
100
AcDbEntity
  8
レイヤー_2
 62
     7
100
AcDbVertex
100
AcDb2dVertex
 10
118.065834
 20
166.658561
 30
0.0
  0
VERTEX
  5
176
100
AcDbEntity
  8
レイヤー_2
 62
     7
100
AcDbVertex
100
AcDb2dVertex
 10
118.144382
 20
167.184283
 30
0.0
  0
VERTEX
  5
177
100
AcDbEntity
  8
レイヤー_2
 62
     7
100
AcDbVertex
100
AcDb2dVertex
 10
118.136458
 20
167.69519
 30
0.0
  0
SEQEND
  5
178
100
AcDbEntity
  8
レイヤー_2
 62
     7
  0
SPLINE
  5
15E
100
AcDbEntity
  8
レイヤー_2
 62
     7
100
AcDbSpline
210
0.0
220
0.0
230
1.0
 70
     8
 71
     3
 72
    11
 73
     7
 74
     0
 42
0.00000001
 43
0.00000001
 40
0.0
 40
0.0
 40
0.0
 40
0.0
 40
1.0
 40
1.0
 40
1.0
 40
2.0
 40
2.0
 40
2.0
 40
2.0
 10
116.40736490885416
 20
174.16232367621527
 30
0.0
 10
116.40736490885416
 20
174.75901421440972
 30
0.0
 10
115.84857042100694
 20
175.24270562065971
 30
0.0
 10
115.1592068142361
 20
175.24270562065971
 30
0.0
 10
114.47053222656248
 20
175.24270562065971
 30
0.0
 10
113.91104871961805
 20
174.75901421440972
 30
0.0
 10
113.91104871961805
 20
174.16232367621527
 30
0.0
  0
SPLINE
  5
15D
100
AcDbEntity
  8
レイヤー_2
 62
     7
100
AcDbSpline
210
0.0
220
0.0
230
1.0
 70
     8
 71
     3
 72
     8
 73
     4
 74
     0
 42
0.00000001
 43
0.00000001
 40
0.0
 40
0.0
 40
0.0
 40
0.0
 40
1.0
 40
1.0
 40
1.0
 40
1.0
 10
113.91104871961805
 20
174.16232367621527
 30
0.0
 10
113.91104871961805
 20
174.14682074652777
 30
0.0
 10
113.91173773871527
 20
174.13131781684027
 30
0.0
 10
113.91277126736109
 20
174.11788194444443
 30
0.0
  0
HATCH
  5
15C
100
AcDbEntity
  8
レイヤー_2
 62
     7
100
AcDbHatch
 10
0.0
 20
0.0
 30
0.0
210
0.0
220
0.0
230
1.0
  2
SOLID
 70
     1
 71
     0
 91
        1
 92
        1
 93
        1
 72
     4
 94
        3
 73
     0
 74
     0
 95
       17
 96
       13
 40
0.0
 40
0.0
 40
0.0
 40
0.0
 40
1.0
 40
1.0
 40
1.0
 40
2.0
 40
2.0
 40
2.0
 40
3.0
 40
3.0
 40
3.0
 40
4.0
 40
4.0
 40
4.0
 40
4.0
 10
114.32652723524305
 20
174.88303765190972
 10
114.09673936631944
 20
174.68356662326389
 10
114.05126410590277
 20
174.42311740451387
 10
114.05126410590277
 20
174.16232367621527
 10
114.05126410590277
 20
174.16232367621527
 10
113.77152235243055
 20
174.16232367621527
 10
113.77152235243055
 20
174.16232367621527
 10
113.77152235243055
 20
174.4548122829861
 10
113.96961534288194
 20
174.74661187065971
 10
114.22661946614582
 20
174.96950954861109
 10
114.22661946614582
 20
174.96950954861109
 10
114.32652723524305
 20
174.88303765190972
 10
114.32652723524305
 20
174.88303765190972
 97
        0
 75
     0
 76
     1
 98
        1
 10
0.0
 20
0.0
  0
SPLINE
  5
15B
100
AcDbEntity
  8
レイヤー_2
 62
     7
100
AcDbSpline
210
0.0
220
0.0
230
1.0
 70
     8
 71
     3
 72
     8
 73
     4
 74
     0
 42
0.00000001
 43
0.00000001
 40
0.0
 40
0.0
 40
0.0
 40
0.0
 40
1.0
 40
1.0
 40
1.0
 40
1.0
 10
116.40736490885416
 20
177.56401095920137
 30
0.0
 10
116.40736490885416
 20
177.56401095920137
 30
0.0
 10
116.03357204861111
 20
179.04195692274303
 30
0.0
 10
114.25039062499999
 20
179.71960720486109
 30
0.0
  0
SPLINE
  5
15A
100
AcDbEntity
  8
レイヤー_2
 62
     7
100
AcDbSpline
210
0.0
220
0.0
230
1.0
 70
     8
 71
     3
 72
     8
 73
     4
 74
     0
 42
0.00000001
 43
0.00000001
 40
0.0
 40
0.0
 40
0.0
 40
0.0
 40
1.0
 40
1.0
 40
1.0
 40
1.0
 10
113.9065700954861
 20
177.56401095920137
 30
0.0
 10
113.9065700954861
 20
177.56401095920137
 30
0.0
 10
114.28070746527777
 20
179.04195692274303
 30
0.0
 10
116.06319986979166
 20
179.71960720486109
 30
0.0
  0
LINE
  5
159
100
AcDbEntity
  8
レイヤー_2
 62
     7
100
AcDbLine
 10
161.126771
 20
204.570976
 30
0.0
 11
161.130561
 21
204.451431
 31
0.0
  0
LINE
  5
158
100
AcDbEntity
  8
レイヤー_2
 62
     7
100
AcDbLine
 10
163.788797
 20
204.544276
 30
0.0
 11
163.784663
 21
204.664166
 31
0.0
  0
LINE
  5
157
100
AcDbEntity
  8
レイヤー_2
 62
     7
100
AcDbLine
 10
160.319241
 20
208.485638
 30
0.0
 11
160.4567
 21
204.548066
 31
0.0
  0
LINE
  5
156
100
AcDbEntity
  8
レイヤー_2
 62
     7
100
AcDbLine
 10
164.454734
 20
204.68742
 30
0.0
 11
164.31693
 21
208.625164
 31
0.0
  0
LINE
  5
155
100
AcDbEntity
  8
レイヤー_2
 62
     7
100
AcDbLine
 10
117.227642
 20
179.719607
 30
0.0
 11
117.227642
 21
210.733046
 31
0.0
  0
LINE
  5
154
100
AcDbEntity
  8
レイヤー_2
 62
     7
100
AcDbLine
 10
113.227542
 20
210.733046
 30
0.0
 11
113.227542
 21
179.652428
 31
0.0
  0
SPLINE
  5
153
100
AcDbEntity
  8
レイヤー_2
 62
     7
100
AcDbSpline
210
0.0
220
0.0
230
1.0
 70
     8
 71
     3
 72
    11
 73
     7
 74
     0
 42
0.00000001
 43
0.00000001
 40
0.0
 40
0.0
 40
0.0
 40
0.0
 40
1.0
 40
1.0
 40
1.0
 40
2.0
 40
2.0
 40
2.0
 40
2.0
 10
160.21485460069442
 20
211.48390435112844
 30
0.0
 10
159.80971137152775
 20
223.08681369357637
 30
0.0
 10
150.28195529513889
 20
232.22045084635414
 30
0.0
 10
138.72779405381942
 20
232.23336995442708
 30
0.0
 10
126.85392795138888
 20
232.23336995442708
 30
0.0
 10
117.22764214409722
 20
222.60725640190969
 30
0.0
 10
117.22764214409722
 20
210.73304578993054
 30
0.0
  0
SPLINE
  5
152
100
AcDbEntity
  8
レイヤー_2
 62
     7
100
AcDbSpline
210
0.0
220
0.0
230
1.0
 70
     8
 71
     3
 72
    11
 73
     7
 74
     0
 42
0.00000001
 43
0.00000001
 40
0.0
 40
0.0
 40
0.0
 40
0.0
 40
1.0
 40
1.0
 40
1.0
 40
2.0
 40
2.0
 40
2.0
 40
2.0
 10
164.21219889322916
 20
211.62308620876735
 30
0.0
 10
163.73160807291666
 20
225.38469238281249
 30
0.0
 10
152.4316948784722
 20
236.21831190321177
 30
0.0
 10
138.72779405381942
 20
236.23329806857637
 30
0.0
 10
124.64493272569443
 20
236.23329806857637
 30
0.0
 10
113.22754177517361
 20
224.81642388237844
 30
0.0
 10
113.22754177517361
 20
210.73304578993054
 30
0.0
  0
LINE
  5
151
100
AcDbEntity
  8
レイヤー_2
 62
     7
100
AcDbLine
 10
164.31693
 20
208.625164
 30
0.0
 11
164.212199
 21
211.623086
 31
0.0
  0
LINE
  5
150
100
AcDbEntity
  8
レイヤー_2
 62
     7
100
AcDbLine
 10
160.214855
 20
211.483904
 30
0.0
 11
160.319241
 21
208.485638
 31
0.0
  0
POLYLINE
  5
149
100
AcDbEntity
  8
レイヤー_2
 62
     7
100
AcDb2dPolyline
 66
     1
 10
0.0
 20
0.0
 30
0.0
  0
VERTEX
  5
14A
100
AcDbEntity
  8
レイヤー_2
 62
     7
100
AcDbVertex
100
AcDb2dVertex
 10
163.328876
 20
204.528257
 30
0.0
  0
VERTEX
  5
14B
100
AcDbEntity
  8
レイヤー_2
 62
     7
100
AcDbVertex
100
AcDb2dVertex
 10
163.537649
 20
204.535491
 30
0.0
  0
VERTEX
  5
14C
100
AcDbEntity
  8
レイヤー_2
 62
     7
100
AcDbVertex
100
AcDb2dVertex
 10
163.6882
 20
204.540142
 30
0.0
  0
VERTEX
  5
14D
100
AcDbEntity
  8
レイヤー_2
 62
     7
100
AcDbVertex
100
AcDb2dVertex
 10
163.77226
 20
204.543587
 30
0.0
  0
VERTEX
  5
14E
100
AcDbEntity
  8
レイヤー_2
 62
     7
100
AcDbVertex
100
AcDb2dVertex
 10
163.788797
 20
204.544276
 30
0.0
  0
SEQEND
  5
14F
100
AcDbEntity
  8
レイヤー_2
 62
     7
  0
POLYLINE
  5
13C
100
AcDbEntity
  8
レイヤー_2
 62
     7
100
AcDb2dPolyline
 66
     1
 10
0.0
 20
0.0
 30
0.0
  0
VERTEX
  5
13D
100
AcDbEntity
  8
レイヤー_2
 62
     7
100
AcDbVertex
100
AcDb2dVertex
 10
161.130561
 20
204.451431
 30
0.0
  0
VERTEX
  5
13E
100
AcDbEntity
  8
レイヤー_2
 62
     7
100
AcDbVertex
100
AcDb2dVertex
 10
161.154677
 20
204.452464
 30
0.0
  0
VERTEX
  5
13F
100
AcDbEntity
  8
レイヤー_2
 62
     7
100
AcDbVertex
100
AcDb2dVertex
 10
161.247005
 20
204.455565
 30
0.0
  0
VERTEX
  5
140
100
AcDbEntity
  8
レイヤー_2
 62
     7
100
AcDbVertex
100
AcDb2dVertex
 10
161.40548
 20
204.460905
 30
0.0
  0
VERTEX
  5
141
100
AcDbEntity
  8
レイヤー_2
 62
     7
100
AcDbVertex
100
AcDb2dVertex
 10
161.620454
 20
204.468312
 30
0.0
  0
VERTEX
  5
142
100
AcDbEntity
  8
レイヤー_2
 62
     7
100
AcDbVertex
100
AcDb2dVertex
 10
161.880903
 20
204.477614
 30
0.0
  0
VERTEX
  5
143
100
AcDbEntity
  8
レイヤー_2
 62
     7
100
AcDbVertex
100
AcDb2dVertex
 10
162.172358
 20
204.487604
 30
0.0
  0
VERTEX
  5
144
100
AcDbEntity
  8
レイヤー_2
 62
     7
100
AcDbVertex
100
AcDb2dVertex
 10
162.479316
 20
204.498456
 30
0.0
  0
VERTEX
  5
145
100
AcDbEntity
  8
レイヤー_2
 62
     7
100
AcDbVertex
100
AcDb2dVertex
 10
162.784896
 20
204.509481
 30
0.0
  0
VERTEX
  5
146
100
AcDbEntity
  8
レイヤー_2
 62
     7
100
AcDbVertex
100
AcDb2dVertex
 10
163.073939
 20
204.519127
 30
0.0
  0
VERTEX
  5
147
100
AcDbEntity
  8
レイヤー_2
 62
     7
100
AcDbVertex
100
AcDb2dVertex
 10
163.328876
 20
204.528257
 30
0.0
  0
SEQEND
  5
148
100
AcDbEntity
  8
レイヤー_2
 62
     7
  0
POLYLINE
  5
135
100
AcDbEntity
  8
レイヤー_2
 62
     7
100
AcDb2dPolyline
 66
     1
 10
0.0
 20
0.0
 30
0.0
  0
VERTEX
  5
136
100
AcDbEntity
  8
レイヤー_2
 62
     7
100
AcDbVertex
100
AcDb2dVertex
 10
163.8074
 20
208.607594
 30
0.0
  0
VERTEX
  5
137
100
AcDbEntity
  8
レイヤー_2
 62
     7
100
AcDbVertex
100
AcDb2dVertex
 10
164.033054
 20
208.615001
 30
0.0
  0
VERTEX
  5
138
100
AcDbEntity
  8
レイヤー_2
 62
     7
100
AcDbVertex
100
AcDb2dVertex
 10
164.196351
 20
208.62103
 30
0.0
  0
VERTEX
  5
139
100
AcDbEntity
  8
レイヤー_2
 62
     7
100
AcDbVertex
100
AcDb2dVertex
 10
164.291781
 20
208.624475
 30
0.0
  0
VERTEX
  5
13A
100
AcDbEntity
  8
レイヤー_2
 62
     7
100
AcDbVertex
100
AcDb2dVertex
 10
164.31693
 20
208.625164
 30
0.0
  0
SEQEND
  5
13B
100
AcDbEntity
  8
レイヤー_2
 62
     7
  0
POLYLINE
  5
125
100
AcDbEntity
  8
レイヤー_2
 62
     7
100
AcDb2dPolyline
 66
     1
 10
0.0
 20
0.0
 30
0.0
  0
VERTEX
  5
126
100
AcDbEntity
  8
レイヤー_2
 62
     7
100
AcDbVertex
100
AcDb2dVertex
 10
160.319241
 20
208.485638
 30
0.0
  0
VERTEX
  5
127
100
AcDbEntity
  8
レイヤー_2
 62
     7
100
AcDbVertex
100
AcDb2dVertex
 10
160.335433
 20
208.486327
 30
0.0
  0
VERTEX
  5
128
100
AcDbEntity
  8
レイヤー_2
 62
     7
100
AcDbVertex
100
AcDb2dVertex
 10
160.418804
 20
208.489083
 30
0.0
  0
VERTEX
  5
129
100
AcDbEntity
  8
レイヤー_2
 62
     7
100
AcDbVertex
100
AcDb2dVertex
 10
160.571766
 20
208.494078
 30
0.0
  0
VERTEX
  5
12A
100
AcDbEntity
  8
レイヤー_2
 62
     7
100
AcDbVertex
100
AcDb2dVertex
 10
160.78674
 20
208.501657
 30
0.0
  0
VERTEX
  5
12B
100
AcDbEntity
  8
レイヤー_2
 62
     7
100
AcDbVertex
100
AcDb2dVertex
 10
161.05718
 20
208.511131
 30
0.0
  0
VERTEX
  5
12C
100
AcDbEntity
  8
レイヤー_2
 62
     7
100
AcDbVertex
100
AcDb2dVertex
 10
161.373785
 20
208.522328
 30
0.0
  0
VERTEX
  5
12D
100
AcDbEntity
  8
レイヤー_2
 62
     7
100
AcDbVertex
100
AcDb2dVertex
 10
161.724151
 20
208.534386
 30
0.0
  0
VERTEX
  5
12E
100
AcDbEntity
  8
レイヤー_2
 62
     7
100
AcDbVertex
100
AcDb2dVertex
 10
162.096566
 20
208.547649
 30
0.0
  0
VERTEX
  5
12F
100
AcDbEntity
  8
レイヤー_2
 62
     7
100
AcDbVertex
100
AcDb2dVertex
 10
162.47656
 20
208.560569
 30
0.0
  0
VERTEX
  5
130
100
AcDbEntity
  8
レイヤー_2
 62
     7
100
AcDbVertex
100
AcDb2dVertex
 10
162.850008
 20
208.57366
 30
0.0
  0
VERTEX
  5
131
100
AcDbEntity
  8
レイヤー_2
 62
     7
100
AcDbVertex
100
AcDb2dVertex
 10
163.205197
 20
208.586235
 30
0.0
  0
VERTEX
  5
132
100
AcDbEntity
  8
レイヤー_2
 62
     7
100
AcDbVertex
100
AcDb2dVertex
 10
163.528003
 20
208.597431
 30
0.0
  0
VERTEX
  5
133
100
AcDbEntity
  8
レイヤー_2
 62
     7
100
AcDbVertex
100
AcDb2dVertex
 10
163.8074
 20
208.607594
 30
0.0
  0
SEQEND
  5
134
100
AcDbEntity
  8
レイヤー_2
 62
     7
  0
POLYLINE
  5
11E
100
AcDbEntity
  8
レイヤー_2
 62
     7
100
AcDb2dPolyline
 66
     1
 10
0.0
 20
0.0
 30
0.0
  0
VERTEX
  5
11F
100
AcDbEntity
  8
レイヤー_2
 62
     7
100
AcDbVertex
100
AcDb2dVertex
 10
163.945204
 20
204.670022
 30
0.0
  0
VERTEX
  5
120
100
AcDbEntity
  8
レイヤー_2
 62
     7
100
AcDbVertex
100
AcDb2dVertex
 10
164.170169
 20
204.677429
 30
0.0
  0
VERTEX
  5
121
100
AcDbEntity
  8
レイヤー_2
 62
     7
100
AcDbVertex
100
AcDb2dVertex
 10
164.333811
 20
204.683458
 30
0.0
  0
VERTEX
  5
122
100
AcDbEntity
  8
レイヤー_2
 62
     7
100
AcDbVertex
100
AcDb2dVertex
 10
164.42924
 20
204.686731
 30
0.0
  0
VERTEX
  5
123
100
AcDbEntity
  8
レイヤー_2
 62
     7
100
AcDbVertex
100
AcDb2dVertex
 10
164.454734
 20
204.68742
 30
0.0
  0
SEQEND
  5
124
100
AcDbEntity
  8
レイヤー_2
 62
     7
  0
POLYLINE
  5
10E
100
AcDbEntity
  8
レイヤー_2
 62
     7
100
AcDb2dPolyline
 66
     1
 10
0.0
 20
0.0
 30
0.0
  0
VERTEX
  5
10F
100
AcDbEntity
  8
レイヤー_2
 62
     7
100
AcDbVertex
100
AcDb2dVertex
 10
160.4567
 20
204.548066
 30
0.0
  0
VERTEX
  5
110
100
AcDbEntity
  8
レイヤー_2
 62
     7
100
AcDbVertex
100
AcDb2dVertex
 10
160.472892
 20
204.548755
 30
0.0
  0
VERTEX
  5
111
100
AcDbEntity
  8
レイヤー_2
 62
     7
100
AcDbVertex
100
AcDb2dVertex
 10
160.556608
 20
204.551339
 30
0.0
  0
VERTEX
  5
112
100
AcDbEntity
  8
レイヤー_2
 62
     7
100
AcDbVertex
100
AcDb2dVertex
 10
160.708881
 20
204.556851
 30
0.0
  0
VERTEX
  5
113
100
AcDbEntity
  8
レイヤー_2
 62
     7
100
AcDbVertex
100
AcDb2dVertex
 10
160.924544
 20
204.564258
 30
0.0
  0
VERTEX
  5
114
100
AcDbEntity
  8
レイヤー_2
 62
     7
100
AcDbVertex
100
AcDb2dVertex
 10
161.19464
 20
204.573732
 30
0.0
  0
VERTEX
  5
115
100
AcDbEntity
  8
レイヤー_2
 62
     7
100
AcDbVertex
100
AcDb2dVertex
 10
161.511589
 20
204.584584
 30
0.0
  0
VERTEX
  5
116
100
AcDbEntity
  8
レイヤー_2
 62
     7
100
AcDbVertex
100
AcDb2dVertex
 10
161.861955
 20
204.596814
 30
0.0
  0
VERTEX
  5
117
100
AcDbEntity
  8
レイヤー_2
 62
     7
100
AcDbVertex
100
AcDb2dVertex
 10
162.234025
 20
204.609561
 30
0.0
  0
VERTEX
  5
118
100
AcDbEntity
  8
レイヤー_2
 62
     7
100
AcDbVertex
100
AcDb2dVertex
 10
162.614019
 20
204.623169
 30
0.0
  0
VERTEX
  5
119
100
AcDbEntity
  8
レイヤー_2
 62
     7
100
AcDbVertex
100
AcDb2dVertex
 10
162.987812
 20
204.636088
 30
0.0
  0
VERTEX
  5
11A
100
AcDbEntity
  8
レイヤー_2
 62
     7
100
AcDbVertex
100
AcDb2dVertex
 10
163.343001
 20
204.648663
 30
0.0
  0
VERTEX
  5
11B
100
AcDbEntity
  8
レイヤー_2
 62
     7
100
AcDbVertex
100
AcDb2dVertex
 10
163.665462
 20
204.659687
 30
0.0
  0
VERTEX
  5
11C
100
AcDbEntity
  8
レイヤー_2
 62
     7
100
AcDbVertex
100
AcDb2dVertex
 10
163.945204
 20
204.670022
 30
0.0
  0
SEQEND
  5
11D
100
AcDbEntity
  8
レイヤー_2
 62
     7
  0
POLYLINE
  5
102
100
AcDbEntity
  8
レイヤー_2
 62
     7
100
AcDb2dPolyline
 66
     1
 10
0.0
 20
0.0
 30
0.0
  0
VERTEX
  5
103
100
AcDbEntity
  8
レイヤー_2
 62
     7
100
AcDbVertex
100
AcDb2dVertex
 10
162.317741
 20
208.555056
 30
0.0
  0
VERTEX
  5
104
100
AcDbEntity
  8
レイヤー_2
 62
     7
100
AcDbVertex
100
AcDb2dVertex
 10
161.939814
 20
208.54231
 30
0.0
  0
VERTEX
  5
105
100
AcDbEntity
  8
レイヤー_2
 62
     7
100
AcDbVertex
100
AcDb2dVertex
 10
161.575323
 20
208.529735
 30
0.0
  0
VERTEX
  5
106
100
AcDbEntity
  8
レイヤー_2
 62
     7
100
AcDbVertex
100
AcDb2dVertex
 10
161.237359
 20
208.517505
 30
0.0
  0
VERTEX
  5
107
100
AcDbEntity
  8
レイヤー_2
 62
     7
100
AcDbVertex
100
AcDb2dVertex
 10
160.939014
 20
208.506997
 30
0.0
  0
VERTEX
  5
108
100
AcDbEntity
  8
レイヤー_2
 62
     7
100
AcDbVertex
100
AcDb2dVertex
 10
160.690278
 20
208.498212
 30
0.0
  0
VERTEX
  5
109
100
AcDbEntity
  8
レイヤー_2
 62
     7
100
AcDbVertex
100
AcDb2dVertex
 10
160.500109
 20
208.492011
 30
0.0
  0
VERTEX
  5
10A
100
AcDbEntity
  8
レイヤー_2
 62
     7
100
AcDbVertex
100
AcDb2dVertex
 10
160.376085
 20
208.48736
 30
0.0
  0
VERTEX
  5
10B
100
AcDbEntity
  8
レイヤー_2
 62
     7
100
AcDbVertex
100
AcDb2dVertex
 10
160.321997
 20
208.485638
 30
0.0
  0
VERTEX
  5
10C
100
AcDbEntity
  8
レイヤー_2
 62
     7
100
AcDbVertex
100
AcDb2dVertex
 10
160.319241
 20
208.485638
 30
0.0
  0
SEQEND
  5
10D
100
AcDbEntity
  8
レイヤー_2
 62
     7
  0
POLYLINE
  5
F6
100
AcDbEntity
  8
レイヤー_2
 62
     7
100
AcDb2dPolyline
 66
     1
 10
0.0
 20
0.0
 30
0.0
  0
VERTEX
  5
F7
100
AcDbEntity
  8
レイヤー_2
 62
     7
100
AcDbVertex
100
AcDb2dVertex
 10
164.31693
 20
208.625164
 30
0.0
  0
VERTEX
  5
F8
100
AcDbEntity
  8
レイヤー_2
 62
     7
100
AcDbVertex
100
AcDb2dVertex
 10
164.314863
 20
208.625164
 30
0.0
  0
VERTEX
  5
F9
100
AcDbEntity
  8
レイヤー_2
 62
     7
100
AcDbVertex
100
AcDb2dVertex
 10
164.260775
 20
208.623097
 30
0.0
  0
VERTEX
  5
FA
100
AcDbEntity
  8
レイヤー_2
 62
     7
100
AcDbVertex
100
AcDb2dVertex
 10
164.136407
 20
208.618446
 30
0.0
  0
VERTEX
  5
FB
100
AcDbEntity
  8
レイヤー_2
 62
     7
100
AcDbVertex
100
AcDb2dVertex
 10
163.946238
 20
208.612417
 30
0.0
  0
VERTEX
  5
FC
100
AcDbEntity
  8
レイヤー_2
 62
     7
100
AcDbVertex
100
AcDb2dVertex
 10
163.697502
 20
208.603632
 30
0.0
  0
VERTEX
  5
FD
100
AcDbEntity
  8
レイヤー_2
 62
     7
100
AcDbVertex
100
AcDb2dVertex
 10
163.398812
 20
208.592608
 30
0.0
  0
VERTEX
  5
FE
100
AcDbEntity
  8
レイヤー_2
 62
     7
100
AcDbVertex
100
AcDb2dVertex
 10
163.060848
 20
208.580895
 30
0.0
  0
VERTEX
  5
FF
100
AcDbEntity
  8
レイヤー_2
 62
     7
100
AcDbVertex
100
AcDb2dVertex
 10
162.696701
 20
208.56832
 30
0.0
  0
VERTEX
  5
100
100
AcDbEntity
  8
レイヤー_2
 62
     7
100
AcDbVertex
100
AcDb2dVertex
 10
162.317741
 20
208.555056
 30
0.0
  0
SEQEND
  5
101
100
AcDbEntity
  8
レイヤー_2
 62
     7
  0
LINE
  5
F5
100
AcDbEntity
  8
レイヤー_2
 62
     7
100
AcDbLine
 10
69.448646
 20
178.195497
 30
0.0
 11
69.448646
 21
178.295749
 31
0.0
  0
LINE
  5
F4
100
AcDbEntity
  8
レイヤー_2
 62
     7
100
AcDbLine
 10
65.648706
 20
178.295749
 30
0.0
 11
65.648706
 21
178.195497
 31
0.0
  0
LINE
  5
F3
100
AcDbEntity
  8
レイヤー_2
 62
     7
100
AcDbLine
 10
66.218525
 20
204.708091
 30
0.0
 11
66.218525
 21
204.560124
 31
0.0
  0
LINE
  5
F2
100
AcDbEntity
  8
レイヤー_2
 62
     7
100
AcDbLine
 10
68.878655
 20
204.560124
 30
0.0
 11
68.878655
 21
204.708091
 31
0.0
  0
LINE
  5
F1
100
AcDbEntity
  8
レイヤー_2
 62
     7
100
AcDbLine
 10
65.548971
 20
208.617757
 30
0.0
 11
65.548971
 21
204.680013
 31
0.0
  0
LINE
  5
F0
100
AcDbEntity
  8
レイヤー_2
 62
     7
100
AcDbLine
 10
69.548899
 20
204.680013
 30
0.0
 11
69.548899
 21
208.617757
 31
0.0
  0
LINE
  5
EF
100
AcDbEntity
  8
レイヤー_2
 62
     7
100
AcDbLine
 10
69.548899
 20
208.617757
 30
0.0
 11
69.548899
 21
211.615679
 31
0.0
  0
LINE
  5
EE
100
AcDbEntity
  8
レイヤー_2
 62
     7
100
AcDbLine
 10
65.548971
 20
211.615679
 30
0.0
 11
65.548971
 21
208.617757
 31
0.0
  0
SPLINE
  5
ED
100
AcDbEntity
  8
レイヤー_2
 62
     7
100
AcDbSpline
210
0.0
220
0.0
230
1.0
 70
     8
 71
     3
 72
    11
 73
     7
 74
     0
 42
0.00000001
 43
0.00000001
 40
0.0
 40
0.0
 40
0.0
 40
0.0
 40
1.0
 40
1.0
 40
1.0
 40
2.0
 40
2.0
 40
2.0
 40
2.0
 10
69.548898654513877
 20
234.29577636718747
 30
0.0
 10
69.548898654513877
 20
235.40027398003471
 30
0.0
 10
68.653518337673603
 20
236.29582655164927
 30
0.0
 10
67.548331705729154
 20
236.29582655164927
 30
0.0
 10
66.44366183810763
 20
236.29582655164927
 30
0.0
 10
65.548970540364579
 20
235.40027398003471
 30
0.0
 10
65.548970540364579
 20
234.29577636718747
 30
0.0
  0
LINE
  5
EC
100
AcDbEntity
  8
レイヤー_2
 62
     7
100
AcDbLine
 10
65.548971
 20
234.295776
 30
0.0
 11
65.548971
 21
211.615679
 31
0.0
  0
LINE
  5
EB
100
AcDbEntity
  8
レイヤー_2
 62
     7
100
AcDbLine
 10
69.548899
 20
211.615679
 30
0.0
 11
69.548899
 21
234.295776
 31
0.0
  0
LINE
  5
EA
100
AcDbEntity
  8
レイヤー_2
 62
     7
100
AcDbLine
 10
69.548899
 20
178.295749
 30
0.0
 11
69.548899
 21
204.680013
 31
0.0
  0
LINE
  5
E9
100
AcDbEntity
  8
レイヤー_2
 62
     7
100
AcDbLine
 10
65.548971
 20
204.680013
 30
0.0
 11
65.548971
 21
178.295749
 31
0.0
  0
POLYLINE
  5
CC
100
AcDbEntity
  8
レイヤー_2
 62
     7
100
AcDb2dPolyline
 66
     1
 10
0.0
 20
0.0
 30
0.0
  0
VERTEX
  5
CD
100
AcDbEntity
  8
レイヤー_2
 62
     7
100
AcDbVertex
100
AcDb2dVertex
 10
66.625563
 20
204.588029
 30
0.0
  0
VERTEX
  5
CE
100
AcDbEntity
  8
レイヤー_2
 62
     7
100
AcDbVertex
100
AcDb2dVertex
 10
66.843293
 20
204.594747
 30
0.0
  0
VERTEX
  5
CF
100
AcDbEntity
  8
レイヤー_2
 62
     7
100
AcDbVertex
100
AcDb2dVertex
 10
67.10202
 20
204.600087
 30
0.0
  0
VERTEX
  5
D0
100
AcDbEntity
  8
レイヤー_2
 62
     7
100
AcDbVertex
100
AcDb2dVertex
 10
67.386412
 20
204.602154
 30
0.0
  0
VERTEX
  5
D1
100
AcDbEntity
  8
レイヤー_2
 62
     7
100
AcDbVertex
100
AcDb2dVertex
 10
67.680623
 20
204.602843
 30
0.0
  0
VERTEX
  5
D2
100
AcDbEntity
  8
レイヤー_2
 62
     7
100
AcDbVertex
100
AcDb2dVertex
 10
67.966911
 20
204.600087
 30
0.0
  0
VERTEX
  5
D3
100
AcDbEntity
  8
レイヤー_2
 62
     7
100
AcDbVertex
100
AcDb2dVertex
 10
68.229599
 20
204.595436
 30
0.0
  0
VERTEX
  5
D4
100
AcDbEntity
  8
レイヤー_2
 62
     7
100
AcDbVertex
100
AcDb2dVertex
 10
68.451636
 20
204.588718
 30
0.0
  0
VERTEX
  5
D5
100
AcDbEntity
  8
レイヤー_2
 62
     7
100
AcDbVertex
100
AcDb2dVertex
 10
68.621479
 20
204.58045
 30
0.0
  0
VERTEX
  5
D6
100
AcDbEntity
  8
レイヤー_2
 62
     7
100
AcDbVertex
100
AcDb2dVertex
 10
68.72931
 20
204.570976
 30
0.0
  0
VERTEX
  5
D7
100
AcDbEntity
  8
レイヤー_2
 62
     7
100
AcDbVertex
100
AcDb2dVertex
 10
68.768585
 20
204.560468
 30
0.0
  0
VERTEX
  5
D8
100
AcDbEntity
  8
レイヤー_2
 62
     7
100
AcDbVertex
100
AcDb2dVertex
 10
68.736717
 20
204.550305
 30
0.0
  0
VERTEX
  5
D9
100
AcDbEntity
  8
レイヤー_2
 62
     7
100
AcDbVertex
100
AcDb2dVertex
 10
68.635776
 20
204.540831
 30
0.0
  0
VERTEX
  5
DA
100
AcDbEntity
  8
レイヤー_2
 62
     7
100
AcDbVertex
100
AcDb2dVertex
 10
68.471617
 20
204.532391
 30
0.0
  0
VERTEX
  5
DB
100
AcDbEntity
  8
レイヤー_2
 62
     7
100
AcDbVertex
100
AcDb2dVertex
 10
68.253887
 20
204.525328
 30
0.0
  0
VERTEX
  5
DC
100
AcDbEntity
  8
レイヤー_2
 62
     7
100
AcDbVertex
100
AcDb2dVertex
 10
67.995333
 20
204.520505
 30
0.0
  0
VERTEX
  5
DD
100
AcDbEntity
  8
レイヤー_2
 62
     7
100
AcDbVertex
100
AcDb2dVertex
 10
67.710251
 20
204.518266
 30
0.0
  0
VERTEX
  5
DE
100
AcDbEntity
  8
レイヤー_2
 62
     7
100
AcDbVertex
100
AcDb2dVertex
 10
67.416557
 20
204.518266
 30
0.0
  0
VERTEX
  5
DF
100
AcDbEntity
  8
レイヤー_2
 62
     7
100
AcDbVertex
100
AcDb2dVertex
 10
67.129925
 20
204.520161
 30
0.0
  0
VERTEX
  5
E0
100
AcDbEntity
  8
レイヤー_2
 62
     7
100
AcDbVertex
100
AcDb2dVertex
 10
66.868098
 20
204.524984
 30
0.0
  0
VERTEX
  5
E1
100
AcDbEntity
  8
レイヤー_2
 62
     7
100
AcDbVertex
100
AcDb2dVertex
 10
66.645028
 20
204.531702
 30
0.0
  0
VERTEX
  5
E2
100
AcDbEntity
  8
レイヤー_2
 62
     7
100
AcDbVertex
100
AcDb2dVertex
 10
66.475873
 20
204.539798
 30
0.0
  0
VERTEX
  5
E3
100
AcDbEntity
  8
レイヤー_2
 62
     7
100
AcDbVertex
100
AcDb2dVertex
 10
66.36787
 20
204.549444
 30
0.0
  0
VERTEX
  5
E4
100
AcDbEntity
  8
レイヤー_2
 62
     7
100
AcDbVertex
100
AcDb2dVertex
 10
66.328423
 20
204.559435
 30
0.0
  0
VERTEX
  5
E5
100
AcDbEntity
  8
レイヤー_2
 62
     7
100
AcDbVertex
100
AcDb2dVertex
 10
66.360463
 20
204.569598
 30
0.0
  0
VERTEX
  5
E6
100
AcDbEntity
  8
レイヤー_2
 62
     7
100
AcDbVertex
100
AcDb2dVertex
 10
66.461576
 20
204.579416
 30
0.0
  0
VERTEX
  5
E7
100
AcDbEntity
  8
レイヤー_2
 62
     7
100
AcDbVertex
100
AcDb2dVertex
 10
66.625563
 20
204.588029
 30
0.0
  0
SEQEND
  5
E8
100
AcDbEntity
  8
レイヤー_2
 62
     7
  0
POLYLINE
  5
AE
100
AcDbEntity
  8
レイヤー_2
 62
     7
100
AcDb2dPolyline
 66
     1
 10
0.0
 20
0.0
 30
0.0
  0
VERTEX
  5
AF
100
AcDbEntity
  8
レイヤー_2
 62
     7
100
AcDbVertex
100
AcDb2dVertex
 10
66.542364
 20
204.590785
 30
0.0
  0
VERTEX
  5
B0
100
AcDbEntity
  8
レイヤー_2
 62
     7
100
AcDbVertex
100
AcDb2dVertex
 10
66.770257
 20
204.598192
 30
0.0
  0
VERTEX
  5
B1
100
AcDbEntity
  8
レイヤー_2
 62
     7
100
AcDbVertex
100
AcDb2dVertex
 10
67.039491
 20
204.602843
 30
0.0
  0
VERTEX
  5
B2
100
AcDbEntity
  8
レイヤー_2
 62
     7
100
AcDbVertex
100
AcDb2dVertex
 10
67.336631
 20
204.606288
 30
0.0
  0
VERTEX
  5
B3
100
AcDbEntity
  8
レイヤー_2
 62
     7
100
AcDbVertex
100
AcDb2dVertex
 10
67.645311
 20
204.606632
 30
0.0
  0
VERTEX
  5
B4
100
AcDbEntity
  8
レイヤー_2
 62
     7
100
AcDbVertex
100
AcDb2dVertex
 10
67.948652
 20
204.604221
 30
0.0
  0
VERTEX
  5
B5
100
AcDbEntity
  8
レイヤー_2
 62
     7
100
AcDbVertex
100
AcDb2dVertex
 10
68.230116
 20
204.600087
 30
0.0
  0
VERTEX
  5
B6
100
AcDbEntity
  8
レイヤー_2
 62
     7
100
AcDbVertex
100
AcDb2dVertex
 10
68.475407
 20
204.593369
 30
0.0
  0
VERTEX
  5
B7
100
AcDbEntity
  8
レイヤー_2
 62
     7
100
AcDbVertex
100
AcDb2dVertex
 10
68.670227
 20
204.585273
 30
0.0
  0
VERTEX
  5
B8
100
AcDbEntity
  8
レイヤー_2
 62
     7
100
AcDbVertex
100
AcDb2dVertex
 10
68.804758
 20
204.575627
 30
0.0
  0
VERTEX
  5
B9
100
AcDbEntity
  8
レイヤー_2
 62
     7
100
AcDbVertex
100
AcDb2dVertex
 10
68.871937
 20
204.564947
 30
0.0
  0
VERTEX
  5
BA
100
AcDbEntity
  8
レイヤー_2
 62
     7
100
AcDbVertex
100
AcDb2dVertex
 10
68.867114
 20
204.554095
 30
0.0
  0
VERTEX
  5
BB
100
AcDbEntity
  8
レイヤー_2
 62
     7
100
AcDbVertex
100
AcDb2dVertex
 10
68.792011
 20
204.543587
 30
0.0
  0
VERTEX
  5
BC
100
AcDbEntity
  8
レイヤー_2
 62
     7
100
AcDbVertex
100
AcDb2dVertex
 10
68.649384
 20
204.534113
 30
0.0
  0
VERTEX
  5
BD
100
AcDbEntity
  8
レイヤー_2
 62
     7
100
AcDbVertex
100
AcDb2dVertex
 10
68.447329
 20
204.526017
 30
0.0
  0
VERTEX
  5
BE
100
AcDbEntity
  8
レイヤー_2
 62
     7
100
AcDbVertex
100
AcDb2dVertex
 10
68.197043
 20
204.519472
 30
0.0
  0
VERTEX
  5
BF
100
AcDbEntity
  8
レイヤー_2
 62
     7
100
AcDbVertex
100
AcDb2dVertex
 10
67.911445
 20
204.51551
 30
0.0
  0
VERTEX
  5
C0
100
AcDbEntity
  8
レイヤー_2
 62
     7
100
AcDbVertex
100
AcDb2dVertex
 10
67.606726
 20
204.513787
 30
0.0
  0
VERTEX
  5
C1
100
AcDbEntity
  8
レイヤー_2
 62
     7
100
AcDbVertex
100
AcDb2dVertex
 10
67.298562
 20
204.514821
 30
0.0
  0
VERTEX
  5
C2
100
AcDbEntity
  8
レイヤー_2
 62
     7
100
AcDbVertex
100
AcDb2dVertex
 10
67.004179
 20
204.518266
 30
0.0
  0
VERTEX
  5
C3
100
AcDbEntity
  8
レイヤー_2
 62
     7
100
AcDbVertex
100
AcDb2dVertex
 10
66.739079
 20
204.523261
 30
0.0
  0
VERTEX
  5
C4
100
AcDbEntity
  8
レイヤー_2
 62
     7
100
AcDbVertex
100
AcDb2dVertex
 10
66.517731
 20
204.531013
 30
0.0
  0
VERTEX
  5
C5
100
AcDbEntity
  8
レイヤー_2
 62
     7
100
AcDbVertex
100
AcDb2dVertex
 10
66.351506
 20
204.539798
 30
0.0
  0
VERTEX
  5
C6
100
AcDbEntity
  8
レイヤー_2
 62
     7
100
AcDbVertex
100
AcDb2dVertex
 10
66.249875
 20
204.550133
 30
0.0
  0
VERTEX
  5
C7
100
AcDbEntity
  8
レイヤー_2
 62
     7
100
AcDbVertex
100
AcDb2dVertex
 10
66.218525
 20
204.560468
 30
0.0
  0
VERTEX
  5
C8
100
AcDbEntity
  8
レイヤー_2
 62
     7
100
AcDbVertex
100
AcDb2dVertex
 10
66.259005
 20
204.571665
 30
0.0
  0
VERTEX
  5
C9
100
AcDbEntity
  8
レイヤー_2
 62
     7
100
AcDbVertex
100
AcDb2dVertex
 10
66.368731
 20
204.581828
 30
0.0
  0
VERTEX
  5
CA
100
AcDbEntity
  8
レイヤー_2
 62
     7
100
AcDbVertex
100
AcDb2dVertex
 10
66.542364
 20
204.590785
 30
0.0
  0
SEQEND
  5
CB
100
AcDbEntity
  8
レイヤー_2
 62
     7
  0
POLYLINE
  5
9A
100
AcDbEntity
  8
レイヤー_2
 62
     7
100
AcDb2dPolyline
 66
     1
 10
0.0
 20
0.0
 30
0.0
  0
VERTEX
  5
9B
100
AcDbEntity
  8
レイヤー_2
 62
     7
100
AcDbVertex
100
AcDb2dVertex
 10
66.214391
 20
204.732206
 30
0.0
  0
VERTEX
  5
9C
100
AcDbEntity
  8
レイヤー_2
 62
     7
100
AcDbVertex
100
AcDb2dVertex
 10
66.521004
 20
204.739958
 30
0.0
  0
VERTEX
  5
9D
100
AcDbEntity
  8
レイヤー_2
 62
     7
100
AcDbVertex
100
AcDb2dVertex
 10
66.864136
 20
204.745814
 30
0.0
  0
VERTEX
  5
9E
100
AcDbEntity
  8
レイヤー_2
 62
     7
100
AcDbVertex
100
AcDb2dVertex
 10
67.232072
 20
204.749259
 30
0.0
  0
VERTEX
  5
9F
100
AcDbEntity
  8
レイヤー_2
 62
     7
100
AcDbVertex
100
AcDb2dVertex
 10
67.611377
 20
204.750121
 30
0.0
  0
VERTEX
  5
A0
100
AcDbEntity
  8
レイヤー_2
 62
     7
100
AcDbVertex
100
AcDb2dVertex
 10
67.988615
 20
204.748054
 30
0.0
  0
VERTEX
  5
A1
100
AcDbEntity
  8
レイヤー_2
 62
     7
100
AcDbVertex
100
AcDb2dVertex
 10
68.350005
 20
204.744092
 30
0.0
  0
VERTEX
  5
A2
100
AcDbEntity
  8
レイヤー_2
 62
     7
100
AcDbVertex
100
AcDb2dVertex
 10
68.681768
 20
204.737546
 30
0.0
  0
VERTEX
  5
A3
100
AcDbEntity
  8
レイヤー_2
 62
     7
100
AcDbVertex
100
AcDb2dVertex
 10
68.973395
 20
204.728761
 30
0.0
  0
VERTEX
  5
A4
100
AcDbEntity
  8
レイヤー_2
 62
     7
100
AcDbVertex
100
AcDb2dVertex
 10
69.213174
 20
204.71877
 30
0.0
  0
VERTEX
  5
A5
100
AcDbEntity
  8
レイヤー_2
 62
     7
100
AcDbVertex
100
AcDb2dVertex
 10
69.39318
 20
204.707229
 30
0.0
  0
VERTEX
  5
A6
100
AcDbEntity
  8
レイヤー_2
 62
     7
100
AcDbVertex
100
AcDb2dVertex
 10
69.506179
 20
204.69431
 30
0.0
  0
VERTEX
  5
A7
100
AcDbEntity
  8
レイヤー_2
 62
     7
100
AcDbVertex
100
AcDb2dVertex
 10
69.548037
 20
204.681391
 30
0.0
  0
VERTEX
  5
A8
100
AcDbEntity
  8
レイヤー_2
 62
     7
100
AcDbVertex
100
AcDb2dVertex
 10
69.518237
 20
204.667955
 30
0.0
  0
VERTEX
  5
A9
100
AcDbEntity
  8
レイヤー_2
 62
     7
100
AcDbVertex
100
AcDb2dVertex
 10
69.417124
 20
204.655036
 30
0.0
  0
VERTEX
  5
AA
100
AcDbEntity
  8
レイヤー_2
 62
     7
100
AcDbVertex
100
AcDb2dVertex
 10
69.248486
 20
204.643495
 30
0.0
  0
VERTEX
  5
AB
100
AcDbEntity
  8
レイヤー_2
 62
     7
100
AcDbVertex
100
AcDb2dVertex
 10
69.017837
 20
204.632643
 30
0.0
  0
VERTEX
  5
AC
100
AcDbEntity
  8
レイヤー_2
 62
     7
100
AcDbVertex
100
AcDb2dVertex
 10
68.878655
 20
204.627992
 30
0.0
  0
SEQEND
  5
AD
100
AcDbEntity
  8
レイヤー_2
 62
     7
  0
POLYLINE
  5
8E
100
AcDbEntity
  8
レイヤー_2
 62
     7
100
AcDb2dPolyline
 66
     1
 10
0.0
 20
0.0
 30
0.0
  0
VERTEX
  5
8F
100
AcDbEntity
  8
レイヤー_2
 62
     7
100
AcDbVertex
100
AcDb2dVertex
 10
66.218525
 20
204.627992
 30
0.0
  0
VERTEX
  5
90
100
AcDbEntity
  8
レイヤー_2
 62
     7
100
AcDbVertex
100
AcDb2dVertex
 10
65.996661
 20
204.636088
 30
0.0
  0
VERTEX
  5
91
100
AcDbEntity
  8
レイヤー_2
 62
     7
100
AcDbVertex
100
AcDb2dVertex
 10
65.785476
 20
204.647285
 30
0.0
  0
VERTEX
  5
92
100
AcDbEntity
  8
レイヤー_2
 62
     7
100
AcDbVertex
100
AcDb2dVertex
 10
65.638888
 20
204.659342
 30
0.0
  0
VERTEX
  5
93
100
AcDbEntity
  8
レイヤー_2
 62
     7
100
AcDbVertex
100
AcDb2dVertex
 10
65.560856
 20
204.672262
 30
0.0
  0
VERTEX
  5
94
100
AcDbEntity
  8
レイヤー_2
 62
     7
100
AcDbVertex
100
AcDb2dVertex
 10
65.554999
 20
204.68587
 30
0.0
  0
VERTEX
  5
95
100
AcDbEntity
  8
レイヤー_2
 62
     7
100
AcDbVertex
100
AcDb2dVertex
 10
65.620629
 20
204.698272
 30
0.0
  0
VERTEX
  5
96
100
AcDbEntity
  8
レイヤー_2
 62
     7
100
AcDbVertex
100
AcDb2dVertex
 10
65.756538
 20
204.710847
 30
0.0
  0
VERTEX
  5
97
100
AcDbEntity
  8
レイヤー_2
 62
     7
100
AcDbVertex
100
AcDb2dVertex
 10
65.956698
 20
204.722043
 30
0.0
  0
VERTEX
  5
98
100
AcDbEntity
  8
レイヤー_2
 62
     7
100
AcDbVertex
100
AcDb2dVertex
 10
66.214391
 20
204.732206
 30
0.0
  0
SEQEND
  5
99
100
AcDbEntity
  8
レイヤー_2
 62
     7
  0
POLYLINE
  5
7D
100
AcDbEntity
  8
レイヤー_2
 62
     7
100
AcDb2dPolyline
 66
     1
 10
0.0
 20
0.0
 30
0.0
  0
VERTEX
  5
7E
100
AcDbEntity
  8
レイヤー_2
 62
     7
100
AcDbVertex
100
AcDb2dVertex
 10
66.514803
 20
204.719976
 30
0.0
  0
VERTEX
  5
7F
100
AcDbEntity
  8
レイヤー_2
 62
     7
100
AcDbVertex
100
AcDb2dVertex
 10
66.786966
 20
204.727383
 30
0.0
  0
VERTEX
  5
80
100
AcDbEntity
  8
レイヤー_2
 62
     7
100
AcDbVertex
100
AcDb2dVertex
 10
67.094957
 20
204.731862
 30
0.0
  0
VERTEX
  5
81
100
AcDbEntity
  8
レイヤー_2
 62
     7
100
AcDbVertex
100
AcDb2dVertex
 10
67.424825
 20
204.734273
 30
0.0
  0
VERTEX
  5
82
100
AcDbEntity
  8
レイヤー_2
 62
     7
100
AcDbVertex
100
AcDb2dVertex
 10
67.759688
 20
204.733584
 30
0.0
  0
VERTEX
  5
83
100
AcDbEntity
  8
レイヤー_2
 62
     7
100
AcDbVertex
100
AcDb2dVertex
 10
68.084905
 20
204.730828
 30
0.0
  0
VERTEX
  5
84
100
AcDbEntity
  8
レイヤー_2
 62
     7
100
AcDbVertex
100
AcDb2dVertex
 10
68.384973
 20
204.725488
 30
0.0
  0
VERTEX
  5
85
100
AcDbEntity
  8
レイヤー_2
 62
     7
100
AcDbVertex
100
AcDb2dVertex
 10
68.645939
 20
204.718081
 30
0.0
  0
VERTEX
  5
86
100
AcDbEntity
  8
レイヤー_2
 62
     7
100
AcDbVertex
100
AcDb2dVertex
 10
68.855745
 20
204.709469
 30
0.0
  0
VERTEX
  5
87
100
AcDbEntity
  8
レイヤー_2
 62
     7
100
AcDbVertex
100
AcDb2dVertex
 10
69.004057
 20
204.698272
 30
0.0
  0
VERTEX
  5
88
100
AcDbEntity
  8
レイヤー_2
 62
     7
100
AcDbVertex
100
AcDb2dVertex
 10
69.0845
 20
204.687248
 30
0.0
  0
VERTEX
  5
89
100
AcDbEntity
  8
レイヤー_2
 62
     7
100
AcDbVertex
100
AcDb2dVertex
 10
69.093629
 20
204.675534
 30
0.0
  0
VERTEX
  5
8A
100
AcDbEntity
  8
レイヤー_2
 62
     7
100
AcDbVertex
100
AcDb2dVertex
 10
69.029895
 20
204.664166
 30
0.0
  0
VERTEX
  5
8B
100
AcDbEntity
  8
レイヤー_2
 62
     7
100
AcDbVertex
100
AcDb2dVertex
 10
68.897087
 20
204.653658
 30
0.0
  0
VERTEX
  5
8C
100
AcDbEntity
  8
レイヤー_2
 62
     7
100
AcDbVertex
100
AcDb2dVertex
 10
68.878655
 20
204.65228
 30
0.0
  0
SEQEND
  5
8D
100
AcDbEntity
  8
レイヤー_2
 62
     7
  0
POLYLINE
  5
73
100
AcDbEntity
  8
レイヤー_2
 62
     7
100
AcDb2dPolyline
 66
     1
 10
0.0
 20
0.0
 30
0.0
  0
VERTEX
  5
74
100
AcDbEntity
  8
レイヤー_2
 62
     7
100
AcDbVertex
100
AcDb2dVertex
 10
66.218525
 20
204.65228
 30
0.0
  0
VERTEX
  5
75
100
AcDbEntity
  8
レイヤー_2
 62
     7
100
AcDbVertex
100
AcDb2dVertex
 10
66.158925
 20
204.656242
 30
0.0
  0
VERTEX
  5
76
100
AcDbEntity
  8
レイヤー_2
 62
     7
100
AcDbVertex
100
AcDb2dVertex
 10
66.044031
 20
204.667266
 30
0.0
  0
VERTEX
  5
77
100
AcDbEntity
  8
レイヤー_2
 62
     7
100
AcDbVertex
100
AcDb2dVertex
 10
65.999417
 20
204.678979
 30
0.0
  0
VERTEX
  5
78
100
AcDbEntity
  8
レイヤー_2
 62
     7
100
AcDbVertex
100
AcDb2dVertex
 10
66.026633
 20
204.690176
 30
0.0
  0
VERTEX
  5
79
100
AcDbEntity
  8
レイヤー_2
 62
     7
100
AcDbVertex
100
AcDb2dVertex
 10
66.125507
 20
204.701028
 30
0.0
  0
VERTEX
  5
7A
100
AcDbEntity
  8
レイヤー_2
 62
     7
100
AcDbVertex
100
AcDb2dVertex
 10
66.2907
 20
204.71188
 30
0.0
  0
VERTEX
  5
7B
100
AcDbEntity
  8
レイヤー_2
 62
     7
100
AcDbVertex
100
AcDb2dVertex
 10
66.514803
 20
204.719976
 30
0.0
  0
SEQEND
  5
7C
100
AcDbEntity
  8
レイヤー_2
 62
     7
  0
SPLINE
  5
72
100
AcDbEntity
  8
レイヤー_2
 62
     7
100
AcDbSpline
210
0.0
220
0.0
230
1.0
 70
     8
 71
     3
 72
     8
 73
     4
 74
     0
 42
0.00000001
 43
0.00000001
 40
0.0
 40
0.0
 40
0.0
 40
0.0
 40
1.0
 40
1.0
 40
1.0
 40
1.0
 10
69.548898654513877
 20
208.61775716145831
 30
0.0
 10
68.379977756076386
 20
208.71904296874999
 30
0.0
 10
67.223286946614579
 20
208.73282335069442
 30
0.0
 10
66.214390733506931
 20
208.6697781032986
 30
0.0
  0
SPLINE
  5
71
100
AcDbEntity
  8
レイヤー_2
 62
     7
100
AcDbSpline
210
0.0
220
0.0
230
1.0
 70
     8
 71
     3
 72
     8
 73
     4
 74
     0
 42
0.00000001
 43
0.00000001
 40
0.0
 40
0.0
 40
0.0
 40
0.0
 40
1.0
 40
1.0
 40
1.0
 40
1.0
 10
66.214390733506931
 20
208.6697781032986
 30
0.0
 10
65.979262966579853
 20
208.67804633246527
 30
0.0
 10
65.749647352430543
 20
208.65840928819443
 30
0.0
 10
65.548970540364579
 20
208.61775716145831
 30
0.0
  0
POLYLINE
  5
5D
100
AcDbEntity
  8
レイヤー_2
 62
     7
100
AcDb2dPolyline
 66
     1
 10
0.0
 20
0.0
 30
0.0
  0
VERTEX
  5
5E
100
AcDbEntity
  8
レイヤー_2
 62
     7
100
AcDbVertex
100
AcDb2dVertex
 10
69.548899
 20
208.617757
 30
0.0
  0
VERTEX
  5
5F
100
AcDbEntity
  8
レイヤー_2
 62
     7
100
AcDbVertex
100
AcDb2dVertex
 10
69.539597
 20
208.624475
 30
0.0
  0
VERTEX
  5
60
100
AcDbEntity
  8
レイヤー_2
 62
     7
100
AcDbVertex
100
AcDb2dVertex
 10
69.467594
 20
208.637394
 30
0.0
  0
VERTEX
  5
61
100
AcDbEntity
  8
レイヤー_2
 62
     7
100
AcDbVertex
100
AcDb2dVertex
 10
69.326518
 20
208.649624
 30
0.0
  0
VERTEX
  5
62
100
AcDbEntity
  8
レイヤー_2
 62
     7
100
AcDbVertex
100
AcDb2dVertex
 10
69.120846
 20
208.660993
 30
0.0
  0
VERTEX
  5
63
100
AcDbEntity
  8
レイヤー_2
 62
     7
100
AcDbVertex
100
AcDb2dVertex
 10
68.857985
 20
208.670467
 30
0.0
  0
VERTEX
  5
64
100
AcDbEntity
  8
レイヤー_2
 62
     7
100
AcDbVertex
100
AcDb2dVertex
 10
68.548787
 20
208.678046
 30
0.0
  0
VERTEX
  5
65
100
AcDbEntity
  8
レイヤー_2
 62
     7
100
AcDbVertex
100
AcDb2dVertex
 10
68.203072
 20
208.683558
 30
0.0
  0
VERTEX
  5
66
100
AcDbEntity
  8
レイヤー_2
 62
     7
100
AcDbVertex
100
AcDb2dVertex
 10
67.833241
 20
208.686831
 30
0.0
  0
VERTEX
  5
67
100
AcDbEntity
  8
レイヤー_2
 62
     7
100
AcDbVertex
100
AcDb2dVertex
 10
67.453247
 20
208.68752
 30
0.0
  0
VERTEX
  5
68
100
AcDbEntity
  8
レイヤー_2
 62
     7
100
AcDbVertex
100
AcDb2dVertex
 10
67.077043
 20
208.685798
 30
0.0
  0
VERTEX
  5
69
100
AcDbEntity
  8
レイヤー_2
 62
     7
100
AcDbVertex
100
AcDb2dVertex
 10
66.717547
 20
208.681491
 30
0.0
  0
VERTEX
  5
6A
100
AcDbEntity
  8
レイヤー_2
 62
     7
100
AcDbVertex
100
AcDb2dVertex
 10
66.388713
 20
208.674601
 30
0.0
  0
VERTEX
  5
6B
100
AcDbEntity
  8
レイヤー_2
 62
     7
100
AcDbVertex
100
AcDb2dVertex
 10
66.101392
 20
208.665816
 30
0.0
  0
VERTEX
  5
6C
100
AcDbEntity
  8
レイヤー_2
 62
     7
100
AcDbVertex
100
AcDb2dVertex
 10
65.866264
 20
208.654964
 30
0.0
  0
VERTEX
  5
6D
100
AcDbEntity
  8
レイヤー_2
 62
     7
100
AcDbVertex
100
AcDb2dVertex
 10
65.69177
 20
208.643595
 30
0.0
  0
VERTEX
  5
6E
100
AcDbEntity
  8
レイヤー_2
 62
     7
100
AcDbVertex
100
AcDb2dVertex
 10
65.5848
 20
208.630504
 30
0.0
  0
VERTEX
  5
6F
100
AcDbEntity
  8
レイヤー_2
 62
     7
100
AcDbVertex
100
AcDb2dVertex
 10
65.548971
 20
208.617757
 30
0.0
  0
SEQEND
  5
70
100
AcDbEntity
  8
レイヤー_2
 62
     7
  0
LINE
  5
5C
100
AcDbEntity
  8
レイヤー_2
 62
     7
100
AcDbLine
 10
65.548971
 20
178.295749
 30
0.0
 11
69.548899
 21
178.295749
 31
0.0
  0
LINE
  5
5B
100
AcDbEntity
  8
レイヤー_2
 62
     7
100
AcDbLine
 10
70.829096
 20
160.60415
 30
0.0
 11
70.829096
 21
148.604194
 31
0.0
  0
LINE
  5
5A
100
AcDbEntity
  8
レイヤー_2
 62
     7
100
AcDbLine
 10
118.711789
 20
160.548684
 30
0.0
 11
118.711789
 21
148.548728
 31
0.0
  0
LINE
  5
59
100
AcDbEntity
  8
レイヤー_2
  6
AI9-LType2
 62
     7
100
AcDbLine
 10
67.566418
 20
237.476978
 30
0.0
 11
67.566418
 21
133.039941
 31
0.0
  0
LINE
  5
58
100
AcDbEntity
  8
レイヤー_2
 62
     7
100
AcDbLine
 10
67.566418
 20
133.039941
 30
0.0
 11
67.566418
 21
132.240335
 31
0.0
  0
LINE
  5
57
100
AcDbEntity
  8
レイヤー_2
  6
AI9-LType2
 62
     7
100
AcDbLine
 10
115.124411
 20
105.55497
 30
0.0
 11
115.124411
 21
211.017266
 31
0.0
  0
LINE
  5
56
100
AcDbEntity
  8
レイヤー_2
 62
     7
100
AcDbLine
 10
115.124411
 20
211.017266
 30
0.0
 11
115.124411
 21
211.817217
 31
0.0
  0
LINE
  5
55
100
AcDbEntity
  8
レイヤー_2
  6
AI9-LType2
 62
     7
100
AcDbLine
 10
162.3956
 20
209.559991
 30
0.0
 11
162.568888
 21
204.435239
 31
0.0
  0
LINE
  5
53
100
AcDbEntity
  8
レイヤー_2
 62
     7
100
AcDbLine
 10
162.568888
 20
204.435239
 30
0.0
 11
162.596105
 21
203.635288
 31
0.0
  0
LINE
  5
52
100
AcDbEntity
  8
レイヤー_2
 62
     7
100
AcDbLine
 10
53.029838
 20
160.613797
 30
0.0
 11
41.209888
 21
160.613797
 31
0.0
  0
LINE
  5
51
100
AcDbEntity
  8
レイヤー_2
 62
     7
100
AcDbLine
 10
62.472156
 20
148.732351
 30
0.0
 11
41.209888
 21
148.732351
 31
0.0
  0
LINE
  5
50
100
AcDbEntity
  8
レイヤー_2
 62
     7
100
AcDbLine
 10
126.31856
 20
160.513544
 30
0.0
 11
188.938683
 21
160.59726
 31
0.0
  0
LINE
  5
4F
100
AcDbEntity
  8
レイヤー_2
 62
     7
100
AcDbLine
 10
49.699981
 20
246.362568
 30
0.0
 11
49.699981
 21
175.415649
 31
0.0
  0
LINE
  5
4E
100
AcDbEntity
  8
レイヤー_2
 62
     7
100
AcDbLine
 10
115.124411
 20
246.127268
 30
0.0
 11
115.124411
 21
212.986138
 31
0.0
  0
LINE
  5
4D
100
AcDbEntity
  8
レイヤー_2
 62
     7
100
AcDbLine
 10
162.550629
 20
246.538957
 30
0.0
 11
162.550629
 21
221.9582
 31
0.0
  0
LINE
  5
4C
100
AcDbEntity
  8
レイヤー_2
 62
     7
100
AcDbLine
 10
113.981673
 20
243.937393
 30
0.0
 11
116.352588
 21
246.308135
 31
0.0
  0
LINE
  5
4B
100
AcDbEntity
  8
レイヤー_2
 62
     7
100
AcDbLine
 10
163.736087
 20
246.29935
 30
0.0
 11
161.365516
 21
243.92878
 31
0.0
  0
LINE
  5
4A
100
AcDbEntity
  8
レイヤー_2
 62
     7
100
AcDbLine
 10
113.578252
 20
245.12285
 30
0.0
 11
163.992402
 21
245.12285
 31
0.0
  0
LINE
  5
49
100
AcDbEntity
  8
レイヤー_2
 62
     7
100
AcDbLine
 10
188.30823
 20
159.385965
 30
0.0
 11
185.93766
 21
161.756879
 31
0.0
  0
LINE
  5
48
100
AcDbEntity
  8
レイヤー_2
 62
     7
100
AcDbLine
 10
185.911133
 20
237.461819
 30
0.0
 11
188.281703
 21
235.090904
 31
0.0
  0
LINE
  5
47
100
AcDbEntity
  8
レイヤー_2
 62
     7
100
AcDbLine
 10
188.823617
 20
236.326488
 30
0.0
 11
144.665072
 21
236.326488
 31
0.0
  0
LINE
  5
46
100
AcDbEntity
  8
レイヤー_2
 62
     7
100
AcDbLine
 10
187.123117
 20
159.385965
 30
0.0
 11
187.123117
 21
237.763954
 31
0.0
  0
LINE
  5
45
100
AcDbEntity
  8
レイヤー_2
 62
     7
100
AcDbLine
 10
173.283135
 20
205.518549
 30
0.0
 11
175.653706
 21
203.147635
 31
0.0
  0
LINE
  5
44
100
AcDbEntity
  8
レイヤー_2
 62
     7
100
AcDbLine
 10
175.653706
 20
159.473815
 30
0.0
 11
173.283135
 21
161.845074
 31
0.0
  0
LINE
  5
43
100
AcDbEntity
  8
レイヤー_2
 62
     7
100
AcDbLine
 10
174.468248
 20
159.451766
 30
0.0
 11
174.468248
 21
205.464461
 31
0.0
  0
LINE
  5
42
100
AcDbEntity
  8
レイヤー_2
 62
     7
100
AcDbLine
 10
165.236426
 20
204.224916
 30
0.0
 11
175.979612
 21
204.224916
 31
0.0
  0
LINE
  5
41
100
AcDbEntity
  8
レイヤー_2
 62
     7
100
AcDbLine
 10
108.147404
 20
150.769781
 30
0.0
 11
110.517974
 21
153.140696
 31
0.0
  0
LINE
  5
40
100
AcDbEntity
  8
レイヤー_2
 62
     7
100
AcDbLine
 10
122.273329
 20
153.115546
 30
0.0
 11
119.901725
 21
150.744976
 31
0.0
  0
LINE
  5
3F
100
AcDbEntity
  8
レイヤー_2
 62
     7
100
AcDbLine
 10
48.595828
 20
243.997338
 30
0.0
 11
50.966398
 21
246.367563
 31
0.0
  0
LINE
  5
3E
100
AcDbEntity
  8
レイヤー_2
 62
     7
100
AcDbLine
 10
86.446748
 20
246.381171
 30
0.0
 11
84.075833
 21
244.010946
 31
0.0
  0
LINE
  5
3D
100
AcDbEntity
  8
レイヤー_2
 62
     7
100
AcDbLine
 10
86.575594
 20
245.195886
 30
0.0
 11
48.448378
 21
245.195886
 31
0.0
  0
LINE
  5
3C
100
AcDbEntity
  8
レイヤー_2
 62
     7
100
AcDbLine
 10
85.279205
 20
246.484869
 30
0.0
 11
85.279205
 21
175.746379
 31
0.0
  0
LINE
  5
3B
100
AcDbEntity
  8
レイヤー_2
 62
     7
100
AcDbLine
 10
41.308762
 20
183.99876
 30
0.0
 11
59.436338
 21
183.99876
 31
0.0
  0
LINE
  5
3A
100
AcDbEntity
  8
レイヤー_2
 62
     7
100
AcDbLine
 10
41.187495
 20
185.177327
 30
0.0
 11
43.558237
 21
182.806757
 31
0.0
  0
LINE
  5
39
100
AcDbEntity
  8
レイヤー_2
 62
     7
100
AcDbLine
 10
43.526025
 20
159.330843
 30
0.0
 11
41.155455
 21
161.701758
 31
0.0
  0
LINE
  5
38
100
AcDbEntity
  8
レイヤー_2
 62
     7
100
AcDbLine
 10
42.340051
 20
124.297667
 30
0.0
 11
42.340051
 21
185.406426
 31
0.0
  0
LINE
  5
37
100
AcDbEntity
  8
レイヤー_2
 62
     7
100
AcDbLine
 10
43.524992
 20
147.49384
 30
0.0
 11
41.154422
 21
149.86441
 31
0.0
  0
LINE
  5
36
100
AcDbEntity
  8
レイヤー_2
 62
     7
100
AcDbLine
 10
107.402574
 20
151.911141
 30
0.0
 11
138.604804
 21
151.911141
 31
0.0
  0
LINE
  5
35
100
AcDbEntity
  8
レイヤー_2
 62
     7
100
AcDbLine
 10
109.250179
 20
160.180748
 30
0.0
 11
109.250179
 21
150.670907
 31
0.0
  0
LINE
  5
34
100
AcDbEntity
  8
レイヤー_2
 62
     7
100
AcDbLine
 10
121.056521
 20
160.180748
 30
0.0
 11
121.056521
 21
150.670907
 31
0.0
  0
LINE
  5
33
100
AcDbEntity
  8
レイヤー_2
 62
     7
100
AcDbLine
 10
54.358784
 20
160.595882
 30
0.0
 11
81.17489
 21
160.595882
 31
0.0
  0
LINE
  5
32
100
AcDbEntity
  8
レイヤー_2
 62
     7
100
AcDbLine
 10
104.15695
 20
160.575556
 30
0.0
 11
125.783881
 21
160.535937
 31
0.0
  0
MTEXT
  5
31
100
AcDbEntity
  8
レイヤー_2
 62
     7
100
AcDbMText
 10
120.912516
 20
110.998909
 30
0.0
 40
5.512152
 41
0.0
 71
     1
 72
     2
  1
\fMS Gothic|b0|i0|c128;\H5.5122;\C7;\U+03C6\U+0033\U+0035
  7
STD
210
0.0
220
0.0
230
1.0
 73
     1
 44
1.0
  0
SPLINE
  5
30
100
AcDbEntity
  8
レイヤー_2
 62
     7
100
AcDbSpline
210
0.0
220
0.0
230
1.0
 70
     8
 71
     3
 72
    17
 73
    13
 74
     0
 42
0.00000001
 43
0.00000001
 40
0.0
 40
0.0
 40
0.0
 40
0.0
 40
1.0
 40
1.0
 40
1.0
 40
2.0
 40
2.0
 40
2.0
 40
3.0
 40
3.0
 40
3.0
 40
4.0
 40
4.0
 40
4.0
 40
4.0
 10
118.57605251736111
 20
110.74259440104166
 30
0.0
 10
118.57605251736111
 20
112.64945475260416
 30
0.0
 10
117.03023817274304
 20
114.19458007812499
 30
0.0
 10
115.12441134982637
 20
114.19458007812499
 30
0.0
 10
113.2182400173611
 20
114.19458007812499
 30
0.0
 10
111.67242567274305
 20
112.64945475260416
 30
0.0
 10
111.67242567274305
 20
110.74259440104166
 30
0.0
 10
111.67242567274305
 20
108.83676757812499
 30
0.0
 10
113.2182400173611
 20
107.29164225260416
 30
0.0
 10
115.12441134982637
 20
107.29164225260416
 30
0.0
 10
117.03023817274304
 20
107.29164225260416
 30
0.0
 10
118.57605251736111
 20
108.83676757812499
 30
0.0
 10
118.57605251736111
 20
110.74259440104166
 30
0.0
  0
LINE
  5
2F
100
AcDbEntity
  8
レイヤー_2
  6
AI9-LType1
 62
     7
100
AcDbLine
 10
110.169331
 20
110.742594
 30
0.0
 11
119.409766
 21
110.742594
 31
0.0
  0
LINE
  5
2D
100
AcDbEntity
  8
レイヤー_2
 62
     7
100
AcDbLine
 10
119.409766
 20
110.742594
 30
0.0
 11
120.198348
 21
110.742594
 31
0.0
  0
LINE
  5
2C
100
AcDbEntity
  8
レイヤー_2
 62
     7
100
AcDbLine
 10
121.400686
 20
104.530743
 30
0.0
 11
111.613859
 21
114.317914
 31
0.0
  0
LINE
  5
2B
100
AcDbEntity
  8
レイヤー_2
 62
     7
100
AcDbLine
 10
121.400686
 20
104.530743
 30
0.0
 11
136.227344
 21
104.530743
 31
0.0
  0
LINE
  5
2A
100
AcDbEntity
  8
レイヤー_2
 62
     7
100
AcDbLine
 10
111.496037
 20
113.13728
 30
0.0
 11
114.077791
 21
113.13728
 31
0.0
  0
LINE
  5
29
100
AcDbEntity
  8
レイヤー_2
 62
     7
100
AcDbLine
 10
116.297122
 20
108.265571
 30
0.0
 11
118.878876
 21
108.265571
 31
0.0
  0
ENDSEC
  0
SECTION
  2
OBJECTS
  0
DICTIONARY
  5
19
100
AcDbDictionary
280
     0
281
     1
  3
ACAD_GROUP
350
1A
  3
ACAD_MLINESTYLE
350
1B
  3
ACAD_LAYOUT
350
1E
  3
ACAD_PLOTSETTINGS
350
22
  3
ACAD_PLOTSTYLENAME
350
1F
  3
ACAD_WIPEOUT_VARS
350
23
  0
DICTIONARY
  5
1A
102
{ACAD_REACTORS
330
19
102
}
100
AcDbDictionary
280
     0
281
     1
  0
DICTIONARY
  5
1B
102
{ACAD_REACTORS
330
19
102
}
100
AcDbDictionary
280
     0
281
     1
  3
Standard
350
1C
  0
MLINESTYLE
  5
1C
102
{ACAD_REACTORS
330
1B
102
}
100
AcDbMlineStyle
  2
Standard
 70
     0
  3

 62
     0
 51
90.0
 52
90.0
 71
     2
 49
0.5
 62
   256
  6
ByLayer
 49
-0.5
 62
   256
  6
ByLayer
  0
ACDBDICTIONARYWDFLT
  5
1F
102
{ACAD_REACTORS
330
19
102
}
100
AcDbDictionary
281
     1
  3
Normal
350
1D
100
AcDbDictionaryWithDefault
340
1D
  0
ACDBPLACEHOLDER
  5
1D
102
{ACAD_REACTORS
330
1F
102
}
  0
LAYOUT
  5
20
102
{ACAD_REACTORS
330
1E
102
}
100
AcDbPlotSettings
  1

  2

  4

  6

 40
0.0
 41
0.0
 42
0.0
 43
0.0
 44
0.0
 45
0.0
 46
0.0
 47
0.0
 48
0.0
 49
0.0
140
0.0
141
0.0
142
1.0
143
1.0
 70
  1024
 72
     0
 73
     0
 74
     0
  7

 75
     0
147
1.0
148
0.0
149
0.0
100
AcDbLayout
  1
Model
 70
     0
 71
     0
 10
0.0
 20
0.0
 11
0.0
 21
0.0
 12
0.0
 22
0.0
 32
0.0
 14
0.0
 24
0.0
 34
0.0
 15
0.0
 25
0.0
 35
0.0
146
0.0
 13
0.0
 23
0.0
 33
0.0
 16
0.0
 26
0.0
 36
0.0
 17
0.0
 27
0.0
 37
0.0
 76
     0
330
A
331
0
345
0
346
0
  0
LAYOUT
  5
21
102
{ACAD_REACTORS
330
1E
102
}
100
AcDbPlotSettings
  1

  2

  4

  6

 40
0.0
 41
0.0
 42
0.0
 43
0.0
 44
0.0
 45
0.0
 46
0.0
 47
0.0
 48
0.0
 49
0.0
140
0.0
141
0.0
142
1.0
143
1.0
 70
     0
 72
     0
 73
     0
 74
     0
  7

 75
     0
147
1.0
148
0.0
149
0.0
100
AcDbLayout
  1
Layout1
 70
     0
 71
     0
 10
0.0
 20
0.0
 11
0.0
 21
0.0
 12
0.0
 22
0.0
 32
0.0
 14
0.0
 24
0.0
 34
0.0
 15
0.0
 25
0.0
 35
0.0
146
0.0
 13
0.0
 23
0.0
 33
0.0
 16
0.0
 26
0.0
 36
0.0
 17
0.0
 27
0.0
 37
0.0
 76
     0
330
B
331
0
345
0
346
0
  0
DICTIONARY
  5
1E
102
{ACAD_REACTORS
330
19
102
}
100
AcDbDictionary
280
     0
281
     1
  3
Layout1
350
21
  3
Model
350
20
  0
DICTIONARY
  5
22
102
{ACAD_REACTORS
330
19
102
}
100
AcDbDictionary
280
     0
281
     1
  0
WIPEOUTVARIABLES
  5
23
100
AcDbWipeoutVariables
 70
     1
  0
IMAGEDEF_REACTOR
  5
4C6
100
AcDbRasterImageDefReactor
 90
        2
330
4C5
  0
IMAGEDEF
  5
4C7
100
AcDbRasterImageDef
 90
        0
  1
\\192.168.6.3\free(2009_04\一過性\DB_WEB用DXF_丸茂\KITCHEN\22815892_1.bmp
 10
70.0
 20
9.0
 11
0.352778
 21
0.352778
280
     1
281
     0
  0
IMAGEDEF_REACTOR
  5
4C9
100
AcDbRasterImageDefReactor
 90
        2
330
4C8
  0
IMAGEDEF
  5
4CA
100
AcDbRasterImageDef
 90
        0
  1
\\192.168.6.3\free(2009_04\一過性\DB_WEB用DXF_丸茂\KITCHEN\22815892_2.bmp
 10
70.0
 20
9.0
 11
0.352778
 21
0.352778
280
     1
281
     0
  0
ENDSEC
  0
EOF
