  0
SECTION
  2
HEADER
  9
$ACADVER
  1
AC1015
  9
$ACADMAINTVER
 70
    20
  9
$DWGCODEPAGE
  3
ANSI_932
  9
$INSBASE
 10
0.0
 20
0.0
 30
0.0
  9
$EXTMIN
 10
-129.0
 20
-79.98782
 30
0.0
  9
$EXTMAX
 10
1223.515694017903
 20
1050.494159319476
 30
0.0
  9
$LIMMIN
 10
0.0
 20
0.0
  9
$LIMMAX
 10
12.0
 20
9.0
  9
$ORTHOMODE
 70
     0
  9
$REGENMODE
 70
     1
  9
$FILLMODE
 70
     1
  9
$QTEXTMODE
 70
     0
  9
$MIRRTEXT
 70
     1
  9
$LTSCALE
 40
1.0
  9
$ATTMODE
 70
     1
  9
$TEXTSIZE
 40
0.2
  9
$TRACEWID
 40
0.05
  9
$TEXTSTYLE
  7
Standard
  9
$CLAYER
  8
0
  9
$CELTYPE
  6
ByBlock
  9
$CECOLOR
 62
   256
  9
$CELTSCALE
 40
1.0
  9
$DISPSILH
 70
     0
  9
$DIMSCALE
 40
1.0
  9
$DIMASZ
 40
0.18
  9
$DIMEXO
 40
0.0625
  9
$DIMDLI
 40
0.38
  9
$DIMRND
 40
0.0
  9
$DIMDLE
 40
0.0
  9
$DIMEXE
 40
0.18
  9
$DIMTP
 40
0.0
  9
$DIMTM
 40
0.0
  9
$DIMTXT
 40
0.18
  9
$DIMCEN
 40
0.09
  9
$DIMTSZ
 40
0.0
  9
$DIMTOL
 70
     0
  9
$DIMLIM
 70
     0
  9
$DIMTIH
 70
     1
  9
$DIMTOH
 70
     1
  9
$DIMSE1
 70
     0
  9
$DIMSE2
 70
     0
  9
$DIMTAD
 70
     0
  9
$DIMZIN
 70
     0
  9
$DIMBLK
  1

  9
$DIMASO
 70
     1
  9
$DIMSHO
 70
     1
  9
$DIMPOST
  1

  9
$DIMAPOST
  1

  9
$DIMALT
 70
     0
  9
$DIMALTD
 70
     2
  9
$DIMALTF
 40
25.4
  9
$DIMLFAC
 40
1.0
  9
$DIMTOFL
 70
     0
  9
$DIMTVP
 40
0.0
  9
$DIMTIX
 70
     0
  9
$DIMSOXD
 70
     0
  9
$DIMSAH
 70
     0
  9
$DIMBLK1
  1

  9
$DIMBLK2
  1

  9
$DIMSTYLE
  2
Standard
  9
$DIMCLRD
 70
     0
  9
$DIMCLRE
 70
     0
  9
$DIMCLRT
 70
     0
  9
$DIMTFAC
 40
1.0
  9
$DIMGAP
 40
0.09
  9
$DIMJUST
 70
     0
  9
$DIMSD1
 70
     0
  9
$DIMSD2
 70
     0
  9
$DIMTOLJ
 70
     1
  9
$DIMTZIN
 70
     0
  9
$DIMALTZ
 70
     0
  9
$DIMALTTZ
 70
     0
  9
$DIMUPT
 70
     0
  9
$DIMDEC
 70
     4
  9
$DIMTDEC
 70
     4
  9
$DIMALTU
 70
     2
  9
$DIMALTTD
 70
     2
  9
$DIMTXSTY
  7
Standard
  9
$DIMAUNIT
 70
     0
  9
$DIMADEC
 70
     0
  9
$DIMALTRND
 40
0.0
  9
$DIMAZIN
 70
     0
  9
$DIMDSEP
 70
    46
  9
$DIMATFIT
 70
     3
  9
$DIMFRAC
 70
     0
  9
$DIMLDRBLK
  1

  9
$DIMLUNIT
 70
     2
  9
$DIMLWD
 70
    -2
  9
$DIMLWE
 70
    -2
  9
$DIMTMOVE
 70
     0
  9
$LUNITS
 70
     2
  9
$LUPREC
 70
     4
  9
$SKETCHINC
 40
0.1
  9
$FILLETRAD
 40
0.5
  9
$AUNITS
 70
     0
  9
$AUPREC
 70
     0
  9
$MENU
  1
.
  9
$ELEVATION
 40
0.0
  9
$PELEVATION
 40
0.0
  9
$THICKNESS
 40
0.0
  9
$LIMCHECK
 70
     0
  9
$CHAMFERA
 40
0.5
  9
$CHAMFERB
 40
0.5
  9
$CHAMFERC
 40
1.0
  9
$CHAMFERD
 40
0.0
  9
$SKPOLY
 70
     0
  9
$TDCREATE
 40
2457130.930848947
  9
$TDUCREATE
 40
2457130.555848947
  9
$TDUPDATE
 40
2457354.673449676
  9
$TDUUPDATE
 40
2457354.298449676
  9
$TDINDWG
 40
0.0210745023
  9
$TDUSRTIMER
 40
0.0210745023
  9
$USRTIMER
 70
     1
  9
$ANGBASE
 50
0.0
  9
$ANGDIR
 70
     0
  9
$PDMODE
 70
     0
  9
$PDSIZE
 40
0.0
  9
$PLINEWID
 40
0.0
  9
$SPLFRAME
 70
     0
  9
$SPLINETYPE
 70
     6
  9
$SPLINESEGS
 70
     8
  9
$HANDSEED
  5
819
  9
$SURFTAB1
 70
     6
  9
$SURFTAB2
 70
     6
  9
$SURFTYPE
 70
     6
  9
$SURFU
 70
     6
  9
$SURFV
 70
     6
  9
$UCSBASE
  2

  9
$UCSNAME
  2

  9
$UCSORG
 10
0.0
 20
0.0
 30
0.0
  9
$UCSXDIR
 10
1.0
 20
0.0
 30
0.0
  9
$UCSYDIR
 10
0.0
 20
1.0
 30
0.0
  9
$UCSORTHOREF
  2

  9
$UCSORTHOVIEW
 70
     0
  9
$UCSORGTOP
 10
0.0
 20
0.0
 30
0.0
  9
$UCSORGBOTTOM
 10
0.0
 20
0.0
 30
0.0
  9
$UCSORGLEFT
 10
0.0
 20
0.0
 30
0.0
  9
$UCSORGRIGHT
 10
0.0
 20
0.0
 30
0.0
  9
$UCSORGFRONT
 10
0.0
 20
0.0
 30
0.0
  9
$UCSORGBACK
 10
0.0
 20
0.0
 30
0.0
  9
$PUCSBASE
  2

  9
$PUCSNAME
  2

  9
$PUCSORG
 10
0.0
 20
0.0
 30
0.0
  9
$PUCSXDIR
 10
1.0
 20
0.0
 30
0.0
  9
$PUCSYDIR
 10
0.0
 20
1.0
 30
0.0
  9
$PUCSORTHOREF
  2

  9
$PUCSORTHOVIEW
 70
     0
  9
$PUCSORGTOP
 10
0.0
 20
0.0
 30
0.0
  9
$PUCSORGBOTTOM
 10
0.0
 20
0.0
 30
0.0
  9
$PUCSORGLEFT
 10
0.0
 20
0.0
 30
0.0
  9
$PUCSORGRIGHT
 10
0.0
 20
0.0
 30
0.0
  9
$PUCSORGFRONT
 10
0.0
 20
0.0
 30
0.0
  9
$PUCSORGBACK
 10
0.0
 20
0.0
 30
0.0
  9
$USERI1
 70
     0
  9
$USERI2
 70
     0
  9
$USERI3
 70
     0
  9
$USERI4
 70
     0
  9
$USERI5
 70
     0
  9
$USERR1
 40
0.0
  9
$USERR2
 40
0.0
  9
$USERR3
 40
0.0
  9
$USERR4
 40
0.0
  9
$USERR5
 40
0.0
  9
$WORLDVIEW
 70
     1
  9
$SHADEDGE
 70
     3
  9
$SHADEDIF
 70
    70
  9
$TILEMODE
 70
     1
  9
$MAXACTVP
 70
    64
  9
$PINSBASE
 10
0.0
 20
0.0
 30
0.0
  9
$PLIMCHECK
 70
     0
  9
$PEXTMIN
 10
1.000000000000000E+20
 20
1.000000000000000E+20
 30
1.000000000000000E+20
  9
$PEXTMAX
 10
-1.000000000000000E+20
 20
-1.000000000000000E+20
 30
-1.000000000000000E+20
  9
$PLIMMIN
 10
0.0
 20
0.0
  9
$PLIMMAX
 10
12.0
 20
9.0
  9
$UNITMODE
 70
     0
  9
$VISRETAIN
 70
     1
  9
$PLINEGEN
 70
     0
  9
$PSLTSCALE
 70
     1
  9
$TREEDEPTH
 70
  3020
  9
$CMLSTYLE
  2
Standard
  9
$CMLJUST
 70
     0
  9
$CMLSCALE
 40
1.0
  9
$PROXYGRAPHICS
 70
     1
  9
$MEASUREMENT
 70
     0
  9
$CELWEIGHT
370
    -1
  9
$ENDCAPS
280
     0
  9
$JOINSTYLE
280
     0
  9
$LWDISPLAY
290
     0
  9
$INSUNITS
 70
     0
  9
$HYPERLINKBASE
  1

  9
$STYLESHEET
  1

  9
$XEDIT
290
     1
  9
$CEPSNTYPE
380
     0
  9
$PSTYLEMODE
290
     1
  9
$FINGERPRINTGUID
  2
{B69E6E83-9462-47C6-9D2D-58DF1064E760}
  9
$VERSIONGUID
  2
{5C47A81F-3A2F-4526-B26A-7DE7389C1C28}
  9
$EXTNAMES
290
     1
  9
$PSVPSCALE
 40
0.0
  9
$OLESTARTUP
290
     0
  0
ENDSEC
  0
SECTION
  2
CLASSES
  0
CLASS
  1
ACDBDICTIONARYWDFLT
  2
AcDbDictionaryWithDefault
  3
ObjectDBX Classes
 90
        0
280
     0
281
     0
  0
CLASS
  1
MATERIAL
  2
AcDbMaterial
  3
ObjectDBX Classes
 90
     1153
280
     0
281
     0
  0
CLASS
  1
VISUALSTYLE
  2
AcDbVisualStyle
  3
ObjectDBX Classes
 90
     4095
280
     0
281
     0
  0
CLASS
  1
TABLESTYLE
  2
AcDbTableStyle
  3
ObjectDBX Classes
 90
     4095
280
     0
281
     0
  0
CLASS
  1
SCALE
  2
AcDbScale
  3
ObjectDBX Classes
 90
     1153
280
     0
281
     0
  0
CLASS
  1
MLEADERSTYLE
  2
AcDbMLeaderStyle
  3
ACDB_MLEADERSTYLE_CLASS
 90
     4095
280
     0
281
     0
  0
CLASS
  1
ACDBSECTIONVIEWSTYLE
  2
AcDbSectionViewStyle
  3
ObjectDBX Classes
 90
     1025
280
     0
281
     0
  0
CLASS
  1
ACDBDETAILVIEWSTYLE
  2
AcDbDetailViewStyle
  3
ObjectDBX Classes
 90
     1025
280
     0
281
     0
  0
CLASS
  1
ACME_DOCUMENT
  2
AcMeDbDoc
  3
AcMeServices
 90
     1024
280
     0
281
     0
  0
CLASS
  1
AMGSETTINGSOBJ
  2
AmgSettingsObj
  3
"AcadM|Product Description: AutoCAD Mechanical|Company: Autodesk, Inc."
 90
     1024
280
     0
281
     0
  0
CLASS
  1
ACMESCOPE
  2
AcMeScope
  3
AcMeServices
 90
     1024
280
     0
281
     0
  0
CLASS
  1
ACMECOMMANDHISTORY
  2
AcMeCommandHistory
  3
AcMeServices
 90
     1024
280
     0
281
     0
  0
CLASS
  1
ACIMSYSVARMAN
  2
AcImSysVarManager
  3
AcMeServices
 90
     1024
280
     0
281
     0
  0
CLASS
  1
ACIMINTSYSVAR
  2
AcImIntSysVar
  3
AcMeServices
 90
     1024
280
     0
281
     0
  0
CLASS
  1
ACMESTATEMGR
  2
AcMeStateMgr
  3
AcMeServices
 90
     1024
280
     0
281
     0
  0
CLASS
  1
ACDBENTITYCACHE
  2
AcMeEntityCache
  3
AcMeServices
 90
     1024
280
     0
281
     0
  0
CLASS
  1
ACGREFMASTER
  2
AcGrefMaster
  3
AcAttribServices
 90
     1024
280
     0
281
     0
  0
CLASS
  1
ACME_DATABASE
  2
AcMeDbDatabase
  3
AcMeServices
 90
     1024
280
     0
281
     0
  0
CLASS
  1
ACRFINSADJUSTERMGR
  2
AcRfInsAdjusterMgr
  3
AcMeServices
 90
     1024
280
     0
281
     0
  0
CLASS
  1
ACGREFACADMASTER
  2
AcGrefacadMaster
  3
AcGrefServices
 90
     1024
280
     0
281
     0
  0
CLASS
  1
AMDTMENUSTATEMGR
  2
AmdtMenuStateMgr
  3
McadcomServices
 90
     1024
280
     0
281
     0
  0
CLASS
  1
AMDTMCOMMENUSTATE
  2
AmdtMcomMenuState
  3
McadcomServices
 90
     1024
280
     0
281
     0
  0
CLASS
  1
AMIMASTER
  2
AmiMaster
  3
AmiServices
 90
     1024
280
     0
281
     0
  0
CLASS
  1
MAPIAMMOUDLE
  2
MApiAmModule
  3
MApiAmServices
 90
     1024
280
     0
281
     0
  0
CLASS
  1
ACIMSTRSYSVAR
  2
AcImStrSysVar
  3
AcMeServices
 90
     1024
280
     0
281
     0
  0
CLASS
  1
AMDTAMMENUSTATE
  2
AmdtAmMenuState
  3
DesignerAssemblies
 90
     1024
280
     0
281
     0
  0
CLASS
  1
ACAMPROJECT
  2
AcAmProject
  3
DesignerAssemblies
 90
     1024
280
     0
281
     0
  0
CLASS
  1
ACAMGRCOMPDEF
  2
AcAmGrCompDef
  3
DesignerAssemblies
 90
     1024
280
     0
281
     0
  0
CLASS
  1
ACAMCOMPDEF
  2
AcAmCompDef
  3
DesignerAssemblies
 90
     1024
280
     0
281
     0
  0
CLASS
  1
ACAMCOMPDEFMGR
  2
AcAmCompDefMgr
  3
DesignerAssemblies
 90
     1024
280
     0
281
     0
  0
CLASS
  1
AMCONTEXTMGR
  2
AcAmContextMgr
  3
DesignerAssemblies
 90
     1024
280
     0
281
     0
  0
CLASS
  1
ACAMCONTEXTMODELER
  2
AcAmContextModeler
  3
DesignerAssemblies
 90
     1024
280
     0
281
     0
  0
CLASS
  1
ACMDATADICTIONARY
  2
AcmDataDictionary
  3
"AcmSymBB|Product Description: AutoCAD Mechanical|Company: Autodesk, Inc."
 90
     1024
280
     0
281
     0
  0
CLASS
  1
ACAMGRCOMPDEFSET
  2
AcAmGrCompDefSet
  3
DesignerAssemblies
 90
     1024
280
     0
281
     0
  0
CLASS
  1
AMDTBROWSERDBTAB
  2
AmdtBrowserDbTab
  3
McadcomServices
 90
     1024
280
     0
281
     0
  0
CLASS
  1
CBROWSERAPPOBJECT
  2
CBrowserAppObject
  3
McadcomServices
 90
     1024
280
     0
281
     0
  0
CLASS
  1
DM_PLACEHOLDER
  2
AcDmSelsetPlaceholder
  3
McadcomServices
 90
     1024
280
     0
281
     0
  0
CLASS
  1
ACMSTANDARDANSI
  2
AcmStandardANSI
  3
"Amdt_StdImp|Product Description: AutoCAD Mechanical|Company: Autodesk, Inc."
 90
     1024
280
     0
281
     0
  0
CLASS
  1
ACMSURFSTANDARDANSI
  2
AcmSurfTextStdANSI
  3
"Amdt_StdImp|Product Description: AutoCAD Mechanical|Company: Autodesk, Inc."
 90
     1024
280
     0
281
     0
  0
CLASS
  1
ACMFCFSTANDARDANSI
  2
AcmFCFStdANSI
  3
"Amdt_StdImp|Product Description: AutoCAD Mechanical|Company: Autodesk, Inc."
 90
     1024
280
     0
281
     0
  0
CLASS
  1
ACMWELDSTANDARDANSI
  2
AcmWeldingStdANSI
  3
"Amdt_StdImp|Product Description: AutoCAD Mechanical|Company: Autodesk, Inc."
 90
     1024
280
     0
281
     0
  0
CLASS
  1
ACMIDSTANDARDANSI
  2
AcmIdStdANSI
  3
"Amdt_StdImp|Product Description: AutoCAD Mechanical|Company: Autodesk, Inc."
 90
     1024
280
     0
281
     0
  0
CLASS
  1
ACMDATUMSTANDARDANSI
  2
AcmDatumStdANSI
  3
"Amdt_StdImp|Product Description: AutoCAD Mechanical|Company: Autodesk, Inc."
 90
     1024
280
     0
281
     0
  0
CLASS
  1
ACMBOMSTANDARDANSI
  2
AcmBOMStdANSI
  3
"Amdt_StdImp|Product Description: AutoCAD Mechanical|Company: Autodesk, Inc."
 90
     1024
280
     0
281
     0
  0
CLASS
  1
ACMDETAILSTANDARDANSI
  2
AmdtDetailSymStdANSI
  3
"Amdt_StdImp|Product Description: AutoCAD Mechanical|Company: Autodesk, Inc."
 90
     1024
280
     0
281
     0
  0
CLASS
  1
ACMSECTIONSTANDARDANSI
  2
AmdtSectionSymStdANSI
  3
"Amdt_StdImp|Product Description: AutoCAD Mechanical|Company: Autodesk, Inc."
 90
     1024
280
     0
281
     0
  0
CLASS
  1
ACMCENTERLINESTANDARDANSI
  2
AmdtCenterLineStdANSI
  3
"Amdt_StdImp|Product Description: AutoCAD Mechanical|Company: Autodesk, Inc."
 90
     1024
280
     0
281
     0
  0
CLASS
  1
ACMTHREADLINESTANDARDANSI
  2
AmdtThreadLineStdANSI
  3
"Amdt_StdImp|Product Description: AutoCAD Mechanical|Company: Autodesk, Inc."
 90
     1024
280
     0
281
     0
  0
CLASS
  1
ACMNOTESTANDARDANSI
  2
AmdtNoteStdANSI
  3
"Amdt_StdImp|Product Description: AutoCAD Mechanical|Company: Autodesk, Inc."
 90
     1024
280
     0
281
     0
  0
CLASS
  1
ACMTAPERSTANDARDANSI
  2
AcmTaperStdANSI
  3
"Amdt_StdImp|Product Description: AutoCAD Mechanical|Company: Autodesk, Inc."
 90
     1024
280
     0
281
     0
  0
CLASS
  1
ACMANOOTATIONVIEWSTANDARDANSI
  2
AmdtAnViewStdANSI
  3
"Amdt_StdImp|Product Description: AutoCAD Mechanical|Company: Autodesk, Inc."
 90
     1024
280
     0
281
     0
  0
CLASS
  1
ACAMGLAYSTD
  2
AcAmgLayStd
  3
"AmgLay|Product Description: AutoCAD Mechanical|Company: Autodesk, Inc."
 90
     1024
280
     0
281
     0
  0
CLASS
  1
ACAMGDIMSTD
  2
AcAmgDimStd
  3
"AmgDim|Product Description: AutoCAD Mechanical|Company: Autodesk, Inc."
 90
     1024
280
     0
281
     0
  0
CLASS
  1
AMGOBJPROPCFG
  2
AmgObjPropCfg
  3
"AmgLay|Product Description: AutoCAD Mechanical|Company: Autodesk, Inc."
 90
     1024
280
     0
281
     0
  0
CLASS
  1
ACAMGHOLECHARTSTDANSI
  2
AcAmgHoleChartStdANSI
  3
AmgDim|Product Description: AutoCAD Mechanical|Company: Autodesk, Inc.
 90
     1024
280
     0
281
     0
  0
CLASS
  1
ACAMGTITLESTD
  2
AcAmgTitleStd
  3
"AmgTitle|Product Description: AutoCAD Mechanical|Company: Autodesk, Inc."
 90
     1024
280
     0
281
     0
  0
CLASS
  1
AMDTNOTETEMPLATEDB
  2
AmdtNoteTemplateDB
  3
AcmSymBB|Product Description: AutoCAD Mechanical|Company: Autodesk, Inc.
 90
     1024
280
     0
281
     0
  0
CLASS
  1
ACAMGFILTERDAT
  2
AcAmgFilterDat
  3
"AcadM|Product Description: AutoCAD Mechanical|Company: Autodesk, Inc."
 90
     1024
280
     0
281
     0
  0
CLASS
  1
SORTENTSTABLE
  2
AcDbSortentsTable
  3
ObjectDBX Classes
 90
        0
280
     0
281
     0
  0
CLASS
  1
DICTIONARYVAR
  2
AcDbDictionaryVar
  3
ObjectDBX Classes
 90
        0
280
     0
281
     0
  0
CLASS
  1
CELLSTYLEMAP
  2
AcDbCellStyleMap
  3
ObjectDBX Classes
 90
     1152
280
     0
281
     0
  0
CLASS
  1
ACDBPLACEHOLDER
  2
AcDbPlaceHolder
  3
ObjectDBX Classes
 90
        0
280
     0
281
     0
  0
CLASS
  1
LAYOUT
  2
AcDbLayout
  3
ObjectDBX Classes
 90
        0
280
     0
281
     0
  0
ENDSEC
  0
SECTION
  2
TABLES
  0
TABLE
  2
VPORT
  5
8
330
0
100
AcDbSymbolTable
 70
     1
  0
VPORT
  5
19A
330
8
100
AcDbSymbolTableRecord
100
AcDbViewportTableRecord
  2
*Active
 70
     0
 10
0.0
 20
0.0
 11
1.0
 21
1.0
 12
362.0271378524348
 22
306.7988531872797
 13
0.0
 23
0.0
 14
0.5
 24
0.5
 15
0.5
 25
0.5
 16
0.0
 26
0.0
 36
1.0
 17
0.0
 27
0.0
 37
0.0
 40
2916.085902499148
 41
1.681623931623931
 42
50.0
 43
0.0
 44
0.0
 50
0.0
 51
0.0
 71
     0
 72
   100
 73
     1
 74
     3
 75
     0
 76
     0
 77
     0
 78
     0
281
     0
 65
     1
110
0.0
120
0.0
130
0.0
111
1.0
121
0.0
131
0.0
112
0.0
122
1.0
132
0.0
 79
     0
146
0.0
1001
ACAD_NAV_VCDISPLAY
1070
     3
  0
ENDTAB
  0
TABLE
  2
LTYPE
  5
5
330
0
100
AcDbSymbolTable
 70
     8
  0
LTYPE
  5
14
330
5
100
AcDbSymbolTableRecord
100
AcDbLinetypeTableRecord
  2
ByBlock
 70
     0
  3

 72
    65
 73
     0
 40
0.0
  0
LTYPE
  5
15
330
5
100
AcDbSymbolTableRecord
100
AcDbLinetypeTableRecord
  2
ByLayer
 70
     0
  3

 72
    65
 73
     0
 40
0.0
  0
LTYPE
  5
16
330
5
100
AcDbSymbolTableRecord
100
AcDbLinetypeTableRecord
  2
Continuous
 70
     0
  3
Solid line
 72
    65
 73
     0
 40
0.0
  0
LTYPE
  5
1EA
330
5
100
AcDbSymbolTableRecord
100
AcDbLinetypeTableRecord
  2
PHANTOM2
 70
     0
  3
Phantom (.5x) ___ _ _ ___ _ _ ___ _ _ ___ _ _
 72
    65
 73
     6
 40
1.25
 49
0.625
 74
     0
 49
-0.125
 74
     0
 49
0.125
 74
     0
 49
-0.125
 74
     0
 49
0.125
 74
     0
 49
-0.125
 74
     0
  0
LTYPE
  5
1FF
330
5
100
AcDbSymbolTableRecord
100
AcDbLinetypeTableRecord
  2
HIDDEN
 70
     0
  3
Hidden __ __ __ __ __ __ __ __ __ __ __ __ __ _
 72
    65
 73
     2
 40
0.375
 49
0.25
 74
     0
 49
-0.125
 74
     0
  0
LTYPE
  5
200
330
5
100
AcDbSymbolTableRecord
100
AcDbLinetypeTableRecord
  2
CENTER
 70
     0
  3
Center ____ _ ____ _ ____ _ ____ _ ____ _ ____
 72
    65
 73
     4
 40
2.0
 49
1.25
 74
     0
 49
-0.25
 74
     0
 49
0.25
 74
     0
 49
-0.25
 74
     0
  0
LTYPE
  5
23A
330
5
100
AcDbSymbolTableRecord
100
AcDbLinetypeTableRecord
  2
CENTER2
 70
     0
  3
Center (.5x) ___ _ ___ _ ___ _ ___ _ ___ _ ___
 72
    65
 73
     4
 40
1.125
 49
0.75
 74
     0
 49
-0.125
 74
     0
 49
0.125
 74
     0
 49
-0.125
 74
     0
  0
LTYPE
  5
23B
330
5
100
AcDbSymbolTableRecord
100
AcDbLinetypeTableRecord
  2
HIDDEN2
 70
     0
  3
Hidden (.5x) _ _ _ _ _ _ _ _ _ _ _ _ _ _ _ _ _
 72
    65
 73
     2
 40
0.1875
 49
0.125
 74
     0
 49
-0.0625
 74
     0
  0
LTYPE
  5
249
330
5
100
AcDbSymbolTableRecord
100
AcDbLinetypeTableRecord
  2
ACANSTGB
 70
     0
  3
__ . . __ . .
 72
    65
 73
     6
 40
0.35433070866
 49
0.15748031496
 74
     0
 49
-0.03937007874
 74
     0
 49
0.03937007874
 74
     0
 49
-0.03937007874
 74
     0
 49
0.03937007874
 74
     0
 49
-0.03937007874
 74
     0
  0
LTYPE
  5
24A
330
5
100
AcDbSymbolTableRecord
100
AcDbLinetypeTableRecord
  2
ACANSTGL
 70
     0
  3
_ _ _ _ _
 72
    65
 73
     2
 40
0.11811023622
 49
0.07874015748
 74
     0
 49
-0.03937007874
 74
     0
  0
ENDTAB
  0
TABLE
  2
LAYER
  5
2
330
0
100
AcDbSymbolTable
 70
     2
  0
LAYER
  5
10
102
{ACAD_XDICTIONARY
360
7C3
102
}
330
2
100
AcDbSymbolTableRecord
100
AcDbLayerTableRecord
  2
0
 70
     0
 62
     7
  6
Continuous
370
    -3
390
F
  0
LAYER
  5
70D
102
{ACAD_XDICTIONARY
360
7C5
102
}
330
2
100
AcDbSymbolTableRecord
100
AcDbLayerTableRecord
  2
AM_CL
 70
     0
 62
     1
  6
Continuous
370
    15
390
F
1001
AcAecLayerStandard
1000

1000

  0
ENDTAB
  0
TABLE
  2
STYLE
  5
3
330
0
100
AcDbSymbolTable
 70
     3
  0
STYLE
  5
11
330
3
100
AcDbSymbolTableRecord
100
AcDbTextStyleTableRecord
  2
Standard
 70
     0
 40
0.0
 41
1.0
 50
0.0
 71
     0
 42
0.2
  3
txt
  4

  0
STYLE
  5
247
330
3
100
AcDbSymbolTableRecord
100
AcDbTextStyleTableRecord
  2
ACANSTS
 70
     0
 40
1.0
 41
1.0
 50
0.0
 71
     0
 42
0.2
  3
romans.shx
  4
extfont.shx
  0
STYLE
  5
248
330
3
100
AcDbSymbolTableRecord
100
AcDbTextStyleTableRecord
  2
ACANSGDT
 70
     0
 40
0.0
 41
1.0
 50
0.0
 71
     0
 42
0.2
  3
amgdt.shx
  4

  0
ENDTAB
  0
TABLE
  2
VIEW
  5
6
330
0
100
AcDbSymbolTable
 70
     0
  0
ENDTAB
  0
TABLE
  2
UCS
  5
7
330
0
100
AcDbSymbolTable
 70
     0
  0
ENDTAB
  0
TABLE
  2
APPID
  5
9
330
0
100
AcDbSymbolTable
 70
    14
  0
APPID
  5
12
330
9
100
AcDbSymbolTableRecord
100
AcDbRegAppTableRecord
  2
ACAD
 70
     0
  0
APPID
  5
1F8
330
9
100
AcDbSymbolTableRecord
100
AcDbRegAppTableRecord
  2
MCAD_NO_VIS
 70
     0
  0
APPID
  5
1F9
330
9
100
AcDbSymbolTableRecord
100
AcDbRegAppTableRecord
  2
ACAD_TEMP_GRAPHIC
 70
     0
  0
APPID
  5
205
330
9
100
AcDbSymbolTableRecord
100
AcDbRegAppTableRecord
  2
ACATTRIBSERVICES
 70
     0
  0
APPID
  5
21D
330
9
100
AcDbSymbolTableRecord
100
AcDbRegAppTableRecord
  2
DESIGNERASSEMBLIES
 70
     0
  0
APPID
  5
237
330
9
100
AcDbSymbolTableRecord
100
AcDbRegAppTableRecord
  2
ACAD_DSTYLE_DIMJAG
 70
     0
  0
APPID
  5
238
330
9
100
AcDbSymbolTableRecord
100
AcDbRegAppTableRecord
  2
ACAD_DSTYLE_DIMBREAK
 70
     0
  0
APPID
  5
252
330
9
100
AcDbSymbolTableRecord
100
AcDbRegAppTableRecord
  2
ACAD_NAV_VCDISPLAY
 70
     0
  0
APPID
  5
70E
330
9
100
AcDbSymbolTableRecord
100
AcDbRegAppTableRecord
  2
AcAecLayerStandard
 70
     0
  0
APPID
  5
812
330
9
100
AcDbSymbolTableRecord
100
AcDbRegAppTableRecord
  2
ACAD_MLEADERVER
 70
     0
  0
APPID
  5
815
330
9
100
AcDbSymbolTableRecord
100
AcDbRegAppTableRecord
  2
ACAD_DSTYLE_DIMARC_LENGTH_SYMBOL
 70
     0
  0
APPID
  5
816
330
9
100
AcDbSymbolTableRecord
100
AcDbRegAppTableRecord
  2
ACAD_DSTYLE_DIM_LINETYPE
 70
     0
  0
APPID
  5
817
330
9
100
AcDbSymbolTableRecord
100
AcDbRegAppTableRecord
  2
ACAD_DSTYLE_DIM_EXT1_LINETYPE
 70
     0
  0
APPID
  5
818
330
9
100
AcDbSymbolTableRecord
100
AcDbRegAppTableRecord
  2
ACAD_DSTYLE_DIM_EXT2_LINETYPE
 70
     0
  0
ENDTAB
  0
TABLE
  2
DIMSTYLE
  5
A
330
0
100
AcDbSymbolTable
 70
     7
100
AcDbDimStyleTable
 71
     0
  0
DIMSTYLE
105
21
330
A
100
AcDbSymbolTableRecord
100
AcDbDimStyleTableRecord
  2
Standard
 70
     0
340
11
  0
DIMSTYLE
105
236
102
{ACAD_REACTORS
330
226
102
}
330
A
100
AcDbSymbolTableRecord
100
AcDbDimStyleTableRecord
  2
AM_ANSI
 70
     0
  4
mm
 41
0.12
 42
0.05
 43
0.5
 44
0.1
 47
0.1
 48
0.1
 78
     7
 79
     2
140
0.12
141
0.0
146
0.71
147
0.06
176
   256
177
   256
178
     2
274
     4
284
     7
340
11
371
    -1
372
    -1
1001
ACAD_DSTYLE_DIMJAG
1070
   388
1040
1.5
1001
ACAD_DSTYLE_DIMBREAK
1070
   391
1040
0.125
1001
ACAD_DSTYLE_DIMARC_LENGTH_SYMBOL
1070
   379
1070
     1
1001
ACAD_DSTYLE_DIM_LINETYPE
1070
   380
1005
14
1001
ACAD_DSTYLE_DIM_EXT1_LINETYPE
1070
   381
1005
14
1001
ACAD_DSTYLE_DIM_EXT2_LINETYPE
1070
   382
1005
14
  0
DIMSTYLE
105
23C
330
A
100
AcDbSymbolTableRecord
100
AcDbDimStyleTableRecord
  2
AM_ANSI$3
 70
     0
  4
mm
 41
0.12
 42
0.05
 43
0.5
 44
0.1
 47
0.1
 48
0.1
 78
     7
 79
     2
140
0.12
141
0.0
146
0.71
147
0.06
176
   256
177
   256
178
     2
274
     4
284
     7
288
     1
289
     0
340
11
371
    -1
372
    -1
1001
ACAD_DSTYLE_DIMBREAK
1070
   391
1040
0.125
1001
ACAD_DSTYLE_DIMJAG
1070
   388
1040
1.5
1001
ACAD_DSTYLE_DIMARC_LENGTH_SYMBOL
1070
   379
1070
     1
1001
ACAD_DSTYLE_DIM_LINETYPE
1070
   380
1005
14
1001
ACAD_DSTYLE_DIM_EXT1_LINETYPE
1070
   381
1005
14
1001
ACAD_DSTYLE_DIM_EXT2_LINETYPE
1070
   382
1005
14
  0
DIMSTYLE
105
23D
330
A
100
AcDbSymbolTableRecord
100
AcDbDimStyleTableRecord
  2
AM_ANSI$4
 70
     0
  4
mm
 41
0.12
 42
0.05
 43
0.5
 44
0.1
 47
0.1
 48
0.1
 78
     7
 79
     2
140
0.12
141
0.0
146
0.71
147
0.06
176
   256
177
   256
178
     2
274
     4
284
     7
288
     1
289
     0
340
11
371
    -1
372
    -1
1001
ACAD_DSTYLE_DIMBREAK
1070
   391
1040
0.125
1001
ACAD_DSTYLE_DIMJAG
1070
   388
1040
1.5
1001
ACAD_DSTYLE_DIMARC_LENGTH_SYMBOL
1070
   379
1070
     1
1001
ACAD_DSTYLE_DIM_LINETYPE
1070
   380
1005
14
1001
ACAD_DSTYLE_DIM_EXT1_LINETYPE
1070
   381
1005
14
1001
ACAD_DSTYLE_DIM_EXT2_LINETYPE
1070
   382
1005
14
  0
DIMSTYLE
105
23E
330
A
100
AcDbSymbolTableRecord
100
AcDbDimStyleTableRecord
  2
AM_ANSI$7
 70
     0
  4
mm
 41
0.12
 42
0.05
 43
0.5
 44
0.1
 47
0.1
 48
0.1
 78
     7
 79
     2
140
0.12
141
0.0
146
0.71
147
0.06
176
   256
177
   256
178
     2
274
     4
284
     7
340
11
371
    -1
372
    -1
1001
ACAD_DSTYLE_DIMBREAK
1070
   391
1040
0.125
1001
ACAD_DSTYLE_DIMJAG
1070
   388
1040
1.5
1001
ACAD_DSTYLE_DIMARC_LENGTH_SYMBOL
1070
   379
1070
     1
1001
ACAD_DSTYLE_DIM_LINETYPE
1070
   380
1005
14
1001
ACAD_DSTYLE_DIM_EXT1_LINETYPE
1070
   381
1005
14
1001
ACAD_DSTYLE_DIM_EXT2_LINETYPE
1070
   382
1005
14
  0
DIMSTYLE
105
23F
330
A
100
AcDbSymbolTableRecord
100
AcDbDimStyleTableRecord
  2
AM_ANSI$SF
 70
     0
  4
mm
 41
0.12
 42
0.05
 43
0.5
 44
0.1
 47
0.1
 48
0.1
 75
     1
 76
     1
 78
     7
 79
     2
140
0.12
141
0.0
146
0.71
147
0.06
176
   256
177
   256
178
     2
274
     4
284
     7
340
11
371
    -1
372
    -1
1001
ACAD_DSTYLE_DIMBREAK
1070
   391
1040
0.125
1001
ACAD_DSTYLE_DIMJAG
1070
   388
1040
1.5
1001
ACAD_DSTYLE_DIMARC_LENGTH_SYMBOL
1070
   379
1070
     1
1001
ACAD_DSTYLE_DIM_LINETYPE
1070
   380
1005
14
1001
ACAD_DSTYLE_DIM_EXT1_LINETYPE
1070
   381
1005
14
1001
ACAD_DSTYLE_DIM_EXT2_LINETYPE
1070
   382
1005
14
  0
DIMSTYLE
105
244
330
A
100
AcDbSymbolTableRecord
100
AcDbDimStyleTableRecord
  2
AM_ANSI$SH
 70
     0
  4
mm
 41
0.12
 42
0.05
 43
0.5
 44
0.1
 47
0.1
 48
0.1
 75
     1
 76
     1
 78
     7
 79
     2
140
0.12
141
0.0
146
0.71
147
0.06
173
     1
176
   256
177
   256
178
     2
274
     4
284
     7
340
11
343
240
371
    -1
372
    -1
1001
ACAD_DSTYLE_DIMBREAK
1070
   391
1040
0.125
1001
ACAD_DSTYLE_DIMJAG
1070
   388
1040
1.5
1001
ACAD_DSTYLE_DIMARC_LENGTH_SYMBOL
1070
   379
1070
     1
1001
ACAD_DSTYLE_DIM_LINETYPE
1070
   380
1005
14
1001
ACAD_DSTYLE_DIM_EXT1_LINETYPE
1070
   381
1005
14
1001
ACAD_DSTYLE_DIM_EXT2_LINETYPE
1070
   382
1005
14
  0
ENDTAB
  0
TABLE
  2
BLOCK_RECORD
  5
1
330
0
100
AcDbSymbolTable
 70
     4
  0
BLOCK_RECORD
  5
1D
102
{ACAD_XDICTIONARY
360
710
102
}
330
1
100
AcDbSymbolTableRecord
100
AcDbBlockTableRecord
  2
*Model_Space
340
1E
  0
BLOCK_RECORD
  5
1B
330
1
100
AcDbSymbolTableRecord
100
AcDbBlockTableRecord
  2
*Paper_Space
340
1C
  0
BLOCK_RECORD
  5
240
330
1
100
AcDbSymbolTableRecord
100
AcDbBlockTableRecord
  2
GENAXEH
340
0
  0
ENDTAB
  0
ENDSEC
  0
SECTION
  2
BLOCKS
  0
BLOCK
  5
19B
330
1D
100
AcDbEntity
  8
0
100
AcDbBlockBegin
  2
*Model_Space
 70
     0
 10
0.0
 20
0.0
 30
0.0
  3
*Model_Space
  1

  0
ENDBLK
  5
19C
330
1D
100
AcDbEntity
  8
0
100
AcDbBlockEnd
  0
BLOCK
  5
19D
330
1B
100
AcDbEntity
 67
     1
  8
0
100
AcDbBlockBegin
  2
*Paper_Space
 70
     0
 10
0.0
 20
0.0
 30
0.0
  3
*Paper_Space
  1

  0
ENDBLK
  5
19E
330
1B
100
AcDbEntity
 67
     1
  8
0
100
AcDbBlockEnd
  0
BLOCK
  5
242
330
240
100
AcDbEntity
  8
0
100
AcDbBlockBegin
  2
GENAXEH
 70
     0
 10
0.0
 20
0.0
 30
0.0
  3
GENAXEH
  1

  0
LINE
  5
241
330
240
100
AcDbEntity
  8
0
100
AcDbLine
 10
-1.0
 20
0.0
 30
0.0
 11
1.0
 21
0.0
 31
0.0
  0
ENDBLK
  5
243
330
240
100
AcDbEntity
  8
0
100
AcDbBlockEnd
  0
ENDSEC
  0
SECTION
  2
ENTITIES
  0
LINE
  5
22
330
1D
100
AcDbEntity
  8
0
  6
Continuous
100
AcDbLine
 10
-105.00031
 20
-40.83335
 30
0.0
 11
-102.40223
 21
-40.83335
 31
0.0
  0
LINE
  5
23
330
1D
100
AcDbEntity
  8
0
  6
Continuous
100
AcDbLine
 10
-102.40223
 20
-40.83335
 30
0.0
 11
-102.40223
 21
-38.99982
 31
0.0
  0
LINE
  5
24
330
1D
100
AcDbEntity
  8
0
  6
Continuous
100
AcDbLine
 10
-102.40223
 20
-38.99982
 30
0.0
 11
-102.40223
 21
-34.99974
 31
0.0
  0
LINE
  5
25
330
1D
100
AcDbEntity
  8
0
  6
Continuous
100
AcDbLine
 10
-102.40223
 20
-34.99974
 30
0.0
 11
-102.40223
 21
-34.89976
 31
0.0
  0
LINE
  5
26
330
1D
100
AcDbEntity
  8
0
  6
Continuous
100
AcDbLine
 10
-107.59838
 20
-40.83335
 30
0.0
 11
-105.00031
 21
-40.83335
 31
0.0
  0
LINE
  5
27
330
1D
100
AcDbEntity
  8
0
  6
Continuous
100
AcDbLine
 10
-107.59838
 20
-34.89976
 30
0.0
 11
-107.59838
 21
-40.83335
 31
0.0
  0
LINE
  5
28
330
1D
100
AcDbEntity
  8
0
  6
Continuous
100
AcDbLine
 10
-105.00031
 20
-40.83335
 30
0.0
 11
-105.00031
 21
-38.99982
 31
0.0
  0
LINE
  5
29
330
1D
100
AcDbEntity
  8
0
  6
Continuous
100
AcDbLine
 10
-105.00031
 20
-38.99982
 30
0.0
 11
-105.00031
 21
-34.99974
 31
0.0
  0
LINE
  5
2A
330
1D
100
AcDbEntity
  8
0
  6
Continuous
100
AcDbLine
 10
-105.00031
 20
-34.99974
 30
0.0
 11
-105.00031
 21
-34.89976
 31
0.0
  0
LINE
  5
2B
330
1D
100
AcDbEntity
  8
0
  6
Continuous
100
AcDbLine
 10
-84.00785
 20
-40.83335
 30
0.0
 11
-81.40978
 21
-40.83335
 31
0.0
  0
LINE
  5
2C
330
1D
100
AcDbEntity
  8
0
  6
Continuous
100
AcDbLine
 10
-81.40978
 20
-40.83335
 30
0.0
 11
-81.40978
 21
-38.99982
 31
0.0
  0
LINE
  5
2D
330
1D
100
AcDbEntity
  8
0
  6
Continuous
100
AcDbLine
 10
-81.40978
 20
-38.99982
 30
0.0
 11
-81.40978
 21
-34.99974
 31
0.0
  0
LINE
  5
2E
330
1D
100
AcDbEntity
  8
0
  6
Continuous
100
AcDbLine
 10
-81.40978
 20
-34.99974
 30
0.0
 11
-81.40978
 21
-34.89976
 31
0.0
  0
LINE
  5
2F
330
1D
100
AcDbEntity
  8
0
  6
Continuous
100
AcDbLine
 10
-86.60593
 20
-40.83335
 30
0.0
 11
-84.00785
 21
-40.83335
 31
0.0
  0
LINE
  5
30
330
1D
100
AcDbEntity
  8
0
  6
Continuous
100
AcDbLine
 10
-86.60593
 20
-34.89976
 30
0.0
 11
-86.60593
 21
-40.83335
 31
0.0
  0
LINE
  5
31
330
1D
100
AcDbEntity
  8
0
  6
Continuous
100
AcDbLine
 10
-84.00785
 20
-40.83335
 30
0.0
 11
-84.00785
 21
-38.99982
 31
0.0
  0
LINE
  5
32
330
1D
100
AcDbEntity
  8
0
  6
Continuous
100
AcDbLine
 10
-84.00785
 20
-38.99982
 30
0.0
 11
-84.00785
 21
-34.99974
 31
0.0
  0
LINE
  5
33
330
1D
100
AcDbEntity
  8
0
  6
Continuous
100
AcDbLine
 10
-84.00785
 20
-34.99974
 30
0.0
 11
-84.00785
 21
-34.89976
 31
0.0
  0
LINE
  5
34
330
1D
100
AcDbEntity
  8
0
  6
Continuous
100
AcDbLine
 10
-63.0154
 20
-40.83335
 30
0.0
 11
-60.41731999999999
 21
-40.83335
 31
0.0
  0
LINE
  5
35
330
1D
100
AcDbEntity
  8
0
  6
Continuous
100
AcDbLine
 10
-60.41731999999999
 20
-40.83335
 30
0.0
 11
-60.41731999999999
 21
-38.99982
 31
0.0
  0
LINE
  5
36
330
1D
100
AcDbEntity
  8
0
  6
Continuous
100
AcDbLine
 10
-60.41731999999999
 20
-38.99982
 30
0.0
 11
-60.41731999999999
 21
-34.99974
 31
0.0
  0
LINE
  5
37
330
1D
100
AcDbEntity
  8
0
  6
Continuous
100
AcDbLine
 10
-60.41731999999999
 20
-34.99974
 30
0.0
 11
-60.41731999999999
 21
-34.89976
 31
0.0
  0
LINE
  5
38
330
1D
100
AcDbEntity
  8
0
  6
Continuous
100
AcDbLine
 10
-65.61347000000001
 20
-40.83335
 30
0.0
 11
-63.0154
 21
-40.83335
 31
0.0
  0
LINE
  5
39
330
1D
100
AcDbEntity
  8
0
  6
Continuous
100
AcDbLine
 10
-65.61347000000001
 20
-34.89976
 30
0.0
 11
-65.61347000000001
 21
-40.83335
 31
0.0
  0
LINE
  5
3A
330
1D
100
AcDbEntity
  8
0
  6
Continuous
100
AcDbLine
 10
-63.0154
 20
-40.83335
 30
0.0
 11
-63.0154
 21
-38.99982
 31
0.0
  0
LINE
  5
3B
330
1D
100
AcDbEntity
  8
0
  6
Continuous
100
AcDbLine
 10
-63.0154
 20
-38.99982
 30
0.0
 11
-63.0154
 21
-34.99974
 31
0.0
  0
LINE
  5
3C
330
1D
100
AcDbEntity
  8
0
  6
Continuous
100
AcDbLine
 10
-63.0154
 20
-34.99974
 30
0.0
 11
-63.0154
 21
-34.89976
 31
0.0
  0
LINE
  5
3D
330
1D
100
AcDbEntity
  8
0
  6
Continuous
100
AcDbLine
 10
-42.02294
 20
-40.83335
 30
0.0
 11
-39.42487
 21
-40.83335
 31
0.0
  0
LINE
  5
3E
330
1D
100
AcDbEntity
  8
0
  6
Continuous
100
AcDbLine
 10
-39.42487
 20
-40.83335
 30
0.0
 11
-39.42487
 21
-38.99982
 31
0.0
  0
LINE
  5
3F
330
1D
100
AcDbEntity
  8
0
  6
Continuous
100
AcDbLine
 10
-39.42487
 20
-38.99982
 30
0.0
 11
-39.42487
 21
-34.99974
 31
0.0
  0
LINE
  5
40
330
1D
100
AcDbEntity
  8
0
  6
Continuous
100
AcDbLine
 10
-39.42487
 20
-34.99974
 30
0.0
 11
-39.42487
 21
-34.89976
 31
0.0
  0
LINE
  5
41
330
1D
100
AcDbEntity
  8
0
  6
Continuous
100
AcDbLine
 10
-44.62102
 20
-40.83335
 30
0.0
 11
-42.02294
 21
-40.83335
 31
0.0
  0
LINE
  5
42
330
1D
100
AcDbEntity
  8
0
  6
Continuous
100
AcDbLine
 10
-44.62102
 20
-34.89976
 30
0.0
 11
-44.62102
 21
-40.83335
 31
0.0
  0
LINE
  5
43
330
1D
100
AcDbEntity
  8
0
  6
Continuous
100
AcDbLine
 10
-42.02294
 20
-40.83335
 30
0.0
 11
-42.02294
 21
-38.99982
 31
0.0
  0
LINE
  5
44
330
1D
100
AcDbEntity
  8
0
  6
Continuous
100
AcDbLine
 10
-42.02294
 20
-38.99982
 30
0.0
 11
-42.02294
 21
-34.99974
 31
0.0
  0
LINE
  5
45
330
1D
100
AcDbEntity
  8
0
  6
Continuous
100
AcDbLine
 10
-42.02294
 20
-34.99974
 30
0.0
 11
-42.02294
 21
-34.89976
 31
0.0
  0
LINE
  5
46
330
1D
100
AcDbEntity
  8
0
  6
Continuous
100
AcDbLine
 10
-21.03049
 20
-40.83335
 30
0.0
 11
-18.43242
 21
-40.83335
 31
0.0
  0
LINE
  5
47
330
1D
100
AcDbEntity
  8
0
  6
Continuous
100
AcDbLine
 10
-18.43242
 20
-40.83335
 30
0.0
 11
-18.43242
 21
-38.99982
 31
0.0
  0
LINE
  5
48
330
1D
100
AcDbEntity
  8
0
  6
Continuous
100
AcDbLine
 10
-18.43242
 20
-38.99982
 30
0.0
 11
-18.43242
 21
-34.99974
 31
0.0
  0
LINE
  5
49
330
1D
100
AcDbEntity
  8
0
  6
Continuous
100
AcDbLine
 10
-18.43242
 20
-34.99974
 30
0.0
 11
-18.43242
 21
-34.89976
 31
0.0
  0
LINE
  5
4A
330
1D
100
AcDbEntity
  8
0
  6
Continuous
100
AcDbLine
 10
-23.62857
 20
-40.83335
 30
0.0
 11
-21.03049
 21
-40.83335
 31
0.0
  0
LINE
  5
4B
330
1D
100
AcDbEntity
  8
0
  6
Continuous
100
AcDbLine
 10
-23.62857
 20
-34.89976
 30
0.0
 11
-23.62857
 21
-40.83335
 31
0.0
  0
LINE
  5
4C
330
1D
100
AcDbEntity
  8
0
  6
Continuous
100
AcDbLine
 10
-21.03049
 20
-40.83335
 30
0.0
 11
-21.03049
 21
-38.99982
 31
0.0
  0
LINE
  5
4D
330
1D
100
AcDbEntity
  8
0
  6
Continuous
100
AcDbLine
 10
-21.03049
 20
-38.99982
 30
0.0
 11
-21.03049
 21
-34.99974
 31
0.0
  0
LINE
  5
4E
330
1D
100
AcDbEntity
  8
0
  6
Continuous
100
AcDbLine
 10
-21.03049
 20
-34.99974
 30
0.0
 11
-21.03049
 21
-34.89976
 31
0.0
  0
LINE
  5
4F
330
1D
100
AcDbEntity
  8
0
  6
Continuous
100
AcDbLine
 10
-0.03804
 20
-40.83335
 30
0.0
 11
2.560029999999999
 21
-40.83335
 31
0.0
  0
LINE
  5
50
330
1D
100
AcDbEntity
  8
0
  6
Continuous
100
AcDbLine
 10
2.560029999999999
 20
-40.83335
 30
0.0
 11
2.560029999999999
 21
-38.99982
 31
0.0
  0
LINE
  5
51
330
1D
100
AcDbEntity
  8
0
  6
Continuous
100
AcDbLine
 10
2.560029999999999
 20
-38.99982
 30
0.0
 11
2.560029999999999
 21
-34.99974
 31
0.0
  0
LINE
  5
52
330
1D
100
AcDbEntity
  8
0
  6
Continuous
100
AcDbLine
 10
2.560029999999999
 20
-34.99974
 30
0.0
 11
2.560029999999999
 21
-34.89976
 31
0.0
  0
LINE
  5
53
330
1D
100
AcDbEntity
  8
0
  6
Continuous
100
AcDbLine
 10
-2.63612
 20
-40.83335
 30
0.0
 11
-0.03804
 21
-40.83335
 31
0.0
  0
LINE
  5
54
330
1D
100
AcDbEntity
  8
0
  6
Continuous
100
AcDbLine
 10
-2.63612
 20
-34.89976
 30
0.0
 11
-2.63612
 21
-40.83335
 31
0.0
  0
LINE
  5
55
330
1D
100
AcDbEntity
  8
0
  6
Continuous
100
AcDbLine
 10
-0.03804
 20
-40.83335
 30
0.0
 11
-0.03804
 21
-38.99982
 31
0.0
  0
LINE
  5
56
330
1D
100
AcDbEntity
  8
0
  6
Continuous
100
AcDbLine
 10
-0.03804
 20
-38.99982
 30
0.0
 11
-0.03804
 21
-34.99974
 31
0.0
  0
LINE
  5
57
330
1D
100
AcDbEntity
  8
0
  6
Continuous
100
AcDbLine
 10
-0.03804
 20
-34.99974
 30
0.0
 11
-0.03804
 21
-34.89976
 31
0.0
  0
LINE
  5
58
330
1D
100
AcDbEntity
  8
0
  6
Continuous
100
AcDbLine
 10
20.95441
 20
-40.83335
 30
0.0
 11
23.55248
 21
-40.83335
 31
0.0
  0
LINE
  5
59
330
1D
100
AcDbEntity
  8
0
  6
Continuous
100
AcDbLine
 10
23.55248
 20
-40.83335
 30
0.0
 11
23.55248
 21
-38.99982
 31
0.0
  0
LINE
  5
5A
330
1D
100
AcDbEntity
  8
0
  6
Continuous
100
AcDbLine
 10
23.55248
 20
-38.99982
 30
0.0
 11
23.55248
 21
-34.99974
 31
0.0
  0
LINE
  5
5B
330
1D
100
AcDbEntity
  8
0
  6
Continuous
100
AcDbLine
 10
23.55248
 20
-34.99974
 30
0.0
 11
23.55248
 21
-34.89976
 31
0.0
  0
LINE
  5
5C
330
1D
100
AcDbEntity
  8
0
  6
Continuous
100
AcDbLine
 10
18.35633
 20
-40.83335
 30
0.0
 11
20.95441
 21
-40.83335
 31
0.0
  0
LINE
  5
5D
330
1D
100
AcDbEntity
  8
0
  6
Continuous
100
AcDbLine
 10
18.35633
 20
-34.89976
 30
0.0
 11
18.35633
 21
-40.83335
 31
0.0
  0
LINE
  5
5E
330
1D
100
AcDbEntity
  8
0
  6
Continuous
100
AcDbLine
 10
20.95441
 20
-40.83335
 30
0.0
 11
20.95441
 21
-38.99982
 31
0.0
  0
LINE
  5
5F
330
1D
100
AcDbEntity
  8
0
  6
Continuous
100
AcDbLine
 10
20.95441
 20
-38.99982
 30
0.0
 11
20.95441
 21
-34.99974
 31
0.0
  0
LINE
  5
60
330
1D
100
AcDbEntity
  8
0
  6
Continuous
100
AcDbLine
 10
20.95441
 20
-34.99974
 30
0.0
 11
20.95441
 21
-34.89976
 31
0.0
  0
LINE
  5
61
330
1D
100
AcDbEntity
  8
0
  6
Continuous
100
AcDbLine
 10
41.94685999999999
 20
-40.83335
 30
0.0
 11
44.54493999999999
 21
-40.83335
 31
0.0
  0
LINE
  5
62
330
1D
100
AcDbEntity
  8
0
  6
Continuous
100
AcDbLine
 10
44.54493999999999
 20
-40.83335
 30
0.0
 11
44.54493999999999
 21
-38.99982
 31
0.0
  0
LINE
  5
63
330
1D
100
AcDbEntity
  8
0
  6
Continuous
100
AcDbLine
 10
44.54493999999999
 20
-38.99982
 30
0.0
 11
44.54493999999999
 21
-34.99974
 31
0.0
  0
LINE
  5
64
330
1D
100
AcDbEntity
  8
0
  6
Continuous
100
AcDbLine
 10
44.54493999999999
 20
-34.99974
 30
0.0
 11
44.54493999999999
 21
-34.89976
 31
0.0
  0
LINE
  5
65
330
1D
100
AcDbEntity
  8
0
  6
Continuous
100
AcDbLine
 10
39.34878
 20
-40.83335
 30
0.0
 11
41.94685999999999
 21
-40.83335
 31
0.0
  0
LINE
  5
66
330
1D
100
AcDbEntity
  8
0
  6
Continuous
100
AcDbLine
 10
39.34878
 20
-34.89976
 30
0.0
 11
39.34878
 21
-40.83335
 31
0.0
  0
LINE
  5
67
330
1D
100
AcDbEntity
  8
0
  6
Continuous
100
AcDbLine
 10
41.94685999999999
 20
-40.83335
 30
0.0
 11
41.94685999999999
 21
-38.99982
 31
0.0
  0
LINE
  5
68
330
1D
100
AcDbEntity
  8
0
  6
Continuous
100
AcDbLine
 10
41.94685999999999
 20
-38.99982
 30
0.0
 11
41.94685999999999
 21
-34.99974
 31
0.0
  0
LINE
  5
69
330
1D
100
AcDbEntity
  8
0
  6
Continuous
100
AcDbLine
 10
41.94685999999999
 20
-34.99974
 30
0.0
 11
41.94685999999999
 21
-34.89976
 31
0.0
  0
LINE
  5
6A
330
1D
100
AcDbEntity
  8
0
  6
Continuous
100
AcDbLine
 10
62.93932
 20
-40.83335
 30
0.0
 11
65.53740000000001
 21
-40.83335
 31
0.0
  0
LINE
  5
6B
330
1D
100
AcDbEntity
  8
0
  6
Continuous
100
AcDbLine
 10
65.53740000000001
 20
-40.83335
 30
0.0
 11
65.53740000000001
 21
-38.99982
 31
0.0
  0
LINE
  5
6C
330
1D
100
AcDbEntity
  8
0
  6
Continuous
100
AcDbLine
 10
65.53740000000001
 20
-38.99982
 30
0.0
 11
65.53740000000001
 21
-34.99974
 31
0.0
  0
LINE
  5
6D
330
1D
100
AcDbEntity
  8
0
  6
Continuous
100
AcDbLine
 10
65.53740000000001
 20
-34.99974
 30
0.0
 11
65.53740000000001
 21
-34.89976
 31
0.0
  0
LINE
  5
6E
330
1D
100
AcDbEntity
  8
0
  6
Continuous
100
AcDbLine
 10
60.34124
 20
-40.83335
 30
0.0
 11
62.93932
 21
-40.83335
 31
0.0
  0
LINE
  5
6F
330
1D
100
AcDbEntity
  8
0
  6
Continuous
100
AcDbLine
 10
60.34124
 20
-34.89976
 30
0.0
 11
60.34124
 21
-40.83335
 31
0.0
  0
LINE
  5
70
330
1D
100
AcDbEntity
  8
0
  6
Continuous
100
AcDbLine
 10
62.93932
 20
-40.83335
 30
0.0
 11
62.93932
 21
-38.99982
 31
0.0
  0
LINE
  5
71
330
1D
100
AcDbEntity
  8
0
  6
Continuous
100
AcDbLine
 10
62.93932
 20
-38.99982
 30
0.0
 11
62.93932
 21
-34.99974
 31
0.0
  0
LINE
  5
72
330
1D
100
AcDbEntity
  8
0
  6
Continuous
100
AcDbLine
 10
62.93932
 20
-34.99974
 30
0.0
 11
62.93932
 21
-34.89976
 31
0.0
  0
LINE
  5
73
330
1D
100
AcDbEntity
  8
0
  6
Continuous
100
AcDbLine
 10
83.93176999999999
 20
-40.83335
 30
0.0
 11
86.52984999999999
 21
-40.83335
 31
0.0
  0
LINE
  5
74
330
1D
100
AcDbEntity
  8
0
  6
Continuous
100
AcDbLine
 10
86.52984999999999
 20
-40.83335
 30
0.0
 11
86.52984999999999
 21
-38.99982
 31
0.0
  0
LINE
  5
75
330
1D
100
AcDbEntity
  8
0
  6
Continuous
100
AcDbLine
 10
86.52984999999999
 20
-38.99982
 30
0.0
 11
86.52984999999999
 21
-34.99974
 31
0.0
  0
LINE
  5
76
330
1D
100
AcDbEntity
  8
0
  6
Continuous
100
AcDbLine
 10
86.52984999999999
 20
-34.99974
 30
0.0
 11
86.52984999999999
 21
-34.89976
 31
0.0
  0
LINE
  5
77
330
1D
100
AcDbEntity
  8
0
  6
Continuous
100
AcDbLine
 10
81.33369
 20
-40.83335
 30
0.0
 11
83.93176999999999
 21
-40.83335
 31
0.0
  0
LINE
  5
78
330
1D
100
AcDbEntity
  8
0
  6
Continuous
100
AcDbLine
 10
81.33369
 20
-34.89976
 30
0.0
 11
81.33369
 21
-40.83335
 31
0.0
  0
LINE
  5
79
330
1D
100
AcDbEntity
  8
0
  6
Continuous
100
AcDbLine
 10
83.93176999999999
 20
-40.83335
 30
0.0
 11
83.93176999999999
 21
-38.99982
 31
0.0
  0
LINE
  5
7A
330
1D
100
AcDbEntity
  8
0
  6
Continuous
100
AcDbLine
 10
83.93176999999999
 20
-38.99982
 30
0.0
 11
83.93176999999999
 21
-34.99974
 31
0.0
  0
LINE
  5
7B
330
1D
100
AcDbEntity
  8
0
  6
Continuous
100
AcDbLine
 10
83.93176999999999
 20
-34.99974
 30
0.0
 11
83.93176999999999
 21
-34.89976
 31
0.0
  0
LINE
  5
7C
330
1D
100
AcDbEntity
  8
0
  6
Continuous
100
AcDbLine
 10
104.92422
 20
-40.83335
 30
0.0
 11
107.5223
 21
-40.83335
 31
0.0
  0
LINE
  5
7D
330
1D
100
AcDbEntity
  8
0
  6
Continuous
100
AcDbLine
 10
107.5223
 20
-40.83335
 30
0.0
 11
107.5223
 21
-38.99982
 31
0.0
  0
LINE
  5
7E
330
1D
100
AcDbEntity
  8
0
  6
Continuous
100
AcDbLine
 10
107.5223
 20
-38.99982
 30
0.0
 11
107.5223
 21
-34.99974
 31
0.0
  0
LINE
  5
7F
330
1D
100
AcDbEntity
  8
0
  6
Continuous
100
AcDbLine
 10
107.5223
 20
-34.99974
 30
0.0
 11
107.5223
 21
-34.89976
 31
0.0
  0
LINE
  5
80
330
1D
100
AcDbEntity
  8
0
  6
Continuous
100
AcDbLine
 10
102.32615
 20
-40.83335
 30
0.0
 11
104.92422
 21
-40.83335
 31
0.0
  0
LINE
  5
81
330
1D
100
AcDbEntity
  8
0
  6
Continuous
100
AcDbLine
 10
102.32615
 20
-34.89976
 30
0.0
 11
102.32615
 21
-40.83335
 31
0.0
  0
LINE
  5
82
330
1D
100
AcDbEntity
  8
0
  6
Continuous
100
AcDbLine
 10
104.92422
 20
-40.83335
 30
0.0
 11
104.92422
 21
-38.99982
 31
0.0
  0
LINE
  5
83
330
1D
100
AcDbEntity
  8
0
  6
Continuous
100
AcDbLine
 10
104.92422
 20
-38.99982
 30
0.0
 11
104.92422
 21
-34.99974
 31
0.0
  0
LINE
  5
84
330
1D
100
AcDbEntity
  8
0
  6
Continuous
100
AcDbLine
 10
104.92422
 20
-34.99974
 30
0.0
 11
104.92422
 21
-34.89976
 31
0.0
  0
LINE
  5
85
330
1D
100
AcDbEntity
  8
0
  6
Continuous
100
AcDbLine
 10
-25.96947
 20
-40.83335
 30
0.0
 11
-23.62857
 21
-40.83335
 31
0.0
  0
LINE
  5
86
330
1D
100
AcDbEntity
  8
0
  6
Continuous
100
AcDbLine
 10
-28.56754
 20
-40.83335
 30
0.0
 11
-25.96947
 21
-40.83335
 31
0.0
  0
LINE
  5
87
330
1D
100
AcDbEntity
  8
0
  6
Continuous
100
AcDbLine
 10
-28.56754
 20
-34.89976
 30
0.0
 11
-28.56754
 21
-40.83335
 31
0.0
  0
LINE
  5
88
330
1D
100
AcDbEntity
  8
0
  6
Continuous
100
AcDbLine
 10
-25.96947
 20
-40.83335
 30
0.0
 11
-25.96947
 21
-38.99982
 31
0.0
  0
LINE
  5
89
330
1D
100
AcDbEntity
  8
0
  6
Continuous
100
AcDbLine
 10
-25.96947
 20
-38.99982
 30
0.0
 11
-25.96947
 21
-34.99974
 31
0.0
  0
LINE
  5
8A
330
1D
100
AcDbEntity
  8
0
  6
Continuous
100
AcDbLine
 10
-25.96947
 20
-34.99974
 30
0.0
 11
-25.96947
 21
-34.89976
 31
0.0
  0
LINE
  5
8B
330
1D
100
AcDbEntity
  8
0
  6
Continuous
100
AcDbLine
 10
25.91224
 20
-40.83335
 30
0.0
 11
28.51031
 21
-40.83335
 31
0.0
  0
LINE
  5
8C
330
1D
100
AcDbEntity
  8
0
  6
Continuous
100
AcDbLine
 10
28.51031
 20
-40.83335
 30
0.0
 11
28.51031
 21
-38.99982
 31
0.0
  0
LINE
  5
8D
330
1D
100
AcDbEntity
  8
0
  6
Continuous
100
AcDbLine
 10
28.51031
 20
-38.99982
 30
0.0
 11
28.51031
 21
-34.99974
 31
0.0
  0
LINE
  5
8E
330
1D
100
AcDbEntity
  8
0
  6
Continuous
100
AcDbLine
 10
28.51031
 20
-34.99974
 30
0.0
 11
28.51031
 21
-34.89976
 31
0.0
  0
LINE
  5
8F
330
1D
100
AcDbEntity
  8
0
  6
Continuous
100
AcDbLine
 10
23.55248
 20
-40.83335
 30
0.0
 11
25.91224
 21
-40.83335
 31
0.0
  0
LINE
  5
90
330
1D
100
AcDbEntity
  8
0
  6
Continuous
100
AcDbLine
 10
25.91224
 20
-40.83335
 30
0.0
 11
25.91224
 21
-38.99982
 31
0.0
  0
LINE
  5
91
330
1D
100
AcDbEntity
  8
0
  6
Continuous
100
AcDbLine
 10
25.91224
 20
-38.99982
 30
0.0
 11
25.91224
 21
-34.99974
 31
0.0
  0
LINE
  5
92
330
1D
100
AcDbEntity
  8
0
  6
Continuous
100
AcDbLine
 10
25.91224
 20
-34.99974
 30
0.0
 11
25.91224
 21
-34.89976
 31
0.0
  0
LINE
  5
93
330
1D
100
AcDbEntity
  8
0
  6
Continuous
100
AcDbLine
 10
-16.00002
 20
-40.83335
 30
0.0
 11
-15.42402
 21
-40.83335
 31
0.0
  0
LINE
  5
94
330
1D
100
AcDbEntity
  8
0
  6
Continuous
100
AcDbLine
 10
-16.00002
 20
-34.89976
 30
0.0
 11
-16.00002
 21
-34.99974
 31
0.0
  0
LINE
  5
95
330
1D
100
AcDbEntity
  8
0
  6
Continuous
100
AcDbLine
 10
-16.00002
 20
-34.99974
 30
0.0
 11
-16.00002
 21
-38.99982
 31
0.0
  0
LINE
  5
96
330
1D
100
AcDbEntity
  8
0
  6
Continuous
100
AcDbLine
 10
-16.00002
 20
-38.99982
 30
0.0
 11
-16.00002
 21
-40.83335
 31
0.0
  0
LINE
  5
97
330
1D
100
AcDbEntity
  8
0
  6
Continuous
100
AcDbLine
 10
-15.42402
 20
-40.83335
 30
0.0
 11
-13.88802
 21
-40.83335
 31
0.0
  0
LINE
  5
98
330
1D
100
AcDbEntity
  8
0
  6
Continuous
100
AcDbLine
 10
-13.88802
 20
-40.83335
 30
0.0
 11
-11.32802
 21
-40.83335
 31
0.0
  0
LINE
  5
99
330
1D
100
AcDbEntity
  8
0
  6
Continuous
100
AcDbLine
 10
-11.32802
 20
-40.83335
 30
0.0
 11
-7.93602
 21
-40.83335
 31
0.0
  0
LINE
  5
9A
330
1D
100
AcDbEntity
  8
0
  6
Continuous
100
AcDbLine
 10
-7.93602
 20
-40.83335
 30
0.0
 11
-4.09602
 21
-40.83335
 31
0.0
  0
LINE
  5
9B
330
1D
100
AcDbEntity
  8
0
  6
Continuous
100
AcDbLine
 10
-4.09602
 20
-40.83335
 30
0.0
 11
-2.63612
 21
-40.83335
 31
0.0
  0
LINE
  5
9C
330
1D
100
AcDbEntity
  8
0
  6
Continuous
100
AcDbLine
 10
15.42398
 20
-40.83335
 30
0.0
 11
15.99998
 21
-40.83335
 31
0.0
  0
LINE
  5
9D
330
1D
100
AcDbEntity
  8
0
  6
Continuous
100
AcDbLine
 10
15.99998
 20
-40.83335
 30
0.0
 11
15.99998
 21
-38.99982
 31
0.0
  0
LINE
  5
9E
330
1D
100
AcDbEntity
  8
0
  6
Continuous
100
AcDbLine
 10
15.99998
 20
-38.99982
 30
0.0
 11
15.99998
 21
-34.99974
 31
0.0
  0
LINE
  5
9F
330
1D
100
AcDbEntity
  8
0
  6
Continuous
100
AcDbLine
 10
15.99998
 20
-34.99974
 30
0.0
 11
15.99998
 21
-34.89976
 31
0.0
  0
LINE
  5
A0
330
1D
100
AcDbEntity
  8
0
  6
Continuous
100
AcDbLine
 10
13.88798
 20
-40.83335
 30
0.0
 11
15.42398
 21
-40.83335
 31
0.0
  0
LINE
  5
A1
330
1D
100
AcDbEntity
  8
0
  6
Continuous
100
AcDbLine
 10
11.32798
 20
-40.83335
 30
0.0
 11
13.88798
 21
-40.83335
 31
0.0
  0
LINE
  5
A2
330
1D
100
AcDbEntity
  8
0
  6
Continuous
100
AcDbLine
 10
7.935979999999999
 20
-40.83335
 30
0.0
 11
11.32798
 21
-40.83335
 31
0.0
  0
LINE
  5
A3
330
1D
100
AcDbEntity
  8
0
  6
Continuous
100
AcDbLine
 10
4.095979999999999
 20
-40.83335
 30
0.0
 11
7.935979999999999
 21
-40.83335
 31
0.0
  0
LINE
  5
A4
330
1D
100
AcDbEntity
  8
0
  6
Continuous
100
AcDbLine
 10
2.560029999999999
 20
-40.83335
 30
0.0
 11
4.095979999999999
 21
-40.83335
 31
0.0
  0
LINE
  5
A5
330
1D
100
AcDbEntity
  8
0
  6
Continuous
100
AcDbLine
 10
-118.000035
 20
-34.99974
 30
0.0
 11
-107.59838
 21
-34.99974
 31
0.0
  0
LINE
  5
A6
330
1D
100
AcDbEntity
  8
0
  6
Continuous
100
AcDbLine
 10
-102.40223
 20
-34.99974
 30
0.0
 11
-86.60593
 21
-34.99974
 31
0.0
  0
LINE
  5
A7
330
1D
100
AcDbEntity
  8
0
  6
Continuous
100
AcDbLine
 10
-81.40978
 20
-34.99974
 30
0.0
 11
-65.61347000000001
 21
-34.99974
 31
0.0
  0
LINE
  5
A8
330
1D
100
AcDbEntity
  8
0
  6
Continuous
100
AcDbLine
 10
-60.41731999999999
 20
-34.99974
 30
0.0
 11
-44.62102
 21
-34.99974
 31
0.0
  0
LINE
  5
A9
330
1D
100
AcDbEntity
  8
0
  6
Continuous
100
AcDbLine
 10
-39.42487
 20
-34.99974
 30
0.0
 11
-28.56754
 21
-34.99974
 31
0.0
  0
LINE
  5
AA
330
1D
100
AcDbEntity
  8
0
  6
Continuous
100
AcDbLine
 10
-18.43242
 20
-34.99974
 30
0.0
 11
-16.00002
 21
-34.99974
 31
0.0
  0
LINE
  5
AB
330
1D
100
AcDbEntity
  8
0
  6
Continuous
100
AcDbLine
 10
15.99998
 20
-34.99974
 30
0.0
 11
18.35633
 21
-34.99974
 31
0.0
  0
LINE
  5
AC
330
1D
100
AcDbEntity
  8
0
  6
Continuous
100
AcDbLine
 10
28.51031
 20
-34.99974
 30
0.0
 11
39.34878
 21
-34.99974
 31
0.0
  0
LINE
  5
AD
330
1D
100
AcDbEntity
  8
0
  6
Continuous
100
AcDbLine
 10
44.54493999999999
 20
-34.99974
 30
0.0
 11
60.34124
 21
-34.99974
 31
0.0
  0
LINE
  5
AE
330
1D
100
AcDbEntity
  8
0
  6
Continuous
100
AcDbLine
 10
65.53740000000001
 20
-34.99974
 30
0.0
 11
81.33369
 21
-34.99974
 31
0.0
  0
LINE
  5
AF
330
1D
100
AcDbEntity
  8
0
  6
Continuous
100
AcDbLine
 10
86.52984999999999
 20
-34.99974
 30
0.0
 11
102.32615
 21
-34.99974
 31
0.0
  0
LINE
  5
B0
330
1D
100
AcDbEntity
  8
0
  6
Continuous
100
AcDbLine
 10
107.5223
 20
-34.99974
 30
0.0
 11
118.000025
 21
-34.99974
 31
0.0
  0
LINE
  5
B1
330
1D
100
AcDbEntity
  8
0
  6
Continuous
100
AcDbLine
 10
-118.000035
 20
-34.99974
 30
0.0
 11
-121.826845
 21
-34.99974
 31
0.0
  0
LINE
  5
B2
330
1D
100
AcDbEntity
  8
0
  6
Continuous
100
AcDbLine
 10
-121.826845
 20
-34.99974
 30
0.0
 11
-125.071075
 21
-34.99974
 31
0.0
  0
LINE
  5
B3
330
1D
100
AcDbEntity
  8
0
  6
Continuous
100
AcDbLine
 10
-125.071075
 20
-34.99974
 30
0.0
 11
-127.238815
 21
-34.99974
 31
0.0
  0
LINE
  5
B4
330
1D
100
AcDbEntity
  8
0
  6
Continuous
100
AcDbLine
 10
-127.238815
 20
-34.99974
 30
0.0
 11
-128.000015
 21
-34.99974
 31
0.0
  0
LINE
  5
B5
330
1D
100
AcDbEntity
  8
0
  6
Continuous
100
AcDbLine
 10
118.000025
 20
-34.99974
 30
0.0
 11
121.826865
 21
-34.99974
 31
0.0
  0
LINE
  5
B6
330
1D
100
AcDbEntity
  8
0
  6
Continuous
100
AcDbLine
 10
121.826865
 20
-34.99974
 30
0.0
 11
125.071065
 21
-34.99974
 31
0.0
  0
LINE
  5
B7
330
1D
100
AcDbEntity
  8
0
  6
Continuous
100
AcDbLine
 10
125.071065
 20
-34.99974
 30
0.0
 11
127.238825
 21
-34.99974
 31
0.0
  0
LINE
  5
B8
330
1D
100
AcDbEntity
  8
0
  6
Continuous
100
AcDbLine
 10
127.238825
 20
-34.99974
 30
0.0
 11
128.000025
 21
-34.99974
 31
0.0
  0
LINE
  5
B9
330
1D
100
AcDbEntity
  8
0
  6
Continuous
100
AcDbLine
 10
-118.000025
 20
-34.99974
 30
0.0
 11
118.000015
 21
-34.99974
 31
0.0
  0
LINE
  5
BA
330
1D
100
AcDbEntity
  8
0
  6
Continuous
100
AcDbLine
 10
-118.000025
 20
-34.99974
 30
0.0
 11
-121.826855
 21
-34.99974
 31
0.0
  0
LINE
  5
BB
330
1D
100
AcDbEntity
  8
0
  6
Continuous
100
AcDbLine
 10
-121.826855
 20
-34.99974
 30
0.0
 11
-125.071085
 21
-34.99974
 31
0.0
  0
LINE
  5
BC
330
1D
100
AcDbEntity
  8
0
  6
Continuous
100
AcDbLine
 10
-125.071085
 20
-34.99974
 30
0.0
 11
-127.238795
 21
-34.99974
 31
0.0
  0
LINE
  5
BD
330
1D
100
AcDbEntity
  8
0
  6
Continuous
100
AcDbLine
 10
-128.000025
 20
-34.99974
 30
0.0
 11
-128.000025
 21
-35.73974
 31
0.0
  0
LINE
  5
BE
330
1D
100
AcDbEntity
  8
0
  6
Continuous
100
AcDbLine
 10
-127.238795
 20
-34.99974
 30
0.0
 11
-128.000025
 21
-34.99974
 31
0.0
  0
LINE
  5
BF
330
1D
100
AcDbEntity
  8
0
  6
Continuous
100
AcDbLine
 10
118.000015
 20
-34.99974
 30
0.0
 11
121.826855
 21
-34.99974
 31
0.0
  0
LINE
  5
C0
330
1D
100
AcDbEntity
  8
0
  6
Continuous
100
AcDbLine
 10
121.826855
 20
-34.99974
 30
0.0
 11
125.071085
 21
-34.99974
 31
0.0
  0
LINE
  5
C1
330
1D
100
AcDbEntity
  8
0
  6
Continuous
100
AcDbLine
 10
125.071085
 20
-34.99974
 30
0.0
 11
127.238805
 21
-34.99974
 31
0.0
  0
LINE
  5
C2
330
1D
100
AcDbEntity
  8
0
  6
Continuous
100
AcDbLine
 10
128.000015
 20
-35.73974
 30
0.0
 11
128.000005
 21
-34.99974
 31
0.0
  0
LINE
  5
C3
330
1D
100
AcDbEntity
  8
0
  6
Continuous
100
AcDbLine
 10
127.238805
 20
-34.99974
 30
0.0
 11
128.000005
 21
-34.99974
 31
0.0
  0
LINE
  5
C4
330
1D
100
AcDbEntity
  8
0
  6
Continuous
100
AcDbLine
 10
-118.000035
 20
-38.99982
 30
0.0
 11
-107.59838
 21
-38.99982
 31
0.0
  0
LINE
  5
C5
330
1D
100
AcDbEntity
  8
0
  6
Continuous
100
AcDbLine
 10
-102.40223
 20
-38.99982
 30
0.0
 11
-86.60593
 21
-38.99982
 31
0.0
  0
LINE
  5
C6
330
1D
100
AcDbEntity
  8
0
  6
Continuous
100
AcDbLine
 10
-81.40978
 20
-38.99982
 30
0.0
 11
-65.61347000000001
 21
-38.99982
 31
0.0
  0
LINE
  5
C7
330
1D
100
AcDbEntity
  8
0
  6
Continuous
100
AcDbLine
 10
-60.41731999999999
 20
-38.99982
 30
0.0
 11
-44.62102
 21
-38.99982
 31
0.0
  0
LINE
  5
C8
330
1D
100
AcDbEntity
  8
0
  6
Continuous
100
AcDbLine
 10
-39.42487
 20
-38.99982
 30
0.0
 11
-28.56754
 21
-38.99982
 31
0.0
  0
LINE
  5
C9
330
1D
100
AcDbEntity
  8
0
  6
Continuous
100
AcDbLine
 10
-18.43242
 20
-38.99982
 30
0.0
 11
-16.00002
 21
-38.99982
 31
0.0
  0
LINE
  5
CA
330
1D
100
AcDbEntity
  8
0
  6
Continuous
100
AcDbLine
 10
15.99998
 20
-38.99982
 30
0.0
 11
18.35633
 21
-38.99982
 31
0.0
  0
LINE
  5
CB
330
1D
100
AcDbEntity
  8
0
  6
Continuous
100
AcDbLine
 10
28.51031
 20
-38.99982
 30
0.0
 11
39.34878
 21
-38.99982
 31
0.0
  0
LINE
  5
CC
330
1D
100
AcDbEntity
  8
0
  6
Continuous
100
AcDbLine
 10
44.54493999999999
 20
-38.99982
 30
0.0
 11
60.34124
 21
-38.99982
 31
0.0
  0
LINE
  5
CD
330
1D
100
AcDbEntity
  8
0
  6
Continuous
100
AcDbLine
 10
65.53740000000001
 20
-38.99982
 30
0.0
 11
81.33369
 21
-38.99982
 31
0.0
  0
LINE
  5
CE
330
1D
100
AcDbEntity
  8
0
  6
Continuous
100
AcDbLine
 10
86.52984999999999
 20
-38.99982
 30
0.0
 11
102.32615
 21
-38.99982
 31
0.0
  0
LINE
  5
CF
330
1D
100
AcDbEntity
  8
0
  6
Continuous
100
AcDbLine
 10
107.5223
 20
-38.99982
 30
0.0
 11
118.000025
 21
-38.99982
 31
0.0
  0
LINE
  5
D0
330
1D
100
AcDbEntity
  8
0
  6
Continuous
100
AcDbLine
 10
-118.000035
 20
-38.99982
 30
0.0
 11
-121.826845
 21
-38.99982
 31
0.0
  0
LINE
  5
D1
330
1D
100
AcDbEntity
  8
0
  6
Continuous
100
AcDbLine
 10
-121.826845
 20
-38.99982
 30
0.0
 11
-125.071075
 21
-38.99982
 31
0.0
  0
LINE
  5
D2
330
1D
100
AcDbEntity
  8
0
  6
Continuous
100
AcDbLine
 10
-125.071075
 20
-38.99982
 30
0.0
 11
-127.238815
 21
-38.99982
 31
0.0
  0
LINE
  5
D3
330
1D
100
AcDbEntity
  8
0
  6
Continuous
100
AcDbLine
 10
-127.238815
 20
-38.99982
 30
0.0
 11
-128.000015
 21
-38.99982
 31
0.0
  0
LINE
  5
D4
330
1D
100
AcDbEntity
  8
0
  6
Continuous
100
AcDbLine
 10
118.000025
 20
-38.99982
 30
0.0
 11
121.826865
 21
-38.99982
 31
0.0
  0
LINE
  5
D5
330
1D
100
AcDbEntity
  8
0
  6
Continuous
100
AcDbLine
 10
121.826865
 20
-38.99982
 30
0.0
 11
125.071065
 21
-38.99982
 31
0.0
  0
LINE
  5
D6
330
1D
100
AcDbEntity
  8
0
  6
Continuous
100
AcDbLine
 10
125.071065
 20
-38.99982
 30
0.0
 11
127.238825
 21
-38.99982
 31
0.0
  0
LINE
  5
D7
330
1D
100
AcDbEntity
  8
0
  6
Continuous
100
AcDbLine
 10
127.238825
 20
-38.99982
 30
0.0
 11
128.000025
 21
-38.99982
 31
0.0
  0
LINE
  5
D8
330
1D
100
AcDbEntity
  8
0
  6
Continuous
100
AcDbLine
 10
-118.000025
 20
-38.99982
 30
0.0
 11
118.000015
 21
-38.99982
 31
0.0
  0
LINE
  5
D9
330
1D
100
AcDbEntity
  8
0
  6
Continuous
100
AcDbLine
 10
-118.000025
 20
-38.99982
 30
0.0
 11
-121.826855
 21
-38.99982
 31
0.0
  0
LINE
  5
DA
330
1D
100
AcDbEntity
  8
0
  6
Continuous
100
AcDbLine
 10
-121.826855
 20
-38.99982
 30
0.0
 11
-125.071085
 21
-38.99982
 31
0.0
  0
LINE
  5
DB
330
1D
100
AcDbEntity
  8
0
  6
Continuous
100
AcDbLine
 10
-125.071085
 20
-38.99982
 30
0.0
 11
-127.238795
 21
-38.99982
 31
0.0
  0
LINE
  5
DC
330
1D
100
AcDbEntity
  8
0
  6
Continuous
100
AcDbLine
 10
-128.000025
 20
-38.25983
 30
0.0
 11
-128.000025
 21
-38.99982
 31
0.0
  0
LINE
  5
DD
330
1D
100
AcDbEntity
  8
0
  6
Continuous
100
AcDbLine
 10
-127.238795
 20
-38.99982
 30
0.0
 11
-128.000025
 21
-38.99982
 31
0.0
  0
LINE
  5
DE
330
1D
100
AcDbEntity
  8
0
  6
Continuous
100
AcDbLine
 10
118.000015
 20
-38.99982
 30
0.0
 11
121.826855
 21
-38.99982
 31
0.0
  0
LINE
  5
DF
330
1D
100
AcDbEntity
  8
0
  6
Continuous
100
AcDbLine
 10
121.826855
 20
-38.99982
 30
0.0
 11
125.071085
 21
-38.99982
 31
0.0
  0
LINE
  5
E0
330
1D
100
AcDbEntity
  8
0
  6
Continuous
100
AcDbLine
 10
125.071085
 20
-38.99982
 30
0.0
 11
127.238805
 21
-38.99982
 31
0.0
  0
LINE
  5
E1
330
1D
100
AcDbEntity
  8
0
  6
Continuous
100
AcDbLine
 10
128.000015
 20
-38.99982
 30
0.0
 11
128.000015
 21
-38.25983
 31
0.0
  0
LINE
  5
E2
330
1D
100
AcDbEntity
  8
0
  6
Continuous
100
AcDbLine
 10
127.238805
 20
-38.99982
 30
0.0
 11
128.000015
 21
-38.99982
 31
0.0
  0
LINE
  5
E3
330
1D
100
AcDbEntity
  8
0
  6
Continuous
100
AcDbLine
 10
88.499995
 20
-34.99974
 30
0.0
 11
88.499995
 21
-35.75462
 31
0.0
  0
LINE
  5
E4
330
1D
100
AcDbEntity
  8
0
  6
Continuous
100
AcDbLine
 10
88.11478499999999
 20
-34.99974
 30
0.0
 11
87.72956499999999
 21
-34.99974
 31
0.0
  0
LINE
  5
E5
330
1D
100
AcDbEntity
  8
0
  6
Continuous
100
AcDbLine
 10
-88.114795
 20
-34.99974
 30
0.0
 11
-88.500005
 21
-34.99974
 31
0.0
  0
LINE
  5
E6
330
1D
100
AcDbEntity
  8
0
  6
Continuous
100
AcDbLine
 10
-88.500005
 20
-35.75462
 30
0.0
 11
-88.500005
 21
-34.99974
 31
0.0
  0
LINE
  5
E7
330
1D
100
AcDbEntity
  8
0
  6
Continuous
100
AcDbLine
 10
-87.729575
 20
-34.99974
 30
0.0
 11
-86.60593
 21
-34.99974
 31
0.0
  0
LINE
  5
E8
330
1D
100
AcDbEntity
  8
0
  6
Continuous
100
AcDbLine
 10
-88.114795
 20
-34.99974
 30
0.0
 11
-87.729575
 21
-34.99974
 31
0.0
  0
LINE
  5
E9
330
1D
100
AcDbEntity
  8
0
  6
Continuous
100
AcDbLine
 10
-87.729645
 20
-34.99974
 30
0.0
 11
-88.500005
 21
-34.99974
 31
0.0
  0
LINE
  5
EA
330
1D
100
AcDbEntity
  8
0
  6
Continuous
100
AcDbLine
 10
-81.40978
 20
-34.99974
 30
0.0
 11
-65.61347000000001
 21
-34.99974
 31
0.0
  0
LINE
  5
EB
330
1D
100
AcDbEntity
  8
0
  6
Continuous
100
AcDbLine
 10
-60.41731999999999
 20
-34.99974
 30
0.0
 11
-44.62102
 21
-34.99974
 31
0.0
  0
LINE
  5
EC
330
1D
100
AcDbEntity
  8
0
  6
Continuous
100
AcDbLine
 10
-39.42487
 20
-34.99974
 30
0.0
 11
-28.56754
 21
-34.99974
 31
0.0
  0
LINE
  5
ED
330
1D
100
AcDbEntity
  8
0
  6
Continuous
100
AcDbLine
 10
-18.43242
 20
-34.99974
 30
0.0
 11
-16.00002
 21
-34.99974
 31
0.0
  0
LINE
  5
EE
330
1D
100
AcDbEntity
  8
0
  6
Continuous
100
AcDbLine
 10
15.99998
 20
-34.99974
 30
0.0
 11
18.35633
 21
-34.99974
 31
0.0
  0
LINE
  5
EF
330
1D
100
AcDbEntity
  8
0
  6
Continuous
100
AcDbLine
 10
28.51031
 20
-34.99974
 30
0.0
 11
39.34878
 21
-34.99974
 31
0.0
  0
LINE
  5
F0
330
1D
100
AcDbEntity
  8
0
  6
Continuous
100
AcDbLine
 10
44.54493999999999
 20
-34.99974
 30
0.0
 11
60.34124
 21
-34.99974
 31
0.0
  0
LINE
  5
F1
330
1D
100
AcDbEntity
  8
0
  6
Continuous
100
AcDbLine
 10
65.53740000000001
 20
-34.99974
 30
0.0
 11
81.33369
 21
-34.99974
 31
0.0
  0
LINE
  5
F2
330
1D
100
AcDbEntity
  8
0
  6
Continuous
100
AcDbLine
 10
-86.60593
 20
-34.99974
 30
0.0
 11
-87.729645
 21
-34.99974
 31
0.0
  0
LINE
  5
F3
330
1D
100
AcDbEntity
  8
0
  6
Continuous
100
AcDbLine
 10
86.52984999999999
 20
-34.99974
 30
0.0
 11
87.72956499999999
 21
-34.99974
 31
0.0
  0
LINE
  5
F4
330
1D
100
AcDbEntity
  8
0
  6
Continuous
100
AcDbLine
 10
81.33369
 20
-34.99974
 30
0.0
 11
65.53740000000001
 21
-34.99974
 31
0.0
  0
LINE
  5
F5
330
1D
100
AcDbEntity
  8
0
  6
Continuous
100
AcDbLine
 10
60.34124
 20
-34.99974
 30
0.0
 11
44.54493999999999
 21
-34.99974
 31
0.0
  0
LINE
  5
F6
330
1D
100
AcDbEntity
  8
0
  6
Continuous
100
AcDbLine
 10
39.34878
 20
-34.99974
 30
0.0
 11
28.51031
 21
-34.99974
 31
0.0
  0
LINE
  5
F7
330
1D
100
AcDbEntity
  8
0
  6
Continuous
100
AcDbLine
 10
18.35633
 20
-34.99974
 30
0.0
 11
15.99998
 21
-34.99974
 31
0.0
  0
LINE
  5
F8
330
1D
100
AcDbEntity
  8
0
  6
Continuous
100
AcDbLine
 10
-16.00002
 20
-34.99974
 30
0.0
 11
-18.43242
 21
-34.99974
 31
0.0
  0
LINE
  5
F9
330
1D
100
AcDbEntity
  8
0
  6
Continuous
100
AcDbLine
 10
-28.56754
 20
-34.99974
 30
0.0
 11
-39.42487
 21
-34.99974
 31
0.0
  0
LINE
  5
FA
330
1D
100
AcDbEntity
  8
0
  6
Continuous
100
AcDbLine
 10
-44.62102
 20
-34.99974
 30
0.0
 11
-60.41731999999999
 21
-34.99974
 31
0.0
  0
LINE
  5
FB
330
1D
100
AcDbEntity
  8
0
  6
Continuous
100
AcDbLine
 10
-65.61347000000001
 20
-34.99974
 30
0.0
 11
-81.40978
 21
-34.99974
 31
0.0
  0
LINE
  5
FC
330
1D
100
AcDbEntity
  8
0
  6
Continuous
100
AcDbLine
 10
88.11478499999999
 20
-34.99974
 30
0.0
 11
88.499995
 21
-34.99974
 31
0.0
  0
LINE
  5
FD
330
1D
100
AcDbEntity
  8
0
  6
Continuous
100
AcDbLine
 10
88.499995
 20
-34.99974
 30
0.0
 11
87.72963500000001
 21
-34.99974
 31
0.0
  0
LINE
  5
FE
330
1D
100
AcDbEntity
  8
0
  6
Continuous
100
AcDbLine
 10
87.72963500000001
 20
-34.99974
 30
0.0
 11
86.52984999999999
 21
-34.99974
 31
0.0
  0
LINE
  5
FF
330
1D
100
AcDbEntity
  8
0
  6
Continuous
100
AcDbLine
 10
-128.000025
 20
-38.25983
 30
0.0
 11
-128.000025
 21
-35.73974
 31
0.0
  0
LINE
  5
100
330
1D
100
AcDbEntity
  8
0
  6
Continuous
100
AcDbLine
 10
128.000015
 20
-38.25983
 30
0.0
 11
128.000015
 21
-35.73974
 31
0.0
  0
LINE
  5
101
330
1D
100
AcDbEntity
  8
0
  6
Continuous
100
AcDbLine
 10
-88.500005
 20
-38.24495
 30
0.0
 11
-88.500005
 21
-35.75462
 31
0.0
  0
LINE
  5
102
330
1D
100
AcDbEntity
  8
0
  6
Continuous
100
AcDbLine
 10
88.499995
 20
-35.75462
 30
0.0
 11
88.499995
 21
-38.24495
 31
0.0
  0
LINE
  5
103
330
1D
100
AcDbEntity
  8
0
  6
Continuous
100
AcDbLine
 10
88.499995
 20
-38.24495
 30
0.0
 11
88.499995
 21
-38.99982
 31
0.0
  0
LINE
  5
104
330
1D
100
AcDbEntity
  8
0
  6
Continuous
100
AcDbLine
 10
87.72956499999999
 20
-38.99982
 30
0.0
 11
88.11478499999999
 21
-38.99982
 31
0.0
  0
LINE
  5
105
330
1D
100
AcDbEntity
  8
0
  6
Continuous
100
AcDbLine
 10
-88.500005
 20
-38.99982
 30
0.0
 11
-88.114795
 21
-38.99982
 31
0.0
  0
LINE
  5
106
330
1D
100
AcDbEntity
  8
0
  6
Continuous
100
AcDbLine
 10
-88.500005
 20
-38.99982
 30
0.0
 11
-88.500005
 21
-38.24495
 31
0.0
  0
LINE
  5
107
330
1D
100
AcDbEntity
  8
0
  6
Continuous
100
AcDbLine
 10
-86.60593
 20
-38.99982
 30
0.0
 11
-87.729575
 21
-38.99982
 31
0.0
  0
LINE
  5
108
330
1D
100
AcDbEntity
  8
0
  6
Continuous
100
AcDbLine
 10
-87.729575
 20
-38.99982
 30
0.0
 11
-88.114795
 21
-38.99982
 31
0.0
  0
LINE
  5
109
330
1D
100
AcDbEntity
  8
0
  6
Continuous
100
AcDbLine
 10
-88.500005
 20
-38.99982
 30
0.0
 11
-87.729645
 21
-38.99982
 31
0.0
  0
LINE
  5
10A
330
1D
100
AcDbEntity
  8
0
  6
Continuous
100
AcDbLine
 10
81.33369
 20
-38.99982
 30
0.0
 11
65.53740000000001
 21
-38.99982
 31
0.0
  0
LINE
  5
10B
330
1D
100
AcDbEntity
  8
0
  6
Continuous
100
AcDbLine
 10
60.34124
 20
-38.99982
 30
0.0
 11
44.54493999999999
 21
-38.99982
 31
0.0
  0
LINE
  5
10C
330
1D
100
AcDbEntity
  8
0
  6
Continuous
100
AcDbLine
 10
39.34878
 20
-38.99982
 30
0.0
 11
28.51031
 21
-38.99982
 31
0.0
  0
LINE
  5
10D
330
1D
100
AcDbEntity
  8
0
  6
Continuous
100
AcDbLine
 10
18.35633
 20
-38.99982
 30
0.0
 11
15.99998
 21
-38.99982
 31
0.0
  0
LINE
  5
10E
330
1D
100
AcDbEntity
  8
0
  6
Continuous
100
AcDbLine
 10
-16.00002
 20
-38.99982
 30
0.0
 11
-18.43242
 21
-38.99982
 31
0.0
  0
LINE
  5
10F
330
1D
100
AcDbEntity
  8
0
  6
Continuous
100
AcDbLine
 10
-28.56754
 20
-38.99982
 30
0.0
 11
-39.42487
 21
-38.99982
 31
0.0
  0
LINE
  5
110
330
1D
100
AcDbEntity
  8
0
  6
Continuous
100
AcDbLine
 10
-44.62102
 20
-38.99982
 30
0.0
 11
-60.41731999999999
 21
-38.99982
 31
0.0
  0
LINE
  5
111
330
1D
100
AcDbEntity
  8
0
  6
Continuous
100
AcDbLine
 10
-65.61347000000001
 20
-38.99982
 30
0.0
 11
-81.40978
 21
-38.99982
 31
0.0
  0
LINE
  5
112
330
1D
100
AcDbEntity
  8
0
  6
Continuous
100
AcDbLine
 10
-87.729645
 20
-38.99982
 30
0.0
 11
-86.60593
 21
-38.99982
 31
0.0
  0
LINE
  5
113
330
1D
100
AcDbEntity
  8
0
  6
Continuous
100
AcDbLine
 10
87.72956499999999
 20
-38.99982
 30
0.0
 11
86.52984999999999
 21
-38.99982
 31
0.0
  0
LINE
  5
114
330
1D
100
AcDbEntity
  8
0
  6
Continuous
100
AcDbLine
 10
-81.40978
 20
-38.99982
 30
0.0
 11
-65.61347000000001
 21
-38.99982
 31
0.0
  0
LINE
  5
115
330
1D
100
AcDbEntity
  8
0
  6
Continuous
100
AcDbLine
 10
-60.41731999999999
 20
-38.99982
 30
0.0
 11
-44.62102
 21
-38.99982
 31
0.0
  0
LINE
  5
116
330
1D
100
AcDbEntity
  8
0
  6
Continuous
100
AcDbLine
 10
-39.42487
 20
-38.99982
 30
0.0
 11
-28.56754
 21
-38.99982
 31
0.0
  0
LINE
  5
117
330
1D
100
AcDbEntity
  8
0
  6
Continuous
100
AcDbLine
 10
-18.43242
 20
-38.99982
 30
0.0
 11
-16.00002
 21
-38.99982
 31
0.0
  0
LINE
  5
118
330
1D
100
AcDbEntity
  8
0
  6
Continuous
100
AcDbLine
 10
15.99998
 20
-38.99982
 30
0.0
 11
18.35633
 21
-38.99982
 31
0.0
  0
LINE
  5
119
330
1D
100
AcDbEntity
  8
0
  6
Continuous
100
AcDbLine
 10
28.51031
 20
-38.99982
 30
0.0
 11
39.34878
 21
-38.99982
 31
0.0
  0
LINE
  5
11A
330
1D
100
AcDbEntity
  8
0
  6
Continuous
100
AcDbLine
 10
44.54493999999999
 20
-38.99982
 30
0.0
 11
60.34124
 21
-38.99982
 31
0.0
  0
LINE
  5
11B
330
1D
100
AcDbEntity
  8
0
  6
Continuous
100
AcDbLine
 10
65.53740000000001
 20
-38.99982
 30
0.0
 11
81.33369
 21
-38.99982
 31
0.0
  0
LINE
  5
11C
330
1D
100
AcDbEntity
  8
0
  6
Continuous
100
AcDbLine
 10
88.499995
 20
-38.99982
 30
0.0
 11
88.11478499999999
 21
-38.99982
 31
0.0
  0
LINE
  5
11D
330
1D
100
AcDbEntity
  8
0
  6
Continuous
100
AcDbLine
 10
87.72963500000001
 20
-38.99982
 30
0.0
 11
88.499995
 21
-38.99982
 31
0.0
  0
LINE
  5
11E
330
1D
100
AcDbEntity
  8
0
  6
Continuous
100
AcDbLine
 10
86.52984999999999
 20
-38.99982
 30
0.0
 11
87.72963500000001
 21
-38.99982
 31
0.0
  0
LINE
  5
11F
330
1D
100
AcDbEntity
  8
0
  6
Continuous
100
AcDbLine
 10
-128.46576
 20
-16.89976
 30
0.0
 11
-128.46576
 21
-33.39976
 31
0.0
  0
LINE
  5
120
330
1D
100
AcDbEntity
  8
0
  6
Continuous
100
AcDbLine
 10
128.46576
 20
-33.39976
 30
0.0
 11
128.46576
 21
-16.89976
 31
0.0
  0
LINE
  5
121
330
1D
100
AcDbEntity
  8
0
  6
Continuous
100
AcDbLine
 10
128.46575
 20
-34.89976
 30
0.0
 11
128.46576
 21
-33.39976
 31
0.0
  0
LINE
  5
122
330
1D
100
AcDbEntity
  8
0
  6
Continuous
100
AcDbLine
 10
127.70455
 20
-34.89976
 30
0.0
 11
128.46575
 21
-34.89976
 31
0.0
  0
LINE
  5
123
330
1D
100
AcDbEntity
  8
0
  6
Continuous
100
AcDbLine
 10
128.46576
 20
-16.89976
 30
0.0
 11
128.46576
 21
-15.39976
 31
0.0
  0
LINE
  5
124
330
1D
100
AcDbEntity
  8
0
  6
Continuous
100
AcDbLine
 10
128.46576
 20
-15.39976
 30
0.0
 11
127.70455
 21
-15.39976
 31
0.0
  0
LINE
  5
125
330
1D
100
AcDbEntity
  8
0
  6
Continuous
100
AcDbLine
 10
125.53682
 20
-34.89976
 30
0.0
 11
127.70455
 21
-34.89976
 31
0.0
  0
LINE
  5
126
330
1D
100
AcDbEntity
  8
0
  6
Continuous
100
AcDbLine
 10
127.70455
 20
-15.39976
 30
0.0
 11
125.53682
 21
-15.39976
 31
0.0
  0
LINE
  5
127
330
1D
100
AcDbEntity
  8
0
  6
Continuous
100
AcDbLine
 10
122.29259
 20
-34.89976
 30
0.0
 11
125.53682
 21
-34.89976
 31
0.0
  0
LINE
  5
128
330
1D
100
AcDbEntity
  8
0
  6
Continuous
100
AcDbLine
 10
125.53682
 20
-15.39976
 30
0.0
 11
122.29259
 21
-15.39976
 31
0.0
  0
LINE
  5
129
330
1D
100
AcDbEntity
  8
0
  6
Continuous
100
AcDbLine
 10
118.46576
 20
-34.89976
 30
0.0
 11
122.29259
 21
-34.89976
 31
0.0
  0
LINE
  5
12A
330
1D
100
AcDbEntity
  8
0
  6
Continuous
100
AcDbLine
 10
122.29259
 20
-15.39976
 30
0.0
 11
118.46576
 21
-15.39976
 31
0.0
  0
LINE
  5
12B
330
1D
100
AcDbEntity
  8
0
  6
Continuous
100
AcDbLine
 10
-122.29259
 20
-34.89976
 30
0.0
 11
-118.46576
 21
-34.89976
 31
0.0
  0
LINE
  5
12C
330
1D
100
AcDbEntity
  8
0
  6
Continuous
100
AcDbLine
 10
-118.46576
 20
-15.39976
 30
0.0
 11
-122.29259
 21
-15.39976
 31
0.0
  0
LINE
  5
12D
330
1D
100
AcDbEntity
  8
0
  6
Continuous
100
AcDbLine
 10
-125.53682
 20
-34.89976
 30
0.0
 11
-122.29259
 21
-34.89976
 31
0.0
  0
LINE
  5
12E
330
1D
100
AcDbEntity
  8
0
  6
Continuous
100
AcDbLine
 10
-122.29259
 20
-15.39976
 30
0.0
 11
-125.53682
 21
-15.39976
 31
0.0
  0
LINE
  5
12F
330
1D
100
AcDbEntity
  8
0
  6
Continuous
100
AcDbLine
 10
-127.70455
 20
-34.89976
 30
0.0
 11
-125.53682
 21
-34.89976
 31
0.0
  0
LINE
  5
130
330
1D
100
AcDbEntity
  8
0
  6
Continuous
100
AcDbLine
 10
-125.53682
 20
-15.39976
 30
0.0
 11
-127.70455
 21
-15.39976
 31
0.0
  0
LINE
  5
131
330
1D
100
AcDbEntity
  8
0
  6
Continuous
100
AcDbLine
 10
-128.46576
 20
-33.39976
 30
0.0
 11
-128.46576
 21
-34.89976
 31
0.0
  0
LINE
  5
132
330
1D
100
AcDbEntity
  8
0
  6
Continuous
100
AcDbLine
 10
-128.46576
 20
-34.89976
 30
0.0
 11
-127.70455
 21
-34.89976
 31
0.0
  0
LINE
  5
133
330
1D
100
AcDbEntity
  8
0
  6
Continuous
100
AcDbLine
 10
-128.46575
 20
-15.39976
 30
0.0
 11
-128.46576
 21
-16.89976
 31
0.0
  0
LINE
  5
134
330
1D
100
AcDbEntity
  8
0
  6
Continuous
100
AcDbLine
 10
-127.70455
 20
-15.39976
 30
0.0
 11
-128.46575
 21
-15.39976
 31
0.0
  0
LINE
  5
135
330
1D
100
AcDbEntity
  8
0
  6
Continuous
100
AcDbLine
 10
-118.46576
 20
-34.89976
 30
0.0
 11
118.46576
 21
-34.89976
 31
0.0
  0
LINE
  5
136
330
1D
100
AcDbEntity
  8
0
  6
Continuous
100
AcDbLine
 10
118.46576
 20
-15.39976
 30
0.0
 11
-118.46576
 21
-15.39976
 31
0.0
  0
LINE
  5
137
330
1D
100
AcDbEntity
  8
0
  6
Continuous
100
AcDbLine
 10
14.53595
 20
20.53202
 30
0.0
 11
14.43789
 21
20.53924
 31
0.0
  0
LINE
  5
138
330
1D
100
AcDbEntity
  8
0
  6
Continuous
100
AcDbLine
 10
50.750239
 20
10.33121
 30
0.0
 11
43.41358999999999
 21
16.40316
 31
0.0
  0
LINE
  5
139
330
1D
100
AcDbEntity
  8
0
  6
Continuous
100
AcDbLine
 10
43.41358999999999
 20
16.40316
 30
0.0
 11
28.79695
 21
18.9496
 31
0.0
  0
LINE
  5
13A
330
1D
100
AcDbEntity
  8
0
  6
Continuous
100
AcDbLine
 10
104.93094
 20
-8.8695
 30
0.0
 11
85.13285999999999
 21
-4.61479
 31
0.0
  0
LINE
  5
13B
330
1D
100
AcDbEntity
  8
0
  6
Continuous
100
AcDbLine
 10
126.40001
 20
-13.58752
 30
0.0
 11
124.42302
 21
-13.25233
 31
0.0
  0
LINE
  5
13C
330
1D
100
AcDbEntity
  8
0
  6
Continuous
100
AcDbLine
 10
124.43868
 20
-13.16155
 30
0.0
 11
104.72154
 21
-8.80423
 31
0.0
  0
LINE
  5
13D
330
1D
100
AcDbEntity
  8
0
  6
Continuous
100
AcDbLine
 10
104.72154
 20
-8.80423
 30
0.0
 11
84.74315999999999
 21
-4.56052
 31
0.0
  0
LINE
  5
13E
330
1D
100
AcDbEntity
  8
0
  6
Continuous
100
AcDbLine
 10
14.43789
 20
20.53924
 30
0.0
 11
0.0
 21
21.05424
 31
0.0
  0
LINE
  5
13F
330
1D
100
AcDbEntity
  8
0
  6
Continuous
100
AcDbLine
 10
33.54286
 20
-13.58752
 30
0.0
 11
50.31429
 21
-13.58752
 31
0.0
  0
LINE
  5
140
330
1D
100
AcDbEntity
  8
0
  6
Continuous
100
AcDbLine
 10
108.63285
 20
-13.58752
 30
0.0
 11
120.35579
 21
-13.58752
 31
0.0
  0
LINE
  5
141
330
1D
100
AcDbEntity
  8
0
  6
Continuous
100
AcDbLine
 10
121.00414
 20
-13.58752
 30
0.0
 11
108.63285
 21
-13.58752
 31
0.0
  0
LINE
  5
142
330
1D
100
AcDbEntity
  8
0
  6
Continuous
100
AcDbLine
 10
126.40001
 20
-15.58752
 30
0.0
 11
126.40001
 21
-13.58752
 31
0.0
  0
LINE
  5
143
330
1D
100
AcDbEntity
  8
0
  6
Continuous
100
AcDbLine
 10
124.04055
 20
-13.58752
 30
0.0
 11
125.96817
 21
-13.58752
 31
0.0
  0
LINE
  5
144
330
1D
100
AcDbEntity
  8
0
  6
Continuous
100
AcDbLine
 10
125.96817
 20
-13.58752
 30
0.0
 11
126.40001
 21
-13.58752
 31
0.0
  0
LINE
  5
145
330
1D
100
AcDbEntity
  8
0
  6
Continuous
100
AcDbLine
 10
125.96817
 20
-13.58752
 30
0.0
 11
124.1423
 21
-13.58752
 31
0.0
  0
LINE
  5
146
330
1D
100
AcDbEntity
  8
0
  6
Continuous
100
AcDbLine
 10
50.31429
 20
-13.58752
 30
0.0
 11
67.08572
 21
-13.58752
 31
0.0
  0
LINE
  5
147
330
1D
100
AcDbEntity
  8
0
  6
Continuous
100
AcDbLine
 10
16.77143
 20
-13.58752
 30
0.0
 11
0.0
 21
-13.58752
 31
0.0
  0
LINE
  5
148
330
1D
100
AcDbEntity
  8
0
  6
Continuous
100
AcDbLine
 10
33.54286
 20
-13.58752
 30
0.0
 11
16.77143
 21
-13.58752
 31
0.0
  0
LINE
  5
149
330
1D
100
AcDbEntity
  8
0
  6
Continuous
100
AcDbLine
 10
124.1423
 20
-13.58752
 30
0.0
 11
121.00414
 21
-13.58752
 31
0.0
  0
LINE
  5
14A
330
1D
100
AcDbEntity
  8
0
  6
Continuous
100
AcDbLine
 10
126.40001
 20
-13.58752
 30
0.0
 11
124.43551
 21
-13.17639
 31
0.0
  0
LINE
  5
14B
330
1D
100
AcDbEntity
  8
0
  6
Continuous
100
AcDbLine
 10
126.40001
 20
-13.58752
 30
0.0
 11
124.42589
 21
-13.22542
 31
0.0
  0
LINE
  5
14C
330
1D
100
AcDbEntity
  8
0
  6
Continuous
100
AcDbLine
 10
120.35579
 20
-13.58752
 30
0.0
 11
124.04055
 21
-13.58752
 31
0.0
  0
LINE
  5
14D
330
1D
100
AcDbEntity
  8
0
  6
Continuous
100
AcDbLine
 10
-14.53643
 20
20.53202
 30
0.0
 11
-28.926917
 21
18.985832
 31
0.0
  0
LINE
  5
14E
330
1D
100
AcDbEntity
  8
0
  6
Continuous
100
AcDbLine
 10
108.63285
 20
-13.58752
 30
0.0
 11
87.86265
 21
-13.58752
 31
0.0
  0
LINE
  5
14F
330
1D
100
AcDbEntity
  8
0
  6
Continuous
100
AcDbLine
 10
-43.41358999999999
 20
16.40316
 30
0.0
 11
-50.750239
 21
10.33121
 31
0.0
  0
LINE
  5
150
330
1D
100
AcDbEntity
  8
0
  6
Continuous
100
AcDbLine
 10
-28.79695
 20
18.9496
 30
0.0
 11
-43.41358999999999
 21
16.40316
 31
0.0
  0
LINE
  5
151
330
1D
100
AcDbEntity
  8
0
  6
Continuous
100
AcDbLine
 10
-85.10792999999999
 20
-4.60846
 30
0.0
 11
-104.93094
 21
-8.8695
 31
0.0
  0
LINE
  5
152
330
1D
100
AcDbEntity
  8
0
  6
Continuous
100
AcDbLine
 10
-124.42269
 20
-13.25533
 30
0.0
 11
-126.40001
 21
-13.58752
 31
0.0
  0
LINE
  5
153
330
1D
100
AcDbEntity
  8
0
  6
Continuous
100
AcDbLine
 10
-104.70352
 20
-8.800509999999999
 30
0.0
 11
-124.43868
 21
-13.16155
 31
0.0
  0
LINE
  5
154
330
1D
100
AcDbEntity
  8
0
  6
Continuous
100
AcDbLine
 10
-84.66056
 20
-4.54025
 30
0.0
 11
-104.70352
 21
-8.800509999999999
 31
0.0
  0
LINE
  5
155
330
1D
100
AcDbEntity
  8
0
  6
Continuous
100
AcDbLine
 10
0.0
 20
21.05424
 30
0.0
 11
-14.53643
 21
20.53202
 31
0.0
  0
LINE
  5
156
330
1D
100
AcDbEntity
  8
0
  6
Continuous
100
AcDbLine
 10
-50.31429
 20
-13.58752
 30
0.0
 11
-33.54286
 21
-13.58752
 31
0.0
  0
LINE
  5
157
330
1D
100
AcDbEntity
  8
0
  6
Continuous
100
AcDbLine
 10
-117.40002
 20
-13.58752
 30
0.0
 11
-121.00414
 21
-13.58752
 31
0.0
  0
LINE
  5
158
330
1D
100
AcDbEntity
  8
0
  6
Continuous
100
AcDbLine
 10
-126.40001
 20
-13.58752
 30
0.0
 11
-126.40001
 21
-15.58752
 31
0.0
  0
LINE
  5
159
330
1D
100
AcDbEntity
  8
0
  6
Continuous
100
AcDbLine
 10
-126.40001
 20
-13.58752
 30
0.0
 11
-125.96817
 21
-13.58752
 31
0.0
  0
LINE
  5
15A
330
1D
100
AcDbEntity
  8
0
  6
Continuous
100
AcDbLine
 10
-125.96817
 20
-13.58752
 30
0.0
 11
-124.04055
 21
-13.58752
 31
0.0
  0
LINE
  5
15B
330
1D
100
AcDbEntity
  8
0
  6
Continuous
100
AcDbLine
 10
-124.1423
 20
-13.58752
 30
0.0
 11
-125.96817
 21
-13.58752
 31
0.0
  0
LINE
  5
15C
330
1D
100
AcDbEntity
  8
0
  6
Continuous
100
AcDbLine
 10
-67.08572
 20
-13.58752
 30
0.0
 11
-50.31429
 21
-13.58752
 31
0.0
  0
LINE
  5
15D
330
1D
100
AcDbEntity
  8
0
  6
Continuous
100
AcDbLine
 10
-117.28085
 20
-13.58752
 30
0.0
 11
-92.24287
 21
-13.58752
 31
0.0
  0
LINE
  5
15E
330
1D
100
AcDbEntity
  8
0
  6
Continuous
100
AcDbLine
 10
0.0
 20
-13.58752
 30
0.0
 11
-16.77143
 21
-13.58752
 31
0.0
  0
LINE
  5
15F
330
1D
100
AcDbEntity
  8
0
  6
Continuous
100
AcDbLine
 10
-16.77143
 20
-13.58752
 30
0.0
 11
-33.54286
 21
-13.58752
 31
0.0
  0
LINE
  5
160
330
1D
100
AcDbEntity
  8
0
  6
Continuous
100
AcDbLine
 10
-121.00414
 20
-13.58752
 30
0.0
 11
-124.1423
 21
-13.58752
 31
0.0
  0
LINE
  5
161
330
1D
100
AcDbEntity
  8
0
  6
Continuous
100
AcDbLine
 10
-124.43551
 20
-13.17639
 30
0.0
 11
-126.40001
 21
-13.58752
 31
0.0
  0
LINE
  5
162
330
1D
100
AcDbEntity
  8
0
  6
Continuous
100
AcDbLine
 10
-124.42589
 20
-13.22542
 30
0.0
 11
-126.40001
 21
-13.58752
 31
0.0
  0
LINE
  5
163
330
1D
100
AcDbEntity
  8
0
  6
Continuous
100
AcDbLine
 10
-124.04055
 20
-13.58752
 30
0.0
 11
-120.35579
 21
-13.58752
 31
0.0
  0
LINE
  5
164
330
1D
100
AcDbEntity
  8
0
  6
Continuous
100
AcDbLine
 10
-120.35579
 20
-13.58752
 30
0.0
 11
-117.28085
 21
-13.58752
 31
0.0
  0
LINE
  5
165
330
1D
100
AcDbEntity
  8
0
  6
Continuous
100
AcDbLine
 10
-92.24287
 20
-13.58752
 30
0.0
 11
-117.40002
 21
-13.58752
 31
0.0
  0
LINE
  5
166
330
1D
100
AcDbEntity
  8
0
  6
Continuous
100
AcDbLine
 10
-67.08572
 20
-13.58752
 30
0.0
 11
-92.24287
 21
-13.58752
 31
0.0
  0
LINE
  5
167
330
1D
100
AcDbEntity
  8
0
  6
Continuous
100
AcDbLine
 10
87.86265
 20
-13.58752
 30
0.0
 11
67.08572
 21
-13.58752
 31
0.0
  0
LINE
  5
168
330
1D
100
AcDbEntity
  8
0
  6
Continuous
100
AcDbLine
 10
-127.42034
 20
-79.98782
 30
0.0
 11
127.42034
 21
-79.98781
 31
0.0
  0
LINE
  5
169
330
1D
100
AcDbEntity
  8
0
  6
Continuous
100
AcDbLine
 10
127.42034
 20
79.98782
 30
0.0
 11
-127.42034
 21
79.98781
 31
0.0
  0
LINE
  5
16A
330
1D
100
AcDbEntity
  8
0
  6
Continuous
100
AcDbLine
 10
127.42034
 20
79.98782
 30
0.0
 11
-127.42034
 21
79.98782
 31
0.0
  0
LINE
  5
16B
330
1D
100
AcDbEntity
  8
0
  6
Continuous
100
AcDbLine
 10
-129.0
 20
78.40816
 30
0.0
 11
-129.0
 21
-78.40816
 31
0.0
  0
LINE
  5
16C
330
1D
100
AcDbEntity
  8
0
  6
Continuous
100
AcDbLine
 10
129.0
 20
-78.40816
 30
0.0
 11
129.0
 21
78.40816
 31
0.0
  0
LINE
  5
16D
330
1D
100
AcDbEntity
  8
0
  6
Continuous
100
AcDbLine
 10
129.0
 20
79.98782
 30
0.0
 11
127.42034
 21
79.98782
 31
0.0
  0
LINE
  5
16E
330
1D
100
AcDbEntity
  8
0
  6
Continuous
100
AcDbLine
 10
129.0
 20
79.98782
 30
0.0
 11
127.42034
 21
79.98782
 31
0.0
  0
LINE
  5
16F
330
1D
100
AcDbEntity
  8
0
  6
Continuous
100
AcDbLine
 10
129.0
 20
78.40816
 30
0.0
 11
129.0
 21
79.98782
 31
0.0
  0
LINE
  5
170
330
1D
100
AcDbEntity
  8
0
  6
Continuous
100
AcDbLine
 10
129.0
 20
-79.98781
 30
0.0
 11
129.0
 21
-78.40816
 31
0.0
  0
LINE
  5
171
330
1D
100
AcDbEntity
  8
0
  6
Continuous
100
AcDbLine
 10
127.42034
 20
-79.98781
 30
0.0
 11
129.0
 21
-79.98781
 31
0.0
  0
LINE
  5
172
330
1D
100
AcDbEntity
  8
0
  6
Continuous
100
AcDbLine
 10
-129.0
 20
79.98782
 30
0.0
 11
-127.42034
 21
79.98781
 31
0.0
  0
LINE
  5
173
330
1D
100
AcDbEntity
  8
0
  6
Continuous
100
AcDbLine
 10
-127.42034
 20
79.98782
 30
0.0
 11
-129.0
 21
79.98782
 31
0.0
  0
LINE
  5
174
330
1D
100
AcDbEntity
  8
0
  6
Continuous
100
AcDbLine
 10
-129.0
 20
79.98781
 30
0.0
 11
-129.0
 21
78.40816
 31
0.0
  0
LINE
  5
175
330
1D
100
AcDbEntity
  8
0
  6
Continuous
100
AcDbLine
 10
-127.42034
 20
79.98781
 30
0.0
 11
-129.0
 21
79.98781
 31
0.0
  0
LINE
  5
176
330
1D
100
AcDbEntity
  8
0
  6
Continuous
100
AcDbLine
 10
-129.0
 20
-79.98782
 30
0.0
 11
-127.42034
 21
-79.98782
 31
0.0
  0
LINE
  5
177
330
1D
100
AcDbEntity
  8
0
  6
Continuous
100
AcDbLine
 10
-129.0
 20
-78.40816
 30
0.0
 11
-129.0
 21
-79.98782
 31
0.0
  0
LINE
  5
178
330
1D
100
AcDbEntity
  8
0
  6
Continuous
100
AcDbLine
 10
-105.00031
 20
-38.99982
 30
0.0
 11
-102.40223
 21
-38.99982
 31
0.0
  0
LINE
  5
179
330
1D
100
AcDbEntity
  8
0
  6
Continuous
100
AcDbLine
 10
-63.0154
 20
-34.99974
 30
0.0
 11
-60.41731999999999
 21
-34.99974
 31
0.0
  0
LINE
  5
17A
330
1D
100
AcDbEntity
  8
0
  6
Continuous
100
AcDbLine
 10
-63.0154
 20
-38.99982
 30
0.0
 11
-60.41731999999999
 21
-38.99982
 31
0.0
  0
LINE
  5
17B
330
1D
100
AcDbEntity
  8
0
  6
Continuous
100
AcDbLine
 10
-21.03049
 20
-34.99974
 30
0.0
 11
-18.43242
 21
-34.99974
 31
0.0
  0
LINE
  5
17C
330
1D
100
AcDbEntity
  8
0
  6
Continuous
100
AcDbLine
 10
-21.03049
 20
-38.99982
 30
0.0
 11
-18.43242
 21
-38.99982
 31
0.0
  0
LINE
  5
17D
330
1D
100
AcDbEntity
  8
0
  6
Continuous
100
AcDbLine
 10
62.93932
 20
-34.99974
 30
0.0
 11
65.53740000000001
 21
-34.99974
 31
0.0
  0
LINE
  5
17E
330
1D
100
AcDbEntity
  8
0
  6
Continuous
100
AcDbLine
 10
62.93932
 20
-38.99982
 30
0.0
 11
65.53740000000001
 21
-38.99982
 31
0.0
  0
LINE
  5
17F
330
1D
100
AcDbEntity
  8
0
  6
Continuous
100
AcDbLine
 10
20.95441
 20
-34.99974
 30
0.0
 11
23.55248
 21
-34.99974
 31
0.0
  0
LINE
  5
180
330
1D
100
AcDbEntity
  8
0
  6
Continuous
100
AcDbLine
 10
20.95441
 20
-38.99982
 30
0.0
 11
23.55248
 21
-38.99982
 31
0.0
  0
LINE
  5
181
330
1D
100
AcDbEntity
  8
0
  6
Continuous
100
AcDbLine
 10
83.93176999999999
 20
-34.99974
 30
0.0
 11
86.52984999999999
 21
-34.99974
 31
0.0
  0
LINE
  5
182
330
1D
100
AcDbEntity
  8
0
  6
Continuous
100
AcDbLine
 10
83.93176999999999
 20
-38.99982
 30
0.0
 11
86.52984999999999
 21
-38.99982
 31
0.0
  0
LINE
  5
183
330
1D
100
AcDbEntity
  8
0
  6
Continuous
100
AcDbLine
 10
-42.02294
 20
-34.99974
 30
0.0
 11
-39.42487
 21
-34.99974
 31
0.0
  0
LINE
  5
184
330
1D
100
AcDbEntity
  8
0
  6
Continuous
100
AcDbLine
 10
-42.02294
 20
-38.99982
 30
0.0
 11
-39.42487
 21
-38.99982
 31
0.0
  0
LINE
  5
185
330
1D
100
AcDbEntity
  8
0
  6
Continuous
100
AcDbLine
 10
104.92422
 20
-34.99974
 30
0.0
 11
107.5223
 21
-34.99974
 31
0.0
  0
LINE
  5
186
330
1D
100
AcDbEntity
  8
0
  6
Continuous
100
AcDbLine
 10
104.92422
 20
-38.99982
 30
0.0
 11
107.5223
 21
-38.99982
 31
0.0
  0
LINE
  5
187
330
1D
100
AcDbEntity
  8
0
  6
Continuous
100
AcDbLine
 10
-84.00785
 20
-34.99974
 30
0.0
 11
-81.40978
 21
-34.99974
 31
0.0
  0
LINE
  5
188
330
1D
100
AcDbEntity
  8
0
  6
Continuous
100
AcDbLine
 10
-84.00785
 20
-38.99982
 30
0.0
 11
-81.40978
 21
-38.99982
 31
0.0
  0
LINE
  5
189
330
1D
100
AcDbEntity
  8
0
  6
Continuous
100
AcDbLine
 10
-0.03804
 20
-34.99974
 30
0.0
 11
2.560029999999999
 21
-34.99974
 31
0.0
  0
LINE
  5
18A
330
1D
100
AcDbEntity
  8
0
  6
Continuous
100
AcDbLine
 10
-0.03804
 20
-38.99982
 30
0.0
 11
2.560029999999999
 21
-38.99982
 31
0.0
  0
LINE
  5
18B
330
1D
100
AcDbEntity
  8
0
  6
Continuous
100
AcDbLine
 10
25.91224
 20
-38.99982
 30
0.0
 11
28.51031
 21
-38.99982
 31
0.0
  0
LINE
  5
18C
330
1D
100
AcDbEntity
  8
0
  6
Continuous
100
AcDbLine
 10
41.94685999999999
 20
-34.99974
 30
0.0
 11
44.54493999999999
 21
-34.99974
 31
0.0
  0
LINE
  5
18D
330
1D
100
AcDbEntity
  8
0
  6
Continuous
100
AcDbLine
 10
41.94685999999999
 20
-38.99982
 30
0.0
 11
44.54493999999999
 21
-38.99982
 31
0.0
  0
LINE
  5
18E
330
1D
100
AcDbEntity
  8
0
  6
Continuous
100
AcDbLine
 10
-25.96947
 20
-38.99982
 30
0.0
 11
-23.62857
 21
-38.99982
 31
0.0
  0
LINE
  5
18F
330
1D
100
AcDbEntity
  8
0
  6
Continuous
100
AcDbLine
 10
15.42398
 20
-34.99974
 30
0.0
 11
15.99998
 21
-34.99974
 31
0.0
  0
LINE
  5
190
330
1D
100
AcDbEntity
  8
0
  6
Continuous
100
AcDbLine
 10
13.88798
 20
-34.99974
 30
0.0
 11
15.42398
 21
-34.99974
 31
0.0
  0
LINE
  5
191
330
1D
100
AcDbEntity
  8
0
  6
Continuous
100
AcDbLine
 10
-15.42402
 20
-34.99974
 30
0.0
 11
-16.00002
 21
-34.99974
 31
0.0
  0
LINE
  5
192
330
1D
100
AcDbEntity
  8
0
  6
Continuous
100
AcDbLine
 10
-7.93602
 20
-38.99982
 30
0.0
 11
-4.09602
 21
-38.99982
 31
0.0
  0
LINE
  5
193
330
1D
100
AcDbEntity
  8
0
  6
Continuous
100
AcDbLine
 10
11.32798
 20
-38.99982
 30
0.0
 11
13.88798
 21
-38.99982
 31
0.0
  0
LINE
  5
194
330
1D
100
AcDbEntity
  8
0
  6
Continuous
100
AcDbLine
 10
-11.32802
 20
-38.99982
 30
0.0
 11
-7.93602
 21
-38.99982
 31
0.0
  0
LINE
  5
195
330
1D
100
AcDbEntity
  8
0
  6
Continuous
100
AcDbLine
 10
13.88798
 20
-38.99982
 30
0.0
 11
15.42398
 21
-38.99982
 31
0.0
  0
LINE
  5
196
330
1D
100
AcDbEntity
  8
0
  6
Continuous
100
AcDbLine
 10
-13.88802
 20
-38.99982
 30
0.0
 11
-15.42402
 21
-38.99982
 31
0.0
  0
LINE
  5
197
330
1D
100
AcDbEntity
  8
0
  6
Continuous
100
AcDbLine
 10
7.935979999999999
 20
-38.99982
 30
0.0
 11
11.32798
 21
-38.99982
 31
0.0
  0
LINE
  5
198
330
1D
100
AcDbEntity
  8
0
  6
Continuous
100
AcDbLine
 10
-11.32802
 20
-38.99982
 30
0.0
 11
-13.88802
 21
-38.99982
 31
0.0
  0
LINE
  5
199
330
1D
100
AcDbEntity
  8
0
  6
Continuous
100
AcDbLine
 10
4.095979999999999
 20
-38.99982
 30
0.0
 11
7.935979999999999
 21
-38.99982
 31
0.0
  0
LINE
  5
299
330
1D
100
AcDbEntity
  8
0
  6
Continuous
100
AcDbLine
 10
127.70455
 20
468.8738693194766
 30
0.0
 11
128.46576
 21
472.7006993194766
 31
0.0
  0
LINE
  5
29A
330
1D
100
AcDbEntity
  8
0
  6
Continuous
100
AcDbLine
 10
125.53682
 20
465.6296193194767
 30
0.0
 11
127.70455
 21
468.8738693194766
 31
0.0
  0
LINE
  5
29B
330
1D
100
AcDbEntity
  8
0
  6
Continuous
100
AcDbLine
 10
122.29259
 20
463.4619193194766
 30
0.0
 11
125.53682
 21
465.6296193194767
 31
0.0
  0
LINE
  5
29C
330
1D
100
AcDbEntity
  8
0
  6
Continuous
100
AcDbLine
 10
118.46576
 20
462.7006593194766
 30
0.0
 11
122.29259
 21
463.4619193194766
 31
0.0
  0
LINE
  5
29D
330
1D
100
AcDbEntity
  8
0
  6
Continuous
100
AcDbLine
 10
-122.29259
 20
463.4619193194766
 30
0.0
 11
-118.46576
 21
462.7006593194766
 31
0.0
  0
LINE
  5
29E
330
1D
100
AcDbEntity
  8
0
  6
Continuous
100
AcDbLine
 10
-125.53682
 20
465.6296193194767
 30
0.0
 11
-122.29259
 21
463.4619193194766
 31
0.0
  0
LINE
  5
29F
330
1D
100
AcDbEntity
  8
0
  6
Continuous
100
AcDbLine
 10
-127.70455
 20
468.8738693194766
 30
0.0
 11
-125.53682
 21
465.6296193194767
 31
0.0
  0
LINE
  5
2A0
330
1D
100
AcDbEntity
  8
0
  6
Continuous
100
AcDbLine
 10
-127.70455
 20
468.8738693194766
 30
0.0
 11
-128.46575
 21
472.7006993194766
 31
0.0
  0
LINE
  5
2A1
330
1D
100
AcDbEntity
  8
0
  6
Continuous
100
AcDbLine
 10
-128.46575
 20
472.7006993194766
 30
0.0
 11
-128.46576
 21
1041.724779319476
 31
0.0
  0
LINE
  5
2A2
330
1D
100
AcDbEntity
  8
0
  6
Continuous
100
AcDbLine
 10
-118.46576
 20
462.7006593194766
 30
0.0
 11
118.46576
 21
462.7006593194766
 31
0.0
  0
LINE
  5
2A3
330
1D
100
AcDbEntity
  8
0
  6
Continuous
100
AcDbLine
 10
128.46576
 20
472.7006993194766
 30
0.0
 11
128.46576
 21
1041.724779319476
 31
0.0
  0
LINE
  5
2A4
330
1D
100
AcDbEntity
  8
0
  6
Continuous
100
AcDbLine
 10
126.40001
 20
473.7665593194766
 30
0.0
 11
126.40001
 21
634.7973693194766
 31
0.0
  0
LINE
  5
2A5
330
1D
100
AcDbEntity
  8
0
  6
Continuous
100
AcDbLine
 10
33.54285999999999
 20
464.7665393194766
 30
0.0
 11
50.31429
 21
464.7665393194766
 31
0.0
  0
LINE
  5
2A6
330
1D
100
AcDbEntity
  8
0
  6
Continuous
100
AcDbLine
 10
108.63285
 20
464.5163793194766
 30
0.0
 11
121.00414
 21
465.1980293194766
 31
0.0
  0
LINE
  5
2A7
330
1D
100
AcDbEntity
  8
0
  6
Continuous
100
AcDbLine
 10
125.96817
 20
470.1609793194767
 30
0.0
 11
126.40001
 21
473.7665593194766
 31
0.0
  0
LINE
  5
2A8
330
1D
100
AcDbEntity
  8
0
  6
Continuous
100
AcDbLine
 10
124.1423
 20
467.0240393194766
 30
0.0
 11
125.96817
 21
470.1609793194767
 31
0.0
  0
LINE
  5
2A9
330
1D
100
AcDbEntity
  8
0
  6
Continuous
100
AcDbLine
 10
50.31429
 20
464.7665393194766
 30
0.0
 11
67.08571999999998
 21
464.7665393194766
 31
0.0
  0
LINE
  5
2AA
330
1D
100
AcDbEntity
  8
0
  6
Continuous
100
AcDbLine
 10
16.77143000000001
 20
464.7665393194766
 30
0.0
 11
0.0
 21
464.7665793194766
 31
0.0
  0
LINE
  5
2AB
330
1D
100
AcDbEntity
  8
0
  6
Continuous
100
AcDbLine
 10
16.77143000000001
 20
464.7665393194766
 30
0.0
 11
33.54285999999999
 21
464.7665393194766
 31
0.0
  0
LINE
  5
2AC
330
1D
100
AcDbEntity
  8
0
  6
Continuous
100
AcDbLine
 10
124.1423
 20
467.0240393194766
 30
0.0
 11
121.00414
 21
465.1980293194766
 31
0.0
  0
LINE
  5
2AD
330
1D
100
AcDbEntity
  8
0
  6
Continuous
100
AcDbLine
 10
126.40001
 20
709.7268693194767
 30
0.0
 11
126.40001
 21
1041.724779319476
 31
0.0
  0
LINE
  5
2AE
330
1D
100
AcDbEntity
  8
0
  6
Continuous
100
AcDbLine
 10
126.40002
 20
690.0590893194767
 30
0.0
 11
126.40001
 21
709.7268693194767
 31
0.0
  0
LINE
  5
2AF
330
1D
100
AcDbEntity
  8
0
  6
Continuous
100
AcDbLine
 10
126.40001
 20
650.7234993194766
 30
0.0
 11
126.40002
 21
670.3912793194766
 31
0.0
  0
LINE
  5
2B0
330
1D
100
AcDbEntity
  8
0
  6
Continuous
100
AcDbLine
 10
126.40002
 20
670.3912793194766
 30
0.0
 11
126.40002
 21
690.0590893194767
 31
0.0
  0
LINE
  5
2B1
330
1D
100
AcDbEntity
  8
0
  6
Continuous
100
AcDbLine
 10
126.40001
 20
634.7973693194766
 30
0.0
 11
126.40001
 21
650.7234993194766
 31
0.0
  0
LINE
  5
2B2
330
1D
100
AcDbEntity
  8
0
  6
Continuous
100
AcDbLine
 10
108.63285
 20
464.5163793194766
 30
0.0
 11
87.86265
 21
464.9252393194766
 31
0.0
  0
LINE
  5
2B3
330
1D
100
AcDbEntity
  8
0
  6
Continuous
100
AcDbLine
 10
-126.40001
 20
633.0278093194766
 30
0.0
 11
-126.40001
 21
473.7665593194766
 31
0.0
  0
LINE
  5
2B4
330
1D
100
AcDbEntity
  8
0
  6
Continuous
100
AcDbLine
 10
-50.31429
 20
464.7665393194766
 30
0.0
 11
-33.54285999999999
 21
464.7665393194766
 31
0.0
  0
LINE
  5
2B5
330
1D
100
AcDbEntity
  8
0
  6
Continuous
100
AcDbLine
 10
-117.40002
 20
464.7665093194766
 30
0.0
 11
-121.00414
 21
465.1980293194766
 31
0.0
  0
LINE
  5
2B6
330
1D
100
AcDbEntity
  8
0
  6
Continuous
100
AcDbLine
 10
-126.40001
 20
473.7665593194766
 30
0.0
 11
-125.96817
 21
470.1609793194767
 31
0.0
  0
LINE
  5
2B7
330
1D
100
AcDbEntity
  8
0
  6
Continuous
100
AcDbLine
 10
-125.96817
 20
470.1609793194767
 30
0.0
 11
-124.1423
 21
467.0240393194766
 31
0.0
  0
LINE
  5
2B8
330
1D
100
AcDbEntity
  8
0
  6
Continuous
100
AcDbLine
 10
-67.08572
 20
464.7665393194766
 30
0.0
 11
-50.31429
 21
464.7665393194766
 31
0.0
  0
LINE
  5
2B9
330
1D
100
AcDbEntity
  8
0
  6
Continuous
100
AcDbLine
 10
0.0
 20
464.7665793194766
 30
0.0
 11
-16.77142999999999
 21
464.7665393194766
 31
0.0
  0
LINE
  5
2BA
330
1D
100
AcDbEntity
  8
0
  6
Continuous
100
AcDbLine
 10
-33.54285999999999
 20
464.7665393194766
 30
0.0
 11
-16.77142999999999
 21
464.7665393194766
 31
0.0
  0
LINE
  5
2BB
330
1D
100
AcDbEntity
  8
0
  6
Continuous
100
AcDbLine
 10
-121.00414
 20
465.1980293194766
 30
0.0
 11
-124.1423
 21
467.0240393194766
 31
0.0
  0
LINE
  5
2BC
330
1D
100
AcDbEntity
  8
0
  6
Continuous
100
AcDbLine
 10
-126.40001
 20
1041.724779319476
 30
0.0
 11
-126.40001
 21
709.7268693194767
 31
0.0
  0
LINE
  5
2BD
330
1D
100
AcDbEntity
  8
0
  6
Continuous
100
AcDbLine
 10
-126.40001
 20
709.7268693194767
 30
0.0
 11
-126.40002
 21
690.0590893194767
 31
0.0
  0
LINE
  5
2BE
330
1D
100
AcDbEntity
  8
0
  6
Continuous
100
AcDbLine
 10
-126.40002
 20
670.3912793194766
 30
0.0
 11
-126.40001
 21
650.7234993194766
 31
0.0
  0
LINE
  5
2BF
330
1D
100
AcDbEntity
  8
0
  6
Continuous
100
AcDbLine
 10
-126.40002
 20
690.0590893194767
 30
0.0
 11
-126.40002
 21
670.3912793194766
 31
0.0
  0
LINE
  5
2C0
330
1D
100
AcDbEntity
  8
0
  6
Continuous
100
AcDbLine
 10
-126.40001
 20
650.7234993194766
 30
0.0
 11
-126.40001
 21
633.0278093194766
 31
0.0
  0
LINE
  5
2C1
330
1D
100
AcDbEntity
  8
0
  6
Continuous
100
AcDbLine
 10
-92.24287
 20
464.7665793194766
 30
0.0
 11
-117.40002
 21
464.7665093194766
 31
0.0
  0
LINE
  5
2C2
330
1D
100
AcDbEntity
  8
0
  6
Continuous
100
AcDbLine
 10
-67.08572
 20
464.7665393194766
 30
0.0
 11
-92.24287
 21
464.7665793194766
 31
0.0
  0
LINE
  5
2C3
330
1D
100
AcDbEntity
  8
0
  6
Continuous
100
AcDbLine
 10
87.86265
 20
464.9252393194766
 30
0.0
 11
67.08571999999998
 21
464.7665393194766
 31
0.0
  0
LINE
  5
2C4
330
1D
100
AcDbEntity
  8
0
  6
Continuous
100
AcDbLine
 10
-127.42034
 20
1041.724779319476
 30
0.0
 11
127.42034
 21
1041.724779319476
 31
0.0
  0
LINE
  5
2C5
330
1D
100
AcDbEntity
  8
0
  6
Continuous
100
AcDbLine
 10
-129.0
 20
1048.914509319476
 30
0.0
 11
-129.0
 21
1043.304429319476
 31
0.0
  0
LINE
  5
2C6
330
1D
100
AcDbEntity
  8
0
  6
Continuous
100
AcDbLine
 10
127.42034
 20
1050.494159319476
 30
0.0
 11
-127.42034
 21
1050.494159319476
 31
0.0
  0
LINE
  5
2C7
330
1D
100
AcDbEntity
  8
0
  6
Continuous
100
AcDbLine
 10
129.0
 20
1043.304429319476
 30
0.0
 11
129.0
 21
1048.914509319476
 31
0.0
  0
LINE
  5
2C8
330
1D
100
AcDbEntity
  8
0
  6
Continuous
100
AcDbLine
 10
129.0
 20
1050.494159319476
 30
0.0
 11
127.42034
 21
1050.494159319476
 31
0.0
  0
LINE
  5
2C9
330
1D
100
AcDbEntity
  8
0
  6
Continuous
100
AcDbLine
 10
129.0
 20
1048.914509319476
 30
0.0
 11
129.0
 21
1050.494159319476
 31
0.0
  0
LINE
  5
2CA
330
1D
100
AcDbEntity
  8
0
  6
Continuous
100
AcDbLine
 10
129.0
 20
1041.724779319476
 30
0.0
 11
129.0
 21
1043.304429319476
 31
0.0
  0
LINE
  5
2CB
330
1D
100
AcDbEntity
  8
0
  6
Continuous
100
AcDbLine
 10
127.42034
 20
1041.724779319476
 30
0.0
 11
129.0
 21
1041.724779319476
 31
0.0
  0
LINE
  5
2CC
330
1D
100
AcDbEntity
  8
0
  6
Continuous
100
AcDbLine
 10
-129.0
 20
1050.494159319476
 30
0.0
 11
-129.0
 21
1048.914509319476
 31
0.0
  0
LINE
  5
2CD
330
1D
100
AcDbEntity
  8
0
  6
Continuous
100
AcDbLine
 10
-127.42034
 20
1050.494159319476
 30
0.0
 11
-129.0
 21
1050.494159319476
 31
0.0
  0
LINE
  5
2CE
330
1D
100
AcDbEntity
  8
0
  6
Continuous
100
AcDbLine
 10
-129.0
 20
1041.724779319476
 30
0.0
 11
-127.42034
 21
1041.724779319476
 31
0.0
  0
LINE
  5
2CF
330
1D
100
AcDbEntity
  8
0
  6
Continuous
100
AcDbLine
 10
-129.0
 20
1043.304429319476
 30
0.0
 11
-129.0
 21
1041.724779319476
 31
0.0
  0
LINE
  5
4F1
330
1D
100
AcDbEntity
  8
0
  6
Continuous
100
AcDbLine
 10
660.687554017903
 20
-40.83335
 30
0.0
 11
662.187534017903
 21
-40.83335
 31
0.0
  0
LINE
  5
4F2
330
1D
100
AcDbEntity
  8
0
  6
Continuous
100
AcDbLine
 10
662.187534017903
 20
-40.83335
 30
0.0
 11
662.187534017903
 21
-38.99982
 31
0.0
  0
LINE
  5
4F3
330
1D
100
AcDbEntity
  8
0
  6
Continuous
100
AcDbLine
 10
662.187534017903
 20
-38.99982
 30
0.0
 11
662.187534017903
 21
-34.99974
 31
0.0
  0
LINE
  5
4F4
330
1D
100
AcDbEntity
  8
0
  6
Continuous
100
AcDbLine
 10
662.187534017903
 20
-34.99974
 30
0.0
 11
662.187534017903
 21
-34.89976
 31
0.0
  0
LINE
  5
4F5
330
1D
100
AcDbEntity
  8
0
  6
Continuous
100
AcDbLine
 10
657.6875240179029
 20
-40.83335
 30
0.0
 11
660.687554017903
 21
-40.83335
 31
0.0
  0
LINE
  5
4F6
330
1D
100
AcDbEntity
  8
0
  6
Continuous
100
AcDbLine
 10
660.687554017903
 20
-40.83335
 30
0.0
 11
660.687554017903
 21
-38.99982
 31
0.0
  0
LINE
  5
4F7
330
1D
100
AcDbEntity
  8
0
  6
Continuous
100
AcDbLine
 10
660.687554017903
 20
-38.99982
 30
0.0
 11
660.687554017903
 21
-34.99974
 31
0.0
  0
LINE
  5
4F8
330
1D
100
AcDbEntity
  8
0
  6
Continuous
100
AcDbLine
 10
660.687554017903
 20
-34.99974
 30
0.0
 11
660.687554017903
 21
-34.89976
 31
0.0
  0
LINE
  5
4F9
330
1D
100
AcDbEntity
  8
0
  6
Continuous
100
AcDbLine
 10
656.187544017903
 20
-40.83335
 30
0.0
 11
657.6875240179029
 21
-40.83335
 31
0.0
  0
LINE
  5
4FA
330
1D
100
AcDbEntity
  8
0
  6
Continuous
100
AcDbLine
 10
656.187544017903
 20
-34.89976
 30
0.0
 11
656.187544017903
 21
-40.83335
 31
0.0
  0
LINE
  5
4FB
330
1D
100
AcDbEntity
  8
0
  6
Continuous
100
AcDbLine
 10
657.6875240179029
 20
-40.83335
 30
0.0
 11
657.6875240179029
 21
-38.99982
 31
0.0
  0
LINE
  5
4FC
330
1D
100
AcDbEntity
  8
0
  6
Continuous
100
AcDbLine
 10
657.6875240179029
 20
-38.99982
 30
0.0
 11
657.6875240179029
 21
-34.99974
 31
0.0
  0
LINE
  5
4FD
330
1D
100
AcDbEntity
  8
0
  6
Continuous
100
AcDbLine
 10
657.6875240179029
 20
-34.99974
 30
0.0
 11
657.6875240179029
 21
-34.89976
 31
0.0
  0
LINE
  5
4FE
330
1D
100
AcDbEntity
  8
0
  6
Continuous
100
AcDbLine
 10
681.6875040179029
 20
-40.83335
 30
0.0
 11
683.187474017903
 21
-40.83335
 31
0.0
  0
LINE
  5
4FF
330
1D
100
AcDbEntity
  8
0
  6
Continuous
100
AcDbLine
 10
683.187474017903
 20
-40.83335
 30
0.0
 11
683.187474017903
 21
-38.99982
 31
0.0
  0
LINE
  5
500
330
1D
100
AcDbEntity
  8
0
  6
Continuous
100
AcDbLine
 10
683.187474017903
 20
-38.99982
 30
0.0
 11
683.187474017903
 21
-34.99974
 31
0.0
  0
LINE
  5
501
330
1D
100
AcDbEntity
  8
0
  6
Continuous
100
AcDbLine
 10
683.187474017903
 20
-34.99974
 30
0.0
 11
683.187474017903
 21
-34.89976
 31
0.0
  0
LINE
  5
502
330
1D
100
AcDbEntity
  8
0
  6
Continuous
100
AcDbLine
 10
678.687474017903
 20
-40.83335
 30
0.0
 11
681.6875040179029
 21
-40.83335
 31
0.0
  0
LINE
  5
503
330
1D
100
AcDbEntity
  8
0
  6
Continuous
100
AcDbLine
 10
681.6875040179029
 20
-40.83335
 30
0.0
 11
681.6875040179029
 21
-38.99982
 31
0.0
  0
LINE
  5
504
330
1D
100
AcDbEntity
  8
0
  6
Continuous
100
AcDbLine
 10
681.6875040179029
 20
-38.99982
 30
0.0
 11
681.6875040179029
 21
-34.99974
 31
0.0
  0
LINE
  5
505
330
1D
100
AcDbEntity
  8
0
  6
Continuous
100
AcDbLine
 10
681.6875040179029
 20
-34.99974
 30
0.0
 11
681.6875040179029
 21
-34.89976
 31
0.0
  0
LINE
  5
506
330
1D
100
AcDbEntity
  8
0
  6
Continuous
100
AcDbLine
 10
677.187494017903
 20
-40.83335
 30
0.0
 11
678.687474017903
 21
-40.83335
 31
0.0
  0
LINE
  5
507
330
1D
100
AcDbEntity
  8
0
  6
Continuous
100
AcDbLine
 10
677.187494017903
 20
-34.89976
 30
0.0
 11
677.187494017903
 21
-40.83335
 31
0.0
  0
LINE
  5
508
330
1D
100
AcDbEntity
  8
0
  6
Continuous
100
AcDbLine
 10
678.687474017903
 20
-40.83335
 30
0.0
 11
678.687474017903
 21
-38.99982
 31
0.0
  0
LINE
  5
509
330
1D
100
AcDbEntity
  8
0
  6
Continuous
100
AcDbLine
 10
678.687474017903
 20
-38.99982
 30
0.0
 11
678.687474017903
 21
-34.99974
 31
0.0
  0
LINE
  5
50A
330
1D
100
AcDbEntity
  8
0
  6
Continuous
100
AcDbLine
 10
678.687474017903
 20
-34.99974
 30
0.0
 11
678.687474017903
 21
-34.89976
 31
0.0
  0
LINE
  5
50B
330
1D
100
AcDbEntity
  8
0
  6
Continuous
100
AcDbLine
 10
702.6874440179029
 20
-40.83335
 30
0.0
 11
704.187424017903
 21
-40.83335
 31
0.0
  0
LINE
  5
50C
330
1D
100
AcDbEntity
  8
0
  6
Continuous
100
AcDbLine
 10
704.187424017903
 20
-40.83335
 30
0.0
 11
704.187424017903
 21
-38.99982
 31
0.0
  0
LINE
  5
50D
330
1D
100
AcDbEntity
  8
0
  6
Continuous
100
AcDbLine
 10
704.187424017903
 20
-38.99982
 30
0.0
 11
704.187424017903
 21
-34.99974
 31
0.0
  0
LINE
  5
50E
330
1D
100
AcDbEntity
  8
0
  6
Continuous
100
AcDbLine
 10
704.187424017903
 20
-34.99974
 30
0.0
 11
704.187424017903
 21
-34.89976
 31
0.0
  0
LINE
  5
50F
330
1D
100
AcDbEntity
  8
0
  6
Continuous
100
AcDbLine
 10
699.6874140179029
 20
-40.83335
 30
0.0
 11
702.6874440179029
 21
-40.83335
 31
0.0
  0
LINE
  5
510
330
1D
100
AcDbEntity
  8
0
  6
Continuous
100
AcDbLine
 10
702.6874440179029
 20
-40.83335
 30
0.0
 11
702.6874440179029
 21
-38.99982
 31
0.0
  0
LINE
  5
511
330
1D
100
AcDbEntity
  8
0
  6
Continuous
100
AcDbLine
 10
702.6874440179029
 20
-38.99982
 30
0.0
 11
702.6874440179029
 21
-34.99974
 31
0.0
  0
LINE
  5
512
330
1D
100
AcDbEntity
  8
0
  6
Continuous
100
AcDbLine
 10
702.6874440179029
 20
-34.99974
 30
0.0
 11
702.6874440179029
 21
-34.89976
 31
0.0
  0
LINE
  5
513
330
1D
100
AcDbEntity
  8
0
  6
Continuous
100
AcDbLine
 10
698.1874440179029
 20
-40.83335
 30
0.0
 11
699.6874140179029
 21
-40.83335
 31
0.0
  0
LINE
  5
514
330
1D
100
AcDbEntity
  8
0
  6
Continuous
100
AcDbLine
 10
698.1874440179029
 20
-34.89976
 30
0.0
 11
698.1874440179029
 21
-40.83335
 31
0.0
  0
LINE
  5
515
330
1D
100
AcDbEntity
  8
0
  6
Continuous
100
AcDbLine
 10
699.6874140179029
 20
-40.83335
 30
0.0
 11
699.6874140179029
 21
-38.99982
 31
0.0
  0
LINE
  5
516
330
1D
100
AcDbEntity
  8
0
  6
Continuous
100
AcDbLine
 10
699.6874140179029
 20
-38.99982
 30
0.0
 11
699.6874140179029
 21
-34.99974
 31
0.0
  0
LINE
  5
517
330
1D
100
AcDbEntity
  8
0
  6
Continuous
100
AcDbLine
 10
699.6874140179029
 20
-34.99974
 30
0.0
 11
699.6874140179029
 21
-34.89976
 31
0.0
  0
LINE
  5
518
330
1D
100
AcDbEntity
  8
0
  6
Continuous
100
AcDbLine
 10
723.6873940179029
 20
-40.83335
 30
0.0
 11
725.187374017903
 21
-40.83335
 31
0.0
  0
LINE
  5
519
330
1D
100
AcDbEntity
  8
0
  6
Continuous
100
AcDbLine
 10
725.187374017903
 20
-40.83335
 30
0.0
 11
725.187374017903
 21
-38.99982
 31
0.0
  0
LINE
  5
51A
330
1D
100
AcDbEntity
  8
0
  6
Continuous
100
AcDbLine
 10
725.187374017903
 20
-38.99982
 30
0.0
 11
725.187374017903
 21
-34.99974
 31
0.0
  0
LINE
  5
51B
330
1D
100
AcDbEntity
  8
0
  6
Continuous
100
AcDbLine
 10
725.187374017903
 20
-34.99974
 30
0.0
 11
725.187374017903
 21
-34.89976
 31
0.0
  0
LINE
  5
51C
330
1D
100
AcDbEntity
  8
0
  6
Continuous
100
AcDbLine
 10
720.687364017903
 20
-40.83335
 30
0.0
 11
723.6873940179029
 21
-40.83335
 31
0.0
  0
LINE
  5
51D
330
1D
100
AcDbEntity
  8
0
  6
Continuous
100
AcDbLine
 10
723.6873940179029
 20
-40.83335
 30
0.0
 11
723.6873940179029
 21
-38.99982
 31
0.0
  0
LINE
  5
51E
330
1D
100
AcDbEntity
  8
0
  6
Continuous
100
AcDbLine
 10
723.6873940179029
 20
-38.99982
 30
0.0
 11
723.6873940179029
 21
-34.99974
 31
0.0
  0
LINE
  5
51F
330
1D
100
AcDbEntity
  8
0
  6
Continuous
100
AcDbLine
 10
723.6873940179029
 20
-34.99974
 30
0.0
 11
723.6873940179029
 21
-34.89976
 31
0.0
  0
LINE
  5
520
330
1D
100
AcDbEntity
  8
0
  6
Continuous
100
AcDbLine
 10
719.187384017903
 20
-40.83335
 30
0.0
 11
720.687364017903
 21
-40.83335
 31
0.0
  0
LINE
  5
521
330
1D
100
AcDbEntity
  8
0
  6
Continuous
100
AcDbLine
 10
719.187384017903
 20
-34.89976
 30
0.0
 11
719.187384017903
 21
-40.83335
 31
0.0
  0
LINE
  5
522
330
1D
100
AcDbEntity
  8
0
  6
Continuous
100
AcDbLine
 10
720.687364017903
 20
-40.83335
 30
0.0
 11
720.687364017903
 21
-38.99982
 31
0.0
  0
LINE
  5
523
330
1D
100
AcDbEntity
  8
0
  6
Continuous
100
AcDbLine
 10
720.687364017903
 20
-38.99982
 30
0.0
 11
720.687364017903
 21
-34.99974
 31
0.0
  0
LINE
  5
524
330
1D
100
AcDbEntity
  8
0
  6
Continuous
100
AcDbLine
 10
720.687364017903
 20
-34.99974
 30
0.0
 11
720.687364017903
 21
-34.89976
 31
0.0
  0
LINE
  5
525
330
1D
100
AcDbEntity
  8
0
  6
Continuous
100
AcDbLine
 10
744.687344017903
 20
-40.83335
 30
0.0
 11
746.1873140179029
 21
-40.83335
 31
0.0
  0
LINE
  5
526
330
1D
100
AcDbEntity
  8
0
  6
Continuous
100
AcDbLine
 10
746.1873140179029
 20
-40.83335
 30
0.0
 11
746.1873140179029
 21
-38.99982
 31
0.0
  0
LINE
  5
527
330
1D
100
AcDbEntity
  8
0
  6
Continuous
100
AcDbLine
 10
746.1873140179029
 20
-38.99982
 30
0.0
 11
746.1873140179029
 21
-34.99974
 31
0.0
  0
LINE
  5
528
330
1D
100
AcDbEntity
  8
0
  6
Continuous
100
AcDbLine
 10
746.1873140179029
 20
-34.99974
 30
0.0
 11
746.1873140179029
 21
-34.89976
 31
0.0
  0
LINE
  5
529
330
1D
100
AcDbEntity
  8
0
  6
Continuous
100
AcDbLine
 10
741.6873140179029
 20
-40.83335
 30
0.0
 11
744.687344017903
 21
-40.83335
 31
0.0
  0
LINE
  5
52A
330
1D
100
AcDbEntity
  8
0
  6
Continuous
100
AcDbLine
 10
744.687344017903
 20
-40.83335
 30
0.0
 11
744.687344017903
 21
-38.99982
 31
0.0
  0
LINE
  5
52B
330
1D
100
AcDbEntity
  8
0
  6
Continuous
100
AcDbLine
 10
744.687344017903
 20
-38.99982
 30
0.0
 11
744.687344017903
 21
-34.99974
 31
0.0
  0
LINE
  5
52C
330
1D
100
AcDbEntity
  8
0
  6
Continuous
100
AcDbLine
 10
744.687344017903
 20
-34.99974
 30
0.0
 11
744.687344017903
 21
-34.89976
 31
0.0
  0
LINE
  5
52D
330
1D
100
AcDbEntity
  8
0
  6
Continuous
100
AcDbLine
 10
740.1873340179029
 20
-40.83335
 30
0.0
 11
741.6873140179029
 21
-40.83335
 31
0.0
  0
LINE
  5
52E
330
1D
100
AcDbEntity
  8
0
  6
Continuous
100
AcDbLine
 10
740.1873340179029
 20
-34.89976
 30
0.0
 11
740.1873340179029
 21
-40.83335
 31
0.0
  0
LINE
  5
52F
330
1D
100
AcDbEntity
  8
0
  6
Continuous
100
AcDbLine
 10
741.6873140179029
 20
-40.83335
 30
0.0
 11
741.6873140179029
 21
-38.99982
 31
0.0
  0
LINE
  5
530
330
1D
100
AcDbEntity
  8
0
  6
Continuous
100
AcDbLine
 10
741.6873140179029
 20
-38.99982
 30
0.0
 11
741.6873140179029
 21
-34.99974
 31
0.0
  0
LINE
  5
531
330
1D
100
AcDbEntity
  8
0
  6
Continuous
100
AcDbLine
 10
741.6873140179029
 20
-34.99974
 30
0.0
 11
741.6873140179029
 21
-34.89976
 31
0.0
  0
LINE
  5
532
330
1D
100
AcDbEntity
  8
0
  6
Continuous
100
AcDbLine
 10
765.687284017903
 20
-40.83335
 30
0.0
 11
767.187264017903
 21
-40.83335
 31
0.0
  0
LINE
  5
533
330
1D
100
AcDbEntity
  8
0
  6
Continuous
100
AcDbLine
 10
767.187264017903
 20
-40.83335
 30
0.0
 11
767.187264017903
 21
-38.99982
 31
0.0
  0
LINE
  5
534
330
1D
100
AcDbEntity
  8
0
  6
Continuous
100
AcDbLine
 10
767.187264017903
 20
-38.99982
 30
0.0
 11
767.187264017903
 21
-34.99974
 31
0.0
  0
LINE
  5
535
330
1D
100
AcDbEntity
  8
0
  6
Continuous
100
AcDbLine
 10
767.187264017903
 20
-34.99974
 30
0.0
 11
767.187264017903
 21
-34.89976
 31
0.0
  0
LINE
  5
536
330
1D
100
AcDbEntity
  8
0
  6
Continuous
100
AcDbLine
 10
762.687254017903
 20
-40.83335
 30
0.0
 11
765.687284017903
 21
-40.83335
 31
0.0
  0
LINE
  5
537
330
1D
100
AcDbEntity
  8
0
  6
Continuous
100
AcDbLine
 10
765.687284017903
 20
-40.83335
 30
0.0
 11
765.687284017903
 21
-38.99982
 31
0.0
  0
LINE
  5
538
330
1D
100
AcDbEntity
  8
0
  6
Continuous
100
AcDbLine
 10
765.687284017903
 20
-38.99982
 30
0.0
 11
765.687284017903
 21
-34.99974
 31
0.0
  0
LINE
  5
539
330
1D
100
AcDbEntity
  8
0
  6
Continuous
100
AcDbLine
 10
765.687284017903
 20
-34.99974
 30
0.0
 11
765.687284017903
 21
-34.89976
 31
0.0
  0
LINE
  5
53A
330
1D
100
AcDbEntity
  8
0
  6
Continuous
100
AcDbLine
 10
761.187284017903
 20
-40.83335
 30
0.0
 11
762.687254017903
 21
-40.83335
 31
0.0
  0
LINE
  5
53B
330
1D
100
AcDbEntity
  8
0
  6
Continuous
100
AcDbLine
 10
761.187284017903
 20
-34.89976
 30
0.0
 11
761.187284017903
 21
-40.83335
 31
0.0
  0
LINE
  5
53C
330
1D
100
AcDbEntity
  8
0
  6
Continuous
100
AcDbLine
 10
762.687254017903
 20
-40.83335
 30
0.0
 11
762.687254017903
 21
-38.99982
 31
0.0
  0
LINE
  5
53D
330
1D
100
AcDbEntity
  8
0
  6
Continuous
100
AcDbLine
 10
762.687254017903
 20
-38.99982
 30
0.0
 11
762.687254017903
 21
-34.99974
 31
0.0
  0
LINE
  5
53E
330
1D
100
AcDbEntity
  8
0
  6
Continuous
100
AcDbLine
 10
762.687254017903
 20
-34.99974
 30
0.0
 11
762.687254017903
 21
-34.89976
 31
0.0
  0
LINE
  5
53F
330
1D
100
AcDbEntity
  8
0
  6
Continuous
100
AcDbLine
 10
786.6872340179029
 20
-40.83335
 30
0.0
 11
788.1872140179029
 21
-40.83335
 31
0.0
  0
LINE
  5
540
330
1D
100
AcDbEntity
  8
0
  6
Continuous
100
AcDbLine
 10
788.1872140179029
 20
-40.83335
 30
0.0
 11
788.1872140179029
 21
-38.99982
 31
0.0
  0
LINE
  5
541
330
1D
100
AcDbEntity
  8
0
  6
Continuous
100
AcDbLine
 10
788.1872140179029
 20
-38.99982
 30
0.0
 11
788.1872140179029
 21
-34.99974
 31
0.0
  0
LINE
  5
542
330
1D
100
AcDbEntity
  8
0
  6
Continuous
100
AcDbLine
 10
788.1872140179029
 20
-34.99974
 30
0.0
 11
788.1872140179029
 21
-34.89976
 31
0.0
  0
LINE
  5
543
330
1D
100
AcDbEntity
  8
0
  6
Continuous
100
AcDbLine
 10
783.687204017903
 20
-40.83335
 30
0.0
 11
786.6872340179029
 21
-40.83335
 31
0.0
  0
LINE
  5
544
330
1D
100
AcDbEntity
  8
0
  6
Continuous
100
AcDbLine
 10
786.6872340179029
 20
-40.83335
 30
0.0
 11
786.6872340179029
 21
-38.99982
 31
0.0
  0
LINE
  5
545
330
1D
100
AcDbEntity
  8
0
  6
Continuous
100
AcDbLine
 10
786.6872340179029
 20
-38.99982
 30
0.0
 11
786.6872340179029
 21
-34.99974
 31
0.0
  0
LINE
  5
546
330
1D
100
AcDbEntity
  8
0
  6
Continuous
100
AcDbLine
 10
786.6872340179029
 20
-34.99974
 30
0.0
 11
786.6872340179029
 21
-34.89976
 31
0.0
  0
LINE
  5
547
330
1D
100
AcDbEntity
  8
0
  6
Continuous
100
AcDbLine
 10
782.1872240179029
 20
-40.83335
 30
0.0
 11
783.687204017903
 21
-40.83335
 31
0.0
  0
LINE
  5
548
330
1D
100
AcDbEntity
  8
0
  6
Continuous
100
AcDbLine
 10
782.1872240179029
 20
-34.89976
 30
0.0
 11
782.1872240179029
 21
-40.83335
 31
0.0
  0
LINE
  5
549
330
1D
100
AcDbEntity
  8
0
  6
Continuous
100
AcDbLine
 10
783.687204017903
 20
-40.83335
 30
0.0
 11
783.687204017903
 21
-38.99982
 31
0.0
  0
LINE
  5
54A
330
1D
100
AcDbEntity
  8
0
  6
Continuous
100
AcDbLine
 10
783.687204017903
 20
-38.99982
 30
0.0
 11
783.687204017903
 21
-34.99974
 31
0.0
  0
LINE
  5
54B
330
1D
100
AcDbEntity
  8
0
  6
Continuous
100
AcDbLine
 10
783.687204017903
 20
-34.99974
 30
0.0
 11
783.687204017903
 21
-34.89976
 31
0.0
  0
LINE
  5
54C
330
1D
100
AcDbEntity
  8
0
  6
Continuous
100
AcDbLine
 10
807.687184017903
 20
-40.83335
 30
0.0
 11
809.1871540179029
 21
-40.83335
 31
0.0
  0
LINE
  5
54D
330
1D
100
AcDbEntity
  8
0
  6
Continuous
100
AcDbLine
 10
809.1871540179029
 20
-40.83335
 30
0.0
 11
809.1871540179029
 21
-38.99982
 31
0.0
  0
LINE
  5
54E
330
1D
100
AcDbEntity
  8
0
  6
Continuous
100
AcDbLine
 10
809.1871540179029
 20
-38.99982
 30
0.0
 11
809.1871540179029
 21
-34.99974
 31
0.0
  0
LINE
  5
54F
330
1D
100
AcDbEntity
  8
0
  6
Continuous
100
AcDbLine
 10
809.1871540179029
 20
-34.99974
 30
0.0
 11
809.1871540179029
 21
-34.89976
 31
0.0
  0
LINE
  5
550
330
1D
100
AcDbEntity
  8
0
  6
Continuous
100
AcDbLine
 10
804.6871540179029
 20
-40.83335
 30
0.0
 11
807.687184017903
 21
-40.83335
 31
0.0
  0
LINE
  5
551
330
1D
100
AcDbEntity
  8
0
  6
Continuous
100
AcDbLine
 10
807.687184017903
 20
-40.83335
 30
0.0
 11
807.687184017903
 21
-38.99982
 31
0.0
  0
LINE
  5
552
330
1D
100
AcDbEntity
  8
0
  6
Continuous
100
AcDbLine
 10
807.687184017903
 20
-38.99982
 30
0.0
 11
807.687184017903
 21
-34.99974
 31
0.0
  0
LINE
  5
553
330
1D
100
AcDbEntity
  8
0
  6
Continuous
100
AcDbLine
 10
807.687184017903
 20
-34.99974
 30
0.0
 11
807.687184017903
 21
-34.89976
 31
0.0
  0
LINE
  5
554
330
1D
100
AcDbEntity
  8
0
  6
Continuous
100
AcDbLine
 10
803.1871740179029
 20
-40.83335
 30
0.0
 11
804.6871540179029
 21
-40.83335
 31
0.0
  0
LINE
  5
555
330
1D
100
AcDbEntity
  8
0
  6
Continuous
100
AcDbLine
 10
803.1871740179029
 20
-34.89976
 30
0.0
 11
803.1871740179029
 21
-40.83335
 31
0.0
  0
LINE
  5
556
330
1D
100
AcDbEntity
  8
0
  6
Continuous
100
AcDbLine
 10
804.6871540179029
 20
-40.83335
 30
0.0
 11
804.6871540179029
 21
-38.99982
 31
0.0
  0
LINE
  5
557
330
1D
100
AcDbEntity
  8
0
  6
Continuous
100
AcDbLine
 10
804.6871540179029
 20
-38.99982
 30
0.0
 11
804.6871540179029
 21
-34.99974
 31
0.0
  0
LINE
  5
558
330
1D
100
AcDbEntity
  8
0
  6
Continuous
100
AcDbLine
 10
804.6871540179029
 20
-34.99974
 30
0.0
 11
804.6871540179029
 21
-34.89976
 31
0.0
  0
LINE
  5
559
330
1D
100
AcDbEntity
  8
0
  6
Continuous
100
AcDbLine
 10
828.687124017903
 20
-40.83335
 30
0.0
 11
830.187064017903
 21
-40.83335
 31
0.0
  0
LINE
  5
55A
330
1D
100
AcDbEntity
  8
0
  6
Continuous
100
AcDbLine
 10
830.187064017903
 20
-40.83335
 30
0.0
 11
830.187064017903
 21
-38.99982
 31
0.0
  0
LINE
  5
55B
330
1D
100
AcDbEntity
  8
0
  6
Continuous
100
AcDbLine
 10
830.187064017903
 20
-38.99982
 30
0.0
 11
830.187064017903
 21
-34.99974
 31
0.0
  0
LINE
  5
55C
330
1D
100
AcDbEntity
  8
0
  6
Continuous
100
AcDbLine
 10
830.187064017903
 20
-34.99974
 30
0.0
 11
830.187064017903
 21
-34.89976
 31
0.0
  0
LINE
  5
55D
330
1D
100
AcDbEntity
  8
0
  6
Continuous
100
AcDbLine
 10
825.687094017903
 20
-40.83335
 30
0.0
 11
828.687124017903
 21
-40.83335
 31
0.0
  0
LINE
  5
55E
330
1D
100
AcDbEntity
  8
0
  6
Continuous
100
AcDbLine
 10
828.687124017903
 20
-40.83335
 30
0.0
 11
828.687124017903
 21
-38.99982
 31
0.0
  0
LINE
  5
55F
330
1D
100
AcDbEntity
  8
0
  6
Continuous
100
AcDbLine
 10
828.687124017903
 20
-38.99982
 30
0.0
 11
828.687124017903
 21
-34.99974
 31
0.0
  0
LINE
  5
560
330
1D
100
AcDbEntity
  8
0
  6
Continuous
100
AcDbLine
 10
828.687124017903
 20
-34.99974
 30
0.0
 11
828.687124017903
 21
-34.89976
 31
0.0
  0
LINE
  5
561
330
1D
100
AcDbEntity
  8
0
  6
Continuous
100
AcDbLine
 10
824.1870840179029
 20
-40.83335
 30
0.0
 11
825.687094017903
 21
-40.83335
 31
0.0
  0
LINE
  5
562
330
1D
100
AcDbEntity
  8
0
  6
Continuous
100
AcDbLine
 10
824.1870840179029
 20
-34.89976
 30
0.0
 11
824.1870840179029
 21
-40.83335
 31
0.0
  0
LINE
  5
563
330
1D
100
AcDbEntity
  8
0
  6
Continuous
100
AcDbLine
 10
825.687094017903
 20
-40.83335
 30
0.0
 11
825.687094017903
 21
-38.99982
 31
0.0
  0
LINE
  5
564
330
1D
100
AcDbEntity
  8
0
  6
Continuous
100
AcDbLine
 10
825.687094017903
 20
-38.99982
 30
0.0
 11
825.687094017903
 21
-34.99974
 31
0.0
  0
LINE
  5
565
330
1D
100
AcDbEntity
  8
0
  6
Continuous
100
AcDbLine
 10
825.687094017903
 20
-34.99974
 30
0.0
 11
825.687094017903
 21
-34.89976
 31
0.0
  0
LINE
  5
566
330
1D
100
AcDbEntity
  8
0
  6
Continuous
100
AcDbLine
 10
844.7302140179029
 20
-40.83335
 30
0.0
 11
845.1870640179031
 21
-40.83335
 31
0.0
  0
LINE
  5
567
330
1D
100
AcDbEntity
  8
0
  6
Continuous
100
AcDbLine
 10
841.730184017903
 20
-40.83335
 30
0.0
 11
844.7302140179029
 21
-40.83335
 31
0.0
  0
LINE
  5
568
330
1D
100
AcDbEntity
  8
0
  6
Continuous
100
AcDbLine
 10
844.7302140179029
 20
-40.83335
 30
0.0
 11
844.7302140179029
 21
-38.99982
 31
0.0
  0
LINE
  5
569
330
1D
100
AcDbEntity
  8
0
  6
Continuous
100
AcDbLine
 10
844.7302140179029
 20
-38.99982
 30
0.0
 11
844.7302140179029
 21
-34.99974
 31
0.0
  0
LINE
  5
56A
330
1D
100
AcDbEntity
  8
0
  6
Continuous
100
AcDbLine
 10
844.7302140179029
 20
-34.99974
 30
0.0
 11
844.7302140179029
 21
-34.89976
 31
0.0
  0
LINE
  5
56B
330
1D
100
AcDbEntity
  8
0
  6
Continuous
100
AcDbLine
 10
840.230174017903
 20
-40.83335
 30
0.0
 11
841.730184017903
 21
-40.83335
 31
0.0
  0
LINE
  5
56C
330
1D
100
AcDbEntity
  8
0
  6
Continuous
100
AcDbLine
 10
840.230174017903
 20
-34.89976
 30
0.0
 11
840.230174017903
 21
-40.83335
 31
0.0
  0
LINE
  5
56D
330
1D
100
AcDbEntity
  8
0
  6
Continuous
100
AcDbLine
 10
841.730184017903
 20
-40.83335
 30
0.0
 11
841.730184017903
 21
-38.99982
 31
0.0
  0
LINE
  5
56E
330
1D
100
AcDbEntity
  8
0
  6
Continuous
100
AcDbLine
 10
841.730184017903
 20
-38.99982
 30
0.0
 11
841.730184017903
 21
-34.99974
 31
0.0
  0
LINE
  5
56F
330
1D
100
AcDbEntity
  8
0
  6
Continuous
100
AcDbLine
 10
841.730184017903
 20
-34.99974
 30
0.0
 11
841.730184017903
 21
-34.89976
 31
0.0
  0
LINE
  5
570
330
1D
100
AcDbEntity
  8
0
  6
Continuous
100
AcDbLine
 10
849.6870340179029
 20
-40.83335
 30
0.0
 11
851.1870540179028
 21
-40.83335
 31
0.0
  0
LINE
  5
571
330
1D
100
AcDbEntity
  8
0
  6
Continuous
100
AcDbLine
 10
851.1870540179028
 20
-40.83335
 30
0.0
 11
851.1870540179028
 21
-38.99982
 31
0.0
  0
LINE
  5
572
330
1D
100
AcDbEntity
  8
0
  6
Continuous
100
AcDbLine
 10
851.1870540179028
 20
-38.99982
 30
0.0
 11
851.1870540179028
 21
-34.99974
 31
0.0
  0
LINE
  5
573
330
1D
100
AcDbEntity
  8
0
  6
Continuous
100
AcDbLine
 10
851.1870540179028
 20
-34.99974
 30
0.0
 11
851.1870540179028
 21
-34.89976
 31
0.0
  0
LINE
  5
574
330
1D
100
AcDbEntity
  8
0
  6
Continuous
100
AcDbLine
 10
846.6870040179029
 20
-40.83335
 30
0.0
 11
849.6870340179029
 21
-40.83335
 31
0.0
  0
LINE
  5
575
330
1D
100
AcDbEntity
  8
0
  6
Continuous
100
AcDbLine
 10
849.6870340179029
 20
-40.83335
 30
0.0
 11
849.6870340179029
 21
-38.99982
 31
0.0
  0
LINE
  5
576
330
1D
100
AcDbEntity
  8
0
  6
Continuous
100
AcDbLine
 10
849.6870340179029
 20
-38.99982
 30
0.0
 11
849.6870340179029
 21
-34.99974
 31
0.0
  0
LINE
  5
577
330
1D
100
AcDbEntity
  8
0
  6
Continuous
100
AcDbLine
 10
849.6870340179029
 20
-34.99974
 30
0.0
 11
849.6870340179029
 21
-34.89976
 31
0.0
  0
LINE
  5
578
330
1D
100
AcDbEntity
  8
0
  6
Continuous
100
AcDbLine
 10
845.1870640179031
 20
-40.83335
 30
0.0
 11
846.6870040179029
 21
-40.83335
 31
0.0
  0
LINE
  5
579
330
1D
100
AcDbEntity
  8
0
  6
Continuous
100
AcDbLine
 10
845.1870640179031
 20
-34.89976
 30
0.0
 11
845.1870640179031
 21
-40.83335
 31
0.0
  0
LINE
  5
57A
330
1D
100
AcDbEntity
  8
0
  6
Continuous
100
AcDbLine
 10
846.6870040179029
 20
-40.83335
 30
0.0
 11
846.6870040179029
 21
-38.99982
 31
0.0
  0
LINE
  5
57B
330
1D
100
AcDbEntity
  8
0
  6
Continuous
100
AcDbLine
 10
846.6870040179029
 20
-38.99982
 30
0.0
 11
846.6870040179029
 21
-34.99974
 31
0.0
  0
LINE
  5
57C
330
1D
100
AcDbEntity
  8
0
  6
Continuous
100
AcDbLine
 10
846.6870040179029
 20
-34.99974
 30
0.0
 11
846.6870040179029
 21
-34.89976
 31
0.0
  0
LINE
  5
57D
330
1D
100
AcDbEntity
  8
0
  6
Continuous
100
AcDbLine
 10
870.687024017903
 20
-40.83335
 30
0.0
 11
872.186954017903
 21
-40.83335
 31
0.0
  0
LINE
  5
57E
330
1D
100
AcDbEntity
  8
0
  6
Continuous
100
AcDbLine
 10
872.186954017903
 20
-40.83335
 30
0.0
 11
872.186954017903
 21
-38.99982
 31
0.0
  0
LINE
  5
57F
330
1D
100
AcDbEntity
  8
0
  6
Continuous
100
AcDbLine
 10
872.186954017903
 20
-38.99982
 30
0.0
 11
872.186954017903
 21
-34.99974
 31
0.0
  0
LINE
  5
580
330
1D
100
AcDbEntity
  8
0
  6
Continuous
100
AcDbLine
 10
872.186954017903
 20
-34.99974
 30
0.0
 11
872.186954017903
 21
-34.89976
 31
0.0
  0
LINE
  5
581
330
1D
100
AcDbEntity
  8
0
  6
Continuous
100
AcDbLine
 10
867.6869940179029
 20
-40.83335
 30
0.0
 11
870.687024017903
 21
-40.83335
 31
0.0
  0
LINE
  5
582
330
1D
100
AcDbEntity
  8
0
  6
Continuous
100
AcDbLine
 10
870.687024017903
 20
-40.83335
 30
0.0
 11
870.687024017903
 21
-38.99982
 31
0.0
  0
LINE
  5
583
330
1D
100
AcDbEntity
  8
0
  6
Continuous
100
AcDbLine
 10
870.687024017903
 20
-38.99982
 30
0.0
 11
870.687024017903
 21
-34.99974
 31
0.0
  0
LINE
  5
584
330
1D
100
AcDbEntity
  8
0
  6
Continuous
100
AcDbLine
 10
870.687024017903
 20
-34.99974
 30
0.0
 11
870.687024017903
 21
-34.89976
 31
0.0
  0
LINE
  5
585
330
1D
100
AcDbEntity
  8
0
  6
Continuous
100
AcDbLine
 10
866.186974017903
 20
-40.83335
 30
0.0
 11
867.6869940179029
 21
-40.83335
 31
0.0
  0
LINE
  5
586
330
1D
100
AcDbEntity
  8
0
  6
Continuous
100
AcDbLine
 10
866.186974017903
 20
-34.89976
 30
0.0
 11
866.186974017903
 21
-40.83335
 31
0.0
  0
LINE
  5
587
330
1D
100
AcDbEntity
  8
0
  6
Continuous
100
AcDbLine
 10
867.6869940179029
 20
-40.83335
 30
0.0
 11
867.6869940179029
 21
-38.99982
 31
0.0
  0
LINE
  5
588
330
1D
100
AcDbEntity
  8
0
  6
Continuous
100
AcDbLine
 10
867.6869940179029
 20
-38.99982
 30
0.0
 11
867.6869940179029
 21
-34.99974
 31
0.0
  0
LINE
  5
589
330
1D
100
AcDbEntity
  8
0
  6
Continuous
100
AcDbLine
 10
867.6869940179029
 20
-34.99974
 30
0.0
 11
867.6869940179029
 21
-34.89976
 31
0.0
  0
LINE
  5
58A
330
1D
100
AcDbEntity
  8
0
  6
Continuous
100
AcDbLine
 10
896.791224017903
 20
-40.83335
 30
0.0
 11
898.291234017903
 21
-40.83335
 31
0.0
  0
LINE
  5
58B
330
1D
100
AcDbEntity
  8
0
  6
Continuous
100
AcDbLine
 10
898.291234017903
 20
-40.83335
 30
0.0
 11
898.291234017903
 21
-38.99982
 31
0.0
  0
LINE
  5
58C
330
1D
100
AcDbEntity
  8
0
  6
Continuous
100
AcDbLine
 10
898.291234017903
 20
-38.99982
 30
0.0
 11
898.291234017903
 21
-34.99974
 31
0.0
  0
LINE
  5
58D
330
1D
100
AcDbEntity
  8
0
  6
Continuous
100
AcDbLine
 10
898.291234017903
 20
-34.99974
 30
0.0
 11
898.291234017903
 21
-34.89976
 31
0.0
  0
LINE
  5
58E
330
1D
100
AcDbEntity
  8
0
  6
Continuous
100
AcDbLine
 10
893.7911940179031
 20
-40.83335
 30
0.0
 11
896.791224017903
 21
-40.83335
 31
0.0
  0
LINE
  5
58F
330
1D
100
AcDbEntity
  8
0
  6
Continuous
100
AcDbLine
 10
896.791224017903
 20
-40.83335
 30
0.0
 11
896.791224017903
 21
-38.99982
 31
0.0
  0
LINE
  5
590
330
1D
100
AcDbEntity
  8
0
  6
Continuous
100
AcDbLine
 10
896.791224017903
 20
-38.99982
 30
0.0
 11
896.791224017903
 21
-34.99974
 31
0.0
  0
LINE
  5
591
330
1D
100
AcDbEntity
  8
0
  6
Continuous
100
AcDbLine
 10
896.791224017903
 20
-34.99974
 30
0.0
 11
896.791224017903
 21
-34.89976
 31
0.0
  0
LINE
  5
592
330
1D
100
AcDbEntity
  8
0
  6
Continuous
100
AcDbLine
 10
893.1869440179029
 20
-40.83335
 30
0.0
 11
893.7911940179031
 21
-40.83335
 31
0.0
  0
LINE
  5
593
330
1D
100
AcDbEntity
  8
0
  6
Continuous
100
AcDbLine
 10
893.7911940179031
 20
-40.83335
 30
0.0
 11
893.7911940179031
 21
-38.99982
 31
0.0
  0
LINE
  5
594
330
1D
100
AcDbEntity
  8
0
  6
Continuous
100
AcDbLine
 10
893.7911940179031
 20
-38.99982
 30
0.0
 11
893.7911940179031
 21
-34.99974
 31
0.0
  0
LINE
  5
595
330
1D
100
AcDbEntity
  8
0
  6
Continuous
100
AcDbLine
 10
893.7911940179031
 20
-34.99974
 30
0.0
 11
893.7911940179031
 21
-34.89976
 31
0.0
  0
LINE
  5
596
330
1D
100
AcDbEntity
  8
0
  6
Continuous
100
AcDbLine
 10
891.686924017903
 20
-40.83335
 30
0.0
 11
893.1869440179029
 21
-40.83335
 31
0.0
  0
LINE
  5
597
330
1D
100
AcDbEntity
  8
0
  6
Continuous
100
AcDbLine
 10
893.1869440179029
 20
-40.83335
 30
0.0
 11
893.1869440179029
 21
-38.99982
 31
0.0
  0
LINE
  5
598
330
1D
100
AcDbEntity
  8
0
  6
Continuous
100
AcDbLine
 10
893.1869440179029
 20
-38.99982
 30
0.0
 11
893.1869440179029
 21
-34.99974
 31
0.0
  0
LINE
  5
599
330
1D
100
AcDbEntity
  8
0
  6
Continuous
100
AcDbLine
 10
893.1869440179029
 20
-34.99974
 30
0.0
 11
893.1869440179029
 21
-34.89976
 31
0.0
  0
LINE
  5
59A
330
1D
100
AcDbEntity
  8
0
  6
Continuous
100
AcDbLine
 10
888.6868940179029
 20
-40.83335
 30
0.0
 11
891.686924017903
 21
-40.83335
 31
0.0
  0
LINE
  5
59B
330
1D
100
AcDbEntity
  8
0
  6
Continuous
100
AcDbLine
 10
891.686924017903
 20
-40.83335
 30
0.0
 11
891.686924017903
 21
-38.99982
 31
0.0
  0
LINE
  5
59C
330
1D
100
AcDbEntity
  8
0
  6
Continuous
100
AcDbLine
 10
891.686924017903
 20
-38.99982
 30
0.0
 11
891.686924017903
 21
-34.99974
 31
0.0
  0
LINE
  5
59D
330
1D
100
AcDbEntity
  8
0
  6
Continuous
100
AcDbLine
 10
891.686924017903
 20
-34.99974
 30
0.0
 11
891.686924017903
 21
-34.89976
 31
0.0
  0
LINE
  5
59E
330
1D
100
AcDbEntity
  8
0
  6
Continuous
100
AcDbLine
 10
887.186954017903
 20
-40.83335
 30
0.0
 11
888.6868940179029
 21
-40.83335
 31
0.0
  0
LINE
  5
59F
330
1D
100
AcDbEntity
  8
0
  6
Continuous
100
AcDbLine
 10
887.186954017903
 20
-34.89976
 30
0.0
 11
887.186954017903
 21
-40.83335
 31
0.0
  0
LINE
  5
5A0
330
1D
100
AcDbEntity
  8
0
  6
Continuous
100
AcDbLine
 10
888.6868940179029
 20
-40.83335
 30
0.0
 11
888.6868940179029
 21
-38.99982
 31
0.0
  0
LINE
  5
5A1
330
1D
100
AcDbEntity
  8
0
  6
Continuous
100
AcDbLine
 10
888.6868940179029
 20
-38.99982
 30
0.0
 11
888.6868940179029
 21
-34.99974
 31
0.0
  0
LINE
  5
5A2
330
1D
100
AcDbEntity
  8
0
  6
Continuous
100
AcDbLine
 10
888.6868940179029
 20
-34.99974
 30
0.0
 11
888.6868940179029
 21
-34.89976
 31
0.0
  0
LINE
  5
5A3
330
1D
100
AcDbEntity
  8
0
  6
Continuous
100
AcDbLine
 10
912.6868940179029
 20
-40.83335
 30
0.0
 11
914.1868740179029
 21
-40.83335
 31
0.0
  0
LINE
  5
5A4
330
1D
100
AcDbEntity
  8
0
  6
Continuous
100
AcDbLine
 10
914.1868740179029
 20
-40.83335
 30
0.0
 11
914.1868740179029
 21
-38.99982
 31
0.0
  0
LINE
  5
5A5
330
1D
100
AcDbEntity
  8
0
  6
Continuous
100
AcDbLine
 10
914.1868740179029
 20
-38.99982
 30
0.0
 11
914.1868740179029
 21
-34.99974
 31
0.0
  0
LINE
  5
5A6
330
1D
100
AcDbEntity
  8
0
  6
Continuous
100
AcDbLine
 10
914.1868740179029
 20
-34.99974
 30
0.0
 11
914.1868740179029
 21
-34.89976
 31
0.0
  0
LINE
  5
5A7
330
1D
100
AcDbEntity
  8
0
  6
Continuous
100
AcDbLine
 10
909.686864017903
 20
-40.83335
 30
0.0
 11
912.6868940179029
 21
-40.83335
 31
0.0
  0
LINE
  5
5A8
330
1D
100
AcDbEntity
  8
0
  6
Continuous
100
AcDbLine
 10
912.6868940179029
 20
-40.83335
 30
0.0
 11
912.6868940179029
 21
-38.99982
 31
0.0
  0
LINE
  5
5A9
330
1D
100
AcDbEntity
  8
0
  6
Continuous
100
AcDbLine
 10
912.6868940179029
 20
-38.99982
 30
0.0
 11
912.6868940179029
 21
-34.99974
 31
0.0
  0
LINE
  5
5AA
330
1D
100
AcDbEntity
  8
0
  6
Continuous
100
AcDbLine
 10
912.6868940179029
 20
-34.99974
 30
0.0
 11
912.6868940179029
 21
-34.89976
 31
0.0
  0
LINE
  5
5AB
330
1D
100
AcDbEntity
  8
0
  6
Continuous
100
AcDbLine
 10
908.186884017903
 20
-40.83335
 30
0.0
 11
909.686864017903
 21
-40.83335
 31
0.0
  0
LINE
  5
5AC
330
1D
100
AcDbEntity
  8
0
  6
Continuous
100
AcDbLine
 10
908.186884017903
 20
-34.89976
 30
0.0
 11
908.186884017903
 21
-40.83335
 31
0.0
  0
LINE
  5
5AD
330
1D
100
AcDbEntity
  8
0
  6
Continuous
100
AcDbLine
 10
909.686864017903
 20
-40.83335
 30
0.0
 11
909.686864017903
 21
-38.99982
 31
0.0
  0
LINE
  5
5AE
330
1D
100
AcDbEntity
  8
0
  6
Continuous
100
AcDbLine
 10
909.686864017903
 20
-38.99982
 30
0.0
 11
909.686864017903
 21
-34.99974
 31
0.0
  0
LINE
  5
5AF
330
1D
100
AcDbEntity
  8
0
  6
Continuous
100
AcDbLine
 10
909.686864017903
 20
-34.99974
 30
0.0
 11
909.686864017903
 21
-34.89976
 31
0.0
  0
LINE
  5
5B0
330
1D
100
AcDbEntity
  8
0
  6
Continuous
100
AcDbLine
 10
933.686844017903
 20
-40.83335
 30
0.0
 11
935.186814017903
 21
-40.83335
 31
0.0
  0
LINE
  5
5B1
330
1D
100
AcDbEntity
  8
0
  6
Continuous
100
AcDbLine
 10
935.186814017903
 20
-40.83335
 30
0.0
 11
935.186814017903
 21
-38.99982
 31
0.0
  0
LINE
  5
5B2
330
1D
100
AcDbEntity
  8
0
  6
Continuous
100
AcDbLine
 10
935.186814017903
 20
-38.99982
 30
0.0
 11
935.186814017903
 21
-34.99974
 31
0.0
  0
LINE
  5
5B3
330
1D
100
AcDbEntity
  8
0
  6
Continuous
100
AcDbLine
 10
935.186814017903
 20
-34.99974
 30
0.0
 11
935.186814017903
 21
-34.89976
 31
0.0
  0
LINE
  5
5B4
330
1D
100
AcDbEntity
  8
0
  6
Continuous
100
AcDbLine
 10
930.686814017903
 20
-40.83335
 30
0.0
 11
933.686844017903
 21
-40.83335
 31
0.0
  0
LINE
  5
5B5
330
1D
100
AcDbEntity
  8
0
  6
Continuous
100
AcDbLine
 10
933.686844017903
 20
-40.83335
 30
0.0
 11
933.686844017903
 21
-38.99982
 31
0.0
  0
LINE
  5
5B6
330
1D
100
AcDbEntity
  8
0
  6
Continuous
100
AcDbLine
 10
933.686844017903
 20
-38.99982
 30
0.0
 11
933.686844017903
 21
-34.99974
 31
0.0
  0
LINE
  5
5B7
330
1D
100
AcDbEntity
  8
0
  6
Continuous
100
AcDbLine
 10
933.686844017903
 20
-34.99974
 30
0.0
 11
933.686844017903
 21
-34.89976
 31
0.0
  0
LINE
  5
5B8
330
1D
100
AcDbEntity
  8
0
  6
Continuous
100
AcDbLine
 10
929.186834017903
 20
-40.83335
 30
0.0
 11
930.686814017903
 21
-40.83335
 31
0.0
  0
LINE
  5
5B9
330
1D
100
AcDbEntity
  8
0
  6
Continuous
100
AcDbLine
 10
929.186834017903
 20
-34.89976
 30
0.0
 11
929.186834017903
 21
-40.83335
 31
0.0
  0
LINE
  5
5BA
330
1D
100
AcDbEntity
  8
0
  6
Continuous
100
AcDbLine
 10
930.686814017903
 20
-40.83335
 30
0.0
 11
930.686814017903
 21
-38.99982
 31
0.0
  0
LINE
  5
5BB
330
1D
100
AcDbEntity
  8
0
  6
Continuous
100
AcDbLine
 10
930.686814017903
 20
-38.99982
 30
0.0
 11
930.686814017903
 21
-34.99974
 31
0.0
  0
LINE
  5
5BC
330
1D
100
AcDbEntity
  8
0
  6
Continuous
100
AcDbLine
 10
930.686814017903
 20
-34.99974
 30
0.0
 11
930.686814017903
 21
-34.89976
 31
0.0
  0
LINE
  5
5BD
330
1D
100
AcDbEntity
  8
0
  6
Continuous
100
AcDbLine
 10
954.6867840179029
 20
-40.83335
 30
0.0
 11
956.1867640179029
 21
-40.83335
 31
0.0
  0
LINE
  5
5BE
330
1D
100
AcDbEntity
  8
0
  6
Continuous
100
AcDbLine
 10
956.1867640179029
 20
-40.83335
 30
0.0
 11
956.1867640179029
 21
-38.99982
 31
0.0
  0
LINE
  5
5BF
330
1D
100
AcDbEntity
  8
0
  6
Continuous
100
AcDbLine
 10
956.1867640179029
 20
-38.99982
 30
0.0
 11
956.1867640179029
 21
-34.99974
 31
0.0
  0
LINE
  5
5C0
330
1D
100
AcDbEntity
  8
0
  6
Continuous
100
AcDbLine
 10
956.1867640179029
 20
-34.99974
 30
0.0
 11
956.1867640179029
 21
-34.89976
 31
0.0
  0
LINE
  5
5C1
330
1D
100
AcDbEntity
  8
0
  6
Continuous
100
AcDbLine
 10
951.6867540179029
 20
-40.83335
 30
0.0
 11
954.6867840179029
 21
-40.83335
 31
0.0
  0
LINE
  5
5C2
330
1D
100
AcDbEntity
  8
0
  6
Continuous
100
AcDbLine
 10
954.6867840179029
 20
-40.83335
 30
0.0
 11
954.6867840179029
 21
-38.99982
 31
0.0
  0
LINE
  5
5C3
330
1D
100
AcDbEntity
  8
0
  6
Continuous
100
AcDbLine
 10
954.6867840179029
 20
-38.99982
 30
0.0
 11
954.6867840179029
 21
-34.99974
 31
0.0
  0
LINE
  5
5C4
330
1D
100
AcDbEntity
  8
0
  6
Continuous
100
AcDbLine
 10
954.6867840179029
 20
-34.99974
 30
0.0
 11
954.6867840179029
 21
-34.89976
 31
0.0
  0
LINE
  5
5C5
330
1D
100
AcDbEntity
  8
0
  6
Continuous
100
AcDbLine
 10
950.1867840179029
 20
-40.83335
 30
0.0
 11
951.6867540179029
 21
-40.83335
 31
0.0
  0
LINE
  5
5C6
330
1D
100
AcDbEntity
  8
0
  6
Continuous
100
AcDbLine
 10
950.1867840179029
 20
-34.89976
 30
0.0
 11
950.1867840179029
 21
-40.83335
 31
0.0
  0
LINE
  5
5C7
330
1D
100
AcDbEntity
  8
0
  6
Continuous
100
AcDbLine
 10
951.6867540179029
 20
-40.83335
 30
0.0
 11
951.6867540179029
 21
-38.99982
 31
0.0
  0
LINE
  5
5C8
330
1D
100
AcDbEntity
  8
0
  6
Continuous
100
AcDbLine
 10
951.6867540179029
 20
-38.99982
 30
0.0
 11
951.6867540179029
 21
-34.99974
 31
0.0
  0
LINE
  5
5C9
330
1D
100
AcDbEntity
  8
0
  6
Continuous
100
AcDbLine
 10
951.6867540179029
 20
-34.99974
 30
0.0
 11
951.6867540179029
 21
-34.89976
 31
0.0
  0
LINE
  5
5CA
330
1D
100
AcDbEntity
  8
0
  6
Continuous
100
AcDbLine
 10
975.6867340179031
 20
-40.83335
 30
0.0
 11
977.1867140179029
 21
-40.83335
 31
0.0
  0
LINE
  5
5CB
330
1D
100
AcDbEntity
  8
0
  6
Continuous
100
AcDbLine
 10
977.1867140179029
 20
-40.83335
 30
0.0
 11
977.1867140179029
 21
-38.99982
 31
0.0
  0
LINE
  5
5CC
330
1D
100
AcDbEntity
  8
0
  6
Continuous
100
AcDbLine
 10
977.1867140179029
 20
-38.99982
 30
0.0
 11
977.1867140179029
 21
-34.99974
 31
0.0
  0
LINE
  5
5CD
330
1D
100
AcDbEntity
  8
0
  6
Continuous
100
AcDbLine
 10
977.1867140179029
 20
-34.99974
 30
0.0
 11
977.1867140179029
 21
-34.89976
 31
0.0
  0
LINE
  5
5CE
330
1D
100
AcDbEntity
  8
0
  6
Continuous
100
AcDbLine
 10
972.686704017903
 20
-40.83335
 30
0.0
 11
975.6867340179031
 21
-40.83335
 31
0.0
  0
LINE
  5
5CF
330
1D
100
AcDbEntity
  8
0
  6
Continuous
100
AcDbLine
 10
975.6867340179031
 20
-40.83335
 30
0.0
 11
975.6867340179031
 21
-38.99982
 31
0.0
  0
LINE
  5
5D0
330
1D
100
AcDbEntity
  8
0
  6
Continuous
100
AcDbLine
 10
975.6867340179031
 20
-38.99982
 30
0.0
 11
975.6867340179031
 21
-34.99974
 31
0.0
  0
LINE
  5
5D1
330
1D
100
AcDbEntity
  8
0
  6
Continuous
100
AcDbLine
 10
975.6867340179031
 20
-34.99974
 30
0.0
 11
975.6867340179031
 21
-34.89976
 31
0.0
  0
LINE
  5
5D2
330
1D
100
AcDbEntity
  8
0
  6
Continuous
100
AcDbLine
 10
971.186724017903
 20
-40.83335
 30
0.0
 11
972.686704017903
 21
-40.83335
 31
0.0
  0
LINE
  5
5D3
330
1D
100
AcDbEntity
  8
0
  6
Continuous
100
AcDbLine
 10
971.186724017903
 20
-34.89976
 30
0.0
 11
971.186724017903
 21
-40.83335
 31
0.0
  0
LINE
  5
5D4
330
1D
100
AcDbEntity
  8
0
  6
Continuous
100
AcDbLine
 10
972.686704017903
 20
-40.83335
 30
0.0
 11
972.686704017903
 21
-38.99982
 31
0.0
  0
LINE
  5
5D5
330
1D
100
AcDbEntity
  8
0
  6
Continuous
100
AcDbLine
 10
972.686704017903
 20
-38.99982
 30
0.0
 11
972.686704017903
 21
-34.99974
 31
0.0
  0
LINE
  5
5D6
330
1D
100
AcDbEntity
  8
0
  6
Continuous
100
AcDbLine
 10
972.686704017903
 20
-34.99974
 30
0.0
 11
972.686704017903
 21
-34.89976
 31
0.0
  0
LINE
  5
5D7
330
1D
100
AcDbEntity
  8
0
  6
Continuous
100
AcDbLine
 10
996.6866640179031
 20
-40.83335
 30
0.0
 11
998.1866340179029
 21
-40.83335
 31
0.0
  0
LINE
  5
5D8
330
1D
100
AcDbEntity
  8
0
  6
Continuous
100
AcDbLine
 10
998.1866340179029
 20
-40.83335
 30
0.0
 11
998.1866340179029
 21
-38.99982
 31
0.0
  0
LINE
  5
5D9
330
1D
100
AcDbEntity
  8
0
  6
Continuous
100
AcDbLine
 10
998.1866340179029
 20
-38.99982
 30
0.0
 11
998.1866340179029
 21
-34.99974
 31
0.0
  0
LINE
  5
5DA
330
1D
100
AcDbEntity
  8
0
  6
Continuous
100
AcDbLine
 10
998.1866340179029
 20
-34.99974
 30
0.0
 11
998.1866340179029
 21
-34.89976
 31
0.0
  0
LINE
  5
5DB
330
1D
100
AcDbEntity
  8
0
  6
Continuous
100
AcDbLine
 10
993.686634017903
 20
-40.83335
 30
0.0
 11
996.6866640179031
 21
-40.83335
 31
0.0
  0
LINE
  5
5DC
330
1D
100
AcDbEntity
  8
0
  6
Continuous
100
AcDbLine
 10
996.6866640179031
 20
-40.83335
 30
0.0
 11
996.6866640179031
 21
-38.99982
 31
0.0
  0
LINE
  5
5DD
330
1D
100
AcDbEntity
  8
0
  6
Continuous
100
AcDbLine
 10
996.6866640179031
 20
-38.99982
 30
0.0
 11
996.6866640179031
 21
-34.99974
 31
0.0
  0
LINE
  5
5DE
330
1D
100
AcDbEntity
  8
0
  6
Continuous
100
AcDbLine
 10
996.6866640179031
 20
-34.99974
 30
0.0
 11
996.6866640179031
 21
-34.89976
 31
0.0
  0
LINE
  5
5DF
330
1D
100
AcDbEntity
  8
0
  6
Continuous
100
AcDbLine
 10
992.186654017903
 20
-40.83335
 30
0.0
 11
993.686634017903
 21
-40.83335
 31
0.0
  0
LINE
  5
5E0
330
1D
100
AcDbEntity
  8
0
  6
Continuous
100
AcDbLine
 10
992.186654017903
 20
-34.89976
 30
0.0
 11
992.186654017903
 21
-40.83335
 31
0.0
  0
LINE
  5
5E1
330
1D
100
AcDbEntity
  8
0
  6
Continuous
100
AcDbLine
 10
993.686634017903
 20
-40.83335
 30
0.0
 11
993.686634017903
 21
-38.99982
 31
0.0
  0
LINE
  5
5E2
330
1D
100
AcDbEntity
  8
0
  6
Continuous
100
AcDbLine
 10
993.686634017903
 20
-38.99982
 30
0.0
 11
993.686634017903
 21
-34.99974
 31
0.0
  0
LINE
  5
5E3
330
1D
100
AcDbEntity
  8
0
  6
Continuous
100
AcDbLine
 10
993.686634017903
 20
-34.99974
 30
0.0
 11
993.686634017903
 21
-34.89976
 31
0.0
  0
LINE
  5
5E4
330
1D
100
AcDbEntity
  8
0
  6
Continuous
100
AcDbLine
 10
1017.686604017903
 20
-40.83335
 30
0.0
 11
1019.186584017903
 21
-40.83335
 31
0.0
  0
LINE
  5
5E5
330
1D
100
AcDbEntity
  8
0
  6
Continuous
100
AcDbLine
 10
1019.186584017903
 20
-40.83335
 30
0.0
 11
1019.186584017903
 21
-38.99982
 31
0.0
  0
LINE
  5
5E6
330
1D
100
AcDbEntity
  8
0
  6
Continuous
100
AcDbLine
 10
1019.186584017903
 20
-38.99982
 30
0.0
 11
1019.186584017903
 21
-34.99974
 31
0.0
  0
LINE
  5
5E7
330
1D
100
AcDbEntity
  8
0
  6
Continuous
100
AcDbLine
 10
1019.186584017903
 20
-34.99974
 30
0.0
 11
1019.186584017903
 21
-34.89976
 31
0.0
  0
LINE
  5
5E8
330
1D
100
AcDbEntity
  8
0
  6
Continuous
100
AcDbLine
 10
1014.686574017903
 20
-40.83335
 30
0.0
 11
1017.686604017903
 21
-40.83335
 31
0.0
  0
LINE
  5
5E9
330
1D
100
AcDbEntity
  8
0
  6
Continuous
100
AcDbLine
 10
1017.686604017903
 20
-40.83335
 30
0.0
 11
1017.686604017903
 21
-38.99982
 31
0.0
  0
LINE
  5
5EA
330
1D
100
AcDbEntity
  8
0
  6
Continuous
100
AcDbLine
 10
1017.686604017903
 20
-38.99982
 30
0.0
 11
1017.686604017903
 21
-34.99974
 31
0.0
  0
LINE
  5
5EB
330
1D
100
AcDbEntity
  8
0
  6
Continuous
100
AcDbLine
 10
1017.686604017903
 20
-34.99974
 30
0.0
 11
1017.686604017903
 21
-34.89976
 31
0.0
  0
LINE
  5
5EC
330
1D
100
AcDbEntity
  8
0
  6
Continuous
100
AcDbLine
 10
1013.186604017903
 20
-40.83335
 30
0.0
 11
1014.686574017903
 21
-40.83335
 31
0.0
  0
LINE
  5
5ED
330
1D
100
AcDbEntity
  8
0
  6
Continuous
100
AcDbLine
 10
1013.186604017903
 20
-34.89976
 30
0.0
 11
1013.186604017903
 21
-40.83335
 31
0.0
  0
LINE
  5
5EE
330
1D
100
AcDbEntity
  8
0
  6
Continuous
100
AcDbLine
 10
1014.686574017903
 20
-40.83335
 30
0.0
 11
1014.686574017903
 21
-38.99982
 31
0.0
  0
LINE
  5
5EF
330
1D
100
AcDbEntity
  8
0
  6
Continuous
100
AcDbLine
 10
1014.686574017903
 20
-38.99982
 30
0.0
 11
1014.686574017903
 21
-34.99974
 31
0.0
  0
LINE
  5
5F0
330
1D
100
AcDbEntity
  8
0
  6
Continuous
100
AcDbLine
 10
1014.686574017903
 20
-34.99974
 30
0.0
 11
1014.686574017903
 21
-34.89976
 31
0.0
  0
LINE
  5
5F1
330
1D
100
AcDbEntity
  8
0
  6
Continuous
100
AcDbLine
 10
1038.686554017903
 20
-40.83335
 30
0.0
 11
1040.186534017903
 21
-40.83335
 31
0.0
  0
LINE
  5
5F2
330
1D
100
AcDbEntity
  8
0
  6
Continuous
100
AcDbLine
 10
1040.186534017903
 20
-40.83335
 30
0.0
 11
1040.186534017903
 21
-38.99982
 31
0.0
  0
LINE
  5
5F3
330
1D
100
AcDbEntity
  8
0
  6
Continuous
100
AcDbLine
 10
1040.186534017903
 20
-38.99982
 30
0.0
 11
1040.186534017903
 21
-34.99974
 31
0.0
  0
LINE
  5
5F4
330
1D
100
AcDbEntity
  8
0
  6
Continuous
100
AcDbLine
 10
1040.186534017903
 20
-34.99974
 30
0.0
 11
1040.186534017903
 21
-34.89976
 31
0.0
  0
LINE
  5
5F5
330
1D
100
AcDbEntity
  8
0
  6
Continuous
100
AcDbLine
 10
1035.686524017903
 20
-40.83335
 30
0.0
 11
1038.686554017903
 21
-40.83335
 31
0.0
  0
LINE
  5
5F6
330
1D
100
AcDbEntity
  8
0
  6
Continuous
100
AcDbLine
 10
1038.686554017903
 20
-40.83335
 30
0.0
 11
1038.686554017903
 21
-38.99982
 31
0.0
  0
LINE
  5
5F7
330
1D
100
AcDbEntity
  8
0
  6
Continuous
100
AcDbLine
 10
1038.686554017903
 20
-38.99982
 30
0.0
 11
1038.686554017903
 21
-34.99974
 31
0.0
  0
LINE
  5
5F8
330
1D
100
AcDbEntity
  8
0
  6
Continuous
100
AcDbLine
 10
1038.686554017903
 20
-34.99974
 30
0.0
 11
1038.686554017903
 21
-34.89976
 31
0.0
  0
LINE
  5
5F9
330
1D
100
AcDbEntity
  8
0
  6
Continuous
100
AcDbLine
 10
1034.186544017903
 20
-40.83335
 30
0.0
 11
1035.686524017903
 21
-40.83335
 31
0.0
  0
LINE
  5
5FA
330
1D
100
AcDbEntity
  8
0
  6
Continuous
100
AcDbLine
 10
1034.186544017903
 20
-34.89976
 30
0.0
 11
1034.186544017903
 21
-40.83335
 31
0.0
  0
LINE
  5
5FB
330
1D
100
AcDbEntity
  8
0
  6
Continuous
100
AcDbLine
 10
1035.686524017903
 20
-40.83335
 30
0.0
 11
1035.686524017903
 21
-38.99982
 31
0.0
  0
LINE
  5
5FC
330
1D
100
AcDbEntity
  8
0
  6
Continuous
100
AcDbLine
 10
1035.686524017903
 20
-38.99982
 30
0.0
 11
1035.686524017903
 21
-34.99974
 31
0.0
  0
LINE
  5
5FD
330
1D
100
AcDbEntity
  8
0
  6
Continuous
100
AcDbLine
 10
1035.686524017903
 20
-34.99974
 30
0.0
 11
1035.686524017903
 21
-34.89976
 31
0.0
  0
LINE
  5
5FE
330
1D
100
AcDbEntity
  8
0
  6
Continuous
100
AcDbLine
 10
1059.686504017903
 20
-40.83335
 30
0.0
 11
1061.186474017903
 21
-40.83335
 31
0.0
  0
LINE
  5
5FF
330
1D
100
AcDbEntity
  8
0
  6
Continuous
100
AcDbLine
 10
1061.186474017903
 20
-40.83335
 30
0.0
 11
1061.186474017903
 21
-38.99982
 31
0.0
  0
LINE
  5
600
330
1D
100
AcDbEntity
  8
0
  6
Continuous
100
AcDbLine
 10
1061.186474017903
 20
-38.99982
 30
0.0
 11
1061.186474017903
 21
-34.99974
 31
0.0
  0
LINE
  5
601
330
1D
100
AcDbEntity
  8
0
  6
Continuous
100
AcDbLine
 10
1061.186474017903
 20
-34.99974
 30
0.0
 11
1061.186474017903
 21
-34.89976
 31
0.0
  0
LINE
  5
602
330
1D
100
AcDbEntity
  8
0
  6
Continuous
100
AcDbLine
 10
1056.686474017903
 20
-40.83335
 30
0.0
 11
1059.686504017903
 21
-40.83335
 31
0.0
  0
LINE
  5
603
330
1D
100
AcDbEntity
  8
0
  6
Continuous
100
AcDbLine
 10
1059.686504017903
 20
-40.83335
 30
0.0
 11
1059.686504017903
 21
-38.99982
 31
0.0
  0
LINE
  5
604
330
1D
100
AcDbEntity
  8
0
  6
Continuous
100
AcDbLine
 10
1059.686504017903
 20
-38.99982
 30
0.0
 11
1059.686504017903
 21
-34.99974
 31
0.0
  0
LINE
  5
605
330
1D
100
AcDbEntity
  8
0
  6
Continuous
100
AcDbLine
 10
1059.686504017903
 20
-34.99974
 30
0.0
 11
1059.686504017903
 21
-34.89976
 31
0.0
  0
LINE
  5
606
330
1D
100
AcDbEntity
  8
0
  6
Continuous
100
AcDbLine
 10
1055.186494017903
 20
-40.83335
 30
0.0
 11
1056.686474017903
 21
-40.83335
 31
0.0
  0
LINE
  5
607
330
1D
100
AcDbEntity
  8
0
  6
Continuous
100
AcDbLine
 10
1055.186494017903
 20
-34.89976
 30
0.0
 11
1055.186494017903
 21
-40.83335
 31
0.0
  0
LINE
  5
608
330
1D
100
AcDbEntity
  8
0
  6
Continuous
100
AcDbLine
 10
1056.686474017903
 20
-40.83335
 30
0.0
 11
1056.686474017903
 21
-38.99982
 31
0.0
  0
LINE
  5
609
330
1D
100
AcDbEntity
  8
0
  6
Continuous
100
AcDbLine
 10
1056.686474017903
 20
-38.99982
 30
0.0
 11
1056.686474017903
 21
-34.99974
 31
0.0
  0
LINE
  5
60A
330
1D
100
AcDbEntity
  8
0
  6
Continuous
100
AcDbLine
 10
1056.686474017903
 20
-34.99974
 30
0.0
 11
1056.686474017903
 21
-34.89976
 31
0.0
  0
LINE
  5
60B
330
1D
100
AcDbEntity
  8
0
  6
Continuous
100
AcDbLine
 10
1080.686444017903
 20
-40.83335
 30
0.0
 11
1082.186424017903
 21
-40.83335
 31
0.0
  0
LINE
  5
60C
330
1D
100
AcDbEntity
  8
0
  6
Continuous
100
AcDbLine
 10
1082.186424017903
 20
-40.83335
 30
0.0
 11
1082.186424017903
 21
-38.99982
 31
0.0
  0
LINE
  5
60D
330
1D
100
AcDbEntity
  8
0
  6
Continuous
100
AcDbLine
 10
1082.186424017903
 20
-38.99982
 30
0.0
 11
1082.186424017903
 21
-34.99974
 31
0.0
  0
LINE
  5
60E
330
1D
100
AcDbEntity
  8
0
  6
Continuous
100
AcDbLine
 10
1082.186424017903
 20
-34.99974
 30
0.0
 11
1082.186424017903
 21
-34.89976
 31
0.0
  0
LINE
  5
60F
330
1D
100
AcDbEntity
  8
0
  6
Continuous
100
AcDbLine
 10
1077.686414017903
 20
-40.83335
 30
0.0
 11
1080.686444017903
 21
-40.83335
 31
0.0
  0
LINE
  5
610
330
1D
100
AcDbEntity
  8
0
  6
Continuous
100
AcDbLine
 10
1080.686444017903
 20
-40.83335
 30
0.0
 11
1080.686444017903
 21
-38.99982
 31
0.0
  0
LINE
  5
611
330
1D
100
AcDbEntity
  8
0
  6
Continuous
100
AcDbLine
 10
1080.686444017903
 20
-38.99982
 30
0.0
 11
1080.686444017903
 21
-34.99974
 31
0.0
  0
LINE
  5
612
330
1D
100
AcDbEntity
  8
0
  6
Continuous
100
AcDbLine
 10
1080.686444017903
 20
-34.99974
 30
0.0
 11
1080.686444017903
 21
-34.89976
 31
0.0
  0
LINE
  5
613
330
1D
100
AcDbEntity
  8
0
  6
Continuous
100
AcDbLine
 10
1076.186444017903
 20
-40.83335
 30
0.0
 11
1077.686414017903
 21
-40.83335
 31
0.0
  0
LINE
  5
614
330
1D
100
AcDbEntity
  8
0
  6
Continuous
100
AcDbLine
 10
1076.186444017903
 20
-34.89976
 30
0.0
 11
1076.186444017903
 21
-40.83335
 31
0.0
  0
LINE
  5
615
330
1D
100
AcDbEntity
  8
0
  6
Continuous
100
AcDbLine
 10
1077.686414017903
 20
-40.83335
 30
0.0
 11
1077.686414017903
 21
-38.99982
 31
0.0
  0
LINE
  5
616
330
1D
100
AcDbEntity
  8
0
  6
Continuous
100
AcDbLine
 10
1077.686414017903
 20
-38.99982
 30
0.0
 11
1077.686414017903
 21
-34.99974
 31
0.0
  0
LINE
  5
617
330
1D
100
AcDbEntity
  8
0
  6
Continuous
100
AcDbLine
 10
1077.686414017903
 20
-34.99974
 30
0.0
 11
1077.686414017903
 21
-34.89976
 31
0.0
  0
LINE
  5
618
330
1D
100
AcDbEntity
  8
0
  6
Continuous
100
AcDbLine
 10
865.092004017903
 20
-40.83335
 30
0.0
 11
866.186974017903
 21
-40.83335
 31
0.0
  0
LINE
  5
619
330
1D
100
AcDbEntity
  8
0
  6
Continuous
100
AcDbLine
 10
861.2519740179029
 20
-40.83335
 30
0.0
 11
865.092004017903
 21
-40.83335
 31
0.0
  0
LINE
  5
61A
330
1D
100
AcDbEntity
  8
0
  6
Continuous
100
AcDbLine
 10
857.860024017903
 20
-40.83335
 30
0.0
 11
861.2519740179029
 21
-40.83335
 31
0.0
  0
LINE
  5
61B
330
1D
100
AcDbEntity
  8
0
  6
Continuous
100
AcDbLine
 10
855.299984017903
 20
-40.83335
 30
0.0
 11
857.860024017903
 21
-40.83335
 31
0.0
  0
LINE
  5
61C
330
1D
100
AcDbEntity
  8
0
  6
Continuous
100
AcDbLine
 10
853.763994017903
 20
-40.83335
 30
0.0
 11
855.299984017903
 21
-40.83335
 31
0.0
  0
LINE
  5
61D
330
1D
100
AcDbEntity
  8
0
  6
Continuous
100
AcDbLine
 10
853.188014017903
 20
-40.83335
 30
0.0
 11
853.763994017903
 21
-40.83335
 31
0.0
  0
LINE
  5
61E
330
1D
100
AcDbEntity
  8
0
  6
Continuous
100
AcDbLine
 10
853.188014017903
 20
-34.89976
 30
0.0
 11
853.188014017903
 21
-40.83335
 31
0.0
  0
LINE
  5
61F
330
1D
100
AcDbEntity
  8
0
  6
Continuous
100
AcDbLine
 10
872.186954017903
 20
-40.83335
 30
0.0
 11
873.2839940179031
 21
-40.83335
 31
0.0
  0
LINE
  5
620
330
1D
100
AcDbEntity
  8
0
  6
Continuous
100
AcDbLine
 10
873.2839940179031
 20
-40.83335
 30
0.0
 11
877.1240140179029
 21
-40.83335
 31
0.0
  0
LINE
  5
621
330
1D
100
AcDbEntity
  8
0
  6
Continuous
100
AcDbLine
 10
877.1240140179029
 20
-40.83335
 30
0.0
 11
880.5159640179029
 21
-40.83335
 31
0.0
  0
LINE
  5
622
330
1D
100
AcDbEntity
  8
0
  6
Continuous
100
AcDbLine
 10
880.5159640179029
 20
-40.83335
 30
0.0
 11
883.0760140179028
 21
-40.83335
 31
0.0
  0
LINE
  5
623
330
1D
100
AcDbEntity
  8
0
  6
Continuous
100
AcDbLine
 10
883.0760140179028
 20
-40.83335
 30
0.0
 11
884.612004017903
 21
-40.83335
 31
0.0
  0
LINE
  5
624
330
1D
100
AcDbEntity
  8
0
  6
Continuous
100
AcDbLine
 10
885.187984017903
 20
-40.83335
 30
0.0
 11
885.187984017903
 21
-34.89976
 31
0.0
  0
LINE
  5
625
330
1D
100
AcDbEntity
  8
0
  6
Continuous
100
AcDbLine
 10
884.612004017903
 20
-40.83335
 30
0.0
 11
885.187984017903
 21
-40.83335
 31
0.0
  0
LINE
  5
626
330
1D
100
AcDbEntity
  8
0
  6
Continuous
100
AcDbLine
 10
1126.295434017903
 20
-34.99974
 30
0.0
 11
646.1880740179029
 21
-34.99974
 31
0.0
  0
LINE
  5
627
330
1D
100
AcDbEntity
  8
0
  6
Continuous
100
AcDbLine
 10
1126.295434017903
 20
-34.99974
 30
0.0
 11
1082.186424017903
 21
-34.99974
 31
0.0
  0
LINE
  5
628
330
1D
100
AcDbEntity
  8
0
  6
Continuous
100
AcDbLine
 10
1076.186444017903
 20
-34.99974
 30
0.0
 11
1061.186474017903
 21
-34.99974
 31
0.0
  0
LINE
  5
629
330
1D
100
AcDbEntity
  8
0
  6
Continuous
100
AcDbLine
 10
1055.186494017903
 20
-34.99974
 30
0.0
 11
1040.186534017903
 21
-34.99974
 31
0.0
  0
LINE
  5
62A
330
1D
100
AcDbEntity
  8
0
  6
Continuous
100
AcDbLine
 10
1034.186544017903
 20
-34.99974
 30
0.0
 11
1019.186584017903
 21
-34.99974
 31
0.0
  0
LINE
  5
62B
330
1D
100
AcDbEntity
  8
0
  6
Continuous
100
AcDbLine
 10
1013.186604017903
 20
-34.99974
 30
0.0
 11
998.1866340179029
 21
-34.99974
 31
0.0
  0
LINE
  5
62C
330
1D
100
AcDbEntity
  8
0
  6
Continuous
100
AcDbLine
 10
992.186654017903
 20
-34.99974
 30
0.0
 11
977.1867140179029
 21
-34.99974
 31
0.0
  0
LINE
  5
62D
330
1D
100
AcDbEntity
  8
0
  6
Continuous
100
AcDbLine
 10
971.186724017903
 20
-34.99974
 30
0.0
 11
956.1867640179029
 21
-34.99974
 31
0.0
  0
LINE
  5
62E
330
1D
100
AcDbEntity
  8
0
  6
Continuous
100
AcDbLine
 10
950.1867840179029
 20
-34.99974
 30
0.0
 11
935.186814017903
 21
-34.99974
 31
0.0
  0
LINE
  5
62F
330
1D
100
AcDbEntity
  8
0
  6
Continuous
100
AcDbLine
 10
929.186834017903
 20
-34.99974
 30
0.0
 11
914.1868740179029
 21
-34.99974
 31
0.0
  0
LINE
  5
630
330
1D
100
AcDbEntity
  8
0
  6
Continuous
100
AcDbLine
 10
908.186884017903
 20
-34.99974
 30
0.0
 11
898.291234017903
 21
-34.99974
 31
0.0
  0
LINE
  5
631
330
1D
100
AcDbEntity
  8
0
  6
Continuous
100
AcDbLine
 10
887.186954017903
 20
-34.99974
 30
0.0
 11
885.187984017903
 21
-34.99974
 31
0.0
  0
LINE
  5
632
330
1D
100
AcDbEntity
  8
0
  6
Continuous
100
AcDbLine
 10
853.188014017903
 20
-34.99974
 30
0.0
 11
851.1870540179028
 21
-34.99974
 31
0.0
  0
LINE
  5
633
330
1D
100
AcDbEntity
  8
0
  6
Continuous
100
AcDbLine
 10
840.230174017903
 20
-34.99974
 30
0.0
 11
830.187064017903
 21
-34.99974
 31
0.0
  0
LINE
  5
634
330
1D
100
AcDbEntity
  8
0
  6
Continuous
100
AcDbLine
 10
824.1870840179029
 20
-34.99974
 30
0.0
 11
809.1871540179029
 21
-34.99974
 31
0.0
  0
LINE
  5
635
330
1D
100
AcDbEntity
  8
0
  6
Continuous
100
AcDbLine
 10
803.1871740179029
 20
-34.99974
 30
0.0
 11
788.1872140179029
 21
-34.99974
 31
0.0
  0
LINE
  5
636
330
1D
100
AcDbEntity
  8
0
  6
Continuous
100
AcDbLine
 10
782.1872240179029
 20
-34.99974
 30
0.0
 11
767.187264017903
 21
-34.99974
 31
0.0
  0
LINE
  5
637
330
1D
100
AcDbEntity
  8
0
  6
Continuous
100
AcDbLine
 10
761.187284017903
 20
-34.99974
 30
0.0
 11
746.1873140179029
 21
-34.99974
 31
0.0
  0
LINE
  5
638
330
1D
100
AcDbEntity
  8
0
  6
Continuous
100
AcDbLine
 10
740.1873340179029
 20
-34.99974
 30
0.0
 11
725.187374017903
 21
-34.99974
 31
0.0
  0
LINE
  5
639
330
1D
100
AcDbEntity
  8
0
  6
Continuous
100
AcDbLine
 10
719.187384017903
 20
-34.99974
 30
0.0
 11
704.187424017903
 21
-34.99974
 31
0.0
  0
LINE
  5
63A
330
1D
100
AcDbEntity
  8
0
  6
Continuous
100
AcDbLine
 10
698.1874440179029
 20
-34.99974
 30
0.0
 11
683.187474017903
 21
-34.99974
 31
0.0
  0
LINE
  5
63B
330
1D
100
AcDbEntity
  8
0
  6
Continuous
100
AcDbLine
 10
677.187494017903
 20
-34.99974
 30
0.0
 11
662.187534017903
 21
-34.99974
 31
0.0
  0
LINE
  5
63C
330
1D
100
AcDbEntity
  8
0
  6
Continuous
100
AcDbLine
 10
656.187544017903
 20
-34.99974
 30
0.0
 11
646.1880740179029
 21
-34.99974
 31
0.0
  0
LINE
  5
63D
330
1D
100
AcDbEntity
  8
0
  6
Continuous
100
AcDbLine
 10
1168.188054017903
 20
-34.99974
 30
0.0
 11
1126.295434017903
 21
-34.99974
 31
0.0
  0
LINE
  5
63E
330
1D
100
AcDbEntity
  8
0
  6
Continuous
100
AcDbLine
 10
1168.188074017903
 20
-34.99974
 30
0.0
 11
1126.295434017903
 21
-34.99974
 31
0.0
  0
LINE
  5
63F
330
1D
100
AcDbEntity
  8
0
  6
Continuous
100
AcDbLine
 10
1178.188094017903
 20
-34.99974
 30
0.0
 11
1177.426854017903
 21
-34.99974
 31
0.0
  0
LINE
  5
640
330
1D
100
AcDbEntity
  8
0
  6
Continuous
100
AcDbLine
 10
1177.426854017903
 20
-34.99974
 30
0.0
 11
1175.259134017903
 21
-34.99974
 31
0.0
  0
LINE
  5
641
330
1D
100
AcDbEntity
  8
0
  6
Continuous
100
AcDbLine
 10
1175.259134017903
 20
-34.99974
 30
0.0
 11
1172.014904017903
 21
-34.99974
 31
0.0
  0
LINE
  5
642
330
1D
100
AcDbEntity
  8
0
  6
Continuous
100
AcDbLine
 10
1172.014904017903
 20
-34.99974
 30
0.0
 11
1168.188054017903
 21
-34.99974
 31
0.0
  0
LINE
  5
643
330
1D
100
AcDbEntity
  8
0
  6
Continuous
100
AcDbLine
 10
1178.188094017903
 20
-34.99974
 30
0.0
 11
1177.426854017903
 21
-34.99974
 31
0.0
  0
LINE
  5
644
330
1D
100
AcDbEntity
  8
0
  6
Continuous
100
AcDbLine
 10
1178.188074017903
 20
-35.73974
 30
0.0
 11
1178.188094017903
 21
-34.99974
 31
0.0
  0
LINE
  5
645
330
1D
100
AcDbEntity
  8
0
  6
Continuous
100
AcDbLine
 10
1177.426854017903
 20
-34.99974
 30
0.0
 11
1175.259134017903
 21
-34.99974
 31
0.0
  0
LINE
  5
646
330
1D
100
AcDbEntity
  8
0
  6
Continuous
100
AcDbLine
 10
1175.259134017903
 20
-34.99974
 30
0.0
 11
1172.014924017903
 21
-34.99974
 31
0.0
  0
LINE
  5
647
330
1D
100
AcDbEntity
  8
0
  6
Continuous
100
AcDbLine
 10
1172.014924017903
 20
-34.99974
 30
0.0
 11
1168.188074017903
 21
-34.99974
 31
0.0
  0
LINE
  5
648
330
1D
100
AcDbEntity
  8
0
  6
Continuous
100
AcDbLine
 10
636.188074017903
 20
-34.99974
 30
0.0
 11
636.9492940179029
 21
-34.99974
 31
0.0
  0
LINE
  5
649
330
1D
100
AcDbEntity
  8
0
  6
Continuous
100
AcDbLine
 10
636.9492940179029
 20
-34.99974
 30
0.0
 11
639.117034017903
 21
-34.99974
 31
0.0
  0
LINE
  5
64A
330
1D
100
AcDbEntity
  8
0
  6
Continuous
100
AcDbLine
 10
639.117034017903
 20
-34.99974
 30
0.0
 11
642.361244017903
 21
-34.99974
 31
0.0
  0
LINE
  5
64B
330
1D
100
AcDbEntity
  8
0
  6
Continuous
100
AcDbLine
 10
642.361244017903
 20
-34.99974
 30
0.0
 11
646.1880740179029
 21
-34.99974
 31
0.0
  0
LINE
  5
64C
330
1D
100
AcDbEntity
  8
0
  6
Continuous
100
AcDbLine
 10
636.188074017903
 20
-34.99974
 30
0.0
 11
636.188074017903
 21
-35.73974
 31
0.0
  0
LINE
  5
64D
330
1D
100
AcDbEntity
  8
0
  6
Continuous
100
AcDbLine
 10
636.188074017903
 20
-34.99974
 30
0.0
 11
636.9492940179029
 21
-34.99974
 31
0.0
  0
LINE
  5
64E
330
1D
100
AcDbEntity
  8
0
  6
Continuous
100
AcDbLine
 10
636.9492940179029
 20
-34.99974
 30
0.0
 11
639.1169940179029
 21
-34.99974
 31
0.0
  0
LINE
  5
64F
330
1D
100
AcDbEntity
  8
0
  6
Continuous
100
AcDbLine
 10
639.1169940179029
 20
-34.99974
 30
0.0
 11
642.361244017903
 21
-34.99974
 31
0.0
  0
LINE
  5
650
330
1D
100
AcDbEntity
  8
0
  6
Continuous
100
AcDbLine
 10
642.361244017903
 20
-34.99974
 30
0.0
 11
646.1880740179029
 21
-34.99974
 31
0.0
  0
LINE
  5
651
330
1D
100
AcDbEntity
  8
0
  6
Continuous
100
AcDbLine
 10
1126.295434017903
 20
-38.99982
 30
0.0
 11
646.1880740179029
 21
-38.99982
 31
0.0
  0
LINE
  5
652
330
1D
100
AcDbEntity
  8
0
  6
Continuous
100
AcDbLine
 10
1126.295434017903
 20
-38.99982
 30
0.0
 11
1082.186424017903
 21
-38.99982
 31
0.0
  0
LINE
  5
653
330
1D
100
AcDbEntity
  8
0
  6
Continuous
100
AcDbLine
 10
1076.186444017903
 20
-38.99982
 30
0.0
 11
1061.186474017903
 21
-38.99982
 31
0.0
  0
LINE
  5
654
330
1D
100
AcDbEntity
  8
0
  6
Continuous
100
AcDbLine
 10
1055.186494017903
 20
-38.99982
 30
0.0
 11
1040.186534017903
 21
-38.99982
 31
0.0
  0
LINE
  5
655
330
1D
100
AcDbEntity
  8
0
  6
Continuous
100
AcDbLine
 10
1034.186544017903
 20
-38.99982
 30
0.0
 11
1019.186584017903
 21
-38.99982
 31
0.0
  0
LINE
  5
656
330
1D
100
AcDbEntity
  8
0
  6
Continuous
100
AcDbLine
 10
1013.186604017903
 20
-38.99982
 30
0.0
 11
998.1866340179029
 21
-38.99982
 31
0.0
  0
LINE
  5
657
330
1D
100
AcDbEntity
  8
0
  6
Continuous
100
AcDbLine
 10
992.186654017903
 20
-38.99982
 30
0.0
 11
977.1867140179029
 21
-38.99982
 31
0.0
  0
LINE
  5
658
330
1D
100
AcDbEntity
  8
0
  6
Continuous
100
AcDbLine
 10
971.186724017903
 20
-38.99982
 30
0.0
 11
956.1867640179029
 21
-38.99982
 31
0.0
  0
LINE
  5
659
330
1D
100
AcDbEntity
  8
0
  6
Continuous
100
AcDbLine
 10
950.1867840179029
 20
-38.99982
 30
0.0
 11
935.186814017903
 21
-38.99982
 31
0.0
  0
LINE
  5
65A
330
1D
100
AcDbEntity
  8
0
  6
Continuous
100
AcDbLine
 10
929.186834017903
 20
-38.99982
 30
0.0
 11
914.1868740179029
 21
-38.99982
 31
0.0
  0
LINE
  5
65B
330
1D
100
AcDbEntity
  8
0
  6
Continuous
100
AcDbLine
 10
908.186884017903
 20
-38.99982
 30
0.0
 11
898.291234017903
 21
-38.99982
 31
0.0
  0
LINE
  5
65C
330
1D
100
AcDbEntity
  8
0
  6
Continuous
100
AcDbLine
 10
887.186954017903
 20
-38.99982
 30
0.0
 11
885.187984017903
 21
-38.99982
 31
0.0
  0
LINE
  5
65D
330
1D
100
AcDbEntity
  8
0
  6
Continuous
100
AcDbLine
 10
853.188014017903
 20
-38.99982
 30
0.0
 11
851.1870540179028
 21
-38.99982
 31
0.0
  0
LINE
  5
65E
330
1D
100
AcDbEntity
  8
0
  6
Continuous
100
AcDbLine
 10
840.230174017903
 20
-38.99982
 30
0.0
 11
830.187064017903
 21
-38.99982
 31
0.0
  0
LINE
  5
65F
330
1D
100
AcDbEntity
  8
0
  6
Continuous
100
AcDbLine
 10
824.1870840179029
 20
-38.99982
 30
0.0
 11
809.1871540179029
 21
-38.99982
 31
0.0
  0
LINE
  5
660
330
1D
100
AcDbEntity
  8
0
  6
Continuous
100
AcDbLine
 10
803.1871740179029
 20
-38.99982
 30
0.0
 11
788.1872140179029
 21
-38.99982
 31
0.0
  0
LINE
  5
661
330
1D
100
AcDbEntity
  8
0
  6
Continuous
100
AcDbLine
 10
782.1872240179029
 20
-38.99982
 30
0.0
 11
767.187264017903
 21
-38.99982
 31
0.0
  0
LINE
  5
662
330
1D
100
AcDbEntity
  8
0
  6
Continuous
100
AcDbLine
 10
761.187284017903
 20
-38.99982
 30
0.0
 11
746.1873140179029
 21
-38.99982
 31
0.0
  0
LINE
  5
663
330
1D
100
AcDbEntity
  8
0
  6
Continuous
100
AcDbLine
 10
740.1873340179029
 20
-38.99982
 30
0.0
 11
725.187374017903
 21
-38.99982
 31
0.0
  0
LINE
  5
664
330
1D
100
AcDbEntity
  8
0
  6
Continuous
100
AcDbLine
 10
719.187384017903
 20
-38.99982
 30
0.0
 11
704.187424017903
 21
-38.99982
 31
0.0
  0
LINE
  5
665
330
1D
100
AcDbEntity
  8
0
  6
Continuous
100
AcDbLine
 10
698.1874440179029
 20
-38.99982
 30
0.0
 11
683.187474017903
 21
-38.99982
 31
0.0
  0
LINE
  5
666
330
1D
100
AcDbEntity
  8
0
  6
Continuous
100
AcDbLine
 10
677.187494017903
 20
-38.99982
 30
0.0
 11
662.187534017903
 21
-38.99982
 31
0.0
  0
LINE
  5
667
330
1D
100
AcDbEntity
  8
0
  6
Continuous
100
AcDbLine
 10
656.187544017903
 20
-38.99982
 30
0.0
 11
646.1880740179029
 21
-38.99982
 31
0.0
  0
LINE
  5
668
330
1D
100
AcDbEntity
  8
0
  6
Continuous
100
AcDbLine
 10
1168.188054017903
 20
-38.99982
 30
0.0
 11
1126.295434017903
 21
-38.99982
 31
0.0
  0
LINE
  5
669
330
1D
100
AcDbEntity
  8
0
  6
Continuous
100
AcDbLine
 10
1168.188074017903
 20
-38.99982
 30
0.0
 11
1126.295434017903
 21
-38.99982
 31
0.0
  0
LINE
  5
66A
330
1D
100
AcDbEntity
  8
0
  6
Continuous
100
AcDbLine
 10
1178.188094017903
 20
-38.99982
 30
0.0
 11
1177.426854017903
 21
-38.99982
 31
0.0
  0
LINE
  5
66B
330
1D
100
AcDbEntity
  8
0
  6
Continuous
100
AcDbLine
 10
1177.426854017903
 20
-38.99982
 30
0.0
 11
1175.259134017903
 21
-38.99982
 31
0.0
  0
LINE
  5
66C
330
1D
100
AcDbEntity
  8
0
  6
Continuous
100
AcDbLine
 10
1175.259134017903
 20
-38.99982
 30
0.0
 11
1172.014904017903
 21
-38.99982
 31
0.0
  0
LINE
  5
66D
330
1D
100
AcDbEntity
  8
0
  6
Continuous
100
AcDbLine
 10
1172.014904017903
 20
-38.99982
 30
0.0
 11
1168.188054017903
 21
-38.99982
 31
0.0
  0
LINE
  5
66E
330
1D
100
AcDbEntity
  8
0
  6
Continuous
100
AcDbLine
 10
1178.188094017903
 20
-38.99982
 30
0.0
 11
1178.188074017903
 21
-38.25983
 31
0.0
  0
LINE
  5
66F
330
1D
100
AcDbEntity
  8
0
  6
Continuous
100
AcDbLine
 10
1178.188094017903
 20
-38.99982
 30
0.0
 11
1177.426854017903
 21
-38.99982
 31
0.0
  0
LINE
  5
670
330
1D
100
AcDbEntity
  8
0
  6
Continuous
100
AcDbLine
 10
1177.426854017903
 20
-38.99982
 30
0.0
 11
1175.259134017903
 21
-38.99982
 31
0.0
  0
LINE
  5
671
330
1D
100
AcDbEntity
  8
0
  6
Continuous
100
AcDbLine
 10
1175.259134017903
 20
-38.99982
 30
0.0
 11
1172.014924017903
 21
-38.99982
 31
0.0
  0
LINE
  5
672
330
1D
100
AcDbEntity
  8
0
  6
Continuous
100
AcDbLine
 10
1172.014924017903
 20
-38.99982
 30
0.0
 11
1168.188074017903
 21
-38.99982
 31
0.0
  0
LINE
  5
673
330
1D
100
AcDbEntity
  8
0
  6
Continuous
100
AcDbLine
 10
636.188074017903
 20
-38.99982
 30
0.0
 11
636.9492940179029
 21
-38.99982
 31
0.0
  0
LINE
  5
674
330
1D
100
AcDbEntity
  8
0
  6
Continuous
100
AcDbLine
 10
636.9492940179029
 20
-38.99982
 30
0.0
 11
639.1169940179029
 21
-38.99982
 31
0.0
  0
LINE
  5
675
330
1D
100
AcDbEntity
  8
0
  6
Continuous
100
AcDbLine
 10
639.1169940179029
 20
-38.99982
 30
0.0
 11
642.361244017903
 21
-38.99982
 31
0.0
  0
LINE
  5
676
330
1D
100
AcDbEntity
  8
0
  6
Continuous
100
AcDbLine
 10
642.361244017903
 20
-38.99982
 30
0.0
 11
646.1880740179029
 21
-38.99982
 31
0.0
  0
LINE
  5
677
330
1D
100
AcDbEntity
  8
0
  6
Continuous
100
AcDbLine
 10
636.188074017903
 20
-38.99982
 30
0.0
 11
636.9492940179029
 21
-38.99982
 31
0.0
  0
LINE
  5
678
330
1D
100
AcDbEntity
  8
0
  6
Continuous
100
AcDbLine
 10
636.188074017903
 20
-38.25983
 30
0.0
 11
636.188074017903
 21
-38.99982
 31
0.0
  0
LINE
  5
679
330
1D
100
AcDbEntity
  8
0
  6
Continuous
100
AcDbLine
 10
636.9492940179029
 20
-38.99982
 30
0.0
 11
639.1169940179029
 21
-38.99982
 31
0.0
  0
LINE
  5
67A
330
1D
100
AcDbEntity
  8
0
  6
Continuous
100
AcDbLine
 10
639.1169940179029
 20
-38.99982
 30
0.0
 11
642.361244017903
 21
-38.99982
 31
0.0
  0
LINE
  5
67B
330
1D
100
AcDbEntity
  8
0
  6
Continuous
100
AcDbLine
 10
642.361244017903
 20
-38.99982
 30
0.0
 11
646.1880740179029
 21
-38.99982
 31
0.0
  0
LINE
  5
67C
330
1D
100
AcDbEntity
  8
0
  6
Continuous
100
AcDbLine
 10
1131.125514017903
 20
-34.99974
 30
0.0
 11
1132.562884017903
 21
-34.99974
 31
0.0
  0
LINE
  5
67D
330
1D
100
AcDbEntity
  8
0
  6
Continuous
100
AcDbLine
 10
1135.438104017903
 20
-35.75462
 30
0.0
 11
1135.438104017903
 21
-34.99974
 31
0.0
  0
LINE
  5
67E
330
1D
100
AcDbEntity
  8
0
  6
Continuous
100
AcDbLine
 10
1131.125494017903
 20
-34.99974
 30
0.0
 11
1129.688114017903
 21
-34.99974
 31
0.0
  0
LINE
  5
67F
330
1D
100
AcDbEntity
  8
0
  6
Continuous
100
AcDbLine
 10
1123.938104017903
 20
-34.99974
 30
0.0
 11
1123.938104017903
 21
-35.75462
 31
0.0
  0
LINE
  5
680
330
1D
100
AcDbEntity
  8
0
  6
Continuous
100
AcDbLine
 10
1132.562864017903
 20
-34.99974
 30
0.0
 11
1134.667094017903
 21
-34.99974
 31
0.0
  0
LINE
  5
681
330
1D
100
AcDbEntity
  8
0
  6
Continuous
100
AcDbLine
 10
1131.125494017903
 20
-34.99974
 30
0.0
 11
1132.562864017903
 21
-34.99974
 31
0.0
  0
LINE
  5
682
330
1D
100
AcDbEntity
  8
0
  6
Continuous
100
AcDbLine
 10
1134.667094017903
 20
-34.99974
 30
0.0
 11
1135.438104017903
 21
-34.99974
 31
0.0
  0
LINE
  5
683
330
1D
100
AcDbEntity
  8
0
  6
Continuous
100
AcDbLine
 10
1126.813074017903
 20
-34.99974
 30
0.0
 11
1129.688114017903
 21
-34.99974
 31
0.0
  0
LINE
  5
684
330
1D
100
AcDbEntity
  8
0
  6
Continuous
100
AcDbLine
 10
1124.708444017903
 20
-34.99974
 30
0.0
 11
1126.813074017903
 21
-34.99974
 31
0.0
  0
LINE
  5
685
330
1D
100
AcDbEntity
  8
0
  6
Continuous
100
AcDbLine
 10
1135.438104017903
 20
-34.99974
 30
0.0
 11
1134.667114017903
 21
-34.99974
 31
0.0
  0
LINE
  5
686
330
1D
100
AcDbEntity
  8
0
  6
Continuous
100
AcDbLine
 10
1123.938104017903
 20
-34.99974
 30
0.0
 11
1124.708444017903
 21
-34.99974
 31
0.0
  0
LINE
  5
687
330
1D
100
AcDbEntity
  8
0
  6
Continuous
100
AcDbLine
 10
1134.667114017903
 20
-34.99974
 30
0.0
 11
1132.562884017903
 21
-34.99974
 31
0.0
  0
LINE
  5
688
330
1D
100
AcDbEntity
  8
0
  6
Continuous
100
AcDbLine
 10
1131.125514017903
 20
-34.99974
 30
0.0
 11
1129.688134017903
 21
-34.99974
 31
0.0
  0
LINE
  5
689
330
1D
100
AcDbEntity
  8
0
  6
Continuous
100
AcDbLine
 10
1124.708464017903
 20
-34.99974
 30
0.0
 11
1123.938124017903
 21
-34.99974
 31
0.0
  0
LINE
  5
68A
330
1D
100
AcDbEntity
  8
0
  6
Continuous
100
AcDbLine
 10
1129.688134017903
 20
-34.99974
 30
0.0
 11
1126.813074017903
 21
-34.99974
 31
0.0
  0
LINE
  5
68B
330
1D
100
AcDbEntity
  8
0
  6
Continuous
100
AcDbLine
 10
1126.813074017903
 20
-34.99974
 30
0.0
 11
1124.708464017903
 21
-34.99974
 31
0.0
  0
LINE
  5
68C
330
1D
100
AcDbEntity
  8
0
  6
Continuous
100
AcDbLine
 10
636.188074017903
 20
-38.25983
 30
0.0
 11
636.188074017903
 21
-35.73974
 31
0.0
  0
LINE
  5
68D
330
1D
100
AcDbEntity
  8
0
  6
Continuous
100
AcDbLine
 10
1178.188074017903
 20
-38.25983
 30
0.0
 11
1178.188074017903
 21
-35.73974
 31
0.0
  0
LINE
  5
68E
330
1D
100
AcDbEntity
  8
0
  6
Continuous
100
AcDbLine
 10
1135.438104017903
 20
-35.75462
 30
0.0
 11
1135.438104017903
 21
-38.24495
 31
0.0
  0
LINE
  5
68F
330
1D
100
AcDbEntity
  8
0
  6
Continuous
100
AcDbLine
 10
1123.938104017903
 20
-38.24495
 30
0.0
 11
1123.938104017903
 21
-35.75462
 31
0.0
  0
LINE
  5
690
330
1D
100
AcDbEntity
  8
0
  6
Continuous
100
AcDbLine
 10
1132.562884017903
 20
-38.99982
 30
0.0
 11
1131.125514017903
 21
-38.99982
 31
0.0
  0
LINE
  5
691
330
1D
100
AcDbEntity
  8
0
  6
Continuous
100
AcDbLine
 10
1135.438104017903
 20
-38.99982
 30
0.0
 11
1135.438104017903
 21
-38.24495
 31
0.0
  0
LINE
  5
692
330
1D
100
AcDbEntity
  8
0
  6
Continuous
100
AcDbLine
 10
1129.688114017903
 20
-38.99982
 30
0.0
 11
1131.125494017903
 21
-38.99982
 31
0.0
  0
LINE
  5
693
330
1D
100
AcDbEntity
  8
0
  6
Continuous
100
AcDbLine
 10
1123.938104017903
 20
-38.24495
 30
0.0
 11
1123.938104017903
 21
-38.99982
 31
0.0
  0
LINE
  5
694
330
1D
100
AcDbEntity
  8
0
  6
Continuous
100
AcDbLine
 10
1134.667094017903
 20
-38.99982
 30
0.0
 11
1132.562864017903
 21
-38.99982
 31
0.0
  0
LINE
  5
695
330
1D
100
AcDbEntity
  8
0
  6
Continuous
100
AcDbLine
 10
1132.562864017903
 20
-38.99982
 30
0.0
 11
1131.125494017903
 21
-38.99982
 31
0.0
  0
LINE
  5
696
330
1D
100
AcDbEntity
  8
0
  6
Continuous
100
AcDbLine
 10
1135.438104017903
 20
-38.99982
 30
0.0
 11
1134.667094017903
 21
-38.99982
 31
0.0
  0
LINE
  5
697
330
1D
100
AcDbEntity
  8
0
  6
Continuous
100
AcDbLine
 10
1129.688114017903
 20
-38.99982
 30
0.0
 11
1126.813074017903
 21
-38.99982
 31
0.0
  0
LINE
  5
698
330
1D
100
AcDbEntity
  8
0
  6
Continuous
100
AcDbLine
 10
1126.813074017903
 20
-38.99982
 30
0.0
 11
1124.708444017903
 21
-38.99982
 31
0.0
  0
LINE
  5
699
330
1D
100
AcDbEntity
  8
0
  6
Continuous
100
AcDbLine
 10
1134.667114017903
 20
-38.99982
 30
0.0
 11
1135.438104017903
 21
-38.99982
 31
0.0
  0
LINE
  5
69A
330
1D
100
AcDbEntity
  8
0
  6
Continuous
100
AcDbLine
 10
1124.708444017903
 20
-38.99982
 30
0.0
 11
1123.938104017903
 21
-38.99982
 31
0.0
  0
LINE
  5
69B
330
1D
100
AcDbEntity
  8
0
  6
Continuous
100
AcDbLine
 10
1132.562884017903
 20
-38.99982
 30
0.0
 11
1134.667114017903
 21
-38.99982
 31
0.0
  0
LINE
  5
69C
330
1D
100
AcDbEntity
  8
0
  6
Continuous
100
AcDbLine
 10
1129.688134017903
 20
-38.99982
 30
0.0
 11
1131.125514017903
 21
-38.99982
 31
0.0
  0
LINE
  5
69D
330
1D
100
AcDbEntity
  8
0
  6
Continuous
100
AcDbLine
 10
1123.938124017903
 20
-38.99982
 30
0.0
 11
1124.708464017903
 21
-38.99982
 31
0.0
  0
LINE
  5
69E
330
1D
100
AcDbEntity
  8
0
  6
Continuous
100
AcDbLine
 10
1126.813074017903
 20
-38.99982
 30
0.0
 11
1129.688134017903
 21
-38.99982
 31
0.0
  0
LINE
  5
69F
330
1D
100
AcDbEntity
  8
0
  6
Continuous
100
AcDbLine
 10
1124.708464017903
 20
-38.99982
 30
0.0
 11
1126.813074017903
 21
-38.99982
 31
0.0
  0
LINE
  5
6A0
330
1D
100
AcDbEntity
  8
0
  6
Continuous
100
AcDbLine
 10
635.7222340179029
 20
-16.89976
 30
0.0
 11
635.7222340179029
 21
-33.39976
 31
0.0
  0
LINE
  5
6A1
330
1D
100
AcDbEntity
  8
0
  6
Continuous
100
AcDbLine
 10
641.8954040179031
 20
-34.89976
 30
0.0
 11
645.722234017903
 21
-34.89976
 31
0.0
  0
LINE
  5
6A2
330
1D
100
AcDbEntity
  8
0
  6
Continuous
100
AcDbLine
 10
645.722234017903
 20
-15.39976
 30
0.0
 11
641.8954040179031
 21
-15.39976
 31
0.0
  0
LINE
  5
6A3
330
1D
100
AcDbEntity
  8
0
  6
Continuous
100
AcDbLine
 10
638.651154017903
 20
-34.89976
 30
0.0
 11
641.8954040179031
 21
-34.89976
 31
0.0
  0
LINE
  5
6A4
330
1D
100
AcDbEntity
  8
0
  6
Continuous
100
AcDbLine
 10
641.8954040179031
 20
-15.39976
 30
0.0
 11
638.651154017903
 21
-15.39976
 31
0.0
  0
LINE
  5
6A5
330
1D
100
AcDbEntity
  8
0
  6
Continuous
100
AcDbLine
 10
636.483454017903
 20
-34.89976
 30
0.0
 11
638.651154017903
 21
-34.89976
 31
0.0
  0
LINE
  5
6A6
330
1D
100
AcDbEntity
  8
0
  6
Continuous
100
AcDbLine
 10
638.651154017903
 20
-15.39976
 30
0.0
 11
636.483454017903
 21
-15.39976
 31
0.0
  0
LINE
  5
6A7
330
1D
100
AcDbEntity
  8
0
  6
Continuous
100
AcDbLine
 10
635.7222340179029
 20
-33.39976
 30
0.0
 11
635.722194017903
 21
-34.89976
 31
0.0
  0
LINE
  5
6A8
330
1D
100
AcDbEntity
  8
0
  6
Continuous
100
AcDbLine
 10
635.722194017903
 20
-34.89976
 30
0.0
 11
636.483454017903
 21
-34.89976
 31
0.0
  0
LINE
  5
6A9
330
1D
100
AcDbEntity
  8
0
  6
Continuous
100
AcDbLine
 10
635.722194017903
 20
-15.39976
 30
0.0
 11
635.7222340179029
 21
-16.89976
 31
0.0
  0
LINE
  5
6AA
330
1D
100
AcDbEntity
  8
0
  6
Continuous
100
AcDbLine
 10
636.483454017903
 20
-15.39976
 30
0.0
 11
635.722194017903
 21
-15.39976
 31
0.0
  0
LINE
  5
6AB
330
1D
100
AcDbEntity
  8
0
  6
Continuous
100
AcDbLine
 10
645.722234017903
 20
-34.89976
 30
0.0
 11
1214.746314017903
 21
-34.89976
 31
0.0
  0
LINE
  5
6AC
330
1D
100
AcDbEntity
  8
0
  6
Continuous
100
AcDbLine
 10
1214.746314017903
 20
-15.39976
 30
0.0
 11
645.722234017903
 21
-15.39976
 31
0.0
  0
LINE
  5
6AD
330
1D
100
AcDbEntity
  8
0
  6
Continuous
100
AcDbLine
 10
1214.746314017903
 20
21.05423999999999
 30
0.0
 11
882.7484040179029
 21
21.05423999999999
 31
0.0
  0
LINE
  5
6AE
330
1D
100
AcDbEntity
  8
0
  6
Continuous
100
AcDbLine
 10
646.8107940179029
 20
-12.2016
 30
0.0
 11
639.764894017903
 21
-13.28314
 31
0.0
  0
LINE
  5
6AF
330
1D
100
AcDbEntity
  8
0
  6
Continuous
100
AcDbLine
 10
856.1857940179029
 20
18.54832999999999
 30
0.0
 11
847.251194017903
 21
16.28963999999999
 31
0.0
  0
LINE
  5
6B0
330
1D
100
AcDbEntity
  8
0
  6
Continuous
100
AcDbLine
 10
829.7496740179029
 20
7.807900000000003
 30
0.0
 11
810.3034940179028
 21
2.90455
 31
0.0
  0
LINE
  5
6B1
330
1D
100
AcDbEntity
  8
0
  6
Continuous
100
AcDbLine
 10
847.251194017903
 20
16.28963999999999
 30
0.0
 11
829.7496740179029
 21
7.807900000000003
 31
0.0
  0
LINE
  5
6B2
330
1D
100
AcDbEntity
  8
0
  6
Continuous
100
AcDbLine
 10
646.7880940179029
 20
-13.58752
 30
0.0
 11
807.8189040179029
 21
-13.58752
 31
0.0
  0
LINE
  5
6B3
330
1D
100
AcDbEntity
  8
0
  6
Continuous
100
AcDbLine
 10
876.1323840179029
 20
20.72387
 30
0.0
 11
869.4485740179029
 21
20.38694
 31
0.0
  0
LINE
  5
6B4
330
1D
100
AcDbEntity
  8
0
  6
Continuous
100
AcDbLine
 10
869.4485740179029
 20
20.38694
 30
0.0
 11
862.8026140179029
 21
19.56233
 31
0.0
  0
LINE
  5
6B5
330
1D
100
AcDbEntity
  8
0
  6
Continuous
100
AcDbLine
 10
862.8026140179029
 20
19.56233
 30
0.0
 11
856.1857940179029
 21
18.54832999999999
 31
0.0
  0
LINE
  5
6B6
330
1D
100
AcDbEntity
  8
0
  6
Continuous
100
AcDbLine
 10
882.7484040179029
 20
21.05423999999999
 30
0.0
 11
876.1323840179029
 21
20.72387
 31
0.0
  0
LINE
  5
6B7
330
1D
100
AcDbEntity
  8
0
  6
Continuous
100
AcDbLine
 10
639.764894017903
 20
-13.28314
 30
0.0
 11
637.788074017903
 21
-13.58752
 31
0.0
  0
LINE
  5
6B8
330
1D
100
AcDbEntity
  8
0
  6
Continuous
100
AcDbLine
 10
637.5379140179029
 20
-13.58752
 30
0.0
 11
640.1561640179029
 21
-13.58752
 31
0.0
  0
LINE
  5
6B9
330
1D
100
AcDbEntity
  8
0
  6
Continuous
100
AcDbLine
 10
639.533154017903
 20
-13.51972999999999
 30
0.0
 11
637.5379140179029
 21
-13.58752
 31
0.0
  0
LINE
  5
6BA
330
1D
100
AcDbEntity
  8
0
  6
Continuous
100
AcDbLine
 10
637.5379140179029
 20
-13.58752
 30
0.0
 11
637.537984017903
 21
-15.58752
 31
0.0
  0
LINE
  5
6BB
330
1D
100
AcDbEntity
  8
0
  6
Continuous
100
AcDbLine
 10
638.2195640179029
 20
-13.58752
 30
0.0
 11
637.5379140179029
 21
-13.58752
 31
0.0
  0
LINE
  5
6BC
330
1D
100
AcDbEntity
  8
0
  6
Continuous
100
AcDbLine
 10
646.788704017903
 20
-13.5245
 30
0.0
 11
643.182514017903
 21
-13.58752
 31
0.0
  0
LINE
  5
6BD
330
1D
100
AcDbEntity
  8
0
  6
Continuous
100
AcDbLine
 10
643.182514017903
 20
-13.58752
 30
0.0
 11
646.7880940179029
 21
-13.58752
 31
0.0
  0
LINE
  5
6BE
330
1D
100
AcDbEntity
  8
0
  6
Continuous
100
AcDbLine
 10
643.182514017903
 20
-13.58752
 30
0.0
 11
640.0455740179029
 21
-13.58752
 31
0.0
  0
LINE
  5
6BF
330
1D
100
AcDbEntity
  8
0
  6
Continuous
100
AcDbLine
 10
640.0455740179029
 20
-13.58752
 30
0.0
 11
638.2195640179029
 21
-13.58752
 31
0.0
  0
LINE
  5
6C0
330
1D
100
AcDbEntity
  8
0
  6
Continuous
100
AcDbLine
 10
1214.746314017903
 20
-13.58750999999999
 30
0.0
 11
882.7484040179029
 21
-13.58752
 31
0.0
  0
LINE
  5
6C1
330
1D
100
AcDbEntity
  8
0
  6
Continuous
100
AcDbLine
 10
863.080624017903
 20
-13.58752
 30
0.0
 11
882.7484040179029
 21
-13.58752
 31
0.0
  0
LINE
  5
6C2
330
1D
100
AcDbEntity
  8
0
  6
Continuous
100
AcDbLine
 10
823.745034017903
 20
-13.58752
 30
0.0
 11
843.412814017903
 21
-13.58752
 31
0.0
  0
LINE
  5
6C3
330
1D
100
AcDbEntity
  8
0
  6
Continuous
100
AcDbLine
 10
843.412814017903
 20
-13.58752
 30
0.0
 11
863.080624017903
 21
-13.58752
 31
0.0
  0
LINE
  5
6C4
330
1D
100
AcDbEntity
  8
0
  6
Continuous
100
AcDbLine
 10
807.8189040179029
 20
-13.58752
 30
0.0
 11
823.745034017903
 21
-13.58752
 31
0.0
  0
LINE
  5
6C5
330
1D
100
AcDbEntity
  8
0
  6
Continuous
100
AcDbLine
 10
640.1561640179029
 20
-13.58752
 30
0.0
 11
643.846504017903
 21
-13.58752
 31
0.0
  0
LINE
  5
6C6
330
1D
100
AcDbEntity
  8
0
  6
Continuous
100
AcDbLine
 10
646.8205140179029
 20
-12.19955
 30
0.0
 11
639.764894017903
 21
-13.28314
 31
0.0
  0
LINE
  5
6C7
330
1D
100
AcDbEntity
  8
0
  6
Continuous
100
AcDbLine
 10
647.170472017903
 20
-12.173204
 30
0.0
 11
646.8205140179029
 21
-12.19955
 31
0.0
  0
LINE
  5
6C8
330
1D
100
AcDbEntity
  8
0
  6
Continuous
100
AcDbLine
 10
807.4840440179029
 20
-0.1042400000000043
 30
0.0
 11
646.8107940179029
 21
-12.2016
 31
0.0
  0
LINE
  5
6C9
330
1D
100
AcDbEntity
  8
0
  6
Continuous
100
AcDbLine
 10
810.3034940179028
 20
2.90455
 30
0.0
 11
789.587734017903
 21
1.22569
 31
0.0
  0
LINE
  5
6CA
330
1D
100
AcDbEntity
  8
0
  6
Continuous
100
AcDbLine
 10
789.587734017903
 20
1.22569
 30
0.0
 11
647.100474017903
 21
-12.17978999999999
 31
0.0
  0
LINE
  5
6CB
330
1D
100
AcDbEntity
  8
0
  6
Continuous
100
AcDbLine
 10
1216.325964017903
 20
-79.98781
 30
0.0
 11
1221.936044017903
 21
-79.98781
 31
0.0
  0
LINE
  5
6CC
330
1D
100
AcDbEntity
  8
0
  6
Continuous
100
AcDbLine
 10
1223.515694017903
 20
-78.40816
 30
0.0
 11
1223.515694017903
 21
78.40816000000001
 31
0.0
  0
LINE
  5
6CD
330
1D
100
AcDbEntity
  8
0
  6
Continuous
100
AcDbLine
 10
1221.936044017903
 20
79.98782
 30
0.0
 11
1216.325964017903
 21
79.98782
 31
0.0
  0
LINE
  5
6CE
330
1D
100
AcDbEntity
  8
0
  6
Continuous
100
AcDbLine
 10
1214.746314017903
 20
78.40816000000001
 30
0.0
 11
1214.746314017903
 21
-78.40816
 31
0.0
  0
LINE
  5
6CF
330
1D
100
AcDbEntity
  8
0
  6
Continuous
100
AcDbLine
 10
1223.515694017903
 20
-79.98781
 30
0.0
 11
1223.515694017903
 21
-78.40816
 31
0.0
  0
LINE
  5
6D0
330
1D
100
AcDbEntity
  8
0
  6
Continuous
100
AcDbLine
 10
1221.936044017903
 20
-79.98781
 30
0.0
 11
1223.515694017903
 21
-79.98781
 31
0.0
  0
LINE
  5
6D1
330
1D
100
AcDbEntity
  8
0
  6
Continuous
100
AcDbLine
 10
1223.515694017903
 20
79.98782
 30
0.0
 11
1221.936044017903
 21
79.98782
 31
0.0
  0
LINE
  5
6D2
330
1D
100
AcDbEntity
  8
0
  6
Continuous
100
AcDbLine
 10
1223.515694017903
 20
78.40816000000001
 30
0.0
 11
1223.515694017903
 21
79.98782
 31
0.0
  0
LINE
  5
6D3
330
1D
100
AcDbEntity
  8
0
  6
Continuous
100
AcDbLine
 10
1214.746314017903
 20
79.98782
 30
0.0
 11
1214.746314017903
 21
78.40816000000001
 31
0.0
  0
LINE
  5
6D4
330
1D
100
AcDbEntity
  8
0
  6
Continuous
100
AcDbLine
 10
1216.325964017903
 20
79.98782
 30
0.0
 11
1214.746314017903
 21
79.98782
 31
0.0
  0
LINE
  5
6D5
330
1D
100
AcDbEntity
  8
0
  6
Continuous
100
AcDbLine
 10
1214.746314017903
 20
-79.98781
 30
0.0
 11
1216.325964017903
 21
-79.98781
 31
0.0
  0
LINE
  5
6D6
330
1D
100
AcDbEntity
  8
0
  6
Continuous
100
AcDbLine
 10
1214.746314017903
 20
-78.40816
 30
0.0
 11
1214.746314017903
 21
-79.98781
 31
0.0
  0
LINE
  5
6D7
330
1D
100
AcDbEntity
  8
0
  6
Continuous
100
AcDbLine
 10
1223.515694017903
 20
79.98782
 30
0.0
 11
1221.936044017903
 21
79.98782
 31
0.0
  0
LINE
  5
6D8
330
1D
100
AcDbEntity
  8
0
  6
Continuous
100
AcDbLine
 10
892.498814017903
 20
-38.99982
 30
0.0
 11
891.686924017903
 21
-38.99982
 31
0.0
  0
LINE
  5
6D9
330
1D
100
AcDbEntity
  8
0
  6
Continuous
100
AcDbLine
 10
898.291234017903
 20
-38.99982
 30
0.0
 11
896.791224017903
 21
-38.99982
 31
0.0
  0
LINE
  5
6DA
330
1D
100
AcDbEntity
  8
0
  6
Continuous
100
AcDbLine
 10
914.1868740179029
 20
-38.99982
 30
0.0
 11
912.6868940179029
 21
-38.99982
 31
0.0
  0
LINE
  5
6DB
330
1D
100
AcDbEntity
  8
0
  6
Continuous
100
AcDbLine
 10
893.7911940179031
 20
-34.99974
 30
0.0
 11
896.791224017903
 21
-34.99974
 31
0.0
  0
LINE
  5
6DC
330
1D
100
AcDbEntity
  8
0
  6
Continuous
100
AcDbLine
 10
746.1873140179029
 20
-38.99982
 30
0.0
 11
744.687344017903
 21
-38.99982
 31
0.0
  0
LINE
  5
6DD
330
1D
100
AcDbEntity
  8
0
  6
Continuous
100
AcDbLine
 10
767.187264017903
 20
-38.99982
 30
0.0
 11
765.687284017903
 21
-38.99982
 31
0.0
  0
LINE
  5
6DE
330
1D
100
AcDbEntity
  8
0
  6
Continuous
100
AcDbLine
 10
699.6874140179029
 20
-34.99974
 30
0.0
 11
702.6874440179029
 21
-34.99974
 31
0.0
  0
LINE
  5
6DF
330
1D
100
AcDbEntity
  8
0
  6
Continuous
100
AcDbLine
 10
699.6874140179029
 20
-38.99982
 30
0.0
 11
702.6874440179029
 21
-38.99982
 31
0.0
  0
LINE
  5
6E0
330
1D
100
AcDbEntity
  8
0
  6
Continuous
100
AcDbLine
 10
783.687204017903
 20
-38.99982
 30
0.0
 11
786.6872340179029
 21
-38.99982
 31
0.0
  0
LINE
  5
6E1
330
1D
100
AcDbEntity
  8
0
  6
Continuous
100
AcDbLine
 10
741.6873140179029
 20
-34.99974
 30
0.0
 11
744.687344017903
 21
-34.99974
 31
0.0
  0
LINE
  5
6E2
330
1D
100
AcDbEntity
  8
0
  6
Continuous
100
AcDbLine
 10
741.6873140179029
 20
-38.99982
 30
0.0
 11
744.687344017903
 21
-38.99982
 31
0.0
  0
LINE
  5
6E3
330
1D
100
AcDbEntity
  8
0
  6
Continuous
100
AcDbLine
 10
657.6875240179029
 20
-34.99974
 30
0.0
 11
660.687554017903
 21
-34.99974
 31
0.0
  0
LINE
  5
6E4
330
1D
100
AcDbEntity
  8
0
  6
Continuous
100
AcDbLine
 10
657.6875240179029
 20
-38.99982
 30
0.0
 11
660.687554017903
 21
-38.99982
 31
0.0
  0
LINE
  5
6E5
330
1D
100
AcDbEntity
  8
0
  6
Continuous
100
AcDbLine
 10
850.4634820179031
 20
-38.99982
 30
0.0
 11
849.6870340179029
 21
-38.99982
 31
0.0
  0
LINE
  5
6E6
330
1D
100
AcDbEntity
  8
0
  6
Continuous
100
AcDbLine
 10
725.187374017903
 20
-38.99982
 30
0.0
 11
723.6873940179029
 21
-38.99982
 31
0.0
  0
LINE
  5
6E7
330
1D
100
AcDbEntity
  8
0
  6
Continuous
100
AcDbLine
 10
841.730184017903
 20
-34.99974
 30
0.0
 11
844.7302140179029
 21
-34.99974
 31
0.0
  0
LINE
  5
6E8
330
1D
100
AcDbEntity
  8
0
  6
Continuous
100
AcDbLine
 10
845.1870640179031
 20
-38.99982
 30
0.0
 11
844.7302140179029
 21
-38.99982
 31
0.0
  0
LINE
  5
6E9
330
1D
100
AcDbEntity
  8
0
  6
Continuous
100
AcDbLine
 10
683.187474017903
 20
-38.99982
 30
0.0
 11
681.6875040179029
 21
-38.99982
 31
0.0
  0
LINE
  5
6EA
330
1D
100
AcDbEntity
  8
0
  6
Continuous
100
AcDbLine
 10
786.9165180179029
 20
-38.99982
 30
0.0
 11
786.6872340179029
 21
-38.99982
 31
0.0
  0
LINE
  5
6EB
330
1D
100
AcDbEntity
  8
0
  6
Continuous
100
AcDbLine
 10
804.6871540179029
 20
-38.99982
 30
0.0
 11
807.687184017903
 21
-38.99982
 31
0.0
  0
LINE
  5
6EC
330
1D
100
AcDbEntity
  8
0
  6
Continuous
100
AcDbLine
 10
762.687254017903
 20
-34.99974
 30
0.0
 11
765.687284017903
 21
-34.99974
 31
0.0
  0
LINE
  5
6ED
330
1D
100
AcDbEntity
  8
0
  6
Continuous
100
AcDbLine
 10
762.687254017903
 20
-38.99982
 30
0.0
 11
765.687284017903
 21
-38.99982
 31
0.0
  0
LINE
  5
6EE
330
1D
100
AcDbEntity
  8
0
  6
Continuous
100
AcDbLine
 10
846.6870040179029
 20
-38.99982
 30
0.0
 11
849.6870340179029
 21
-38.99982
 31
0.0
  0
LINE
  5
6EF
330
1D
100
AcDbEntity
  8
0
  6
Continuous
100
AcDbLine
 10
662.187534017903
 20
-38.99982
 30
0.0
 11
660.687554017903
 21
-38.99982
 31
0.0
  0
LINE
  5
6F0
330
1D
100
AcDbEntity
  8
0
  6
Continuous
100
AcDbLine
 10
830.187064017903
 20
-38.99982
 30
0.0
 11
828.687124017903
 21
-38.99982
 31
0.0
  0
LINE
  5
6F1
330
1D
100
AcDbEntity
  8
0
  6
Continuous
100
AcDbLine
 10
808.8292220179029
 20
-38.99982
 30
0.0
 11
807.687184017903
 21
-38.99982
 31
0.0
  0
LINE
  5
6F2
330
1D
100
AcDbEntity
  8
0
  6
Continuous
100
AcDbLine
 10
704.187424017903
 20
-38.99982
 30
0.0
 11
702.6874440179029
 21
-38.99982
 31
0.0
  0
LINE
  5
6F3
330
1D
100
AcDbEntity
  8
0
  6
Continuous
100
AcDbLine
 10
720.687364017903
 20
-34.99974
 30
0.0
 11
723.6873940179029
 21
-34.99974
 31
0.0
  0
LINE
  5
6F4
330
1D
100
AcDbEntity
  8
0
  6
Continuous
100
AcDbLine
 10
720.687364017903
 20
-38.99982
 30
0.0
 11
723.6873940179029
 21
-38.99982
 31
0.0
  0
LINE
  5
6F5
330
1D
100
AcDbEntity
  8
0
  6
Continuous
100
AcDbLine
 10
825.687094017903
 20
-38.99982
 30
0.0
 11
828.687124017903
 21
-38.99982
 31
0.0
  0
LINE
  5
6F6
330
1D
100
AcDbEntity
  8
0
  6
Continuous
100
AcDbLine
 10
678.687474017903
 20
-34.99974
 30
0.0
 11
681.6875040179029
 21
-34.99974
 31
0.0
  0
LINE
  5
6F7
330
1D
100
AcDbEntity
  8
0
  6
Continuous
100
AcDbLine
 10
678.687474017903
 20
-38.99982
 30
0.0
 11
681.6875040179029
 21
-38.99982
 31
0.0
  0
LINE
  5
6F8
330
1D
100
AcDbEntity
  8
0
  6
Continuous
100
AcDbLine
 10
872.186954017903
 20
-38.99982
 30
0.0
 11
870.687024017903
 21
-38.99982
 31
0.0
  0
LINE
  5
6F9
330
1D
100
AcDbEntity
  8
0
  6
Continuous
100
AcDbLine
 10
867.6869940179029
 20
-38.99982
 30
0.0
 11
870.687024017903
 21
-38.99982
 31
0.0
  0
LINE
  5
6FA
330
1D
100
AcDbEntity
  8
0
  6
Continuous
100
AcDbLine
 10
865.092004017903
 20
-34.99974
 30
0.0
 11
866.186974017903
 21
-34.99974
 31
0.0
  0
LINE
  5
6FB
330
1D
100
AcDbEntity
  8
0
  6
Continuous
100
AcDbLine
 10
872.186954017903
 20
-34.99974
 30
0.0
 11
873.2839940179031
 21
-34.99974
 31
0.0
  0
LINE
  5
6FC
330
1D
100
AcDbEntity
  8
0
  6
Continuous
100
AcDbLine
 10
861.2519740179029
 20
-34.99974
 30
0.0
 11
865.092004017903
 21
-34.99974
 31
0.0
  0
LINE
  5
6FD
330
1D
100
AcDbEntity
  8
0
  6
Continuous
100
AcDbLine
 10
1019.186584017903
 20
-38.99982
 30
0.0
 11
1017.686604017903
 21
-38.99982
 31
0.0
  0
LINE
  5
6FE
330
1D
100
AcDbEntity
  8
0
  6
Continuous
100
AcDbLine
 10
998.1866340179029
 20
-38.99982
 30
0.0
 11
996.6866640179031
 21
-38.99982
 31
0.0
  0
LINE
  5
6FF
330
1D
100
AcDbEntity
  8
0
  6
Continuous
100
AcDbLine
 10
884.612004017903
 20
-38.99982
 30
0.0
 11
883.0760140179028
 21
-38.99982
 31
0.0
  0
LINE
  5
700
330
1D
100
AcDbEntity
  8
0
  6
Continuous
100
AcDbLine
 10
873.2839940179031
 20
-38.99982
 30
0.0
 11
877.1240140179029
 21
-38.99982
 31
0.0
  0
LINE
  5
701
330
1D
100
AcDbEntity
  8
0
  6
Continuous
100
AcDbLine
 10
935.186814017903
 20
-38.99982
 30
0.0
 11
933.686844017903
 21
-38.99982
 31
0.0
  0
LINE
  5
702
330
1D
100
AcDbEntity
  8
0
  6
Continuous
100
AcDbLine
 10
977.1867140179029
 20
-38.99982
 30
0.0
 11
975.6867340179031
 21
-38.99982
 31
0.0
  0
LINE
  5
703
330
1D
100
AcDbEntity
  8
0
  6
Continuous
100
AcDbLine
 10
956.1867640179029
 20
-38.99982
 30
0.0
 11
954.6867840179029
 21
-38.99982
 31
0.0
  0
LINE
  5
704
330
1D
100
AcDbEntity
  8
0
  6
Continuous
100
AcDbLine
 10
1040.186534017903
 20
-38.99982
 30
0.0
 11
1038.686554017903
 21
-38.99982
 31
0.0
  0
LINE
  5
705
330
1D
100
AcDbEntity
  8
0
  6
Continuous
100
AcDbLine
 10
1061.186474017903
 20
-38.99982
 30
0.0
 11
1059.686504017903
 21
-38.99982
 31
0.0
  0
LINE
  5
706
330
1D
100
AcDbEntity
  8
0
  6
Continuous
100
AcDbLine
 10
1082.186424017903
 20
-38.99982
 30
0.0
 11
1080.686444017903
 21
-38.99982
 31
0.0
  0
LINE
  5
707
330
1D
100
AcDbEntity
  8
0
  6
Continuous
100
AcDbLine
 10
857.860024017903
 20
-38.99982
 30
0.0
 11
861.2519740179029
 21
-38.99982
 31
0.0
  0
LINE
  5
708
330
1D
100
AcDbEntity
  8
0
  6
Continuous
100
AcDbLine
 10
861.2519740179029
 20
-38.99982
 30
0.0
 11
865.092004017903
 21
-38.99982
 31
0.0
  0
LINE
  5
709
330
1D
100
AcDbEntity
  8
0
  6
Continuous
100
AcDbLine
 10
883.0760140179028
 20
-38.99982
 30
0.0
 11
880.5159640179029
 21
-38.99982
 31
0.0
  0
LINE
  5
70A
330
1D
100
AcDbEntity
  8
0
  6
Continuous
100
AcDbLine
 10
855.299984017903
 20
-38.99982
 30
0.0
 11
857.860024017903
 21
-38.99982
 31
0.0
  0
LINE
  5
70B
330
1D
100
AcDbEntity
  8
0
  6
Continuous
100
AcDbLine
 10
853.763994017903
 20
-38.99982
 30
0.0
 11
855.299984017903
 21
-38.99982
 31
0.0
  0
LINE
  5
70C
330
1D
100
AcDbEntity
  8
0
  6
Continuous
100
AcDbLine
 10
877.1240140179029
 20
-38.99982
 30
0.0
 11
880.5159640179029
 21
-38.99982
 31
0.0
  0
ENDSEC
  0
SECTION
  2
OBJECTS
  0
DICTIONARY
  5
C
330
0
100
AcDbDictionary
281
     1
  3
ACAD_2007HEADERVARS_RT
350
7D8
  3
ACAD_CIP_PREVIOUS_PRODUCT_INFO
350
1F1
  3
ACAD_COLOR
350
1D2
  3
ACAD_DETAILVIEWSTYLE
350
1EC
  3
ACAD_GROUP
350
D
  3
ACAD_LAYOUT
350
1A
  3
ACAD_MATERIAL
350
1A0
  3
ACAD_MLEADERSTYLE
350
1E7
  3
ACAD_MLINESTYLE
350
17
  3
ACAD_PLOTSETTINGS
350
19
  3
ACAD_PLOTSTYLENAME
350
E
  3
ACAD_SCALELIST
350
1D5
  3
ACAD_SECTIONVIEWSTYLE
350
1E9
  3
ACAD_TABLESTYLE
350
1D3
  3
ACAD_VISUALSTYLE
350
1B9
  3
ACDB_RECOMPOSE_DATA
350
7D6
  3
AcDbVariableDictionary
350
7C7
  3
AcmDictionary
350
21E
  3
AMG
350
1F3
  3
AMGSNAPSETTINGS
350
253
  3
DWGPROPS
350
7D7
  0
DICTIONARY
  5
7C3
330
10
100
AcDbDictionary
280
     1
281
     1
  3
ADSK_XREC_LAYER_RECONCILED
360
7C4
  0
DICTIONARY
  5
7C5
330
70D
100
AcDbDictionary
280
     1
281
     1
  3
ADSK_XREC_LAYER_RECONCILED
360
7C6
  0
DICTIONARY
  5
710
330
1D
100
AcDbDictionary
280
     1
281
     1
  3
ACAD_SORTENTS
360
711
  0
DICTIONARY
  5
7D8
102
{ACAD_REACTORS
330
C
102
}
330
C
100
AcDbDictionary
281
     1
  3
INTERFERECOLOR
350
7D9
  0
XRECORD
  5
1F1
102
{ACAD_REACTORS
330
C
102
}
330
C
100
AcDbXrecord
280
     1
300
AMECH_PP
300
2013
300
PDSS_F_S
  0
DICTIONARY
  5
1D2
102
{ACAD_REACTORS
330
C
102
}
330
C
100
AcDbDictionary
281
     1
  0
DICTIONARY
  5
1EC
102
{ACAD_REACTORS
330
C
102
}
330
C
100
AcDbDictionary
281
     1
  3
Imperial24
350
1ED
  0
DICTIONARY
  5
D
102
{ACAD_REACTORS
330
C
102
}
330
C
100
AcDbDictionary
281
     1
  0
DICTIONARY
  5
1A
102
{ACAD_REACTORS
330
C
102
}
330
C
100
AcDbDictionary
281
     1
  3
Layout1
350
1C
  3
Model
350
1E
  0
DICTIONARY
  5
1A0
102
{ACAD_REACTORS
330
C
102
}
330
C
100
AcDbDictionary
281
     1
  3
ByBlock
350
1A9
  3
ByLayer
350
1A1
  3
Global
350
1B1
  0
DICTIONARY
  5
1E7
102
{ACAD_REACTORS
330
C
102
}
330
C
100
AcDbDictionary
281
     1
  3
Standard
350
1E8
  0
DICTIONARY
  5
17
102
{ACAD_REACTORS
330
C
102
}
330
C
100
AcDbDictionary
281
     1
  3
Standard
350
18
  0
DICTIONARY
  5
19
102
{ACAD_REACTORS
330
C
102
}
330
C
100
AcDbDictionary
281
     1
  0
ACDBDICTIONARYWDFLT
  5
E
102
{ACAD_REACTORS
330
C
102
}
330
C
100
AcDbDictionary
281
     1
  3
Normal
350
F
100
AcDbDictionaryWithDefault
340
F
  0
DICTIONARY
  5
1D5
102
{ACAD_REACTORS
330
C
102
}
330
C
100
AcDbDictionary
281
     1
  3
A0
350
1D6
  3
A1
350
1D7
  3
A2
350
1D8
  3
A3
350
1D9
  3
A4
350
1DA
  3
A5
350
1DB
  3
A6
350
1DC
  3
A7
350
1DD
  3
A8
350
1DE
  3
A9
350
1DF
  3
B0
350
1E0
  3
B1
350
1E1
  3
B2
350
1E2
  3
B3
350
1E3
  3
B4
350
1E4
  3
B5
350
1E5
  3
B6
350
1E6
  0
DICTIONARY
  5
1E9
102
{ACAD_REACTORS
330
C
102
}
330
C
100
AcDbDictionary
281
     1
  3
Imperial24
350
1EB
  0
DICTIONARY
  5
1D3
102
{ACAD_REACTORS
330
C
102
}
330
C
100
AcDbDictionary
281
     1
  3
Standard
350
1D4
  0
DICTIONARY
  5
1B9
102
{ACAD_REACTORS
330
C
102
}
330
C
100
AcDbDictionary
281
     1
  3
2dWireframe
350
1BF
  3
Basic
350
1BE
  3
Brighten
350
1C5
  3
ColorChange
350
1C9
  3
Conceptual
350
1C2
  3
Dim
350
1C4
  3
EdgeColorOff
350
1D1
  3
Facepattern
350
1C8
  3
Flat
350
1BA
  3
FlatWithEdges
350
1BB
  3
Gouraud
350
1BC
  3
GouraudWithEdges
350
1BD
  3
Hidden
350
1C1
  3
JitterOff
350
1CF
  3
Linepattern
350
1C7
  3
OverhangOff
350
1D0
  3
Realistic
350
1C3
  3
Shaded
350
1CE
  3
Shaded with edges
350
1CD
  3
Shades of Gray
350
1CA
  3
Sketchy
350
1CB
  3
Thicken
350
1C6
  3
Wireframe
350
1C0
  3
X-Ray
350
1CC
  0
XRECORD
  5
7D6
102
{ACAD_REACTORS
330
C
102
}
330
C
100
AcDbXrecord
280
     1
 90
        1
330
1D4
  0
DICTIONARY
  5
7C7
102
{ACAD_REACTORS
330
C
102
}
330
C
100
AcDbDictionary
281
     1
  3
CANNOSCALE
350
7CC
  3
CMLEADERSTYLE
350
7C9
  3
CTABLESTYLE
350
7C8
  3
CVIEWDETAILSTYLE
350
7CA
  3
CVIEWSECTIONSTYLE
350
7CB
  3
DGNFRAME
350
7D3
  3
DIMASSOC
350
7D1
  3
HIDETEXT
350
7CF
  3
INDEXCTL
350
7CE
  3
SOLIDHIST
350
7D2
  3
SORTENTS
350
7CD
  3
XCLIPFRAME
350
7D0
  0
DICTIONARY
  5
21E
102
{ACAD_REACTORS
330
C
102
}
330
C
100
AcDbDictionary
281
     1
  3
AcmStdDictionary
350
225
  0
DICTIONARY
  5
1F3
102
{ACAD_REACTORS
330
C
102
}
330
C
100
AcDbDictionary
281
     1
  0
DICTIONARY
  5
253
102
{ACAD_REACTORS
330
C
102
}
330
C
100
AcDbDictionary
281
     1
  0
XRECORD
  5
7D7
102
{ACAD_REACTORS
330
C
102
}
330
C
100
AcDbXrecord
280
     1
  1
DWGPROPS COOKIE
  2

  3

  4

  6

  7

  8
tomitais
  9

300
=
301
=
302
=
303
=
304
=
305
=
306
=
307
=
308
=
309
=
 40
0.0210736226851852
 41
2457130.930848947
 42
2457354.673449676
  1

 90
        0
  0
XRECORD
  5
7C4
102
{ACAD_REACTORS
330
7C3
102
}
330
7C3
100
AcDbXrecord
280
     1
290
     1
  0
XRECORD
  5
7C6
102
{ACAD_REACTORS
330
7C5
102
}
330
7C5
100
AcDbXrecord
280
     1
290
     1
  0
SORTENTSTABLE
  5
711
102
{ACAD_REACTORS
330
710
102
}
330
710
100
AcDbSortentsTable
330
1D
331
6C0
  5
6C4
331
5A0
  5
5A4
331
178
  5
17C
331
B8
  5
BC
331
2C8
  5
2CC
331
6D1
  5
6D5
331
5B1
  5
5B5
331
189
  5
18D
331
C9
  5
CD
331
6E2
  5
6E6
331
5C2
  5
5C6
331
DA
  5
DE
331
6F3
  5
6F7
331
5D3
  5
5D7
331
EB
  5
EF
331
4F2
  5
4F6
331
704
  5
708
331
5E4
  5
5E8
331
514
  5
518
331
61D
  5
621
331
F5
  5
F9
331
525
  5
529
331
62E
  5
632
331
106
  5
10A
331
63F
  5
643
331
117
  5
11B
331
617
  5
61B
331
650
  5
654
331
530
  5
534
331
661
  5
665
331
541
  5
545
331
139
  5
13D
331
28
  5
2C
331
672
  5
676
331
552
  5
556
331
14A
  5
14E
331
683
  5
687
331
563
  5
567
331
15B
  5
15F
331
4A
  5
4E
331
574
  5
578
331
5B
  5
5F
331
39
  5
3D
331
128
  5
12C
331
606
  5
60A
331
5F5
  5
5F9
331
503
  5
507
331
585
  5
589
331
85
  5
89
331
69E
  5
6A2
331
596
  5
59A
331
96
  5
9A
331
2A6
  5
2AA
331
6AF
  5
6B3
331
A7
  5
AB
331
2B7
  5
2BB
331
6C
  5
70
331
6B0
  5
6B4
331
168
  5
16C
331
A8
  5
AC
331
2B8
  5
2BC
331
6C1
  5
6C5
331
5A1
  5
5A5
331
179
  5
17D
331
B9
  5
BD
331
2C9
  5
2CD
331
6D2
  5
6D6
331
5B2
  5
5B6
331
18A
  5
18E
331
6E3
  5
6E7
331
5C3
  5
5C7
331
DB
  5
DF
331
CA
  5
CE
331
6F4
  5
6F8
331
5D4
  5
5D8
331
EC
  5
F0
331
705
  5
709
331
5E5
  5
5E9
331
515
  5
519
331
61E
  5
622
331
F6
  5
FA
331
526
  5
52A
331
107
  5
10B
331
62F
  5
633
331
607
  5
60B
331
640
  5
644
331
118
  5
11C
331
651
  5
655
331
531
  5
535
331
662
  5
666
331
542
  5
546
331
13A
  5
13E
331
29
  5
2D
331
673
  5
677
331
553
  5
557
331
14B
  5
14F
331
3A
  5
3E
331
684
  5
688
331
564
  5
568
331
15C
  5
160
331
575
  5
579
331
5C
  5
60
331
4B
  5
4F
331
129
  5
12D
331
5F6
  5
5FA
331
504
  5
508
331
4F3
  5
4F7
331
586
  5
58A
331
86
  5
8A
331
69F
  5
6A3
331
597
  5
59B
331
97
  5
9B
331
2A7
  5
2AB
331
6D
  5
71
331
6A0
  5
6A4
331
598
  5
59C
331
98
  5
9C
331
2A8
  5
2AC
331
6B1
  5
6B5
331
169
  5
16D
331
A9
  5
AD
331
2B9
  5
2BD
331
6C2
  5
6C6
331
5A2
  5
5A6
331
17A
  5
17E
331
BA
  5
BE
331
2CA
  5
2CE
331
6D3
  5
6D7
331
5B3
  5
5B7
331
18B
  5
18F
331
6E4
  5
6E8
331
5C4
  5
5C8
331
DC
  5
E0
331
6F5
  5
6F9
331
5D5
  5
5D9
331
ED
  5
F1
331
706
  5
70A
331
5E6
  5
5EA
331
516
  5
51A
331
61F
  5
623
331
F7
  5
FB
331
527
  5
52B
331
630
  5
634
331
108
  5
10C
331
641
  5
645
331
119
  5
11D
331
652
  5
656
331
532
  5
536
331
12A
  5
12E
331
663
  5
667
331
543
  5
547
331
13B
  5
13F
331
674
  5
678
331
554
  5
558
331
14C
  5
150
331
3B
  5
3F
331
685
  5
689
331
565
  5
569
331
15D
  5
161
331
576
  5
57A
331
5D
  5
61
331
4C
  5
50
331
2A
  5
2E
331
608
  5
60C
331
5F7
  5
5FB
331
505
  5
509
331
4F4
  5
4F8
331
CB
  5
CF
331
587
  5
58B
331
87
  5
8B
331
6E
  5
72
331
690
  5
694
331
588
  5
58C
331
88
  5
8C
331
6A1
  5
6A5
331
599
  5
59D
331
99
  5
9D
331
2A9
  5
2AD
331
6B2
  5
6B6
331
16A
  5
16E
331
AA
  5
AE
331
2BA
  5
2BE
331
6C3
  5
6C7
331
5A3
  5
5A7
331
17B
  5
17F
331
2CB
  5
2CF
331
6D4
  5
6D8
331
5B4
  5
5B8
331
18C
  5
190
331
6E5
  5
6E9
331
5C5
  5
5C9
331
DD
  5
E1
331
6F6
  5
6FA
331
5D6
  5
5DA
331
EE
  5
F2
331
707
  5
70B
331
5E7
  5
5EB
331
517
  5
51B
331
620
  5
624
331
F8
  5
FC
331
631
  5
635
331
109
  5
10D
331
609
  5
60D
331
642
  5
646
331
653
  5
657
331
533
  5
537
331
12B
  5
12F
331
664
  5
668
331
544
  5
548
331
13C
  5
140
331
675
  5
679
331
555
  5
559
331
14D
  5
151
331
3C
  5
40
331
686
  5
68A
331
566
  5
56A
331
15E
  5
162
331
577
  5
57B
331
5E
  5
62
331
4D
  5
51
331
2B
  5
2F
331
11A
  5
11E
331
5F8
  5
5FC
331
506
  5
50A
331
4F5
  5
4F9
331
CC
  5
D0
331
BB
  5
BF
331
6F
  5
73
331
578
  5
57C
331
78
  5
7C
331
691
  5
695
331
589
  5
58D
331
89
  5
8D
331
70
  5
74
331
299
  5
29D
331
6A2
  5
6A6
331
59A
  5
59E
331
9A
  5
9E
331
2AA
  5
2AE
331
6B3
  5
6B7
331
16B
  5
16F
331
2BB
  5
2BF
331
6C4
  5
6C8
331
5A4
  5
5A8
331
17C
  5
180
331
2CC
  5
4F1
331
6D5
  5
6D9
331
5B5
  5
5B9
331
18D
  5
191
331
6E6
  5
6EA
331
5C6
  5
5CA
331
DE
  5
E2
331
6F7
  5
6FB
331
5D7
  5
5DB
331
EF
  5
F3
331
5E8
  5
5EC
331
518
  5
51C
331
621
  5
625
331
F9
  5
FD
331
10A
  5
10E
331
632
  5
636
331
643
  5
647
331
11B
  5
11F
331
654
  5
658
331
534
  5
538
331
12C
  5
130
331
665
  5
669
331
545
  5
549
331
13D
  5
141
331
676
  5
67A
331
556
  5
55A
331
14E
  5
152
331
3D
  5
41
331
687
  5
68B
331
567
  5
56B
331
15F
  5
163
331
5F
  5
63
331
4E
  5
52
331
2C
  5
30
331
60A
  5
60E
331
5F9
  5
5FD
331
507
  5
50B
331
4F6
  5
4FA
331
CD
  5
D1
331
BC
  5
C0
331
AB
  5
AF
331
688
  5
68C
331
568
  5
56C
331
160
  5
164
331
579
  5
57D
331
79
  5
7D
331
60
  5
64
331
692
  5
696
331
58A
  5
58E
331
8A
  5
8E
331
71
  5
75
331
29A
  5
29E
331
6A3
  5
6A7
331
59B
  5
59F
331
9B
  5
9F
331
6B4
  5
6B8
331
16C
  5
170
331
AC
  5
B0
331
2BC
  5
2C0
331
6C5
  5
6C9
331
5A5
  5
5A9
331
17D
  5
181
331
2CD
  5
4F2
331
6D6
  5
6DA
331
5B6
  5
5BA
331
18E
  5
192
331
6E7
  5
6EB
331
5C7
  5
5CB
331
DF
  5
E3
331
6F8
  5
6FC
331
5D8
  5
5DC
331
5E9
  5
5ED
331
508
  5
50C
331
622
  5
626
331
FA
  5
FE
331
5FA
  5
5FE
331
10B
  5
10F
331
633
  5
637
331
644
  5
648
331
11C
  5
120
331
655
  5
659
331
535
  5
539
331
12D
  5
131
331
666
  5
66A
331
546
  5
54A
331
13E
  5
142
331
677
  5
67B
331
557
  5
55B
331
14F
  5
153
331
3E
  5
42
331
4F
  5
53
331
2D
  5
31
331
60B
  5
60F
331
519
  5
51D
331
4F7
  5
4FB
331
CE
  5
D2
331
BD
  5
C1
331
2AB
  5
2AF
331
678
  5
67C
331
558
  5
55C
331
150
  5
154
331
689
  5
68D
331
569
  5
56D
331
161
  5
165
331
50
  5
54
331
57A
  5
57E
331
7A
  5
7E
331
61
  5
65
331
693
  5
697
331
58B
  5
58F
331
8B
  5
8F
331
72
  5
76
331
29B
  5
29F
331
6A4
  5
6A8
331
59C
  5
5A0
331
2AC
  5
2B0
331
6B5
  5
6B9
331
16D
  5
171
331
AD
  5
B1
331
2BD
  5
2C1
331
6C6
  5
6CA
331
5A6
  5
5AA
331
17E
  5
182
331
2CE
  5
4F3
331
6D7
  5
6DB
331
5B7
  5
5BB
331
18F
  5
193
331
6E8
  5
6EC
331
5C8
  5
5CC
331
E0
  5
E4
331
6F9
  5
6FD
331
5D9
  5
5DD
331
5EA
  5
5EE
331
509
  5
50D
331
623
  5
627
331
FB
  5
FF
331
5FB
  5
5FF
331
10C
  5
110
331
634
  5
638
331
60C
  5
610
331
645
  5
649
331
656
  5
65A
331
536
  5
53A
331
12E
  5
132
331
667
  5
66B
331
547
  5
54B
331
13F
  5
143
331
3F
  5
43
331
2E
  5
32
331
11D
  5
121
331
51A
  5
51E
331
4F8
  5
4FC
331
CF
  5
D3
331
BE
  5
C2
331
9C
  5
A0
331
668
  5
66C
331
548
  5
54C
331
140
  5
144
331
679
  5
67D
331
559
  5
55D
331
151
  5
155
331
40
  5
44
331
68A
  5
68E
331
56A
  5
56E
331
162
  5
166
331
51
  5
55
331
57B
  5
57F
331
7B
  5
7F
331
62
  5
66
331
694
  5
698
331
58C
  5
590
331
8C
  5
90
331
73
  5
77
331
6A5
  5
6A9
331
59D
  5
5A1
331
2AD
  5
2B1
331
6B6
  5
6BA
331
16E
  5
172
331
AE
  5
B2
331
2BE
  5
2C2
331
6C7
  5
6CB
331
5A7
  5
5AB
331
17F
  5
183
331
2CF
  5
4F4
331
6D8
  5
6DC
331
5B8
  5
5BC
331
190
  5
194
331
6E9
  5
6ED
331
5C9
  5
5CD
331
E1
  5
E5
331
6FA
  5
6FE
331
5DA
  5
5DE
331
5EB
  5
5EF
331
50A
  5
50E
331
624
  5
628
331
FC
  5
100
331
5FC
  5
600
331
635
  5
639
331
10D
  5
111
331
60D
  5
611
331
646
  5
64A
331
657
  5
65B
331
537
  5
53B
331
12F
  5
133
331
2F
  5
33
331
11E
  5
122
331
51B
  5
51F
331
4F9
  5
4FD
331
D0
  5
D4
331
BF
  5
C3
331
9D
  5
A1
331
29C
  5
2A0
331
658
  5
65C
331
538
  5
53C
331
130
  5
134
331
669
  5
66D
331
549
  5
54D
331
141
  5
145
331
30
  5
34
331
67A
  5
67E
331
55A
  5
55E
331
152
  5
156
331
41
  5
45
331
68B
  5
68F
331
56B
  5
56F
331
163
  5
167
331
52
  5
56
331
57C
  5
580
331
7C
  5
80
331
63
  5
67
331
695
  5
699
331
58D
  5
591
331
8D
  5
91
331
6A6
  5
6AA
331
59E
  5
5A2
331
2AE
  5
2B2
331
6B7
  5
6BB
331
16F
  5
173
331
AF
  5
B3
331
2BF
  5
2C3
331
6C8
  5
6CC
331
5A8
  5
5AC
331
180
  5
184
331
6D9
  5
6DD
331
5B9
  5
5BD
331
191
  5
195
331
D1
  5
D5
331
6EA
  5
6EE
331
5CA
  5
5CE
331
6FB
  5
6FF
331
5DB
  5
5DF
331
4FA
  5
4FE
331
5EC
  5
5F0
331
625
  5
629
331
FD
  5
101
331
5FD
  5
601
331
636
  5
63A
331
10E
  5
112
331
60E
  5
612
331
647
  5
64B
331
11F
  5
123
331
51C
  5
520
331
50B
  5
50F
331
E2
  5
E6
331
C0
  5
C4
331
9E
  5
A2
331
29D
  5
2A1
331
74
  5
78
331
648
  5
64C
331
528
  5
52C
331
120
  5
124
331
659
  5
65D
331
539
  5
53D
331
131
  5
135
331
66A
  5
66E
331
54A
  5
54E
331
142
  5
146
331
31
  5
35
331
67B
  5
67F
331
55B
  5
55F
331
153
  5
157
331
42
  5
46
331
68C
  5
690
331
56C
  5
570
331
164
  5
168
331
53
  5
57
331
57D
  5
581
331
7D
  5
81
331
64
  5
68
331
696
  5
69A
331
58E
  5
592
331
8E
  5
92
331
6A7
  5
6AB
331
59F
  5
5A3
331
2AF
  5
2B3
331
6B8
  5
6BC
331
170
  5
174
331
B0
  5
B4
331
2C0
  5
2C4
331
6C9
  5
6CD
331
5A9
  5
5AD
331
181
  5
185
331
6DA
  5
6DE
331
5BA
  5
5BE
331
192
  5
196
331
D2
  5
D6
331
6EB
  5
6EF
331
5CB
  5
5CF
331
6FC
  5
700
331
5DC
  5
5E0
331
4FB
  5
4FF
331
5ED
  5
5F1
331
626
  5
62A
331
FE
  5
102
331
5FE
  5
602
331
637
  5
63B
331
10F
  5
113
331
60F
  5
613
331
51D
  5
521
331
50C
  5
510
331
E3
  5
E7
331
C1
  5
C5
331
9F
  5
A3
331
29E
  5
2A2
331
75
  5
79
331
638
  5
63C
331
110
  5
114
331
610
  5
614
331
649
  5
64D
331
529
  5
52D
331
121
  5
125
331
65A
  5
65E
331
53A
  5
53E
331
132
  5
136
331
66B
  5
66F
331
54B
  5
54F
331
143
  5
147
331
32
  5
36
331
67C
  5
680
331
55C
  5
560
331
154
  5
158
331
43
  5
47
331
68D
  5
691
331
56D
  5
571
331
165
  5
169
331
57E
  5
582
331
7E
  5
82
331
65
  5
69
331
54
  5
58
331
697
  5
69B
331
58F
  5
593
331
8F
  5
93
331
6A8
  5
6AC
331
2B0
  5
2B4
331
6B9
  5
6BD
331
171
  5
175
331
B1
  5
B5
331
2C1
  5
2C5
331
6CA
  5
6CE
331
5AA
  5
5AE
331
182
  5
186
331
6DB
  5
6DF
331
5BB
  5
5BF
331
193
  5
197
331
D3
  5
D7
331
6EC
  5
6F0
331
5CC
  5
5D0
331
6FD
  5
701
331
5DD
  5
5E1
331
4FC
  5
500
331
5EE
  5
5F2
331
627
  5
62B
331
FF
  5
103
331
5FF
  5
603
331
51E
  5
522
331
50D
  5
511
331
E4
  5
E8
331
C2
  5
C6
331
A0
  5
A4
331
29F
  5
2A3
331
76
  5
7A
331
708
  5
70C
331
100
  5
104
331
628
  5
62C
331
600
  5
604
331
639
  5
63D
331
111
  5
115
331
611
  5
615
331
64A
  5
64E
331
52A
  5
52E
331
122
  5
126
331
65B
  5
65F
331
53B
  5
53F
331
133
  5
137
331
22
  5
26
331
66C
  5
670
331
54C
  5
550
331
144
  5
148
331
67D
  5
681
331
55D
  5
561
331
155
  5
159
331
44
  5
48
331
68E
  5
692
331
56E
  5
572
331
166
  5
16A
331
55
  5
59
331
33
  5
37
331
57F
  5
583
331
7F
  5
83
331
698
  5
69C
331
590
  5
594
331
90
  5
94
331
6A9
  5
6AD
331
2B1
  5
2B5
331
6BA
  5
6BE
331
172
  5
176
331
B2
  5
B6
331
2C2
  5
2C6
331
6CB
  5
6CF
331
5AB
  5
5AF
331
183
  5
187
331
6DC
  5
6E0
331
5BC
  5
5C0
331
194
  5
198
331
D4
  5
D8
331
6ED
  5
6F1
331
5CD
  5
5D1
331
6FE
  5
702
331
5DE
  5
5E2
331
4FD
  5
501
331
5EF
  5
5F3
331
51F
  5
523
331
50E
  5
512
331
E5
  5
E9
331
C3
  5
C7
331
A1
  5
A5
331
2A0
  5
2A4
331
77
  5
7B
331
66
  5
6A
331
618
  5
61C
331
F0
  5
F4
331
5F0
  5
5F4
331
520
  5
524
331
709
  5
70F
331
101
  5
105
331
629
  5
62D
331
601
  5
605
331
63A
  5
63E
331
112
  5
116
331
64B
  5
64F
331
52B
  5
52F
331
123
  5
127
331
65C
  5
660
331
53C
  5
540
331
134
  5
138
331
23
  5
27
331
66D
  5
671
331
54D
  5
551
331
145
  5
149
331
67E
  5
682
331
55E
  5
562
331
156
  5
15A
331
45
  5
49
331
68F
  5
693
331
56F
  5
573
331
167
  5
16B
331
56
  5
5A
331
34
  5
38
331
612
  5
616
331
580
  5
584
331
80
  5
84
331
699
  5
69D
331
591
  5
595
331
2A1
  5
2A5
331
6AA
  5
6AE
331
A2
  5
A6
331
2B2
  5
2B6
331
6BB
  5
6BF
331
173
  5
177
331
B3
  5
B7
331
2C3
  5
2C7
331
6CC
  5
6D0
331
5AC
  5
5B0
331
184
  5
188
331
6DD
  5
6E1
331
5BD
  5
5C1
331
195
  5
199
331
D5
  5
D9
331
6EE
  5
6F2
331
5CE
  5
5D2
331
6FF
  5
703
331
5DF
  5
5E3
331
4FE
  5
502
331
50F
  5
513
331
E6
  5
EA
331
C4
  5
C8
331
91
  5
95
331
67
  5
6B
331
700
  5
704
331
5E0
  5
5E4
331
510
  5
514
331
619
  5
61D
331
F1
  5
F5
331
5F1
  5
5F5
331
521
  5
525
331
70A
  5
712
331
102
  5
106
331
602
  5
606
331
63B
  5
63F
331
113
  5
117
331
64C
  5
650
331
52C
  5
530
331
124
  5
128
331
65D
  5
661
331
53D
  5
541
331
135
  5
139
331
24
  5
28
331
66E
  5
672
331
54E
  5
552
331
146
  5
14A
331
67F
  5
683
331
55F
  5
563
331
157
  5
15B
331
46
  5
4A
331
570
  5
574
331
57
  5
5B
331
35
  5
39
331
613
  5
617
331
62A
  5
62E
331
581
  5
585
331
81
  5
85
331
69A
  5
69E
331
592
  5
596
331
92
  5
96
331
2A2
  5
2A6
331
6AB
  5
6AF
331
A3
  5
A7
331
6BC
  5
6C0
331
174
  5
178
331
B4
  5
B8
331
2C4
  5
2C8
331
6CD
  5
6D1
331
5AD
  5
5B1
331
185
  5
189
331
6DE
  5
6E2
331
5BE
  5
5C2
331
196
  5
299
331
D6
  5
DA
331
6EF
  5
6F3
331
5CF
  5
5D3
331
4FF
  5
503
331
E7
  5
EB
331
C5
  5
C9
331
2B3
  5
2B7
331
68
  5
6C
331
6F0
  5
6F4
331
5D0
  5
5D4
331
E8
  5
EC
331
701
  5
705
331
5E1
  5
5E5
331
500
  5
504
331
511
  5
515
331
61A
  5
61E
331
F2
  5
F6
331
5F2
  5
5F6
331
70B
  5
713
331
103
  5
107
331
522
  5
526
331
603
  5
607
331
63C
  5
640
331
114
  5
118
331
64D
  5
651
331
52D
  5
531
331
125
  5
129
331
65E
  5
662
331
53E
  5
542
331
136
  5
13A
331
25
  5
29
331
66F
  5
673
331
54F
  5
553
331
147
  5
14B
331
680
  5
684
331
560
  5
564
331
158
  5
15C
331
47
  5
4B
331
571
  5
575
331
58
  5
5C
331
36
  5
3A
331
614
  5
618
331
62B
  5
62F
331
582
  5
586
331
82
  5
86
331
69B
  5
69F
331
593
  5
597
331
93
  5
97
331
2A3
  5
2A7
331
6AC
  5
6B0
331
A4
  5
A8
331
6BD
  5
6C1
331
175
  5
179
331
B5
  5
B9
331
2C5
  5
2C9
331
6CE
  5
6D2
331
5AE
  5
5B2
331
186
  5
18A
331
6DF
  5
6E3
331
5BF
  5
5C3
331
197
  5
29A
331
D7
  5
DB
331
C6
  5
CA
331
2B4
  5
2B8
331
69
  5
6D
331
6E0
  5
6E4
331
5C0
  5
5C4
331
198
  5
29B
331
D8
  5
DC
331
6F1
  5
6F5
331
5D1
  5
5D5
331
E9
  5
ED
331
702
  5
706
331
5E2
  5
5E6
331
501
  5
505
331
512
  5
516
331
61B
  5
61F
331
F3
  5
F7
331
523
  5
527
331
70C
  5
714
331
104
  5
108
331
604
  5
608
331
63D
  5
641
331
115
  5
119
331
64E
  5
652
331
52E
  5
532
331
126
  5
12A
331
65F
  5
663
331
53F
  5
543
331
137
  5
13B
331
26
  5
2A
331
670
  5
674
331
550
  5
554
331
148
  5
14C
331
681
  5
685
331
561
  5
565
331
159
  5
15D
331
48
  5
4C
331
572
  5
576
331
59
  5
5D
331
37
  5
3B
331
615
  5
619
331
62C
  5
630
331
5F3
  5
5F7
331
583
  5
587
331
83
  5
87
331
69C
  5
6A0
331
594
  5
598
331
94
  5
98
331
2A4
  5
2A8
331
6AD
  5
6B1
331
A5
  5
A9
331
6BE
  5
6C2
331
176
  5
17A
331
B6
  5
BA
331
2C6
  5
2CA
331
6CF
  5
6D3
331
5AF
  5
5B3
331
187
  5
18B
331
C7
  5
CB
331
2B5
  5
2B9
331
6A
  5
6E
331
6D0
  5
6D4
331
5B0
  5
5B4
331
188
  5
18C
331
C8
  5
CC
331
6E1
  5
6E5
331
5C1
  5
5C5
331
199
  5
29C
331
D9
  5
DD
331
4F1
  5
4F5
331
6F2
  5
6F6
331
5D2
  5
5D6
331
EA
  5
EE
331
703
  5
707
331
5E3
  5
5E7
331
502
  5
506
331
61C
  5
620
331
F4
  5
F8
331
524
  5
528
331
62D
  5
631
331
105
  5
109
331
63E
  5
642
331
116
  5
11A
331
616
  5
61A
331
64F
  5
653
331
52F
  5
533
331
660
  5
664
331
540
  5
544
331
138
  5
13C
331
27
  5
2B
331
671
  5
675
331
551
  5
555
331
149
  5
14D
331
682
  5
686
331
562
  5
566
331
15A
  5
15E
331
49
  5
4D
331
573
  5
577
331
5A
  5
5E
331
38
  5
3C
331
127
  5
12B
331
605
  5
609
331
5F4
  5
5F8
331
513
  5
517
331
584
  5
588
331
84
  5
88
331
69D
  5
6A1
331
595
  5
599
331
95
  5
99
331
2A5
  5
2A9
331
6AE
  5
6B2
331
A6
  5
AA
331
6BF
  5
6C3
331
177
  5
17B
331
B7
  5
BB
331
2C7
  5
2CB
331
2B6
  5
2BA
331
6B
  5
6F
  0
XRECORD
  5
7D9
102
{ACAD_REACTORS
330
7D8
102
}
330
7D8
100
AcDbXrecord
280
     1
1004
1800000001000000000000C0000000000000000000000000
  0
ACDBDETAILVIEWSTYLE
  5
1ED
102
{ACAD_REACTORS
330
1EC
102
}
330
1EC
100
AcDbModelDocViewStyle
 70
     0
  3
Imperial24
290
     0
100
AcDbDetailViewStyle
 70
     0
 71
     0
 90
        3
 71
     1
340
11
 40
0.24
340
0
 40
0.24
300

 40
0.36
280
     3
 71
     2
340
16
 90
       25
 71
     3
340
11
 40
0.24
 90
        1
 40
0.75
 90
        1
300
%<\AcVar ViewType \f "%tc1">% %<\AcVar ViewDetailId>%\PSCALE %<\AcVar ViewScale \f "%sn">%
 71
     4
340
16
 90
       25
340
16
 90
       25
280
     0
  0
LAYOUT
  5
1C
102
{ACAD_XDICTIONARY
360
7DA
102
}
102
{ACAD_REACTORS
330
1A
102
}
330
1A
100
AcDbPlotSettings
  1

  2
none_device
  4

  6

 40
0.0
 41
0.0
 42
0.0
 43
0.0
 44
0.0
 45
0.0
 46
0.0
 47
0.0
 48
0.0
 49
0.0
140
0.0
141
0.0
142
1.0
143
1.0
 70
   688
 72
     0
 73
     0
 74
     5
  7

 75
    16
147
1.0
148
0.0
149
0.0
100
AcDbLayout
  1
Layout1
 70
     1
 71
     1
 10
0.0
 20
0.0
 11
12.0
 21
9.0
 12
0.0
 22
0.0
 32
0.0
 14
1.000000000000000E+20
 24
1.000000000000000E+20
 34
1.000000000000000E+20
 15
-1.000000000000000E+20
 25
-1.000000000000000E+20
 35
-1.000000000000000E+20
146
0.0
 13
0.0
 23
0.0
 33
0.0
 16
1.0
 26
0.0
 36
0.0
 17
0.0
 27
1.0
 37
0.0
 76
     0
330
1B
  0
LAYOUT
  5
1E
102
{ACAD_XDICTIONARY
360
7DC
102
}
102
{ACAD_REACTORS
330
1A
102
}
330
1A
100
AcDbPlotSettings
  1

  2
none_device
  4

  6

 40
0.0
 41
0.0
 42
0.0
 43
0.0
 44
0.0
 45
0.0
 46
0.0
 47
0.0
 48
0.0
 49
0.0
140
0.0
141
0.0
142
1.0
143
1.0
 70
  1712
 72
     0
 73
     0
 74
     0
  7

 75
     0
147
1.0
148
0.0
149
0.0
100
AcDbLayout
  1
Model
 70
     1
 71
     0
 10
0.0
 20
0.0
 11
12.0
 21
9.0
 12
0.0
 22
0.0
 32
0.0
 14
1.000000000000000E+20
 24
1.000000000000000E+20
 34
1.000000000000000E+20
 15
-1.000000000000000E+20
 25
-1.000000000000000E+20
 35
-1.000000000000000E+20
146
0.0
 13
0.0
 23
0.0
 33
0.0
 16
1.0
 26
0.0
 36
0.0
 17
0.0
 27
1.0
 37
0.0
 76
     0
330
1D
331
19A
  0
MATERIAL
  5
1A9
102
{ACAD_XDICTIONARY
360
1AA
102
}
102
{ACAD_REACTORS
330
1A0
102
}
330
1A0
100
AcDbMaterial
  1
ByBlock
 72
     0
 43
0.0208333333333333
 43
0.0
 43
0.0
 43
0.0
 43
0.0
 43
0.0208333333333333
 43
0.0
 43
0.0
 43
0.0
 43
0.0
 43
1.0
 43
0.0
 43
0.0
 43
0.0
 43
0.0
 43
1.0
 77
     0
 47
0.0208333333333333
 47
0.0
 47
0.0
 47
0.0
 47
0.0
 47
0.0208333333333333
 47
0.0
 47
0.0
 47
0.0
 47
0.0
 47
1.0
 47
0.0
 47
0.0
 47
0.0
 47
0.0
 47
1.0
171
     0
 49
0.0208333333333333
 49
0.0
 49
0.0
 49
0.0
 49
0.0
 49
0.0208333333333333
 49
0.0
 49
0.0
 49
0.0
 49
0.0
 49
1.0
 49
0.0
 49
0.0
 49
0.0
 49
0.0
 49
1.0
175
     0
142
0.0208333333333333
142
0.0
142
0.0
142
0.0
142
0.0
142
0.0208333333333333
142
0.0
142
0.0
142
0.0
142
0.0
142
1.0
142
0.0
142
0.0
142
0.0
142
0.0
142
1.0
179
     0
144
0.0208333333333333
144
0.0
144
0.0
144
0.0
144
0.0
144
0.0208333333333333
144
0.0
144
0.0
144
0.0
144
0.0
144
1.0
144
0.0
144
0.0
144
0.0
144
0.0
144
1.0
147
0.0208333333333333
147
0.0
147
0.0
147
0.0
147
0.0
147
0.0208333333333333
147
0.0
147
0.0
147
0.0
147
0.0
147
1.0
147
0.0
147
0.0
147
0.0
147
0.0
147
1.0
  0
MATERIAL
  5
1A1
102
{ACAD_XDICTIONARY
360
1A2
102
}
102
{ACAD_REACTORS
330
1A0
102
}
330
1A0
100
AcDbMaterial
  1
ByLayer
 72
     0
 43
0.0208333333333333
 43
0.0
 43
0.0
 43
0.0
 43
0.0
 43
0.0208333333333333
 43
0.0
 43
0.0
 43
0.0
 43
0.0
 43
1.0
 43
0.0
 43
0.0
 43
0.0
 43
0.0
 43
1.0
 77
     0
 47
0.0208333333333333
 47
0.0
 47
0.0
 47
0.0
 47
0.0
 47
0.0208333333333333
 47
0.0
 47
0.0
 47
0.0
 47
0.0
 47
1.0
 47
0.0
 47
0.0
 47
0.0
 47
0.0
 47
1.0
171
     0
 49
0.0208333333333333
 49
0.0
 49
0.0
 49
0.0
 49
0.0
 49
0.0208333333333333
 49
0.0
 49
0.0
 49
0.0
 49
0.0
 49
1.0
 49
0.0
 49
0.0
 49
0.0
 49
0.0
 49
1.0
175
     0
142
0.0208333333333333
142
0.0
142
0.0
142
0.0
142
0.0
142
0.0208333333333333
142
0.0
142
0.0
142
0.0
142
0.0
142
1.0
142
0.0
142
0.0
142
0.0
142
0.0
142
1.0
179
     0
144
0.0208333333333333
144
0.0
144
0.0
144
0.0
144
0.0
144
0.0208333333333333
144
0.0
144
0.0
144
0.0
144
0.0
144
1.0
144
0.0
144
0.0
144
0.0
144
0.0
144
1.0
147
0.0208333333333333
147
0.0
147
0.0
147
0.0
147
0.0
147
0.0208333333333333
147
0.0
147
0.0
147
0.0
147
0.0
147
1.0
147
0.0
147
0.0
147
0.0
147
0.0
147
1.0
  0
MATERIAL
  5
1B1
102
{ACAD_XDICTIONARY
360
1B2
102
}
102
{ACAD_REACTORS
330
1A0
102
}
330
1A0
100
AcDbMaterial
  1
Global
 72
     0
 43
0.0208333333333333
 43
0.0
 43
0.0
 43
0.0
 43
0.0
 43
0.0208333333333333
 43
0.0
 43
0.0
 43
0.0
 43
0.0
 43
1.0
 43
0.0
 43
0.0
 43
0.0
 43
0.0
 43
1.0
 77
     0
 47
0.0208333333333333
 47
0.0
 47
0.0
 47
0.0
 47
0.0
 47
0.0208333333333333
 47
0.0
 47
0.0
 47
0.0
 47
0.0
 47
1.0
 47
0.0
 47
0.0
 47
0.0
 47
0.0
 47
1.0
171
     0
 49
0.0208333333333333
 49
0.0
 49
0.0
 49
0.0
 49
0.0
 49
0.0208333333333333
 49
0.0
 49
0.0
 49
0.0
 49
0.0
 49
1.0
 49
0.0
 49
0.0
 49
0.0
 49
0.0
 49
1.0
175
     0
142
0.0208333333333333
142
0.0
142
0.0
142
0.0
142
0.0
142
0.0208333333333333
142
0.0
142
0.0
142
0.0
142
0.0
142
1.0
142
0.0
142
0.0
142
0.0
142
0.0
142
1.0
179
     0
144
0.0208333333333333
144
0.0
144
0.0
144
0.0
144
0.0
144
0.0208333333333333
144
0.0
144
0.0
144
0.0
144
0.0
144
1.0
144
0.0
144
0.0
144
0.0
144
0.0
144
1.0
147
0.0208333333333333
147
0.0
147
0.0
147
0.0
147
0.0
147
0.0208333333333333
147
0.0
147
0.0
147
0.0
147
0.0
147
1.0
147
0.0
147
0.0
147
0.0
147
0.0
147
1.0
  0
MLEADERSTYLE
  5
1E8
102
{ACAD_XDICTIONARY
360
813
102
}
102
{ACAD_REACTORS
330
1E7
102
}
330
1E7
100
AcDbMLeaderStyle
170
     2
171
     1
172
     0
 90
        2
 40
0.0
 41
0.0
173
     1
 91
-1056964608
340
14
 92
       -2
290
     1
 42
0.09
291
     1
 43
0.36
  3
Standard
 44
0.18
300

342
11
174
     1
178
     6
175
     1
176
     0
 93
-1056964608
 45
0.18
292
     0
297
     0
 46
0.18
 94
-1056964608
 47
1.0
 49
1.0
140
1.0
293
     1
141
0.0
294
     1
177
     0
142
1.0
295
     0
296
     0
143
0.125
1001
ACAD_MLEADERVER
1070
     2
  0
MLINESTYLE
  5
18
102
{ACAD_REACTORS
330
17
102
}
330
17
100
AcDbMlineStyle
  2
STANDARD
 70
     0
  3

 62
   256
 51
90.0
 52
90.0
 71
     2
 49
0.5
 62
   256
  6
BYLAYER
 49
-0.5
 62
   256
  6
BYLAYER
  0
ACDBPLACEHOLDER
  5
F
102
{ACAD_REACTORS
330
E
102
}
330
E
  0
SCALE
  5
1D6
102
{ACAD_REACTORS
330
1D5
102
}
330
1D5
100
AcDbScale
 70
     0
300
1:1
140
1.0
141
1.0
290
     1
  0
SCALE
  5
1D7
102
{ACAD_REACTORS
330
1D5
102
}
330
1D5
100
AcDbScale
 70
     0
300
1/128" = 1'-0"
140
0.0078125
141
12.0
290
     0
  0
SCALE
  5
1D8
102
{ACAD_REACTORS
330
1D5
102
}
330
1D5
100
AcDbScale
 70
     0
300
1/64" = 1'-0"
140
0.015625
141
12.0
290
     0
  0
SCALE
  5
1D9
102
{ACAD_REACTORS
330
1D5
102
}
330
1D5
100
AcDbScale
 70
     0
300
1/32" = 1'-0"
140
0.03125
141
12.0
290
     0
  0
SCALE
  5
1DA
102
{ACAD_REACTORS
330
1D5
102
}
330
1D5
100
AcDbScale
 70
     0
300
1/16" = 1'-0"
140
0.0625
141
12.0
290
     0
  0
SCALE
  5
1DB
102
{ACAD_REACTORS
330
1D5
102
}
330
1D5
100
AcDbScale
 70
     0
300
3/32" = 1'-0"
140
0.09375
141
12.0
290
     0
  0
SCALE
  5
1DC
102
{ACAD_REACTORS
330
1D5
102
}
330
1D5
100
AcDbScale
 70
     0
300
1/8" = 1'-0"
140
0.125
141
12.0
290
     0
  0
SCALE
  5
1DD
102
{ACAD_REACTORS
330
1D5
102
}
330
1D5
100
AcDbScale
 70
     0
300
3/16" = 1'-0"
140
0.1875
141
12.0
290
     0
  0
SCALE
  5
1DE
102
{ACAD_REACTORS
330
1D5
102
}
330
1D5
100
AcDbScale
 70
     0
300
1/4" = 1'-0"
140
0.25
141
12.0
290
     0
  0
SCALE
  5
1DF
102
{ACAD_REACTORS
330
1D5
102
}
330
1D5
100
AcDbScale
 70
     0
300
3/8" = 1'-0"
140
0.375
141
12.0
290
     0
  0
SCALE
  5
1E0
102
{ACAD_REACTORS
330
1D5
102
}
330
1D5
100
AcDbScale
 70
     0
300
1/2" = 1'-0"
140
0.5
141
12.0
290
     0
  0
SCALE
  5
1E1
102
{ACAD_REACTORS
330
1D5
102
}
330
1D5
100
AcDbScale
 70
     0
300
3/4" = 1'-0"
140
0.75
141
12.0
290
     0
  0
SCALE
  5
1E2
102
{ACAD_REACTORS
330
1D5
102
}
330
1D5
100
AcDbScale
 70
     0
300
1" = 1'-0"
140
1.0
141
12.0
290
     0
  0
SCALE
  5
1E3
102
{ACAD_REACTORS
330
1D5
102
}
330
1D5
100
AcDbScale
 70
     0
300
1-1/2" = 1'-0"
140
1.5
141
12.0
290
     0
  0
SCALE
  5
1E4
102
{ACAD_REACTORS
330
1D5
102
}
330
1D5
100
AcDbScale
 70
     0
300
3" = 1'-0"
140
3.0
141
12.0
290
     0
  0
SCALE
  5
1E5
102
{ACAD_REACTORS
330
1D5
102
}
330
1D5
100
AcDbScale
 70
     0
300
6" = 1'-0"
140
6.0
141
12.0
290
     0
  0
SCALE
  5
1E6
102
{ACAD_REACTORS
330
1D5
102
}
330
1D5
100
AcDbScale
 70
     0
300
1'-0" = 1'-0"
140
12.0
141
12.0
290
     0
  0
ACDBSECTIONVIEWSTYLE
  5
1EB
102
{ACAD_REACTORS
330
1E9
102
}
330
1E9
100
AcDbModelDocViewStyle
 70
     0
  3
Imperial24
290
     0
100
AcDbSectionViewStyle
 70
     0
 71
     0
 90
       78
 71
     1
340
11
 40
0.24
340
0
340
0
 40
0.24
300
I, O, Q, S, X, Z
 40
0.48
 90
        3
 40
0.18
 90
        1
 71
     2
340
1EA
 90
       25
340
16
 90
       50
 40
0.24
 40
0.0
 40
0.24
 71
     3
340
11
 40
0.24
 90
        1
 40
0.75
 90
        1
300
%<\AcVar ViewType \f "%tc1">% %<\AcVar ViewSectionStartId>%-%<\AcVar ViewSectionEndId>%\PSCALE %<\AcVar ViewScale \f "%sn">%
 71
     4
300
ANSI31
 40
1.0
 90
        0
290
     0
290
     0
 90
        6
 40
0.0
 40
1.570796326794896
 40
0.2617993877991494
 40
1.308996938995747
 40
-0.2617993877991494
 40
1.832595714594046
  0
TABLESTYLE
  5
1D4
102
{ACAD_XDICTIONARY
360
7D4
102
}
102
{ACAD_REACTORS
330
1D3
102
}
330
1D3
100
AcDbTableStyle
  3
Standard
 70
     0
 71
     0
 40
0.06
 41
0.06
280
     0
281
     0
  7
Standard
140
0.18
170
     2
 62
     0
 63
     7
283
     0
274
    -2
284
     1
 64
     0
275
    -2
285
     1
 65
     0
276
    -2
286
     1
 66
     0
277
    -2
287
     1
 67
     0
278
    -2
288
     1
 68
     0
279
    -2
289
     1
 69
     0
  7
Standard
140
0.25
170
     5
 62
     0
 63
     7
283
     0
274
    -2
284
     1
 64
     0
275
    -2
285
     1
 65
     0
276
    -2
286
     1
 66
     0
277
    -2
287
     1
 67
     0
278
    -2
288
     1
 68
     0
279
    -2
289
     1
 69
     0
  7
Standard
140
0.18
170
     5
 62
     0
 63
     7
283
     0
274
    -2
284
     1
 64
     0
275
    -2
285
     1
 65
     0
276
    -2
286
     1
 66
     0
277
    -2
287
     1
 67
     0
278
    -2
288
     1
 68
     0
279
    -2
289
     1
 69
     0
  0
VISUALSTYLE
  5
1BF
102
{ACAD_XDICTIONARY
360
7EB
102
}
102
{ACAD_REACTORS
330
1B9
102
}
330
1B9
100
AcDbVisualStyle
  2
2dWireframe
 70
     4
 71
     0
 72
     2
 73
     0
 90
        0
 40
-0.6
 41
-30.0
 62
     5
 63
     7
 74
     1
 91
        4
 64
     7
 65
   257
 75
     1
175
     1
 42
1.0
 92
        0
 66
   257
 43
1.0
 76
     1
 77
     6
 78
     2
 67
     7
 79
     5
170
     0
171
     0
290
     0
174
     0
 93
        1
 44
0.0
173
     0
291
     0
 45
0.0
1001
ACAD
1000
AcDbSavedByObjectVersion
1070
     0
  0
VISUALSTYLE
  5
1BE
102
{ACAD_XDICTIONARY
360
7E9
102
}
102
{ACAD_REACTORS
330
1B9
102
}
330
1B9
100
AcDbVisualStyle
  2
Basic
 70
     7
 71
     1
 72
     0
 73
     1
 90
        0
 40
-0.6
 41
-30.0
 62
     5
 63
     7
 74
     0
 91
        4
 64
     7
 65
   257
 75
     1
175
     1
 42
1.0
 92
        8
 66
     7
 43
1.0
 76
     1
 77
     6
 78
     2
 67
     7
 79
     5
170
     0
171
     0
290
     0
174
     0
 93
        1
 44
0.0
173
     0
291
     1
 45
0.0
1001
ACAD
1000
AcDbSavedByObjectVersion
1070
     0
  0
VISUALSTYLE
  5
1C5
102
{ACAD_XDICTIONARY
360
7F7
102
}
102
{ACAD_REACTORS
330
1B9
102
}
330
1B9
100
AcDbVisualStyle
  2
Brighten
 70
    12
 71
     2
 72
     2
 73
     0
 90
        0
 40
-0.6
 41
-30.0
 62
     5
 63
     7
 74
     1
 91
        4
 64
     7
 65
   257
 75
     1
175
     1
 42
1.0
 92
        8
 66
     7
 43
1.0
 76
     1
 77
     6
 78
     2
 67
     7
 79
     5
170
     0
171
     0
290
     0
174
     0
 93
        1
 44
50.0
173
     0
291
     1
 45
0.0
1001
ACAD
1000
AcDbSavedByObjectVersion
1070
     0
  0
VISUALSTYLE
  5
1C9
102
{ACAD_XDICTIONARY
360
7FF
102
}
102
{ACAD_REACTORS
330
1B9
102
}
330
1B9
100
AcDbVisualStyle
  2
ColorChange
 70
    16
 71
     2
 72
     2
 73
     3
 90
        0
 40
-0.6
 41
-30.0
 62
     5
 63
     8
 74
     1
 91
        4
 64
     7
 65
   257
 75
     1
175
     1
 42
1.0
 92
        8
 66
     8
 43
1.0
 76
     1
 77
     6
 78
     2
 67
     7
 79
     5
170
     0
171
     0
290
     0
174
     0
 93
        1
 44
0.0
173
     0
291
     1
 45
0.0
1001
ACAD
1000
AcDbSavedByObjectVersion
1070
     0
  0
VISUALSTYLE
  5
1C2
102
{ACAD_XDICTIONARY
360
7F1
102
}
102
{ACAD_REACTORS
330
1B9
102
}
330
1B9
100
AcDbVisualStyle
  2
Conceptual
 70
     9
 71
     3
 72
     2
 73
     0
 90
        0
 40
-0.6
 41
-30.0
 62
     5
 63
     7
 74
     2
 91
        2
 64
     7
 65
   257
 75
     1
175
     1
 42
179.0
 92
        8
 66
     7
 43
1.0
 76
     1
 77
     6
 78
     2
 67
     7
 79
     3
170
     0
171
     0
290
     0
174
     0
 93
        1
 44
0.0
173
     0
291
     0
 45
0.0
1001
ACAD
1000
AcDbSavedByObjectVersion
1070
     0
  0
VISUALSTYLE
  5
1C4
102
{ACAD_XDICTIONARY
360
7F5
102
}
102
{ACAD_REACTORS
330
1B9
102
}
330
1B9
100
AcDbVisualStyle
  2
Dim
 70
    11
 71
     2
 72
     2
 73
     0
 90
        0
 40
-0.6
 41
-30.0
 62
     5
 63
     7
 74
     1
 91
        4
 64
     7
 65
   257
 75
     1
175
     1
 42
1.0
 92
        8
 66
     7
 43
1.0
 76
     1
 77
     6
 78
     2
 67
     7
 79
     5
170
     0
171
     0
290
     0
174
     0
 93
        1
 44
-50.0
173
     0
291
     1
 45
0.0
1001
ACAD
1000
AcDbSavedByObjectVersion
1070
     0
  0
VISUALSTYLE
  5
1D1
102
{ACAD_XDICTIONARY
360
80F
102
}
102
{ACAD_REACTORS
330
1B9
102
}
330
1B9
100
AcDbVisualStyle
  2
EdgeColorOff
 70
    22
 71
     2
 72
     2
 73
     0
 90
        0
 40
-0.6
 41
-30.0
 62
     5
 63
     7
 74
     1
 91
        4
 64
     7
 65
   257
 75
     1
175
     1
 42
1.0
 92
        8
 66
     7
 43
1.0
 76
     1
 77
     6
 78
     2
 67
     7
 79
     5
170
     0
171
     0
290
     0
174
     0
 93
        1
 44
0.0
173
     0
291
     1
 45
0.0
1001
ACAD
1000
AcDbSavedByObjectVersion
1070
     0
  0
VISUALSTYLE
  5
1C8
102
{ACAD_XDICTIONARY
360
7FD
102
}
102
{ACAD_REACTORS
330
1B9
102
}
330
1B9
100
AcDbVisualStyle
  2
Facepattern
 70
    15
 71
     2
 72
     2
 73
     0
 90
        0
 40
-0.6
 41
-30.0
 62
     5
 63
     7
 74
     1
 91
        4
 64
     7
 65
   257
 75
     1
175
     1
 42
1.0
 92
        8
 66
     7
 43
1.0
 76
     1
 77
     6
 78
     2
 67
     7
 79
     5
170
     0
171
     0
290
     0
174
     0
 93
        1
 44
0.0
173
     0
291
     1
 45
0.0
1001
ACAD
1000
AcDbSavedByObjectVersion
1070
     0
  0
VISUALSTYLE
  5
1BA
102
{ACAD_XDICTIONARY
360
7E1
102
}
102
{ACAD_REACTORS
330
1B9
102
}
330
1B9
100
AcDbVisualStyle
  2
Flat
 70
     0
 71
     2
 72
     1
 73
     1
 90
        2
 40
-0.6
 41
30.0
 62
     5
 63
     7
 74
     0
 91
        0
 64
     7
 65
   257
 75
     1
175
     1
 42
1.0
 92
        8
 66
     7
 43
1.0
 76
     1
 77
     6
 78
     2
 67
     7
 79
     5
170
     0
171
     0
290
     0
174
     0
 93
       13
 44
0.0
173
     0
291
     1
 45
0.0
1001
ACAD
1000
AcDbSavedByObjectVersion
1070
     0
  0
VISUALSTYLE
  5
1BB
102
{ACAD_XDICTIONARY
360
7E3
102
}
102
{ACAD_REACTORS
330
1B9
102
}
330
1B9
100
AcDbVisualStyle
  2
FlatWithEdges
 70
     1
 71
     2
 72
     1
 73
     1
 90
        2
 40
-0.6
 41
30.0
 62
     5
 63
     7
 74
     1
 91
        0
 64
     7
 65
   257
 75
     1
175
     1
 42
1.0
 92
        0
 66
   257
 43
1.0
 76
     1
 77
     6
 78
     2
 67
     7
 79
     5
170
     0
171
     0
290
     0
174
     0
 93
       13
 44
0.0
173
     0
291
     1
 45
0.0
1001
ACAD
1000
AcDbSavedByObjectVersion
1070
     0
  0
VISUALSTYLE
  5
1BC
102
{ACAD_XDICTIONARY
360
7E5
102
}
102
{ACAD_REACTORS
330
1B9
102
}
330
1B9
100
AcDbVisualStyle
  2
Gouraud
 70
     2
 71
     2
 72
     2
 73
     1
 90
        2
 40
-0.6
 41
30.0
 62
     5
 63
     7
 74
     0
 91
        0
 64
     7
 65
   257
 75
     1
175
     1
 42
1.0
 92
        0
 66
     7
 43
1.0
 76
     1
 77
     6
 78
     2
 67
     7
 79
     5
170
     0
171
     0
290
     0
174
     0
 93
       13
 44
0.0
173
     0
291
     1
 45
0.0
1001
ACAD
1000
AcDbSavedByObjectVersion
1070
     0
  0
VISUALSTYLE
  5
1BD
102
{ACAD_XDICTIONARY
360
7E7
102
}
102
{ACAD_REACTORS
330
1B9
102
}
330
1B9
100
AcDbVisualStyle
  2
GouraudWithEdges
 70
     3
 71
     2
 72
     2
 73
     1
 90
        2
 40
-0.6
 41
30.0
 62
     5
 63
     7
 74
     1
 91
        0
 64
     7
 65
   257
 75
     1
175
     1
 42
1.0
 92
        0
 66
   257
 43
1.0
 76
     1
 77
     6
 78
     2
 67
     7
 79
     5
170
     0
171
     0
290
     0
174
     0
 93
       13
 44
0.0
173
     0
291
     1
 45
0.0
1001
ACAD
1000
AcDbSavedByObjectVersion
1070
     0
  0
VISUALSTYLE
  5
1C1
102
{ACAD_XDICTIONARY
360
7EF
102
}
102
{ACAD_REACTORS
330
1B9
102
}
330
1B9
100
AcDbVisualStyle
  2
Hidden
 70
     6
 71
     1
 72
     2
 73
     2
 90
        0
 40
-0.6
 41
-30.0
 62
     5
 63
     7
 74
     2
 91
        2
 64
     7
 65
   257
 75
     2
175
     1
 42
40.0
 92
        0
 66
   257
 43
1.0
 76
     1
 77
     6
 78
     2
 67
     7
 79
     3
170
     0
171
     0
290
     0
174
     0
 93
        1
 44
0.0
173
     0
291
     0
 45
0.0
1001
ACAD
1000
AcDbSavedByObjectVersion
1070
     0
  0
VISUALSTYLE
  5
1CF
102
{ACAD_XDICTIONARY
360
80B
102
}
102
{ACAD_REACTORS
330
1B9
102
}
330
1B9
100
AcDbVisualStyle
  2
JitterOff
 70
    20
 71
     2
 72
     2
 73
     0
 90
        0
 40
-0.6
 41
-30.0
 62
     5
 63
     7
 74
     1
 91
        4
 64
     7
 65
   257
 75
     1
175
     1
 42
1.0
 92
       10
 66
     7
 43
1.0
 76
     1
 77
     6
 78
     2
 67
     7
 79
     5
170
     0
171
     0
290
     0
174
     0
 93
        1
 44
0.0
173
     0
291
     1
 45
0.0
1001
ACAD
1000
AcDbSavedByObjectVersion
1070
     0
  0
VISUALSTYLE
  5
1C7
102
{ACAD_XDICTIONARY
360
7FB
102
}
102
{ACAD_REACTORS
330
1B9
102
}
330
1B9
100
AcDbVisualStyle
  2
Linepattern
 70
    14
 71
     2
 72
     2
 73
     0
 90
        0
 40
-0.6
 41
-30.0
 62
     5
 63
     7
 74
     1
 91
        4
 64
     7
 65
   257
 75
     7
175
     7
 42
1.0
 92
        8
 66
     7
 43
1.0
 76
     1
 77
     6
 78
     2
 67
     7
 79
     5
170
     0
171
     0
290
     0
174
     0
 93
        1
 44
0.0
173
     0
291
     1
 45
0.0
1001
ACAD
1000
AcDbSavedByObjectVersion
1070
     0
  0
VISUALSTYLE
  5
1D0
102
{ACAD_XDICTIONARY
360
80D
102
}
102
{ACAD_REACTORS
330
1B9
102
}
330
1B9
100
AcDbVisualStyle
  2
OverhangOff
 70
    21
 71
     2
 72
     2
 73
     0
 90
        0
 40
-0.6
 41
-30.0
 62
     5
 63
     7
 74
     1
 91
        4
 64
     7
 65
   257
 75
     1
175
     1
 42
1.0
 92
        9
 66
     7
 43
1.0
 76
     1
 77
     6
 78
     2
 67
     7
 79
     5
170
     0
171
     0
290
     0
174
     0
 93
        1
 44
0.0
173
     0
291
     1
 45
0.0
1001
ACAD
1000
AcDbSavedByObjectVersion
1070
     0
  0
VISUALSTYLE
  5
1C3
102
{ACAD_XDICTIONARY
360
7F3
102
}
102
{ACAD_REACTORS
330
1B9
102
}
330
1B9
100
AcDbVisualStyle
  2
Realistic
 70
     8
 71
     2
 72
     3
 73
     0
 90
        2
 40
-0.6
 41
30.0
 62
     5
 63
     7
 74
     0
 91
        0
 64
     7
 65
   257
 75
     1
175
     1
 42
1.0
 92
        8
 66
   257
 43
1.0
 76
     1
 77
     6
 78
     2
 67
     7
 79
     3
170
     0
171
     0
290
     0
174
     0
 93
       13
 44
0.0
173
     0
291
     0
 45
0.0
1001
ACAD
1000
AcDbSavedByObjectVersion
1070
     0
  0
VISUALSTYLE
  5
1CE
102
{ACAD_XDICTIONARY
360
809
102
}
102
{ACAD_REACTORS
330
1B9
102
}
330
1B9
100
AcDbVisualStyle
  2
Shaded
 70
    27
 71
     2
 72
     2
 73
     1
 90
        2
 40
-0.6
 41
30.0
 62
     5
 63
     7
 74
     0
 91
        4
 64
     7
 65
   257
 75
     1
175
     1
 42
1.0
 92
        8
 66
   257
 43
1.0
 76
     1
 77
     6
 78
     2
 67
     8
 79
     3
170
     0
171
     0
290
     0
174
     0
 93
        5
 44
0.0
173
     0
291
     0
 45
0.0
1001
ACAD
1000
AcDbSavedByObjectVersion
1070
     0
  0
VISUALSTYLE
  5
1CD
102
{ACAD_XDICTIONARY
360
807
102
}
102
{ACAD_REACTORS
330
1B9
102
}
330
1B9
100
AcDbVisualStyle
  2
Shaded with edges
 70
    26
 71
     2
 72
     2
 73
     1
 90
        2
 40
-0.6
 41
30.0
 62
     5
 63
     7
 74
     1
 91
       10
 64
     7
 65
   257
 75
     2
175
     1
 42
1.0
 92
        8
 66
   257
 43
1.0
 76
     1
 77
     6
 78
     2
 67
     7
 79
     3
170
     0
171
     0
290
     0
174
     0
 93
        5
 44
0.0
173
     0
291
     0
 45
0.0
1001
ACAD
1000
AcDbSavedByObjectVersion
1070
     0
  0
VISUALSTYLE
  5
1CA
102
{ACAD_XDICTIONARY
360
801
102
}
102
{ACAD_REACTORS
330
1B9
102
}
330
1B9
100
AcDbVisualStyle
  2
Shades of Gray
 70
    23
 71
     2
 72
     2
 73
     3
 90
        0
 40
-0.6
 41
-30.0
 62
     5
 63
     7
 74
     2
 91
        2
 64
     7
 65
     7
 75
     1
175
     1
 42
40.0
 92
        8
 66
     7
 43
1.0
 76
     1
 77
     6
 78
     2
 67
     7
 79
     3
170
     0
171
     0
290
     0
174
     0
 93
        1
 44
0.0
173
     0
291
     0
 45
0.0
1001
ACAD
1000
AcDbSavedByObjectVersion
1070
     0
  0
VISUALSTYLE
  5
1CB
102
{ACAD_XDICTIONARY
360
803
102
}
102
{ACAD_REACTORS
330
1B9
102
}
330
1B9
100
AcDbVisualStyle
  2
Sketchy
 70
    24
 71
     1
 72
     2
 73
     2
 90
        0
 40
-0.6
 41
-30.0
 62
     5
 63
     7
 74
     2
 91
        2
 64
     7
 65
     7
 75
     1
175
     1
 42
40.0
 92
       11
 66
     7
 43
1.0
 76
     1
 77
     6
 78
     2
 67
     7
 79
     6
170
     0
171
     0
290
     0
174
     0
 93
        1
 44
0.0
173
     0
291
     0
 45
0.0
1001
ACAD
1000
AcDbSavedByObjectVersion
1070
     0
  0
VISUALSTYLE
  5
1C6
102
{ACAD_XDICTIONARY
360
7F9
102
}
102
{ACAD_REACTORS
330
1B9
102
}
330
1B9
100
AcDbVisualStyle
  2
Thicken
 70
    13
 71
     2
 72
     2
 73
     0
 90
        0
 40
-0.6
 41
-30.0
 62
     5
 63
     7
 74
     1
 91
        4
 64
     7
 65
   257
 75
     1
175
     1
 42
1.0
 92
       12
 66
     7
 43
1.0
 76
     1
 77
     6
 78
     2
 67
     7
 79
     5
170
     0
171
     0
290
     0
174
     0
 93
        1
 44
0.0
173
     0
291
     1
 45
0.0
1001
ACAD
1000
AcDbSavedByObjectVersion
1070
     0
  0
VISUALSTYLE
  5
1C0
102
{ACAD_XDICTIONARY
360
7ED
102
}
102
{ACAD_REACTORS
330
1B9
102
}
330
1B9
100
AcDbVisualStyle
  2
Wireframe
 70
     5
 71
     0
 72
     2
 73
     0
 90
        0
 40
-0.6
 41
-30.0
 62
     5
 63
     7
 74
     1
 91
        4
 64
     7
 65
   257
 75
     1
175
     1
 42
1.0
 92
        0
 66
   257
 43
1.0
 76
     1
 77
     6
 78
     2
 67
     7
 79
     3
170
     0
171
     0
290
     0
174
     0
 93
        1
 44
0.0
173
     0
291
     0
 45
0.0
1001
ACAD
1000
AcDbSavedByObjectVersion
1070
     0
  0
VISUALSTYLE
  5
1CC
102
{ACAD_XDICTIONARY
360
805
102
}
102
{ACAD_REACTORS
330
1B9
102
}
330
1B9
100
AcDbVisualStyle
  2
X-Ray
 70
    25
 71
     2
 72
     2
 73
     1
 90
        1
 40
0.5
 41
-30.0
 62
     5
 63
     7
 74
     1
 91
        0
 64
     7
 65
   257
 75
     1
175
     1
 42
1.0
 92
        8
 66
     7
 43
1.0
 76
     1
 77
     6
 78
     2
 67
     7
 79
     3
170
     0
171
     0
290
     0
174
     0
 93
       13
 44
0.0
173
     0
291
     0
 45
0.0
1001
ACAD
1000
AcDbSavedByObjectVersion
1070
     0
  0
DICTIONARYVAR
  5
7CC
102
{ACAD_REACTORS
330
7C7
102
}
330
7C7
100
DictionaryVariables
280
     0
  1
1:1
  0
DICTIONARYVAR
  5
7C9
102
{ACAD_REACTORS
330
7C7
102
}
330
7C7
100
DictionaryVariables
280
     0
  1
STANDARD
  0
DICTIONARYVAR
  5
7C8
102
{ACAD_REACTORS
330
7C7
102
}
330
7C7
100
DictionaryVariables
280
     0
  1
STANDARD
  0
DICTIONARYVAR
  5
7CA
102
{ACAD_REACTORS
330
7C7
102
}
330
7C7
100
DictionaryVariables
280
     0
  1
Imperial24
  0
DICTIONARYVAR
  5
7CB
102
{ACAD_REACTORS
330
7C7
102
}
330
7C7
100
DictionaryVariables
280
     0
  1
Imperial24
  0
DICTIONARYVAR
  5
7D3
102
{ACAD_REACTORS
330
7C7
102
}
330
7C7
100
DictionaryVariables
280
     0
  1
2
  0
DICTIONARYVAR
  5
7D1
102
{ACAD_REACTORS
330
7C7
102
}
330
7C7
100
DictionaryVariables
280
     0
  1
2
  0
DICTIONARYVAR
  5
7CF
102
{ACAD_REACTORS
330
7C7
102
}
330
7C7
100
DictionaryVariables
280
     0
  1
1
  0
DICTIONARYVAR
  5
7CE
102
{ACAD_REACTORS
330
7C7
102
}
330
7C7
100
DictionaryVariables
280
     0
  1
0
  0
DICTIONARYVAR
  5
7D2
102
{ACAD_REACTORS
330
7C7
102
}
330
7C7
100
DictionaryVariables
280
     0
  1
1
  0
DICTIONARYVAR
  5
7CD
102
{ACAD_REACTORS
330
7C7
102
}
330
7C7
100
DictionaryVariables
280
     0
  1
127
  0
DICTIONARYVAR
  5
7D0
102
{ACAD_REACTORS
330
7C7
102
}
330
7C7
100
DictionaryVariables
280
     0
  1
0
  0
DICTIONARY
  5
225
102
{ACAD_REACTORS
330
21E
102
}
330
21E
100
AcDbDictionary
281
     1
  0
DICTIONARY
  5
7DA
330
1C
100
AcDbDictionary
280
     1
281
     1
  3
ACAD_XREC_ROUNDTRIP
360
7DB
  0
DICTIONARY
  5
7DC
330
1E
100
AcDbDictionary
280
     1
281
     1
  3
ACAD_XREC_ROUNDTRIP
360
7DD
  0
DICTIONARY
  5
1AA
330
1A9
100
AcDbDictionary
280
     1
281
     1
  3
ACAD_XREC_ROUNDTRIP
360
7DF
  3
BUMPTILE
360
1AC
  3
DIFFUSETILE
360
1AB
  3
OPACITYTILE
360
1AF
  3
REFLECTIONTILE
360
1AE
  3
REFRACTIONTILE
360
1B0
  3
SPECULARTILE
360
1AD
  0
DICTIONARY
  5
1A2
330
1A1
100
AcDbDictionary
280
     1
281
     1
  3
ACAD_XREC_ROUNDTRIP
360
7DE
  3
BUMPTILE
360
1A4
  3
DIFFUSETILE
360
1A3
  3
OPACITYTILE
360
1A7
  3
REFLECTIONTILE
360
1A6
  3
REFRACTIONTILE
360
1A8
  3
SPECULARTILE
360
1A5
  0
DICTIONARY
  5
1B2
330
1B1
100
AcDbDictionary
280
     1
281
     1
  3
ACAD_XREC_ROUNDTRIP
360
7E0
  3
BUMPTILE
360
1B4
  3
DIFFUSETILE
360
1B3
  3
OPACITYTILE
360
1B7
  3
REFLECTIONTILE
360
1B6
  3
REFRACTIONTILE
360
1B8
  3
SPECULARTILE
360
1B5
  0
DICTIONARY
  5
813
330
1E8
100
AcDbDictionary
280
     1
281
     1
  3
ACAD_XREC_ROUNDTRIP
360
814
  0
DICTIONARY
  5
7D4
330
1D4
100
AcDbDictionary
280
     1
281
     1
  3
ACAD_ROUNDTRIP_2008_TABLESTYLE_CELLSTYLEMAP
360
7D5
  3
ACAD_XREC_ROUNDTRIP
360
811
  0
DICTIONARY
  5
7EB
330
1BF
100
AcDbDictionary
280
     1
281
     1
  3
ACAD_XREC_ROUNDTRIP
360
7EC
  0
DICTIONARY
  5
7E9
330
1BE
100
AcDbDictionary
280
     1
281
     1
  3
ACAD_XREC_ROUNDTRIP
360
7EA
  0
DICTIONARY
  5
7F7
330
1C5
100
AcDbDictionary
280
     1
281
     1
  3
ACAD_XREC_ROUNDTRIP
360
7F8
  0
DICTIONARY
  5
7FF
330
1C9
100
AcDbDictionary
280
     1
281
     1
  3
ACAD_XREC_ROUNDTRIP
360
800
  0
DICTIONARY
  5
7F1
330
1C2
100
AcDbDictionary
280
     1
281
     1
  3
ACAD_XREC_ROUNDTRIP
360
7F2
  0
DICTIONARY
  5
7F5
330
1C4
100
AcDbDictionary
280
     1
281
     1
  3
ACAD_XREC_ROUNDTRIP
360
7F6
  0
DICTIONARY
  5
80F
330
1D1
100
AcDbDictionary
280
     1
281
     1
  3
ACAD_XREC_ROUNDTRIP
360
810
  0
DICTIONARY
  5
7FD
330
1C8
100
AcDbDictionary
280
     1
281
     1
  3
ACAD_XREC_ROUNDTRIP
360
7FE
  0
DICTIONARY
  5
7E1
330
1BA
100
AcDbDictionary
280
     1
281
     1
  3
ACAD_XREC_ROUNDTRIP
360
7E2
  0
DICTIONARY
  5
7E3
330
1BB
100
AcDbDictionary
280
     1
281
     1
  3
ACAD_XREC_ROUNDTRIP
360
7E4
  0
DICTIONARY
  5
7E5
330
1BC
100
AcDbDictionary
280
     1
281
     1
  3
ACAD_XREC_ROUNDTRIP
360
7E6
  0
DICTIONARY
  5
7E7
330
1BD
100
AcDbDictionary
280
     1
281
     1
  3
ACAD_XREC_ROUNDTRIP
360
7E8
  0
DICTIONARY
  5
7EF
330
1C1
100
AcDbDictionary
280
     1
281
     1
  3
ACAD_XREC_ROUNDTRIP
360
7F0
  0
DICTIONARY
  5
80B
330
1CF
100
AcDbDictionary
280
     1
281
     1
  3
ACAD_XREC_ROUNDTRIP
360
80C
  0
DICTIONARY
  5
7FB
330
1C7
100
AcDbDictionary
280
     1
281
     1
  3
ACAD_XREC_ROUNDTRIP
360
7FC
  0
DICTIONARY
  5
80D
330
1D0
100
AcDbDictionary
280
     1
281
     1
  3
ACAD_XREC_ROUNDTRIP
360
80E
  0
DICTIONARY
  5
7F3
330
1C3
100
AcDbDictionary
280
     1
281
     1
  3
ACAD_XREC_ROUNDTRIP
360
7F4
  0
DICTIONARY
  5
809
330
1CE
100
AcDbDictionary
280
     1
281
     1
  3
ACAD_XREC_ROUNDTRIP
360
80A
  0
DICTIONARY
  5
807
330
1CD
100
AcDbDictionary
280
     1
281
     1
  3
ACAD_XREC_ROUNDTRIP
360
808
  0
DICTIONARY
  5
801
330
1CA
100
AcDbDictionary
280
     1
281
     1
  3
ACAD_XREC_ROUNDTRIP
360
802
  0
DICTIONARY
  5
803
330
1CB
100
AcDbDictionary
280
     1
281
     1
  3
ACAD_XREC_ROUNDTRIP
360
804
  0
DICTIONARY
  5
7F9
330
1C6
100
AcDbDictionary
280
     1
281
     1
  3
ACAD_XREC_ROUNDTRIP
360
7FA
  0
DICTIONARY
  5
7ED
330
1C0
100
AcDbDictionary
280
     1
281
     1
  3
ACAD_XREC_ROUNDTRIP
360
7EE
  0
DICTIONARY
  5
805
330
1CC
100
AcDbDictionary
280
     1
281
     1
  3
ACAD_XREC_ROUNDTRIP
360
806
  0
XRECORD
  5
7DB
102
{ACAD_REACTORS
330
7DA
102
}
330
7DA
100
AcDbXrecord
280
     1
102
SHADEPLOT
 70
     0
102
SHADEPLOTRESLEVEL
 70
     2
102
SHADEPLOTCUSTOMDPI
 70
   300
  0
XRECORD
  5
7DD
102
{ACAD_REACTORS
330
7DC
102
}
330
7DC
100
AcDbXrecord
280
     1
102
SHADEPLOT
 70
     0
102
SHADEPLOTRESLEVEL
 70
     2
102
SHADEPLOTCUSTOMDPI
 70
   300
  0
XRECORD
  5
7DF
102
{ACAD_REACTORS
330
1AA
102
}
330
1AA
100
AcDbXrecord
280
     1
102
MATERIAL
148
0.0
149
0.0
149
0.0
 93
        0
 94
      127
282
     0
 72
     0
 77
     0
171
     0
175
     0
179
     0
273
     0
  0
XRECORD
  5
1AC
102
{ACAD_REACTORS
330
1AA
102
}
330
1AA
100
AcDbXrecord
280
     1
270
     1
271
     1
  0
XRECORD
  5
1AB
102
{ACAD_REACTORS
330
1AA
102
}
330
1AA
100
AcDbXrecord
280
     1
270
     1
271
     1
  0
XRECORD
  5
1AF
102
{ACAD_REACTORS
330
1AA
102
}
330
1AA
100
AcDbXrecord
280
     1
270
     1
271
     1
  0
XRECORD
  5
1AE
102
{ACAD_REACTORS
330
1AA
102
}
330
1AA
100
AcDbXrecord
280
     1
270
     1
271
     1
  0
XRECORD
  5
1B0
102
{ACAD_REACTORS
330
1AA
102
}
330
1AA
100
AcDbXrecord
280
     1
270
     1
271
     1
  0
XRECORD
  5
1AD
102
{ACAD_REACTORS
330
1AA
102
}
330
1AA
100
AcDbXrecord
280
     1
270
     1
271
     1
  0
XRECORD
  5
7DE
102
{ACAD_REACTORS
330
1A2
102
}
330
1A2
100
AcDbXrecord
280
     1
102
MATERIAL
148
0.0
149
0.0
149
0.0
 93
        0
 94
      127
282
     0
 72
     0
 77
     0
171
     0
175
     0
179
     0
273
     0
  0
XRECORD
  5
1A4
102
{ACAD_REACTORS
330
1A2
102
}
330
1A2
100
AcDbXrecord
280
     1
270
     1
271
     1
  0
XRECORD
  5
1A3
102
{ACAD_REACTORS
330
1A2
102
}
330
1A2
100
AcDbXrecord
280
     1
270
     1
271
     1
  0
XRECORD
  5
1A7
102
{ACAD_REACTORS
330
1A2
102
}
330
1A2
100
AcDbXrecord
280
     1
270
     1
271
     1
  0
XRECORD
  5
1A6
102
{ACAD_REACTORS
330
1A2
102
}
330
1A2
100
AcDbXrecord
280
     1
270
     1
271
     1
  0
XRECORD
  5
1A8
102
{ACAD_REACTORS
330
1A2
102
}
330
1A2
100
AcDbXrecord
280
     1
270
     1
271
     1
  0
XRECORD
  5
1A5
102
{ACAD_REACTORS
330
1A2
102
}
330
1A2
100
AcDbXrecord
280
     1
270
     1
271
     1
  0
XRECORD
  5
7E0
102
{ACAD_REACTORS
330
1B2
102
}
330
1B2
100
AcDbXrecord
280
     1
102
MATERIAL
148
0.0
149
0.0
149
0.0
 93
        0
 94
      127
282
     0
 72
     0
 77
     0
171
     0
175
     0
179
     0
273
     0
  0
XRECORD
  5
1B4
102
{ACAD_REACTORS
330
1B2
102
}
330
1B2
100
AcDbXrecord
280
     1
270
     1
271
     1
  0
XRECORD
  5
1B3
102
{ACAD_REACTORS
330
1B2
102
}
330
1B2
100
AcDbXrecord
280
     1
270
     1
271
     1
  0
XRECORD
  5
1B7
102
{ACAD_REACTORS
330
1B2
102
}
330
1B2
100
AcDbXrecord
280
     1
270
     1
271
     1
  0
XRECORD
  5
1B6
102
{ACAD_REACTORS
330
1B2
102
}
330
1B2
100
AcDbXrecord
280
     1
270
     1
271
     1
  0
XRECORD
  5
1B8
102
{ACAD_REACTORS
330
1B2
102
}
330
1B2
100
AcDbXrecord
280
     1
270
     1
271
     1
  0
XRECORD
  5
1B5
102
{ACAD_REACTORS
330
1B2
102
}
330
1B2
100
AcDbXrecord
280
     1
270
     1
271
     1
  0
XRECORD
  5
814
102
{ACAD_REACTORS
330
813
102
}
330
813
100
AcDbXrecord
280
     1
102
ACAD_ROUNDTRIP_2012_MLEADER_STYLE
298
     1
  0
CELLSTYLEMAP
  5
7D5
102
{ACAD_REACTORS
330
7D4
102
}
330
7D4
100
AcDbCellStyleMap
 90
        3
300
CELLSTYLE
  1
TABLEFORMAT_BEGIN
 90
        5
170
     1
 91
        0
 92
    32768
 62
   257
 93
        1
300
CONTENTFORMAT
  1
CONTENTFORMAT_BEGIN
 90
        0
 91
        0
 92
      512
 93
        0
300

 40
0.0
140
1.0
 94
        5
 62
     0
340
11
144
0.25
309
CONTENTFORMAT_END
171
     0
 94
        0
309
TABLEFORMAT_END
  1
CELLSTYLE_BEGIN
 90
        1
 91
        1
300
_TITLE
309
CELLSTYLE_END
300
CELLSTYLE
  1
TABLEFORMAT_BEGIN
 90
        5
170
     1
 91
        0
 92
        0
 62
   257
 93
        1
300
CONTENTFORMAT
  1
CONTENTFORMAT_BEGIN
 90
        0
 91
        0
 92
      512
 93
        0
300

 40
0.0
140
1.0
 94
        5
 62
     0
340
11
144
0.18
309
CONTENTFORMAT_END
171
     0
 94
        0
309
TABLEFORMAT_END
  1
CELLSTYLE_BEGIN
 90
        2
 91
        1
300
_HEADER
309
CELLSTYLE_END
300
CELLSTYLE
  1
TABLEFORMAT_BEGIN
 90
        5
170
     1
 91
        0
 92
        0
 62
   257
 93
        1
300
CONTENTFORMAT
  1
CONTENTFORMAT_BEGIN
 90
        0
 91
        0
 92
      512
 93
        0
300

 40
0.0
140
1.0
 94
        2
 62
     0
340
11
144
0.18
309
CONTENTFORMAT_END
171
     0
 94
        0
309
TABLEFORMAT_END
  1
CELLSTYLE_BEGIN
 90
        3
 91
        2
300
_DATA
309
CELLSTYLE_END
  0
XRECORD
  5
811
102
{ACAD_REACTORS
330
7D4
102
}
330
7D4
100
AcDbXrecord
280
     1
102
ACAD_ROUNDTRIP_PRE2007_TABLESTYLE
 90
      512
 91
        0
  1

 92
      512
 93
        0
  2

 94
      512
 95
        0
  3

  0
XRECORD
  5
7EC
102
{ACAD_REACTORS
330
7EB
102
}
330
7EB
100
AcDbXrecord
280
     1
102
RTVSPost2010Prop28
280
     1
102
RTVSPost2010PropOp28
 70
     1
102
RTVSPost2010Prop29
280
     1
102
RTVSPost2010PropOp29
 70
     1
102
RTVSPost2010Prop30
280
     0
102
RTVSPost2010PropOp30
 70
     1
102
RTVSPost2010Prop31
280
     0
102
RTVSPost2010PropOp31
 70
     1
102
RTVSPost2010Prop32
280
     0
102
RTVSPost2010PropOp32
 70
     1
102
RTVSPost2010Prop33
280
     0
102
RTVSPost2010PropOp33
 70
     1
102
RTVSPost2010Prop34
280
     0
102
RTVSPost2010PropOp34
 70
     1
102
RTVSPost2010Prop35
280
     0
102
RTVSPost2010PropOp35
 70
     1
102
RTVSPost2010Prop36
280
     0
102
RTVSPost2010PropOp36
 70
     1
102
RTVSPost2010Prop37
 90
       50
102
RTVSPost2010PropOp37
 70
     1
102
RTVSPost2010Prop38
140
0.0
102
RTVSPost2010PropOp38
 70
     1
102
RTVSPost2010Prop39
140
1.0
102
RTVSPost2010PropOp39
 70
     1
102
RTVSPost2010Prop40
 90
        0
102
RTVSPost2010PropOp40
 70
     1
102
RTVSPost2010Prop41ColorIndex
 90
       18
102
RTVSPost2010Prop41ColorRGB
 90
        0
102
RTVSPost2010PropOp41
 70
     1
102
RTVSPost2010Prop42
 90
       50
102
RTVSPost2010PropOp42
 70
     1
102
RTVSPost2010Prop43
 90
        3
102
RTVSPost2010PropOp43
 70
     1
102
RTVSPost2010Prop44ColorIndex
 90
        5
102
RTVSPost2010Prop44ColorRGB
 90
      255
102
RTVSPost2010PropOp44
 70
     1
102
RTVSPost2010Prop45
280
     0
102
RTVSPost2010PropOp45
 70
     1
102
RTVSPost2010Prop46
 90
       50
102
RTVSPost2010PropOp46
 70
     1
102
RTVSPost2010Prop47
 90
       50
102
RTVSPost2010PropOp47
 70
     1
102
RTVSPost2010Prop48
 90
       50
102
RTVSPost2010PropOp48
 70
     1
102
RTVSPost2010Prop49
280
     0
102
RTVSPost2010PropOp49
 70
     1
102
RTVSPost2010Prop50
 90
       50
102
RTVSPost2010PropOp50
 70
     1
102
RTVSPost2010Prop51ColorIndex
 90
      256
102
RTVSPost2010Prop51ColorRGB
 90
-16777216
102
RTVSPost2010PropOp51
 70
     0
102
RTVSPost2010Prop52
140
1.0
102
RTVSPost2010PropOp52
 70
     0
102
RTVSPost2010Prop53
 90
        2
102
RTVSPost2010PropOp53
 70
     1
102
RTVSPost2010Prop54
  1
strokes_ogs.tif
102
RTVSPost2010PropOp54
 70
     1
102
RTVSPost2010Prop55
280
     0
102
RTVSPost2010PropOp55
 70
     1
102
RTVSPost2010Prop56
140
1.0
102
RTVSPost2010PropOp56
 70
     1
102
RTVSPost2010Prop57
140
1.0
102
RTVSPost2010PropOp57
 70
     1
102
RTVSPropertyOp0
 70
     1
102
RTVSPropertyOp1
 70
     1
102
RTVSPropertyOp2
 70
     1
102
RTVSPropertyOp3
 70
     1
102
RTVSPropertyOp4
 70
     1
102
RTVSPropertyOp5
 70
     1
102
RTVSPropertyOp6
 70
     1
102
RTVSPropertyOp7
 70
     1
102
RTVSPropertyOp8
 70
     1
102
RTVSPropertyOp9
 70
     1
102
RTVSPropertyOp10
 70
     1
102
RTVSPropertyOp11
 70
     1
102
RTVSPropertyOp12
 70
     1
102
RTVSPropertyOp13
 70
     1
102
RTVSPropertyOp14
 70
     1
102
RTVSPropertyOp15
 70
     1
102
RTVSPropertyOp16
 70
     1
102
RTVSPropertyOp17
 70
     1
102
RTVSPropertyOp18
 70
     1
102
RTVSPropertyOp19
 70
     1
102
RTVSPropertyOp20
 70
     1
102
RTVSPropertyOp21
 70
     1
102
RTVSPropertyOp22
 70
     1
102
RTVSPropertyOp23
 70
     1
102
RTVSPropertyOp24
 70
     1
102
RTVSPropertyOp25
 70
     1
102
RTVSPropertyOp26
 70
     1
102
RTVSPropertyOp27
 70
     1
102
RTVSPropertyOp28
 70
     1
102
RTVSPropertyOp29
 70
     1
102
RTVSPropertyOp30
 70
     1
102
RTVSPropertyOp31
 70
     1
102
RTVSPropertyOp32
 70
     1
102
RTVSPropertyOp33
 70
     1
102
RTVSPropertyOp34
 70
     1
102
RTVSPropertyOp35
 70
     1
102
RTVSPropertyOp36
 70
     1
102
RTVSPropertyOp37
 70
     1
102
RTVSPropertyOp38
 70
     1
102
RTVSPropertyOp39
 70
     1
102
RTVSPropertyOp40
 70
     1
102
RTVSPropertyOp41
 70
     1
102
RTVSPropertyOp42
 70
     1
102
RTVSPropertyOp43
 70
     1
102
RTVSPropertyOp44
 70
     1
102
RTVSPropertyOp45
 70
     1
102
RTVSPropertyOp46
 70
     1
102
RTVSPropertyOp47
 70
     1
102
RTVSPropertyOp48
 70
     1
102
RTVSPropertyOp49
 70
     1
102
RTVSPropertyOp50
 70
     1
102
RTVSPropertyOp51
 70
     0
102
RTVSPropertyOp52
 70
     0
102
RTVSPropertyOp53
 70
     1
102
RTVSPropertyOp54
 70
     1
102
RTVSPropertyOp55
 70
     1
102
RTVSPropertyOp56
 70
     1
102
RTVSPropertyOp57
 70
     1
102
RTVSPropertyOp58
 70
     1
102
RTVSPropertyOp59
 70
     1
102
RTVSPropertyOp60
 70
     1
102
RTVSPropertyOp61
 70
     1
102
RTVSPropertyOp62
 70
     1
  0
XRECORD
  5
7EA
102
{ACAD_REACTORS
330
7E9
102
}
330
7E9
100
AcDbXrecord
280
     1
102
RTVSPost2010Prop28
280
     0
102
RTVSPost2010PropOp28
 70
     1
102
RTVSPost2010Prop29
280
     1
102
RTVSPost2010PropOp29
 70
     1
102
RTVSPost2010Prop30
280
     1
102
RTVSPost2010PropOp30
 70
     1
102
RTVSPost2010Prop31
280
     0
102
RTVSPost2010PropOp31
 70
     1
102
RTVSPost2010Prop32
280
     0
102
RTVSPost2010PropOp32
 70
     1
102
RTVSPost2010Prop33
280
     0
102
RTVSPost2010PropOp33
 70
     1
102
RTVSPost2010Prop34
280
     0
102
RTVSPost2010PropOp34
 70
     1
102
RTVSPost2010Prop35
280
     0
102
RTVSPost2010PropOp35
 70
     1
102
RTVSPost2010Prop36
280
     0
102
RTVSPost2010PropOp36
 70
     1
102
RTVSPost2010Prop37
 90
       50
102
RTVSPost2010PropOp37
 70
     1
102
RTVSPost2010Prop38
140
0.0
102
RTVSPost2010PropOp38
 70
     1
102
RTVSPost2010Prop39
140
1.0
102
RTVSPost2010PropOp39
 70
     1
102
RTVSPost2010Prop40
 90
        0
102
RTVSPost2010PropOp40
 70
     1
102
RTVSPost2010Prop41ColorIndex
 90
       18
102
RTVSPost2010Prop41ColorRGB
 90
        0
102
RTVSPost2010PropOp41
 70
     1
102
RTVSPost2010Prop42
 90
       50
102
RTVSPost2010PropOp42
 70
     1
102
RTVSPost2010Prop43
 90
        3
102
RTVSPost2010PropOp43
 70
     1
102
RTVSPost2010Prop44ColorIndex
 90
        5
102
RTVSPost2010Prop44ColorRGB
 90
      255
102
RTVSPost2010PropOp44
 70
     1
102
RTVSPost2010Prop45
280
     0
102
RTVSPost2010PropOp45
 70
     1
102
RTVSPost2010Prop46
 90
       50
102
RTVSPost2010PropOp46
 70
     1
102
RTVSPost2010Prop47
 90
       50
102
RTVSPost2010PropOp47
 70
     1
102
RTVSPost2010Prop48
 90
       50
102
RTVSPost2010PropOp48
 70
     1
102
RTVSPost2010Prop49
280
     0
102
RTVSPost2010PropOp49
 70
     1
102
RTVSPost2010Prop50
 90
       50
102
RTVSPost2010PropOp50
 70
     1
102
RTVSPost2010Prop51ColorIndex
 90
      256
102
RTVSPost2010Prop51ColorRGB
 90
-16777216
102
RTVSPost2010PropOp51
 70
     0
102
RTVSPost2010Prop52
140
1.0
102
RTVSPost2010PropOp52
 70
     0
102
RTVSPost2010Prop53
 90
        2
102
RTVSPost2010PropOp53
 70
     1
102
RTVSPost2010Prop54
  1
strokes_ogs.tif
102
RTVSPost2010PropOp54
 70
     1
102
RTVSPost2010Prop55
280
     0
102
RTVSPost2010PropOp55
 70
     1
102
RTVSPost2010Prop56
140
1.0
102
RTVSPost2010PropOp56
 70
     1
102
RTVSPost2010Prop57
140
1.0
102
RTVSPost2010PropOp57
 70
     1
102
RTVSPropertyOp0
 70
     1
102
RTVSPropertyOp1
 70
     1
102
RTVSPropertyOp2
 70
     1
102
RTVSPropertyOp3
 70
     1
102
RTVSPropertyOp4
 70
     1
102
RTVSPropertyOp5
 70
     1
102
RTVSPropertyOp6
 70
     1
102
RTVSPropertyOp7
 70
     1
102
RTVSPropertyOp8
 70
     1
102
RTVSPropertyOp9
 70
     1
102
RTVSPropertyOp10
 70
     1
102
RTVSPropertyOp11
 70
     1
102
RTVSPropertyOp12
 70
     1
102
RTVSPropertyOp13
 70
     1
102
RTVSPropertyOp14
 70
     1
102
RTVSPropertyOp15
 70
     1
102
RTVSPropertyOp16
 70
     1
102
RTVSPropertyOp17
 70
     1
102
RTVSPropertyOp18
 70
     1
102
RTVSPropertyOp19
 70
     1
102
RTVSPropertyOp20
 70
     1
102
RTVSPropertyOp21
 70
     1
102
RTVSPropertyOp22
 70
     1
102
RTVSPropertyOp23
 70
     1
102
RTVSPropertyOp24
 70
     1
102
RTVSPropertyOp25
 70
     1
102
RTVSPropertyOp26
 70
     1
102
RTVSPropertyOp27
 70
     1
102
RTVSPropertyOp28
 70
     1
102
RTVSPropertyOp29
 70
     1
102
RTVSPropertyOp30
 70
     1
102
RTVSPropertyOp31
 70
     1
102
RTVSPropertyOp32
 70
     1
102
RTVSPropertyOp33
 70
     1
102
RTVSPropertyOp34
 70
     1
102
RTVSPropertyOp35
 70
     1
102
RTVSPropertyOp36
 70
     1
102
RTVSPropertyOp37
 70
     1
102
RTVSPropertyOp38
 70
     1
102
RTVSPropertyOp39
 70
     1
102
RTVSPropertyOp40
 70
     1
102
RTVSPropertyOp41
 70
     1
102
RTVSPropertyOp42
 70
     1
102
RTVSPropertyOp43
 70
     1
102
RTVSPropertyOp44
 70
     1
102
RTVSPropertyOp45
 70
     1
102
RTVSPropertyOp46
 70
     1
102
RTVSPropertyOp47
 70
     1
102
RTVSPropertyOp48
 70
     1
102
RTVSPropertyOp49
 70
     1
102
RTVSPropertyOp50
 70
     1
102
RTVSPropertyOp51
 70
     0
102
RTVSPropertyOp52
 70
     0
102
RTVSPropertyOp53
 70
     1
102
RTVSPropertyOp54
 70
     1
102
RTVSPropertyOp55
 70
     1
102
RTVSPropertyOp56
 70
     1
102
RTVSPropertyOp57
 70
     1
102
RTVSPropertyOp58
 70
     1
102
RTVSPropertyOp59
 70
     1
102
RTVSPropertyOp60
 70
     1
102
RTVSPropertyOp61
 70
     1
102
RTVSPropertyOp62
 70
     1
  0
XRECORD
  5
7F8
102
{ACAD_REACTORS
330
7F7
102
}
330
7F7
100
AcDbXrecord
280
     1
102
RTVSPost2010Prop28
280
     0
102
RTVSPost2010PropOp28
 70
     1
102
RTVSPost2010Prop29
280
     1
102
RTVSPost2010PropOp29
 70
     1
102
RTVSPost2010Prop30
280
     1
102
RTVSPost2010PropOp30
 70
     1
102
RTVSPost2010Prop31
280
     0
102
RTVSPost2010PropOp31
 70
     1
102
RTVSPost2010Prop32
280
     0
102
RTVSPost2010PropOp32
 70
     1
102
RTVSPost2010Prop33
280
     0
102
RTVSPost2010PropOp33
 70
     1
102
RTVSPost2010Prop34
280
     0
102
RTVSPost2010PropOp34
 70
     1
102
RTVSPost2010Prop35
280
     0
102
RTVSPost2010PropOp35
 70
     1
102
RTVSPost2010Prop36
280
     0
102
RTVSPost2010PropOp36
 70
     1
102
RTVSPost2010Prop37
 90
       50
102
RTVSPost2010PropOp37
 70
     1
102
RTVSPost2010Prop38
140
0.0
102
RTVSPost2010PropOp38
 70
     1
102
RTVSPost2010Prop39
140
1.0
102
RTVSPost2010PropOp39
 70
     1
102
RTVSPost2010Prop40
 90
        0
102
RTVSPost2010PropOp40
 70
     1
102
RTVSPost2010Prop41ColorIndex
 90
       18
102
RTVSPost2010Prop41ColorRGB
 90
        0
102
RTVSPost2010PropOp41
 70
     1
102
RTVSPost2010Prop42
 90
       50
102
RTVSPost2010PropOp42
 70
     1
102
RTVSPost2010Prop43
 90
        3
102
RTVSPost2010PropOp43
 70
     1
102
RTVSPost2010Prop44ColorIndex
 90
        5
102
RTVSPost2010Prop44ColorRGB
 90
      255
102
RTVSPost2010PropOp44
 70
     1
102
RTVSPost2010Prop45
280
     0
102
RTVSPost2010PropOp45
 70
     1
102
RTVSPost2010Prop46
 90
       50
102
RTVSPost2010PropOp46
 70
     1
102
RTVSPost2010Prop47
 90
       50
102
RTVSPost2010PropOp47
 70
     1
102
RTVSPost2010Prop48
 90
       50
102
RTVSPost2010PropOp48
 70
     1
102
RTVSPost2010Prop49
280
     0
102
RTVSPost2010PropOp49
 70
     1
102
RTVSPost2010Prop50
 90
       50
102
RTVSPost2010PropOp50
 70
     1
102
RTVSPost2010Prop51ColorIndex
 90
      256
102
RTVSPost2010Prop51ColorRGB
 90
-16777216
102
RTVSPost2010PropOp51
 70
     0
102
RTVSPost2010Prop52
140
1.0
102
RTVSPost2010PropOp52
 70
     0
102
RTVSPost2010Prop53
 90
        2
102
RTVSPost2010PropOp53
 70
     1
102
RTVSPost2010Prop54
  1
strokes_ogs.tif
102
RTVSPost2010PropOp54
 70
     1
102
RTVSPost2010Prop55
280
     0
102
RTVSPost2010PropOp55
 70
     1
102
RTVSPost2010Prop56
140
1.0
102
RTVSPost2010PropOp56
 70
     1
102
RTVSPost2010Prop57
140
1.0
102
RTVSPost2010PropOp57
 70
     1
102
RTVSPropertyOp0
 70
     1
102
RTVSPropertyOp1
 70
     1
102
RTVSPropertyOp2
 70
     1
102
RTVSPropertyOp3
 70
     1
102
RTVSPropertyOp4
 70
     1
102
RTVSPropertyOp5
 70
     1
102
RTVSPropertyOp6
 70
     1
102
RTVSPropertyOp7
 70
     1
102
RTVSPropertyOp8
 70
     1
102
RTVSPropertyOp9
 70
     1
102
RTVSPropertyOp10
 70
     1
102
RTVSPropertyOp11
 70
     1
102
RTVSPropertyOp12
 70
     1
102
RTVSPropertyOp13
 70
     1
102
RTVSPropertyOp14
 70
     1
102
RTVSPropertyOp15
 70
     1
102
RTVSPropertyOp16
 70
     1
102
RTVSPropertyOp17
 70
     1
102
RTVSPropertyOp18
 70
     1
102
RTVSPropertyOp19
 70
     1
102
RTVSPropertyOp20
 70
     1
102
RTVSPropertyOp21
 70
     1
102
RTVSPropertyOp22
 70
     1
102
RTVSPropertyOp23
 70
     1
102
RTVSPropertyOp24
 70
     1
102
RTVSPropertyOp25
 70
     1
102
RTVSPropertyOp26
 70
     1
102
RTVSPropertyOp27
 70
     1
102
RTVSPropertyOp28
 70
     1
102
RTVSPropertyOp29
 70
     1
102
RTVSPropertyOp30
 70
     1
102
RTVSPropertyOp31
 70
     1
102
RTVSPropertyOp32
 70
     1
102
RTVSPropertyOp33
 70
     1
102
RTVSPropertyOp34
 70
     1
102
RTVSPropertyOp35
 70
     1
102
RTVSPropertyOp36
 70
     1
102
RTVSPropertyOp37
 70
     1
102
RTVSPropertyOp38
 70
     1
102
RTVSPropertyOp39
 70
     1
102
RTVSPropertyOp40
 70
     1
102
RTVSPropertyOp41
 70
     1
102
RTVSPropertyOp42
 70
     1
102
RTVSPropertyOp43
 70
     1
102
RTVSPropertyOp44
 70
     1
102
RTVSPropertyOp45
 70
     1
102
RTVSPropertyOp46
 70
     1
102
RTVSPropertyOp47
 70
     1
102
RTVSPropertyOp48
 70
     1
102
RTVSPropertyOp49
 70
     1
102
RTVSPropertyOp50
 70
     1
102
RTVSPropertyOp51
 70
     0
102
RTVSPropertyOp52
 70
     0
102
RTVSPropertyOp53
 70
     1
102
RTVSPropertyOp54
 70
     1
102
RTVSPropertyOp55
 70
     1
102
RTVSPropertyOp56
 70
     1
102
RTVSPropertyOp57
 70
     1
102
RTVSPropertyOp58
 70
     1
102
RTVSPropertyOp59
 70
     1
102
RTVSPropertyOp60
 70
     1
102
RTVSPropertyOp61
 70
     1
102
RTVSPropertyOp62
 70
     1
  0
XRECORD
  5
800
102
{ACAD_REACTORS
330
7FF
102
}
330
7FF
100
AcDbXrecord
280
     1
102
RTVSPost2010Prop28
280
     0
102
RTVSPost2010PropOp28
 70
     1
102
RTVSPost2010Prop29
280
     1
102
RTVSPost2010PropOp29
 70
     1
102
RTVSPost2010Prop30
280
     1
102
RTVSPost2010PropOp30
 70
     1
102
RTVSPost2010Prop31
280
     0
102
RTVSPost2010PropOp31
 70
     1
102
RTVSPost2010Prop32
280
     0
102
RTVSPost2010PropOp32
 70
     1
102
RTVSPost2010Prop33
280
     0
102
RTVSPost2010PropOp33
 70
     1
102
RTVSPost2010Prop34
280
     0
102
RTVSPost2010PropOp34
 70
     1
102
RTVSPost2010Prop35
280
     0
102
RTVSPost2010PropOp35
 70
     1
102
RTVSPost2010Prop36
280
     0
102
RTVSPost2010PropOp36
 70
     1
102
RTVSPost2010Prop37
 90
       50
102
RTVSPost2010PropOp37
 70
     1
102
RTVSPost2010Prop38
140
0.0
102
RTVSPost2010PropOp38
 70
     1
102
RTVSPost2010Prop39
140
1.0
102
RTVSPost2010PropOp39
 70
     1
102
RTVSPost2010Prop40
 90
        0
102
RTVSPost2010PropOp40
 70
     1
102
RTVSPost2010Prop41ColorIndex
 90
       18
102
RTVSPost2010Prop41ColorRGB
 90
        0
102
RTVSPost2010PropOp41
 70
     1
102
RTVSPost2010Prop42
 90
       50
102
RTVSPost2010PropOp42
 70
     1
102
RTVSPost2010Prop43
 90
        3
102
RTVSPost2010PropOp43
 70
     1
102
RTVSPost2010Prop44ColorIndex
 90
        5
102
RTVSPost2010Prop44ColorRGB
 90
      255
102
RTVSPost2010PropOp44
 70
     1
102
RTVSPost2010Prop45
280
     0
102
RTVSPost2010PropOp45
 70
     1
102
RTVSPost2010Prop46
 90
       50
102
RTVSPost2010PropOp46
 70
     1
102
RTVSPost2010Prop47
 90
       50
102
RTVSPost2010PropOp47
 70
     1
102
RTVSPost2010Prop48
 90
       50
102
RTVSPost2010PropOp48
 70
     1
102
RTVSPost2010Prop49
280
     0
102
RTVSPost2010PropOp49
 70
     1
102
RTVSPost2010Prop50
 90
       50
102
RTVSPost2010PropOp50
 70
     1
102
RTVSPost2010Prop51ColorIndex
 90
      256
102
RTVSPost2010Prop51ColorRGB
 90
-16777216
102
RTVSPost2010PropOp51
 70
     0
102
RTVSPost2010Prop52
140
1.0
102
RTVSPost2010PropOp52
 70
     0
102
RTVSPost2010Prop53
 90
        2
102
RTVSPost2010PropOp53
 70
     1
102
RTVSPost2010Prop54
  1
strokes_ogs.tif
102
RTVSPost2010PropOp54
 70
     1
102
RTVSPost2010Prop55
280
     0
102
RTVSPost2010PropOp55
 70
     1
102
RTVSPost2010Prop56
140
1.0
102
RTVSPost2010PropOp56
 70
     1
102
RTVSPost2010Prop57
140
1.0
102
RTVSPost2010PropOp57
 70
     1
102
RTVSPropertyOp0
 70
     1
102
RTVSPropertyOp1
 70
     1
102
RTVSPropertyOp2
 70
     1
102
RTVSPropertyOp3
 70
     1
102
RTVSPropertyOp4
 70
     1
102
RTVSPropertyOp5
 70
     1
102
RTVSPropertyOp6
 70
     1
102
RTVSPropertyOp7
 70
     1
102
RTVSPropertyOp8
 70
     1
102
RTVSPropertyOp9
 70
     1
102
RTVSPropertyOp10
 70
     1
102
RTVSPropertyOp11
 70
     1
102
RTVSPropertyOp12
 70
     1
102
RTVSPropertyOp13
 70
     1
102
RTVSPropertyOp14
 70
     1
102
RTVSPropertyOp15
 70
     1
102
RTVSPropertyOp16
 70
     1
102
RTVSPropertyOp17
 70
     1
102
RTVSPropertyOp18
 70
     1
102
RTVSPropertyOp19
 70
     1
102
RTVSPropertyOp20
 70
     1
102
RTVSPropertyOp21
 70
     1
102
RTVSPropertyOp22
 70
     1
102
RTVSPropertyOp23
 70
     1
102
RTVSPropertyOp24
 70
     1
102
RTVSPropertyOp25
 70
     1
102
RTVSPropertyOp26
 70
     1
102
RTVSPropertyOp27
 70
     1
102
RTVSPropertyOp28
 70
     1
102
RTVSPropertyOp29
 70
     1
102
RTVSPropertyOp30
 70
     1
102
RTVSPropertyOp31
 70
     1
102
RTVSPropertyOp32
 70
     1
102
RTVSPropertyOp33
 70
     1
102
RTVSPropertyOp34
 70
     1
102
RTVSPropertyOp35
 70
     1
102
RTVSPropertyOp36
 70
     1
102
RTVSPropertyOp37
 70
     1
102
RTVSPropertyOp38
 70
     1
102
RTVSPropertyOp39
 70
     1
102
RTVSPropertyOp40
 70
     1
102
RTVSPropertyOp41
 70
     1
102
RTVSPropertyOp42
 70
     1
102
RTVSPropertyOp43
 70
     1
102
RTVSPropertyOp44
 70
     1
102
RTVSPropertyOp45
 70
     1
102
RTVSPropertyOp46
 70
     1
102
RTVSPropertyOp47
 70
     1
102
RTVSPropertyOp48
 70
     1
102
RTVSPropertyOp49
 70
     1
102
RTVSPropertyOp50
 70
     1
102
RTVSPropertyOp51
 70
     0
102
RTVSPropertyOp52
 70
     0
102
RTVSPropertyOp53
 70
     1
102
RTVSPropertyOp54
 70
     1
102
RTVSPropertyOp55
 70
     1
102
RTVSPropertyOp56
 70
     1
102
RTVSPropertyOp57
 70
     1
102
RTVSPropertyOp58
 70
     1
102
RTVSPropertyOp59
 70
     1
102
RTVSPropertyOp60
 70
     1
102
RTVSPropertyOp61
 70
     1
102
RTVSPropertyOp62
 70
     1
  0
XRECORD
  5
7F2
102
{ACAD_REACTORS
330
7F1
102
}
330
7F1
100
AcDbXrecord
280
     1
102
RTVSPost2010Prop28
280
     0
102
RTVSPost2010PropOp28
 70
     1
102
RTVSPost2010Prop29
280
     1
102
RTVSPost2010PropOp29
 70
     1
102
RTVSPost2010Prop30
280
     1
102
RTVSPost2010PropOp30
 70
     1
102
RTVSPost2010Prop31
280
     0
102
RTVSPost2010PropOp31
 70
     1
102
RTVSPost2010Prop32
280
     0
102
RTVSPost2010PropOp32
 70
     1
102
RTVSPost2010Prop33
280
     0
102
RTVSPost2010PropOp33
 70
     1
102
RTVSPost2010Prop34
280
     0
102
RTVSPost2010PropOp34
 70
     1
102
RTVSPost2010Prop35
280
     0
102
RTVSPost2010PropOp35
 70
     1
102
RTVSPost2010Prop36
280
     0
102
RTVSPost2010PropOp36
 70
     1
102
RTVSPost2010Prop37
 90
       50
102
RTVSPost2010PropOp37
 70
     1
102
RTVSPost2010Prop38
140
0.0
102
RTVSPost2010PropOp38
 70
     1
102
RTVSPost2010Prop39
140
1.0
102
RTVSPost2010PropOp39
 70
     1
102
RTVSPost2010Prop40
 90
        0
102
RTVSPost2010PropOp40
 70
     1
102
RTVSPost2010Prop41ColorIndex
 90
       18
102
RTVSPost2010Prop41ColorRGB
 90
        0
102
RTVSPost2010PropOp41
 70
     1
102
RTVSPost2010Prop42
 90
       50
102
RTVSPost2010PropOp42
 70
     1
102
RTVSPost2010Prop43
 90
        3
102
RTVSPost2010PropOp43
 70
     1
102
RTVSPost2010Prop44ColorIndex
 90
        5
102
RTVSPost2010Prop44ColorRGB
 90
      255
102
RTVSPost2010PropOp44
 70
     1
102
RTVSPost2010Prop45
280
     0
102
RTVSPost2010PropOp45
 70
     1
102
RTVSPost2010Prop46
 90
       50
102
RTVSPost2010PropOp46
 70
     1
102
RTVSPost2010Prop47
 90
       50
102
RTVSPost2010PropOp47
 70
     1
102
RTVSPost2010Prop48
 90
       50
102
RTVSPost2010PropOp48
 70
     1
102
RTVSPost2010Prop49
280
     0
102
RTVSPost2010PropOp49
 70
     1
102
RTVSPost2010Prop50
 90
       50
102
RTVSPost2010PropOp50
 70
     1
102
RTVSPost2010Prop51ColorIndex
 90
      256
102
RTVSPost2010Prop51ColorRGB
 90
-16777216
102
RTVSPost2010PropOp51
 70
     0
102
RTVSPost2010Prop52
140
1.0
102
RTVSPost2010PropOp52
 70
     0
102
RTVSPost2010Prop53
 90
        2
102
RTVSPost2010PropOp53
 70
     1
102
RTVSPost2010Prop54
  1
strokes_ogs.tif
102
RTVSPost2010PropOp54
 70
     1
102
RTVSPost2010Prop55
280
     0
102
RTVSPost2010PropOp55
 70
     1
102
RTVSPost2010Prop56
140
1.0
102
RTVSPost2010PropOp56
 70
     1
102
RTVSPost2010Prop57
140
1.0
102
RTVSPost2010PropOp57
 70
     1
102
RTVSPropertyOp0
 70
     1
102
RTVSPropertyOp1
 70
     1
102
RTVSPropertyOp2
 70
     1
102
RTVSPropertyOp3
 70
     1
102
RTVSPropertyOp4
 70
     1
102
RTVSPropertyOp5
 70
     1
102
RTVSPropertyOp6
 70
     1
102
RTVSPropertyOp7
 70
     1
102
RTVSPropertyOp8
 70
     1
102
RTVSPropertyOp9
 70
     1
102
RTVSPropertyOp10
 70
     1
102
RTVSPropertyOp11
 70
     1
102
RTVSPropertyOp12
 70
     1
102
RTVSPropertyOp13
 70
     1
102
RTVSPropertyOp14
 70
     1
102
RTVSPropertyOp15
 70
     1
102
RTVSPropertyOp16
 70
     1
102
RTVSPropertyOp17
 70
     1
102
RTVSPropertyOp18
 70
     1
102
RTVSPropertyOp19
 70
     1
102
RTVSPropertyOp20
 70
     1
102
RTVSPropertyOp21
 70
     1
102
RTVSPropertyOp22
 70
     1
102
RTVSPropertyOp23
 70
     1
102
RTVSPropertyOp24
 70
     1
102
RTVSPropertyOp25
 70
     1
102
RTVSPropertyOp26
 70
     1
102
RTVSPropertyOp27
 70
     1
102
RTVSPropertyOp28
 70
     1
102
RTVSPropertyOp29
 70
     1
102
RTVSPropertyOp30
 70
     1
102
RTVSPropertyOp31
 70
     1
102
RTVSPropertyOp32
 70
     1
102
RTVSPropertyOp33
 70
     1
102
RTVSPropertyOp34
 70
     1
102
RTVSPropertyOp35
 70
     1
102
RTVSPropertyOp36
 70
     1
102
RTVSPropertyOp37
 70
     1
102
RTVSPropertyOp38
 70
     1
102
RTVSPropertyOp39
 70
     1
102
RTVSPropertyOp40
 70
     1
102
RTVSPropertyOp41
 70
     1
102
RTVSPropertyOp42
 70
     1
102
RTVSPropertyOp43
 70
     1
102
RTVSPropertyOp44
 70
     1
102
RTVSPropertyOp45
 70
     1
102
RTVSPropertyOp46
 70
     1
102
RTVSPropertyOp47
 70
     1
102
RTVSPropertyOp48
 70
     1
102
RTVSPropertyOp49
 70
     1
102
RTVSPropertyOp50
 70
     1
102
RTVSPropertyOp51
 70
     0
102
RTVSPropertyOp52
 70
     0
102
RTVSPropertyOp53
 70
     1
102
RTVSPropertyOp54
 70
     1
102
RTVSPropertyOp55
 70
     1
102
RTVSPropertyOp56
 70
     1
102
RTVSPropertyOp57
 70
     1
102
RTVSPropertyOp58
 70
     1
102
RTVSPropertyOp59
 70
     1
102
RTVSPropertyOp60
 70
     1
102
RTVSPropertyOp61
 70
     1
102
RTVSPropertyOp62
 70
     1
  0
XRECORD
  5
7F6
102
{ACAD_REACTORS
330
7F5
102
}
330
7F5
100
AcDbXrecord
280
     1
102
RTVSPost2010Prop28
280
     0
102
RTVSPost2010PropOp28
 70
     1
102
RTVSPost2010Prop29
280
     1
102
RTVSPost2010PropOp29
 70
     1
102
RTVSPost2010Prop30
280
     1
102
RTVSPost2010PropOp30
 70
     1
102
RTVSPost2010Prop31
280
     0
102
RTVSPost2010PropOp31
 70
     1
102
RTVSPost2010Prop32
280
     0
102
RTVSPost2010PropOp32
 70
     1
102
RTVSPost2010Prop33
280
     0
102
RTVSPost2010PropOp33
 70
     1
102
RTVSPost2010Prop34
280
     0
102
RTVSPost2010PropOp34
 70
     1
102
RTVSPost2010Prop35
280
     0
102
RTVSPost2010PropOp35
 70
     1
102
RTVSPost2010Prop36
280
     0
102
RTVSPost2010PropOp36
 70
     1
102
RTVSPost2010Prop37
 90
       50
102
RTVSPost2010PropOp37
 70
     1
102
RTVSPost2010Prop38
140
0.0
102
RTVSPost2010PropOp38
 70
     1
102
RTVSPost2010Prop39
140
1.0
102
RTVSPost2010PropOp39
 70
     1
102
RTVSPost2010Prop40
 90
        0
102
RTVSPost2010PropOp40
 70
     1
102
RTVSPost2010Prop41ColorIndex
 90
       18
102
RTVSPost2010Prop41ColorRGB
 90
        0
102
RTVSPost2010PropOp41
 70
     1
102
RTVSPost2010Prop42
 90
       50
102
RTVSPost2010PropOp42
 70
     1
102
RTVSPost2010Prop43
 90
        3
102
RTVSPost2010PropOp43
 70
     1
102
RTVSPost2010Prop44ColorIndex
 90
        5
102
RTVSPost2010Prop44ColorRGB
 90
      255
102
RTVSPost2010PropOp44
 70
     1
102
RTVSPost2010Prop45
280
     0
102
RTVSPost2010PropOp45
 70
     1
102
RTVSPost2010Prop46
 90
       50
102
RTVSPost2010PropOp46
 70
     1
102
RTVSPost2010Prop47
 90
       50
102
RTVSPost2010PropOp47
 70
     1
102
RTVSPost2010Prop48
 90
       50
102
RTVSPost2010PropOp48
 70
     1
102
RTVSPost2010Prop49
280
     0
102
RTVSPost2010PropOp49
 70
     1
102
RTVSPost2010Prop50
 90
       50
102
RTVSPost2010PropOp50
 70
     1
102
RTVSPost2010Prop51ColorIndex
 90
      256
102
RTVSPost2010Prop51ColorRGB
 90
-16777216
102
RTVSPost2010PropOp51
 70
     0
102
RTVSPost2010Prop52
140
1.0
102
RTVSPost2010PropOp52
 70
     0
102
RTVSPost2010Prop53
 90
        2
102
RTVSPost2010PropOp53
 70
     1
102
RTVSPost2010Prop54
  1
strokes_ogs.tif
102
RTVSPost2010PropOp54
 70
     1
102
RTVSPost2010Prop55
280
     0
102
RTVSPost2010PropOp55
 70
     1
102
RTVSPost2010Prop56
140
1.0
102
RTVSPost2010PropOp56
 70
     1
102
RTVSPost2010Prop57
140
1.0
102
RTVSPost2010PropOp57
 70
     1
102
RTVSPropertyOp0
 70
     1
102
RTVSPropertyOp1
 70
     1
102
RTVSPropertyOp2
 70
     1
102
RTVSPropertyOp3
 70
     1
102
RTVSPropertyOp4
 70
     1
102
RTVSPropertyOp5
 70
     1
102
RTVSPropertyOp6
 70
     1
102
RTVSPropertyOp7
 70
     1
102
RTVSPropertyOp8
 70
     1
102
RTVSPropertyOp9
 70
     1
102
RTVSPropertyOp10
 70
     1
102
RTVSPropertyOp11
 70
     1
102
RTVSPropertyOp12
 70
     1
102
RTVSPropertyOp13
 70
     1
102
RTVSPropertyOp14
 70
     1
102
RTVSPropertyOp15
 70
     1
102
RTVSPropertyOp16
 70
     1
102
RTVSPropertyOp17
 70
     1
102
RTVSPropertyOp18
 70
     1
102
RTVSPropertyOp19
 70
     1
102
RTVSPropertyOp20
 70
     1
102
RTVSPropertyOp21
 70
     1
102
RTVSPropertyOp22
 70
     1
102
RTVSPropertyOp23
 70
     1
102
RTVSPropertyOp24
 70
     1
102
RTVSPropertyOp25
 70
     1
102
RTVSPropertyOp26
 70
     1
102
RTVSPropertyOp27
 70
     1
102
RTVSPropertyOp28
 70
     1
102
RTVSPropertyOp29
 70
     1
102
RTVSPropertyOp30
 70
     1
102
RTVSPropertyOp31
 70
     1
102
RTVSPropertyOp32
 70
     1
102
RTVSPropertyOp33
 70
     1
102
RTVSPropertyOp34
 70
     1
102
RTVSPropertyOp35
 70
     1
102
RTVSPropertyOp36
 70
     1
102
RTVSPropertyOp37
 70
     1
102
RTVSPropertyOp38
 70
     1
102
RTVSPropertyOp39
 70
     1
102
RTVSPropertyOp40
 70
     1
102
RTVSPropertyOp41
 70
     1
102
RTVSPropertyOp42
 70
     1
102
RTVSPropertyOp43
 70
     1
102
RTVSPropertyOp44
 70
     1
102
RTVSPropertyOp45
 70
     1
102
RTVSPropertyOp46
 70
     1
102
RTVSPropertyOp47
 70
     1
102
RTVSPropertyOp48
 70
     1
102
RTVSPropertyOp49
 70
     1
102
RTVSPropertyOp50
 70
     1
102
RTVSPropertyOp51
 70
     0
102
RTVSPropertyOp52
 70
     0
102
RTVSPropertyOp53
 70
     1
102
RTVSPropertyOp54
 70
     1
102
RTVSPropertyOp55
 70
     1
102
RTVSPropertyOp56
 70
     1
102
RTVSPropertyOp57
 70
     1
102
RTVSPropertyOp58
 70
     1
102
RTVSPropertyOp59
 70
     1
102
RTVSPropertyOp60
 70
     1
102
RTVSPropertyOp61
 70
     1
102
RTVSPropertyOp62
 70
     1
  0
XRECORD
  5
810
102
{ACAD_REACTORS
330
80F
102
}
330
80F
100
AcDbXrecord
280
     1
102
RTVSPost2010Prop28
280
     0
102
RTVSPost2010PropOp28
 70
     0
102
RTVSPost2010Prop29
280
     1
102
RTVSPost2010PropOp29
 70
     0
102
RTVSPost2010Prop30
280
     1
102
RTVSPost2010PropOp30
 70
     0
102
RTVSPost2010Prop31
280
     0
102
RTVSPost2010PropOp31
 70
     0
102
RTVSPost2010Prop32
280
     0
102
RTVSPost2010PropOp32
 70
     0
102
RTVSPost2010Prop33
280
     0
102
RTVSPost2010PropOp33
 70
     0
102
RTVSPost2010Prop34
280
     0
102
RTVSPost2010PropOp34
 70
     0
102
RTVSPost2010Prop35
280
     0
102
RTVSPost2010PropOp35
 70
     0
102
RTVSPost2010Prop36
280
     0
102
RTVSPost2010PropOp36
 70
     0
102
RTVSPost2010Prop37
 90
       50
102
RTVSPost2010PropOp37
 70
     0
102
RTVSPost2010Prop38
140
0.0
102
RTVSPost2010PropOp38
 70
     0
102
RTVSPost2010Prop39
140
1.0
102
RTVSPost2010PropOp39
 70
     0
102
RTVSPost2010Prop40
 90
        0
102
RTVSPost2010PropOp40
 70
     0
102
RTVSPost2010Prop41ColorIndex
 90
       18
102
RTVSPost2010Prop41ColorRGB
 90
        0
102
RTVSPost2010PropOp41
 70
     0
102
RTVSPost2010Prop42
 90
       50
102
RTVSPost2010PropOp42
 70
     0
102
RTVSPost2010Prop43
 90
        3
102
RTVSPost2010PropOp43
 70
     0
102
RTVSPost2010Prop44ColorIndex
 90
        5
102
RTVSPost2010Prop44ColorRGB
 90
      255
102
RTVSPost2010PropOp44
 70
     0
102
RTVSPost2010Prop45
280
     0
102
RTVSPost2010PropOp45
 70
     0
102
RTVSPost2010Prop46
 90
       50
102
RTVSPost2010PropOp46
 70
     0
102
RTVSPost2010Prop47
 90
       50
102
RTVSPost2010PropOp47
 70
     0
102
RTVSPost2010Prop48
 90
       50
102
RTVSPost2010PropOp48
 70
     0
102
RTVSPost2010Prop49
280
     0
102
RTVSPost2010PropOp49
 70
     0
102
RTVSPost2010Prop50
 90
       50
102
RTVSPost2010PropOp50
 70
     0
102
RTVSPost2010Prop51ColorIndex
 90
      256
102
RTVSPost2010Prop51ColorRGB
 90
-16777216
102
RTVSPost2010PropOp51
 70
     0
102
RTVSPost2010Prop52
140
1.0
102
RTVSPost2010PropOp52
 70
     0
102
RTVSPost2010Prop53
 90
        2
102
RTVSPost2010PropOp53
 70
     0
102
RTVSPost2010Prop54
  1
strokes_ogs.tif
102
RTVSPost2010PropOp54
 70
     0
102
RTVSPost2010Prop55
280
     0
102
RTVSPost2010PropOp55
 70
     0
102
RTVSPost2010Prop56
140
1.0
102
RTVSPost2010PropOp56
 70
     0
102
RTVSPost2010Prop57
140
1.0
102
RTVSPost2010PropOp57
 70
     0
102
RTVSPropertyOp0
 70
     0
102
RTVSPropertyOp1
 70
     0
102
RTVSPropertyOp2
 70
     0
102
RTVSPropertyOp3
 70
     0
102
RTVSPropertyOp4
 70
     0
102
RTVSPropertyOp5
 70
     0
102
RTVSPropertyOp6
 70
     0
102
RTVSPropertyOp7
 70
     0
102
RTVSPropertyOp8
 70
     0
102
RTVSPropertyOp9
 70
     0
102
RTVSPropertyOp10
 70
     0
102
RTVSPropertyOp11
 70
     0
102
RTVSPropertyOp12
 70
     0
102
RTVSPropertyOp13
 70
     0
102
RTVSPropertyOp14
 70
     2
102
RTVSPropertyOp15
 70
     0
102
RTVSPropertyOp16
 70
     0
102
RTVSPropertyOp17
 70
     0
102
RTVSPropertyOp18
 70
     0
102
RTVSPropertyOp19
 70
     0
102
RTVSPropertyOp20
 70
     0
102
RTVSPropertyOp21
 70
     0
102
RTVSPropertyOp22
 70
     0
102
RTVSPropertyOp23
 70
     0
102
RTVSPropertyOp24
 70
     0
102
RTVSPropertyOp25
 70
     0
102
RTVSPropertyOp26
 70
     0
102
RTVSPropertyOp27
 70
     0
102
RTVSPropertyOp28
 70
     0
102
RTVSPropertyOp29
 70
     0
102
RTVSPropertyOp30
 70
     0
102
RTVSPropertyOp31
 70
     0
102
RTVSPropertyOp32
 70
     0
102
RTVSPropertyOp33
 70
     0
102
RTVSPropertyOp34
 70
     0
102
RTVSPropertyOp35
 70
     0
102
RTVSPropertyOp36
 70
     0
102
RTVSPropertyOp37
 70
     0
102
RTVSPropertyOp38
 70
     0
102
RTVSPropertyOp39
 70
     0
102
RTVSPropertyOp40
 70
     0
102
RTVSPropertyOp41
 70
     0
102
RTVSPropertyOp42
 70
     0
102
RTVSPropertyOp43
 70
     0
102
RTVSPropertyOp44
 70
     0
102
RTVSPropertyOp45
 70
     0
102
RTVSPropertyOp46
 70
     0
102
RTVSPropertyOp47
 70
     0
102
RTVSPropertyOp48
 70
     0
102
RTVSPropertyOp49
 70
     0
102
RTVSPropertyOp50
 70
     0
102
RTVSPropertyOp51
 70
     0
102
RTVSPropertyOp52
 70
     0
102
RTVSPropertyOp53
 70
     0
102
RTVSPropertyOp54
 70
     0
102
RTVSPropertyOp55
 70
     0
102
RTVSPropertyOp56
 70
     0
102
RTVSPropertyOp57
 70
     0
102
RTVSPropertyOp58
 70
     0
102
RTVSPropertyOp59
 70
     0
102
RTVSPropertyOp60
 70
     0
102
RTVSPropertyOp61
 70
     0
102
RTVSPropertyOp62
 70
     0
  0
XRECORD
  5
7FE
102
{ACAD_REACTORS
330
7FD
102
}
330
7FD
100
AcDbXrecord
280
     1
102
RTVSPost2010Prop28
280
     0
102
RTVSPost2010PropOp28
 70
     1
102
RTVSPost2010Prop29
280
     1
102
RTVSPost2010PropOp29
 70
     1
102
RTVSPost2010Prop30
280
     1
102
RTVSPost2010PropOp30
 70
     1
102
RTVSPost2010Prop31
280
     0
102
RTVSPost2010PropOp31
 70
     1
102
RTVSPost2010Prop32
280
     0
102
RTVSPost2010PropOp32
 70
     1
102
RTVSPost2010Prop33
280
     0
102
RTVSPost2010PropOp33
 70
     1
102
RTVSPost2010Prop34
280
     0
102
RTVSPost2010PropOp34
 70
     1
102
RTVSPost2010Prop35
280
     0
102
RTVSPost2010PropOp35
 70
     1
102
RTVSPost2010Prop36
280
     0
102
RTVSPost2010PropOp36
 70
     1
102
RTVSPost2010Prop37
 90
       50
102
RTVSPost2010PropOp37
 70
     1
102
RTVSPost2010Prop38
140
0.0
102
RTVSPost2010PropOp38
 70
     1
102
RTVSPost2010Prop39
140
1.0
102
RTVSPost2010PropOp39
 70
     1
102
RTVSPost2010Prop40
 90
        0
102
RTVSPost2010PropOp40
 70
     1
102
RTVSPost2010Prop41ColorIndex
 90
       18
102
RTVSPost2010Prop41ColorRGB
 90
        0
102
RTVSPost2010PropOp41
 70
     1
102
RTVSPost2010Prop42
 90
       50
102
RTVSPost2010PropOp42
 70
     1
102
RTVSPost2010Prop43
 90
        3
102
RTVSPost2010PropOp43
 70
     1
102
RTVSPost2010Prop44ColorIndex
 90
        5
102
RTVSPost2010Prop44ColorRGB
 90
      255
102
RTVSPost2010PropOp44
 70
     1
102
RTVSPost2010Prop45
280
     0
102
RTVSPost2010PropOp45
 70
     1
102
RTVSPost2010Prop46
 90
       50
102
RTVSPost2010PropOp46
 70
     1
102
RTVSPost2010Prop47
 90
       50
102
RTVSPost2010PropOp47
 70
     1
102
RTVSPost2010Prop48
 90
       50
102
RTVSPost2010PropOp48
 70
     1
102
RTVSPost2010Prop49
280
     0
102
RTVSPost2010PropOp49
 70
     1
102
RTVSPost2010Prop50
 90
       50
102
RTVSPost2010PropOp50
 70
     1
102
RTVSPost2010Prop51ColorIndex
 90
      256
102
RTVSPost2010Prop51ColorRGB
 90
-16777216
102
RTVSPost2010PropOp51
 70
     0
102
RTVSPost2010Prop52
140
1.0
102
RTVSPost2010PropOp52
 70
     0
102
RTVSPost2010Prop53
 90
        2
102
RTVSPost2010PropOp53
 70
     1
102
RTVSPost2010Prop54
  1
strokes_ogs.tif
102
RTVSPost2010PropOp54
 70
     1
102
RTVSPost2010Prop55
280
     0
102
RTVSPost2010PropOp55
 70
     1
102
RTVSPost2010Prop56
140
1.0
102
RTVSPost2010PropOp56
 70
     1
102
RTVSPost2010Prop57
140
1.0
102
RTVSPost2010PropOp57
 70
     1
102
RTVSPropertyOp0
 70
     1
102
RTVSPropertyOp1
 70
     1
102
RTVSPropertyOp2
 70
     1
102
RTVSPropertyOp3
 70
     1
102
RTVSPropertyOp4
 70
     1
102
RTVSPropertyOp5
 70
     1
102
RTVSPropertyOp6
 70
     1
102
RTVSPropertyOp7
 70
     1
102
RTVSPropertyOp8
 70
     1
102
RTVSPropertyOp9
 70
     1
102
RTVSPropertyOp10
 70
     1
102
RTVSPropertyOp11
 70
     1
102
RTVSPropertyOp12
 70
     1
102
RTVSPropertyOp13
 70
     1
102
RTVSPropertyOp14
 70
     1
102
RTVSPropertyOp15
 70
     1
102
RTVSPropertyOp16
 70
     1
102
RTVSPropertyOp17
 70
     1
102
RTVSPropertyOp18
 70
     1
102
RTVSPropertyOp19
 70
     1
102
RTVSPropertyOp20
 70
     1
102
RTVSPropertyOp21
 70
     1
102
RTVSPropertyOp22
 70
     1
102
RTVSPropertyOp23
 70
     1
102
RTVSPropertyOp24
 70
     1
102
RTVSPropertyOp25
 70
     1
102
RTVSPropertyOp26
 70
     1
102
RTVSPropertyOp27
 70
     1
102
RTVSPropertyOp28
 70
     1
102
RTVSPropertyOp29
 70
     1
102
RTVSPropertyOp30
 70
     1
102
RTVSPropertyOp31
 70
     1
102
RTVSPropertyOp32
 70
     1
102
RTVSPropertyOp33
 70
     1
102
RTVSPropertyOp34
 70
     1
102
RTVSPropertyOp35
 70
     1
102
RTVSPropertyOp36
 70
     1
102
RTVSPropertyOp37
 70
     1
102
RTVSPropertyOp38
 70
     1
102
RTVSPropertyOp39
 70
     1
102
RTVSPropertyOp40
 70
     1
102
RTVSPropertyOp41
 70
     1
102
RTVSPropertyOp42
 70
     1
102
RTVSPropertyOp43
 70
     1
102
RTVSPropertyOp44
 70
     1
102
RTVSPropertyOp45
 70
     1
102
RTVSPropertyOp46
 70
     1
102
RTVSPropertyOp47
 70
     1
102
RTVSPropertyOp48
 70
     1
102
RTVSPropertyOp49
 70
     1
102
RTVSPropertyOp50
 70
     1
102
RTVSPropertyOp51
 70
     0
102
RTVSPropertyOp52
 70
     0
102
RTVSPropertyOp53
 70
     1
102
RTVSPropertyOp54
 70
     1
102
RTVSPropertyOp55
 70
     1
102
RTVSPropertyOp56
 70
     1
102
RTVSPropertyOp57
 70
     1
102
RTVSPropertyOp58
 70
     1
102
RTVSPropertyOp59
 70
     1
102
RTVSPropertyOp60
 70
     1
102
RTVSPropertyOp61
 70
     1
102
RTVSPropertyOp62
 70
     1
  0
XRECORD
  5
7E2
102
{ACAD_REACTORS
330
7E1
102
}
330
7E1
100
AcDbXrecord
280
     1
102
RTVSPost2010Prop28
280
     0
102
RTVSPost2010PropOp28
 70
     1
102
RTVSPost2010Prop29
280
     1
102
RTVSPost2010PropOp29
 70
     1
102
RTVSPost2010Prop30
280
     1
102
RTVSPost2010PropOp30
 70
     1
102
RTVSPost2010Prop31
280
     0
102
RTVSPost2010PropOp31
 70
     1
102
RTVSPost2010Prop32
280
     0
102
RTVSPost2010PropOp32
 70
     1
102
RTVSPost2010Prop33
280
     0
102
RTVSPost2010PropOp33
 70
     1
102
RTVSPost2010Prop34
280
     0
102
RTVSPost2010PropOp34
 70
     1
102
RTVSPost2010Prop35
280
     0
102
RTVSPost2010PropOp35
 70
     1
102
RTVSPost2010Prop36
280
     0
102
RTVSPost2010PropOp36
 70
     1
102
RTVSPost2010Prop37
 90
       50
102
RTVSPost2010PropOp37
 70
     1
102
RTVSPost2010Prop38
140
0.0
102
RTVSPost2010PropOp38
 70
     1
102
RTVSPost2010Prop39
140
1.0
102
RTVSPost2010PropOp39
 70
     1
102
RTVSPost2010Prop40
 90
        0
102
RTVSPost2010PropOp40
 70
     1
102
RTVSPost2010Prop41ColorIndex
 90
       18
102
RTVSPost2010Prop41ColorRGB
 90
        0
102
RTVSPost2010PropOp41
 70
     1
102
RTVSPost2010Prop42
 90
       50
102
RTVSPost2010PropOp42
 70
     1
102
RTVSPost2010Prop43
 90
        3
102
RTVSPost2010PropOp43
 70
     1
102
RTVSPost2010Prop44ColorIndex
 90
        5
102
RTVSPost2010Prop44ColorRGB
 90
      255
102
RTVSPost2010PropOp44
 70
     1
102
RTVSPost2010Prop45
280
     0
102
RTVSPost2010PropOp45
 70
     1
102
RTVSPost2010Prop46
 90
       50
102
RTVSPost2010PropOp46
 70
     1
102
RTVSPost2010Prop47
 90
       50
102
RTVSPost2010PropOp47
 70
     1
102
RTVSPost2010Prop48
 90
       50
102
RTVSPost2010PropOp48
 70
     1
102
RTVSPost2010Prop49
280
     0
102
RTVSPost2010PropOp49
 70
     1
102
RTVSPost2010Prop50
 90
       50
102
RTVSPost2010PropOp50
 70
     1
102
RTVSPost2010Prop51ColorIndex
 90
      256
102
RTVSPost2010Prop51ColorRGB
 90
-16777216
102
RTVSPost2010PropOp51
 70
     0
102
RTVSPost2010Prop52
140
1.0
102
RTVSPost2010PropOp52
 70
     0
102
RTVSPost2010Prop53
 90
        2
102
RTVSPost2010PropOp53
 70
     1
102
RTVSPost2010Prop54
  1
strokes_ogs.tif
102
RTVSPost2010PropOp54
 70
     1
102
RTVSPost2010Prop55
280
     0
102
RTVSPost2010PropOp55
 70
     1
102
RTVSPost2010Prop56
140
1.0
102
RTVSPost2010PropOp56
 70
     1
102
RTVSPost2010Prop57
140
1.0
102
RTVSPost2010PropOp57
 70
     1
102
RTVSPropertyOp0
 70
     1
102
RTVSPropertyOp1
 70
     1
102
RTVSPropertyOp2
 70
     1
102
RTVSPropertyOp3
 70
     1
102
RTVSPropertyOp4
 70
     1
102
RTVSPropertyOp5
 70
     1
102
RTVSPropertyOp6
 70
     1
102
RTVSPropertyOp7
 70
     1
102
RTVSPropertyOp8
 70
     1
102
RTVSPropertyOp9
 70
     1
102
RTVSPropertyOp10
 70
     1
102
RTVSPropertyOp11
 70
     1
102
RTVSPropertyOp12
 70
     1
102
RTVSPropertyOp13
 70
     1
102
RTVSPropertyOp14
 70
     1
102
RTVSPropertyOp15
 70
     1
102
RTVSPropertyOp16
 70
     1
102
RTVSPropertyOp17
 70
     1
102
RTVSPropertyOp18
 70
     1
102
RTVSPropertyOp19
 70
     1
102
RTVSPropertyOp20
 70
     1
102
RTVSPropertyOp21
 70
     1
102
RTVSPropertyOp22
 70
     1
102
RTVSPropertyOp23
 70
     1
102
RTVSPropertyOp24
 70
     1
102
RTVSPropertyOp25
 70
     1
102
RTVSPropertyOp26
 70
     1
102
RTVSPropertyOp27
 70
     1
102
RTVSPropertyOp28
 70
     1
102
RTVSPropertyOp29
 70
     1
102
RTVSPropertyOp30
 70
     1
102
RTVSPropertyOp31
 70
     1
102
RTVSPropertyOp32
 70
     1
102
RTVSPropertyOp33
 70
     1
102
RTVSPropertyOp34
 70
     1
102
RTVSPropertyOp35
 70
     1
102
RTVSPropertyOp36
 70
     1
102
RTVSPropertyOp37
 70
     1
102
RTVSPropertyOp38
 70
     1
102
RTVSPropertyOp39
 70
     1
102
RTVSPropertyOp40
 70
     1
102
RTVSPropertyOp41
 70
     1
102
RTVSPropertyOp42
 70
     1
102
RTVSPropertyOp43
 70
     1
102
RTVSPropertyOp44
 70
     1
102
RTVSPropertyOp45
 70
     1
102
RTVSPropertyOp46
 70
     1
102
RTVSPropertyOp47
 70
     1
102
RTVSPropertyOp48
 70
     1
102
RTVSPropertyOp49
 70
     1
102
RTVSPropertyOp50
 70
     1
102
RTVSPropertyOp51
 70
     0
102
RTVSPropertyOp52
 70
     0
102
RTVSPropertyOp53
 70
     1
102
RTVSPropertyOp54
 70
     1
102
RTVSPropertyOp55
 70
     1
102
RTVSPropertyOp56
 70
     1
102
RTVSPropertyOp57
 70
     1
102
RTVSPropertyOp58
 70
     1
102
RTVSPropertyOp59
 70
     1
102
RTVSPropertyOp60
 70
     1
102
RTVSPropertyOp61
 70
     1
102
RTVSPropertyOp62
 70
     1
  0
XRECORD
  5
7E4
102
{ACAD_REACTORS
330
7E3
102
}
330
7E3
100
AcDbXrecord
280
     1
102
RTVSPost2010Prop28
280
     0
102
RTVSPost2010PropOp28
 70
     1
102
RTVSPost2010Prop29
280
     1
102
RTVSPost2010PropOp29
 70
     1
102
RTVSPost2010Prop30
280
     1
102
RTVSPost2010PropOp30
 70
     1
102
RTVSPost2010Prop31
280
     0
102
RTVSPost2010PropOp31
 70
     1
102
RTVSPost2010Prop32
280
     0
102
RTVSPost2010PropOp32
 70
     1
102
RTVSPost2010Prop33
280
     0
102
RTVSPost2010PropOp33
 70
     1
102
RTVSPost2010Prop34
280
     0
102
RTVSPost2010PropOp34
 70
     1
102
RTVSPost2010Prop35
280
     0
102
RTVSPost2010PropOp35
 70
     1
102
RTVSPost2010Prop36
280
     0
102
RTVSPost2010PropOp36
 70
     1
102
RTVSPost2010Prop37
 90
       50
102
RTVSPost2010PropOp37
 70
     1
102
RTVSPost2010Prop38
140
0.0
102
RTVSPost2010PropOp38
 70
     1
102
RTVSPost2010Prop39
140
1.0
102
RTVSPost2010PropOp39
 70
     1
102
RTVSPost2010Prop40
 90
        0
102
RTVSPost2010PropOp40
 70
     1
102
RTVSPost2010Prop41ColorIndex
 90
       18
102
RTVSPost2010Prop41ColorRGB
 90
        0
102
RTVSPost2010PropOp41
 70
     1
102
RTVSPost2010Prop42
 90
       50
102
RTVSPost2010PropOp42
 70
     1
102
RTVSPost2010Prop43
 90
        3
102
RTVSPost2010PropOp43
 70
     1
102
RTVSPost2010Prop44ColorIndex
 90
        5
102
RTVSPost2010Prop44ColorRGB
 90
      255
102
RTVSPost2010PropOp44
 70
     1
102
RTVSPost2010Prop45
280
     0
102
RTVSPost2010PropOp45
 70
     1
102
RTVSPost2010Prop46
 90
       50
102
RTVSPost2010PropOp46
 70
     1
102
RTVSPost2010Prop47
 90
       50
102
RTVSPost2010PropOp47
 70
     1
102
RTVSPost2010Prop48
 90
       50
102
RTVSPost2010PropOp48
 70
     1
102
RTVSPost2010Prop49
280
     0
102
RTVSPost2010PropOp49
 70
     1
102
RTVSPost2010Prop50
 90
       50
102
RTVSPost2010PropOp50
 70
     1
102
RTVSPost2010Prop51ColorIndex
 90
      256
102
RTVSPost2010Prop51ColorRGB
 90
-16777216
102
RTVSPost2010PropOp51
 70
     0
102
RTVSPost2010Prop52
140
1.0
102
RTVSPost2010PropOp52
 70
     0
102
RTVSPost2010Prop53
 90
        2
102
RTVSPost2010PropOp53
 70
     1
102
RTVSPost2010Prop54
  1
strokes_ogs.tif
102
RTVSPost2010PropOp54
 70
     1
102
RTVSPost2010Prop55
280
     0
102
RTVSPost2010PropOp55
 70
     1
102
RTVSPost2010Prop56
140
1.0
102
RTVSPost2010PropOp56
 70
     1
102
RTVSPost2010Prop57
140
1.0
102
RTVSPost2010PropOp57
 70
     1
102
RTVSPropertyOp0
 70
     1
102
RTVSPropertyOp1
 70
     1
102
RTVSPropertyOp2
 70
     1
102
RTVSPropertyOp3
 70
     1
102
RTVSPropertyOp4
 70
     1
102
RTVSPropertyOp5
 70
     1
102
RTVSPropertyOp6
 70
     1
102
RTVSPropertyOp7
 70
     1
102
RTVSPropertyOp8
 70
     1
102
RTVSPropertyOp9
 70
     1
102
RTVSPropertyOp10
 70
     1
102
RTVSPropertyOp11
 70
     1
102
RTVSPropertyOp12
 70
     1
102
RTVSPropertyOp13
 70
     1
102
RTVSPropertyOp14
 70
     1
102
RTVSPropertyOp15
 70
     1
102
RTVSPropertyOp16
 70
     1
102
RTVSPropertyOp17
 70
     1
102
RTVSPropertyOp18
 70
     1
102
RTVSPropertyOp19
 70
     1
102
RTVSPropertyOp20
 70
     1
102
RTVSPropertyOp21
 70
     1
102
RTVSPropertyOp22
 70
     1
102
RTVSPropertyOp23
 70
     1
102
RTVSPropertyOp24
 70
     1
102
RTVSPropertyOp25
 70
     1
102
RTVSPropertyOp26
 70
     1
102
RTVSPropertyOp27
 70
     1
102
RTVSPropertyOp28
 70
     1
102
RTVSPropertyOp29
 70
     1
102
RTVSPropertyOp30
 70
     1
102
RTVSPropertyOp31
 70
     1
102
RTVSPropertyOp32
 70
     1
102
RTVSPropertyOp33
 70
     1
102
RTVSPropertyOp34
 70
     1
102
RTVSPropertyOp35
 70
     1
102
RTVSPropertyOp36
 70
     1
102
RTVSPropertyOp37
 70
     1
102
RTVSPropertyOp38
 70
     1
102
RTVSPropertyOp39
 70
     1
102
RTVSPropertyOp40
 70
     1
102
RTVSPropertyOp41
 70
     1
102
RTVSPropertyOp42
 70
     1
102
RTVSPropertyOp43
 70
     1
102
RTVSPropertyOp44
 70
     1
102
RTVSPropertyOp45
 70
     1
102
RTVSPropertyOp46
 70
     1
102
RTVSPropertyOp47
 70
     1
102
RTVSPropertyOp48
 70
     1
102
RTVSPropertyOp49
 70
     1
102
RTVSPropertyOp50
 70
     1
102
RTVSPropertyOp51
 70
     0
102
RTVSPropertyOp52
 70
     0
102
RTVSPropertyOp53
 70
     1
102
RTVSPropertyOp54
 70
     1
102
RTVSPropertyOp55
 70
     1
102
RTVSPropertyOp56
 70
     1
102
RTVSPropertyOp57
 70
     1
102
RTVSPropertyOp58
 70
     1
102
RTVSPropertyOp59
 70
     1
102
RTVSPropertyOp60
 70
     1
102
RTVSPropertyOp61
 70
     1
102
RTVSPropertyOp62
 70
     1
  0
XRECORD
  5
7E6
102
{ACAD_REACTORS
330
7E5
102
}
330
7E5
100
AcDbXrecord
280
     1
102
RTVSPost2010Prop28
280
     0
102
RTVSPost2010PropOp28
 70
     1
102
RTVSPost2010Prop29
280
     1
102
RTVSPost2010PropOp29
 70
     1
102
RTVSPost2010Prop30
280
     1
102
RTVSPost2010PropOp30
 70
     1
102
RTVSPost2010Prop31
280
     0
102
RTVSPost2010PropOp31
 70
     1
102
RTVSPost2010Prop32
280
     0
102
RTVSPost2010PropOp32
 70
     1
102
RTVSPost2010Prop33
280
     0
102
RTVSPost2010PropOp33
 70
     1
102
RTVSPost2010Prop34
280
     0
102
RTVSPost2010PropOp34
 70
     1
102
RTVSPost2010Prop35
280
     0
102
RTVSPost2010PropOp35
 70
     1
102
RTVSPost2010Prop36
280
     0
102
RTVSPost2010PropOp36
 70
     1
102
RTVSPost2010Prop37
 90
       50
102
RTVSPost2010PropOp37
 70
     1
102
RTVSPost2010Prop38
140
0.0
102
RTVSPost2010PropOp38
 70
     1
102
RTVSPost2010Prop39
140
1.0
102
RTVSPost2010PropOp39
 70
     1
102
RTVSPost2010Prop40
 90
        0
102
RTVSPost2010PropOp40
 70
     1
102
RTVSPost2010Prop41ColorIndex
 90
       18
102
RTVSPost2010Prop41ColorRGB
 90
        0
102
RTVSPost2010PropOp41
 70
     1
102
RTVSPost2010Prop42
 90
       50
102
RTVSPost2010PropOp42
 70
     1
102
RTVSPost2010Prop43
 90
        3
102
RTVSPost2010PropOp43
 70
     1
102
RTVSPost2010Prop44ColorIndex
 90
        5
102
RTVSPost2010Prop44ColorRGB
 90
      255
102
RTVSPost2010PropOp44
 70
     1
102
RTVSPost2010Prop45
280
     0
102
RTVSPost2010PropOp45
 70
     1
102
RTVSPost2010Prop46
 90
       50
102
RTVSPost2010PropOp46
 70
     1
102
RTVSPost2010Prop47
 90
       50
102
RTVSPost2010PropOp47
 70
     1
102
RTVSPost2010Prop48
 90
       50
102
RTVSPost2010PropOp48
 70
     1
102
RTVSPost2010Prop49
280
     0
102
RTVSPost2010PropOp49
 70
     1
102
RTVSPost2010Prop50
 90
       50
102
RTVSPost2010PropOp50
 70
     1
102
RTVSPost2010Prop51ColorIndex
 90
      256
102
RTVSPost2010Prop51ColorRGB
 90
-16777216
102
RTVSPost2010PropOp51
 70
     0
102
RTVSPost2010Prop52
140
1.0
102
RTVSPost2010PropOp52
 70
     0
102
RTVSPost2010Prop53
 90
        2
102
RTVSPost2010PropOp53
 70
     1
102
RTVSPost2010Prop54
  1
strokes_ogs.tif
102
RTVSPost2010PropOp54
 70
     1
102
RTVSPost2010Prop55
280
     0
102
RTVSPost2010PropOp55
 70
     1
102
RTVSPost2010Prop56
140
1.0
102
RTVSPost2010PropOp56
 70
     1
102
RTVSPost2010Prop57
140
1.0
102
RTVSPost2010PropOp57
 70
     1
102
RTVSPropertyOp0
 70
     1
102
RTVSPropertyOp1
 70
     1
102
RTVSPropertyOp2
 70
     1
102
RTVSPropertyOp3
 70
     1
102
RTVSPropertyOp4
 70
     1
102
RTVSPropertyOp5
 70
     1
102
RTVSPropertyOp6
 70
     1
102
RTVSPropertyOp7
 70
     1
102
RTVSPropertyOp8
 70
     1
102
RTVSPropertyOp9
 70
     1
102
RTVSPropertyOp10
 70
     1
102
RTVSPropertyOp11
 70
     1
102
RTVSPropertyOp12
 70
     1
102
RTVSPropertyOp13
 70
     1
102
RTVSPropertyOp14
 70
     1
102
RTVSPropertyOp15
 70
     1
102
RTVSPropertyOp16
 70
     1
102
RTVSPropertyOp17
 70
     1
102
RTVSPropertyOp18
 70
     1
102
RTVSPropertyOp19
 70
     1
102
RTVSPropertyOp20
 70
     1
102
RTVSPropertyOp21
 70
     1
102
RTVSPropertyOp22
 70
     1
102
RTVSPropertyOp23
 70
     1
102
RTVSPropertyOp24
 70
     1
102
RTVSPropertyOp25
 70
     1
102
RTVSPropertyOp26
 70
     1
102
RTVSPropertyOp27
 70
     1
102
RTVSPropertyOp28
 70
     1
102
RTVSPropertyOp29
 70
     1
102
RTVSPropertyOp30
 70
     1
102
RTVSPropertyOp31
 70
     1
102
RTVSPropertyOp32
 70
     1
102
RTVSPropertyOp33
 70
     1
102
RTVSPropertyOp34
 70
     1
102
RTVSPropertyOp35
 70
     1
102
RTVSPropertyOp36
 70
     1
102
RTVSPropertyOp37
 70
     1
102
RTVSPropertyOp38
 70
     1
102
RTVSPropertyOp39
 70
     1
102
RTVSPropertyOp40
 70
     1
102
RTVSPropertyOp41
 70
     1
102
RTVSPropertyOp42
 70
     1
102
RTVSPropertyOp43
 70
     1
102
RTVSPropertyOp44
 70
     1
102
RTVSPropertyOp45
 70
     1
102
RTVSPropertyOp46
 70
     1
102
RTVSPropertyOp47
 70
     1
102
RTVSPropertyOp48
 70
     1
102
RTVSPropertyOp49
 70
     1
102
RTVSPropertyOp50
 70
     1
102
RTVSPropertyOp51
 70
     0
102
RTVSPropertyOp52
 70
     0
102
RTVSPropertyOp53
 70
     1
102
RTVSPropertyOp54
 70
     1
102
RTVSPropertyOp55
 70
     1
102
RTVSPropertyOp56
 70
     1
102
RTVSPropertyOp57
 70
     1
102
RTVSPropertyOp58
 70
     1
102
RTVSPropertyOp59
 70
     1
102
RTVSPropertyOp60
 70
     1
102
RTVSPropertyOp61
 70
     1
102
RTVSPropertyOp62
 70
     1
  0
XRECORD
  5
7E8
102
{ACAD_REACTORS
330
7E7
102
}
330
7E7
100
AcDbXrecord
280
     1
102
RTVSPost2010Prop28
280
     0
102
RTVSPost2010PropOp28
 70
     1
102
RTVSPost2010Prop29
280
     1
102
RTVSPost2010PropOp29
 70
     1
102
RTVSPost2010Prop30
280
     1
102
RTVSPost2010PropOp30
 70
     1
102
RTVSPost2010Prop31
280
     0
102
RTVSPost2010PropOp31
 70
     1
102
RTVSPost2010Prop32
280
     0
102
RTVSPost2010PropOp32
 70
     1
102
RTVSPost2010Prop33
280
     0
102
RTVSPost2010PropOp33
 70
     1
102
RTVSPost2010Prop34
280
     0
102
RTVSPost2010PropOp34
 70
     1
102
RTVSPost2010Prop35
280
     0
102
RTVSPost2010PropOp35
 70
     1
102
RTVSPost2010Prop36
280
     0
102
RTVSPost2010PropOp36
 70
     1
102
RTVSPost2010Prop37
 90
       50
102
RTVSPost2010PropOp37
 70
     1
102
RTVSPost2010Prop38
140
0.0
102
RTVSPost2010PropOp38
 70
     1
102
RTVSPost2010Prop39
140
1.0
102
RTVSPost2010PropOp39
 70
     1
102
RTVSPost2010Prop40
 90
        0
102
RTVSPost2010PropOp40
 70
     1
102
RTVSPost2010Prop41ColorIndex
 90
       18
102
RTVSPost2010Prop41ColorRGB
 90
        0
102
RTVSPost2010PropOp41
 70
     1
102
RTVSPost2010Prop42
 90
       50
102
RTVSPost2010PropOp42
 70
     1
102
RTVSPost2010Prop43
 90
        3
102
RTVSPost2010PropOp43
 70
     1
102
RTVSPost2010Prop44ColorIndex
 90
        5
102
RTVSPost2010Prop44ColorRGB
 90
      255
102
RTVSPost2010PropOp44
 70
     1
102
RTVSPost2010Prop45
280
     0
102
RTVSPost2010PropOp45
 70
     1
102
RTVSPost2010Prop46
 90
       50
102
RTVSPost2010PropOp46
 70
     1
102
RTVSPost2010Prop47
 90
       50
102
RTVSPost2010PropOp47
 70
     1
102
RTVSPost2010Prop48
 90
       50
102
RTVSPost2010PropOp48
 70
     1
102
RTVSPost2010Prop49
280
     0
102
RTVSPost2010PropOp49
 70
     1
102
RTVSPost2010Prop50
 90
       50
102
RTVSPost2010PropOp50
 70
     1
102
RTVSPost2010Prop51ColorIndex
 90
      256
102
RTVSPost2010Prop51ColorRGB
 90
-16777216
102
RTVSPost2010PropOp51
 70
     0
102
RTVSPost2010Prop52
140
1.0
102
RTVSPost2010PropOp52
 70
     0
102
RTVSPost2010Prop53
 90
        2
102
RTVSPost2010PropOp53
 70
     1
102
RTVSPost2010Prop54
  1
strokes_ogs.tif
102
RTVSPost2010PropOp54
 70
     1
102
RTVSPost2010Prop55
280
     0
102
RTVSPost2010PropOp55
 70
     1
102
RTVSPost2010Prop56
140
1.0
102
RTVSPost2010PropOp56
 70
     1
102
RTVSPost2010Prop57
140
1.0
102
RTVSPost2010PropOp57
 70
     1
102
RTVSPropertyOp0
 70
     1
102
RTVSPropertyOp1
 70
     1
102
RTVSPropertyOp2
 70
     1
102
RTVSPropertyOp3
 70
     1
102
RTVSPropertyOp4
 70
     1
102
RTVSPropertyOp5
 70
     1
102
RTVSPropertyOp6
 70
     1
102
RTVSPropertyOp7
 70
     1
102
RTVSPropertyOp8
 70
     1
102
RTVSPropertyOp9
 70
     1
102
RTVSPropertyOp10
 70
     1
102
RTVSPropertyOp11
 70
     1
102
RTVSPropertyOp12
 70
     1
102
RTVSPropertyOp13
 70
     1
102
RTVSPropertyOp14
 70
     1
102
RTVSPropertyOp15
 70
     1
102
RTVSPropertyOp16
 70
     1
102
RTVSPropertyOp17
 70
     1
102
RTVSPropertyOp18
 70
     1
102
RTVSPropertyOp19
 70
     1
102
RTVSPropertyOp20
 70
     1
102
RTVSPropertyOp21
 70
     1
102
RTVSPropertyOp22
 70
     1
102
RTVSPropertyOp23
 70
     1
102
RTVSPropertyOp24
 70
     1
102
RTVSPropertyOp25
 70
     1
102
RTVSPropertyOp26
 70
     1
102
RTVSPropertyOp27
 70
     1
102
RTVSPropertyOp28
 70
     1
102
RTVSPropertyOp29
 70
     1
102
RTVSPropertyOp30
 70
     1
102
RTVSPropertyOp31
 70
     1
102
RTVSPropertyOp32
 70
     1
102
RTVSPropertyOp33
 70
     1
102
RTVSPropertyOp34
 70
     1
102
RTVSPropertyOp35
 70
     1
102
RTVSPropertyOp36
 70
     1
102
RTVSPropertyOp37
 70
     1
102
RTVSPropertyOp38
 70
     1
102
RTVSPropertyOp39
 70
     1
102
RTVSPropertyOp40
 70
     1
102
RTVSPropertyOp41
 70
     1
102
RTVSPropertyOp42
 70
     1
102
RTVSPropertyOp43
 70
     1
102
RTVSPropertyOp44
 70
     1
102
RTVSPropertyOp45
 70
     1
102
RTVSPropertyOp46
 70
     1
102
RTVSPropertyOp47
 70
     1
102
RTVSPropertyOp48
 70
     1
102
RTVSPropertyOp49
 70
     1
102
RTVSPropertyOp50
 70
     1
102
RTVSPropertyOp51
 70
     0
102
RTVSPropertyOp52
 70
     0
102
RTVSPropertyOp53
 70
     1
102
RTVSPropertyOp54
 70
     1
102
RTVSPropertyOp55
 70
     1
102
RTVSPropertyOp56
 70
     1
102
RTVSPropertyOp57
 70
     1
102
RTVSPropertyOp58
 70
     1
102
RTVSPropertyOp59
 70
     1
102
RTVSPropertyOp60
 70
     1
102
RTVSPropertyOp61
 70
     1
102
RTVSPropertyOp62
 70
     1
  0
XRECORD
  5
7F0
102
{ACAD_REACTORS
330
7EF
102
}
330
7EF
100
AcDbXrecord
280
     1
102
RTVSPost2010Prop28
280
     0
102
RTVSPost2010PropOp28
 70
     1
102
RTVSPost2010Prop29
280
     1
102
RTVSPost2010PropOp29
 70
     1
102
RTVSPost2010Prop30
280
     1
102
RTVSPost2010PropOp30
 70
     1
102
RTVSPost2010Prop31
280
     0
102
RTVSPost2010PropOp31
 70
     1
102
RTVSPost2010Prop32
280
     0
102
RTVSPost2010PropOp32
 70
     1
102
RTVSPost2010Prop33
280
     0
102
RTVSPost2010PropOp33
 70
     1
102
RTVSPost2010Prop34
280
     0
102
RTVSPost2010PropOp34
 70
     1
102
RTVSPost2010Prop35
280
     0
102
RTVSPost2010PropOp35
 70
     1
102
RTVSPost2010Prop36
280
     0
102
RTVSPost2010PropOp36
 70
     1
102
RTVSPost2010Prop37
 90
       50
102
RTVSPost2010PropOp37
 70
     1
102
RTVSPost2010Prop38
140
0.0
102
RTVSPost2010PropOp38
 70
     1
102
RTVSPost2010Prop39
140
1.0
102
RTVSPost2010PropOp39
 70
     1
102
RTVSPost2010Prop40
 90
        0
102
RTVSPost2010PropOp40
 70
     1
102
RTVSPost2010Prop41ColorIndex
 90
       18
102
RTVSPost2010Prop41ColorRGB
 90
        0
102
RTVSPost2010PropOp41
 70
     1
102
RTVSPost2010Prop42
 90
       50
102
RTVSPost2010PropOp42
 70
     1
102
RTVSPost2010Prop43
 90
        3
102
RTVSPost2010PropOp43
 70
     1
102
RTVSPost2010Prop44ColorIndex
 90
        5
102
RTVSPost2010Prop44ColorRGB
 90
      255
102
RTVSPost2010PropOp44
 70
     1
102
RTVSPost2010Prop45
280
     0
102
RTVSPost2010PropOp45
 70
     1
102
RTVSPost2010Prop46
 90
       50
102
RTVSPost2010PropOp46
 70
     1
102
RTVSPost2010Prop47
 90
       50
102
RTVSPost2010PropOp47
 70
     1
102
RTVSPost2010Prop48
 90
       50
102
RTVSPost2010PropOp48
 70
     1
102
RTVSPost2010Prop49
280
     0
102
RTVSPost2010PropOp49
 70
     1
102
RTVSPost2010Prop50
 90
       50
102
RTVSPost2010PropOp50
 70
     1
102
RTVSPost2010Prop51ColorIndex
 90
      256
102
RTVSPost2010Prop51ColorRGB
 90
-16777216
102
RTVSPost2010PropOp51
 70
     0
102
RTVSPost2010Prop52
140
1.0
102
RTVSPost2010PropOp52
 70
     0
102
RTVSPost2010Prop53
 90
        2
102
RTVSPost2010PropOp53
 70
     1
102
RTVSPost2010Prop54
  1
strokes_ogs.tif
102
RTVSPost2010PropOp54
 70
     1
102
RTVSPost2010Prop55
280
     0
102
RTVSPost2010PropOp55
 70
     1
102
RTVSPost2010Prop56
140
1.0
102
RTVSPost2010PropOp56
 70
     1
102
RTVSPost2010Prop57
140
1.0
102
RTVSPost2010PropOp57
 70
     1
102
RTVSPropertyOp0
 70
     1
102
RTVSPropertyOp1
 70
     1
102
RTVSPropertyOp2
 70
     1
102
RTVSPropertyOp3
 70
     1
102
RTVSPropertyOp4
 70
     1
102
RTVSPropertyOp5
 70
     1
102
RTVSPropertyOp6
 70
     1
102
RTVSPropertyOp7
 70
     1
102
RTVSPropertyOp8
 70
     1
102
RTVSPropertyOp9
 70
     1
102
RTVSPropertyOp10
 70
     1
102
RTVSPropertyOp11
 70
     1
102
RTVSPropertyOp12
 70
     1
102
RTVSPropertyOp13
 70
     1
102
RTVSPropertyOp14
 70
     1
102
RTVSPropertyOp15
 70
     1
102
RTVSPropertyOp16
 70
     1
102
RTVSPropertyOp17
 70
     1
102
RTVSPropertyOp18
 70
     1
102
RTVSPropertyOp19
 70
     1
102
RTVSPropertyOp20
 70
     1
102
RTVSPropertyOp21
 70
     1
102
RTVSPropertyOp22
 70
     1
102
RTVSPropertyOp23
 70
     1
102
RTVSPropertyOp24
 70
     1
102
RTVSPropertyOp25
 70
     1
102
RTVSPropertyOp26
 70
     1
102
RTVSPropertyOp27
 70
     1
102
RTVSPropertyOp28
 70
     1
102
RTVSPropertyOp29
 70
     1
102
RTVSPropertyOp30
 70
     1
102
RTVSPropertyOp31
 70
     1
102
RTVSPropertyOp32
 70
     1
102
RTVSPropertyOp33
 70
     1
102
RTVSPropertyOp34
 70
     1
102
RTVSPropertyOp35
 70
     1
102
RTVSPropertyOp36
 70
     1
102
RTVSPropertyOp37
 70
     1
102
RTVSPropertyOp38
 70
     1
102
RTVSPropertyOp39
 70
     1
102
RTVSPropertyOp40
 70
     1
102
RTVSPropertyOp41
 70
     1
102
RTVSPropertyOp42
 70
     1
102
RTVSPropertyOp43
 70
     1
102
RTVSPropertyOp44
 70
     1
102
RTVSPropertyOp45
 70
     1
102
RTVSPropertyOp46
 70
     1
102
RTVSPropertyOp47
 70
     1
102
RTVSPropertyOp48
 70
     1
102
RTVSPropertyOp49
 70
     1
102
RTVSPropertyOp50
 70
     1
102
RTVSPropertyOp51
 70
     0
102
RTVSPropertyOp52
 70
     0
102
RTVSPropertyOp53
 70
     1
102
RTVSPropertyOp54
 70
     1
102
RTVSPropertyOp55
 70
     1
102
RTVSPropertyOp56
 70
     1
102
RTVSPropertyOp57
 70
     1
102
RTVSPropertyOp58
 70
     1
102
RTVSPropertyOp59
 70
     1
102
RTVSPropertyOp60
 70
     1
102
RTVSPropertyOp61
 70
     1
102
RTVSPropertyOp62
 70
     1
  0
XRECORD
  5
80C
102
{ACAD_REACTORS
330
80B
102
}
330
80B
100
AcDbXrecord
280
     1
102
RTVSPost2010Prop28
280
     0
102
RTVSPost2010PropOp28
 70
     0
102
RTVSPost2010Prop29
280
     1
102
RTVSPost2010PropOp29
 70
     0
102
RTVSPost2010Prop30
280
     1
102
RTVSPost2010PropOp30
 70
     0
102
RTVSPost2010Prop31
280
     0
102
RTVSPost2010PropOp31
 70
     0
102
RTVSPost2010Prop32
280
     0
102
RTVSPost2010PropOp32
 70
     0
102
RTVSPost2010Prop33
280
     0
102
RTVSPost2010PropOp33
 70
     0
102
RTVSPost2010Prop34
280
     0
102
RTVSPost2010PropOp34
 70
     0
102
RTVSPost2010Prop35
280
     0
102
RTVSPost2010PropOp35
 70
     0
102
RTVSPost2010Prop36
280
     0
102
RTVSPost2010PropOp36
 70
     0
102
RTVSPost2010Prop37
 90
       50
102
RTVSPost2010PropOp37
 70
     0
102
RTVSPost2010Prop38
140
0.0
102
RTVSPost2010PropOp38
 70
     0
102
RTVSPost2010Prop39
140
1.0
102
RTVSPost2010PropOp39
 70
     0
102
RTVSPost2010Prop40
 90
        0
102
RTVSPost2010PropOp40
 70
     0
102
RTVSPost2010Prop41ColorIndex
 90
       18
102
RTVSPost2010Prop41ColorRGB
 90
        0
102
RTVSPost2010PropOp41
 70
     0
102
RTVSPost2010Prop42
 90
       50
102
RTVSPost2010PropOp42
 70
     0
102
RTVSPost2010Prop43
 90
        3
102
RTVSPost2010PropOp43
 70
     0
102
RTVSPost2010Prop44ColorIndex
 90
        5
102
RTVSPost2010Prop44ColorRGB
 90
      255
102
RTVSPost2010PropOp44
 70
     0
102
RTVSPost2010Prop45
280
     0
102
RTVSPost2010PropOp45
 70
     0
102
RTVSPost2010Prop46
 90
       50
102
RTVSPost2010PropOp46
 70
     0
102
RTVSPost2010Prop47
 90
       50
102
RTVSPost2010PropOp47
 70
     0
102
RTVSPost2010Prop48
 90
       50
102
RTVSPost2010PropOp48
 70
     0
102
RTVSPost2010Prop49
280
     0
102
RTVSPost2010PropOp49
 70
     0
102
RTVSPost2010Prop50
 90
       50
102
RTVSPost2010PropOp50
 70
     0
102
RTVSPost2010Prop51ColorIndex
 90
      256
102
RTVSPost2010Prop51ColorRGB
 90
-16777216
102
RTVSPost2010PropOp51
 70
     0
102
RTVSPost2010Prop52
140
1.0
102
RTVSPost2010PropOp52
 70
     0
102
RTVSPost2010Prop53
 90
        2
102
RTVSPost2010PropOp53
 70
     0
102
RTVSPost2010Prop54
  1
strokes_ogs.tif
102
RTVSPost2010PropOp54
 70
     0
102
RTVSPost2010Prop55
280
     0
102
RTVSPost2010PropOp55
 70
     0
102
RTVSPost2010Prop56
140
1.0
102
RTVSPost2010PropOp56
 70
     0
102
RTVSPost2010Prop57
140
1.0
102
RTVSPost2010PropOp57
 70
     0
102
RTVSPropertyOp0
 70
     0
102
RTVSPropertyOp1
 70
     0
102
RTVSPropertyOp2
 70
     0
102
RTVSPropertyOp3
 70
     0
102
RTVSPropertyOp4
 70
     0
102
RTVSPropertyOp5
 70
     0
102
RTVSPropertyOp6
 70
     0
102
RTVSPropertyOp7
 70
     0
102
RTVSPropertyOp8
 70
     0
102
RTVSPropertyOp9
 70
     0
102
RTVSPropertyOp10
 70
     0
102
RTVSPropertyOp11
 70
     0
102
RTVSPropertyOp12
 70
     0
102
RTVSPropertyOp13
 70
     0
102
RTVSPropertyOp14
 70
     2
102
RTVSPropertyOp15
 70
     0
102
RTVSPropertyOp16
 70
     0
102
RTVSPropertyOp17
 70
     0
102
RTVSPropertyOp18
 70
     0
102
RTVSPropertyOp19
 70
     0
102
RTVSPropertyOp20
 70
     0
102
RTVSPropertyOp21
 70
     0
102
RTVSPropertyOp22
 70
     0
102
RTVSPropertyOp23
 70
     0
102
RTVSPropertyOp24
 70
     0
102
RTVSPropertyOp25
 70
     0
102
RTVSPropertyOp26
 70
     0
102
RTVSPropertyOp27
 70
     0
102
RTVSPropertyOp28
 70
     0
102
RTVSPropertyOp29
 70
     0
102
RTVSPropertyOp30
 70
     0
102
RTVSPropertyOp31
 70
     0
102
RTVSPropertyOp32
 70
     0
102
RTVSPropertyOp33
 70
     0
102
RTVSPropertyOp34
 70
     0
102
RTVSPropertyOp35
 70
     0
102
RTVSPropertyOp36
 70
     0
102
RTVSPropertyOp37
 70
     0
102
RTVSPropertyOp38
 70
     0
102
RTVSPropertyOp39
 70
     0
102
RTVSPropertyOp40
 70
     0
102
RTVSPropertyOp41
 70
     0
102
RTVSPropertyOp42
 70
     0
102
RTVSPropertyOp43
 70
     0
102
RTVSPropertyOp44
 70
     0
102
RTVSPropertyOp45
 70
     0
102
RTVSPropertyOp46
 70
     0
102
RTVSPropertyOp47
 70
     0
102
RTVSPropertyOp48
 70
     0
102
RTVSPropertyOp49
 70
     0
102
RTVSPropertyOp50
 70
     0
102
RTVSPropertyOp51
 70
     0
102
RTVSPropertyOp52
 70
     0
102
RTVSPropertyOp53
 70
     0
102
RTVSPropertyOp54
 70
     0
102
RTVSPropertyOp55
 70
     0
102
RTVSPropertyOp56
 70
     0
102
RTVSPropertyOp57
 70
     0
102
RTVSPropertyOp58
 70
     0
102
RTVSPropertyOp59
 70
     0
102
RTVSPropertyOp60
 70
     0
102
RTVSPropertyOp61
 70
     0
102
RTVSPropertyOp62
 70
     0
  0
XRECORD
  5
7FC
102
{ACAD_REACTORS
330
7FB
102
}
330
7FB
100
AcDbXrecord
280
     1
102
RTVSPost2010Prop28
280
     0
102
RTVSPost2010PropOp28
 70
     1
102
RTVSPost2010Prop29
280
     1
102
RTVSPost2010PropOp29
 70
     1
102
RTVSPost2010Prop30
280
     1
102
RTVSPost2010PropOp30
 70
     1
102
RTVSPost2010Prop31
280
     0
102
RTVSPost2010PropOp31
 70
     1
102
RTVSPost2010Prop32
280
     0
102
RTVSPost2010PropOp32
 70
     1
102
RTVSPost2010Prop33
280
     0
102
RTVSPost2010PropOp33
 70
     1
102
RTVSPost2010Prop34
280
     0
102
RTVSPost2010PropOp34
 70
     1
102
RTVSPost2010Prop35
280
     0
102
RTVSPost2010PropOp35
 70
     1
102
RTVSPost2010Prop36
280
     0
102
RTVSPost2010PropOp36
 70
     1
102
RTVSPost2010Prop37
 90
       50
102
RTVSPost2010PropOp37
 70
     1
102
RTVSPost2010Prop38
140
0.0
102
RTVSPost2010PropOp38
 70
     1
102
RTVSPost2010Prop39
140
1.0
102
RTVSPost2010PropOp39
 70
     1
102
RTVSPost2010Prop40
 90
        0
102
RTVSPost2010PropOp40
 70
     1
102
RTVSPost2010Prop41ColorIndex
 90
       18
102
RTVSPost2010Prop41ColorRGB
 90
        0
102
RTVSPost2010PropOp41
 70
     1
102
RTVSPost2010Prop42
 90
       50
102
RTVSPost2010PropOp42
 70
     1
102
RTVSPost2010Prop43
 90
        3
102
RTVSPost2010PropOp43
 70
     1
102
RTVSPost2010Prop44ColorIndex
 90
        5
102
RTVSPost2010Prop44ColorRGB
 90
      255
102
RTVSPost2010PropOp44
 70
     1
102
RTVSPost2010Prop45
280
     0
102
RTVSPost2010PropOp45
 70
     1
102
RTVSPost2010Prop46
 90
       50
102
RTVSPost2010PropOp46
 70
     1
102
RTVSPost2010Prop47
 90
       50
102
RTVSPost2010PropOp47
 70
     1
102
RTVSPost2010Prop48
 90
       50
102
RTVSPost2010PropOp48
 70
     1
102
RTVSPost2010Prop49
280
     0
102
RTVSPost2010PropOp49
 70
     1
102
RTVSPost2010Prop50
 90
       50
102
RTVSPost2010PropOp50
 70
     1
102
RTVSPost2010Prop51ColorIndex
 90
      256
102
RTVSPost2010Prop51ColorRGB
 90
-16777216
102
RTVSPost2010PropOp51
 70
     0
102
RTVSPost2010Prop52
140
1.0
102
RTVSPost2010PropOp52
 70
     0
102
RTVSPost2010Prop53
 90
        2
102
RTVSPost2010PropOp53
 70
     1
102
RTVSPost2010Prop54
  1
strokes_ogs.tif
102
RTVSPost2010PropOp54
 70
     1
102
RTVSPost2010Prop55
280
     0
102
RTVSPost2010PropOp55
 70
     1
102
RTVSPost2010Prop56
140
1.0
102
RTVSPost2010PropOp56
 70
     1
102
RTVSPost2010Prop57
140
1.0
102
RTVSPost2010PropOp57
 70
     1
102
RTVSPropertyOp0
 70
     1
102
RTVSPropertyOp1
 70
     1
102
RTVSPropertyOp2
 70
     1
102
RTVSPropertyOp3
 70
     1
102
RTVSPropertyOp4
 70
     1
102
RTVSPropertyOp5
 70
     1
102
RTVSPropertyOp6
 70
     1
102
RTVSPropertyOp7
 70
     1
102
RTVSPropertyOp8
 70
     1
102
RTVSPropertyOp9
 70
     1
102
RTVSPropertyOp10
 70
     1
102
RTVSPropertyOp11
 70
     1
102
RTVSPropertyOp12
 70
     1
102
RTVSPropertyOp13
 70
     1
102
RTVSPropertyOp14
 70
     1
102
RTVSPropertyOp15
 70
     1
102
RTVSPropertyOp16
 70
     1
102
RTVSPropertyOp17
 70
     1
102
RTVSPropertyOp18
 70
     1
102
RTVSPropertyOp19
 70
     1
102
RTVSPropertyOp20
 70
     1
102
RTVSPropertyOp21
 70
     1
102
RTVSPropertyOp22
 70
     1
102
RTVSPropertyOp23
 70
     1
102
RTVSPropertyOp24
 70
     1
102
RTVSPropertyOp25
 70
     1
102
RTVSPropertyOp26
 70
     1
102
RTVSPropertyOp27
 70
     1
102
RTVSPropertyOp28
 70
     1
102
RTVSPropertyOp29
 70
     1
102
RTVSPropertyOp30
 70
     1
102
RTVSPropertyOp31
 70
     1
102
RTVSPropertyOp32
 70
     1
102
RTVSPropertyOp33
 70
     1
102
RTVSPropertyOp34
 70
     1
102
RTVSPropertyOp35
 70
     1
102
RTVSPropertyOp36
 70
     1
102
RTVSPropertyOp37
 70
     1
102
RTVSPropertyOp38
 70
     1
102
RTVSPropertyOp39
 70
     1
102
RTVSPropertyOp40
 70
     1
102
RTVSPropertyOp41
 70
     1
102
RTVSPropertyOp42
 70
     1
102
RTVSPropertyOp43
 70
     1
102
RTVSPropertyOp44
 70
     1
102
RTVSPropertyOp45
 70
     1
102
RTVSPropertyOp46
 70
     1
102
RTVSPropertyOp47
 70
     1
102
RTVSPropertyOp48
 70
     1
102
RTVSPropertyOp49
 70
     1
102
RTVSPropertyOp50
 70
     1
102
RTVSPropertyOp51
 70
     0
102
RTVSPropertyOp52
 70
     0
102
RTVSPropertyOp53
 70
     1
102
RTVSPropertyOp54
 70
     1
102
RTVSPropertyOp55
 70
     1
102
RTVSPropertyOp56
 70
     1
102
RTVSPropertyOp57
 70
     1
102
RTVSPropertyOp58
 70
     1
102
RTVSPropertyOp59
 70
     1
102
RTVSPropertyOp60
 70
     1
102
RTVSPropertyOp61
 70
     1
102
RTVSPropertyOp62
 70
     1
  0
XRECORD
  5
80E
102
{ACAD_REACTORS
330
80D
102
}
330
80D
100
AcDbXrecord
280
     1
102
RTVSPost2010Prop28
280
     0
102
RTVSPost2010PropOp28
 70
     0
102
RTVSPost2010Prop29
280
     1
102
RTVSPost2010PropOp29
 70
     0
102
RTVSPost2010Prop30
280
     1
102
RTVSPost2010PropOp30
 70
     0
102
RTVSPost2010Prop31
280
     0
102
RTVSPost2010PropOp31
 70
     0
102
RTVSPost2010Prop32
280
     0
102
RTVSPost2010PropOp32
 70
     0
102
RTVSPost2010Prop33
280
     0
102
RTVSPost2010PropOp33
 70
     0
102
RTVSPost2010Prop34
280
     0
102
RTVSPost2010PropOp34
 70
     0
102
RTVSPost2010Prop35
280
     0
102
RTVSPost2010PropOp35
 70
     0
102
RTVSPost2010Prop36
280
     0
102
RTVSPost2010PropOp36
 70
     0
102
RTVSPost2010Prop37
 90
       50
102
RTVSPost2010PropOp37
 70
     0
102
RTVSPost2010Prop38
140
0.0
102
RTVSPost2010PropOp38
 70
     0
102
RTVSPost2010Prop39
140
1.0
102
RTVSPost2010PropOp39
 70
     0
102
RTVSPost2010Prop40
 90
        0
102
RTVSPost2010PropOp40
 70
     0
102
RTVSPost2010Prop41ColorIndex
 90
       18
102
RTVSPost2010Prop41ColorRGB
 90
        0
102
RTVSPost2010PropOp41
 70
     0
102
RTVSPost2010Prop42
 90
       50
102
RTVSPost2010PropOp42
 70
     0
102
RTVSPost2010Prop43
 90
        3
102
RTVSPost2010PropOp43
 70
     0
102
RTVSPost2010Prop44ColorIndex
 90
        5
102
RTVSPost2010Prop44ColorRGB
 90
      255
102
RTVSPost2010PropOp44
 70
     0
102
RTVSPost2010Prop45
280
     0
102
RTVSPost2010PropOp45
 70
     0
102
RTVSPost2010Prop46
 90
       50
102
RTVSPost2010PropOp46
 70
     0
102
RTVSPost2010Prop47
 90
       50
102
RTVSPost2010PropOp47
 70
     0
102
RTVSPost2010Prop48
 90
       50
102
RTVSPost2010PropOp48
 70
     0
102
RTVSPost2010Prop49
280
     0
102
RTVSPost2010PropOp49
 70
     0
102
RTVSPost2010Prop50
 90
       50
102
RTVSPost2010PropOp50
 70
     0
102
RTVSPost2010Prop51ColorIndex
 90
      256
102
RTVSPost2010Prop51ColorRGB
 90
-16777216
102
RTVSPost2010PropOp51
 70
     0
102
RTVSPost2010Prop52
140
1.0
102
RTVSPost2010PropOp52
 70
     0
102
RTVSPost2010Prop53
 90
        2
102
RTVSPost2010PropOp53
 70
     0
102
RTVSPost2010Prop54
  1
strokes_ogs.tif
102
RTVSPost2010PropOp54
 70
     0
102
RTVSPost2010Prop55
280
     0
102
RTVSPost2010PropOp55
 70
     0
102
RTVSPost2010Prop56
140
1.0
102
RTVSPost2010PropOp56
 70
     0
102
RTVSPost2010Prop57
140
1.0
102
RTVSPost2010PropOp57
 70
     0
102
RTVSPropertyOp0
 70
     0
102
RTVSPropertyOp1
 70
     0
102
RTVSPropertyOp2
 70
     0
102
RTVSPropertyOp3
 70
     0
102
RTVSPropertyOp4
 70
     0
102
RTVSPropertyOp5
 70
     0
102
RTVSPropertyOp6
 70
     0
102
RTVSPropertyOp7
 70
     0
102
RTVSPropertyOp8
 70
     0
102
RTVSPropertyOp9
 70
     0
102
RTVSPropertyOp10
 70
     0
102
RTVSPropertyOp11
 70
     0
102
RTVSPropertyOp12
 70
     0
102
RTVSPropertyOp13
 70
     0
102
RTVSPropertyOp14
 70
     2
102
RTVSPropertyOp15
 70
     0
102
RTVSPropertyOp16
 70
     0
102
RTVSPropertyOp17
 70
     0
102
RTVSPropertyOp18
 70
     0
102
RTVSPropertyOp19
 70
     0
102
RTVSPropertyOp20
 70
     0
102
RTVSPropertyOp21
 70
     0
102
RTVSPropertyOp22
 70
     0
102
RTVSPropertyOp23
 70
     0
102
RTVSPropertyOp24
 70
     0
102
RTVSPropertyOp25
 70
     0
102
RTVSPropertyOp26
 70
     0
102
RTVSPropertyOp27
 70
     0
102
RTVSPropertyOp28
 70
     0
102
RTVSPropertyOp29
 70
     0
102
RTVSPropertyOp30
 70
     0
102
RTVSPropertyOp31
 70
     0
102
RTVSPropertyOp32
 70
     0
102
RTVSPropertyOp33
 70
     0
102
RTVSPropertyOp34
 70
     0
102
RTVSPropertyOp35
 70
     0
102
RTVSPropertyOp36
 70
     0
102
RTVSPropertyOp37
 70
     0
102
RTVSPropertyOp38
 70
     0
102
RTVSPropertyOp39
 70
     0
102
RTVSPropertyOp40
 70
     0
102
RTVSPropertyOp41
 70
     0
102
RTVSPropertyOp42
 70
     0
102
RTVSPropertyOp43
 70
     0
102
RTVSPropertyOp44
 70
     0
102
RTVSPropertyOp45
 70
     0
102
RTVSPropertyOp46
 70
     0
102
RTVSPropertyOp47
 70
     0
102
RTVSPropertyOp48
 70
     0
102
RTVSPropertyOp49
 70
     0
102
RTVSPropertyOp50
 70
     0
102
RTVSPropertyOp51
 70
     0
102
RTVSPropertyOp52
 70
     0
102
RTVSPropertyOp53
 70
     0
102
RTVSPropertyOp54
 70
     0
102
RTVSPropertyOp55
 70
     0
102
RTVSPropertyOp56
 70
     0
102
RTVSPropertyOp57
 70
     0
102
RTVSPropertyOp58
 70
     0
102
RTVSPropertyOp59
 70
     0
102
RTVSPropertyOp60
 70
     0
102
RTVSPropertyOp61
 70
     0
102
RTVSPropertyOp62
 70
     0
  0
XRECORD
  5
7F4
102
{ACAD_REACTORS
330
7F3
102
}
330
7F3
100
AcDbXrecord
280
     1
102
RTVSPost2010Prop28
280
     0
102
RTVSPost2010PropOp28
 70
     1
102
RTVSPost2010Prop29
280
     1
102
RTVSPost2010PropOp29
 70
     1
102
RTVSPost2010Prop30
280
     1
102
RTVSPost2010PropOp30
 70
     1
102
RTVSPost2010Prop31
280
     0
102
RTVSPost2010PropOp31
 70
     1
102
RTVSPost2010Prop32
280
     0
102
RTVSPost2010PropOp32
 70
     1
102
RTVSPost2010Prop33
280
     0
102
RTVSPost2010PropOp33
 70
     1
102
RTVSPost2010Prop34
280
     0
102
RTVSPost2010PropOp34
 70
     1
102
RTVSPost2010Prop35
280
     0
102
RTVSPost2010PropOp35
 70
     1
102
RTVSPost2010Prop36
280
     0
102
RTVSPost2010PropOp36
 70
     1
102
RTVSPost2010Prop37
 90
       50
102
RTVSPost2010PropOp37
 70
     1
102
RTVSPost2010Prop38
140
0.0
102
RTVSPost2010PropOp38
 70
     1
102
RTVSPost2010Prop39
140
1.0
102
RTVSPost2010PropOp39
 70
     1
102
RTVSPost2010Prop40
 90
        0
102
RTVSPost2010PropOp40
 70
     1
102
RTVSPost2010Prop41ColorIndex
 90
       18
102
RTVSPost2010Prop41ColorRGB
 90
        0
102
RTVSPost2010PropOp41
 70
     1
102
RTVSPost2010Prop42
 90
       50
102
RTVSPost2010PropOp42
 70
     1
102
RTVSPost2010Prop43
 90
        3
102
RTVSPost2010PropOp43
 70
     1
102
RTVSPost2010Prop44ColorIndex
 90
        5
102
RTVSPost2010Prop44ColorRGB
 90
      255
102
RTVSPost2010PropOp44
 70
     1
102
RTVSPost2010Prop45
280
     0
102
RTVSPost2010PropOp45
 70
     1
102
RTVSPost2010Prop46
 90
       50
102
RTVSPost2010PropOp46
 70
     1
102
RTVSPost2010Prop47
 90
       50
102
RTVSPost2010PropOp47
 70
     1
102
RTVSPost2010Prop48
 90
       50
102
RTVSPost2010PropOp48
 70
     1
102
RTVSPost2010Prop49
280
     0
102
RTVSPost2010PropOp49
 70
     1
102
RTVSPost2010Prop50
 90
       50
102
RTVSPost2010PropOp50
 70
     1
102
RTVSPost2010Prop51ColorIndex
 90
      256
102
RTVSPost2010Prop51ColorRGB
 90
-16777216
102
RTVSPost2010PropOp51
 70
     0
102
RTVSPost2010Prop52
140
1.0
102
RTVSPost2010PropOp52
 70
     0
102
RTVSPost2010Prop53
 90
        2
102
RTVSPost2010PropOp53
 70
     1
102
RTVSPost2010Prop54
  1
strokes_ogs.tif
102
RTVSPost2010PropOp54
 70
     1
102
RTVSPost2010Prop55
280
     0
102
RTVSPost2010PropOp55
 70
     1
102
RTVSPost2010Prop56
140
1.0
102
RTVSPost2010PropOp56
 70
     1
102
RTVSPost2010Prop57
140
1.0
102
RTVSPost2010PropOp57
 70
     1
102
RTVSPropertyOp0
 70
     1
102
RTVSPropertyOp1
 70
     1
102
RTVSPropertyOp2
 70
     1
102
RTVSPropertyOp3
 70
     1
102
RTVSPropertyOp4
 70
     1
102
RTVSPropertyOp5
 70
     1
102
RTVSPropertyOp6
 70
     1
102
RTVSPropertyOp7
 70
     1
102
RTVSPropertyOp8
 70
     1
102
RTVSPropertyOp9
 70
     1
102
RTVSPropertyOp10
 70
     1
102
RTVSPropertyOp11
 70
     1
102
RTVSPropertyOp12
 70
     1
102
RTVSPropertyOp13
 70
     1
102
RTVSPropertyOp14
 70
     1
102
RTVSPropertyOp15
 70
     1
102
RTVSPropertyOp16
 70
     1
102
RTVSPropertyOp17
 70
     1
102
RTVSPropertyOp18
 70
     1
102
RTVSPropertyOp19
 70
     1
102
RTVSPropertyOp20
 70
     1
102
RTVSPropertyOp21
 70
     1
102
RTVSPropertyOp22
 70
     1
102
RTVSPropertyOp23
 70
     1
102
RTVSPropertyOp24
 70
     1
102
RTVSPropertyOp25
 70
     1
102
RTVSPropertyOp26
 70
     1
102
RTVSPropertyOp27
 70
     1
102
RTVSPropertyOp28
 70
     1
102
RTVSPropertyOp29
 70
     1
102
RTVSPropertyOp30
 70
     1
102
RTVSPropertyOp31
 70
     1
102
RTVSPropertyOp32
 70
     1
102
RTVSPropertyOp33
 70
     1
102
RTVSPropertyOp34
 70
     1
102
RTVSPropertyOp35
 70
     1
102
RTVSPropertyOp36
 70
     1
102
RTVSPropertyOp37
 70
     1
102
RTVSPropertyOp38
 70
     1
102
RTVSPropertyOp39
 70
     1
102
RTVSPropertyOp40
 70
     1
102
RTVSPropertyOp41
 70
     1
102
RTVSPropertyOp42
 70
     1
102
RTVSPropertyOp43
 70
     1
102
RTVSPropertyOp44
 70
     1
102
RTVSPropertyOp45
 70
     1
102
RTVSPropertyOp46
 70
     1
102
RTVSPropertyOp47
 70
     1
102
RTVSPropertyOp48
 70
     1
102
RTVSPropertyOp49
 70
     1
102
RTVSPropertyOp50
 70
     1
102
RTVSPropertyOp51
 70
     0
102
RTVSPropertyOp52
 70
     0
102
RTVSPropertyOp53
 70
     1
102
RTVSPropertyOp54
 70
     1
102
RTVSPropertyOp55
 70
     1
102
RTVSPropertyOp56
 70
     1
102
RTVSPropertyOp57
 70
     1
102
RTVSPropertyOp58
 70
     1
102
RTVSPropertyOp59
 70
     1
102
RTVSPropertyOp60
 70
     1
102
RTVSPropertyOp61
 70
     1
102
RTVSPropertyOp62
 70
     1
  0
XRECORD
  5
80A
102
{ACAD_REACTORS
330
809
102
}
330
809
100
AcDbXrecord
280
     1
102
RTVSPost2010Prop28
280
     0
102
RTVSPost2010PropOp28
 70
     1
102
RTVSPost2010Prop29
280
     1
102
RTVSPost2010PropOp29
 70
     1
102
RTVSPost2010Prop30
280
     1
102
RTVSPost2010PropOp30
 70
     1
102
RTVSPost2010Prop31
280
     0
102
RTVSPost2010PropOp31
 70
     1
102
RTVSPost2010Prop32
280
     0
102
RTVSPost2010PropOp32
 70
     1
102
RTVSPost2010Prop33
280
     0
102
RTVSPost2010PropOp33
 70
     1
102
RTVSPost2010Prop34
280
     0
102
RTVSPost2010PropOp34
 70
     1
102
RTVSPost2010Prop35
280
     0
102
RTVSPost2010PropOp35
 70
     1
102
RTVSPost2010Prop36
280
     0
102
RTVSPost2010PropOp36
 70
     1
102
RTVSPost2010Prop37
 90
       50
102
RTVSPost2010PropOp37
 70
     1
102
RTVSPost2010Prop38
140
0.0
102
RTVSPost2010PropOp38
 70
     1
102
RTVSPost2010Prop39
140
1.0
102
RTVSPost2010PropOp39
 70
     1
102
RTVSPost2010Prop40
 90
        0
102
RTVSPost2010PropOp40
 70
     1
102
RTVSPost2010Prop41ColorIndex
 90
       18
102
RTVSPost2010Prop41ColorRGB
 90
        0
102
RTVSPost2010PropOp41
 70
     1
102
RTVSPost2010Prop42
 90
       50
102
RTVSPost2010PropOp42
 70
     1
102
RTVSPost2010Prop43
 90
        3
102
RTVSPost2010PropOp43
 70
     1
102
RTVSPost2010Prop44ColorIndex
 90
        5
102
RTVSPost2010Prop44ColorRGB
 90
      255
102
RTVSPost2010PropOp44
 70
     1
102
RTVSPost2010Prop45
280
     0
102
RTVSPost2010PropOp45
 70
     1
102
RTVSPost2010Prop46
 90
       50
102
RTVSPost2010PropOp46
 70
     1
102
RTVSPost2010Prop47
 90
       50
102
RTVSPost2010PropOp47
 70
     1
102
RTVSPost2010Prop48
 90
       50
102
RTVSPost2010PropOp48
 70
     1
102
RTVSPost2010Prop49
280
     0
102
RTVSPost2010PropOp49
 70
     1
102
RTVSPost2010Prop50
 90
       50
102
RTVSPost2010PropOp50
 70
     1
102
RTVSPost2010Prop51ColorIndex
 90
      256
102
RTVSPost2010Prop51ColorRGB
 90
-16777216
102
RTVSPost2010PropOp51
 70
     0
102
RTVSPost2010Prop52
140
1.0
102
RTVSPost2010PropOp52
 70
     0
102
RTVSPost2010Prop53
 90
        2
102
RTVSPost2010PropOp53
 70
     1
102
RTVSPost2010Prop54
  1
strokes_ogs.tif
102
RTVSPost2010PropOp54
 70
     1
102
RTVSPost2010Prop55
280
     0
102
RTVSPost2010PropOp55
 70
     1
102
RTVSPost2010Prop56
140
1.0
102
RTVSPost2010PropOp56
 70
     1
102
RTVSPost2010Prop57
140
1.0
102
RTVSPost2010PropOp57
 70
     1
102
RTVSPropertyOp0
 70
     1
102
RTVSPropertyOp1
 70
     1
102
RTVSPropertyOp2
 70
     1
102
RTVSPropertyOp3
 70
     1
102
RTVSPropertyOp4
 70
     1
102
RTVSPropertyOp5
 70
     1
102
RTVSPropertyOp6
 70
     1
102
RTVSPropertyOp7
 70
     1
102
RTVSPropertyOp8
 70
     1
102
RTVSPropertyOp9
 70
     1
102
RTVSPropertyOp10
 70
     1
102
RTVSPropertyOp11
 70
     1
102
RTVSPropertyOp12
 70
     1
102
RTVSPropertyOp13
 70
     1
102
RTVSPropertyOp14
 70
     1
102
RTVSPropertyOp15
 70
     1
102
RTVSPropertyOp16
 70
     1
102
RTVSPropertyOp17
 70
     1
102
RTVSPropertyOp18
 70
     1
102
RTVSPropertyOp19
 70
     1
102
RTVSPropertyOp20
 70
     1
102
RTVSPropertyOp21
 70
     1
102
RTVSPropertyOp22
 70
     1
102
RTVSPropertyOp23
 70
     1
102
RTVSPropertyOp24
 70
     1
102
RTVSPropertyOp25
 70
     1
102
RTVSPropertyOp26
 70
     1
102
RTVSPropertyOp27
 70
     1
102
RTVSPropertyOp28
 70
     1
102
RTVSPropertyOp29
 70
     1
102
RTVSPropertyOp30
 70
     1
102
RTVSPropertyOp31
 70
     1
102
RTVSPropertyOp32
 70
     1
102
RTVSPropertyOp33
 70
     1
102
RTVSPropertyOp34
 70
     1
102
RTVSPropertyOp35
 70
     1
102
RTVSPropertyOp36
 70
     1
102
RTVSPropertyOp37
 70
     1
102
RTVSPropertyOp38
 70
     1
102
RTVSPropertyOp39
 70
     1
102
RTVSPropertyOp40
 70
     1
102
RTVSPropertyOp41
 70
     1
102
RTVSPropertyOp42
 70
     1
102
RTVSPropertyOp43
 70
     1
102
RTVSPropertyOp44
 70
     1
102
RTVSPropertyOp45
 70
     1
102
RTVSPropertyOp46
 70
     1
102
RTVSPropertyOp47
 70
     1
102
RTVSPropertyOp48
 70
     1
102
RTVSPropertyOp49
 70
     1
102
RTVSPropertyOp50
 70
     1
102
RTVSPropertyOp51
 70
     0
102
RTVSPropertyOp52
 70
     0
102
RTVSPropertyOp53
 70
     1
102
RTVSPropertyOp54
 70
     1
102
RTVSPropertyOp55
 70
     1
102
RTVSPropertyOp56
 70
     1
102
RTVSPropertyOp57
 70
     1
102
RTVSPropertyOp58
 70
     1
102
RTVSPropertyOp59
 70
     1
102
RTVSPropertyOp60
 70
     1
102
RTVSPropertyOp61
 70
     1
102
RTVSPropertyOp62
 70
     1
  0
XRECORD
  5
808
102
{ACAD_REACTORS
330
807
102
}
330
807
100
AcDbXrecord
280
     1
102
RTVSPost2010Prop28
280
     0
102
RTVSPost2010PropOp28
 70
     1
102
RTVSPost2010Prop29
280
     1
102
RTVSPost2010PropOp29
 70
     1
102
RTVSPost2010Prop30
280
     1
102
RTVSPost2010PropOp30
 70
     1
102
RTVSPost2010Prop31
280
     0
102
RTVSPost2010PropOp31
 70
     1
102
RTVSPost2010Prop32
280
     0
102
RTVSPost2010PropOp32
 70
     1
102
RTVSPost2010Prop33
280
     0
102
RTVSPost2010PropOp33
 70
     1
102
RTVSPost2010Prop34
280
     0
102
RTVSPost2010PropOp34
 70
     1
102
RTVSPost2010Prop35
280
     0
102
RTVSPost2010PropOp35
 70
     1
102
RTVSPost2010Prop36
280
     0
102
RTVSPost2010PropOp36
 70
     1
102
RTVSPost2010Prop37
 90
       50
102
RTVSPost2010PropOp37
 70
     1
102
RTVSPost2010Prop38
140
0.0
102
RTVSPost2010PropOp38
 70
     1
102
RTVSPost2010Prop39
140
1.0
102
RTVSPost2010PropOp39
 70
     1
102
RTVSPost2010Prop40
 90
        0
102
RTVSPost2010PropOp40
 70
     1
102
RTVSPost2010Prop41ColorIndex
 90
       18
102
RTVSPost2010Prop41ColorRGB
 90
        0
102
RTVSPost2010PropOp41
 70
     1
102
RTVSPost2010Prop42
 90
       50
102
RTVSPost2010PropOp42
 70
     1
102
RTVSPost2010Prop43
 90
        3
102
RTVSPost2010PropOp43
 70
     1
102
RTVSPost2010Prop44ColorIndex
 90
        5
102
RTVSPost2010Prop44ColorRGB
 90
      255
102
RTVSPost2010PropOp44
 70
     1
102
RTVSPost2010Prop45
280
     0
102
RTVSPost2010PropOp45
 70
     1
102
RTVSPost2010Prop46
 90
       50
102
RTVSPost2010PropOp46
 70
     1
102
RTVSPost2010Prop47
 90
       50
102
RTVSPost2010PropOp47
 70
     1
102
RTVSPost2010Prop48
 90
       50
102
RTVSPost2010PropOp48
 70
     1
102
RTVSPost2010Prop49
280
     0
102
RTVSPost2010PropOp49
 70
     1
102
RTVSPost2010Prop50
 90
       50
102
RTVSPost2010PropOp50
 70
     1
102
RTVSPost2010Prop51ColorIndex
 90
      256
102
RTVSPost2010Prop51ColorRGB
 90
-16777216
102
RTVSPost2010PropOp51
 70
     0
102
RTVSPost2010Prop52
140
1.0
102
RTVSPost2010PropOp52
 70
     0
102
RTVSPost2010Prop53
 90
        2
102
RTVSPost2010PropOp53
 70
     1
102
RTVSPost2010Prop54
  1
strokes_ogs.tif
102
RTVSPost2010PropOp54
 70
     1
102
RTVSPost2010Prop55
280
     0
102
RTVSPost2010PropOp55
 70
     1
102
RTVSPost2010Prop56
140
1.0
102
RTVSPost2010PropOp56
 70
     1
102
RTVSPost2010Prop57
140
1.0
102
RTVSPost2010PropOp57
 70
     1
102
RTVSPropertyOp0
 70
     1
102
RTVSPropertyOp1
 70
     1
102
RTVSPropertyOp2
 70
     1
102
RTVSPropertyOp3
 70
     1
102
RTVSPropertyOp4
 70
     1
102
RTVSPropertyOp5
 70
     1
102
RTVSPropertyOp6
 70
     1
102
RTVSPropertyOp7
 70
     1
102
RTVSPropertyOp8
 70
     1
102
RTVSPropertyOp9
 70
     1
102
RTVSPropertyOp10
 70
     1
102
RTVSPropertyOp11
 70
     1
102
RTVSPropertyOp12
 70
     1
102
RTVSPropertyOp13
 70
     1
102
RTVSPropertyOp14
 70
     1
102
RTVSPropertyOp15
 70
     1
102
RTVSPropertyOp16
 70
     1
102
RTVSPropertyOp17
 70
     1
102
RTVSPropertyOp18
 70
     1
102
RTVSPropertyOp19
 70
     1
102
RTVSPropertyOp20
 70
     1
102
RTVSPropertyOp21
 70
     1
102
RTVSPropertyOp22
 70
     1
102
RTVSPropertyOp23
 70
     1
102
RTVSPropertyOp24
 70
     1
102
RTVSPropertyOp25
 70
     1
102
RTVSPropertyOp26
 70
     1
102
RTVSPropertyOp27
 70
     1
102
RTVSPropertyOp28
 70
     1
102
RTVSPropertyOp29
 70
     1
102
RTVSPropertyOp30
 70
     1
102
RTVSPropertyOp31
 70
     1
102
RTVSPropertyOp32
 70
     1
102
RTVSPropertyOp33
 70
     1
102
RTVSPropertyOp34
 70
     1
102
RTVSPropertyOp35
 70
     1
102
RTVSPropertyOp36
 70
     1
102
RTVSPropertyOp37
 70
     1
102
RTVSPropertyOp38
 70
     1
102
RTVSPropertyOp39
 70
     1
102
RTVSPropertyOp40
 70
     1
102
RTVSPropertyOp41
 70
     1
102
RTVSPropertyOp42
 70
     1
102
RTVSPropertyOp43
 70
     1
102
RTVSPropertyOp44
 70
     1
102
RTVSPropertyOp45
 70
     1
102
RTVSPropertyOp46
 70
     1
102
RTVSPropertyOp47
 70
     1
102
RTVSPropertyOp48
 70
     1
102
RTVSPropertyOp49
 70
     1
102
RTVSPropertyOp50
 70
     1
102
RTVSPropertyOp51
 70
     0
102
RTVSPropertyOp52
 70
     0
102
RTVSPropertyOp53
 70
     1
102
RTVSPropertyOp54
 70
     1
102
RTVSPropertyOp55
 70
     1
102
RTVSPropertyOp56
 70
     1
102
RTVSPropertyOp57
 70
     1
102
RTVSPropertyOp58
 70
     1
102
RTVSPropertyOp59
 70
     1
102
RTVSPropertyOp60
 70
     1
102
RTVSPropertyOp61
 70
     1
102
RTVSPropertyOp62
 70
     1
  0
XRECORD
  5
802
102
{ACAD_REACTORS
330
801
102
}
330
801
100
AcDbXrecord
280
     1
102
RTVSPost2010Prop28
280
     0
102
RTVSPost2010PropOp28
 70
     1
102
RTVSPost2010Prop29
280
     1
102
RTVSPost2010PropOp29
 70
     1
102
RTVSPost2010Prop30
280
     1
102
RTVSPost2010PropOp30
 70
     1
102
RTVSPost2010Prop31
280
     0
102
RTVSPost2010PropOp31
 70
     1
102
RTVSPost2010Prop32
280
     0
102
RTVSPost2010PropOp32
 70
     1
102
RTVSPost2010Prop33
280
     0
102
RTVSPost2010PropOp33
 70
     1
102
RTVSPost2010Prop34
280
     0
102
RTVSPost2010PropOp34
 70
     1
102
RTVSPost2010Prop35
280
     0
102
RTVSPost2010PropOp35
 70
     1
102
RTVSPost2010Prop36
280
     0
102
RTVSPost2010PropOp36
 70
     1
102
RTVSPost2010Prop37
 90
       50
102
RTVSPost2010PropOp37
 70
     1
102
RTVSPost2010Prop38
140
0.0
102
RTVSPost2010PropOp38
 70
     1
102
RTVSPost2010Prop39
140
1.0
102
RTVSPost2010PropOp39
 70
     1
102
RTVSPost2010Prop40
 90
        0
102
RTVSPost2010PropOp40
 70
     1
102
RTVSPost2010Prop41ColorIndex
 90
       18
102
RTVSPost2010Prop41ColorRGB
 90
        0
102
RTVSPost2010PropOp41
 70
     1
102
RTVSPost2010Prop42
 90
       50
102
RTVSPost2010PropOp42
 70
     1
102
RTVSPost2010Prop43
 90
        3
102
RTVSPost2010PropOp43
 70
     1
102
RTVSPost2010Prop44ColorIndex
 90
        5
102
RTVSPost2010Prop44ColorRGB
 90
      255
102
RTVSPost2010PropOp44
 70
     1
102
RTVSPost2010Prop45
280
     0
102
RTVSPost2010PropOp45
 70
     1
102
RTVSPost2010Prop46
 90
       50
102
RTVSPost2010PropOp46
 70
     1
102
RTVSPost2010Prop47
 90
       50
102
RTVSPost2010PropOp47
 70
     1
102
RTVSPost2010Prop48
 90
       50
102
RTVSPost2010PropOp48
 70
     1
102
RTVSPost2010Prop49
280
     0
102
RTVSPost2010PropOp49
 70
     1
102
RTVSPost2010Prop50
 90
       50
102
RTVSPost2010PropOp50
 70
     1
102
RTVSPost2010Prop51ColorIndex
 90
      256
102
RTVSPost2010Prop51ColorRGB
 90
-16777216
102
RTVSPost2010PropOp51
 70
     0
102
RTVSPost2010Prop52
140
1.0
102
RTVSPost2010PropOp52
 70
     0
102
RTVSPost2010Prop53
 90
        2
102
RTVSPost2010PropOp53
 70
     1
102
RTVSPost2010Prop54
  1
strokes_ogs.tif
102
RTVSPost2010PropOp54
 70
     1
102
RTVSPost2010Prop55
280
     0
102
RTVSPost2010PropOp55
 70
     1
102
RTVSPost2010Prop56
140
1.0
102
RTVSPost2010PropOp56
 70
     1
102
RTVSPost2010Prop57
140
1.0
102
RTVSPost2010PropOp57
 70
     1
102
RTVSPropertyOp0
 70
     1
102
RTVSPropertyOp1
 70
     1
102
RTVSPropertyOp2
 70
     1
102
RTVSPropertyOp3
 70
     1
102
RTVSPropertyOp4
 70
     1
102
RTVSPropertyOp5
 70
     1
102
RTVSPropertyOp6
 70
     1
102
RTVSPropertyOp7
 70
     1
102
RTVSPropertyOp8
 70
     1
102
RTVSPropertyOp9
 70
     1
102
RTVSPropertyOp10
 70
     1
102
RTVSPropertyOp11
 70
     1
102
RTVSPropertyOp12
 70
     1
102
RTVSPropertyOp13
 70
     1
102
RTVSPropertyOp14
 70
     1
102
RTVSPropertyOp15
 70
     1
102
RTVSPropertyOp16
 70
     1
102
RTVSPropertyOp17
 70
     1
102
RTVSPropertyOp18
 70
     1
102
RTVSPropertyOp19
 70
     1
102
RTVSPropertyOp20
 70
     1
102
RTVSPropertyOp21
 70
     1
102
RTVSPropertyOp22
 70
     1
102
RTVSPropertyOp23
 70
     1
102
RTVSPropertyOp24
 70
     1
102
RTVSPropertyOp25
 70
     1
102
RTVSPropertyOp26
 70
     1
102
RTVSPropertyOp27
 70
     1
102
RTVSPropertyOp28
 70
     1
102
RTVSPropertyOp29
 70
     1
102
RTVSPropertyOp30
 70
     1
102
RTVSPropertyOp31
 70
     1
102
RTVSPropertyOp32
 70
     1
102
RTVSPropertyOp33
 70
     1
102
RTVSPropertyOp34
 70
     1
102
RTVSPropertyOp35
 70
     1
102
RTVSPropertyOp36
 70
     1
102
RTVSPropertyOp37
 70
     1
102
RTVSPropertyOp38
 70
     1
102
RTVSPropertyOp39
 70
     1
102
RTVSPropertyOp40
 70
     1
102
RTVSPropertyOp41
 70
     1
102
RTVSPropertyOp42
 70
     1
102
RTVSPropertyOp43
 70
     1
102
RTVSPropertyOp44
 70
     1
102
RTVSPropertyOp45
 70
     1
102
RTVSPropertyOp46
 70
     1
102
RTVSPropertyOp47
 70
     1
102
RTVSPropertyOp48
 70
     1
102
RTVSPropertyOp49
 70
     1
102
RTVSPropertyOp50
 70
     1
102
RTVSPropertyOp51
 70
     0
102
RTVSPropertyOp52
 70
     0
102
RTVSPropertyOp53
 70
     1
102
RTVSPropertyOp54
 70
     1
102
RTVSPropertyOp55
 70
     1
102
RTVSPropertyOp56
 70
     1
102
RTVSPropertyOp57
 70
     1
102
RTVSPropertyOp58
 70
     1
102
RTVSPropertyOp59
 70
     1
102
RTVSPropertyOp60
 70
     1
102
RTVSPropertyOp61
 70
     1
102
RTVSPropertyOp62
 70
     1
  0
XRECORD
  5
804
102
{ACAD_REACTORS
330
803
102
}
330
803
100
AcDbXrecord
280
     1
102
RTVSPost2010Prop28
280
     0
102
RTVSPost2010PropOp28
 70
     1
102
RTVSPost2010Prop29
280
     1
102
RTVSPost2010PropOp29
 70
     1
102
RTVSPost2010Prop30
280
     1
102
RTVSPost2010PropOp30
 70
     1
102
RTVSPost2010Prop31
280
     0
102
RTVSPost2010PropOp31
 70
     1
102
RTVSPost2010Prop32
280
     0
102
RTVSPost2010PropOp32
 70
     1
102
RTVSPost2010Prop33
280
     0
102
RTVSPost2010PropOp33
 70
     1
102
RTVSPost2010Prop34
280
     0
102
RTVSPost2010PropOp34
 70
     1
102
RTVSPost2010Prop35
280
     0
102
RTVSPost2010PropOp35
 70
     1
102
RTVSPost2010Prop36
280
     0
102
RTVSPost2010PropOp36
 70
     1
102
RTVSPost2010Prop37
 90
       50
102
RTVSPost2010PropOp37
 70
     1
102
RTVSPost2010Prop38
140
0.0
102
RTVSPost2010PropOp38
 70
     1
102
RTVSPost2010Prop39
140
1.0
102
RTVSPost2010PropOp39
 70
     1
102
RTVSPost2010Prop40
 90
        0
102
RTVSPost2010PropOp40
 70
     1
102
RTVSPost2010Prop41ColorIndex
 90
       18
102
RTVSPost2010Prop41ColorRGB
 90
        0
102
RTVSPost2010PropOp41
 70
     1
102
RTVSPost2010Prop42
 90
       50
102
RTVSPost2010PropOp42
 70
     1
102
RTVSPost2010Prop43
 90
        3
102
RTVSPost2010PropOp43
 70
     1
102
RTVSPost2010Prop44ColorIndex
 90
        5
102
RTVSPost2010Prop44ColorRGB
 90
      255
102
RTVSPost2010PropOp44
 70
     1
102
RTVSPost2010Prop45
280
     0
102
RTVSPost2010PropOp45
 70
     1
102
RTVSPost2010Prop46
 90
       50
102
RTVSPost2010PropOp46
 70
     1
102
RTVSPost2010Prop47
 90
       50
102
RTVSPost2010PropOp47
 70
     1
102
RTVSPost2010Prop48
 90
       50
102
RTVSPost2010PropOp48
 70
     1
102
RTVSPost2010Prop49
280
     0
102
RTVSPost2010PropOp49
 70
     1
102
RTVSPost2010Prop50
 90
       50
102
RTVSPost2010PropOp50
 70
     1
102
RTVSPost2010Prop51ColorIndex
 90
      256
102
RTVSPost2010Prop51ColorRGB
 90
-16777216
102
RTVSPost2010PropOp51
 70
     0
102
RTVSPost2010Prop52
140
1.0
102
RTVSPost2010PropOp52
 70
     0
102
RTVSPost2010Prop53
 90
        2
102
RTVSPost2010PropOp53
 70
     1
102
RTVSPost2010Prop54
  1
strokes_ogs.tif
102
RTVSPost2010PropOp54
 70
     1
102
RTVSPost2010Prop55
280
     0
102
RTVSPost2010PropOp55
 70
     1
102
RTVSPost2010Prop56
140
1.0
102
RTVSPost2010PropOp56
 70
     1
102
RTVSPost2010Prop57
140
1.0
102
RTVSPost2010PropOp57
 70
     1
102
RTVSPropertyOp0
 70
     1
102
RTVSPropertyOp1
 70
     1
102
RTVSPropertyOp2
 70
     1
102
RTVSPropertyOp3
 70
     1
102
RTVSPropertyOp4
 70
     1
102
RTVSPropertyOp5
 70
     1
102
RTVSPropertyOp6
 70
     1
102
RTVSPropertyOp7
 70
     1
102
RTVSPropertyOp8
 70
     1
102
RTVSPropertyOp9
 70
     1
102
RTVSPropertyOp10
 70
     1
102
RTVSPropertyOp11
 70
     1
102
RTVSPropertyOp12
 70
     1
102
RTVSPropertyOp13
 70
     1
102
RTVSPropertyOp14
 70
     1
102
RTVSPropertyOp15
 70
     1
102
RTVSPropertyOp16
 70
     1
102
RTVSPropertyOp17
 70
     1
102
RTVSPropertyOp18
 70
     1
102
RTVSPropertyOp19
 70
     1
102
RTVSPropertyOp20
 70
     1
102
RTVSPropertyOp21
 70
     1
102
RTVSPropertyOp22
 70
     1
102
RTVSPropertyOp23
 70
     1
102
RTVSPropertyOp24
 70
     1
102
RTVSPropertyOp25
 70
     1
102
RTVSPropertyOp26
 70
     1
102
RTVSPropertyOp27
 70
     1
102
RTVSPropertyOp28
 70
     1
102
RTVSPropertyOp29
 70
     1
102
RTVSPropertyOp30
 70
     1
102
RTVSPropertyOp31
 70
     1
102
RTVSPropertyOp32
 70
     1
102
RTVSPropertyOp33
 70
     1
102
RTVSPropertyOp34
 70
     1
102
RTVSPropertyOp35
 70
     1
102
RTVSPropertyOp36
 70
     1
102
RTVSPropertyOp37
 70
     1
102
RTVSPropertyOp38
 70
     1
102
RTVSPropertyOp39
 70
     1
102
RTVSPropertyOp40
 70
     1
102
RTVSPropertyOp41
 70
     1
102
RTVSPropertyOp42
 70
     1
102
RTVSPropertyOp43
 70
     1
102
RTVSPropertyOp44
 70
     1
102
RTVSPropertyOp45
 70
     1
102
RTVSPropertyOp46
 70
     1
102
RTVSPropertyOp47
 70
     1
102
RTVSPropertyOp48
 70
     1
102
RTVSPropertyOp49
 70
     1
102
RTVSPropertyOp50
 70
     1
102
RTVSPropertyOp51
 70
     0
102
RTVSPropertyOp52
 70
     0
102
RTVSPropertyOp53
 70
     1
102
RTVSPropertyOp54
 70
     1
102
RTVSPropertyOp55
 70
     1
102
RTVSPropertyOp56
 70
     1
102
RTVSPropertyOp57
 70
     1
102
RTVSPropertyOp58
 70
     1
102
RTVSPropertyOp59
 70
     1
102
RTVSPropertyOp60
 70
     1
102
RTVSPropertyOp61
 70
     1
102
RTVSPropertyOp62
 70
     1
  0
XRECORD
  5
7FA
102
{ACAD_REACTORS
330
7F9
102
}
330
7F9
100
AcDbXrecord
280
     1
102
RTVSPost2010Prop28
280
     0
102
RTVSPost2010PropOp28
 70
     1
102
RTVSPost2010Prop29
280
     1
102
RTVSPost2010PropOp29
 70
     1
102
RTVSPost2010Prop30
280
     1
102
RTVSPost2010PropOp30
 70
     1
102
RTVSPost2010Prop31
280
     0
102
RTVSPost2010PropOp31
 70
     1
102
RTVSPost2010Prop32
280
     0
102
RTVSPost2010PropOp32
 70
     1
102
RTVSPost2010Prop33
280
     0
102
RTVSPost2010PropOp33
 70
     1
102
RTVSPost2010Prop34
280
     0
102
RTVSPost2010PropOp34
 70
     1
102
RTVSPost2010Prop35
280
     0
102
RTVSPost2010PropOp35
 70
     1
102
RTVSPost2010Prop36
280
     0
102
RTVSPost2010PropOp36
 70
     1
102
RTVSPost2010Prop37
 90
       50
102
RTVSPost2010PropOp37
 70
     1
102
RTVSPost2010Prop38
140
0.0
102
RTVSPost2010PropOp38
 70
     1
102
RTVSPost2010Prop39
140
1.0
102
RTVSPost2010PropOp39
 70
     1
102
RTVSPost2010Prop40
 90
        0
102
RTVSPost2010PropOp40
 70
     1
102
RTVSPost2010Prop41ColorIndex
 90
       18
102
RTVSPost2010Prop41ColorRGB
 90
        0
102
RTVSPost2010PropOp41
 70
     1
102
RTVSPost2010Prop42
 90
       50
102
RTVSPost2010PropOp42
 70
     1
102
RTVSPost2010Prop43
 90
        3
102
RTVSPost2010PropOp43
 70
     1
102
RTVSPost2010Prop44ColorIndex
 90
        5
102
RTVSPost2010Prop44ColorRGB
 90
      255
102
RTVSPost2010PropOp44
 70
     1
102
RTVSPost2010Prop45
280
     0
102
RTVSPost2010PropOp45
 70
     1
102
RTVSPost2010Prop46
 90
       50
102
RTVSPost2010PropOp46
 70
     1
102
RTVSPost2010Prop47
 90
       50
102
RTVSPost2010PropOp47
 70
     1
102
RTVSPost2010Prop48
 90
       50
102
RTVSPost2010PropOp48
 70
     1
102
RTVSPost2010Prop49
280
     0
102
RTVSPost2010PropOp49
 70
     1
102
RTVSPost2010Prop50
 90
       50
102
RTVSPost2010PropOp50
 70
     1
102
RTVSPost2010Prop51ColorIndex
 90
      256
102
RTVSPost2010Prop51ColorRGB
 90
-16777216
102
RTVSPost2010PropOp51
 70
     0
102
RTVSPost2010Prop52
140
1.0
102
RTVSPost2010PropOp52
 70
     0
102
RTVSPost2010Prop53
 90
        2
102
RTVSPost2010PropOp53
 70
     1
102
RTVSPost2010Prop54
  1
strokes_ogs.tif
102
RTVSPost2010PropOp54
 70
     1
102
RTVSPost2010Prop55
280
     0
102
RTVSPost2010PropOp55
 70
     1
102
RTVSPost2010Prop56
140
1.0
102
RTVSPost2010PropOp56
 70
     1
102
RTVSPost2010Prop57
140
1.0
102
RTVSPost2010PropOp57
 70
     1
102
RTVSPropertyOp0
 70
     1
102
RTVSPropertyOp1
 70
     1
102
RTVSPropertyOp2
 70
     1
102
RTVSPropertyOp3
 70
     1
102
RTVSPropertyOp4
 70
     1
102
RTVSPropertyOp5
 70
     1
102
RTVSPropertyOp6
 70
     1
102
RTVSPropertyOp7
 70
     1
102
RTVSPropertyOp8
 70
     1
102
RTVSPropertyOp9
 70
     1
102
RTVSPropertyOp10
 70
     1
102
RTVSPropertyOp11
 70
     1
102
RTVSPropertyOp12
 70
     1
102
RTVSPropertyOp13
 70
     1
102
RTVSPropertyOp14
 70
     1
102
RTVSPropertyOp15
 70
     1
102
RTVSPropertyOp16
 70
     1
102
RTVSPropertyOp17
 70
     1
102
RTVSPropertyOp18
 70
     1
102
RTVSPropertyOp19
 70
     1
102
RTVSPropertyOp20
 70
     1
102
RTVSPropertyOp21
 70
     1
102
RTVSPropertyOp22
 70
     1
102
RTVSPropertyOp23
 70
     1
102
RTVSPropertyOp24
 70
     1
102
RTVSPropertyOp25
 70
     1
102
RTVSPropertyOp26
 70
     1
102
RTVSPropertyOp27
 70
     1
102
RTVSPropertyOp28
 70
     1
102
RTVSPropertyOp29
 70
     1
102
RTVSPropertyOp30
 70
     1
102
RTVSPropertyOp31
 70
     1
102
RTVSPropertyOp32
 70
     1
102
RTVSPropertyOp33
 70
     1
102
RTVSPropertyOp34
 70
     1
102
RTVSPropertyOp35
 70
     1
102
RTVSPropertyOp36
 70
     1
102
RTVSPropertyOp37
 70
     1
102
RTVSPropertyOp38
 70
     1
102
RTVSPropertyOp39
 70
     1
102
RTVSPropertyOp40
 70
     1
102
RTVSPropertyOp41
 70
     1
102
RTVSPropertyOp42
 70
     1
102
RTVSPropertyOp43
 70
     1
102
RTVSPropertyOp44
 70
     1
102
RTVSPropertyOp45
 70
     1
102
RTVSPropertyOp46
 70
     1
102
RTVSPropertyOp47
 70
     1
102
RTVSPropertyOp48
 70
     1
102
RTVSPropertyOp49
 70
     1
102
RTVSPropertyOp50
 70
     1
102
RTVSPropertyOp51
 70
     0
102
RTVSPropertyOp52
 70
     0
102
RTVSPropertyOp53
 70
     1
102
RTVSPropertyOp54
 70
     1
102
RTVSPropertyOp55
 70
     1
102
RTVSPropertyOp56
 70
     1
102
RTVSPropertyOp57
 70
     1
102
RTVSPropertyOp58
 70
     1
102
RTVSPropertyOp59
 70
     1
102
RTVSPropertyOp60
 70
     1
102
RTVSPropertyOp61
 70
     1
102
RTVSPropertyOp62
 70
     1
  0
XRECORD
  5
7EE
102
{ACAD_REACTORS
330
7ED
102
}
330
7ED
100
AcDbXrecord
280
     1
102
RTVSPost2010Prop28
280
     0
102
RTVSPost2010PropOp28
 70
     1
102
RTVSPost2010Prop29
280
     1
102
RTVSPost2010PropOp29
 70
     1
102
RTVSPost2010Prop30
280
     1
102
RTVSPost2010PropOp30
 70
     1
102
RTVSPost2010Prop31
280
     0
102
RTVSPost2010PropOp31
 70
     1
102
RTVSPost2010Prop32
280
     0
102
RTVSPost2010PropOp32
 70
     1
102
RTVSPost2010Prop33
280
     0
102
RTVSPost2010PropOp33
 70
     1
102
RTVSPost2010Prop34
280
     0
102
RTVSPost2010PropOp34
 70
     1
102
RTVSPost2010Prop35
280
     0
102
RTVSPost2010PropOp35
 70
     1
102
RTVSPost2010Prop36
280
     0
102
RTVSPost2010PropOp36
 70
     1
102
RTVSPost2010Prop37
 90
       50
102
RTVSPost2010PropOp37
 70
     1
102
RTVSPost2010Prop38
140
0.0
102
RTVSPost2010PropOp38
 70
     1
102
RTVSPost2010Prop39
140
1.0
102
RTVSPost2010PropOp39
 70
     1
102
RTVSPost2010Prop40
 90
        0
102
RTVSPost2010PropOp40
 70
     1
102
RTVSPost2010Prop41ColorIndex
 90
       18
102
RTVSPost2010Prop41ColorRGB
 90
        0
102
RTVSPost2010PropOp41
 70
     1
102
RTVSPost2010Prop42
 90
       50
102
RTVSPost2010PropOp42
 70
     1
102
RTVSPost2010Prop43
 90
        3
102
RTVSPost2010PropOp43
 70
     1
102
RTVSPost2010Prop44ColorIndex
 90
        5
102
RTVSPost2010Prop44ColorRGB
 90
      255
102
RTVSPost2010PropOp44
 70
     1
102
RTVSPost2010Prop45
280
     0
102
RTVSPost2010PropOp45
 70
     1
102
RTVSPost2010Prop46
 90
       50
102
RTVSPost2010PropOp46
 70
     1
102
RTVSPost2010Prop47
 90
       50
102
RTVSPost2010PropOp47
 70
     1
102
RTVSPost2010Prop48
 90
       50
102
RTVSPost2010PropOp48
 70
     1
102
RTVSPost2010Prop49
280
     0
102
RTVSPost2010PropOp49
 70
     1
102
RTVSPost2010Prop50
 90
       50
102
RTVSPost2010PropOp50
 70
     1
102
RTVSPost2010Prop51ColorIndex
 90
      256
102
RTVSPost2010Prop51ColorRGB
 90
-16777216
102
RTVSPost2010PropOp51
 70
     0
102
RTVSPost2010Prop52
140
1.0
102
RTVSPost2010PropOp52
 70
     0
102
RTVSPost2010Prop53
 90
        2
102
RTVSPost2010PropOp53
 70
     1
102
RTVSPost2010Prop54
  1
strokes_ogs.tif
102
RTVSPost2010PropOp54
 70
     1
102
RTVSPost2010Prop55
280
     0
102
RTVSPost2010PropOp55
 70
     1
102
RTVSPost2010Prop56
140
1.0
102
RTVSPost2010PropOp56
 70
     1
102
RTVSPost2010Prop57
140
1.0
102
RTVSPost2010PropOp57
 70
     1
102
RTVSPropertyOp0
 70
     1
102
RTVSPropertyOp1
 70
     1
102
RTVSPropertyOp2
 70
     1
102
RTVSPropertyOp3
 70
     1
102
RTVSPropertyOp4
 70
     1
102
RTVSPropertyOp5
 70
     1
102
RTVSPropertyOp6
 70
     1
102
RTVSPropertyOp7
 70
     1
102
RTVSPropertyOp8
 70
     1
102
RTVSPropertyOp9
 70
     1
102
RTVSPropertyOp10
 70
     1
102
RTVSPropertyOp11
 70
     1
102
RTVSPropertyOp12
 70
     1
102
RTVSPropertyOp13
 70
     1
102
RTVSPropertyOp14
 70
     1
102
RTVSPropertyOp15
 70
     1
102
RTVSPropertyOp16
 70
     1
102
RTVSPropertyOp17
 70
     1
102
RTVSPropertyOp18
 70
     1
102
RTVSPropertyOp19
 70
     1
102
RTVSPropertyOp20
 70
     1
102
RTVSPropertyOp21
 70
     1
102
RTVSPropertyOp22
 70
     1
102
RTVSPropertyOp23
 70
     1
102
RTVSPropertyOp24
 70
     1
102
RTVSPropertyOp25
 70
     1
102
RTVSPropertyOp26
 70
     1
102
RTVSPropertyOp27
 70
     1
102
RTVSPropertyOp28
 70
     1
102
RTVSPropertyOp29
 70
     1
102
RTVSPropertyOp30
 70
     1
102
RTVSPropertyOp31
 70
     1
102
RTVSPropertyOp32
 70
     1
102
RTVSPropertyOp33
 70
     1
102
RTVSPropertyOp34
 70
     1
102
RTVSPropertyOp35
 70
     1
102
RTVSPropertyOp36
 70
     1
102
RTVSPropertyOp37
 70
     1
102
RTVSPropertyOp38
 70
     1
102
RTVSPropertyOp39
 70
     1
102
RTVSPropertyOp40
 70
     1
102
RTVSPropertyOp41
 70
     1
102
RTVSPropertyOp42
 70
     1
102
RTVSPropertyOp43
 70
     1
102
RTVSPropertyOp44
 70
     1
102
RTVSPropertyOp45
 70
     1
102
RTVSPropertyOp46
 70
     1
102
RTVSPropertyOp47
 70
     1
102
RTVSPropertyOp48
 70
     1
102
RTVSPropertyOp49
 70
     1
102
RTVSPropertyOp50
 70
     1
102
RTVSPropertyOp51
 70
     0
102
RTVSPropertyOp52
 70
     0
102
RTVSPropertyOp53
 70
     1
102
RTVSPropertyOp54
 70
     1
102
RTVSPropertyOp55
 70
     1
102
RTVSPropertyOp56
 70
     1
102
RTVSPropertyOp57
 70
     1
102
RTVSPropertyOp58
 70
     1
102
RTVSPropertyOp59
 70
     1
102
RTVSPropertyOp60
 70
     1
102
RTVSPropertyOp61
 70
     1
102
RTVSPropertyOp62
 70
     1
  0
XRECORD
  5
806
102
{ACAD_REACTORS
330
805
102
}
330
805
100
AcDbXrecord
280
     1
102
RTVSPost2010Prop28
280
     0
102
RTVSPost2010PropOp28
 70
     1
102
RTVSPost2010Prop29
280
     1
102
RTVSPost2010PropOp29
 70
     1
102
RTVSPost2010Prop30
280
     1
102
RTVSPost2010PropOp30
 70
     1
102
RTVSPost2010Prop31
280
     0
102
RTVSPost2010PropOp31
 70
     1
102
RTVSPost2010Prop32
280
     0
102
RTVSPost2010PropOp32
 70
     1
102
RTVSPost2010Prop33
280
     0
102
RTVSPost2010PropOp33
 70
     1
102
RTVSPost2010Prop34
280
     0
102
RTVSPost2010PropOp34
 70
     1
102
RTVSPost2010Prop35
280
     0
102
RTVSPost2010PropOp35
 70
     1
102
RTVSPost2010Prop36
280
     0
102
RTVSPost2010PropOp36
 70
     1
102
RTVSPost2010Prop37
 90
       50
102
RTVSPost2010PropOp37
 70
     1
102
RTVSPost2010Prop38
140
0.0
102
RTVSPost2010PropOp38
 70
     1
102
RTVSPost2010Prop39
140
1.0
102
RTVSPost2010PropOp39
 70
     1
102
RTVSPost2010Prop40
 90
        0
102
RTVSPost2010PropOp40
 70
     1
102
RTVSPost2010Prop41ColorIndex
 90
       18
102
RTVSPost2010Prop41ColorRGB
 90
        0
102
RTVSPost2010PropOp41
 70
     1
102
RTVSPost2010Prop42
 90
       50
102
RTVSPost2010PropOp42
 70
     1
102
RTVSPost2010Prop43
 90
        3
102
RTVSPost2010PropOp43
 70
     1
102
RTVSPost2010Prop44ColorIndex
 90
        5
102
RTVSPost2010Prop44ColorRGB
 90
      255
102
RTVSPost2010PropOp44
 70
     1
102
RTVSPost2010Prop45
280
     0
102
RTVSPost2010PropOp45
 70
     1
102
RTVSPost2010Prop46
 90
       50
102
RTVSPost2010PropOp46
 70
     1
102
RTVSPost2010Prop47
 90
       50
102
RTVSPost2010PropOp47
 70
     1
102
RTVSPost2010Prop48
 90
       50
102
RTVSPost2010PropOp48
 70
     1
102
RTVSPost2010Prop49
280
     0
102
RTVSPost2010PropOp49
 70
     1
102
RTVSPost2010Prop50
 90
       50
102
RTVSPost2010PropOp50
 70
     1
102
RTVSPost2010Prop51ColorIndex
 90
      256
102
RTVSPost2010Prop51ColorRGB
 90
-16777216
102
RTVSPost2010PropOp51
 70
     0
102
RTVSPost2010Prop52
140
1.0
102
RTVSPost2010PropOp52
 70
     0
102
RTVSPost2010Prop53
 90
        2
102
RTVSPost2010PropOp53
 70
     1
102
RTVSPost2010Prop54
  1
strokes_ogs.tif
102
RTVSPost2010PropOp54
 70
     1
102
RTVSPost2010Prop55
280
     0
102
RTVSPost2010PropOp55
 70
     1
102
RTVSPost2010Prop56
140
1.0
102
RTVSPost2010PropOp56
 70
     1
102
RTVSPost2010Prop57
140
1.0
102
RTVSPost2010PropOp57
 70
     1
102
RTVSPropertyOp0
 70
     1
102
RTVSPropertyOp1
 70
     1
102
RTVSPropertyOp2
 70
     1
102
RTVSPropertyOp3
 70
     1
102
RTVSPropertyOp4
 70
     1
102
RTVSPropertyOp5
 70
     1
102
RTVSPropertyOp6
 70
     1
102
RTVSPropertyOp7
 70
     1
102
RTVSPropertyOp8
 70
     1
102
RTVSPropertyOp9
 70
     1
102
RTVSPropertyOp10
 70
     1
102
RTVSPropertyOp11
 70
     1
102
RTVSPropertyOp12
 70
     1
102
RTVSPropertyOp13
 70
     1
102
RTVSPropertyOp14
 70
     1
102
RTVSPropertyOp15
 70
     1
102
RTVSPropertyOp16
 70
     1
102
RTVSPropertyOp17
 70
     1
102
RTVSPropertyOp18
 70
     1
102
RTVSPropertyOp19
 70
     1
102
RTVSPropertyOp20
 70
     1
102
RTVSPropertyOp21
 70
     1
102
RTVSPropertyOp22
 70
     1
102
RTVSPropertyOp23
 70
     1
102
RTVSPropertyOp24
 70
     1
102
RTVSPropertyOp25
 70
     1
102
RTVSPropertyOp26
 70
     1
102
RTVSPropertyOp27
 70
     1
102
RTVSPropertyOp28
 70
     1
102
RTVSPropertyOp29
 70
     1
102
RTVSPropertyOp30
 70
     1
102
RTVSPropertyOp31
 70
     1
102
RTVSPropertyOp32
 70
     1
102
RTVSPropertyOp33
 70
     1
102
RTVSPropertyOp34
 70
     1
102
RTVSPropertyOp35
 70
     1
102
RTVSPropertyOp36
 70
     1
102
RTVSPropertyOp37
 70
     1
102
RTVSPropertyOp38
 70
     1
102
RTVSPropertyOp39
 70
     1
102
RTVSPropertyOp40
 70
     1
102
RTVSPropertyOp41
 70
     1
102
RTVSPropertyOp42
 70
     1
102
RTVSPropertyOp43
 70
     1
102
RTVSPropertyOp44
 70
     1
102
RTVSPropertyOp45
 70
     1
102
RTVSPropertyOp46
 70
     1
102
RTVSPropertyOp47
 70
     1
102
RTVSPropertyOp48
 70
     1
102
RTVSPropertyOp49
 70
     1
102
RTVSPropertyOp50
 70
     1
102
RTVSPropertyOp51
 70
     0
102
RTVSPropertyOp52
 70
     0
102
RTVSPropertyOp53
 70
     1
102
RTVSPropertyOp54
 70
     1
102
RTVSPropertyOp55
 70
     1
102
RTVSPropertyOp56
 70
     1
102
RTVSPropertyOp57
 70
     1
102
RTVSPropertyOp58
 70
     1
102
RTVSPropertyOp59
 70
     1
102
RTVSPropertyOp60
 70
     1
102
RTVSPropertyOp61
 70
     1
102
RTVSPropertyOp62
 70
     1
  0
ENDSEC
  0
EOF
