  0
SECTION
  2
HEADER
  9
$ACADVER
  1
AC1015
  9
$ACADMAINTVER
 70
    20
  9
$DWGCODEPAGE
  3
ANSI_932
  9
$INSBASE
 10
0.0
 20
0.0
 30
0.0
  9
$EXTMIN
 10
-233.0347989672723
 20
-82.0506494435151
 30
-0.0015258207003583
  9
$EXTMAX
 10
907.742091595966
 20
796.5152489112843
 30
0.0000000349246037
  9
$LIMMIN
 10
0.0
 20
0.0
  9
$LIMMAX
 10
12.0
 20
9.0
  9
$ORTHOMODE
 70
     0
  9
$REGENMODE
 70
     1
  9
$FILLMODE
 70
     1
  9
$QTEXTMODE
 70
     0
  9
$MIRRTEXT
 70
     1
  9
$LTSCALE
 40
1.0
  9
$ATTMODE
 70
     1
  9
$TEXTSIZE
 40
0.2
  9
$TRACEWID
 40
0.05
  9
$TEXTSTYLE
  7
Standard
  9
$CLAYER
  8
0
  9
$CELTYPE
  6
ByBlock
  9
$CECOLOR
 62
   256
  9
$CELTSCALE
 40
1.0
  9
$DISPSILH
 70
     0
  9
$DIMSCALE
 40
1.0
  9
$DIMASZ
 40
0.18
  9
$DIMEXO
 40
0.0625
  9
$DIMDLI
 40
0.38
  9
$DIMRND
 40
0.0
  9
$DIMDLE
 40
0.0
  9
$DIMEXE
 40
0.18
  9
$DIMTP
 40
0.0
  9
$DIMTM
 40
0.0
  9
$DIMTXT
 40
0.18
  9
$DIMCEN
 40
0.09
  9
$DIMTSZ
 40
0.0
  9
$DIMTOL
 70
     0
  9
$DIMLIM
 70
     0
  9
$DIMTIH
 70
     1
  9
$DIMTOH
 70
     1
  9
$DIMSE1
 70
     0
  9
$DIMSE2
 70
     0
  9
$DIMTAD
 70
     0
  9
$DIMZIN
 70
     0
  9
$DIMBLK
  1

  9
$DIMASO
 70
     1
  9
$DIMSHO
 70
     1
  9
$DIMPOST
  1

  9
$DIMAPOST
  1

  9
$DIMALT
 70
     0
  9
$DIMALTD
 70
     2
  9
$DIMALTF
 40
25.4
  9
$DIMLFAC
 40
1.0
  9
$DIMTOFL
 70
     0
  9
$DIMTVP
 40
0.0
  9
$DIMTIX
 70
     0
  9
$DIMSOXD
 70
     0
  9
$DIMSAH
 70
     0
  9
$DIMBLK1
  1

  9
$DIMBLK2
  1

  9
$DIMSTYLE
  2
Standard
  9
$DIMCLRD
 70
     0
  9
$DIMCLRE
 70
     0
  9
$DIMCLRT
 70
     0
  9
$DIMTFAC
 40
1.0
  9
$DIMGAP
 40
0.09
  9
$DIMJUST
 70
     0
  9
$DIMSD1
 70
     0
  9
$DIMSD2
 70
     0
  9
$DIMTOLJ
 70
     1
  9
$DIMTZIN
 70
     0
  9
$DIMALTZ
 70
     0
  9
$DIMALTTZ
 70
     0
  9
$DIMUPT
 70
     0
  9
$DIMDEC
 70
     4
  9
$DIMTDEC
 70
     4
  9
$DIMALTU
 70
     2
  9
$DIMALTTD
 70
     2
  9
$DIMTXSTY
  7
Standard
  9
$DIMAUNIT
 70
     0
  9
$DIMADEC
 70
     0
  9
$DIMALTRND
 40
0.0
  9
$DIMAZIN
 70
     0
  9
$DIMDSEP
 70
    46
  9
$DIMATFIT
 70
     3
  9
$DIMFRAC
 70
     0
  9
$DIMLDRBLK
  1

  9
$DIMLUNIT
 70
     2
  9
$DIMLWD
 70
    -2
  9
$DIMLWE
 70
    -2
  9
$DIMTMOVE
 70
     0
  9
$LUNITS
 70
     2
  9
$LUPREC
 70
     4
  9
$SKETCHINC
 40
0.1
  9
$FILLETRAD
 40
0.5
  9
$AUNITS
 70
     0
  9
$AUPREC
 70
     0
  9
$MENU
  1
.
  9
$ELEVATION
 40
0.0
  9
$PELEVATION
 40
0.0
  9
$THICKNESS
 40
0.0
  9
$LIMCHECK
 70
     0
  9
$CHAMFERA
 40
0.5
  9
$CHAMFERB
 40
0.5
  9
$CHAMFERC
 40
1.0
  9
$CHAMFERD
 40
0.0
  9
$SKPOLY
 70
     0
  9
$TDCREATE
 40
2457130.930855382
  9
$TDUCREATE
 40
2457130.555855382
  9
$TDUPDATE
 40
2457354.680348195
  9
$TDUUPDATE
 40
2457354.305348195
  9
$TDINDWG
 40
0.0011384606
  9
$TDUSRTIMER
 40
0.0011384606
  9
$USRTIMER
 70
     1
  9
$ANGBASE
 50
0.0
  9
$ANGDIR
 70
     0
  9
$PDMODE
 70
     0
  9
$PDSIZE
 40
0.0
  9
$PLINEWID
 40
0.0
  9
$SPLFRAME
 70
     0
  9
$SPLINETYPE
 70
     6
  9
$SPLINESEGS
 70
     8
  9
$HANDSEED
  5
7EC
  9
$SURFTAB1
 70
     6
  9
$SURFTAB2
 70
     6
  9
$SURFTYPE
 70
     6
  9
$SURFU
 70
     6
  9
$SURFV
 70
     6
  9
$UCSBASE
  2

  9
$UCSNAME
  2

  9
$UCSORG
 10
0.0
 20
0.0
 30
0.0
  9
$UCSXDIR
 10
1.0
 20
0.0
 30
0.0
  9
$UCSYDIR
 10
0.0
 20
1.0
 30
0.0
  9
$UCSORTHOREF
  2

  9
$UCSORTHOVIEW
 70
     0
  9
$UCSORGTOP
 10
0.0
 20
0.0
 30
0.0
  9
$UCSORGBOTTOM
 10
0.0
 20
0.0
 30
0.0
  9
$UCSORGLEFT
 10
0.0
 20
0.0
 30
0.0
  9
$UCSORGRIGHT
 10
0.0
 20
0.0
 30
0.0
  9
$UCSORGFRONT
 10
0.0
 20
0.0
 30
0.0
  9
$UCSORGBACK
 10
0.0
 20
0.0
 30
0.0
  9
$PUCSBASE
  2

  9
$PUCSNAME
  2

  9
$PUCSORG
 10
0.0
 20
0.0
 30
0.0
  9
$PUCSXDIR
 10
1.0
 20
0.0
 30
0.0
  9
$PUCSYDIR
 10
0.0
 20
1.0
 30
0.0
  9
$PUCSORTHOREF
  2

  9
$PUCSORTHOVIEW
 70
     0
  9
$PUCSORGTOP
 10
0.0
 20
0.0
 30
0.0
  9
$PUCSORGBOTTOM
 10
0.0
 20
0.0
 30
0.0
  9
$PUCSORGLEFT
 10
0.0
 20
0.0
 30
0.0
  9
$PUCSORGRIGHT
 10
0.0
 20
0.0
 30
0.0
  9
$PUCSORGFRONT
 10
0.0
 20
0.0
 30
0.0
  9
$PUCSORGBACK
 10
0.0
 20
0.0
 30
0.0
  9
$USERI1
 70
     0
  9
$USERI2
 70
     0
  9
$USERI3
 70
     0
  9
$USERI4
 70
     0
  9
$USERI5
 70
     0
  9
$USERR1
 40
0.0
  9
$USERR2
 40
0.0
  9
$USERR3
 40
0.0
  9
$USERR4
 40
0.0
  9
$USERR5
 40
0.0
  9
$WORLDVIEW
 70
     1
  9
$SHADEDGE
 70
     3
  9
$SHADEDIF
 70
    70
  9
$TILEMODE
 70
     1
  9
$MAXACTVP
 70
    64
  9
$PINSBASE
 10
0.0
 20
0.0
 30
0.0
  9
$PLIMCHECK
 70
     0
  9
$PEXTMIN
 10
1.000000000000000E+20
 20
1.000000000000000E+20
 30
1.000000000000000E+20
  9
$PEXTMAX
 10
-1.000000000000000E+20
 20
-1.000000000000000E+20
 30
-1.000000000000000E+20
  9
$PLIMMIN
 10
0.0
 20
0.0
  9
$PLIMMAX
 10
12.0
 20
9.0
  9
$UNITMODE
 70
     0
  9
$VISRETAIN
 70
     1
  9
$PLINEGEN
 70
     0
  9
$PSLTSCALE
 70
     1
  9
$TREEDEPTH
 70
  3020
  9
$CMLSTYLE
  2
Standard
  9
$CMLJUST
 70
     0
  9
$CMLSCALE
 40
1.0
  9
$PROXYGRAPHICS
 70
     1
  9
$MEASUREMENT
 70
     0
  9
$CELWEIGHT
370
    -1
  9
$ENDCAPS
280
     0
  9
$JOINSTYLE
280
     0
  9
$LWDISPLAY
290
     0
  9
$INSUNITS
 70
     0
  9
$HYPERLINKBASE
  1

  9
$STYLESHEET
  1

  9
$XEDIT
290
     1
  9
$CEPSNTYPE
380
     0
  9
$PSTYLEMODE
290
     1
  9
$FINGERPRINTGUID
  2
{F0F8B021-E29B-4080-B0E2-0AB395B31406}
  9
$VERSIONGUID
  2
{7FE426BC-8157-4C80-B816-43DC446DFFB6}
  9
$EXTNAMES
290
     1
  9
$PSVPSCALE
 40
0.0
  9
$OLESTARTUP
290
     0
  0
ENDSEC
  0
SECTION
  2
CLASSES
  0
CLASS
  1
ACDBDICTIONARYWDFLT
  2
AcDbDictionaryWithDefault
  3
ObjectDBX Classes
 90
        0
280
     0
281
     0
  0
CLASS
  1
MATERIAL
  2
AcDbMaterial
  3
ObjectDBX Classes
 90
     1153
280
     0
281
     0
  0
CLASS
  1
VISUALSTYLE
  2
AcDbVisualStyle
  3
ObjectDBX Classes
 90
     4095
280
     0
281
     0
  0
CLASS
  1
TABLESTYLE
  2
AcDbTableStyle
  3
ObjectDBX Classes
 90
     4095
280
     0
281
     0
  0
CLASS
  1
SCALE
  2
AcDbScale
  3
ObjectDBX Classes
 90
     1153
280
     0
281
     0
  0
CLASS
  1
MLEADERSTYLE
  2
AcDbMLeaderStyle
  3
ACDB_MLEADERSTYLE_CLASS
 90
     4095
280
     0
281
     0
  0
CLASS
  1
ACDBSECTIONVIEWSTYLE
  2
AcDbSectionViewStyle
  3
ObjectDBX Classes
 90
     1025
280
     0
281
     0
  0
CLASS
  1
ACDBDETAILVIEWSTYLE
  2
AcDbDetailViewStyle
  3
ObjectDBX Classes
 90
     1025
280
     0
281
     0
  0
CLASS
  1
ACME_DOCUMENT
  2
AcMeDbDoc
  3
AcMeServices
 90
     1024
280
     0
281
     0
  0
CLASS
  1
AMGSETTINGSOBJ
  2
AmgSettingsObj
  3
"AcadM|Product Description: AutoCAD Mechanical|Company: Autodesk, Inc."
 90
     1024
280
     0
281
     0
  0
CLASS
  1
ACMESCOPE
  2
AcMeScope
  3
AcMeServices
 90
     1024
280
     0
281
     0
  0
CLASS
  1
ACMECOMMANDHISTORY
  2
AcMeCommandHistory
  3
AcMeServices
 90
     1024
280
     0
281
     0
  0
CLASS
  1
ACIMSYSVARMAN
  2
AcImSysVarManager
  3
AcMeServices
 90
     1024
280
     0
281
     0
  0
CLASS
  1
ACIMINTSYSVAR
  2
AcImIntSysVar
  3
AcMeServices
 90
     1024
280
     0
281
     0
  0
CLASS
  1
ACMESTATEMGR
  2
AcMeStateMgr
  3
AcMeServices
 90
     1024
280
     0
281
     0
  0
CLASS
  1
ACDBENTITYCACHE
  2
AcMeEntityCache
  3
AcMeServices
 90
     1024
280
     0
281
     0
  0
CLASS
  1
ACGREFMASTER
  2
AcGrefMaster
  3
AcAttribServices
 90
     1024
280
     0
281
     0
  0
CLASS
  1
ACME_DATABASE
  2
AcMeDbDatabase
  3
AcMeServices
 90
     1024
280
     0
281
     0
  0
CLASS
  1
ACRFINSADJUSTERMGR
  2
AcRfInsAdjusterMgr
  3
AcMeServices
 90
     1024
280
     0
281
     0
  0
CLASS
  1
ACGREFACADMASTER
  2
AcGrefacadMaster
  3
AcGrefServices
 90
     1024
280
     0
281
     0
  0
CLASS
  1
AMDTMENUSTATEMGR
  2
AmdtMenuStateMgr
  3
McadcomServices
 90
     1024
280
     0
281
     0
  0
CLASS
  1
AMDTMCOMMENUSTATE
  2
AmdtMcomMenuState
  3
McadcomServices
 90
     1024
280
     0
281
     0
  0
CLASS
  1
AMIMASTER
  2
AmiMaster
  3
AmiServices
 90
     1024
280
     0
281
     0
  0
CLASS
  1
MAPIAMMOUDLE
  2
MApiAmModule
  3
MApiAmServices
 90
     1024
280
     0
281
     0
  0
CLASS
  1
ACIMSTRSYSVAR
  2
AcImStrSysVar
  3
AcMeServices
 90
     1024
280
     0
281
     0
  0
CLASS
  1
AMDTAMMENUSTATE
  2
AmdtAmMenuState
  3
DesignerAssemblies
 90
     1024
280
     0
281
     0
  0
CLASS
  1
ACAMPROJECT
  2
AcAmProject
  3
DesignerAssemblies
 90
     1024
280
     0
281
     0
  0
CLASS
  1
ACAMGRCOMPDEF
  2
AcAmGrCompDef
  3
DesignerAssemblies
 90
     1024
280
     0
281
     0
  0
CLASS
  1
ACAMCOMPDEF
  2
AcAmCompDef
  3
DesignerAssemblies
 90
     1024
280
     0
281
     0
  0
CLASS
  1
ACAMCOMPDEFMGR
  2
AcAmCompDefMgr
  3
DesignerAssemblies
 90
     1024
280
     0
281
     0
  0
CLASS
  1
AMCONTEXTMGR
  2
AcAmContextMgr
  3
DesignerAssemblies
 90
     1024
280
     0
281
     0
  0
CLASS
  1
ACAMCONTEXTMODELER
  2
AcAmContextModeler
  3
DesignerAssemblies
 90
     1024
280
     0
281
     0
  0
CLASS
  1
ACMDATADICTIONARY
  2
AcmDataDictionary
  3
"AcmSymBB|Product Description: AutoCAD Mechanical|Company: Autodesk, Inc."
 90
     1024
280
     0
281
     0
  0
CLASS
  1
ACAMGRCOMPDEFSET
  2
AcAmGrCompDefSet
  3
DesignerAssemblies
 90
     1024
280
     0
281
     0
  0
CLASS
  1
AMDTBROWSERDBTAB
  2
AmdtBrowserDbTab
  3
McadcomServices
 90
     1024
280
     0
281
     0
  0
CLASS
  1
CBROWSERAPPOBJECT
  2
CBrowserAppObject
  3
McadcomServices
 90
     1024
280
     0
281
     0
  0
CLASS
  1
DM_PLACEHOLDER
  2
AcDmSelsetPlaceholder
  3
McadcomServices
 90
     1024
280
     0
281
     0
  0
CLASS
  1
ACMSTANDARDANSI
  2
AcmStandardANSI
  3
"Amdt_StdImp|Product Description: AutoCAD Mechanical|Company: Autodesk, Inc."
 90
     1024
280
     0
281
     0
  0
CLASS
  1
ACMSURFSTANDARDANSI
  2
AcmSurfTextStdANSI
  3
"Amdt_StdImp|Product Description: AutoCAD Mechanical|Company: Autodesk, Inc."
 90
     1024
280
     0
281
     0
  0
CLASS
  1
ACMFCFSTANDARDANSI
  2
AcmFCFStdANSI
  3
"Amdt_StdImp|Product Description: AutoCAD Mechanical|Company: Autodesk, Inc."
 90
     1024
280
     0
281
     0
  0
CLASS
  1
ACMWELDSTANDARDANSI
  2
AcmWeldingStdANSI
  3
"Amdt_StdImp|Product Description: AutoCAD Mechanical|Company: Autodesk, Inc."
 90
     1024
280
     0
281
     0
  0
CLASS
  1
ACMIDSTANDARDANSI
  2
AcmIdStdANSI
  3
"Amdt_StdImp|Product Description: AutoCAD Mechanical|Company: Autodesk, Inc."
 90
     1024
280
     0
281
     0
  0
CLASS
  1
ACMDATUMSTANDARDANSI
  2
AcmDatumStdANSI
  3
"Amdt_StdImp|Product Description: AutoCAD Mechanical|Company: Autodesk, Inc."
 90
     1024
280
     0
281
     0
  0
CLASS
  1
ACMBOMSTANDARDANSI
  2
AcmBOMStdANSI
  3
"Amdt_StdImp|Product Description: AutoCAD Mechanical|Company: Autodesk, Inc."
 90
     1024
280
     0
281
     0
  0
CLASS
  1
ACMDETAILSTANDARDANSI
  2
AmdtDetailSymStdANSI
  3
"Amdt_StdImp|Product Description: AutoCAD Mechanical|Company: Autodesk, Inc."
 90
     1024
280
     0
281
     0
  0
CLASS
  1
ACMSECTIONSTANDARDANSI
  2
AmdtSectionSymStdANSI
  3
"Amdt_StdImp|Product Description: AutoCAD Mechanical|Company: Autodesk, Inc."
 90
     1024
280
     0
281
     0
  0
CLASS
  1
ACMCENTERLINESTANDARDANSI
  2
AmdtCenterLineStdANSI
  3
"Amdt_StdImp|Product Description: AutoCAD Mechanical|Company: Autodesk, Inc."
 90
     1024
280
     0
281
     0
  0
CLASS
  1
ACMTHREADLINESTANDARDANSI
  2
AmdtThreadLineStdANSI
  3
"Amdt_StdImp|Product Description: AutoCAD Mechanical|Company: Autodesk, Inc."
 90
     1024
280
     0
281
     0
  0
CLASS
  1
ACMNOTESTANDARDANSI
  2
AmdtNoteStdANSI
  3
"Amdt_StdImp|Product Description: AutoCAD Mechanical|Company: Autodesk, Inc."
 90
     1024
280
     0
281
     0
  0
CLASS
  1
ACMTAPERSTANDARDANSI
  2
AcmTaperStdANSI
  3
"Amdt_StdImp|Product Description: AutoCAD Mechanical|Company: Autodesk, Inc."
 90
     1024
280
     0
281
     0
  0
CLASS
  1
ACMANOOTATIONVIEWSTANDARDANSI
  2
AmdtAnViewStdANSI
  3
"Amdt_StdImp|Product Description: AutoCAD Mechanical|Company: Autodesk, Inc."
 90
     1024
280
     0
281
     0
  0
CLASS
  1
ACAMGLAYSTD
  2
AcAmgLayStd
  3
"AmgLay|Product Description: AutoCAD Mechanical|Company: Autodesk, Inc."
 90
     1024
280
     0
281
     0
  0
CLASS
  1
ACAMGDIMSTD
  2
AcAmgDimStd
  3
"AmgDim|Product Description: AutoCAD Mechanical|Company: Autodesk, Inc."
 90
     1024
280
     0
281
     0
  0
CLASS
  1
AMGOBJPROPCFG
  2
AmgObjPropCfg
  3
"AmgLay|Product Description: AutoCAD Mechanical|Company: Autodesk, Inc."
 90
     1024
280
     0
281
     0
  0
CLASS
  1
ACAMGHOLECHARTSTDANSI
  2
AcAmgHoleChartStdANSI
  3
AmgDim|Product Description: AutoCAD Mechanical|Company: Autodesk, Inc.
 90
     1024
280
     0
281
     0
  0
CLASS
  1
ACAMGTITLESTD
  2
AcAmgTitleStd
  3
"AmgTitle|Product Description: AutoCAD Mechanical|Company: Autodesk, Inc."
 90
     1024
280
     0
281
     0
  0
CLASS
  1
AMDTNOTETEMPLATEDB
  2
AmdtNoteTemplateDB
  3
AcmSymBB|Product Description: AutoCAD Mechanical|Company: Autodesk, Inc.
 90
     1024
280
     0
281
     0
  0
CLASS
  1
ACAMGFILTERDAT
  2
AcAmgFilterDat
  3
"AcadM|Product Description: AutoCAD Mechanical|Company: Autodesk, Inc."
 90
     1024
280
     0
281
     0
  0
CLASS
  1
SORTENTSTABLE
  2
AcDbSortentsTable
  3
ObjectDBX Classes
 90
        0
280
     0
281
     0
  0
CLASS
  1
CELLSTYLEMAP
  2
AcDbCellStyleMap
  3
ObjectDBX Classes
 90
     1152
280
     0
281
     0
  0
CLASS
  1
DICTIONARYVAR
  2
AcDbDictionaryVar
  3
ObjectDBX Classes
 90
        0
280
     0
281
     0
  0
CLASS
  1
ACDBPLACEHOLDER
  2
AcDbPlaceHolder
  3
ObjectDBX Classes
 90
        0
280
     0
281
     0
  0
CLASS
  1
LAYOUT
  2
AcDbLayout
  3
ObjectDBX Classes
 90
        0
280
     0
281
     0
  0
ENDSEC
  0
SECTION
  2
TABLES
  0
TABLE
  2
VPORT
  5
8
330
0
100
AcDbSymbolTable
 70
     1
  0
VPORT
  5
249
330
8
100
AcDbSymbolTableRecord
100
AcDbViewportTableRecord
  2
*Active
 70
     0
 10
0.0
 20
0.0
 11
1.0
 21
1.0
 12
300.706777896236
 22
350.6905707300117
 13
0.0
 23
0.0
 14
0.5
 24
0.5
 15
0.5
 25
0.5
 16
0.0
 26
0.0
 36
1.0
 17
0.0
 27
0.0
 37
0.0
 40
1414.482052408017
 41
1.681623931623931
 42
50.0
 43
0.0
 44
0.0
 50
0.0
 51
0.0
 71
     0
 72
   100
 73
     1
 74
     3
 75
     0
 76
     0
 77
     0
 78
     0
281
     0
 65
     1
110
0.0
120
0.0
130
0.0
111
1.0
121
0.0
131
0.0
112
0.0
122
1.0
132
0.0
 79
     0
146
0.0
1001
ACAD_NAV_VCDISPLAY
1070
     3
  0
ENDTAB
  0
TABLE
  2
LTYPE
  5
5
330
0
100
AcDbSymbolTable
 70
     8
  0
LTYPE
  5
14
330
5
100
AcDbSymbolTableRecord
100
AcDbLinetypeTableRecord
  2
ByBlock
 70
     0
  3

 72
    65
 73
     0
 40
0.0
  0
LTYPE
  5
15
330
5
100
AcDbSymbolTableRecord
100
AcDbLinetypeTableRecord
  2
ByLayer
 70
     0
  3

 72
    65
 73
     0
 40
0.0
  0
LTYPE
  5
16
330
5
100
AcDbSymbolTableRecord
100
AcDbLinetypeTableRecord
  2
Continuous
 70
     0
  3
Solid line
 72
    65
 73
     0
 40
0.0
  0
LTYPE
  5
299
330
5
100
AcDbSymbolTableRecord
100
AcDbLinetypeTableRecord
  2
PHANTOM2
 70
     0
  3
Phantom (.5x) ___ _ _ ___ _ _ ___ _ _ ___ _ _
 72
    65
 73
     6
 40
1.25
 49
0.625
 74
     0
 49
-0.125
 74
     0
 49
0.125
 74
     0
 49
-0.125
 74
     0
 49
0.125
 74
     0
 49
-0.125
 74
     0
  0
LTYPE
  5
2AE
330
5
100
AcDbSymbolTableRecord
100
AcDbLinetypeTableRecord
  2
HIDDEN
 70
     0
  3
Hidden __ __ __ __ __ __ __ __ __ __ __ __ __ _
 72
    65
 73
     2
 40
0.375
 49
0.25
 74
     0
 49
-0.125
 74
     0
  0
LTYPE
  5
2AF
330
5
100
AcDbSymbolTableRecord
100
AcDbLinetypeTableRecord
  2
CENTER
 70
     0
  3
Center ____ _ ____ _ ____ _ ____ _ ____ _ ____
 72
    65
 73
     4
 40
2.0
 49
1.25
 74
     0
 49
-0.25
 74
     0
 49
0.25
 74
     0
 49
-0.25
 74
     0
  0
LTYPE
  5
2E9
330
5
100
AcDbSymbolTableRecord
100
AcDbLinetypeTableRecord
  2
CENTER2
 70
     0
  3
Center (.5x) ___ _ ___ _ ___ _ ___ _ ___ _ ___
 72
    65
 73
     4
 40
1.125
 49
0.75
 74
     0
 49
-0.125
 74
     0
 49
0.125
 74
     0
 49
-0.125
 74
     0
  0
LTYPE
  5
2EA
330
5
100
AcDbSymbolTableRecord
100
AcDbLinetypeTableRecord
  2
HIDDEN2
 70
     0
  3
Hidden (.5x) _ _ _ _ _ _ _ _ _ _ _ _ _ _ _ _ _
 72
    65
 73
     2
 40
0.1875
 49
0.125
 74
     0
 49
-0.0625
 74
     0
  0
LTYPE
  5
2F8
330
5
100
AcDbSymbolTableRecord
100
AcDbLinetypeTableRecord
  2
ACANSTGB
 70
     0
  3
__ . . __ . .
 72
    65
 73
     6
 40
0.35433070866
 49
0.15748031496
 74
     0
 49
-0.03937007874
 74
     0
 49
0.03937007874
 74
     0
 49
-0.03937007874
 74
     0
 49
0.03937007874
 74
     0
 49
-0.03937007874
 74
     0
  0
LTYPE
  5
2F9
330
5
100
AcDbSymbolTableRecord
100
AcDbLinetypeTableRecord
  2
ACANSTGL
 70
     0
  3
_ _ _ _ _
 72
    65
 73
     2
 40
0.11811023622
 49
0.07874015748
 74
     0
 49
-0.03937007874
 74
     0
  0
ENDTAB
  0
TABLE
  2
LAYER
  5
2
330
0
100
AcDbSymbolTable
 70
     2
  0
LAYER
  5
10
102
{ACAD_XDICTIONARY
360
796
102
}
330
2
100
AcDbSymbolTableRecord
100
AcDbLayerTableRecord
  2
0
 70
     0
 62
     7
  6
Continuous
370
    -3
390
F
  0
LAYER
  5
72E
102
{ACAD_XDICTIONARY
360
798
102
}
330
2
100
AcDbSymbolTableRecord
100
AcDbLayerTableRecord
  2
AM_CL
 70
     0
 62
     1
  6
Continuous
370
    15
390
F
1001
AcAecLayerStandard
1000

1000

  0
ENDTAB
  0
TABLE
  2
STYLE
  5
3
330
0
100
AcDbSymbolTable
 70
     3
  0
STYLE
  5
11
330
3
100
AcDbSymbolTableRecord
100
AcDbTextStyleTableRecord
  2
Standard
 70
     0
 40
0.0
 41
1.0
 50
0.0
 71
     0
 42
0.2
  3
txt
  4

  0
STYLE
  5
2F6
330
3
100
AcDbSymbolTableRecord
100
AcDbTextStyleTableRecord
  2
ACANSTS
 70
     0
 40
1.0
 41
1.0
 50
0.0
 71
     0
 42
0.2
  3
romans.shx
  4
extfont.shx
  0
STYLE
  5
2F7
330
3
100
AcDbSymbolTableRecord
100
AcDbTextStyleTableRecord
  2
ACANSGDT
 70
     0
 40
0.0
 41
1.0
 50
0.0
 71
     0
 42
0.2
  3
amgdt.shx
  4

  0
ENDTAB
  0
TABLE
  2
VIEW
  5
6
330
0
100
AcDbSymbolTable
 70
     0
  0
ENDTAB
  0
TABLE
  2
UCS
  5
7
330
0
100
AcDbSymbolTable
 70
     0
  0
ENDTAB
  0
TABLE
  2
APPID
  5
9
330
0
100
AcDbSymbolTable
 70
    14
  0
APPID
  5
12
330
9
100
AcDbSymbolTableRecord
100
AcDbRegAppTableRecord
  2
ACAD
 70
     0
  0
APPID
  5
2A7
330
9
100
AcDbSymbolTableRecord
100
AcDbRegAppTableRecord
  2
MCAD_NO_VIS
 70
     0
  0
APPID
  5
2A8
330
9
100
AcDbSymbolTableRecord
100
AcDbRegAppTableRecord
  2
ACAD_TEMP_GRAPHIC
 70
     0
  0
APPID
  5
2B4
330
9
100
AcDbSymbolTableRecord
100
AcDbRegAppTableRecord
  2
ACATTRIBSERVICES
 70
     0
  0
APPID
  5
2CC
330
9
100
AcDbSymbolTableRecord
100
AcDbRegAppTableRecord
  2
DESIGNERASSEMBLIES
 70
     0
  0
APPID
  5
2E6
330
9
100
AcDbSymbolTableRecord
100
AcDbRegAppTableRecord
  2
ACAD_DSTYLE_DIMJAG
 70
     0
  0
APPID
  5
2E7
330
9
100
AcDbSymbolTableRecord
100
AcDbRegAppTableRecord
  2
ACAD_DSTYLE_DIMBREAK
 70
     0
  0
APPID
  5
301
330
9
100
AcDbSymbolTableRecord
100
AcDbRegAppTableRecord
  2
ACAD_NAV_VCDISPLAY
 70
     0
  0
APPID
  5
72F
330
9
100
AcDbSymbolTableRecord
100
AcDbRegAppTableRecord
  2
AcAecLayerStandard
 70
     0
  0
APPID
  5
7E5
330
9
100
AcDbSymbolTableRecord
100
AcDbRegAppTableRecord
  2
ACAD_MLEADERVER
 70
     0
  0
APPID
  5
7E8
330
9
100
AcDbSymbolTableRecord
100
AcDbRegAppTableRecord
  2
ACAD_DSTYLE_DIMARC_LENGTH_SYMBOL
 70
     0
  0
APPID
  5
7E9
330
9
100
AcDbSymbolTableRecord
100
AcDbRegAppTableRecord
  2
ACAD_DSTYLE_DIM_LINETYPE
 70
     0
  0
APPID
  5
7EA
330
9
100
AcDbSymbolTableRecord
100
AcDbRegAppTableRecord
  2
ACAD_DSTYLE_DIM_EXT1_LINETYPE
 70
     0
  0
APPID
  5
7EB
330
9
100
AcDbSymbolTableRecord
100
AcDbRegAppTableRecord
  2
ACAD_DSTYLE_DIM_EXT2_LINETYPE
 70
     0
  0
ENDTAB
  0
TABLE
  2
DIMSTYLE
  5
A
330
0
100
AcDbSymbolTable
 70
     7
100
AcDbDimStyleTable
 71
     0
  0
DIMSTYLE
105
21
330
A
100
AcDbSymbolTableRecord
100
AcDbDimStyleTableRecord
  2
Standard
 70
     0
340
11
  0
DIMSTYLE
105
2E5
102
{ACAD_REACTORS
330
2D5
102
}
330
A
100
AcDbSymbolTableRecord
100
AcDbDimStyleTableRecord
  2
AM_ANSI
 70
     0
  4
mm
 41
0.12
 42
0.05
 43
0.5
 44
0.1
 47
0.1
 48
0.1
 78
     7
 79
     2
140
0.12
141
0.0
146
0.71
147
0.06
176
   256
177
   256
178
     2
274
     4
284
     7
340
11
371
    -1
372
    -1
1001
ACAD_DSTYLE_DIMJAG
1070
   388
1040
1.5
1001
ACAD_DSTYLE_DIMBREAK
1070
   391
1040
0.125
1001
ACAD_DSTYLE_DIMARC_LENGTH_SYMBOL
1070
   379
1070
     1
1001
ACAD_DSTYLE_DIM_LINETYPE
1070
   380
1005
14
1001
ACAD_DSTYLE_DIM_EXT1_LINETYPE
1070
   381
1005
14
1001
ACAD_DSTYLE_DIM_EXT2_LINETYPE
1070
   382
1005
14
  0
DIMSTYLE
105
2EB
330
A
100
AcDbSymbolTableRecord
100
AcDbDimStyleTableRecord
  2
AM_ANSI$3
 70
     0
  4
mm
 41
0.12
 42
0.05
 43
0.5
 44
0.1
 47
0.1
 48
0.1
 78
     7
 79
     2
140
0.12
141
0.0
146
0.71
147
0.06
176
   256
177
   256
178
     2
274
     4
284
     7
288
     1
289
     0
340
11
371
    -1
372
    -1
1001
ACAD_DSTYLE_DIMBREAK
1070
   391
1040
0.125
1001
ACAD_DSTYLE_DIMJAG
1070
   388
1040
1.5
1001
ACAD_DSTYLE_DIMARC_LENGTH_SYMBOL
1070
   379
1070
     1
1001
ACAD_DSTYLE_DIM_LINETYPE
1070
   380
1005
14
1001
ACAD_DSTYLE_DIM_EXT1_LINETYPE
1070
   381
1005
14
1001
ACAD_DSTYLE_DIM_EXT2_LINETYPE
1070
   382
1005
14
  0
DIMSTYLE
105
2EC
330
A
100
AcDbSymbolTableRecord
100
AcDbDimStyleTableRecord
  2
AM_ANSI$4
 70
     0
  4
mm
 41
0.12
 42
0.05
 43
0.5
 44
0.1
 47
0.1
 48
0.1
 78
     7
 79
     2
140
0.12
141
0.0
146
0.71
147
0.06
176
   256
177
   256
178
     2
274
     4
284
     7
288
     1
289
     0
340
11
371
    -1
372
    -1
1001
ACAD_DSTYLE_DIMBREAK
1070
   391
1040
0.125
1001
ACAD_DSTYLE_DIMJAG
1070
   388
1040
1.5
1001
ACAD_DSTYLE_DIMARC_LENGTH_SYMBOL
1070
   379
1070
     1
1001
ACAD_DSTYLE_DIM_LINETYPE
1070
   380
1005
14
1001
ACAD_DSTYLE_DIM_EXT1_LINETYPE
1070
   381
1005
14
1001
ACAD_DSTYLE_DIM_EXT2_LINETYPE
1070
   382
1005
14
  0
DIMSTYLE
105
2ED
330
A
100
AcDbSymbolTableRecord
100
AcDbDimStyleTableRecord
  2
AM_ANSI$7
 70
     0
  4
mm
 41
0.12
 42
0.05
 43
0.5
 44
0.1
 47
0.1
 48
0.1
 78
     7
 79
     2
140
0.12
141
0.0
146
0.71
147
0.06
176
   256
177
   256
178
     2
274
     4
284
     7
340
11
371
    -1
372
    -1
1001
ACAD_DSTYLE_DIMBREAK
1070
   391
1040
0.125
1001
ACAD_DSTYLE_DIMJAG
1070
   388
1040
1.5
1001
ACAD_DSTYLE_DIMARC_LENGTH_SYMBOL
1070
   379
1070
     1
1001
ACAD_DSTYLE_DIM_LINETYPE
1070
   380
1005
14
1001
ACAD_DSTYLE_DIM_EXT1_LINETYPE
1070
   381
1005
14
1001
ACAD_DSTYLE_DIM_EXT2_LINETYPE
1070
   382
1005
14
  0
DIMSTYLE
105
2EE
330
A
100
AcDbSymbolTableRecord
100
AcDbDimStyleTableRecord
  2
AM_ANSI$SF
 70
     0
  4
mm
 41
0.12
 42
0.05
 43
0.5
 44
0.1
 47
0.1
 48
0.1
 75
     1
 76
     1
 78
     7
 79
     2
140
0.12
141
0.0
146
0.71
147
0.06
176
   256
177
   256
178
     2
274
     4
284
     7
340
11
371
    -1
372
    -1
1001
ACAD_DSTYLE_DIMBREAK
1070
   391
1040
0.125
1001
ACAD_DSTYLE_DIMJAG
1070
   388
1040
1.5
1001
ACAD_DSTYLE_DIMARC_LENGTH_SYMBOL
1070
   379
1070
     1
1001
ACAD_DSTYLE_DIM_LINETYPE
1070
   380
1005
14
1001
ACAD_DSTYLE_DIM_EXT1_LINETYPE
1070
   381
1005
14
1001
ACAD_DSTYLE_DIM_EXT2_LINETYPE
1070
   382
1005
14
  0
DIMSTYLE
105
2F3
330
A
100
AcDbSymbolTableRecord
100
AcDbDimStyleTableRecord
  2
AM_ANSI$SH
 70
     0
  4
mm
 41
0.12
 42
0.05
 43
0.5
 44
0.1
 47
0.1
 48
0.1
 75
     1
 76
     1
 78
     7
 79
     2
140
0.12
141
0.0
146
0.71
147
0.06
173
     1
176
   256
177
   256
178
     2
274
     4
284
     7
340
11
343
2EF
371
    -1
372
    -1
1001
ACAD_DSTYLE_DIMBREAK
1070
   391
1040
0.125
1001
ACAD_DSTYLE_DIMJAG
1070
   388
1040
1.5
1001
ACAD_DSTYLE_DIMARC_LENGTH_SYMBOL
1070
   379
1070
     1
1001
ACAD_DSTYLE_DIM_LINETYPE
1070
   380
1005
14
1001
ACAD_DSTYLE_DIM_EXT1_LINETYPE
1070
   381
1005
14
1001
ACAD_DSTYLE_DIM_EXT2_LINETYPE
1070
   382
1005
14
  0
ENDTAB
  0
TABLE
  2
BLOCK_RECORD
  5
1
330
0
100
AcDbSymbolTable
 70
     4
  0
BLOCK_RECORD
  5
1D
102
{ACAD_XDICTIONARY
360
731
102
}
330
1
100
AcDbSymbolTableRecord
100
AcDbBlockTableRecord
  2
*Model_Space
340
1E
  0
BLOCK_RECORD
  5
1B
330
1
100
AcDbSymbolTableRecord
100
AcDbBlockTableRecord
  2
*Paper_Space
340
1C
  0
BLOCK_RECORD
  5
2EF
330
1
100
AcDbSymbolTableRecord
100
AcDbBlockTableRecord
  2
GENAXEH
340
0
  0
ENDTAB
  0
ENDSEC
  0
SECTION
  2
BLOCKS
  0
BLOCK
  5
24A
330
1D
100
AcDbEntity
  8
0
100
AcDbBlockBegin
  2
*Model_Space
 70
     0
 10
0.0
 20
0.0
 30
0.0
  3
*Model_Space
  1

  0
ENDBLK
  5
24B
330
1D
100
AcDbEntity
  8
0
100
AcDbBlockEnd
  0
BLOCK
  5
24C
330
1B
100
AcDbEntity
 67
     1
  8
0
100
AcDbBlockBegin
  2
*Paper_Space
 70
     0
 10
0.0
 20
0.0
 30
0.0
  3
*Paper_Space
  1

  0
ENDBLK
  5
24D
330
1B
100
AcDbEntity
 67
     1
  8
0
100
AcDbBlockEnd
  0
BLOCK
  5
2F1
330
2EF
100
AcDbEntity
  8
0
100
AcDbBlockBegin
  2
GENAXEH
 70
     0
 10
0.0
 20
0.0
 30
0.0
  3
GENAXEH
  1

  0
LINE
  5
2F0
330
2EF
100
AcDbEntity
  8
0
100
AcDbLine
 10
-1.0
 20
0.0
 30
0.0
 11
1.0
 21
0.0
 31
0.0
  0
ENDBLK
  5
2F2
330
2EF
100
AcDbEntity
  8
0
100
AcDbBlockEnd
  0
ENDSEC
  0
SECTION
  2
ENTITIES
  0
LINE
  5
22
330
1D
100
AcDbEntity
  8
0
  6
Continuous
100
AcDbLine
 10
174.39947
 20
-76.0
 30
0.0
 11
186.98036
 21
-76.0
 31
0.0
  0
LINE
  5
23
330
1D
100
AcDbEntity
  8
0
  6
Continuous
100
AcDbLine
 10
191.22936
 20
-76.0
 30
0.0
 11
207.97037
 21
-76.0
 31
0.0
  0
LINE
  5
24
330
1D
100
AcDbEntity
  8
0
  6
Continuous
100
AcDbLine
 10
212.21937
 20
-76.0
 30
0.0
 11
222.57275
 21
-76.0
 31
0.0
  0
LINE
  5
25
330
1D
100
AcDbEntity
  8
0
  6
Continuous
100
AcDbLine
 10
222.57275
 20
-76.0
 30
0.0
 11
174.39947
 21
-76.0
 31
0.0
  0
LINE
  5
26
330
1D
100
AcDbEntity
  8
0
  6
Continuous
100
AcDbLine
 10
-222.57275
 20
-76.0
 30
0.0
 11
-211.82972
 21
-76.0
 31
0.0
  0
LINE
  5
27
330
1D
100
AcDbEntity
  8
0
  6
Continuous
100
AcDbLine
 10
-207.58076
 20
-76.0
 30
0.0
 11
-190.83973
 21
-76.0
 31
0.0
  0
LINE
  5
28
330
1D
100
AcDbEntity
  8
0
  6
Continuous
100
AcDbLine
 10
-186.59077
 20
-76.0
 30
0.0
 11
-174.39947
 21
-76.0
 31
0.0
  0
LINE
  5
29
330
1D
100
AcDbEntity
  8
0
  6
Continuous
100
AcDbLine
 10
-174.39947
 20
-76.0
 30
0.0
 11
-222.57275
 21
-76.0
 31
0.0
  0
LINE
  5
2A
330
1D
100
AcDbEntity
  8
0
  6
Continuous
100
AcDbLine
 10
-232.53264
 20
-76.0
 30
0.0
 11
-231.7745
 21
-76.0
 31
0.0
  0
LINE
  5
2B
330
1D
100
AcDbEntity
  8
0
  6
Continuous
100
AcDbLine
 10
-231.7745
 20
-76.0
 30
0.0
 11
-229.61546
 21
-76.0
 31
0.0
  0
LINE
  5
2C
330
1D
100
AcDbEntity
  8
0
  6
Continuous
100
AcDbLine
 10
-231.77448
 20
-76.50001
 30
0.0
 11
-231.7745
 21
-76.0
 31
0.0
  0
LINE
  5
2D
330
1D
100
AcDbEntity
  8
0
  6
Continuous
100
AcDbLine
 10
-229.61546
 20
-76.0
 30
0.0
 11
-226.3842
 21
-76.0
 31
0.0
  0
LINE
  5
2E
330
1D
100
AcDbEntity
  8
0
  6
Continuous
100
AcDbLine
 10
-226.3842
 20
-76.0
 30
0.0
 11
-222.57275
 21
-76.0
 31
0.0
  0
LINE
  5
2F
330
1D
100
AcDbEntity
  8
0
  6
Continuous
100
AcDbLine
 10
222.57275
 20
-76.0
 30
0.0
 11
226.3842
 21
-76.0
 31
0.0
  0
LINE
  5
30
330
1D
100
AcDbEntity
  8
0
  6
Continuous
100
AcDbLine
 10
226.3842
 20
-76.0
 30
0.0
 11
229.61546
 21
-76.0
 31
0.0
  0
LINE
  5
31
330
1D
100
AcDbEntity
  8
0
  6
Continuous
100
AcDbLine
 10
229.61546
 20
-76.0
 30
0.0
 11
231.7745
 21
-76.0
 31
0.0
  0
LINE
  5
32
330
1D
100
AcDbEntity
  8
0
  6
Continuous
100
AcDbLine
 10
231.7745
 20
-76.0
 30
0.0
 11
232.53263
 21
-76.0
 31
0.0
  0
LINE
  5
33
330
1D
100
AcDbEntity
  8
0
  6
Continuous
100
AcDbLine
 10
231.77448
 20
-76.50001
 30
0.0
 11
231.7745
 21
-76.0
 31
0.0
  0
LINE
  5
34
330
1D
100
AcDbEntity
  8
0
  6
Continuous
100
AcDbLine
 10
-232.53264
 20
-76.0
 30
0.0
 11
-232.53264
 21
-76.50001
 31
0.0
  0
LINE
  5
35
330
1D
100
AcDbEntity
  8
0
  6
Continuous
100
AcDbLine
 10
-231.7745
 20
-76.0
 30
0.0
 11
-232.53264
 21
-76.0
 31
0.0
  0
LINE
  5
36
330
1D
100
AcDbEntity
  8
0
  6
Continuous
100
AcDbLine
 10
-231.7745
 20
-76.0
 30
0.0
 11
-231.77448
 21
-76.50001
 31
0.0
  0
LINE
  5
37
330
1D
100
AcDbEntity
  8
0
  6
Continuous
100
AcDbLine
 10
-229.61544
 20
-76.0
 30
0.0
 11
-231.7745
 21
-76.0
 31
0.0
  0
LINE
  5
38
330
1D
100
AcDbEntity
  8
0
  6
Continuous
100
AcDbLine
 10
-226.3842
 20
-76.0
 30
0.0
 11
-229.61544
 21
-76.0
 31
0.0
  0
LINE
  5
39
330
1D
100
AcDbEntity
  8
0
  6
Continuous
100
AcDbLine
 10
-222.57275
 20
-76.0
 30
0.0
 11
-226.3842
 21
-76.0
 31
0.0
  0
LINE
  5
3A
330
1D
100
AcDbEntity
  8
0
  6
Continuous
100
AcDbLine
 10
226.3842
 20
-76.0
 30
0.0
 11
222.57275
 21
-76.0
 31
0.0
  0
LINE
  5
3B
330
1D
100
AcDbEntity
  8
0
  6
Continuous
100
AcDbLine
 10
229.61546
 20
-76.0
 30
0.0
 11
226.3842
 21
-76.0
 31
0.0
  0
LINE
  5
3C
330
1D
100
AcDbEntity
  8
0
  6
Continuous
100
AcDbLine
 10
231.7745
 20
-76.0
 30
0.0
 11
229.61546
 21
-76.0
 31
0.0
  0
LINE
  5
3D
330
1D
100
AcDbEntity
  8
0
  6
Continuous
100
AcDbLine
 10
231.7745
 20
-76.0
 30
0.0
 11
231.77448
 21
-76.50001
 31
0.0
  0
LINE
  5
3E
330
1D
100
AcDbEntity
  8
0
  6
Continuous
100
AcDbLine
 10
232.53263
 20
-76.0
 30
0.0
 11
231.7745
 21
-76.0
 31
0.0
  0
LINE
  5
3F
330
1D
100
AcDbEntity
  8
0
  6
Continuous
100
AcDbLine
 10
232.53263
 20
-76.50001
 30
0.0
 11
232.53263
 21
-76.0
 31
0.0
  0
LINE
  5
40
330
1D
100
AcDbEntity
  8
0
  6
Continuous
100
AcDbLine
 10
174.39947
 20
-76.0
 30
0.0
 11
116.26632
 21
-76.0
 31
0.0
  0
LINE
  5
41
330
1D
100
AcDbEntity
  8
0
  6
Continuous
100
AcDbLine
 10
174.39947
 20
-76.0
 30
0.0
 11
170.23935
 21
-76.0
 31
0.0
  0
LINE
  5
42
330
1D
100
AcDbEntity
  8
0
  6
Continuous
100
AcDbLine
 10
165.99035
 20
-76.0
 30
0.0
 11
149.24934
 21
-76.0
 31
0.0
  0
LINE
  5
43
330
1D
100
AcDbEntity
  8
0
  6
Continuous
100
AcDbLine
 10
145.00034
 20
-76.0
 30
0.0
 11
128.25932
 21
-76.0
 31
0.0
  0
LINE
  5
44
330
1D
100
AcDbEntity
  8
0
  6
Continuous
100
AcDbLine
 10
124.01034
 20
-76.0
 30
0.0
 11
116.26632
 21
-76.0
 31
0.0
  0
LINE
  5
45
330
1D
100
AcDbEntity
  8
0
  6
Continuous
100
AcDbLine
 10
116.26632
 20
-76.0
 30
0.0
 11
0.00001
 21
-76.0
 31
0.0
  0
LINE
  5
46
330
1D
100
AcDbEntity
  8
0
  6
Continuous
100
AcDbLine
 10
0.00001
 20
-76.0
 30
0.0
 11
-116.26632
 21
-76.0
 31
0.0
  0
LINE
  5
47
330
1D
100
AcDbEntity
  8
0
  6
Continuous
100
AcDbLine
 10
-116.26632
 20
-76.0
 30
0.0
 11
-174.39947
 21
-76.0
 31
0.0
  0
LINE
  5
48
330
1D
100
AcDbEntity
  8
0
  6
Continuous
100
AcDbLine
 10
116.26632
 20
-76.0
 30
0.0
 11
107.26931
 21
-76.0
 31
0.0
  0
LINE
  5
49
330
1D
100
AcDbEntity
  8
0
  6
Continuous
100
AcDbLine
 10
103.02033
 20
-76.0
 30
0.0
 11
86.27931
 21
-76.0
 31
0.0
  0
LINE
  5
4A
330
1D
100
AcDbEntity
  8
0
  6
Continuous
100
AcDbLine
 10
82.03032
 20
-76.0
 30
0.0
 11
65.28929999999999
 21
-76.0
 31
0.0
  0
LINE
  5
4B
330
1D
100
AcDbEntity
  8
0
  6
Continuous
100
AcDbLine
 10
61.04030999999999
 20
-76.0
 30
0.0
 11
44.2993
 21
-76.0
 31
0.0
  0
LINE
  5
4C
330
1D
100
AcDbEntity
  8
0
  6
Continuous
100
AcDbLine
 10
40.0503
 20
-76.0
 30
0.0
 11
28.26832
 21
-76.0
 31
0.0
  0
LINE
  5
4D
330
1D
100
AcDbEntity
  8
0
  6
Continuous
100
AcDbLine
 10
24.01932
 20
-76.0
 30
0.0
 11
23.30929
 21
-76.0
 31
0.0
  0
LINE
  5
4E
330
1D
100
AcDbEntity
  8
0
  6
Continuous
100
AcDbLine
 10
19.06029
 20
-76.0
 30
0.0
 11
17.89432
 21
-76.0
 31
0.0
  0
LINE
  5
4F
330
1D
100
AcDbEntity
  8
0
  6
Continuous
100
AcDbLine
 10
-17.89436
 20
-76.0
 30
0.0
 11
-18.67073
 21
-76.0
 31
0.0
  0
LINE
  5
50
330
1D
100
AcDbEntity
  8
0
  6
Continuous
100
AcDbLine
 10
-22.91973
 20
-76.0
 30
0.0
 11
-23.85183
 21
-76.0
 31
0.0
  0
LINE
  5
51
330
1D
100
AcDbEntity
  8
0
  6
Continuous
100
AcDbLine
 10
-28.10083
 20
-76.0
 30
0.0
 11
-39.66074
 21
-76.0
 31
0.0
  0
LINE
  5
52
330
1D
100
AcDbEntity
  8
0
  6
Continuous
100
AcDbLine
 10
-43.90973999999999
 20
-76.0
 30
0.0
 11
-60.65075
 21
-76.0
 31
0.0
  0
LINE
  5
53
330
1D
100
AcDbEntity
  8
0
  6
Continuous
100
AcDbLine
 10
-64.89975
 20
-76.0
 30
0.0
 11
-81.64075999999999
 21
-76.0
 31
0.0
  0
LINE
  5
54
330
1D
100
AcDbEntity
  8
0
  6
Continuous
100
AcDbLine
 10
-85.88976
 20
-76.0
 30
0.0
 11
-102.63077
 21
-76.0
 31
0.0
  0
LINE
  5
55
330
1D
100
AcDbEntity
  8
0
  6
Continuous
100
AcDbLine
 10
-106.87977
 20
-76.0
 30
0.0
 11
-116.26632
 21
-76.0
 31
0.0
  0
LINE
  5
56
330
1D
100
AcDbEntity
  8
0
  6
Continuous
100
AcDbLine
 10
-116.26632
 20
-76.0
 30
0.0
 11
-123.6208
 21
-76.0
 31
0.0
  0
LINE
  5
57
330
1D
100
AcDbEntity
  8
0
  6
Continuous
100
AcDbLine
 10
-127.86976
 20
-76.0
 30
0.0
 11
-144.61079
 21
-76.0
 31
0.0
  0
LINE
  5
58
330
1D
100
AcDbEntity
  8
0
  6
Continuous
100
AcDbLine
 10
-148.85975
 20
-76.0
 30
0.0
 11
-165.60078
 21
-76.0
 31
0.0
  0
LINE
  5
59
330
1D
100
AcDbEntity
  8
0
  6
Continuous
100
AcDbLine
 10
-169.84974
 20
-76.0
 30
0.0
 11
-174.39947
 21
-76.0
 31
0.0
  0
LINE
  5
5A
330
1D
100
AcDbEntity
  8
0
  6
Continuous
100
AcDbLine
 10
174.39947
 20
-80.0
 30
0.0
 11
186.98036
 21
-80.0
 31
0.0
  0
LINE
  5
5B
330
1D
100
AcDbEntity
  8
0
  6
Continuous
100
AcDbLine
 10
191.22936
 20
-80.0
 30
0.0
 11
207.97037
 21
-80.0
 31
0.0
  0
LINE
  5
5C
330
1D
100
AcDbEntity
  8
0
  6
Continuous
100
AcDbLine
 10
212.21937
 20
-80.0
 30
0.0
 11
222.57275
 21
-80.0
 31
0.0
  0
LINE
  5
5D
330
1D
100
AcDbEntity
  8
0
  6
Continuous
100
AcDbLine
 10
222.57275
 20
-80.0
 30
0.0
 11
174.39947
 21
-80.0
 31
0.0
  0
LINE
  5
5E
330
1D
100
AcDbEntity
  8
0
  6
Continuous
100
AcDbLine
 10
-222.57275
 20
-80.0
 30
0.0
 11
-211.82972
 21
-80.0
 31
0.0
  0
LINE
  5
5F
330
1D
100
AcDbEntity
  8
0
  6
Continuous
100
AcDbLine
 10
-207.58076
 20
-80.0
 30
0.0
 11
-190.83973
 21
-80.0
 31
0.0
  0
LINE
  5
60
330
1D
100
AcDbEntity
  8
0
  6
Continuous
100
AcDbLine
 10
-186.59077
 20
-80.0
 30
0.0
 11
-174.39947
 21
-80.0
 31
0.0
  0
LINE
  5
61
330
1D
100
AcDbEntity
  8
0
  6
Continuous
100
AcDbLine
 10
-174.39947
 20
-80.0
 30
0.0
 11
-222.57275
 21
-80.0
 31
0.0
  0
LINE
  5
62
330
1D
100
AcDbEntity
  8
0
  6
Continuous
100
AcDbLine
 10
-232.53264
 20
-80.0
 30
0.0
 11
-231.7745
 21
-80.0
 31
0.0
  0
LINE
  5
63
330
1D
100
AcDbEntity
  8
0
  6
Continuous
100
AcDbLine
 10
-231.7745
 20
-80.0
 30
0.0
 11
-231.77448
 21
-79.5
 31
0.0
  0
LINE
  5
64
330
1D
100
AcDbEntity
  8
0
  6
Continuous
100
AcDbLine
 10
-231.7745
 20
-80.0
 30
0.0
 11
-229.61546
 21
-80.0
 31
0.0
  0
LINE
  5
65
330
1D
100
AcDbEntity
  8
0
  6
Continuous
100
AcDbLine
 10
-229.61546
 20
-80.0
 30
0.0
 11
-226.3842
 21
-80.0
 31
0.0
  0
LINE
  5
66
330
1D
100
AcDbEntity
  8
0
  6
Continuous
100
AcDbLine
 10
-226.3842
 20
-80.0
 30
0.0
 11
-222.57275
 21
-80.0
 31
0.0
  0
LINE
  5
67
330
1D
100
AcDbEntity
  8
0
  6
Continuous
100
AcDbLine
 10
222.57275
 20
-80.0
 30
0.0
 11
226.3842
 21
-80.0
 31
0.0
  0
LINE
  5
68
330
1D
100
AcDbEntity
  8
0
  6
Continuous
100
AcDbLine
 10
226.3842
 20
-80.0
 30
0.0
 11
229.61546
 21
-80.0
 31
0.0
  0
LINE
  5
69
330
1D
100
AcDbEntity
  8
0
  6
Continuous
100
AcDbLine
 10
229.61546
 20
-80.0
 30
0.0
 11
231.7745
 21
-80.0
 31
0.0
  0
LINE
  5
6A
330
1D
100
AcDbEntity
  8
0
  6
Continuous
100
AcDbLine
 10
231.7745
 20
-80.0
 30
0.0
 11
231.77448
 21
-79.5
 31
0.0
  0
LINE
  5
6B
330
1D
100
AcDbEntity
  8
0
  6
Continuous
100
AcDbLine
 10
231.7745
 20
-80.0
 30
0.0
 11
232.53263
 21
-80.0
 31
0.0
  0
LINE
  5
6C
330
1D
100
AcDbEntity
  8
0
  6
Continuous
100
AcDbLine
 10
-232.53264
 20
-79.5
 30
0.0
 11
-232.53264
 21
-80.0
 31
0.0
  0
LINE
  5
6D
330
1D
100
AcDbEntity
  8
0
  6
Continuous
100
AcDbLine
 10
-231.7745
 20
-80.0
 30
0.0
 11
-232.53264
 21
-80.0
 31
0.0
  0
LINE
  5
6E
330
1D
100
AcDbEntity
  8
0
  6
Continuous
100
AcDbLine
 10
-231.77448
 20
-79.5
 30
0.0
 11
-231.7745
 21
-80.0
 31
0.0
  0
LINE
  5
6F
330
1D
100
AcDbEntity
  8
0
  6
Continuous
100
AcDbLine
 10
-229.61546
 20
-80.0
 30
0.0
 11
-231.7745
 21
-80.0
 31
0.0
  0
LINE
  5
70
330
1D
100
AcDbEntity
  8
0
  6
Continuous
100
AcDbLine
 10
-226.3842
 20
-80.0
 30
0.0
 11
-229.61546
 21
-80.0
 31
0.0
  0
LINE
  5
71
330
1D
100
AcDbEntity
  8
0
  6
Continuous
100
AcDbLine
 10
-222.57275
 20
-80.0
 30
0.0
 11
-226.3842
 21
-80.0
 31
0.0
  0
LINE
  5
72
330
1D
100
AcDbEntity
  8
0
  6
Continuous
100
AcDbLine
 10
226.3842
 20
-80.0
 30
0.0
 11
222.57275
 21
-80.0
 31
0.0
  0
LINE
  5
73
330
1D
100
AcDbEntity
  8
0
  6
Continuous
100
AcDbLine
 10
229.61544
 20
-80.0
 30
0.0
 11
226.3842
 21
-80.0
 31
0.0
  0
LINE
  5
74
330
1D
100
AcDbEntity
  8
0
  6
Continuous
100
AcDbLine
 10
231.7745
 20
-80.0
 30
0.0
 11
229.61544
 21
-80.0
 31
0.0
  0
LINE
  5
75
330
1D
100
AcDbEntity
  8
0
  6
Continuous
100
AcDbLine
 10
231.77448
 20
-79.5
 30
0.0
 11
231.7745
 21
-80.0
 31
0.0
  0
LINE
  5
76
330
1D
100
AcDbEntity
  8
0
  6
Continuous
100
AcDbLine
 10
232.53263
 20
-80.0
 30
0.0
 11
232.53263
 21
-79.5
 31
0.0
  0
LINE
  5
77
330
1D
100
AcDbEntity
  8
0
  6
Continuous
100
AcDbLine
 10
232.53263
 20
-80.0
 30
0.0
 11
231.7745
 21
-80.0
 31
0.0
  0
LINE
  5
78
330
1D
100
AcDbEntity
  8
0
  6
Continuous
100
AcDbLine
 10
174.39947
 20
-80.0
 30
0.0
 11
116.26632
 21
-80.0
 31
0.0
  0
LINE
  5
79
330
1D
100
AcDbEntity
  8
0
  6
Continuous
100
AcDbLine
 10
174.39947
 20
-80.0
 30
0.0
 11
170.23935
 21
-80.0
 31
0.0
  0
LINE
  5
7A
330
1D
100
AcDbEntity
  8
0
  6
Continuous
100
AcDbLine
 10
165.99035
 20
-80.0
 30
0.0
 11
149.24934
 21
-80.0
 31
0.0
  0
LINE
  5
7B
330
1D
100
AcDbEntity
  8
0
  6
Continuous
100
AcDbLine
 10
145.00034
 20
-80.0
 30
0.0
 11
128.25932
 21
-80.0
 31
0.0
  0
LINE
  5
7C
330
1D
100
AcDbEntity
  8
0
  6
Continuous
100
AcDbLine
 10
124.01034
 20
-80.0
 30
0.0
 11
116.26632
 21
-80.0
 31
0.0
  0
LINE
  5
7D
330
1D
100
AcDbEntity
  8
0
  6
Continuous
100
AcDbLine
 10
116.26632
 20
-80.0
 30
0.0
 11
0.00001
 21
-80.0
 31
0.0
  0
LINE
  5
7E
330
1D
100
AcDbEntity
  8
0
  6
Continuous
100
AcDbLine
 10
0.00001
 20
-80.0
 30
0.0
 11
-116.26632
 21
-80.0
 31
0.0
  0
LINE
  5
7F
330
1D
100
AcDbEntity
  8
0
  6
Continuous
100
AcDbLine
 10
-116.26632
 20
-80.0
 30
0.0
 11
-174.39947
 21
-80.0
 31
0.0
  0
LINE
  5
80
330
1D
100
AcDbEntity
  8
0
  6
Continuous
100
AcDbLine
 10
116.26632
 20
-80.0
 30
0.0
 11
107.26931
 21
-80.0
 31
0.0
  0
LINE
  5
81
330
1D
100
AcDbEntity
  8
0
  6
Continuous
100
AcDbLine
 10
103.02033
 20
-80.0
 30
0.0
 11
86.27931
 21
-80.0
 31
0.0
  0
LINE
  5
82
330
1D
100
AcDbEntity
  8
0
  6
Continuous
100
AcDbLine
 10
82.03032
 20
-80.0
 30
0.0
 11
65.28929999999999
 21
-80.0
 31
0.0
  0
LINE
  5
83
330
1D
100
AcDbEntity
  8
0
  6
Continuous
100
AcDbLine
 10
61.04030999999999
 20
-80.0
 30
0.0
 11
44.2993
 21
-80.0
 31
0.0
  0
LINE
  5
84
330
1D
100
AcDbEntity
  8
0
  6
Continuous
100
AcDbLine
 10
40.0503
 20
-80.0
 30
0.0
 11
28.26832
 21
-80.0
 31
0.0
  0
LINE
  5
85
330
1D
100
AcDbEntity
  8
0
  6
Continuous
100
AcDbLine
 10
24.01932
 20
-80.0
 30
0.0
 11
23.30929
 21
-80.0
 31
0.0
  0
LINE
  5
86
330
1D
100
AcDbEntity
  8
0
  6
Continuous
100
AcDbLine
 10
19.06029
 20
-80.0
 30
0.0
 11
17.89432
 21
-80.0
 31
0.0
  0
LINE
  5
87
330
1D
100
AcDbEntity
  8
0
  6
Continuous
100
AcDbLine
 10
-17.89436
 20
-80.0
 30
0.0
 11
-18.67073
 21
-80.0
 31
0.0
  0
LINE
  5
88
330
1D
100
AcDbEntity
  8
0
  6
Continuous
100
AcDbLine
 10
-22.91973
 20
-80.0
 30
0.0
 11
-23.85183
 21
-80.0
 31
0.0
  0
LINE
  5
89
330
1D
100
AcDbEntity
  8
0
  6
Continuous
100
AcDbLine
 10
-28.10083
 20
-80.0
 30
0.0
 11
-39.66074
 21
-80.0
 31
0.0
  0
LINE
  5
8A
330
1D
100
AcDbEntity
  8
0
  6
Continuous
100
AcDbLine
 10
-43.90973999999999
 20
-80.0
 30
0.0
 11
-60.65075
 21
-80.0
 31
0.0
  0
LINE
  5
8B
330
1D
100
AcDbEntity
  8
0
  6
Continuous
100
AcDbLine
 10
-64.89975
 20
-80.0
 30
0.0
 11
-81.64075999999999
 21
-80.0
 31
0.0
  0
LINE
  5
8C
330
1D
100
AcDbEntity
  8
0
  6
Continuous
100
AcDbLine
 10
-85.88976
 20
-80.0
 30
0.0
 11
-102.63077
 21
-80.0
 31
0.0
  0
LINE
  5
8D
330
1D
100
AcDbEntity
  8
0
  6
Continuous
100
AcDbLine
 10
-106.87977
 20
-80.0
 30
0.0
 11
-116.26632
 21
-80.0
 31
0.0
  0
LINE
  5
8E
330
1D
100
AcDbEntity
  8
0
  6
Continuous
100
AcDbLine
 10
-116.26632
 20
-80.0
 30
0.0
 11
-123.6208
 21
-80.0
 31
0.0
  0
LINE
  5
8F
330
1D
100
AcDbEntity
  8
0
  6
Continuous
100
AcDbLine
 10
-127.86976
 20
-80.0
 30
0.0
 11
-144.61079
 21
-80.0
 31
0.0
  0
LINE
  5
90
330
1D
100
AcDbEntity
  8
0
  6
Continuous
100
AcDbLine
 10
-148.85975
 20
-80.0
 30
0.0
 11
-165.60078
 21
-80.0
 31
0.0
  0
LINE
  5
91
330
1D
100
AcDbEntity
  8
0
  6
Continuous
100
AcDbLine
 10
-169.84974
 20
-80.0
 30
0.0
 11
-174.39947
 21
-80.0
 31
0.0
  0
LINE
  5
92
330
1D
100
AcDbEntity
  8
0
  6
Continuous
100
AcDbLine
 10
-231.77448
 20
-76.50001
 30
0.0
 11
-231.77448
 21
-79.5
 31
0.0
  0
LINE
  5
93
330
1D
100
AcDbEntity
  8
0
  6
Continuous
100
AcDbLine
 10
229.61546
 20
-76.50001
 30
0.0
 11
229.61546
 21
-79.5
 31
0.0
  0
LINE
  5
94
330
1D
100
AcDbEntity
  8
0
  6
Continuous
100
AcDbLine
 10
-229.61546
 20
-76.50001
 30
0.0
 11
-229.61546
 21
-79.5
 31
0.0
  0
LINE
  5
95
330
1D
100
AcDbEntity
  8
0
  6
Continuous
100
AcDbLine
 10
-232.53264
 20
-79.5
 30
0.0
 11
-232.53264
 21
-76.50001
 31
0.0
  0
LINE
  5
96
330
1D
100
AcDbEntity
  8
0
  6
Continuous
100
AcDbLine
 10
-231.77448
 20
-79.5
 30
0.0
 11
-231.77448
 21
-76.50001
 31
0.0
  0
LINE
  5
97
330
1D
100
AcDbEntity
  8
0
  6
Continuous
100
AcDbLine
 10
-229.61546
 20
-79.5
 30
0.0
 11
-229.61546
 21
-76.50001
 31
0.0
  0
LINE
  5
98
330
1D
100
AcDbEntity
  8
0
  6
Continuous
100
AcDbLine
 10
231.77448
 20
-76.50001
 30
0.0
 11
231.77448
 21
-79.5
 31
0.0
  0
LINE
  5
99
330
1D
100
AcDbEntity
  8
0
  6
Continuous
100
AcDbLine
 10
229.61546
 20
-79.5
 30
0.0
 11
229.61546
 21
-76.50001
 31
0.0
  0
LINE
  5
9A
330
1D
100
AcDbEntity
  8
0
  6
Continuous
100
AcDbLine
 10
232.53263
 20
-79.5
 30
0.0
 11
232.53263
 21
-76.50001
 31
0.0
  0
LINE
  5
9B
330
1D
100
AcDbEntity
  8
0
  6
Continuous
100
AcDbLine
 10
231.77448
 20
-76.50001
 30
0.0
 11
231.77448
 21
-79.5
 31
0.0
  0
LINE
  5
9C
330
1D
100
AcDbEntity
  8
0
  6
Continuous
100
AcDbLine
 10
-58.20649
 20
-40.16871
 30
0.0
 11
-116.40534
 21
-42.05702
 31
0.0
  0
LINE
  5
9D
330
1D
100
AcDbEntity
  8
0
  6
Continuous
100
AcDbLine
 10
58.20651
 20
-40.16872999999999
 30
0.0
 11
33.4201
 21
-39.481163
 31
0.0
  0
LINE
  5
9E
330
1D
100
AcDbEntity
  8
0
  6
Continuous
100
AcDbLine
 10
174.75996
 20
-47.90753
 30
0.0
 11
116.40535
 21
-42.05699
 31
0.0
  0
LINE
  5
9F
330
1D
100
AcDbEntity
  8
0
  6
Continuous
100
AcDbLine
 10
-116.40534
 20
-42.05702
 30
0.0
 11
-174.75998
 21
-47.90747
 31
0.0
  0
LINE
  5
A0
330
1D
100
AcDbEntity
  8
0
  6
Continuous
100
AcDbLine
 10
-232.99997
 20
-57.5
 30
0.0
 11
-232.99997
 21
-74.29998999999999
 31
0.0
  0
LINE
  5
A1
330
1D
100
AcDbEntity
  8
0
  6
Continuous
100
AcDbLine
 10
232.01765
 20
-56.27210999999999
 30
0.0
 11
222.88639
 21
-54.15371
 31
0.0
  0
LINE
  5
A2
330
1D
100
AcDbEntity
  8
0
  6
Continuous
100
AcDbLine
 10
222.88639
 20
-54.15371
 30
0.0
 11
174.75996
 21
-47.90753
 31
0.0
  0
LINE
  5
A3
330
1D
100
AcDbEntity
  8
0
  6
Continuous
100
AcDbLine
 10
232.24029
 20
-57.5
 30
0.0
 11
232.24029
 21
-74.29998999999999
 31
0.0
  0
LINE
  5
A4
330
1D
100
AcDbEntity
  8
0
  6
Continuous
100
AcDbLine
 10
232.99997
 20
-74.29998999999999
 30
0.0
 11
232.99997
 21
-57.5
 31
0.0
  0
LINE
  5
A5
330
1D
100
AcDbEntity
  8
0
  6
Continuous
100
AcDbLine
 10
-174.75998
 20
-47.90747
 30
0.0
 11
-222.25563
 21
-54.01258
 31
0.0
  0
LINE
  5
A6
330
1D
100
AcDbEntity
  8
0
  6
Continuous
100
AcDbLine
 10
-232.2403
 20
-57.5
 30
0.0
 11
-232.2403
 21
-74.29998999999999
 31
0.0
  0
LINE
  5
A7
330
1D
100
AcDbEntity
  8
0
  6
Continuous
100
AcDbLine
 10
230.07692
 20
-74.29998999999999
 30
0.0
 11
230.07692
 21
-57.5
 31
0.0
  0
LINE
  5
A8
330
1D
100
AcDbEntity
  8
0
  6
Continuous
100
AcDbLine
 10
-222.25563
 20
-54.01258
 30
0.0
 11
-232.01756
 21
-56.27256
 31
0.0
  0
LINE
  5
A9
330
1D
100
AcDbEntity
  8
0
  6
Continuous
100
AcDbLine
 10
-232.99997
 20
-74.29998999999999
 30
0.0
 11
-232.99997
 21
-74.79998999999999
 31
0.0
  0
LINE
  5
AA
330
1D
100
AcDbEntity
  8
0
  6
Continuous
100
AcDbLine
 10
-232.2403
 20
-74.79998999999999
 30
0.0
 11
-232.99997
 21
-74.79998999999999
 31
0.0
  0
LINE
  5
AB
330
1D
100
AcDbEntity
  8
0
  6
Continuous
100
AcDbLine
 10
-232.2403
 20
-74.29998999999999
 30
0.0
 11
-232.2403
 21
-74.79998999999999
 31
0.0
  0
LINE
  5
AC
330
1D
100
AcDbEntity
  8
0
  6
Continuous
100
AcDbLine
 10
-230.07692
 20
-74.79998999999999
 30
0.0
 11
-232.2403
 21
-74.79998999999999
 31
0.0
  0
LINE
  5
AD
330
1D
100
AcDbEntity
  8
0
  6
Continuous
100
AcDbLine
 10
-226.83918
 20
-74.79998999999999
 30
0.0
 11
-230.07692
 21
-74.79998999999999
 31
0.0
  0
LINE
  5
AE
330
1D
100
AcDbEntity
  8
0
  6
Continuous
100
AcDbLine
 10
-223.02004
 20
-74.79998999999999
 30
0.0
 11
-226.83918
 21
-74.79998999999999
 31
0.0
  0
LINE
  5
AF
330
1D
100
AcDbEntity
  8
0
  6
Continuous
100
AcDbLine
 10
226.83918
 20
-74.79998999999999
 30
0.0
 11
223.02004
 21
-74.79998999999999
 31
0.0
  0
LINE
  5
B0
330
1D
100
AcDbEntity
  8
0
  6
Continuous
100
AcDbLine
 10
230.07692
 20
-74.79998999999999
 30
0.0
 11
226.83918
 21
-74.79998999999999
 31
0.0
  0
LINE
  5
B1
330
1D
100
AcDbEntity
  8
0
  6
Continuous
100
AcDbLine
 10
232.24029
 20
-74.79998999999999
 30
0.0
 11
230.07692
 21
-74.79998999999999
 31
0.0
  0
LINE
  5
B2
330
1D
100
AcDbEntity
  8
0
  6
Continuous
100
AcDbLine
 10
232.99997
 20
-74.79998999999999
 30
0.0
 11
232.99997
 21
-74.29998999999999
 31
0.0
  0
LINE
  5
B3
330
1D
100
AcDbEntity
  8
0
  6
Continuous
100
AcDbLine
 10
232.24029
 20
-74.29998999999999
 30
0.0
 11
232.24029
 21
-74.79998999999999
 31
0.0
  0
LINE
  5
B4
330
1D
100
AcDbEntity
  8
0
  6
Continuous
100
AcDbLine
 10
232.99997
 20
-74.79998999999999
 30
0.0
 11
232.24029
 21
-74.79998999999999
 31
0.0
  0
LINE
  5
B5
330
1D
100
AcDbEntity
  8
0
  6
Continuous
100
AcDbLine
 10
174.74998
 20
-74.79998999999999
 30
0.0
 11
223.02004
 21
-74.79998999999999
 31
0.0
  0
LINE
  5
B6
330
1D
100
AcDbEntity
  8
0
  6
Continuous
100
AcDbLine
 10
-174.74999
 20
-74.79998999999999
 30
0.0
 11
-116.49999
 21
-74.79998999999999
 31
0.0
  0
LINE
  5
B7
330
1D
100
AcDbEntity
  8
0
  6
Continuous
100
AcDbLine
 10
-58.24999
 20
-74.79998999999999
 30
0.0
 11
0.00001
 21
-74.79998999999999
 31
0.0
  0
LINE
  5
B8
330
1D
100
AcDbEntity
  8
0
  6
Continuous
100
AcDbLine
 10
58.25
 20
-74.79998999999999
 30
0.0
 11
116.49999
 21
-74.79998999999999
 31
0.0
  0
LINE
  5
B9
330
1D
100
AcDbEntity
  8
0
  6
Continuous
100
AcDbLine
 10
116.49999
 20
-74.79998999999999
 30
0.0
 11
174.74998
 21
-74.79998999999999
 31
0.0
  0
LINE
  5
BA
330
1D
100
AcDbEntity
  8
0
  6
Continuous
100
AcDbLine
 10
-223.02004
 20
-74.79998999999999
 30
0.0
 11
-174.74999
 21
-74.79998999999999
 31
0.0
  0
LINE
  5
BB
330
1D
100
AcDbEntity
  8
0
  6
Continuous
100
AcDbLine
 10
-174.74999
 20
-56.50001
 30
0.0
 11
-116.49999
 21
-56.49999
 31
0.0
  0
LINE
  5
BC
330
1D
100
AcDbEntity
  8
0
  6
Continuous
100
AcDbLine
 10
-58.24999
 20
-56.49999
 30
0.0
 11
0.00001
 21
-56.5
 31
0.0
  0
LINE
  5
BD
330
1D
100
AcDbEntity
  8
0
  6
Continuous
100
AcDbLine
 10
58.25
 20
-56.50001
 30
0.0
 11
116.49999
 21
-56.50001
 31
0.0
  0
LINE
  5
BE
330
1D
100
AcDbEntity
  8
0
  6
Continuous
100
AcDbLine
 10
232.99995
 20
-56.5
 30
0.0
 11
232.01511
 21
-56.28346
 31
0.0
  0
LINE
  5
BF
330
1D
100
AcDbEntity
  8
0
  6
Continuous
100
AcDbLine
 10
232.99999
 20
-56.5
 30
0.0
 11
232.01765
 21
-56.27210999999999
 31
0.0
  0
LINE
  5
C0
330
1D
100
AcDbEntity
  8
0
  6
Continuous
100
AcDbLine
 10
-232.01756
 20
-56.27256
 30
0.0
 11
-232.99997
 21
-56.5
 31
0.0
  0
LINE
  5
C1
330
1D
100
AcDbEntity
  8
0
  6
Continuous
100
AcDbLine
 10
116.49999
 20
-56.50001
 30
0.0
 11
174.74998
 21
-56.50001
 31
0.0
  0
LINE
  5
C2
330
1D
100
AcDbEntity
  8
0
  6
Continuous
100
AcDbLine
 10
232.99997
 20
-57.5
 30
0.0
 11
232.99997
 21
-56.50001
 31
0.0
  0
LINE
  5
C3
330
1D
100
AcDbEntity
  8
0
  6
Continuous
100
AcDbLine
 10
232.99997
 20
-56.50001
 30
0.0
 11
232.24028
 21
-56.5
 31
0.0
  0
LINE
  5
C4
330
1D
100
AcDbEntity
  8
0
  6
Continuous
100
AcDbLine
 10
232.24029
 20
-57.5
 30
0.0
 11
232.24028
 21
-56.5
 31
0.0
  0
LINE
  5
C5
330
1D
100
AcDbEntity
  8
0
  6
Continuous
100
AcDbLine
 10
232.24028
 20
-56.5
 30
0.0
 11
230.07692
 21
-56.49999
 31
0.0
  0
LINE
  5
C6
330
1D
100
AcDbEntity
  8
0
  6
Continuous
100
AcDbLine
 10
230.07692
 20
-57.5
 30
0.0
 11
230.07692
 21
-56.49999
 31
0.0
  0
LINE
  5
C7
330
1D
100
AcDbEntity
  8
0
  6
Continuous
100
AcDbLine
 10
230.07692
 20
-56.49999
 30
0.0
 11
226.83918
 21
-56.5
 31
0.0
  0
LINE
  5
C8
330
1D
100
AcDbEntity
  8
0
  6
Continuous
100
AcDbLine
 10
226.83918
 20
-56.5
 30
0.0
 11
223.02004
 21
-56.49999
 31
0.0
  0
LINE
  5
C9
330
1D
100
AcDbEntity
  8
0
  6
Continuous
100
AcDbLine
 10
-223.00396
 20
-56.43975
 30
0.0
 11
-226.83918
 21
-56.5
 31
0.0
  0
LINE
  5
CA
330
1D
100
AcDbEntity
  8
0
  6
Continuous
100
AcDbLine
 10
-223.02004
 20
-56.50001
 30
0.0
 11
-226.83918
 21
-56.5
 31
0.0
  0
LINE
  5
CB
330
1D
100
AcDbEntity
  8
0
  6
Continuous
100
AcDbLine
 10
-226.83918
 20
-56.5
 30
0.0
 11
-230.07694
 21
-56.5
 31
0.0
  0
LINE
  5
CC
330
1D
100
AcDbEntity
  8
0
  6
Continuous
100
AcDbLine
 10
-229.34664
 20
-56.43988
 30
0.0
 11
-232.24028
 21
-56.5
 31
0.0
  0
LINE
  5
CD
330
1D
100
AcDbEntity
  8
0
  6
Continuous
100
AcDbLine
 10
-230.07692
 20
-57.5
 30
0.0
 11
-230.07694
 21
-56.5
 31
0.0
  0
LINE
  5
CE
330
1D
100
AcDbEntity
  8
0
  6
Continuous
100
AcDbLine
 10
-230.07694
 20
-56.5
 30
0.0
 11
-232.24028
 21
-56.5
 31
0.0
  0
LINE
  5
CF
330
1D
100
AcDbEntity
  8
0
  6
Continuous
100
AcDbLine
 10
-231.99339
 20
-56.44103
 30
0.0
 11
-232.99997
 21
-56.49999
 31
0.0
  0
LINE
  5
D0
330
1D
100
AcDbEntity
  8
0
  6
Continuous
100
AcDbLine
 10
-232.2403
 20
-57.5
 30
0.0
 11
-232.24028
 21
-56.5
 31
0.0
  0
LINE
  5
D1
330
1D
100
AcDbEntity
  8
0
  6
Continuous
100
AcDbLine
 10
-232.99997
 20
-56.49999
 30
0.0
 11
-232.99997
 21
-57.5
 31
0.0
  0
LINE
  5
D2
330
1D
100
AcDbEntity
  8
0
  6
Continuous
100
AcDbLine
 10
-232.24028
 20
-56.5
 30
0.0
 11
-232.99997
 21
-56.49999
 31
0.0
  0
LINE
  5
D3
330
1D
100
AcDbEntity
  8
0
  6
Continuous
100
AcDbLine
 10
-232.00989
 20
-56.30883
 30
0.0
 11
-232.99999
 21
-56.50001
 31
0.0
  0
LINE
  5
D4
330
1D
100
AcDbEntity
  8
0
  6
Continuous
100
AcDbLine
 10
-174.74999
 20
-56.50001
 30
0.0
 11
-223.02004
 21
-56.50001
 31
0.0
  0
LINE
  5
D5
330
1D
100
AcDbEntity
  8
0
  6
Continuous
100
AcDbLine
 10
223.02004
 20
-56.49999
 30
0.0
 11
174.74998
 21
-56.50001
 31
0.0
  0
LINE
  5
D6
330
1D
100
AcDbEntity
  8
0
  6
Continuous
100
AcDbLine
 10
232.99997
 20
-56.50001
 30
0.0
 11
232.01015
 21
-56.30741
 31
0.0
  0
LINE
  5
D7
330
1D
100
AcDbEntity
  8
0
  6
Continuous
100
AcDbLine
 10
58.25
 20
-56.50001
 30
0.0
 11
0.00001
 21
-56.5
 31
0.0
  0
LINE
  5
D8
330
1D
100
AcDbEntity
  8
0
  6
Continuous
100
AcDbLine
 10
58.25
 20
-74.79998999999999
 30
0.0
 11
0.00001
 21
-74.79998999999999
 31
0.0
  0
LINE
  5
D9
330
1D
100
AcDbEntity
  8
0
  6
Continuous
100
AcDbLine
 10
116.40535
 20
-42.05699
 30
0.0
 11
58.20651
 21
-40.16872999999999
 31
0.0
  0
LINE
  5
DA
330
1D
100
AcDbEntity
  8
0
  6
Continuous
100
AcDbLine
 10
-58.24999
 20
-56.49999
 30
0.0
 11
-116.49999
 21
-56.49999
 31
0.0
  0
LINE
  5
DB
330
1D
100
AcDbEntity
  8
0
  6
Continuous
100
AcDbLine
 10
-58.24999
 20
-74.79998999999999
 30
0.0
 11
-116.49999
 21
-74.79998999999999
 31
0.0
  0
LINE
  5
DC
330
1D
100
AcDbEntity
  8
0
  6
Continuous
100
AcDbLine
 10
-33.420135
 20
-39.481153
 30
0.0
 11
-58.20649
 21
-40.16871
 31
0.0
  0
LINE
  5
DD
330
1D
100
AcDbEntity
  8
0
  6
Continuous
100
AcDbLine
 10
16.53219
 20
-81.99999
 30
0.0
 11
17.89432
 21
-81.99999
 31
0.0
  0
LINE
  5
DE
330
1D
100
AcDbEntity
  8
0
  6
Continuous
100
AcDbLine
 10
17.89432
 20
-81.99999
 30
0.0
 11
17.89432
 21
-80.0
 31
0.0
  0
LINE
  5
DF
330
1D
100
AcDbEntity
  8
0
  6
Continuous
100
AcDbLine
 10
17.89432
 20
-80.0
 30
0.0
 11
17.89432
 21
-76.0
 31
0.0
  0
LINE
  5
E0
330
1D
100
AcDbEntity
  8
0
  6
Continuous
100
AcDbLine
 10
17.89432
 20
-76.0
 30
0.0
 11
17.89432
 21
-74.8
 31
0.0
  0
LINE
  5
E1
330
1D
100
AcDbEntity
  8
0
  6
Continuous
100
AcDbLine
 10
12.6532
 20
-81.99999
 30
0.0
 11
16.53219
 21
-81.99999
 31
0.0
  0
LINE
  5
E2
330
1D
100
AcDbEntity
  8
0
  6
Continuous
100
AcDbLine
 10
6.847839999999999
 20
-81.99999
 30
0.0
 11
12.6532
 21
-81.99999
 31
0.0
  0
LINE
  5
E3
330
1D
100
AcDbEntity
  8
0
  6
Continuous
100
AcDbLine
 10
12.6532
 20
-81.99999
 30
0.0
 11
12.6532
 21
-80.0
 31
0.0
  0
LINE
  5
E4
330
1D
100
AcDbEntity
  8
0
  6
Continuous
100
AcDbLine
 10
12.6532
 20
-80.0
 30
0.0
 11
12.6532
 21
-76.0
 31
0.0
  0
LINE
  5
E5
330
1D
100
AcDbEntity
  8
0
  6
Continuous
100
AcDbLine
 10
12.6532
 20
-76.0
 30
0.0
 11
12.6532
 21
-74.8
 31
0.0
  0
LINE
  5
E6
330
1D
100
AcDbEntity
  8
0
  6
Continuous
100
AcDbLine
 10
2.31928
 20
-81.99999
 30
0.0
 11
6.847839999999999
 21
-81.99999
 31
0.0
  0
LINE
  5
E7
330
1D
100
AcDbEntity
  8
0
  6
Continuous
100
AcDbLine
 10
-6.847879999999999
 20
-81.99999
 30
0.0
 11
-1.92972
 21
-81.99999
 31
0.0
  0
LINE
  5
E8
330
1D
100
AcDbEntity
  8
0
  6
Continuous
100
AcDbLine
 10
-12.65322
 20
-81.99999
 30
0.0
 11
-6.847879999999999
 21
-81.99999
 31
0.0
  0
LINE
  5
E9
330
1D
100
AcDbEntity
  8
0
  6
Continuous
100
AcDbLine
 10
-16.53223
 20
-81.99999
 30
0.0
 11
-12.65322
 21
-81.99999
 31
0.0
  0
LINE
  5
EA
330
1D
100
AcDbEntity
  8
0
  6
Continuous
100
AcDbLine
 10
-17.89436
 20
-81.99999
 30
0.0
 11
-16.53223
 21
-81.99999
 31
0.0
  0
LINE
  5
EB
330
1D
100
AcDbEntity
  8
0
  6
Continuous
100
AcDbLine
 10
-17.89436
 20
-74.8
 30
0.0
 11
-17.89436
 21
-81.99999
 31
0.0
  0
LINE
  5
EC
330
1D
100
AcDbEntity
  8
0
  6
Continuous
100
AcDbLine
 10
28.26832
 20
-82.0
 30
0.0
 11
28.26832
 21
-80.0
 31
0.0
  0
LINE
  5
ED
330
1D
100
AcDbEntity
  8
0
  6
Continuous
100
AcDbLine
 10
28.26832
 20
-80.0
 30
0.0
 11
28.26832
 21
-76.0
 31
0.0
  0
LINE
  5
EE
330
1D
100
AcDbEntity
  8
0
  6
Continuous
100
AcDbLine
 10
28.26832
 20
-76.0
 30
0.0
 11
28.26832
 21
-74.8
 31
0.0
  0
LINE
  5
EF
330
1D
100
AcDbEntity
  8
0
  6
Continuous
100
AcDbLine
 10
26.14382
 20
-82.0
 30
0.0
 11
28.26832
 21
-82.0
 31
0.0
  0
LINE
  5
F0
330
1D
100
AcDbEntity
  8
0
  6
Continuous
100
AcDbLine
 10
24.01932
 20
-74.8
 30
0.0
 11
24.01932
 21
-76.0
 31
0.0
  0
LINE
  5
F1
330
1D
100
AcDbEntity
  8
0
  6
Continuous
100
AcDbLine
 10
24.01932
 20
-76.0
 30
0.0
 11
24.01932
 21
-80.0
 31
0.0
  0
LINE
  5
F2
330
1D
100
AcDbEntity
  8
0
  6
Continuous
100
AcDbLine
 10
24.01932
 20
-80.0
 30
0.0
 11
24.01932
 21
-82.0
 31
0.0
  0
LINE
  5
F3
330
1D
100
AcDbEntity
  8
0
  6
Continuous
100
AcDbLine
 10
26.14382
 20
-82.0
 30
0.0
 11
26.14382
 21
-80.0
 31
0.0
  0
LINE
  5
F4
330
1D
100
AcDbEntity
  8
0
  6
Continuous
100
AcDbLine
 10
26.14382
 20
-80.0
 30
0.0
 11
26.14382
 21
-76.0
 31
0.0
  0
LINE
  5
F5
330
1D
100
AcDbEntity
  8
0
  6
Continuous
100
AcDbLine
 10
26.14382
 20
-76.0
 30
0.0
 11
26.14382
 21
-74.8
 31
0.0
  0
LINE
  5
F6
330
1D
100
AcDbEntity
  8
0
  6
Continuous
100
AcDbLine
 10
24.01932
 20
-82.0
 30
0.0
 11
26.14382
 21
-82.0
 31
0.0
  0
LINE
  5
F7
330
1D
100
AcDbEntity
  8
0
  6
Continuous
100
AcDbLine
 10
-23.85183
 20
-82.0
 30
0.0
 11
-23.85183
 21
-80.0
 31
0.0
  0
LINE
  5
F8
330
1D
100
AcDbEntity
  8
0
  6
Continuous
100
AcDbLine
 10
-23.85183
 20
-80.0
 30
0.0
 11
-23.85183
 21
-76.0
 31
0.0
  0
LINE
  5
F9
330
1D
100
AcDbEntity
  8
0
  6
Continuous
100
AcDbLine
 10
-23.85183
 20
-76.0
 30
0.0
 11
-23.85183
 21
-74.8
 31
0.0
  0
LINE
  5
FA
330
1D
100
AcDbEntity
  8
0
  6
Continuous
100
AcDbLine
 10
-25.97633
 20
-82.0
 30
0.0
 11
-23.85183
 21
-82.0
 31
0.0
  0
LINE
  5
FB
330
1D
100
AcDbEntity
  8
0
  6
Continuous
100
AcDbLine
 10
-28.10083
 20
-74.8
 30
0.0
 11
-28.10083
 21
-76.0
 31
0.0
  0
LINE
  5
FC
330
1D
100
AcDbEntity
  8
0
  6
Continuous
100
AcDbLine
 10
-28.10083
 20
-76.0
 30
0.0
 11
-28.10083
 21
-80.0
 31
0.0
  0
LINE
  5
FD
330
1D
100
AcDbEntity
  8
0
  6
Continuous
100
AcDbLine
 10
-28.10083
 20
-80.0
 30
0.0
 11
-28.10083
 21
-82.0
 31
0.0
  0
LINE
  5
FE
330
1D
100
AcDbEntity
  8
0
  6
Continuous
100
AcDbLine
 10
-25.97633
 20
-82.0
 30
0.0
 11
-25.97633
 21
-80.0
 31
0.0
  0
LINE
  5
FF
330
1D
100
AcDbEntity
  8
0
  6
Continuous
100
AcDbLine
 10
-25.97633
 20
-80.0
 30
0.0
 11
-25.97633
 21
-76.0
 31
0.0
  0
LINE
  5
100
330
1D
100
AcDbEntity
  8
0
  6
Continuous
100
AcDbLine
 10
-25.97633
 20
-76.0
 30
0.0
 11
-25.97633
 21
-74.8
 31
0.0
  0
LINE
  5
101
330
1D
100
AcDbEntity
  8
0
  6
Continuous
100
AcDbLine
 10
-28.10083
 20
-82.0
 30
0.0
 11
-25.97633
 21
-82.0
 31
0.0
  0
LINE
  5
102
330
1D
100
AcDbEntity
  8
0
  6
Continuous
100
AcDbLine
 10
212.21937
 20
-82.0
 30
0.0
 11
212.21937
 21
-80.0
 31
0.0
  0
LINE
  5
103
330
1D
100
AcDbEntity
  8
0
  6
Continuous
100
AcDbLine
 10
212.21937
 20
-80.0
 30
0.0
 11
212.21937
 21
-76.0
 31
0.0
  0
LINE
  5
104
330
1D
100
AcDbEntity
  8
0
  6
Continuous
100
AcDbLine
 10
212.21937
 20
-76.0
 30
0.0
 11
212.21937
 21
-74.8
 31
0.0
  0
LINE
  5
105
330
1D
100
AcDbEntity
  8
0
  6
Continuous
100
AcDbLine
 10
210.09487
 20
-82.0
 30
0.0
 11
212.21937
 21
-82.0
 31
0.0
  0
LINE
  5
106
330
1D
100
AcDbEntity
  8
0
  6
Continuous
100
AcDbLine
 10
207.97037
 20
-74.8
 30
0.0
 11
207.97037
 21
-76.0
 31
0.0
  0
LINE
  5
107
330
1D
100
AcDbEntity
  8
0
  6
Continuous
100
AcDbLine
 10
207.97037
 20
-76.0
 30
0.0
 11
207.97037
 21
-80.0
 31
0.0
  0
LINE
  5
108
330
1D
100
AcDbEntity
  8
0
  6
Continuous
100
AcDbLine
 10
207.97037
 20
-80.0
 30
0.0
 11
207.97037
 21
-82.0
 31
0.0
  0
LINE
  5
109
330
1D
100
AcDbEntity
  8
0
  6
Continuous
100
AcDbLine
 10
210.09487
 20
-82.0
 30
0.0
 11
210.09487
 21
-80.0
 31
0.0
  0
LINE
  5
10A
330
1D
100
AcDbEntity
  8
0
  6
Continuous
100
AcDbLine
 10
210.09487
 20
-80.0
 30
0.0
 11
210.09487
 21
-76.0
 31
0.0
  0
LINE
  5
10B
330
1D
100
AcDbEntity
  8
0
  6
Continuous
100
AcDbLine
 10
210.09487
 20
-76.0
 30
0.0
 11
210.09487
 21
-74.8
 31
0.0
  0
LINE
  5
10C
330
1D
100
AcDbEntity
  8
0
  6
Continuous
100
AcDbLine
 10
207.97037
 20
-82.0
 30
0.0
 11
210.09487
 21
-82.0
 31
0.0
  0
LINE
  5
10D
330
1D
100
AcDbEntity
  8
0
  6
Continuous
100
AcDbLine
 10
191.22936
 20
-82.0
 30
0.0
 11
191.22936
 21
-80.0
 31
0.0
  0
LINE
  5
10E
330
1D
100
AcDbEntity
  8
0
  6
Continuous
100
AcDbLine
 10
191.22936
 20
-80.0
 30
0.0
 11
191.22936
 21
-76.0
 31
0.0
  0
LINE
  5
10F
330
1D
100
AcDbEntity
  8
0
  6
Continuous
100
AcDbLine
 10
191.22936
 20
-76.0
 30
0.0
 11
191.22936
 21
-74.8
 31
0.0
  0
LINE
  5
110
330
1D
100
AcDbEntity
  8
0
  6
Continuous
100
AcDbLine
 10
189.10486
 20
-82.0
 30
0.0
 11
191.22936
 21
-82.0
 31
0.0
  0
LINE
  5
111
330
1D
100
AcDbEntity
  8
0
  6
Continuous
100
AcDbLine
 10
186.98036
 20
-74.8
 30
0.0
 11
186.98036
 21
-76.0
 31
0.0
  0
LINE
  5
112
330
1D
100
AcDbEntity
  8
0
  6
Continuous
100
AcDbLine
 10
186.98036
 20
-76.0
 30
0.0
 11
186.98036
 21
-80.0
 31
0.0
  0
LINE
  5
113
330
1D
100
AcDbEntity
  8
0
  6
Continuous
100
AcDbLine
 10
186.98036
 20
-80.0
 30
0.0
 11
186.98036
 21
-82.0
 31
0.0
  0
LINE
  5
114
330
1D
100
AcDbEntity
  8
0
  6
Continuous
100
AcDbLine
 10
189.10486
 20
-82.0
 30
0.0
 11
189.10486
 21
-80.0
 31
0.0
  0
LINE
  5
115
330
1D
100
AcDbEntity
  8
0
  6
Continuous
100
AcDbLine
 10
189.10486
 20
-80.0
 30
0.0
 11
189.10486
 21
-76.0
 31
0.0
  0
LINE
  5
116
330
1D
100
AcDbEntity
  8
0
  6
Continuous
100
AcDbLine
 10
189.10486
 20
-76.0
 30
0.0
 11
189.10486
 21
-74.8
 31
0.0
  0
LINE
  5
117
330
1D
100
AcDbEntity
  8
0
  6
Continuous
100
AcDbLine
 10
186.98036
 20
-82.0
 30
0.0
 11
189.10486
 21
-82.0
 31
0.0
  0
LINE
  5
118
330
1D
100
AcDbEntity
  8
0
  6
Continuous
100
AcDbLine
 10
170.23935
 20
-82.0
 30
0.0
 11
170.23935
 21
-80.0
 31
0.0
  0
LINE
  5
119
330
1D
100
AcDbEntity
  8
0
  6
Continuous
100
AcDbLine
 10
170.23935
 20
-80.0
 30
0.0
 11
170.23935
 21
-76.0
 31
0.0
  0
LINE
  5
11A
330
1D
100
AcDbEntity
  8
0
  6
Continuous
100
AcDbLine
 10
170.23935
 20
-76.0
 30
0.0
 11
170.23935
 21
-74.8
 31
0.0
  0
LINE
  5
11B
330
1D
100
AcDbEntity
  8
0
  6
Continuous
100
AcDbLine
 10
168.11485
 20
-82.0
 30
0.0
 11
170.23935
 21
-82.0
 31
0.0
  0
LINE
  5
11C
330
1D
100
AcDbEntity
  8
0
  6
Continuous
100
AcDbLine
 10
165.99035
 20
-74.8
 30
0.0
 11
165.99035
 21
-76.0
 31
0.0
  0
LINE
  5
11D
330
1D
100
AcDbEntity
  8
0
  6
Continuous
100
AcDbLine
 10
165.99035
 20
-76.0
 30
0.0
 11
165.99035
 21
-80.0
 31
0.0
  0
LINE
  5
11E
330
1D
100
AcDbEntity
  8
0
  6
Continuous
100
AcDbLine
 10
165.99035
 20
-80.0
 30
0.0
 11
165.99035
 21
-82.0
 31
0.0
  0
LINE
  5
11F
330
1D
100
AcDbEntity
  8
0
  6
Continuous
100
AcDbLine
 10
168.11485
 20
-82.0
 30
0.0
 11
168.11485
 21
-80.0
 31
0.0
  0
LINE
  5
120
330
1D
100
AcDbEntity
  8
0
  6
Continuous
100
AcDbLine
 10
168.11485
 20
-80.0
 30
0.0
 11
168.11485
 21
-76.0
 31
0.0
  0
LINE
  5
121
330
1D
100
AcDbEntity
  8
0
  6
Continuous
100
AcDbLine
 10
168.11485
 20
-76.0
 30
0.0
 11
168.11485
 21
-74.8
 31
0.0
  0
LINE
  5
122
330
1D
100
AcDbEntity
  8
0
  6
Continuous
100
AcDbLine
 10
165.99035
 20
-82.0
 30
0.0
 11
168.11485
 21
-82.0
 31
0.0
  0
LINE
  5
123
330
1D
100
AcDbEntity
  8
0
  6
Continuous
100
AcDbLine
 10
149.24934
 20
-82.0
 30
0.0
 11
149.24934
 21
-80.0
 31
0.0
  0
LINE
  5
124
330
1D
100
AcDbEntity
  8
0
  6
Continuous
100
AcDbLine
 10
149.24934
 20
-80.0
 30
0.0
 11
149.24934
 21
-76.0
 31
0.0
  0
LINE
  5
125
330
1D
100
AcDbEntity
  8
0
  6
Continuous
100
AcDbLine
 10
149.24934
 20
-76.0
 30
0.0
 11
149.24934
 21
-74.8
 31
0.0
  0
LINE
  5
126
330
1D
100
AcDbEntity
  8
0
  6
Continuous
100
AcDbLine
 10
147.12484
 20
-82.0
 30
0.0
 11
149.24934
 21
-82.0
 31
0.0
  0
LINE
  5
127
330
1D
100
AcDbEntity
  8
0
  6
Continuous
100
AcDbLine
 10
145.00034
 20
-74.8
 30
0.0
 11
145.00034
 21
-76.0
 31
0.0
  0
LINE
  5
128
330
1D
100
AcDbEntity
  8
0
  6
Continuous
100
AcDbLine
 10
145.00034
 20
-76.0
 30
0.0
 11
145.00034
 21
-80.0
 31
0.0
  0
LINE
  5
129
330
1D
100
AcDbEntity
  8
0
  6
Continuous
100
AcDbLine
 10
145.00034
 20
-80.0
 30
0.0
 11
145.00034
 21
-82.0
 31
0.0
  0
LINE
  5
12A
330
1D
100
AcDbEntity
  8
0
  6
Continuous
100
AcDbLine
 10
147.12484
 20
-82.0
 30
0.0
 11
147.12484
 21
-80.0
 31
0.0
  0
LINE
  5
12B
330
1D
100
AcDbEntity
  8
0
  6
Continuous
100
AcDbLine
 10
147.12484
 20
-80.0
 30
0.0
 11
147.12484
 21
-76.0
 31
0.0
  0
LINE
  5
12C
330
1D
100
AcDbEntity
  8
0
  6
Continuous
100
AcDbLine
 10
147.12484
 20
-76.0
 30
0.0
 11
147.12484
 21
-74.8
 31
0.0
  0
LINE
  5
12D
330
1D
100
AcDbEntity
  8
0
  6
Continuous
100
AcDbLine
 10
145.00034
 20
-82.0
 30
0.0
 11
147.12484
 21
-82.0
 31
0.0
  0
LINE
  5
12E
330
1D
100
AcDbEntity
  8
0
  6
Continuous
100
AcDbLine
 10
128.25932
 20
-82.0
 30
0.0
 11
128.25932
 21
-80.0
 31
0.0
  0
LINE
  5
12F
330
1D
100
AcDbEntity
  8
0
  6
Continuous
100
AcDbLine
 10
128.25932
 20
-80.0
 30
0.0
 11
128.25932
 21
-76.0
 31
0.0
  0
LINE
  5
130
330
1D
100
AcDbEntity
  8
0
  6
Continuous
100
AcDbLine
 10
128.25932
 20
-76.0
 30
0.0
 11
128.25932
 21
-74.8
 31
0.0
  0
LINE
  5
131
330
1D
100
AcDbEntity
  8
0
  6
Continuous
100
AcDbLine
 10
126.13483
 20
-82.0
 30
0.0
 11
128.25932
 21
-82.0
 31
0.0
  0
LINE
  5
132
330
1D
100
AcDbEntity
  8
0
  6
Continuous
100
AcDbLine
 10
124.01034
 20
-74.8
 30
0.0
 11
124.01034
 21
-76.0
 31
0.0
  0
LINE
  5
133
330
1D
100
AcDbEntity
  8
0
  6
Continuous
100
AcDbLine
 10
124.01034
 20
-76.0
 30
0.0
 11
124.01034
 21
-80.0
 31
0.0
  0
LINE
  5
134
330
1D
100
AcDbEntity
  8
0
  6
Continuous
100
AcDbLine
 10
124.01034
 20
-80.0
 30
0.0
 11
124.01034
 21
-82.0
 31
0.0
  0
LINE
  5
135
330
1D
100
AcDbEntity
  8
0
  6
Continuous
100
AcDbLine
 10
126.13483
 20
-82.0
 30
0.0
 11
126.13483
 21
-80.0
 31
0.0
  0
LINE
  5
136
330
1D
100
AcDbEntity
  8
0
  6
Continuous
100
AcDbLine
 10
126.13483
 20
-80.0
 30
0.0
 11
126.13483
 21
-76.0
 31
0.0
  0
LINE
  5
137
330
1D
100
AcDbEntity
  8
0
  6
Continuous
100
AcDbLine
 10
126.13483
 20
-76.0
 30
0.0
 11
126.13483
 21
-74.8
 31
0.0
  0
LINE
  5
138
330
1D
100
AcDbEntity
  8
0
  6
Continuous
100
AcDbLine
 10
124.01034
 20
-82.0
 30
0.0
 11
126.13483
 21
-82.0
 31
0.0
  0
LINE
  5
139
330
1D
100
AcDbEntity
  8
0
  6
Continuous
100
AcDbLine
 10
107.26931
 20
-82.0
 30
0.0
 11
107.26931
 21
-80.0
 31
0.0
  0
LINE
  5
13A
330
1D
100
AcDbEntity
  8
0
  6
Continuous
100
AcDbLine
 10
107.26931
 20
-80.0
 30
0.0
 11
107.26931
 21
-76.0
 31
0.0
  0
LINE
  5
13B
330
1D
100
AcDbEntity
  8
0
  6
Continuous
100
AcDbLine
 10
107.26931
 20
-76.0
 30
0.0
 11
107.26931
 21
-74.8
 31
0.0
  0
LINE
  5
13C
330
1D
100
AcDbEntity
  8
0
  6
Continuous
100
AcDbLine
 10
105.14482
 20
-82.0
 30
0.0
 11
107.26931
 21
-82.0
 31
0.0
  0
LINE
  5
13D
330
1D
100
AcDbEntity
  8
0
  6
Continuous
100
AcDbLine
 10
103.02033
 20
-74.8
 30
0.0
 11
103.02033
 21
-76.0
 31
0.0
  0
LINE
  5
13E
330
1D
100
AcDbEntity
  8
0
  6
Continuous
100
AcDbLine
 10
103.02033
 20
-76.0
 30
0.0
 11
103.02033
 21
-80.0
 31
0.0
  0
LINE
  5
13F
330
1D
100
AcDbEntity
  8
0
  6
Continuous
100
AcDbLine
 10
103.02033
 20
-80.0
 30
0.0
 11
103.02033
 21
-82.0
 31
0.0
  0
LINE
  5
140
330
1D
100
AcDbEntity
  8
0
  6
Continuous
100
AcDbLine
 10
105.14482
 20
-82.0
 30
0.0
 11
105.14482
 21
-80.0
 31
0.0
  0
LINE
  5
141
330
1D
100
AcDbEntity
  8
0
  6
Continuous
100
AcDbLine
 10
105.14482
 20
-80.0
 30
0.0
 11
105.14482
 21
-76.0
 31
0.0
  0
LINE
  5
142
330
1D
100
AcDbEntity
  8
0
  6
Continuous
100
AcDbLine
 10
105.14482
 20
-76.0
 30
0.0
 11
105.14482
 21
-74.8
 31
0.0
  0
LINE
  5
143
330
1D
100
AcDbEntity
  8
0
  6
Continuous
100
AcDbLine
 10
103.02033
 20
-82.0
 30
0.0
 11
105.14482
 21
-82.0
 31
0.0
  0
LINE
  5
144
330
1D
100
AcDbEntity
  8
0
  6
Continuous
100
AcDbLine
 10
86.27931
 20
-82.0
 30
0.0
 11
86.27931
 21
-80.0
 31
0.0
  0
LINE
  5
145
330
1D
100
AcDbEntity
  8
0
  6
Continuous
100
AcDbLine
 10
86.27931
 20
-80.0
 30
0.0
 11
86.27931
 21
-76.0
 31
0.0
  0
LINE
  5
146
330
1D
100
AcDbEntity
  8
0
  6
Continuous
100
AcDbLine
 10
86.27931
 20
-76.0
 30
0.0
 11
86.27931
 21
-74.8
 31
0.0
  0
LINE
  5
147
330
1D
100
AcDbEntity
  8
0
  6
Continuous
100
AcDbLine
 10
84.15480999999999
 20
-82.0
 30
0.0
 11
86.27931
 21
-82.0
 31
0.0
  0
LINE
  5
148
330
1D
100
AcDbEntity
  8
0
  6
Continuous
100
AcDbLine
 10
82.03032
 20
-74.8
 30
0.0
 11
82.03032
 21
-76.0
 31
0.0
  0
LINE
  5
149
330
1D
100
AcDbEntity
  8
0
  6
Continuous
100
AcDbLine
 10
82.03032
 20
-76.0
 30
0.0
 11
82.03032
 21
-80.0
 31
0.0
  0
LINE
  5
14A
330
1D
100
AcDbEntity
  8
0
  6
Continuous
100
AcDbLine
 10
82.03032
 20
-80.0
 30
0.0
 11
82.03032
 21
-82.0
 31
0.0
  0
LINE
  5
14B
330
1D
100
AcDbEntity
  8
0
  6
Continuous
100
AcDbLine
 10
84.15480999999999
 20
-82.0
 30
0.0
 11
84.15480999999999
 21
-80.0
 31
0.0
  0
LINE
  5
14C
330
1D
100
AcDbEntity
  8
0
  6
Continuous
100
AcDbLine
 10
84.15480999999999
 20
-80.0
 30
0.0
 11
84.15480999999999
 21
-76.0
 31
0.0
  0
LINE
  5
14D
330
1D
100
AcDbEntity
  8
0
  6
Continuous
100
AcDbLine
 10
84.15480999999999
 20
-76.0
 30
0.0
 11
84.15480999999999
 21
-74.8
 31
0.0
  0
LINE
  5
14E
330
1D
100
AcDbEntity
  8
0
  6
Continuous
100
AcDbLine
 10
82.03032
 20
-82.0
 30
0.0
 11
84.15480999999999
 21
-82.0
 31
0.0
  0
LINE
  5
14F
330
1D
100
AcDbEntity
  8
0
  6
Continuous
100
AcDbLine
 10
65.28929999999999
 20
-82.0
 30
0.0
 11
65.28929999999999
 21
-80.0
 31
0.0
  0
LINE
  5
150
330
1D
100
AcDbEntity
  8
0
  6
Continuous
100
AcDbLine
 10
65.28929999999999
 20
-80.0
 30
0.0
 11
65.28929999999999
 21
-76.0
 31
0.0
  0
LINE
  5
151
330
1D
100
AcDbEntity
  8
0
  6
Continuous
100
AcDbLine
 10
65.28929999999999
 20
-76.0
 30
0.0
 11
65.28929999999999
 21
-74.8
 31
0.0
  0
LINE
  5
152
330
1D
100
AcDbEntity
  8
0
  6
Continuous
100
AcDbLine
 10
63.16481
 20
-82.0
 30
0.0
 11
65.28929999999999
 21
-82.0
 31
0.0
  0
LINE
  5
153
330
1D
100
AcDbEntity
  8
0
  6
Continuous
100
AcDbLine
 10
61.04030999999999
 20
-74.8
 30
0.0
 11
61.04030999999999
 21
-76.0
 31
0.0
  0
LINE
  5
154
330
1D
100
AcDbEntity
  8
0
  6
Continuous
100
AcDbLine
 10
61.04030999999999
 20
-76.0
 30
0.0
 11
61.04030999999999
 21
-80.0
 31
0.0
  0
LINE
  5
155
330
1D
100
AcDbEntity
  8
0
  6
Continuous
100
AcDbLine
 10
61.04030999999999
 20
-80.0
 30
0.0
 11
61.04030999999999
 21
-82.0
 31
0.0
  0
LINE
  5
156
330
1D
100
AcDbEntity
  8
0
  6
Continuous
100
AcDbLine
 10
63.16481
 20
-82.0
 30
0.0
 11
63.16481
 21
-80.0
 31
0.0
  0
LINE
  5
157
330
1D
100
AcDbEntity
  8
0
  6
Continuous
100
AcDbLine
 10
63.16481
 20
-80.0
 30
0.0
 11
63.16481
 21
-76.0
 31
0.0
  0
LINE
  5
158
330
1D
100
AcDbEntity
  8
0
  6
Continuous
100
AcDbLine
 10
63.16481
 20
-76.0
 30
0.0
 11
63.16481
 21
-74.8
 31
0.0
  0
LINE
  5
159
330
1D
100
AcDbEntity
  8
0
  6
Continuous
100
AcDbLine
 10
61.04030999999999
 20
-82.0
 30
0.0
 11
63.16481
 21
-82.0
 31
0.0
  0
LINE
  5
15A
330
1D
100
AcDbEntity
  8
0
  6
Continuous
100
AcDbLine
 10
44.2993
 20
-82.0
 30
0.0
 11
44.2993
 21
-80.0
 31
0.0
  0
LINE
  5
15B
330
1D
100
AcDbEntity
  8
0
  6
Continuous
100
AcDbLine
 10
44.2993
 20
-80.0
 30
0.0
 11
44.2993
 21
-76.0
 31
0.0
  0
LINE
  5
15C
330
1D
100
AcDbEntity
  8
0
  6
Continuous
100
AcDbLine
 10
44.2993
 20
-76.0
 30
0.0
 11
44.2993
 21
-74.8
 31
0.0
  0
LINE
  5
15D
330
1D
100
AcDbEntity
  8
0
  6
Continuous
100
AcDbLine
 10
42.1748
 20
-82.0
 30
0.0
 11
44.2993
 21
-82.0
 31
0.0
  0
LINE
  5
15E
330
1D
100
AcDbEntity
  8
0
  6
Continuous
100
AcDbLine
 10
40.0503
 20
-74.8
 30
0.0
 11
40.0503
 21
-76.0
 31
0.0
  0
LINE
  5
15F
330
1D
100
AcDbEntity
  8
0
  6
Continuous
100
AcDbLine
 10
40.0503
 20
-76.0
 30
0.0
 11
40.0503
 21
-80.0
 31
0.0
  0
LINE
  5
160
330
1D
100
AcDbEntity
  8
0
  6
Continuous
100
AcDbLine
 10
40.0503
 20
-80.0
 30
0.0
 11
40.0503
 21
-82.0
 31
0.0
  0
LINE
  5
161
330
1D
100
AcDbEntity
  8
0
  6
Continuous
100
AcDbLine
 10
42.1748
 20
-82.0
 30
0.0
 11
42.1748
 21
-80.0
 31
0.0
  0
LINE
  5
162
330
1D
100
AcDbEntity
  8
0
  6
Continuous
100
AcDbLine
 10
42.1748
 20
-80.0
 30
0.0
 11
42.1748
 21
-76.0
 31
0.0
  0
LINE
  5
163
330
1D
100
AcDbEntity
  8
0
  6
Continuous
100
AcDbLine
 10
42.1748
 20
-76.0
 30
0.0
 11
42.1748
 21
-74.8
 31
0.0
  0
LINE
  5
164
330
1D
100
AcDbEntity
  8
0
  6
Continuous
100
AcDbLine
 10
40.0503
 20
-82.0
 30
0.0
 11
42.1748
 21
-82.0
 31
0.0
  0
LINE
  5
165
330
1D
100
AcDbEntity
  8
0
  6
Continuous
100
AcDbLine
 10
23.30929
 20
-82.0
 30
0.0
 11
23.30929
 21
-80.0
 31
0.0
  0
LINE
  5
166
330
1D
100
AcDbEntity
  8
0
  6
Continuous
100
AcDbLine
 10
23.30929
 20
-80.0
 30
0.0
 11
23.30929
 21
-76.0
 31
0.0
  0
LINE
  5
167
330
1D
100
AcDbEntity
  8
0
  6
Continuous
100
AcDbLine
 10
23.30929
 20
-76.0
 30
0.0
 11
23.30929
 21
-74.8
 31
0.0
  0
LINE
  5
168
330
1D
100
AcDbEntity
  8
0
  6
Continuous
100
AcDbLine
 10
21.18479
 20
-82.0
 30
0.0
 11
23.30929
 21
-82.0
 31
0.0
  0
LINE
  5
169
330
1D
100
AcDbEntity
  8
0
  6
Continuous
100
AcDbLine
 10
19.06029
 20
-74.8
 30
0.0
 11
19.06029
 21
-76.0
 31
0.0
  0
LINE
  5
16A
330
1D
100
AcDbEntity
  8
0
  6
Continuous
100
AcDbLine
 10
19.06029
 20
-76.0
 30
0.0
 11
19.06029
 21
-80.0
 31
0.0
  0
LINE
  5
16B
330
1D
100
AcDbEntity
  8
0
  6
Continuous
100
AcDbLine
 10
19.06029
 20
-80.0
 30
0.0
 11
19.06029
 21
-82.0
 31
0.0
  0
LINE
  5
16C
330
1D
100
AcDbEntity
  8
0
  6
Continuous
100
AcDbLine
 10
21.18479
 20
-82.0
 30
0.0
 11
21.18479
 21
-80.0
 31
0.0
  0
LINE
  5
16D
330
1D
100
AcDbEntity
  8
0
  6
Continuous
100
AcDbLine
 10
21.18479
 20
-80.0
 30
0.0
 11
21.18479
 21
-76.0
 31
0.0
  0
LINE
  5
16E
330
1D
100
AcDbEntity
  8
0
  6
Continuous
100
AcDbLine
 10
21.18479
 20
-76.0
 30
0.0
 11
21.18479
 21
-74.8
 31
0.0
  0
LINE
  5
16F
330
1D
100
AcDbEntity
  8
0
  6
Continuous
100
AcDbLine
 10
19.06029
 20
-82.0
 30
0.0
 11
21.18479
 21
-82.0
 31
0.0
  0
LINE
  5
170
330
1D
100
AcDbEntity
  8
0
  6
Continuous
100
AcDbLine
 10
2.31928
 20
-82.0
 30
0.0
 11
2.31928
 21
-80.0
 31
0.0
  0
LINE
  5
171
330
1D
100
AcDbEntity
  8
0
  6
Continuous
100
AcDbLine
 10
2.31928
 20
-80.0
 30
0.0
 11
2.31928
 21
-76.0
 31
0.0
  0
LINE
  5
172
330
1D
100
AcDbEntity
  8
0
  6
Continuous
100
AcDbLine
 10
2.31928
 20
-76.0
 30
0.0
 11
2.31928
 21
-74.8
 31
0.0
  0
LINE
  5
173
330
1D
100
AcDbEntity
  8
0
  6
Continuous
100
AcDbLine
 10
0.19478
 20
-82.0
 30
0.0
 11
2.31928
 21
-82.0
 31
0.0
  0
LINE
  5
174
330
1D
100
AcDbEntity
  8
0
  6
Continuous
100
AcDbLine
 10
-1.92972
 20
-74.8
 30
0.0
 11
-1.92972
 21
-76.0
 31
0.0
  0
LINE
  5
175
330
1D
100
AcDbEntity
  8
0
  6
Continuous
100
AcDbLine
 10
-1.92972
 20
-76.0
 30
0.0
 11
-1.92972
 21
-80.0
 31
0.0
  0
LINE
  5
176
330
1D
100
AcDbEntity
  8
0
  6
Continuous
100
AcDbLine
 10
-1.92972
 20
-80.0
 30
0.0
 11
-1.92972
 21
-81.99999
 31
0.0
  0
LINE
  5
177
330
1D
100
AcDbEntity
  8
0
  6
Continuous
100
AcDbLine
 10
0.19478
 20
-82.0
 30
0.0
 11
0.19478
 21
-80.0
 31
0.0
  0
LINE
  5
178
330
1D
100
AcDbEntity
  8
0
  6
Continuous
100
AcDbLine
 10
0.19478
 20
-80.0
 30
0.0
 11
0.19478
 21
-76.0
 31
0.0
  0
LINE
  5
179
330
1D
100
AcDbEntity
  8
0
  6
Continuous
100
AcDbLine
 10
0.19478
 20
-76.0
 30
0.0
 11
0.19478
 21
-74.8
 31
0.0
  0
LINE
  5
17A
330
1D
100
AcDbEntity
  8
0
  6
Continuous
100
AcDbLine
 10
-1.92972
 20
-82.0
 30
0.0
 11
0.19478
 21
-82.0
 31
0.0
  0
LINE
  5
17B
330
1D
100
AcDbEntity
  8
0
  6
Continuous
100
AcDbLine
 10
-18.67073
 20
-82.0
 30
0.0
 11
-18.67073
 21
-80.0
 31
0.0
  0
LINE
  5
17C
330
1D
100
AcDbEntity
  8
0
  6
Continuous
100
AcDbLine
 10
-18.67073
 20
-80.0
 30
0.0
 11
-18.67073
 21
-76.0
 31
0.0
  0
LINE
  5
17D
330
1D
100
AcDbEntity
  8
0
  6
Continuous
100
AcDbLine
 10
-18.67073
 20
-76.0
 30
0.0
 11
-18.67073
 21
-74.8
 31
0.0
  0
LINE
  5
17E
330
1D
100
AcDbEntity
  8
0
  6
Continuous
100
AcDbLine
 10
-20.79523
 20
-82.0
 30
0.0
 11
-18.67073
 21
-82.0
 31
0.0
  0
LINE
  5
17F
330
1D
100
AcDbEntity
  8
0
  6
Continuous
100
AcDbLine
 10
-22.91973
 20
-74.8
 30
0.0
 11
-22.91973
 21
-76.0
 31
0.0
  0
LINE
  5
180
330
1D
100
AcDbEntity
  8
0
  6
Continuous
100
AcDbLine
 10
-22.91973
 20
-76.0
 30
0.0
 11
-22.91973
 21
-80.0
 31
0.0
  0
LINE
  5
181
330
1D
100
AcDbEntity
  8
0
  6
Continuous
100
AcDbLine
 10
-22.91973
 20
-80.0
 30
0.0
 11
-22.91973
 21
-82.0
 31
0.0
  0
LINE
  5
182
330
1D
100
AcDbEntity
  8
0
  6
Continuous
100
AcDbLine
 10
-20.79523
 20
-82.0
 30
0.0
 11
-20.79523
 21
-80.0
 31
0.0
  0
LINE
  5
183
330
1D
100
AcDbEntity
  8
0
  6
Continuous
100
AcDbLine
 10
-20.79523
 20
-80.0
 30
0.0
 11
-20.79523
 21
-76.0
 31
0.0
  0
LINE
  5
184
330
1D
100
AcDbEntity
  8
0
  6
Continuous
100
AcDbLine
 10
-20.79523
 20
-76.0
 30
0.0
 11
-20.79523
 21
-74.8
 31
0.0
  0
LINE
  5
185
330
1D
100
AcDbEntity
  8
0
  6
Continuous
100
AcDbLine
 10
-22.91973
 20
-82.0
 30
0.0
 11
-20.79523
 21
-82.0
 31
0.0
  0
LINE
  5
186
330
1D
100
AcDbEntity
  8
0
  6
Continuous
100
AcDbLine
 10
-39.66074
 20
-82.0
 30
0.0
 11
-39.66074
 21
-80.0
 31
0.0
  0
LINE
  5
187
330
1D
100
AcDbEntity
  8
0
  6
Continuous
100
AcDbLine
 10
-39.66074
 20
-80.0
 30
0.0
 11
-39.66074
 21
-76.0
 31
0.0
  0
LINE
  5
188
330
1D
100
AcDbEntity
  8
0
  6
Continuous
100
AcDbLine
 10
-39.66074
 20
-76.0
 30
0.0
 11
-39.66074
 21
-74.8
 31
0.0
  0
LINE
  5
189
330
1D
100
AcDbEntity
  8
0
  6
Continuous
100
AcDbLine
 10
-41.78524
 20
-82.0
 30
0.0
 11
-39.66074
 21
-82.0
 31
0.0
  0
LINE
  5
18A
330
1D
100
AcDbEntity
  8
0
  6
Continuous
100
AcDbLine
 10
-43.90973999999999
 20
-74.8
 30
0.0
 11
-43.90973999999999
 21
-76.0
 31
0.0
  0
LINE
  5
18B
330
1D
100
AcDbEntity
  8
0
  6
Continuous
100
AcDbLine
 10
-43.90973999999999
 20
-76.0
 30
0.0
 11
-43.90973999999999
 21
-80.0
 31
0.0
  0
LINE
  5
18C
330
1D
100
AcDbEntity
  8
0
  6
Continuous
100
AcDbLine
 10
-43.90973999999999
 20
-80.0
 30
0.0
 11
-43.90973999999999
 21
-82.0
 31
0.0
  0
LINE
  5
18D
330
1D
100
AcDbEntity
  8
0
  6
Continuous
100
AcDbLine
 10
-41.78524
 20
-82.0
 30
0.0
 11
-41.78524
 21
-80.0
 31
0.0
  0
LINE
  5
18E
330
1D
100
AcDbEntity
  8
0
  6
Continuous
100
AcDbLine
 10
-41.78524
 20
-80.0
 30
0.0
 11
-41.78524
 21
-76.0
 31
0.0
  0
LINE
  5
18F
330
1D
100
AcDbEntity
  8
0
  6
Continuous
100
AcDbLine
 10
-41.78524
 20
-76.0
 30
0.0
 11
-41.78524
 21
-74.8
 31
0.0
  0
LINE
  5
190
330
1D
100
AcDbEntity
  8
0
  6
Continuous
100
AcDbLine
 10
-43.90973999999999
 20
-82.0
 30
0.0
 11
-41.78524
 21
-82.0
 31
0.0
  0
LINE
  5
191
330
1D
100
AcDbEntity
  8
0
  6
Continuous
100
AcDbLine
 10
-60.65075
 20
-82.0
 30
0.0
 11
-60.65075
 21
-80.0
 31
0.0
  0
LINE
  5
192
330
1D
100
AcDbEntity
  8
0
  6
Continuous
100
AcDbLine
 10
-60.65075
 20
-80.0
 30
0.0
 11
-60.65075
 21
-76.0
 31
0.0
  0
LINE
  5
193
330
1D
100
AcDbEntity
  8
0
  6
Continuous
100
AcDbLine
 10
-60.65075
 20
-76.0
 30
0.0
 11
-60.65075
 21
-74.8
 31
0.0
  0
LINE
  5
194
330
1D
100
AcDbEntity
  8
0
  6
Continuous
100
AcDbLine
 10
-62.77525
 20
-82.0
 30
0.0
 11
-60.65075
 21
-82.0
 31
0.0
  0
LINE
  5
195
330
1D
100
AcDbEntity
  8
0
  6
Continuous
100
AcDbLine
 10
-64.89975
 20
-74.8
 30
0.0
 11
-64.89975
 21
-76.0
 31
0.0
  0
LINE
  5
196
330
1D
100
AcDbEntity
  8
0
  6
Continuous
100
AcDbLine
 10
-64.89975
 20
-76.0
 30
0.0
 11
-64.89975
 21
-80.0
 31
0.0
  0
LINE
  5
197
330
1D
100
AcDbEntity
  8
0
  6
Continuous
100
AcDbLine
 10
-64.89975
 20
-80.0
 30
0.0
 11
-64.89975
 21
-82.0
 31
0.0
  0
LINE
  5
198
330
1D
100
AcDbEntity
  8
0
  6
Continuous
100
AcDbLine
 10
-62.77525
 20
-82.0
 30
0.0
 11
-62.77525
 21
-80.0
 31
0.0
  0
LINE
  5
199
330
1D
100
AcDbEntity
  8
0
  6
Continuous
100
AcDbLine
 10
-62.77525
 20
-80.0
 30
0.0
 11
-62.77525
 21
-76.0
 31
0.0
  0
LINE
  5
19A
330
1D
100
AcDbEntity
  8
0
  6
Continuous
100
AcDbLine
 10
-62.77525
 20
-76.0
 30
0.0
 11
-62.77525
 21
-74.8
 31
0.0
  0
LINE
  5
19B
330
1D
100
AcDbEntity
  8
0
  6
Continuous
100
AcDbLine
 10
-64.89975
 20
-82.0
 30
0.0
 11
-62.77525
 21
-82.0
 31
0.0
  0
LINE
  5
19C
330
1D
100
AcDbEntity
  8
0
  6
Continuous
100
AcDbLine
 10
-81.64075999999999
 20
-82.0
 30
0.0
 11
-81.64075999999999
 21
-80.0
 31
0.0
  0
LINE
  5
19D
330
1D
100
AcDbEntity
  8
0
  6
Continuous
100
AcDbLine
 10
-81.64075999999999
 20
-80.0
 30
0.0
 11
-81.64075999999999
 21
-76.0
 31
0.0
  0
LINE
  5
19E
330
1D
100
AcDbEntity
  8
0
  6
Continuous
100
AcDbLine
 10
-81.64075999999999
 20
-76.0
 30
0.0
 11
-81.64075999999999
 21
-74.8
 31
0.0
  0
LINE
  5
19F
330
1D
100
AcDbEntity
  8
0
  6
Continuous
100
AcDbLine
 10
-83.76526
 20
-82.0
 30
0.0
 11
-81.64075999999999
 21
-82.0
 31
0.0
  0
LINE
  5
1A0
330
1D
100
AcDbEntity
  8
0
  6
Continuous
100
AcDbLine
 10
-85.88976
 20
-74.8
 30
0.0
 11
-85.88976
 21
-76.0
 31
0.0
  0
LINE
  5
1A1
330
1D
100
AcDbEntity
  8
0
  6
Continuous
100
AcDbLine
 10
-85.88976
 20
-76.0
 30
0.0
 11
-85.88976
 21
-80.0
 31
0.0
  0
LINE
  5
1A2
330
1D
100
AcDbEntity
  8
0
  6
Continuous
100
AcDbLine
 10
-85.88976
 20
-80.0
 30
0.0
 11
-85.88976
 21
-82.0
 31
0.0
  0
LINE
  5
1A3
330
1D
100
AcDbEntity
  8
0
  6
Continuous
100
AcDbLine
 10
-83.76526
 20
-82.0
 30
0.0
 11
-83.76526
 21
-80.0
 31
0.0
  0
LINE
  5
1A4
330
1D
100
AcDbEntity
  8
0
  6
Continuous
100
AcDbLine
 10
-83.76526
 20
-80.0
 30
0.0
 11
-83.76526
 21
-76.0
 31
0.0
  0
LINE
  5
1A5
330
1D
100
AcDbEntity
  8
0
  6
Continuous
100
AcDbLine
 10
-83.76526
 20
-76.0
 30
0.0
 11
-83.76526
 21
-74.8
 31
0.0
  0
LINE
  5
1A6
330
1D
100
AcDbEntity
  8
0
  6
Continuous
100
AcDbLine
 10
-85.88976
 20
-82.0
 30
0.0
 11
-83.76526
 21
-82.0
 31
0.0
  0
LINE
  5
1A7
330
1D
100
AcDbEntity
  8
0
  6
Continuous
100
AcDbLine
 10
-102.63077
 20
-82.0
 30
0.0
 11
-102.63077
 21
-80.0
 31
0.0
  0
LINE
  5
1A8
330
1D
100
AcDbEntity
  8
0
  6
Continuous
100
AcDbLine
 10
-102.63077
 20
-80.0
 30
0.0
 11
-102.63077
 21
-76.0
 31
0.0
  0
LINE
  5
1A9
330
1D
100
AcDbEntity
  8
0
  6
Continuous
100
AcDbLine
 10
-102.63077
 20
-76.0
 30
0.0
 11
-102.63077
 21
-74.8
 31
0.0
  0
LINE
  5
1AA
330
1D
100
AcDbEntity
  8
0
  6
Continuous
100
AcDbLine
 10
-104.75527
 20
-82.0
 30
0.0
 11
-102.63077
 21
-82.0
 31
0.0
  0
LINE
  5
1AB
330
1D
100
AcDbEntity
  8
0
  6
Continuous
100
AcDbLine
 10
-106.87977
 20
-74.8
 30
0.0
 11
-106.87977
 21
-76.0
 31
0.0
  0
LINE
  5
1AC
330
1D
100
AcDbEntity
  8
0
  6
Continuous
100
AcDbLine
 10
-106.87977
 20
-76.0
 30
0.0
 11
-106.87977
 21
-80.0
 31
0.0
  0
LINE
  5
1AD
330
1D
100
AcDbEntity
  8
0
  6
Continuous
100
AcDbLine
 10
-106.87977
 20
-80.0
 30
0.0
 11
-106.87977
 21
-82.0
 31
0.0
  0
LINE
  5
1AE
330
1D
100
AcDbEntity
  8
0
  6
Continuous
100
AcDbLine
 10
-104.75527
 20
-82.0
 30
0.0
 11
-104.75527
 21
-80.0
 31
0.0
  0
LINE
  5
1AF
330
1D
100
AcDbEntity
  8
0
  6
Continuous
100
AcDbLine
 10
-104.75527
 20
-80.0
 30
0.0
 11
-104.75527
 21
-76.0
 31
0.0
  0
LINE
  5
1B0
330
1D
100
AcDbEntity
  8
0
  6
Continuous
100
AcDbLine
 10
-104.75527
 20
-76.0
 30
0.0
 11
-104.75527
 21
-74.8
 31
0.0
  0
LINE
  5
1B1
330
1D
100
AcDbEntity
  8
0
  6
Continuous
100
AcDbLine
 10
-106.87977
 20
-82.0
 30
0.0
 11
-104.75527
 21
-82.0
 31
0.0
  0
LINE
  5
1B2
330
1D
100
AcDbEntity
  8
0
  6
Continuous
100
AcDbLine
 10
-123.6208
 20
-82.0
 30
0.0
 11
-123.6208
 21
-80.0
 31
0.0
  0
LINE
  5
1B3
330
1D
100
AcDbEntity
  8
0
  6
Continuous
100
AcDbLine
 10
-123.6208
 20
-80.0
 30
0.0
 11
-123.6208
 21
-76.0
 31
0.0
  0
LINE
  5
1B4
330
1D
100
AcDbEntity
  8
0
  6
Continuous
100
AcDbLine
 10
-123.6208
 20
-76.0
 30
0.0
 11
-123.6208
 21
-74.8
 31
0.0
  0
LINE
  5
1B5
330
1D
100
AcDbEntity
  8
0
  6
Continuous
100
AcDbLine
 10
-125.74528
 20
-82.0
 30
0.0
 11
-123.6208
 21
-82.0
 31
0.0
  0
LINE
  5
1B6
330
1D
100
AcDbEntity
  8
0
  6
Continuous
100
AcDbLine
 10
-127.86976
 20
-74.8
 30
0.0
 11
-127.86976
 21
-76.0
 31
0.0
  0
LINE
  5
1B7
330
1D
100
AcDbEntity
  8
0
  6
Continuous
100
AcDbLine
 10
-127.86976
 20
-76.0
 30
0.0
 11
-127.86976
 21
-80.0
 31
0.0
  0
LINE
  5
1B8
330
1D
100
AcDbEntity
  8
0
  6
Continuous
100
AcDbLine
 10
-127.86976
 20
-80.0
 30
0.0
 11
-127.86976
 21
-82.0
 31
0.0
  0
LINE
  5
1B9
330
1D
100
AcDbEntity
  8
0
  6
Continuous
100
AcDbLine
 10
-125.74528
 20
-82.0
 30
0.0
 11
-125.74528
 21
-80.0
 31
0.0
  0
LINE
  5
1BA
330
1D
100
AcDbEntity
  8
0
  6
Continuous
100
AcDbLine
 10
-125.74528
 20
-80.0
 30
0.0
 11
-125.74528
 21
-76.0
 31
0.0
  0
LINE
  5
1BB
330
1D
100
AcDbEntity
  8
0
  6
Continuous
100
AcDbLine
 10
-125.74528
 20
-76.0
 30
0.0
 11
-125.74528
 21
-74.8
 31
0.0
  0
LINE
  5
1BC
330
1D
100
AcDbEntity
  8
0
  6
Continuous
100
AcDbLine
 10
-127.86976
 20
-82.0
 30
0.0
 11
-125.74528
 21
-82.0
 31
0.0
  0
LINE
  5
1BD
330
1D
100
AcDbEntity
  8
0
  6
Continuous
100
AcDbLine
 10
-144.61079
 20
-82.0
 30
0.0
 11
-144.61079
 21
-80.0
 31
0.0
  0
LINE
  5
1BE
330
1D
100
AcDbEntity
  8
0
  6
Continuous
100
AcDbLine
 10
-144.61079
 20
-80.0
 30
0.0
 11
-144.61079
 21
-76.0
 31
0.0
  0
LINE
  5
1BF
330
1D
100
AcDbEntity
  8
0
  6
Continuous
100
AcDbLine
 10
-144.61079
 20
-76.0
 30
0.0
 11
-144.61079
 21
-74.8
 31
0.0
  0
LINE
  5
1C0
330
1D
100
AcDbEntity
  8
0
  6
Continuous
100
AcDbLine
 10
-146.73527
 20
-82.0
 30
0.0
 11
-144.61079
 21
-82.0
 31
0.0
  0
LINE
  5
1C1
330
1D
100
AcDbEntity
  8
0
  6
Continuous
100
AcDbLine
 10
-148.85975
 20
-74.8
 30
0.0
 11
-148.85975
 21
-76.0
 31
0.0
  0
LINE
  5
1C2
330
1D
100
AcDbEntity
  8
0
  6
Continuous
100
AcDbLine
 10
-148.85975
 20
-76.0
 30
0.0
 11
-148.85975
 21
-80.0
 31
0.0
  0
LINE
  5
1C3
330
1D
100
AcDbEntity
  8
0
  6
Continuous
100
AcDbLine
 10
-148.85975
 20
-80.0
 30
0.0
 11
-148.85975
 21
-82.0
 31
0.0
  0
LINE
  5
1C4
330
1D
100
AcDbEntity
  8
0
  6
Continuous
100
AcDbLine
 10
-146.73527
 20
-82.0
 30
0.0
 11
-146.73527
 21
-80.0
 31
0.0
  0
LINE
  5
1C5
330
1D
100
AcDbEntity
  8
0
  6
Continuous
100
AcDbLine
 10
-146.73527
 20
-80.0
 30
0.0
 11
-146.73527
 21
-76.0
 31
0.0
  0
LINE
  5
1C6
330
1D
100
AcDbEntity
  8
0
  6
Continuous
100
AcDbLine
 10
-146.73527
 20
-76.0
 30
0.0
 11
-146.73527
 21
-74.8
 31
0.0
  0
LINE
  5
1C7
330
1D
100
AcDbEntity
  8
0
  6
Continuous
100
AcDbLine
 10
-148.85975
 20
-82.0
 30
0.0
 11
-146.73527
 21
-82.0
 31
0.0
  0
LINE
  5
1C8
330
1D
100
AcDbEntity
  8
0
  6
Continuous
100
AcDbLine
 10
-165.60078
 20
-82.0
 30
0.0
 11
-165.60078
 21
-80.0
 31
0.0
  0
LINE
  5
1C9
330
1D
100
AcDbEntity
  8
0
  6
Continuous
100
AcDbLine
 10
-165.60078
 20
-80.0
 30
0.0
 11
-165.60078
 21
-76.0
 31
0.0
  0
LINE
  5
1CA
330
1D
100
AcDbEntity
  8
0
  6
Continuous
100
AcDbLine
 10
-165.60078
 20
-76.0
 30
0.0
 11
-165.60078
 21
-74.8
 31
0.0
  0
LINE
  5
1CB
330
1D
100
AcDbEntity
  8
0
  6
Continuous
100
AcDbLine
 10
-167.72526
 20
-82.0
 30
0.0
 11
-165.60078
 21
-82.0
 31
0.0
  0
LINE
  5
1CC
330
1D
100
AcDbEntity
  8
0
  6
Continuous
100
AcDbLine
 10
-169.84974
 20
-74.8
 30
0.0
 11
-169.84974
 21
-76.0
 31
0.0
  0
LINE
  5
1CD
330
1D
100
AcDbEntity
  8
0
  6
Continuous
100
AcDbLine
 10
-169.84974
 20
-76.0
 30
0.0
 11
-169.84974
 21
-80.0
 31
0.0
  0
LINE
  5
1CE
330
1D
100
AcDbEntity
  8
0
  6
Continuous
100
AcDbLine
 10
-169.84974
 20
-80.0
 30
0.0
 11
-169.84974
 21
-82.0
 31
0.0
  0
LINE
  5
1CF
330
1D
100
AcDbEntity
  8
0
  6
Continuous
100
AcDbLine
 10
-167.72526
 20
-82.0
 30
0.0
 11
-167.72526
 21
-80.0
 31
0.0
  0
LINE
  5
1D0
330
1D
100
AcDbEntity
  8
0
  6
Continuous
100
AcDbLine
 10
-167.72526
 20
-80.0
 30
0.0
 11
-167.72526
 21
-76.0
 31
0.0
  0
LINE
  5
1D1
330
1D
100
AcDbEntity
  8
0
  6
Continuous
100
AcDbLine
 10
-167.72526
 20
-76.0
 30
0.0
 11
-167.72526
 21
-74.8
 31
0.0
  0
LINE
  5
1D2
330
1D
100
AcDbEntity
  8
0
  6
Continuous
100
AcDbLine
 10
-169.84974
 20
-82.0
 30
0.0
 11
-167.72526
 21
-82.0
 31
0.0
  0
LINE
  5
1D3
330
1D
100
AcDbEntity
  8
0
  6
Continuous
100
AcDbLine
 10
-186.59077
 20
-82.0
 30
0.0
 11
-186.59077
 21
-80.0
 31
0.0
  0
LINE
  5
1D4
330
1D
100
AcDbEntity
  8
0
  6
Continuous
100
AcDbLine
 10
-186.59077
 20
-80.0
 30
0.0
 11
-186.59077
 21
-76.0
 31
0.0
  0
LINE
  5
1D5
330
1D
100
AcDbEntity
  8
0
  6
Continuous
100
AcDbLine
 10
-186.59077
 20
-76.0
 30
0.0
 11
-186.59077
 21
-74.8
 31
0.0
  0
LINE
  5
1D6
330
1D
100
AcDbEntity
  8
0
  6
Continuous
100
AcDbLine
 10
-188.71525
 20
-82.0
 30
0.0
 11
-186.59077
 21
-82.0
 31
0.0
  0
LINE
  5
1D7
330
1D
100
AcDbEntity
  8
0
  6
Continuous
100
AcDbLine
 10
-190.83973
 20
-74.8
 30
0.0
 11
-190.83973
 21
-76.0
 31
0.0
  0
LINE
  5
1D8
330
1D
100
AcDbEntity
  8
0
  6
Continuous
100
AcDbLine
 10
-190.83973
 20
-76.0
 30
0.0
 11
-190.83973
 21
-80.0
 31
0.0
  0
LINE
  5
1D9
330
1D
100
AcDbEntity
  8
0
  6
Continuous
100
AcDbLine
 10
-190.83973
 20
-80.0
 30
0.0
 11
-190.83973
 21
-82.0
 31
0.0
  0
LINE
  5
1DA
330
1D
100
AcDbEntity
  8
0
  6
Continuous
100
AcDbLine
 10
-188.71525
 20
-82.0
 30
0.0
 11
-188.71525
 21
-80.0
 31
0.0
  0
LINE
  5
1DB
330
1D
100
AcDbEntity
  8
0
  6
Continuous
100
AcDbLine
 10
-188.71525
 20
-80.0
 30
0.0
 11
-188.71525
 21
-76.0
 31
0.0
  0
LINE
  5
1DC
330
1D
100
AcDbEntity
  8
0
  6
Continuous
100
AcDbLine
 10
-188.71525
 20
-76.0
 30
0.0
 11
-188.71525
 21
-74.8
 31
0.0
  0
LINE
  5
1DD
330
1D
100
AcDbEntity
  8
0
  6
Continuous
100
AcDbLine
 10
-190.83973
 20
-82.0
 30
0.0
 11
-188.71525
 21
-82.0
 31
0.0
  0
LINE
  5
1DE
330
1D
100
AcDbEntity
  8
0
  6
Continuous
100
AcDbLine
 10
-207.58076
 20
-82.0
 30
0.0
 11
-207.58076
 21
-80.0
 31
0.0
  0
LINE
  5
1DF
330
1D
100
AcDbEntity
  8
0
  6
Continuous
100
AcDbLine
 10
-207.58076
 20
-80.0
 30
0.0
 11
-207.58076
 21
-76.0
 31
0.0
  0
LINE
  5
1E0
330
1D
100
AcDbEntity
  8
0
  6
Continuous
100
AcDbLine
 10
-207.58076
 20
-76.0
 30
0.0
 11
-207.58076
 21
-74.8
 31
0.0
  0
LINE
  5
1E1
330
1D
100
AcDbEntity
  8
0
  6
Continuous
100
AcDbLine
 10
-209.70524
 20
-82.0
 30
0.0
 11
-207.58076
 21
-82.0
 31
0.0
  0
LINE
  5
1E2
330
1D
100
AcDbEntity
  8
0
  6
Continuous
100
AcDbLine
 10
-211.82972
 20
-74.8
 30
0.0
 11
-211.82972
 21
-76.0
 31
0.0
  0
LINE
  5
1E3
330
1D
100
AcDbEntity
  8
0
  6
Continuous
100
AcDbLine
 10
-211.82972
 20
-76.0
 30
0.0
 11
-211.82972
 21
-80.0
 31
0.0
  0
LINE
  5
1E4
330
1D
100
AcDbEntity
  8
0
  6
Continuous
100
AcDbLine
 10
-211.82972
 20
-80.0
 30
0.0
 11
-211.82972
 21
-82.0
 31
0.0
  0
LINE
  5
1E5
330
1D
100
AcDbEntity
  8
0
  6
Continuous
100
AcDbLine
 10
-209.70524
 20
-82.0
 30
0.0
 11
-209.70524
 21
-80.0
 31
0.0
  0
LINE
  5
1E6
330
1D
100
AcDbEntity
  8
0
  6
Continuous
100
AcDbLine
 10
-209.70524
 20
-80.0
 30
0.0
 11
-209.70524
 21
-76.0
 31
0.0
  0
LINE
  5
1E7
330
1D
100
AcDbEntity
  8
0
  6
Continuous
100
AcDbLine
 10
-209.70524
 20
-76.0
 30
0.0
 11
-209.70524
 21
-74.8
 31
0.0
  0
LINE
  5
1E8
330
1D
100
AcDbEntity
  8
0
  6
Continuous
100
AcDbLine
 10
-211.82972
 20
-82.0
 30
0.0
 11
-209.70524
 21
-82.0
 31
0.0
  0
LINE
  5
1E9
330
1D
100
AcDbEntity
  8
0
  6
Continuous
100
AcDbLine
 10
-76.49982
 20
70.0
 30
0.0
 11
76.49978
 21
70.0
 31
0.0
  0
LINE
  5
1EA
330
1D
100
AcDbEntity
  8
0
  6
Continuous
100
AcDbLine
 10
76.49978
 20
82.0
 30
0.0
 11
-76.49982
 21
82.0
 31
0.0
  0
LINE
  5
1EB
330
1D
100
AcDbEntity
  8
0
  6
Continuous
100
AcDbLine
 10
-78.00002
 20
80.50508
 30
0.0
 11
-78.00002
 21
71.49491000000001
 31
0.0
  0
LINE
  5
1EC
330
1D
100
AcDbEntity
  8
0
  6
Continuous
100
AcDbLine
 10
77.99997999999999
 20
71.49491000000001
 30
0.0
 11
77.99997999999999
 21
80.50508
 31
0.0
  0
LINE
  5
1ED
330
1D
100
AcDbEntity
  8
0
  6
Continuous
100
AcDbLine
 10
77.99997999999999
 20
82.0
 30
0.0
 11
76.49978
 21
82.0
 31
0.0
  0
LINE
  5
1EE
330
1D
100
AcDbEntity
  8
0
  6
Continuous
100
AcDbLine
 10
77.99997999999999
 20
80.50508
 30
0.0
 11
77.99997999999999
 21
82.0
 31
0.0
  0
LINE
  5
1EF
330
1D
100
AcDbEntity
  8
0
  6
Continuous
100
AcDbLine
 10
77.99997999999999
 20
70.0
 30
0.0
 11
77.99997999999999
 21
71.49491000000001
 31
0.0
  0
LINE
  5
1F0
330
1D
100
AcDbEntity
  8
0
  6
Continuous
100
AcDbLine
 10
76.49978
 20
70.0
 30
0.0
 11
77.99997999999999
 21
70.0
 31
0.0
  0
LINE
  5
1F1
330
1D
100
AcDbEntity
  8
0
  6
Continuous
100
AcDbLine
 10
-78.00002
 20
82.0
 30
0.0
 11
-78.00002
 21
80.50508
 31
0.0
  0
LINE
  5
1F2
330
1D
100
AcDbEntity
  8
0
  6
Continuous
100
AcDbLine
 10
-76.49982
 20
82.0
 30
0.0
 11
-78.00002
 21
82.0
 31
0.0
  0
LINE
  5
1F3
330
1D
100
AcDbEntity
  8
0
  6
Continuous
100
AcDbLine
 10
-78.00002
 20
70.0
 30
0.0
 11
-76.49982
 21
70.0
 31
0.0
  0
LINE
  5
1F4
330
1D
100
AcDbEntity
  8
0
  6
Continuous
100
AcDbLine
 10
-78.00002
 20
71.49491000000001
 30
0.0
 11
-78.00002
 21
70.0
 31
0.0
  0
LINE
  5
1F5
330
1D
100
AcDbEntity
  8
0
  6
Continuous
100
AcDbLine
 10
21.49998
 20
-22.78928
 30
0.0
 11
21.49998
 21
70.0
 31
0.0
  0
LINE
  5
1F6
330
1D
100
AcDbEntity
  8
0
  6
Continuous
100
AcDbLine
 10
-21.50002
 20
70.0
 30
0.0
 11
-21.50002
 21
-22.78928
 31
0.0
  0
LINE
  5
1F7
330
1D
100
AcDbEntity
  8
0
  6
Continuous
100
AcDbLine
 10
21.49998
 20
-23.78928
 30
0.0
 11
21.49998
 21
-22.78928
 31
0.0
  0
LINE
  5
1F8
330
1D
100
AcDbEntity
  8
0
  6
Continuous
100
AcDbLine
 10
-21.50002
 20
-22.78928
 30
0.0
 11
-21.50002
 21
-23.78928
 31
0.0
  0
LINE
  5
1F9
330
1D
100
AcDbEntity
  8
0
  6
Continuous
100
AcDbLine
 10
-28.53107
 20
-24.78929
 30
0.0
 11
-28.53107
 21
-33.67928
 31
0.0
  0
LINE
  5
1FA
330
1D
100
AcDbEntity
  8
0
  6
Continuous
100
AcDbLine
 10
28.53103
 20
-33.67928
 30
0.0
 11
28.53103
 21
-24.78929
 31
0.0
  0
LINE
  5
1FB
330
1D
100
AcDbEntity
  8
0
  6
Continuous
100
AcDbLine
 10
12.93167
 20
-34.67928
 30
0.0
 11
11.30852
 21
-34.67927
 31
0.0
  0
LINE
  5
1FC
330
1D
100
AcDbEntity
  8
0
  6
Continuous
100
AcDbLine
 10
11.30852
 20
-34.67927
 30
0.0
 11
-0.00002
 21
-34.67928
 31
0.0
  0
LINE
  5
1FD
330
1D
100
AcDbEntity
  8
0
  6
Continuous
100
AcDbLine
 10
-24.61562
 20
-39.61779
 30
0.0
 11
-13.32189
 21
-39.61779
 31
0.0
  0
LINE
  5
1FE
330
1D
100
AcDbEntity
  8
0
  6
Continuous
100
AcDbLine
 10
24.61559
 20
-39.61779
 30
0.0
 11
32.16183
 21
-39.61779
 31
0.0
  0
LINE
  5
1FF
330
1D
100
AcDbEntity
  8
0
  6
Continuous
100
AcDbLine
 10
13.32185
 20
-39.61779
 30
0.0
 11
24.61559
 21
-39.61779
 31
0.0
  0
LINE
  5
200
330
1D
100
AcDbEntity
  8
0
  6
Continuous
100
AcDbLine
 10
-32.16187
 20
-39.61779
 30
0.0
 11
-24.61562
 21
-39.61779
 31
0.0
  0
LINE
  5
201
330
1D
100
AcDbEntity
  8
0
  6
Continuous
100
AcDbLine
 10
-34.81175
 20
-35.67928
 30
0.0
 11
-34.81175
 21
-39.51975500000001
 31
0.0
  0
LINE
  5
202
330
1D
100
AcDbEntity
  8
0
  6
Continuous
100
AcDbLine
 10
-0.00002
 20
-39.61779
 30
0.0
 11
13.32185
 21
-39.61779
 31
0.0
  0
LINE
  5
203
330
1D
100
AcDbEntity
  8
0
  6
Continuous
100
AcDbLine
 10
-13.32189
 20
-39.61779
 30
0.0
 11
-0.00002
 21
-39.61779
 31
0.0
  0
LINE
  5
204
330
1D
100
AcDbEntity
  8
0
  6
Continuous
100
AcDbLine
 10
34.81172
 20
-39.519766
 30
0.0
 11
34.81172
 21
-35.67928
 31
0.0
  0
LINE
  5
205
330
1D
100
AcDbEntity
  8
0
  6
Continuous
100
AcDbLine
 10
28.53103
 20
-24.78929
 30
0.0
 11
28.53103
 21
-23.78928
 31
0.0
  0
LINE
  5
206
330
1D
100
AcDbEntity
  8
0
  6
Continuous
100
AcDbLine
 10
28.53103
 20
-23.78928
 30
0.0
 11
26.35924
 21
-23.78928
 31
0.0
  0
LINE
  5
207
330
1D
100
AcDbEntity
  8
0
  6
Continuous
100
AcDbLine
 10
26.35924
 20
-23.78928
 30
0.0
 11
20.17448
 21
-23.78928
 31
0.0
  0
LINE
  5
208
330
1D
100
AcDbEntity
  8
0
  6
Continuous
100
AcDbLine
 10
20.17448
 20
-23.78928
 30
0.0
 11
10.91834
 21
-23.78928
 31
0.0
  0
LINE
  5
209
330
1D
100
AcDbEntity
  8
0
  6
Continuous
100
AcDbLine
 10
10.91834
 20
-23.78928
 30
0.0
 11
-0.00002
 21
-23.78928
 31
0.0
  0
LINE
  5
20A
330
1D
100
AcDbEntity
  8
0
  6
Continuous
100
AcDbLine
 10
-0.00002
 20
-23.78928
 30
0.0
 11
-10.91837
 21
-23.78928
 31
0.0
  0
LINE
  5
20B
330
1D
100
AcDbEntity
  8
0
  6
Continuous
100
AcDbLine
 10
-10.91837
 20
-23.78928
 30
0.0
 11
-20.17451
 21
-23.78928
 31
0.0
  0
LINE
  5
20C
330
1D
100
AcDbEntity
  8
0
  6
Continuous
100
AcDbLine
 10
-20.17451
 20
-23.78928
 30
0.0
 11
-26.35928
 21
-23.78928
 31
0.0
  0
LINE
  5
20D
330
1D
100
AcDbEntity
  8
0
  6
Continuous
100
AcDbLine
 10
-28.53107
 20
-23.78928
 30
0.0
 11
-28.53107
 21
-24.78929
 31
0.0
  0
LINE
  5
20E
330
1D
100
AcDbEntity
  8
0
  6
Continuous
100
AcDbLine
 10
-26.35928
 20
-23.78928
 30
0.0
 11
-28.53107
 21
-23.78928
 31
0.0
  0
LINE
  5
20F
330
1D
100
AcDbEntity
  8
0
  6
Continuous
100
AcDbLine
 10
28.53103
 20
-34.67928
 30
0.0
 11
28.53103
 21
-33.67928
 31
0.0
  0
LINE
  5
210
330
1D
100
AcDbEntity
  8
0
  6
Continuous
100
AcDbLine
 10
-28.53107
 20
-33.67928
 30
0.0
 11
-28.53107
 21
-34.67928
 31
0.0
  0
LINE
  5
211
330
1D
100
AcDbEntity
  8
0
  6
Continuous
100
AcDbLine
 10
34.81172
 20
-35.67928
 30
0.0
 11
34.81172
 21
-34.67928
 31
0.0
  0
LINE
  5
212
330
1D
100
AcDbEntity
  8
0
  6
Continuous
100
AcDbLine
 10
34.81172
 20
-34.67928
 30
0.0
 11
32.16183
 21
-34.67928
 31
0.0
  0
LINE
  5
213
330
1D
100
AcDbEntity
  8
0
  6
Continuous
100
AcDbLine
 10
32.16183
 20
-34.67928
 30
0.0
 11
24.61559
 21
-34.67928
 31
0.0
  0
LINE
  5
214
330
1D
100
AcDbEntity
  8
0
  6
Continuous
100
AcDbLine
 10
24.61559
 20
-34.67928
 30
0.0
 11
13.32185
 21
-34.67928
 31
0.0
  0
LINE
  5
215
330
1D
100
AcDbEntity
  8
0
  6
Continuous
100
AcDbLine
 10
13.32185
 20
-34.67928
 30
0.0
 11
-0.00001
 21
-34.67928
 31
0.0
  0
LINE
  5
216
330
1D
100
AcDbEntity
  8
0
  6
Continuous
100
AcDbLine
 10
-0.00001
 20
-34.67928
 30
0.0
 11
-12.93171
 21
-34.67927
 31
0.0
  0
LINE
  5
217
330
1D
100
AcDbEntity
  8
0
  6
Continuous
100
AcDbLine
 10
-0.00001
 20
-34.67928
 30
0.0
 11
-13.32189
 21
-34.67929
 31
0.0
  0
LINE
  5
218
330
1D
100
AcDbEntity
  8
0
  6
Continuous
100
AcDbLine
 10
-12.93171
 20
-34.67927
 30
0.0
 11
-23.89467
 21
-34.67928
 31
0.0
  0
LINE
  5
219
330
1D
100
AcDbEntity
  8
0
  6
Continuous
100
AcDbLine
 10
-13.32189
 20
-34.67929
 30
0.0
 11
-24.61563
 21
-34.67928
 31
0.0
  0
LINE
  5
21A
330
1D
100
AcDbEntity
  8
0
  6
Continuous
100
AcDbLine
 10
-23.89467
 20
-34.67928
 30
0.0
 11
-31.21988
 21
-34.67927
 31
0.0
  0
LINE
  5
21B
330
1D
100
AcDbEntity
  8
0
  6
Continuous
100
AcDbLine
 10
-24.61563
 20
-34.67928
 30
0.0
 11
-32.16187
 21
-34.67929
 31
0.0
  0
LINE
  5
21C
330
1D
100
AcDbEntity
  8
0
  6
Continuous
100
AcDbLine
 10
-31.21988
 20
-34.67927
 30
0.0
 11
-33.79216
 21
-34.67928
 31
0.0
  0
LINE
  5
21D
330
1D
100
AcDbEntity
  8
0
  6
Continuous
100
AcDbLine
 10
-34.81175
 20
-34.67928
 30
0.0
 11
-34.81175
 21
-35.67928
 31
0.0
  0
LINE
  5
21E
330
1D
100
AcDbEntity
  8
0
  6
Continuous
100
AcDbLine
 10
-32.16187
 20
-34.67929
 30
0.0
 11
-34.81175
 21
-34.67928
 31
0.0
  0
LINE
  5
21F
330
1D
100
AcDbEntity
  8
0
  6
Continuous
100
AcDbLine
 10
207.97037
 20
-76.0
 30
0.0
 11
210.09487
 21
-76.0
 31
0.0
  0
LINE
  5
220
330
1D
100
AcDbEntity
  8
0
  6
Continuous
100
AcDbLine
 10
-85.88976
 20
-76.0
 30
0.0
 11
-83.76526
 21
-76.0
 31
0.0
  0
LINE
  5
221
330
1D
100
AcDbEntity
  8
0
  6
Continuous
100
AcDbLine
 10
-127.86976
 20
-76.0
 30
0.0
 11
-125.74528
 21
-76.0
 31
0.0
  0
LINE
  5
222
330
1D
100
AcDbEntity
  8
0
  6
Continuous
100
AcDbLine
 10
-148.85975
 20
-76.0
 30
0.0
 11
-146.73527
 21
-76.0
 31
0.0
  0
LINE
  5
223
330
1D
100
AcDbEntity
  8
0
  6
Continuous
100
AcDbLine
 10
-83.76526
 20
-76.0
 30
0.0
 11
-81.64075999999999
 21
-76.0
 31
0.0
  0
LINE
  5
224
330
1D
100
AcDbEntity
  8
0
  6
Continuous
100
AcDbLine
 10
-104.75527
 20
-76.0
 30
0.0
 11
-102.63077
 21
-76.0
 31
0.0
  0
LINE
  5
225
330
1D
100
AcDbEntity
  8
0
  6
Continuous
100
AcDbLine
 10
-169.84974
 20
-76.0
 30
0.0
 11
-167.72526
 21
-76.0
 31
0.0
  0
LINE
  5
226
330
1D
100
AcDbEntity
  8
0
  6
Continuous
100
AcDbLine
 10
21.18479
 20
-76.0
 30
0.0
 11
23.30929
 21
-76.0
 31
0.0
  0
LINE
  5
227
330
1D
100
AcDbEntity
  8
0
  6
Continuous
100
AcDbLine
 10
0.19478
 20
-76.0
 30
0.0
 11
2.31928
 21
-76.0
 31
0.0
  0
LINE
  5
228
330
1D
100
AcDbEntity
  8
0
  6
Continuous
100
AcDbLine
 10
0.19478
 20
-80.0
 30
0.0
 11
2.31928
 21
-80.0
 31
0.0
  0
LINE
  5
229
330
1D
100
AcDbEntity
  8
0
  6
Continuous
100
AcDbLine
 10
-1.92972
 20
-76.0
 30
0.0
 11
0.00001
 21
-76.0
 31
0.0
  0
LINE
  5
22A
330
1D
100
AcDbEntity
  8
0
  6
Continuous
100
AcDbLine
 10
0.00001
 20
-76.0
 30
0.0
 11
0.19478
 21
-76.0
 31
0.0
  0
LINE
  5
22B
330
1D
100
AcDbEntity
  8
0
  6
Continuous
100
AcDbLine
 10
-1.92972
 20
-80.0
 30
0.0
 11
0.00001
 21
-80.0
 31
0.0
  0
LINE
  5
22C
330
1D
100
AcDbEntity
  8
0
  6
Continuous
100
AcDbLine
 10
103.02033
 20
-76.0
 30
0.0
 11
105.14482
 21
-76.0
 31
0.0
  0
LINE
  5
22D
330
1D
100
AcDbEntity
  8
0
  6
Continuous
100
AcDbLine
 10
-62.77525
 20
-76.0
 30
0.0
 11
-60.65075
 21
-76.0
 31
0.0
  0
LINE
  5
22E
330
1D
100
AcDbEntity
  8
0
  6
Continuous
100
AcDbLine
 10
-22.91973
 20
-76.0
 30
0.0
 11
-20.79523
 21
-76.0
 31
0.0
  0
LINE
  5
22F
330
1D
100
AcDbEntity
  8
0
  6
Continuous
100
AcDbLine
 10
19.06029
 20
-76.0
 30
0.0
 11
21.18479
 21
-76.0
 31
0.0
  0
LINE
  5
230
330
1D
100
AcDbEntity
  8
0
  6
Continuous
100
AcDbLine
 10
42.1748
 20
-76.0
 30
0.0
 11
44.2993
 21
-76.0
 31
0.0
  0
LINE
  5
231
330
1D
100
AcDbEntity
  8
0
  6
Continuous
100
AcDbLine
 10
-64.89975
 20
-76.0
 30
0.0
 11
-62.77525
 21
-76.0
 31
0.0
  0
LINE
  5
232
330
1D
100
AcDbEntity
  8
0
  6
Continuous
100
AcDbLine
 10
40.0503
 20
-76.0
 30
0.0
 11
42.1748
 21
-76.0
 31
0.0
  0
LINE
  5
233
330
1D
100
AcDbEntity
  8
0
  6
Continuous
100
AcDbLine
 10
-190.83973
 20
-76.0
 30
0.0
 11
-188.71525
 21
-76.0
 31
0.0
  0
LINE
  5
234
330
1D
100
AcDbEntity
  8
0
  6
Continuous
100
AcDbLine
 10
124.01034
 20
-76.0
 30
0.0
 11
126.13483
 21
-76.0
 31
0.0
  0
LINE
  5
235
330
1D
100
AcDbEntity
  8
0
  6
Continuous
100
AcDbLine
 10
145.00034
 20
-76.0
 30
0.0
 11
147.12484
 21
-76.0
 31
0.0
  0
LINE
  5
236
330
1D
100
AcDbEntity
  8
0
  6
Continuous
100
AcDbLine
 10
82.03032
 20
-76.0
 30
0.0
 11
84.15480999999999
 21
-76.0
 31
0.0
  0
LINE
  5
237
330
1D
100
AcDbEntity
  8
0
  6
Continuous
100
AcDbLine
 10
186.98036
 20
-76.0
 30
0.0
 11
189.10486
 21
-76.0
 31
0.0
  0
LINE
  5
238
330
1D
100
AcDbEntity
  8
0
  6
Continuous
100
AcDbLine
 10
24.01932
 20
-76.0
 30
0.0
 11
26.14382
 21
-76.0
 31
0.0
  0
LINE
  5
239
330
1D
100
AcDbEntity
  8
0
  6
Continuous
100
AcDbLine
 10
61.04030999999999
 20
-76.0
 30
0.0
 11
63.16481
 21
-76.0
 31
0.0
  0
LINE
  5
23A
330
1D
100
AcDbEntity
  8
0
  6
Continuous
100
AcDbLine
 10
-106.87977
 20
-76.0
 30
0.0
 11
-104.75527
 21
-76.0
 31
0.0
  0
LINE
  5
23B
330
1D
100
AcDbEntity
  8
0
  6
Continuous
100
AcDbLine
 10
-211.82972
 20
-76.0
 30
0.0
 11
-209.70524
 21
-76.0
 31
0.0
  0
LINE
  5
23C
330
1D
100
AcDbEntity
  8
0
  6
Continuous
100
AcDbLine
 10
165.99035
 20
-76.0
 30
0.0
 11
168.11485
 21
-76.0
 31
0.0
  0
LINE
  5
23D
330
1D
100
AcDbEntity
  8
0
  6
Continuous
100
AcDbLine
 10
-28.10083
 20
-76.0
 30
0.0
 11
-25.97633
 21
-76.0
 31
0.0
  0
LINE
  5
23E
330
1D
100
AcDbEntity
  8
0
  6
Continuous
100
AcDbLine
 10
-43.90973999999999
 20
-76.0
 30
0.0
 11
-41.78524
 21
-76.0
 31
0.0
  0
LINE
  5
23F
330
1D
100
AcDbEntity
  8
0
  6
Continuous
100
AcDbLine
 10
-6.847879999999999
 20
-80.0
 30
0.0
 11
-1.92972
 21
-80.0
 31
0.0
  0
LINE
  5
240
330
1D
100
AcDbEntity
  8
0
  6
Continuous
100
AcDbLine
 10
-12.65322
 20
-80.0
 30
0.0
 11
-6.847879999999999
 21
-80.0
 31
0.0
  0
LINE
  5
241
330
1D
100
AcDbEntity
  8
0
  6
Continuous
100
AcDbLine
 10
6.847839999999999
 20
-80.0
 30
0.0
 11
12.6532
 21
-80.0
 31
0.0
  0
LINE
  5
242
330
1D
100
AcDbEntity
  8
0
  6
Continuous
100
AcDbLine
 10
2.31928
 20
-80.0
 30
0.0
 11
6.847839999999999
 21
-80.0
 31
0.0
  0
LINE
  5
243
330
1D
100
AcDbEntity
  8
0
  6
Continuous
100
AcDbLine
 10
16.53219
 20
-76.0
 30
0.0
 11
17.89432
 21
-76.0
 31
0.0
  0
LINE
  5
244
330
1D
100
AcDbEntity
  8
0
  6
Continuous
100
AcDbLine
 10
-6.847879999999999
 20
-76.0
 30
0.0
 11
-1.92972
 21
-76.0
 31
0.0
  0
LINE
  5
245
330
1D
100
AcDbEntity
  8
0
  6
Continuous
100
AcDbLine
 10
-16.430547
 20
-76.0
 30
0.0
 11
-16.53223
 21
-76.0
 31
0.0
  0
LINE
  5
246
330
1D
100
AcDbEntity
  8
0
  6
Continuous
100
AcDbLine
 10
12.6532
 20
-76.0
 30
0.0
 11
16.430507
 21
-76.0
 31
0.0
  0
LINE
  5
247
330
1D
100
AcDbEntity
  8
0
  6
Continuous
100
AcDbLine
 10
6.847839999999999
 20
-76.0
 30
0.0
 11
12.6532
 21
-76.0
 31
0.0
  0
LINE
  5
248
330
1D
100
AcDbEntity
  8
0
  6
Continuous
100
AcDbLine
 10
2.31928
 20
-76.0
 30
0.0
 11
6.847839999999999
 21
-76.0
 31
0.0
  0
LINE
  5
4E5
330
1D
100
AcDbEntity
  8
0
  6
Continuous
100
AcDbLine
 10
897.3094973168613
 20
-76.0
 30
0.0
 11
873.6071573168615
 21
-76.0
 31
0.0
  0
LINE
  5
4E6
330
1D
100
AcDbEntity
  8
0
  6
Continuous
100
AcDbLine
 10
648.1050673168614
 20
-76.0
 30
0.0
 11
671.8074073168614
 21
-76.0
 31
0.0
  0
LINE
  5
4E7
330
1D
100
AcDbEntity
  8
0
  6
Continuous
100
AcDbLine
 10
873.6071573168615
 20
-76.0
 30
0.0
 11
882.3912073168614
 21
-76.0
 31
0.0
  0
LINE
  5
4E8
330
1D
100
AcDbEntity
  8
0
  6
Continuous
100
AcDbLine
 10
887.2975173168613
 20
-76.0
 30
0.0
 11
897.3094973168613
 21
-76.0
 31
0.0
  0
LINE
  5
4E9
330
1D
100
AcDbEntity
  8
0
  6
Continuous
100
AcDbLine
 10
648.1050673168614
 20
-76.0
 30
0.0
 11
671.8074073168614
 21
-76.0
 31
0.0
  0
LINE
  5
4EA
330
1D
100
AcDbEntity
  8
0
  6
Continuous
100
AcDbLine
 10
897.3094973168613
 20
-76.0
 30
0.0
 11
901.1099173168615
 21
-76.0
 31
0.0
  0
LINE
  5
4EB
330
1D
100
AcDbEntity
  8
0
  6
Continuous
100
AcDbLine
 10
901.1099173168615
 20
-76.0
 30
0.0
 11
904.3317473168613
 21
-76.0
 31
0.0
  0
LINE
  5
4EC
330
1D
100
AcDbEntity
  8
0
  6
Continuous
100
AcDbLine
 10
901.1099073168614
 20
-76.50001
 30
0.0
 11
901.1099173168615
 21
-76.0
 31
0.0
  0
LINE
  5
4ED
330
1D
100
AcDbEntity
  8
0
  6
Continuous
100
AcDbLine
 10
904.3317473168613
 20
-76.0
 30
0.0
 11
906.4845273168614
 21
-76.0
 31
0.0
  0
LINE
  5
4EE
330
1D
100
AcDbEntity
  8
0
  6
Continuous
100
AcDbLine
 10
906.4845273168614
 20
-76.0
 30
0.0
 11
907.2404573168615
 21
-76.0
 31
0.0
  0
LINE
  5
4EF
330
1D
100
AcDbEntity
  8
0
  6
Continuous
100
AcDbLine
 10
907.2404573168615
 20
-76.0
 30
0.0
 11
906.4845273168614
 21
-76.0
 31
0.0
  0
LINE
  5
4F0
330
1D
100
AcDbEntity
  8
0
  6
Continuous
100
AcDbLine
 10
907.2404573168615
 20
-76.50001
 30
0.0
 11
907.2404573168615
 21
-76.0
 31
0.0
  0
LINE
  5
4F1
330
1D
100
AcDbEntity
  8
0
  6
Continuous
100
AcDbLine
 10
906.4845273168614
 20
-76.0
 30
0.0
 11
904.3317473168613
 21
-76.0
 31
0.0
  0
LINE
  5
4F2
330
1D
100
AcDbEntity
  8
0
  6
Continuous
100
AcDbLine
 10
904.3317473168613
 20
-76.0
 30
0.0
 11
901.1099173168615
 21
-76.0
 31
0.0
  0
LINE
  5
4F3
330
1D
100
AcDbEntity
  8
0
  6
Continuous
100
AcDbLine
 10
901.1099173168615
 20
-76.0
 30
0.0
 11
897.3094973168613
 21
-76.0
 31
0.0
  0
LINE
  5
4F4
330
1D
100
AcDbEntity
  8
0
  6
Continuous
100
AcDbLine
 10
901.1099073168614
 20
-76.50001
 30
0.0
 11
901.1099173168615
 21
-76.0
 31
0.0
  0
LINE
  5
4F5
330
1D
100
AcDbEntity
  8
0
  6
Continuous
100
AcDbLine
 10
644.3046473168615
 20
-76.0
 30
0.0
 11
648.1050673168614
 21
-76.0
 31
0.0
  0
LINE
  5
4F6
330
1D
100
AcDbEntity
  8
0
  6
Continuous
100
AcDbLine
 10
644.3046473168615
 20
-76.0
 30
0.0
 11
644.3046573168615
 21
-76.50001
 31
0.0
  0
LINE
  5
4F7
330
1D
100
AcDbEntity
  8
0
  6
Continuous
100
AcDbLine
 10
641.0828373168615
 20
-76.0
 30
0.0
 11
644.3046473168615
 21
-76.0
 31
0.0
  0
LINE
  5
4F8
330
1D
100
AcDbEntity
  8
0
  6
Continuous
100
AcDbLine
 10
638.9300573168614
 20
-76.0
 30
0.0
 11
641.0828373168615
 21
-76.0
 31
0.0
  0
LINE
  5
4F9
330
1D
100
AcDbEntity
  8
0
  6
Continuous
100
AcDbLine
 10
638.1741073168614
 20
-76.0
 30
0.0
 11
638.9300573168614
 21
-76.0
 31
0.0
  0
LINE
  5
4FA
330
1D
100
AcDbEntity
  8
0
  6
Continuous
100
AcDbLine
 10
638.1741073168614
 20
-76.0
 30
0.0
 11
638.1741073168614
 21
-76.50001
 31
0.0
  0
LINE
  5
4FB
330
1D
100
AcDbEntity
  8
0
  6
Continuous
100
AcDbLine
 10
638.9300573168614
 20
-76.0
 30
0.0
 11
638.1741073168614
 21
-76.0
 31
0.0
  0
LINE
  5
4FC
330
1D
100
AcDbEntity
  8
0
  6
Continuous
100
AcDbLine
 10
641.0828273168614
 20
-76.0
 30
0.0
 11
638.9300573168614
 21
-76.0
 31
0.0
  0
LINE
  5
4FD
330
1D
100
AcDbEntity
  8
0
  6
Continuous
100
AcDbLine
 10
644.3046473168615
 20
-76.0
 30
0.0
 11
641.0828273168614
 21
-76.0
 31
0.0
  0
LINE
  5
4FE
330
1D
100
AcDbEntity
  8
0
  6
Continuous
100
AcDbLine
 10
644.3046473168615
 20
-76.0
 30
0.0
 11
644.3046573168615
 21
-76.50001
 31
0.0
  0
LINE
  5
4FF
330
1D
100
AcDbEntity
  8
0
  6
Continuous
100
AcDbLine
 10
648.1050673168614
 20
-76.0
 30
0.0
 11
644.3046473168615
 21
-76.0
 31
0.0
  0
LINE
  5
500
330
1D
100
AcDbEntity
  8
0
  6
Continuous
100
AcDbLine
 10
873.6071573168615
 20
-76.0
 30
0.0
 11
866.2985073168615
 21
-76.0
 31
0.0
  0
LINE
  5
501
330
1D
100
AcDbEntity
  8
0
  6
Continuous
100
AcDbLine
 10
861.3921973168615
 20
-76.0
 30
0.0
 11
845.2994973168614
 21
-76.0
 31
0.0
  0
LINE
  5
502
330
1D
100
AcDbEntity
  8
0
  6
Continuous
100
AcDbLine
 10
840.3931873168614
 20
-76.0
 30
0.0
 11
839.9738773168614
 21
-76.0
 31
0.0
  0
LINE
  5
503
330
1D
100
AcDbEntity
  8
0
  6
Continuous
100
AcDbLine
 10
873.6071573168615
 20
-76.0
 30
0.0
 11
839.9738773168614
 21
-76.0
 31
0.0
  0
LINE
  5
504
330
1D
100
AcDbEntity
  8
0
  6
Continuous
100
AcDbLine
 10
839.9738773168614
 20
-76.0
 30
0.0
 11
824.3004873168613
 21
-76.0
 31
0.0
  0
LINE
  5
505
330
1D
100
AcDbEntity
  8
0
  6
Continuous
100
AcDbLine
 10
819.3941773168614
 20
-76.0
 30
0.0
 11
808.1978373168615
 21
-76.0
 31
0.0
  0
LINE
  5
506
330
1D
100
AcDbEntity
  8
0
  6
Continuous
100
AcDbLine
 10
798.3951673168615
 20
-76.0
 30
0.0
 11
797.6016773168614
 21
-76.0
 31
0.0
  0
LINE
  5
507
330
1D
100
AcDbEntity
  8
0
  6
Continuous
100
AcDbLine
 10
761.8129973168614
 20
-76.0
 30
0.0
 11
761.3034573168614
 21
-76.0
 31
0.0
  0
LINE
  5
508
330
1D
100
AcDbEntity
  8
0
  6
Continuous
100
AcDbLine
 10
756.3971473168614
 20
-76.0
 30
0.0
 11
756.2847473168615
 21
-76.0
 31
0.0
  0
LINE
  5
509
330
1D
100
AcDbEntity
  8
0
  6
Continuous
100
AcDbLine
 10
751.3784273168615
 20
-76.0
 30
0.0
 11
740.3044473168614
 21
-76.0
 31
0.0
  0
LINE
  5
50A
330
1D
100
AcDbEntity
  8
0
  6
Continuous
100
AcDbLine
 10
735.3981273168614
 20
-76.0
 30
0.0
 11
719.3054373168614
 21
-76.0
 31
0.0
  0
LINE
  5
50B
330
1D
100
AcDbEntity
  8
0
  6
Continuous
100
AcDbLine
 10
714.3991273168615
 20
-76.0
 30
0.0
 11
705.4407073168614
 21
-76.0
 31
0.0
  0
LINE
  5
50C
330
1D
100
AcDbEntity
  8
0
  6
Continuous
100
AcDbLine
 10
705.4407073168614
 20
-76.0
 30
0.0
 11
698.3064273168614
 21
-76.0
 31
0.0
  0
LINE
  5
50D
330
1D
100
AcDbEntity
  8
0
  6
Continuous
100
AcDbLine
 10
693.4001173168614
 20
-76.0
 30
0.0
 11
677.3074173168614
 21
-76.0
 31
0.0
  0
LINE
  5
50E
330
1D
100
AcDbEntity
  8
0
  6
Continuous
100
AcDbLine
 10
672.4011073168615
 20
-76.0
 30
0.0
 11
671.8074073168614
 21
-76.0
 31
0.0
  0
LINE
  5
50F
330
1D
100
AcDbEntity
  8
0
  6
Continuous
100
AcDbLine
 10
839.9738773168614
 20
-76.0
 30
0.0
 11
772.7072873168614
 21
-76.0
 31
0.0
  0
LINE
  5
510
330
1D
100
AcDbEntity
  8
0
  6
Continuous
100
AcDbLine
 10
772.7072873168614
 20
-76.0
 30
0.0
 11
705.4407073168614
 21
-76.0
 31
0.0
  0
LINE
  5
511
330
1D
100
AcDbEntity
  8
0
  6
Continuous
100
AcDbLine
 10
705.4407073168614
 20
-76.0
 30
0.0
 11
671.8074073168614
 21
-76.0
 31
0.0
  0
LINE
  5
512
330
1D
100
AcDbEntity
  8
0
  6
Continuous
100
AcDbLine
 10
897.3094973168613
 20
-80.0
 30
0.0
 11
873.6071573168615
 21
-80.0
 31
0.0
  0
LINE
  5
513
330
1D
100
AcDbEntity
  8
0
  6
Continuous
100
AcDbLine
 10
648.1050673168614
 20
-80.0
 30
0.0
 11
671.8074073168614
 21
-80.0
 31
0.0
  0
LINE
  5
514
330
1D
100
AcDbEntity
  8
0
  6
Continuous
100
AcDbLine
 10
873.6071573168615
 20
-80.0
 30
0.0
 11
882.3912073168614
 21
-80.0
 31
0.0
  0
LINE
  5
515
330
1D
100
AcDbEntity
  8
0
  6
Continuous
100
AcDbLine
 10
887.2975173168613
 20
-80.0
 30
0.0
 11
897.3094973168613
 21
-80.0
 31
0.0
  0
LINE
  5
516
330
1D
100
AcDbEntity
  8
0
  6
Continuous
100
AcDbLine
 10
648.1050673168614
 20
-80.0
 30
0.0
 11
671.8074073168614
 21
-80.0
 31
0.0
  0
LINE
  5
517
330
1D
100
AcDbEntity
  8
0
  6
Continuous
100
AcDbLine
 10
897.3094973168613
 20
-80.0
 30
0.0
 11
901.1099173168615
 21
-80.0
 31
0.0
  0
LINE
  5
518
330
1D
100
AcDbEntity
  8
0
  6
Continuous
100
AcDbLine
 10
901.1099173168615
 20
-80.0
 30
0.0
 11
901.1099073168614
 21
-79.5
 31
0.0
  0
LINE
  5
519
330
1D
100
AcDbEntity
  8
0
  6
Continuous
100
AcDbLine
 10
901.1099173168615
 20
-80.0
 30
0.0
 11
904.3317473168613
 21
-80.0
 31
0.0
  0
LINE
  5
51A
330
1D
100
AcDbEntity
  8
0
  6
Continuous
100
AcDbLine
 10
904.3317473168613
 20
-80.0
 30
0.0
 11
906.4845273168614
 21
-80.0
 31
0.0
  0
LINE
  5
51B
330
1D
100
AcDbEntity
  8
0
  6
Continuous
100
AcDbLine
 10
906.4845273168614
 20
-80.0
 30
0.0
 11
907.2404473168615
 21
-80.0
 31
0.0
  0
LINE
  5
51C
330
1D
100
AcDbEntity
  8
0
  6
Continuous
100
AcDbLine
 10
907.2404573168615
 20
-80.0
 30
0.0
 11
907.2404573168615
 21
-79.5
 31
0.0
  0
LINE
  5
51D
330
1D
100
AcDbEntity
  8
0
  6
Continuous
100
AcDbLine
 10
907.2404573168615
 20
-80.0
 30
0.0
 11
906.4845273168614
 21
-80.0
 31
0.0
  0
LINE
  5
51E
330
1D
100
AcDbEntity
  8
0
  6
Continuous
100
AcDbLine
 10
906.4845273168614
 20
-80.0
 30
0.0
 11
904.3317473168613
 21
-80.0
 31
0.0
  0
LINE
  5
51F
330
1D
100
AcDbEntity
  8
0
  6
Continuous
100
AcDbLine
 10
904.3317473168613
 20
-80.0
 30
0.0
 11
901.1099173168615
 21
-80.0
 31
0.0
  0
LINE
  5
520
330
1D
100
AcDbEntity
  8
0
  6
Continuous
100
AcDbLine
 10
901.1099173168615
 20
-80.0
 30
0.0
 11
901.1099073168614
 21
-79.5
 31
0.0
  0
LINE
  5
521
330
1D
100
AcDbEntity
  8
0
  6
Continuous
100
AcDbLine
 10
901.1099173168615
 20
-80.0
 30
0.0
 11
897.3094973168613
 21
-80.0
 31
0.0
  0
LINE
  5
522
330
1D
100
AcDbEntity
  8
0
  6
Continuous
100
AcDbLine
 10
644.3046473168615
 20
-80.0
 30
0.0
 11
648.1050673168614
 21
-80.0
 31
0.0
  0
LINE
  5
523
330
1D
100
AcDbEntity
  8
0
  6
Continuous
100
AcDbLine
 10
644.3046573168615
 20
-79.5
 30
0.0
 11
644.3046473168615
 21
-80.0
 31
0.0
  0
LINE
  5
524
330
1D
100
AcDbEntity
  8
0
  6
Continuous
100
AcDbLine
 10
641.0828273168614
 20
-80.0
 30
0.0
 11
644.3046473168615
 21
-80.0
 31
0.0
  0
LINE
  5
525
330
1D
100
AcDbEntity
  8
0
  6
Continuous
100
AcDbLine
 10
638.9300573168614
 20
-80.0
 30
0.0
 11
641.0828273168614
 21
-80.0
 31
0.0
  0
LINE
  5
526
330
1D
100
AcDbEntity
  8
0
  6
Continuous
100
AcDbLine
 10
638.1741073168614
 20
-80.0
 30
0.0
 11
638.9300573168614
 21
-80.0
 31
0.0
  0
LINE
  5
527
330
1D
100
AcDbEntity
  8
0
  6
Continuous
100
AcDbLine
 10
638.1741073168614
 20
-79.5
 30
0.0
 11
638.1741073168614
 21
-80.0
 31
0.0
  0
LINE
  5
528
330
1D
100
AcDbEntity
  8
0
  6
Continuous
100
AcDbLine
 10
638.9300573168614
 20
-80.0
 30
0.0
 11
638.1741073168614
 21
-80.0
 31
0.0
  0
LINE
  5
529
330
1D
100
AcDbEntity
  8
0
  6
Continuous
100
AcDbLine
 10
641.0828373168615
 20
-80.0
 30
0.0
 11
638.9300573168614
 21
-80.0
 31
0.0
  0
LINE
  5
52A
330
1D
100
AcDbEntity
  8
0
  6
Continuous
100
AcDbLine
 10
644.3046473168615
 20
-80.0
 30
0.0
 11
641.0828373168615
 21
-80.0
 31
0.0
  0
LINE
  5
52B
330
1D
100
AcDbEntity
  8
0
  6
Continuous
100
AcDbLine
 10
644.3046573168615
 20
-79.5
 30
0.0
 11
644.3046473168615
 21
-80.0
 31
0.0
  0
LINE
  5
52C
330
1D
100
AcDbEntity
  8
0
  6
Continuous
100
AcDbLine
 10
648.1050673168614
 20
-80.0
 30
0.0
 11
644.3046473168615
 21
-80.0
 31
0.0
  0
LINE
  5
52D
330
1D
100
AcDbEntity
  8
0
  6
Continuous
100
AcDbLine
 10
873.6071573168615
 20
-80.0
 30
0.0
 11
866.2985073168615
 21
-80.0
 31
0.0
  0
LINE
  5
52E
330
1D
100
AcDbEntity
  8
0
  6
Continuous
100
AcDbLine
 10
861.3921973168615
 20
-80.0
 30
0.0
 11
845.2994973168614
 21
-80.0
 31
0.0
  0
LINE
  5
52F
330
1D
100
AcDbEntity
  8
0
  6
Continuous
100
AcDbLine
 10
840.3931873168614
 20
-80.0
 30
0.0
 11
839.9738773168614
 21
-80.0
 31
0.0
  0
LINE
  5
530
330
1D
100
AcDbEntity
  8
0
  6
Continuous
100
AcDbLine
 10
873.6071573168615
 20
-80.0
 30
0.0
 11
839.9738773168614
 21
-80.0
 31
0.0
  0
LINE
  5
531
330
1D
100
AcDbEntity
  8
0
  6
Continuous
100
AcDbLine
 10
839.9738773168614
 20
-80.0
 30
0.0
 11
824.3004873168613
 21
-80.0
 31
0.0
  0
LINE
  5
532
330
1D
100
AcDbEntity
  8
0
  6
Continuous
100
AcDbLine
 10
819.3941773168614
 20
-80.0
 30
0.0
 11
808.1978373168615
 21
-80.0
 31
0.0
  0
LINE
  5
533
330
1D
100
AcDbEntity
  8
0
  6
Continuous
100
AcDbLine
 10
798.3951673168615
 20
-80.0
 30
0.0
 11
797.6016773168614
 21
-80.0
 31
0.0
  0
LINE
  5
534
330
1D
100
AcDbEntity
  8
0
  6
Continuous
100
AcDbLine
 10
761.8129973168614
 20
-80.0
 30
0.0
 11
761.3034573168614
 21
-80.0
 31
0.0
  0
LINE
  5
535
330
1D
100
AcDbEntity
  8
0
  6
Continuous
100
AcDbLine
 10
756.3971473168614
 20
-80.0
 30
0.0
 11
756.2847473168615
 21
-80.0
 31
0.0
  0
LINE
  5
536
330
1D
100
AcDbEntity
  8
0
  6
Continuous
100
AcDbLine
 10
751.3784273168615
 20
-80.0
 30
0.0
 11
740.3044473168614
 21
-80.0
 31
0.0
  0
LINE
  5
537
330
1D
100
AcDbEntity
  8
0
  6
Continuous
100
AcDbLine
 10
735.3981273168614
 20
-80.0
 30
0.0
 11
719.3054373168614
 21
-80.0
 31
0.0
  0
LINE
  5
538
330
1D
100
AcDbEntity
  8
0
  6
Continuous
100
AcDbLine
 10
714.3991273168615
 20
-80.0
 30
0.0
 11
705.4407073168614
 21
-80.0
 31
0.0
  0
LINE
  5
539
330
1D
100
AcDbEntity
  8
0
  6
Continuous
100
AcDbLine
 10
705.4407073168614
 20
-80.0
 30
0.0
 11
698.3064273168614
 21
-80.0
 31
0.0
  0
LINE
  5
53A
330
1D
100
AcDbEntity
  8
0
  6
Continuous
100
AcDbLine
 10
693.4001173168614
 20
-80.0
 30
0.0
 11
677.3074173168614
 21
-80.0
 31
0.0
  0
LINE
  5
53B
330
1D
100
AcDbEntity
  8
0
  6
Continuous
100
AcDbLine
 10
672.4011073168615
 20
-80.0
 30
0.0
 11
671.8074073168614
 21
-80.0
 31
0.0
  0
LINE
  5
53C
330
1D
100
AcDbEntity
  8
0
  6
Continuous
100
AcDbLine
 10
839.9738773168614
 20
-80.0
 30
0.0
 11
772.7072873168614
 21
-80.0
 31
0.0
  0
LINE
  5
53D
330
1D
100
AcDbEntity
  8
0
  6
Continuous
100
AcDbLine
 10
772.7072873168614
 20
-80.0
 30
0.0
 11
705.4407073168614
 21
-80.0
 31
0.0
  0
LINE
  5
53E
330
1D
100
AcDbEntity
  8
0
  6
Continuous
100
AcDbLine
 10
705.4407073168614
 20
-80.0
 30
0.0
 11
671.8074073168614
 21
-80.0
 31
0.0
  0
LINE
  5
53F
330
1D
100
AcDbEntity
  8
0
  6
Continuous
100
AcDbLine
 10
644.3046573168615
 20
-76.50001
 30
0.0
 11
644.3046573168615
 21
-79.5
 31
0.0
  0
LINE
  5
540
330
1D
100
AcDbEntity
  8
0
  6
Continuous
100
AcDbLine
 10
641.0828273168614
 20
-76.50001
 30
0.0
 11
641.0828273168614
 21
-79.5
 31
0.0
  0
LINE
  5
541
330
1D
100
AcDbEntity
  8
0
  6
Continuous
100
AcDbLine
 10
641.0828273168614
 20
-76.50001
 30
0.0
 11
641.0828273168614
 21
-79.5
 31
0.0
  0
LINE
  5
542
330
1D
100
AcDbEntity
  8
0
  6
Continuous
100
AcDbLine
 10
638.1741073168614
 20
-79.5
 30
0.0
 11
638.1741073168614
 21
-76.50001
 31
0.0
  0
LINE
  5
543
330
1D
100
AcDbEntity
  8
0
  6
Continuous
100
AcDbLine
 10
907.2404573168615
 20
-76.50001
 30
0.0
 11
907.2404573168615
 21
-79.5
 31
0.0
  0
LINE
  5
544
330
1D
100
AcDbEntity
  8
0
  6
Continuous
100
AcDbLine
 10
901.1099073168614
 20
-79.5
 30
0.0
 11
901.1099073168614
 21
-76.50001
 31
0.0
  0
LINE
  5
545
330
1D
100
AcDbEntity
  8
0
  6
Continuous
100
AcDbLine
 10
904.3317473168613
 20
-79.5
 30
0.0
 11
904.3317473168613
 21
-76.50001
 31
0.0
  0
LINE
  5
546
330
1D
100
AcDbEntity
  8
0
  6
Continuous
100
AcDbLine
 10
901.1099073168614
 20
-76.50001
 30
0.0
 11
901.1099073168614
 21
-79.5
 31
0.0
  0
LINE
  5
547
330
1D
100
AcDbEntity
  8
0
  6
Continuous
100
AcDbLine
 10
904.3317473168613
 20
-79.5
 30
0.0
 11
904.3317473168613
 21
-76.50001
 31
0.0
  0
LINE
  5
548
330
1D
100
AcDbEntity
  8
0
  6
Continuous
100
AcDbLine
 10
644.3046573168615
 20
-76.50001
 30
0.0
 11
644.3046573168615
 21
-79.5
 31
0.0
  0
LINE
  5
549
330
1D
100
AcDbEntity
  8
0
  6
Continuous
100
AcDbLine
 10
873.7182173168614
 20
-49.25323
 30
0.0
 11
839.6252373168614
 21
-43.36097
 31
0.0
  0
LINE
  5
54A
330
1D
100
AcDbEntity
  8
0
  6
Continuous
100
AcDbLine
 10
839.6252373168614
 20
-43.36097
 30
0.0
 11
787.5152503168615
 21
-39.61779
 31
0.0
  0
LINE
  5
54B
330
1D
100
AcDbEntity
  8
0
  6
Continuous
100
AcDbLine
 10
759.6874063168614
 20
-39.61779
 30
0.0
 11
705.8292473168615
 21
-44.01786
 31
0.0
  0
LINE
  5
54C
330
1D
100
AcDbEntity
  8
0
  6
Continuous
100
AcDbLine
 10
896.9050873168614
 20
-53.94682
 30
0.0
 11
873.7182173168614
 21
-49.25323
 31
0.0
  0
LINE
  5
54D
330
1D
100
AcDbEntity
  8
0
  6
Continuous
100
AcDbLine
 10
643.8591073168614
 20
-57.5
 30
0.0
 11
643.8591073168614
 21
-74.29998999999999
 31
0.0
  0
LINE
  5
54E
330
1D
100
AcDbEntity
  8
0
  6
Continuous
100
AcDbLine
 10
637.7072873168614
 20
-57.5
 30
0.0
 11
637.7072873168614
 21
-74.29998999999999
 31
0.0
  0
LINE
  5
54F
330
1D
100
AcDbEntity
  8
0
  6
Continuous
100
AcDbLine
 10
671.6679373168614
 20
-49.40842
 30
0.0
 11
648.2234573168613
 21
-53.99103
 31
0.0
  0
LINE
  5
550
330
1D
100
AcDbEntity
  8
0
  6
Continuous
100
AcDbLine
 10
901.5554673168615
 20
-74.29998999999999
 30
0.0
 11
901.5554673168615
 21
-57.5
 31
0.0
  0
LINE
  5
551
330
1D
100
AcDbEntity
  8
0
  6
Continuous
100
AcDbLine
 10
640.6260973168614
 20
-74.29998999999999
 30
0.0
 11
640.6260973168614
 21
-57.5
 31
0.0
  0
LINE
  5
552
330
1D
100
AcDbEntity
  8
0
  6
Continuous
100
AcDbLine
 10
907.7072773168614
 20
-74.29998999999999
 30
0.0
 11
907.7072773168614
 21
-57.5
 31
0.0
  0
LINE
  5
553
330
1D
100
AcDbEntity
  8
0
  6
Continuous
100
AcDbLine
 10
904.7884773168615
 20
-57.5
 30
0.0
 11
904.7884773168615
 21
-74.29998999999999
 31
0.0
  0
LINE
  5
554
330
1D
100
AcDbEntity
  8
0
  6
Continuous
100
AcDbLine
 10
648.2234573168613
 20
-53.99103
 30
0.0
 11
638.6845773168614
 21
-56.26682999999999
 31
0.0
  0
LINE
  5
555
330
1D
100
AcDbEntity
  8
0
  6
Continuous
100
AcDbLine
 10
906.7299473168613
 20
-56.26689999999999
 30
0.0
 11
896.8377973168614
 21
-53.90757999999999
 31
0.0
  0
LINE
  5
556
330
1D
100
AcDbEntity
  8
0
  6
Continuous
100
AcDbLine
 10
637.7072873168614
 20
-74.29998999999999
 30
0.0
 11
637.7072773168614
 21
-74.79998999999999
 31
0.0
  0
LINE
  5
557
330
1D
100
AcDbEntity
  8
0
  6
Continuous
100
AcDbLine
 10
638.4658673168615
 20
-74.79998999999999
 30
0.0
 11
637.7072773168614
 21
-74.79998999999999
 31
0.0
  0
LINE
  5
558
330
1D
100
AcDbEntity
  8
0
  6
Continuous
100
AcDbLine
 10
640.6261073168614
 20
-74.79998999999999
 30
0.0
 11
638.4658673168615
 21
-74.79998999999999
 31
0.0
  0
LINE
  5
559
330
1D
100
AcDbEntity
  8
0
  6
Continuous
100
AcDbLine
 10
643.8591073168614
 20
-74.79998999999999
 30
0.0
 11
640.6261073168614
 21
-74.79998999999999
 31
0.0
  0
LINE
  5
55A
330
1D
100
AcDbEntity
  8
0
  6
Continuous
100
AcDbLine
 10
643.8591073168614
 20
-74.29998999999999
 30
0.0
 11
643.8591073168614
 21
-74.79998999999999
 31
0.0
  0
LINE
  5
55B
330
1D
100
AcDbEntity
  8
0
  6
Continuous
100
AcDbLine
 10
647.6727073168614
 20
-74.79998999999999
 30
0.0
 11
643.8591073168614
 21
-74.79998999999999
 31
0.0
  0
LINE
  5
55C
330
1D
100
AcDbEntity
  8
0
  6
Continuous
100
AcDbLine
 10
873.9572773168614
 20
-74.79998999999999
 30
0.0
 11
840.2072873168615
 21
-74.79998999999999
 31
0.0
  0
LINE
  5
55D
330
1D
100
AcDbEntity
  8
0
  6
Continuous
100
AcDbLine
 10
897.7418573168614
 20
-74.79998999999999
 30
0.0
 11
873.9572773168614
 21
-74.79998999999999
 31
0.0
  0
LINE
  5
55E
330
1D
100
AcDbEntity
  8
0
  6
Continuous
100
AcDbLine
 10
840.2072873168615
 20
-74.79998999999999
 30
0.0
 11
772.7072873168614
 21
-74.79998999999999
 31
0.0
  0
LINE
  5
55F
330
1D
100
AcDbEntity
  8
0
  6
Continuous
100
AcDbLine
 10
772.7072873168614
 20
-74.79998999999999
 30
0.0
 11
705.2072873168614
 21
-74.79998999999999
 31
0.0
  0
LINE
  5
560
330
1D
100
AcDbEntity
  8
0
  6
Continuous
100
AcDbLine
 10
705.2072873168614
 20
-74.79998999999999
 30
0.0
 11
671.4572873168614
 21
-74.79998999999999
 31
0.0
  0
LINE
  5
561
330
1D
100
AcDbEntity
  8
0
  6
Continuous
100
AcDbLine
 10
671.4572873168614
 20
-74.79998999999999
 30
0.0
 11
647.6727073168614
 21
-74.79998999999999
 31
0.0
  0
LINE
  5
562
330
1D
100
AcDbEntity
  8
0
  6
Continuous
100
AcDbLine
 10
907.7072773168614
 20
-74.79998999999999
 30
0.0
 11
907.7072773168614
 21
-74.29998999999999
 31
0.0
  0
LINE
  5
563
330
1D
100
AcDbEntity
  8
0
  6
Continuous
100
AcDbLine
 10
906.9486973168613
 20
-74.79998999999999
 30
0.0
 11
907.7072773168614
 21
-74.79998999999999
 31
0.0
  0
LINE
  5
564
330
1D
100
AcDbEntity
  8
0
  6
Continuous
100
AcDbLine
 10
904.7884673168614
 20
-74.79998999999999
 30
0.0
 11
906.9486973168613
 21
-74.79998999999999
 31
0.0
  0
LINE
  5
565
330
1D
100
AcDbEntity
  8
0
  6
Continuous
100
AcDbLine
 10
901.5554673168615
 20
-74.79998999999999
 30
0.0
 11
904.7884673168614
 21
-74.79998999999999
 31
0.0
  0
LINE
  5
566
330
1D
100
AcDbEntity
  8
0
  6
Continuous
100
AcDbLine
 10
901.5554673168615
 20
-74.79998999999999
 30
0.0
 11
901.5554673168615
 21
-74.29998999999999
 31
0.0
  0
LINE
  5
567
330
1D
100
AcDbEntity
  8
0
  6
Continuous
100
AcDbLine
 10
897.7418573168614
 20
-74.79998999999999
 30
0.0
 11
901.5554673168615
 21
-74.79998999999999
 31
0.0
  0
LINE
  5
568
330
1D
100
AcDbEntity
  8
0
  6
Continuous
100
AcDbLine
 10
671.4572873168614
 20
-56.5
 30
0.0
 11
705.2072873168614
 21
-56.50001
 31
0.0
  0
LINE
  5
569
330
1D
100
AcDbEntity
  8
0
  6
Continuous
100
AcDbLine
 10
705.2072873168614
 20
-56.50001
 30
0.0
 11
772.7072873168614
 21
-56.5
 31
0.0
  0
LINE
  5
56A
330
1D
100
AcDbEntity
  8
0
  6
Continuous
100
AcDbLine
 10
772.7072873168614
 20
-56.5
 30
0.0
 11
840.2072873168615
 21
-56.49999
 31
0.0
  0
LINE
  5
56B
330
1D
100
AcDbEntity
  8
0
  6
Continuous
100
AcDbLine
 10
907.7072773168614
 20
-56.5
 30
0.0
 11
906.7289573168613
 21
-56.27110999999999
 31
0.0
  0
LINE
  5
56C
330
1D
100
AcDbEntity
  8
0
  6
Continuous
100
AcDbLine
 10
638.6845773168614
 20
-56.26682999999999
 30
0.0
 11
637.7072873168614
 21
-56.50001
 31
0.0
  0
LINE
  5
56D
330
1D
100
AcDbEntity
  8
0
  6
Continuous
100
AcDbLine
 10
840.2072873168615
 20
-56.49999
 30
0.0
 11
873.9572773168614
 21
-56.49999
 31
0.0
  0
LINE
  5
56E
330
1D
100
AcDbEntity
  8
0
  6
Continuous
100
AcDbLine
 10
647.6648973168614
 20
-56.44230999999999
 30
0.0
 11
643.8591173168614
 21
-56.5
 31
0.0
  0
LINE
  5
56F
330
1D
100
AcDbEntity
  8
0
  6
Continuous
100
AcDbLine
 10
647.6727073168614
 20
-56.50001
 30
0.0
 11
643.8591173168614
 21
-56.5
 31
0.0
  0
LINE
  5
570
330
1D
100
AcDbEntity
  8
0
  6
Continuous
100
AcDbLine
 10
643.8591073168614
 20
-57.5
 30
0.0
 11
643.8591173168614
 21
-56.5
 31
0.0
  0
LINE
  5
571
330
1D
100
AcDbEntity
  8
0
  6
Continuous
100
AcDbLine
 10
643.8591173168614
 20
-56.5
 30
0.0
 11
640.6261073168614
 21
-56.49999
 31
0.0
  0
LINE
  5
572
330
1D
100
AcDbEntity
  8
0
  6
Continuous
100
AcDbLine
 10
641.3380873168614
 20
-56.44140999999999
 30
0.0
 11
638.4658673168615
 21
-56.5
 31
0.0
  0
LINE
  5
573
330
1D
100
AcDbEntity
  8
0
  6
Continuous
100
AcDbLine
 10
640.6260973168614
 20
-57.5
 30
0.0
 11
640.6261073168614
 21
-56.49999
 31
0.0
  0
LINE
  5
574
330
1D
100
AcDbEntity
  8
0
  6
Continuous
100
AcDbLine
 10
640.6261073168614
 20
-56.49999
 30
0.0
 11
638.4658673168615
 21
-56.5
 31
0.0
  0
LINE
  5
575
330
1D
100
AcDbEntity
  8
0
  6
Continuous
100
AcDbLine
 10
638.7101573168614
 20
-56.44183000000001
 30
0.0
 11
637.7072973168615
 21
-56.49999
 31
0.0
  0
LINE
  5
576
330
1D
100
AcDbEntity
  8
0
  6
Continuous
100
AcDbLine
 10
637.7072973168615
 20
-56.49999
 30
0.0
 11
637.7072873168614
 21
-57.5
 31
0.0
  0
LINE
  5
577
330
1D
100
AcDbEntity
  8
0
  6
Continuous
100
AcDbLine
 10
638.4658673168615
 20
-56.5
 30
0.0
 11
637.7072973168615
 21
-56.49999
 31
0.0
  0
LINE
  5
578
330
1D
100
AcDbEntity
  8
0
  6
Continuous
100
AcDbLine
 10
901.5554573168614
 20
-56.5
 30
0.0
 11
897.7418573168614
 21
-56.49999
 31
0.0
  0
LINE
  5
579
330
1D
100
AcDbEntity
  8
0
  6
Continuous
100
AcDbLine
 10
901.5554573168614
 20
-56.5
 30
0.0
 11
901.5554673168615
 21
-57.5
 31
0.0
  0
LINE
  5
57A
330
1D
100
AcDbEntity
  8
0
  6
Continuous
100
AcDbLine
 10
904.7884773168615
 20
-56.5
 30
0.0
 11
901.5554573168614
 21
-56.5
 31
0.0
  0
LINE
  5
57B
330
1D
100
AcDbEntity
  8
0
  6
Continuous
100
AcDbLine
 10
904.7884773168615
 20
-56.5
 30
0.0
 11
904.7884773168615
 21
-57.5
 31
0.0
  0
LINE
  5
57C
330
1D
100
AcDbEntity
  8
0
  6
Continuous
100
AcDbLine
 10
906.9486973168613
 20
-56.5
 30
0.0
 11
904.7884773168615
 21
-56.5
 31
0.0
  0
LINE
  5
57D
330
1D
100
AcDbEntity
  8
0
  6
Continuous
100
AcDbLine
 10
907.7072773168614
 20
-57.5
 30
0.0
 11
907.7072773168614
 21
-56.49999
 31
0.0
  0
LINE
  5
57E
330
1D
100
AcDbEntity
  8
0
  6
Continuous
100
AcDbLine
 10
907.7072773168614
 20
-56.49999
 30
0.0
 11
906.9486973168613
 21
-56.5
 31
0.0
  0
LINE
  5
57F
330
1D
100
AcDbEntity
  8
0
  6
Continuous
100
AcDbLine
 10
671.4572873168614
 20
-56.5
 30
0.0
 11
647.6727073168614
 21
-56.50001
 31
0.0
  0
LINE
  5
580
330
1D
100
AcDbEntity
  8
0
  6
Continuous
100
AcDbLine
 10
897.7418573168614
 20
-56.49999
 30
0.0
 11
873.9572773168614
 21
-56.49999
 31
0.0
  0
LINE
  5
581
330
1D
100
AcDbEntity
  8
0
  6
Continuous
100
AcDbLine
 10
907.7072773168614
 20
-56.49999
 30
0.0
 11
906.7258473168616
 21
-56.28494
 31
0.0
  0
LINE
  5
582
330
1D
100
AcDbEntity
  8
0
  6
Continuous
100
AcDbLine
 10
671.6634373168614
 20
-49.24437000000001
 30
0.0
 11
648.1988273168614
 21
-54.02307999999999
 31
0.0
  0
LINE
  5
583
330
1D
100
AcDbEntity
  8
0
  6
Continuous
100
AcDbLine
 10
705.6935073168614
 20
-44.23117
 30
0.0
 11
671.6634373168614
 21
-49.24437000000001
 31
0.0
  0
LINE
  5
584
330
1D
100
AcDbEntity
  8
0
  6
Continuous
100
AcDbLine
 10
906.7289573168613
 20
-56.27110999999999
 30
0.0
 11
896.9050873168614
 21
-53.94682
 31
0.0
  0
LINE
  5
585
330
1D
100
AcDbEntity
  8
0
  6
Continuous
100
AcDbLine
 10
638.6855373168614
 20
-56.27092999999999
 30
0.0
 11
637.7072773168614
 21
-56.49999
 31
0.0
  0
LINE
  5
586
330
1D
100
AcDbEntity
  8
0
  6
Continuous
100
AcDbLine
 10
671.6634473168615
 20
-49.24441
 30
0.0
 11
648.1838273168614
 21
-54.02338
 31
0.0
  0
LINE
  5
587
330
1D
100
AcDbEntity
  8
0
  6
Continuous
100
AcDbLine
 10
705.8292473168615
 20
-44.01786
 30
0.0
 11
671.6634473168615
 21
-49.24441
 31
0.0
  0
LINE
  5
588
330
1D
100
AcDbEntity
  8
0
  6
Continuous
100
AcDbLine
 10
796.2395473168615
 20
-81.99999
 30
0.0
 11
797.6016773168614
 21
-81.99999
 31
0.0
  0
LINE
  5
589
330
1D
100
AcDbEntity
  8
0
  6
Continuous
100
AcDbLine
 10
797.6016773168614
 20
-81.99999
 30
0.0
 11
797.6016773168614
 21
-80.0
 31
0.0
  0
LINE
  5
58A
330
1D
100
AcDbEntity
  8
0
  6
Continuous
100
AcDbLine
 10
797.6016773168614
 20
-80.0
 30
0.0
 11
797.6016773168614
 21
-76.0
 31
0.0
  0
LINE
  5
58B
330
1D
100
AcDbEntity
  8
0
  6
Continuous
100
AcDbLine
 10
797.6016773168614
 20
-76.0
 30
0.0
 11
797.6016773168614
 21
-74.8
 31
0.0
  0
LINE
  5
58C
330
1D
100
AcDbEntity
  8
0
  6
Continuous
100
AcDbLine
 10
792.3605473168614
 20
-81.99999
 30
0.0
 11
796.2395473168615
 21
-81.99999
 31
0.0
  0
LINE
  5
58D
330
1D
100
AcDbEntity
  8
0
  6
Continuous
100
AcDbLine
 10
786.5552073168615
 20
-81.99999
 30
0.0
 11
792.3605473168614
 21
-81.99999
 31
0.0
  0
LINE
  5
58E
330
1D
100
AcDbEntity
  8
0
  6
Continuous
100
AcDbLine
 10
792.3605473168614
 20
-81.99999
 30
0.0
 11
792.3605473168614
 21
-80.0
 31
0.0
  0
LINE
  5
58F
330
1D
100
AcDbEntity
  8
0
  6
Continuous
100
AcDbLine
 10
792.3605473168614
 20
-80.0
 30
0.0
 11
792.3605473168614
 21
-76.0
 31
0.0
  0
LINE
  5
590
330
1D
100
AcDbEntity
  8
0
  6
Continuous
100
AcDbLine
 10
792.3605473168614
 20
-76.0
 30
0.0
 11
792.3605473168614
 21
-74.8
 31
0.0
  0
LINE
  5
591
330
1D
100
AcDbEntity
  8
0
  6
Continuous
100
AcDbLine
 10
782.3024673168614
 20
-81.99999
 30
0.0
 11
786.5552073168615
 21
-81.99999
 31
0.0
  0
LINE
  5
592
330
1D
100
AcDbEntity
  8
0
  6
Continuous
100
AcDbLine
 10
772.8594673168615
 20
-81.99999
 30
0.0
 11
777.3961573168614
 21
-81.99999
 31
0.0
  0
LINE
  5
593
330
1D
100
AcDbEntity
  8
0
  6
Continuous
100
AcDbLine
 10
767.0541273168614
 20
-81.99999
 30
0.0
 11
772.8594673168615
 21
-81.99999
 31
0.0
  0
LINE
  5
594
330
1D
100
AcDbEntity
  8
0
  6
Continuous
100
AcDbLine
 10
763.1751273168614
 20
-81.99999
 30
0.0
 11
767.0541273168614
 21
-81.99999
 31
0.0
  0
LINE
  5
595
330
1D
100
AcDbEntity
  8
0
  6
Continuous
100
AcDbLine
 10
767.0541273168614
 20
-81.99999
 30
0.0
 11
767.0541273168614
 21
-80.0
 31
0.0
  0
LINE
  5
596
330
1D
100
AcDbEntity
  8
0
  6
Continuous
100
AcDbLine
 10
767.0541273168614
 20
-80.0
 30
0.0
 11
767.0541273168614
 21
-76.0
 31
0.0
  0
LINE
  5
597
330
1D
100
AcDbEntity
  8
0
  6
Continuous
100
AcDbLine
 10
767.0541273168614
 20
-76.0
 30
0.0
 11
767.0541273168614
 21
-74.8
 31
0.0
  0
LINE
  5
598
330
1D
100
AcDbEntity
  8
0
  6
Continuous
100
AcDbLine
 10
761.8129973168614
 20
-81.99999
 30
0.0
 11
763.1751273168614
 21
-81.99999
 31
0.0
  0
LINE
  5
599
330
1D
100
AcDbEntity
  8
0
  6
Continuous
100
AcDbLine
 10
761.8129973168614
 20
-74.8
 30
0.0
 11
761.8129973168614
 21
-81.99999
 31
0.0
  0
LINE
  5
59A
330
1D
100
AcDbEntity
  8
0
  6
Continuous
100
AcDbLine
 10
887.2975173168613
 20
-82.0
 30
0.0
 11
887.2975173168613
 21
-80.0
 31
0.0
  0
LINE
  5
59B
330
1D
100
AcDbEntity
  8
0
  6
Continuous
100
AcDbLine
 10
887.2975173168613
 20
-80.0
 30
0.0
 11
887.2975173168613
 21
-76.0
 31
0.0
  0
LINE
  5
59C
330
1D
100
AcDbEntity
  8
0
  6
Continuous
100
AcDbLine
 10
887.2975173168613
 20
-76.0
 30
0.0
 11
887.2975173168613
 21
-74.8
 31
0.0
  0
LINE
  5
59D
330
1D
100
AcDbEntity
  8
0
  6
Continuous
100
AcDbLine
 10
886.0709373168614
 20
-82.0
 30
0.0
 11
887.2975173168613
 21
-82.0
 31
0.0
  0
LINE
  5
59E
330
1D
100
AcDbEntity
  8
0
  6
Continuous
100
AcDbLine
 10
886.0709373168614
 20
-82.0
 30
0.0
 11
886.0709373168614
 21
-80.0
 31
0.0
  0
LINE
  5
59F
330
1D
100
AcDbEntity
  8
0
  6
Continuous
100
AcDbLine
 10
886.0709373168614
 20
-80.0
 30
0.0
 11
886.0709373168614
 21
-76.0
 31
0.0
  0
LINE
  5
5A0
330
1D
100
AcDbEntity
  8
0
  6
Continuous
100
AcDbLine
 10
886.0709373168614
 20
-76.0
 30
0.0
 11
886.0709373168614
 21
-74.8
 31
0.0
  0
LINE
  5
5A1
330
1D
100
AcDbEntity
  8
0
  6
Continuous
100
AcDbLine
 10
883.6177873168615
 20
-82.0
 30
0.0
 11
886.0709373168614
 21
-82.0
 31
0.0
  0
LINE
  5
5A2
330
1D
100
AcDbEntity
  8
0
  6
Continuous
100
AcDbLine
 10
882.3912073168614
 20
-74.8
 30
0.0
 11
882.3912073168614
 21
-76.0
 31
0.0
  0
LINE
  5
5A3
330
1D
100
AcDbEntity
  8
0
  6
Continuous
100
AcDbLine
 10
882.3912073168614
 20
-76.0
 30
0.0
 11
882.3912073168614
 21
-80.0
 31
0.0
  0
LINE
  5
5A4
330
1D
100
AcDbEntity
  8
0
  6
Continuous
100
AcDbLine
 10
882.3912073168614
 20
-80.0
 30
0.0
 11
882.3912073168614
 21
-82.0
 31
0.0
  0
LINE
  5
5A5
330
1D
100
AcDbEntity
  8
0
  6
Continuous
100
AcDbLine
 10
883.6177873168615
 20
-82.0
 30
0.0
 11
883.6177873168615
 21
-80.0
 31
0.0
  0
LINE
  5
5A6
330
1D
100
AcDbEntity
  8
0
  6
Continuous
100
AcDbLine
 10
883.6177873168615
 20
-80.0
 30
0.0
 11
883.6177873168615
 21
-76.0
 31
0.0
  0
LINE
  5
5A7
330
1D
100
AcDbEntity
  8
0
  6
Continuous
100
AcDbLine
 10
883.6177873168615
 20
-76.0
 30
0.0
 11
883.6177873168615
 21
-74.8
 31
0.0
  0
LINE
  5
5A8
330
1D
100
AcDbEntity
  8
0
  6
Continuous
100
AcDbLine
 10
882.3912073168614
 20
-82.0
 30
0.0
 11
883.6177873168615
 21
-82.0
 31
0.0
  0
LINE
  5
5A9
330
1D
100
AcDbEntity
  8
0
  6
Continuous
100
AcDbLine
 10
866.2985073168615
 20
-82.0
 30
0.0
 11
866.2985073168615
 21
-80.0
 31
0.0
  0
LINE
  5
5AA
330
1D
100
AcDbEntity
  8
0
  6
Continuous
100
AcDbLine
 10
866.2985073168615
 20
-80.0
 30
0.0
 11
866.2985073168615
 21
-76.0
 31
0.0
  0
LINE
  5
5AB
330
1D
100
AcDbEntity
  8
0
  6
Continuous
100
AcDbLine
 10
866.2985073168615
 20
-76.0
 30
0.0
 11
866.2985073168615
 21
-74.8
 31
0.0
  0
LINE
  5
5AC
330
1D
100
AcDbEntity
  8
0
  6
Continuous
100
AcDbLine
 10
865.0719273168615
 20
-82.0
 30
0.0
 11
866.2985073168615
 21
-82.0
 31
0.0
  0
LINE
  5
5AD
330
1D
100
AcDbEntity
  8
0
  6
Continuous
100
AcDbLine
 10
865.0719273168615
 20
-82.0
 30
0.0
 11
865.0719273168615
 21
-80.0
 31
0.0
  0
LINE
  5
5AE
330
1D
100
AcDbEntity
  8
0
  6
Continuous
100
AcDbLine
 10
865.0719273168615
 20
-80.0
 30
0.0
 11
865.0719273168615
 21
-76.0
 31
0.0
  0
LINE
  5
5AF
330
1D
100
AcDbEntity
  8
0
  6
Continuous
100
AcDbLine
 10
865.0719273168615
 20
-76.0
 30
0.0
 11
865.0719273168615
 21
-74.8
 31
0.0
  0
LINE
  5
5B0
330
1D
100
AcDbEntity
  8
0
  6
Continuous
100
AcDbLine
 10
862.6187673168615
 20
-82.0
 30
0.0
 11
865.0719273168615
 21
-82.0
 31
0.0
  0
LINE
  5
5B1
330
1D
100
AcDbEntity
  8
0
  6
Continuous
100
AcDbLine
 10
861.3921973168615
 20
-74.8
 30
0.0
 11
861.3921973168615
 21
-76.0
 31
0.0
  0
LINE
  5
5B2
330
1D
100
AcDbEntity
  8
0
  6
Continuous
100
AcDbLine
 10
861.3921973168615
 20
-76.0
 30
0.0
 11
861.3921973168615
 21
-80.0
 31
0.0
  0
LINE
  5
5B3
330
1D
100
AcDbEntity
  8
0
  6
Continuous
100
AcDbLine
 10
861.3921973168615
 20
-80.0
 30
0.0
 11
861.3921973168615
 21
-82.0
 31
0.0
  0
LINE
  5
5B4
330
1D
100
AcDbEntity
  8
0
  6
Continuous
100
AcDbLine
 10
862.6187673168615
 20
-82.0
 30
0.0
 11
862.6187673168615
 21
-80.0
 31
0.0
  0
LINE
  5
5B5
330
1D
100
AcDbEntity
  8
0
  6
Continuous
100
AcDbLine
 10
862.6187673168615
 20
-80.0
 30
0.0
 11
862.6187673168615
 21
-76.0
 31
0.0
  0
LINE
  5
5B6
330
1D
100
AcDbEntity
  8
0
  6
Continuous
100
AcDbLine
 10
862.6187673168615
 20
-76.0
 30
0.0
 11
862.6187673168615
 21
-74.8
 31
0.0
  0
LINE
  5
5B7
330
1D
100
AcDbEntity
  8
0
  6
Continuous
100
AcDbLine
 10
861.3921973168615
 20
-82.0
 30
0.0
 11
862.6187673168615
 21
-82.0
 31
0.0
  0
LINE
  5
5B8
330
1D
100
AcDbEntity
  8
0
  6
Continuous
100
AcDbLine
 10
845.2994973168614
 20
-82.0
 30
0.0
 11
845.2994973168614
 21
-80.0
 31
0.0
  0
LINE
  5
5B9
330
1D
100
AcDbEntity
  8
0
  6
Continuous
100
AcDbLine
 10
845.2994973168614
 20
-80.0
 30
0.0
 11
845.2994973168614
 21
-76.0
 31
0.0
  0
LINE
  5
5BA
330
1D
100
AcDbEntity
  8
0
  6
Continuous
100
AcDbLine
 10
845.2994973168614
 20
-76.0
 30
0.0
 11
845.2994973168614
 21
-74.8
 31
0.0
  0
LINE
  5
5BB
330
1D
100
AcDbEntity
  8
0
  6
Continuous
100
AcDbLine
 10
844.0729173168614
 20
-82.0
 30
0.0
 11
845.2994973168614
 21
-82.0
 31
0.0
  0
LINE
  5
5BC
330
1D
100
AcDbEntity
  8
0
  6
Continuous
100
AcDbLine
 10
844.0729173168614
 20
-82.0
 30
0.0
 11
844.0729173168614
 21
-80.0
 31
0.0
  0
LINE
  5
5BD
330
1D
100
AcDbEntity
  8
0
  6
Continuous
100
AcDbLine
 10
844.0729173168614
 20
-80.0
 30
0.0
 11
844.0729173168614
 21
-76.0
 31
0.0
  0
LINE
  5
5BE
330
1D
100
AcDbEntity
  8
0
  6
Continuous
100
AcDbLine
 10
844.0729173168614
 20
-76.0
 30
0.0
 11
844.0729173168614
 21
-74.8
 31
0.0
  0
LINE
  5
5BF
330
1D
100
AcDbEntity
  8
0
  6
Continuous
100
AcDbLine
 10
841.6197673168614
 20
-82.0
 30
0.0
 11
844.0729173168614
 21
-82.0
 31
0.0
  0
LINE
  5
5C0
330
1D
100
AcDbEntity
  8
0
  6
Continuous
100
AcDbLine
 10
840.3931873168614
 20
-74.8
 30
0.0
 11
840.3931873168614
 21
-76.0
 31
0.0
  0
LINE
  5
5C1
330
1D
100
AcDbEntity
  8
0
  6
Continuous
100
AcDbLine
 10
840.3931873168614
 20
-76.0
 30
0.0
 11
840.3931873168614
 21
-80.0
 31
0.0
  0
LINE
  5
5C2
330
1D
100
AcDbEntity
  8
0
  6
Continuous
100
AcDbLine
 10
840.3931873168614
 20
-80.0
 30
0.0
 11
840.3931873168614
 21
-82.0
 31
0.0
  0
LINE
  5
5C3
330
1D
100
AcDbEntity
  8
0
  6
Continuous
100
AcDbLine
 10
841.6197673168614
 20
-82.0
 30
0.0
 11
841.6197673168614
 21
-80.0
 31
0.0
  0
LINE
  5
5C4
330
1D
100
AcDbEntity
  8
0
  6
Continuous
100
AcDbLine
 10
841.6197673168614
 20
-80.0
 30
0.0
 11
841.6197673168614
 21
-76.0
 31
0.0
  0
LINE
  5
5C5
330
1D
100
AcDbEntity
  8
0
  6
Continuous
100
AcDbLine
 10
841.6197673168614
 20
-76.0
 30
0.0
 11
841.6197673168614
 21
-74.8
 31
0.0
  0
LINE
  5
5C6
330
1D
100
AcDbEntity
  8
0
  6
Continuous
100
AcDbLine
 10
840.3931873168614
 20
-82.0
 30
0.0
 11
841.6197673168614
 21
-82.0
 31
0.0
  0
LINE
  5
5C7
330
1D
100
AcDbEntity
  8
0
  6
Continuous
100
AcDbLine
 10
824.3004873168613
 20
-82.0
 30
0.0
 11
824.3004873168613
 21
-80.0
 31
0.0
  0
LINE
  5
5C8
330
1D
100
AcDbEntity
  8
0
  6
Continuous
100
AcDbLine
 10
824.3004873168613
 20
-80.0
 30
0.0
 11
824.3004873168613
 21
-76.0
 31
0.0
  0
LINE
  5
5C9
330
1D
100
AcDbEntity
  8
0
  6
Continuous
100
AcDbLine
 10
824.3004873168613
 20
-76.0
 30
0.0
 11
824.3004873168613
 21
-74.8
 31
0.0
  0
LINE
  5
5CA
330
1D
100
AcDbEntity
  8
0
  6
Continuous
100
AcDbLine
 10
823.0739173168613
 20
-82.0
 30
0.0
 11
824.3004873168613
 21
-82.0
 31
0.0
  0
LINE
  5
5CB
330
1D
100
AcDbEntity
  8
0
  6
Continuous
100
AcDbLine
 10
823.0739173168613
 20
-82.0
 30
0.0
 11
823.0739173168613
 21
-80.0
 31
0.0
  0
LINE
  5
5CC
330
1D
100
AcDbEntity
  8
0
  6
Continuous
100
AcDbLine
 10
823.0739173168613
 20
-80.0
 30
0.0
 11
823.0739173168613
 21
-76.0
 31
0.0
  0
LINE
  5
5CD
330
1D
100
AcDbEntity
  8
0
  6
Continuous
100
AcDbLine
 10
823.0739173168613
 20
-76.0
 30
0.0
 11
823.0739173168613
 21
-74.8
 31
0.0
  0
LINE
  5
5CE
330
1D
100
AcDbEntity
  8
0
  6
Continuous
100
AcDbLine
 10
820.6207573168615
 20
-82.0
 30
0.0
 11
823.0739173168613
 21
-82.0
 31
0.0
  0
LINE
  5
5CF
330
1D
100
AcDbEntity
  8
0
  6
Continuous
100
AcDbLine
 10
819.3941773168614
 20
-74.8
 30
0.0
 11
819.3941773168614
 21
-76.0
 31
0.0
  0
LINE
  5
5D0
330
1D
100
AcDbEntity
  8
0
  6
Continuous
100
AcDbLine
 10
819.3941773168614
 20
-76.0
 30
0.0
 11
819.3941773168614
 21
-80.0
 31
0.0
  0
LINE
  5
5D1
330
1D
100
AcDbEntity
  8
0
  6
Continuous
100
AcDbLine
 10
819.3941773168614
 20
-80.0
 30
0.0
 11
819.3941773168614
 21
-82.0
 31
0.0
  0
LINE
  5
5D2
330
1D
100
AcDbEntity
  8
0
  6
Continuous
100
AcDbLine
 10
820.6207573168615
 20
-82.0
 30
0.0
 11
820.6207573168615
 21
-80.0
 31
0.0
  0
LINE
  5
5D3
330
1D
100
AcDbEntity
  8
0
  6
Continuous
100
AcDbLine
 10
820.6207573168615
 20
-80.0
 30
0.0
 11
820.6207573168615
 21
-76.0
 31
0.0
  0
LINE
  5
5D4
330
1D
100
AcDbEntity
  8
0
  6
Continuous
100
AcDbLine
 10
820.6207573168615
 20
-76.0
 30
0.0
 11
820.6207573168615
 21
-74.8
 31
0.0
  0
LINE
  5
5D5
330
1D
100
AcDbEntity
  8
0
  6
Continuous
100
AcDbLine
 10
819.3941773168614
 20
-82.0
 30
0.0
 11
820.6207573168615
 21
-82.0
 31
0.0
  0
LINE
  5
5D6
330
1D
100
AcDbEntity
  8
0
  6
Continuous
100
AcDbLine
 10
803.3014773168615
 20
-82.0
 30
0.0
 11
803.3014773168615
 21
-80.0
 31
0.0
  0
LINE
  5
5D7
330
1D
100
AcDbEntity
  8
0
  6
Continuous
100
AcDbLine
 10
803.3014773168615
 20
-80.0
 30
0.0
 11
803.3014773168615
 21
-76.0
 31
0.0
  0
LINE
  5
5D8
330
1D
100
AcDbEntity
  8
0
  6
Continuous
100
AcDbLine
 10
803.3014773168615
 20
-76.0
 30
0.0
 11
803.3014773168615
 21
-74.8
 31
0.0
  0
LINE
  5
5D9
330
1D
100
AcDbEntity
  8
0
  6
Continuous
100
AcDbLine
 10
802.0748973168615
 20
-82.0
 30
0.0
 11
803.3014773168615
 21
-82.0
 31
0.0
  0
LINE
  5
5DA
330
1D
100
AcDbEntity
  8
0
  6
Continuous
100
AcDbLine
 10
802.0748973168615
 20
-82.0
 30
0.0
 11
802.0748973168615
 21
-80.0
 31
0.0
  0
LINE
  5
5DB
330
1D
100
AcDbEntity
  8
0
  6
Continuous
100
AcDbLine
 10
802.0748973168615
 20
-80.0
 30
0.0
 11
802.0748973168615
 21
-76.0
 31
0.0
  0
LINE
  5
5DC
330
1D
100
AcDbEntity
  8
0
  6
Continuous
100
AcDbLine
 10
802.0748973168615
 20
-76.0
 30
0.0
 11
802.0748973168615
 21
-74.8
 31
0.0
  0
LINE
  5
5DD
330
1D
100
AcDbEntity
  8
0
  6
Continuous
100
AcDbLine
 10
799.6217473168615
 20
-82.0
 30
0.0
 11
802.0748973168615
 21
-82.0
 31
0.0
  0
LINE
  5
5DE
330
1D
100
AcDbEntity
  8
0
  6
Continuous
100
AcDbLine
 10
798.3951673168615
 20
-74.8
 30
0.0
 11
798.3951673168615
 21
-76.0
 31
0.0
  0
LINE
  5
5DF
330
1D
100
AcDbEntity
  8
0
  6
Continuous
100
AcDbLine
 10
798.3951673168615
 20
-76.0
 30
0.0
 11
798.3951673168615
 21
-80.0
 31
0.0
  0
LINE
  5
5E0
330
1D
100
AcDbEntity
  8
0
  6
Continuous
100
AcDbLine
 10
798.3951673168615
 20
-80.0
 30
0.0
 11
798.3951673168615
 21
-82.0
 31
0.0
  0
LINE
  5
5E1
330
1D
100
AcDbEntity
  8
0
  6
Continuous
100
AcDbLine
 10
799.6217473168615
 20
-82.0
 30
0.0
 11
799.6217473168615
 21
-80.0
 31
0.0
  0
LINE
  5
5E2
330
1D
100
AcDbEntity
  8
0
  6
Continuous
100
AcDbLine
 10
799.6217473168615
 20
-80.0
 30
0.0
 11
799.6217473168615
 21
-76.0
 31
0.0
  0
LINE
  5
5E3
330
1D
100
AcDbEntity
  8
0
  6
Continuous
100
AcDbLine
 10
799.6217473168615
 20
-76.0
 30
0.0
 11
799.6217473168615
 21
-74.8
 31
0.0
  0
LINE
  5
5E4
330
1D
100
AcDbEntity
  8
0
  6
Continuous
100
AcDbLine
 10
798.3951673168615
 20
-82.0
 30
0.0
 11
799.6217473168615
 21
-82.0
 31
0.0
  0
LINE
  5
5E5
330
1D
100
AcDbEntity
  8
0
  6
Continuous
100
AcDbLine
 10
808.1978373168615
 20
-82.0
 30
0.0
 11
808.1978373168615
 21
-80.0
 31
0.0
  0
LINE
  5
5E6
330
1D
100
AcDbEntity
  8
0
  6
Continuous
100
AcDbLine
 10
808.1978373168615
 20
-80.0
 30
0.0
 11
808.1978373168615
 21
-76.0
 31
0.0
  0
LINE
  5
5E7
330
1D
100
AcDbEntity
  8
0
  6
Continuous
100
AcDbLine
 10
808.1978373168615
 20
-76.0
 30
0.0
 11
808.1978373168615
 21
-74.8
 31
0.0
  0
LINE
  5
5E8
330
1D
100
AcDbEntity
  8
0
  6
Continuous
100
AcDbLine
 10
806.9712573168615
 20
-82.0
 30
0.0
 11
808.1978373168615
 21
-82.0
 31
0.0
  0
LINE
  5
5E9
330
1D
100
AcDbEntity
  8
0
  6
Continuous
100
AcDbLine
 10
806.9712573168615
 20
-82.0
 30
0.0
 11
806.9712573168615
 21
-80.0
 31
0.0
  0
LINE
  5
5EA
330
1D
100
AcDbEntity
  8
0
  6
Continuous
100
AcDbLine
 10
806.9712573168615
 20
-80.0
 30
0.0
 11
806.9712573168615
 21
-76.0
 31
0.0
  0
LINE
  5
5EB
330
1D
100
AcDbEntity
  8
0
  6
Continuous
100
AcDbLine
 10
806.9712573168615
 20
-76.0
 30
0.0
 11
806.9712573168615
 21
-74.8
 31
0.0
  0
LINE
  5
5EC
330
1D
100
AcDbEntity
  8
0
  6
Continuous
100
AcDbLine
 10
804.5180973168614
 20
-82.0
 30
0.0
 11
806.9712573168615
 21
-82.0
 31
0.0
  0
LINE
  5
5ED
330
1D
100
AcDbEntity
  8
0
  6
Continuous
100
AcDbLine
 10
804.5180973168614
 20
-82.0
 30
0.0
 11
804.5180973168614
 21
-80.0
 31
0.0
  0
LINE
  5
5EE
330
1D
100
AcDbEntity
  8
0
  6
Continuous
100
AcDbLine
 10
804.5180973168614
 20
-80.0
 30
0.0
 11
804.5180973168614
 21
-76.0
 31
0.0
  0
LINE
  5
5EF
330
1D
100
AcDbEntity
  8
0
  6
Continuous
100
AcDbLine
 10
804.5180973168614
 20
-76.0
 30
0.0
 11
804.5180973168614
 21
-74.8
 31
0.0
  0
LINE
  5
5F0
330
1D
100
AcDbEntity
  8
0
  6
Continuous
100
AcDbLine
 10
803.2915173168614
 20
-82.0
 30
0.0
 11
804.5180973168614
 21
-82.0
 31
0.0
  0
LINE
  5
5F1
330
1D
100
AcDbEntity
  8
0
  6
Continuous
100
AcDbLine
 10
782.3024673168614
 20
-82.0
 30
0.0
 11
782.3024673168614
 21
-80.0
 31
0.0
  0
LINE
  5
5F2
330
1D
100
AcDbEntity
  8
0
  6
Continuous
100
AcDbLine
 10
782.3024673168614
 20
-80.0
 30
0.0
 11
782.3024673168614
 21
-76.0
 31
0.0
  0
LINE
  5
5F3
330
1D
100
AcDbEntity
  8
0
  6
Continuous
100
AcDbLine
 10
782.3024673168614
 20
-76.0
 30
0.0
 11
782.3024673168614
 21
-74.8
 31
0.0
  0
LINE
  5
5F4
330
1D
100
AcDbEntity
  8
0
  6
Continuous
100
AcDbLine
 10
781.0758873168614
 20
-82.0
 30
0.0
 11
782.3024673168614
 21
-82.0
 31
0.0
  0
LINE
  5
5F5
330
1D
100
AcDbEntity
  8
0
  6
Continuous
100
AcDbLine
 10
781.0758873168614
 20
-82.0
 30
0.0
 11
781.0758873168614
 21
-80.0
 31
0.0
  0
LINE
  5
5F6
330
1D
100
AcDbEntity
  8
0
  6
Continuous
100
AcDbLine
 10
781.0758873168614
 20
-80.0
 30
0.0
 11
781.0758873168614
 21
-76.0
 31
0.0
  0
LINE
  5
5F7
330
1D
100
AcDbEntity
  8
0
  6
Continuous
100
AcDbLine
 10
781.0758873168614
 20
-76.0
 30
0.0
 11
781.0758873168614
 21
-74.8
 31
0.0
  0
LINE
  5
5F8
330
1D
100
AcDbEntity
  8
0
  6
Continuous
100
AcDbLine
 10
778.6227373168615
 20
-82.0
 30
0.0
 11
781.0758873168614
 21
-82.0
 31
0.0
  0
LINE
  5
5F9
330
1D
100
AcDbEntity
  8
0
  6
Continuous
100
AcDbLine
 10
777.3961573168614
 20
-74.8
 30
0.0
 11
777.3961573168614
 21
-76.0
 31
0.0
  0
LINE
  5
5FA
330
1D
100
AcDbEntity
  8
0
  6
Continuous
100
AcDbLine
 10
777.3961573168614
 20
-76.0
 30
0.0
 11
777.3961573168614
 21
-80.0
 31
0.0
  0
LINE
  5
5FB
330
1D
100
AcDbEntity
  8
0
  6
Continuous
100
AcDbLine
 10
777.3961573168614
 20
-80.0
 30
0.0
 11
777.3961573168614
 21
-81.99999
 31
0.0
  0
LINE
  5
5FC
330
1D
100
AcDbEntity
  8
0
  6
Continuous
100
AcDbLine
 10
778.6227373168615
 20
-82.0
 30
0.0
 11
778.6227373168615
 21
-80.0
 31
0.0
  0
LINE
  5
5FD
330
1D
100
AcDbEntity
  8
0
  6
Continuous
100
AcDbLine
 10
778.6227373168615
 20
-80.0
 30
0.0
 11
778.6227373168615
 21
-76.0
 31
0.0
  0
LINE
  5
5FE
330
1D
100
AcDbEntity
  8
0
  6
Continuous
100
AcDbLine
 10
778.6227373168615
 20
-76.0
 30
0.0
 11
778.6227373168615
 21
-74.8
 31
0.0
  0
LINE
  5
5FF
330
1D
100
AcDbEntity
  8
0
  6
Continuous
100
AcDbLine
 10
777.3961573168614
 20
-82.0
 30
0.0
 11
778.6227373168615
 21
-82.0
 31
0.0
  0
LINE
  5
600
330
1D
100
AcDbEntity
  8
0
  6
Continuous
100
AcDbLine
 10
761.3034573168614
 20
-82.0
 30
0.0
 11
761.3034573168614
 21
-80.0
 31
0.0
  0
LINE
  5
601
330
1D
100
AcDbEntity
  8
0
  6
Continuous
100
AcDbLine
 10
761.3034573168614
 20
-80.0
 30
0.0
 11
761.3034573168614
 21
-76.0
 31
0.0
  0
LINE
  5
602
330
1D
100
AcDbEntity
  8
0
  6
Continuous
100
AcDbLine
 10
761.3034573168614
 20
-76.0
 30
0.0
 11
761.3034573168614
 21
-74.8
 31
0.0
  0
LINE
  5
603
330
1D
100
AcDbEntity
  8
0
  6
Continuous
100
AcDbLine
 10
760.0768773168614
 20
-82.0
 30
0.0
 11
761.3034573168614
 21
-82.0
 31
0.0
  0
LINE
  5
604
330
1D
100
AcDbEntity
  8
0
  6
Continuous
100
AcDbLine
 10
760.0768773168614
 20
-82.0
 30
0.0
 11
760.0768773168614
 21
-80.0
 31
0.0
  0
LINE
  5
605
330
1D
100
AcDbEntity
  8
0
  6
Continuous
100
AcDbLine
 10
760.0768773168614
 20
-80.0
 30
0.0
 11
760.0768773168614
 21
-76.0
 31
0.0
  0
LINE
  5
606
330
1D
100
AcDbEntity
  8
0
  6
Continuous
100
AcDbLine
 10
760.0768773168614
 20
-76.0
 30
0.0
 11
760.0768773168614
 21
-74.8
 31
0.0
  0
LINE
  5
607
330
1D
100
AcDbEntity
  8
0
  6
Continuous
100
AcDbLine
 10
757.6237173168614
 20
-82.0
 30
0.0
 11
760.0768773168614
 21
-82.0
 31
0.0
  0
LINE
  5
608
330
1D
100
AcDbEntity
  8
0
  6
Continuous
100
AcDbLine
 10
756.3971473168614
 20
-74.8
 30
0.0
 11
756.3971473168614
 21
-76.0
 31
0.0
  0
LINE
  5
609
330
1D
100
AcDbEntity
  8
0
  6
Continuous
100
AcDbLine
 10
756.3971473168614
 20
-76.0
 30
0.0
 11
756.3971473168614
 21
-80.0
 31
0.0
  0
LINE
  5
60A
330
1D
100
AcDbEntity
  8
0
  6
Continuous
100
AcDbLine
 10
756.3971473168614
 20
-80.0
 30
0.0
 11
756.3971473168614
 21
-82.0
 31
0.0
  0
LINE
  5
60B
330
1D
100
AcDbEntity
  8
0
  6
Continuous
100
AcDbLine
 10
757.6237173168614
 20
-82.0
 30
0.0
 11
757.6237173168614
 21
-80.0
 31
0.0
  0
LINE
  5
60C
330
1D
100
AcDbEntity
  8
0
  6
Continuous
100
AcDbLine
 10
757.6237173168614
 20
-80.0
 30
0.0
 11
757.6237173168614
 21
-76.0
 31
0.0
  0
LINE
  5
60D
330
1D
100
AcDbEntity
  8
0
  6
Continuous
100
AcDbLine
 10
757.6237173168614
 20
-76.0
 30
0.0
 11
757.6237173168614
 21
-74.8
 31
0.0
  0
LINE
  5
60E
330
1D
100
AcDbEntity
  8
0
  6
Continuous
100
AcDbLine
 10
756.3971473168614
 20
-82.0
 30
0.0
 11
757.6237173168614
 21
-82.0
 31
0.0
  0
LINE
  5
60F
330
1D
100
AcDbEntity
  8
0
  6
Continuous
100
AcDbLine
 10
756.2847473168615
 20
-82.0
 30
0.0
 11
756.2847473168615
 21
-80.0
 31
0.0
  0
LINE
  5
610
330
1D
100
AcDbEntity
  8
0
  6
Continuous
100
AcDbLine
 10
756.2847473168615
 20
-80.0
 30
0.0
 11
756.2847473168615
 21
-76.0
 31
0.0
  0
LINE
  5
611
330
1D
100
AcDbEntity
  8
0
  6
Continuous
100
AcDbLine
 10
756.2847473168615
 20
-76.0
 30
0.0
 11
756.2847473168615
 21
-74.8
 31
0.0
  0
LINE
  5
612
330
1D
100
AcDbEntity
  8
0
  6
Continuous
100
AcDbLine
 10
755.0581673168615
 20
-82.0
 30
0.0
 11
756.2847473168615
 21
-82.0
 31
0.0
  0
LINE
  5
613
330
1D
100
AcDbEntity
  8
0
  6
Continuous
100
AcDbLine
 10
755.0581673168615
 20
-82.0
 30
0.0
 11
755.0581673168615
 21
-80.0
 31
0.0
  0
LINE
  5
614
330
1D
100
AcDbEntity
  8
0
  6
Continuous
100
AcDbLine
 10
755.0581673168615
 20
-80.0
 30
0.0
 11
755.0581673168615
 21
-76.0
 31
0.0
  0
LINE
  5
615
330
1D
100
AcDbEntity
  8
0
  6
Continuous
100
AcDbLine
 10
755.0581673168615
 20
-76.0
 30
0.0
 11
755.0581673168615
 21
-74.8
 31
0.0
  0
LINE
  5
616
330
1D
100
AcDbEntity
  8
0
  6
Continuous
100
AcDbLine
 10
752.6050073168614
 20
-82.0
 30
0.0
 11
755.0581673168615
 21
-82.0
 31
0.0
  0
LINE
  5
617
330
1D
100
AcDbEntity
  8
0
  6
Continuous
100
AcDbLine
 10
751.3784273168615
 20
-74.8
 30
0.0
 11
751.3784273168615
 21
-76.0
 31
0.0
  0
LINE
  5
618
330
1D
100
AcDbEntity
  8
0
  6
Continuous
100
AcDbLine
 10
751.3784273168615
 20
-76.0
 30
0.0
 11
751.3784273168615
 21
-80.0
 31
0.0
  0
LINE
  5
619
330
1D
100
AcDbEntity
  8
0
  6
Continuous
100
AcDbLine
 10
751.3784273168615
 20
-80.0
 30
0.0
 11
751.3784273168615
 21
-82.0
 31
0.0
  0
LINE
  5
61A
330
1D
100
AcDbEntity
  8
0
  6
Continuous
100
AcDbLine
 10
752.6050073168614
 20
-82.0
 30
0.0
 11
752.6050073168614
 21
-80.0
 31
0.0
  0
LINE
  5
61B
330
1D
100
AcDbEntity
  8
0
  6
Continuous
100
AcDbLine
 10
752.6050073168614
 20
-80.0
 30
0.0
 11
752.6050073168614
 21
-76.0
 31
0.0
  0
LINE
  5
61C
330
1D
100
AcDbEntity
  8
0
  6
Continuous
100
AcDbLine
 10
752.6050073168614
 20
-76.0
 30
0.0
 11
752.6050073168614
 21
-74.8
 31
0.0
  0
LINE
  5
61D
330
1D
100
AcDbEntity
  8
0
  6
Continuous
100
AcDbLine
 10
751.3784273168615
 20
-82.0
 30
0.0
 11
752.6050073168614
 21
-82.0
 31
0.0
  0
LINE
  5
61E
330
1D
100
AcDbEntity
  8
0
  6
Continuous
100
AcDbLine
 10
740.3044473168614
 20
-82.0
 30
0.0
 11
740.3044473168614
 21
-80.0
 31
0.0
  0
LINE
  5
61F
330
1D
100
AcDbEntity
  8
0
  6
Continuous
100
AcDbLine
 10
740.3044473168614
 20
-80.0
 30
0.0
 11
740.3044473168614
 21
-76.0
 31
0.0
  0
LINE
  5
620
330
1D
100
AcDbEntity
  8
0
  6
Continuous
100
AcDbLine
 10
740.3044473168614
 20
-76.0
 30
0.0
 11
740.3044473168614
 21
-74.8
 31
0.0
  0
LINE
  5
621
330
1D
100
AcDbEntity
  8
0
  6
Continuous
100
AcDbLine
 10
739.0778673168614
 20
-82.0
 30
0.0
 11
740.3044473168614
 21
-82.0
 31
0.0
  0
LINE
  5
622
330
1D
100
AcDbEntity
  8
0
  6
Continuous
100
AcDbLine
 10
739.0778673168614
 20
-82.0
 30
0.0
 11
739.0778673168614
 21
-80.0
 31
0.0
  0
LINE
  5
623
330
1D
100
AcDbEntity
  8
0
  6
Continuous
100
AcDbLine
 10
739.0778673168614
 20
-80.0
 30
0.0
 11
739.0778673168614
 21
-76.0
 31
0.0
  0
LINE
  5
624
330
1D
100
AcDbEntity
  8
0
  6
Continuous
100
AcDbLine
 10
739.0778673168614
 20
-76.0
 30
0.0
 11
739.0778673168614
 21
-74.8
 31
0.0
  0
LINE
  5
625
330
1D
100
AcDbEntity
  8
0
  6
Continuous
100
AcDbLine
 10
736.6247073168614
 20
-82.0
 30
0.0
 11
739.0778673168614
 21
-82.0
 31
0.0
  0
LINE
  5
626
330
1D
100
AcDbEntity
  8
0
  6
Continuous
100
AcDbLine
 10
735.3981273168614
 20
-74.8
 30
0.0
 11
735.3981273168614
 21
-76.0
 31
0.0
  0
LINE
  5
627
330
1D
100
AcDbEntity
  8
0
  6
Continuous
100
AcDbLine
 10
735.3981273168614
 20
-76.0
 30
0.0
 11
735.3981273168614
 21
-80.0
 31
0.0
  0
LINE
  5
628
330
1D
100
AcDbEntity
  8
0
  6
Continuous
100
AcDbLine
 10
735.3981273168614
 20
-80.0
 30
0.0
 11
735.3981273168614
 21
-82.0
 31
0.0
  0
LINE
  5
629
330
1D
100
AcDbEntity
  8
0
  6
Continuous
100
AcDbLine
 10
736.6247073168614
 20
-82.0
 30
0.0
 11
736.6247073168614
 21
-80.0
 31
0.0
  0
LINE
  5
62A
330
1D
100
AcDbEntity
  8
0
  6
Continuous
100
AcDbLine
 10
736.6247073168614
 20
-80.0
 30
0.0
 11
736.6247073168614
 21
-76.0
 31
0.0
  0
LINE
  5
62B
330
1D
100
AcDbEntity
  8
0
  6
Continuous
100
AcDbLine
 10
736.6247073168614
 20
-76.0
 30
0.0
 11
736.6247073168614
 21
-74.8
 31
0.0
  0
LINE
  5
62C
330
1D
100
AcDbEntity
  8
0
  6
Continuous
100
AcDbLine
 10
735.3981273168614
 20
-82.0
 30
0.0
 11
736.6247073168614
 21
-82.0
 31
0.0
  0
LINE
  5
62D
330
1D
100
AcDbEntity
  8
0
  6
Continuous
100
AcDbLine
 10
719.3054373168614
 20
-82.0
 30
0.0
 11
719.3054373168614
 21
-80.0
 31
0.0
  0
LINE
  5
62E
330
1D
100
AcDbEntity
  8
0
  6
Continuous
100
AcDbLine
 10
719.3054373168614
 20
-80.0
 30
0.0
 11
719.3054373168614
 21
-76.0
 31
0.0
  0
LINE
  5
62F
330
1D
100
AcDbEntity
  8
0
  6
Continuous
100
AcDbLine
 10
719.3054373168614
 20
-76.0
 30
0.0
 11
719.3054373168614
 21
-74.8
 31
0.0
  0
LINE
  5
630
330
1D
100
AcDbEntity
  8
0
  6
Continuous
100
AcDbLine
 10
718.0788573168614
 20
-82.0
 30
0.0
 11
719.3054373168614
 21
-82.0
 31
0.0
  0
LINE
  5
631
330
1D
100
AcDbEntity
  8
0
  6
Continuous
100
AcDbLine
 10
718.0788573168614
 20
-82.0
 30
0.0
 11
718.0788573168614
 21
-80.0
 31
0.0
  0
LINE
  5
632
330
1D
100
AcDbEntity
  8
0
  6
Continuous
100
AcDbLine
 10
718.0788573168614
 20
-80.0
 30
0.0
 11
718.0788573168614
 21
-76.0
 31
0.0
  0
LINE
  5
633
330
1D
100
AcDbEntity
  8
0
  6
Continuous
100
AcDbLine
 10
718.0788573168614
 20
-76.0
 30
0.0
 11
718.0788573168614
 21
-74.8
 31
0.0
  0
LINE
  5
634
330
1D
100
AcDbEntity
  8
0
  6
Continuous
100
AcDbLine
 10
715.6257073168615
 20
-82.0
 30
0.0
 11
718.0788573168614
 21
-82.0
 31
0.0
  0
LINE
  5
635
330
1D
100
AcDbEntity
  8
0
  6
Continuous
100
AcDbLine
 10
714.3991273168615
 20
-74.8
 30
0.0
 11
714.3991273168615
 21
-76.0
 31
0.0
  0
LINE
  5
636
330
1D
100
AcDbEntity
  8
0
  6
Continuous
100
AcDbLine
 10
714.3991273168615
 20
-76.0
 30
0.0
 11
714.3991273168615
 21
-80.0
 31
0.0
  0
LINE
  5
637
330
1D
100
AcDbEntity
  8
0
  6
Continuous
100
AcDbLine
 10
714.3991273168615
 20
-80.0
 30
0.0
 11
714.3991273168615
 21
-82.0
 31
0.0
  0
LINE
  5
638
330
1D
100
AcDbEntity
  8
0
  6
Continuous
100
AcDbLine
 10
715.6257073168615
 20
-82.0
 30
0.0
 11
715.6257073168615
 21
-80.0
 31
0.0
  0
LINE
  5
639
330
1D
100
AcDbEntity
  8
0
  6
Continuous
100
AcDbLine
 10
715.6257073168615
 20
-80.0
 30
0.0
 11
715.6257073168615
 21
-76.0
 31
0.0
  0
LINE
  5
63A
330
1D
100
AcDbEntity
  8
0
  6
Continuous
100
AcDbLine
 10
715.6257073168615
 20
-76.0
 30
0.0
 11
715.6257073168615
 21
-74.8
 31
0.0
  0
LINE
  5
63B
330
1D
100
AcDbEntity
  8
0
  6
Continuous
100
AcDbLine
 10
714.3991273168615
 20
-82.0
 30
0.0
 11
715.6257073168615
 21
-82.0
 31
0.0
  0
LINE
  5
63C
330
1D
100
AcDbEntity
  8
0
  6
Continuous
100
AcDbLine
 10
698.3064273168614
 20
-82.0
 30
0.0
 11
698.3064273168614
 21
-80.0
 31
0.0
  0
LINE
  5
63D
330
1D
100
AcDbEntity
  8
0
  6
Continuous
100
AcDbLine
 10
698.3064273168614
 20
-80.0
 30
0.0
 11
698.3064273168614
 21
-76.0
 31
0.0
  0
LINE
  5
63E
330
1D
100
AcDbEntity
  8
0
  6
Continuous
100
AcDbLine
 10
698.3064273168614
 20
-76.0
 30
0.0
 11
698.3064273168614
 21
-74.8
 31
0.0
  0
LINE
  5
63F
330
1D
100
AcDbEntity
  8
0
  6
Continuous
100
AcDbLine
 10
697.0798473168614
 20
-82.0
 30
0.0
 11
698.3064273168614
 21
-82.0
 31
0.0
  0
LINE
  5
640
330
1D
100
AcDbEntity
  8
0
  6
Continuous
100
AcDbLine
 10
697.0798473168614
 20
-82.0
 30
0.0
 11
697.0798473168614
 21
-80.0
 31
0.0
  0
LINE
  5
641
330
1D
100
AcDbEntity
  8
0
  6
Continuous
100
AcDbLine
 10
697.0798473168614
 20
-80.0
 30
0.0
 11
697.0798473168614
 21
-76.0
 31
0.0
  0
LINE
  5
642
330
1D
100
AcDbEntity
  8
0
  6
Continuous
100
AcDbLine
 10
697.0798473168614
 20
-76.0
 30
0.0
 11
697.0798473168614
 21
-74.8
 31
0.0
  0
LINE
  5
643
330
1D
100
AcDbEntity
  8
0
  6
Continuous
100
AcDbLine
 10
694.6266973168615
 20
-82.0
 30
0.0
 11
697.0798473168614
 21
-82.0
 31
0.0
  0
LINE
  5
644
330
1D
100
AcDbEntity
  8
0
  6
Continuous
100
AcDbLine
 10
693.4001173168614
 20
-74.8
 30
0.0
 11
693.4001173168614
 21
-76.0
 31
0.0
  0
LINE
  5
645
330
1D
100
AcDbEntity
  8
0
  6
Continuous
100
AcDbLine
 10
693.4001173168614
 20
-76.0
 30
0.0
 11
693.4001173168614
 21
-80.0
 31
0.0
  0
LINE
  5
646
330
1D
100
AcDbEntity
  8
0
  6
Continuous
100
AcDbLine
 10
693.4001173168614
 20
-80.0
 30
0.0
 11
693.4001173168614
 21
-82.0
 31
0.0
  0
LINE
  5
647
330
1D
100
AcDbEntity
  8
0
  6
Continuous
100
AcDbLine
 10
694.6266973168615
 20
-82.0
 30
0.0
 11
694.6266973168615
 21
-80.0
 31
0.0
  0
LINE
  5
648
330
1D
100
AcDbEntity
  8
0
  6
Continuous
100
AcDbLine
 10
694.6266973168615
 20
-80.0
 30
0.0
 11
694.6266973168615
 21
-76.0
 31
0.0
  0
LINE
  5
649
330
1D
100
AcDbEntity
  8
0
  6
Continuous
100
AcDbLine
 10
694.6266973168615
 20
-76.0
 30
0.0
 11
694.6266973168615
 21
-74.8
 31
0.0
  0
LINE
  5
64A
330
1D
100
AcDbEntity
  8
0
  6
Continuous
100
AcDbLine
 10
693.4001173168614
 20
-82.0
 30
0.0
 11
694.6266973168615
 21
-82.0
 31
0.0
  0
LINE
  5
64B
330
1D
100
AcDbEntity
  8
0
  6
Continuous
100
AcDbLine
 10
677.3074173168614
 20
-82.0
 30
0.0
 11
677.3074173168614
 21
-80.0
 31
0.0
  0
LINE
  5
64C
330
1D
100
AcDbEntity
  8
0
  6
Continuous
100
AcDbLine
 10
677.3074173168614
 20
-80.0
 30
0.0
 11
677.3074173168614
 21
-76.0
 31
0.0
  0
LINE
  5
64D
330
1D
100
AcDbEntity
  8
0
  6
Continuous
100
AcDbLine
 10
677.3074173168614
 20
-76.0
 30
0.0
 11
677.3074173168614
 21
-74.8
 31
0.0
  0
LINE
  5
64E
330
1D
100
AcDbEntity
  8
0
  6
Continuous
100
AcDbLine
 10
676.0808373168615
 20
-82.0
 30
0.0
 11
677.3074173168614
 21
-82.0
 31
0.0
  0
LINE
  5
64F
330
1D
100
AcDbEntity
  8
0
  6
Continuous
100
AcDbLine
 10
676.0808373168615
 20
-82.0
 30
0.0
 11
676.0808373168615
 21
-80.0
 31
0.0
  0
LINE
  5
650
330
1D
100
AcDbEntity
  8
0
  6
Continuous
100
AcDbLine
 10
676.0808373168615
 20
-80.0
 30
0.0
 11
676.0808373168615
 21
-76.0
 31
0.0
  0
LINE
  5
651
330
1D
100
AcDbEntity
  8
0
  6
Continuous
100
AcDbLine
 10
676.0808373168615
 20
-76.0
 30
0.0
 11
676.0808373168615
 21
-74.8
 31
0.0
  0
LINE
  5
652
330
1D
100
AcDbEntity
  8
0
  6
Continuous
100
AcDbLine
 10
673.6276873168614
 20
-82.0
 30
0.0
 11
676.0808373168615
 21
-82.0
 31
0.0
  0
LINE
  5
653
330
1D
100
AcDbEntity
  8
0
  6
Continuous
100
AcDbLine
 10
672.4011073168615
 20
-74.8
 30
0.0
 11
672.4011073168615
 21
-76.0
 31
0.0
  0
LINE
  5
654
330
1D
100
AcDbEntity
  8
0
  6
Continuous
100
AcDbLine
 10
672.4011073168615
 20
-76.0
 30
0.0
 11
672.4011073168615
 21
-80.0
 31
0.0
  0
LINE
  5
655
330
1D
100
AcDbEntity
  8
0
  6
Continuous
100
AcDbLine
 10
672.4011073168615
 20
-80.0
 30
0.0
 11
672.4011073168615
 21
-82.0
 31
0.0
  0
LINE
  5
656
330
1D
100
AcDbEntity
  8
0
  6
Continuous
100
AcDbLine
 10
673.6276873168614
 20
-82.0
 30
0.0
 11
673.6276873168614
 21
-80.0
 31
0.0
  0
LINE
  5
657
330
1D
100
AcDbEntity
  8
0
  6
Continuous
100
AcDbLine
 10
673.6276873168614
 20
-80.0
 30
0.0
 11
673.6276873168614
 21
-76.0
 31
0.0
  0
LINE
  5
658
330
1D
100
AcDbEntity
  8
0
  6
Continuous
100
AcDbLine
 10
673.6276873168614
 20
-76.0
 30
0.0
 11
673.6276873168614
 21
-74.8
 31
0.0
  0
LINE
  5
659
330
1D
100
AcDbEntity
  8
0
  6
Continuous
100
AcDbLine
 10
672.4011073168615
 20
-82.0
 30
0.0
 11
673.6276873168614
 21
-82.0
 31
0.0
  0
LINE
  5
65A
330
1D
100
AcDbEntity
  8
0
  6
Continuous
100
AcDbLine
 10
703.2075373168614
 20
70.0
 30
0.0
 11
856.2071373168615
 21
70.0
 31
0.0
  0
LINE
  5
65B
330
1D
100
AcDbEntity
  8
0
  6
Continuous
100
AcDbLine
 10
857.7073373168614
 20
71.49491000000001
 30
0.0
 11
857.7073373168614
 21
80.50508000000002
 31
0.0
  0
LINE
  5
65C
330
1D
100
AcDbEntity
  8
0
  6
Continuous
100
AcDbLine
 10
856.2071373168615
 20
82.0
 30
0.0
 11
703.2075373168614
 21
82.0
 31
0.0
  0
LINE
  5
65D
330
1D
100
AcDbEntity
  8
0
  6
Continuous
100
AcDbLine
 10
701.7073373168614
 20
80.50508000000002
 30
0.0
 11
701.7073373168614
 21
71.49491000000001
 31
0.0
  0
LINE
  5
65E
330
1D
100
AcDbEntity
  8
0
  6
Continuous
100
AcDbLine
 10
857.7073373168614
 20
70.0
 30
0.0
 11
857.7073373168614
 21
71.49491000000001
 31
0.0
  0
LINE
  5
65F
330
1D
100
AcDbEntity
  8
0
  6
Continuous
100
AcDbLine
 10
856.2071373168615
 20
70.0
 30
0.0
 11
857.7073373168614
 21
70.0
 31
0.0
  0
LINE
  5
660
330
1D
100
AcDbEntity
  8
0
  6
Continuous
100
AcDbLine
 10
857.7073373168614
 20
82.0
 30
0.0
 11
856.2071373168615
 21
82.0
 31
0.0
  0
LINE
  5
661
330
1D
100
AcDbEntity
  8
0
  6
Continuous
100
AcDbLine
 10
857.7073373168614
 20
80.50508000000002
 30
0.0
 11
857.7073373168614
 21
82.0
 31
0.0
  0
LINE
  5
662
330
1D
100
AcDbEntity
  8
0
  6
Continuous
100
AcDbLine
 10
701.7073373168614
 20
82.0
 30
0.0
 11
701.7073373168614
 21
80.50508000000002
 31
0.0
  0
LINE
  5
663
330
1D
100
AcDbEntity
  8
0
  6
Continuous
100
AcDbLine
 10
703.2075373168614
 20
82.0
 30
0.0
 11
701.7073373168614
 21
82.0
 31
0.0
  0
LINE
  5
664
330
1D
100
AcDbEntity
  8
0
  6
Continuous
100
AcDbLine
 10
701.7073373168614
 20
70.0
 30
0.0
 11
703.2075373168614
 21
70.0
 31
0.0
  0
LINE
  5
665
330
1D
100
AcDbEntity
  8
0
  6
Continuous
100
AcDbLine
 10
701.7073373168614
 20
71.49491000000001
 30
0.0
 11
701.7073373168614
 21
70.0
 31
0.0
  0
LINE
  5
666
330
1D
100
AcDbEntity
  8
0
  6
Continuous
100
AcDbLine
 10
801.2073373168615
 20
-22.78928
 30
0.0
 11
801.2073373168615
 21
70.0
 31
0.0
  0
LINE
  5
667
330
1D
100
AcDbEntity
  8
0
  6
Continuous
100
AcDbLine
 10
758.2073373168614
 20
70.0
 30
0.0
 11
758.2073373168614
 21
-22.78928
 31
0.0
  0
LINE
  5
668
330
1D
100
AcDbEntity
  8
0
  6
Continuous
100
AcDbLine
 10
801.2073373168615
 20
-23.78928000000001
 30
0.0
 11
801.2073373168615
 21
-22.78928
 31
0.0
  0
LINE
  5
669
330
1D
100
AcDbEntity
  8
0
  6
Continuous
100
AcDbLine
 10
758.2073373168614
 20
-22.78928
 30
0.0
 11
758.2073373168614
 21
-23.78928000000001
 31
0.0
  0
LINE
  5
66A
330
1D
100
AcDbEntity
  8
0
  6
Continuous
100
AcDbLine
 10
808.2383873168614
 20
-33.67928
 30
0.0
 11
808.2383873168614
 21
-24.78929
 31
0.0
  0
LINE
  5
66B
330
1D
100
AcDbEntity
  8
0
  6
Continuous
100
AcDbLine
 10
751.1762873168614
 20
-24.78929
 30
0.0
 11
751.1762873168614
 21
-33.67928
 31
0.0
  0
LINE
  5
66C
330
1D
100
AcDbEntity
  8
0
  6
Continuous
100
AcDbLine
 10
752.4060973168614
 20
-34.67927
 30
0.0
 11
748.4874673168615
 21
-34.67928
 31
0.0
  0
LINE
  5
66D
330
1D
100
AcDbEntity
  8
0
  6
Continuous
100
AcDbLine
 10
758.8118773168615
 20
-34.67928
 30
0.0
 11
752.4060973168614
 21
-34.67927
 31
0.0
  0
LINE
  5
66E
330
1D
100
AcDbEntity
  8
0
  6
Continuous
100
AcDbLine
 10
814.5190673168613
 20
-39.61779
 30
0.0
 11
814.5190673168613
 21
-35.67928
 31
0.0
  0
LINE
  5
66F
330
1D
100
AcDbEntity
  8
0
  6
Continuous
100
AcDbLine
 10
811.8691873168614
 20
-39.61779
 30
0.0
 11
814.5190673168613
 21
-39.61779
 31
0.0
  0
LINE
  5
670
330
1D
100
AcDbEntity
  8
0
  6
Continuous
100
AcDbLine
 10
755.0917273168614
 20
-39.61779
 30
0.0
 11
766.3854573168614
 21
-39.61779
 31
0.0
  0
LINE
  5
671
330
1D
100
AcDbEntity
  8
0
  6
Continuous
100
AcDbLine
 10
747.5454873168614
 20
-39.61779
 30
0.0
 11
755.0917273168614
 21
-39.61779
 31
0.0
  0
LINE
  5
672
330
1D
100
AcDbEntity
  8
0
  6
Continuous
100
AcDbLine
 10
793.0292073168613
 20
-39.61779
 30
0.0
 11
804.3229473168615
 21
-39.61779
 31
0.0
  0
LINE
  5
673
330
1D
100
AcDbEntity
  8
0
  6
Continuous
100
AcDbLine
 10
744.8955973168614
 20
-39.61779
 30
0.0
 11
747.5454873168614
 21
-39.61779
 31
0.0
  0
LINE
  5
674
330
1D
100
AcDbEntity
  8
0
  6
Continuous
100
AcDbLine
 10
744.8955973168614
 20
-35.67928
 30
0.0
 11
744.8955973168614
 21
-39.61779
 31
0.0
  0
LINE
  5
675
330
1D
100
AcDbEntity
  8
0
  6
Continuous
100
AcDbLine
 10
779.7073373168614
 20
-39.61779
 30
0.0
 11
793.0292073168613
 21
-39.61779
 31
0.0
  0
LINE
  5
676
330
1D
100
AcDbEntity
  8
0
  6
Continuous
100
AcDbLine
 10
804.3229473168615
 20
-39.61779
 30
0.0
 11
811.8691873168614
 21
-39.61779
 31
0.0
  0
LINE
  5
677
330
1D
100
AcDbEntity
  8
0
  6
Continuous
100
AcDbLine
 10
808.2383873168614
 20
-24.78929
 30
0.0
 11
808.2383873168614
 21
-23.78928000000001
 31
0.0
  0
LINE
  5
678
330
1D
100
AcDbEntity
  8
0
  6
Continuous
100
AcDbLine
 10
808.2383873168614
 20
-23.78928000000001
 30
0.0
 11
806.0665973168614
 21
-23.78928000000001
 31
0.0
  0
LINE
  5
679
330
1D
100
AcDbEntity
  8
0
  6
Continuous
100
AcDbLine
 10
806.0665973168614
 20
-23.78928000000001
 30
0.0
 11
799.8818373168615
 21
-23.78928000000001
 31
0.0
  0
LINE
  5
67A
330
1D
100
AcDbEntity
  8
0
  6
Continuous
100
AcDbLine
 10
799.8818373168615
 20
-23.78928000000001
 30
0.0
 11
790.6256973168614
 21
-23.78928000000001
 31
0.0
  0
LINE
  5
67B
330
1D
100
AcDbEntity
  8
0
  6
Continuous
100
AcDbLine
 10
790.6256973168614
 20
-23.78928000000001
 30
0.0
 11
779.7073373168614
 21
-23.78928000000001
 31
0.0
  0
LINE
  5
67C
330
1D
100
AcDbEntity
  8
0
  6
Continuous
100
AcDbLine
 10
779.7073373168614
 20
-23.78928000000001
 30
0.0
 11
768.7889773168615
 21
-23.78928000000001
 31
0.0
  0
LINE
  5
67D
330
1D
100
AcDbEntity
  8
0
  6
Continuous
100
AcDbLine
 10
768.7889773168615
 20
-23.78928000000001
 30
0.0
 11
759.5328373168614
 21
-23.78928000000001
 31
0.0
  0
LINE
  5
67E
330
1D
100
AcDbEntity
  8
0
  6
Continuous
100
AcDbLine
 10
759.5328373168614
 20
-23.78928000000001
 30
0.0
 11
753.3480773168614
 21
-23.78928000000001
 31
0.0
  0
LINE
  5
67F
330
1D
100
AcDbEntity
  8
0
  6
Continuous
100
AcDbLine
 10
751.1762873168614
 20
-23.78928000000001
 30
0.0
 11
751.1762873168614
 21
-24.78929
 31
0.0
  0
LINE
  5
680
330
1D
100
AcDbEntity
  8
0
  6
Continuous
100
AcDbLine
 10
753.3480773168614
 20
-23.78928000000001
 30
0.0
 11
751.1762873168614
 21
-23.78928000000001
 31
0.0
  0
LINE
  5
681
330
1D
100
AcDbEntity
  8
0
  6
Continuous
100
AcDbLine
 10
808.2383873168614
 20
-34.67928
 30
0.0
 11
808.2383873168614
 21
-33.67928
 31
0.0
  0
LINE
  5
682
330
1D
100
AcDbEntity
  8
0
  6
Continuous
100
AcDbLine
 10
751.1762873168614
 20
-33.67928
 30
0.0
 11
751.1762873168614
 21
-34.67928
 31
0.0
  0
LINE
  5
683
330
1D
100
AcDbEntity
  8
0
  6
Continuous
100
AcDbLine
 10
814.5190673168613
 20
-35.67928
 30
0.0
 11
814.5190673168613
 21
-34.67928
 31
0.0
  0
LINE
  5
684
330
1D
100
AcDbEntity
  8
0
  6
Continuous
100
AcDbLine
 10
814.5190673168613
 20
-34.67928
 30
0.0
 11
811.8691873168614
 21
-34.67928
 31
0.0
  0
LINE
  5
685
330
1D
100
AcDbEntity
  8
0
  6
Continuous
100
AcDbLine
 10
811.8691873168614
 20
-34.67928
 30
0.0
 11
804.3229473168615
 21
-34.67928
 31
0.0
  0
LINE
  5
686
330
1D
100
AcDbEntity
  8
0
  6
Continuous
100
AcDbLine
 10
804.3229473168615
 20
-34.67928
 30
0.0
 11
793.0292073168613
 21
-34.67928
 31
0.0
  0
LINE
  5
687
330
1D
100
AcDbEntity
  8
0
  6
Continuous
100
AcDbLine
 10
793.0292073168613
 20
-34.67928
 30
0.0
 11
779.7073373168614
 21
-34.67928
 31
0.0
  0
LINE
  5
688
330
1D
100
AcDbEntity
  8
0
  6
Continuous
100
AcDbLine
 10
779.7073373168614
 20
-34.67928
 30
0.0
 11
766.3854573168614
 21
-34.67928
 31
0.0
  0
LINE
  5
689
330
1D
100
AcDbEntity
  8
0
  6
Continuous
100
AcDbLine
 10
766.3854573168614
 20
-34.67928
 30
0.0
 11
755.0917273168614
 21
-34.67928
 31
0.0
  0
LINE
  5
68A
330
1D
100
AcDbEntity
  8
0
  6
Continuous
100
AcDbLine
 10
755.0917273168614
 20
-34.67928
 30
0.0
 11
747.5454873168614
 21
-34.67928
 31
0.0
  0
LINE
  5
68B
330
1D
100
AcDbEntity
  8
0
  6
Continuous
100
AcDbLine
 10
744.8955973168614
 20
-34.67928
 30
0.0
 11
744.8955973168614
 21
-35.67928
 31
0.0
  0
LINE
  5
68C
330
1D
100
AcDbEntity
  8
0
  6
Continuous
100
AcDbLine
 10
747.5454873168614
 20
-34.67928
 30
0.0
 11
744.8955973168614
 21
-34.67928
 31
0.0
  0
LINE
  5
68D
330
1D
100
AcDbEntity
  8
0
  6
Continuous
100
AcDbLine
 10
761.3034573168614
 20
-80.0
 30
0.0
 11
760.0768773168614
 21
-80.0
 31
0.0
  0
LINE
  5
68E
330
1D
100
AcDbEntity
  8
0
  6
Continuous
100
AcDbLine
 10
820.6207573168615
 20
-76.0
 30
0.0
 11
823.0739173168613
 21
-76.0
 31
0.0
  0
LINE
  5
68F
330
1D
100
AcDbEntity
  8
0
  6
Continuous
100
AcDbLine
 10
677.3074173168614
 20
-76.0
 30
0.0
 11
676.0808373168615
 21
-76.0
 31
0.0
  0
LINE
  5
690
330
1D
100
AcDbEntity
  8
0
  6
Continuous
100
AcDbLine
 10
803.2915173168614
 20
-80.0
 30
0.0
 11
804.5180973168614
 21
-80.0
 31
0.0
  0
LINE
  5
691
330
1D
100
AcDbEntity
  8
0
  6
Continuous
100
AcDbLine
 10
803.2915173168614
 20
-76.0
 30
0.0
 11
804.5180973168614
 21
-76.0
 31
0.0
  0
LINE
  5
692
330
1D
100
AcDbEntity
  8
0
  6
Continuous
100
AcDbLine
 10
715.6257073168615
 20
-76.0
 30
0.0
 11
718.0788573168614
 21
-76.0
 31
0.0
  0
LINE
  5
693
330
1D
100
AcDbEntity
  8
0
  6
Continuous
100
AcDbLine
 10
782.3024673168614
 20
-80.0
 30
0.0
 11
781.0758873168614
 21
-80.0
 31
0.0
  0
LINE
  5
694
330
1D
100
AcDbEntity
  8
0
  6
Continuous
100
AcDbLine
 10
756.3971473168614
 20
-80.0
 30
0.0
 11
757.6237173168614
 21
-80.0
 31
0.0
  0
LINE
  5
695
330
1D
100
AcDbEntity
  8
0
  6
Continuous
100
AcDbLine
 10
798.3951673168615
 20
-80.0
 30
0.0
 11
799.6217473168615
 21
-80.0
 31
0.0
  0
LINE
  5
696
330
1D
100
AcDbEntity
  8
0
  6
Continuous
100
AcDbLine
 10
694.6266973168615
 20
-76.0
 30
0.0
 11
697.0798473168614
 21
-76.0
 31
0.0
  0
LINE
  5
697
330
1D
100
AcDbEntity
  8
0
  6
Continuous
100
AcDbLine
 10
778.6227373168615
 20
-76.0
 30
0.0
 11
781.0758873168614
 21
-76.0
 31
0.0
  0
LINE
  5
698
330
1D
100
AcDbEntity
  8
0
  6
Continuous
100
AcDbLine
 10
799.6217473168615
 20
-76.0
 30
0.0
 11
802.0748973168615
 21
-76.0
 31
0.0
  0
LINE
  5
699
330
1D
100
AcDbEntity
  8
0
  6
Continuous
100
AcDbLine
 10
752.6050073168614
 20
-76.0
 30
0.0
 11
755.0581673168615
 21
-76.0
 31
0.0
  0
LINE
  5
69A
330
1D
100
AcDbEntity
  8
0
  6
Continuous
100
AcDbLine
 10
803.3014773168615
 20
-80.0
 30
0.0
 11
802.0748973168615
 21
-80.0
 31
0.0
  0
LINE
  5
69B
330
1D
100
AcDbEntity
  8
0
  6
Continuous
100
AcDbLine
 10
824.3004873168613
 20
-80.0
 30
0.0
 11
823.0739173168613
 21
-80.0
 31
0.0
  0
LINE
  5
69C
330
1D
100
AcDbEntity
  8
0
  6
Continuous
100
AcDbLine
 10
757.6237173168614
 20
-76.0
 30
0.0
 11
760.0768773168614
 21
-76.0
 31
0.0
  0
LINE
  5
69D
330
1D
100
AcDbEntity
  8
0
  6
Continuous
100
AcDbLine
 10
808.1978373168615
 20
-76.0
 30
0.0
 11
806.9712573168615
 21
-76.0
 31
0.0
  0
LINE
  5
69E
330
1D
100
AcDbEntity
  8
0
  6
Continuous
100
AcDbLine
 10
719.3054373168614
 20
-80.0
 30
0.0
 11
718.0788573168614
 21
-80.0
 31
0.0
  0
LINE
  5
69F
330
1D
100
AcDbEntity
  8
0
  6
Continuous
100
AcDbLine
 10
673.6276873168614
 20
-76.0
 30
0.0
 11
676.0808373168615
 21
-76.0
 31
0.0
  0
LINE
  5
6A0
330
1D
100
AcDbEntity
  8
0
  6
Continuous
100
AcDbLine
 10
740.3044473168614
 20
-80.0
 30
0.0
 11
739.0778673168614
 21
-80.0
 31
0.0
  0
LINE
  5
6A1
330
1D
100
AcDbEntity
  8
0
  6
Continuous
100
AcDbLine
 10
698.3064273168614
 20
-80.0
 30
0.0
 11
697.0798473168614
 21
-80.0
 31
0.0
  0
LINE
  5
6A2
330
1D
100
AcDbEntity
  8
0
  6
Continuous
100
AcDbLine
 10
756.2847473168615
 20
-76.0
 30
0.0
 11
755.0581673168615
 21
-76.0
 31
0.0
  0
LINE
  5
6A3
330
1D
100
AcDbEntity
  8
0
  6
Continuous
100
AcDbLine
 10
751.3784273168615
 20
-80.0
 30
0.0
 11
752.6050073168614
 21
-80.0
 31
0.0
  0
LINE
  5
6A4
330
1D
100
AcDbEntity
  8
0
  6
Continuous
100
AcDbLine
 10
751.3784273168615
 20
-76.0
 30
0.0
 11
752.6050073168614
 21
-76.0
 31
0.0
  0
LINE
  5
6A5
330
1D
100
AcDbEntity
  8
0
  6
Continuous
100
AcDbLine
 10
735.3981273168614
 20
-80.0
 30
0.0
 11
736.6247073168614
 21
-80.0
 31
0.0
  0
LINE
  5
6A6
330
1D
100
AcDbEntity
  8
0
  6
Continuous
100
AcDbLine
 10
693.4001173168614
 20
-80.0
 30
0.0
 11
694.6266973168615
 21
-80.0
 31
0.0
  0
LINE
  5
6A7
330
1D
100
AcDbEntity
  8
0
  6
Continuous
100
AcDbLine
 10
819.3941773168614
 20
-80.0
 30
0.0
 11
820.6207573168615
 21
-80.0
 31
0.0
  0
LINE
  5
6A8
330
1D
100
AcDbEntity
  8
0
  6
Continuous
100
AcDbLine
 10
736.6247073168614
 20
-76.0
 30
0.0
 11
739.0778673168614
 21
-76.0
 31
0.0
  0
LINE
  5
6A9
330
1D
100
AcDbEntity
  8
0
  6
Continuous
100
AcDbLine
 10
804.5180973168614
 20
-76.0
 30
0.0
 11
806.9712573168615
 21
-76.0
 31
0.0
  0
LINE
  5
6AA
330
1D
100
AcDbEntity
  8
0
  6
Continuous
100
AcDbLine
 10
797.6016713168615
 20
-80.0
 30
0.0
 11
796.2395473168615
 21
-80.0
 31
0.0
  0
LINE
  5
6AB
330
1D
100
AcDbEntity
  8
0
  6
Continuous
100
AcDbLine
 10
763.1751273168614
 20
-80.0
 30
0.0
 11
767.0541273168614
 21
-80.0
 31
0.0
  0
LINE
  5
6AC
330
1D
100
AcDbEntity
  8
0
  6
Continuous
100
AcDbLine
 10
796.2395473168615
 20
-76.0
 30
0.0
 11
792.3605473168614
 21
-76.0
 31
0.0
  0
LINE
  5
6AD
330
1D
100
AcDbEntity
  8
0
  6
Continuous
100
AcDbLine
 10
786.5552073168615
 20
-76.0
 30
0.0
 11
792.3605473168614
 21
-76.0
 31
0.0
  0
LINE
  5
6AE
330
1D
100
AcDbEntity
  8
0
  6
Continuous
100
AcDbLine
 10
782.3024673168614
 20
-76.0
 30
0.0
 11
786.5552073168615
 21
-76.0
 31
0.0
  0
LINE
  5
6AF
330
1D
100
AcDbEntity
  8
0
  6
Continuous
100
AcDbLine
 10
772.8594673168615
 20
-76.0
 30
0.0
 11
777.3961573168614
 21
-76.0
 31
0.0
  0
LINE
  5
6B0
330
1D
100
AcDbEntity
  8
0
  6
Continuous
100
AcDbLine
 10
767.0541273168614
 20
-76.0
 30
0.0
 11
772.7072873168614
 21
-76.0
 31
0.0
  0
LINE
  5
6B1
330
1D
100
AcDbEntity
  8
0
  6
Continuous
100
AcDbLine
 10
763.1751273168614
 20
-76.0
 30
0.0
 11
767.0541273168614
 21
-76.0
 31
0.0
  0
LINE
  5
6B2
330
1D
100
AcDbEntity
  8
0
  6
Continuous
100
AcDbLine
 10
887.2975173168613
 20
-80.0
 30
0.0
 11
886.0709373168614
 21
-80.0
 31
0.0
  0
LINE
  5
6B3
330
1D
100
AcDbEntity
  8
0
  6
Continuous
100
AcDbLine
 10
861.3921973168615
 20
-80.0
 30
0.0
 11
862.6187673168615
 21
-80.0
 31
0.0
  0
LINE
  5
6B4
330
1D
100
AcDbEntity
  8
0
  6
Continuous
100
AcDbLine
 10
866.2985073168615
 20
-80.0
 30
0.0
 11
865.0719273168615
 21
-80.0
 31
0.0
  0
LINE
  5
6B5
330
1D
100
AcDbEntity
  8
0
  6
Continuous
100
AcDbLine
 10
883.6177873168615
 20
-76.0
 30
0.0
 11
886.0709373168614
 21
-76.0
 31
0.0
  0
LINE
  5
6B6
330
1D
100
AcDbEntity
  8
0
  6
Continuous
100
AcDbLine
 10
841.6197673168614
 20
-76.0
 30
0.0
 11
844.0729173168614
 21
-76.0
 31
0.0
  0
LINE
  5
6B7
330
1D
100
AcDbEntity
  8
0
  6
Continuous
100
AcDbLine
 10
845.2994973168614
 20
-76.0
 30
0.0
 11
844.0729173168614
 21
-76.0
 31
0.0
  0
LINE
  5
6B8
330
1D
100
AcDbEntity
  8
0
  6
Continuous
100
AcDbLine
 10
862.6187673168615
 20
-76.0
 30
0.0
 11
865.0719273168615
 21
-76.0
 31
0.0
  0
LINE
  5
6F6
330
1D
100
AcDbEntity
  8
0
  6
Continuous
100
AcDbLine
 10
-116.49999
 20
796.4943354614556
 30
0.0
 11
-174.74999
 21
796.4943354614556
 31
0.0
  0
LINE
  5
6F7
330
1D
100
AcDbEntity
  8
0
  6
Continuous
100
AcDbLine
 10
0.0000100000000032
 20
796.4943354614556
 30
0.0
 11
-58.24999
 21
796.4943354614556
 31
0.0
  0
LINE
  5
6F8
330
1D
100
AcDbEntity
  8
0
  6
Continuous
100
AcDbLine
 10
116.49999
 20
796.4943354614556
 30
0.0
 11
58.25
 21
796.4943354614556
 31
0.0
  0
LINE
  5
6F9
330
1D
100
AcDbEntity
  8
0
  6
Continuous
100
AcDbLine
 10
-174.74999
 20
526.4943554614557
 30
0.0
 11
-116.49999
 21
526.4943354614556
 31
0.0
  0
LINE
  5
6FA
330
1D
100
AcDbEntity
  8
0
  6
Continuous
100
AcDbLine
 10
-58.24999
 20
526.4943354614556
 30
0.0
 11
0.0000100000000032
 21
526.4943354614556
 31
0.0
  0
LINE
  5
6FB
330
1D
100
AcDbEntity
  8
0
  6
Continuous
100
AcDbLine
 10
58.25
 20
526.4943354614556
 30
0.0
 11
116.49999
 21
526.4943454614556
 31
0.0
  0
LINE
  5
6FC
330
1D
100
AcDbEntity
  8
0
  6
Continuous
100
AcDbLine
 10
232.99995
 20
560.2443454614556
 30
0.0
 11
232.99995
 21
593.9943454614556
 31
0.0
  0
LINE
  5
6FD
330
1D
100
AcDbEntity
  8
0
  6
Continuous
100
AcDbLine
 10
232.99995
 20
593.9943454614556
 30
0.0
 11
232.99999
 21
661.4943454614556
 31
0.0
  0
LINE
  5
6FE
330
1D
100
AcDbEntity
  8
0
  6
Continuous
100
AcDbLine
 10
232.99999
 20
661.4943454614556
 30
0.0
 11
232.99997
 21
728.9943454614556
 31
0.0
  0
LINE
  5
6FF
330
1D
100
AcDbEntity
  8
0
  6
Continuous
100
AcDbLine
 10
-232.99996
 20
593.9943454614556
 30
0.0
 11
-232.99999
 21
560.2443454614556
 31
0.0
  0
LINE
  5
700
330
1D
100
AcDbEntity
  8
0
  6
Continuous
100
AcDbLine
 10
-232.99996
 20
593.9943454614556
 30
0.0
 11
-232.99997
 21
661.4943454614556
 31
0.0
  0
LINE
  5
701
330
1D
100
AcDbEntity
  8
0
  6
Continuous
100
AcDbLine
 10
-232.99999
 20
728.9943454614556
 30
0.0
 11
-232.99997
 21
661.4943454614556
 31
0.0
  0
LINE
  5
702
330
1D
100
AcDbEntity
  8
0
  6
Continuous
100
AcDbLine
 10
174.74998
 20
796.4943354614556
 30
0.0
 11
116.49999
 21
796.4943354614556
 31
0.0
  0
LINE
  5
703
330
1D
100
AcDbEntity
  8
0
  6
Continuous
100
AcDbLine
 10
116.49999
 20
526.4943454614556
 30
0.0
 11
174.74998
 21
526.4943554614557
 31
0.0
  0
LINE
  5
704
330
1D
100
AcDbEntity
  8
0
  6
Continuous
100
AcDbLine
 10
232.99997
 20
728.9943454614556
 30
0.0
 11
232.99995
 21
762.7443354614556
 31
0.0
  0
LINE
  5
705
330
1D
100
AcDbEntity
  8
0
  6
Continuous
100
AcDbLine
 10
-232.99999
 20
762.7443354614556
 30
0.0
 11
-232.99999
 21
728.9943454614556
 31
0.0
  0
LINE
  5
706
330
1D
100
AcDbEntity
  8
0
  6
Continuous
100
AcDbLine
 10
232.99997
 20
536.4597654614556
 30
0.0
 11
232.24028
 21
532.6461754614556
 31
0.0
  0
LINE
  5
707
330
1D
100
AcDbEntity
  8
0
  6
Continuous
100
AcDbLine
 10
232.24028
 20
532.6461754614556
 30
0.0
 11
230.07692
 21
529.4131654614557
 31
0.0
  0
LINE
  5
708
330
1D
100
AcDbEntity
  8
0
  6
Continuous
100
AcDbLine
 10
230.07692
 20
529.4131654614557
 30
0.0
 11
226.83918
 21
527.2529254614558
 31
0.0
  0
LINE
  5
709
330
1D
100
AcDbEntity
  8
0
  6
Continuous
100
AcDbLine
 10
226.83918
 20
527.2529254614558
 30
0.0
 11
223.02004
 21
526.4943554614557
 31
0.0
  0
LINE
  5
70A
330
1D
100
AcDbEntity
  8
0
  6
Continuous
100
AcDbLine
 10
-226.83918
 20
527.2529254614558
 30
0.0
 11
-223.02004
 21
526.4943454614556
 31
0.0
  0
LINE
  5
70B
330
1D
100
AcDbEntity
  8
0
  6
Continuous
100
AcDbLine
 10
-230.07694
 20
529.4131454614557
 30
0.0
 11
-226.83918
 21
527.2529254614558
 31
0.0
  0
LINE
  5
70C
330
1D
100
AcDbEntity
  8
0
  6
Continuous
100
AcDbLine
 10
-232.24028
 20
532.6461754614556
 30
0.0
 11
-230.07694
 21
529.4131454614557
 31
0.0
  0
LINE
  5
70D
330
1D
100
AcDbEntity
  8
0
  6
Continuous
100
AcDbLine
 10
-232.24028
 20
532.6461754614556
 30
0.0
 11
-232.99997
 21
536.4597654614556
 31
0.0
  0
LINE
  5
70E
330
1D
100
AcDbEntity
  8
0
  6
Continuous
100
AcDbLine
 10
232.24028
 20
790.3425154614558
 30
0.0
 11
232.99997
 21
786.5289154614556
 31
0.0
  0
LINE
  5
70F
330
1D
100
AcDbEntity
  8
0
  6
Continuous
100
AcDbLine
 10
230.07692
 20
793.5755354614557
 30
0.0
 11
232.24028
 21
790.3425154614558
 31
0.0
  0
LINE
  5
710
330
1D
100
AcDbEntity
  8
0
  6
Continuous
100
AcDbLine
 10
226.83918
 20
795.7357554614556
 30
0.0
 11
230.07692
 21
793.5755354614557
 31
0.0
  0
LINE
  5
711
330
1D
100
AcDbEntity
  8
0
  6
Continuous
100
AcDbLine
 10
223.02004
 20
796.4943354614556
 30
0.0
 11
226.83918
 21
795.7357554614556
 31
0.0
  0
LINE
  5
712
330
1D
100
AcDbEntity
  8
0
  6
Continuous
100
AcDbLine
 10
-226.83918
 20
795.7357554614556
 30
0.0
 11
-223.02004
 21
796.4943354614556
 31
0.0
  0
LINE
  5
713
330
1D
100
AcDbEntity
  8
0
  6
Continuous
100
AcDbLine
 10
-230.07692
 20
793.5755354614557
 30
0.0
 11
-226.83918
 21
795.7357554614556
 31
0.0
  0
LINE
  5
714
330
1D
100
AcDbEntity
  8
0
  6
Continuous
100
AcDbLine
 10
-232.24028
 20
790.3425154614558
 30
0.0
 11
-230.07692
 21
793.5755354614557
 31
0.0
  0
LINE
  5
715
330
1D
100
AcDbEntity
  8
0
  6
Continuous
100
AcDbLine
 10
-232.99997
 20
786.5289154614556
 30
0.0
 11
-232.24028
 21
790.3425154614558
 31
0.0
  0
LINE
  5
716
330
1D
100
AcDbEntity
  8
0
  6
Continuous
100
AcDbLine
 10
-232.99999
 20
560.2443454614556
 30
0.0
 11
-232.99997
 21
536.4597654614556
 31
0.0
  0
LINE
  5
717
330
1D
100
AcDbEntity
  8
0
  6
Continuous
100
AcDbLine
 10
-174.74999
 20
526.4943554614557
 30
0.0
 11
-223.02004
 21
526.4943454614556
 31
0.0
  0
LINE
  5
718
330
1D
100
AcDbEntity
  8
0
  6
Continuous
100
AcDbLine
 10
-174.74999
 20
796.4943354614556
 30
0.0
 11
-223.02004
 21
796.4943354614556
 31
0.0
  0
LINE
  5
719
330
1D
100
AcDbEntity
  8
0
  6
Continuous
100
AcDbLine
 10
-232.99997
 20
786.5289154614556
 30
0.0
 11
-232.99999
 21
762.7443354614556
 31
0.0
  0
LINE
  5
71A
330
1D
100
AcDbEntity
  8
0
  6
Continuous
100
AcDbLine
 10
223.02004
 20
526.4943554614557
 30
0.0
 11
174.74998
 21
526.4943554614557
 31
0.0
  0
LINE
  5
71B
330
1D
100
AcDbEntity
  8
0
  6
Continuous
100
AcDbLine
 10
232.99995
 20
560.2443454614556
 30
0.0
 11
232.99997
 21
536.4597654614556
 31
0.0
  0
LINE
  5
71C
330
1D
100
AcDbEntity
  8
0
  6
Continuous
100
AcDbLine
 10
232.99997
 20
786.5289154614556
 30
0.0
 11
232.99995
 21
762.7443354614556
 31
0.0
  0
LINE
  5
71D
330
1D
100
AcDbEntity
  8
0
  6
Continuous
100
AcDbLine
 10
223.02004
 20
796.4943354614556
 30
0.0
 11
174.74998
 21
796.4943354614556
 31
0.0
  0
LINE
  5
71E
330
1D
100
AcDbEntity
  8
0
  6
Continuous
100
AcDbLine
 10
0.0000100000000032
 20
526.4943354614556
 30
0.0
 11
58.25
 21
526.4943354614556
 31
0.0
  0
LINE
  5
71F
330
1D
100
AcDbEntity
  8
0
  6
Continuous
100
AcDbLine
 10
58.25
 20
796.4943354614556
 30
0.0
 11
0.0000100000000032
 21
796.4943354614556
 31
0.0
  0
LINE
  5
720
330
1D
100
AcDbEntity
  8
0
  6
Continuous
100
AcDbLine
 10
-116.49999
 20
526.4943354614556
 30
0.0
 11
-58.24999
 21
526.4943354614556
 31
0.0
  0
LINE
  5
721
330
1D
100
AcDbEntity
  8
0
  6
Continuous
100
AcDbLine
 10
-58.24999
 20
796.4943354614556
 30
0.0
 11
-116.49999
 21
796.4943354614556
 31
0.0
  0
LINE
  5
722
330
1D
100
AcDbEntity
  8
0
  6
Continuous
100
AcDbLine
 10
-76.49982
 20
590.4943954614557
 30
0.0
 11
76.49977999999999
 21
590.4943954614557
 31
0.0
  0
LINE
  5
723
330
1D
100
AcDbEntity
  8
0
  6
Continuous
100
AcDbLine
 10
-78.00002
 20
744.9941954614557
 30
0.0
 11
-78.00002
 21
591.9945954614556
 31
0.0
  0
LINE
  5
724
330
1D
100
AcDbEntity
  8
0
  6
Continuous
100
AcDbLine
 10
76.49977999999999
 20
746.4943954614557
 30
0.0
 11
-76.49982
 21
746.4943954614557
 31
0.0
  0
LINE
  5
725
330
1D
100
AcDbEntity
  8
0
  6
Continuous
100
AcDbLine
 10
77.99997999999999
 20
591.9945954614556
 30
0.0
 11
77.99997999999999
 21
744.9941954614557
 31
0.0
  0
LINE
  5
726
330
1D
100
AcDbEntity
  8
0
  6
Continuous
100
AcDbLine
 10
77.99997999999999
 20
746.4943954614557
 30
0.0
 11
76.49977999999999
 21
746.4943954614557
 31
0.0
  0
LINE
  5
727
330
1D
100
AcDbEntity
  8
0
  6
Continuous
100
AcDbLine
 10
77.99997999999999
 20
744.9941954614557
 30
0.0
 11
77.99997999999999
 21
746.4943954614557
 31
0.0
  0
LINE
  5
728
330
1D
100
AcDbEntity
  8
0
  6
Continuous
100
AcDbLine
 10
77.99997999999999
 20
590.4943954614557
 30
0.0
 11
77.99997999999999
 21
591.9945954614556
 31
0.0
  0
LINE
  5
729
330
1D
100
AcDbEntity
  8
0
  6
Continuous
100
AcDbLine
 10
76.49977999999999
 20
590.4943954614557
 30
0.0
 11
77.99997999999999
 21
590.4943954614557
 31
0.0
  0
LINE
  5
72A
330
1D
100
AcDbEntity
  8
0
  6
Continuous
100
AcDbLine
 10
-78.00002
 20
746.4943954614557
 30
0.0
 11
-78.00002
 21
744.9941954614557
 31
0.0
  0
LINE
  5
72B
330
1D
100
AcDbEntity
  8
0
  6
Continuous
100
AcDbLine
 10
-76.49982
 20
746.4943954614557
 30
0.0
 11
-78.00002
 21
746.4943954614557
 31
0.0
  0
LINE
  5
72C
330
1D
100
AcDbEntity
  8
0
  6
Continuous
100
AcDbLine
 10
-78.00002
 20
590.4943954614557
 30
0.0
 11
-76.49982
 21
590.4943954614557
 31
0.0
  0
LINE
  5
72D
330
1D
100
AcDbEntity
  8
0
  6
Continuous
100
AcDbLine
 10
-78.00002
 20
591.9945954614556
 30
0.0
 11
-78.00002
 21
590.4943954614557
 31
0.0
  0
ENDSEC
  0
SECTION
  2
OBJECTS
  0
DICTIONARY
  5
C
330
0
100
AcDbDictionary
281
     1
  3
ACAD_2007HEADERVARS_RT
350
7AB
  3
ACAD_CIP_PREVIOUS_PRODUCT_INFO
350
2A0
  3
ACAD_COLOR
350
281
  3
ACAD_DETAILVIEWSTYLE
350
29B
  3
ACAD_GROUP
350
D
  3
ACAD_LAYOUT
350
1A
  3
ACAD_MATERIAL
350
24F
  3
ACAD_MLEADERSTYLE
350
296
  3
ACAD_MLINESTYLE
350
17
  3
ACAD_PLOTSETTINGS
350
19
  3
ACAD_PLOTSTYLENAME
350
E
  3
ACAD_SCALELIST
350
284
  3
ACAD_SECTIONVIEWSTYLE
350
298
  3
ACAD_TABLESTYLE
350
282
  3
ACAD_VISUALSTYLE
350
268
  3
ACDB_RECOMPOSE_DATA
350
7A9
  3
AcDbVariableDictionary
350
79A
  3
AcmDictionary
350
2CD
  3
AMG
350
2A2
  3
AMGSNAPSETTINGS
350
302
  3
DWGPROPS
350
7AA
  0
DICTIONARY
  5
796
330
10
100
AcDbDictionary
280
     1
281
     1
  3
ADSK_XREC_LAYER_RECONCILED
360
797
  0
DICTIONARY
  5
798
330
72E
100
AcDbDictionary
280
     1
281
     1
  3
ADSK_XREC_LAYER_RECONCILED
360
799
  0
DICTIONARY
  5
731
330
1D
100
AcDbDictionary
280
     1
281
     1
  3
ACAD_SORTENTS
360
732
  0
DICTIONARY
  5
7AB
102
{ACAD_REACTORS
330
C
102
}
330
C
100
AcDbDictionary
281
     1
  3
INTERFERECOLOR
350
7AC
  0
XRECORD
  5
2A0
102
{ACAD_REACTORS
330
C
102
}
330
C
100
AcDbXrecord
280
     1
300
AMECH_PP
300
2013
300
PDSS_F_S
  0
DICTIONARY
  5
281
102
{ACAD_REACTORS
330
C
102
}
330
C
100
AcDbDictionary
281
     1
  0
DICTIONARY
  5
29B
102
{ACAD_REACTORS
330
C
102
}
330
C
100
AcDbDictionary
281
     1
  3
Imperial24
350
29C
  0
DICTIONARY
  5
D
102
{ACAD_REACTORS
330
C
102
}
330
C
100
AcDbDictionary
281
     1
  0
DICTIONARY
  5
1A
102
{ACAD_REACTORS
330
C
102
}
330
C
100
AcDbDictionary
281
     1
  3
Layout1
350
1C
  3
Model
350
1E
  0
DICTIONARY
  5
24F
102
{ACAD_REACTORS
330
C
102
}
330
C
100
AcDbDictionary
281
     1
  3
ByBlock
350
258
  3
ByLayer
350
250
  3
Global
350
260
  0
DICTIONARY
  5
296
102
{ACAD_REACTORS
330
C
102
}
330
C
100
AcDbDictionary
281
     1
  3
Standard
350
297
  0
DICTIONARY
  5
17
102
{ACAD_REACTORS
330
C
102
}
330
C
100
AcDbDictionary
281
     1
  3
Standard
350
18
  0
DICTIONARY
  5
19
102
{ACAD_REACTORS
330
C
102
}
330
C
100
AcDbDictionary
281
     1
  0
ACDBDICTIONARYWDFLT
  5
E
102
{ACAD_REACTORS
330
C
102
}
330
C
100
AcDbDictionary
281
     1
  3
Normal
350
F
100
AcDbDictionaryWithDefault
340
F
  0
DICTIONARY
  5
284
102
{ACAD_REACTORS
330
C
102
}
330
C
100
AcDbDictionary
281
     1
  3
A0
350
285
  3
A1
350
286
  3
A2
350
287
  3
A3
350
288
  3
A4
350
289
  3
A5
350
28A
  3
A6
350
28B
  3
A7
350
28C
  3
A8
350
28D
  3
A9
350
28E
  3
B0
350
28F
  3
B1
350
290
  3
B2
350
291
  3
B3
350
292
  3
B4
350
293
  3
B5
350
294
  3
B6
350
295
  0
DICTIONARY
  5
298
102
{ACAD_REACTORS
330
C
102
}
330
C
100
AcDbDictionary
281
     1
  3
Imperial24
350
29A
  0
DICTIONARY
  5
282
102
{ACAD_REACTORS
330
C
102
}
330
C
100
AcDbDictionary
281
     1
  3
Standard
350
283
  0
DICTIONARY
  5
268
102
{ACAD_REACTORS
330
C
102
}
330
C
100
AcDbDictionary
281
     1
  3
2dWireframe
350
26E
  3
Basic
350
26D
  3
Brighten
350
274
  3
ColorChange
350
278
  3
Conceptual
350
271
  3
Dim
350
273
  3
EdgeColorOff
350
280
  3
Facepattern
350
277
  3
Flat
350
269
  3
FlatWithEdges
350
26A
  3
Gouraud
350
26B
  3
GouraudWithEdges
350
26C
  3
Hidden
350
270
  3
JitterOff
350
27E
  3
Linepattern
350
276
  3
OverhangOff
350
27F
  3
Realistic
350
272
  3
Shaded
350
27D
  3
Shaded with edges
350
27C
  3
Shades of Gray
350
279
  3
Sketchy
350
27A
  3
Thicken
350
275
  3
Wireframe
350
26F
  3
X-Ray
350
27B
  0
XRECORD
  5
7A9
102
{ACAD_REACTORS
330
C
102
}
330
C
100
AcDbXrecord
280
     1
 90
        1
330
283
  0
DICTIONARY
  5
79A
102
{ACAD_REACTORS
330
C
102
}
330
C
100
AcDbDictionary
281
     1
  3
CANNOSCALE
350
79F
  3
CMLEADERSTYLE
350
79C
  3
CTABLESTYLE
350
79B
  3
CVIEWDETAILSTYLE
350
79D
  3
CVIEWSECTIONSTYLE
350
79E
  3
DGNFRAME
350
7A6
  3
DIMASSOC
350
7A4
  3
HIDETEXT
350
7A2
  3
INDEXCTL
350
7A1
  3
SOLIDHIST
350
7A5
  3
SORTENTS
350
7A0
  3
XCLIPFRAME
350
7A3
  0
DICTIONARY
  5
2CD
102
{ACAD_REACTORS
330
C
102
}
330
C
100
AcDbDictionary
281
     1
  3
AcmStdDictionary
350
2D4
  0
DICTIONARY
  5
2A2
102
{ACAD_REACTORS
330
C
102
}
330
C
100
AcDbDictionary
281
     1
  0
DICTIONARY
  5
302
102
{ACAD_REACTORS
330
C
102
}
330
C
100
AcDbDictionary
281
     1
  0
XRECORD
  5
7AA
102
{ACAD_REACTORS
330
C
102
}
330
C
100
AcDbXrecord
280
     1
  1
DWGPROPS COOKIE
  2

  3

  4

  6

  7

  8
tomitais
  9

300
=
301
=
302
=
303
=
304
=
305
=
306
=
307
=
308
=
309
=
 40
0.0011375694444444
 41
2457130.930855382
 42
2457354.680348195
  1

 90
        0
  0
XRECORD
  5
797
102
{ACAD_REACTORS
330
796
102
}
330
796
100
AcDbXrecord
280
     1
290
     1
  0
XRECORD
  5
799
102
{ACAD_REACTORS
330
798
102
}
330
798
100
AcDbXrecord
280
     1
290
     1
  0
SORTENTSTABLE
  5
732
102
{ACAD_REACTORS
330
731
102
}
330
731
100
AcDbSortentsTable
330
1D
331
5E0
  5
5EC
331
130
  5
13C
331
638
  5
644
331
1E0
  5
1EC
331
5F1
  5
5FD
331
141
  5
14D
331
649
  5
655
331
1F1
  5
1FD
331
602
  5
60E
331
152
  5
15E
331
65A
  5
666
331
202
  5
20E
331
22
  5
2E
331
613
  5
61F
331
163
  5
16F
331
66B
  5
677
331
213
  5
21F
331
33
  5
3F
331
52C
  5
538
331
7C
  5
88
331
67C
  5
688
331
224
  5
230
331
44
  5
50
331
53D
  5
549
331
8D
  5
99
331
68D
  5
699
331
235
  5
241
331
55
  5
61
331
54E
  5
55A
331
9E
  5
AA
331
70E
  5
71A
331
66
  5
72
331
55F
  5
56B
331
AF
  5
BB
331
71F
  5
72B
331
77
  5
83
331
246
  5
4EE
331
570
  5
57C
331
C0
  5
CC
331
6A8
  5
6B4
331
170
  5
17C
331
581
  5
58D
331
D1
  5
DD
331
592
  5
59E
331
E2
  5
EE
331
4FB
  5
507
331
192
  5
19E
331
50C
  5
518
331
1B4
  5
1C0
331
5AD
  5
5B9
331
FD
  5
109
331
6FD
  5
709
331
1C5
  5
1D1
331
5BE
  5
5CA
331
1D6
  5
1E2
331
627
  5
633
331
5CF
  5
5DB
331
11F
  5
12B
331
10E
  5
11A
331
51D
  5
529
331
1A3
  5
1AF
331
4EA
  5
4F6
331
181
  5
18D
331
697
  5
6A3
331
628
  5
634
331
5D0
  5
5DC
331
120
  5
12C
331
5E1
  5
5ED
331
131
  5
13D
331
639
  5
645
331
1E1
  5
1ED
331
5F2
  5
5FE
331
142
  5
14E
331
64A
  5
656
331
1F2
  5
1FE
331
603
  5
60F
331
153
  5
15F
331
65B
  5
667
331
203
  5
20F
331
23
  5
2F
331
614
  5
620
331
164
  5
170
331
66C
  5
678
331
214
  5
220
331
34
  5
40
331
52D
  5
539
331
7D
  5
89
331
67D
  5
689
331
225
  5
231
331
45
  5
51
331
53E
  5
54A
331
8E
  5
9A
331
68E
  5
69A
331
236
  5
242
331
56
  5
62
331
54F
  5
55B
331
70F
  5
71B
331
67
  5
73
331
720
  5
72C
331
560
  5
56C
331
B0
  5
BC
331
698
  5
6A4
331
247
  5
4EF
331
9F
  5
AB
331
571
  5
57D
331
6A9
  5
6B5
331
171
  5
17D
331
582
  5
58E
331
182
  5
18E
331
593
  5
59F
331
4EB
  5
4F7
331
4FC
  5
508
331
50D
  5
519
331
1A4
  5
1B0
331
5AE
  5
5BA
331
FE
  5
10A
331
6FE
  5
70A
331
1C6
  5
1D2
331
5BF
  5
5CB
331
1D7
  5
1E3
331
10F
  5
11B
331
51E
  5
52A
331
1B5
  5
1C1
331
193
  5
19F
331
E3
  5
EF
331
D2
  5
DE
331
C1
  5
CD
331
5C0
  5
5CC
331
110
  5
11C
331
618
  5
624
331
1D8
  5
1E4
331
629
  5
635
331
5D1
  5
5DD
331
121
  5
12D
331
5E2
  5
5EE
331
132
  5
13E
331
63A
  5
646
331
1E2
  5
1EE
331
5F3
  5
5FF
331
143
  5
14F
331
64B
  5
657
331
1F3
  5
1FF
331
604
  5
610
331
154
  5
160
331
65C
  5
668
331
204
  5
210
331
24
  5
30
331
615
  5
621
331
165
  5
171
331
66D
  5
679
331
215
  5
221
331
35
  5
41
331
52E
  5
53A
331
7E
  5
8A
331
67E
  5
68A
331
226
  5
232
331
46
  5
52
331
53F
  5
54B
331
8F
  5
9B
331
68F
  5
69B
331
237
  5
243
331
550
  5
55C
331
A0
  5
AC
331
710
  5
71C
331
68
  5
74
331
721
  5
72D
331
561
  5
56D
331
B1
  5
BD
331
699
  5
6A5
331
248
  5
4F0
331
57
  5
63
331
572
  5
57E
331
6AA
  5
6B6
331
172
  5
17E
331
583
  5
58F
331
183
  5
18F
331
594
  5
5A0
331
4EC
  5
4F8
331
4FD
  5
509
331
50E
  5
51A
331
1A5
  5
1B1
331
5AF
  5
5BB
331
FF
  5
10B
331
6FF
  5
70B
331
1C7
  5
1D3
331
51F
  5
52B
331
1B6
  5
1C2
331
194
  5
1A0
331
E4
  5
F0
331
D3
  5
DF
331
C2
  5
CE
331
5B0
  5
5BC
331
100
  5
10C
331
520
  5
52C
331
700
  5
70C
331
1C8
  5
1D4
331
5C1
  5
5CD
331
111
  5
11D
331
619
  5
625
331
1D9
  5
1E5
331
62A
  5
636
331
5D2
  5
5DE
331
122
  5
12E
331
5E3
  5
5EF
331
133
  5
13F
331
63B
  5
647
331
1E3
  5
1EF
331
5F4
  5
600
331
144
  5
150
331
64C
  5
658
331
1F4
  5
200
331
605
  5
611
331
155
  5
161
331
65D
  5
669
331
205
  5
211
331
25
  5
31
331
616
  5
622
331
166
  5
172
331
66E
  5
67A
331
216
  5
222
331
36
  5
42
331
52F
  5
53B
331
7F
  5
8B
331
67F
  5
68B
331
227
  5
233
331
540
  5
54C
331
90
  5
9C
331
238
  5
244
331
551
  5
55D
331
A1
  5
AD
331
711
  5
71D
331
69
  5
75
331
722
  5
730
331
562
  5
56E
331
69A
  5
6A6
331
573
  5
57F
331
C3
  5
CF
331
B2
  5
BE
331
58
  5
64
331
47
  5
53
331
6AB
  5
6B7
331
173
  5
17F
331
584
  5
590
331
D4
  5
E0
331
595
  5
5A1
331
E5
  5
F1
331
4FE
  5
50A
331
195
  5
1A1
331
50F
  5
51B
331
1B7
  5
1C3
331
1A6
  5
1B2
331
4ED
  5
4F9
331
184
  5
190
331
5A0
  5
5AC
331
F0
  5
FC
331
510
  5
51C
331
1B8
  5
1C4
331
5B1
  5
5BD
331
101
  5
10D
331
521
  5
52D
331
701
  5
70D
331
1C9
  5
1D5
331
5C2
  5
5CE
331
112
  5
11E
331
61A
  5
626
331
1DA
  5
1E6
331
62B
  5
637
331
5D3
  5
5DF
331
123
  5
12F
331
5E4
  5
5F0
331
134
  5
140
331
63C
  5
648
331
1E4
  5
1F0
331
5F5
  5
601
331
145
  5
151
331
64D
  5
659
331
1F5
  5
201
331
606
  5
612
331
156
  5
162
331
65E
  5
66A
331
206
  5
212
331
26
  5
32
331
617
  5
623
331
66F
  5
67B
331
217
  5
223
331
37
  5
43
331
530
  5
53C
331
80
  5
8C
331
680
  5
68C
331
228
  5
234
331
541
  5
54D
331
91
  5
9D
331
239
  5
245
331
552
  5
55E
331
A2
  5
AE
331
712
  5
71E
331
6A
  5
76
331
723
  5
733
331
563
  5
56F
331
69B
  5
6A7
331
574
  5
580
331
C4
  5
D0
331
B3
  5
BF
331
59
  5
65
331
48
  5
54
331
167
  5
173
331
6AC
  5
6B8
331
174
  5
180
331
585
  5
591
331
D5
  5
E1
331
596
  5
5A2
331
E6
  5
F2
331
4FF
  5
50B
331
196
  5
1A2
331
1A7
  5
1B3
331
4EE
  5
4FA
331
185
  5
191
331
500
  5
50C
331
1A8
  5
1B4
331
5A1
  5
5AD
331
F1
  5
FD
331
511
  5
51D
331
1B9
  5
1C5
331
5B2
  5
5BE
331
102
  5
10E
331
522
  5
52E
331
702
  5
70E
331
1CA
  5
1D6
331
5C3
  5
5CF
331
113
  5
11F
331
61B
  5
627
331
1DB
  5
1E7
331
62C
  5
638
331
5D4
  5
5E0
331
124
  5
130
331
5E5
  5
5F1
331
135
  5
141
331
63D
  5
649
331
1E5
  5
1F1
331
5F6
  5
602
331
146
  5
152
331
64E
  5
65A
331
607
  5
613
331
157
  5
163
331
65F
  5
66B
331
207
  5
213
331
27
  5
33
331
670
  5
67C
331
218
  5
224
331
531
  5
53D
331
81
  5
8D
331
681
  5
68D
331
229
  5
235
331
49
  5
55
331
542
  5
54E
331
23A
  5
246
331
5A
  5
66
331
553
  5
55F
331
713
  5
71F
331
6B
  5
77
331
724
  5
734
331
564
  5
570
331
B4
  5
C0
331
575
  5
581
331
C5
  5
D1
331
6AD
  5
6F6
331
175
  5
181
331
69C
  5
6A8
331
A3
  5
AF
331
92
  5
9E
331
38
  5
44
331
1F6
  5
202
331
586
  5
592
331
186
  5
192
331
597
  5
5A3
331
E7
  5
F3
331
197
  5
1A3
331
4EF
  5
4FB
331
D6
  5
E2
331
598
  5
5A4
331
E8
  5
F4
331
4F0
  5
4FC
331
501
  5
50D
331
198
  5
1A4
331
1A9
  5
1B5
331
5A2
  5
5AE
331
F2
  5
FE
331
512
  5
51E
331
1BA
  5
1C6
331
5B3
  5
5BF
331
103
  5
10F
331
523
  5
52F
331
703
  5
70F
331
1CB
  5
1D7
331
5C4
  5
5D0
331
114
  5
120
331
61C
  5
628
331
1DC
  5
1E8
331
62D
  5
639
331
5D5
  5
5E1
331
125
  5
131
331
5E6
  5
5F2
331
136
  5
142
331
63E
  5
64A
331
5F7
  5
603
331
147
  5
153
331
1E6
  5
1F2
331
64F
  5
65B
331
608
  5
614
331
158
  5
164
331
660
  5
66C
331
208
  5
214
331
28
  5
34
331
671
  5
67D
331
219
  5
225
331
532
  5
53E
331
82
  5
8E
331
682
  5
68E
331
22A
  5
236
331
4A
  5
56
331
543
  5
54F
331
23B
  5
247
331
5B
  5
67
331
554
  5
560
331
714
  5
720
331
6C
  5
78
331
725
  5
735
331
565
  5
571
331
B5
  5
C1
331
576
  5
582
331
C6
  5
D2
331
6AE
  5
6F7
331
176
  5
182
331
69D
  5
6A9
331
A4
  5
B0
331
93
  5
9F
331
39
  5
45
331
1F7
  5
203
331
587
  5
593
331
187
  5
193
331
D7
  5
E3
331
588
  5
594
331
D8
  5
E4
331
188
  5
194
331
599
  5
5A5
331
E9
  5
F5
331
4F1
  5
4FD
331
502
  5
50E
331
199
  5
1A5
331
1AA
  5
1B6
331
5A3
  5
5AF
331
F3
  5
FF
331
513
  5
51F
331
1BB
  5
1C7
331
5B4
  5
5C0
331
104
  5
110
331
524
  5
530
331
704
  5
710
331
1CC
  5
1D8
331
5C5
  5
5D1
331
115
  5
121
331
61D
  5
629
331
1DD
  5
1E9
331
62E
  5
63A
331
5D6
  5
5E2
331
5E7
  5
5F3
331
137
  5
143
331
63F
  5
64B
331
5F8
  5
604
331
148
  5
154
331
1E7
  5
1F3
331
650
  5
65C
331
609
  5
615
331
159
  5
165
331
661
  5
66D
331
209
  5
215
331
29
  5
35
331
672
  5
67E
331
21A
  5
226
331
533
  5
53F
331
83
  5
8F
331
683
  5
68F
331
22B
  5
237
331
4B
  5
57
331
544
  5
550
331
23C
  5
248
331
5C
  5
68
331
555
  5
561
331
715
  5
721
331
6D
  5
79
331
726
  5
736
331
566
  5
572
331
B6
  5
C2
331
577
  5
583
331
C7
  5
D3
331
6AF
  5
6F8
331
177
  5
183
331
69E
  5
6AA
331
A5
  5
B1
331
94
  5
A0
331
3A
  5
46
331
1F8
  5
204
331
126
  5
132
331
578
  5
584
331
C8
  5
D4
331
6B0
  5
6F9
331
178
  5
184
331
589
  5
595
331
D9
  5
E5
331
189
  5
195
331
59A
  5
5A6
331
EA
  5
F6
331
4F2
  5
4FE
331
503
  5
50F
331
19A
  5
1A6
331
1AB
  5
1B7
331
5A4
  5
5B0
331
F4
  5
100
331
514
  5
520
331
1BC
  5
1C8
331
5B5
  5
5C1
331
105
  5
111
331
525
  5
531
331
705
  5
711
331
1CD
  5
1D9
331
5C6
  5
5D2
331
61E
  5
62A
331
1DE
  5
1EA
331
62F
  5
63B
331
5D7
  5
5E3
331
5E8
  5
5F4
331
138
  5
144
331
640
  5
64C
331
5F9
  5
605
331
149
  5
155
331
1E8
  5
1F4
331
651
  5
65D
331
60A
  5
616
331
15A
  5
166
331
662
  5
66E
331
20A
  5
216
331
2A
  5
36
331
673
  5
67F
331
21B
  5
227
331
534
  5
540
331
84
  5
90
331
684
  5
690
331
22C
  5
238
331
4C
  5
58
331
545
  5
551
331
23D
  5
4E5
331
5D
  5
69
331
556
  5
562
331
716
  5
722
331
6E
  5
7A
331
727
  5
737
331
567
  5
573
331
B7
  5
C3
331
69F
  5
6AB
331
A6
  5
B2
331
95
  5
A1
331
3B
  5
47
331
1F9
  5
205
331
127
  5
133
331
116
  5
122
331
728
  5
738
331
568
  5
574
331
B8
  5
C4
331
6A0
  5
6AC
331
168
  5
174
331
579
  5
585
331
C9
  5
D5
331
6B1
  5
6FA
331
179
  5
185
331
58A
  5
596
331
DA
  5
E6
331
18A
  5
196
331
59B
  5
5A7
331
EB
  5
F7
331
4F3
  5
4FF
331
504
  5
510
331
19B
  5
1A7
331
1AC
  5
1B8
331
5A5
  5
5B1
331
F5
  5
101
331
515
  5
521
331
1BD
  5
1C9
331
5B6
  5
5C2
331
106
  5
112
331
706
  5
712
331
1CE
  5
1DA
331
5C7
  5
5D3
331
61F
  5
62B
331
1DF
  5
1EB
331
630
  5
63C
331
5D8
  5
5E4
331
5E9
  5
5F5
331
139
  5
145
331
641
  5
64D
331
5FA
  5
606
331
14A
  5
156
331
1E9
  5
1F5
331
652
  5
65E
331
60B
  5
617
331
15B
  5
167
331
663
  5
66F
331
20B
  5
217
331
2B
  5
37
331
674
  5
680
331
21C
  5
228
331
535
  5
541
331
85
  5
91
331
685
  5
691
331
22D
  5
239
331
4D
  5
59
331
546
  5
552
331
23E
  5
4E6
331
5E
  5
6A
331
557
  5
563
331
717
  5
723
331
6F
  5
7B
331
A7
  5
B3
331
96
  5
A2
331
3C
  5
48
331
1FA
  5
206
331
128
  5
134
331
117
  5
123
331
526
  5
532
331
558
  5
564
331
A8
  5
B4
331
718
  5
724
331
70
  5
7C
331
690
  5
69C
331
729
  5
739
331
569
  5
575
331
B9
  5
C5
331
6A1
  5
6AD
331
169
  5
175
331
57A
  5
586
331
CA
  5
D6
331
6B2
  5
6FB
331
17A
  5
186
331
58B
  5
597
331
DB
  5
E7
331
18B
  5
197
331
59C
  5
5A8
331
EC
  5
F8
331
4F4
  5
500
331
505
  5
511
331
19C
  5
1A8
331
1AD
  5
1B9
331
5A6
  5
5B2
331
516
  5
522
331
6F6
  5
702
331
5B7
  5
5C3
331
107
  5
113
331
707
  5
713
331
1CF
  5
1DB
331
620
  5
62C
331
5C8
  5
5D4
331
631
  5
63D
331
5D9
  5
5E5
331
129
  5
135
331
5EA
  5
5F6
331
642
  5
64E
331
1EA
  5
1F6
331
5FB
  5
607
331
653
  5
65F
331
1FB
  5
207
331
14B
  5
157
331
60C
  5
618
331
664
  5
670
331
20C
  5
218
331
2C
  5
38
331
675
  5
681
331
21D
  5
229
331
3D
  5
49
331
536
  5
542
331
686
  5
692
331
22E
  5
23A
331
4E
  5
5A
331
547
  5
553
331
97
  5
A3
331
23F
  5
4E7
331
5F
  5
6B
331
86
  5
92
331
15C
  5
168
331
13A
  5
146
331
118
  5
124
331
527
  5
533
331
1BE
  5
1CA
331
F6
  5
102
331
548
  5
554
331
98
  5
A4
331
708
  5
714
331
60
  5
6C
331
240
  5
4E8
331
559
  5
565
331
A9
  5
B5
331
719
  5
725
331
71
  5
7D
331
691
  5
69D
331
72A
  5
73A
331
56A
  5
576
331
BA
  5
C6
331
6A2
  5
6AE
331
16A
  5
176
331
57B
  5
587
331
CB
  5
D7
331
6B3
  5
6FC
331
17B
  5
187
331
58C
  5
598
331
DC
  5
E8
331
18C
  5
198
331
59D
  5
5A9
331
ED
  5
F9
331
506
  5
512
331
19D
  5
1A9
331
1AE
  5
1BA
331
5A7
  5
5B3
331
517
  5
523
331
6F7
  5
703
331
5B8
  5
5C4
331
108
  5
114
331
621
  5
62D
331
5C9
  5
5D5
331
119
  5
125
331
632
  5
63E
331
5DA
  5
5E6
331
5EB
  5
5F7
331
13B
  5
147
331
643
  5
64F
331
5FC
  5
608
331
14C
  5
158
331
654
  5
660
331
60D
  5
619
331
15D
  5
169
331
1FC
  5
208
331
665
  5
671
331
20D
  5
219
331
676
  5
682
331
21E
  5
22A
331
3E
  5
4A
331
537
  5
543
331
87
  5
93
331
687
  5
693
331
22F
  5
23B
331
4F
  5
5B
331
2D
  5
39
331
1EB
  5
1F7
331
12A
  5
136
331
1D0
  5
1DC
331
1BF
  5
1CB
331
F7
  5
103
331
4F5
  5
501
331
538
  5
544
331
88
  5
94
331
688
  5
694
331
230
  5
23C
331
50
  5
5C
331
549
  5
555
331
99
  5
A5
331
709
  5
715
331
61
  5
6D
331
241
  5
4E9
331
55A
  5
566
331
AA
  5
B6
331
71A
  5
726
331
72
  5
7E
331
692
  5
69E
331
72B
  5
73B
331
56B
  5
577
331
BB
  5
C7
331
6A3
  5
6AF
331
16B
  5
177
331
57C
  5
588
331
CC
  5
D8
331
6B4
  5
6FD
331
17C
  5
188
331
58D
  5
599
331
DD
  5
E9
331
18D
  5
199
331
59E
  5
5AA
331
4F6
  5
502
331
507
  5
513
331
19E
  5
1AA
331
5A8
  5
5B4
331
F8
  5
104
331
6F8
  5
704
331
1C0
  5
1CC
331
5B9
  5
5C5
331
1D1
  5
1DD
331
622
  5
62E
331
5CA
  5
5D6
331
633
  5
63F
331
5DB
  5
5E7
331
12B
  5
137
331
5EC
  5
5F8
331
13C
  5
148
331
644
  5
650
331
5FD
  5
609
331
14D
  5
159
331
655
  5
661
331
60E
  5
61A
331
15E
  5
16A
331
1FD
  5
209
331
666
  5
672
331
20E
  5
21A
331
677
  5
683
331
21F
  5
22B
331
3F
  5
4B
331
2E
  5
3A
331
1EC
  5
1F8
331
11A
  5
126
331
109
  5
115
331
518
  5
524
331
1AF
  5
1BB
331
EE
  5
FA
331
4E5
  5
4F1
331
528
  5
534
331
78
  5
84
331
678
  5
684
331
220
  5
22C
331
40
  5
4C
331
539
  5
545
331
89
  5
95
331
689
  5
695
331
231
  5
23D
331
51
  5
5D
331
54A
  5
556
331
9A
  5
A6
331
70A
  5
716
331
62
  5
6E
331
242
  5
4EA
331
55B
  5
567
331
AB
  5
B7
331
71B
  5
727
331
73
  5
7F
331
693
  5
69F
331
72C
  5
73C
331
56C
  5
578
331
BC
  5
C8
331
6A4
  5
6B0
331
16C
  5
178
331
57D
  5
589
331
CD
  5
D9
331
6B5
  5
6FE
331
17D
  5
189
331
58E
  5
59A
331
DE
  5
EA
331
18E
  5
19A
331
59F
  5
5AB
331
4F7
  5
503
331
508
  5
514
331
19F
  5
1AB
331
5A9
  5
5B5
331
F9
  5
105
331
6F9
  5
705
331
1C1
  5
1CD
331
5BA
  5
5C6
331
1D2
  5
1DE
331
623
  5
62F
331
5CB
  5
5D7
331
634
  5
640
331
5DC
  5
5E8
331
12C
  5
138
331
5ED
  5
5F9
331
13D
  5
149
331
645
  5
651
331
5FE
  5
60A
331
14E
  5
15A
331
656
  5
662
331
60F
  5
61B
331
15F
  5
16B
331
1FE
  5
20A
331
667
  5
673
331
20F
  5
21B
331
2F
  5
3B
331
1ED
  5
1F9
331
11B
  5
127
331
10A
  5
116
331
519
  5
525
331
1B0
  5
1BC
331
EF
  5
FB
331
4E6
  5
4F2
331
610
  5
61C
331
160
  5
16C
331
668
  5
674
331
210
  5
21C
331
30
  5
3C
331
529
  5
535
331
79
  5
85
331
679
  5
685
331
221
  5
22D
331
41
  5
4D
331
53A
  5
546
331
8A
  5
96
331
68A
  5
696
331
232
  5
23E
331
52
  5
5E
331
54B
  5
557
331
9B
  5
A7
331
70B
  5
717
331
63
  5
6F
331
243
  5
4EB
331
55C
  5
568
331
AC
  5
B8
331
71C
  5
728
331
74
  5
80
331
694
  5
6A0
331
72D
  5
73D
331
56D
  5
579
331
BD
  5
C9
331
6A5
  5
6B1
331
57E
  5
58A
331
CE
  5
DA
331
6B6
  5
6FF
331
58F
  5
59B
331
DF
  5
EB
331
4F8
  5
504
331
18F
  5
19B
331
509
  5
515
331
1B1
  5
1BD
331
5AA
  5
5B6
331
FA
  5
106
331
6FA
  5
706
331
1C2
  5
1CE
331
5BB
  5
5C7
331
1D3
  5
1DF
331
624
  5
630
331
5CC
  5
5D8
331
635
  5
641
331
5DD
  5
5E9
331
12D
  5
139
331
5EE
  5
5FA
331
646
  5
652
331
1EE
  5
1FA
331
5FF
  5
60B
331
657
  5
663
331
1FF
  5
20B
331
14F
  5
15B
331
13E
  5
14A
331
11C
  5
128
331
10B
  5
117
331
51A
  5
526
331
1A0
  5
1AC
331
4E7
  5
4F3
331
17E
  5
18A
331
16D
  5
179
331
600
  5
60C
331
150
  5
15C
331
658
  5
664
331
200
  5
20C
331
611
  5
61D
331
161
  5
16D
331
669
  5
675
331
211
  5
21D
331
31
  5
3D
331
52A
  5
536
331
7A
  5
86
331
67A
  5
686
331
222
  5
22E
331
42
  5
4E
331
53B
  5
547
331
8B
  5
97
331
68B
  5
697
331
233
  5
23F
331
53
  5
5F
331
54C
  5
558
331
9C
  5
A8
331
70C
  5
718
331
64
  5
70
331
244
  5
4EC
331
55D
  5
569
331
AD
  5
B9
331
71D
  5
729
331
75
  5
81
331
695
  5
6A1
331
56E
  5
57A
331
BE
  5
CA
331
6A6
  5
6B2
331
57F
  5
58B
331
CF
  5
DB
331
6B7
  5
700
331
590
  5
59C
331
E0
  5
EC
331
4F9
  5
505
331
190
  5
19C
331
50A
  5
516
331
1B2
  5
1BE
331
5AB
  5
5B7
331
FB
  5
107
331
6FB
  5
707
331
1C3
  5
1CF
331
5BC
  5
5C8
331
1D4
  5
1E0
331
625
  5
631
331
5CD
  5
5D9
331
636
  5
642
331
5DE
  5
5EA
331
12E
  5
13A
331
5EF
  5
5FB
331
647
  5
653
331
1EF
  5
1FB
331
13F
  5
14B
331
11D
  5
129
331
10C
  5
118
331
51B
  5
527
331
1A1
  5
1AD
331
4E8
  5
4F4
331
17F
  5
18B
331
16E
  5
17A
331
5F0
  5
5FC
331
140
  5
14C
331
648
  5
654
331
1F0
  5
1FC
331
601
  5
60D
331
151
  5
15D
331
659
  5
665
331
201
  5
20D
331
612
  5
61E
331
162
  5
16E
331
66A
  5
676
331
212
  5
21E
331
32
  5
3E
331
52B
  5
537
331
7B
  5
87
331
67B
  5
687
331
223
  5
22F
331
43
  5
4F
331
53C
  5
548
331
8C
  5
98
331
68C
  5
698
331
234
  5
240
331
54
  5
60
331
54D
  5
559
331
9D
  5
A9
331
70D
  5
719
331
65
  5
71
331
245
  5
4ED
331
55E
  5
56A
331
AE
  5
BA
331
71E
  5
72A
331
696
  5
6A2
331
56F
  5
57B
331
BF
  5
CB
331
76
  5
82
331
6A7
  5
6B3
331
580
  5
58C
331
D0
  5
DC
331
6B8
  5
701
331
591
  5
59D
331
E1
  5
ED
331
4FA
  5
506
331
191
  5
19D
331
50B
  5
517
331
1B3
  5
1BF
331
5AC
  5
5B8
331
FC
  5
108
331
6FC
  5
708
331
1C4
  5
1D0
331
5BD
  5
5C9
331
1D5
  5
1E1
331
626
  5
632
331
5CE
  5
5DA
331
637
  5
643
331
5DF
  5
5EB
331
12F
  5
13B
331
11E
  5
12A
331
10D
  5
119
331
51C
  5
528
331
1A2
  5
1AE
331
4E9
  5
4F5
331
180
  5
18C
331
16F
  5
17B
  0
XRECORD
  5
7AC
102
{ACAD_REACTORS
330
7AB
102
}
330
7AB
100
AcDbXrecord
280
     1
1004
1800000001000000000000C0000000000000000000000000
  0
ACDBDETAILVIEWSTYLE
  5
29C
102
{ACAD_REACTORS
330
29B
102
}
330
29B
100
AcDbModelDocViewStyle
 70
     0
  3
Imperial24
290
     0
100
AcDbDetailViewStyle
 70
     0
 71
     0
 90
        3
 71
     1
340
11
 40
0.24
340
0
 40
0.24
300

 40
0.36
280
     3
 71
     2
340
16
 90
       25
 71
     3
340
11
 40
0.24
 90
        1
 40
0.75
 90
        1
300
%<\AcVar ViewType \f "%tc1">% %<\AcVar ViewDetailId>%\PSCALE %<\AcVar ViewScale \f "%sn">%
 71
     4
340
16
 90
       25
340
16
 90
       25
280
     0
  0
LAYOUT
  5
1C
102
{ACAD_XDICTIONARY
360
7AD
102
}
102
{ACAD_REACTORS
330
1A
102
}
330
1A
100
AcDbPlotSettings
  1

  2
none_device
  4

  6

 40
0.0
 41
0.0
 42
0.0
 43
0.0
 44
0.0
 45
0.0
 46
0.0
 47
0.0
 48
0.0
 49
0.0
140
0.0
141
0.0
142
1.0
143
1.0
 70
   688
 72
     0
 73
     0
 74
     5
  7

 75
    16
147
1.0
148
0.0
149
0.0
100
AcDbLayout
  1
Layout1
 70
     1
 71
     1
 10
0.0
 20
0.0
 11
12.0
 21
9.0
 12
0.0
 22
0.0
 32
0.0
 14
1.000000000000000E+20
 24
1.000000000000000E+20
 34
1.000000000000000E+20
 15
-1.000000000000000E+20
 25
-1.000000000000000E+20
 35
-1.000000000000000E+20
146
0.0
 13
0.0
 23
0.0
 33
0.0
 16
1.0
 26
0.0
 36
0.0
 17
0.0
 27
1.0
 37
0.0
 76
     0
330
1B
  0
LAYOUT
  5
1E
102
{ACAD_XDICTIONARY
360
7AF
102
}
102
{ACAD_REACTORS
330
1A
102
}
330
1A
100
AcDbPlotSettings
  1

  2
none_device
  4

  6

 40
0.0
 41
0.0
 42
0.0
 43
0.0
 44
0.0
 45
0.0
 46
0.0
 47
0.0
 48
0.0
 49
0.0
140
0.0
141
0.0
142
1.0
143
1.0
 70
  1712
 72
     0
 73
     0
 74
     0
  7

 75
     0
147
1.0
148
0.0
149
0.0
100
AcDbLayout
  1
Model
 70
     1
 71
     0
 10
0.0
 20
0.0
 11
12.0
 21
9.0
 12
0.0
 22
0.0
 32
0.0
 14
1.000000000000000E+20
 24
1.000000000000000E+20
 34
1.000000000000000E+20
 15
-1.000000000000000E+20
 25
-1.000000000000000E+20
 35
-1.000000000000000E+20
146
0.0
 13
0.0
 23
0.0
 33
0.0
 16
1.0
 26
0.0
 36
0.0
 17
0.0
 27
1.0
 37
0.0
 76
     0
330
1D
331
249
  0
MATERIAL
  5
258
102
{ACAD_XDICTIONARY
360
259
102
}
102
{ACAD_REACTORS
330
24F
102
}
330
24F
100
AcDbMaterial
  1
ByBlock
 72
     0
 43
0.0208333333333333
 43
0.0
 43
0.0
 43
0.0
 43
0.0
 43
0.0208333333333333
 43
0.0
 43
0.0
 43
0.0
 43
0.0
 43
1.0
 43
0.0
 43
0.0
 43
0.0
 43
0.0
 43
1.0
 77
     0
 47
0.0208333333333333
 47
0.0
 47
0.0
 47
0.0
 47
0.0
 47
0.0208333333333333
 47
0.0
 47
0.0
 47
0.0
 47
0.0
 47
1.0
 47
0.0
 47
0.0
 47
0.0
 47
0.0
 47
1.0
171
     0
 49
0.0208333333333333
 49
0.0
 49
0.0
 49
0.0
 49
0.0
 49
0.0208333333333333
 49
0.0
 49
0.0
 49
0.0
 49
0.0
 49
1.0
 49
0.0
 49
0.0
 49
0.0
 49
0.0
 49
1.0
175
     0
142
0.0208333333333333
142
0.0
142
0.0
142
0.0
142
0.0
142
0.0208333333333333
142
0.0
142
0.0
142
0.0
142
0.0
142
1.0
142
0.0
142
0.0
142
0.0
142
0.0
142
1.0
179
     0
144
0.0208333333333333
144
0.0
144
0.0
144
0.0
144
0.0
144
0.0208333333333333
144
0.0
144
0.0
144
0.0
144
0.0
144
1.0
144
0.0
144
0.0
144
0.0
144
0.0
144
1.0
147
0.0208333333333333
147
0.0
147
0.0
147
0.0
147
0.0
147
0.0208333333333333
147
0.0
147
0.0
147
0.0
147
0.0
147
1.0
147
0.0
147
0.0
147
0.0
147
0.0
147
1.0
  0
MATERIAL
  5
250
102
{ACAD_XDICTIONARY
360
251
102
}
102
{ACAD_REACTORS
330
24F
102
}
330
24F
100
AcDbMaterial
  1
ByLayer
 72
     0
 43
0.0208333333333333
 43
0.0
 43
0.0
 43
0.0
 43
0.0
 43
0.0208333333333333
 43
0.0
 43
0.0
 43
0.0
 43
0.0
 43
1.0
 43
0.0
 43
0.0
 43
0.0
 43
0.0
 43
1.0
 77
     0
 47
0.0208333333333333
 47
0.0
 47
0.0
 47
0.0
 47
0.0
 47
0.0208333333333333
 47
0.0
 47
0.0
 47
0.0
 47
0.0
 47
1.0
 47
0.0
 47
0.0
 47
0.0
 47
0.0
 47
1.0
171
     0
 49
0.0208333333333333
 49
0.0
 49
0.0
 49
0.0
 49
0.0
 49
0.0208333333333333
 49
0.0
 49
0.0
 49
0.0
 49
0.0
 49
1.0
 49
0.0
 49
0.0
 49
0.0
 49
0.0
 49
1.0
175
     0
142
0.0208333333333333
142
0.0
142
0.0
142
0.0
142
0.0
142
0.0208333333333333
142
0.0
142
0.0
142
0.0
142
0.0
142
1.0
142
0.0
142
0.0
142
0.0
142
0.0
142
1.0
179
     0
144
0.0208333333333333
144
0.0
144
0.0
144
0.0
144
0.0
144
0.0208333333333333
144
0.0
144
0.0
144
0.0
144
0.0
144
1.0
144
0.0
144
0.0
144
0.0
144
0.0
144
1.0
147
0.0208333333333333
147
0.0
147
0.0
147
0.0
147
0.0
147
0.0208333333333333
147
0.0
147
0.0
147
0.0
147
0.0
147
1.0
147
0.0
147
0.0
147
0.0
147
0.0
147
1.0
  0
MATERIAL
  5
260
102
{ACAD_XDICTIONARY
360
261
102
}
102
{ACAD_REACTORS
330
24F
102
}
330
24F
100
AcDbMaterial
  1
Global
 72
     0
 43
0.0208333333333333
 43
0.0
 43
0.0
 43
0.0
 43
0.0
 43
0.0208333333333333
 43
0.0
 43
0.0
 43
0.0
 43
0.0
 43
1.0
 43
0.0
 43
0.0
 43
0.0
 43
0.0
 43
1.0
 77
     0
 47
0.0208333333333333
 47
0.0
 47
0.0
 47
0.0
 47
0.0
 47
0.0208333333333333
 47
0.0
 47
0.0
 47
0.0
 47
0.0
 47
1.0
 47
0.0
 47
0.0
 47
0.0
 47
0.0
 47
1.0
171
     0
 49
0.0208333333333333
 49
0.0
 49
0.0
 49
0.0
 49
0.0
 49
0.0208333333333333
 49
0.0
 49
0.0
 49
0.0
 49
0.0
 49
1.0
 49
0.0
 49
0.0
 49
0.0
 49
0.0
 49
1.0
175
     0
142
0.0208333333333333
142
0.0
142
0.0
142
0.0
142
0.0
142
0.0208333333333333
142
0.0
142
0.0
142
0.0
142
0.0
142
1.0
142
0.0
142
0.0
142
0.0
142
0.0
142
1.0
179
     0
144
0.0208333333333333
144
0.0
144
0.0
144
0.0
144
0.0
144
0.0208333333333333
144
0.0
144
0.0
144
0.0
144
0.0
144
1.0
144
0.0
144
0.0
144
0.0
144
0.0
144
1.0
147
0.0208333333333333
147
0.0
147
0.0
147
0.0
147
0.0
147
0.0208333333333333
147
0.0
147
0.0
147
0.0
147
0.0
147
1.0
147
0.0
147
0.0
147
0.0
147
0.0
147
1.0
  0
MLEADERSTYLE
  5
297
102
{ACAD_XDICTIONARY
360
7E6
102
}
102
{ACAD_REACTORS
330
296
102
}
330
296
100
AcDbMLeaderStyle
170
     2
171
     1
172
     0
 90
        2
 40
0.0
 41
0.0
173
     1
 91
-1056964608
340
14
 92
       -2
290
     1
 42
0.09
291
     1
 43
0.36
  3
Standard
 44
0.18
300

342
11
174
     1
178
     6
175
     1
176
     0
 93
-1056964608
 45
0.18
292
     0
297
     0
 46
0.18
 94
-1056964608
 47
1.0
 49
1.0
140
1.0
293
     1
141
0.0
294
     1
177
     0
142
1.0
295
     0
296
     0
143
0.125
1001
ACAD_MLEADERVER
1070
     2
  0
MLINESTYLE
  5
18
102
{ACAD_REACTORS
330
17
102
}
330
17
100
AcDbMlineStyle
  2
STANDARD
 70
     0
  3

 62
   256
 51
90.0
 52
90.0
 71
     2
 49
0.5
 62
   256
  6
BYLAYER
 49
-0.5
 62
   256
  6
BYLAYER
  0
ACDBPLACEHOLDER
  5
F
102
{ACAD_REACTORS
330
E
102
}
330
E
  0
SCALE
  5
285
102
{ACAD_REACTORS
330
284
102
}
330
284
100
AcDbScale
 70
     0
300
1:1
140
1.0
141
1.0
290
     1
  0
SCALE
  5
286
102
{ACAD_REACTORS
330
284
102
}
330
284
100
AcDbScale
 70
     0
300
1/128" = 1'-0"
140
0.0078125
141
12.0
290
     0
  0
SCALE
  5
287
102
{ACAD_REACTORS
330
284
102
}
330
284
100
AcDbScale
 70
     0
300
1/64" = 1'-0"
140
0.015625
141
12.0
290
     0
  0
SCALE
  5
288
102
{ACAD_REACTORS
330
284
102
}
330
284
100
AcDbScale
 70
     0
300
1/32" = 1'-0"
140
0.03125
141
12.0
290
     0
  0
SCALE
  5
289
102
{ACAD_REACTORS
330
284
102
}
330
284
100
AcDbScale
 70
     0
300
1/16" = 1'-0"
140
0.0625
141
12.0
290
     0
  0
SCALE
  5
28A
102
{ACAD_REACTORS
330
284
102
}
330
284
100
AcDbScale
 70
     0
300
3/32" = 1'-0"
140
0.09375
141
12.0
290
     0
  0
SCALE
  5
28B
102
{ACAD_REACTORS
330
284
102
}
330
284
100
AcDbScale
 70
     0
300
1/8" = 1'-0"
140
0.125
141
12.0
290
     0
  0
SCALE
  5
28C
102
{ACAD_REACTORS
330
284
102
}
330
284
100
AcDbScale
 70
     0
300
3/16" = 1'-0"
140
0.1875
141
12.0
290
     0
  0
SCALE
  5
28D
102
{ACAD_REACTORS
330
284
102
}
330
284
100
AcDbScale
 70
     0
300
1/4" = 1'-0"
140
0.25
141
12.0
290
     0
  0
SCALE
  5
28E
102
{ACAD_REACTORS
330
284
102
}
330
284
100
AcDbScale
 70
     0
300
3/8" = 1'-0"
140
0.375
141
12.0
290
     0
  0
SCALE
  5
28F
102
{ACAD_REACTORS
330
284
102
}
330
284
100
AcDbScale
 70
     0
300
1/2" = 1'-0"
140
0.5
141
12.0
290
     0
  0
SCALE
  5
290
102
{ACAD_REACTORS
330
284
102
}
330
284
100
AcDbScale
 70
     0
300
3/4" = 1'-0"
140
0.75
141
12.0
290
     0
  0
SCALE
  5
291
102
{ACAD_REACTORS
330
284
102
}
330
284
100
AcDbScale
 70
     0
300
1" = 1'-0"
140
1.0
141
12.0
290
     0
  0
SCALE
  5
292
102
{ACAD_REACTORS
330
284
102
}
330
284
100
AcDbScale
 70
     0
300
1-1/2" = 1'-0"
140
1.5
141
12.0
290
     0
  0
SCALE
  5
293
102
{ACAD_REACTORS
330
284
102
}
330
284
100
AcDbScale
 70
     0
300
3" = 1'-0"
140
3.0
141
12.0
290
     0
  0
SCALE
  5
294
102
{ACAD_REACTORS
330
284
102
}
330
284
100
AcDbScale
 70
     0
300
6" = 1'-0"
140
6.0
141
12.0
290
     0
  0
SCALE
  5
295
102
{ACAD_REACTORS
330
284
102
}
330
284
100
AcDbScale
 70
     0
300
1'-0" = 1'-0"
140
12.0
141
12.0
290
     0
  0
ACDBSECTIONVIEWSTYLE
  5
29A
102
{ACAD_REACTORS
330
298
102
}
330
298
100
AcDbModelDocViewStyle
 70
     0
  3
Imperial24
290
     0
100
AcDbSectionViewStyle
 70
     0
 71
     0
 90
       78
 71
     1
340
11
 40
0.24
340
0
340
0
 40
0.24
300
I, O, Q, S, X, Z
 40
0.48
 90
        3
 40
0.18
 90
        1
 71
     2
340
299
 90
       25
340
16
 90
       50
 40
0.24
 40
0.0
 40
0.24
 71
     3
340
11
 40
0.24
 90
        1
 40
0.75
 90
        1
300
%<\AcVar ViewType \f "%tc1">% %<\AcVar ViewSectionStartId>%-%<\AcVar ViewSectionEndId>%\PSCALE %<\AcVar ViewScale \f "%sn">%
 71
     4
300
ANSI31
 40
1.0
 90
        0
290
     0
290
     0
 90
        6
 40
0.0
 40
1.570796326794896
 40
0.2617993877991494
 40
1.308996938995747
 40
-0.2617993877991494
 40
1.832595714594046
  0
TABLESTYLE
  5
283
102
{ACAD_XDICTIONARY
360
7A7
102
}
102
{ACAD_REACTORS
330
282
102
}
330
282
100
AcDbTableStyle
  3
Standard
 70
     0
 71
     0
 40
0.06
 41
0.06
280
     0
281
     0
  7
Standard
140
0.18
170
     2
 62
     0
 63
     7
283
     0
274
    -2
284
     1
 64
     0
275
    -2
285
     1
 65
     0
276
    -2
286
     1
 66
     0
277
    -2
287
     1
 67
     0
278
    -2
288
     1
 68
     0
279
    -2
289
     1
 69
     0
  7
Standard
140
0.25
170
     5
 62
     0
 63
     7
283
     0
274
    -2
284
     1
 64
     0
275
    -2
285
     1
 65
     0
276
    -2
286
     1
 66
     0
277
    -2
287
     1
 67
     0
278
    -2
288
     1
 68
     0
279
    -2
289
     1
 69
     0
  7
Standard
140
0.18
170
     5
 62
     0
 63
     7
283
     0
274
    -2
284
     1
 64
     0
275
    -2
285
     1
 65
     0
276
    -2
286
     1
 66
     0
277
    -2
287
     1
 67
     0
278
    -2
288
     1
 68
     0
279
    -2
289
     1
 69
     0
  0
VISUALSTYLE
  5
26E
102
{ACAD_XDICTIONARY
360
7BE
102
}
102
{ACAD_REACTORS
330
268
102
}
330
268
100
AcDbVisualStyle
  2
2dWireframe
 70
     4
 71
     0
 72
     2
 73
     0
 90
        0
 40
-0.6
 41
-30.0
 62
     5
 63
     7
 74
     1
 91
        4
 64
     7
 65
   257
 75
     1
175
     1
 42
1.0
 92
        0
 66
   257
 43
1.0
 76
     1
 77
     6
 78
     2
 67
     7
 79
     5
170
     0
171
     0
290
     0
174
     0
 93
        1
 44
0.0
173
     0
291
     0
 45
0.0
1001
ACAD
1000
AcDbSavedByObjectVersion
1070
     0
  0
VISUALSTYLE
  5
26D
102
{ACAD_XDICTIONARY
360
7BC
102
}
102
{ACAD_REACTORS
330
268
102
}
330
268
100
AcDbVisualStyle
  2
Basic
 70
     7
 71
     1
 72
     0
 73
     1
 90
        0
 40
-0.6
 41
-30.0
 62
     5
 63
     7
 74
     0
 91
        4
 64
     7
 65
   257
 75
     1
175
     1
 42
1.0
 92
        8
 66
     7
 43
1.0
 76
     1
 77
     6
 78
     2
 67
     7
 79
     5
170
     0
171
     0
290
     0
174
     0
 93
        1
 44
0.0
173
     0
291
     1
 45
0.0
1001
ACAD
1000
AcDbSavedByObjectVersion
1070
     0
  0
VISUALSTYLE
  5
274
102
{ACAD_XDICTIONARY
360
7CA
102
}
102
{ACAD_REACTORS
330
268
102
}
330
268
100
AcDbVisualStyle
  2
Brighten
 70
    12
 71
     2
 72
     2
 73
     0
 90
        0
 40
-0.6
 41
-30.0
 62
     5
 63
     7
 74
     1
 91
        4
 64
     7
 65
   257
 75
     1
175
     1
 42
1.0
 92
        8
 66
     7
 43
1.0
 76
     1
 77
     6
 78
     2
 67
     7
 79
     5
170
     0
171
     0
290
     0
174
     0
 93
        1
 44
50.0
173
     0
291
     1
 45
0.0
1001
ACAD
1000
AcDbSavedByObjectVersion
1070
     0
  0
VISUALSTYLE
  5
278
102
{ACAD_XDICTIONARY
360
7D2
102
}
102
{ACAD_REACTORS
330
268
102
}
330
268
100
AcDbVisualStyle
  2
ColorChange
 70
    16
 71
     2
 72
     2
 73
     3
 90
        0
 40
-0.6
 41
-30.0
 62
     5
 63
     8
 74
     1
 91
        4
 64
     7
 65
   257
 75
     1
175
     1
 42
1.0
 92
        8
 66
     8
 43
1.0
 76
     1
 77
     6
 78
     2
 67
     7
 79
     5
170
     0
171
     0
290
     0
174
     0
 93
        1
 44
0.0
173
     0
291
     1
 45
0.0
1001
ACAD
1000
AcDbSavedByObjectVersion
1070
     0
  0
VISUALSTYLE
  5
271
102
{ACAD_XDICTIONARY
360
7C4
102
}
102
{ACAD_REACTORS
330
268
102
}
330
268
100
AcDbVisualStyle
  2
Conceptual
 70
     9
 71
     3
 72
     2
 73
     0
 90
        0
 40
-0.6
 41
-30.0
 62
     5
 63
     7
 74
     2
 91
        2
 64
     7
 65
   257
 75
     1
175
     1
 42
179.0
 92
        8
 66
     7
 43
1.0
 76
     1
 77
     6
 78
     2
 67
     7
 79
     3
170
     0
171
     0
290
     0
174
     0
 93
        1
 44
0.0
173
     0
291
     0
 45
0.0
1001
ACAD
1000
AcDbSavedByObjectVersion
1070
     0
  0
VISUALSTYLE
  5
273
102
{ACAD_XDICTIONARY
360
7C8
102
}
102
{ACAD_REACTORS
330
268
102
}
330
268
100
AcDbVisualStyle
  2
Dim
 70
    11
 71
     2
 72
     2
 73
     0
 90
        0
 40
-0.6
 41
-30.0
 62
     5
 63
     7
 74
     1
 91
        4
 64
     7
 65
   257
 75
     1
175
     1
 42
1.0
 92
        8
 66
     7
 43
1.0
 76
     1
 77
     6
 78
     2
 67
     7
 79
     5
170
     0
171
     0
290
     0
174
     0
 93
        1
 44
-50.0
173
     0
291
     1
 45
0.0
1001
ACAD
1000
AcDbSavedByObjectVersion
1070
     0
  0
VISUALSTYLE
  5
280
102
{ACAD_XDICTIONARY
360
7E2
102
}
102
{ACAD_REACTORS
330
268
102
}
330
268
100
AcDbVisualStyle
  2
EdgeColorOff
 70
    22
 71
     2
 72
     2
 73
     0
 90
        0
 40
-0.6
 41
-30.0
 62
     5
 63
     7
 74
     1
 91
        4
 64
     7
 65
   257
 75
     1
175
     1
 42
1.0
 92
        8
 66
     7
 43
1.0
 76
     1
 77
     6
 78
     2
 67
     7
 79
     5
170
     0
171
     0
290
     0
174
     0
 93
        1
 44
0.0
173
     0
291
     1
 45
0.0
1001
ACAD
1000
AcDbSavedByObjectVersion
1070
     0
  0
VISUALSTYLE
  5
277
102
{ACAD_XDICTIONARY
360
7D0
102
}
102
{ACAD_REACTORS
330
268
102
}
330
268
100
AcDbVisualStyle
  2
Facepattern
 70
    15
 71
     2
 72
     2
 73
     0
 90
        0
 40
-0.6
 41
-30.0
 62
     5
 63
     7
 74
     1
 91
        4
 64
     7
 65
   257
 75
     1
175
     1
 42
1.0
 92
        8
 66
     7
 43
1.0
 76
     1
 77
     6
 78
     2
 67
     7
 79
     5
170
     0
171
     0
290
     0
174
     0
 93
        1
 44
0.0
173
     0
291
     1
 45
0.0
1001
ACAD
1000
AcDbSavedByObjectVersion
1070
     0
  0
VISUALSTYLE
  5
269
102
{ACAD_XDICTIONARY
360
7B4
102
}
102
{ACAD_REACTORS
330
268
102
}
330
268
100
AcDbVisualStyle
  2
Flat
 70
     0
 71
     2
 72
     1
 73
     1
 90
        2
 40
-0.6
 41
30.0
 62
     5
 63
     7
 74
     0
 91
        0
 64
     7
 65
   257
 75
     1
175
     1
 42
1.0
 92
        8
 66
     7
 43
1.0
 76
     1
 77
     6
 78
     2
 67
     7
 79
     5
170
     0
171
     0
290
     0
174
     0
 93
       13
 44
0.0
173
     0
291
     1
 45
0.0
1001
ACAD
1000
AcDbSavedByObjectVersion
1070
     0
  0
VISUALSTYLE
  5
26A
102
{ACAD_XDICTIONARY
360
7B6
102
}
102
{ACAD_REACTORS
330
268
102
}
330
268
100
AcDbVisualStyle
  2
FlatWithEdges
 70
     1
 71
     2
 72
     1
 73
     1
 90
        2
 40
-0.6
 41
30.0
 62
     5
 63
     7
 74
     1
 91
        0
 64
     7
 65
   257
 75
     1
175
     1
 42
1.0
 92
        0
 66
   257
 43
1.0
 76
     1
 77
     6
 78
     2
 67
     7
 79
     5
170
     0
171
     0
290
     0
174
     0
 93
       13
 44
0.0
173
     0
291
     1
 45
0.0
1001
ACAD
1000
AcDbSavedByObjectVersion
1070
     0
  0
VISUALSTYLE
  5
26B
102
{ACAD_XDICTIONARY
360
7B8
102
}
102
{ACAD_REACTORS
330
268
102
}
330
268
100
AcDbVisualStyle
  2
Gouraud
 70
     2
 71
     2
 72
     2
 73
     1
 90
        2
 40
-0.6
 41
30.0
 62
     5
 63
     7
 74
     0
 91
        0
 64
     7
 65
   257
 75
     1
175
     1
 42
1.0
 92
        0
 66
     7
 43
1.0
 76
     1
 77
     6
 78
     2
 67
     7
 79
     5
170
     0
171
     0
290
     0
174
     0
 93
       13
 44
0.0
173
     0
291
     1
 45
0.0
1001
ACAD
1000
AcDbSavedByObjectVersion
1070
     0
  0
VISUALSTYLE
  5
26C
102
{ACAD_XDICTIONARY
360
7BA
102
}
102
{ACAD_REACTORS
330
268
102
}
330
268
100
AcDbVisualStyle
  2
GouraudWithEdges
 70
     3
 71
     2
 72
     2
 73
     1
 90
        2
 40
-0.6
 41
30.0
 62
     5
 63
     7
 74
     1
 91
        0
 64
     7
 65
   257
 75
     1
175
     1
 42
1.0
 92
        0
 66
   257
 43
1.0
 76
     1
 77
     6
 78
     2
 67
     7
 79
     5
170
     0
171
     0
290
     0
174
     0
 93
       13
 44
0.0
173
     0
291
     1
 45
0.0
1001
ACAD
1000
AcDbSavedByObjectVersion
1070
     0
  0
VISUALSTYLE
  5
270
102
{ACAD_XDICTIONARY
360
7C2
102
}
102
{ACAD_REACTORS
330
268
102
}
330
268
100
AcDbVisualStyle
  2
Hidden
 70
     6
 71
     1
 72
     2
 73
     2
 90
        0
 40
-0.6
 41
-30.0
 62
     5
 63
     7
 74
     2
 91
        2
 64
     7
 65
   257
 75
     2
175
     1
 42
40.0
 92
        0
 66
   257
 43
1.0
 76
     1
 77
     6
 78
     2
 67
     7
 79
     3
170
     0
171
     0
290
     0
174
     0
 93
        1
 44
0.0
173
     0
291
     0
 45
0.0
1001
ACAD
1000
AcDbSavedByObjectVersion
1070
     0
  0
VISUALSTYLE
  5
27E
102
{ACAD_XDICTIONARY
360
7DE
102
}
102
{ACAD_REACTORS
330
268
102
}
330
268
100
AcDbVisualStyle
  2
JitterOff
 70
    20
 71
     2
 72
     2
 73
     0
 90
        0
 40
-0.6
 41
-30.0
 62
     5
 63
     7
 74
     1
 91
        4
 64
     7
 65
   257
 75
     1
175
     1
 42
1.0
 92
       10
 66
     7
 43
1.0
 76
     1
 77
     6
 78
     2
 67
     7
 79
     5
170
     0
171
     0
290
     0
174
     0
 93
        1
 44
0.0
173
     0
291
     1
 45
0.0
1001
ACAD
1000
AcDbSavedByObjectVersion
1070
     0
  0
VISUALSTYLE
  5
276
102
{ACAD_XDICTIONARY
360
7CE
102
}
102
{ACAD_REACTORS
330
268
102
}
330
268
100
AcDbVisualStyle
  2
Linepattern
 70
    14
 71
     2
 72
     2
 73
     0
 90
        0
 40
-0.6
 41
-30.0
 62
     5
 63
     7
 74
     1
 91
        4
 64
     7
 65
   257
 75
     7
175
     7
 42
1.0
 92
        8
 66
     7
 43
1.0
 76
     1
 77
     6
 78
     2
 67
     7
 79
     5
170
     0
171
     0
290
     0
174
     0
 93
        1
 44
0.0
173
     0
291
     1
 45
0.0
1001
ACAD
1000
AcDbSavedByObjectVersion
1070
     0
  0
VISUALSTYLE
  5
27F
102
{ACAD_XDICTIONARY
360
7E0
102
}
102
{ACAD_REACTORS
330
268
102
}
330
268
100
AcDbVisualStyle
  2
OverhangOff
 70
    21
 71
     2
 72
     2
 73
     0
 90
        0
 40
-0.6
 41
-30.0
 62
     5
 63
     7
 74
     1
 91
        4
 64
     7
 65
   257
 75
     1
175
     1
 42
1.0
 92
        9
 66
     7
 43
1.0
 76
     1
 77
     6
 78
     2
 67
     7
 79
     5
170
     0
171
     0
290
     0
174
     0
 93
        1
 44
0.0
173
     0
291
     1
 45
0.0
1001
ACAD
1000
AcDbSavedByObjectVersion
1070
     0
  0
VISUALSTYLE
  5
272
102
{ACAD_XDICTIONARY
360
7C6
102
}
102
{ACAD_REACTORS
330
268
102
}
330
268
100
AcDbVisualStyle
  2
Realistic
 70
     8
 71
     2
 72
     3
 73
     0
 90
        2
 40
-0.6
 41
30.0
 62
     5
 63
     7
 74
     0
 91
        0
 64
     7
 65
   257
 75
     1
175
     1
 42
1.0
 92
        8
 66
   257
 43
1.0
 76
     1
 77
     6
 78
     2
 67
     7
 79
     3
170
     0
171
     0
290
     0
174
     0
 93
       13
 44
0.0
173
     0
291
     0
 45
0.0
1001
ACAD
1000
AcDbSavedByObjectVersion
1070
     0
  0
VISUALSTYLE
  5
27D
102
{ACAD_XDICTIONARY
360
7DC
102
}
102
{ACAD_REACTORS
330
268
102
}
330
268
100
AcDbVisualStyle
  2
Shaded
 70
    27
 71
     2
 72
     2
 73
     1
 90
        2
 40
-0.6
 41
30.0
 62
     5
 63
     7
 74
     0
 91
        4
 64
     7
 65
   257
 75
     1
175
     1
 42
1.0
 92
        8
 66
   257
 43
1.0
 76
     1
 77
     6
 78
     2
 67
     8
 79
     3
170
     0
171
     0
290
     0
174
     0
 93
        5
 44
0.0
173
     0
291
     0
 45
0.0
1001
ACAD
1000
AcDbSavedByObjectVersion
1070
     0
  0
VISUALSTYLE
  5
27C
102
{ACAD_XDICTIONARY
360
7DA
102
}
102
{ACAD_REACTORS
330
268
102
}
330
268
100
AcDbVisualStyle
  2
Shaded with edges
 70
    26
 71
     2
 72
     2
 73
     1
 90
        2
 40
-0.6
 41
30.0
 62
     5
 63
     7
 74
     1
 91
       10
 64
     7
 65
   257
 75
     2
175
     1
 42
1.0
 92
        8
 66
   257
 43
1.0
 76
     1
 77
     6
 78
     2
 67
     7
 79
     3
170
     0
171
     0
290
     0
174
     0
 93
        5
 44
0.0
173
     0
291
     0
 45
0.0
1001
ACAD
1000
AcDbSavedByObjectVersion
1070
     0
  0
VISUALSTYLE
  5
279
102
{ACAD_XDICTIONARY
360
7D4
102
}
102
{ACAD_REACTORS
330
268
102
}
330
268
100
AcDbVisualStyle
  2
Shades of Gray
 70
    23
 71
     2
 72
     2
 73
     3
 90
        0
 40
-0.6
 41
-30.0
 62
     5
 63
     7
 74
     2
 91
        2
 64
     7
 65
     7
 75
     1
175
     1
 42
40.0
 92
        8
 66
     7
 43
1.0
 76
     1
 77
     6
 78
     2
 67
     7
 79
     3
170
     0
171
     0
290
     0
174
     0
 93
        1
 44
0.0
173
     0
291
     0
 45
0.0
1001
ACAD
1000
AcDbSavedByObjectVersion
1070
     0
  0
VISUALSTYLE
  5
27A
102
{ACAD_XDICTIONARY
360
7D6
102
}
102
{ACAD_REACTORS
330
268
102
}
330
268
100
AcDbVisualStyle
  2
Sketchy
 70
    24
 71
     1
 72
     2
 73
     2
 90
        0
 40
-0.6
 41
-30.0
 62
     5
 63
     7
 74
     2
 91
        2
 64
     7
 65
     7
 75
     1
175
     1
 42
40.0
 92
       11
 66
     7
 43
1.0
 76
     1
 77
     6
 78
     2
 67
     7
 79
     6
170
     0
171
     0
290
     0
174
     0
 93
        1
 44
0.0
173
     0
291
     0
 45
0.0
1001
ACAD
1000
AcDbSavedByObjectVersion
1070
     0
  0
VISUALSTYLE
  5
275
102
{ACAD_XDICTIONARY
360
7CC
102
}
102
{ACAD_REACTORS
330
268
102
}
330
268
100
AcDbVisualStyle
  2
Thicken
 70
    13
 71
     2
 72
     2
 73
     0
 90
        0
 40
-0.6
 41
-30.0
 62
     5
 63
     7
 74
     1
 91
        4
 64
     7
 65
   257
 75
     1
175
     1
 42
1.0
 92
       12
 66
     7
 43
1.0
 76
     1
 77
     6
 78
     2
 67
     7
 79
     5
170
     0
171
     0
290
     0
174
     0
 93
        1
 44
0.0
173
     0
291
     1
 45
0.0
1001
ACAD
1000
AcDbSavedByObjectVersion
1070
     0
  0
VISUALSTYLE
  5
26F
102
{ACAD_XDICTIONARY
360
7C0
102
}
102
{ACAD_REACTORS
330
268
102
}
330
268
100
AcDbVisualStyle
  2
Wireframe
 70
     5
 71
     0
 72
     2
 73
     0
 90
        0
 40
-0.6
 41
-30.0
 62
     5
 63
     7
 74
     1
 91
        4
 64
     7
 65
   257
 75
     1
175
     1
 42
1.0
 92
        0
 66
   257
 43
1.0
 76
     1
 77
     6
 78
     2
 67
     7
 79
     3
170
     0
171
     0
290
     0
174
     0
 93
        1
 44
0.0
173
     0
291
     0
 45
0.0
1001
ACAD
1000
AcDbSavedByObjectVersion
1070
     0
  0
VISUALSTYLE
  5
27B
102
{ACAD_XDICTIONARY
360
7D8
102
}
102
{ACAD_REACTORS
330
268
102
}
330
268
100
AcDbVisualStyle
  2
X-Ray
 70
    25
 71
     2
 72
     2
 73
     1
 90
        1
 40
0.5
 41
-30.0
 62
     5
 63
     7
 74
     1
 91
        0
 64
     7
 65
   257
 75
     1
175
     1
 42
1.0
 92
        8
 66
     7
 43
1.0
 76
     1
 77
     6
 78
     2
 67
     7
 79
     3
170
     0
171
     0
290
     0
174
     0
 93
       13
 44
0.0
173
     0
291
     0
 45
0.0
1001
ACAD
1000
AcDbSavedByObjectVersion
1070
     0
  0
DICTIONARYVAR
  5
79F
102
{ACAD_REACTORS
330
79A
102
}
330
79A
100
DictionaryVariables
280
     0
  1
1:1
  0
DICTIONARYVAR
  5
79C
102
{ACAD_REACTORS
330
79A
102
}
330
79A
100
DictionaryVariables
280
     0
  1
STANDARD
  0
DICTIONARYVAR
  5
79B
102
{ACAD_REACTORS
330
79A
102
}
330
79A
100
DictionaryVariables
280
     0
  1
STANDARD
  0
DICTIONARYVAR
  5
79D
102
{ACAD_REACTORS
330
79A
102
}
330
79A
100
DictionaryVariables
280
     0
  1
Imperial24
  0
DICTIONARYVAR
  5
79E
102
{ACAD_REACTORS
330
79A
102
}
330
79A
100
DictionaryVariables
280
     0
  1
Imperial24
  0
DICTIONARYVAR
  5
7A6
102
{ACAD_REACTORS
330
79A
102
}
330
79A
100
DictionaryVariables
280
     0
  1
2
  0
DICTIONARYVAR
  5
7A4
102
{ACAD_REACTORS
330
79A
102
}
330
79A
100
DictionaryVariables
280
     0
  1
2
  0
DICTIONARYVAR
  5
7A2
102
{ACAD_REACTORS
330
79A
102
}
330
79A
100
DictionaryVariables
280
     0
  1
1
  0
DICTIONARYVAR
  5
7A1
102
{ACAD_REACTORS
330
79A
102
}
330
79A
100
DictionaryVariables
280
     0
  1
0
  0
DICTIONARYVAR
  5
7A5
102
{ACAD_REACTORS
330
79A
102
}
330
79A
100
DictionaryVariables
280
     0
  1
1
  0
DICTIONARYVAR
  5
7A0
102
{ACAD_REACTORS
330
79A
102
}
330
79A
100
DictionaryVariables
280
     0
  1
127
  0
DICTIONARYVAR
  5
7A3
102
{ACAD_REACTORS
330
79A
102
}
330
79A
100
DictionaryVariables
280
     0
  1
0
  0
DICTIONARY
  5
2D4
102
{ACAD_REACTORS
330
2CD
102
}
330
2CD
100
AcDbDictionary
281
     1
  0
DICTIONARY
  5
7AD
330
1C
100
AcDbDictionary
280
     1
281
     1
  3
ACAD_XREC_ROUNDTRIP
360
7AE
  0
DICTIONARY
  5
7AF
330
1E
100
AcDbDictionary
280
     1
281
     1
  3
ACAD_XREC_ROUNDTRIP
360
7B0
  0
DICTIONARY
  5
259
330
258
100
AcDbDictionary
280
     1
281
     1
  3
ACAD_XREC_ROUNDTRIP
360
7B2
  3
BUMPTILE
360
25B
  3
DIFFUSETILE
360
25A
  3
OPACITYTILE
360
25E
  3
REFLECTIONTILE
360
25D
  3
REFRACTIONTILE
360
25F
  3
SPECULARTILE
360
25C
  0
DICTIONARY
  5
251
330
250
100
AcDbDictionary
280
     1
281
     1
  3
ACAD_XREC_ROUNDTRIP
360
7B1
  3
BUMPTILE
360
253
  3
DIFFUSETILE
360
252
  3
OPACITYTILE
360
256
  3
REFLECTIONTILE
360
255
  3
REFRACTIONTILE
360
257
  3
SPECULARTILE
360
254
  0
DICTIONARY
  5
261
330
260
100
AcDbDictionary
280
     1
281
     1
  3
ACAD_XREC_ROUNDTRIP
360
7B3
  3
BUMPTILE
360
263
  3
DIFFUSETILE
360
262
  3
OPACITYTILE
360
266
  3
REFLECTIONTILE
360
265
  3
REFRACTIONTILE
360
267
  3
SPECULARTILE
360
264
  0
DICTIONARY
  5
7E6
330
297
100
AcDbDictionary
280
     1
281
     1
  3
ACAD_XREC_ROUNDTRIP
360
7E7
  0
DICTIONARY
  5
7A7
330
283
100
AcDbDictionary
280
     1
281
     1
  3
ACAD_ROUNDTRIP_2008_TABLESTYLE_CELLSTYLEMAP
360
7A8
  3
ACAD_XREC_ROUNDTRIP
360
7E4
  0
DICTIONARY
  5
7BE
330
26E
100
AcDbDictionary
280
     1
281
     1
  3
ACAD_XREC_ROUNDTRIP
360
7BF
  0
DICTIONARY
  5
7BC
330
26D
100
AcDbDictionary
280
     1
281
     1
  3
ACAD_XREC_ROUNDTRIP
360
7BD
  0
DICTIONARY
  5
7CA
330
274
100
AcDbDictionary
280
     1
281
     1
  3
ACAD_XREC_ROUNDTRIP
360
7CB
  0
DICTIONARY
  5
7D2
330
278
100
AcDbDictionary
280
     1
281
     1
  3
ACAD_XREC_ROUNDTRIP
360
7D3
  0
DICTIONARY
  5
7C4
330
271
100
AcDbDictionary
280
     1
281
     1
  3
ACAD_XREC_ROUNDTRIP
360
7C5
  0
DICTIONARY
  5
7C8
330
273
100
AcDbDictionary
280
     1
281
     1
  3
ACAD_XREC_ROUNDTRIP
360
7C9
  0
DICTIONARY
  5
7E2
330
280
100
AcDbDictionary
280
     1
281
     1
  3
ACAD_XREC_ROUNDTRIP
360
7E3
  0
DICTIONARY
  5
7D0
330
277
100
AcDbDictionary
280
     1
281
     1
  3
ACAD_XREC_ROUNDTRIP
360
7D1
  0
DICTIONARY
  5
7B4
330
269
100
AcDbDictionary
280
     1
281
     1
  3
ACAD_XREC_ROUNDTRIP
360
7B5
  0
DICTIONARY
  5
7B6
330
26A
100
AcDbDictionary
280
     1
281
     1
  3
ACAD_XREC_ROUNDTRIP
360
7B7
  0
DICTIONARY
  5
7B8
330
26B
100
AcDbDictionary
280
     1
281
     1
  3
ACAD_XREC_ROUNDTRIP
360
7B9
  0
DICTIONARY
  5
7BA
330
26C
100
AcDbDictionary
280
     1
281
     1
  3
ACAD_XREC_ROUNDTRIP
360
7BB
  0
DICTIONARY
  5
7C2
330
270
100
AcDbDictionary
280
     1
281
     1
  3
ACAD_XREC_ROUNDTRIP
360
7C3
  0
DICTIONARY
  5
7DE
330
27E
100
AcDbDictionary
280
     1
281
     1
  3
ACAD_XREC_ROUNDTRIP
360
7DF
  0
DICTIONARY
  5
7CE
330
276
100
AcDbDictionary
280
     1
281
     1
  3
ACAD_XREC_ROUNDTRIP
360
7CF
  0
DICTIONARY
  5
7E0
330
27F
100
AcDbDictionary
280
     1
281
     1
  3
ACAD_XREC_ROUNDTRIP
360
7E1
  0
DICTIONARY
  5
7C6
330
272
100
AcDbDictionary
280
     1
281
     1
  3
ACAD_XREC_ROUNDTRIP
360
7C7
  0
DICTIONARY
  5
7DC
330
27D
100
AcDbDictionary
280
     1
281
     1
  3
ACAD_XREC_ROUNDTRIP
360
7DD
  0
DICTIONARY
  5
7DA
330
27C
100
AcDbDictionary
280
     1
281
     1
  3
ACAD_XREC_ROUNDTRIP
360
7DB
  0
DICTIONARY
  5
7D4
330
279
100
AcDbDictionary
280
     1
281
     1
  3
ACAD_XREC_ROUNDTRIP
360
7D5
  0
DICTIONARY
  5
7D6
330
27A
100
AcDbDictionary
280
     1
281
     1
  3
ACAD_XREC_ROUNDTRIP
360
7D7
  0
DICTIONARY
  5
7CC
330
275
100
AcDbDictionary
280
     1
281
     1
  3
ACAD_XREC_ROUNDTRIP
360
7CD
  0
DICTIONARY
  5
7C0
330
26F
100
AcDbDictionary
280
     1
281
     1
  3
ACAD_XREC_ROUNDTRIP
360
7C1
  0
DICTIONARY
  5
7D8
330
27B
100
AcDbDictionary
280
     1
281
     1
  3
ACAD_XREC_ROUNDTRIP
360
7D9
  0
XRECORD
  5
7AE
102
{ACAD_REACTORS
330
7AD
102
}
330
7AD
100
AcDbXrecord
280
     1
102
SHADEPLOT
 70
     0
102
SHADEPLOTRESLEVEL
 70
     2
102
SHADEPLOTCUSTOMDPI
 70
   300
  0
XRECORD
  5
7B0
102
{ACAD_REACTORS
330
7AF
102
}
330
7AF
100
AcDbXrecord
280
     1
102
SHADEPLOT
 70
     0
102
SHADEPLOTRESLEVEL
 70
     2
102
SHADEPLOTCUSTOMDPI
 70
   300
  0
XRECORD
  5
7B2
102
{ACAD_REACTORS
330
259
102
}
330
259
100
AcDbXrecord
280
     1
102
MATERIAL
148
0.0
149
0.0
149
0.0
 93
        0
 94
      127
282
     0
 72
     0
 77
     0
171
     0
175
     0
179
     0
273
     0
  0
XRECORD
  5
25B
102
{ACAD_REACTORS
330
259
102
}
330
259
100
AcDbXrecord
280
     1
270
     1
271
     1
  0
XRECORD
  5
25A
102
{ACAD_REACTORS
330
259
102
}
330
259
100
AcDbXrecord
280
     1
270
     1
271
     1
  0
XRECORD
  5
25E
102
{ACAD_REACTORS
330
259
102
}
330
259
100
AcDbXrecord
280
     1
270
     1
271
     1
  0
XRECORD
  5
25D
102
{ACAD_REACTORS
330
259
102
}
330
259
100
AcDbXrecord
280
     1
270
     1
271
     1
  0
XRECORD
  5
25F
102
{ACAD_REACTORS
330
259
102
}
330
259
100
AcDbXrecord
280
     1
270
     1
271
     1
  0
XRECORD
  5
25C
102
{ACAD_REACTORS
330
259
102
}
330
259
100
AcDbXrecord
280
     1
270
     1
271
     1
  0
XRECORD
  5
7B1
102
{ACAD_REACTORS
330
251
102
}
330
251
100
AcDbXrecord
280
     1
102
MATERIAL
148
0.0
149
0.0
149
0.0
 93
        0
 94
      127
282
     0
 72
     0
 77
     0
171
     0
175
     0
179
     0
273
     0
  0
XRECORD
  5
253
102
{ACAD_REACTORS
330
251
102
}
330
251
100
AcDbXrecord
280
     1
270
     1
271
     1
  0
XRECORD
  5
252
102
{ACAD_REACTORS
330
251
102
}
330
251
100
AcDbXrecord
280
     1
270
     1
271
     1
  0
XRECORD
  5
256
102
{ACAD_REACTORS
330
251
102
}
330
251
100
AcDbXrecord
280
     1
270
     1
271
     1
  0
XRECORD
  5
255
102
{ACAD_REACTORS
330
251
102
}
330
251
100
AcDbXrecord
280
     1
270
     1
271
     1
  0
XRECORD
  5
257
102
{ACAD_REACTORS
330
251
102
}
330
251
100
AcDbXrecord
280
     1
270
     1
271
     1
  0
XRECORD
  5
254
102
{ACAD_REACTORS
330
251
102
}
330
251
100
AcDbXrecord
280
     1
270
     1
271
     1
  0
XRECORD
  5
7B3
102
{ACAD_REACTORS
330
261
102
}
330
261
100
AcDbXrecord
280
     1
102
MATERIAL
148
0.0
149
0.0
149
0.0
 93
        0
 94
      127
282
     0
 72
     0
 77
     0
171
     0
175
     0
179
     0
273
     0
  0
XRECORD
  5
263
102
{ACAD_REACTORS
330
261
102
}
330
261
100
AcDbXrecord
280
     1
270
     1
271
     1
  0
XRECORD
  5
262
102
{ACAD_REACTORS
330
261
102
}
330
261
100
AcDbXrecord
280
     1
270
     1
271
     1
  0
XRECORD
  5
266
102
{ACAD_REACTORS
330
261
102
}
330
261
100
AcDbXrecord
280
     1
270
     1
271
     1
  0
XRECORD
  5
265
102
{ACAD_REACTORS
330
261
102
}
330
261
100
AcDbXrecord
280
     1
270
     1
271
     1
  0
XRECORD
  5
267
102
{ACAD_REACTORS
330
261
102
}
330
261
100
AcDbXrecord
280
     1
270
     1
271
     1
  0
XRECORD
  5
264
102
{ACAD_REACTORS
330
261
102
}
330
261
100
AcDbXrecord
280
     1
270
     1
271
     1
  0
XRECORD
  5
7E7
102
{ACAD_REACTORS
330
7E6
102
}
330
7E6
100
AcDbXrecord
280
     1
102
ACAD_ROUNDTRIP_2012_MLEADER_STYLE
298
     1
  0
CELLSTYLEMAP
  5
7A8
102
{ACAD_REACTORS
330
7A7
102
}
330
7A7
100
AcDbCellStyleMap
 90
        3
300
CELLSTYLE
  1
TABLEFORMAT_BEGIN
 90
        5
170
     1
 91
        0
 92
    32768
 62
   257
 93
        1
300
CONTENTFORMAT
  1
CONTENTFORMAT_BEGIN
 90
        0
 91
        0
 92
      512
 93
        0
300

 40
0.0
140
1.0
 94
        5
 62
     0
340
11
144
0.25
309
CONTENTFORMAT_END
171
     0
 94
        0
309
TABLEFORMAT_END
  1
CELLSTYLE_BEGIN
 90
        1
 91
        1
300
_TITLE
309
CELLSTYLE_END
300
CELLSTYLE
  1
TABLEFORMAT_BEGIN
 90
        5
170
     1
 91
        0
 92
        0
 62
   257
 93
        1
300
CONTENTFORMAT
  1
CONTENTFORMAT_BEGIN
 90
        0
 91
        0
 92
      512
 93
        0
300

 40
0.0
140
1.0
 94
        5
 62
     0
340
11
144
0.18
309
CONTENTFORMAT_END
171
     0
 94
        0
309
TABLEFORMAT_END
  1
CELLSTYLE_BEGIN
 90
        2
 91
        1
300
_HEADER
309
CELLSTYLE_END
300
CELLSTYLE
  1
TABLEFORMAT_BEGIN
 90
        5
170
     1
 91
        0
 92
        0
 62
   257
 93
        1
300
CONTENTFORMAT
  1
CONTENTFORMAT_BEGIN
 90
        0
 91
        0
 92
      512
 93
        0
300

 40
0.0
140
1.0
 94
        2
 62
     0
340
11
144
0.18
309
CONTENTFORMAT_END
171
     0
 94
        0
309
TABLEFORMAT_END
  1
CELLSTYLE_BEGIN
 90
        3
 91
        2
300
_DATA
309
CELLSTYLE_END
  0
XRECORD
  5
7E4
102
{ACAD_REACTORS
330
7A7
102
}
330
7A7
100
AcDbXrecord
280
     1
102
ACAD_ROUNDTRIP_PRE2007_TABLESTYLE
 90
      512
 91
        0
  1

 92
      512
 93
        0
  2

 94
      512
 95
        0
  3

  0
XRECORD
  5
7BF
102
{ACAD_REACTORS
330
7BE
102
}
330
7BE
100
AcDbXrecord
280
     1
102
RTVSPost2010Prop28
280
     1
102
RTVSPost2010PropOp28
 70
     1
102
RTVSPost2010Prop29
280
     1
102
RTVSPost2010PropOp29
 70
     1
102
RTVSPost2010Prop30
280
     0
102
RTVSPost2010PropOp30
 70
     1
102
RTVSPost2010Prop31
280
     0
102
RTVSPost2010PropOp31
 70
     1
102
RTVSPost2010Prop32
280
     0
102
RTVSPost2010PropOp32
 70
     1
102
RTVSPost2010Prop33
280
     0
102
RTVSPost2010PropOp33
 70
     1
102
RTVSPost2010Prop34
280
     0
102
RTVSPost2010PropOp34
 70
     1
102
RTVSPost2010Prop35
280
     0
102
RTVSPost2010PropOp35
 70
     1
102
RTVSPost2010Prop36
280
     0
102
RTVSPost2010PropOp36
 70
     1
102
RTVSPost2010Prop37
 90
       50
102
RTVSPost2010PropOp37
 70
     1
102
RTVSPost2010Prop38
140
0.0
102
RTVSPost2010PropOp38
 70
     1
102
RTVSPost2010Prop39
140
1.0
102
RTVSPost2010PropOp39
 70
     1
102
RTVSPost2010Prop40
 90
        0
102
RTVSPost2010PropOp40
 70
     1
102
RTVSPost2010Prop41ColorIndex
 90
       18
102
RTVSPost2010Prop41ColorRGB
 90
        0
102
RTVSPost2010PropOp41
 70
     1
102
RTVSPost2010Prop42
 90
       50
102
RTVSPost2010PropOp42
 70
     1
102
RTVSPost2010Prop43
 90
        3
102
RTVSPost2010PropOp43
 70
     1
102
RTVSPost2010Prop44ColorIndex
 90
        5
102
RTVSPost2010Prop44ColorRGB
 90
      255
102
RTVSPost2010PropOp44
 70
     1
102
RTVSPost2010Prop45
280
     0
102
RTVSPost2010PropOp45
 70
     1
102
RTVSPost2010Prop46
 90
       50
102
RTVSPost2010PropOp46
 70
     1
102
RTVSPost2010Prop47
 90
       50
102
RTVSPost2010PropOp47
 70
     1
102
RTVSPost2010Prop48
 90
       50
102
RTVSPost2010PropOp48
 70
     1
102
RTVSPost2010Prop49
280
     0
102
RTVSPost2010PropOp49
 70
     1
102
RTVSPost2010Prop50
 90
       50
102
RTVSPost2010PropOp50
 70
     1
102
RTVSPost2010Prop51ColorIndex
 90
      256
102
RTVSPost2010Prop51ColorRGB
 90
-16777216
102
RTVSPost2010PropOp51
 70
     0
102
RTVSPost2010Prop52
140
1.0
102
RTVSPost2010PropOp52
 70
     0
102
RTVSPost2010Prop53
 90
        2
102
RTVSPost2010PropOp53
 70
     1
102
RTVSPost2010Prop54
  1
strokes_ogs.tif
102
RTVSPost2010PropOp54
 70
     1
102
RTVSPost2010Prop55
280
     0
102
RTVSPost2010PropOp55
 70
     1
102
RTVSPost2010Prop56
140
1.0
102
RTVSPost2010PropOp56
 70
     1
102
RTVSPost2010Prop57
140
1.0
102
RTVSPost2010PropOp57
 70
     1
102
RTVSPropertyOp0
 70
     1
102
RTVSPropertyOp1
 70
     1
102
RTVSPropertyOp2
 70
     1
102
RTVSPropertyOp3
 70
     1
102
RTVSPropertyOp4
 70
     1
102
RTVSPropertyOp5
 70
     1
102
RTVSPropertyOp6
 70
     1
102
RTVSPropertyOp7
 70
     1
102
RTVSPropertyOp8
 70
     1
102
RTVSPropertyOp9
 70
     1
102
RTVSPropertyOp10
 70
     1
102
RTVSPropertyOp11
 70
     1
102
RTVSPropertyOp12
 70
     1
102
RTVSPropertyOp13
 70
     1
102
RTVSPropertyOp14
 70
     1
102
RTVSPropertyOp15
 70
     1
102
RTVSPropertyOp16
 70
     1
102
RTVSPropertyOp17
 70
     1
102
RTVSPropertyOp18
 70
     1
102
RTVSPropertyOp19
 70
     1
102
RTVSPropertyOp20
 70
     1
102
RTVSPropertyOp21
 70
     1
102
RTVSPropertyOp22
 70
     1
102
RTVSPropertyOp23
 70
     1
102
RTVSPropertyOp24
 70
     1
102
RTVSPropertyOp25
 70
     1
102
RTVSPropertyOp26
 70
     1
102
RTVSPropertyOp27
 70
     1
102
RTVSPropertyOp28
 70
     1
102
RTVSPropertyOp29
 70
     1
102
RTVSPropertyOp30
 70
     1
102
RTVSPropertyOp31
 70
     1
102
RTVSPropertyOp32
 70
     1
102
RTVSPropertyOp33
 70
     1
102
RTVSPropertyOp34
 70
     1
102
RTVSPropertyOp35
 70
     1
102
RTVSPropertyOp36
 70
     1
102
RTVSPropertyOp37
 70
     1
102
RTVSPropertyOp38
 70
     1
102
RTVSPropertyOp39
 70
     1
102
RTVSPropertyOp40
 70
     1
102
RTVSPropertyOp41
 70
     1
102
RTVSPropertyOp42
 70
     1
102
RTVSPropertyOp43
 70
     1
102
RTVSPropertyOp44
 70
     1
102
RTVSPropertyOp45
 70
     1
102
RTVSPropertyOp46
 70
     1
102
RTVSPropertyOp47
 70
     1
102
RTVSPropertyOp48
 70
     1
102
RTVSPropertyOp49
 70
     1
102
RTVSPropertyOp50
 70
     1
102
RTVSPropertyOp51
 70
     0
102
RTVSPropertyOp52
 70
     0
102
RTVSPropertyOp53
 70
     1
102
RTVSPropertyOp54
 70
     1
102
RTVSPropertyOp55
 70
     1
102
RTVSPropertyOp56
 70
     1
102
RTVSPropertyOp57
 70
     1
102
RTVSPropertyOp58
 70
     1
102
RTVSPropertyOp59
 70
     1
102
RTVSPropertyOp60
 70
     1
102
RTVSPropertyOp61
 70
     1
102
RTVSPropertyOp62
 70
     1
  0
XRECORD
  5
7BD
102
{ACAD_REACTORS
330
7BC
102
}
330
7BC
100
AcDbXrecord
280
     1
102
RTVSPost2010Prop28
280
     0
102
RTVSPost2010PropOp28
 70
     1
102
RTVSPost2010Prop29
280
     1
102
RTVSPost2010PropOp29
 70
     1
102
RTVSPost2010Prop30
280
     1
102
RTVSPost2010PropOp30
 70
     1
102
RTVSPost2010Prop31
280
     0
102
RTVSPost2010PropOp31
 70
     1
102
RTVSPost2010Prop32
280
     0
102
RTVSPost2010PropOp32
 70
     1
102
RTVSPost2010Prop33
280
     0
102
RTVSPost2010PropOp33
 70
     1
102
RTVSPost2010Prop34
280
     0
102
RTVSPost2010PropOp34
 70
     1
102
RTVSPost2010Prop35
280
     0
102
RTVSPost2010PropOp35
 70
     1
102
RTVSPost2010Prop36
280
     0
102
RTVSPost2010PropOp36
 70
     1
102
RTVSPost2010Prop37
 90
       50
102
RTVSPost2010PropOp37
 70
     1
102
RTVSPost2010Prop38
140
0.0
102
RTVSPost2010PropOp38
 70
     1
102
RTVSPost2010Prop39
140
1.0
102
RTVSPost2010PropOp39
 70
     1
102
RTVSPost2010Prop40
 90
        0
102
RTVSPost2010PropOp40
 70
     1
102
RTVSPost2010Prop41ColorIndex
 90
       18
102
RTVSPost2010Prop41ColorRGB
 90
        0
102
RTVSPost2010PropOp41
 70
     1
102
RTVSPost2010Prop42
 90
       50
102
RTVSPost2010PropOp42
 70
     1
102
RTVSPost2010Prop43
 90
        3
102
RTVSPost2010PropOp43
 70
     1
102
RTVSPost2010Prop44ColorIndex
 90
        5
102
RTVSPost2010Prop44ColorRGB
 90
      255
102
RTVSPost2010PropOp44
 70
     1
102
RTVSPost2010Prop45
280
     0
102
RTVSPost2010PropOp45
 70
     1
102
RTVSPost2010Prop46
 90
       50
102
RTVSPost2010PropOp46
 70
     1
102
RTVSPost2010Prop47
 90
       50
102
RTVSPost2010PropOp47
 70
     1
102
RTVSPost2010Prop48
 90
       50
102
RTVSPost2010PropOp48
 70
     1
102
RTVSPost2010Prop49
280
     0
102
RTVSPost2010PropOp49
 70
     1
102
RTVSPost2010Prop50
 90
       50
102
RTVSPost2010PropOp50
 70
     1
102
RTVSPost2010Prop51ColorIndex
 90
      256
102
RTVSPost2010Prop51ColorRGB
 90
-16777216
102
RTVSPost2010PropOp51
 70
     0
102
RTVSPost2010Prop52
140
1.0
102
RTVSPost2010PropOp52
 70
     0
102
RTVSPost2010Prop53
 90
        2
102
RTVSPost2010PropOp53
 70
     1
102
RTVSPost2010Prop54
  1
strokes_ogs.tif
102
RTVSPost2010PropOp54
 70
     1
102
RTVSPost2010Prop55
280
     0
102
RTVSPost2010PropOp55
 70
     1
102
RTVSPost2010Prop56
140
1.0
102
RTVSPost2010PropOp56
 70
     1
102
RTVSPost2010Prop57
140
1.0
102
RTVSPost2010PropOp57
 70
     1
102
RTVSPropertyOp0
 70
     1
102
RTVSPropertyOp1
 70
     1
102
RTVSPropertyOp2
 70
     1
102
RTVSPropertyOp3
 70
     1
102
RTVSPropertyOp4
 70
     1
102
RTVSPropertyOp5
 70
     1
102
RTVSPropertyOp6
 70
     1
102
RTVSPropertyOp7
 70
     1
102
RTVSPropertyOp8
 70
     1
102
RTVSPropertyOp9
 70
     1
102
RTVSPropertyOp10
 70
     1
102
RTVSPropertyOp11
 70
     1
102
RTVSPropertyOp12
 70
     1
102
RTVSPropertyOp13
 70
     1
102
RTVSPropertyOp14
 70
     1
102
RTVSPropertyOp15
 70
     1
102
RTVSPropertyOp16
 70
     1
102
RTVSPropertyOp17
 70
     1
102
RTVSPropertyOp18
 70
     1
102
RTVSPropertyOp19
 70
     1
102
RTVSPropertyOp20
 70
     1
102
RTVSPropertyOp21
 70
     1
102
RTVSPropertyOp22
 70
     1
102
RTVSPropertyOp23
 70
     1
102
RTVSPropertyOp24
 70
     1
102
RTVSPropertyOp25
 70
     1
102
RTVSPropertyOp26
 70
     1
102
RTVSPropertyOp27
 70
     1
102
RTVSPropertyOp28
 70
     1
102
RTVSPropertyOp29
 70
     1
102
RTVSPropertyOp30
 70
     1
102
RTVSPropertyOp31
 70
     1
102
RTVSPropertyOp32
 70
     1
102
RTVSPropertyOp33
 70
     1
102
RTVSPropertyOp34
 70
     1
102
RTVSPropertyOp35
 70
     1
102
RTVSPropertyOp36
 70
     1
102
RTVSPropertyOp37
 70
     1
102
RTVSPropertyOp38
 70
     1
102
RTVSPropertyOp39
 70
     1
102
RTVSPropertyOp40
 70
     1
102
RTVSPropertyOp41
 70
     1
102
RTVSPropertyOp42
 70
     1
102
RTVSPropertyOp43
 70
     1
102
RTVSPropertyOp44
 70
     1
102
RTVSPropertyOp45
 70
     1
102
RTVSPropertyOp46
 70
     1
102
RTVSPropertyOp47
 70
     1
102
RTVSPropertyOp48
 70
     1
102
RTVSPropertyOp49
 70
     1
102
RTVSPropertyOp50
 70
     1
102
RTVSPropertyOp51
 70
     0
102
RTVSPropertyOp52
 70
     0
102
RTVSPropertyOp53
 70
     1
102
RTVSPropertyOp54
 70
     1
102
RTVSPropertyOp55
 70
     1
102
RTVSPropertyOp56
 70
     1
102
RTVSPropertyOp57
 70
     1
102
RTVSPropertyOp58
 70
     1
102
RTVSPropertyOp59
 70
     1
102
RTVSPropertyOp60
 70
     1
102
RTVSPropertyOp61
 70
     1
102
RTVSPropertyOp62
 70
     1
  0
XRECORD
  5
7CB
102
{ACAD_REACTORS
330
7CA
102
}
330
7CA
100
AcDbXrecord
280
     1
102
RTVSPost2010Prop28
280
     0
102
RTVSPost2010PropOp28
 70
     1
102
RTVSPost2010Prop29
280
     1
102
RTVSPost2010PropOp29
 70
     1
102
RTVSPost2010Prop30
280
     1
102
RTVSPost2010PropOp30
 70
     1
102
RTVSPost2010Prop31
280
     0
102
RTVSPost2010PropOp31
 70
     1
102
RTVSPost2010Prop32
280
     0
102
RTVSPost2010PropOp32
 70
     1
102
RTVSPost2010Prop33
280
     0
102
RTVSPost2010PropOp33
 70
     1
102
RTVSPost2010Prop34
280
     0
102
RTVSPost2010PropOp34
 70
     1
102
RTVSPost2010Prop35
280
     0
102
RTVSPost2010PropOp35
 70
     1
102
RTVSPost2010Prop36
280
     0
102
RTVSPost2010PropOp36
 70
     1
102
RTVSPost2010Prop37
 90
       50
102
RTVSPost2010PropOp37
 70
     1
102
RTVSPost2010Prop38
140
0.0
102
RTVSPost2010PropOp38
 70
     1
102
RTVSPost2010Prop39
140
1.0
102
RTVSPost2010PropOp39
 70
     1
102
RTVSPost2010Prop40
 90
        0
102
RTVSPost2010PropOp40
 70
     1
102
RTVSPost2010Prop41ColorIndex
 90
       18
102
RTVSPost2010Prop41ColorRGB
 90
        0
102
RTVSPost2010PropOp41
 70
     1
102
RTVSPost2010Prop42
 90
       50
102
RTVSPost2010PropOp42
 70
     1
102
RTVSPost2010Prop43
 90
        3
102
RTVSPost2010PropOp43
 70
     1
102
RTVSPost2010Prop44ColorIndex
 90
        5
102
RTVSPost2010Prop44ColorRGB
 90
      255
102
RTVSPost2010PropOp44
 70
     1
102
RTVSPost2010Prop45
280
     0
102
RTVSPost2010PropOp45
 70
     1
102
RTVSPost2010Prop46
 90
       50
102
RTVSPost2010PropOp46
 70
     1
102
RTVSPost2010Prop47
 90
       50
102
RTVSPost2010PropOp47
 70
     1
102
RTVSPost2010Prop48
 90
       50
102
RTVSPost2010PropOp48
 70
     1
102
RTVSPost2010Prop49
280
     0
102
RTVSPost2010PropOp49
 70
     1
102
RTVSPost2010Prop50
 90
       50
102
RTVSPost2010PropOp50
 70
     1
102
RTVSPost2010Prop51ColorIndex
 90
      256
102
RTVSPost2010Prop51ColorRGB
 90
-16777216
102
RTVSPost2010PropOp51
 70
     0
102
RTVSPost2010Prop52
140
1.0
102
RTVSPost2010PropOp52
 70
     0
102
RTVSPost2010Prop53
 90
        2
102
RTVSPost2010PropOp53
 70
     1
102
RTVSPost2010Prop54
  1
strokes_ogs.tif
102
RTVSPost2010PropOp54
 70
     1
102
RTVSPost2010Prop55
280
     0
102
RTVSPost2010PropOp55
 70
     1
102
RTVSPost2010Prop56
140
1.0
102
RTVSPost2010PropOp56
 70
     1
102
RTVSPost2010Prop57
140
1.0
102
RTVSPost2010PropOp57
 70
     1
102
RTVSPropertyOp0
 70
     1
102
RTVSPropertyOp1
 70
     1
102
RTVSPropertyOp2
 70
     1
102
RTVSPropertyOp3
 70
     1
102
RTVSPropertyOp4
 70
     1
102
RTVSPropertyOp5
 70
     1
102
RTVSPropertyOp6
 70
     1
102
RTVSPropertyOp7
 70
     1
102
RTVSPropertyOp8
 70
     1
102
RTVSPropertyOp9
 70
     1
102
RTVSPropertyOp10
 70
     1
102
RTVSPropertyOp11
 70
     1
102
RTVSPropertyOp12
 70
     1
102
RTVSPropertyOp13
 70
     1
102
RTVSPropertyOp14
 70
     1
102
RTVSPropertyOp15
 70
     1
102
RTVSPropertyOp16
 70
     1
102
RTVSPropertyOp17
 70
     1
102
RTVSPropertyOp18
 70
     1
102
RTVSPropertyOp19
 70
     1
102
RTVSPropertyOp20
 70
     1
102
RTVSPropertyOp21
 70
     1
102
RTVSPropertyOp22
 70
     1
102
RTVSPropertyOp23
 70
     1
102
RTVSPropertyOp24
 70
     1
102
RTVSPropertyOp25
 70
     1
102
RTVSPropertyOp26
 70
     1
102
RTVSPropertyOp27
 70
     1
102
RTVSPropertyOp28
 70
     1
102
RTVSPropertyOp29
 70
     1
102
RTVSPropertyOp30
 70
     1
102
RTVSPropertyOp31
 70
     1
102
RTVSPropertyOp32
 70
     1
102
RTVSPropertyOp33
 70
     1
102
RTVSPropertyOp34
 70
     1
102
RTVSPropertyOp35
 70
     1
102
RTVSPropertyOp36
 70
     1
102
RTVSPropertyOp37
 70
     1
102
RTVSPropertyOp38
 70
     1
102
RTVSPropertyOp39
 70
     1
102
RTVSPropertyOp40
 70
     1
102
RTVSPropertyOp41
 70
     1
102
RTVSPropertyOp42
 70
     1
102
RTVSPropertyOp43
 70
     1
102
RTVSPropertyOp44
 70
     1
102
RTVSPropertyOp45
 70
     1
102
RTVSPropertyOp46
 70
     1
102
RTVSPropertyOp47
 70
     1
102
RTVSPropertyOp48
 70
     1
102
RTVSPropertyOp49
 70
     1
102
RTVSPropertyOp50
 70
     1
102
RTVSPropertyOp51
 70
     0
102
RTVSPropertyOp52
 70
     0
102
RTVSPropertyOp53
 70
     1
102
RTVSPropertyOp54
 70
     1
102
RTVSPropertyOp55
 70
     1
102
RTVSPropertyOp56
 70
     1
102
RTVSPropertyOp57
 70
     1
102
RTVSPropertyOp58
 70
     1
102
RTVSPropertyOp59
 70
     1
102
RTVSPropertyOp60
 70
     1
102
RTVSPropertyOp61
 70
     1
102
RTVSPropertyOp62
 70
     1
  0
XRECORD
  5
7D3
102
{ACAD_REACTORS
330
7D2
102
}
330
7D2
100
AcDbXrecord
280
     1
102
RTVSPost2010Prop28
280
     0
102
RTVSPost2010PropOp28
 70
     1
102
RTVSPost2010Prop29
280
     1
102
RTVSPost2010PropOp29
 70
     1
102
RTVSPost2010Prop30
280
     1
102
RTVSPost2010PropOp30
 70
     1
102
RTVSPost2010Prop31
280
     0
102
RTVSPost2010PropOp31
 70
     1
102
RTVSPost2010Prop32
280
     0
102
RTVSPost2010PropOp32
 70
     1
102
RTVSPost2010Prop33
280
     0
102
RTVSPost2010PropOp33
 70
     1
102
RTVSPost2010Prop34
280
     0
102
RTVSPost2010PropOp34
 70
     1
102
RTVSPost2010Prop35
280
     0
102
RTVSPost2010PropOp35
 70
     1
102
RTVSPost2010Prop36
280
     0
102
RTVSPost2010PropOp36
 70
     1
102
RTVSPost2010Prop37
 90
       50
102
RTVSPost2010PropOp37
 70
     1
102
RTVSPost2010Prop38
140
0.0
102
RTVSPost2010PropOp38
 70
     1
102
RTVSPost2010Prop39
140
1.0
102
RTVSPost2010PropOp39
 70
     1
102
RTVSPost2010Prop40
 90
        0
102
RTVSPost2010PropOp40
 70
     1
102
RTVSPost2010Prop41ColorIndex
 90
       18
102
RTVSPost2010Prop41ColorRGB
 90
        0
102
RTVSPost2010PropOp41
 70
     1
102
RTVSPost2010Prop42
 90
       50
102
RTVSPost2010PropOp42
 70
     1
102
RTVSPost2010Prop43
 90
        3
102
RTVSPost2010PropOp43
 70
     1
102
RTVSPost2010Prop44ColorIndex
 90
        5
102
RTVSPost2010Prop44ColorRGB
 90
      255
102
RTVSPost2010PropOp44
 70
     1
102
RTVSPost2010Prop45
280
     0
102
RTVSPost2010PropOp45
 70
     1
102
RTVSPost2010Prop46
 90
       50
102
RTVSPost2010PropOp46
 70
     1
102
RTVSPost2010Prop47
 90
       50
102
RTVSPost2010PropOp47
 70
     1
102
RTVSPost2010Prop48
 90
       50
102
RTVSPost2010PropOp48
 70
     1
102
RTVSPost2010Prop49
280
     0
102
RTVSPost2010PropOp49
 70
     1
102
RTVSPost2010Prop50
 90
       50
102
RTVSPost2010PropOp50
 70
     1
102
RTVSPost2010Prop51ColorIndex
 90
      256
102
RTVSPost2010Prop51ColorRGB
 90
-16777216
102
RTVSPost2010PropOp51
 70
     0
102
RTVSPost2010Prop52
140
1.0
102
RTVSPost2010PropOp52
 70
     0
102
RTVSPost2010Prop53
 90
        2
102
RTVSPost2010PropOp53
 70
     1
102
RTVSPost2010Prop54
  1
strokes_ogs.tif
102
RTVSPost2010PropOp54
 70
     1
102
RTVSPost2010Prop55
280
     0
102
RTVSPost2010PropOp55
 70
     1
102
RTVSPost2010Prop56
140
1.0
102
RTVSPost2010PropOp56
 70
     1
102
RTVSPost2010Prop57
140
1.0
102
RTVSPost2010PropOp57
 70
     1
102
RTVSPropertyOp0
 70
     1
102
RTVSPropertyOp1
 70
     1
102
RTVSPropertyOp2
 70
     1
102
RTVSPropertyOp3
 70
     1
102
RTVSPropertyOp4
 70
     1
102
RTVSPropertyOp5
 70
     1
102
RTVSPropertyOp6
 70
     1
102
RTVSPropertyOp7
 70
     1
102
RTVSPropertyOp8
 70
     1
102
RTVSPropertyOp9
 70
     1
102
RTVSPropertyOp10
 70
     1
102
RTVSPropertyOp11
 70
     1
102
RTVSPropertyOp12
 70
     1
102
RTVSPropertyOp13
 70
     1
102
RTVSPropertyOp14
 70
     1
102
RTVSPropertyOp15
 70
     1
102
RTVSPropertyOp16
 70
     1
102
RTVSPropertyOp17
 70
     1
102
RTVSPropertyOp18
 70
     1
102
RTVSPropertyOp19
 70
     1
102
RTVSPropertyOp20
 70
     1
102
RTVSPropertyOp21
 70
     1
102
RTVSPropertyOp22
 70
     1
102
RTVSPropertyOp23
 70
     1
102
RTVSPropertyOp24
 70
     1
102
RTVSPropertyOp25
 70
     1
102
RTVSPropertyOp26
 70
     1
102
RTVSPropertyOp27
 70
     1
102
RTVSPropertyOp28
 70
     1
102
RTVSPropertyOp29
 70
     1
102
RTVSPropertyOp30
 70
     1
102
RTVSPropertyOp31
 70
     1
102
RTVSPropertyOp32
 70
     1
102
RTVSPropertyOp33
 70
     1
102
RTVSPropertyOp34
 70
     1
102
RTVSPropertyOp35
 70
     1
102
RTVSPropertyOp36
 70
     1
102
RTVSPropertyOp37
 70
     1
102
RTVSPropertyOp38
 70
     1
102
RTVSPropertyOp39
 70
     1
102
RTVSPropertyOp40
 70
     1
102
RTVSPropertyOp41
 70
     1
102
RTVSPropertyOp42
 70
     1
102
RTVSPropertyOp43
 70
     1
102
RTVSPropertyOp44
 70
     1
102
RTVSPropertyOp45
 70
     1
102
RTVSPropertyOp46
 70
     1
102
RTVSPropertyOp47
 70
     1
102
RTVSPropertyOp48
 70
     1
102
RTVSPropertyOp49
 70
     1
102
RTVSPropertyOp50
 70
     1
102
RTVSPropertyOp51
 70
     0
102
RTVSPropertyOp52
 70
     0
102
RTVSPropertyOp53
 70
     1
102
RTVSPropertyOp54
 70
     1
102
RTVSPropertyOp55
 70
     1
102
RTVSPropertyOp56
 70
     1
102
RTVSPropertyOp57
 70
     1
102
RTVSPropertyOp58
 70
     1
102
RTVSPropertyOp59
 70
     1
102
RTVSPropertyOp60
 70
     1
102
RTVSPropertyOp61
 70
     1
102
RTVSPropertyOp62
 70
     1
  0
XRECORD
  5
7C5
102
{ACAD_REACTORS
330
7C4
102
}
330
7C4
100
AcDbXrecord
280
     1
102
RTVSPost2010Prop28
280
     0
102
RTVSPost2010PropOp28
 70
     1
102
RTVSPost2010Prop29
280
     1
102
RTVSPost2010PropOp29
 70
     1
102
RTVSPost2010Prop30
280
     1
102
RTVSPost2010PropOp30
 70
     1
102
RTVSPost2010Prop31
280
     0
102
RTVSPost2010PropOp31
 70
     1
102
RTVSPost2010Prop32
280
     0
102
RTVSPost2010PropOp32
 70
     1
102
RTVSPost2010Prop33
280
     0
102
RTVSPost2010PropOp33
 70
     1
102
RTVSPost2010Prop34
280
     0
102
RTVSPost2010PropOp34
 70
     1
102
RTVSPost2010Prop35
280
     0
102
RTVSPost2010PropOp35
 70
     1
102
RTVSPost2010Prop36
280
     0
102
RTVSPost2010PropOp36
 70
     1
102
RTVSPost2010Prop37
 90
       50
102
RTVSPost2010PropOp37
 70
     1
102
RTVSPost2010Prop38
140
0.0
102
RTVSPost2010PropOp38
 70
     1
102
RTVSPost2010Prop39
140
1.0
102
RTVSPost2010PropOp39
 70
     1
102
RTVSPost2010Prop40
 90
        0
102
RTVSPost2010PropOp40
 70
     1
102
RTVSPost2010Prop41ColorIndex
 90
       18
102
RTVSPost2010Prop41ColorRGB
 90
        0
102
RTVSPost2010PropOp41
 70
     1
102
RTVSPost2010Prop42
 90
       50
102
RTVSPost2010PropOp42
 70
     1
102
RTVSPost2010Prop43
 90
        3
102
RTVSPost2010PropOp43
 70
     1
102
RTVSPost2010Prop44ColorIndex
 90
        5
102
RTVSPost2010Prop44ColorRGB
 90
      255
102
RTVSPost2010PropOp44
 70
     1
102
RTVSPost2010Prop45
280
     0
102
RTVSPost2010PropOp45
 70
     1
102
RTVSPost2010Prop46
 90
       50
102
RTVSPost2010PropOp46
 70
     1
102
RTVSPost2010Prop47
 90
       50
102
RTVSPost2010PropOp47
 70
     1
102
RTVSPost2010Prop48
 90
       50
102
RTVSPost2010PropOp48
 70
     1
102
RTVSPost2010Prop49
280
     0
102
RTVSPost2010PropOp49
 70
     1
102
RTVSPost2010Prop50
 90
       50
102
RTVSPost2010PropOp50
 70
     1
102
RTVSPost2010Prop51ColorIndex
 90
      256
102
RTVSPost2010Prop51ColorRGB
 90
-16777216
102
RTVSPost2010PropOp51
 70
     0
102
RTVSPost2010Prop52
140
1.0
102
RTVSPost2010PropOp52
 70
     0
102
RTVSPost2010Prop53
 90
        2
102
RTVSPost2010PropOp53
 70
     1
102
RTVSPost2010Prop54
  1
strokes_ogs.tif
102
RTVSPost2010PropOp54
 70
     1
102
RTVSPost2010Prop55
280
     0
102
RTVSPost2010PropOp55
 70
     1
102
RTVSPost2010Prop56
140
1.0
102
RTVSPost2010PropOp56
 70
     1
102
RTVSPost2010Prop57
140
1.0
102
RTVSPost2010PropOp57
 70
     1
102
RTVSPropertyOp0
 70
     1
102
RTVSPropertyOp1
 70
     1
102
RTVSPropertyOp2
 70
     1
102
RTVSPropertyOp3
 70
     1
102
RTVSPropertyOp4
 70
     1
102
RTVSPropertyOp5
 70
     1
102
RTVSPropertyOp6
 70
     1
102
RTVSPropertyOp7
 70
     1
102
RTVSPropertyOp8
 70
     1
102
RTVSPropertyOp9
 70
     1
102
RTVSPropertyOp10
 70
     1
102
RTVSPropertyOp11
 70
     1
102
RTVSPropertyOp12
 70
     1
102
RTVSPropertyOp13
 70
     1
102
RTVSPropertyOp14
 70
     1
102
RTVSPropertyOp15
 70
     1
102
RTVSPropertyOp16
 70
     1
102
RTVSPropertyOp17
 70
     1
102
RTVSPropertyOp18
 70
     1
102
RTVSPropertyOp19
 70
     1
102
RTVSPropertyOp20
 70
     1
102
RTVSPropertyOp21
 70
     1
102
RTVSPropertyOp22
 70
     1
102
RTVSPropertyOp23
 70
     1
102
RTVSPropertyOp24
 70
     1
102
RTVSPropertyOp25
 70
     1
102
RTVSPropertyOp26
 70
     1
102
RTVSPropertyOp27
 70
     1
102
RTVSPropertyOp28
 70
     1
102
RTVSPropertyOp29
 70
     1
102
RTVSPropertyOp30
 70
     1
102
RTVSPropertyOp31
 70
     1
102
RTVSPropertyOp32
 70
     1
102
RTVSPropertyOp33
 70
     1
102
RTVSPropertyOp34
 70
     1
102
RTVSPropertyOp35
 70
     1
102
RTVSPropertyOp36
 70
     1
102
RTVSPropertyOp37
 70
     1
102
RTVSPropertyOp38
 70
     1
102
RTVSPropertyOp39
 70
     1
102
RTVSPropertyOp40
 70
     1
102
RTVSPropertyOp41
 70
     1
102
RTVSPropertyOp42
 70
     1
102
RTVSPropertyOp43
 70
     1
102
RTVSPropertyOp44
 70
     1
102
RTVSPropertyOp45
 70
     1
102
RTVSPropertyOp46
 70
     1
102
RTVSPropertyOp47
 70
     1
102
RTVSPropertyOp48
 70
     1
102
RTVSPropertyOp49
 70
     1
102
RTVSPropertyOp50
 70
     1
102
RTVSPropertyOp51
 70
     0
102
RTVSPropertyOp52
 70
     0
102
RTVSPropertyOp53
 70
     1
102
RTVSPropertyOp54
 70
     1
102
RTVSPropertyOp55
 70
     1
102
RTVSPropertyOp56
 70
     1
102
RTVSPropertyOp57
 70
     1
102
RTVSPropertyOp58
 70
     1
102
RTVSPropertyOp59
 70
     1
102
RTVSPropertyOp60
 70
     1
102
RTVSPropertyOp61
 70
     1
102
RTVSPropertyOp62
 70
     1
  0
XRECORD
  5
7C9
102
{ACAD_REACTORS
330
7C8
102
}
330
7C8
100
AcDbXrecord
280
     1
102
RTVSPost2010Prop28
280
     0
102
RTVSPost2010PropOp28
 70
     1
102
RTVSPost2010Prop29
280
     1
102
RTVSPost2010PropOp29
 70
     1
102
RTVSPost2010Prop30
280
     1
102
RTVSPost2010PropOp30
 70
     1
102
RTVSPost2010Prop31
280
     0
102
RTVSPost2010PropOp31
 70
     1
102
RTVSPost2010Prop32
280
     0
102
RTVSPost2010PropOp32
 70
     1
102
RTVSPost2010Prop33
280
     0
102
RTVSPost2010PropOp33
 70
     1
102
RTVSPost2010Prop34
280
     0
102
RTVSPost2010PropOp34
 70
     1
102
RTVSPost2010Prop35
280
     0
102
RTVSPost2010PropOp35
 70
     1
102
RTVSPost2010Prop36
280
     0
102
RTVSPost2010PropOp36
 70
     1
102
RTVSPost2010Prop37
 90
       50
102
RTVSPost2010PropOp37
 70
     1
102
RTVSPost2010Prop38
140
0.0
102
RTVSPost2010PropOp38
 70
     1
102
RTVSPost2010Prop39
140
1.0
102
RTVSPost2010PropOp39
 70
     1
102
RTVSPost2010Prop40
 90
        0
102
RTVSPost2010PropOp40
 70
     1
102
RTVSPost2010Prop41ColorIndex
 90
       18
102
RTVSPost2010Prop41ColorRGB
 90
        0
102
RTVSPost2010PropOp41
 70
     1
102
RTVSPost2010Prop42
 90
       50
102
RTVSPost2010PropOp42
 70
     1
102
RTVSPost2010Prop43
 90
        3
102
RTVSPost2010PropOp43
 70
     1
102
RTVSPost2010Prop44ColorIndex
 90
        5
102
RTVSPost2010Prop44ColorRGB
 90
      255
102
RTVSPost2010PropOp44
 70
     1
102
RTVSPost2010Prop45
280
     0
102
RTVSPost2010PropOp45
 70
     1
102
RTVSPost2010Prop46
 90
       50
102
RTVSPost2010PropOp46
 70
     1
102
RTVSPost2010Prop47
 90
       50
102
RTVSPost2010PropOp47
 70
     1
102
RTVSPost2010Prop48
 90
       50
102
RTVSPost2010PropOp48
 70
     1
102
RTVSPost2010Prop49
280
     0
102
RTVSPost2010PropOp49
 70
     1
102
RTVSPost2010Prop50
 90
       50
102
RTVSPost2010PropOp50
 70
     1
102
RTVSPost2010Prop51ColorIndex
 90
      256
102
RTVSPost2010Prop51ColorRGB
 90
-16777216
102
RTVSPost2010PropOp51
 70
     0
102
RTVSPost2010Prop52
140
1.0
102
RTVSPost2010PropOp52
 70
     0
102
RTVSPost2010Prop53
 90
        2
102
RTVSPost2010PropOp53
 70
     1
102
RTVSPost2010Prop54
  1
strokes_ogs.tif
102
RTVSPost2010PropOp54
 70
     1
102
RTVSPost2010Prop55
280
     0
102
RTVSPost2010PropOp55
 70
     1
102
RTVSPost2010Prop56
140
1.0
102
RTVSPost2010PropOp56
 70
     1
102
RTVSPost2010Prop57
140
1.0
102
RTVSPost2010PropOp57
 70
     1
102
RTVSPropertyOp0
 70
     1
102
RTVSPropertyOp1
 70
     1
102
RTVSPropertyOp2
 70
     1
102
RTVSPropertyOp3
 70
     1
102
RTVSPropertyOp4
 70
     1
102
RTVSPropertyOp5
 70
     1
102
RTVSPropertyOp6
 70
     1
102
RTVSPropertyOp7
 70
     1
102
RTVSPropertyOp8
 70
     1
102
RTVSPropertyOp9
 70
     1
102
RTVSPropertyOp10
 70
     1
102
RTVSPropertyOp11
 70
     1
102
RTVSPropertyOp12
 70
     1
102
RTVSPropertyOp13
 70
     1
102
RTVSPropertyOp14
 70
     1
102
RTVSPropertyOp15
 70
     1
102
RTVSPropertyOp16
 70
     1
102
RTVSPropertyOp17
 70
     1
102
RTVSPropertyOp18
 70
     1
102
RTVSPropertyOp19
 70
     1
102
RTVSPropertyOp20
 70
     1
102
RTVSPropertyOp21
 70
     1
102
RTVSPropertyOp22
 70
     1
102
RTVSPropertyOp23
 70
     1
102
RTVSPropertyOp24
 70
     1
102
RTVSPropertyOp25
 70
     1
102
RTVSPropertyOp26
 70
     1
102
RTVSPropertyOp27
 70
     1
102
RTVSPropertyOp28
 70
     1
102
RTVSPropertyOp29
 70
     1
102
RTVSPropertyOp30
 70
     1
102
RTVSPropertyOp31
 70
     1
102
RTVSPropertyOp32
 70
     1
102
RTVSPropertyOp33
 70
     1
102
RTVSPropertyOp34
 70
     1
102
RTVSPropertyOp35
 70
     1
102
RTVSPropertyOp36
 70
     1
102
RTVSPropertyOp37
 70
     1
102
RTVSPropertyOp38
 70
     1
102
RTVSPropertyOp39
 70
     1
102
RTVSPropertyOp40
 70
     1
102
RTVSPropertyOp41
 70
     1
102
RTVSPropertyOp42
 70
     1
102
RTVSPropertyOp43
 70
     1
102
RTVSPropertyOp44
 70
     1
102
RTVSPropertyOp45
 70
     1
102
RTVSPropertyOp46
 70
     1
102
RTVSPropertyOp47
 70
     1
102
RTVSPropertyOp48
 70
     1
102
RTVSPropertyOp49
 70
     1
102
RTVSPropertyOp50
 70
     1
102
RTVSPropertyOp51
 70
     0
102
RTVSPropertyOp52
 70
     0
102
RTVSPropertyOp53
 70
     1
102
RTVSPropertyOp54
 70
     1
102
RTVSPropertyOp55
 70
     1
102
RTVSPropertyOp56
 70
     1
102
RTVSPropertyOp57
 70
     1
102
RTVSPropertyOp58
 70
     1
102
RTVSPropertyOp59
 70
     1
102
RTVSPropertyOp60
 70
     1
102
RTVSPropertyOp61
 70
     1
102
RTVSPropertyOp62
 70
     1
  0
XRECORD
  5
7E3
102
{ACAD_REACTORS
330
7E2
102
}
330
7E2
100
AcDbXrecord
280
     1
102
RTVSPost2010Prop28
280
     0
102
RTVSPost2010PropOp28
 70
     0
102
RTVSPost2010Prop29
280
     1
102
RTVSPost2010PropOp29
 70
     0
102
RTVSPost2010Prop30
280
     1
102
RTVSPost2010PropOp30
 70
     0
102
RTVSPost2010Prop31
280
     0
102
RTVSPost2010PropOp31
 70
     0
102
RTVSPost2010Prop32
280
     0
102
RTVSPost2010PropOp32
 70
     0
102
RTVSPost2010Prop33
280
     0
102
RTVSPost2010PropOp33
 70
     0
102
RTVSPost2010Prop34
280
     0
102
RTVSPost2010PropOp34
 70
     0
102
RTVSPost2010Prop35
280
     0
102
RTVSPost2010PropOp35
 70
     0
102
RTVSPost2010Prop36
280
     0
102
RTVSPost2010PropOp36
 70
     0
102
RTVSPost2010Prop37
 90
       50
102
RTVSPost2010PropOp37
 70
     0
102
RTVSPost2010Prop38
140
0.0
102
RTVSPost2010PropOp38
 70
     0
102
RTVSPost2010Prop39
140
1.0
102
RTVSPost2010PropOp39
 70
     0
102
RTVSPost2010Prop40
 90
        0
102
RTVSPost2010PropOp40
 70
     0
102
RTVSPost2010Prop41ColorIndex
 90
       18
102
RTVSPost2010Prop41ColorRGB
 90
        0
102
RTVSPost2010PropOp41
 70
     0
102
RTVSPost2010Prop42
 90
       50
102
RTVSPost2010PropOp42
 70
     0
102
RTVSPost2010Prop43
 90
        3
102
RTVSPost2010PropOp43
 70
     0
102
RTVSPost2010Prop44ColorIndex
 90
        5
102
RTVSPost2010Prop44ColorRGB
 90
      255
102
RTVSPost2010PropOp44
 70
     0
102
RTVSPost2010Prop45
280
     0
102
RTVSPost2010PropOp45
 70
     0
102
RTVSPost2010Prop46
 90
       50
102
RTVSPost2010PropOp46
 70
     0
102
RTVSPost2010Prop47
 90
       50
102
RTVSPost2010PropOp47
 70
     0
102
RTVSPost2010Prop48
 90
       50
102
RTVSPost2010PropOp48
 70
     0
102
RTVSPost2010Prop49
280
     0
102
RTVSPost2010PropOp49
 70
     0
102
RTVSPost2010Prop50
 90
       50
102
RTVSPost2010PropOp50
 70
     0
102
RTVSPost2010Prop51ColorIndex
 90
      256
102
RTVSPost2010Prop51ColorRGB
 90
-16777216
102
RTVSPost2010PropOp51
 70
     0
102
RTVSPost2010Prop52
140
1.0
102
RTVSPost2010PropOp52
 70
     0
102
RTVSPost2010Prop53
 90
        2
102
RTVSPost2010PropOp53
 70
     0
102
RTVSPost2010Prop54
  1
strokes_ogs.tif
102
RTVSPost2010PropOp54
 70
     0
102
RTVSPost2010Prop55
280
     0
102
RTVSPost2010PropOp55
 70
     0
102
RTVSPost2010Prop56
140
1.0
102
RTVSPost2010PropOp56
 70
     0
102
RTVSPost2010Prop57
140
1.0
102
RTVSPost2010PropOp57
 70
     0
102
RTVSPropertyOp0
 70
     0
102
RTVSPropertyOp1
 70
     0
102
RTVSPropertyOp2
 70
     0
102
RTVSPropertyOp3
 70
     0
102
RTVSPropertyOp4
 70
     0
102
RTVSPropertyOp5
 70
     0
102
RTVSPropertyOp6
 70
     0
102
RTVSPropertyOp7
 70
     0
102
RTVSPropertyOp8
 70
     0
102
RTVSPropertyOp9
 70
     0
102
RTVSPropertyOp10
 70
     0
102
RTVSPropertyOp11
 70
     0
102
RTVSPropertyOp12
 70
     0
102
RTVSPropertyOp13
 70
     0
102
RTVSPropertyOp14
 70
     2
102
RTVSPropertyOp15
 70
     0
102
RTVSPropertyOp16
 70
     0
102
RTVSPropertyOp17
 70
     0
102
RTVSPropertyOp18
 70
     0
102
RTVSPropertyOp19
 70
     0
102
RTVSPropertyOp20
 70
     0
102
RTVSPropertyOp21
 70
     0
102
RTVSPropertyOp22
 70
     0
102
RTVSPropertyOp23
 70
     0
102
RTVSPropertyOp24
 70
     0
102
RTVSPropertyOp25
 70
     0
102
RTVSPropertyOp26
 70
     0
102
RTVSPropertyOp27
 70
     0
102
RTVSPropertyOp28
 70
     0
102
RTVSPropertyOp29
 70
     0
102
RTVSPropertyOp30
 70
     0
102
RTVSPropertyOp31
 70
     0
102
RTVSPropertyOp32
 70
     0
102
RTVSPropertyOp33
 70
     0
102
RTVSPropertyOp34
 70
     0
102
RTVSPropertyOp35
 70
     0
102
RTVSPropertyOp36
 70
     0
102
RTVSPropertyOp37
 70
     0
102
RTVSPropertyOp38
 70
     0
102
RTVSPropertyOp39
 70
     0
102
RTVSPropertyOp40
 70
     0
102
RTVSPropertyOp41
 70
     0
102
RTVSPropertyOp42
 70
     0
102
RTVSPropertyOp43
 70
     0
102
RTVSPropertyOp44
 70
     0
102
RTVSPropertyOp45
 70
     0
102
RTVSPropertyOp46
 70
     0
102
RTVSPropertyOp47
 70
     0
102
RTVSPropertyOp48
 70
     0
102
RTVSPropertyOp49
 70
     0
102
RTVSPropertyOp50
 70
     0
102
RTVSPropertyOp51
 70
     0
102
RTVSPropertyOp52
 70
     0
102
RTVSPropertyOp53
 70
     0
102
RTVSPropertyOp54
 70
     0
102
RTVSPropertyOp55
 70
     0
102
RTVSPropertyOp56
 70
     0
102
RTVSPropertyOp57
 70
     0
102
RTVSPropertyOp58
 70
     0
102
RTVSPropertyOp59
 70
     0
102
RTVSPropertyOp60
 70
     0
102
RTVSPropertyOp61
 70
     0
102
RTVSPropertyOp62
 70
     0
  0
XRECORD
  5
7D1
102
{ACAD_REACTORS
330
7D0
102
}
330
7D0
100
AcDbXrecord
280
     1
102
RTVSPost2010Prop28
280
     0
102
RTVSPost2010PropOp28
 70
     1
102
RTVSPost2010Prop29
280
     1
102
RTVSPost2010PropOp29
 70
     1
102
RTVSPost2010Prop30
280
     1
102
RTVSPost2010PropOp30
 70
     1
102
RTVSPost2010Prop31
280
     0
102
RTVSPost2010PropOp31
 70
     1
102
RTVSPost2010Prop32
280
     0
102
RTVSPost2010PropOp32
 70
     1
102
RTVSPost2010Prop33
280
     0
102
RTVSPost2010PropOp33
 70
     1
102
RTVSPost2010Prop34
280
     0
102
RTVSPost2010PropOp34
 70
     1
102
RTVSPost2010Prop35
280
     0
102
RTVSPost2010PropOp35
 70
     1
102
RTVSPost2010Prop36
280
     0
102
RTVSPost2010PropOp36
 70
     1
102
RTVSPost2010Prop37
 90
       50
102
RTVSPost2010PropOp37
 70
     1
102
RTVSPost2010Prop38
140
0.0
102
RTVSPost2010PropOp38
 70
     1
102
RTVSPost2010Prop39
140
1.0
102
RTVSPost2010PropOp39
 70
     1
102
RTVSPost2010Prop40
 90
        0
102
RTVSPost2010PropOp40
 70
     1
102
RTVSPost2010Prop41ColorIndex
 90
       18
102
RTVSPost2010Prop41ColorRGB
 90
        0
102
RTVSPost2010PropOp41
 70
     1
102
RTVSPost2010Prop42
 90
       50
102
RTVSPost2010PropOp42
 70
     1
102
RTVSPost2010Prop43
 90
        3
102
RTVSPost2010PropOp43
 70
     1
102
RTVSPost2010Prop44ColorIndex
 90
        5
102
RTVSPost2010Prop44ColorRGB
 90
      255
102
RTVSPost2010PropOp44
 70
     1
102
RTVSPost2010Prop45
280
     0
102
RTVSPost2010PropOp45
 70
     1
102
RTVSPost2010Prop46
 90
       50
102
RTVSPost2010PropOp46
 70
     1
102
RTVSPost2010Prop47
 90
       50
102
RTVSPost2010PropOp47
 70
     1
102
RTVSPost2010Prop48
 90
       50
102
RTVSPost2010PropOp48
 70
     1
102
RTVSPost2010Prop49
280
     0
102
RTVSPost2010PropOp49
 70
     1
102
RTVSPost2010Prop50
 90
       50
102
RTVSPost2010PropOp50
 70
     1
102
RTVSPost2010Prop51ColorIndex
 90
      256
102
RTVSPost2010Prop51ColorRGB
 90
-16777216
102
RTVSPost2010PropOp51
 70
     0
102
RTVSPost2010Prop52
140
1.0
102
RTVSPost2010PropOp52
 70
     0
102
RTVSPost2010Prop53
 90
        2
102
RTVSPost2010PropOp53
 70
     1
102
RTVSPost2010Prop54
  1
strokes_ogs.tif
102
RTVSPost2010PropOp54
 70
     1
102
RTVSPost2010Prop55
280
     0
102
RTVSPost2010PropOp55
 70
     1
102
RTVSPost2010Prop56
140
1.0
102
RTVSPost2010PropOp56
 70
     1
102
RTVSPost2010Prop57
140
1.0
102
RTVSPost2010PropOp57
 70
     1
102
RTVSPropertyOp0
 70
     1
102
RTVSPropertyOp1
 70
     1
102
RTVSPropertyOp2
 70
     1
102
RTVSPropertyOp3
 70
     1
102
RTVSPropertyOp4
 70
     1
102
RTVSPropertyOp5
 70
     1
102
RTVSPropertyOp6
 70
     1
102
RTVSPropertyOp7
 70
     1
102
RTVSPropertyOp8
 70
     1
102
RTVSPropertyOp9
 70
     1
102
RTVSPropertyOp10
 70
     1
102
RTVSPropertyOp11
 70
     1
102
RTVSPropertyOp12
 70
     1
102
RTVSPropertyOp13
 70
     1
102
RTVSPropertyOp14
 70
     1
102
RTVSPropertyOp15
 70
     1
102
RTVSPropertyOp16
 70
     1
102
RTVSPropertyOp17
 70
     1
102
RTVSPropertyOp18
 70
     1
102
RTVSPropertyOp19
 70
     1
102
RTVSPropertyOp20
 70
     1
102
RTVSPropertyOp21
 70
     1
102
RTVSPropertyOp22
 70
     1
102
RTVSPropertyOp23
 70
     1
102
RTVSPropertyOp24
 70
     1
102
RTVSPropertyOp25
 70
     1
102
RTVSPropertyOp26
 70
     1
102
RTVSPropertyOp27
 70
     1
102
RTVSPropertyOp28
 70
     1
102
RTVSPropertyOp29
 70
     1
102
RTVSPropertyOp30
 70
     1
102
RTVSPropertyOp31
 70
     1
102
RTVSPropertyOp32
 70
     1
102
RTVSPropertyOp33
 70
     1
102
RTVSPropertyOp34
 70
     1
102
RTVSPropertyOp35
 70
     1
102
RTVSPropertyOp36
 70
     1
102
RTVSPropertyOp37
 70
     1
102
RTVSPropertyOp38
 70
     1
102
RTVSPropertyOp39
 70
     1
102
RTVSPropertyOp40
 70
     1
102
RTVSPropertyOp41
 70
     1
102
RTVSPropertyOp42
 70
     1
102
RTVSPropertyOp43
 70
     1
102
RTVSPropertyOp44
 70
     1
102
RTVSPropertyOp45
 70
     1
102
RTVSPropertyOp46
 70
     1
102
RTVSPropertyOp47
 70
     1
102
RTVSPropertyOp48
 70
     1
102
RTVSPropertyOp49
 70
     1
102
RTVSPropertyOp50
 70
     1
102
RTVSPropertyOp51
 70
     0
102
RTVSPropertyOp52
 70
     0
102
RTVSPropertyOp53
 70
     1
102
RTVSPropertyOp54
 70
     1
102
RTVSPropertyOp55
 70
     1
102
RTVSPropertyOp56
 70
     1
102
RTVSPropertyOp57
 70
     1
102
RTVSPropertyOp58
 70
     1
102
RTVSPropertyOp59
 70
     1
102
RTVSPropertyOp60
 70
     1
102
RTVSPropertyOp61
 70
     1
102
RTVSPropertyOp62
 70
     1
  0
XRECORD
  5
7B5
102
{ACAD_REACTORS
330
7B4
102
}
330
7B4
100
AcDbXrecord
280
     1
102
RTVSPost2010Prop28
280
     0
102
RTVSPost2010PropOp28
 70
     1
102
RTVSPost2010Prop29
280
     1
102
RTVSPost2010PropOp29
 70
     1
102
RTVSPost2010Prop30
280
     1
102
RTVSPost2010PropOp30
 70
     1
102
RTVSPost2010Prop31
280
     0
102
RTVSPost2010PropOp31
 70
     1
102
RTVSPost2010Prop32
280
     0
102
RTVSPost2010PropOp32
 70
     1
102
RTVSPost2010Prop33
280
     0
102
RTVSPost2010PropOp33
 70
     1
102
RTVSPost2010Prop34
280
     0
102
RTVSPost2010PropOp34
 70
     1
102
RTVSPost2010Prop35
280
     0
102
RTVSPost2010PropOp35
 70
     1
102
RTVSPost2010Prop36
280
     0
102
RTVSPost2010PropOp36
 70
     1
102
RTVSPost2010Prop37
 90
       50
102
RTVSPost2010PropOp37
 70
     1
102
RTVSPost2010Prop38
140
0.0
102
RTVSPost2010PropOp38
 70
     1
102
RTVSPost2010Prop39
140
1.0
102
RTVSPost2010PropOp39
 70
     1
102
RTVSPost2010Prop40
 90
        0
102
RTVSPost2010PropOp40
 70
     1
102
RTVSPost2010Prop41ColorIndex
 90
       18
102
RTVSPost2010Prop41ColorRGB
 90
        0
102
RTVSPost2010PropOp41
 70
     1
102
RTVSPost2010Prop42
 90
       50
102
RTVSPost2010PropOp42
 70
     1
102
RTVSPost2010Prop43
 90
        3
102
RTVSPost2010PropOp43
 70
     1
102
RTVSPost2010Prop44ColorIndex
 90
        5
102
RTVSPost2010Prop44ColorRGB
 90
      255
102
RTVSPost2010PropOp44
 70
     1
102
RTVSPost2010Prop45
280
     0
102
RTVSPost2010PropOp45
 70
     1
102
RTVSPost2010Prop46
 90
       50
102
RTVSPost2010PropOp46
 70
     1
102
RTVSPost2010Prop47
 90
       50
102
RTVSPost2010PropOp47
 70
     1
102
RTVSPost2010Prop48
 90
       50
102
RTVSPost2010PropOp48
 70
     1
102
RTVSPost2010Prop49
280
     0
102
RTVSPost2010PropOp49
 70
     1
102
RTVSPost2010Prop50
 90
       50
102
RTVSPost2010PropOp50
 70
     1
102
RTVSPost2010Prop51ColorIndex
 90
      256
102
RTVSPost2010Prop51ColorRGB
 90
-16777216
102
RTVSPost2010PropOp51
 70
     0
102
RTVSPost2010Prop52
140
1.0
102
RTVSPost2010PropOp52
 70
     0
102
RTVSPost2010Prop53
 90
        2
102
RTVSPost2010PropOp53
 70
     1
102
RTVSPost2010Prop54
  1
strokes_ogs.tif
102
RTVSPost2010PropOp54
 70
     1
102
RTVSPost2010Prop55
280
     0
102
RTVSPost2010PropOp55
 70
     1
102
RTVSPost2010Prop56
140
1.0
102
RTVSPost2010PropOp56
 70
     1
102
RTVSPost2010Prop57
140
1.0
102
RTVSPost2010PropOp57
 70
     1
102
RTVSPropertyOp0
 70
     1
102
RTVSPropertyOp1
 70
     1
102
RTVSPropertyOp2
 70
     1
102
RTVSPropertyOp3
 70
     1
102
RTVSPropertyOp4
 70
     1
102
RTVSPropertyOp5
 70
     1
102
RTVSPropertyOp6
 70
     1
102
RTVSPropertyOp7
 70
     1
102
RTVSPropertyOp8
 70
     1
102
RTVSPropertyOp9
 70
     1
102
RTVSPropertyOp10
 70
     1
102
RTVSPropertyOp11
 70
     1
102
RTVSPropertyOp12
 70
     1
102
RTVSPropertyOp13
 70
     1
102
RTVSPropertyOp14
 70
     1
102
RTVSPropertyOp15
 70
     1
102
RTVSPropertyOp16
 70
     1
102
RTVSPropertyOp17
 70
     1
102
RTVSPropertyOp18
 70
     1
102
RTVSPropertyOp19
 70
     1
102
RTVSPropertyOp20
 70
     1
102
RTVSPropertyOp21
 70
     1
102
RTVSPropertyOp22
 70
     1
102
RTVSPropertyOp23
 70
     1
102
RTVSPropertyOp24
 70
     1
102
RTVSPropertyOp25
 70
     1
102
RTVSPropertyOp26
 70
     1
102
RTVSPropertyOp27
 70
     1
102
RTVSPropertyOp28
 70
     1
102
RTVSPropertyOp29
 70
     1
102
RTVSPropertyOp30
 70
     1
102
RTVSPropertyOp31
 70
     1
102
RTVSPropertyOp32
 70
     1
102
RTVSPropertyOp33
 70
     1
102
RTVSPropertyOp34
 70
     1
102
RTVSPropertyOp35
 70
     1
102
RTVSPropertyOp36
 70
     1
102
RTVSPropertyOp37
 70
     1
102
RTVSPropertyOp38
 70
     1
102
RTVSPropertyOp39
 70
     1
102
RTVSPropertyOp40
 70
     1
102
RTVSPropertyOp41
 70
     1
102
RTVSPropertyOp42
 70
     1
102
RTVSPropertyOp43
 70
     1
102
RTVSPropertyOp44
 70
     1
102
RTVSPropertyOp45
 70
     1
102
RTVSPropertyOp46
 70
     1
102
RTVSPropertyOp47
 70
     1
102
RTVSPropertyOp48
 70
     1
102
RTVSPropertyOp49
 70
     1
102
RTVSPropertyOp50
 70
     1
102
RTVSPropertyOp51
 70
     0
102
RTVSPropertyOp52
 70
     0
102
RTVSPropertyOp53
 70
     1
102
RTVSPropertyOp54
 70
     1
102
RTVSPropertyOp55
 70
     1
102
RTVSPropertyOp56
 70
     1
102
RTVSPropertyOp57
 70
     1
102
RTVSPropertyOp58
 70
     1
102
RTVSPropertyOp59
 70
     1
102
RTVSPropertyOp60
 70
     1
102
RTVSPropertyOp61
 70
     1
102
RTVSPropertyOp62
 70
     1
  0
XRECORD
  5
7B7
102
{ACAD_REACTORS
330
7B6
102
}
330
7B6
100
AcDbXrecord
280
     1
102
RTVSPost2010Prop28
280
     0
102
RTVSPost2010PropOp28
 70
     1
102
RTVSPost2010Prop29
280
     1
102
RTVSPost2010PropOp29
 70
     1
102
RTVSPost2010Prop30
280
     1
102
RTVSPost2010PropOp30
 70
     1
102
RTVSPost2010Prop31
280
     0
102
RTVSPost2010PropOp31
 70
     1
102
RTVSPost2010Prop32
280
     0
102
RTVSPost2010PropOp32
 70
     1
102
RTVSPost2010Prop33
280
     0
102
RTVSPost2010PropOp33
 70
     1
102
RTVSPost2010Prop34
280
     0
102
RTVSPost2010PropOp34
 70
     1
102
RTVSPost2010Prop35
280
     0
102
RTVSPost2010PropOp35
 70
     1
102
RTVSPost2010Prop36
280
     0
102
RTVSPost2010PropOp36
 70
     1
102
RTVSPost2010Prop37
 90
       50
102
RTVSPost2010PropOp37
 70
     1
102
RTVSPost2010Prop38
140
0.0
102
RTVSPost2010PropOp38
 70
     1
102
RTVSPost2010Prop39
140
1.0
102
RTVSPost2010PropOp39
 70
     1
102
RTVSPost2010Prop40
 90
        0
102
RTVSPost2010PropOp40
 70
     1
102
RTVSPost2010Prop41ColorIndex
 90
       18
102
RTVSPost2010Prop41ColorRGB
 90
        0
102
RTVSPost2010PropOp41
 70
     1
102
RTVSPost2010Prop42
 90
       50
102
RTVSPost2010PropOp42
 70
     1
102
RTVSPost2010Prop43
 90
        3
102
RTVSPost2010PropOp43
 70
     1
102
RTVSPost2010Prop44ColorIndex
 90
        5
102
RTVSPost2010Prop44ColorRGB
 90
      255
102
RTVSPost2010PropOp44
 70
     1
102
RTVSPost2010Prop45
280
     0
102
RTVSPost2010PropOp45
 70
     1
102
RTVSPost2010Prop46
 90
       50
102
RTVSPost2010PropOp46
 70
     1
102
RTVSPost2010Prop47
 90
       50
102
RTVSPost2010PropOp47
 70
     1
102
RTVSPost2010Prop48
 90
       50
102
RTVSPost2010PropOp48
 70
     1
102
RTVSPost2010Prop49
280
     0
102
RTVSPost2010PropOp49
 70
     1
102
RTVSPost2010Prop50
 90
       50
102
RTVSPost2010PropOp50
 70
     1
102
RTVSPost2010Prop51ColorIndex
 90
      256
102
RTVSPost2010Prop51ColorRGB
 90
-16777216
102
RTVSPost2010PropOp51
 70
     0
102
RTVSPost2010Prop52
140
1.0
102
RTVSPost2010PropOp52
 70
     0
102
RTVSPost2010Prop53
 90
        2
102
RTVSPost2010PropOp53
 70
     1
102
RTVSPost2010Prop54
  1
strokes_ogs.tif
102
RTVSPost2010PropOp54
 70
     1
102
RTVSPost2010Prop55
280
     0
102
RTVSPost2010PropOp55
 70
     1
102
RTVSPost2010Prop56
140
1.0
102
RTVSPost2010PropOp56
 70
     1
102
RTVSPost2010Prop57
140
1.0
102
RTVSPost2010PropOp57
 70
     1
102
RTVSPropertyOp0
 70
     1
102
RTVSPropertyOp1
 70
     1
102
RTVSPropertyOp2
 70
     1
102
RTVSPropertyOp3
 70
     1
102
RTVSPropertyOp4
 70
     1
102
RTVSPropertyOp5
 70
     1
102
RTVSPropertyOp6
 70
     1
102
RTVSPropertyOp7
 70
     1
102
RTVSPropertyOp8
 70
     1
102
RTVSPropertyOp9
 70
     1
102
RTVSPropertyOp10
 70
     1
102
RTVSPropertyOp11
 70
     1
102
RTVSPropertyOp12
 70
     1
102
RTVSPropertyOp13
 70
     1
102
RTVSPropertyOp14
 70
     1
102
RTVSPropertyOp15
 70
     1
102
RTVSPropertyOp16
 70
     1
102
RTVSPropertyOp17
 70
     1
102
RTVSPropertyOp18
 70
     1
102
RTVSPropertyOp19
 70
     1
102
RTVSPropertyOp20
 70
     1
102
RTVSPropertyOp21
 70
     1
102
RTVSPropertyOp22
 70
     1
102
RTVSPropertyOp23
 70
     1
102
RTVSPropertyOp24
 70
     1
102
RTVSPropertyOp25
 70
     1
102
RTVSPropertyOp26
 70
     1
102
RTVSPropertyOp27
 70
     1
102
RTVSPropertyOp28
 70
     1
102
RTVSPropertyOp29
 70
     1
102
RTVSPropertyOp30
 70
     1
102
RTVSPropertyOp31
 70
     1
102
RTVSPropertyOp32
 70
     1
102
RTVSPropertyOp33
 70
     1
102
RTVSPropertyOp34
 70
     1
102
RTVSPropertyOp35
 70
     1
102
RTVSPropertyOp36
 70
     1
102
RTVSPropertyOp37
 70
     1
102
RTVSPropertyOp38
 70
     1
102
RTVSPropertyOp39
 70
     1
102
RTVSPropertyOp40
 70
     1
102
RTVSPropertyOp41
 70
     1
102
RTVSPropertyOp42
 70
     1
102
RTVSPropertyOp43
 70
     1
102
RTVSPropertyOp44
 70
     1
102
RTVSPropertyOp45
 70
     1
102
RTVSPropertyOp46
 70
     1
102
RTVSPropertyOp47
 70
     1
102
RTVSPropertyOp48
 70
     1
102
RTVSPropertyOp49
 70
     1
102
RTVSPropertyOp50
 70
     1
102
RTVSPropertyOp51
 70
     0
102
RTVSPropertyOp52
 70
     0
102
RTVSPropertyOp53
 70
     1
102
RTVSPropertyOp54
 70
     1
102
RTVSPropertyOp55
 70
     1
102
RTVSPropertyOp56
 70
     1
102
RTVSPropertyOp57
 70
     1
102
RTVSPropertyOp58
 70
     1
102
RTVSPropertyOp59
 70
     1
102
RTVSPropertyOp60
 70
     1
102
RTVSPropertyOp61
 70
     1
102
RTVSPropertyOp62
 70
     1
  0
XRECORD
  5
7B9
102
{ACAD_REACTORS
330
7B8
102
}
330
7B8
100
AcDbXrecord
280
     1
102
RTVSPost2010Prop28
280
     0
102
RTVSPost2010PropOp28
 70
     1
102
RTVSPost2010Prop29
280
     1
102
RTVSPost2010PropOp29
 70
     1
102
RTVSPost2010Prop30
280
     1
102
RTVSPost2010PropOp30
 70
     1
102
RTVSPost2010Prop31
280
     0
102
RTVSPost2010PropOp31
 70
     1
102
RTVSPost2010Prop32
280
     0
102
RTVSPost2010PropOp32
 70
     1
102
RTVSPost2010Prop33
280
     0
102
RTVSPost2010PropOp33
 70
     1
102
RTVSPost2010Prop34
280
     0
102
RTVSPost2010PropOp34
 70
     1
102
RTVSPost2010Prop35
280
     0
102
RTVSPost2010PropOp35
 70
     1
102
RTVSPost2010Prop36
280
     0
102
RTVSPost2010PropOp36
 70
     1
102
RTVSPost2010Prop37
 90
       50
102
RTVSPost2010PropOp37
 70
     1
102
RTVSPost2010Prop38
140
0.0
102
RTVSPost2010PropOp38
 70
     1
102
RTVSPost2010Prop39
140
1.0
102
RTVSPost2010PropOp39
 70
     1
102
RTVSPost2010Prop40
 90
        0
102
RTVSPost2010PropOp40
 70
     1
102
RTVSPost2010Prop41ColorIndex
 90
       18
102
RTVSPost2010Prop41ColorRGB
 90
        0
102
RTVSPost2010PropOp41
 70
     1
102
RTVSPost2010Prop42
 90
       50
102
RTVSPost2010PropOp42
 70
     1
102
RTVSPost2010Prop43
 90
        3
102
RTVSPost2010PropOp43
 70
     1
102
RTVSPost2010Prop44ColorIndex
 90
        5
102
RTVSPost2010Prop44ColorRGB
 90
      255
102
RTVSPost2010PropOp44
 70
     1
102
RTVSPost2010Prop45
280
     0
102
RTVSPost2010PropOp45
 70
     1
102
RTVSPost2010Prop46
 90
       50
102
RTVSPost2010PropOp46
 70
     1
102
RTVSPost2010Prop47
 90
       50
102
RTVSPost2010PropOp47
 70
     1
102
RTVSPost2010Prop48
 90
       50
102
RTVSPost2010PropOp48
 70
     1
102
RTVSPost2010Prop49
280
     0
102
RTVSPost2010PropOp49
 70
     1
102
RTVSPost2010Prop50
 90
       50
102
RTVSPost2010PropOp50
 70
     1
102
RTVSPost2010Prop51ColorIndex
 90
      256
102
RTVSPost2010Prop51ColorRGB
 90
-16777216
102
RTVSPost2010PropOp51
 70
     0
102
RTVSPost2010Prop52
140
1.0
102
RTVSPost2010PropOp52
 70
     0
102
RTVSPost2010Prop53
 90
        2
102
RTVSPost2010PropOp53
 70
     1
102
RTVSPost2010Prop54
  1
strokes_ogs.tif
102
RTVSPost2010PropOp54
 70
     1
102
RTVSPost2010Prop55
280
     0
102
RTVSPost2010PropOp55
 70
     1
102
RTVSPost2010Prop56
140
1.0
102
RTVSPost2010PropOp56
 70
     1
102
RTVSPost2010Prop57
140
1.0
102
RTVSPost2010PropOp57
 70
     1
102
RTVSPropertyOp0
 70
     1
102
RTVSPropertyOp1
 70
     1
102
RTVSPropertyOp2
 70
     1
102
RTVSPropertyOp3
 70
     1
102
RTVSPropertyOp4
 70
     1
102
RTVSPropertyOp5
 70
     1
102
RTVSPropertyOp6
 70
     1
102
RTVSPropertyOp7
 70
     1
102
RTVSPropertyOp8
 70
     1
102
RTVSPropertyOp9
 70
     1
102
RTVSPropertyOp10
 70
     1
102
RTVSPropertyOp11
 70
     1
102
RTVSPropertyOp12
 70
     1
102
RTVSPropertyOp13
 70
     1
102
RTVSPropertyOp14
 70
     1
102
RTVSPropertyOp15
 70
     1
102
RTVSPropertyOp16
 70
     1
102
RTVSPropertyOp17
 70
     1
102
RTVSPropertyOp18
 70
     1
102
RTVSPropertyOp19
 70
     1
102
RTVSPropertyOp20
 70
     1
102
RTVSPropertyOp21
 70
     1
102
RTVSPropertyOp22
 70
     1
102
RTVSPropertyOp23
 70
     1
102
RTVSPropertyOp24
 70
     1
102
RTVSPropertyOp25
 70
     1
102
RTVSPropertyOp26
 70
     1
102
RTVSPropertyOp27
 70
     1
102
RTVSPropertyOp28
 70
     1
102
RTVSPropertyOp29
 70
     1
102
RTVSPropertyOp30
 70
     1
102
RTVSPropertyOp31
 70
     1
102
RTVSPropertyOp32
 70
     1
102
RTVSPropertyOp33
 70
     1
102
RTVSPropertyOp34
 70
     1
102
RTVSPropertyOp35
 70
     1
102
RTVSPropertyOp36
 70
     1
102
RTVSPropertyOp37
 70
     1
102
RTVSPropertyOp38
 70
     1
102
RTVSPropertyOp39
 70
     1
102
RTVSPropertyOp40
 70
     1
102
RTVSPropertyOp41
 70
     1
102
RTVSPropertyOp42
 70
     1
102
RTVSPropertyOp43
 70
     1
102
RTVSPropertyOp44
 70
     1
102
RTVSPropertyOp45
 70
     1
102
RTVSPropertyOp46
 70
     1
102
RTVSPropertyOp47
 70
     1
102
RTVSPropertyOp48
 70
     1
102
RTVSPropertyOp49
 70
     1
102
RTVSPropertyOp50
 70
     1
102
RTVSPropertyOp51
 70
     0
102
RTVSPropertyOp52
 70
     0
102
RTVSPropertyOp53
 70
     1
102
RTVSPropertyOp54
 70
     1
102
RTVSPropertyOp55
 70
     1
102
RTVSPropertyOp56
 70
     1
102
RTVSPropertyOp57
 70
     1
102
RTVSPropertyOp58
 70
     1
102
RTVSPropertyOp59
 70
     1
102
RTVSPropertyOp60
 70
     1
102
RTVSPropertyOp61
 70
     1
102
RTVSPropertyOp62
 70
     1
  0
XRECORD
  5
7BB
102
{ACAD_REACTORS
330
7BA
102
}
330
7BA
100
AcDbXrecord
280
     1
102
RTVSPost2010Prop28
280
     0
102
RTVSPost2010PropOp28
 70
     1
102
RTVSPost2010Prop29
280
     1
102
RTVSPost2010PropOp29
 70
     1
102
RTVSPost2010Prop30
280
     1
102
RTVSPost2010PropOp30
 70
     1
102
RTVSPost2010Prop31
280
     0
102
RTVSPost2010PropOp31
 70
     1
102
RTVSPost2010Prop32
280
     0
102
RTVSPost2010PropOp32
 70
     1
102
RTVSPost2010Prop33
280
     0
102
RTVSPost2010PropOp33
 70
     1
102
RTVSPost2010Prop34
280
     0
102
RTVSPost2010PropOp34
 70
     1
102
RTVSPost2010Prop35
280
     0
102
RTVSPost2010PropOp35
 70
     1
102
RTVSPost2010Prop36
280
     0
102
RTVSPost2010PropOp36
 70
     1
102
RTVSPost2010Prop37
 90
       50
102
RTVSPost2010PropOp37
 70
     1
102
RTVSPost2010Prop38
140
0.0
102
RTVSPost2010PropOp38
 70
     1
102
RTVSPost2010Prop39
140
1.0
102
RTVSPost2010PropOp39
 70
     1
102
RTVSPost2010Prop40
 90
        0
102
RTVSPost2010PropOp40
 70
     1
102
RTVSPost2010Prop41ColorIndex
 90
       18
102
RTVSPost2010Prop41ColorRGB
 90
        0
102
RTVSPost2010PropOp41
 70
     1
102
RTVSPost2010Prop42
 90
       50
102
RTVSPost2010PropOp42
 70
     1
102
RTVSPost2010Prop43
 90
        3
102
RTVSPost2010PropOp43
 70
     1
102
RTVSPost2010Prop44ColorIndex
 90
        5
102
RTVSPost2010Prop44ColorRGB
 90
      255
102
RTVSPost2010PropOp44
 70
     1
102
RTVSPost2010Prop45
280
     0
102
RTVSPost2010PropOp45
 70
     1
102
RTVSPost2010Prop46
 90
       50
102
RTVSPost2010PropOp46
 70
     1
102
RTVSPost2010Prop47
 90
       50
102
RTVSPost2010PropOp47
 70
     1
102
RTVSPost2010Prop48
 90
       50
102
RTVSPost2010PropOp48
 70
     1
102
RTVSPost2010Prop49
280
     0
102
RTVSPost2010PropOp49
 70
     1
102
RTVSPost2010Prop50
 90
       50
102
RTVSPost2010PropOp50
 70
     1
102
RTVSPost2010Prop51ColorIndex
 90
      256
102
RTVSPost2010Prop51ColorRGB
 90
-16777216
102
RTVSPost2010PropOp51
 70
     0
102
RTVSPost2010Prop52
140
1.0
102
RTVSPost2010PropOp52
 70
     0
102
RTVSPost2010Prop53
 90
        2
102
RTVSPost2010PropOp53
 70
     1
102
RTVSPost2010Prop54
  1
strokes_ogs.tif
102
RTVSPost2010PropOp54
 70
     1
102
RTVSPost2010Prop55
280
     0
102
RTVSPost2010PropOp55
 70
     1
102
RTVSPost2010Prop56
140
1.0
102
RTVSPost2010PropOp56
 70
     1
102
RTVSPost2010Prop57
140
1.0
102
RTVSPost2010PropOp57
 70
     1
102
RTVSPropertyOp0
 70
     1
102
RTVSPropertyOp1
 70
     1
102
RTVSPropertyOp2
 70
     1
102
RTVSPropertyOp3
 70
     1
102
RTVSPropertyOp4
 70
     1
102
RTVSPropertyOp5
 70
     1
102
RTVSPropertyOp6
 70
     1
102
RTVSPropertyOp7
 70
     1
102
RTVSPropertyOp8
 70
     1
102
RTVSPropertyOp9
 70
     1
102
RTVSPropertyOp10
 70
     1
102
RTVSPropertyOp11
 70
     1
102
RTVSPropertyOp12
 70
     1
102
RTVSPropertyOp13
 70
     1
102
RTVSPropertyOp14
 70
     1
102
RTVSPropertyOp15
 70
     1
102
RTVSPropertyOp16
 70
     1
102
RTVSPropertyOp17
 70
     1
102
RTVSPropertyOp18
 70
     1
102
RTVSPropertyOp19
 70
     1
102
RTVSPropertyOp20
 70
     1
102
RTVSPropertyOp21
 70
     1
102
RTVSPropertyOp22
 70
     1
102
RTVSPropertyOp23
 70
     1
102
RTVSPropertyOp24
 70
     1
102
RTVSPropertyOp25
 70
     1
102
RTVSPropertyOp26
 70
     1
102
RTVSPropertyOp27
 70
     1
102
RTVSPropertyOp28
 70
     1
102
RTVSPropertyOp29
 70
     1
102
RTVSPropertyOp30
 70
     1
102
RTVSPropertyOp31
 70
     1
102
RTVSPropertyOp32
 70
     1
102
RTVSPropertyOp33
 70
     1
102
RTVSPropertyOp34
 70
     1
102
RTVSPropertyOp35
 70
     1
102
RTVSPropertyOp36
 70
     1
102
RTVSPropertyOp37
 70
     1
102
RTVSPropertyOp38
 70
     1
102
RTVSPropertyOp39
 70
     1
102
RTVSPropertyOp40
 70
     1
102
RTVSPropertyOp41
 70
     1
102
RTVSPropertyOp42
 70
     1
102
RTVSPropertyOp43
 70
     1
102
RTVSPropertyOp44
 70
     1
102
RTVSPropertyOp45
 70
     1
102
RTVSPropertyOp46
 70
     1
102
RTVSPropertyOp47
 70
     1
102
RTVSPropertyOp48
 70
     1
102
RTVSPropertyOp49
 70
     1
102
RTVSPropertyOp50
 70
     1
102
RTVSPropertyOp51
 70
     0
102
RTVSPropertyOp52
 70
     0
102
RTVSPropertyOp53
 70
     1
102
RTVSPropertyOp54
 70
     1
102
RTVSPropertyOp55
 70
     1
102
RTVSPropertyOp56
 70
     1
102
RTVSPropertyOp57
 70
     1
102
RTVSPropertyOp58
 70
     1
102
RTVSPropertyOp59
 70
     1
102
RTVSPropertyOp60
 70
     1
102
RTVSPropertyOp61
 70
     1
102
RTVSPropertyOp62
 70
     1
  0
XRECORD
  5
7C3
102
{ACAD_REACTORS
330
7C2
102
}
330
7C2
100
AcDbXrecord
280
     1
102
RTVSPost2010Prop28
280
     0
102
RTVSPost2010PropOp28
 70
     1
102
RTVSPost2010Prop29
280
     1
102
RTVSPost2010PropOp29
 70
     1
102
RTVSPost2010Prop30
280
     1
102
RTVSPost2010PropOp30
 70
     1
102
RTVSPost2010Prop31
280
     0
102
RTVSPost2010PropOp31
 70
     1
102
RTVSPost2010Prop32
280
     0
102
RTVSPost2010PropOp32
 70
     1
102
RTVSPost2010Prop33
280
     0
102
RTVSPost2010PropOp33
 70
     1
102
RTVSPost2010Prop34
280
     0
102
RTVSPost2010PropOp34
 70
     1
102
RTVSPost2010Prop35
280
     0
102
RTVSPost2010PropOp35
 70
     1
102
RTVSPost2010Prop36
280
     0
102
RTVSPost2010PropOp36
 70
     1
102
RTVSPost2010Prop37
 90
       50
102
RTVSPost2010PropOp37
 70
     1
102
RTVSPost2010Prop38
140
0.0
102
RTVSPost2010PropOp38
 70
     1
102
RTVSPost2010Prop39
140
1.0
102
RTVSPost2010PropOp39
 70
     1
102
RTVSPost2010Prop40
 90
        0
102
RTVSPost2010PropOp40
 70
     1
102
RTVSPost2010Prop41ColorIndex
 90
       18
102
RTVSPost2010Prop41ColorRGB
 90
        0
102
RTVSPost2010PropOp41
 70
     1
102
RTVSPost2010Prop42
 90
       50
102
RTVSPost2010PropOp42
 70
     1
102
RTVSPost2010Prop43
 90
        3
102
RTVSPost2010PropOp43
 70
     1
102
RTVSPost2010Prop44ColorIndex
 90
        5
102
RTVSPost2010Prop44ColorRGB
 90
      255
102
RTVSPost2010PropOp44
 70
     1
102
RTVSPost2010Prop45
280
     0
102
RTVSPost2010PropOp45
 70
     1
102
RTVSPost2010Prop46
 90
       50
102
RTVSPost2010PropOp46
 70
     1
102
RTVSPost2010Prop47
 90
       50
102
RTVSPost2010PropOp47
 70
     1
102
RTVSPost2010Prop48
 90
       50
102
RTVSPost2010PropOp48
 70
     1
102
RTVSPost2010Prop49
280
     0
102
RTVSPost2010PropOp49
 70
     1
102
RTVSPost2010Prop50
 90
       50
102
RTVSPost2010PropOp50
 70
     1
102
RTVSPost2010Prop51ColorIndex
 90
      256
102
RTVSPost2010Prop51ColorRGB
 90
-16777216
102
RTVSPost2010PropOp51
 70
     0
102
RTVSPost2010Prop52
140
1.0
102
RTVSPost2010PropOp52
 70
     0
102
RTVSPost2010Prop53
 90
        2
102
RTVSPost2010PropOp53
 70
     1
102
RTVSPost2010Prop54
  1
strokes_ogs.tif
102
RTVSPost2010PropOp54
 70
     1
102
RTVSPost2010Prop55
280
     0
102
RTVSPost2010PropOp55
 70
     1
102
RTVSPost2010Prop56
140
1.0
102
RTVSPost2010PropOp56
 70
     1
102
RTVSPost2010Prop57
140
1.0
102
RTVSPost2010PropOp57
 70
     1
102
RTVSPropertyOp0
 70
     1
102
RTVSPropertyOp1
 70
     1
102
RTVSPropertyOp2
 70
     1
102
RTVSPropertyOp3
 70
     1
102
RTVSPropertyOp4
 70
     1
102
RTVSPropertyOp5
 70
     1
102
RTVSPropertyOp6
 70
     1
102
RTVSPropertyOp7
 70
     1
102
RTVSPropertyOp8
 70
     1
102
RTVSPropertyOp9
 70
     1
102
RTVSPropertyOp10
 70
     1
102
RTVSPropertyOp11
 70
     1
102
RTVSPropertyOp12
 70
     1
102
RTVSPropertyOp13
 70
     1
102
RTVSPropertyOp14
 70
     1
102
RTVSPropertyOp15
 70
     1
102
RTVSPropertyOp16
 70
     1
102
RTVSPropertyOp17
 70
     1
102
RTVSPropertyOp18
 70
     1
102
RTVSPropertyOp19
 70
     1
102
RTVSPropertyOp20
 70
     1
102
RTVSPropertyOp21
 70
     1
102
RTVSPropertyOp22
 70
     1
102
RTVSPropertyOp23
 70
     1
102
RTVSPropertyOp24
 70
     1
102
RTVSPropertyOp25
 70
     1
102
RTVSPropertyOp26
 70
     1
102
RTVSPropertyOp27
 70
     1
102
RTVSPropertyOp28
 70
     1
102
RTVSPropertyOp29
 70
     1
102
RTVSPropertyOp30
 70
     1
102
RTVSPropertyOp31
 70
     1
102
RTVSPropertyOp32
 70
     1
102
RTVSPropertyOp33
 70
     1
102
RTVSPropertyOp34
 70
     1
102
RTVSPropertyOp35
 70
     1
102
RTVSPropertyOp36
 70
     1
102
RTVSPropertyOp37
 70
     1
102
RTVSPropertyOp38
 70
     1
102
RTVSPropertyOp39
 70
     1
102
RTVSPropertyOp40
 70
     1
102
RTVSPropertyOp41
 70
     1
102
RTVSPropertyOp42
 70
     1
102
RTVSPropertyOp43
 70
     1
102
RTVSPropertyOp44
 70
     1
102
RTVSPropertyOp45
 70
     1
102
RTVSPropertyOp46
 70
     1
102
RTVSPropertyOp47
 70
     1
102
RTVSPropertyOp48
 70
     1
102
RTVSPropertyOp49
 70
     1
102
RTVSPropertyOp50
 70
     1
102
RTVSPropertyOp51
 70
     0
102
RTVSPropertyOp52
 70
     0
102
RTVSPropertyOp53
 70
     1
102
RTVSPropertyOp54
 70
     1
102
RTVSPropertyOp55
 70
     1
102
RTVSPropertyOp56
 70
     1
102
RTVSPropertyOp57
 70
     1
102
RTVSPropertyOp58
 70
     1
102
RTVSPropertyOp59
 70
     1
102
RTVSPropertyOp60
 70
     1
102
RTVSPropertyOp61
 70
     1
102
RTVSPropertyOp62
 70
     1
  0
XRECORD
  5
7DF
102
{ACAD_REACTORS
330
7DE
102
}
330
7DE
100
AcDbXrecord
280
     1
102
RTVSPost2010Prop28
280
     0
102
RTVSPost2010PropOp28
 70
     0
102
RTVSPost2010Prop29
280
     1
102
RTVSPost2010PropOp29
 70
     0
102
RTVSPost2010Prop30
280
     1
102
RTVSPost2010PropOp30
 70
     0
102
RTVSPost2010Prop31
280
     0
102
RTVSPost2010PropOp31
 70
     0
102
RTVSPost2010Prop32
280
     0
102
RTVSPost2010PropOp32
 70
     0
102
RTVSPost2010Prop33
280
     0
102
RTVSPost2010PropOp33
 70
     0
102
RTVSPost2010Prop34
280
     0
102
RTVSPost2010PropOp34
 70
     0
102
RTVSPost2010Prop35
280
     0
102
RTVSPost2010PropOp35
 70
     0
102
RTVSPost2010Prop36
280
     0
102
RTVSPost2010PropOp36
 70
     0
102
RTVSPost2010Prop37
 90
       50
102
RTVSPost2010PropOp37
 70
     0
102
RTVSPost2010Prop38
140
0.0
102
RTVSPost2010PropOp38
 70
     0
102
RTVSPost2010Prop39
140
1.0
102
RTVSPost2010PropOp39
 70
     0
102
RTVSPost2010Prop40
 90
        0
102
RTVSPost2010PropOp40
 70
     0
102
RTVSPost2010Prop41ColorIndex
 90
       18
102
RTVSPost2010Prop41ColorRGB
 90
        0
102
RTVSPost2010PropOp41
 70
     0
102
RTVSPost2010Prop42
 90
       50
102
RTVSPost2010PropOp42
 70
     0
102
RTVSPost2010Prop43
 90
        3
102
RTVSPost2010PropOp43
 70
     0
102
RTVSPost2010Prop44ColorIndex
 90
        5
102
RTVSPost2010Prop44ColorRGB
 90
      255
102
RTVSPost2010PropOp44
 70
     0
102
RTVSPost2010Prop45
280
     0
102
RTVSPost2010PropOp45
 70
     0
102
RTVSPost2010Prop46
 90
       50
102
RTVSPost2010PropOp46
 70
     0
102
RTVSPost2010Prop47
 90
       50
102
RTVSPost2010PropOp47
 70
     0
102
RTVSPost2010Prop48
 90
       50
102
RTVSPost2010PropOp48
 70
     0
102
RTVSPost2010Prop49
280
     0
102
RTVSPost2010PropOp49
 70
     0
102
RTVSPost2010Prop50
 90
       50
102
RTVSPost2010PropOp50
 70
     0
102
RTVSPost2010Prop51ColorIndex
 90
      256
102
RTVSPost2010Prop51ColorRGB
 90
-16777216
102
RTVSPost2010PropOp51
 70
     0
102
RTVSPost2010Prop52
140
1.0
102
RTVSPost2010PropOp52
 70
     0
102
RTVSPost2010Prop53
 90
        2
102
RTVSPost2010PropOp53
 70
     0
102
RTVSPost2010Prop54
  1
strokes_ogs.tif
102
RTVSPost2010PropOp54
 70
     0
102
RTVSPost2010Prop55
280
     0
102
RTVSPost2010PropOp55
 70
     0
102
RTVSPost2010Prop56
140
1.0
102
RTVSPost2010PropOp56
 70
     0
102
RTVSPost2010Prop57
140
1.0
102
RTVSPost2010PropOp57
 70
     0
102
RTVSPropertyOp0
 70
     0
102
RTVSPropertyOp1
 70
     0
102
RTVSPropertyOp2
 70
     0
102
RTVSPropertyOp3
 70
     0
102
RTVSPropertyOp4
 70
     0
102
RTVSPropertyOp5
 70
     0
102
RTVSPropertyOp6
 70
     0
102
RTVSPropertyOp7
 70
     0
102
RTVSPropertyOp8
 70
     0
102
RTVSPropertyOp9
 70
     0
102
RTVSPropertyOp10
 70
     0
102
RTVSPropertyOp11
 70
     0
102
RTVSPropertyOp12
 70
     0
102
RTVSPropertyOp13
 70
     0
102
RTVSPropertyOp14
 70
     2
102
RTVSPropertyOp15
 70
     0
102
RTVSPropertyOp16
 70
     0
102
RTVSPropertyOp17
 70
     0
102
RTVSPropertyOp18
 70
     0
102
RTVSPropertyOp19
 70
     0
102
RTVSPropertyOp20
 70
     0
102
RTVSPropertyOp21
 70
     0
102
RTVSPropertyOp22
 70
     0
102
RTVSPropertyOp23
 70
     0
102
RTVSPropertyOp24
 70
     0
102
RTVSPropertyOp25
 70
     0
102
RTVSPropertyOp26
 70
     0
102
RTVSPropertyOp27
 70
     0
102
RTVSPropertyOp28
 70
     0
102
RTVSPropertyOp29
 70
     0
102
RTVSPropertyOp30
 70
     0
102
RTVSPropertyOp31
 70
     0
102
RTVSPropertyOp32
 70
     0
102
RTVSPropertyOp33
 70
     0
102
RTVSPropertyOp34
 70
     0
102
RTVSPropertyOp35
 70
     0
102
RTVSPropertyOp36
 70
     0
102
RTVSPropertyOp37
 70
     0
102
RTVSPropertyOp38
 70
     0
102
RTVSPropertyOp39
 70
     0
102
RTVSPropertyOp40
 70
     0
102
RTVSPropertyOp41
 70
     0
102
RTVSPropertyOp42
 70
     0
102
RTVSPropertyOp43
 70
     0
102
RTVSPropertyOp44
 70
     0
102
RTVSPropertyOp45
 70
     0
102
RTVSPropertyOp46
 70
     0
102
RTVSPropertyOp47
 70
     0
102
RTVSPropertyOp48
 70
     0
102
RTVSPropertyOp49
 70
     0
102
RTVSPropertyOp50
 70
     0
102
RTVSPropertyOp51
 70
     0
102
RTVSPropertyOp52
 70
     0
102
RTVSPropertyOp53
 70
     0
102
RTVSPropertyOp54
 70
     0
102
RTVSPropertyOp55
 70
     0
102
RTVSPropertyOp56
 70
     0
102
RTVSPropertyOp57
 70
     0
102
RTVSPropertyOp58
 70
     0
102
RTVSPropertyOp59
 70
     0
102
RTVSPropertyOp60
 70
     0
102
RTVSPropertyOp61
 70
     0
102
RTVSPropertyOp62
 70
     0
  0
XRECORD
  5
7CF
102
{ACAD_REACTORS
330
7CE
102
}
330
7CE
100
AcDbXrecord
280
     1
102
RTVSPost2010Prop28
280
     0
102
RTVSPost2010PropOp28
 70
     1
102
RTVSPost2010Prop29
280
     1
102
RTVSPost2010PropOp29
 70
     1
102
RTVSPost2010Prop30
280
     1
102
RTVSPost2010PropOp30
 70
     1
102
RTVSPost2010Prop31
280
     0
102
RTVSPost2010PropOp31
 70
     1
102
RTVSPost2010Prop32
280
     0
102
RTVSPost2010PropOp32
 70
     1
102
RTVSPost2010Prop33
280
     0
102
RTVSPost2010PropOp33
 70
     1
102
RTVSPost2010Prop34
280
     0
102
RTVSPost2010PropOp34
 70
     1
102
RTVSPost2010Prop35
280
     0
102
RTVSPost2010PropOp35
 70
     1
102
RTVSPost2010Prop36
280
     0
102
RTVSPost2010PropOp36
 70
     1
102
RTVSPost2010Prop37
 90
       50
102
RTVSPost2010PropOp37
 70
     1
102
RTVSPost2010Prop38
140
0.0
102
RTVSPost2010PropOp38
 70
     1
102
RTVSPost2010Prop39
140
1.0
102
RTVSPost2010PropOp39
 70
     1
102
RTVSPost2010Prop40
 90
        0
102
RTVSPost2010PropOp40
 70
     1
102
RTVSPost2010Prop41ColorIndex
 90
       18
102
RTVSPost2010Prop41ColorRGB
 90
        0
102
RTVSPost2010PropOp41
 70
     1
102
RTVSPost2010Prop42
 90
       50
102
RTVSPost2010PropOp42
 70
     1
102
RTVSPost2010Prop43
 90
        3
102
RTVSPost2010PropOp43
 70
     1
102
RTVSPost2010Prop44ColorIndex
 90
        5
102
RTVSPost2010Prop44ColorRGB
 90
      255
102
RTVSPost2010PropOp44
 70
     1
102
RTVSPost2010Prop45
280
     0
102
RTVSPost2010PropOp45
 70
     1
102
RTVSPost2010Prop46
 90
       50
102
RTVSPost2010PropOp46
 70
     1
102
RTVSPost2010Prop47
 90
       50
102
RTVSPost2010PropOp47
 70
     1
102
RTVSPost2010Prop48
 90
       50
102
RTVSPost2010PropOp48
 70
     1
102
RTVSPost2010Prop49
280
     0
102
RTVSPost2010PropOp49
 70
     1
102
RTVSPost2010Prop50
 90
       50
102
RTVSPost2010PropOp50
 70
     1
102
RTVSPost2010Prop51ColorIndex
 90
      256
102
RTVSPost2010Prop51ColorRGB
 90
-16777216
102
RTVSPost2010PropOp51
 70
     0
102
RTVSPost2010Prop52
140
1.0
102
RTVSPost2010PropOp52
 70
     0
102
RTVSPost2010Prop53
 90
        2
102
RTVSPost2010PropOp53
 70
     1
102
RTVSPost2010Prop54
  1
strokes_ogs.tif
102
RTVSPost2010PropOp54
 70
     1
102
RTVSPost2010Prop55
280
     0
102
RTVSPost2010PropOp55
 70
     1
102
RTVSPost2010Prop56
140
1.0
102
RTVSPost2010PropOp56
 70
     1
102
RTVSPost2010Prop57
140
1.0
102
RTVSPost2010PropOp57
 70
     1
102
RTVSPropertyOp0
 70
     1
102
RTVSPropertyOp1
 70
     1
102
RTVSPropertyOp2
 70
     1
102
RTVSPropertyOp3
 70
     1
102
RTVSPropertyOp4
 70
     1
102
RTVSPropertyOp5
 70
     1
102
RTVSPropertyOp6
 70
     1
102
RTVSPropertyOp7
 70
     1
102
RTVSPropertyOp8
 70
     1
102
RTVSPropertyOp9
 70
     1
102
RTVSPropertyOp10
 70
     1
102
RTVSPropertyOp11
 70
     1
102
RTVSPropertyOp12
 70
     1
102
RTVSPropertyOp13
 70
     1
102
RTVSPropertyOp14
 70
     1
102
RTVSPropertyOp15
 70
     1
102
RTVSPropertyOp16
 70
     1
102
RTVSPropertyOp17
 70
     1
102
RTVSPropertyOp18
 70
     1
102
RTVSPropertyOp19
 70
     1
102
RTVSPropertyOp20
 70
     1
102
RTVSPropertyOp21
 70
     1
102
RTVSPropertyOp22
 70
     1
102
RTVSPropertyOp23
 70
     1
102
RTVSPropertyOp24
 70
     1
102
RTVSPropertyOp25
 70
     1
102
RTVSPropertyOp26
 70
     1
102
RTVSPropertyOp27
 70
     1
102
RTVSPropertyOp28
 70
     1
102
RTVSPropertyOp29
 70
     1
102
RTVSPropertyOp30
 70
     1
102
RTVSPropertyOp31
 70
     1
102
RTVSPropertyOp32
 70
     1
102
RTVSPropertyOp33
 70
     1
102
RTVSPropertyOp34
 70
     1
102
RTVSPropertyOp35
 70
     1
102
RTVSPropertyOp36
 70
     1
102
RTVSPropertyOp37
 70
     1
102
RTVSPropertyOp38
 70
     1
102
RTVSPropertyOp39
 70
     1
102
RTVSPropertyOp40
 70
     1
102
RTVSPropertyOp41
 70
     1
102
RTVSPropertyOp42
 70
     1
102
RTVSPropertyOp43
 70
     1
102
RTVSPropertyOp44
 70
     1
102
RTVSPropertyOp45
 70
     1
102
RTVSPropertyOp46
 70
     1
102
RTVSPropertyOp47
 70
     1
102
RTVSPropertyOp48
 70
     1
102
RTVSPropertyOp49
 70
     1
102
RTVSPropertyOp50
 70
     1
102
RTVSPropertyOp51
 70
     0
102
RTVSPropertyOp52
 70
     0
102
RTVSPropertyOp53
 70
     1
102
RTVSPropertyOp54
 70
     1
102
RTVSPropertyOp55
 70
     1
102
RTVSPropertyOp56
 70
     1
102
RTVSPropertyOp57
 70
     1
102
RTVSPropertyOp58
 70
     1
102
RTVSPropertyOp59
 70
     1
102
RTVSPropertyOp60
 70
     1
102
RTVSPropertyOp61
 70
     1
102
RTVSPropertyOp62
 70
     1
  0
XRECORD
  5
7E1
102
{ACAD_REACTORS
330
7E0
102
}
330
7E0
100
AcDbXrecord
280
     1
102
RTVSPost2010Prop28
280
     0
102
RTVSPost2010PropOp28
 70
     0
102
RTVSPost2010Prop29
280
     1
102
RTVSPost2010PropOp29
 70
     0
102
RTVSPost2010Prop30
280
     1
102
RTVSPost2010PropOp30
 70
     0
102
RTVSPost2010Prop31
280
     0
102
RTVSPost2010PropOp31
 70
     0
102
RTVSPost2010Prop32
280
     0
102
RTVSPost2010PropOp32
 70
     0
102
RTVSPost2010Prop33
280
     0
102
RTVSPost2010PropOp33
 70
     0
102
RTVSPost2010Prop34
280
     0
102
RTVSPost2010PropOp34
 70
     0
102
RTVSPost2010Prop35
280
     0
102
RTVSPost2010PropOp35
 70
     0
102
RTVSPost2010Prop36
280
     0
102
RTVSPost2010PropOp36
 70
     0
102
RTVSPost2010Prop37
 90
       50
102
RTVSPost2010PropOp37
 70
     0
102
RTVSPost2010Prop38
140
0.0
102
RTVSPost2010PropOp38
 70
     0
102
RTVSPost2010Prop39
140
1.0
102
RTVSPost2010PropOp39
 70
     0
102
RTVSPost2010Prop40
 90
        0
102
RTVSPost2010PropOp40
 70
     0
102
RTVSPost2010Prop41ColorIndex
 90
       18
102
RTVSPost2010Prop41ColorRGB
 90
        0
102
RTVSPost2010PropOp41
 70
     0
102
RTVSPost2010Prop42
 90
       50
102
RTVSPost2010PropOp42
 70
     0
102
RTVSPost2010Prop43
 90
        3
102
RTVSPost2010PropOp43
 70
     0
102
RTVSPost2010Prop44ColorIndex
 90
        5
102
RTVSPost2010Prop44ColorRGB
 90
      255
102
RTVSPost2010PropOp44
 70
     0
102
RTVSPost2010Prop45
280
     0
102
RTVSPost2010PropOp45
 70
     0
102
RTVSPost2010Prop46
 90
       50
102
RTVSPost2010PropOp46
 70
     0
102
RTVSPost2010Prop47
 90
       50
102
RTVSPost2010PropOp47
 70
     0
102
RTVSPost2010Prop48
 90
       50
102
RTVSPost2010PropOp48
 70
     0
102
RTVSPost2010Prop49
280
     0
102
RTVSPost2010PropOp49
 70
     0
102
RTVSPost2010Prop50
 90
       50
102
RTVSPost2010PropOp50
 70
     0
102
RTVSPost2010Prop51ColorIndex
 90
      256
102
RTVSPost2010Prop51ColorRGB
 90
-16777216
102
RTVSPost2010PropOp51
 70
     0
102
RTVSPost2010Prop52
140
1.0
102
RTVSPost2010PropOp52
 70
     0
102
RTVSPost2010Prop53
 90
        2
102
RTVSPost2010PropOp53
 70
     0
102
RTVSPost2010Prop54
  1
strokes_ogs.tif
102
RTVSPost2010PropOp54
 70
     0
102
RTVSPost2010Prop55
280
     0
102
RTVSPost2010PropOp55
 70
     0
102
RTVSPost2010Prop56
140
1.0
102
RTVSPost2010PropOp56
 70
     0
102
RTVSPost2010Prop57
140
1.0
102
RTVSPost2010PropOp57
 70
     0
102
RTVSPropertyOp0
 70
     0
102
RTVSPropertyOp1
 70
     0
102
RTVSPropertyOp2
 70
     0
102
RTVSPropertyOp3
 70
     0
102
RTVSPropertyOp4
 70
     0
102
RTVSPropertyOp5
 70
     0
102
RTVSPropertyOp6
 70
     0
102
RTVSPropertyOp7
 70
     0
102
RTVSPropertyOp8
 70
     0
102
RTVSPropertyOp9
 70
     0
102
RTVSPropertyOp10
 70
     0
102
RTVSPropertyOp11
 70
     0
102
RTVSPropertyOp12
 70
     0
102
RTVSPropertyOp13
 70
     0
102
RTVSPropertyOp14
 70
     2
102
RTVSPropertyOp15
 70
     0
102
RTVSPropertyOp16
 70
     0
102
RTVSPropertyOp17
 70
     0
102
RTVSPropertyOp18
 70
     0
102
RTVSPropertyOp19
 70
     0
102
RTVSPropertyOp20
 70
     0
102
RTVSPropertyOp21
 70
     0
102
RTVSPropertyOp22
 70
     0
102
RTVSPropertyOp23
 70
     0
102
RTVSPropertyOp24
 70
     0
102
RTVSPropertyOp25
 70
     0
102
RTVSPropertyOp26
 70
     0
102
RTVSPropertyOp27
 70
     0
102
RTVSPropertyOp28
 70
     0
102
RTVSPropertyOp29
 70
     0
102
RTVSPropertyOp30
 70
     0
102
RTVSPropertyOp31
 70
     0
102
RTVSPropertyOp32
 70
     0
102
RTVSPropertyOp33
 70
     0
102
RTVSPropertyOp34
 70
     0
102
RTVSPropertyOp35
 70
     0
102
RTVSPropertyOp36
 70
     0
102
RTVSPropertyOp37
 70
     0
102
RTVSPropertyOp38
 70
     0
102
RTVSPropertyOp39
 70
     0
102
RTVSPropertyOp40
 70
     0
102
RTVSPropertyOp41
 70
     0
102
RTVSPropertyOp42
 70
     0
102
RTVSPropertyOp43
 70
     0
102
RTVSPropertyOp44
 70
     0
102
RTVSPropertyOp45
 70
     0
102
RTVSPropertyOp46
 70
     0
102
RTVSPropertyOp47
 70
     0
102
RTVSPropertyOp48
 70
     0
102
RTVSPropertyOp49
 70
     0
102
RTVSPropertyOp50
 70
     0
102
RTVSPropertyOp51
 70
     0
102
RTVSPropertyOp52
 70
     0
102
RTVSPropertyOp53
 70
     0
102
RTVSPropertyOp54
 70
     0
102
RTVSPropertyOp55
 70
     0
102
RTVSPropertyOp56
 70
     0
102
RTVSPropertyOp57
 70
     0
102
RTVSPropertyOp58
 70
     0
102
RTVSPropertyOp59
 70
     0
102
RTVSPropertyOp60
 70
     0
102
RTVSPropertyOp61
 70
     0
102
RTVSPropertyOp62
 70
     0
  0
XRECORD
  5
7C7
102
{ACAD_REACTORS
330
7C6
102
}
330
7C6
100
AcDbXrecord
280
     1
102
RTVSPost2010Prop28
280
     0
102
RTVSPost2010PropOp28
 70
     1
102
RTVSPost2010Prop29
280
     1
102
RTVSPost2010PropOp29
 70
     1
102
RTVSPost2010Prop30
280
     1
102
RTVSPost2010PropOp30
 70
     1
102
RTVSPost2010Prop31
280
     0
102
RTVSPost2010PropOp31
 70
     1
102
RTVSPost2010Prop32
280
     0
102
RTVSPost2010PropOp32
 70
     1
102
RTVSPost2010Prop33
280
     0
102
RTVSPost2010PropOp33
 70
     1
102
RTVSPost2010Prop34
280
     0
102
RTVSPost2010PropOp34
 70
     1
102
RTVSPost2010Prop35
280
     0
102
RTVSPost2010PropOp35
 70
     1
102
RTVSPost2010Prop36
280
     0
102
RTVSPost2010PropOp36
 70
     1
102
RTVSPost2010Prop37
 90
       50
102
RTVSPost2010PropOp37
 70
     1
102
RTVSPost2010Prop38
140
0.0
102
RTVSPost2010PropOp38
 70
     1
102
RTVSPost2010Prop39
140
1.0
102
RTVSPost2010PropOp39
 70
     1
102
RTVSPost2010Prop40
 90
        0
102
RTVSPost2010PropOp40
 70
     1
102
RTVSPost2010Prop41ColorIndex
 90
       18
102
RTVSPost2010Prop41ColorRGB
 90
        0
102
RTVSPost2010PropOp41
 70
     1
102
RTVSPost2010Prop42
 90
       50
102
RTVSPost2010PropOp42
 70
     1
102
RTVSPost2010Prop43
 90
        3
102
RTVSPost2010PropOp43
 70
     1
102
RTVSPost2010Prop44ColorIndex
 90
        5
102
RTVSPost2010Prop44ColorRGB
 90
      255
102
RTVSPost2010PropOp44
 70
     1
102
RTVSPost2010Prop45
280
     0
102
RTVSPost2010PropOp45
 70
     1
102
RTVSPost2010Prop46
 90
       50
102
RTVSPost2010PropOp46
 70
     1
102
RTVSPost2010Prop47
 90
       50
102
RTVSPost2010PropOp47
 70
     1
102
RTVSPost2010Prop48
 90
       50
102
RTVSPost2010PropOp48
 70
     1
102
RTVSPost2010Prop49
280
     0
102
RTVSPost2010PropOp49
 70
     1
102
RTVSPost2010Prop50
 90
       50
102
RTVSPost2010PropOp50
 70
     1
102
RTVSPost2010Prop51ColorIndex
 90
      256
102
RTVSPost2010Prop51ColorRGB
 90
-16777216
102
RTVSPost2010PropOp51
 70
     0
102
RTVSPost2010Prop52
140
1.0
102
RTVSPost2010PropOp52
 70
     0
102
RTVSPost2010Prop53
 90
        2
102
RTVSPost2010PropOp53
 70
     1
102
RTVSPost2010Prop54
  1
strokes_ogs.tif
102
RTVSPost2010PropOp54
 70
     1
102
RTVSPost2010Prop55
280
     0
102
RTVSPost2010PropOp55
 70
     1
102
RTVSPost2010Prop56
140
1.0
102
RTVSPost2010PropOp56
 70
     1
102
RTVSPost2010Prop57
140
1.0
102
RTVSPost2010PropOp57
 70
     1
102
RTVSPropertyOp0
 70
     1
102
RTVSPropertyOp1
 70
     1
102
RTVSPropertyOp2
 70
     1
102
RTVSPropertyOp3
 70
     1
102
RTVSPropertyOp4
 70
     1
102
RTVSPropertyOp5
 70
     1
102
RTVSPropertyOp6
 70
     1
102
RTVSPropertyOp7
 70
     1
102
RTVSPropertyOp8
 70
     1
102
RTVSPropertyOp9
 70
     1
102
RTVSPropertyOp10
 70
     1
102
RTVSPropertyOp11
 70
     1
102
RTVSPropertyOp12
 70
     1
102
RTVSPropertyOp13
 70
     1
102
RTVSPropertyOp14
 70
     1
102
RTVSPropertyOp15
 70
     1
102
RTVSPropertyOp16
 70
     1
102
RTVSPropertyOp17
 70
     1
102
RTVSPropertyOp18
 70
     1
102
RTVSPropertyOp19
 70
     1
102
RTVSPropertyOp20
 70
     1
102
RTVSPropertyOp21
 70
     1
102
RTVSPropertyOp22
 70
     1
102
RTVSPropertyOp23
 70
     1
102
RTVSPropertyOp24
 70
     1
102
RTVSPropertyOp25
 70
     1
102
RTVSPropertyOp26
 70
     1
102
RTVSPropertyOp27
 70
     1
102
RTVSPropertyOp28
 70
     1
102
RTVSPropertyOp29
 70
     1
102
RTVSPropertyOp30
 70
     1
102
RTVSPropertyOp31
 70
     1
102
RTVSPropertyOp32
 70
     1
102
RTVSPropertyOp33
 70
     1
102
RTVSPropertyOp34
 70
     1
102
RTVSPropertyOp35
 70
     1
102
RTVSPropertyOp36
 70
     1
102
RTVSPropertyOp37
 70
     1
102
RTVSPropertyOp38
 70
     1
102
RTVSPropertyOp39
 70
     1
102
RTVSPropertyOp40
 70
     1
102
RTVSPropertyOp41
 70
     1
102
RTVSPropertyOp42
 70
     1
102
RTVSPropertyOp43
 70
     1
102
RTVSPropertyOp44
 70
     1
102
RTVSPropertyOp45
 70
     1
102
RTVSPropertyOp46
 70
     1
102
RTVSPropertyOp47
 70
     1
102
RTVSPropertyOp48
 70
     1
102
RTVSPropertyOp49
 70
     1
102
RTVSPropertyOp50
 70
     1
102
RTVSPropertyOp51
 70
     0
102
RTVSPropertyOp52
 70
     0
102
RTVSPropertyOp53
 70
     1
102
RTVSPropertyOp54
 70
     1
102
RTVSPropertyOp55
 70
     1
102
RTVSPropertyOp56
 70
     1
102
RTVSPropertyOp57
 70
     1
102
RTVSPropertyOp58
 70
     1
102
RTVSPropertyOp59
 70
     1
102
RTVSPropertyOp60
 70
     1
102
RTVSPropertyOp61
 70
     1
102
RTVSPropertyOp62
 70
     1
  0
XRECORD
  5
7DD
102
{ACAD_REACTORS
330
7DC
102
}
330
7DC
100
AcDbXrecord
280
     1
102
RTVSPost2010Prop28
280
     0
102
RTVSPost2010PropOp28
 70
     1
102
RTVSPost2010Prop29
280
     1
102
RTVSPost2010PropOp29
 70
     1
102
RTVSPost2010Prop30
280
     1
102
RTVSPost2010PropOp30
 70
     1
102
RTVSPost2010Prop31
280
     0
102
RTVSPost2010PropOp31
 70
     1
102
RTVSPost2010Prop32
280
     0
102
RTVSPost2010PropOp32
 70
     1
102
RTVSPost2010Prop33
280
     0
102
RTVSPost2010PropOp33
 70
     1
102
RTVSPost2010Prop34
280
     0
102
RTVSPost2010PropOp34
 70
     1
102
RTVSPost2010Prop35
280
     0
102
RTVSPost2010PropOp35
 70
     1
102
RTVSPost2010Prop36
280
     0
102
RTVSPost2010PropOp36
 70
     1
102
RTVSPost2010Prop37
 90
       50
102
RTVSPost2010PropOp37
 70
     1
102
RTVSPost2010Prop38
140
0.0
102
RTVSPost2010PropOp38
 70
     1
102
RTVSPost2010Prop39
140
1.0
102
RTVSPost2010PropOp39
 70
     1
102
RTVSPost2010Prop40
 90
        0
102
RTVSPost2010PropOp40
 70
     1
102
RTVSPost2010Prop41ColorIndex
 90
       18
102
RTVSPost2010Prop41ColorRGB
 90
        0
102
RTVSPost2010PropOp41
 70
     1
102
RTVSPost2010Prop42
 90
       50
102
RTVSPost2010PropOp42
 70
     1
102
RTVSPost2010Prop43
 90
        3
102
RTVSPost2010PropOp43
 70
     1
102
RTVSPost2010Prop44ColorIndex
 90
        5
102
RTVSPost2010Prop44ColorRGB
 90
      255
102
RTVSPost2010PropOp44
 70
     1
102
RTVSPost2010Prop45
280
     0
102
RTVSPost2010PropOp45
 70
     1
102
RTVSPost2010Prop46
 90
       50
102
RTVSPost2010PropOp46
 70
     1
102
RTVSPost2010Prop47
 90
       50
102
RTVSPost2010PropOp47
 70
     1
102
RTVSPost2010Prop48
 90
       50
102
RTVSPost2010PropOp48
 70
     1
102
RTVSPost2010Prop49
280
     0
102
RTVSPost2010PropOp49
 70
     1
102
RTVSPost2010Prop50
 90
       50
102
RTVSPost2010PropOp50
 70
     1
102
RTVSPost2010Prop51ColorIndex
 90
      256
102
RTVSPost2010Prop51ColorRGB
 90
-16777216
102
RTVSPost2010PropOp51
 70
     0
102
RTVSPost2010Prop52
140
1.0
102
RTVSPost2010PropOp52
 70
     0
102
RTVSPost2010Prop53
 90
        2
102
RTVSPost2010PropOp53
 70
     1
102
RTVSPost2010Prop54
  1
strokes_ogs.tif
102
RTVSPost2010PropOp54
 70
     1
102
RTVSPost2010Prop55
280
     0
102
RTVSPost2010PropOp55
 70
     1
102
RTVSPost2010Prop56
140
1.0
102
RTVSPost2010PropOp56
 70
     1
102
RTVSPost2010Prop57
140
1.0
102
RTVSPost2010PropOp57
 70
     1
102
RTVSPropertyOp0
 70
     1
102
RTVSPropertyOp1
 70
     1
102
RTVSPropertyOp2
 70
     1
102
RTVSPropertyOp3
 70
     1
102
RTVSPropertyOp4
 70
     1
102
RTVSPropertyOp5
 70
     1
102
RTVSPropertyOp6
 70
     1
102
RTVSPropertyOp7
 70
     1
102
RTVSPropertyOp8
 70
     1
102
RTVSPropertyOp9
 70
     1
102
RTVSPropertyOp10
 70
     1
102
RTVSPropertyOp11
 70
     1
102
RTVSPropertyOp12
 70
     1
102
RTVSPropertyOp13
 70
     1
102
RTVSPropertyOp14
 70
     1
102
RTVSPropertyOp15
 70
     1
102
RTVSPropertyOp16
 70
     1
102
RTVSPropertyOp17
 70
     1
102
RTVSPropertyOp18
 70
     1
102
RTVSPropertyOp19
 70
     1
102
RTVSPropertyOp20
 70
     1
102
RTVSPropertyOp21
 70
     1
102
RTVSPropertyOp22
 70
     1
102
RTVSPropertyOp23
 70
     1
102
RTVSPropertyOp24
 70
     1
102
RTVSPropertyOp25
 70
     1
102
RTVSPropertyOp26
 70
     1
102
RTVSPropertyOp27
 70
     1
102
RTVSPropertyOp28
 70
     1
102
RTVSPropertyOp29
 70
     1
102
RTVSPropertyOp30
 70
     1
102
RTVSPropertyOp31
 70
     1
102
RTVSPropertyOp32
 70
     1
102
RTVSPropertyOp33
 70
     1
102
RTVSPropertyOp34
 70
     1
102
RTVSPropertyOp35
 70
     1
102
RTVSPropertyOp36
 70
     1
102
RTVSPropertyOp37
 70
     1
102
RTVSPropertyOp38
 70
     1
102
RTVSPropertyOp39
 70
     1
102
RTVSPropertyOp40
 70
     1
102
RTVSPropertyOp41
 70
     1
102
RTVSPropertyOp42
 70
     1
102
RTVSPropertyOp43
 70
     1
102
RTVSPropertyOp44
 70
     1
102
RTVSPropertyOp45
 70
     1
102
RTVSPropertyOp46
 70
     1
102
RTVSPropertyOp47
 70
     1
102
RTVSPropertyOp48
 70
     1
102
RTVSPropertyOp49
 70
     1
102
RTVSPropertyOp50
 70
     1
102
RTVSPropertyOp51
 70
     0
102
RTVSPropertyOp52
 70
     0
102
RTVSPropertyOp53
 70
     1
102
RTVSPropertyOp54
 70
     1
102
RTVSPropertyOp55
 70
     1
102
RTVSPropertyOp56
 70
     1
102
RTVSPropertyOp57
 70
     1
102
RTVSPropertyOp58
 70
     1
102
RTVSPropertyOp59
 70
     1
102
RTVSPropertyOp60
 70
     1
102
RTVSPropertyOp61
 70
     1
102
RTVSPropertyOp62
 70
     1
  0
XRECORD
  5
7DB
102
{ACAD_REACTORS
330
7DA
102
}
330
7DA
100
AcDbXrecord
280
     1
102
RTVSPost2010Prop28
280
     0
102
RTVSPost2010PropOp28
 70
     1
102
RTVSPost2010Prop29
280
     1
102
RTVSPost2010PropOp29
 70
     1
102
RTVSPost2010Prop30
280
     1
102
RTVSPost2010PropOp30
 70
     1
102
RTVSPost2010Prop31
280
     0
102
RTVSPost2010PropOp31
 70
     1
102
RTVSPost2010Prop32
280
     0
102
RTVSPost2010PropOp32
 70
     1
102
RTVSPost2010Prop33
280
     0
102
RTVSPost2010PropOp33
 70
     1
102
RTVSPost2010Prop34
280
     0
102
RTVSPost2010PropOp34
 70
     1
102
RTVSPost2010Prop35
280
     0
102
RTVSPost2010PropOp35
 70
     1
102
RTVSPost2010Prop36
280
     0
102
RTVSPost2010PropOp36
 70
     1
102
RTVSPost2010Prop37
 90
       50
102
RTVSPost2010PropOp37
 70
     1
102
RTVSPost2010Prop38
140
0.0
102
RTVSPost2010PropOp38
 70
     1
102
RTVSPost2010Prop39
140
1.0
102
RTVSPost2010PropOp39
 70
     1
102
RTVSPost2010Prop40
 90
        0
102
RTVSPost2010PropOp40
 70
     1
102
RTVSPost2010Prop41ColorIndex
 90
       18
102
RTVSPost2010Prop41ColorRGB
 90
        0
102
RTVSPost2010PropOp41
 70
     1
102
RTVSPost2010Prop42
 90
       50
102
RTVSPost2010PropOp42
 70
     1
102
RTVSPost2010Prop43
 90
        3
102
RTVSPost2010PropOp43
 70
     1
102
RTVSPost2010Prop44ColorIndex
 90
        5
102
RTVSPost2010Prop44ColorRGB
 90
      255
102
RTVSPost2010PropOp44
 70
     1
102
RTVSPost2010Prop45
280
     0
102
RTVSPost2010PropOp45
 70
     1
102
RTVSPost2010Prop46
 90
       50
102
RTVSPost2010PropOp46
 70
     1
102
RTVSPost2010Prop47
 90
       50
102
RTVSPost2010PropOp47
 70
     1
102
RTVSPost2010Prop48
 90
       50
102
RTVSPost2010PropOp48
 70
     1
102
RTVSPost2010Prop49
280
     0
102
RTVSPost2010PropOp49
 70
     1
102
RTVSPost2010Prop50
 90
       50
102
RTVSPost2010PropOp50
 70
     1
102
RTVSPost2010Prop51ColorIndex
 90
      256
102
RTVSPost2010Prop51ColorRGB
 90
-16777216
102
RTVSPost2010PropOp51
 70
     0
102
RTVSPost2010Prop52
140
1.0
102
RTVSPost2010PropOp52
 70
     0
102
RTVSPost2010Prop53
 90
        2
102
RTVSPost2010PropOp53
 70
     1
102
RTVSPost2010Prop54
  1
strokes_ogs.tif
102
RTVSPost2010PropOp54
 70
     1
102
RTVSPost2010Prop55
280
     0
102
RTVSPost2010PropOp55
 70
     1
102
RTVSPost2010Prop56
140
1.0
102
RTVSPost2010PropOp56
 70
     1
102
RTVSPost2010Prop57
140
1.0
102
RTVSPost2010PropOp57
 70
     1
102
RTVSPropertyOp0
 70
     1
102
RTVSPropertyOp1
 70
     1
102
RTVSPropertyOp2
 70
     1
102
RTVSPropertyOp3
 70
     1
102
RTVSPropertyOp4
 70
     1
102
RTVSPropertyOp5
 70
     1
102
RTVSPropertyOp6
 70
     1
102
RTVSPropertyOp7
 70
     1
102
RTVSPropertyOp8
 70
     1
102
RTVSPropertyOp9
 70
     1
102
RTVSPropertyOp10
 70
     1
102
RTVSPropertyOp11
 70
     1
102
RTVSPropertyOp12
 70
     1
102
RTVSPropertyOp13
 70
     1
102
RTVSPropertyOp14
 70
     1
102
RTVSPropertyOp15
 70
     1
102
RTVSPropertyOp16
 70
     1
102
RTVSPropertyOp17
 70
     1
102
RTVSPropertyOp18
 70
     1
102
RTVSPropertyOp19
 70
     1
102
RTVSPropertyOp20
 70
     1
102
RTVSPropertyOp21
 70
     1
102
RTVSPropertyOp22
 70
     1
102
RTVSPropertyOp23
 70
     1
102
RTVSPropertyOp24
 70
     1
102
RTVSPropertyOp25
 70
     1
102
RTVSPropertyOp26
 70
     1
102
RTVSPropertyOp27
 70
     1
102
RTVSPropertyOp28
 70
     1
102
RTVSPropertyOp29
 70
     1
102
RTVSPropertyOp30
 70
     1
102
RTVSPropertyOp31
 70
     1
102
RTVSPropertyOp32
 70
     1
102
RTVSPropertyOp33
 70
     1
102
RTVSPropertyOp34
 70
     1
102
RTVSPropertyOp35
 70
     1
102
RTVSPropertyOp36
 70
     1
102
RTVSPropertyOp37
 70
     1
102
RTVSPropertyOp38
 70
     1
102
RTVSPropertyOp39
 70
     1
102
RTVSPropertyOp40
 70
     1
102
RTVSPropertyOp41
 70
     1
102
RTVSPropertyOp42
 70
     1
102
RTVSPropertyOp43
 70
     1
102
RTVSPropertyOp44
 70
     1
102
RTVSPropertyOp45
 70
     1
102
RTVSPropertyOp46
 70
     1
102
RTVSPropertyOp47
 70
     1
102
RTVSPropertyOp48
 70
     1
102
RTVSPropertyOp49
 70
     1
102
RTVSPropertyOp50
 70
     1
102
RTVSPropertyOp51
 70
     0
102
RTVSPropertyOp52
 70
     0
102
RTVSPropertyOp53
 70
     1
102
RTVSPropertyOp54
 70
     1
102
RTVSPropertyOp55
 70
     1
102
RTVSPropertyOp56
 70
     1
102
RTVSPropertyOp57
 70
     1
102
RTVSPropertyOp58
 70
     1
102
RTVSPropertyOp59
 70
     1
102
RTVSPropertyOp60
 70
     1
102
RTVSPropertyOp61
 70
     1
102
RTVSPropertyOp62
 70
     1
  0
XRECORD
  5
7D5
102
{ACAD_REACTORS
330
7D4
102
}
330
7D4
100
AcDbXrecord
280
     1
102
RTVSPost2010Prop28
280
     0
102
RTVSPost2010PropOp28
 70
     1
102
RTVSPost2010Prop29
280
     1
102
RTVSPost2010PropOp29
 70
     1
102
RTVSPost2010Prop30
280
     1
102
RTVSPost2010PropOp30
 70
     1
102
RTVSPost2010Prop31
280
     0
102
RTVSPost2010PropOp31
 70
     1
102
RTVSPost2010Prop32
280
     0
102
RTVSPost2010PropOp32
 70
     1
102
RTVSPost2010Prop33
280
     0
102
RTVSPost2010PropOp33
 70
     1
102
RTVSPost2010Prop34
280
     0
102
RTVSPost2010PropOp34
 70
     1
102
RTVSPost2010Prop35
280
     0
102
RTVSPost2010PropOp35
 70
     1
102
RTVSPost2010Prop36
280
     0
102
RTVSPost2010PropOp36
 70
     1
102
RTVSPost2010Prop37
 90
       50
102
RTVSPost2010PropOp37
 70
     1
102
RTVSPost2010Prop38
140
0.0
102
RTVSPost2010PropOp38
 70
     1
102
RTVSPost2010Prop39
140
1.0
102
RTVSPost2010PropOp39
 70
     1
102
RTVSPost2010Prop40
 90
        0
102
RTVSPost2010PropOp40
 70
     1
102
RTVSPost2010Prop41ColorIndex
 90
       18
102
RTVSPost2010Prop41ColorRGB
 90
        0
102
RTVSPost2010PropOp41
 70
     1
102
RTVSPost2010Prop42
 90
       50
102
RTVSPost2010PropOp42
 70
     1
102
RTVSPost2010Prop43
 90
        3
102
RTVSPost2010PropOp43
 70
     1
102
RTVSPost2010Prop44ColorIndex
 90
        5
102
RTVSPost2010Prop44ColorRGB
 90
      255
102
RTVSPost2010PropOp44
 70
     1
102
RTVSPost2010Prop45
280
     0
102
RTVSPost2010PropOp45
 70
     1
102
RTVSPost2010Prop46
 90
       50
102
RTVSPost2010PropOp46
 70
     1
102
RTVSPost2010Prop47
 90
       50
102
RTVSPost2010PropOp47
 70
     1
102
RTVSPost2010Prop48
 90
       50
102
RTVSPost2010PropOp48
 70
     1
102
RTVSPost2010Prop49
280
     0
102
RTVSPost2010PropOp49
 70
     1
102
RTVSPost2010Prop50
 90
       50
102
RTVSPost2010PropOp50
 70
     1
102
RTVSPost2010Prop51ColorIndex
 90
      256
102
RTVSPost2010Prop51ColorRGB
 90
-16777216
102
RTVSPost2010PropOp51
 70
     0
102
RTVSPost2010Prop52
140
1.0
102
RTVSPost2010PropOp52
 70
     0
102
RTVSPost2010Prop53
 90
        2
102
RTVSPost2010PropOp53
 70
     1
102
RTVSPost2010Prop54
  1
strokes_ogs.tif
102
RTVSPost2010PropOp54
 70
     1
102
RTVSPost2010Prop55
280
     0
102
RTVSPost2010PropOp55
 70
     1
102
RTVSPost2010Prop56
140
1.0
102
RTVSPost2010PropOp56
 70
     1
102
RTVSPost2010Prop57
140
1.0
102
RTVSPost2010PropOp57
 70
     1
102
RTVSPropertyOp0
 70
     1
102
RTVSPropertyOp1
 70
     1
102
RTVSPropertyOp2
 70
     1
102
RTVSPropertyOp3
 70
     1
102
RTVSPropertyOp4
 70
     1
102
RTVSPropertyOp5
 70
     1
102
RTVSPropertyOp6
 70
     1
102
RTVSPropertyOp7
 70
     1
102
RTVSPropertyOp8
 70
     1
102
RTVSPropertyOp9
 70
     1
102
RTVSPropertyOp10
 70
     1
102
RTVSPropertyOp11
 70
     1
102
RTVSPropertyOp12
 70
     1
102
RTVSPropertyOp13
 70
     1
102
RTVSPropertyOp14
 70
     1
102
RTVSPropertyOp15
 70
     1
102
RTVSPropertyOp16
 70
     1
102
RTVSPropertyOp17
 70
     1
102
RTVSPropertyOp18
 70
     1
102
RTVSPropertyOp19
 70
     1
102
RTVSPropertyOp20
 70
     1
102
RTVSPropertyOp21
 70
     1
102
RTVSPropertyOp22
 70
     1
102
RTVSPropertyOp23
 70
     1
102
RTVSPropertyOp24
 70
     1
102
RTVSPropertyOp25
 70
     1
102
RTVSPropertyOp26
 70
     1
102
RTVSPropertyOp27
 70
     1
102
RTVSPropertyOp28
 70
     1
102
RTVSPropertyOp29
 70
     1
102
RTVSPropertyOp30
 70
     1
102
RTVSPropertyOp31
 70
     1
102
RTVSPropertyOp32
 70
     1
102
RTVSPropertyOp33
 70
     1
102
RTVSPropertyOp34
 70
     1
102
RTVSPropertyOp35
 70
     1
102
RTVSPropertyOp36
 70
     1
102
RTVSPropertyOp37
 70
     1
102
RTVSPropertyOp38
 70
     1
102
RTVSPropertyOp39
 70
     1
102
RTVSPropertyOp40
 70
     1
102
RTVSPropertyOp41
 70
     1
102
RTVSPropertyOp42
 70
     1
102
RTVSPropertyOp43
 70
     1
102
RTVSPropertyOp44
 70
     1
102
RTVSPropertyOp45
 70
     1
102
RTVSPropertyOp46
 70
     1
102
RTVSPropertyOp47
 70
     1
102
RTVSPropertyOp48
 70
     1
102
RTVSPropertyOp49
 70
     1
102
RTVSPropertyOp50
 70
     1
102
RTVSPropertyOp51
 70
     0
102
RTVSPropertyOp52
 70
     0
102
RTVSPropertyOp53
 70
     1
102
RTVSPropertyOp54
 70
     1
102
RTVSPropertyOp55
 70
     1
102
RTVSPropertyOp56
 70
     1
102
RTVSPropertyOp57
 70
     1
102
RTVSPropertyOp58
 70
     1
102
RTVSPropertyOp59
 70
     1
102
RTVSPropertyOp60
 70
     1
102
RTVSPropertyOp61
 70
     1
102
RTVSPropertyOp62
 70
     1
  0
XRECORD
  5
7D7
102
{ACAD_REACTORS
330
7D6
102
}
330
7D6
100
AcDbXrecord
280
     1
102
RTVSPost2010Prop28
280
     0
102
RTVSPost2010PropOp28
 70
     1
102
RTVSPost2010Prop29
280
     1
102
RTVSPost2010PropOp29
 70
     1
102
RTVSPost2010Prop30
280
     1
102
RTVSPost2010PropOp30
 70
     1
102
RTVSPost2010Prop31
280
     0
102
RTVSPost2010PropOp31
 70
     1
102
RTVSPost2010Prop32
280
     0
102
RTVSPost2010PropOp32
 70
     1
102
RTVSPost2010Prop33
280
     0
102
RTVSPost2010PropOp33
 70
     1
102
RTVSPost2010Prop34
280
     0
102
RTVSPost2010PropOp34
 70
     1
102
RTVSPost2010Prop35
280
     0
102
RTVSPost2010PropOp35
 70
     1
102
RTVSPost2010Prop36
280
     0
102
RTVSPost2010PropOp36
 70
     1
102
RTVSPost2010Prop37
 90
       50
102
RTVSPost2010PropOp37
 70
     1
102
RTVSPost2010Prop38
140
0.0
102
RTVSPost2010PropOp38
 70
     1
102
RTVSPost2010Prop39
140
1.0
102
RTVSPost2010PropOp39
 70
     1
102
RTVSPost2010Prop40
 90
        0
102
RTVSPost2010PropOp40
 70
     1
102
RTVSPost2010Prop41ColorIndex
 90
       18
102
RTVSPost2010Prop41ColorRGB
 90
        0
102
RTVSPost2010PropOp41
 70
     1
102
RTVSPost2010Prop42
 90
       50
102
RTVSPost2010PropOp42
 70
     1
102
RTVSPost2010Prop43
 90
        3
102
RTVSPost2010PropOp43
 70
     1
102
RTVSPost2010Prop44ColorIndex
 90
        5
102
RTVSPost2010Prop44ColorRGB
 90
      255
102
RTVSPost2010PropOp44
 70
     1
102
RTVSPost2010Prop45
280
     0
102
RTVSPost2010PropOp45
 70
     1
102
RTVSPost2010Prop46
 90
       50
102
RTVSPost2010PropOp46
 70
     1
102
RTVSPost2010Prop47
 90
       50
102
RTVSPost2010PropOp47
 70
     1
102
RTVSPost2010Prop48
 90
       50
102
RTVSPost2010PropOp48
 70
     1
102
RTVSPost2010Prop49
280
     0
102
RTVSPost2010PropOp49
 70
     1
102
RTVSPost2010Prop50
 90
       50
102
RTVSPost2010PropOp50
 70
     1
102
RTVSPost2010Prop51ColorIndex
 90
      256
102
RTVSPost2010Prop51ColorRGB
 90
-16777216
102
RTVSPost2010PropOp51
 70
     0
102
RTVSPost2010Prop52
140
1.0
102
RTVSPost2010PropOp52
 70
     0
102
RTVSPost2010Prop53
 90
        2
102
RTVSPost2010PropOp53
 70
     1
102
RTVSPost2010Prop54
  1
strokes_ogs.tif
102
RTVSPost2010PropOp54
 70
     1
102
RTVSPost2010Prop55
280
     0
102
RTVSPost2010PropOp55
 70
     1
102
RTVSPost2010Prop56
140
1.0
102
RTVSPost2010PropOp56
 70
     1
102
RTVSPost2010Prop57
140
1.0
102
RTVSPost2010PropOp57
 70
     1
102
RTVSPropertyOp0
 70
     1
102
RTVSPropertyOp1
 70
     1
102
RTVSPropertyOp2
 70
     1
102
RTVSPropertyOp3
 70
     1
102
RTVSPropertyOp4
 70
     1
102
RTVSPropertyOp5
 70
     1
102
RTVSPropertyOp6
 70
     1
102
RTVSPropertyOp7
 70
     1
102
RTVSPropertyOp8
 70
     1
102
RTVSPropertyOp9
 70
     1
102
RTVSPropertyOp10
 70
     1
102
RTVSPropertyOp11
 70
     1
102
RTVSPropertyOp12
 70
     1
102
RTVSPropertyOp13
 70
     1
102
RTVSPropertyOp14
 70
     1
102
RTVSPropertyOp15
 70
     1
102
RTVSPropertyOp16
 70
     1
102
RTVSPropertyOp17
 70
     1
102
RTVSPropertyOp18
 70
     1
102
RTVSPropertyOp19
 70
     1
102
RTVSPropertyOp20
 70
     1
102
RTVSPropertyOp21
 70
     1
102
RTVSPropertyOp22
 70
     1
102
RTVSPropertyOp23
 70
     1
102
RTVSPropertyOp24
 70
     1
102
RTVSPropertyOp25
 70
     1
102
RTVSPropertyOp26
 70
     1
102
RTVSPropertyOp27
 70
     1
102
RTVSPropertyOp28
 70
     1
102
RTVSPropertyOp29
 70
     1
102
RTVSPropertyOp30
 70
     1
102
RTVSPropertyOp31
 70
     1
102
RTVSPropertyOp32
 70
     1
102
RTVSPropertyOp33
 70
     1
102
RTVSPropertyOp34
 70
     1
102
RTVSPropertyOp35
 70
     1
102
RTVSPropertyOp36
 70
     1
102
RTVSPropertyOp37
 70
     1
102
RTVSPropertyOp38
 70
     1
102
RTVSPropertyOp39
 70
     1
102
RTVSPropertyOp40
 70
     1
102
RTVSPropertyOp41
 70
     1
102
RTVSPropertyOp42
 70
     1
102
RTVSPropertyOp43
 70
     1
102
RTVSPropertyOp44
 70
     1
102
RTVSPropertyOp45
 70
     1
102
RTVSPropertyOp46
 70
     1
102
RTVSPropertyOp47
 70
     1
102
RTVSPropertyOp48
 70
     1
102
RTVSPropertyOp49
 70
     1
102
RTVSPropertyOp50
 70
     1
102
RTVSPropertyOp51
 70
     0
102
RTVSPropertyOp52
 70
     0
102
RTVSPropertyOp53
 70
     1
102
RTVSPropertyOp54
 70
     1
102
RTVSPropertyOp55
 70
     1
102
RTVSPropertyOp56
 70
     1
102
RTVSPropertyOp57
 70
     1
102
RTVSPropertyOp58
 70
     1
102
RTVSPropertyOp59
 70
     1
102
RTVSPropertyOp60
 70
     1
102
RTVSPropertyOp61
 70
     1
102
RTVSPropertyOp62
 70
     1
  0
XRECORD
  5
7CD
102
{ACAD_REACTORS
330
7CC
102
}
330
7CC
100
AcDbXrecord
280
     1
102
RTVSPost2010Prop28
280
     0
102
RTVSPost2010PropOp28
 70
     1
102
RTVSPost2010Prop29
280
     1
102
RTVSPost2010PropOp29
 70
     1
102
RTVSPost2010Prop30
280
     1
102
RTVSPost2010PropOp30
 70
     1
102
RTVSPost2010Prop31
280
     0
102
RTVSPost2010PropOp31
 70
     1
102
RTVSPost2010Prop32
280
     0
102
RTVSPost2010PropOp32
 70
     1
102
RTVSPost2010Prop33
280
     0
102
RTVSPost2010PropOp33
 70
     1
102
RTVSPost2010Prop34
280
     0
102
RTVSPost2010PropOp34
 70
     1
102
RTVSPost2010Prop35
280
     0
102
RTVSPost2010PropOp35
 70
     1
102
RTVSPost2010Prop36
280
     0
102
RTVSPost2010PropOp36
 70
     1
102
RTVSPost2010Prop37
 90
       50
102
RTVSPost2010PropOp37
 70
     1
102
RTVSPost2010Prop38
140
0.0
102
RTVSPost2010PropOp38
 70
     1
102
RTVSPost2010Prop39
140
1.0
102
RTVSPost2010PropOp39
 70
     1
102
RTVSPost2010Prop40
 90
        0
102
RTVSPost2010PropOp40
 70
     1
102
RTVSPost2010Prop41ColorIndex
 90
       18
102
RTVSPost2010Prop41ColorRGB
 90
        0
102
RTVSPost2010PropOp41
 70
     1
102
RTVSPost2010Prop42
 90
       50
102
RTVSPost2010PropOp42
 70
     1
102
RTVSPost2010Prop43
 90
        3
102
RTVSPost2010PropOp43
 70
     1
102
RTVSPost2010Prop44ColorIndex
 90
        5
102
RTVSPost2010Prop44ColorRGB
 90
      255
102
RTVSPost2010PropOp44
 70
     1
102
RTVSPost2010Prop45
280
     0
102
RTVSPost2010PropOp45
 70
     1
102
RTVSPost2010Prop46
 90
       50
102
RTVSPost2010PropOp46
 70
     1
102
RTVSPost2010Prop47
 90
       50
102
RTVSPost2010PropOp47
 70
     1
102
RTVSPost2010Prop48
 90
       50
102
RTVSPost2010PropOp48
 70
     1
102
RTVSPost2010Prop49
280
     0
102
RTVSPost2010PropOp49
 70
     1
102
RTVSPost2010Prop50
 90
       50
102
RTVSPost2010PropOp50
 70
     1
102
RTVSPost2010Prop51ColorIndex
 90
      256
102
RTVSPost2010Prop51ColorRGB
 90
-16777216
102
RTVSPost2010PropOp51
 70
     0
102
RTVSPost2010Prop52
140
1.0
102
RTVSPost2010PropOp52
 70
     0
102
RTVSPost2010Prop53
 90
        2
102
RTVSPost2010PropOp53
 70
     1
102
RTVSPost2010Prop54
  1
strokes_ogs.tif
102
RTVSPost2010PropOp54
 70
     1
102
RTVSPost2010Prop55
280
     0
102
RTVSPost2010PropOp55
 70
     1
102
RTVSPost2010Prop56
140
1.0
102
RTVSPost2010PropOp56
 70
     1
102
RTVSPost2010Prop57
140
1.0
102
RTVSPost2010PropOp57
 70
     1
102
RTVSPropertyOp0
 70
     1
102
RTVSPropertyOp1
 70
     1
102
RTVSPropertyOp2
 70
     1
102
RTVSPropertyOp3
 70
     1
102
RTVSPropertyOp4
 70
     1
102
RTVSPropertyOp5
 70
     1
102
RTVSPropertyOp6
 70
     1
102
RTVSPropertyOp7
 70
     1
102
RTVSPropertyOp8
 70
     1
102
RTVSPropertyOp9
 70
     1
102
RTVSPropertyOp10
 70
     1
102
RTVSPropertyOp11
 70
     1
102
RTVSPropertyOp12
 70
     1
102
RTVSPropertyOp13
 70
     1
102
RTVSPropertyOp14
 70
     1
102
RTVSPropertyOp15
 70
     1
102
RTVSPropertyOp16
 70
     1
102
RTVSPropertyOp17
 70
     1
102
RTVSPropertyOp18
 70
     1
102
RTVSPropertyOp19
 70
     1
102
RTVSPropertyOp20
 70
     1
102
RTVSPropertyOp21
 70
     1
102
RTVSPropertyOp22
 70
     1
102
RTVSPropertyOp23
 70
     1
102
RTVSPropertyOp24
 70
     1
102
RTVSPropertyOp25
 70
     1
102
RTVSPropertyOp26
 70
     1
102
RTVSPropertyOp27
 70
     1
102
RTVSPropertyOp28
 70
     1
102
RTVSPropertyOp29
 70
     1
102
RTVSPropertyOp30
 70
     1
102
RTVSPropertyOp31
 70
     1
102
RTVSPropertyOp32
 70
     1
102
RTVSPropertyOp33
 70
     1
102
RTVSPropertyOp34
 70
     1
102
RTVSPropertyOp35
 70
     1
102
RTVSPropertyOp36
 70
     1
102
RTVSPropertyOp37
 70
     1
102
RTVSPropertyOp38
 70
     1
102
RTVSPropertyOp39
 70
     1
102
RTVSPropertyOp40
 70
     1
102
RTVSPropertyOp41
 70
     1
102
RTVSPropertyOp42
 70
     1
102
RTVSPropertyOp43
 70
     1
102
RTVSPropertyOp44
 70
     1
102
RTVSPropertyOp45
 70
     1
102
RTVSPropertyOp46
 70
     1
102
RTVSPropertyOp47
 70
     1
102
RTVSPropertyOp48
 70
     1
102
RTVSPropertyOp49
 70
     1
102
RTVSPropertyOp50
 70
     1
102
RTVSPropertyOp51
 70
     0
102
RTVSPropertyOp52
 70
     0
102
RTVSPropertyOp53
 70
     1
102
RTVSPropertyOp54
 70
     1
102
RTVSPropertyOp55
 70
     1
102
RTVSPropertyOp56
 70
     1
102
RTVSPropertyOp57
 70
     1
102
RTVSPropertyOp58
 70
     1
102
RTVSPropertyOp59
 70
     1
102
RTVSPropertyOp60
 70
     1
102
RTVSPropertyOp61
 70
     1
102
RTVSPropertyOp62
 70
     1
  0
XRECORD
  5
7C1
102
{ACAD_REACTORS
330
7C0
102
}
330
7C0
100
AcDbXrecord
280
     1
102
RTVSPost2010Prop28
280
     0
102
RTVSPost2010PropOp28
 70
     1
102
RTVSPost2010Prop29
280
     1
102
RTVSPost2010PropOp29
 70
     1
102
RTVSPost2010Prop30
280
     1
102
RTVSPost2010PropOp30
 70
     1
102
RTVSPost2010Prop31
280
     0
102
RTVSPost2010PropOp31
 70
     1
102
RTVSPost2010Prop32
280
     0
102
RTVSPost2010PropOp32
 70
     1
102
RTVSPost2010Prop33
280
     0
102
RTVSPost2010PropOp33
 70
     1
102
RTVSPost2010Prop34
280
     0
102
RTVSPost2010PropOp34
 70
     1
102
RTVSPost2010Prop35
280
     0
102
RTVSPost2010PropOp35
 70
     1
102
RTVSPost2010Prop36
280
     0
102
RTVSPost2010PropOp36
 70
     1
102
RTVSPost2010Prop37
 90
       50
102
RTVSPost2010PropOp37
 70
     1
102
RTVSPost2010Prop38
140
0.0
102
RTVSPost2010PropOp38
 70
     1
102
RTVSPost2010Prop39
140
1.0
102
RTVSPost2010PropOp39
 70
     1
102
RTVSPost2010Prop40
 90
        0
102
RTVSPost2010PropOp40
 70
     1
102
RTVSPost2010Prop41ColorIndex
 90
       18
102
RTVSPost2010Prop41ColorRGB
 90
        0
102
RTVSPost2010PropOp41
 70
     1
102
RTVSPost2010Prop42
 90
       50
102
RTVSPost2010PropOp42
 70
     1
102
RTVSPost2010Prop43
 90
        3
102
RTVSPost2010PropOp43
 70
     1
102
RTVSPost2010Prop44ColorIndex
 90
        5
102
RTVSPost2010Prop44ColorRGB
 90
      255
102
RTVSPost2010PropOp44
 70
     1
102
RTVSPost2010Prop45
280
     0
102
RTVSPost2010PropOp45
 70
     1
102
RTVSPost2010Prop46
 90
       50
102
RTVSPost2010PropOp46
 70
     1
102
RTVSPost2010Prop47
 90
       50
102
RTVSPost2010PropOp47
 70
     1
102
RTVSPost2010Prop48
 90
       50
102
RTVSPost2010PropOp48
 70
     1
102
RTVSPost2010Prop49
280
     0
102
RTVSPost2010PropOp49
 70
     1
102
RTVSPost2010Prop50
 90
       50
102
RTVSPost2010PropOp50
 70
     1
102
RTVSPost2010Prop51ColorIndex
 90
      256
102
RTVSPost2010Prop51ColorRGB
 90
-16777216
102
RTVSPost2010PropOp51
 70
     0
102
RTVSPost2010Prop52
140
1.0
102
RTVSPost2010PropOp52
 70
     0
102
RTVSPost2010Prop53
 90
        2
102
RTVSPost2010PropOp53
 70
     1
102
RTVSPost2010Prop54
  1
strokes_ogs.tif
102
RTVSPost2010PropOp54
 70
     1
102
RTVSPost2010Prop55
280
     0
102
RTVSPost2010PropOp55
 70
     1
102
RTVSPost2010Prop56
140
1.0
102
RTVSPost2010PropOp56
 70
     1
102
RTVSPost2010Prop57
140
1.0
102
RTVSPost2010PropOp57
 70
     1
102
RTVSPropertyOp0
 70
     1
102
RTVSPropertyOp1
 70
     1
102
RTVSPropertyOp2
 70
     1
102
RTVSPropertyOp3
 70
     1
102
RTVSPropertyOp4
 70
     1
102
RTVSPropertyOp5
 70
     1
102
RTVSPropertyOp6
 70
     1
102
RTVSPropertyOp7
 70
     1
102
RTVSPropertyOp8
 70
     1
102
RTVSPropertyOp9
 70
     1
102
RTVSPropertyOp10
 70
     1
102
RTVSPropertyOp11
 70
     1
102
RTVSPropertyOp12
 70
     1
102
RTVSPropertyOp13
 70
     1
102
RTVSPropertyOp14
 70
     1
102
RTVSPropertyOp15
 70
     1
102
RTVSPropertyOp16
 70
     1
102
RTVSPropertyOp17
 70
     1
102
RTVSPropertyOp18
 70
     1
102
RTVSPropertyOp19
 70
     1
102
RTVSPropertyOp20
 70
     1
102
RTVSPropertyOp21
 70
     1
102
RTVSPropertyOp22
 70
     1
102
RTVSPropertyOp23
 70
     1
102
RTVSPropertyOp24
 70
     1
102
RTVSPropertyOp25
 70
     1
102
RTVSPropertyOp26
 70
     1
102
RTVSPropertyOp27
 70
     1
102
RTVSPropertyOp28
 70
     1
102
RTVSPropertyOp29
 70
     1
102
RTVSPropertyOp30
 70
     1
102
RTVSPropertyOp31
 70
     1
102
RTVSPropertyOp32
 70
     1
102
RTVSPropertyOp33
 70
     1
102
RTVSPropertyOp34
 70
     1
102
RTVSPropertyOp35
 70
     1
102
RTVSPropertyOp36
 70
     1
102
RTVSPropertyOp37
 70
     1
102
RTVSPropertyOp38
 70
     1
102
RTVSPropertyOp39
 70
     1
102
RTVSPropertyOp40
 70
     1
102
RTVSPropertyOp41
 70
     1
102
RTVSPropertyOp42
 70
     1
102
RTVSPropertyOp43
 70
     1
102
RTVSPropertyOp44
 70
     1
102
RTVSPropertyOp45
 70
     1
102
RTVSPropertyOp46
 70
     1
102
RTVSPropertyOp47
 70
     1
102
RTVSPropertyOp48
 70
     1
102
RTVSPropertyOp49
 70
     1
102
RTVSPropertyOp50
 70
     1
102
RTVSPropertyOp51
 70
     0
102
RTVSPropertyOp52
 70
     0
102
RTVSPropertyOp53
 70
     1
102
RTVSPropertyOp54
 70
     1
102
RTVSPropertyOp55
 70
     1
102
RTVSPropertyOp56
 70
     1
102
RTVSPropertyOp57
 70
     1
102
RTVSPropertyOp58
 70
     1
102
RTVSPropertyOp59
 70
     1
102
RTVSPropertyOp60
 70
     1
102
RTVSPropertyOp61
 70
     1
102
RTVSPropertyOp62
 70
     1
  0
XRECORD
  5
7D9
102
{ACAD_REACTORS
330
7D8
102
}
330
7D8
100
AcDbXrecord
280
     1
102
RTVSPost2010Prop28
280
     0
102
RTVSPost2010PropOp28
 70
     1
102
RTVSPost2010Prop29
280
     1
102
RTVSPost2010PropOp29
 70
     1
102
RTVSPost2010Prop30
280
     1
102
RTVSPost2010PropOp30
 70
     1
102
RTVSPost2010Prop31
280
     0
102
RTVSPost2010PropOp31
 70
     1
102
RTVSPost2010Prop32
280
     0
102
RTVSPost2010PropOp32
 70
     1
102
RTVSPost2010Prop33
280
     0
102
RTVSPost2010PropOp33
 70
     1
102
RTVSPost2010Prop34
280
     0
102
RTVSPost2010PropOp34
 70
     1
102
RTVSPost2010Prop35
280
     0
102
RTVSPost2010PropOp35
 70
     1
102
RTVSPost2010Prop36
280
     0
102
RTVSPost2010PropOp36
 70
     1
102
RTVSPost2010Prop37
 90
       50
102
RTVSPost2010PropOp37
 70
     1
102
RTVSPost2010Prop38
140
0.0
102
RTVSPost2010PropOp38
 70
     1
102
RTVSPost2010Prop39
140
1.0
102
RTVSPost2010PropOp39
 70
     1
102
RTVSPost2010Prop40
 90
        0
102
RTVSPost2010PropOp40
 70
     1
102
RTVSPost2010Prop41ColorIndex
 90
       18
102
RTVSPost2010Prop41ColorRGB
 90
        0
102
RTVSPost2010PropOp41
 70
     1
102
RTVSPost2010Prop42
 90
       50
102
RTVSPost2010PropOp42
 70
     1
102
RTVSPost2010Prop43
 90
        3
102
RTVSPost2010PropOp43
 70
     1
102
RTVSPost2010Prop44ColorIndex
 90
        5
102
RTVSPost2010Prop44ColorRGB
 90
      255
102
RTVSPost2010PropOp44
 70
     1
102
RTVSPost2010Prop45
280
     0
102
RTVSPost2010PropOp45
 70
     1
102
RTVSPost2010Prop46
 90
       50
102
RTVSPost2010PropOp46
 70
     1
102
RTVSPost2010Prop47
 90
       50
102
RTVSPost2010PropOp47
 70
     1
102
RTVSPost2010Prop48
 90
       50
102
RTVSPost2010PropOp48
 70
     1
102
RTVSPost2010Prop49
280
     0
102
RTVSPost2010PropOp49
 70
     1
102
RTVSPost2010Prop50
 90
       50
102
RTVSPost2010PropOp50
 70
     1
102
RTVSPost2010Prop51ColorIndex
 90
      256
102
RTVSPost2010Prop51ColorRGB
 90
-16777216
102
RTVSPost2010PropOp51
 70
     0
102
RTVSPost2010Prop52
140
1.0
102
RTVSPost2010PropOp52
 70
     0
102
RTVSPost2010Prop53
 90
        2
102
RTVSPost2010PropOp53
 70
     1
102
RTVSPost2010Prop54
  1
strokes_ogs.tif
102
RTVSPost2010PropOp54
 70
     1
102
RTVSPost2010Prop55
280
     0
102
RTVSPost2010PropOp55
 70
     1
102
RTVSPost2010Prop56
140
1.0
102
RTVSPost2010PropOp56
 70
     1
102
RTVSPost2010Prop57
140
1.0
102
RTVSPost2010PropOp57
 70
     1
102
RTVSPropertyOp0
 70
     1
102
RTVSPropertyOp1
 70
     1
102
RTVSPropertyOp2
 70
     1
102
RTVSPropertyOp3
 70
     1
102
RTVSPropertyOp4
 70
     1
102
RTVSPropertyOp5
 70
     1
102
RTVSPropertyOp6
 70
     1
102
RTVSPropertyOp7
 70
     1
102
RTVSPropertyOp8
 70
     1
102
RTVSPropertyOp9
 70
     1
102
RTVSPropertyOp10
 70
     1
102
RTVSPropertyOp11
 70
     1
102
RTVSPropertyOp12
 70
     1
102
RTVSPropertyOp13
 70
     1
102
RTVSPropertyOp14
 70
     1
102
RTVSPropertyOp15
 70
     1
102
RTVSPropertyOp16
 70
     1
102
RTVSPropertyOp17
 70
     1
102
RTVSPropertyOp18
 70
     1
102
RTVSPropertyOp19
 70
     1
102
RTVSPropertyOp20
 70
     1
102
RTVSPropertyOp21
 70
     1
102
RTVSPropertyOp22
 70
     1
102
RTVSPropertyOp23
 70
     1
102
RTVSPropertyOp24
 70
     1
102
RTVSPropertyOp25
 70
     1
102
RTVSPropertyOp26
 70
     1
102
RTVSPropertyOp27
 70
     1
102
RTVSPropertyOp28
 70
     1
102
RTVSPropertyOp29
 70
     1
102
RTVSPropertyOp30
 70
     1
102
RTVSPropertyOp31
 70
     1
102
RTVSPropertyOp32
 70
     1
102
RTVSPropertyOp33
 70
     1
102
RTVSPropertyOp34
 70
     1
102
RTVSPropertyOp35
 70
     1
102
RTVSPropertyOp36
 70
     1
102
RTVSPropertyOp37
 70
     1
102
RTVSPropertyOp38
 70
     1
102
RTVSPropertyOp39
 70
     1
102
RTVSPropertyOp40
 70
     1
102
RTVSPropertyOp41
 70
     1
102
RTVSPropertyOp42
 70
     1
102
RTVSPropertyOp43
 70
     1
102
RTVSPropertyOp44
 70
     1
102
RTVSPropertyOp45
 70
     1
102
RTVSPropertyOp46
 70
     1
102
RTVSPropertyOp47
 70
     1
102
RTVSPropertyOp48
 70
     1
102
RTVSPropertyOp49
 70
     1
102
RTVSPropertyOp50
 70
     1
102
RTVSPropertyOp51
 70
     0
102
RTVSPropertyOp52
 70
     0
102
RTVSPropertyOp53
 70
     1
102
RTVSPropertyOp54
 70
     1
102
RTVSPropertyOp55
 70
     1
102
RTVSPropertyOp56
 70
     1
102
RTVSPropertyOp57
 70
     1
102
RTVSPropertyOp58
 70
     1
102
RTVSPropertyOp59
 70
     1
102
RTVSPropertyOp60
 70
     1
102
RTVSPropertyOp61
 70
     1
102
RTVSPropertyOp62
 70
     1
  0
ENDSEC
  0
EOF
