  0
SECTION
  2
HEADER
  9
$ACADVER
  1
AC1024
  9
$ACADMAINTVER
 70
     6
  9
$DWGCODEPAGE
  3
ANSI_932
  9
$INSBASE
 10
0.0
 20
0.0
 30
0.0
  9
$EXTMIN
 10
1.000000000000000E+20
 20
1.000000000000000E+20
 30
1.000000000000000E+20
  9
$EXTMAX
 10
-1.000000000000000E+20
 20
-1.000000000000000E+20
 30
-1.000000000000000E+20
  9
$LIMMIN
 10
0.0
 20
0.0
  9
$LIMMAX
 10
12.0
 20
9.0
  9
$ORTHOMODE
 70
     0
  9
$REGENMODE
 70
     1
  9
$FILLMODE
 70
     1
  9
$QTEXTMODE
 70
     0
  9
$MIRRTEXT
 70
     1
  9
$LTSCALE
 40
1.0
  9
$ATTMODE
 70
     1
  9
$TEXTSIZE
 40
0.2
  9
$TRACEWID
 40
0.05
  9
$TEXTSTYLE
  7
Standard
  9
$CLAYER
  8
0
  9
$CELTYPE
  6
ByLayer
  9
$CECOLOR
 62
   256
  9
$CELTSCALE
 40
1.0
  9
$DISPSILH
 70
     0
  9
$DIMSCALE
 40
1.0
  9
$DIMASZ
 40
0.18
  9
$DIMEXO
 40
0.0625
  9
$DIMDLI
 40
0.38
  9
$DIMRND
 40
0.0
  9
$DIMDLE
 40
0.0
  9
$DIMEXE
 40
0.18
  9
$DIMTP
 40
0.0
  9
$DIMTM
 40
0.0
  9
$DIMTXT
 40
0.18
  9
$DIMCEN
 40
0.09
  9
$DIMTSZ
 40
0.0
  9
$DIMTOL
 70
     0
  9
$DIMLIM
 70
     0
  9
$DIMTIH
 70
     1
  9
$DIMTOH
 70
     1
  9
$DIMSE1
 70
     0
  9
$DIMSE2
 70
     0
  9
$DIMTAD
 70
     0
  9
$DIMZIN
 70
     0
  9
$DIMBLK
  1

  9
$DIMASO
 70
     1
  9
$DIMSHO
 70
     1
  9
$DIMPOST
  1

  9
$DIMAPOST
  1

  9
$DIMALT
 70
     0
  9
$DIMALTD
 70
     2
  9
$DIMALTF
 40
25.4
  9
$DIMLFAC
 40
1.0
  9
$DIMTOFL
 70
     0
  9
$DIMTVP
 40
0.0
  9
$DIMTIX
 70
     0
  9
$DIMSOXD
 70
     0
  9
$DIMSAH
 70
     0
  9
$DIMBLK1
  1

  9
$DIMBLK2
  1

  9
$DIMSTYLE
  2
Standard
  9
$DIMCLRD
 70
     0
  9
$DIMCLRE
 70
     0
  9
$DIMCLRT
 70
     0
  9
$DIMTFAC
 40
1.0
  9
$DIMGAP
 40
0.09
  9
$DIMJUST
 70
     0
  9
$DIMSD1
 70
     0
  9
$DIMSD2
 70
     0
  9
$DIMTOLJ
 70
     1
  9
$DIMTZIN
 70
     0
  9
$DIMALTZ
 70
     0
  9
$DIMALTTZ
 70
     0
  9
$DIMUPT
 70
     0
  9
$DIMDEC
 70
     4
  9
$DIMTDEC
 70
     4
  9
$DIMALTU
 70
     2
  9
$DIMALTTD
 70
     2
  9
$DIMTXSTY
  7
Standard
  9
$DIMAUNIT
 70
     0
  9
$DIMADEC
 70
     0
  9
$DIMALTRND
 40
0.0
  9
$DIMAZIN
 70
     0
  9
$DIMDSEP
 70
    46
  9
$DIMATFIT
 70
     3
  9
$DIMFRAC
 70
     0
  9
$DIMLDRBLK
  1

  9
$DIMLUNIT
 70
     2
  9
$DIMLWD
 70
    -2
  9
$DIMLWE
 70
    -2
  9
$DIMTMOVE
 70
     0
  9
$DIMFXL
 40
1.0
  9
$DIMFXLON
 70
     0
  9
$DIMJOGANG
 40
0.7853981633974483
  9
$DIMTFILL
 70
     0
  9
$DIMTFILLCLR
 70
     0
  9
$DIMARCSYM
 70
     0
  9
$DIMLTYPE
  6

  9
$DIMLTEX1
  6

  9
$DIMLTEX2
  6

  9
$DIMTXTDIRECTION
 70
     0
  9
$LUNITS
 70
     2
  9
$LUPREC
 70
     4
  9
$SKETCHINC
 40
0.1
  9
$FILLETRAD
 40
0.5
  9
$AUNITS
 70
     0
  9
$AUPREC
 70
     0
  9
$MENU
  1
.
  9
$ELEVATION
 40
0.0
  9
$PELEVATION
 40
0.0
  9
$THICKNESS
 40
0.0
  9
$LIMCHECK
 70
     0
  9
$CHAMFERA
 40
0.5
  9
$CHAMFERB
 40
0.5
  9
$CHAMFERC
 40
1.0
  9
$CHAMFERD
 40
0.0
  9
$SKPOLY
 70
     0
  9
$TDCREATE
 40
2457939.770217141
  9
$TDUCREATE
 40
2457939.395217141
  9
$TDUPDATE
 40
2457939.770222685
  9
$TDUUPDATE
 40
2457939.395222685
  9
$TDINDWG
 40
0.0000000116
  9
$TDUSRTIMER
 40
0.0000000116
  9
$USRTIMER
 70
     1
  9
$ANGBASE
 50
0.0
  9
$ANGDIR
 70
     0
  9
$PDMODE
 70
     0
  9
$PDSIZE
 40
0.0
  9
$PLINEWID
 40
0.0
  9
$SPLFRAME
 70
     0
  9
$SPLINETYPE
 70
     6
  9
$SPLINESEGS
 70
     8
  9
$HANDSEED
  5
12C
  9
$SURFTAB1
 70
     6
  9
$SURFTAB2
 70
     6
  9
$SURFTYPE
 70
     6
  9
$SURFU
 70
     6
  9
$SURFV
 70
     6
  9
$UCSBASE
  2

  9
$UCSNAME
  2

  9
$UCSORG
 10
0.0
 20
0.0
 30
0.0
  9
$UCSXDIR
 10
1.0
 20
0.0
 30
0.0
  9
$UCSYDIR
 10
0.0
 20
1.0
 30
0.0
  9
$UCSORTHOREF
  2

  9
$UCSORTHOVIEW
 70
     0
  9
$UCSORGTOP
 10
0.0
 20
0.0
 30
0.0
  9
$UCSORGBOTTOM
 10
0.0
 20
0.0
 30
0.0
  9
$UCSORGLEFT
 10
0.0
 20
0.0
 30
0.0
  9
$UCSORGRIGHT
 10
0.0
 20
0.0
 30
0.0
  9
$UCSORGFRONT
 10
0.0
 20
0.0
 30
0.0
  9
$UCSORGBACK
 10
0.0
 20
0.0
 30
0.0
  9
$PUCSBASE
  2

  9
$PUCSNAME
  2

  9
$PUCSORG
 10
0.0
 20
0.0
 30
0.0
  9
$PUCSXDIR
 10
1.0
 20
0.0
 30
0.0
  9
$PUCSYDIR
 10
0.0
 20
1.0
 30
0.0
  9
$PUCSORTHOREF
  2

  9
$PUCSORTHOVIEW
 70
     0
  9
$PUCSORGTOP
 10
0.0
 20
0.0
 30
0.0
  9
$PUCSORGBOTTOM
 10
0.0
 20
0.0
 30
0.0
  9
$PUCSORGLEFT
 10
0.0
 20
0.0
 30
0.0
  9
$PUCSORGRIGHT
 10
0.0
 20
0.0
 30
0.0
  9
$PUCSORGFRONT
 10
0.0
 20
0.0
 30
0.0
  9
$PUCSORGBACK
 10
0.0
 20
0.0
 30
0.0
  9
$USERI1
 70
     0
  9
$USERI2
 70
     0
  9
$USERI3
 70
     0
  9
$USERI4
 70
     0
  9
$USERI5
 70
     0
  9
$USERR1
 40
0.0
  9
$USERR2
 40
0.0
  9
$USERR3
 40
0.0
  9
$USERR4
 40
0.0
  9
$USERR5
 40
0.0
  9
$WORLDVIEW
 70
     1
  9
$SHADEDGE
 70
     3
  9
$SHADEDIF
 70
    70
  9
$TILEMODE
 70
     1
  9
$MAXACTVP
 70
    64
  9
$PINSBASE
 10
0.0
 20
0.0
 30
0.0
  9
$PLIMCHECK
 70
     0
  9
$PEXTMIN
 10
1.000000000000000E+20
 20
1.000000000000000E+20
 30
1.000000000000000E+20
  9
$PEXTMAX
 10
-1.000000000000000E+20
 20
-1.000000000000000E+20
 30
-1.000000000000000E+20
  9
$PLIMMIN
 10
0.0
 20
0.0
  9
$PLIMMAX
 10
12.0
 20
9.0
  9
$UNITMODE
 70
     0
  9
$VISRETAIN
 70
     1
  9
$PLINEGEN
 70
     0
  9
$PSLTSCALE
 70
     1
  9
$TREEDEPTH
 70
  3020
  9
$CMLSTYLE
  2
Standard
  9
$CMLJUST
 70
     0
  9
$CMLSCALE
 40
1.0
  9
$PROXYGRAPHICS
 70
     1
  9
$MEASUREMENT
 70
     0
  9
$CELWEIGHT
370
    -1
  9
$ENDCAPS
280
     0
  9
$JOINSTYLE
280
     0
  9
$LWDISPLAY
290
     1
  9
$INSUNITS
 70
     1
  9
$HYPERLINKBASE
  1

  9
$STYLESHEET
  1

  9
$XEDIT
290
     1
  9
$CEPSNTYPE
380
     0
  9
$PSTYLEMODE
290
     1
  9
$FINGERPRINTGUID
  2
{B306C3ED-87DF-4BA5-82FD-DA6AE50E10A7}
  9
$VERSIONGUID
  2
{FAEB1C32-E019-11D5-929B-00C0DF256EC4}
  9
$EXTNAMES
290
     1
  9
$PSVPSCALE
 40
0.0
  9
$OLESTARTUP
290
     0
  9
$SORTENTS
280
   127
  9
$INDEXCTL
280
     0
  9
$HIDETEXT
280
     1
  9
$XCLIPFRAME
280
     2
  9
$HALOGAP
280
     0
  9
$OBSCOLOR
 70
   257
  9
$OBSLTYPE
280
     0
  9
$INTERSECTIONDISPLAY
280
     0
  9
$INTERSECTIONCOLOR
 70
   257
  9
$DIMASSOC
280
     2
  9
$PROJECTNAME
  1

  9
$CAMERADISPLAY
290
     0
  9
$LENSLENGTH
 40
50.0
  9
$CAMERAHEIGHT
 40
0.0
  9
$STEPSPERSEC
 40
2.0
  9
$STEPSIZE
 40
6.0
  9
$3DDWFPREC
 40
2.0
  9
$PSOLWIDTH
 40
0.25
  9
$PSOLHEIGHT
 40
4.0
  9
$LOFTANG1
 40
1.570796326794897
  9
$LOFTANG2
 40
1.570796326794897
  9
$LOFTMAG1
 40
0.0
  9
$LOFTMAG2
 40
0.0
  9
$LOFTPARAM
 70
     7
  9
$LOFTNORMALS
280
     1
  9
$LATITUDE
 40
37.795
  9
$LONGITUDE
 40
-122.394
  9
$NORTHDIRECTION
 40
0.0
  9
$TIMEZONE
 70
 -8000
  9
$LIGHTGLYPHDISPLAY
280
     1
  9
$TILEMODELIGHTSYNCH
280
     1
  9
$CMATERIAL
347
3C
  9
$SOLIDHIST
280
     1
  9
$SHOWHIST
280
     1
  9
$DWFFRAME
280
     2
  9
$DGNFRAME
280
     2
  9
$REALWORLDSCALE
290
     1
  9
$INTERFERECOLOR
 62
   256
  9
$CSHADOW
280
     0
  9
$SHADOWPLANELOCATION
 40
0.0
  0
ENDSEC
  0
SECTION
  2
CLASSES
  0
CLASS
  1
ACDBDICTIONARYWDFLT
  2
AcDbDictionaryWithDefault
  3
ObjectDBX Classes
 90
        0
 91
        4
280
     0
281
     0
  0
CLASS
  1
VISUALSTYLE
  2
AcDbVisualStyle
  3
ObjectDBX Classes
 90
     4095
 91
        4
280
     0
281
     0
  0
CLASS
  1
MATERIAL
  2
AcDbMaterial
  3
ObjectDBX Classes
 90
     1153
 91
        4
280
     0
281
     0
  0
CLASS
  1
SUN
  2
AcDbSun
  3
SCENEOE
 90
     1024
 91
        4
280
     0
281
     0
  0
CLASS
  1
IMAGEDEF
  2
AcDbRasterImageDef
  3
ISM
 90
        0
 91
        4
280
     0
281
     0
  0
CLASS
  1
RASTERVARIABLES
  2
AcDbRasterVariables
  3
ISM
 90
        0
 91
        4
280
     0
281
     0
  0
CLASS
  1
IMAGE
  2
AcDbRasterImage
  3
ISM
 90
      127
 91
        5
280
     0
281
     1
  0
CLASS
  1
IMAGEDEF_REACTOR
  2
AcDbRasterImageDefReactor
  3
ISM
 90
        1
 91
        4
280
     0
281
     0
  0
ENDSEC
  0
SECTION
  2
TABLES
  0
TABLE
  2
VPORT
  5
8
330
0
100
AcDbSymbolTable
 70
     1
  0
VPORT
  5
29
330
8
100
AcDbSymbolTableRecord
100
AcDbViewportTableRecord
  2
*Active
 70
     0
 10
0.0
 20
0.0
 11
1.0
 21
1.0
 12
0.0
 22
0.0
 13
0.0
 23
0.0
 14
0.5
 24
0.5
 15
0.5
 25
0.5
 16
0.0
 26
0.0
 36
1.0
 17
104.9999637101166
 27
148.4996535789421
 37
0.0
 40
296.9999346451226
 41
0.7070706182853429
 42
50.0
 43
0.0
 44
0.0
 50
0.0
 51
0.0
 71
     0
 72
   100
 73
     1
 74
     3
 75
     0
 76
     0
 77
     0
 78
     0
281
     0
 65
     1
110
0.0
120
0.0
130
0.0
111
1.0
121
0.0
131
0.0
112
0.0
122
1.0
132
0.0
 79
     0
146
0.0
 60
     3
 61
     5
292
     1
282
     1
141
0.0
142
0.0
 63
   250
361
3F
  0
ENDTAB
  0
TABLE
  2
LTYPE
  5
5
330
0
100
AcDbSymbolTable
 70
     1
  0
LTYPE
  5
14
330
5
100
AcDbSymbolTableRecord
100
AcDbLinetypeTableRecord
  2
ByBlock
 70
     0
  3

 72
    65
 73
     0
 40
0.0
  0
LTYPE
  5
15
330
5
100
AcDbSymbolTableRecord
100
AcDbLinetypeTableRecord
  2
ByLayer
 70
     0
  3

 72
    65
 73
     0
 40
0.0
  0
LTYPE
  5
16
330
5
100
AcDbSymbolTableRecord
100
AcDbLinetypeTableRecord
  2
Continuous
 70
     0
  3
Solid line
 72
    65
 73
     0
 40
0.0
  0
ENDTAB
  0
TABLE
  2
LAYER
  5
2
330
0
100
AcDbSymbolTable
 70
     2
  0
LAYER
  5
10
330
2
100
AcDbSymbolTableRecord
100
AcDbLayerTableRecord
  2
0
 70
     0
 62
     7
  6
Continuous
370
    -3
390
F
347
3E
  0
LAYER
  5
40
330
2
100
AcDbSymbolTableRecord
100
AcDbLayerTableRecord
  2
_U+30EC_U+30A4_U+30E4_U+30FC 1
 70
     0
 62
     7
  6
Continuous
370
    -3
390
F
347
3E
  0
ENDTAB
  0
TABLE
  2
STYLE
  5
3
330
0
100
AcDbSymbolTable
 70
     1
  0
STYLE
  5
11
330
3
100
AcDbSymbolTableRecord
100
AcDbTextStyleTableRecord
  2
Standard
 70
     0
 40
0.0
 41
1.0
 50
0.0
 71
     0
 42
0.2
  3
txt
  4

  0
ENDTAB
  0
TABLE
  2
VIEW
  5
6
330
0
100
AcDbSymbolTable
 70
     0
  0
ENDTAB
  0
TABLE
  2
UCS
  5
7
330
0
100
AcDbSymbolTable
 70
     0
  0
ENDTAB
  0
TABLE
  2
APPID
  5
9
330
0
100
AcDbSymbolTable
 70
     1
  0
APPID
  5
12
330
9
100
AcDbSymbolTableRecord
100
AcDbRegAppTableRecord
  2
ACAD
 70
     0
  0
ENDTAB
  0
TABLE
  2
DIMSTYLE
  5
A
330
0
100
AcDbSymbolTable
 70
     1
100
AcDbDimStyleTable
  0
DIMSTYLE
105
27
330
A
100
AcDbSymbolTableRecord
100
AcDbDimStyleTableRecord
  2
Standard
 70
     0
178
     0
340
11
  0
ENDTAB
  0
TABLE
  2
BLOCK_RECORD
  5
1
330
0
100
AcDbSymbolTable
 70
    11
  0
BLOCK_RECORD
  5
1F
330
1
100
AcDbSymbolTableRecord
100
AcDbBlockTableRecord
  2
*Model_Space
340
22
 70
     0
280
     1
281
     0
  0
BLOCK_RECORD
  5
1B
330
1
100
AcDbSymbolTableRecord
100
AcDbBlockTableRecord
  2
*Paper_Space
340
1E
 70
     0
280
     1
281
     0
  0
BLOCK_RECORD
  5
23
330
1
100
AcDbSymbolTableRecord
100
AcDbBlockTableRecord
  2
*Paper_Space0
340
26
 70
     0
280
     1
281
     0
  0
BLOCK_RECORD
  5
41
330
1
100
AcDbSymbolTableRecord
100
AcDbBlockTableRecord
  2
block 2
340
0
102
{BLKREFS
331
42
102
}
 70
     0
280
     1
281
     0
  0
BLOCK_RECORD
  5
51
330
1
100
AcDbSymbolTableRecord
100
AcDbBlockTableRecord
  2
block 3
340
0
102
{BLKREFS
331
52
102
}
 70
     0
280
     1
281
     0
  0
BLOCK_RECORD
  5
9A
330
1
100
AcDbSymbolTableRecord
100
AcDbBlockTableRecord
  2
block 4
340
0
102
{BLKREFS
331
9B
102
}
 70
     0
280
     1
281
     0
  0
BLOCK_RECORD
  5
AC
330
1
100
AcDbSymbolTableRecord
100
AcDbBlockTableRecord
  2
block 5
340
0
102
{BLKREFS
331
AD
102
}
 70
     0
280
     1
281
     0
  0
BLOCK_RECORD
  5
C3
330
1
100
AcDbSymbolTableRecord
100
AcDbBlockTableRecord
  2
block 6
340
0
102
{BLKREFS
331
C4
102
}
 70
     0
280
     1
281
     0
  0
BLOCK_RECORD
  5
D8
330
1
100
AcDbSymbolTableRecord
100
AcDbBlockTableRecord
  2
block 7
340
0
102
{BLKREFS
331
D9
102
}
 70
     0
280
     1
281
     0
  0
BLOCK_RECORD
  5
EA
330
1
100
AcDbSymbolTableRecord
100
AcDbBlockTableRecord
  2
block 8
340
0
102
{BLKREFS
331
EB
102
}
 70
     0
280
     1
281
     0
  0
BLOCK_RECORD
  5
FD
330
1
100
AcDbSymbolTableRecord
100
AcDbBlockTableRecord
  2
block 9
340
0
102
{BLKREFS
331
FE
102
}
 70
     0
280
     1
281
     0
  0
BLOCK_RECORD
  5
10F
330
1
100
AcDbSymbolTableRecord
100
AcDbBlockTableRecord
  2
block 10
340
0
102
{BLKREFS
331
110
102
}
 70
     0
280
     1
281
     0
  0
BLOCK_RECORD
  5
121
330
1
100
AcDbSymbolTableRecord
100
AcDbBlockTableRecord
  2
block 11
340
0
102
{BLKREFS
331
122
102
}
 70
     0
280
     1
281
     0
  0
ENDTAB
  0
ENDSEC
  0
SECTION
  2
BLOCKS
  0
BLOCK
  5
20
330
1F
100
AcDbEntity
  8
0
100
AcDbBlockBegin
  2
*Model_Space
 70
     0
 10
0.0
 20
0.0
 30
0.0
  3
*Model_Space
  1

  0
ENDBLK
  5
21
330
1F
100
AcDbEntity
  8
0
100
AcDbBlockEnd
  0
BLOCK
  5
1C
330
1B
100
AcDbEntity
 67
     1
  8
0
100
AcDbBlockBegin
  2
*Paper_Space
 70
     0
 10
0.0
 20
0.0
 30
0.0
  3
*Paper_Space
  1

  0
ENDBLK
  5
1D
330
1B
100
AcDbEntity
 67
     1
  8
0
100
AcDbBlockEnd
  0
BLOCK
  5
24
330
23
100
AcDbEntity
  8
0
100
AcDbBlockBegin
  2
*Paper_Space0
 70
     0
 10
0.0
 20
0.0
 30
0.0
  3
*Paper_Space0
  1

  0
ENDBLK
  5
25
330
23
100
AcDbEntity
  8
0
100
AcDbBlockEnd
  0
BLOCK
  5
43
330
41
100
AcDbEntity
  8
0
100
AcDbBlockBegin
  2
block 2
 70
     0
 10
0.0
 20
0.0
 30
0.0
  3
block 2
  1

  0
IMAGE
  5
48
330
41
100
AcDbEntity
  8
_U+30EC_U+30A4_U+30E4_U+30FC 1
160
                 8
310
0800000000000000
100
AcDbRasterImage
 90
        0
 10
87.44549720036099
 20
174.9401212387752
 30
0.0
 11
0.04395752221123285
 21
0.0
 31
0.0
 12
0.0
 22
-0.04395752221123284
 32
0.0
 13
904.0
 23
542.0
340
46
 70
     3
280
     0
281
    50
282
    50
283
     0
360
49
 71
     1
 91
        2
 14
-0.5
 24
-0.5
 14
903.5
 24
541.5
290
     0
  0
ENDBLK
  5
44
330
41
100
AcDbEntity
  8
0
100
AcDbBlockEnd
  0
BLOCK
  5
53
330
51
100
AcDbEntity
  8
0
100
AcDbBlockBegin
  2
block 3
 70
     0
 10
0.0
 20
0.0
 30
0.0
  3
block 3
  1

  0
POLYLINE
  5
55
330
51
100
AcDbEntity
  8
_U+30EC_U+30A4_U+30E4_U+30FC 1
370
     0
100
AcDb2dPolyline
 66
     1
 10
0.0
 20
0.0
 30
0.0
  0
VERTEX
  5
56
330
55
100
AcDbEntity
  8
_U+30EC_U+30A4_U+30E4_U+30FC 1
370
     0
100
AcDbVertex
100
AcDb2dVertex
 10
96.47939281638341
 20
159.8569067550439
 30
0.0
  0
VERTEX
  5
57
330
55
100
AcDbEntity
  8
_U+30EC_U+30A4_U+30E4_U+30FC 1
370
     0
100
AcDbVertex
100
AcDb2dVertex
 10
96.47939281638341
 20
159.612996205711
 30
0.0
  0
VERTEX
  5
58
330
55
100
AcDbEntity
  8
_U+30EC_U+30A4_U+30E4_U+30FC 1
370
     0
100
AcDbVertex
100
AcDb2dVertex
 10
96.35243053146745
 20
159.612996205711
 30
0.0
  0
VERTEX
  5
59
330
55
100
AcDbEntity
  8
_U+30EC_U+30A4_U+30E4_U+30FC 1
370
     0
100
AcDbVertex
100
AcDb2dVertex
 10
96.35243053146745
 20
159.8569067550439
 30
0.0
  0
VERTEX
  5
5A
330
55
100
AcDbEntity
  8
_U+30EC_U+30A4_U+30E4_U+30FC 1
370
     0
100
AcDbVertex
100
AcDb2dVertex
 10
95.8516953323973
 20
159.8569067550439
 30
0.0
  0
VERTEX
  5
5B
330
55
100
AcDbEntity
  8
_U+30EC_U+30A4_U+30E4_U+30FC 1
370
     0
100
AcDbVertex
100
AcDb2dVertex
 10
95.8516953323973
 20
159.9655975856043
 30
0.0
  0
VERTEX
  5
5C
330
55
100
AcDbEntity
  8
_U+30EC_U+30A4_U+30E4_U+30FC 1
370
     0
100
AcDbVertex
100
AcDb2dVertex
 10
96.36361115267057
 20
160.6425428461118
 30
0.0
  0
VERTEX
  5
5D
330
55
100
AcDbEntity
  8
_U+30EC_U+30A4_U+30E4_U+30FC 1
370
     0
100
AcDbVertex
100
AcDb2dVertex
 10
96.47939281638341
 20
160.6425428461118
 30
0.0
  0
VERTEX
  5
5E
330
55
100
AcDbEntity
  8
_U+30EC_U+30A4_U+30E4_U+30FC 1
370
     0
100
AcDbVertex
100
AcDb2dVertex
 10
96.47939281638341
 20
159.9655975856043
 30
0.0
  0
VERTEX
  5
5F
330
55
100
AcDbEntity
  8
_U+30EC_U+30A4_U+30E4_U+30FC 1
370
     0
100
AcDbVertex
100
AcDb2dVertex
 10
96.63027586808961
 20
159.9655975856043
 30
0.0
  0
VERTEX
  5
60
330
55
100
AcDbEntity
  8
_U+30EC_U+30A4_U+30E4_U+30FC 1
370
     0
100
AcDbVertex
100
AcDb2dVertex
 10
96.63027586808961
 20
159.8569067550439
 30
0.0
  0
VERTEX
  5
61
330
55
100
AcDbEntity
  8
_U+30EC_U+30A4_U+30E4_U+30FC 1
370
     0
100
AcDbVertex
100
AcDb2dVertex
 10
96.47939281638341
 20
159.8569067550439
 30
0.0
  0
SEQEND
  5
62
330
55
100
AcDbEntity
  8
_U+30EC_U+30A4_U+30E4_U+30FC 1
370
     0
  0
POLYLINE
  5
63
330
51
100
AcDbEntity
  8
_U+30EC_U+30A4_U+30E4_U+30FC 1
370
     0
100
AcDb2dPolyline
 66
     1
 10
0.0
 20
0.0
 30
0.0
  0
VERTEX
  5
64
330
63
100
AcDbEntity
  8
_U+30EC_U+30A4_U+30E4_U+30FC 1
370
     0
100
AcDbVertex
100
AcDb2dVertex
 10
96.35243053146745
 20
160.4661539617229
 30
0.0
  0
VERTEX
  5
65
330
63
100
AcDbEntity
  8
_U+30EC_U+30A4_U+30E4_U+30FC 1
370
     0
100
AcDbVertex
100
AcDb2dVertex
 10
95.97294505152618
 20
159.9655975856043
 30
0.0
  0
VERTEX
  5
66
330
63
100
AcDbEntity
  8
_U+30EC_U+30A4_U+30E4_U+30FC 1
370
     0
100
AcDbVertex
100
AcDb2dVertex
 10
96.35243053146745
 20
159.9655975856043
 30
0.0
  0
VERTEX
  5
67
330
63
100
AcDbEntity
  8
_U+30EC_U+30A4_U+30E4_U+30FC 1
370
     0
100
AcDbVertex
100
AcDb2dVertex
 10
96.35243053146745
 20
160.4661539617229
 30
0.0
  0
SEQEND
  5
68
330
63
100
AcDbEntity
  8
_U+30EC_U+30A4_U+30E4_U+30FC 1
370
     0
  0
HATCH
  5
69
330
51
100
AcDbEntity
  8
_U+30EC_U+30A4_U+30E4_U+30FC 1
 62
   250
420
  1842203
100
AcDbHatch
 10
0.0
 20
0.0
 30
0.0
210
0.0
220
0.0
230
1.0
  2
SOLID
 70
     1
 71
     0
 91
        2
 92
        1
 93
       11
 72
     1
 10
96.47939281638341
 20
159.8569067550439
 11
96.47939281638341
 21
159.612996205711
 72
     1
 10
96.47939281638341
 20
159.612996205711
 11
96.35243053146745
 21
159.612996205711
 72
     1
 10
96.35243053146745
 20
159.612996205711
 11
96.35243053146745
 21
159.8569067550439
 72
     1
 10
96.35243053146745
 20
159.8569067550439
 11
95.8516953323973
 21
159.8569067550439
 72
     1
 10
95.8516953323973
 20
159.8569067550439
 11
95.8516953323973
 21
159.9655975856043
 72
     1
 10
95.8516953323973
 20
159.9655975856043
 11
96.36361115267057
 21
160.6425428461118
 72
     1
 10
96.36361115267057
 20
160.6425428461118
 11
96.47939281638341
 21
160.6425428461118
 72
     1
 10
96.47939281638341
 20
160.6425428461118
 11
96.47939281638341
 21
159.9655975856043
 72
     1
 10
96.47939281638341
 20
159.9655975856043
 11
96.63027586808961
 21
159.9655975856043
 72
     1
 10
96.63027586808961
 20
159.9655975856043
 11
96.63027586808961
 21
159.8569067550439
 72
     1
 10
96.63027586808961
 20
159.8569067550439
 11
96.47939281638341
 21
159.8569067550439
 97
        0
 92
        1
 93
        3
 72
     1
 10
96.35243053146745
 20
160.4661539617229
 11
95.97294505152618
 21
159.9655975856043
 72
     1
 10
95.97294505152618
 20
159.9655975856043
 11
96.35243053146745
 21
159.9655975856043
 72
     1
 10
96.35243053146745
 20
159.9655975856043
 11
96.35243053146745
 21
160.4661539617229
 97
        0
 75
     2
 76
     1
 98
        0
  0
SPLINE
  5
6A
330
51
100
AcDbEntity
  8
_U+30EC_U+30A4_U+30E4_U+30FC 1
370
     0
100
AcDbSpline
210
0.0
220
0.0
230
1.0
 70
    11
 71
     3
 72
    29
 73
    25
 74
     0
 42
0.0000000001
 43
0.0000000001
 12
1.0
 22
0.0
 32
0.0
 13
1.0
 23
0.0
 33
0.0
 40
0.0
 40
0.0
 40
0.0
 40
0.0
 40
1.0
 40
1.0
 40
1.0
 40
2.0
 40
2.0
 40
2.0
 40
3.0
 40
3.0
 40
3.0
 40
4.0
 40
4.0
 40
4.0
 40
5.0
 40
5.0
 40
5.0
 40
6.0
 40
6.0
 40
6.0
 40
7.0
 40
7.0
 40
7.0
 40
8.0
 40
8.0
 40
8.0
 40
8.0
 10
97.06659141251383
 20
159.612996205711
 30
0.0
 10
97.06659141251383
 20
159.612996205711
 30
0.0
 10
96.9325711381552
 20
159.612996205711
 30
0.0
 10
96.9325711381552
 20
159.612996205711
 30
0.0
 10
96.9522208598761
 20
159.7864610711646
 30
0.0
 10
97.012863358329
 20
159.9514864748532
 30
0.0
 10
97.08624113423475
 20
160.1094250819349
 30
0.0
 10
97.18650057612136
 20
160.3223305154751
 30
0.0
 10
97.27106386457122
 20
160.4225859072789
 30
0.0
 10
97.36839279370312
 20
160.5367800710322
 30
0.0
 10
97.36839279370312
 20
160.5367800710322
 30
0.0
 10
96.7534305871699
 20
160.5367800710322
 30
0.0
 10
96.7534305871699
 20
160.5367800710322
 30
0.0
 10
96.7534305871699
 20
160.5367800710322
 30
0.0
 10
96.7534305871699
 20
160.6425428461118
 30
0.0
 10
96.7534305871699
 20
160.6425428461118
 30
0.0
 10
96.7534305871699
 20
160.6425428461118
 30
0.0
 10
97.50654056795646
 20
160.6425428461118
 30
0.0
 10
97.50654056795646
 20
160.6425428461118
 30
0.0
 10
97.50654056795646
 20
160.6425428461118
 30
0.0
 10
97.50654056795646
 20
160.5367800710322
 30
0.0
 10
97.50654056795646
 20
160.5367800710322
 30
0.0
 10
97.26675751851828
 20
160.2828859108429
 30
0.0
 10
97.11880252229292
 20
159.9585420302287
 30
0.0
 10
97.06659141251383
 20
159.612996205711
 30
0.0
  0
HATCH
  5
6B
330
51
100
AcDbEntity
  8
_U+30EC_U+30A4_U+30E4_U+30FC 1
 62
   250
420
  1842203
100
AcDbHatch
 10
0.0
 20
0.0
 30
0.0
210
0.0
220
0.0
230
1.0
  2
SOLID
 70
     1
 71
     0
 91
        1
 92
        1
 93
        1
 72
     4
 94
        3
 73
     0
 74
     1
 95
       29
 96
       25
 40
0.0
 40
0.0
 40
0.0
 40
0.0
 40
1.0
 40
1.0
 40
1.0
 40
2.0
 40
2.0
 40
2.0
 40
3.0
 40
3.0
 40
3.0
 40
4.0
 40
4.0
 40
4.0
 40
5.0
 40
5.0
 40
5.0
 40
6.0
 40
6.0
 40
6.0
 40
7.0
 40
7.0
 40
7.0
 40
8.0
 40
8.0
 40
8.0
 40
8.0
 10
97.06659141251383
 20
159.612996205711
 10
97.06659141251383
 20
159.612996205711
 10
96.9325711381552
 20
159.612996205711
 10
96.9325711381552
 20
159.612996205711
 10
96.9522208598761
 20
159.7864610711646
 10
97.012863358329
 20
159.9514864748532
 10
97.08624113423475
 20
160.1094250819349
 10
97.18650057612136
 20
160.3223305154751
 10
97.27106386457122
 20
160.4225859072789
 10
97.36839279370312
 20
160.5367800710322
 10
97.36839279370312
 20
160.5367800710322
 10
96.7534305871699
 20
160.5367800710322
 10
96.7534305871699
 20
160.5367800710322
 10
96.7534305871699
 20
160.5367800710322
 10
96.7534305871699
 20
160.6425428461118
 10
96.7534305871699
 20
160.6425428461118
 10
96.7534305871699
 20
160.6425428461118
 10
97.50654056795646
 20
160.6425428461118
 10
97.50654056795646
 20
160.6425428461118
 10
97.50654056795646
 20
160.6425428461118
 10
97.50654056795646
 20
160.5367800710322
 10
97.50654056795646
 20
160.5367800710322
 10
97.26675751851828
 20
160.2828859108429
 10
97.11880252229292
 20
159.9585420302287
 10
97.06659141251383
 20
159.612996205711
 97
        0
 97
        0
 75
     2
 76
     1
 98
        0
  0
SPLINE
  5
6C
330
51
100
AcDbEntity
  8
_U+30EC_U+30A4_U+30E4_U+30FC 1
370
     0
100
AcDbSpline
210
0.0
220
0.0
230
1.0
 70
    11
 71
     3
 72
    17
 73
    13
 74
     0
 42
0.0000000001
 43
0.0000000001
 12
1.0
 22
0.0
 32
0.0
 13
1.0
 23
0.0
 33
0.0
 40
0.0
 40
0.0
 40
0.0
 40
0.0
 40
1.0
 40
1.0
 40
1.0
 40
2.0
 40
2.0
 40
2.0
 40
3.0
 40
3.0
 40
3.0
 40
4.0
 40
4.0
 40
4.0
 40
4.0
 10
98.0189855548829
 20
159.5847387064319
 30
0.0
 10
97.7030730629425
 20
159.5847387064319
 30
0.0
 10
97.62831945373851
 20
159.8682661991985
 30
0.0
 10
97.62831945373851
 20
160.1276989703576
 30
0.0
 10
97.62831945373851
 20
160.3872728526242
 30
0.0
 10
97.7030730629425
 20
160.6708003453908
 30
0.0
 10
98.0189855548829
 20
160.6708003453908
 30
0.0
 10
98.3348980468233
 20
160.6708003453908
 30
0.0
 10
98.40827582272905
 20
160.3845211860278
 30
0.0
 10
98.40827582272905
 20
160.1276989703576
 30
0.0
 10
98.40827582272905
 20
159.8696420324968
 30
0.0
 10
98.3348980468233
 20
159.5847387064319
 30
0.0
 10
98.0189855548829
 20
159.5847387064319
 30
0.0
  0
SPLINE
  5
6D
330
51
100
AcDbEntity
  8
_U+30EC_U+30A4_U+30E4_U+30FC 1
370
     0
100
AcDbSpline
210
0.0
220
0.0
230
1.0
 70
    11
 71
     3
 72
    17
 73
    13
 74
     0
 42
0.0000000001
 43
0.0000000001
 12
1.0
 22
0.0
 32
0.0
 13
1.0
 23
0.0
 33
0.0
 40
0.0
 40
0.0
 40
0.0
 40
0.0
 40
1.0
 40
1.0
 40
1.0
 40
2.0
 40
2.0
 40
2.0
 40
3.0
 40
3.0
 40
3.0
 40
4.0
 40
4.0
 40
4.0
 40
4.0
 10
98.0189855548829
 20
160.5650416265256
 30
0.0
 10
97.81726722669583
 20
160.5650416265256
 30
0.0
 10
97.76233972809715
 20
160.3590194043546
 30
0.0
 10
97.76233972809715
 20
160.1276989703576
 30
0.0
 10
97.76233972809715
 20
159.8865400876212
 30
0.0
 10
97.8216063932518
 20
159.690505515633
 30
0.0
 10
98.0189855548829
 20
159.690505515633
 30
0.0
 10
98.2179522164735
 20
159.690505515633
 30
0.0
 10
98.27566665944553
 20
159.8880923098038
 30
0.0
 10
98.27566665944553
 20
160.1276989703576
 30
0.0
 10
98.27566665944553
 20
160.3661061864976
 30
0.0
 10
98.2179522164735
 20
160.5650416265256
 30
0.0
 10
98.0189855548829
 20
160.5650416265256
 30
0.0
  0
HATCH
  5
6E
330
51
100
AcDbEntity
  8
_U+30EC_U+30A4_U+30E4_U+30FC 1
 62
   250
420
  1842203
100
AcDbHatch
 10
0.0
 20
0.0
 30
0.0
210
0.0
220
0.0
230
1.0
  2
SOLID
 70
     1
 71
     0
 91
        2
 92
        1
 93
        1
 72
     4
 94
        3
 73
     0
 74
     1
 95
       17
 96
       13
 40
0.0
 40
0.0
 40
0.0
 40
0.0
 40
1.0
 40
1.0
 40
1.0
 40
2.0
 40
2.0
 40
2.0
 40
3.0
 40
3.0
 40
3.0
 40
4.0
 40
4.0
 40
4.0
 40
4.0
 10
98.0189855548829
 20
159.5847387064319
 10
97.7030730629425
 20
159.5847387064319
 10
97.62831945373851
 20
159.8682661991985
 10
97.62831945373851
 20
160.1276989703576
 10
97.62831945373851
 20
160.3872728526242
 10
97.7030730629425
 20
160.6708003453908
 10
98.0189855548829
 20
160.6708003453908
 10
98.3348980468233
 20
160.6708003453908
 10
98.40827582272905
 20
160.3845211860278
 10
98.40827582272905
 20
160.1276989703576
 10
98.40827582272905
 20
159.8696420324968
 10
98.3348980468233
 20
159.5847387064319
 10
98.0189855548829
 20
159.5847387064319
 97
        0
 97
        0
 92
        1
 93
        1
 72
     4
 94
        3
 73
     0
 74
     1
 95
       17
 96
       13
 40
0.0
 40
0.0
 40
0.0
 40
0.0
 40
1.0
 40
1.0
 40
1.0
 40
2.0
 40
2.0
 40
2.0
 40
3.0
 40
3.0
 40
3.0
 40
4.0
 40
4.0
 40
4.0
 40
4.0
 10
98.0189855548829
 20
160.5650416265256
 10
97.81726722669583
 20
160.5650416265256
 10
97.76233972809715
 20
160.3590194043546
 10
97.76233972809715
 20
160.1276989703576
 10
97.76233972809715
 20
159.8865400876212
 10
97.8216063932518
 20
159.690505515633
 10
98.0189855548829
 20
159.690505515633
 10
98.2179522164735
 20
159.690505515633
 10
98.27566665944553
 20
159.8880923098038
 10
98.27566665944553
 20
160.1276989703576
 10
98.27566665944553
 20
160.3661061864976
 10
98.2179522164735
 20
160.5650416265256
 10
98.0189855548829
 20
160.5650416265256
 97
        0
 97
        0
 75
     2
 76
     1
 98
        0
  0
POLYLINE
  5
6F
330
51
100
AcDbEntity
  8
_U+30EC_U+30A4_U+30E4_U+30FC 1
370
     0
100
AcDb2dPolyline
 66
     1
 10
0.0
 20
0.0
 30
0.0
  0
VERTEX
  5
70
330
6F
100
AcDbEntity
  8
_U+30EC_U+30A4_U+30E4_U+30FC 1
370
     0
100
AcDbVertex
100
AcDb2dVertex
 10
98.9986166419171
 20
159.9316603642479
 30
0.0
  0
VERTEX
  5
71
330
6F
100
AcDbEntity
  8
_U+30EC_U+30A4_U+30E4_U+30FC 1
370
     0
100
AcDbVertex
100
AcDb2dVertex
 10
98.9986166419171
 20
160.044478694703
 30
0.0
  0
VERTEX
  5
72
330
6F
100
AcDbEntity
  8
_U+30EC_U+30A4_U+30E4_U+30FC 1
370
     0
100
AcDbVertex
100
AcDb2dVertex
 10
99.31297441075938
 20
160.044478694703
 30
0.0
  0
VERTEX
  5
73
330
6F
100
AcDbEntity
  8
_U+30EC_U+30A4_U+30E4_U+30FC 1
370
     0
100
AcDbVertex
100
AcDb2dVertex
 10
99.31297441075938
 20
159.9316603642479
 30
0.0
  0
VERTEX
  5
74
330
6F
100
AcDbEntity
  8
_U+30EC_U+30A4_U+30E4_U+30FC 1
370
     0
100
AcDbVertex
100
AcDb2dVertex
 10
98.9986166419171
 20
159.9316603642479
 30
0.0
  0
SEQEND
  5
75
330
6F
100
AcDbEntity
  8
_U+30EC_U+30A4_U+30E4_U+30FC 1
370
     0
  0
HATCH
  5
76
330
51
100
AcDbEntity
  8
_U+30EC_U+30A4_U+30E4_U+30FC 1
 62
   250
420
  1842203
100
AcDbHatch
 10
0.0
 20
0.0
 30
0.0
210
0.0
220
0.0
230
1.0
  2
SOLID
 70
     1
 71
     0
 91
        1
 92
        1
 93
        4
 72
     1
 10
98.9986166419171
 20
159.9316603642479
 11
98.9986166419171
 21
160.044478694703
 72
     1
 10
98.9986166419171
 20
160.044478694703
 11
99.31297441075938
 21
160.044478694703
 72
     1
 10
99.31297441075938
 20
160.044478694703
 11
99.31297441075938
 21
159.9316603642479
 72
     1
 10
99.31297441075938
 20
159.9316603642479
 11
98.9986166419171
 21
159.9316603642479
 97
        0
 75
     2
 76
     1
 98
        0
  0
POLYLINE
  5
77
330
51
100
AcDbEntity
  8
_U+30EC_U+30A4_U+30E4_U+30FC 1
370
     0
100
AcDb2dPolyline
 66
     1
 10
0.0
 20
0.0
 30
0.0
  0
VERTEX
  5
78
330
77
100
AcDbEntity
  8
_U+30EC_U+30A4_U+30E4_U+30FC 1
370
     0
100
AcDbVertex
100
AcDb2dVertex
 10
100.5306574352493
 20
159.8569067550439
 30
0.0
  0
VERTEX
  5
79
330
77
100
AcDbEntity
  8
_U+30EC_U+30A4_U+30E4_U+30FC 1
370
     0
100
AcDbVertex
100
AcDb2dVertex
 10
100.5306574352493
 20
159.612996205711
 30
0.0
  0
VERTEX
  5
7A
330
77
100
AcDbEntity
  8
_U+30EC_U+30A4_U+30E4_U+30FC 1
370
     0
100
AcDbVertex
100
AcDb2dVertex
 10
100.4036927162662
 20
159.612996205711
 30
0.0
  0
VERTEX
  5
7B
330
77
100
AcDbEntity
  8
_U+30EC_U+30A4_U+30E4_U+30FC 1
370
     0
100
AcDbVertex
100
AcDb2dVertex
 10
100.4036927162662
 20
159.8569067550439
 30
0.0
  0
VERTEX
  5
7C
330
77
100
AcDbEntity
  8
_U+30EC_U+30A4_U+30E4_U+30FC 1
370
     0
100
AcDbVertex
100
AcDb2dVertex
 10
99.90295995126316
 20
159.8569067550439
 30
0.0
  0
VERTEX
  5
7D
330
77
100
AcDbEntity
  8
_U+30EC_U+30A4_U+30E4_U+30FC 1
370
     0
100
AcDbVertex
100
AcDb2dVertex
 10
99.90295995126316
 20
159.9655975856043
 30
0.0
  0
VERTEX
  5
7E
330
77
100
AcDbEntity
  8
_U+30EC_U+30A4_U+30E4_U+30FC 1
370
     0
100
AcDbVertex
100
AcDb2dVertex
 10
100.4148757715364
 20
160.6425428461118
 30
0.0
  0
VERTEX
  5
7F
330
77
100
AcDbEntity
  8
_U+30EC_U+30A4_U+30E4_U+30FC 1
370
     0
100
AcDbVertex
100
AcDb2dVertex
 10
100.5306574352493
 20
160.6425428461118
 30
0.0
  0
VERTEX
  5
80
330
77
100
AcDbEntity
  8
_U+30EC_U+30A4_U+30E4_U+30FC 1
370
     0
100
AcDbVertex
100
AcDb2dVertex
 10
100.5306574352493
 20
159.9655975856043
 30
0.0
  0
VERTEX
  5
81
330
77
100
AcDbEntity
  8
_U+30EC_U+30A4_U+30E4_U+30FC 1
370
     0
100
AcDbVertex
100
AcDb2dVertex
 10
100.6815404869555
 20
159.9655975856043
 30
0.0
  0
VERTEX
  5
82
330
77
100
AcDbEntity
  8
_U+30EC_U+30A4_U+30E4_U+30FC 1
370
     0
100
AcDbVertex
100
AcDb2dVertex
 10
100.6815404869555
 20
159.8569067550439
 30
0.0
  0
VERTEX
  5
83
330
77
100
AcDbEntity
  8
_U+30EC_U+30A4_U+30E4_U+30FC 1
370
     0
100
AcDbVertex
100
AcDb2dVertex
 10
100.5306574352493
 20
159.8569067550439
 30
0.0
  0
SEQEND
  5
84
330
77
100
AcDbEntity
  8
_U+30EC_U+30A4_U+30E4_U+30FC 1
370
     0
  0
POLYLINE
  5
85
330
51
100
AcDbEntity
  8
_U+30EC_U+30A4_U+30E4_U+30FC 1
370
     0
100
AcDb2dPolyline
 66
     1
 10
0.0
 20
0.0
 30
0.0
  0
VERTEX
  5
86
330
85
100
AcDbEntity
  8
_U+30EC_U+30A4_U+30E4_U+30FC 1
370
     0
100
AcDbVertex
100
AcDb2dVertex
 10
100.4036927162662
 20
160.4661539617229
 30
0.0
  0
VERTEX
  5
87
330
85
100
AcDbEntity
  8
_U+30EC_U+30A4_U+30E4_U+30FC 1
370
     0
100
AcDbVertex
100
AcDb2dVertex
 10
100.024209670392
 20
159.9655975856043
 30
0.0
  0
VERTEX
  5
88
330
85
100
AcDbEntity
  8
_U+30EC_U+30A4_U+30E4_U+30FC 1
370
     0
100
AcDbVertex
100
AcDb2dVertex
 10
100.4036927162662
 20
159.9655975856043
 30
0.0
  0
VERTEX
  5
89
330
85
100
AcDbEntity
  8
_U+30EC_U+30A4_U+30E4_U+30FC 1
370
     0
100
AcDbVertex
100
AcDb2dVertex
 10
100.4036927162662
 20
160.4661539617229
 30
0.0
  0
SEQEND
  5
8A
330
85
100
AcDbEntity
  8
_U+30EC_U+30A4_U+30E4_U+30FC 1
370
     0
  0
HATCH
  5
8B
330
51
100
AcDbEntity
  8
_U+30EC_U+30A4_U+30E4_U+30FC 1
 62
   250
420
  1842203
100
AcDbHatch
 10
0.0
 20
0.0
 30
0.0
210
0.0
220
0.0
230
1.0
  2
SOLID
 70
     1
 71
     0
 91
        2
 92
        1
 93
       11
 72
     1
 10
100.5306574352493
 20
159.8569067550439
 11
100.5306574352493
 21
159.612996205711
 72
     1
 10
100.5306574352493
 20
159.612996205711
 11
100.4036927162662
 21
159.612996205711
 72
     1
 10
100.4036927162662
 20
159.612996205711
 11
100.4036927162662
 21
159.8569067550439
 72
     1
 10
100.4036927162662
 20
159.8569067550439
 11
99.90295995126316
 21
159.8569067550439
 72
     1
 10
99.90295995126316
 20
159.8569067550439
 11
99.90295995126316
 21
159.9655975856043
 72
     1
 10
99.90295995126316
 20
159.9655975856043
 11
100.4148757715364
 21
160.6425428461118
 72
     1
 10
100.4148757715364
 20
160.6425428461118
 11
100.5306574352493
 21
160.6425428461118
 72
     1
 10
100.5306574352493
 20
160.6425428461118
 11
100.5306574352493
 21
159.9655975856043
 72
     1
 10
100.5306574352493
 20
159.9655975856043
 11
100.6815404869555
 21
159.9655975856043
 72
     1
 10
100.6815404869555
 20
159.9655975856043
 11
100.6815404869555
 21
159.8569067550439
 72
     1
 10
100.6815404869555
 20
159.8569067550439
 11
100.5306574352493
 21
159.8569067550439
 97
        0
 92
        1
 93
        3
 72
     1
 10
100.4036927162662
 20
160.4661539617229
 11
100.024209670392
 21
159.9655975856043
 72
     1
 10
100.024209670392
 20
159.9655975856043
 11
100.4036927162662
 21
159.9655975856043
 72
     1
 10
100.4036927162662
 20
159.9655975856043
 11
100.4036927162662
 21
160.4661539617229
 97
        0
 75
     2
 76
     1
 98
        0
  0
SPLINE
  5
8C
330
51
100
AcDbEntity
  8
_U+30EC_U+30A4_U+30E4_U+30FC 1
370
     0
100
AcDbSpline
210
0.0
220
0.0
230
1.0
 70
    11
 71
     3
 72
    35
 73
    31
 74
     0
 42
0.0000000001
 43
0.0000000001
 12
1.0
 22
0.0
 32
0.0
 13
1.0
 23
0.0
 33
0.0
 40
0.0
 40
0.0
 40
0.0
 40
0.0
 40
1.0
 40
1.0
 40
1.0
 40
2.0
 40
2.0
 40
2.0
 40
3.0
 40
3.0
 40
3.0
 40
4.0
 40
4.0
 40
4.0
 40
5.0
 40
5.0
 40
5.0
 40
6.0
 40
6.0
 40
6.0
 40
7.0
 40
7.0
 40
7.0
 40
8.0
 40
8.0
 40
8.0
 40
9.0
 40
9.0
 40
9.0
 40
10.0
 40
10.0
 40
10.0
 40
10.0
 10
101.1488651972552
 20
159.5847387064319
 30
0.0
 10
101.0091652008193
 20
159.5847387064319
 30
0.0
 10
100.8455115938833
 20
159.6510609269621
 30
0.0
 10
100.8074468726322
 20
159.8457277378163
 30
0.0
 10
100.8074468726322
 20
159.8457277378163
 30
0.0
 10
100.9400913136926
 20
159.8457277378163
 30
0.0
 10
100.9400913136926
 20
159.8457277378163
 30
0.0
 10
100.9512743689629
 20
159.8076277378257
 30
0.0
 10
100.9809077015402
 20
159.6948053702905
 30
0.0
 10
101.147489363957
 20
159.6948053702905
 30
0.0
 10
101.419657412569
 20
159.6948053702905
 30
0.0
 10
101.4337685233201
 20
160.0036623068554
 30
0.0
 10
101.4378960232148
 20
160.1080492486367
 30
0.0
 10
101.4111907461183
 20
160.0713603606838
 30
0.0
 10
101.3335090814335
 20
159.964221752306
 30
0.0
 10
101.1445638636027
 20
159.964221752306
 30
0.0
 10
100.9583652021153
 20
159.964221752306
 30
0.0
 10
100.7905840952846
 20
160.0784159160594
 30
0.0
 10
100.7905840952846
 20
160.3027120214482
 30
0.0
 10
100.7905840952846
 20
160.50855784953
 30
0.0
 10
100.9357874249135
 20
160.6708003453908
 30
0.0
 10
101.1657305302642
 20
160.6708003453908
 30
0.0
 10
101.3293815815388
 20
160.6708003453908
 30
0.0
 10
101.4267129679445
 20
160.5903670141095
 30
0.0
 10
101.4788887999467
 20
160.5142416265382
 30
0.0
 10
101.5591810201205
 20
160.3970800745962
 30
0.0
 10
101.5705404642752
 20
160.2208675790918
 30
0.0
 10
101.5705404642752
 20
160.143185914407
 30
0.0
 10
101.5705404642752
 20
159.8203942559754
 30
0.0
 10
101.4308404678392
 20
159.5847387064319
 30
0.0
 10
101.1488651972552
 20
159.5847387064319
 30
0.0
  0
SPLINE
  5
8D
330
51
100
AcDbEntity
  8
_U+30EC_U+30A4_U+30E4_U+30FC 1
370
     0
100
AcDbSpline
210
0.0
220
0.0
230
1.0
 70
    11
 71
     3
 72
    17
 73
    13
 74
     0
 42
0.0000000001
 43
0.0000000001
 12
1.0
 22
0.0
 32
0.0
 13
1.0
 23
0.0
 33
0.0
 40
0.0
 40
0.0
 40
0.0
 40
0.0
 40
1.0
 40
1.0
 40
1.0
 40
2.0
 40
2.0
 40
2.0
 40
3.0
 40
3.0
 40
3.0
 40
4.0
 40
4.0
 40
4.0
 40
4.0
 10
101.1685149189762
 20
160.5650416265256
 30
0.0
 10
101.0260305302989
 20
160.5650416265256
 30
0.0
 10
100.9231932585682
 20
160.474797017058
 30
0.0
 10
100.9231932585682
 20
160.3152749599211
 30
0.0
 10
100.9231932585682
 20
160.2279584122442
 30
0.0
 10
100.9583652021153
 20
160.0699845273856
 30
0.0
 10
101.1586749747103
 20
160.0699845273856
 30
0.0
 10
101.306803804337
 20
160.0699845273856
 30
0.0
 10
101.4167293570881
 20
160.1545453585616
 30
0.0
 10
101.4167293570881
 20
160.3027120214482
 30
0.0
 10
101.4167293570881
 20
160.4014192411522
 30
0.0
 10
101.3660704694916
 20
160.5650416265256
 30
0.0
 10
101.1685149189762
 20
160.5650416265256
 30
0.0
  0
HATCH
  5
8E
330
51
100
AcDbEntity
  8
_U+30EC_U+30A4_U+30E4_U+30FC 1
 62
   250
420
  1842203
100
AcDbHatch
 10
0.0
 20
0.0
 30
0.0
210
0.0
220
0.0
230
1.0
  2
SOLID
 70
     1
 71
     0
 91
        2
 92
        1
 93
        1
 72
     4
 94
        3
 73
     0
 74
     1
 95
       35
 96
       31
 40
0.0
 40
0.0
 40
0.0
 40
0.0
 40
1.0
 40
1.0
 40
1.0
 40
2.0
 40
2.0
 40
2.0
 40
3.0
 40
3.0
 40
3.0
 40
4.0
 40
4.0
 40
4.0
 40
5.0
 40
5.0
 40
5.0
 40
6.0
 40
6.0
 40
6.0
 40
7.0
 40
7.0
 40
7.0
 40
8.0
 40
8.0
 40
8.0
 40
9.0
 40
9.0
 40
9.0
 40
10.0
 40
10.0
 40
10.0
 40
10.0
 10
101.1488651972552
 20
159.5847387064319
 10
101.0091652008193
 20
159.5847387064319
 10
100.8455115938833
 20
159.6510609269621
 10
100.8074468726322
 20
159.8457277378163
 10
100.8074468726322
 20
159.8457277378163
 10
100.9400913136926
 20
159.8457277378163
 10
100.9400913136926
 20
159.8457277378163
 10
100.9512743689629
 20
159.8076277378257
 10
100.9809077015402
 20
159.6948053702905
 10
101.147489363957
 20
159.6948053702905
 10
101.419657412569
 20
159.6948053702905
 10
101.4337685233201
 20
160.0036623068554
 10
101.4378960232148
 20
160.1080492486367
 10
101.4111907461183
 20
160.0713603606838
 10
101.3335090814335
 20
159.964221752306
 10
101.1445638636027
 20
159.964221752306
 10
100.9583652021153
 20
159.964221752306
 10
100.7905840952846
 20
160.0784159160594
 10
100.7905840952846
 20
160.3027120214482
 10
100.7905840952846
 20
160.50855784953
 10
100.9357874249135
 20
160.6708003453908
 10
101.1657305302642
 20
160.6708003453908
 10
101.3293815815388
 20
160.6708003453908
 10
101.4267129679445
 20
160.5903670141095
 10
101.4788887999467
 20
160.5142416265382
 10
101.5591810201205
 20
160.3970800745962
 10
101.5705404642752
 20
160.2208675790918
 10
101.5705404642752
 20
160.143185914407
 10
101.5705404642752
 20
159.8203942559754
 10
101.4308404678392
 20
159.5847387064319
 10
101.1488651972552
 20
159.5847387064319
 97
        0
 97
        0
 92
        1
 93
        1
 72
     4
 94
        3
 73
     0
 74
     1
 95
       17
 96
       13
 40
0.0
 40
0.0
 40
0.0
 40
0.0
 40
1.0
 40
1.0
 40
1.0
 40
2.0
 40
2.0
 40
2.0
 40
3.0
 40
3.0
 40
3.0
 40
4.0
 40
4.0
 40
4.0
 40
4.0
 10
101.1685149189762
 20
160.5650416265256
 10
101.0260305302989
 20
160.5650416265256
 10
100.9231932585682
 20
160.474797017058
 10
100.9231932585682
 20
160.3152749599211
 10
100.9231932585682
 20
160.2279584122442
 10
100.9583652021153
 20
160.0699845273856
 10
101.1586749747103
 20
160.0699845273856
 10
101.306803804337
 20
160.0699845273856
 10
101.4167293570881
 20
160.1545453585616
 10
101.4167293570881
 20
160.3027120214482
 10
101.4167293570881
 20
160.4014192411522
 10
101.3660704694916
 20
160.5650416265256
 10
101.1685149189762
 20
160.5650416265256
 97
        0
 97
        0
 75
     2
 76
     1
 98
        0
  0
SPLINE
  5
8F
330
51
100
AcDbEntity
  8
_U+30EC_U+30A4_U+30E4_U+30FC 1
370
     0
100
AcDbSpline
210
0.0
220
0.0
230
1.0
 70
    11
 71
     3
 72
    29
 73
    25
 74
     0
 42
0.0000000001
 43
0.0000000001
 12
1.0
 22
0.0
 32
0.0
 13
1.0
 23
0.0
 33
0.0
 40
0.0
 40
0.0
 40
0.0
 40
0.0
 40
1.0
 40
1.0
 40
1.0
 40
2.0
 40
2.0
 40
2.0
 40
3.0
 40
3.0
 40
3.0
 40
4.0
 40
4.0
 40
4.0
 40
5.0
 40
5.0
 40
5.0
 40
6.0
 40
6.0
 40
6.0
 40
7.0
 40
7.0
 40
7.0
 40
8.0
 40
8.0
 40
8.0
 40
8.0
 10
102.0702527522601
 20
159.5847387064319
 30
0.0
 10
101.8177318468577
 20
159.5847387064319
 30
0.0
 10
101.6795840726044
 20
159.7187589807905
 30
0.0
 10
101.6795840726044
 20
159.8908439764003
 30
0.0
 10
101.6795840726044
 20
160.0896342491065
 30
0.0
 10
101.8459893461368
 20
160.1502414697825
 30
0.0
 10
101.8954135115425
 20
160.1686917470896
 30
0.0
 10
101.7839710143857
 20
160.2040048017442
 30
0.0
 10
101.7219526826346
 20
160.2956211882958
 30
0.0
 10
101.7219526826346
 20
160.3984911856714
 30
0.0
 10
101.7219526826346
 20
160.5509305154177
 30
0.0
 10
101.8459893461368
 20
160.6708003453908
 30
0.0
 10
102.0702527522601
 20
160.6708003453908
 30
0.0
 10
102.3002260012149
 20
160.6708003453908
 30
0.0
 10
102.4171718315647
 20
160.5452467374829
 30
0.0
 10
102.4171718315647
 20
160.3984911856714
 30
0.0
 10
102.4171718315647
 20
160.2984081326691
 30
0.0
 10
102.3579051664101
 20
160.2053806350424
 30
0.0
 10
102.245086835955
 20
160.1686917470896
 30
0.0
 10
102.2945462791376
 20
160.1502414697825
 30
0.0
 10
102.4595404415949
 20
160.0896342491065
 30
0.0
 10
102.4595404415949
 20
159.8908439764003
 30
0.0
 10
102.4595404415949
 20
159.7146314808958
 30
0.0
 10
102.3170887785625
 20
159.5847387064319
 30
0.0
 10
102.0702527522601
 20
159.5847387064319
 30
0.0
  0
SPLINE
  5
90
330
51
100
AcDbEntity
  8
_U+30EC_U+30A4_U+30E4_U+30FC 1
370
     0
100
AcDbSpline
210
0.0
220
0.0
230
1.0
 70
    11
 71
     3
 72
    17
 73
    13
 74
     0
 42
0.0000000001
 43
0.0000000001
 12
1.0
 22
0.0
 32
0.0
 13
1.0
 23
0.0
 33
0.0
 40
0.0
 40
0.0
 40
0.0
 40
0.0
 40
1.0
 40
1.0
 40
1.0
 40
2.0
 40
2.0
 40
2.0
 40
3.0
 40
3.0
 40
3.0
 40
4.0
 40
4.0
 40
4.0
 40
4.0
 10
102.0702527522601
 20
160.1178564706087
 30
0.0
 10
101.9193671220425
 20
160.1178564706087
 30
0.0
 10
101.8122285136648
 20
160.0332956394327
 30
0.0
 10
101.8122285136648
 20
159.8992753650741
 30
0.0
 10
101.8122285136648
 20
159.7978164787736
 30
0.0
 10
101.8799265674932
 20
159.690505515633
 30
0.0
 10
102.0702527522601
 20
159.690505515633
 30
0.0
 10
102.259233224483
 20
159.690505515633
 30
0.0
 10
102.3268960005345
 20
159.7978164787736
 30
0.0
 10
102.3268960005345
 20
159.8992753650741
 30
0.0
 10
102.3268960005345
 20
160.0262400840572
 30
0.0
 10
102.2295998919056
 20
160.1178564706087
 30
0.0
 10
102.0702527522601
 20
160.1178564706087
 30
0.0
  0
SPLINE
  5
91
330
51
100
AcDbEntity
  8
_U+30EC_U+30A4_U+30E4_U+30FC 1
370
     0
100
AcDbSpline
210
0.0
220
0.0
230
1.0
 70
    11
 71
     3
 72
    17
 73
    13
 74
     0
 42
0.0000000001
 43
0.0000000001
 12
1.0
 22
0.0
 32
0.0
 13
1.0
 23
0.0
 33
0.0
 40
0.0
 40
0.0
 40
0.0
 40
0.0
 40
1.0
 40
1.0
 40
1.0
 40
2.0
 40
2.0
 40
2.0
 40
3.0
 40
3.0
 40
3.0
 40
4.0
 40
4.0
 40
4.0
 40
4.0
 10
102.0702527522601
 20
160.5650416265256
 30
0.0
 10
101.9701671207465
 20
160.5650416265256
 30
0.0
 10
101.8544207348106
 20
160.5283527376457
 30
0.0
 10
101.8544207348106
 20
160.385897019326
 30
0.0
 10
101.8544207348106
 20
160.2434453562936
 30
0.0
 10
101.9715429540448
 20
160.2067564683407
 30
0.0
 10
102.0702527522601
 20
160.2067564683407
 30
0.0
 10
102.164829893558
 20
160.2067564683407
 30
0.0
 10
102.2847037793887
 20
160.2405173008127
 30
0.0
 10
102.2847037793887
 20
160.385897019326
 30
0.0
 10
102.2847037793887
 20
160.5283527376457
 30
0.0
 10
102.1689573934527
 20
160.5650416265256
 30
0.0
 10
102.0702527522601
 20
160.5650416265256
 30
0.0
  0
HATCH
  5
92
330
51
100
AcDbEntity
  8
_U+30EC_U+30A4_U+30E4_U+30FC 1
 62
   250
420
  1842203
100
AcDbHatch
 10
0.0
 20
0.0
 30
0.0
210
0.0
220
0.0
230
1.0
  2
SOLID
 70
     1
 71
     0
 91
        3
 92
        1
 93
        1
 72
     4
 94
        3
 73
     0
 74
     1
 95
       29
 96
       25
 40
0.0
 40
0.0
 40
0.0
 40
0.0
 40
1.0
 40
1.0
 40
1.0
 40
2.0
 40
2.0
 40
2.0
 40
3.0
 40
3.0
 40
3.0
 40
4.0
 40
4.0
 40
4.0
 40
5.0
 40
5.0
 40
5.0
 40
6.0
 40
6.0
 40
6.0
 40
7.0
 40
7.0
 40
7.0
 40
8.0
 40
8.0
 40
8.0
 40
8.0
 10
102.0702527522601
 20
159.5847387064319
 10
101.8177318468577
 20
159.5847387064319
 10
101.6795840726044
 20
159.7187589807905
 10
101.6795840726044
 20
159.8908439764003
 10
101.6795840726044
 20
160.0896342491065
 10
101.8459893461368
 20
160.1502414697825
 10
101.8954135115425
 20
160.1686917470896
 10
101.7839710143857
 20
160.2040048017442
 10
101.7219526826346
 20
160.2956211882958
 10
101.7219526826346
 20
160.3984911856714
 10
101.7219526826346
 20
160.5509305154177
 10
101.8459893461368
 20
160.6708003453908
 10
102.0702527522601
 20
160.6708003453908
 10
102.3002260012149
 20
160.6708003453908
 10
102.4171718315647
 20
160.5452467374829
 10
102.4171718315647
 20
160.3984911856714
 10
102.4171718315647
 20
160.2984081326691
 10
102.3579051664101
 20
160.2053806350424
 10
102.245086835955
 20
160.1686917470896
 10
102.2945462791376
 20
160.1502414697825
 10
102.4595404415949
 20
160.0896342491065
 10
102.4595404415949
 20
159.8908439764003
 10
102.4595404415949
 20
159.7146314808958
 10
102.3170887785625
 20
159.5847387064319
 10
102.0702527522601
 20
159.5847387064319
 97
        0
 97
        0
 92
        1
 93
        1
 72
     4
 94
        3
 73
     0
 74
     1
 95
       17
 96
       13
 40
0.0
 40
0.0
 40
0.0
 40
0.0
 40
1.0
 40
1.0
 40
1.0
 40
2.0
 40
2.0
 40
2.0
 40
3.0
 40
3.0
 40
3.0
 40
4.0
 40
4.0
 40
4.0
 40
4.0
 10
102.0702527522601
 20
160.1178564706087
 10
101.9193671220425
 20
160.1178564706087
 10
101.8122285136648
 20
160.0332956394327
 10
101.8122285136648
 20
159.8992753650741
 10
101.8122285136648
 20
159.7978164787736
 10
101.8799265674932
 20
159.690505515633
 10
102.0702527522601
 20
159.690505515633
 10
102.259233224483
 20
159.690505515633
 10
102.3268960005345
 20
159.7978164787736
 10
102.3268960005345
 20
159.8992753650741
 10
102.3268960005345
 20
160.0262400840572
 10
102.2295998919056
 20
160.1178564706087
 10
102.0702527522601
 20
160.1178564706087
 97
        0
 97
        0
 92
        1
 93
        1
 72
     4
 94
        3
 73
     0
 74
     1
 95
       17
 96
       13
 40
0.0
 40
0.0
 40
0.0
 40
0.0
 40
1.0
 40
1.0
 40
1.0
 40
2.0
 40
2.0
 40
2.0
 40
3.0
 40
3.0
 40
3.0
 40
4.0
 40
4.0
 40
4.0
 40
4.0
 10
102.0702527522601
 20
160.5650416265256
 10
101.9701671207465
 20
160.5650416265256
 10
101.8544207348106
 20
160.5283527376457
 10
101.8544207348106
 20
160.385897019326
 10
101.8544207348106
 20
160.2434453562936
 10
101.9715429540448
 20
160.2067564683407
 10
102.0702527522601
 20
160.2067564683407
 10
102.164829893558
 20
160.2067564683407
 10
102.2847037793887
 20
160.2405173008127
 10
102.2847037793887
 20
160.385897019326
 10
102.2847037793887
 20
160.5283527376457
 10
102.1689573934527
 20
160.5650416265256
 10
102.0702527522601
 20
160.5650416265256
 97
        0
 97
        0
 75
     2
 76
     1
 98
        0
  0
ENDBLK
  5
54
330
51
100
AcDbEntity
  8
0
100
AcDbBlockEnd
  0
BLOCK
  5
9C
330
9A
100
AcDbEntity
  8
0
100
AcDbBlockBegin
  2
block 4
 70
     0
 10
0.0
 20
0.0
 30
0.0
  3
block 4
  1

  0
SPLINE
  5
9E
330
9A
100
AcDbEntity
  8
_U+30EC_U+30A4_U+30E4_U+30FC 1
370
     0
100
AcDbSpline
210
0.0
220
0.0
230
1.0
 70
    11
 71
     3
 72
    26
 73
    22
 74
     0
 42
0.0000000001
 43
0.0000000001
 12
1.0
 22
0.0
 32
0.0
 13
1.0
 23
0.0
 33
0.0
 40
0.0
 40
0.0
 40
0.0
 40
0.0
 40
1.0
 40
1.0
 40
1.0
 40
2.0
 40
2.0
 40
2.0
 40
3.0
 40
3.0
 40
3.0
 40
4.0
 40
4.0
 40
4.0
 40
5.0
 40
5.0
 40
5.0
 40
6.0
 40
6.0
 40
6.0
 40
7.0
 40
7.0
 40
7.0
 40
7.0
 10
88.50294635321285
 20
154.8497907716749
 30
0.0
 10
88.50294635321285
 20
154.8497907716749
 30
0.0
 10
87.74983637242627
 20
154.8497907716749
 30
0.0
 10
87.74983637242627
 20
154.8497907716749
 30
0.0
 10
87.74983637242627
 20
154.8497907716749
 30
0.0
 10
87.74983637242627
 20
154.6327618883229
 30
0.0
 10
87.74983637242627
 20
154.6327618883229
 30
0.0
 10
87.74983637242627
 20
154.6327618883229
 30
0.0
 10
87.65822220030752
 20
154.6327618883229
 30
0.0
 10
87.65822220030752
 20
154.6327618883229
 30
0.0
 10
87.65254026379739
 20
154.7244135526514
 30
0.0
 10
87.64544943064497
 20
154.8386077164047
 30
0.0
 10
87.4733997128121
 20
154.8823521597331
 30
0.0
 10
87.4733997128121
 20
154.8823521597331
 30
0.0
 10
87.4733997128121
 20
154.9796835461389
 30
0.0
 10
87.4733997128121
 20
154.9796835461389
 30
0.0
 10
87.4733997128121
 20
154.9796835461389
 30
0.0
 10
88.50294635321285
 20
154.9796835461389
 30
0.0
 10
88.50294635321285
 20
154.9796835461389
 30
0.0
 10
88.50294635321285
 20
154.9796835461389
 30
0.0
 10
88.50294635321285
 20
154.8497907716749
 30
0.0
 10
88.50294635321285
 20
154.8497907716749
 30
0.0
  0
HATCH
  5
9F
330
9A
100
AcDbEntity
  8
_U+30EC_U+30A4_U+30E4_U+30FC 1
 62
   250
420
  1842203
100
AcDbHatch
 10
0.0
 20
0.0
 30
0.0
210
0.0
220
0.0
230
1.0
  2
SOLID
 70
     1
 71
     0
 91
        1
 92
        1
 93
        1
 72
     4
 94
        3
 73
     0
 74
     1
 95
       26
 96
       22
 40
0.0
 40
0.0
 40
0.0
 40
0.0
 40
1.0
 40
1.0
 40
1.0
 40
2.0
 40
2.0
 40
2.0
 40
3.0
 40
3.0
 40
3.0
 40
4.0
 40
4.0
 40
4.0
 40
5.0
 40
5.0
 40
5.0
 40
6.0
 40
6.0
 40
6.0
 40
7.0
 40
7.0
 40
7.0
 40
7.0
 10
88.50294635321285
 20
154.8497907716749
 10
88.50294635321285
 20
154.8497907716749
 10
87.74983637242627
 20
154.8497907716749
 10
87.74983637242627
 20
154.8497907716749
 10
87.74983637242627
 20
154.8497907716749
 10
87.74983637242627
 20
154.6327618883229
 10
87.74983637242627
 20
154.6327618883229
 10
87.74983637242627
 20
154.6327618883229
 10
87.65822220030752
 20
154.6327618883229
 10
87.65822220030752
 20
154.6327618883229
 10
87.65254026379739
 20
154.7244135526514
 10
87.64544943064497
 20
154.8386077164047
 10
87.4733997128121
 20
154.8823521597331
 10
87.4733997128121
 20
154.8823521597331
 10
87.4733997128121
 20
154.9796835461389
 10
87.4733997128121
 20
154.9796835461389
 10
87.4733997128121
 20
154.9796835461389
 10
88.50294635321285
 20
154.9796835461389
 10
88.50294635321285
 20
154.9796835461389
 10
88.50294635321285
 20
154.9796835461389
 10
88.50294635321285
 20
154.8497907716749
 10
88.50294635321285
 20
154.8497907716749
 97
        0
 97
        0
 75
     2
 76
     1
 98
        0
  0
SPLINE
  5
A0
330
9A
100
AcDbEntity
  8
_U+30EC_U+30A4_U+30E4_U+30FC 1
370
     0
100
AcDbSpline
210
0.0
220
0.0
230
1.0
 70
    11
 71
     3
 72
    50
 73
    46
 74
     0
 42
0.0000000001
 43
0.0000000001
 12
1.0
 22
0.0
 32
0.0
 13
1.0
 23
0.0
 33
0.0
 40
0.0
 40
0.0
 40
0.0
 40
0.0
 40
1.0
 40
1.0
 40
1.0
 40
2.0
 40
2.0
 40
2.0
 40
3.0
 40
3.0
 40
3.0
 40
4.0
 40
4.0
 40
4.0
 40
5.0
 40
5.0
 40
5.0
 40
6.0
 40
6.0
 40
6.0
 40
7.0
 40
7.0
 40
7.0
 40
8.0
 40
8.0
 40
8.0
 40
9.0
 40
9.0
 40
9.0
 40
10.0
 40
10.0
 40
10.0
 40
11.0
 40
11.0
 40
11.0
 40
12.0
 40
12.0
 40
12.0
 40
13.0
 40
13.0
 40
13.0
 40
14.0
 40
14.0
 40
14.0
 40
15.0
 40
15.0
 40
15.0
 40
15.0
 10
88.53120385249193
 20
155.7713521370528
 30
0.0
 10
88.53120385249193
 20
155.5484671427391
 30
0.0
 10
88.41408163325775
 20
155.4285971833651
 30
0.0
 10
88.23783608905151
 20
155.3975840910329
 30
0.0
 10
88.23783608905151
 20
155.3975840910329
 30
0.0
 10
88.23783608905151
 20
155.5316082944506
 30
0.0
 10
88.23783608905151
 20
155.5316082944506
 30
0.0
 10
88.36049469018042
 20
155.5527749611118
 30
0.0
 10
88.42681691071063
 20
155.6542299178186
 30
0.0
 10
88.42681691071063
 20
155.7713521370528
 30
0.0
 10
88.42681691071063
 20
155.9165907444586
 30
0.0
 10
88.33929274627688
 20
156.0448999609889
 30
0.0
 10
88.17429858381956
 20
156.0448999609889
 30
0.0
 10
88.12639136281956
 20
156.0448999609889
 30
0.0
 10
87.93313970108315
 20
156.0280332416155
 30
0.0
 10
87.93313970108315
 20
155.7953057475528
 30
0.0
 10
87.93313970108315
 20
155.7319115825035
 30
0.0
 10
87.94862664513249
 20
155.6316521406169
 30
0.0
 10
88.02630830981734
 20
155.5739729754217
 30
0.0
 10
88.02630830981734
 20
155.5739729754217
 30
0.0
 10
88.02630830981734
 20
155.4413285343613
 30
0.0
 10
88.02630830981734
 20
155.4413285343613
 30
0.0
 10
88.02630830981734
 20
155.4413285343613
 30
0.0
 10
87.4733997128121
 20
155.5329801986898
 30
0.0
 10
87.4733997128121
 20
155.5329801986898
 30
0.0
 10
87.4733997128121
 20
155.5329801986898
 30
0.0
 10
87.4733997128121
 20
156.1210607392421
 30
0.0
 10
87.4733997128121
 20
156.1210607392421
 30
0.0
 10
87.4733997128121
 20
156.1210607392421
 30
0.0
 10
87.57916248789164
 20
156.1210607392421
 30
0.0
 10
87.57916248789164
 20
156.1210607392421
 30
0.0
 10
87.57916248789164
 20
156.1210607392421
 30
0.0
 10
87.57916248789164
 20
155.6444226958466
 30
0.0
 10
87.57916248789164
 20
155.6444226958466
 30
0.0
 10
87.57916248789164
 20
155.6444226958466
 30
0.0
 10
87.8936991465338
 20
155.5922115860675
 30
0.0
 10
87.8936991465338
 20
155.5922115860675
 30
0.0
 10
87.86836970273558
 20
155.6289004740204
 30
0.0
 10
87.82737692600361
 20
155.6881671391751
 30
0.0
 10
87.82737692600361
 20
155.8122038026773
 30
0.0
 10
87.82737692600361
 20
156.0223535195381
 30
0.0
 10
87.94725081183427
 20
156.1775444053999
 30
0.0
 10
88.17292497795688
 20
156.1775444053999
 30
0.0
 10
88.40836663340355
 20
156.1775444053999
 30
0.0
 10
88.53120385249193
 20
155.9899685203644
 30
0.0
 10
88.53120385249193
 20
155.7713521370528
 30
0.0
  0
HATCH
  5
A1
330
9A
100
AcDbEntity
  8
_U+30EC_U+30A4_U+30E4_U+30FC 1
 62
   250
420
  1842203
100
AcDbHatch
 10
0.0
 20
0.0
 30
0.0
210
0.0
220
0.0
230
1.0
  2
SOLID
 70
     1
 71
     0
 91
        1
 92
        1
 93
        1
 72
     4
 94
        3
 73
     0
 74
     1
 95
       50
 96
       46
 40
0.0
 40
0.0
 40
0.0
 40
0.0
 40
1.0
 40
1.0
 40
1.0
 40
2.0
 40
2.0
 40
2.0
 40
3.0
 40
3.0
 40
3.0
 40
4.0
 40
4.0
 40
4.0
 40
5.0
 40
5.0
 40
5.0
 40
6.0
 40
6.0
 40
6.0
 40
7.0
 40
7.0
 40
7.0
 40
8.0
 40
8.0
 40
8.0
 40
9.0
 40
9.0
 40
9.0
 40
10.0
 40
10.0
 40
10.0
 40
11.0
 40
11.0
 40
11.0
 40
12.0
 40
12.0
 40
12.0
 40
13.0
 40
13.0
 40
13.0
 40
14.0
 40
14.0
 40
14.0
 40
15.0
 40
15.0
 40
15.0
 40
15.0
 10
88.53120385249193
 20
155.7713521370528
 10
88.53120385249193
 20
155.5484671427391
 10
88.41408163325775
 20
155.4285971833651
 10
88.23783608905151
 20
155.3975840910329
 10
88.23783608905151
 20
155.3975840910329
 10
88.23783608905151
 20
155.5316082944506
 10
88.23783608905151
 20
155.5316082944506
 10
88.36049469018042
 20
155.5527749611118
 10
88.42681691071063
 20
155.6542299178186
 10
88.42681691071063
 20
155.7713521370528
 10
88.42681691071063
 20
155.9165907444586
 10
88.33929274627688
 20
156.0448999609889
 10
88.17429858381956
 20
156.0448999609889
 10
88.12639136281956
 20
156.0448999609889
 10
87.93313970108315
 20
156.0280332416155
 10
87.93313970108315
 20
155.7953057475528
 10
87.93313970108315
 20
155.7319115825035
 10
87.94862664513249
 20
155.6316521406169
 10
88.02630830981734
 20
155.5739729754217
 10
88.02630830981734
 20
155.5739729754217
 10
88.02630830981734
 20
155.4413285343613
 10
88.02630830981734
 20
155.4413285343613
 10
88.02630830981734
 20
155.4413285343613
 10
87.4733997128121
 20
155.5329801986898
 10
87.4733997128121
 20
155.5329801986898
 10
87.4733997128121
 20
155.5329801986898
 10
87.4733997128121
 20
156.1210607392421
 10
87.4733997128121
 20
156.1210607392421
 10
87.4733997128121
 20
156.1210607392421
 10
87.57916248789164
 20
156.1210607392421
 10
87.57916248789164
 20
156.1210607392421
 10
87.57916248789164
 20
156.1210607392421
 10
87.57916248789164
 20
155.6444226958466
 10
87.57916248789164
 20
155.6444226958466
 10
87.57916248789164
 20
155.6444226958466
 10
87.8936991465338
 20
155.5922115860675
 10
87.8936991465338
 20
155.5922115860675
 10
87.86836970273558
 20
155.6289004740204
 10
87.82737692600361
 20
155.6881671391751
 10
87.82737692600361
 20
155.8122038026773
 10
87.82737692600361
 20
156.0223535195381
 10
87.94725081183427
 20
156.1775444053999
 10
88.17292497795688
 20
156.1775444053999
 10
88.40836663340355
 20
156.1775444053999
 10
88.53120385249193
 20
155.9899685203644
 10
88.53120385249193
 20
155.7713521370528
 97
        0
 97
        0
 75
     2
 76
     1
 98
        0
  0
SPLINE
  5
A2
330
9A
100
AcDbEntity
  8
_U+30EC_U+30A4_U+30E4_U+30FC 1
370
     0
100
AcDbSpline
210
0.0
220
0.0
230
1.0
 70
    11
 71
     3
 72
    32
 73
    28
 74
     0
 42
0.0000000001
 43
0.0000000001
 12
1.0
 22
0.0
 32
0.0
 13
1.0
 23
0.0
 33
0.0
 40
0.0
 40
0.0
 40
0.0
 40
0.0
 40
1.0
 40
1.0
 40
1.0
 40
2.0
 40
2.0
 40
2.0
 40
3.0
 40
3.0
 40
3.0
 40
4.0
 40
4.0
 40
4.0
 40
5.0
 40
5.0
 40
5.0
 40
6.0
 40
6.0
 40
6.0
 40
7.0
 40
7.0
 40
7.0
 40
8.0
 40
8.0
 40
8.0
 40
9.0
 40
9.0
 40
9.0
 40
9.0
 10
88.53120385249193
 20
156.6927723913232
 30
0.0
 10
88.53120385249193
 20
156.3401357336531
 30
0.0
 10
88.1897855278689
 20
156.2865840683526
 30
0.0
 10
88.010821365768
 20
156.2865840683526
 30
0.0
 10
87.64407359734673
 20
156.2865840683526
 30
0.0
 10
87.44514442258324
 20
156.4529893418851
 30
0.0
 10
87.44514442258324
 20
156.7096351686708
 30
0.0
 10
87.44514442258324
 20
156.8422796097312
 30
0.0
 10
87.50730165639163
 20
157.0116129387445
 30
0.0
 10
87.70746776239608
 20
157.0496776599956
 30
0.0
 10
87.70746776239608
 20
157.0496776599956
 30
0.0
 10
87.70746776239608
 20
156.9170332189352
 30
0.0
 10
87.70746776239608
 20
156.9170332189352
 30
0.0
 10
87.66802720784673
 20
156.9072259969632
 30
0.0
 10
87.55521108922235
 20
156.8775926643858
 30
0.0
 10
87.55521108922235
 20
156.7096351686708
 30
0.0
 10
87.55521108922235
 20
156.4374671200588
 30
0.0
 10
87.86406581395649
 20
156.4249082314903
 30
0.0
 10
87.9684527557378
 20
156.4206082942282
 30
0.0
 10
87.89507497983205
 20
156.4727801747135
 30
0.0
 10
87.82600109270538
 20
156.5603082941931
 30
0.0
 10
87.82600109270538
 20
156.7139390574499
 30
0.0
 10
87.82600109270538
 20
156.8986221829977
 30
0.0
 10
87.93881942316048
 20
157.0665444051778
 30
0.0
 10
88.16445831129221
 20
157.0665444051778
 30
0.0
 10
88.3689260788542
 20
157.0665444051778
 30
0.0
 10
88.53120385249193
 20
156.9227129410125
 30
0.0
 10
88.53120385249193
 20
156.6927723913232
 30
0.0
  0
SPLINE
  5
A3
330
9A
100
AcDbEntity
  8
_U+30EC_U+30A4_U+30E4_U+30FC 1
370
     0
100
AcDbSpline
210
0.0
220
0.0
230
1.0
 70
    11
 71
     3
 72
    20
 73
    16
 74
     0
 42
0.0000000001
 43
0.0000000001
 12
1.0
 22
0.0
 32
0.0
 13
1.0
 23
0.0
 33
0.0
 40
0.0
 40
0.0
 40
0.0
 40
0.0
 40
1.0
 40
1.0
 40
1.0
 40
2.0
 40
2.0
 40
2.0
 40
3.0
 40
3.0
 40
3.0
 40
4.0
 40
4.0
 40
4.0
 40
5.0
 40
5.0
 40
5.0
 40
5.0
 10
88.00789331028714
 20
156.8830999607791
 30
0.0
 10
87.95000247843073
 20
156.8395279431347
 30
0.0
 10
87.93038803448668
 20
156.766150167229
 30
0.0
 10
87.93038803448668
 20
156.6957004468041
 30
0.0
 10
87.93038803448668
 20
156.5658076723402
 30
0.0
 10
88.00514164369068
 20
156.4403951755397
 30
0.0
 10
88.16308025077244
 20
156.4403951755397
 30
0.0
 10
88.2674694223777
 20
156.4403951755397
 30
0.0
 10
88.42544107741239
 20
156.4967337852135
 30
0.0
 10
88.42544107741239
 20
156.6886096136516
 30
0.0
 10
88.42544107741239
 20
156.8352240543556
 30
0.0
 10
88.3308613576031
 20
156.9339312740596
 30
0.0
 10
88.1756744171178
 20
156.9339312740596
 30
0.0
 10
88.12914302941603
 20
156.9339312740596
 30
0.0
 10
88.06144720020671
 20
156.9240887743107
 30
0.0
 10
88.00789331028714
 20
156.8830999607791
 30
0.0
  0
HATCH
  5
A4
330
9A
100
AcDbEntity
  8
_U+30EC_U+30A4_U+30E4_U+30FC 1
 62
   250
420
  1842203
100
AcDbHatch
 10
0.0
 20
0.0
 30
0.0
210
0.0
220
0.0
230
1.0
  2
SOLID
 70
     1
 71
     0
 91
        2
 92
        1
 93
        1
 72
     4
 94
        3
 73
     0
 74
     1
 95
       32
 96
       28
 40
0.0
 40
0.0
 40
0.0
 40
0.0
 40
1.0
 40
1.0
 40
1.0
 40
2.0
 40
2.0
 40
2.0
 40
3.0
 40
3.0
 40
3.0
 40
4.0
 40
4.0
 40
4.0
 40
5.0
 40
5.0
 40
5.0
 40
6.0
 40
6.0
 40
6.0
 40
7.0
 40
7.0
 40
7.0
 40
8.0
 40
8.0
 40
8.0
 40
9.0
 40
9.0
 40
9.0
 40
9.0
 10
88.53120385249193
 20
156.6927723913232
 10
88.53120385249193
 20
156.3401357336531
 10
88.1897855278689
 20
156.2865840683526
 10
88.010821365768
 20
156.2865840683526
 10
87.64407359734673
 20
156.2865840683526
 10
87.44514442258324
 20
156.4529893418851
 10
87.44514442258324
 20
156.7096351686708
 10
87.44514442258324
 20
156.8422796097312
 10
87.50730165639163
 20
157.0116129387445
 10
87.70746776239608
 20
157.0496776599956
 10
87.70746776239608
 20
157.0496776599956
 10
87.70746776239608
 20
156.9170332189352
 10
87.70746776239608
 20
156.9170332189352
 10
87.66802720784673
 20
156.9072259969632
 10
87.55521108922235
 20
156.8775926643858
 10
87.55521108922235
 20
156.7096351686708
 10
87.55521108922235
 20
156.4374671200588
 10
87.86406581395649
 20
156.4249082314903
 10
87.9684527557378
 20
156.4206082942282
 10
87.89507497983205
 20
156.4727801747135
 10
87.82600109270538
 20
156.5603082941931
 10
87.82600109270538
 20
156.7139390574499
 10
87.82600109270538
 20
156.8986221829977
 10
87.93881942316048
 20
157.0665444051778
 10
88.16445831129221
 20
157.0665444051778
 10
88.3689260788542
 20
157.0665444051778
 10
88.53120385249193
 20
156.9227129410125
 10
88.53120385249193
 20
156.6927723913232
 97
        0
 97
        0
 92
        1
 93
        1
 72
     4
 94
        3
 73
     0
 74
     1
 95
       20
 96
       16
 40
0.0
 40
0.0
 40
0.0
 40
0.0
 40
1.0
 40
1.0
 40
1.0
 40
2.0
 40
2.0
 40
2.0
 40
3.0
 40
3.0
 40
3.0
 40
4.0
 40
4.0
 40
4.0
 40
5.0
 40
5.0
 40
5.0
 40
5.0
 10
88.00789331028714
 20
156.8830999607791
 10
87.95000247843073
 20
156.8395279431347
 10
87.93038803448668
 20
156.766150167229
 10
87.93038803448668
 20
156.6957004468041
 10
87.93038803448668
 20
156.5658076723402
 10
88.00514164369068
 20
156.4403951755397
 10
88.16308025077244
 20
156.4403951755397
 10
88.2674694223777
 20
156.4403951755397
 10
88.42544107741239
 20
156.4967337852135
 10
88.42544107741239
 20
156.6886096136516
 10
88.42544107741239
 20
156.8352240543556
 10
88.3308613576031
 20
156.9339312740596
 10
88.1756744171178
 20
156.9339312740596
 10
88.12914302941603
 20
156.9339312740596
 10
88.06144720020671
 20
156.9240887743107
 10
88.00789331028714
 20
156.8830999607791
 97
        0
 97
        0
 75
     2
 76
     1
 98
        0
  0
ENDBLK
  5
9D
330
9A
100
AcDbEntity
  8
0
100
AcDbBlockEnd
  0
BLOCK
  5
AE
330
AC
100
AcDbEntity
  8
0
100
AcDbBlockBegin
  2
block 5
 70
     0
 10
0.0
 20
0.0
 30
0.0
  3
block 5
  1

  0
SPLINE
  5
B0
330
AC
100
AcDbEntity
  8
_U+30EC_U+30A4_U+30E4_U+30FC 1
370
     0
100
AcDbSpline
210
0.0
220
0.0
230
1.0
 70
    11
 71
     3
 72
    32
 73
    28
 74
     0
 42
0.0000000001
 43
0.0000000001
 12
1.0
 22
0.0
 32
0.0
 13
1.0
 23
0.0
 33
0.0
 40
0.0
 40
0.0
 40
0.0
 40
0.0
 40
1.0
 40
1.0
 40
1.0
 40
2.0
 40
2.0
 40
2.0
 40
3.0
 40
3.0
 40
3.0
 40
4.0
 40
4.0
 40
4.0
 40
5.0
 40
5.0
 40
5.0
 40
6.0
 40
6.0
 40
6.0
 40
7.0
 40
7.0
 40
7.0
 40
8.0
 40
8.0
 40
8.0
 40
9.0
 40
9.0
 40
9.0
 40
9.0
 10
100.0292191147087
 20
154.4321018934422
 30
0.0
 10
100.0292191147087
 20
154.079465235772
 30
0.0
 10
99.68780079008566
 20
154.0259135704716
 30
0.0
 10
99.50883662798475
 20
154.0259135704716
 30
0.0
 10
99.14208885956349
 20
154.0259135704716
 30
0.0
 10
98.94315747574976
 20
154.192318844004
 30
0.0
 10
98.94315747574976
 20
154.4489646707898
 30
0.0
 10
98.94315747574976
 20
154.5816091118502
 30
0.0
 10
99.00531941969328
 20
154.7509424408634
 30
0.0
 10
99.20548302461283
 20
154.7890110724138
 30
0.0
 10
99.20548302461283
 20
154.7890110724138
 30
0.0
 10
99.20548302461283
 20
154.6563666280025
 30
0.0
 10
99.20548302461283
 20
154.6563666280025
 30
0.0
 10
99.16604247006349
 20
154.6465554990821
 30
0.0
 10
99.05322413960839
 20
154.6169221665048
 30
0.0
 10
99.05322413960839
 20
154.4489646707898
 30
0.0
 10
99.05322413960839
 20
154.1767966221778
 30
0.0
 10
99.36208107617324
 20
154.1642416281257
 30
0.0
 10
99.46643274017767
 20
154.1599338448302
 30
0.0
 10
99.39305496427191
 20
154.2121096768324
 30
0.0
 10
99.32398107714525
 20
154.2996338412662
 30
0.0
 10
99.32398107714525
 20
154.4532685595688
 30
0.0
 10
99.32398107714525
 20
154.6379477215239
 30
0.0
 10
99.43683468537722
 20
154.8058699394621
 30
0.0
 10
99.66247134628742
 20
154.8058699394621
 30
0.0
 10
99.86694134107096
 20
154.8058699394621
 30
0.0
 10
100.0292191147087
 20
154.6620424431315
 30
0.0
 10
100.0292191147087
 20
154.4321018934422
 30
0.0
  0
SPLINE
  5
B1
330
AC
100
AcDbEntity
  8
_U+30EC_U+30A4_U+30E4_U+30FC 1
370
     0
100
AcDbSpline
210
0.0
220
0.0
230
1.0
 70
    11
 71
     3
 72
    20
 73
    16
 74
     0
 42
0.0000000001
 43
0.0000000001
 12
1.0
 22
0.0
 32
0.0
 13
1.0
 23
0.0
 33
0.0
 40
0.0
 40
0.0
 40
0.0
 40
0.0
 40
1.0
 40
1.0
 40
1.0
 40
2.0
 40
2.0
 40
2.0
 40
3.0
 40
3.0
 40
3.0
 40
4.0
 40
4.0
 40
4.0
 40
5.0
 40
5.0
 40
5.0
 40
5.0
 10
99.50591108623475
 20
154.6224254996977
 30
0.0
 10
99.44801774064747
 20
154.5788574452537
 30
0.0
 10
99.42836801892656
 20
154.5054796693479
 30
0.0
 10
99.42836801892656
 20
154.435029948923
 30
0.0
 10
99.42836801892656
 20
154.3051371744591
 30
0.0
 10
99.50315690590742
 20
154.1797246776586
 30
0.0
 10
99.66109551298919
 20
154.1797246776586
 30
0.0
 10
99.76548245477049
 20
154.1797246776586
 30
0.0
 10
99.92345633962914
 20
154.2360632873324
 30
0.0
 10
99.92345633962914
 20
154.4279391157706
 30
0.0
 10
99.92345633962914
 20
154.5745535564746
 30
0.0
 10
99.82887661981984
 20
154.6732254984017
 30
0.0
 10
99.67368967933454
 20
154.6732254984017
 30
0.0
 10
99.62715829163277
 20
154.6732254984017
 30
0.0
 10
99.55946023780434
 20
154.6634221835564
 30
0.0
 10
99.50591108623475
 20
154.6224254996977
 30
0.0
  0
HATCH
  5
B2
330
AC
100
AcDbEntity
  8
_U+30EC_U+30A4_U+30E4_U+30FC 1
 62
   250
420
  1842203
100
AcDbHatch
 10
0.0
 20
0.0
 30
0.0
210
0.0
220
0.0
230
1.0
  2
SOLID
 70
     1
 71
     0
 91
        2
 92
        1
 93
        1
 72
     4
 94
        3
 73
     0
 74
     1
 95
       32
 96
       28
 40
0.0
 40
0.0
 40
0.0
 40
0.0
 40
1.0
 40
1.0
 40
1.0
 40
2.0
 40
2.0
 40
2.0
 40
3.0
 40
3.0
 40
3.0
 40
4.0
 40
4.0
 40
4.0
 40
5.0
 40
5.0
 40
5.0
 40
6.0
 40
6.0
 40
6.0
 40
7.0
 40
7.0
 40
7.0
 40
8.0
 40
8.0
 40
8.0
 40
9.0
 40
9.0
 40
9.0
 40
9.0
 10
100.0292191147087
 20
154.4321018934422
 10
100.0292191147087
 20
154.079465235772
 10
99.68780079008566
 20
154.0259135704716
 10
99.50883662798475
 20
154.0259135704716
 10
99.14208885956349
 20
154.0259135704716
 10
98.94315747574976
 20
154.192318844004
 10
98.94315747574976
 20
154.4489646707898
 10
98.94315747574976
 20
154.5816091118502
 10
99.00531941969328
 20
154.7509424408634
 10
99.20548302461283
 20
154.7890110724138
 10
99.20548302461283
 20
154.7890110724138
 10
99.20548302461283
 20
154.6563666280025
 10
99.20548302461283
 20
154.6563666280025
 10
99.16604247006349
 20
154.6465554990821
 10
99.05322413960839
 20
154.6169221665048
 10
99.05322413960839
 20
154.4489646707898
 10
99.05322413960839
 20
154.1767966221778
 10
99.36208107617324
 20
154.1642416281257
 10
99.46643274017767
 20
154.1599338448302
 10
99.39305496427191
 20
154.2121096768324
 10
99.32398107714525
 20
154.2996338412662
 10
99.32398107714525
 20
154.4532685595688
 10
99.32398107714525
 20
154.6379477215239
 10
99.43683468537722
 20
154.8058699394621
 10
99.66247134628742
 20
154.8058699394621
 10
99.86694134107096
 20
154.8058699394621
 10
100.0292191147087
 20
154.6620424431315
 10
100.0292191147087
 20
154.4321018934422
 97
        0
 97
        0
 92
        1
 93
        1
 72
     4
 94
        3
 73
     0
 74
     1
 95
       20
 96
       16
 40
0.0
 40
0.0
 40
0.0
 40
0.0
 40
1.0
 40
1.0
 40
1.0
 40
2.0
 40
2.0
 40
2.0
 40
3.0
 40
3.0
 40
3.0
 40
4.0
 40
4.0
 40
4.0
 40
5.0
 40
5.0
 40
5.0
 40
5.0
 10
99.50591108623475
 20
154.6224254996977
 10
99.44801774064747
 20
154.5788574452537
 10
99.42836801892656
 20
154.5054796693479
 10
99.42836801892656
 20
154.435029948923
 10
99.42836801892656
 20
154.3051371744591
 10
99.50315690590742
 20
154.1797246776586
 10
99.66109551298919
 20
154.1797246776586
 10
99.76548245477049
 20
154.1797246776586
 10
99.92345633962914
 20
154.2360632873324
 10
99.92345633962914
 20
154.4279391157706
 10
99.92345633962914
 20
154.5745535564746
 10
99.82887661981984
 20
154.6732254984017
 10
99.67368967933454
 20
154.6732254984017
 10
99.62715829163277
 20
154.6732254984017
 10
99.55946023780434
 20
154.6634221835564
 10
99.50591108623475
 20
154.6224254996977
 97
        0
 97
        0
 75
     2
 76
     1
 98
        0
  0
SPLINE
  5
B3
330
AC
100
AcDbEntity
  8
_U+30EC_U+30A4_U+30E4_U+30FC 1
370
     0
100
AcDbSpline
210
0.0
220
0.0
230
1.0
 70
    11
 71
     3
 72
    26
 73
    22
 74
     0
 42
0.0000000001
 43
0.0000000001
 12
1.0
 22
0.0
 32
0.0
 13
1.0
 23
0.0
 33
0.0
 40
0.0
 40
0.0
 40
0.0
 40
0.0
 40
1.0
 40
1.0
 40
1.0
 40
2.0
 40
2.0
 40
2.0
 40
3.0
 40
3.0
 40
3.0
 40
4.0
 40
4.0
 40
4.0
 40
5.0
 40
5.0
 40
5.0
 40
6.0
 40
6.0
 40
6.0
 40
7.0
 40
7.0
 40
7.0
 40
7.0
 10
100.0009616154296
 20
155.1505690973348
 30
0.0
 10
100.0009616154296
 20
155.1505690973348
 30
0.0
 10
99.24785163464303
 20
155.1505690973348
 30
0.0
 10
99.24785163464303
 20
155.1505690973348
 30
0.0
 10
99.24785163464303
 20
155.1505690973348
 30
0.0
 10
99.24785163464303
 20
154.9333638250984
 30
0.0
 10
99.24785163464303
 20
154.9333638250984
 30
0.0
 10
99.24785163464303
 20
154.9333638250984
 30
0.0
 10
99.15623524809146
 20
154.9333638250984
 30
0.0
 10
99.15623524809146
 20
154.9333638250984
 30
0.0
 10
99.15052024823727
 20
155.0249802116499
 30
0.0
 10
99.14346469286171
 20
155.1391743754033
 30
0.0
 10
98.97137969725198
 20
155.1829540965086
 30
0.0
 10
98.97137969725198
 20
155.1829540965086
 30
0.0
 10
98.97137969725198
 20
155.2802854829143
 30
0.0
 10
98.97137969725198
 20
155.2802854829143
 30
0.0
 10
98.97137969725198
 20
155.2802854829143
 30
0.0
 10
100.0009616154296
 20
155.2802854829143
 30
0.0
 10
100.0009616154296
 20
155.2802854829143
 30
0.0
 10
100.0009616154296
 20
155.2802854829143
 30
0.0
 10
100.0009616154296
 20
155.1505690973348
 30
0.0
 10
100.0009616154296
 20
155.1505690973348
 30
0.0
  0
HATCH
  5
B4
330
AC
100
AcDbEntity
  8
_U+30EC_U+30A4_U+30E4_U+30FC 1
 62
   250
420
  1842203
100
AcDbHatch
 10
0.0
 20
0.0
 30
0.0
210
0.0
220
0.0
230
1.0
  2
SOLID
 70
     1
 71
     0
 91
        1
 92
        1
 93
        1
 72
     4
 94
        3
 73
     0
 74
     1
 95
       26
 96
       22
 40
0.0
 40
0.0
 40
0.0
 40
0.0
 40
1.0
 40
1.0
 40
1.0
 40
2.0
 40
2.0
 40
2.0
 40
3.0
 40
3.0
 40
3.0
 40
4.0
 40
4.0
 40
4.0
 40
5.0
 40
5.0
 40
5.0
 40
6.0
 40
6.0
 40
6.0
 40
7.0
 40
7.0
 40
7.0
 40
7.0
 10
100.0009616154296
 20
155.1505690973348
 10
100.0009616154296
 20
155.1505690973348
 10
99.24785163464303
 20
155.1505690973348
 10
99.24785163464303
 20
155.1505690973348
 10
99.24785163464303
 20
155.1505690973348
 10
99.24785163464303
 20
154.9333638250984
 10
99.24785163464303
 20
154.9333638250984
 10
99.24785163464303
 20
154.9333638250984
 10
99.15623524809146
 20
154.9333638250984
 10
99.15623524809146
 20
154.9333638250984
 10
99.15052024823727
 20
155.0249802116499
 10
99.14346469286171
 20
155.1391743754033
 10
98.97137969725198
 20
155.1829540965086
 10
98.97137969725198
 20
155.1829540965086
 10
98.97137969725198
 20
155.2802854829143
 10
98.97137969725198
 20
155.2802854829143
 10
98.97137969725198
 20
155.2802854829143
 10
100.0009616154296
 20
155.2802854829143
 10
100.0009616154296
 20
155.2802854829143
 10
100.0009616154296
 20
155.2802854829143
 10
100.0009616154296
 20
155.1505690973348
 10
100.0009616154296
 20
155.1505690973348
 97
        0
 97
        0
 75
     2
 76
     1
 98
        0
  0
ENDBLK
  5
AF
330
AC
100
AcDbEntity
  8
0
100
AcDbBlockEnd
  0
BLOCK
  5
C5
330
C3
100
AcDbEntity
  8
0
100
AcDbBlockBegin
  2
block 6
 70
     0
 10
0.0
 20
0.0
 30
0.0
  3
block 6
  1

  0
SPLINE
  5
C7
330
C3
100
AcDbEntity
  8
_U+30EC_U+30A4_U+30E4_U+30FC 1
370
     0
100
AcDbSpline
210
0.0
220
0.0
230
1.0
 70
    11
 71
     3
 72
    29
 73
    25
 74
     0
 42
0.0000000001
 43
0.0000000001
 12
1.0
 22
0.0
 32
0.0
 13
1.0
 23
0.0
 33
0.0
 40
0.0
 40
0.0
 40
0.0
 40
0.0
 40
1.0
 40
1.0
 40
1.0
 40
2.0
 40
2.0
 40
2.0
 40
3.0
 40
3.0
 40
3.0
 40
4.0
 40
4.0
 40
4.0
 40
5.0
 40
5.0
 40
5.0
 40
6.0
 40
6.0
 40
6.0
 40
7.0
 40
7.0
 40
7.0
 40
8.0
 40
8.0
 40
8.0
 40
8.0
 10
110.8790052267965
 20
154.750766051979
 30
0.0
 10
110.8790052267965
 20
154.4983888361955
 30
0.0
 10
110.7446674524459
 20
154.3600999508347
 30
0.0
 10
110.5727588457206
 20
154.3600999508347
 30
0.0
 10
110.3739685730144
 20
154.3600999508347
 30
0.0
 10
110.3133260745615
 20
154.5264699465902
 30
0.0
 10
110.2947346861469
 20
154.5759332946892
 30
0.0
 10
110.2595980203766
 20
154.464486892616
 30
0.0
 10
110.1679463560482
 20
154.4024685608649
 30
0.0
 10
110.0652880253339
 20
154.4024685608649
 30
0.0
 10
109.9126763625607
 20
154.4024685608649
 30
0.0
 10
109.7927671989532
 20
154.5264699465902
 30
0.0
 10
109.7927671989532
 20
154.750766051979
 30
0.0
 10
109.7927671989532
 20
154.9807066016683
 30
0.0
 10
109.9185324735224
 20
155.0976916278922
 30
0.0
 10
110.0652880253339
 20
155.0976916278922
 30
0.0
 10
110.1651946894517
 20
155.0976916278922
 30
0.0
 10
110.2582249724353
 20
155.0384249612405
 30
0.0
 10
110.2947346861469
 20
154.9256027141853
 30
0.0
 10
110.3133260745615
 20
154.975026879591
 30
0.0
 10
110.3739685730144
 20
155.1400563198252
 30
0.0
 10
110.5727588457206
 20
155.1400563198252
 30
0.0
 10
110.7487949523406
 20
155.1400563198252
 30
0.0
 10
110.8790052267965
 20
154.9976046567928
 30
0.0
 10
110.8790052267965
 20
154.750766051979
 30
0.0
  0
SPLINE
  5
C8
330
C3
100
AcDbEntity
  8
_U+30EC_U+30A4_U+30E4_U+30FC 1
370
     0
100
AcDbSpline
210
0.0
220
0.0
230
1.0
 70
    11
 71
     3
 72
    17
 73
    13
 74
     0
 42
0.0000000001
 43
0.0000000001
 12
1.0
 22
0.0
 32
0.0
 13
1.0
 23
0.0
 33
0.0
 40
0.0
 40
0.0
 40
0.0
 40
0.0
 40
1.0
 40
1.0
 40
1.0
 40
2.0
 40
2.0
 40
2.0
 40
3.0
 40
3.0
 40
3.0
 40
4.0
 40
4.0
 40
4.0
 40
4.0
 10
109.8985299740327
 20
154.750766051979
 30
0.0
 10
109.8985299740327
 20
154.6506829989768
 30
0.0
 10
109.9350805280719
 20
154.5349366130409
 30
0.0
 10
110.0777058027949
 20
154.5349366130409
 30
0.0
 10
110.2202985769348
 20
154.5349366130409
 30
0.0
 10
110.2568463537802
 20
154.6520588322751
 30
0.0
 10
110.2568463537802
 20
154.750766051979
 30
0.0
 10
110.2568463537802
 20
154.8453104940115
 30
0.0
 10
110.2230855213081
 20
154.965219657619
 30
0.0
 10
110.0777058027949
 20
154.965219657619
 30
0.0
 10
109.9350805280719
 20
154.965219657619
 30
0.0
 10
109.8985299740327
 20
154.849473271683
 30
0.0
 10
109.8985299740327
 20
154.750766051979
 30
0.0
  0
SPLINE
  5
C9
330
C3
100
AcDbEntity
  8
_U+30EC_U+30A4_U+30E4_U+30FC 1
370
     0
100
AcDbSpline
210
0.0
220
0.0
230
1.0
 70
    11
 71
     3
 72
    17
 73
    13
 74
     0
 42
0.0000000001
 43
0.0000000001
 12
1.0
 22
0.0
 32
0.0
 13
1.0
 23
0.0
 33
0.0
 40
0.0
 40
0.0
 40
0.0
 40
0.0
 40
1.0
 40
1.0
 40
1.0
 40
2.0
 40
2.0
 40
2.0
 40
3.0
 40
3.0
 40
3.0
 40
4.0
 40
4.0
 40
4.0
 40
4.0
 10
110.3457138613022
 20
154.750766051979
 30
0.0
 10
110.3457138613022
 20
154.599847722496
 30
0.0
 10
110.4304835715725
 20
154.4927091141182
 30
0.0
 10
110.5641510681624
 20
154.4927091141182
 30
0.0
 10
110.6657510655704
 20
154.4927091141182
 30
0.0
 10
110.7729277500847
 20
154.5604110724709
 30
0.0
 10
110.7729277500847
 20
154.750766051979
 30
0.0
 10
110.7729277500847
 20
154.9397138249364
 30
0.0
 10
110.6657510655704
 20
155.0074118787648
 30
0.0
 10
110.5641510681624
 20
155.0074118787648
 30
0.0
 10
110.4373627380637
 20
155.0074118787648
 30
0.0
 10
110.3457138613022
 20
154.910080492359
 30
0.0
 10
110.3457138613022
 20
154.750766051979
 30
0.0
  0
HATCH
  5
CA
330
C3
100
AcDbEntity
  8
_U+30EC_U+30A4_U+30E4_U+30FC 1
 62
   250
420
  1842203
100
AcDbHatch
 10
0.0
 20
0.0
 30
0.0
210
0.0
220
0.0
230
1.0
  2
SOLID
 70
     1
 71
     0
 91
        3
 92
        1
 93
        1
 72
     4
 94
        3
 73
     0
 74
     1
 95
       29
 96
       25
 40
0.0
 40
0.0
 40
0.0
 40
0.0
 40
1.0
 40
1.0
 40
1.0
 40
2.0
 40
2.0
 40
2.0
 40
3.0
 40
3.0
 40
3.0
 40
4.0
 40
4.0
 40
4.0
 40
5.0
 40
5.0
 40
5.0
 40
6.0
 40
6.0
 40
6.0
 40
7.0
 40
7.0
 40
7.0
 40
8.0
 40
8.0
 40
8.0
 40
8.0
 10
110.8790052267965
 20
154.750766051979
 10
110.8790052267965
 20
154.4983888361955
 10
110.7446674524459
 20
154.3600999508347
 10
110.5727588457206
 20
154.3600999508347
 10
110.3739685730144
 20
154.3600999508347
 10
110.3133260745615
 20
154.5264699465902
 10
110.2947346861469
 20
154.5759332946892
 10
110.2595980203766
 20
154.464486892616
 10
110.1679463560482
 20
154.4024685608649
 10
110.0652880253339
 20
154.4024685608649
 10
109.9126763625607
 20
154.4024685608649
 10
109.7927671989532
 20
154.5264699465902
 10
109.7927671989532
 20
154.750766051979
 10
109.7927671989532
 20
154.9807066016683
 10
109.9185324735224
 20
155.0976916278922
 10
110.0652880253339
 20
155.0976916278922
 10
110.1651946894517
 20
155.0976916278922
 10
110.2582249724353
 20
155.0384249612405
 10
110.2947346861469
 20
154.9256027141853
 10
110.3133260745615
 20
154.975026879591
 10
110.3739685730144
 20
155.1400563198252
 10
110.5727588457206
 20
155.1400563198252
 10
110.7487949523406
 20
155.1400563198252
 10
110.8790052267965
 20
154.9976046567928
 10
110.8790052267965
 20
154.750766051979
 97
        0
 97
        0
 92
        1
 93
        1
 72
     4
 94
        3
 73
     0
 74
     1
 95
       17
 96
       13
 40
0.0
 40
0.0
 40
0.0
 40
0.0
 40
1.0
 40
1.0
 40
1.0
 40
2.0
 40
2.0
 40
2.0
 40
3.0
 40
3.0
 40
3.0
 40
4.0
 40
4.0
 40
4.0
 40
4.0
 10
109.8985299740327
 20
154.750766051979
 10
109.8985299740327
 20
154.6506829989768
 10
109.9350805280719
 20
154.5349366130409
 10
110.0777058027949
 20
154.5349366130409
 10
110.2202985769348
 20
154.5349366130409
 10
110.2568463537802
 20
154.6520588322751
 10
110.2568463537802
 20
154.750766051979
 10
110.2568463537802
 20
154.8453104940115
 10
110.2230855213081
 20
154.965219657619
 10
110.0777058027949
 20
154.965219657619
 10
109.9350805280719
 20
154.965219657619
 10
109.8985299740327
 20
154.849473271683
 10
109.8985299740327
 20
154.750766051979
 97
        0
 97
        0
 92
        1
 93
        1
 72
     4
 94
        3
 73
     0
 74
     1
 95
       17
 96
       13
 40
0.0
 40
0.0
 40
0.0
 40
0.0
 40
1.0
 40
1.0
 40
1.0
 40
2.0
 40
2.0
 40
2.0
 40
3.0
 40
3.0
 40
3.0
 40
4.0
 40
4.0
 40
4.0
 40
4.0
 10
110.3457138613022
 20
154.750766051979
 10
110.3457138613022
 20
154.599847722496
 10
110.4304835715725
 20
154.4927091141182
 10
110.5641510681624
 20
154.4927091141182
 10
110.6657510655704
 20
154.4927091141182
 10
110.7729277500847
 20
154.5604110724709
 10
110.7729277500847
 20
154.750766051979
 10
110.7729277500847
 20
154.9397138249364
 10
110.6657510655704
 20
155.0074118787648
 10
110.5641510681624
 20
155.0074118787648
 10
110.4373627380637
 20
155.0074118787648
 10
110.3457138613022
 20
154.910080492359
 10
110.3457138613022
 20
154.750766051979
 97
        0
 97
        0
 75
     2
 76
     1
 98
        0
  0
SPLINE
  5
CB
330
C3
100
AcDbEntity
  8
_U+30EC_U+30A4_U+30E4_U+30FC 1
370
     0
100
AcDbSpline
210
0.0
220
0.0
230
1.0
 70
    11
 71
     3
 72
    50
 73
    46
 74
     0
 42
0.0000000001
 43
0.0000000001
 12
1.0
 22
0.0
 32
0.0
 13
1.0
 23
0.0
 33
0.0
 40
0.0
 40
0.0
 40
0.0
 40
0.0
 40
1.0
 40
1.0
 40
1.0
 40
2.0
 40
2.0
 40
2.0
 40
3.0
 40
3.0
 40
3.0
 40
4.0
 40
4.0
 40
4.0
 40
5.0
 40
5.0
 40
5.0
 40
6.0
 40
6.0
 40
6.0
 40
7.0
 40
7.0
 40
7.0
 40
8.0
 40
8.0
 40
8.0
 40
9.0
 40
9.0
 40
9.0
 40
10.0
 40
10.0
 40
10.0
 40
11.0
 40
11.0
 40
11.0
 40
12.0
 40
12.0
 40
12.0
 40
13.0
 40
13.0
 40
13.0
 40
14.0
 40
14.0
 40
14.0
 40
15.0
 40
15.0
 40
15.0
 40
15.0
 10
110.8790052267965
 20
155.6228679741743
 30
0.0
 10
110.8790052267965
 20
155.3999829798606
 30
0.0
 10
110.7618830075623
 20
155.2801090940299
 30
0.0
 10
110.5854941231734
 20
155.2490999281544
 30
0.0
 10
110.5854941231734
 20
155.2490999281544
 30
0.0
 10
110.5854941231734
 20
155.383120202513
 30
0.0
 10
110.5854941231734
 20
155.383120202513
 30
0.0
 10
110.7081549533774
 20
155.4042868686397
 30
0.0
 10
110.7743007850233
 20
155.5057457549401
 30
0.0
 10
110.7743007850233
 20
155.6228679741743
 30
0.0
 10
110.7743007850233
 20
155.7681065815801
 30
0.0
 10
110.6867766205895
 20
155.8964118560845
 30
0.0
 10
110.522102750147
 20
155.8964118560845
 30
0.0
 10
110.4738752371322
 20
155.8964118560845
 30
0.0
 10
110.2809410753877
 20
155.8795490787369
 30
0.0
 10
110.2809410753877
 20
155.6468215846743
 30
0.0
 10
110.2809410753877
 20
155.583427419625
 30
0.0
 10
110.2961105194451
 20
155.4831679777384
 30
0.0
 10
110.3739685730144
 20
155.4254888125432
 30
0.0
 10
110.3739685730144
 20
155.4254888125432
 30
0.0
 10
110.3739685730144
 20
155.2928443714828
 30
0.0
 10
110.3739685730144
 20
155.2928443714828
 30
0.0
 10
110.3739685730144
 20
155.2928443714828
 30
0.0
 10
109.8210246982322
 20
155.3844999611539
 30
0.0
 10
109.8210246982322
 20
155.3844999611539
 30
0.0
 10
109.8210246982322
 20
155.3844999611539
 30
0.0
 10
109.8210246982322
 20
155.9725805165626
 30
0.0
 10
109.8210246982322
 20
155.9725805165626
 30
0.0
 10
109.8210246982322
 20
155.9725805165626
 30
0.0
 10
109.9267874733118
 20
155.9725805165626
 30
0.0
 10
109.9267874733118
 20
155.9725805165626
 30
0.0
 10
109.9267874733118
 20
155.9725805165626
 30
0.0
 10
109.9267874733118
 20
155.4959385329681
 30
0.0
 10
109.9267874733118
 20
155.4959385329681
 30
0.0
 10
109.9267874733118
 20
155.4959385329681
 30
0.0
 10
110.241324131954
 20
155.443727423189
 30
0.0
 10
110.241324131954
 20
155.443727423189
 30
0.0
 10
110.2161710770401
 20
155.4804163111419
 30
0.0
 10
110.1748255225394
 20
155.5396829762965
 30
0.0
 10
110.1748255225394
 20
155.6637196397988
 30
0.0
 10
110.1748255225394
 20
155.8738693566596
 30
0.0
 10
110.2947346861469
 20
156.0290562971449
 30
0.0
 10
110.5207241248259
 20
156.0290562971449
 30
0.0
 10
110.7560268966006
 20
156.0290562971449
 30
0.0
 10
110.8790052267965
 20
155.8414843574858
 30
0.0
 10
110.8790052267965
 20
155.6228679741743
 30
0.0
  0
HATCH
  5
CC
330
C3
100
AcDbEntity
  8
_U+30EC_U+30A4_U+30E4_U+30FC 1
 62
   250
420
  1842203
100
AcDbHatch
 10
0.0
 20
0.0
 30
0.0
210
0.0
220
0.0
230
1.0
  2
SOLID
 70
     1
 71
     0
 91
        1
 92
        1
 93
        1
 72
     4
 94
        3
 73
     0
 74
     1
 95
       50
 96
       46
 40
0.0
 40
0.0
 40
0.0
 40
0.0
 40
1.0
 40
1.0
 40
1.0
 40
2.0
 40
2.0
 40
2.0
 40
3.0
 40
3.0
 40
3.0
 40
4.0
 40
4.0
 40
4.0
 40
5.0
 40
5.0
 40
5.0
 40
6.0
 40
6.0
 40
6.0
 40
7.0
 40
7.0
 40
7.0
 40
8.0
 40
8.0
 40
8.0
 40
9.0
 40
9.0
 40
9.0
 40
10.0
 40
10.0
 40
10.0
 40
11.0
 40
11.0
 40
11.0
 40
12.0
 40
12.0
 40
12.0
 40
13.0
 40
13.0
 40
13.0
 40
14.0
 40
14.0
 40
14.0
 40
15.0
 40
15.0
 40
15.0
 40
15.0
 10
110.8790052267965
 20
155.6228679741743
 10
110.8790052267965
 20
155.3999829798606
 10
110.7618830075623
 20
155.2801090940299
 10
110.5854941231734
 20
155.2490999281544
 10
110.5854941231734
 20
155.2490999281544
 10
110.5854941231734
 20
155.383120202513
 10
110.5854941231734
 20
155.383120202513
 10
110.7081549533774
 20
155.4042868686397
 10
110.7743007850233
 20
155.5057457549401
 10
110.7743007850233
 20
155.6228679741743
 10
110.7743007850233
 20
155.7681065815801
 10
110.6867766205895
 20
155.8964118560845
 10
110.522102750147
 20
155.8964118560845
 10
110.4738752371322
 20
155.8964118560845
 10
110.2809410753877
 20
155.8795490787369
 10
110.2809410753877
 20
155.6468215846743
 10
110.2809410753877
 20
155.583427419625
 10
110.2961105194451
 20
155.4831679777384
 10
110.3739685730144
 20
155.4254888125432
 10
110.3739685730144
 20
155.4254888125432
 10
110.3739685730144
 20
155.2928443714828
 10
110.3739685730144
 20
155.2928443714828
 10
110.3739685730144
 20
155.2928443714828
 10
109.8210246982322
 20
155.3844999611539
 10
109.8210246982322
 20
155.3844999611539
 10
109.8210246982322
 20
155.3844999611539
 10
109.8210246982322
 20
155.9725805165626
 10
109.8210246982322
 20
155.9725805165626
 10
109.8210246982322
 20
155.9725805165626
 10
109.9267874733118
 20
155.9725805165626
 10
109.9267874733118
 20
155.9725805165626
 10
109.9267874733118
 20
155.9725805165626
 10
109.9267874733118
 20
155.4959385329681
 10
109.9267874733118
 20
155.4959385329681
 10
109.9267874733118
 20
155.4959385329681
 10
110.241324131954
 20
155.443727423189
 10
110.241324131954
 20
155.443727423189
 10
110.2161710770401
 20
155.4804163111419
 10
110.1748255225394
 20
155.5396829762965
 10
110.1748255225394
 20
155.6637196397988
 10
110.1748255225394
 20
155.8738693566596
 10
110.2947346861469
 20
156.0290562971449
 10
110.5207241248259
 20
156.0290562971449
 10
110.7560268966006
 20
156.0290562971449
 10
110.8790052267965
 20
155.8414843574858
 10
110.8790052267965
 20
155.6228679741743
 97
        0
 97
        0
 75
     2
 76
     1
 98
        0
  0
ENDBLK
  5
C6
330
C3
100
AcDbEntity
  8
0
100
AcDbBlockEnd
  0
BLOCK
  5
DA
330
D8
100
AcDbEntity
  8
0
100
AcDbBlockBegin
  2
block 7
 70
     0
 10
0.0
 20
0.0
 30
0.0
  3
block 7
  1

  0
SPLINE
  5
DC
330
D8
100
AcDbEntity
  8
_U+30EC_U+30A4_U+30E4_U+30FC 1
370
     0
100
AcDbSpline
210
0.0
220
0.0
230
1.0
 70
    11
 71
     3
 72
    26
 73
    22
 74
     0
 42
0.0000000001
 43
0.0000000001
 12
1.0
 22
0.0
 32
0.0
 13
1.0
 23
0.0
 33
0.0
 40
0.0
 40
0.0
 40
0.0
 40
0.0
 40
1.0
 40
1.0
 40
1.0
 40
2.0
 40
2.0
 40
2.0
 40
3.0
 40
3.0
 40
3.0
 40
4.0
 40
4.0
 40
4.0
 40
5.0
 40
5.0
 40
5.0
 40
6.0
 40
6.0
 40
6.0
 40
7.0
 40
7.0
 40
7.0
 40
7.0
 10
104.3495120600444
 20
151.7195936293107
 30
0.0
 10
104.3495120600444
 20
151.7195936293107
 30
0.0
 10
104.3495120600444
 20
152.4727036100973
 30
0.0
 10
104.3495120600444
 20
152.4727036100973
 30
0.0
 10
104.3495120600444
 20
152.4727036100973
 30
0.0
 10
104.1324831766924
 20
152.4727036100973
 30
0.0
 10
104.1324831766924
 20
152.4727036100973
 30
0.0
 10
104.1324831766924
 20
152.4727036100973
 30
0.0
 10
104.1324831766924
 20
152.5643199966488
 30
0.0
 10
104.1324831766924
 20
152.5643199966488
 30
0.0
 10
104.2241348410208
 20
152.5699997187261
 30
0.0
 10
104.3383290047741
 20
152.5770944063003
 30
0.0
 10
104.3820734481026
 20
152.7491402697114
 30
0.0
 10
104.3820734481026
 20
152.7491402697114
 30
0.0
 10
104.4794048345083
 20
152.7491402697114
 30
0.0
 10
104.4794048345083
 20
152.7491402697114
 30
0.0
 10
104.4794048345083
 20
152.7491402697114
 30
0.0
 10
104.4794048345083
 20
151.7195936293107
 30
0.0
 10
104.4794048345083
 20
151.7195936293107
 30
0.0
 10
104.4794048345083
 20
151.7195936293107
 30
0.0
 10
104.3495120600444
 20
151.7195936293107
 30
0.0
 10
104.3495120600444
 20
151.7195936293107
 30
0.0
  0
HATCH
  5
DD
330
D8
100
AcDbEntity
  8
_U+30EC_U+30A4_U+30E4_U+30FC 1
 62
   250
420
  1842203
100
AcDbHatch
 10
0.0
 20
0.0
 30
0.0
210
0.0
220
0.0
230
1.0
  2
SOLID
 70
     1
 71
     0
 91
        1
 92
        1
 93
        1
 72
     4
 94
        3
 73
     0
 74
     1
 95
       26
 96
       22
 40
0.0
 40
0.0
 40
0.0
 40
0.0
 40
1.0
 40
1.0
 40
1.0
 40
2.0
 40
2.0
 40
2.0
 40
3.0
 40
3.0
 40
3.0
 40
4.0
 40
4.0
 40
4.0
 40
5.0
 40
5.0
 40
5.0
 40
6.0
 40
6.0
 40
6.0
 40
7.0
 40
7.0
 40
7.0
 40
7.0
 10
104.3495120600444
 20
151.7195936293107
 10
104.3495120600444
 20
151.7195936293107
 10
104.3495120600444
 20
152.4727036100973
 10
104.3495120600444
 20
152.4727036100973
 10
104.3495120600444
 20
152.4727036100973
 10
104.1324831766924
 20
152.4727036100973
 10
104.1324831766924
 20
152.4727036100973
 10
104.1324831766924
 20
152.4727036100973
 10
104.1324831766924
 20
152.5643199966488
 10
104.1324831766924
 20
152.5643199966488
 10
104.2241348410208
 20
152.5699997187261
 10
104.3383290047741
 20
152.5770944063003
 10
104.3820734481026
 20
152.7491402697114
 10
104.3820734481026
 20
152.7491402697114
 10
104.4794048345083
 20
152.7491402697114
 10
104.4794048345083
 20
152.7491402697114
 10
104.4794048345083
 20
152.7491402697114
 10
104.4794048345083
 20
151.7195936293107
 10
104.4794048345083
 20
151.7195936293107
 10
104.4794048345083
 20
151.7195936293107
 10
104.3495120600444
 20
151.7195936293107
 10
104.3495120600444
 20
151.7195936293107
 97
        0
 97
        0
 75
     2
 76
     1
 98
        0
  0
SPLINE
  5
DE
330
D8
100
AcDbEntity
  8
_U+30EC_U+30A4_U+30E4_U+30FC 1
370
     0
100
AcDbSpline
210
0.0
220
0.0
230
1.0
 70
    11
 71
     3
 72
    35
 73
    31
 74
     0
 42
0.0000000001
 43
0.0000000001
 12
1.0
 22
0.0
 32
0.0
 13
1.0
 23
0.0
 33
0.0
 40
0.0
 40
0.0
 40
0.0
 40
0.0
 40
1.0
 40
1.0
 40
1.0
 40
2.0
 40
2.0
 40
2.0
 40
3.0
 40
3.0
 40
3.0
 40
4.0
 40
4.0
 40
4.0
 40
5.0
 40
5.0
 40
5.0
 40
6.0
 40
6.0
 40
6.0
 40
7.0
 40
7.0
 40
7.0
 40
8.0
 40
8.0
 40
8.0
 40
9.0
 40
9.0
 40
9.0
 40
10.0
 40
10.0
 40
10.0
 40
10.0
 10
105.2555864813729
 20
151.6913361300316
 30
0.0
 10
105.115886484937
 20
151.6913361300316
 30
0.0
 10
104.952232878001
 20
151.7576583505618
 30
0.0
 10
104.9141681567499
 20
151.9523249620119
 30
0.0
 10
104.9141681567499
 20
151.9523249620119
 30
0.0
 10
105.0468125978103
 20
151.9523249620119
 30
0.0
 10
105.0468125978103
 20
151.9523249620119
 30
0.0
 10
105.058172041965
 20
151.9142249620213
 30
0.0
 10
105.0876289856579
 20
151.8014027938902
 30
0.0
 10
105.2542106480747
 20
151.8014027938902
 30
0.0
 10
105.5263786966867
 20
151.8014027938902
 30
0.0
 10
105.5404898074378
 20
152.1102597304551
 30
0.0
 10
105.5446173073325
 20
152.2146466722364
 30
0.0
 10
105.5177709191285
 20
152.1779577842835
 30
0.0
 10
105.4402303655512
 20
152.0708191759057
 30
0.0
 10
105.2512825925939
 20
152.0708191759057
 30
0.0
 10
105.065086486233
 20
152.0708191759057
 30
0.0
 10
104.8973053794023
 20
152.1850133396591
 30
0.0
 10
104.8973053794023
 20
152.4093094450479
 30
0.0
 10
104.8973053794023
 20
152.6151552731297
 30
0.0
 10
105.0425087090312
 20
152.7773977689905
 30
0.0
 10
105.2724845364974
 20
152.7773977689905
 30
0.0
 10
105.4361055291965
 20
152.7773977689905
 30
0.0
 10
105.5336106409466
 20
152.6969644377092
 30
0.0
 10
105.5856453618413
 20
152.6208388507337
 30
0.0
 10
105.6659023042382
 20
152.5036774981959
 30
0.0
 10
105.6772617483929
 20
152.3274650026915
 30
0.0
 10
105.6772617483929
 20
152.2497833380067
 30
0.0
 10
105.6772617483929
 20
151.9269916795751
 30
0.0
 10
105.5377381408413
 20
151.6913361300316
 30
0.0
 10
105.2555864813729
 20
151.6913361300316
 30
0.0
  0
SPLINE
  5
DF
330
D8
100
AcDbEntity
  8
_U+30EC_U+30A4_U+30E4_U+30FC 1
370
     0
100
AcDbSpline
210
0.0
220
0.0
230
1.0
 70
    11
 71
     3
 72
    17
 73
    13
 74
     0
 42
0.0000000001
 43
0.0000000001
 12
1.0
 22
0.0
 32
0.0
 13
1.0
 23
0.0
 33
0.0
 40
0.0
 40
0.0
 40
0.0
 40
0.0
 40
1.0
 40
1.0
 40
1.0
 40
2.0
 40
2.0
 40
2.0
 40
3.0
 40
3.0
 40
3.0
 40
4.0
 40
4.0
 40
4.0
 40
4.0
 10
105.27523886257
 20
152.6716388507211
 30
0.0
 10
105.1327845400614
 20
152.6716388507211
 30
0.0
 10
105.0299498204627
 20
152.5813944406576
 30
0.0
 10
105.0299498204627
 20
152.4218721841167
 30
0.0
 10
105.0299498204627
 20
152.3345558358439
 30
0.0
 10
105.065086486233
 20
152.1765819509853
 30
0.0
 10
105.265393703345
 20
152.1765819509853
 30
0.0
 10
105.4135603662316
 20
152.1765819509853
 30
0.0
 10
105.5232742523214
 20
152.2611427821613
 30
0.0
 10
105.5232742523214
 20
152.4093094450479
 30
0.0
 10
105.5232742523214
 20
152.5080166647519
 30
0.0
 10
105.4727944180763
 20
152.6716388507211
 30
0.0
 10
105.27523886257
 20
152.6716388507211
 30
0.0
  0
HATCH
  5
E0
330
D8
100
AcDbEntity
  8
_U+30EC_U+30A4_U+30E4_U+30FC 1
 62
   250
420
  1842203
100
AcDbHatch
 10
0.0
 20
0.0
 30
0.0
210
0.0
220
0.0
230
1.0
  2
SOLID
 70
     1
 71
     0
 91
        2
 92
        1
 93
        1
 72
     4
 94
        3
 73
     0
 74
     1
 95
       35
 96
       31
 40
0.0
 40
0.0
 40
0.0
 40
0.0
 40
1.0
 40
1.0
 40
1.0
 40
2.0
 40
2.0
 40
2.0
 40
3.0
 40
3.0
 40
3.0
 40
4.0
 40
4.0
 40
4.0
 40
5.0
 40
5.0
 40
5.0
 40
6.0
 40
6.0
 40
6.0
 40
7.0
 40
7.0
 40
7.0
 40
8.0
 40
8.0
 40
8.0
 40
9.0
 40
9.0
 40
9.0
 40
10.0
 40
10.0
 40
10.0
 40
10.0
 10
105.2555864813729
 20
151.6913361300316
 10
105.115886484937
 20
151.6913361300316
 10
104.952232878001
 20
151.7576583505618
 10
104.9141681567499
 20
151.9523249620119
 10
104.9141681567499
 20
151.9523249620119
 10
105.0468125978103
 20
151.9523249620119
 10
105.0468125978103
 20
151.9523249620119
 10
105.058172041965
 20
151.9142249620213
 10
105.0876289856579
 20
151.8014027938902
 10
105.2542106480747
 20
151.8014027938902
 10
105.5263786966867
 20
151.8014027938902
 10
105.5404898074378
 20
152.1102597304551
 10
105.5446173073325
 20
152.2146466722364
 10
105.5177709191285
 20
152.1779577842835
 10
105.4402303655512
 20
152.0708191759057
 10
105.2512825925939
 20
152.0708191759057
 10
105.065086486233
 20
152.0708191759057
 10
104.8973053794023
 20
152.1850133396591
 10
104.8973053794023
 20
152.4093094450479
 10
104.8973053794023
 20
152.6151552731297
 10
105.0425087090312
 20
152.7773977689905
 10
105.2724845364974
 20
152.7773977689905
 10
105.4361055291965
 20
152.7773977689905
 10
105.5336106409466
 20
152.6969644377092
 10
105.5856453618413
 20
152.6208388507337
 10
105.6659023042382
 20
152.5036774981959
 10
105.6772617483929
 20
152.3274650026915
 10
105.6772617483929
 20
152.2497833380067
 10
105.6772617483929
 20
151.9269916795751
 10
105.5377381408413
 20
151.6913361300316
 10
105.2555864813729
 20
151.6913361300316
 97
        0
 97
        0
 92
        1
 93
        1
 72
     4
 94
        3
 73
     0
 74
     1
 95
       17
 96
       13
 40
0.0
 40
0.0
 40
0.0
 40
0.0
 40
1.0
 40
1.0
 40
1.0
 40
2.0
 40
2.0
 40
2.0
 40
3.0
 40
3.0
 40
3.0
 40
4.0
 40
4.0
 40
4.0
 40
4.0
 10
105.27523886257
 20
152.6716388507211
 10
105.1327845400614
 20
152.6716388507211
 10
105.0299498204627
 20
152.5813944406576
 10
105.0299498204627
 20
152.4218721841167
 10
105.0299498204627
 20
152.3345558358439
 10
105.065086486233
 20
152.1765819509853
 10
105.265393703345
 20
152.1765819509853
 10
105.4135603662316
 20
152.1765819509853
 10
105.5232742523214
 20
152.2611427821613
 10
105.5232742523214
 20
152.4093094450479
 10
105.5232742523214
 20
152.5080166647519
 10
105.4727944180763
 20
152.6716388507211
 10
105.27523886257
 20
152.6716388507211
 97
        0
 97
        0
 75
     2
 76
     1
 98
        0
  0
SPLINE
  5
E1
330
D8
100
AcDbEntity
  8
_U+30EC_U+30A4_U+30E4_U+30FC 1
370
     0
100
AcDbSpline
210
0.0
220
0.0
230
1.0
 70
    11
 71
     3
 72
    26
 73
    22
 74
     0
 42
0.0000000001
 43
0.0000000001
 12
1.0
 22
0.0
 32
0.0
 13
1.0
 23
0.0
 33
0.0
 40
0.0
 40
0.0
 40
0.0
 40
0.0
 40
1.0
 40
1.0
 40
1.0
 40
2.0
 40
2.0
 40
2.0
 40
3.0
 40
3.0
 40
3.0
 40
4.0
 40
4.0
 40
4.0
 40
5.0
 40
5.0
 40
5.0
 40
6.0
 40
6.0
 40
6.0
 40
7.0
 40
7.0
 40
7.0
 40
7.0
 10
106.1275499734684
 20
151.7195936293107
 30
0.0
 10
106.1275499734684
 20
151.7195936293107
 30
0.0
 10
106.1275499734684
 20
152.4727036100973
 30
0.0
 10
106.1275499734684
 20
152.4727036100973
 30
0.0
 10
106.1275499734684
 20
152.4727036100973
 30
0.0
 10
105.9105184091087
 20
152.4727036100973
 30
0.0
 10
105.9105184091087
 20
152.4727036100973
 30
0.0
 10
105.9105184091087
 20
152.4727036100973
 30
0.0
 10
105.9105184091087
 20
152.5643199966488
 30
0.0
 10
105.9105184091087
 20
152.5643199966488
 30
0.0
 10
106.0021347956602
 20
152.5699997187261
 30
0.0
 10
106.116505348298
 20
152.5770944063003
 30
0.0
 10
106.1599322916345
 20
152.7491402697114
 30
0.0
 10
106.1599322916345
 20
152.7491402697114
 30
0.0
 10
106.2574047891478
 20
152.7491402697114
 30
0.0
 10
106.2574047891478
 20
152.7491402697114
 30
0.0
 10
106.2574047891478
 20
152.7491402697114
 30
0.0
 10
106.2574047891478
 20
151.7195936293107
 30
0.0
 10
106.2574047891478
 20
151.7195936293107
 30
0.0
 10
106.2574047891478
 20
151.7195936293107
 30
0.0
 10
106.1275499734684
 20
151.7195936293107
 30
0.0
 10
106.1275499734684
 20
151.7195936293107
 30
0.0
  0
HATCH
  5
E2
330
D8
100
AcDbEntity
  8
_U+30EC_U+30A4_U+30E4_U+30FC 1
 62
   250
420
  1842203
100
AcDbHatch
 10
0.0
 20
0.0
 30
0.0
210
0.0
220
0.0
230
1.0
  2
SOLID
 70
     1
 71
     0
 91
        1
 92
        1
 93
        1
 72
     4
 94
        3
 73
     0
 74
     1
 95
       26
 96
       22
 40
0.0
 40
0.0
 40
0.0
 40
0.0
 40
1.0
 40
1.0
 40
1.0
 40
2.0
 40
2.0
 40
2.0
 40
3.0
 40
3.0
 40
3.0
 40
4.0
 40
4.0
 40
4.0
 40
5.0
 40
5.0
 40
5.0
 40
6.0
 40
6.0
 40
6.0
 40
7.0
 40
7.0
 40
7.0
 40
7.0
 10
106.1275499734684
 20
151.7195936293107
 10
106.1275499734684
 20
151.7195936293107
 10
106.1275499734684
 20
152.4727036100973
 10
106.1275499734684
 20
152.4727036100973
 10
106.1275499734684
 20
152.4727036100973
 10
105.9105184091087
 20
152.4727036100973
 10
105.9105184091087
 20
152.4727036100973
 10
105.9105184091087
 20
152.4727036100973
 10
105.9105184091087
 20
152.5643199966488
 10
105.9105184091087
 20
152.5643199966488
 10
106.0021347956602
 20
152.5699997187261
 10
106.116505348298
 20
152.5770944063003
 10
106.1599322916345
 20
152.7491402697114
 10
106.1599322916345
 20
152.7491402697114
 10
106.2574047891478
 20
152.7491402697114
 10
106.2574047891478
 20
152.7491402697114
 10
106.2574047891478
 20
152.7491402697114
 10
106.2574047891478
 20
151.7195936293107
 10
106.2574047891478
 20
151.7195936293107
 10
106.2574047891478
 20
151.7195936293107
 10
106.1275499734684
 20
151.7195936293107
 10
106.1275499734684
 20
151.7195936293107
 97
        0
 97
        0
 75
     2
 76
     1
 98
        0
  0
ENDBLK
  5
DB
330
D8
100
AcDbEntity
  8
0
100
AcDbBlockEnd
  0
BLOCK
  5
EC
330
EA
100
AcDbEntity
  8
0
100
AcDbBlockBegin
  2
block 8
 70
     0
 10
0.0
 20
0.0
 30
0.0
  3
block 8
  1

  0
SPLINE
  5
EE
330
EA
100
AcDbEntity
  8
_U+30EC_U+30A4_U+30E4_U+30FC 1
370
     0
100
AcDbSpline
210
0.0
220
0.0
230
1.0
 70
    11
 71
     3
 72
    62
 73
    58
 74
     0
 42
0.0000000001
 43
0.0000000001
 12
1.0
 22
0.0
 32
0.0
 13
1.0
 23
0.0
 33
0.0
 40
0.0
 40
0.0
 40
0.0
 40
0.0
 40
1.0
 40
1.0
 40
1.0
 40
2.0
 40
2.0
 40
2.0
 40
3.0
 40
3.0
 40
3.0
 40
4.0
 40
4.0
 40
4.0
 40
5.0
 40
5.0
 40
5.0
 40
6.0
 40
6.0
 40
6.0
 40
7.0
 40
7.0
 40
7.0
 40
8.0
 40
8.0
 40
8.0
 40
9.0
 40
9.0
 40
9.0
 40
10.0
 40
10.0
 40
10.0
 40
11.0
 40
11.0
 40
11.0
 40
12.0
 40
12.0
 40
12.0
 40
13.0
 40
13.0
 40
13.0
 40
14.0
 40
14.0
 40
14.0
 40
15.0
 40
15.0
 40
15.0
 40
16.0
 40
16.0
 40
16.0
 40
17.0
 40
17.0
 40
17.0
 40
18.0
 40
18.0
 40
18.0
 40
19.0
 40
19.0
 40
19.0
 40
19.0
 10
118.316618925936
 20
151.2503639190595
 30
0.0
 10
118.1981208734036
 20
151.2503639190595
 30
0.0
 10
118.0696039322379
 20
151.2799972516368
 30
0.0
 10
117.9924514342062
 20
151.3900639154955
 30
0.0
 10
117.935936435648
 20
151.4689450245942
 30
0.0
 10
117.9318089357533
 20
151.5423228004999
 30
0.0
 10
117.9273286580899
 20
151.5959097435772
 30
0.0
 10
117.9273286580899
 20
151.5959097435772
 30
0.0
 10
118.0558455992556
 20
151.5959097435772
 30
0.0
 10
118.0558455992556
 20
151.5959097435772
 30
0.0
 10
118.0599730991503
 20
151.5423228004999
 30
0.0
 10
118.0723908766112
 20
151.3561305177166
 30
0.0
 10
118.3194058703094
 20
151.3561305177166
 30
0.0
 10
118.492690310333
 20
151.3561305177166
 30
0.0
 10
118.5801791969898
 20
151.4563861360257
 30
0.0
 10
118.5801791969898
 20
151.5817986328261
 30
0.0
 10
118.5801791969898
 20
151.7313058512341
 30
0.0
 10
118.4561778112645
 20
151.7793541833416
 30
0.0
 10
118.3462522585133
 20
151.7793541833416
 30
0.0
 10
118.3462522585133
 20
151.7793541833416
 30
0.0
 10
118.2377378168373
 20
151.7793541833416
 30
0.0
 10
118.2377378168373
 20
151.7793541833416
 30
0.0
 10
118.2377378168373
 20
151.7793541833416
 30
0.0
 10
118.2377378168373
 20
151.8723816809683
 30
0.0
 10
118.2377378168373
 20
151.8723816809683
 30
0.0
 10
118.2377378168373
 20
151.8723816809683
 30
0.0
 10
118.3293894811658
 20
151.8723816809683
 30
0.0
 10
118.3293894811658
 20
151.8723816809683
 30
0.0
 10
118.4082705902645
 20
151.8723816809683
 30
0.0
 10
118.5491700311143
 20
151.9161261242967
 30
0.0
 10
118.5491700311143
 20
152.0528980652518
 30
0.0
 10
118.5491700311143
 20
152.1317791743505
 30
0.0
 10
118.5044055259293
 20
152.2306666286092
 30
0.0
 10
118.3321411477622
 20
152.2306666286092
 30
0.0
 10
118.2646194828182
 20
152.2306666286092
 30
0.0
 10
118.1939933735089
 20
152.2136236167069
 30
0.0
 10
118.1488730968822
 20
152.1600366736296
 30
0.0
 10
118.1064721926959
 20
152.1092366749256
 30
0.0
 10
118.1006130981135
 20
152.0585777873292
 30
0.0
 10
118.0964855982188
 20
152.0189608438954
 30
0.0
 10
118.0964855982188
 20
152.0189608438954
 30
0.0
 10
117.9696972681201
 20
152.0189608438954
 30
0.0
 10
117.9696972681201
 20
152.0189608438954
 30
0.0
 10
117.9893499705029
 20
152.26872750419
 30
0.0
 10
118.1757194850862
 20
152.3364255580184
 30
0.0
 10
118.3335169810605
 20
152.3364255580184
 30
0.0
 10
118.5395391980266
 20
152.3364255580184
 30
0.0
 10
118.6763111389817
 20
152.2263588941598
 30
0.0
 10
118.6763111389817
 20
152.0670444537798
 30
0.0
 10
118.6763111389817
 20
151.8921725137967
 30
0.0
 10
118.5409150313249
 20
151.8484280704683
 30
0.0
 10
118.4971705879964
 20
151.8343169597172
 30
0.0
 10
118.555026142076
 20
151.818794737891
 30
0.0
 10
118.7073203048573
 20
151.7807300166399
 30
0.0
 10
118.7073203048573
 20
151.5804227995279
 30
0.0
 10
118.7073203048573
 20
151.397119470871
 30
0.0
 10
118.5650097529324
 20
151.2503639190595
 30
0.0
 10
118.316618925936
 20
151.2503639190595
 30
0.0
  0
HATCH
  5
EF
330
EA
100
AcDbEntity
  8
_U+30EC_U+30A4_U+30E4_U+30FC 1
 62
   250
420
  1842203
100
AcDbHatch
 10
0.0
 20
0.0
 30
0.0
210
0.0
220
0.0
230
1.0
  2
SOLID
 70
     1
 71
     0
 91
        1
 92
        1
 93
        1
 72
     4
 94
        3
 73
     0
 74
     1
 95
       62
 96
       58
 40
0.0
 40
0.0
 40
0.0
 40
0.0
 40
1.0
 40
1.0
 40
1.0
 40
2.0
 40
2.0
 40
2.0
 40
3.0
 40
3.0
 40
3.0
 40
4.0
 40
4.0
 40
4.0
 40
5.0
 40
5.0
 40
5.0
 40
6.0
 40
6.0
 40
6.0
 40
7.0
 40
7.0
 40
7.0
 40
8.0
 40
8.0
 40
8.0
 40
9.0
 40
9.0
 40
9.0
 40
10.0
 40
10.0
 40
10.0
 40
11.0
 40
11.0
 40
11.0
 40
12.0
 40
12.0
 40
12.0
 40
13.0
 40
13.0
 40
13.0
 40
14.0
 40
14.0
 40
14.0
 40
15.0
 40
15.0
 40
15.0
 40
16.0
 40
16.0
 40
16.0
 40
17.0
 40
17.0
 40
17.0
 40
18.0
 40
18.0
 40
18.0
 40
19.0
 40
19.0
 40
19.0
 40
19.0
 10
118.316618925936
 20
151.2503639190595
 10
118.1981208734036
 20
151.2503639190595
 10
118.0696039322379
 20
151.2799972516368
 10
117.9924514342062
 20
151.3900639154955
 10
117.935936435648
 20
151.4689450245942
 10
117.9318089357533
 20
151.5423228004999
 10
117.9273286580899
 20
151.5959097435772
 10
117.9273286580899
 20
151.5959097435772
 10
118.0558455992556
 20
151.5959097435772
 10
118.0558455992556
 20
151.5959097435772
 10
118.0599730991503
 20
151.5423228004999
 10
118.0723908766112
 20
151.3561305177166
 10
118.3194058703094
 20
151.3561305177166
 10
118.492690310333
 20
151.3561305177166
 10
118.5801791969898
 20
151.4563861360257
 10
118.5801791969898
 20
151.5817986328261
 10
118.5801791969898
 20
151.7313058512341
 10
118.4561778112645
 20
151.7793541833416
 10
118.3462522585133
 20
151.7793541833416
 10
118.3462522585133
 20
151.7793541833416
 10
118.2377378168373
 20
151.7793541833416
 10
118.2377378168373
 20
151.7793541833416
 10
118.2377378168373
 20
151.7793541833416
 10
118.2377378168373
 20
151.8723816809683
 10
118.2377378168373
 20
151.8723816809683
 10
118.2377378168373
 20
151.8723816809683
 10
118.3293894811658
 20
151.8723816809683
 10
118.3293894811658
 20
151.8723816809683
 10
118.4082705902645
 20
151.8723816809683
 10
118.5491700311143
 20
151.9161261242967
 10
118.5491700311143
 20
152.0528980652518
 10
118.5491700311143
 20
152.1317791743505
 10
118.5044055259293
 20
152.2306666286092
 10
118.3321411477622
 20
152.2306666286092
 10
118.2646194828182
 20
152.2306666286092
 10
118.1939933735089
 20
152.2136236167069
 10
118.1488730968822
 20
152.1600366736296
 10
118.1064721926959
 20
152.1092366749256
 10
118.1006130981135
 20
152.0585777873292
 10
118.0964855982188
 20
152.0189608438954
 10
118.0964855982188
 20
152.0189608438954
 10
117.9696972681201
 20
152.0189608438954
 10
117.9696972681201
 20
152.0189608438954
 10
117.9893499705029
 20
152.26872750419
 10
118.1757194850862
 20
152.3364255580184
 10
118.3335169810605
 20
152.3364255580184
 10
118.5395391980266
 20
152.3364255580184
 10
118.6763111389817
 20
152.2263588941598
 10
118.6763111389817
 20
152.0670444537798
 10
118.6763111389817
 20
151.8921725137967
 10
118.5409150313249
 20
151.8484280704683
 10
118.4971705879964
 20
151.8343169597172
 10
118.555026142076
 20
151.818794737891
 10
118.7073203048573
 20
151.7807300166399
 10
118.7073203048573
 20
151.5804227995279
 10
118.7073203048573
 20
151.397119470871
 10
118.5650097529324
 20
151.2503639190595
 10
118.316618925936
 20
151.2503639190595
 97
        0
 97
        0
 75
     2
 76
     1
 98
        0
  0
SPLINE
  5
F0
330
EA
100
AcDbEntity
  8
_U+30EC_U+30A4_U+30E4_U+30FC 1
370
     0
100
AcDbSpline
210
0.0
220
0.0
230
1.0
 70
    11
 71
     3
 72
    26
 73
    22
 74
     0
 42
0.0000000001
 43
0.0000000001
 12
1.0
 22
0.0
 32
0.0
 13
1.0
 23
0.0
 33
0.0
 40
0.0
 40
0.0
 40
0.0
 40
0.0
 40
1.0
 40
1.0
 40
1.0
 40
2.0
 40
2.0
 40
2.0
 40
3.0
 40
3.0
 40
3.0
 40
4.0
 40
4.0
 40
4.0
 40
5.0
 40
5.0
 40
5.0
 40
6.0
 40
6.0
 40
6.0
 40
7.0
 40
7.0
 40
7.0
 40
7.0
 10
119.1575705711482
 20
151.2786214183386
 30
0.0
 10
119.1575705711482
 20
151.2786214183386
 30
0.0
 10
119.1575705711482
 20
152.0317313991252
 30
0.0
 10
119.1575705711482
 20
152.0317313991252
 30
0.0
 10
119.1575705711482
 20
152.0317313991252
 30
0.0
 10
118.9405416877962
 20
152.0317313991252
 30
0.0
 10
118.9405416877962
 20
152.0317313991252
 30
0.0
 10
118.9405416877962
 20
152.0317313991252
 30
0.0
 10
118.9405416877962
 20
152.1233477856767
 30
0.0
 10
118.9405416877962
 20
152.1233477856767
 30
0.0
 10
119.0321933521246
 20
152.129027507754
 30
0.0
 10
119.1465639047624
 20
152.1361221841883
 30
0.0
 10
119.189955570322
 20
152.3081680587394
 30
0.0
 10
119.189955570322
 20
152.3081680587394
 30
0.0
 10
119.2874633456122
 20
152.3081680587394
 30
0.0
 10
119.2874633456122
 20
152.3081680587394
 30
0.0
 10
119.2874633456122
 20
152.3081680587394
 30
0.0
 10
119.2874633456122
 20
151.2786214183386
 30
0.0
 10
119.2874633456122
 20
151.2786214183386
 30
0.0
 10
119.2874633456122
 20
151.2786214183386
 30
0.0
 10
119.1575705711482
 20
151.2786214183386
 30
0.0
 10
119.1575705711482
 20
151.2786214183386
 30
0.0
  0
HATCH
  5
F1
330
EA
100
AcDbEntity
  8
_U+30EC_U+30A4_U+30E4_U+30FC 1
 62
   250
420
  1842203
100
AcDbHatch
 10
0.0
 20
0.0
 30
0.0
210
0.0
220
0.0
230
1.0
  2
SOLID
 70
     1
 71
     0
 91
        1
 92
        1
 93
        1
 72
     4
 94
        3
 73
     0
 74
     1
 95
       26
 96
       22
 40
0.0
 40
0.0
 40
0.0
 40
0.0
 40
1.0
 40
1.0
 40
1.0
 40
2.0
 40
2.0
 40
2.0
 40
3.0
 40
3.0
 40
3.0
 40
4.0
 40
4.0
 40
4.0
 40
5.0
 40
5.0
 40
5.0
 40
6.0
 40
6.0
 40
6.0
 40
7.0
 40
7.0
 40
7.0
 40
7.0
 10
119.1575705711482
 20
151.2786214183386
 10
119.1575705711482
 20
151.2786214183386
 10
119.1575705711482
 20
152.0317313991252
 10
119.1575705711482
 20
152.0317313991252
 10
119.1575705711482
 20
152.0317313991252
 10
118.9405416877962
 20
152.0317313991252
 10
118.9405416877962
 20
152.0317313991252
 10
118.9405416877962
 20
152.0317313991252
 10
118.9405416877962
 20
152.1233477856767
 10
118.9405416877962
 20
152.1233477856767
 10
119.0321933521246
 20
152.129027507754
 10
119.1465639047624
 20
152.1361221841883
 10
119.189955570322
 20
152.3081680587394
 10
119.189955570322
 20
152.3081680587394
 10
119.2874633456122
 20
152.3081680587394
 10
119.2874633456122
 20
152.3081680587394
 10
119.2874633456122
 20
152.3081680587394
 10
119.2874633456122
 20
151.2786214183386
 10
119.2874633456122
 20
151.2786214183386
 10
119.2874633456122
 20
151.2786214183386
 10
119.1575705711482
 20
151.2786214183386
 10
119.1575705711482
 20
151.2786214183386
 97
        0
 97
        0
 75
     2
 76
     1
 98
        0
  0
SPLINE
  5
F2
330
EA
100
AcDbEntity
  8
_U+30EC_U+30A4_U+30E4_U+30FC 1
370
     0
100
AcDbSpline
210
0.0
220
0.0
230
1.0
 70
    11
 71
     3
 72
    29
 73
    25
 74
     0
 42
0.0000000001
 43
0.0000000001
 12
1.0
 22
0.0
 32
0.0
 13
1.0
 23
0.0
 33
0.0
 40
0.0
 40
0.0
 40
0.0
 40
0.0
 40
1.0
 40
1.0
 40
1.0
 40
2.0
 40
2.0
 40
2.0
 40
3.0
 40
3.0
 40
3.0
 40
4.0
 40
4.0
 40
4.0
 40
5.0
 40
5.0
 40
5.0
 40
6.0
 40
6.0
 40
6.0
 40
7.0
 40
7.0
 40
7.0
 40
8.0
 40
8.0
 40
8.0
 40
8.0
 10
120.0960299916506
 20
151.2503639190595
 30
0.0
 10
119.8438291647514
 20
151.2503639190595
 30
0.0
 10
119.7053638905062
 20
151.3843841934182
 30
0.0
 10
119.7053638905062
 20
151.5564691890279
 30
0.0
 10
119.7053638905062
 20
151.7552594617341
 30
0.0
 10
119.8717338862617
 20
151.8158666824101
 30
0.0
 10
119.92101694056
 20
151.8343169597172
 30
0.0
 10
119.8097508322875
 20
151.8696300143718
 30
0.0
 10
119.7477325005364
 20
151.9612464009234
 30
0.0
 10
119.7477325005364
 20
152.064116398299
 30
0.0
 10
119.7477325005364
 20
152.2165555175013
 30
0.0
 10
119.8717338862617
 20
152.3364255580184
 30
0.0
 10
120.0960299916506
 20
152.3364255580184
 30
0.0
 10
120.3261499699186
 20
152.3364255580184
 30
0.0
 10
120.4429516494665
 20
152.2108719501105
 30
0.0
 10
120.4429516494665
 20
152.064116398299
 30
0.0
 10
120.4429516494665
 20
151.9640333452967
 30
0.0
 10
120.3836849843119
 20
151.8710058476701
 30
0.0
 10
120.2710430427412
 20
151.8343169597172
 30
0.0
 10
120.3202908192625
 20
151.8158666824101
 30
0.0
 10
120.4853202594967
 20
151.7552594617341
 30
0.0
 10
120.4853202594967
 20
151.5564691890279
 30
0.0
 10
120.4853202594967
 20
151.3802566935234
 30
0.0
 10
120.3426922075799
 20
151.2503639190595
 30
0.0
 10
120.0960299916506
 20
151.2503639190595
 30
0.0
  0
SPLINE
  5
F3
330
EA
100
AcDbEntity
  8
_U+30EC_U+30A4_U+30E4_U+30FC 1
370
     0
100
AcDbSpline
210
0.0
220
0.0
230
1.0
 70
    11
 71
     3
 72
    17
 73
    13
 74
     0
 42
0.0000000001
 43
0.0000000001
 12
1.0
 22
0.0
 32
0.0
 13
1.0
 23
0.0
 33
0.0
 40
0.0
 40
0.0
 40
0.0
 40
0.0
 40
1.0
 40
1.0
 40
1.0
 40
2.0
 40
2.0
 40
2.0
 40
3.0
 40
3.0
 40
3.0
 40
4.0
 40
4.0
 40
4.0
 40
4.0
 10
120.0960299916506
 20
151.7834816832363
 30
0.0
 10
119.9451499700139
 20
151.7834816832363
 30
0.0
 10
119.8379730537897
 20
151.6989208520603
 30
0.0
 10
119.8379730537897
 20
151.5649005777017
 30
0.0
 10
119.8379730537897
 20
151.4634416914012
 30
0.0
 10
119.9058474965025
 20
151.3561305177166
 30
0.0
 10
120.0960299916506
 20
151.3561305177166
 30
0.0
 10
120.2848013757235
 20
151.3561305177166
 30
0.0
 10
120.3526758184363
 20
151.4634416914012
 30
0.0
 10
120.3526758184363
 20
151.5649005777017
 30
0.0
 10
120.3526758184363
 20
151.6918652966848
 30
0.0
 10
120.2552033209231
 20
151.7834816832363
 30
0.0
 10
120.0960299916506
 20
151.7834816832363
 30
0.0
  0
SPLINE
  5
F4
330
EA
100
AcDbEntity
  8
_U+30EC_U+30A4_U+30E4_U+30FC 1
370
     0
100
AcDbSpline
210
0.0
220
0.0
230
1.0
 70
    11
 71
     3
 72
    17
 73
    13
 74
     0
 42
0.0000000001
 43
0.0000000001
 12
1.0
 22
0.0
 32
0.0
 13
1.0
 23
0.0
 33
0.0
 40
0.0
 40
0.0
 40
0.0
 40
0.0
 40
1.0
 40
1.0
 40
1.0
 40
2.0
 40
2.0
 40
2.0
 40
3.0
 40
3.0
 40
3.0
 40
4.0
 40
4.0
 40
4.0
 40
4.0
 10
120.0960299916506
 20
152.2306666286092
 30
0.0
 10
119.9961233275327
 20
152.2306666286092
 30
0.0
 10
119.8803769415968
 20
152.1939777397293
 30
0.0
 10
119.8803769415968
 20
152.0515222319536
 30
0.0
 10
119.8803769415968
 20
151.9090705689212
 30
0.0
 10
119.997499160831
 20
151.8723816809683
 30
0.0
 10
120.0960299916506
 20
151.8723816809683
 30
0.0
 10
120.1904333225755
 20
151.8723816809683
 30
0.0
 10
120.3103072084061
 20
151.9061425134403
 30
0.0
 10
120.3103072084061
 20
152.0515222319536
 30
0.0
 10
120.3103072084061
 20
152.1939777397293
 30
0.0
 10
120.1945638588405
 20
152.2306666286092
 30
0.0
 10
120.0960299916506
 20
152.2306666286092
 30
0.0
  0
HATCH
  5
F5
330
EA
100
AcDbEntity
  8
_U+30EC_U+30A4_U+30E4_U+30FC 1
 62
   250
420
  1842203
100
AcDbHatch
 10
0.0
 20
0.0
 30
0.0
210
0.0
220
0.0
230
1.0
  2
SOLID
 70
     1
 71
     0
 91
        3
 92
        1
 93
        1
 72
     4
 94
        3
 73
     0
 74
     1
 95
       29
 96
       25
 40
0.0
 40
0.0
 40
0.0
 40
0.0
 40
1.0
 40
1.0
 40
1.0
 40
2.0
 40
2.0
 40
2.0
 40
3.0
 40
3.0
 40
3.0
 40
4.0
 40
4.0
 40
4.0
 40
5.0
 40
5.0
 40
5.0
 40
6.0
 40
6.0
 40
6.0
 40
7.0
 40
7.0
 40
7.0
 40
8.0
 40
8.0
 40
8.0
 40
8.0
 10
120.0960299916506
 20
151.2503639190595
 10
119.8438291647514
 20
151.2503639190595
 10
119.7053638905062
 20
151.3843841934182
 10
119.7053638905062
 20
151.5564691890279
 10
119.7053638905062
 20
151.7552594617341
 10
119.8717338862617
 20
151.8158666824101
 10
119.92101694056
 20
151.8343169597172
 10
119.8097508322875
 20
151.8696300143718
 10
119.7477325005364
 20
151.9612464009234
 10
119.7477325005364
 20
152.064116398299
 10
119.7477325005364
 20
152.2165555175013
 10
119.8717338862617
 20
152.3364255580184
 10
120.0960299916506
 20
152.3364255580184
 10
120.3261499699186
 20
152.3364255580184
 10
120.4429516494665
 20
152.2108719501105
 10
120.4429516494665
 20
152.064116398299
 10
120.4429516494665
 20
151.9640333452967
 10
120.3836849843119
 20
151.8710058476701
 10
120.2710430427412
 20
151.8343169597172
 10
120.3202908192625
 20
151.8158666824101
 10
120.4853202594967
 20
151.7552594617341
 10
120.4853202594967
 20
151.5564691890279
 10
120.4853202594967
 20
151.3802566935234
 10
120.3426922075799
 20
151.2503639190595
 10
120.0960299916506
 20
151.2503639190595
 97
        0
 97
        0
 92
        1
 93
        1
 72
     4
 94
        3
 73
     0
 74
     1
 95
       17
 96
       13
 40
0.0
 40
0.0
 40
0.0
 40
0.0
 40
1.0
 40
1.0
 40
1.0
 40
2.0
 40
2.0
 40
2.0
 40
3.0
 40
3.0
 40
3.0
 40
4.0
 40
4.0
 40
4.0
 40
4.0
 10
120.0960299916506
 20
151.7834816832363
 10
119.9451499700139
 20
151.7834816832363
 10
119.8379730537897
 20
151.6989208520603
 10
119.8379730537897
 20
151.5649005777017
 10
119.8379730537897
 20
151.4634416914012
 10
119.9058474965025
 20
151.3561305177166
 10
120.0960299916506
 20
151.3561305177166
 10
120.2848013757235
 20
151.3561305177166
 10
120.3526758184363
 20
151.4634416914012
 10
120.3526758184363
 20
151.5649005777017
 10
120.3526758184363
 20
151.6918652966848
 10
120.2552033209231
 20
151.7834816832363
 10
120.0960299916506
 20
151.7834816832363
 97
        0
 97
        0
 92
        1
 93
        1
 72
     4
 94
        3
 73
     0
 74
     1
 95
       17
 96
       13
 40
0.0
 40
0.0
 40
0.0
 40
0.0
 40
1.0
 40
1.0
 40
1.0
 40
2.0
 40
2.0
 40
2.0
 40
3.0
 40
3.0
 40
3.0
 40
4.0
 40
4.0
 40
4.0
 40
4.0
 10
120.0960299916506
 20
152.2306666286092
 10
119.9961233275327
 20
152.2306666286092
 10
119.8803769415968
 20
152.1939777397293
 10
119.8803769415968
 20
152.0515222319536
 10
119.8803769415968
 20
151.9090705689212
 10
119.997499160831
 20
151.8723816809683
 10
120.0960299916506
 20
151.8723816809683
 10
120.1904333225755
 20
151.8723816809683
 10
120.3103072084061
 20
151.9061425134403
 10
120.3103072084061
 20
152.0515222319536
 10
120.3103072084061
 20
152.1939777397293
 10
120.1945638588405
 20
152.2306666286092
 10
120.0960299916506
 20
152.2306666286092
 97
        0
 97
        0
 75
     2
 76
     1
 98
        0
  0
ENDBLK
  5
ED
330
EA
100
AcDbEntity
  8
0
100
AcDbBlockEnd
  0
BLOCK
  5
FF
330
FD
100
AcDbEntity
  8
0
100
AcDbBlockBegin
  2
block 9
 70
     0
 10
0.0
 20
0.0
 30
0.0
  3
block 9
  1

  0
SPLINE
  5
101
330
FD
100
AcDbEntity
  8
_U+30EC_U+30A4_U+30E4_U+30FC 1
370
     0
100
AcDbSpline
210
0.0
220
0.0
230
1.0
 70
    11
 71
     3
 72
    26
 73
    22
 74
     0
 42
0.0000000001
 43
0.0000000001
 12
1.0
 22
0.0
 32
0.0
 13
1.0
 23
0.0
 33
0.0
 40
0.0
 40
0.0
 40
0.0
 40
0.0
 40
1.0
 40
1.0
 40
1.0
 40
2.0
 40
2.0
 40
2.0
 40
3.0
 40
3.0
 40
3.0
 40
4.0
 40
4.0
 40
4.0
 40
5.0
 40
5.0
 40
5.0
 40
6.0
 40
6.0
 40
6.0
 40
7.0
 40
7.0
 40
7.0
 40
7.0
 10
118.1840097626525
 20
159.6633023155387
 30
0.0
 10
118.1840097626525
 20
159.6633023155387
 30
0.0
 10
118.1840097626525
 20
160.4163770185484
 30
0.0
 10
118.1840097626525
 20
160.4163770185484
 30
0.0
 10
118.1840097626525
 20
160.4163770185484
 30
0.0
 10
117.9669456015236
 20
160.4163770185484
 30
0.0
 10
117.9669456015236
 20
160.4163770185484
 30
0.0
 10
117.9669456015236
 20
160.4163770185484
 30
0.0
 10
117.9669456015236
 20
160.5080286828768
 30
0.0
 10
117.9669456015236
 20
160.5080286828768
 30
0.0
 10
118.058597265852
 20
160.5137084049541
 30
0.0
 10
118.1729678184898
 20
160.5207639603297
 30
0.0
 10
118.2167122618182
 20
160.6928489559394
 30
0.0
 10
118.2167122618182
 20
160.6928489559394
 30
0.0
 10
118.3142200371083
 20
160.6928489559394
 30
0.0
 10
118.3142200371083
 20
160.6928489559394
 30
0.0
 10
118.3142200371083
 20
160.6928489559394
 30
0.0
 10
118.3142200371083
 20
159.6633023155387
 30
0.0
 10
118.3142200371083
 20
159.6633023155387
 30
0.0
 10
118.3142200371083
 20
159.6633023155387
 30
0.0
 10
118.1840097626525
 20
159.6633023155387
 30
0.0
 10
118.1840097626525
 20
159.6633023155387
 30
0.0
  0
HATCH
  5
102
330
FD
100
AcDbEntity
  8
_U+30EC_U+30A4_U+30E4_U+30FC 1
 62
   250
420
  1842203
100
AcDbHatch
 10
0.0
 20
0.0
 30
0.0
210
0.0
220
0.0
230
1.0
  2
SOLID
 70
     1
 71
     0
 91
        1
 92
        1
 93
        1
 72
     4
 94
        3
 73
     0
 74
     1
 95
       26
 96
       22
 40
0.0
 40
0.0
 40
0.0
 40
0.0
 40
1.0
 40
1.0
 40
1.0
 40
2.0
 40
2.0
 40
2.0
 40
3.0
 40
3.0
 40
3.0
 40
4.0
 40
4.0
 40
4.0
 40
5.0
 40
5.0
 40
5.0
 40
6.0
 40
6.0
 40
6.0
 40
7.0
 40
7.0
 40
7.0
 40
7.0
 10
118.1840097626525
 20
159.6633023155387
 10
118.1840097626525
 20
159.6633023155387
 10
118.1840097626525
 20
160.4163770185484
 10
118.1840097626525
 20
160.4163770185484
 10
118.1840097626525
 20
160.4163770185484
 10
117.9669456015236
 20
160.4163770185484
 10
117.9669456015236
 20
160.4163770185484
 10
117.9669456015236
 20
160.4163770185484
 10
117.9669456015236
 20
160.5080286828768
 10
117.9669456015236
 20
160.5080286828768
 10
118.058597265852
 20
160.5137084049541
 10
118.1729678184898
 20
160.5207639603297
 10
118.2167122618182
 20
160.6928489559394
 10
118.2167122618182
 20
160.6928489559394
 10
118.3142200371083
 20
160.6928489559394
 10
118.3142200371083
 20
160.6928489559394
 10
118.3142200371083
 20
160.6928489559394
 10
118.3142200371083
 20
159.6633023155387
 10
118.3142200371083
 20
159.6633023155387
 10
118.3142200371083
 20
159.6633023155387
 10
118.1840097626525
 20
159.6633023155387
 10
118.1840097626525
 20
159.6633023155387
 97
        0
 97
        0
 75
     2
 76
     1
 98
        0
  0
SPLINE
  5
103
330
FD
100
AcDbEntity
  8
_U+30EC_U+30A4_U+30E4_U+30FC 1
370
     0
100
AcDbSpline
210
0.0
220
0.0
230
1.0
 70
    11
 71
     3
 72
    50
 73
    46
 74
     0
 42
0.0000000001
 43
0.0000000001
 12
1.0
 22
0.0
 32
0.0
 13
1.0
 23
0.0
 33
0.0
 40
0.0
 40
0.0
 40
0.0
 40
0.0
 40
1.0
 40
1.0
 40
1.0
 40
2.0
 40
2.0
 40
2.0
 40
3.0
 40
3.0
 40
3.0
 40
4.0
 40
4.0
 40
4.0
 40
5.0
 40
5.0
 40
5.0
 40
6.0
 40
6.0
 40
6.0
 40
7.0
 40
7.0
 40
7.0
 40
8.0
 40
8.0
 40
8.0
 40
9.0
 40
9.0
 40
9.0
 40
10.0
 40
10.0
 40
10.0
 40
11.0
 40
11.0
 40
11.0
 40
12.0
 40
12.0
 40
12.0
 40
13.0
 40
13.0
 40
13.0
 40
14.0
 40
14.0
 40
14.0
 40
15.0
 40
15.0
 40
15.0
 40
15.0
 10
119.10589163689
 20
159.6350448162596
 30
0.0
 10
118.8826508559398
 20
159.6350448162596
 30
0.0
 10
118.7627769701091
 20
159.7521670354938
 30
0.0
 10
118.7317678042336
 20
159.9283795309982
 30
0.0
 10
118.7317678042336
 20
159.9283795309982
 30
0.0
 10
118.866140856361
 20
159.9283795309982
 30
0.0
 10
118.866140856361
 20
159.9283795309982
 30
0.0
 10
118.8871311336033
 20
159.8057539785711
 30
0.0
 10
118.988769414697
 20
159.7394317580409
 30
0.0
 10
119.10589163689
 20
159.7394317580409
 30
0.0
 10
119.2509508465437
 20
159.7394317580409
 30
0.0
 10
119.3794325099325
 20
159.8269206446978
 30
0.0
 10
119.3794325099325
 20
159.991950084932
 30
0.0
 10
119.3794325099325
 20
160.039857305932
 30
0.0
 10
119.3622169548161
 20
160.2331089676684
 30
0.0
 10
119.1296658496379
 20
160.2331089676684
 30
0.0
 10
119.0662716845886
 20
160.2331089676684
 30
0.0
 10
118.9660475204788
 20
160.217622023619
 30
0.0
 10
118.9081566886224
 20
160.1399050811573
 30
0.0
 10
118.9081566886224
 20
160.1399050811573
 30
0.0
 10
118.7758650253308
 20
160.1399050811573
 30
0.0
 10
118.7758650253308
 20
160.1399050811573
 30
0.0
 10
118.7758650253308
 20
160.1399050811573
 30
0.0
 10
118.8675166896592
 20
160.6928489559394
 30
0.0
 10
118.8675166896592
 20
160.6928489559394
 30
0.0
 10
118.8675166896592
 20
160.6928489559394
 30
0.0
 10
119.4552444524428
 20
160.6928489559394
 30
0.0
 10
119.4552444524428
 20
160.6928489559394
 30
0.0
 10
119.4552444524428
 20
160.6928489559394
 30
0.0
 10
119.4552444524428
 20
160.5870861808599
 30
0.0
 10
119.4552444524428
 20
160.5870861808599
 30
0.0
 10
119.4552444524428
 20
160.5870861808599
 30
0.0
 10
118.9787827979317
 20
160.5870861808599
 30
0.0
 10
118.9787827979317
 20
160.5870861808599
 30
0.0
 10
118.9787827979317
 20
160.5870861808599
 30
0.0
 10
118.926748077037
 20
160.2725495222177
 30
0.0
 10
118.926748077037
 20
160.2725495222177
 30
0.0
 10
118.9632958538824
 20
160.297878966016
 30
0.0
 10
119.0225272412601
 20
160.3388717427479
 30
0.0
 10
119.1465639047624
 20
160.3388717427479
 30
0.0
 10
119.3567166368278
 20
160.3388717427479
 30
0.0
 10
119.5117241732241
 20
160.2189978569173
 30
0.0
 10
119.5117241732241
 20
159.9933259182302
 30
0.0
 10
119.5117241732241
 20
159.7578467575711
 30
0.0
 10
119.3243286224494
 20
159.6350448162596
 30
0.0
 10
119.10589163689
 20
159.6350448162596
 30
0.0
  0
HATCH
  5
104
330
FD
100
AcDbEntity
  8
_U+30EC_U+30A4_U+30E4_U+30FC 1
 62
   250
420
  1842203
100
AcDbHatch
 10
0.0
 20
0.0
 30
0.0
210
0.0
220
0.0
230
1.0
  2
SOLID
 70
     1
 71
     0
 91
        1
 92
        1
 93
        1
 72
     4
 94
        3
 73
     0
 74
     1
 95
       50
 96
       46
 40
0.0
 40
0.0
 40
0.0
 40
0.0
 40
1.0
 40
1.0
 40
1.0
 40
2.0
 40
2.0
 40
2.0
 40
3.0
 40
3.0
 40
3.0
 40
4.0
 40
4.0
 40
4.0
 40
5.0
 40
5.0
 40
5.0
 40
6.0
 40
6.0
 40
6.0
 40
7.0
 40
7.0
 40
7.0
 40
8.0
 40
8.0
 40
8.0
 40
9.0
 40
9.0
 40
9.0
 40
10.0
 40
10.0
 40
10.0
 40
11.0
 40
11.0
 40
11.0
 40
12.0
 40
12.0
 40
12.0
 40
13.0
 40
13.0
 40
13.0
 40
14.0
 40
14.0
 40
14.0
 40
15.0
 40
15.0
 40
15.0
 40
15.0
 10
119.10589163689
 20
159.6350448162596
 10
118.8826508559398
 20
159.6350448162596
 10
118.7627769701091
 20
159.7521670354938
 10
118.7317678042336
 20
159.9283795309982
 10
118.7317678042336
 20
159.9283795309982
 10
118.866140856361
 20
159.9283795309982
 10
118.866140856361
 20
159.9283795309982
 10
118.8871311336033
 20
159.8057539785711
 10
118.988769414697
 20
159.7394317580409
 10
119.10589163689
 20
159.7394317580409
 10
119.2509508465437
 20
159.7394317580409
 10
119.3794325099325
 20
159.8269206446978
 10
119.3794325099325
 20
159.991950084932
 10
119.3794325099325
 20
160.039857305932
 10
119.3622169548161
 20
160.2331089676684
 10
119.1296658496379
 20
160.2331089676684
 10
119.0662716845886
 20
160.2331089676684
 10
118.9660475204788
 20
160.217622023619
 10
118.9081566886224
 20
160.1399050811573
 10
118.9081566886224
 20
160.1399050811573
 10
118.7758650253308
 20
160.1399050811573
 10
118.7758650253308
 20
160.1399050811573
 10
118.7758650253308
 20
160.1399050811573
 10
118.8675166896592
 20
160.6928489559394
 10
118.8675166896592
 20
160.6928489559394
 10
118.8675166896592
 20
160.6928489559394
 10
119.4552444524428
 20
160.6928489559394
 10
119.4552444524428
 20
160.6928489559394
 10
119.4552444524428
 20
160.6928489559394
 10
119.4552444524428
 20
160.5870861808599
 10
119.4552444524428
 20
160.5870861808599
 10
119.4552444524428
 20
160.5870861808599
 10
118.9787827979317
 20
160.5870861808599
 10
118.9787827979317
 20
160.5870861808599
 10
118.9787827979317
 20
160.5870861808599
 10
118.926748077037
 20
160.2725495222177
 10
118.926748077037
 20
160.2725495222177
 10
118.9632958538824
 20
160.297878966016
 10
119.0225272412601
 20
160.3388717427479
 10
119.1465639047624
 20
160.3388717427479
 10
119.3567166368278
 20
160.3388717427479
 10
119.5117241732241
 20
160.2189978569173
 10
119.5117241732241
 20
159.9933259182302
 10
119.5117241732241
 20
159.7578467575711
 10
119.3243286224494
 20
159.6350448162596
 10
119.10589163689
 20
159.6350448162596
 97
        0
 97
        0
 75
     2
 76
     1
 98
        0
  0
SPLINE
  5
105
330
FD
100
AcDbEntity
  8
_U+30EC_U+30A4_U+30E4_U+30FC 1
370
     0
100
AcDbSpline
210
0.0
220
0.0
230
1.0
 70
    11
 71
     3
 72
    32
 73
    28
 74
     0
 42
0.0000000001
 43
0.0000000001
 12
1.0
 22
0.0
 32
0.0
 13
1.0
 23
0.0
 33
0.0
 40
0.0
 40
0.0
 40
0.0
 40
0.0
 40
1.0
 40
1.0
 40
1.0
 40
2.0
 40
2.0
 40
2.0
 40
3.0
 40
3.0
 40
3.0
 40
4.0
 40
4.0
 40
4.0
 40
5.0
 40
5.0
 40
5.0
 40
6.0
 40
6.0
 40
6.0
 40
7.0
 40
7.0
 40
7.0
 40
8.0
 40
8.0
 40
8.0
 40
9.0
 40
9.0
 40
9.0
 40
9.0
 10
120.0271324934083
 20
159.6350448162596
 30
0.0
 10
119.6743547246306
 20
159.6350448162596
 30
0.0
 10
119.6209471923172
 20
159.9764631408826
 30
0.0
 10
119.6209471923172
 20
160.1554273029835
 30
0.0
 10
119.6209471923172
 20
160.5221397936279
 30
0.0
 10
119.7873494439701
 20
160.7211064552185
 30
0.0
 10
120.0439952707559
 20
160.7211064552185
 30
0.0
 10
120.1766397118163
 20
160.7211064552185
 30
0.0
 10
120.3461494297139
 20
160.658911734583
 30
0.0
 10
120.3840377620807
 20
160.4587809063555
 30
0.0
 10
120.3840377620807
 20
160.4587809063555
 30
0.0
 10
120.2513933210203
 20
160.4587809063555
 30
0.0
 10
120.2513933210203
 20
160.4587809063555
 30
0.0
 10
120.2414097101639
 20
160.4982214609048
 30
0.0
 10
120.2117763775865
 20
160.6110397913599
 30
0.0
 10
120.0439952707559
 20
160.6110397913599
 30
0.0
 10
119.7718272221439
 20
160.6110397913599
 30
0.0
 10
119.759091944691
 20
160.302182854795
 30
0.0
 10
119.7549644447963
 20
160.1977999599507
 30
0.0
 10
119.8073166656829
 20
160.27117773771
 30
0.0
 10
119.8948408301167
 20
160.3402475760462
 30
0.0
 10
120.0484755484193
 20
160.3402475760462
 30
0.0
 10
120.2331547103744
 20
160.3402475760462
 30
0.0
 10
120.4009005394282
 20
160.2274332932765
 30
0.0
 10
120.4009005394282
 20
160.001757306904
 30
0.0
 10
120.4009005394282
 20
159.7973225898973
 30
0.0
 10
120.257249431982
 20
159.6350448162596
 30
0.0
 10
120.0271324934083
 20
159.6350448162596
 30
0.0
  0
SPLINE
  5
106
330
FD
100
AcDbEntity
  8
_U+30EC_U+30A4_U+30E4_U+30FC 1
370
     0
100
AcDbSpline
210
0.0
220
0.0
230
1.0
 70
    11
 71
     3
 72
    20
 73
    16
 74
     0
 42
0.0000000001
 43
0.0000000001
 12
1.0
 22
0.0
 32
0.0
 13
1.0
 23
0.0
 33
0.0
 40
0.0
 40
0.0
 40
0.0
 40
0.0
 40
1.0
 40
1.0
 40
1.0
 40
2.0
 40
2.0
 40
2.0
 40
3.0
 40
3.0
 40
3.0
 40
4.0
 40
4.0
 40
4.0
 40
5.0
 40
5.0
 40
5.0
 40
5.0
 10
120.2172797107795
 20
160.1583553584644
 30
0.0
 10
120.1738880452198
 20
160.2162461903208
 30
0.0
 10
120.1005102693141
 20
160.2358606342648
 30
0.0
 10
120.0298841600048
 20
160.2358606342648
 30
0.0
 10
119.9003471922471
 20
160.2358606342648
 30
0.0
 10
119.7749316665091
 20
160.1611110710708
 30
0.0
 10
119.7749316665091
 20
160.0031331402022
 30
0.0
 10
119.7749316665091
 20
159.8987461984209
 30
0.0
 10
119.8310938872986
 20
159.7408075913391
 30
0.0
 10
120.0230049935136
 20
159.7408075913391
 30
0.0
 10
120.1697605453251
 20
159.7408075913391
 30
0.0
 10
120.2682944143773
 20
159.8353873111485
 30
0.0
 10
120.2682944143773
 20
159.9905742516337
 30
0.0
 10
120.2682944143773
 20
160.0370703615586
 30
0.0
 10
120.2586252652802
 20
160.1047684153871
 30
0.0
 10
120.2172797107795
 20
160.1583553584644
 30
0.0
  0
HATCH
  5
107
330
FD
100
AcDbEntity
  8
_U+30EC_U+30A4_U+30E4_U+30FC 1
 62
   250
420
  1842203
100
AcDbHatch
 10
0.0
 20
0.0
 30
0.0
210
0.0
220
0.0
230
1.0
  2
SOLID
 70
     1
 71
     0
 91
        2
 92
        1
 93
        1
 72
     4
 94
        3
 73
     0
 74
     1
 95
       32
 96
       28
 40
0.0
 40
0.0
 40
0.0
 40
0.0
 40
1.0
 40
1.0
 40
1.0
 40
2.0
 40
2.0
 40
2.0
 40
3.0
 40
3.0
 40
3.0
 40
4.0
 40
4.0
 40
4.0
 40
5.0
 40
5.0
 40
5.0
 40
6.0
 40
6.0
 40
6.0
 40
7.0
 40
7.0
 40
7.0
 40
8.0
 40
8.0
 40
8.0
 40
9.0
 40
9.0
 40
9.0
 40
9.0
 10
120.0271324934083
 20
159.6350448162596
 10
119.6743547246306
 20
159.6350448162596
 10
119.6209471923172
 20
159.9764631408826
 10
119.6209471923172
 20
160.1554273029835
 10
119.6209471923172
 20
160.5221397936279
 10
119.7873494439701
 20
160.7211064552185
 10
120.0439952707559
 20
160.7211064552185
 10
120.1766397118163
 20
160.7211064552185
 10
120.3461494297139
 20
160.658911734583
 10
120.3840377620807
 20
160.4587809063555
 10
120.3840377620807
 20
160.4587809063555
 10
120.2513933210203
 20
160.4587809063555
 10
120.2513933210203
 20
160.4587809063555
 10
120.2414097101639
 20
160.4982214609048
 10
120.2117763775865
 20
160.6110397913599
 10
120.0439952707559
 20
160.6110397913599
 10
119.7718272221439
 20
160.6110397913599
 10
119.759091944691
 20
160.302182854795
 10
119.7549644447963
 20
160.1977999599507
 10
119.8073166656829
 20
160.27117773771
 10
119.8948408301167
 20
160.3402475760462
 10
120.0484755484193
 20
160.3402475760462
 10
120.2331547103744
 20
160.3402475760462
 10
120.4009005394282
 20
160.2274332932765
 10
120.4009005394282
 20
160.001757306904
 10
120.4009005394282
 20
159.7973225898973
 10
120.257249431982
 20
159.6350448162596
 10
120.0271324934083
 20
159.6350448162596
 97
        0
 97
        0
 92
        1
 93
        1
 72
     4
 94
        3
 73
     0
 74
     1
 95
       20
 96
       16
 40
0.0
 40
0.0
 40
0.0
 40
0.0
 40
1.0
 40
1.0
 40
1.0
 40
2.0
 40
2.0
 40
2.0
 40
3.0
 40
3.0
 40
3.0
 40
4.0
 40
4.0
 40
4.0
 40
5.0
 40
5.0
 40
5.0
 40
5.0
 10
120.2172797107795
 20
160.1583553584644
 10
120.1738880452198
 20
160.2162461903208
 10
120.1005102693141
 20
160.2358606342648
 10
120.0298841600048
 20
160.2358606342648
 10
119.9003471922471
 20
160.2358606342648
 10
119.7749316665091
 20
160.1611110710708
 10
119.7749316665091
 20
160.0031331402022
 10
119.7749316665091
 20
159.8987461984209
 10
119.8310938872986
 20
159.7408075913391
 10
120.0230049935136
 20
159.7408075913391
 10
120.1697605453251
 20
159.7408075913391
 10
120.2682944143773
 20
159.8353873111485
 10
120.2682944143773
 20
159.9905742516337
 10
120.2682944143773
 20
160.0370703615586
 10
120.2586252652802
 20
160.1047684153871
 10
120.2172797107795
 20
160.1583553584644
 97
        0
 97
        0
 75
     2
 76
     1
 98
        0
  0
ENDBLK
  5
100
330
FD
100
AcDbEntity
  8
0
100
AcDbBlockEnd
  0
BLOCK
  5
111
330
10F
100
AcDbEntity
  8
0
100
AcDbBlockBegin
  2
block 10
 70
     0
 10
0.0
 20
0.0
 30
0.0
  3
block 10
  1

  0
SPLINE
  5
113
330
10F
100
AcDbEntity
  8
_U+30EC_U+30A4_U+30E4_U+30FC 1
370
     0
100
AcDbSpline
210
0.0
220
0.0
230
1.0
 70
    11
 71
     3
 72
    26
 73
    22
 74
     0
 42
0.0000000001
 43
0.0000000001
 12
1.0
 22
0.0
 32
0.0
 13
1.0
 23
0.0
 33
0.0
 40
0.0
 40
0.0
 40
0.0
 40
0.0
 40
1.0
 40
1.0
 40
1.0
 40
2.0
 40
2.0
 40
2.0
 40
3.0
 40
3.0
 40
3.0
 40
4.0
 40
4.0
 40
4.0
 40
5.0
 40
5.0
 40
5.0
 40
6.0
 40
6.0
 40
6.0
 40
7.0
 40
7.0
 40
7.0
 40
7.0
 10
127.2442600870618
 20
154.7461093854312
 30
0.0
 10
127.2442600870618
 20
154.7461093854312
 30
0.0
 10
126.4911501062752
 20
154.7461093854312
 30
0.0
 10
126.4911501062752
 20
154.7461093854312
 30
0.0
 10
126.4911501062752
 20
154.7461093854312
 30
0.0
 10
126.4911501062752
 20
154.5290805020792
 30
0.0
 10
126.4911501062752
 20
154.5290805020792
 30
0.0
 10
126.4911501062752
 20
154.5290805020792
 30
0.0
 10
126.3995337197237
 20
154.5290805020792
 30
0.0
 10
126.3995337197237
 20
154.5290805020792
 30
0.0
 10
126.393677608762
 20
154.6206968886307
 30
0.0
 10
126.3867631644939
 20
154.7349263301609
 30
0.0
 10
126.2145017799998
 20
154.7786707734894
 30
0.0
 10
126.2145017799998
 20
154.7786707734894
 30
0.0
 10
126.2145017799998
 20
154.8760021598951
 30
0.0
 10
126.2145017799998
 20
154.8760021598951
 30
0.0
 10
126.2145017799998
 20
154.8760021598951
 30
0.0
 10
127.2442600870618
 20
154.8760021598951
 30
0.0
 10
127.2442600870618
 20
154.8760021598951
 30
0.0
 10
127.2442600870618
 20
154.8760021598951
 30
0.0
 10
127.2442600870618
 20
154.7461093854312
 30
0.0
 10
127.2442600870618
 20
154.7461093854312
 30
0.0
  0
HATCH
  5
114
330
10F
100
AcDbEntity
  8
_U+30EC_U+30A4_U+30E4_U+30FC 1
 62
   250
420
  1842203
100
AcDbHatch
 10
0.0
 20
0.0
 30
0.0
210
0.0
220
0.0
230
1.0
  2
SOLID
 70
     1
 71
     0
 91
        1
 92
        1
 93
        1
 72
     4
 94
        3
 73
     0
 74
     1
 95
       26
 96
       22
 40
0.0
 40
0.0
 40
0.0
 40
0.0
 40
1.0
 40
1.0
 40
1.0
 40
2.0
 40
2.0
 40
2.0
 40
3.0
 40
3.0
 40
3.0
 40
4.0
 40
4.0
 40
4.0
 40
5.0
 40
5.0
 40
5.0
 40
6.0
 40
6.0
 40
6.0
 40
7.0
 40
7.0
 40
7.0
 40
7.0
 10
127.2442600870618
 20
154.7461093854312
 10
127.2442600870618
 20
154.7461093854312
 10
126.4911501062752
 20
154.7461093854312
 10
126.4911501062752
 20
154.7461093854312
 10
126.4911501062752
 20
154.7461093854312
 10
126.4911501062752
 20
154.5290805020792
 10
126.4911501062752
 20
154.5290805020792
 10
126.4911501062752
 20
154.5290805020792
 10
126.3995337197237
 20
154.5290805020792
 10
126.3995337197237
 20
154.5290805020792
 10
126.393677608762
 20
154.6206968886307
 10
126.3867631644939
 20
154.7349263301609
 10
126.2145017799998
 20
154.7786707734894
 10
126.2145017799998
 20
154.7786707734894
 10
126.2145017799998
 20
154.8760021598951
 10
126.2145017799998
 20
154.8760021598951
 10
126.2145017799998
 20
154.8760021598951
 10
127.2442600870618
 20
154.8760021598951
 10
127.2442600870618
 20
154.8760021598951
 10
127.2442600870618
 20
154.8760021598951
 10
127.2442600870618
 20
154.7461093854312
 10
127.2442600870618
 20
154.7461093854312
 97
        0
 97
        0
 75
     2
 76
     1
 98
        0
  0
SPLINE
  5
115
330
10F
100
AcDbEntity
  8
_U+30EC_U+30A4_U+30E4_U+30FC 1
370
     0
100
AcDbSpline
210
0.0
220
0.0
230
1.0
 70
    11
 71
     3
 72
    50
 73
    46
 74
     0
 42
0.0000000001
 43
0.0000000001
 12
1.0
 22
0.0
 32
0.0
 13
1.0
 23
0.0
 33
0.0
 40
0.0
 40
0.0
 40
0.0
 40
0.0
 40
1.0
 40
1.0
 40
1.0
 40
2.0
 40
2.0
 40
2.0
 40
3.0
 40
3.0
 40
3.0
 40
4.0
 40
4.0
 40
4.0
 40
5.0
 40
5.0
 40
5.0
 40
6.0
 40
6.0
 40
6.0
 40
7.0
 40
7.0
 40
7.0
 40
8.0
 40
8.0
 40
8.0
 40
9.0
 40
9.0
 40
9.0
 40
10.0
 40
10.0
 40
10.0
 40
11.0
 40
11.0
 40
11.0
 40
12.0
 40
12.0
 40
12.0
 40
13.0
 40
13.0
 40
13.0
 40
14.0
 40
14.0
 40
14.0
 40
15.0
 40
15.0
 40
15.0
 40
15.0
 10
127.2725175863409
 20
155.6676707508091
 30
0.0
 10
127.2725175863409
 20
155.4447857564953
 30
0.0
 10
127.1553600893298
 20
155.3248805167244
 30
0.0
 10
126.9793239827098
 20
155.2938674270123
 30
0.0
 10
126.9793239827098
 20
155.2938674270123
 30
0.0
 10
126.9793239827098
 20
155.4278916278096
 30
0.0
 10
126.9793239827098
 20
155.4278916278096
 30
0.0
 10
127.1019848129138
 20
155.4490896452744
 30
0.0
 10
127.1681306445596
 20
155.5505485315749
 30
0.0
 10
127.1681306445596
 20
155.6676707508091
 30
0.0
 10
127.1681306445596
 20
155.812874080438
 30
0.0
 10
127.0806064801259
 20
155.9412146327193
 30
0.0
 10
126.9155770398917
 20
155.9412146327193
 30
0.0
 10
126.8677083016164
 20
155.9412146327193
 30
0.0
 10
126.6744181571552
 20
155.9243165775948
 30
0.0
 10
126.6744181571552
 20
155.6916243613091
 30
0.0
 10
126.6744181571552
 20
155.6282301962598
 30
0.0
 10
126.6899403789815
 20
155.5279707543731
 30
0.0
 10
126.7677984325507
 20
155.4702563114011
 30
0.0
 10
126.7677984325507
 20
155.4702563114011
 30
0.0
 10
126.7677984325507
 20
155.3376118703407
 30
0.0
 10
126.7677984325507
 20
155.3376118703407
 30
0.0
 10
126.7677984325507
 20
155.3376118703407
 30
0.0
 10
126.2145017799998
 20
155.4292635346691
 30
0.0
 10
126.2145017799998
 20
155.4292635346691
 30
0.0
 10
126.2145017799998
 20
155.4292635346691
 30
0.0
 10
126.2145017799998
 20
156.0173440752215
 30
0.0
 10
126.2145017799998
 20
156.0173440752215
 30
0.0
 10
126.2145017799998
 20
156.0173440752215
 30
0.0
 10
126.3206173328481
 20
156.0173440752215
 30
0.0
 10
126.3206173328481
 20
156.0173440752215
 30
0.0
 10
126.3206173328481
 20
156.0173440752215
 30
0.0
 10
126.3206173328481
 20
155.540706031826
 30
0.0
 10
126.3206173328481
 20
155.540706031826
 30
0.0
 10
126.3206173328481
 20
155.540706031826
 30
0.0
 10
126.6348012137215
 20
155.4885301998238
 30
0.0
 10
126.6348012137215
 20
155.4885301998238
 30
0.0
 10
126.6096834365845
 20
155.5252190877767
 30
0.0
 10
126.5686553820757
 20
155.5844857529313
 30
0.0
 10
126.5686553820757
 20
155.7084871386567
 30
0.0
 10
126.5686553820757
 20
155.9186368555175
 30
0.0
 10
126.6885645456832
 20
156.0738590737797
 30
0.0
 10
126.9142012065934
 20
156.0738590737797
 30
0.0
 10
127.1495039783681
 20
156.0738590737797
 30
0.0
 10
127.2725175863409
 20
155.8862518563437
 30
0.0
 10
127.2725175863409
 20
155.6676707508091
 30
0.0
  0
HATCH
  5
116
330
10F
100
AcDbEntity
  8
_U+30EC_U+30A4_U+30E4_U+30FC 1
 62
   250
420
  1842203
100
AcDbHatch
 10
0.0
 20
0.0
 30
0.0
210
0.0
220
0.0
230
1.0
  2
SOLID
 70
     1
 71
     0
 91
        1
 92
        1
 93
        1
 72
     4
 94
        3
 73
     0
 74
     1
 95
       50
 96
       46
 40
0.0
 40
0.0
 40
0.0
 40
0.0
 40
1.0
 40
1.0
 40
1.0
 40
2.0
 40
2.0
 40
2.0
 40
3.0
 40
3.0
 40
3.0
 40
4.0
 40
4.0
 40
4.0
 40
5.0
 40
5.0
 40
5.0
 40
6.0
 40
6.0
 40
6.0
 40
7.0
 40
7.0
 40
7.0
 40
8.0
 40
8.0
 40
8.0
 40
9.0
 40
9.0
 40
9.0
 40
10.0
 40
10.0
 40
10.0
 40
11.0
 40
11.0
 40
11.0
 40
12.0
 40
12.0
 40
12.0
 40
13.0
 40
13.0
 40
13.0
 40
14.0
 40
14.0
 40
14.0
 40
15.0
 40
15.0
 40
15.0
 40
15.0
 10
127.2725175863409
 20
155.6676707508091
 10
127.2725175863409
 20
155.4447857564953
 10
127.1553600893298
 20
155.3248805167244
 10
126.9793239827098
 20
155.2938674270123
 10
126.9793239827098
 20
155.2938674270123
 10
126.9793239827098
 20
155.4278916278096
 10
126.9793239827098
 20
155.4278916278096
 10
127.1019848129138
 20
155.4490896452744
 10
127.1681306445596
 20
155.5505485315749
 10
127.1681306445596
 20
155.6676707508091
 10
127.1681306445596
 20
155.812874080438
 10
127.0806064801259
 20
155.9412146327193
 10
126.9155770398917
 20
155.9412146327193
 10
126.8677083016164
 20
155.9412146327193
 10
126.6744181571552
 20
155.9243165775948
 10
126.6744181571552
 20
155.6916243613091
 10
126.6744181571552
 20
155.6282301962598
 10
126.6899403789815
 20
155.5279707543731
 10
126.7677984325507
 20
155.4702563114011
 10
126.7677984325507
 20
155.4702563114011
 10
126.7677984325507
 20
155.3376118703407
 10
126.7677984325507
 20
155.3376118703407
 10
126.7677984325507
 20
155.3376118703407
 10
126.2145017799998
 20
155.4292635346691
 10
126.2145017799998
 20
155.4292635346691
 10
126.2145017799998
 20
155.4292635346691
 10
126.2145017799998
 20
156.0173440752215
 10
126.2145017799998
 20
156.0173440752215
 10
126.2145017799998
 20
156.0173440752215
 10
126.3206173328481
 20
156.0173440752215
 10
126.3206173328481
 20
156.0173440752215
 10
126.3206173328481
 20
156.0173440752215
 10
126.3206173328481
 20
155.540706031826
 10
126.3206173328481
 20
155.540706031826
 10
126.3206173328481
 20
155.540706031826
 10
126.6348012137215
 20
155.4885301998238
 10
126.6348012137215
 20
155.4885301998238
 10
126.6096834365845
 20
155.5252190877767
 10
126.5686553820757
 20
155.5844857529313
 10
126.5686553820757
 20
155.7084871386567
 10
126.5686553820757
 20
155.9186368555175
 10
126.6885645456832
 20
156.0738590737797
 10
126.9142012065934
 20
156.0738590737797
 10
127.1495039783681
 20
156.0738590737797
 10
127.2725175863409
 20
155.8862518563437
 10
127.2725175863409
 20
155.6676707508091
 97
        0
 97
        0
 75
     2
 76
     1
 98
        0
  0
SPLINE
  5
117
330
10F
100
AcDbEntity
  8
_U+30EC_U+30A4_U+30E4_U+30FC 1
370
     0
100
AcDbSpline
210
0.0
220
0.0
230
1.0
 70
    11
 71
     3
 72
    32
 73
    28
 74
     0
 42
0.0000000001
 43
0.0000000001
 12
1.0
 22
0.0
 32
0.0
 13
1.0
 23
0.0
 33
0.0
 40
0.0
 40
0.0
 40
0.0
 40
0.0
 40
1.0
 40
1.0
 40
1.0
 40
2.0
 40
2.0
 40
2.0
 40
3.0
 40
3.0
 40
3.0
 40
4.0
 40
4.0
 40
4.0
 40
5.0
 40
5.0
 40
5.0
 40
6.0
 40
6.0
 40
6.0
 40
7.0
 40
7.0
 40
7.0
 40
8.0
 40
8.0
 40
8.0
 40
9.0
 40
9.0
 40
9.0
 40
9.0
 10
127.2725175863409
 20
156.5890557273026
 30
0.0
 10
127.2725175863409
 20
156.2364582942742
 30
0.0
 10
126.9310992617179
 20
156.182867404332
 30
0.0
 10
126.7519587107326
 20
156.182867404332
 30
0.0
 10
126.3853873311957
 20
156.182867404332
 30
0.0
 10
126.1862795584976
 20
156.3492726778644
 30
0.0
 10
126.1862795584976
 20
156.605953782427
 30
0.0
 10
126.1862795584976
 20
156.7385629457106
 30
0.0
 10
126.2486153902406
 20
156.9078962747238
 30
0.0
 10
126.448781496245
 20
156.945960995975
 30
0.0
 10
126.448781496245
 20
156.945960995975
 30
0.0
 10
126.448781496245
 20
156.8133518326914
 30
0.0
 10
126.448781496245
 20
156.8133518326914
 30
0.0
 10
126.4095173305801
 20
156.8035093329425
 30
0.0
 10
126.2965226112406
 20
156.7738760003652
 30
0.0
 10
126.2965226112406
 20
156.605953782427
 30
0.0
 10
126.2965226112406
 20
156.3337857338151
 30
0.0
 10
126.6052031589211
 20
156.3211915674697
 30
0.0
 10
126.7099076006943
 20
156.3168916275875
 30
0.0
 10
126.6362123247966
 20
156.3691027386856
 30
0.0
 10
126.5672795487775
 20
156.4565916275525
 30
0.0
 10
126.5672795487775
 20
156.6102576712061
 30
0.0
 10
126.5672795487775
 20
156.7949055163567
 30
0.0
 10
126.6803095458938
 20
156.9628590510994
 30
0.0
 10
126.9055934290352
 20
156.9628590510994
 30
0.0
 10
127.1102398127032
 20
156.9628590510994
 30
0.0
 10
127.2725175863409
 20
156.8190315547687
 30
0.0
 10
127.2725175863409
 20
156.5890557273026
 30
0.0
  0
SPLINE
  5
118
330
10F
100
AcDbEntity
  8
_U+30EC_U+30A4_U+30E4_U+30FC 1
370
     0
100
AcDbSpline
210
0.0
220
0.0
230
1.0
 70
    11
 71
     3
 72
    20
 73
    16
 74
     0
 42
0.0000000001
 43
0.0000000001
 12
1.0
 22
0.0
 32
0.0
 13
1.0
 23
0.0
 33
0.0
 40
0.0
 40
0.0
 40
0.0
 40
0.0
 40
1.0
 40
1.0
 40
1.0
 40
2.0
 40
2.0
 40
2.0
 40
3.0
 40
3.0
 40
3.0
 40
4.0
 40
4.0
 40
4.0
 40
5.0
 40
5.0
 40
5.0
 40
5.0
 10
126.7492070441361
 20
156.779414611335
 30
0.0
 10
126.6913194127716
 20
156.7358112791141
 30
0.0
 10
126.6716664905588
 20
156.6624335032083
 30
0.0
 10
126.6716664905588
 20
156.5919837827834
 30
0.0
 10
126.6716664905588
 20
156.4620910083195
 30
0.0
 10
126.7464553775396
 20
156.3367137892959
 30
0.0
 10
126.904217595737
 20
156.3367137892959
 30
0.0
 10
127.0089573152871
 20
156.3367137892959
 30
0.0
 10
127.1667548112614
 20
156.3930171211929
 30
0.0
 10
127.1667548112614
 20
156.5849282274079
 30
0.0
 10
127.1667548112614
 20
156.731507390335
 30
0.0
 10
127.0723514803365
 20
156.830214610039
 30
0.0
 10
126.9169528731899
 20
156.830214610039
 30
0.0
 10
126.870456763265
 20
156.830214610039
 30
0.0
 10
126.8029350983209
 20
156.820407388067
 30
0.0
 10
126.7492070441361
 20
156.779414611335
 30
0.0
  0
HATCH
  5
119
330
10F
100
AcDbEntity
  8
_U+30EC_U+30A4_U+30E4_U+30FC 1
 62
   250
420
  1842203
100
AcDbHatch
 10
0.0
 20
0.0
 30
0.0
210
0.0
220
0.0
230
1.0
  2
SOLID
 70
     1
 71
     0
 91
        2
 92
        1
 93
        1
 72
     4
 94
        3
 73
     0
 74
     1
 95
       32
 96
       28
 40
0.0
 40
0.0
 40
0.0
 40
0.0
 40
1.0
 40
1.0
 40
1.0
 40
2.0
 40
2.0
 40
2.0
 40
3.0
 40
3.0
 40
3.0
 40
4.0
 40
4.0
 40
4.0
 40
5.0
 40
5.0
 40
5.0
 40
6.0
 40
6.0
 40
6.0
 40
7.0
 40
7.0
 40
7.0
 40
8.0
 40
8.0
 40
8.0
 40
9.0
 40
9.0
 40
9.0
 40
9.0
 10
127.2725175863409
 20
156.5890557273026
 10
127.2725175863409
 20
156.2364582942742
 10
126.9310992617179
 20
156.182867404332
 10
126.7519587107326
 20
156.182867404332
 10
126.3853873311957
 20
156.182867404332
 10
126.1862795584976
 20
156.3492726778644
 10
126.1862795584976
 20
156.605953782427
 10
126.1862795584976
 20
156.7385629457106
 10
126.2486153902406
 20
156.9078962747238
 10
126.448781496245
 20
156.945960995975
 10
126.448781496245
 20
156.945960995975
 10
126.448781496245
 20
156.8133518326914
 10
126.448781496245
 20
156.8133518326914
 10
126.4095173305801
 20
156.8035093329425
 10
126.2965226112406
 20
156.7738760003652
 10
126.2965226112406
 20
156.605953782427
 10
126.2965226112406
 20
156.3337857338151
 10
126.6052031589211
 20
156.3211915674697
 10
126.7099076006943
 20
156.3168916275875
 10
126.6362123247966
 20
156.3691027386856
 10
126.5672795487775
 20
156.4565916275525
 10
126.5672795487775
 20
156.6102576712061
 10
126.5672795487775
 20
156.7949055163567
 10
126.6803095458938
 20
156.9628590510994
 10
126.9055934290352
 20
156.9628590510994
 10
127.1102398127032
 20
156.9628590510994
 10
127.2725175863409
 20
156.8190315547687
 10
127.2725175863409
 20
156.5890557273026
 97
        0
 97
        0
 92
        1
 93
        1
 72
     4
 94
        3
 73
     0
 74
     1
 95
       20
 96
       16
 40
0.0
 40
0.0
 40
0.0
 40
0.0
 40
1.0
 40
1.0
 40
1.0
 40
2.0
 40
2.0
 40
2.0
 40
3.0
 40
3.0
 40
3.0
 40
4.0
 40
4.0
 40
4.0
 40
5.0
 40
5.0
 40
5.0
 40
5.0
 10
126.7492070441361
 20
156.779414611335
 10
126.6913194127716
 20
156.7358112791141
 10
126.6716664905588
 20
156.6624335032083
 10
126.6716664905588
 20
156.5919837827834
 10
126.6716664905588
 20
156.4620910083195
 10
126.7464553775396
 20
156.3367137892959
 10
126.904217595737
 20
156.3367137892959
 10
127.0089573152871
 20
156.3367137892959
 10
127.1667548112614
 20
156.3930171211929
 10
127.1667548112614
 20
156.5849282274079
 10
127.1667548112614
 20
156.731507390335
 10
127.0723514803365
 20
156.830214610039
 10
126.9169528731899
 20
156.830214610039
 10
126.870456763265
 20
156.830214610039
 10
126.8029350983209
 20
156.820407388067
 10
126.7492070441361
 20
156.779414611335
 97
        0
 97
        0
 75
     2
 76
     1
 98
        0
  0
ENDBLK
  5
112
330
10F
100
AcDbEntity
  8
0
100
AcDbBlockEnd
  0
BLOCK
  5
123
330
121
100
AcDbEntity
  8
0
100
AcDbBlockBegin
  2
block 11
 70
     0
 10
0.0
 20
0.0
 30
0.0
  3
block 11
  1

  0
SPLINE
  5
125
330
121
100
AcDbEntity
  8
_U+30EC_U+30A4_U+30E4_U+30FC 1
370
     0
100
AcDbSpline
210
0.0
220
0.0
230
1.0
 70
    11
 71
     3
 72
    44
 73
    40
 74
     0
 42
0.0000000001
 43
0.0000000001
 12
1.0
 22
0.0
 32
0.0
 13
1.0
 23
0.0
 33
0.0
 40
0.0
 40
0.0
 40
0.0
 40
0.0
 40
1.0
 40
1.0
 40
1.0
 40
2.0
 40
2.0
 40
2.0
 40
3.0
 40
3.0
 40
3.0
 40
4.0
 40
4.0
 40
4.0
 40
5.0
 40
5.0
 40
5.0
 40
6.0
 40
6.0
 40
6.0
 40
7.0
 40
7.0
 40
7.0
 40
8.0
 40
8.0
 40
8.0
 40
9.0
 40
9.0
 40
9.0
 40
10.0
 40
10.0
 40
10.0
 40
11.0
 40
11.0
 40
11.0
 40
12.0
 40
12.0
 40
12.0
 40
13.0
 40
13.0
 40
13.0
 40
13.0
 10
90.66596796469624
 20
154.6226018885821
 30
0.0
 10
90.91143073621173
 20
154.6013999446786
 30
0.0
 10
91.01426545581042
 20
154.4505168929724
 30
0.0
 10
91.16102100762193
 20
154.1924952328884
 30
0.0
 10
91.2483335053944
 20
154.0388252368088
 30
0.0
 10
91.28639822664552
 20
153.9695749607978
 30
0.0
 10
91.41629100110946
 20
153.9695749607978
 30
0.0
 10
91.57839238586278
 20
153.9695749607978
 30
0.0
 10
91.61800932929653
 20
154.1022194018582
 30
0.0
 10
91.61800932929653
 20
154.1981749549657
 30
0.0
 10
91.61800932929653
 20
154.4407096710003
 30
0.0
 10
91.41336294562859
 20
154.4518927262706
 30
0.0
 10
91.35843544702992
 20
154.4548207817515
 30
0.0
 10
91.35843544702992
 20
154.4548207817515
 30
0.0
 10
91.35843544702992
 20
154.5888410561101
 30
0.0
 10
91.35843544702992
 20
154.5888410561101
 30
0.0
 10
91.41766683440768
 20
154.584537167331
 30
0.0
 10
91.5177498874099
 20
154.5788574452537
 30
0.0
 10
91.60664988514188
 20
154.4970130028973
 30
0.0
 10
91.71534071570228
 20
154.3998580053759
 30
0.0
 10
91.72377210437607
 20
154.2517305169926
 30
0.0
 10
91.72377210437607
 20
154.2009305170052
 30
0.0
 10
91.72377210437607
 20
154.054347458635
 30
0.0
 10
91.65607405054763
 20
153.8426455195916
 30
0.0
 10
91.423346556485
 20
153.8426455195916
 30
0.0
 10
91.24127795001885
 20
153.8426455195916
 30
0.0
 10
91.16377497720919
 20
153.9485494057786
 30
0.0
 10
91.06368962121617
 20
154.1375324565128
 30
0.0
 10
90.92536545807845
 20
154.3969299498951
 30
0.0
 10
90.83664184923087
 20
154.4322430045497
 30
0.0
 10
90.77173073977578
 20
154.4605005038288
 30
0.0
 10
90.77173073977578
 20
154.4605005038288
 30
0.0
 10
90.77173073977578
 20
153.8426455195916
 30
0.0
 10
90.77173073977578
 20
153.8426455195916
 30
0.0
 10
90.77173073977578
 20
153.8426455195916
 30
0.0
 10
90.66596796469624
 20
153.8426455195916
 30
0.0
 10
90.66596796469624
 20
153.8426455195916
 30
0.0
 10
90.66596796469624
 20
153.8426455195916
 30
0.0
 10
90.66596796469624
 20
154.6226018885821
 30
0.0
 10
90.66596796469624
 20
154.6226018885821
 30
0.0
  0
HATCH
  5
126
330
121
100
AcDbEntity
  8
_U+30EC_U+30A4_U+30E4_U+30FC 1
 62
   250
420
  1842203
100
AcDbHatch
 10
0.0
 20
0.0
 30
0.0
210
0.0
220
0.0
230
1.0
  2
SOLID
 70
     1
 71
     0
 91
        1
 92
        1
 93
        1
 72
     4
 94
        3
 73
     0
 74
     1
 95
       44
 96
       40
 40
0.0
 40
0.0
 40
0.0
 40
0.0
 40
1.0
 40
1.0
 40
1.0
 40
2.0
 40
2.0
 40
2.0
 40
3.0
 40
3.0
 40
3.0
 40
4.0
 40
4.0
 40
4.0
 40
5.0
 40
5.0
 40
5.0
 40
6.0
 40
6.0
 40
6.0
 40
7.0
 40
7.0
 40
7.0
 40
8.0
 40
8.0
 40
8.0
 40
9.0
 40
9.0
 40
9.0
 40
10.0
 40
10.0
 40
10.0
 40
11.0
 40
11.0
 40
11.0
 40
12.0
 40
12.0
 40
12.0
 40
13.0
 40
13.0
 40
13.0
 40
13.0
 10
90.66596796469624
 20
154.6226018885821
 10
90.91143073621173
 20
154.6013999446786
 10
91.01426545581042
 20
154.4505168929724
 10
91.16102100762193
 20
154.1924952328884
 10
91.2483335053944
 20
154.0388252368088
 10
91.28639822664552
 20
153.9695749607978
 10
91.41629100110946
 20
153.9695749607978
 10
91.57839238586278
 20
153.9695749607978
 10
91.61800932929653
 20
154.1022194018582
 10
91.61800932929653
 20
154.1981749549657
 10
91.61800932929653
 20
154.4407096710003
 10
91.41336294562859
 20
154.4518927262706
 10
91.35843544702992
 20
154.4548207817515
 10
91.35843544702992
 20
154.4548207817515
 10
91.35843544702992
 20
154.5888410561101
 10
91.35843544702992
 20
154.5888410561101
 10
91.41766683440768
 20
154.584537167331
 10
91.5177498874099
 20
154.5788574452537
 10
91.60664988514188
 20
154.4970130028973
 10
91.71534071570228
 20
154.3998580053759
 10
91.72377210437607
 20
154.2517305169926
 10
91.72377210437607
 20
154.2009305170052
 10
91.72377210437607
 20
154.054347458635
 10
91.65607405054763
 20
153.8426455195916
 10
91.423346556485
 20
153.8426455195916
 10
91.24127795001885
 20
153.8426455195916
 10
91.16377497720919
 20
153.9485494057786
 10
91.06368962121617
 20
154.1375324565128
 10
90.92536545807845
 20
154.3969299498951
 10
90.83664184923087
 20
154.4322430045497
 10
90.77173073977578
 20
154.4605005038288
 10
90.77173073977578
 20
154.4605005038288
 10
90.77173073977578
 20
153.8426455195916
 10
90.77173073977578
 20
153.8426455195916
 10
90.77173073977578
 20
153.8426455195916
 10
90.66596796469624
 20
153.8426455195916
 10
90.66596796469624
 20
153.8426455195916
 10
90.66596796469624
 20
153.8426455195916
 10
90.66596796469624
 20
154.6226018885821
 10
90.66596796469624
 20
154.6226018885821
 97
        0
 97
        0
 75
     2
 76
     1
 98
        0
  0
SPLINE
  5
127
330
121
100
AcDbEntity
  8
_U+30EC_U+30A4_U+30E4_U+30FC 1
370
     0
100
AcDbSpline
210
0.0
220
0.0
230
1.0
 70
    11
 71
     3
 72
    17
 73
    13
 74
     0
 42
0.0000000001
 43
0.0000000001
 12
1.0
 22
0.0
 32
0.0
 13
1.0
 23
0.0
 33
0.0
 40
0.0
 40
0.0
 40
0.0
 40
0.0
 40
1.0
 40
1.0
 40
1.0
 40
2.0
 40
2.0
 40
2.0
 40
3.0
 40
3.0
 40
3.0
 40
4.0
 40
4.0
 40
4.0
 40
4.0
 10
91.23852628342239
 20
153.5093058058736
 30
0.0
 10
91.23852628342239
 20
153.6136927476549
 30
0.0
 10
91.31327989262637
 20
153.7167038561379
 30
0.0
 10
91.48106099945703
 20
153.7167038561379
 30
0.0
 10
91.64901849517207
 20
153.7167038561379
 30
0.0
 10
91.72377210437607
 20
153.6136927476549
 30
0.0
 10
91.72377210437607
 20
153.5093058058736
 30
0.0
 10
91.72377210437607
 20
153.403543030794
 30
0.0
 10
91.64901849517207
 20
153.3007083111953
 30
0.0
 10
91.48106099945703
 20
153.3007083111953
 30
0.0
 10
91.31327989262637
 20
153.3007083111953
 30
0.0
 10
91.23852628342239
 20
153.4049188640923
 30
0.0
 10
91.23852628342239
 20
153.5093058058736
 30
0.0
  0
SPLINE
  5
128
330
121
100
AcDbEntity
  8
_U+30EC_U+30A4_U+30E4_U+30FC 1
370
     0
100
AcDbSpline
210
0.0
220
0.0
230
1.0
 70
    11
 71
     3
 72
    17
 73
    13
 74
     0
 42
0.0000000001
 43
0.0000000001
 12
1.0
 22
0.0
 32
0.0
 13
1.0
 23
0.0
 33
0.0
 40
0.0
 40
0.0
 40
0.0
 40
0.0
 40
1.0
 40
1.0
 40
1.0
 40
2.0
 40
2.0
 40
2.0
 40
3.0
 40
3.0
 40
3.0
 40
4.0
 40
4.0
 40
4.0
 40
4.0
 10
91.66863293911612
 20
153.5093058058736
 30
0.0
 10
91.66863293911612
 20
153.59115024823
 30
0.0
 10
91.58269627464188
 20
153.6433260802322
 30
0.0
 10
91.48106099945703
 20
153.6433260802322
 30
0.0
 10
91.37392239107925
 20
153.6433260802322
 30
0.0
 10
91.29348905979795
 20
153.5869874705584
 30
0.0
 10
91.29348905979795
 20
153.5093058058736
 30
0.0
 10
91.29348905979795
 20
153.4290527394207
 30
0.0
 10
91.37529822437749
 20
153.3752855315149
 30
0.0
 10
91.48106099945703
 20
153.3752855315149
 30
0.0
 10
91.58269627464188
 20
153.3752855315149
 30
0.0
 10
91.66863293911612
 20
153.427496641294
 30
0.0
 10
91.66863293911612
 20
153.5093058058736
 30
0.0
  0
HATCH
  5
129
330
121
100
AcDbEntity
  8
_U+30EC_U+30A4_U+30E4_U+30FC 1
 62
   250
420
  1842203
100
AcDbHatch
 10
0.0
 20
0.0
 30
0.0
210
0.0
220
0.0
230
1.0
  2
SOLID
 70
     1
 71
     0
 91
        2
 92
        1
 93
        1
 72
     4
 94
        3
 73
     0
 74
     1
 95
       17
 96
       13
 40
0.0
 40
0.0
 40
0.0
 40
0.0
 40
1.0
 40
1.0
 40
1.0
 40
2.0
 40
2.0
 40
2.0
 40
3.0
 40
3.0
 40
3.0
 40
4.0
 40
4.0
 40
4.0
 40
4.0
 10
91.23852628342239
 20
153.5093058058736
 10
91.23852628342239
 20
153.6136927476549
 10
91.31327989262637
 20
153.7167038561379
 10
91.48106099945703
 20
153.7167038561379
 10
91.64901849517207
 20
153.7167038561379
 10
91.72377210437607
 20
153.6136927476549
 10
91.72377210437607
 20
153.5093058058736
 10
91.72377210437607
 20
153.403543030794
 10
91.64901849517207
 20
153.3007083111953
 10
91.48106099945703
 20
153.3007083111953
 10
91.31327989262637
 20
153.3007083111953
 10
91.23852628342239
 20
153.4049188640923
 10
91.23852628342239
 20
153.5093058058736
 97
        0
 97
        0
 92
        1
 93
        1
 72
     4
 94
        3
 73
     0
 74
     1
 95
       17
 96
       13
 40
0.0
 40
0.0
 40
0.0
 40
0.0
 40
1.0
 40
1.0
 40
1.0
 40
2.0
 40
2.0
 40
2.0
 40
3.0
 40
3.0
 40
3.0
 40
4.0
 40
4.0
 40
4.0
 40
4.0
 10
91.66863293911612
 20
153.5093058058736
 10
91.66863293911612
 20
153.59115024823
 10
91.58269627464188
 20
153.6433260802322
 10
91.48106099945703
 20
153.6433260802322
 10
91.37392239107925
 20
153.6433260802322
 10
91.29348905979795
 20
153.5869874705584
 10
91.29348905979795
 20
153.5093058058736
 10
91.29348905979795
 20
153.4290527394207
 10
91.37529822437749
 20
153.3752855315149
 10
91.48106099945703
 20
153.3752855315149
 10
91.58269627464188
 20
153.3752855315149
 10
91.66863293911612
 20
153.427496641294
 10
91.66863293911612
 20
153.5093058058736
 97
        0
 97
        0
 75
     2
 76
     1
 98
        0
  0
ENDBLK
  5
124
330
121
100
AcDbEntity
  8
0
100
AcDbBlockEnd
  0
ENDSEC
  0
SECTION
  2
ENTITIES
  0
INSERT
  5
42
330
1F
100
AcDbEntity
  8
_U+30EC_U+30A4_U+30E4_U+30FC 1
100
AcDbBlockReference
  2
block 2
 10
0.0
 20
0.0
 30
0.0
  0
POLYLINE
  5
4A
330
1F
100
AcDbEntity
  8
_U+30EC_U+30A4_U+30E4_U+30FC 1
370
     0
100
AcDb2dPolyline
 66
     1
 10
0.0
 20
0.0
 30
0.0
  0
VERTEX
  5
4B
330
4A
100
AcDbEntity
  8
_U+30EC_U+30A4_U+30E4_U+30FC 1
370
     0
100
AcDbVertex
100
AcDb2dVertex
 10
103.1976573672084
 20
159.6872206482618
 30
0.0
  0
VERTEX
  5
4C
330
4A
100
AcDbEntity
  8
_U+30EC_U+30A4_U+30E4_U+30FC 1
370
     0
100
AcDbVertex
100
AcDb2dVertex
 10
95.36782775393577
 20
159.6872206482618
 30
0.0
  0
VERTEX
  5
4D
330
4A
100
AcDbEntity
  8
_U+30EC_U+30A4_U+30E4_U+30FC 1
370
     0
100
AcDbVertex
100
AcDb2dVertex
 10
95.36782775393577
 20
160.7262922884196
 30
0.0
  0
VERTEX
  5
4E
330
4A
100
AcDbEntity
  8
_U+30EC_U+30A4_U+30E4_U+30FC 1
370
     0
100
AcDbVertex
100
AcDb2dVertex
 10
103.1976573672084
 20
160.7262922884196
 30
0.0
  0
VERTEX
  5
4F
330
4A
100
AcDbEntity
  8
_U+30EC_U+30A4_U+30E4_U+30FC 1
370
     0
100
AcDbVertex
100
AcDb2dVertex
 10
103.1976573672084
 20
159.6872206482618
 30
0.0
  0
SEQEND
  5
50
330
4A
100
AcDbEntity
  8
_U+30EC_U+30A4_U+30E4_U+30FC 1
370
     0
  0
INSERT
  5
52
330
1F
100
AcDbEntity
  8
_U+30EC_U+30A4_U+30E4_U+30FC 1
100
AcDbBlockReference
  2
block 3
 10
0.0
 20
0.0
 30
0.0
  0
POLYLINE
  5
93
330
1F
100
AcDbEntity
  8
_U+30EC_U+30A4_U+30E4_U+30FC 1
370
     0
100
AcDb2dPolyline
 66
     1
 10
0.0
 20
0.0
 30
0.0
  0
VERTEX
  5
94
330
93
100
AcDbEntity
  8
_U+30EC_U+30A4_U+30E4_U+30FC 1
370
     0
100
AcDbVertex
100
AcDb2dVertex
 10
88.76269662436384
 20
154.3065130077573
 30
0.0
  0
VERTEX
  5
95
330
93
100
AcDbEntity
  8
_U+30EC_U+30A4_U+30E4_U+30FC 1
370
     0
100
AcDbVertex
100
AcDb2dVertex
 10
87.26116860711545
 20
154.3065130077573
 30
0.0
  0
VERTEX
  5
96
330
93
100
AcDbEntity
  8
_U+30EC_U+30A4_U+30E4_U+30FC 1
370
     0
100
AcDbVertex
100
AcDb2dVertex
 10
87.26116860711545
 20
157.5347470920649
 30
0.0
  0
VERTEX
  5
97
330
93
100
AcDbEntity
  8
_U+30EC_U+30A4_U+30E4_U+30FC 1
370
     0
100
AcDbVertex
100
AcDb2dVertex
 10
88.76269662436384
 20
157.5347470920649
 30
0.0
  0
VERTEX
  5
98
330
93
100
AcDbEntity
  8
_U+30EC_U+30A4_U+30E4_U+30FC 1
370
     0
100
AcDbVertex
100
AcDb2dVertex
 10
88.76269662436384
 20
154.3065130077573
 30
0.0
  0
SEQEND
  5
99
330
93
100
AcDbEntity
  8
_U+30EC_U+30A4_U+30E4_U+30FC 1
370
     0
  0
INSERT
  5
9B
330
1F
100
AcDbEntity
  8
_U+30EC_U+30A4_U+30E4_U+30FC 1
100
AcDbBlockReference
  2
block 4
 10
0.0
 20
0.0
 30
0.0
  0
POLYLINE
  5
A5
330
1F
100
AcDbEntity
  8
_U+30EC_U+30A4_U+30E4_U+30FC 1
370
     0
100
AcDb2dPolyline
 66
     1
 10
0.0
 20
0.0
 30
0.0
  0
VERTEX
  5
A6
330
A5
100
AcDbEntity
  8
_U+30EC_U+30A4_U+30E4_U+30FC 1
370
     0
100
AcDbVertex
100
AcDb2dVertex
 10
100.6743110859426
 20
153.97268329484
 30
0.0
  0
VERTEX
  5
A7
330
A5
100
AcDbEntity
  8
_U+30EC_U+30A4_U+30E4_U+30FC 1
370
     0
100
AcDbVertex
100
AcDb2dVertex
 10
99.8579833083688
 20
153.97268329484
 30
0.0
  0
VERTEX
  5
A8
330
A5
100
AcDbEntity
  8
_U+30EC_U+30A4_U+30E4_U+30FC 1
370
     0
100
AcDbVertex
100
AcDb2dVertex
 10
99.8579833083688
 20
155.3420921480042
 30
0.0
  0
VERTEX
  5
A9
330
A5
100
AcDbEntity
  8
_U+30EC_U+30A4_U+30E4_U+30FC 1
370
     0
100
AcDbVertex
100
AcDb2dVertex
 10
100.6743110859426
 20
155.3420921480042
 30
0.0
  0
VERTEX
  5
AA
330
A5
100
AcDbEntity
  8
_U+30EC_U+30A4_U+30E4_U+30FC 1
370
     0
100
AcDbVertex
100
AcDb2dVertex
 10
100.6743110859426
 20
153.97268329484
 30
0.0
  0
SEQEND
  5
AB
330
A5
100
AcDbEntity
  8
_U+30EC_U+30A4_U+30E4_U+30FC 1
370
     0
  0
INSERT
  5
AD
330
1F
100
AcDbEntity
  8
_U+30EC_U+30A4_U+30E4_U+30FC 1
100
AcDbBlockReference
  2
block 5
 10
0.0
 20
0.0
 30
0.0
  0
POLYLINE
  5
B5
330
1F
100
AcDbEntity
  8
_U+30EC_U+30A4_U+30E4_U+30FC 1
370
     0
100
AcDb2dPolyline
 66
     1
 10
0.0
 20
0.0
 30
0.0
  0
VERTEX
  5
B6
330
B5
100
AcDbEntity
  8
_U+30EC_U+30A4_U+30E4_U+30FC 1
370
     0
100
AcDbVertex
100
AcDb2dVertex
 10
110.314031630099
 20
155.6054760301736
 30
0.0
  0
VERTEX
  5
B7
330
B5
100
AcDbEntity
  8
_U+30EC_U+30A4_U+30E4_U+30FC 1
370
     0
100
AcDbVertex
100
AcDb2dVertex
 10
110.314031630099
 20
155.6054760301736
 30
0.0
  0
VERTEX
  5
B8
330
B5
100
AcDbEntity
  8
_U+30EC_U+30A4_U+30E4_U+30FC 1
370
     0
100
AcDbVertex
100
AcDb2dVertex
 10
110.314031630099
 20
155.3420921480042
 30
0.0
  0
VERTEX
  5
B9
330
B5
100
AcDbEntity
  8
_U+30EC_U+30A4_U+30E4_U+30FC 1
370
     0
100
AcDbVertex
100
AcDb2dVertex
 10
110.314031630099
 20
155.3420921480042
 30
0.0
  0
VERTEX
  5
BA
330
B5
100
AcDbEntity
  8
_U+30EC_U+30A4_U+30E4_U+30FC 1
370
     0
100
AcDbVertex
100
AcDb2dVertex
 10
110.314031630099
 20
155.6054760301736
 30
0.0
  0
SEQEND
  5
BB
330
B5
100
AcDbEntity
  8
_U+30EC_U+30A4_U+30E4_U+30FC 1
370
     0
  0
POLYLINE
  5
BC
330
1F
100
AcDbEntity
  8
_U+30EC_U+30A4_U+30E4_U+30FC 1
370
     0
100
AcDb2dPolyline
 66
     1
 10
0.0
 20
0.0
 30
0.0
  0
VERTEX
  5
BD
330
BC
100
AcDbEntity
  8
_U+30EC_U+30A4_U+30E4_U+30FC 1
370
     0
100
AcDbVertex
100
AcDb2dVertex
 10
110.5448541242103
 20
154.1377088453972
 30
0.0
  0
VERTEX
  5
BE
330
BC
100
AcDbEntity
  8
_U+30EC_U+30A4_U+30E4_U+30FC 1
370
     0
100
AcDbVertex
100
AcDb2dVertex
 10
109.8027888614383
 20
154.1377088453972
 30
0.0
  0
VERTEX
  5
BF
330
BC
100
AcDbEntity
  8
_U+30EC_U+30A4_U+30E4_U+30FC 1
370
     0
100
AcDbVertex
100
AcDb2dVertex
 10
109.8027888614383
 20
156.2733196242466
 30
0.0
  0
VERTEX
  5
C0
330
BC
100
AcDbEntity
  8
_U+30EC_U+30A4_U+30E4_U+30FC 1
370
     0
100
AcDbVertex
100
AcDb2dVertex
 10
110.5448541242103
 20
156.2733196242466
 30
0.0
  0
VERTEX
  5
C1
330
BC
100
AcDbEntity
  8
_U+30EC_U+30A4_U+30E4_U+30FC 1
370
     0
100
AcDbVertex
100
AcDb2dVertex
 10
110.5448541242103
 20
154.1377088453972
 30
0.0
  0
SEQEND
  5
C2
330
BC
100
AcDbEntity
  8
_U+30EC_U+30A4_U+30E4_U+30FC 1
370
     0
  0
INSERT
  5
C4
330
1F
100
AcDbEntity
  8
_U+30EC_U+30A4_U+30E4_U+30FC 1
100
AcDbBlockReference
  2
block 6
 10
0.0
 20
0.0
 30
0.0
  0
POLYLINE
  5
CD
330
1F
100
AcDbEntity
  8
_U+30EC_U+30A4_U+30E4_U+30FC 1
 62
   250
420
  1842203
370
     9
100
AcDb2dPolyline
 66
     1
 10
0.0
 20
0.0
 30
0.0
  0
VERTEX
  5
CE
330
CD
100
AcDbEntity
  8
_U+30EC_U+30A4_U+30E4_U+30FC 1
 62
   250
420
  1842203
370
     9
100
AcDbVertex
100
AcDb2dVertex
 10
100.2160854988302
 20
155.6054760301736
 30
0.0
  0
VERTEX
  5
CF
330
CD
100
AcDbEntity
  8
_U+30EC_U+30A4_U+30E4_U+30FC 1
 62
   250
420
  1842203
370
     9
100
AcDbVertex
100
AcDb2dVertex
 10
100.2160854988302
 20
153.7718430213979
 30
0.0
  0
SEQEND
  5
D0
330
CD
100
AcDbEntity
  8
_U+30EC_U+30A4_U+30E4_U+30FC 1
 62
   250
420
  1842203
370
     9
  0
POLYLINE
  5
D1
330
1F
100
AcDbEntity
  8
_U+30EC_U+30A4_U+30E4_U+30FC 1
370
     0
100
AcDb2dPolyline
 66
     1
 10
0.0
 20
0.0
 30
0.0
  0
VERTEX
  5
D2
330
D1
100
AcDbEntity
  8
_U+30EC_U+30A4_U+30E4_U+30FC 1
370
     0
100
AcDbVertex
100
AcDb2dVertex
 10
106.6374170016751
 20
151.4527525250073
 30
0.0
  0
VERTEX
  5
D3
330
D1
100
AcDbEntity
  8
_U+30EC_U+30A4_U+30E4_U+30FC 1
370
     0
100
AcDbVertex
100
AcDb2dVertex
 10
103.9705581808234
 20
151.4527525250073
 30
0.0
  0
VERTEX
  5
D4
330
D1
100
AcDbEntity
  8
_U+30EC_U+30A4_U+30E4_U+30FC 1
370
     0
100
AcDbVertex
100
AcDb2dVertex
 10
103.9705581808234
 20
152.9158983210126
 30
0.0
  0
VERTEX
  5
D5
330
D1
100
AcDbEntity
  8
_U+30EC_U+30A4_U+30E4_U+30FC 1
370
     0
100
AcDbVertex
100
AcDb2dVertex
 10
106.6374170016751
 20
152.9158983210126
 30
0.0
  0
VERTEX
  5
D6
330
D1
100
AcDbEntity
  8
_U+30EC_U+30A4_U+30E4_U+30FC 1
370
     0
100
AcDbVertex
100
AcDb2dVertex
 10
106.6374170016751
 20
151.4527525250073
 30
0.0
  0
SEQEND
  5
D7
330
D1
100
AcDbEntity
  8
_U+30EC_U+30A4_U+30E4_U+30FC 1
370
     0
  0
INSERT
  5
D9
330
1F
100
AcDbEntity
  8
_U+30EC_U+30A4_U+30E4_U+30FC 1
100
AcDbBlockReference
  2
block 7
 10
0.0
 20
0.0
 30
0.0
  0
POLYLINE
  5
E3
330
1F
100
AcDbEntity
  8
_U+30EC_U+30A4_U+30E4_U+30FC 1
370
     0
100
AcDb2dPolyline
 66
     1
 10
0.0
 20
0.0
 30
0.0
  0
VERTEX
  5
E4
330
E3
100
AcDbEntity
  8
_U+30EC_U+30A4_U+30E4_U+30FC 1
370
     0
100
AcDbVertex
100
AcDb2dVertex
 10
120.5562991465748
 20
151.0117803140352
 30
0.0
  0
VERTEX
  5
E5
330
E3
100
AcDbEntity
  8
_U+30EC_U+30A4_U+30E4_U+30FC 1
370
     0
100
AcDbVertex
100
AcDb2dVertex
 10
117.8897931034919
 20
151.0117803140352
 30
0.0
  0
VERTEX
  5
E6
330
E3
100
AcDbEntity
  8
_U+30EC_U+30A4_U+30E4_U+30FC 1
370
     0
100
AcDbVertex
100
AcDb2dVertex
 10
117.8897931034919
 20
152.4749261100406
 30
0.0
  0
VERTEX
  5
E7
330
E3
100
AcDbEntity
  8
_U+30EC_U+30A4_U+30E4_U+30FC 1
370
     0
100
AcDbVertex
100
AcDb2dVertex
 10
120.5562991465748
 20
152.4749261100406
 30
0.0
  0
VERTEX
  5
E8
330
E3
100
AcDbEntity
  8
_U+30EC_U+30A4_U+30E4_U+30FC 1
370
     0
100
AcDbVertex
100
AcDb2dVertex
 10
120.5562991465748
 20
151.0117803140352
 30
0.0
  0
SEQEND
  5
E9
330
E3
100
AcDbEntity
  8
_U+30EC_U+30A4_U+30E4_U+30FC 1
370
     0
  0
INSERT
  5
EB
330
1F
100
AcDbEntity
  8
_U+30EC_U+30A4_U+30E4_U+30FC 1
100
AcDbBlockReference
  2
block 8
 10
0.0
 20
0.0
 30
0.0
  0
POLYLINE
  5
F6
330
1F
100
AcDbEntity
  8
_U+30EC_U+30A4_U+30E4_U+30FC 1
370
     0
100
AcDb2dPolyline
 66
     1
 10
0.0
 20
0.0
 30
0.0
  0
VERTEX
  5
F7
330
F6
100
AcDbEntity
  8
_U+30EC_U+30A4_U+30E4_U+30FC 1
370
     0
100
AcDbVertex
100
AcDb2dVertex
 10
120.5721388683929
 20
159.3966416268174
 30
0.0
  0
VERTEX
  5
F8
330
F6
100
AcDbEntity
  8
_U+30EC_U+30A4_U+30E4_U+30FC 1
370
     0
100
AcDbVertex
100
AcDb2dVertex
 10
117.9052800475413
 20
159.3966416268174
 30
0.0
  0
VERTEX
  5
F9
330
F6
100
AcDbEntity
  8
_U+30EC_U+30A4_U+30E4_U+30FC 1
370
     0
100
AcDbVertex
100
AcDb2dVertex
 10
117.9052800475413
 20
160.859783396125
 30
0.0
  0
VERTEX
  5
FA
330
F6
100
AcDbEntity
  8
_U+30EC_U+30A4_U+30E4_U+30FC 1
370
     0
100
AcDbVertex
100
AcDb2dVertex
 10
120.5721388683929
 20
160.859783396125
 30
0.0
  0
VERTEX
  5
FB
330
F6
100
AcDbEntity
  8
_U+30EC_U+30A4_U+30E4_U+30FC 1
370
     0
100
AcDbVertex
100
AcDb2dVertex
 10
120.5721388683929
 20
159.3966416268174
 30
0.0
  0
SEQEND
  5
FC
330
F6
100
AcDbEntity
  8
_U+30EC_U+30A4_U+30E4_U+30FC 1
370
     0
  0
INSERT
  5
FE
330
1F
100
AcDbEntity
  8
_U+30EC_U+30A4_U+30E4_U+30FC 1
100
AcDbBlockReference
  2
block 9
 10
0.0
 20
0.0
 30
0.0
  0
POLYLINE
  5
108
330
1F
100
AcDbEntity
  8
_U+30EC_U+30A4_U+30E4_U+30FC 1
370
     0
100
AcDb2dPolyline
 66
     1
 10
0.0
 20
0.0
 30
0.0
  0
VERTEX
  5
109
330
108
100
AcDbEntity
  8
_U+30EC_U+30A4_U+30E4_U+30FC 1
370
     0
100
AcDbVertex
100
AcDb2dVertex
 10
127.5112423024728
 20
157.1337446022953
 30
0.0
  0
VERTEX
  5
10A
330
108
100
AcDbEntity
  8
_U+30EC_U+30A4_U+30E4_U+30FC 1
370
     0
100
AcDbVertex
100
AcDb2dVertex
 10
127.5112423024728
 20
154.4668857814437
 30
0.0
  0
VERTEX
  5
10B
330
108
100
AcDbEntity
  8
_U+30EC_U+30A4_U+30E4_U+30FC 1
370
     0
100
AcDbVertex
100
AcDb2dVertex
 10
126.0477790064755
 20
154.4668857814437
 30
0.0
  0
VERTEX
  5
10C
330
108
100
AcDbEntity
  8
_U+30EC_U+30A4_U+30E4_U+30FC 1
370
     0
100
AcDbVertex
100
AcDb2dVertex
 10
126.0477790064755
 20
157.1337446022953
 30
0.0
  0
VERTEX
  5
10D
330
108
100
AcDbEntity
  8
_U+30EC_U+30A4_U+30E4_U+30FC 1
370
     0
100
AcDbVertex
100
AcDb2dVertex
 10
127.5112423024728
 20
157.1337446022953
 30
0.0
  0
SEQEND
  5
10E
330
108
100
AcDbEntity
  8
_U+30EC_U+30A4_U+30E4_U+30FC 1
370
     0
  0
INSERT
  5
110
330
1F
100
AcDbEntity
  8
_U+30EC_U+30A4_U+30E4_U+30FC 1
100
AcDbBlockReference
  2
block 10
 10
0.0
 20
0.0
 30
0.0
  0
POLYLINE
  5
11A
330
1F
100
AcDbEntity
  8
_U+30EC_U+30A4_U+30E4_U+30FC 1
370
     0
100
AcDb2dPolyline
 66
     1
 10
0.0
 20
0.0
 30
0.0
  0
VERTEX
  5
11B
330
11A
100
AcDbEntity
  8
_U+30EC_U+30A4_U+30E4_U+30FC 1
370
     0
100
AcDbVertex
100
AcDb2dVertex
 10
90.75208331064532
 20
154.7554227185269
 30
0.0
  0
VERTEX
  5
11C
330
11A
100
AcDbEntity
  8
_U+30EC_U+30A4_U+30E4_U+30FC 1
370
     0
100
AcDbVertex
100
AcDb2dVertex
 10
91.72222219929166
 20
154.7554227185269
 30
0.0
  0
VERTEX
  5
11D
330
11A
100
AcDbEntity
  8
_U+30EC_U+30A4_U+30E4_U+30FC 1
370
     0
100
AcDbVertex
100
AcDb2dVertex
 10
91.72222219929166
 20
153.7718430213979
 30
0.0
  0
VERTEX
  5
11E
330
11A
100
AcDbEntity
  8
_U+30EC_U+30A4_U+30E4_U+30FC 1
370
     0
100
AcDbVertex
100
AcDb2dVertex
 10
90.75208331064532
 20
153.7718430213979
 30
0.0
  0
VERTEX
  5
11F
330
11A
100
AcDbEntity
  8
_U+30EC_U+30A4_U+30E4_U+30FC 1
370
     0
100
AcDbVertex
100
AcDb2dVertex
 10
90.75208331064532
 20
154.7554227185269
 30
0.0
  0
SEQEND
  5
120
330
11A
100
AcDbEntity
  8
_U+30EC_U+30A4_U+30E4_U+30FC 1
370
     0
  0
INSERT
  5
122
330
1F
100
AcDbEntity
  8
_U+30EC_U+30A4_U+30E4_U+30FC 1
100
AcDbBlockReference
  2
block 11
 10
0.0
 20
0.0
 30
0.0
  0
ENDSEC
  0
SECTION
  2
OBJECTS
  0
DICTIONARY
  5
C
330
0
100
AcDbDictionary
281
     1
  3
ACAD_GROUP
350
D
  3
ACAD_IMAGE_DICT
350
45
  3
ACAD_IMAGE_VARS
350
47
  3
ACAD_LAYOUT
350
1A
  3
ACAD_MATERIAL
350
3B
  3
ACAD_MLEADERSTYLE
350
12B
  3
ACAD_MLINESTYLE
350
17
  3
ACAD_PLOTSETTINGS
350
19
  3
ACAD_PLOTSTYLENAME
350
E
  3
ACAD_TABLESTYLE
350
12A
  3
ACAD_VISUALSTYLE
350
2A
  0
SUN
  5
3F
330
29
100
AcDbSun
 90
        1
290
     0
 63
     7
421
 16777215
 40
1.0
291
     1
 91
  2455826
 92
 54000000
292
     0
 70
     2
 71
   256
280
     1
  0
IMAGEDEF_REACTOR
  5
49
330
48
100
AcDbRasterImageDefReactor
 90
        2
330
48
  0
DICTIONARY
  5
D
102
{ACAD_REACTORS
330
C
102
}
330
C
100
AcDbDictionary
281
     1
  0
DICTIONARY
  5
45
102
{ACAD_REACTORS
330
C
102
}
330
C
100
AcDbDictionary
281
     1
  3
C:\Users\yamazaks\Pictures\170630_\U+5E73\U+7530\U+30BF\U+30A4\U+30EB\U+69D8\26468400\26468400\U+5B8C\U+6210\U+56F3_1.png
350
46
  0
RASTERVARIABLES
  5
47
102
{ACAD_REACTORS
330
C
102
}
330
C
100
AcDbRasterVariables
 90
        0
 70
     0
 71
     1
 72
     0
  0
DICTIONARY
  5
1A
102
{ACAD_REACTORS
330
C
102
}
330
C
100
AcDbDictionary
281
     1
  3
Layout1
350
1E
  3
Layout2
350
26
  3
Model
350
22
  0
DICTIONARY
  5
3B
102
{ACAD_REACTORS
330
C
102
}
330
C
100
AcDbDictionary
281
     1
  3
ByBlock
350
3D
  3
ByLayer
350
3C
  3
Global
350
3E
  0
DICTIONARY
  5
12B
102
{ACAD_REACTORS
330
C
102
}
330
C
100
AcDbDictionary
281
     1
  0
DICTIONARY
  5
17
102
{ACAD_REACTORS
330
C
102
}
330
C
100
AcDbDictionary
281
     1
  3
Standard
350
18
  0
DICTIONARY
  5
19
102
{ACAD_REACTORS
330
C
102
}
330
C
100
AcDbDictionary
281
     1
  0
ACDBDICTIONARYWDFLT
  5
E
102
{ACAD_REACTORS
330
C
102
}
330
C
100
AcDbDictionary
281
     1
  3
Normal
350
F
100
AcDbDictionaryWithDefault
340
F
  0
DICTIONARY
  5
12A
102
{ACAD_REACTORS
330
C
102
}
330
C
100
AcDbDictionary
281
     1
  0
DICTIONARY
  5
2A
102
{ACAD_REACTORS
330
C
102
}
330
C
100
AcDbDictionary
281
     1
  3
2dWireframe
350
2F
  3
3D Hidden
350
31
  3
3dWireframe
350
30
  3
Basic
350
32
  3
Brighten
350
36
  3
ColorChange
350
3A
  3
Conceptual
350
34
  3
Dim
350
35
  3
Facepattern
350
39
  3
Flat
350
2B
  3
FlatWithEdges
350
2C
  3
Gouraud
350
2D
  3
GouraudWithEdges
350
2E
  3
Linepattern
350
38
  3
Realistic
350
33
  3
Thicken
350
37
  0
IMAGEDEF
  5
46
102
{ACAD_REACTORS
330
45
330
49
102
}
330
45
100
AcDbRasterImageDef
 90
        0
  1
C:\Users\yamazaks\Pictures\170630_\U+5E73\U+7530\U+30BF\U+30A4\U+30EB\U+69D8\26468400\26468400\U+5B8C\U+6210\U+56F3_1.png
 10
904.0
 20
542.0
 11
0.3527777777777777
 21
0.3527777777777777
280
     1
281
     5
  0
LAYOUT
  5
1E
102
{ACAD_REACTORS
330
1A
102
}
330
1A
100
AcDbPlotSettings
  1

  2
none_device
  4

  6

 40
0.0
 41
0.0
 42
0.0
 43
0.0
 44
0.0
 45
0.0
 46
0.0
 47
0.0
 48
0.0
 49
0.0
140
0.0
141
0.0
142
1.0
143
1.0
 70
   688
 72
     0
 73
     0
 74
     5
  7

 75
    16
 76
     0
 77
     2
 78
   300
147
1.0
148
0.0
149
0.0
100
AcDbLayout
  1
Layout1
 70
     1
 71
     1
 10
0.0
 20
0.0
 11
12.0
 21
9.0
 12
0.0
 22
0.0
 32
0.0
 14
1.000000000000000E+20
 24
1.000000000000000E+20
 34
1.000000000000000E+20
 15
-1.000000000000000E+20
 25
-1.000000000000000E+20
 35
-1.000000000000000E+20
146
0.0
 13
0.0
 23
0.0
 33
0.0
 16
1.0
 26
0.0
 36
0.0
 17
0.0
 27
1.0
 37
0.0
 76
     0
330
1B
  0
LAYOUT
  5
26
102
{ACAD_REACTORS
330
1A
102
}
330
1A
100
AcDbPlotSettings
  1

  2
none_device
  4

  6

 40
0.0
 41
0.0
 42
0.0
 43
0.0
 44
0.0
 45
0.0
 46
0.0
 47
0.0
 48
0.0
 49
0.0
140
0.0
141
0.0
142
1.0
143
1.0
 70
   688
 72
     0
 73
     0
 74
     5
  7

 75
    16
 76
     0
 77
     2
 78
   300
147
1.0
148
0.0
149
0.0
100
AcDbLayout
  1
Layout2
 70
     1
 71
     2
 10
0.0
 20
0.0
 11
0.0
 21
0.0
 12
0.0
 22
0.0
 32
0.0
 14
0.0
 24
0.0
 34
0.0
 15
0.0
 25
0.0
 35
0.0
146
0.0
 13
0.0
 23
0.0
 33
0.0
 16
1.0
 26
0.0
 36
0.0
 17
0.0
 27
1.0
 37
0.0
 76
     0
330
23
  0
LAYOUT
  5
22
102
{ACAD_REACTORS
330
1A
102
}
330
1A
100
AcDbPlotSettings
  1

  2
none_device
  4

  6

 40
0.0
 41
0.0
 42
0.0
 43
0.0
 44
0.0
 45
0.0
 46
0.0
 47
0.0
 48
0.0
 49
0.0
140
0.0
141
0.0
142
1.0
143
1.0
 70
  1712
 72
     0
 73
     0
 74
     0
  7

 75
     0
 76
     0
 77
     2
 78
   300
147
1.0
148
0.0
149
0.0
100
AcDbLayout
  1
Model
 70
     1
 71
     0
 10
0.0
 20
0.0
 11
12.0
 21
9.0
 12
0.0
 22
0.0
 32
0.0
 14
1.000000000000000E+20
 24
1.000000000000000E+20
 34
1.000000000000000E+20
 15
-1.000000000000000E+20
 25
-1.000000000000000E+20
 35
-1.000000000000000E+20
146
0.0
 13
0.0
 23
0.0
 33
0.0
 16
1.0
 26
0.0
 36
0.0
 17
0.0
 27
1.0
 37
0.0
 76
     0
330
1F
331
29
  0
MATERIAL
  5
3D
102
{ACAD_REACTORS
330
3B
102
}
330
3B
100
AcDbMaterial
  1
ByBlock
 72
     1
 94
      127
  0
MATERIAL
  5
3C
102
{ACAD_REACTORS
330
3B
102
}
330
3B
100
AcDbMaterial
  1
ByLayer
 72
     1
 94
      127
  0
MATERIAL
  5
3E
102
{ACAD_REACTORS
330
3B
102
}
330
3B
100
AcDbMaterial
  1
Global
 72
     1
 94
      127
  0
MLINESTYLE
  5
18
102
{ACAD_REACTORS
330
17
102
}
330
17
100
AcDbMlineStyle
  2
Standard
 70
     0
  3

 62
   256
 51
90.0
 52
90.0
 71
     2
 49
0.5
 62
   256
  6
BYLAYER
 49
-0.5
 62
   256
  6
BYLAYER
  0
ACDBPLACEHOLDER
  5
F
102
{ACAD_REACTORS
330
E
102
}
330
E
  0
VISUALSTYLE
  5
2F
102
{ACAD_REACTORS
330
2A
102
}
330
2A
100
AcDbVisualStyle
  2
2dWireframe
 70
     4
177
     2
291
     0
 71
     0
176
     1
 72
     2
176
     1
 73
     0
176
     1
 90
        0
176
     1
 40
-0.6
176
     1
 41
-30.0
176
     1
 62
     5
 63
     7
421
 16777215
176
     1
 74
     1
176
     1
 91
        4
176
     1
 64
     7
176
     1
 65
   257
176
     1
 75
     1
176
     1
175
     1
176
     1
 42
1.0
176
     1
 92
        0
176
     1
 66
   257
176
     1
 43
1.0
176
     1
 76
     1
176
     1
 77
     6
176
     1
 78
     2
176
     1
 67
     7
176
     1
 79
     5
176
     1
170
     0
176
     1
171
     0
176
     1
290
     0
176
     1
 93
        1
176
     1
 44
0.0
176
     1
173
     0
176
     1
  0
VISUALSTYLE
  5
31
102
{ACAD_REACTORS
330
2A
102
}
330
2A
100
AcDbVisualStyle
  2
3D Hidden
 70
     6
177
     2
291
     0
 71
     1
176
     1
 72
     2
176
     1
 73
     2
176
     1
 90
        0
176
     1
 40
-0.6
176
     1
 41
-30.0
176
     1
 62
     5
 63
     7
421
 16777215
176
     1
 74
     2
176
     1
 91
        2
176
     1
 64
     7
176
     1
 65
   257
176
     1
 75
     2
176
     1
175
     1
176
     1
 42
40.0
176
     1
 92
        0
176
     1
 66
   257
176
     1
 43
1.0
176
     1
 76
     1
176
     1
 77
     6
176
     1
 78
     2
176
     1
 67
     7
176
     1
 79
     3
176
     1
170
     0
176
     1
171
     0
176
     1
290
     0
176
     1
 93
        1
176
     1
 44
0.0
176
     1
173
     0
176
     1
  0
VISUALSTYLE
  5
30
102
{ACAD_REACTORS
330
2A
102
}
330
2A
100
AcDbVisualStyle
  2
3dWireframe
 70
     5
177
     2
291
     0
 71
     0
176
     1
 72
     2
176
     1
 73
     0
176
     1
 90
        0
176
     1
 40
-0.6
176
     1
 41
-30.0
176
     1
 62
     5
 63
     7
421
 16777215
176
     1
 74
     1
176
     1
 91
        4
176
     1
 64
     7
176
     1
 65
   257
176
     1
 75
     1
176
     1
175
     1
176
     1
 42
1.0
176
     1
 92
        0
176
     1
 66
   257
176
     1
 43
1.0
176
     1
 76
     1
176
     1
 77
     6
176
     1
 78
     2
176
     1
 67
     7
176
     1
 79
     5
176
     1
170
     0
176
     1
171
     0
176
     1
290
     0
176
     1
 93
        1
176
     1
 44
0.0
176
     1
173
     0
176
     1
  0
VISUALSTYLE
  5
32
102
{ACAD_REACTORS
330
2A
102
}
330
2A
100
AcDbVisualStyle
  2
Basic
 70
     7
177
     2
291
     1
 71
     1
176
     1
 72
     0
176
     1
 73
     1
176
     1
 90
        0
176
     1
 40
-0.6
176
     1
 41
-30.0
176
     1
 62
     5
 63
     7
421
 16777215
176
     1
 74
     0
176
     1
 91
        4
176
     1
 64
     7
176
     1
 65
   257
176
     1
 75
     1
176
     1
175
     1
176
     1
 42
1.0
176
     1
 92
        8
176
     1
 66
     7
176
     1
 43
1.0
176
     1
 76
     1
176
     1
 77
     6
176
     1
 78
     2
176
     1
 67
     7
176
     1
 79
     5
176
     1
170
     0
176
     1
171
     0
176
     1
290
     0
176
     1
 93
        1
176
     1
 44
0.0
176
     1
173
     0
176
     1
  0
VISUALSTYLE
  5
36
102
{ACAD_REACTORS
330
2A
102
}
330
2A
100
AcDbVisualStyle
  2
Brighten
 70
    12
177
     2
291
     1
 71
     2
176
     1
 72
     2
176
     1
 73
     0
176
     1
 90
        0
176
     1
 40
-0.6
176
     1
 41
-30.0
176
     1
 62
     5
 63
     7
421
 16777215
176
     1
 74
     1
176
     1
 91
        4
176
     1
 64
     7
176
     1
 65
   257
176
     1
 75
     1
176
     1
175
     1
176
     1
 42
1.0
176
     1
 92
        8
176
     1
 66
     7
176
     1
 43
1.0
176
     1
 76
     1
176
     1
 77
     6
176
     1
 78
     2
176
     1
 67
     7
176
     1
 79
     5
176
     1
170
     0
176
     1
171
     0
176
     1
290
     0
176
     1
 93
        1
176
     1
 44
50.0
176
     1
173
     0
176
     1
  0
VISUALSTYLE
  5
3A
102
{ACAD_REACTORS
330
2A
102
}
330
2A
100
AcDbVisualStyle
  2
ColorChange
 70
    16
177
     2
291
     1
 71
     2
176
     1
 72
     2
176
     1
 73
     3
176
     1
 90
        0
176
     1
 40
-0.6
176
     1
 41
-30.0
176
     1
 62
     5
 63
     8
421
  8421504
176
     1
 74
     1
176
     1
 91
        4
176
     1
 64
     7
176
     1
 65
   257
176
     1
 75
     1
176
     1
175
     1
176
     1
 42
1.0
176
     1
 92
        8
176
     1
 66
     8
424
  8421504
176
     1
 43
1.0
176
     1
 76
     1
176
     1
 77
     6
176
     1
 78
     2
176
     1
 67
     7
176
     1
 79
     5
176
     1
170
     0
176
     1
171
     0
176
     1
290
     0
176
     1
 93
        1
176
     1
 44
0.0
176
     1
173
     0
176
     1
  0
VISUALSTYLE
  5
34
102
{ACAD_REACTORS
330
2A
102
}
330
2A
100
AcDbVisualStyle
  2
Conceptual
 70
     9
177
     2
291
     0
 71
     3
176
     1
 72
     2
176
     1
 73
     0
176
     1
 90
        0
176
     1
 40
-0.6
176
     1
 41
-30.0
176
     1
 62
     5
 63
     7
421
 16777215
176
     1
 74
     2
176
     1
 91
        2
176
     1
 64
     7
176
     1
 65
   257
176
     1
 75
     1
176
     1
175
     1
176
     1
 42
40.0
176
     1
 92
        8
176
     1
 66
     7
176
     1
 43
1.0
176
     1
 76
     1
176
     1
 77
     6
176
     1
 78
     2
176
     1
 67
     7
176
     1
 79
     3
176
     1
170
     0
176
     1
171
     0
176
     1
290
     0
176
     1
 93
        1
176
     1
 44
0.0
176
     1
173
     0
176
     1
  0
VISUALSTYLE
  5
35
102
{ACAD_REACTORS
330
2A
102
}
330
2A
100
AcDbVisualStyle
  2
Dim
 70
    11
177
     2
291
     1
 71
     2
176
     1
 72
     2
176
     1
 73
     0
176
     1
 90
        0
176
     1
 40
-0.6
176
     1
 41
-30.0
176
     1
 62
     5
 63
     7
421
 16777215
176
     1
 74
     1
176
     1
 91
        4
176
     1
 64
     7
176
     1
 65
   257
176
     1
 75
     1
176
     1
175
     1
176
     1
 42
1.0
176
     1
 92
        8
176
     1
 66
     7
176
     1
 43
1.0
176
     1
 76
     1
176
     1
 77
     6
176
     1
 78
     2
176
     1
 67
     7
176
     1
 79
     5
176
     1
170
     0
176
     1
171
     0
176
     1
290
     0
176
     1
 93
        1
176
     1
 44
-50.0
176
     1
173
     0
176
     1
  0
VISUALSTYLE
  5
39
102
{ACAD_REACTORS
330
2A
102
}
330
2A
100
AcDbVisualStyle
  2
Facepattern
 70
    15
177
     2
291
     1
 71
     2
176
     1
 72
     2
176
     1
 73
     0
176
     1
 90
        0
176
     1
 40
-0.6
176
     1
 41
-30.0
176
     1
 62
     5
 63
     7
421
 16777215
176
     1
 74
     1
176
     1
 91
        4
176
     1
 64
     7
176
     1
 65
   257
176
     1
 75
     1
176
     1
175
     1
176
     1
 42
1.0
176
     1
 92
        8
176
     1
 66
     7
176
     1
 43
1.0
176
     1
 76
     1
176
     1
 77
     6
176
     1
 78
     2
176
     1
 67
     7
176
     1
 79
     5
176
     1
170
     0
176
     1
171
     0
176
     1
290
     0
176
     1
 93
        1
176
     1
 44
0.0
176
     1
173
     0
176
     1
  0
VISUALSTYLE
  5
2B
102
{ACAD_REACTORS
330
2A
102
}
330
2A
100
AcDbVisualStyle
  2
Flat
 70
     0
177
     2
291
     1
 71
     2
176
     1
 72
     1
176
     1
 73
     1
176
     1
 90
        2
176
     1
 40
-0.6
176
     1
 41
30.0
176
     1
 62
     5
 63
     7
421
 16777215
176
     1
 74
     0
176
     1
 91
        4
176
     1
 64
     7
176
     1
 65
   257
176
     1
 75
     1
176
     1
175
     1
176
     1
 42
1.0
176
     1
 92
        8
176
     1
 66
     7
176
     1
 43
1.0
176
     1
 76
     1
176
     1
 77
     6
176
     1
 78
     2
176
     1
 67
     7
176
     1
 79
     5
176
     1
170
     0
176
     1
171
     0
176
     1
290
     0
176
     1
 93
       13
176
     1
 44
0.0
176
     1
173
     0
176
     1
  0
VISUALSTYLE
  5
2C
102
{ACAD_REACTORS
330
2A
102
}
330
2A
100
AcDbVisualStyle
  2
FlatWithEdges
 70
     1
177
     2
291
     1
 71
     2
176
     1
 72
     1
176
     1
 73
     1
176
     1
 90
        2
176
     1
 40
-0.6
176
     1
 41
30.0
176
     1
 62
     5
 63
     7
421
 16777215
176
     1
 74
     1
176
     1
 91
        4
176
     1
 64
     7
176
     1
 65
   257
176
     1
 75
     1
176
     1
175
     1
176
     1
 42
1.0
176
     1
 92
        0
176
     1
 66
   257
176
     1
 43
1.0
176
     1
 76
     1
176
     1
 77
     6
176
     1
 78
     2
176
     1
 67
     7
176
     1
 79
     5
176
     1
170
     0
176
     1
171
     0
176
     1
290
     0
176
     1
 93
       13
176
     1
 44
0.0
176
     1
173
     0
176
     1
  0
VISUALSTYLE
  5
2D
102
{ACAD_REACTORS
330
2A
102
}
330
2A
100
AcDbVisualStyle
  2
Gouraud
 70
     2
177
     2
291
     1
 71
     2
176
     1
 72
     2
176
     1
 73
     1
176
     1
 90
        2
176
     1
 40
-0.6
176
     1
 41
30.0
176
     1
 62
     5
 63
     7
421
 16777215
176
     1
 74
     0
176
     1
 91
        4
176
     1
 64
     7
176
     1
 65
   257
176
     1
 75
     1
176
     1
175
     1
176
     1
 42
1.0
176
     1
 92
        0
176
     1
 66
     7
176
     1
 43
1.0
176
     1
 76
     1
176
     1
 77
     6
176
     1
 78
     2
176
     1
 67
     7
176
     1
 79
     5
176
     1
170
     0
176
     1
171
     0
176
     1
290
     0
176
     1
 93
       13
176
     1
 44
0.0
176
     1
173
     0
176
     1
  0
VISUALSTYLE
  5
2E
102
{ACAD_REACTORS
330
2A
102
}
330
2A
100
AcDbVisualStyle
  2
GouraudWithEdges
 70
     3
177
     2
291
     1
 71
     2
176
     1
 72
     2
176
     1
 73
     1
176
     1
 90
        2
176
     1
 40
-0.6
176
     1
 41
30.0
176
     1
 62
     5
 63
     7
421
 16777215
176
     1
 74
     1
176
     1
 91
        4
176
     1
 64
     7
176
     1
 65
   257
176
     1
 75
     1
176
     1
175
     1
176
     1
 42
1.0
176
     1
 92
        0
176
     1
 66
   257
176
     1
 43
1.0
176
     1
 76
     1
176
     1
 77
     6
176
     1
 78
     2
176
     1
 67
     7
176
     1
 79
     5
176
     1
170
     0
176
     1
171
     0
176
     1
290
     0
176
     1
 93
       13
176
     1
 44
0.0
176
     1
173
     0
176
     1
  0
VISUALSTYLE
  5
38
102
{ACAD_REACTORS
330
2A
102
}
330
2A
100
AcDbVisualStyle
  2
Linepattern
 70
    14
177
     2
291
     1
 71
     2
176
     1
 72
     2
176
     1
 73
     0
176
     1
 90
        0
176
     1
 40
-0.6
176
     1
 41
-30.0
176
     1
 62
     5
 63
     7
421
 16777215
176
     1
 74
     1
176
     1
 91
        4
176
     1
 64
     7
176
     1
 65
   257
176
     1
 75
     7
176
     1
175
     7
176
     1
 42
1.0
176
     1
 92
        8
176
     1
 66
     7
176
     1
 43
1.0
176
     1
 76
     1
176
     1
 77
     6
176
     1
 78
     2
176
     1
 67
     7
176
     1
 79
     5
176
     1
170
     0
176
     1
171
     0
176
     1
290
     0
176
     1
 93
        1
176
     1
 44
0.0
176
     1
173
     0
176
     1
  0
VISUALSTYLE
  5
33
102
{ACAD_REACTORS
330
2A
102
}
330
2A
100
AcDbVisualStyle
  2
Realistic
 70
     8
177
     2
291
     0
 71
     2
176
     1
 72
     2
176
     1
 73
     0
176
     1
 90
        0
176
     1
 40
-0.6
176
     1
 41
-30.0
176
     1
 62
     5
 63
     7
421
 16777215
176
     1
 74
     1
176
     1
 91
        0
176
     1
 64
     7
176
     1
 65
   257
176
     1
 75
     1
176
     1
175
     1
176
     1
 42
1.0
176
     1
 92
        8
176
     1
 66
     8
424
  7895160
176
     1
 43
1.0
176
     1
 76
     1
176
     1
 77
     6
176
     1
 78
     2
176
     1
 67
     7
176
     1
 79
     5
176
     1
170
     0
176
     1
171
     0
176
     1
290
     0
176
     1
 93
       13
176
     1
 44
0.0
176
     1
173
     0
176
     1
  0
VISUALSTYLE
  5
37
102
{ACAD_REACTORS
330
2A
102
}
330
2A
100
AcDbVisualStyle
  2
Thicken
 70
    13
177
     2
291
     1
 71
     2
176
     1
 72
     2
176
     1
 73
     0
176
     1
 90
        0
176
     1
 40
-0.6
176
     1
 41
-30.0
176
     1
 62
     5
 63
     7
421
 16777215
176
     1
 74
     1
176
     1
 91
        4
176
     1
 64
     7
176
     1
 65
   257
176
     1
 75
     1
176
     1
175
     1
176
     1
 42
1.0
176
     1
 92
       12
176
     1
 66
     7
176
     1
 43
1.0
176
     1
 76
     1
176
     1
 77
     6
176
     1
 78
     2
176
     1
 67
     7
176
     1
 79
     5
176
     1
170
     0
176
     1
171
     0
176
     1
290
     0
176
     1
 93
        1
176
     1
 44
0.0
176
     1
173
     0
176
     1
  0
ENDSEC
  0
EOF
