  0
SECTION
  2
HEADER
  9
$ACADVER
  1
AC1015
  9
$ACADMAINTVER
 70
     6
  9
$DWGCODEPAGE
  3
ANSI_932
  9
$INSBASE
 10
0.0
 20
0.0
 30
0.0
  9
$EXTMIN
 10
0.0
 20
0.0
 30
0.0
  9
$EXTMAX
 10
210.0
 20
297.0
 30
0.0
  9
$LIMMIN
 10
0.0
 20
0.0
  9
$LIMMAX
 10
210.0
 20
297.0
  9
$ORTHOMODE
 70
     0
  9
$REGENMODE
 70
     1
  9
$FILLMODE
 70
     1
  9
$QTEXTMODE
 70
     0
  9
$MIRRTEXT
 70
     1
  9
$LTSCALE
 40
1.0
  9
$ATTMODE
 70
     1
  9
$TEXTSIZE
 40
0.2
  9
$TRACEWID
 40
0.05
  9
$TEXTSTYLE
  7
Standard
  9
$CLAYER
  8
0
  9
$CELTYPE
  6
ByLayer
  9
$CECOLOR
 62
   256
  9
$CELTSCALE
 40
25.4
  9
$DISPSILH
 70
     0
  9
$DIMSCALE
 40
1.0
  9
$DIMASZ
 40
0.18
  9
$DIMEXO
 40
0.0625
  9
$DIMDLI
 40
0.38
  9
$DIMRND
 40
0.0
  9
$DIMDLE
 40
0.0
  9
$DIMEXE
 40
0.18
  9
$DIMTP
 40
0.0
  9
$DIMTM
 40
0.0
  9
$DIMTXT
 40
0.18
  9
$DIMCEN
 40
0.09
  9
$DIMTSZ
 40
0.0
  9
$DIMTOL
 70
     0
  9
$DIMLIM
 70
     0
  9
$DIMTIH
 70
     1
  9
$DIMTOH
 70
     1
  9
$DIMSE1
 70
     0
  9
$DIMSE2
 70
     0
  9
$DIMTAD
 70
     0
  9
$DIMZIN
 70
     0
  9
$DIMBLK
  1

  9
$DIMASO
 70
     1
  9
$DIMSHO
 70
     1
  9
$DIMPOST
  1

  9
$DIMAPOST
  1

  9
$DIMALT
 70
     0
  9
$DIMALTD
 70
     2
  9
$DIMALTF
 40
25.4
  9
$DIMLFAC
 40
1.0
  9
$DIMTOFL
 70
     0
  9
$DIMTVP
 40
0.0
  9
$DIMTIX
 70
     0
  9
$DIMSOXD
 70
     0
  9
$DIMSAH
 70
     0
  9
$DIMBLK1
  1

  9
$DIMBLK2
  1

  9
$DIMSTYLE
  2
Standard
  9
$DIMCLRD
 70
     0
  9
$DIMCLRE
 70
     0
  9
$DIMCLRT
 70
     0
  9
$DIMTFAC
 40
1.0
  9
$DIMGAP
 40
0.09
  9
$DIMJUST
 70
     0
  9
$DIMSD1
 70
     0
  9
$DIMSD2
 70
     0
  9
$DIMTOLJ
 70
     1
  9
$DIMTZIN
 70
     0
  9
$DIMALTZ
 70
     0
  9
$DIMALTTZ
 70
     0
  9
$DIMUPT
 70
     0
  9
$DIMDEC
 70
     4
  9
$DIMTDEC
 70
     4
  9
$DIMALTU
 70
     2
  9
$DIMALTTD
 70
     2
  9
$DIMTXSTY
  7
Standard
  9
$DIMAUNIT
 70
     0
  9
$DIMADEC
 70
     0
  9
$DIMALTRND
 40
0.0
  9
$DIMAZIN
 70
     0
  9
$DIMDSEP
 70
    46
  9
$DIMATFIT
 70
     3
  9
$DIMFRAC
 70
     0
  9
$DIMLDRBLK
  1

  9
$DIMLUNIT
 70
     2
  9
$DIMLWD
 70
    -2
  9
$DIMLWE
 70
    -2
  9
$DIMTMOVE
 70
     0
  9
$LUNITS
 70
     2
  9
$LUPREC
 70
     4
  9
$SKETCHINC
 40
0.1
  9
$FILLETRAD
 40
0.5
  9
$AUNITS
 70
     0
  9
$AUPREC
 70
     0
  9
$MENU
  1
.
  9
$ELEVATION
 40
0.0
  9
$PELEVATION
 40
0.0
  9
$THICKNESS
 40
0.0
  9
$LIMCHECK
 70
     0
  9
$CHAMFERA
 40
0.5
  9
$CHAMFERB
 40
0.5
  9
$CHAMFERC
 40
1.0
  9
$CHAMFERD
 40
0.0
  9
$SKPOLY
 70
     0
  9
$TDCREATE
 40
2453914.463134584
  9
$TDUCREATE
 40
2453914.088134584
  9
$TDUPDATE
 40
2453914.463134595
  9
$TDUUPDATE
 40
2453914.088134595
  9
$TDINDWG
 40
0.0000000116
  9
$TDUSRTIMER
 40
0.0000000116
  9
$USRTIMER
 70
     1
  9
$ANGBASE
 50
0.0
  9
$ANGDIR
 70
     0
  9
$PDMODE
 70
     0
  9
$PDSIZE
 40
0.0
  9
$PLINEWID
 40
0.0
  9
$SPLFRAME
 70
     0
  9
$SPLINETYPE
 70
     6
  9
$SPLINESEGS
 70
     8
  9
$HANDSEED
  5
378
  9
$SURFTAB1
 70
     6
  9
$SURFTAB2
 70
     6
  9
$SURFTYPE
 70
     6
  9
$SURFU
 70
     6
  9
$SURFV
 70
     6
  9
$UCSBASE
  2

  9
$UCSNAME
  2

  9
$UCSORG
 10
0.0
 20
0.0
 30
0.0
  9
$UCSXDIR
 10
1.0
 20
0.0
 30
0.0
  9
$UCSYDIR
 10
0.0
 20
1.0
 30
0.0
  9
$UCSORTHOREF
  2

  9
$UCSORTHOVIEW
 70
     0
  9
$UCSORGTOP
 10
0.0
 20
0.0
 30
0.0
  9
$UCSORGBOTTOM
 10
0.0
 20
0.0
 30
0.0
  9
$UCSORGLEFT
 10
0.0
 20
0.0
 30
0.0
  9
$UCSORGRIGHT
 10
0.0
 20
0.0
 30
0.0
  9
$UCSORGFRONT
 10
0.0
 20
0.0
 30
0.0
  9
$UCSORGBACK
 10
0.0
 20
0.0
 30
0.0
  9
$PUCSBASE
  2

  9
$PUCSNAME
  2

  9
$PUCSORG
 10
0.0
 20
0.0
 30
0.0
  9
$PUCSXDIR
 10
1.0
 20
0.0
 30
0.0
  9
$PUCSYDIR
 10
0.0
 20
1.0
 30
0.0
  9
$PUCSORTHOREF
  2

  9
$PUCSORTHOVIEW
 70
     0
  9
$PUCSORGTOP
 10
0.0
 20
0.0
 30
0.0
  9
$PUCSORGBOTTOM
 10
0.0
 20
0.0
 30
0.0
  9
$PUCSORGLEFT
 10
0.0
 20
0.0
 30
0.0
  9
$PUCSORGRIGHT
 10
0.0
 20
0.0
 30
0.0
  9
$PUCSORGFRONT
 10
0.0
 20
0.0
 30
0.0
  9
$PUCSORGBACK
 10
0.0
 20
0.0
 30
0.0
  9
$USERI1
 70
     0
  9
$USERI2
 70
     0
  9
$USERI3
 70
     0
  9
$USERI4
 70
     0
  9
$USERI5
 70
     0
  9
$USERR1
 40
0.0
  9
$USERR2
 40
0.0
  9
$USERR3
 40
0.0
  9
$USERR4
 40
0.0
  9
$USERR5
 40
0.0
  9
$WORLDVIEW
 70
     1
  9
$SHADEDGE
 70
     3
  9
$SHADEDIF
 70
    70
  9
$TILEMODE
 70
     1
  9
$MAXACTVP
 70
    64
  9
$PINSBASE
 10
0.0
 20
0.0
 30
0.0
  9
$PLIMCHECK
 70
     0
  9
$PEXTMIN
 10
0.0
 20
0.0
 30
0.0
  9
$PEXTMAX
 10
210.0
 20
297.0
 30
0.0
  9
$PLIMMIN
 10
0.0
 20
0.0
  9
$PLIMMAX
 10
210.0
 20
297.0
  9
$UNITMODE
 70
     0
  9
$VISRETAIN
 70
     1
  9
$PLINEGEN
 70
     0
  9
$PSLTSCALE
 70
     1
  9
$TREEDEPTH
 70
  3020
  9
$CMLSTYLE
  2
Standard
  9
$CMLJUST
 70
     0
  9
$CMLSCALE
 40
1.0
  9
$PROXYGRAPHICS
 70
     1
  9
$MEASUREMENT
 70
     1
  9
$CELWEIGHT
370
    -1
  9
$ENDCAPS
280
     0
  9
$JOINSTYLE
280
     0
  9
$LWDISPLAY
290
     0
  9
$INSUNITS
 70
     1
  9
$HYPERLINKBASE
  1

  9
$STYLESHEET
  1

  9
$XEDIT
290
     1
  9
$CEPSNTYPE
380
     0
  9
$PSTYLEMODE
290
     1
  9
$FINGERPRINTGUID
  2
{D960FD0A-558B-4ED4-A030-CE08B5C1C20A}
  9
$VERSIONGUID
  2
{FAEB1C32-E019-11D5-929B-00C0DF256EC4}
  9
$EXTNAMES
290
     1
  9
$PSVPSCALE
 40
0.0
  9
$OLESTARTUP
290
     0
  0
ENDSEC
  0
SECTION
  2
CLASSES
  0
CLASS
  1
ACDBDICTIONARYWDFLT
  2
AcDbDictionaryWithDefault
  3
ObjectDBX Classes
 90
        0
280
     0
281
     0
  0
CLASS
  1
ACDBPLACEHOLDER
  2
AcDbPlaceHolder
  3
ObjectDBX Classes
 90
        0
280
     0
281
     0
  0
CLASS
  1
LAYOUT
  2
AcDbLayout
  3
ObjectDBX Classes
 90
        0
280
     0
281
     0
  0
ENDSEC
  0
SECTION
  2
TABLES
  0
TABLE
  2
VPORT
  5
8
330
0
100
AcDbSymbolTable
 70
     1
  0
VPORT
  5
29
330
8
100
AcDbSymbolTableRecord
100
AcDbViewportTableRecord
  2
*Active
 70
     0
 10
0.0
 20
0.0
 11
1.0
 21
1.0
 12
10.4299065421
 22
4.5
 13
0.0
 23
0.0
 14
0.5
 24
0.5
 15
0.5
 25
0.5
 16
0.0
 26
0.0
 36
1.0
 17
0.0
 27
0.0
 37
0.0
 40
9.0
 41
1.9729729729
 42
50.0
 43
0.0
 44
0.0
 50
0.0
 51
0.0
 71
     0
 72
   100
 73
     1
 74
     3
 75
     0
 76
     0
 77
     0
 78
     0
281
     0
 65
     1
110
0.0
120
0.0
130
0.0
111
1.0
121
0.0
131
0.0
112
0.0
122
1.0
132
0.0
 79
     0
146
0.0
  0
ENDTAB
  0
TABLE
  2
LTYPE
  5
5
330
0
100
AcDbSymbolTable
 70
     3
  0
LTYPE
  5
14
330
5
100
AcDbSymbolTableRecord
100
AcDbLinetypeTableRecord
  2
ByBlock
 70
     0
  3

 72
    65
 73
     0
 40
0.0
  0
LTYPE
  5
15
330
5
100
AcDbSymbolTableRecord
100
AcDbLinetypeTableRecord
  2
ByLayer
 70
     0
  3

 72
    65
 73
     0
 40
0.0
  0
LTYPE
  5
16
330
5
100
AcDbSymbolTableRecord
100
AcDbLinetypeTableRecord
  2
Continuous
 70
     0
  3
Solid line
 72
    65
 73
     0
 40
0.0
  0
LTYPE
  5
4A
330
5
100
AcDbSymbolTableRecord
100
AcDbLinetypeTableRecord
  2
HIDDEN2
 70
     0
  3
_ _ _ _ _ _ _ _ _ _ _ _ _ _ _ _ _ _ _ _ _ _ _ _
 72
    65
 73
     2
 40
0.1875
 49
0.125
 74
     4
 75
     0
340
0
 46
0.0
 50
0.0
 44
0.0
 45
0.0
 49
-0.0625
 74
     4
 75
     0
340
0
 46
0.0
 50
0.0
 44
0.0
 45
0.0
  0
LTYPE
  5
4D
330
5
100
AcDbSymbolTableRecord
100
AcDbLinetypeTableRecord
  2
CENTER2
 70
     0
  3
___ _ ___ _ ___ _ ___ _ ___ _ ___ _ ___ _ ___ _
 72
    65
 73
     4
 40
1.125
 49
0.75
 74
     4
 75
     0
340
0
 46
0.0
 50
0.0
 44
0.0
 45
0.0
 49
-0.125
 74
     4
 75
     0
340
0
 46
0.0
 50
0.0
 44
0.0
 45
0.0
 49
0.125
 74
     4
 75
     0
340
0
 46
0.0
 50
0.0
 44
0.0
 45
0.0
 49
-0.125
 74
     4
 75
     0
340
0
 46
0.0
 50
0.0
 44
0.0
 45
0.0
  0
ENDTAB
  0
TABLE
  2
LAYER
  5
2
330
0
100
AcDbSymbolTable
 70
     4
  0
LAYER
  5
10
330
2
100
AcDbSymbolTableRecord
100
AcDbLayerTableRecord
  2
0
 70
     0
 62
     7
  6
Continuous
370
    -3
390
F
  0
LAYER
  5
2C
330
2
100
AcDbSymbolTableRecord
100
AcDbLayerTableRecord
  2
Default
 70
     0
 62
     7
  6
Continuous
370
    -3
390
F
  0
LAYER
  5
42
330
2
100
AcDbSymbolTableRecord
100
AcDbLayerTableRecord
  2
DV1_デフォルト
 70
     0
 62
     7
  6
Continuous
370
    -3
390
F
  0
LAYER
  5
F5
330
2
100
AcDbSymbolTableRecord
100
AcDbLayerTableRecord
  2
Standard
 70
     0
 62
     7
  6
Continuous
370
    -3
390
F
  0
ENDTAB
  0
TABLE
  2
STYLE
  5
3
330
0
100
AcDbSymbolTable
 70
     4
  0
STYLE
  5
11
330
3
100
AcDbSymbolTableRecord
100
AcDbTextStyleTableRecord
  2
Standard
 70
     0
 40
0.0
 41
1.0
 50
0.0
 71
     0
 42
0.2
  3
txt
  4

  0
STYLE
  5
2A
330
3
100
AcDbSymbolTableRecord
100
AcDbTextStyleTableRecord
  2
SEACAD_seiso_ttf
 70
     0
 40
0.2
 41
1.0
 50
0.0
 71
     0
 42
0.2
  3
seiso.ttf
  4

  0
STYLE
  5
33
330
3
100
AcDbSymbolTableRecord
100
AcDbTextStyleTableRecord
  2
SEACAD_arial_ttf
 70
     0
 40
0.2
 41
1.0
 50
0.0
 71
     0
 42
0.2
  3
arial.ttf
  4

  0
STYLE
  5
E4
330
3
100
AcDbSymbolTableRecord
100
AcDbTextStyleTableRecord
  2
SEACAD_semeca1_ttf
 70
     0
 40
0.2
 41
1.0
 50
0.0
 71
     0
 42
0.2
  3
semeca1.ttf
  4

  0
ENDTAB
  0
TABLE
  2
VIEW
  5
6
330
0
100
AcDbSymbolTable
 70
     0
  0
ENDTAB
  0
TABLE
  2
UCS
  5
7
330
0
100
AcDbSymbolTable
 70
     0
  0
ENDTAB
  0
TABLE
  2
APPID
  5
9
330
0
100
AcDbSymbolTable
 70
     1
  0
APPID
  5
12
330
9
100
AcDbSymbolTableRecord
100
AcDbRegAppTableRecord
  2
ACAD
 70
     0
  0
ENDTAB
  0
TABLE
  2
DIMSTYLE
  5
A
330
0
100
AcDbSymbolTable
 70
     1
100
AcDbDimStyleTable
  0
DIMSTYLE
105
27
330
A
100
AcDbSymbolTableRecord
100
AcDbDimStyleTableRecord
  2
Standard
 70
     0
340
11
  0
ENDTAB
  0
TABLE
  2
BLOCK_RECORD
  5
1
330
0
100
AcDbSymbolTable
 70
     6
  0
BLOCK_RECORD
  5
1F
330
1
100
AcDbSymbolTableRecord
100
AcDbBlockTableRecord
  2
*Model_Space
340
22
  0
BLOCK_RECORD
  5
1B
330
1
100
AcDbSymbolTableRecord
100
AcDbBlockTableRecord
  2
*Paper_Space
340
1E
  0
BLOCK_RECORD
  5
35
330
1
100
AcDbSymbolTableRecord
100
AcDbBlockTableRecord
  2
SEANNOT_GROUP
340
0
102
{BLKREFS
331
36
102
}
  0
BLOCK_RECORD
  5
40
330
1
100
AcDbSymbolTableRecord
100
AcDbBlockTableRecord
  2
SE
340
0
102
{BLKREFS
331
41
102
}
  0
BLOCK_RECORD
  5
CC
330
1
100
AcDbSymbolTableRecord
100
AcDbBlockTableRecord
  2
GDimGGroup
340
0
102
{BLKREFS
331
CD
102
}
  0
BLOCK_RECORD
  5
D9
330
1
100
AcDbSymbolTableRecord
100
AcDbBlockTableRecord
  2
GDimGGroup1
340
0
102
{BLKREFS
331
DA
102
}
  0
BLOCK_RECORD
  5
E8
330
1
100
AcDbSymbolTableRecord
100
AcDbBlockTableRecord
  2
GDimGGroup2
340
0
102
{BLKREFS
331
E9
102
}
  0
ENDTAB
  0
ENDSEC
  0
SECTION
  2
BLOCKS
  0
BLOCK
  5
20
330
1F
100
AcDbEntity
  8
0
100
AcDbBlockBegin
  2
*Model_Space
 70
     0
 71
     0
 10
0.0
 20
0.0
 30
0.0
  3
*Model_Space
  1

  0
ENDBLK
  5
21
330
1F
100
AcDbEntity
  8
0
100
AcDbBlockEnd
  0
BLOCK
  5
1C
330
1B
100
AcDbEntity
 67
     1
  8
0
100
AcDbBlockBegin
  2
*Paper_Space
 70
     0
 71
     0
 10
0.0
 20
0.0
 30
0.0
  3
*Paper_Space
  1

  0
ENDBLK
  5
1D
330
1B
100
AcDbEntity
 67
     1
  8
0
100
AcDbBlockEnd
  0
BLOCK
  5
3C
330
35
100
AcDbEntity
  8
0
100
AcDbBlockBegin
  2
SEANNOT_GROUP
 70
     0
 71
     0
 10
0.0
 20
0.0
 30
0.0
  3
SEANNOT_GROUP
  1

  0
LWPOLYLINE
  5
37
330
35
100
AcDbEntity
  8
Default
  6
Continuous
 62
     7
 48
25.4
100
AcDbPolyline
 90
        2
 70
     0
 43
0.0
 10
156.4067678458
 20
177.8814791591
 10
172.7581404707
 20
161.8989255155
  0
HATCH
  5
38
330
35
100
AcDbEntity
  8
Default
  6
Continuous
 62
   136
 48
25.4
100
AcDbHatch
 10
0.0
 20
0.0
 30
0.0
210
0.0
220
0.0
230
1.0
  2
SOLID
 70
     1
 71
     0
 91
        1
 92
        1
 93
        3
 72
     1
 10
167.768389264135
 20
165.3777735345999
 11
172.7581404706789
 21
161.8989255154954
 72
     1
 10
172.7581404706789
 20
161.8989255154954
 11
169.1663805787929
 21
166.8080253843382
 72
     1
 10
169.1663805787929
 20
166.8080253843382
 11
167.768389264135
 21
165.3777735345999
 97
        0
 75
     0
 76
     1
 98
        0
  0
LWPOLYLINE
  5
39
330
35
100
AcDbEntity
  8
Default
  6
Continuous
 62
   136
 48
25.4
370
    30
100
AcDbPolyline
 90
        4
 70
     1
 43
0.00035
 10
167.7683892641
 20
165.3777735346
 10
172.7581404707
 20
161.8989255155
 10
169.1663805788
 20
166.8080253843
 10
167.7683892641
 20
165.3777735346
  0
LINE
  5
3A
330
35
100
AcDbEntity
  8
Default
  6
Continuous
 62
     7
 48
25.4
100
AcDbLine
 10
156.4067678458
 20
177.8814791591
 30
0.0
 11
123.2763330632
 21
177.8814791591
 31
0.0
  0
TEXT
  5
3B
330
35
100
AcDbEntity
  8
Default
  6
Continuous
 62
     7
 48
25.4
100
AcDbText
 10
123.2763330632
 20
179.3814791591
 30
0.0
 40
6.0
  1
1500mm
  7
SEACAD_arial_ttf
 11
123.2763330632
 21
185.3814791591
 31
0.0
100
AcDbText
 73
     3
  0
ENDBLK
  5
3D
330
35
100
AcDbEntity
  8
0
100
AcDbBlockEnd
  0
BLOCK
  5
CA
330
40
100
AcDbEntity
  8
0
100
AcDbBlockBegin
  2
SE
 70
     0
 71
     0
 10
0.0
 20
0.0
 30
0.0
  3
SE
  1

  0
LINE
  5
43
330
40
100
AcDbEntity
  8
DV1_デフォルト
  6
Continuous
 62
     7
 48
25.4
100
AcDbLine
 10
172.7581404707
 20
163.4220874539
 30
0.0
 11
172.7581404707
 21
160.4220874539
 31
0.0
  0
SPLINE
  5
44
330
40
100
AcDbEntity
  8
DV1_デフォルト
  6
Continuous
 62
     7
 48
25.4
100
AcDbSpline
210
0.0
220
0.0
230
1.0
 70
     8
 71
     3
 72
    18
 73
    14
 74
     0
 42
0.0000000001
 43
0.0000000001
 40
0.0
 40
0.0
 40
0.0
 40
0.0
 40
0.0667950772613888
 40
0.0667950772613888
 40
0.2621221700450915
 40
0.2621221700450915
 40
0.4574492628287967
 40
0.4574492628287967
 40
0.6527763556124995
 40
0.6527763556124995
 40
0.8481034483962021
 40
0.8481034483962021
 40
1.0
 40
1.0
 40
1.0
 40
1.0
 10
22.76164058924729
 20
158.1248063887159
 30
0.0
 10
22.76138473458589
 20
158.2011230228009
 30
0.0
 10
22.83667943568241
 20
158.277439656886
 30
0.0
 10
23.43639957114996
 20
158.5769270226784
 30
0.0
 10
24.54275601154099
 20
158.8000977543857
 30
0.0
 10
27.56788211135785
 20
159.2464392178003
 30
0.0
 10
29.47475141311604
 20
159.4696099495076
 30
0.0
 10
33.20411044823635
 20
159.9159514129223
 30
0.0
 10
35.0119294852623
 20
160.1391221446295
 30
0.0
 10
37.6862011557122
 20
160.5854636080442
 30
0.0
 10
38.54213363614792
 20
160.8086343397515
 30
0.0
 10
38.85997795038887
 20
161.2053542912938
 30
0.0
 10
38.58868039311349
 20
161.3789035111287
 30
0.0
 10
37.96083813438456
 20
161.5524527309636
 30
0.0
  0
LINE
  5
45
330
40
100
AcDbEntity
  8
DV1_デフォルト
  6
Continuous
 62
     7
 48
25.4
100
AcDbLine
 10
22.7616404761
 20
158.1248417627
 30
0.0
 11
22.7616404761
 21
126.9232684861
 31
0.0
  0
LINE
  5
46
330
40
100
AcDbEntity
  8
DV1_デフォルト
  6
Continuous
 62
     7
 48
25.4
100
AcDbLine
 10
38.7565352566
 20
126.9232684861
 30
0.0
 11
38.7565352566
 21
161.121459744
 31
0.0
  0
SPLINE
  5
47
330
40
100
AcDbEntity
  8
DV1_デフォルト
  6
Continuous
 62
     7
 48
25.4
100
AcDbSpline
210
0.0
220
0.0
230
1.0
 70
     8
 71
     3
 72
    18
 73
    14
 74
     0
 42
0.0000000001
 43
0.0000000001
 40
0.0
 40
0.0
 40
0.0
 40
0.0
 40
0.0419194089870521
 40
0.0419194089870521
 40
0.237091855774275
 40
0.237091855774275
 40
0.4322643025614928
 40
0.4322643025614928
 40
0.6274367493487105
 40
0.6274367493487105
 40
0.8226091961359334
 40
0.8226091961359334
 40
1.0
 40
1.0
 40
1.0
 40
1.0
 10
187.9613321885547
 20
166.8524330981887
 30
0.0
 10
188.1366774232997
 20
166.8045001787097
 30
0.0
 10
188.2848209877538
 20
166.7565672592306
 30
0.0
 10
188.9534748357899
 20
166.4854636080443
 30
0.0
 10
188.8509638496925
 20
166.2622928763369
 30
0.0
 10
187.3869880564993
 20
165.8159514129223
 30
0.0
 10
186.0312822938139
 20
165.592780681215
 30
0.0
 10
182.6930965476902
 20
165.1464392178004
 30
0.0
 10
180.7237484480244
 20
164.9232684860931
 30
0.0
 10
177.0861375559387
 20
164.4769270226784
 30
0.0
 10
175.4321845374731
 20
164.2537562909711
 30
0.0
 10
173.3123613353293
 20
163.8277473198085
 30
0.0
 10
172.7591943490727
 20
163.6249090803533
 30
0.0
 10
172.7581403831219
 20
163.422070840898
 30
0.0
  0
LINE
  5
48
330
40
100
AcDbEntity
  8
DV1_デフォルト
  6
Continuous
 62
     7
 48
25.4
100
AcDbLine
 10
188.7528316191
 20
102.9232684861
 30
0.0
 11
188.7528316191
 21
166.4240702678
 31
0.0
  0
LINE
  5
49
330
40
100
AcDbEntity
  8
DV1_デフォルト
  6
Continuous
 62
     7
 48
25.4
100
AcDbLine
 10
172.7581404707
 20
160.4220874539
 30
0.0
 11
172.7581404707
 21
102.9232684861
 31
0.0
  0
LINE
  5
4B
330
40
100
AcDbEntity
  8
DV1_デフォルト
  6
HIDDEN2
 62
     7
 48
25.4
100
AcDbLine
 10
170.2801010801
 20
77.4232684861
 30
0.0
 11
170.2801010801
 21
86.4232684861
 31
0.0
  0
LINE
  5
4C
330
40
100
AcDbEntity
  8
DV1_デフォルト
  6
HIDDEN2
 62
     7
 48
25.4
100
AcDbLine
 10
191.2351010747
 20
77.4232684861
 30
0.0
 11
191.2351010747
 21
86.4232684861
 31
0.0
  0
CIRCLE
  5
4E
330
40
100
AcDbEntity
  8
DV1_デフォルト
  6
CENTER2
 62
     7
 48
25.4
100
AcDbCircle
 10
105.7576010798
 20
202.4232684861
 30
0.0
 40
75.0
  0
LINE
  5
4F
330
40
100
AcDbEntity
  8
DV1_デフォルト
  6
CENTER2
 62
     7
 48
25.4
100
AcDbLine
 10
180.7576010798
 20
202.4232684861
 30
0.0
 11
180.7576010798
 21
164.9233124217
 31
0.0
  0
LINE
  5
50
330
40
100
AcDbEntity
  8
DV1_デフォルト
  6
CENTER2
 62
     7
 48
25.4
100
AcDbLine
 10
30.7576010798
 20
202.4232684861
 30
0.0
 11
30.7576010798
 21
159.6232503116
 31
0.0
  0
LINE
  5
51
330
40
100
AcDbEntity
  8
DV1_デフォルト
  6
Continuous
 62
     7
 48
25.4
100
AcDbLine
 10
169.7576010798
 20
102.9232684861
 30
0.0
 11
169.0156824177
 21
90.5579574505
 31
0.0
  0
LINE
  5
52
330
40
100
AcDbEntity
  8
DV1_デフォルト
  6
Continuous
 62
     7
 48
25.4
100
AcDbLine
 10
192.2576010798
 20
77.7232684861
 30
0.0
 11
192.2576010798
 21
81.0490053922
 31
0.0
  0
LINE
  5
53
330
40
100
AcDbEntity
  8
DV1_デフォルト
  6
Continuous
 62
     7
 48
25.4
100
AcDbLine
 10
169.3925020316
 20
89.7239110867
 30
0.0
 11
168.7576010798
 21
88.6242303804
 31
0.0
  0
LINE
  5
54
330
40
100
AcDbEntity
  8
DV1_デフォルト
  6
Continuous
 62
     7
 48
25.4
100
AcDbLine
 10
192.122700128
 20
81.6226258855
 30
0.0
 11
192.7576010798
 21
82.7223065918
 31
0.0
  0
LINE
  5
55
330
40
100
AcDbEntity
  8
DV1_デフォルト
  6
Continuous
 62
     7
 48
25.4
100
AcDbLine
 10
191.9576010798
 20
77.4232684861
 30
0.0
 11
169.5576010798
 21
77.4232684861
 31
0.0
  0
LINE
  5
56
330
40
100
AcDbEntity
  8
DV1_デフォルト
  6
Continuous
 62
     7
 48
25.4
100
AcDbLine
 10
192.2576010798
 20
77.7232684861
 30
0.0
 11
169.2576010798
 21
77.7232684861
 31
0.0
  0
LINE
  5
57
330
40
100
AcDbEntity
  8
DV1_デフォルト
  6
Continuous
 62
     7
 48
25.4
100
AcDbLine
 10
192.1703757148
 20
90.0860431211
 30
0.0
 11
192.4121903226
 21
90.3278577289
 31
0.0
  0
ARC
  5
58
330
40
100
AcDbEntity
  8
DV1_デフォルト
  6
Continuous
 62
     7
 48
25.4
100
AcDbCircle
 10
169.3151438713
 20
90.5399897633
 30
0.0
 40
0.3
100
AcDbArc
 50
176.5663696375
 51
225.0
  0
ARC
  5
59
330
40
100
AcDbEntity
  8
DV1_デフォルト
  6
Continuous
 62
     7
 48
25.4
100
AcDbCircle
 10
169.1326944105
 20
81.4726258855
 30
0.0
 40
0.300000000000007
100
AcDbArc
 50
315.0868474272
 51
30.0
  0
ARC
  5
5A
330
40
100
AcDbEntity
  8
DV1_デフォルト
  6
Continuous
 62
     7
 48
25.4
100
AcDbCircle
 10
192.3825077491
 20
89.8739110867
 30
0.0
 40
0.2999999999999916
100
AcDbArc
 50
135.0
 51
210.0
  0
LINE
  5
5B
330
40
100
AcDbEntity
  8
DV1_デフォルト
  6
Continuous
 62
     7
 48
25.4
100
AcDbLine
 10
192.2576010798
 20
81.0490053922
 30
0.0
 11
169.2576010798
 21
81.0490053922
 31
0.0
  0
LINE
  5
5C
330
40
100
AcDbEntity
  8
DV1_デフォルト
  6
Continuous
 62
     7
 48
25.4
100
AcDbLine
 10
192.1700544145
 20
81.2608156388
 30
0.0
 11
169.3451477451
 21
81.2608156388
 31
0.0
  0
ARC
  5
5D
330
40
100
AcDbEntity
  8
DV1_デフォルト
  6
Continuous
 62
     7
 48
25.4
100
AcDbCircle
 10
169.5576010798
 20
81.0490053922
 30
0.0
 40
0.2999999999999928
100
AcDbArc
 50
135.0868474272
 51
180.0
  0
LINE
  5
5E
330
40
100
AcDbEntity
  8
DV1_デフォルト
  6
Continuous
 62
     7
 48
25.4
100
AcDbLine
 10
192.1703757148
 20
90.0860431211
 30
0.0
 11
169.3448264448
 21
90.0860431211
 31
0.0
  0
LINE
  5
5F
330
40
100
AcDbEntity
  8
DV1_デフォルト
  6
Continuous
 62
     7
 48
25.4
100
AcDbLine
 10
192.122700128
 20
89.7239110867
 30
0.0
 11
169.3925020316
 21
89.7239110867
 31
0.0
  0
ARC
  5
60
330
40
100
AcDbEntity
  8
DV1_デフォルト
  6
Continuous
 62
     7
 48
25.4
100
AcDbCircle
 10
169.5576010798
 20
77.7232684861
 30
0.0
 40
0.2999999999999999
100
AcDbArc
 50
180.0
 51
270.0
  0
LINE
  5
61
330
40
100
AcDbEntity
  8
DV1_デフォルト
  6
Continuous
 62
     7
 48
25.4
100
AcDbLine
 10
192.4995197419
 20
90.5579574505
 30
0.0
 11
191.7576010798
 21
102.9232684861
 31
0.0
  0
LINE
  5
62
330
40
100
AcDbEntity
  8
DV1_デフォルト
  6
Continuous
 62
     7
 48
25.4
100
AcDbLine
 10
192.4121903226
 20
90.3278577289
 30
0.0
 11
169.1030118369
 21
90.3278577289
 31
0.0
  0
LINE
  5
63
330
40
100
AcDbEntity
  8
DV1_デフォルト
  6
Continuous
 62
     7
 48
25.4
100
AcDbLine
 10
192.4995197419
 20
90.5579574505
 30
0.0
 11
169.0156824177
 21
90.5579574505
 31
0.0
  0
LINE
  5
64
330
40
100
AcDbEntity
  8
DV1_デフォルト
  6
Continuous
 62
     7
 48
25.4
100
AcDbLine
 10
192.122700128
 20
81.6226258855
 30
0.0
 11
169.3925020316
 21
81.6226258855
 31
0.0
  0
LINE
  5
65
330
40
100
AcDbEntity
  8
DV1_デフォルト
  6
Continuous
 62
     7
 48
25.4
100
AcDbLine
 10
169.2576010798
 20
81.0490053922
 30
0.0
 11
169.2576010798
 21
77.7232684861
 31
0.0
  0
LINE
  5
66
330
40
100
AcDbEntity
  8
DV1_デフォルト
  6
Continuous
 62
     7
 48
25.4
100
AcDbLine
 10
191.7576010798
 20
102.9232684861
 30
0.0
 11
169.7576010798
 21
102.9232684861
 31
0.0
  0
LINE
  5
67
330
40
100
AcDbEntity
  8
DV1_デフォルト
  6
Continuous
 62
     7
 48
25.4
100
AcDbLine
 10
192.7576010798
 20
88.6242303804
 30
0.0
 11
192.122700128
 21
89.7239110867
 31
0.0
  0
LINE
  5
68
330
40
100
AcDbEntity
  8
DV1_デフォルト
  6
Continuous
 62
     7
 48
25.4
100
AcDbLine
 10
168.7576010798
 20
82.7223065918
 30
0.0
 11
169.3925020316
 21
81.6226258855
 31
0.0
  0
LINE
  5
69
330
40
100
AcDbEntity
  8
DV1_デフォルト
  6
Continuous
 62
     7
 48
25.4
100
AcDbLine
 10
169.1030118369
 20
90.3278577289
 30
0.0
 11
169.3448264448
 21
90.0860431211
 31
0.0
  0
ARC
  5
6A
330
40
100
AcDbEntity
  8
DV1_デフォルト
  6
Continuous
 62
     7
 48
25.4
100
AcDbCircle
 10
192.2000582883
 20
90.5399897633
 30
0.0
 40
0.3000000000000017
100
AcDbArc
 50
315.0
 51
3.4336303625
  0
ARC
  5
6B
330
40
100
AcDbEntity
  8
DV1_デフォルト
  6
Continuous
 62
     7
 48
25.4
100
AcDbCircle
 10
169.1326944105
 20
89.8739110867
 30
0.0
 40
0.3000000000000017
100
AcDbArc
 50
330.0
 51
45.0
  0
ARC
  5
6C
330
40
100
AcDbEntity
  8
DV1_デフォルト
  6
Continuous
 62
     7
 48
25.4
100
AcDbCircle
 10
191.9576010798
 20
81.0490053922
 30
0.0
 40
0.2999999999999999
100
AcDbArc
 50
0.0
 51
44.9131525728
  0
ARC
  5
6D
330
40
100
AcDbEntity
  8
DV1_デフォルト
  6
Continuous
 62
     7
 48
25.4
100
AcDbCircle
 10
191.9576010798
 20
77.7232684861
 30
0.0
 40
0.2999999999999947
100
AcDbArc
 50
270.0
 51
360.0
  0
ARC
  5
6E
330
40
100
AcDbEntity
  8
DV1_デフォルト
  6
Continuous
 62
     7
 48
25.4
100
AcDbCircle
 10
192.3825077491
 20
81.4726258855
 30
0.0
 40
0.2999999999999928
100
AcDbArc
 50
150.0
 51
224.9131525728
  0
HATCH
  5
6F
330
40
100
AcDbEntity
  8
0
  6
Continuous
 62
     7
 48
25.4
100
AcDbHatch
 10
0.0
 20
0.0
 30
0.0
210
0.0
220
0.0
230
1.0
  2
LINE
 70
     0
 71
     0
 91
        1
 92
        1
 93
        4
 72
     1
 10
168.7576010797892
 20
88.62423038041639
 11
168.7576010797892
 21
82.72230659176968
 72
     1
 10
168.7576010797893
 20
82.72230659176968
 11
192.7576010797892
 21
82.72230659176968
 72
     1
 10
192.7576010797892
 20
82.72230659176968
 11
192.7576010797892
 21
88.62423038041639
 72
     1
 10
192.7576010797891
 20
88.62423038041639
 11
168.7576010797892
 21
88.62423038041634
 97
        0
 75
     0
 76
     2
 52
90.0
 41
0.3937007874
 77
     0
 78
     1
 53
90.0
 43
0.0
 44
0.0
 45
-1.25
 46
0.0000000000000001
 79
     0
 98
        0
  0
LWPOLYLINE
  5
70
330
40
100
AcDbEntity
  8
0
  6
Continuous
 62
     7
 48
25.4
100
AcDbPolyline
 90
        5
 70
     1
 43
0.0
 10
168.7576010798
 20
88.6242303804
 10
168.7576010798
 20
82.7223065918
 10
192.7576010798
 20
82.7223065918
 10
192.7576010798
 20
88.6242303804
 10
168.7576010798
 20
88.6242303804
  0
LINE
  5
71
330
40
100
AcDbEntity
  8
DV1_デフォルト
  6
Continuous
 62
     7
 48
25.4
100
AcDbLine
 10
168.7576010798
 20
88.6242303804
 30
0.0
 11
168.7576010798
 21
82.7223065918
 31
0.0
  0
LINE
  5
72
330
40
100
AcDbEntity
  8
DV1_デフォルト
  6
Continuous
 62
     7
 48
25.4
100
AcDbLine
 10
192.7576010798
 20
82.7223065918
 30
0.0
 11
168.7576010798
 21
82.7223065918
 31
0.0
  0
LINE
  5
73
330
40
100
AcDbEntity
  8
DV1_デフォルト
  6
Continuous
 62
     7
 48
25.4
100
AcDbLine
 10
192.7576010798
 20
82.7223065918
 30
0.0
 11
192.7576010798
 21
88.6242303804
 31
0.0
  0
LINE
  5
74
330
40
100
AcDbEntity
  8
DV1_デフォルト
  6
Continuous
 62
     7
 48
25.4
100
AcDbLine
 10
192.7576010798
 20
88.6242303804
 30
0.0
 11
168.7576010798
 21
88.6242303804
 31
0.0
  0
LINE
  5
75
330
40
100
AcDbEntity
  8
DV1_デフォルト
  6
HIDDEN2
 62
     7
 48
25.4
100
AcDbLine
 10
191.2351010747
 20
86.4232684861
 30
0.0
 11
170.2801010801
 21
86.4232684861
 31
0.0
  0
LINE
  5
76
330
40
100
AcDbEntity
  8
DV1_デフォルト
  6
Continuous
 62
     7
 48
25.4
100
AcDbLine
 10
23.5116404761
 20
127.1732684861
 30
0.0
 11
38.0065352566
 21
129.7291095184
 31
0.0
  0
LINE
  5
77
330
40
100
AcDbEntity
  8
DV1_デフォルト
  6
Continuous
 62
     7
 48
25.4
100
AcDbLine
 10
23.5116404761
 20
127.1732684861
 30
0.0
 11
23.5116404761
 21
129.9232684861
 31
0.0
  0
LINE
  5
78
330
40
100
AcDbEntity
  8
DV1_デフォルト
  6
Continuous
 62
     7
 48
25.4
100
AcDbLine
 10
23.5116404761
 20
129.9232684861
 30
0.0
 11
38.0065352566
 21
132.4791095184
 31
0.0
  0
LINE
  5
79
330
40
100
AcDbEntity
  8
DV1_デフォルト
  6
Continuous
 62
     7
 48
25.4
100
AcDbLine
 10
38.0065352566
 20
129.7291095184
 30
0.0
 11
38.0065352566
 21
132.4791095184
 31
0.0
  0
LINE
  5
7A
330
40
100
AcDbEntity
  8
DV1_デフォルト
  6
Continuous
 62
     7
 48
25.4
100
AcDbLine
 10
23.5116404761
 20
132.6732684861
 30
0.0
 11
38.0065352566
 21
135.2291095184
 31
0.0
  0
LINE
  5
7B
330
40
100
AcDbEntity
  8
DV1_デフォルト
  6
Continuous
 62
     7
 48
25.4
100
AcDbLine
 10
23.5116404761
 20
132.6732684861
 30
0.0
 11
23.5116404761
 21
135.4232684861
 31
0.0
  0
LINE
  5
7C
330
40
100
AcDbEntity
  8
DV1_デフォルト
  6
Continuous
 62
     7
 48
25.4
100
AcDbLine
 10
23.5116404761
 20
135.4232684861
 30
0.0
 11
38.0065352566
 21
137.9791095184
 31
0.0
  0
LINE
  5
7D
330
40
100
AcDbEntity
  8
DV1_デフォルト
  6
Continuous
 62
     7
 48
25.4
100
AcDbLine
 10
38.0065352566
 20
135.2291095184
 30
0.0
 11
38.0065352566
 21
137.9791095184
 31
0.0
  0
LINE
  5
7E
330
40
100
AcDbEntity
  8
DV1_デフォルト
  6
Continuous
 62
     7
 48
25.4
100
AcDbLine
 10
23.5116404761
 20
138.1732684861
 30
0.0
 11
38.0065352566
 21
140.7291095184
 31
0.0
  0
LINE
  5
7F
330
40
100
AcDbEntity
  8
DV1_デフォルト
  6
Continuous
 62
     7
 48
25.4
100
AcDbLine
 10
23.5116404761
 20
138.1732684861
 30
0.0
 11
23.5116404761
 21
140.9232684861
 31
0.0
  0
LINE
  5
80
330
40
100
AcDbEntity
  8
DV1_デフォルト
  6
Continuous
 62
     7
 48
25.4
100
AcDbLine
 10
23.5116404761
 20
140.9232684861
 30
0.0
 11
38.0065352566
 21
143.4791095184
 31
0.0
  0
LINE
  5
81
330
40
100
AcDbEntity
  8
DV1_デフォルト
  6
Continuous
 62
     7
 48
25.4
100
AcDbLine
 10
38.0065352566
 20
140.7291095184
 30
0.0
 11
38.0065352566
 21
143.4791095184
 31
0.0
  0
LINE
  5
82
330
40
100
AcDbEntity
  8
DV1_デフォルト
  6
Continuous
 62
     7
 48
25.4
100
AcDbLine
 10
23.5116404761
 20
143.6732684861
 30
0.0
 11
38.0065352566
 21
146.2291095184
 31
0.0
  0
LINE
  5
83
330
40
100
AcDbEntity
  8
DV1_デフォルト
  6
Continuous
 62
     7
 48
25.4
100
AcDbLine
 10
23.5116404761
 20
143.6732684861
 30
0.0
 11
23.5116404761
 21
146.4232684861
 31
0.0
  0
LINE
  5
84
330
40
100
AcDbEntity
  8
DV1_デフォルト
  6
Continuous
 62
     7
 48
25.4
100
AcDbLine
 10
23.5116404761
 20
146.4232684861
 30
0.0
 11
38.0065352566
 21
148.9791095184
 31
0.0
  0
LINE
  5
85
330
40
100
AcDbEntity
  8
DV1_デフォルト
  6
Continuous
 62
     7
 48
25.4
100
AcDbLine
 10
38.0065352566
 20
146.2291095184
 30
0.0
 11
38.0065352566
 21
148.9791095184
 31
0.0
  0
LINE
  5
86
330
40
100
AcDbEntity
  8
DV1_デフォルト
  6
Continuous
 62
     7
 48
25.4
100
AcDbLine
 10
23.5116404761
 20
149.1732684861
 30
0.0
 11
38.0065352566
 21
151.7291095184
 31
0.0
  0
LINE
  5
87
330
40
100
AcDbEntity
  8
DV1_デフォルト
  6
Continuous
 62
     7
 48
25.4
100
AcDbLine
 10
23.5116404761
 20
149.1732684861
 30
0.0
 11
23.5116404761
 21
151.9232684861
 31
0.0
  0
LINE
  5
88
330
40
100
AcDbEntity
  8
DV1_デフォルト
  6
Continuous
 62
     7
 48
25.4
100
AcDbLine
 10
23.5116404761
 20
151.9232684861
 30
0.0
 11
38.0065352566
 21
154.4791095184
 31
0.0
  0
LINE
  5
89
330
40
100
AcDbEntity
  8
DV1_デフォルト
  6
Continuous
 62
     7
 48
25.4
100
AcDbLine
 10
38.0065352566
 20
151.7291095184
 30
0.0
 11
38.0065352566
 21
154.4791095184
 31
0.0
  0
LINE
  5
8A
330
40
100
AcDbEntity
  8
DV1_デフォルト
  6
Continuous
 62
     7
 48
25.4
100
AcDbLine
 10
23.5116404761
 20
154.6732684861
 30
0.0
 11
38.0065352566
 21
157.2291095184
 31
0.0
  0
LINE
  5
8B
330
40
100
AcDbEntity
  8
DV1_デフォルト
  6
Continuous
 62
     7
 48
25.4
100
AcDbLine
 10
23.5116404761
 20
154.6732684861
 30
0.0
 11
23.5116404761
 21
157.4232684861
 31
0.0
  0
LINE
  5
8C
330
40
100
AcDbEntity
  8
DV1_デフォルト
  6
Continuous
 62
     7
 48
25.4
100
AcDbLine
 10
23.5116404761
 20
157.4232684861
 30
0.0
 11
38.0065352566
 21
159.9791095184
 31
0.0
  0
LINE
  5
8D
330
40
100
AcDbEntity
  8
DV1_デフォルト
  6
Continuous
 62
     7
 48
25.4
100
AcDbLine
 10
38.0065352566
 20
157.2291095184
 30
0.0
 11
38.0065352566
 21
159.9791095184
 31
0.0
  0
LINE
  5
8E
330
40
100
AcDbEntity
  8
DV1_デフォルト
  6
Continuous
 62
     7
 48
25.4
100
AcDbLine
 10
173.5116404761
 20
103.1732684861
 30
0.0
 11
188.0065352566
 21
105.7291095184
 31
0.0
  0
LINE
  5
8F
330
40
100
AcDbEntity
  8
DV1_デフォルト
  6
Continuous
 62
     7
 48
25.4
100
AcDbLine
 10
173.5116404761
 20
103.1732684861
 30
0.0
 11
173.5116404761
 21
105.9232684861
 31
0.0
  0
LINE
  5
90
330
40
100
AcDbEntity
  8
DV1_デフォルト
  6
Continuous
 62
     7
 48
25.4
100
AcDbLine
 10
173.5116404761
 20
105.9232684861
 30
0.0
 11
188.0065352566
 21
108.4791095184
 31
0.0
  0
LINE
  5
91
330
40
100
AcDbEntity
  8
DV1_デフォルト
  6
Continuous
 62
     7
 48
25.4
100
AcDbLine
 10
188.0065352566
 20
105.7291095184
 30
0.0
 11
188.0065352566
 21
108.4791095184
 31
0.0
  0
LINE
  5
92
330
40
100
AcDbEntity
  8
DV1_デフォルト
  6
Continuous
 62
     7
 48
25.4
100
AcDbLine
 10
173.5116404761
 20
108.6732684861
 30
0.0
 11
188.0065352566
 21
111.2291095184
 31
0.0
  0
LINE
  5
93
330
40
100
AcDbEntity
  8
DV1_デフォルト
  6
Continuous
 62
     7
 48
25.4
100
AcDbLine
 10
173.5116404761
 20
108.6732684861
 30
0.0
 11
173.5116404761
 21
111.4232684861
 31
0.0
  0
LINE
  5
94
330
40
100
AcDbEntity
  8
DV1_デフォルト
  6
Continuous
 62
     7
 48
25.4
100
AcDbLine
 10
173.5116404761
 20
111.4232684861
 30
0.0
 11
188.0065352566
 21
113.9791095184
 31
0.0
  0
LINE
  5
95
330
40
100
AcDbEntity
  8
DV1_デフォルト
  6
Continuous
 62
     7
 48
25.4
100
AcDbLine
 10
188.0065352566
 20
111.2291095184
 30
0.0
 11
188.0065352566
 21
113.9791095184
 31
0.0
  0
LINE
  5
96
330
40
100
AcDbEntity
  8
DV1_デフォルト
  6
Continuous
 62
     7
 48
25.4
100
AcDbLine
 10
173.5116404761
 20
114.1732684861
 30
0.0
 11
188.0065352566
 21
116.7291095184
 31
0.0
  0
LINE
  5
97
330
40
100
AcDbEntity
  8
DV1_デフォルト
  6
Continuous
 62
     7
 48
25.4
100
AcDbLine
 10
173.5116404761
 20
114.1732684861
 30
0.0
 11
173.5116404761
 21
116.9232684861
 31
0.0
  0
LINE
  5
98
330
40
100
AcDbEntity
  8
DV1_デフォルト
  6
Continuous
 62
     7
 48
25.4
100
AcDbLine
 10
173.5116404761
 20
116.9232684861
 30
0.0
 11
188.0065352566
 21
119.4791095184
 31
0.0
  0
LINE
  5
99
330
40
100
AcDbEntity
  8
DV1_デフォルト
  6
Continuous
 62
     7
 48
25.4
100
AcDbLine
 10
188.0065352566
 20
116.7291095184
 30
0.0
 11
188.0065352566
 21
119.4791095184
 31
0.0
  0
LINE
  5
9A
330
40
100
AcDbEntity
  8
DV1_デフォルト
  6
Continuous
 62
     7
 48
25.4
100
AcDbLine
 10
173.5116404761
 20
119.6732684861
 30
0.0
 11
188.0065352566
 21
122.2291095184
 31
0.0
  0
LINE
  5
9B
330
40
100
AcDbEntity
  8
DV1_デフォルト
  6
Continuous
 62
     7
 48
25.4
100
AcDbLine
 10
173.5116404761
 20
119.6732684861
 30
0.0
 11
173.5116404761
 21
122.4232684861
 31
0.0
  0
LINE
  5
9C
330
40
100
AcDbEntity
  8
DV1_デフォルト
  6
Continuous
 62
     7
 48
25.4
100
AcDbLine
 10
173.5116404761
 20
122.4232684861
 30
0.0
 11
188.0065352566
 21
124.9791095184
 31
0.0
  0
LINE
  5
9D
330
40
100
AcDbEntity
  8
DV1_デフォルト
  6
Continuous
 62
     7
 48
25.4
100
AcDbLine
 10
188.0065352566
 20
122.2291095184
 30
0.0
 11
188.0065352566
 21
124.9791095184
 31
0.0
  0
LINE
  5
9E
330
40
100
AcDbEntity
  8
DV1_デフォルト
  6
Continuous
 62
     7
 48
25.4
100
AcDbLine
 10
173.5116404761
 20
125.1732684861
 30
0.0
 11
188.0065352566
 21
127.7291095184
 31
0.0
  0
LINE
  5
9F
330
40
100
AcDbEntity
  8
DV1_デフォルト
  6
Continuous
 62
     7
 48
25.4
100
AcDbLine
 10
173.5116404761
 20
125.1732684861
 30
0.0
 11
173.5116404761
 21
127.9232684861
 31
0.0
  0
LINE
  5
A0
330
40
100
AcDbEntity
  8
DV1_デフォルト
  6
Continuous
 62
     7
 48
25.4
100
AcDbLine
 10
173.5116404761
 20
127.9232684861
 30
0.0
 11
188.0065352566
 21
130.4791095184
 31
0.0
  0
LINE
  5
A1
330
40
100
AcDbEntity
  8
DV1_デフォルト
  6
Continuous
 62
     7
 48
25.4
100
AcDbLine
 10
188.0065352566
 20
127.7291095184
 30
0.0
 11
188.0065352566
 21
130.4791095184
 31
0.0
  0
LINE
  5
A2
330
40
100
AcDbEntity
  8
DV1_デフォルト
  6
Continuous
 62
     7
 48
25.4
100
AcDbLine
 10
173.5116404761
 20
130.6732684861
 30
0.0
 11
188.0065352566
 21
133.2291095184
 31
0.0
  0
LINE
  5
A3
330
40
100
AcDbEntity
  8
DV1_デフォルト
  6
Continuous
 62
     7
 48
25.4
100
AcDbLine
 10
173.5116404761
 20
130.6732684861
 30
0.0
 11
173.5116404761
 21
133.4232684861
 31
0.0
  0
LINE
  5
A4
330
40
100
AcDbEntity
  8
DV1_デフォルト
  6
Continuous
 62
     7
 48
25.4
100
AcDbLine
 10
173.5116404761
 20
133.4232684861
 30
0.0
 11
188.0065352566
 21
135.9791095184
 31
0.0
  0
LINE
  5
A5
330
40
100
AcDbEntity
  8
DV1_デフォルト
  6
Continuous
 62
     7
 48
25.4
100
AcDbLine
 10
188.0065352566
 20
133.2291095184
 30
0.0
 11
188.0065352566
 21
135.9791095184
 31
0.0
  0
LINE
  5
A6
330
40
100
AcDbEntity
  8
DV1_デフォルト
  6
Continuous
 62
     7
 48
25.4
100
AcDbLine
 10
173.5116404761
 20
136.1732684861
 30
0.0
 11
188.0065352566
 21
138.7291095184
 31
0.0
  0
LINE
  5
A7
330
40
100
AcDbEntity
  8
DV1_デフォルト
  6
Continuous
 62
     7
 48
25.4
100
AcDbLine
 10
173.5116404761
 20
136.1732684861
 30
0.0
 11
173.5116404761
 21
138.9232684861
 31
0.0
  0
LINE
  5
A8
330
40
100
AcDbEntity
  8
DV1_デフォルト
  6
Continuous
 62
     7
 48
25.4
100
AcDbLine
 10
173.5116404761
 20
138.9232684861
 30
0.0
 11
188.0065352566
 21
141.4791095184
 31
0.0
  0
LINE
  5
A9
330
40
100
AcDbEntity
  8
DV1_デフォルト
  6
Continuous
 62
     7
 48
25.4
100
AcDbLine
 10
188.0065352566
 20
138.7291095184
 30
0.0
 11
188.0065352566
 21
141.4791095184
 31
0.0
  0
LINE
  5
AA
330
40
100
AcDbEntity
  8
DV1_デフォルト
  6
Continuous
 62
     7
 48
25.4
100
AcDbLine
 10
173.5116404761
 20
141.6732684861
 30
0.0
 11
188.0065352566
 21
144.2291095184
 31
0.0
  0
LINE
  5
AB
330
40
100
AcDbEntity
  8
DV1_デフォルト
  6
Continuous
 62
     7
 48
25.4
100
AcDbLine
 10
173.5116404761
 20
141.6732684861
 30
0.0
 11
173.5116404761
 21
144.4232684861
 31
0.0
  0
LINE
  5
AC
330
40
100
AcDbEntity
  8
DV1_デフォルト
  6
Continuous
 62
     7
 48
25.4
100
AcDbLine
 10
173.5116404761
 20
144.4232684861
 30
0.0
 11
188.0065352566
 21
146.9791095184
 31
0.0
  0
LINE
  5
AD
330
40
100
AcDbEntity
  8
DV1_デフォルト
  6
Continuous
 62
     7
 48
25.4
100
AcDbLine
 10
188.0065352566
 20
144.2291095184
 30
0.0
 11
188.0065352566
 21
146.9791095184
 31
0.0
  0
LINE
  5
AE
330
40
100
AcDbEntity
  8
DV1_デフォルト
  6
Continuous
 62
     7
 48
25.4
100
AcDbLine
 10
173.5116404761
 20
147.1732684861
 30
0.0
 11
188.0065352566
 21
149.7291095184
 31
0.0
  0
LINE
  5
AF
330
40
100
AcDbEntity
  8
DV1_デフォルト
  6
Continuous
 62
     7
 48
25.4
100
AcDbLine
 10
173.5116404761
 20
147.1732684861
 30
0.0
 11
173.5116404761
 21
149.9232684861
 31
0.0
  0
LINE
  5
B0
330
40
100
AcDbEntity
  8
DV1_デフォルト
  6
Continuous
 62
     7
 48
25.4
100
AcDbLine
 10
173.5116404761
 20
149.9232684861
 30
0.0
 11
188.0065352566
 21
152.4791095184
 31
0.0
  0
LINE
  5
B1
330
40
100
AcDbEntity
  8
DV1_デフォルト
  6
Continuous
 62
     7
 48
25.4
100
AcDbLine
 10
188.0065352566
 20
149.7291095184
 30
0.0
 11
188.0065352566
 21
152.4791095184
 31
0.0
  0
LINE
  5
B2
330
40
100
AcDbEntity
  8
DV1_デフォルト
  6
Continuous
 62
     7
 48
25.4
100
AcDbLine
 10
173.5116404761
 20
152.6732684861
 30
0.0
 11
188.0065352566
 21
155.2291095184
 31
0.0
  0
LINE
  5
B3
330
40
100
AcDbEntity
  8
DV1_デフォルト
  6
Continuous
 62
     7
 48
25.4
100
AcDbLine
 10
173.5116404761
 20
152.6732684861
 30
0.0
 11
173.5116404761
 21
155.4232684861
 31
0.0
  0
LINE
  5
B4
330
40
100
AcDbEntity
  8
DV1_デフォルト
  6
Continuous
 62
     7
 48
25.4
100
AcDbLine
 10
173.5116404761
 20
155.4232684861
 30
0.0
 11
188.0065352566
 21
157.9791095184
 31
0.0
  0
LINE
  5
B5
330
40
100
AcDbEntity
  8
DV1_デフォルト
  6
Continuous
 62
     7
 48
25.4
100
AcDbLine
 10
188.0065352566
 20
155.2291095184
 30
0.0
 11
188.0065352566
 21
157.9791095184
 31
0.0
  0
LINE
  5
B6
330
40
100
AcDbEntity
  8
DV1_デフォルト
  6
Continuous
 62
     7
 48
25.4
100
AcDbLine
 10
173.5116404761
 20
158.1732684861
 30
0.0
 11
188.0065352566
 21
160.7291095184
 31
0.0
  0
LINE
  5
B7
330
40
100
AcDbEntity
  8
DV1_デフォルト
  6
Continuous
 62
     7
 48
25.4
100
AcDbLine
 10
173.5116404761
 20
158.1732684861
 30
0.0
 11
173.5116404761
 21
160.9232684861
 31
0.0
  0
LINE
  5
B8
330
40
100
AcDbEntity
  8
DV1_デフォルト
  6
Continuous
 62
     7
 48
25.4
100
AcDbLine
 10
173.5116404761
 20
160.9232684861
 30
0.0
 11
188.0065352566
 21
163.4791095184
 31
0.0
  0
LINE
  5
B9
330
40
100
AcDbEntity
  8
DV1_デフォルト
  6
Continuous
 62
     7
 48
25.4
100
AcDbLine
 10
188.0065352566
 20
160.7291095184
 30
0.0
 11
188.0065352566
 21
163.4791095184
 31
0.0
  0
LINE
  5
BA
330
40
100
AcDbEntity
  8
DV1_デフォルト
  6
Continuous
 62
     7
 48
25.4
100
AcDbLine
 10
18.0076010798
 20
87.9232684861
 30
0.0
 11
43.5076010798
 21
87.9232684861
 31
0.0
  0
LINE
  5
BB
330
40
100
AcDbEntity
  8
DV1_デフォルト
  6
Continuous
 62
     7
 48
25.4
100
AcDbLine
 10
18.0076010798
 20
75.4232684861
 30
0.0
 11
43.5076010798
 21
75.4232684861
 31
0.0
  0
LINE
  5
BC
330
40
100
AcDbEntity
  8
DV1_デフォルト
  6
Continuous
 62
     7
 48
25.4
100
AcDbLine
 10
18.0076010798
 20
87.9232684861
 30
0.0
 11
18.0076010798
 21
75.4232684861
 31
0.0
  0
LINE
  5
BD
330
40
100
AcDbEntity
  8
DV1_デフォルト
  6
Continuous
 62
     7
 48
25.4
100
AcDbLine
 10
43.5076010798
 20
75.4232684861
 30
0.0
 11
43.5076010798
 21
87.9232684861
 31
0.0
  0
LINE
  5
BE
330
40
100
AcDbEntity
  8
DV1_デフォルト
  6
Continuous
 62
     7
 48
25.4
100
AcDbLine
 10
18.2741462569
 20
88.238969273
 30
0.0
 11
43.2410559026
 21
88.238969273
 31
0.0
  0
LINE
  5
BF
330
40
100
AcDbEntity
  8
DV1_デフォルト
  6
Continuous
 62
     7
 48
25.4
100
AcDbLine
 10
20.8015044718
 20
126.9232684861
 30
0.0
 11
40.7136976878
 21
126.9232684861
 31
0.0
  0
LINE
  5
C0
330
40
100
AcDbEntity
  8
DV1_デフォルト
  6
Continuous
 62
     7
 48
25.4
100
AcDbLine
 10
20.2753364937
 20
126.4239537187
 30
0.0
 11
41.2398656659
 21
126.4239537187
 31
0.0
  0
LINE
  5
C1
330
40
100
AcDbEntity
  8
DV1_デフォルト
  6
Continuous
 62
     7
 48
25.4
100
AcDbLine
 10
43.2410559026
 20
88.238969273
 30
0.0
 11
41.2398656659
 21
126.4239537187
 31
0.0
  0
LINE
  5
C2
330
40
100
AcDbEntity
  8
DV1_デフォルト
  6
Continuous
 62
     7
 48
25.4
100
AcDbLine
 10
20.2753364937
 20
126.4239537187
 30
0.0
 11
18.2741462569
 21
88.238969273
 31
0.0
  0
ARC
  5
C3
330
40
100
AcDbEntity
  8
DV1_デフォルト
  6
Continuous
 62
     7
 48
25.4
100
AcDbCircle
 10
18.5737351174
 20
88.2232684861
 30
0.0
 40
0.3000000000000001
100
AcDbArc
 50
177.0
 51
270.0
  0
ARC
  5
C4
330
40
100
AcDbEntity
  8
DV1_デフォルト
  6
Continuous
 62
     7
 48
25.4
100
AcDbCircle
 10
42.9414670422
 20
88.2232684861
 30
0.0
 40
0.3000000000000017
100
AcDbArc
 50
270.0
 51
3.0
  0
LINE
  5
C5
330
40
100
AcDbEntity
  8
DV1_デフォルト
  6
Continuous
 62
     7
 48
25.4
100
AcDbLine
 10
41.2398656659
 20
126.4239537187
 30
0.0
 11
40.7136976878
 21
126.9232684861
 31
0.0
  0
LINE
  5
C6
330
40
100
AcDbEntity
  8
DV1_デフォルト
  6
Continuous
 62
     7
 48
25.4
100
AcDbLine
 10
20.8015044718
 20
126.9232684861
 30
0.0
 11
20.2753364937
 21
126.4239537187
 31
0.0
  0
LINE
  5
C7
330
40
100
AcDbEntity
  8
DV1_デフォルト
  6
HIDDEN2
 62
     7
 48
25.4
100
AcDbLine
 10
20.2801010798
 20
75.4232684861
 30
0.0
 11
20.2801010798
 21
83.9232684861
 31
0.0
  0
LINE
  5
C8
330
40
100
AcDbEntity
  8
DV1_デフォルト
  6
HIDDEN2
 62
     7
 48
25.4
100
AcDbLine
 10
41.2351010798
 20
75.4232684861
 30
0.0
 11
41.2351010798
 21
83.9232684861
 31
0.0
  0
LINE
  5
C9
330
40
100
AcDbEntity
  8
DV1_デフォルト
  6
HIDDEN2
 62
     7
 48
25.4
100
AcDbLine
 10
41.2351010798
 20
83.9232684861
 30
0.0
 11
20.2801010798
 21
83.9232684861
 31
0.0
  0
ENDBLK
  5
CB
330
40
100
AcDbEntity
  8
0
100
AcDbBlockEnd
  0
BLOCK
  5
D7
330
CC
100
AcDbEntity
  8
0
100
AcDbBlockBegin
  2
GDimGGroup
 70
     0
 71
     0
 10
0.0
 20
0.0
 30
0.0
  3
GDimGGroup
  1

  0
HATCH
  5
CE
330
CC
100
AcDbEntity
  8
Default
  6
Continuous
 62
   136
 48
25.4
100
AcDbHatch
 10
0.0
 20
0.0
 30
0.0
210
0.0
220
0.0
230
1.0
  2
SOLID
 70
     1
 71
     0
 91
        1
 92
        1
 93
        3
 72
     1
 10
164.2801010279182
 20
60.31487147041218
 11
170.2801010800722
 21
61.31487147910453
 72
     1
 10
170.2801010800722
 20
61.31487147910453
 11
164.2801010279182
 21
62.31487148779687
 72
     1
 10
164.2801010279182
 20
62.31487148779687
 11
164.2801010279182
 21
60.31487147041218
 97
        0
 75
     0
 76
     1
 98
        0
  0
LWPOLYLINE
  5
CF
330
CC
100
AcDbEntity
  8
Default
  6
Continuous
 62
   136
 48
25.4
370
    30
100
AcDbPolyline
 90
        4
 70
     1
 43
0.00035
 10
164.2801010279
 20
60.3148714704
 10
170.2801010801
 20
61.3148714791
 10
164.2801010279
 20
62.3148714878
 10
164.2801010279
 20
60.3148714704
  0
HATCH
  5
D0
330
CC
100
AcDbEntity
  8
Default
  6
Continuous
 62
   136
 48
25.4
100
AcDbHatch
 10
0.0
 20
0.0
 30
0.0
210
0.0
220
0.0
230
1.0
  2
SOLID
 70
     1
 71
     0
 91
        1
 92
        1
 93
        3
 72
     1
 10
197.235101126825
 20
60.31487147041218
 11
197.235101126825
 21
62.31487148779687
 72
     1
 10
197.235101126825
 20
62.31487148779687
 11
191.2351010746709
 21
61.31487147910453
 72
     1
 10
191.2351010746709
 20
61.31487147910453
 11
197.235101126825
 21
60.31487147041218
 97
        0
 75
     0
 76
     1
 98
        0
  0
LWPOLYLINE
  5
D1
330
CC
100
AcDbEntity
  8
Default
  6
Continuous
 62
   136
 48
25.4
370
    30
100
AcDbPolyline
 90
        4
 70
     1
 43
0.00035
 10
197.2351011268
 20
60.3148714704
 10
191.2351010747
 20
61.3148714791
 10
197.2351011268
 20
62.3148714878
 10
197.2351011268
 20
60.3148714704
  0
LINE
  5
D2
330
CC
100
AcDbEntity
  8
Default
  6
Continuous
 62
     7
 48
25.4
100
AcDbLine
 10
170.2801010801
 20
77.4232688735
 30
0.0
 11
170.2801010801
 21
58.314871453
 31
0.0
  0
LINE
  5
D3
330
CC
100
AcDbEntity
  8
Default
  6
Continuous
 62
     7
 48
25.4
100
AcDbLine
 10
191.2351010747
 20
77.4232684861
 30
0.0
 11
191.2351010747
 21
58.314871453
 31
0.0
  0
LINE
  5
D4
330
CC
100
AcDbEntity
  8
Default
  6
Continuous
 62
     7
 48
25.4
100
AcDbLine
 10
158.2801009758
 20
61.3148714791
 30
0.0
 11
170.2801010801
 21
61.3148714791
 31
0.0
  0
LINE
  5
D5
330
CC
100
AcDbEntity
  8
Default
  6
Continuous
 62
     7
 48
25.4
100
AcDbLine
 10
191.2351010747
 20
61.3148714791
 30
0.0
 11
203.235101179
 21
61.3148714791
 31
0.0
  0
TEXT
  5
D6
330
CC
100
AcDbEntity
  8
Default
  6
Continuous
 62
     7
 48
25.4
100
AcDbText
 10
170.2935502532
 20
58.3148714791
 30
0.0
 40
6.0
  1
G 1/2
  7
SEACAD_arial_ttf
 11
170.2935502532
 21
64.3148714791
 31
0.0
100
AcDbText
 73
     3
  0
ENDBLK
  5
D8
330
CC
100
AcDbEntity
  8
0
100
AcDbBlockEnd
  0
BLOCK
  5
E6
330
D9
100
AcDbEntity
  8
0
100
AcDbBlockBegin
  2
GDimGGroup1
 70
     0
 71
     0
 10
0.0
 20
0.0
 30
0.0
  3
GDimGGroup1
  1

  0
HATCH
  5
DB
330
D9
100
AcDbEntity
  8
Default
  6
Continuous
 62
   136
 48
25.4
100
AcDbHatch
 10
0.0
 20
0.0
 30
0.0
210
0.0
220
0.0
230
1.0
  2
SOLID
 70
     1
 71
     0
 91
        1
 92
        1
 93
        3
 72
     1
 10
16.7616404239111
 20
178.599445007105
 11
16.7616404239111
 21
176.5994449897203
 72
     1
 10
16.7616404239111
 20
176.5994449897203
 11
22.76164047606516
 21
177.5994449984127
 72
     1
 10
22.76164047606516
 20
177.5994449984127
 11
16.7616404239111
 21
178.599445007105
 97
        0
 75
     0
 76
     1
 98
        0
  0
LWPOLYLINE
  5
DC
330
D9
100
AcDbEntity
  8
Default
  6
Continuous
 62
   136
 48
25.4
370
    30
100
AcDbPolyline
 90
        4
 70
     1
 43
0.00035
 10
16.7616404239
 20
178.5994450071
 10
22.7616404761
 20
177.5994449984
 10
16.7616404239
 20
176.5994449897
 10
16.7616404239
 20
178.5994450071
  0
HATCH
  5
DD
330
D9
100
AcDbEntity
  8
Default
  6
Continuous
 62
   136
 48
25.4
100
AcDbHatch
 10
0.0
 20
0.0
 30
0.0
210
0.0
220
0.0
230
1.0
  2
SOLID
 70
     1
 71
     0
 91
        1
 92
        1
 93
        3
 72
     1
 10
44.75653530874649
 20
178.599445007105
 11
38.75653525659242
 21
177.5994449984127
 72
     1
 10
38.75653525659242
 20
177.5994449984127
 11
44.75653530874649
 21
176.5994449897203
 72
     1
 10
44.75653530874649
 20
176.5994449897203
 11
44.75653530874649
 21
178.599445007105
 97
        0
 75
     0
 76
     1
 98
        0
  0
LWPOLYLINE
  5
DE
330
D9
100
AcDbEntity
  8
Default
  6
Continuous
 62
   136
 48
25.4
370
    30
100
AcDbPolyline
 90
        4
 70
     1
 43
0.00035
 10
44.7565353087
 20
178.5994450071
 10
38.7565352566
 20
177.5994449984
 10
44.7565353087
 20
176.5994449897
 10
44.7565353087
 20
178.5994450071
  0
LINE
  5
DF
330
D9
100
AcDbEntity
  8
Default
  6
Continuous
 62
     7
 48
25.4
100
AcDbLine
 10
22.7616404761
 20
158.1248417627
 30
0.0
 11
22.7616404761
 21
180.5994450245
 31
0.0
  0
LINE
  5
E0
330
D9
100
AcDbEntity
  8
Default
  6
Continuous
 62
     7
 48
25.4
100
AcDbLine
 10
38.7565352566
 20
161.121459744
 30
0.0
 11
38.7565352566
 21
180.5994450245
 31
0.0
  0
LINE
  5
E1
330
D9
100
AcDbEntity
  8
Default
  6
Continuous
 62
     7
 48
25.4
100
AcDbLine
 10
10.7616403718
 20
177.5994449984
 30
0.0
 11
22.7616404761
 21
177.5994449984
 31
0.0
  0
LINE
  5
E2
330
D9
100
AcDbEntity
  8
Default
  6
Continuous
 62
     7
 48
25.4
100
AcDbLine
 10
38.7565352566
 20
177.5994449984
 30
0.0
 11
69.3836164273
 21
177.5994449984
 31
0.0
  0
TEXT
  5
E3
330
D9
100
AcDbEntity
  8
Default
  6
Continuous
 62
     7
 48
25.4
100
AcDbText
 10
57.8923127041
 20
179.0994449984
 30
0.0
 40
6.0
  1
16
  7
SEACAD_arial_ttf
 11
57.8923127041
 21
185.0994449984
 31
0.0
100
AcDbText
 73
     3
  0
TEXT
  5
E5
330
D9
100
AcDbEntity
  8
Default
  6
Continuous
 62
     7
 48
25.4
100
AcDbText
 10
46.8502074409
 20
179.0994449984
 30
0.0
 40
6.0
  1
O
  7
SEACAD_semeca1_ttf
 11
46.8502074409
 21
185.0994449984
 31
0.0
100
AcDbText
 73
     3
  0
ENDBLK
  5
E7
330
D9
100
AcDbEntity
  8
0
100
AcDbBlockEnd
  0
BLOCK
  5
F3
330
E8
100
AcDbEntity
  8
0
100
AcDbBlockBegin
  2
GDimGGroup2
 70
     0
 71
     0
 10
0.0
 20
0.0
 30
0.0
  3
GDimGGroup2
  1

  0
HATCH
  5
EA
330
E8
100
AcDbEntity
  8
Default
  6
Continuous
 62
   136
 48
25.4
100
AcDbHatch
 10
0.0
 20
0.0
 30
0.0
210
0.0
220
0.0
230
1.0
  2
SOLID
 70
     1
 71
     0
 91
        1
 92
        1
 93
        3
 72
     1
 10
14.28010102763513
 20
59.36417639531749
 11
20.2801010797892
 21
60.36417640400983
 72
     1
 10
20.2801010797892
 20
60.36417640400983
 11
14.28010102763513
 21
61.36417641270218
 72
     1
 10
14.28010102763513
 20
61.36417641270218
 11
14.28010102763513
 21
59.36417639531749
 97
        0
 75
     0
 76
     1
 98
        0
  0
LWPOLYLINE
  5
EB
330
E8
100
AcDbEntity
  8
Default
  6
Continuous
 62
   136
 48
25.4
370
    30
100
AcDbPolyline
 90
        4
 70
     1
 43
0.00035
 10
14.2801010276
 20
59.3641763953
 10
20.2801010798
 20
60.364176404
 10
14.2801010276
 20
61.3641764127
 10
14.2801010276
 20
59.3641763953
  0
HATCH
  5
EC
330
E8
100
AcDbEntity
  8
Default
  6
Continuous
 62
   136
 48
25.4
100
AcDbHatch
 10
0.0
 20
0.0
 30
0.0
210
0.0
220
0.0
230
1.0
  2
SOLID
 70
     1
 71
     0
 91
        1
 92
        1
 93
        3
 72
     1
 10
47.23510113194326
 20
59.36417639531749
 11
47.23510113194326
 21
61.36417641270218
 72
     1
 10
47.23510113194326
 20
61.36417641270218
 11
41.2351010797892
 21
60.36417640400983
 72
     1
 10
41.2351010797892
 20
60.36417640400983
 11
47.23510113194326
 21
59.36417639531749
 97
        0
 75
     0
 76
     1
 98
        0
  0
LWPOLYLINE
  5
ED
330
E8
100
AcDbEntity
  8
Default
  6
Continuous
 62
   136
 48
25.4
370
    30
100
AcDbPolyline
 90
        4
 70
     1
 43
0.00035
 10
47.2351011319
 20
59.3641763953
 10
41.2351010798
 20
60.364176404
 10
47.2351011319
 20
61.3641764127
 10
47.2351011319
 20
59.3641763953
  0
LINE
  5
EE
330
E8
100
AcDbEntity
  8
Default
  6
Continuous
 62
     7
 48
25.4
100
AcDbLine
 10
20.2801010798
 20
75.4232684861
 30
0.0
 11
20.2801010798
 21
57.3641763779
 31
0.0
  0
LINE
  5
EF
330
E8
100
AcDbEntity
  8
Default
  6
Continuous
 62
     7
 48
25.4
100
AcDbLine
 10
41.2351010798
 20
75.4232684861
 30
0.0
 11
41.2351010798
 21
57.3641763779
 31
0.0
  0
LINE
  5
F0
330
E8
100
AcDbEntity
  8
Default
  6
Continuous
 62
     7
 48
25.4
100
AcDbLine
 10
8.2801009755
 20
60.364176404
 30
0.0
 11
20.2801010798
 21
60.364176404
 31
0.0
  0
LINE
  5
F1
330
E8
100
AcDbEntity
  8
Default
  6
Continuous
 62
     7
 48
25.4
100
AcDbLine
 10
41.2351010798
 20
60.364176404
 30
0.0
 11
53.2351011841
 21
60.364176404
 31
0.0
  0
TEXT
  5
F2
330
E8
100
AcDbEntity
  8
Default
  6
Continuous
 62
     7
 48
25.4
100
AcDbText
 10
20.3958467245
 20
57.364176404
 30
0.0
 40
6.0
  1
G 1/2
  7
SEACAD_arial_ttf
 11
20.3958467245
 21
63.364176404
 31
0.0
100
AcDbText
 73
     3
  0
ENDBLK
  5
F4
330
E8
100
AcDbEntity
  8
0
100
AcDbBlockEnd
  0
ENDSEC
  0
SECTION
  2
ENTITIES
  0
TEXT
  5
2B
330
1F
100
AcDbEntity
  8
Default
  6
Continuous
 62
     7
 48
25.4
100
AcDbText
 10
98.6818181818
 20
7.0681818182
 30
0.0
 40
3.0
  1
28409J
  7
SEACAD_seiso_ttf
 11
98.6818181818
 21
10.0681818182
 31
0.0
100
AcDbText
 73
     3
  0
TEXT
  5
2D
330
1F
100
AcDbEntity
  8
Default
  6
Continuous
 62
     7
 48
25.4
100
AcDbText
 10
170.9318181818
 20
14.7136363636
 30
0.0
 40
5.0
  1
2840900J
  7
SEACAD_seiso_ttf
 11
170.9318181818
 21
19.7136363636
 31
0.0
100
AcDbText
 73
     3
  0
TEXT
  5
2E
330
1F
100
AcDbEntity
  8
Default
  6
Continuous
 62
     7
 48
25.4
100
AcDbText
 10
54.225
 20
41.55
 30
0.0
 40
2.2
  1
-
  7
SEACAD_seiso_ttf
 11
54.225
 21
43.75
 31
0.0
100
AcDbText
 73
     3
  0
TEXT
  5
2F
330
1F
100
AcDbEntity
  8
Default
  6
Continuous
 62
     7
 48
25.4
100
AcDbText
 10
49.35
 20
36.55
 30
0.0
 40
2.2
  1
20. 6.2006
  7
SEACAD_seiso_ttf
 11
49.35
 21
38.75
 31
0.0
100
AcDbText
 73
     3
  0
TEXT
  5
30
330
1F
100
AcDbEntity
  8
Default
  6
Continuous
 62
     7
 48
25.4
100
AcDbText
 10
53.425
 20
31.35
 30
0.0
 40
2.2
  1
Sm
  7
SEACAD_seiso_ttf
 11
53.425
 21
33.55
 31
0.0
100
AcDbText
 73
     3
  0
TEXT
  5
31
330
1F
100
AcDbEntity
  8
Default
  6
Continuous
 62
     7
 48
25.4
100
AcDbText
 10
49.925
 20
26.55
 30
0.0
 40
2.2
  1
Rikukawa
  7
SEACAD_seiso_ttf
 11
49.925
 21
28.75
 31
0.0
100
AcDbText
 73
     3
  0
TEXT
  5
32
330
1F
100
AcDbEntity
  8
Default
  6
Continuous
 62
     7
 48
25.4
100
AcDbText
 10
13.3568181818
 20
30.5136363636
 30
0.0
 40
5.0
  1
1:1
  7
SEACAD_seiso_ttf
 11
13.3568181818
 21
35.5136363636
 31
0.0
100
AcDbText
 73
     3
  0
TEXT
  5
34
330
1F
100
AcDbEntity
  8
Default
  6
Continuous
 62
     7
 48
25.4
100
AcDbText
 10
175.097826087
 20
5.4652173913
 30
0.0
 40
3.0
  1
m28409j
  7
SEACAD_arial_ttf
 11
175.097826087
 21
8.4652173913
 31
0.0
100
AcDbText
 73
     3
  0
INSERT
  5
36
330
1F
100
AcDbEntity
  8
Default
100
AcDbBlockReference
  2
SEANNOT_GROUP
 10
0.0
 20
0.0
 30
0.0
  0
TEXT
  5
3E
330
1F
100
AcDbEntity
  8
Default
  6
Continuous
 62
     7
 48
25.4
100
AcDbText
 10
79.2568181818
 20
20.1363636364
 30
0.0
 40
3.8
  1
Relexaflex,-Brauseschlauch
  7
SEACAD_seiso_ttf
 11
79.2568181818
 21
23.9363636364
 31
0.0
100
AcDbText
 73
     3
  0
TEXT
  5
3F
330
1F
100
AcDbEntity
  8
Default
  6
Continuous
 62
     7
 48
25.4
100
AcDbText
 10
88.3681818182
 20
14.1363636364
 30
0.0
 40
3.8
  1
RELEXAFLEX HOSE
  7
SEACAD_seiso_ttf
 11
88.3681818182
 21
17.9363636364
 31
0.0
100
AcDbText
 73
     3
  0
INSERT
  5
41
330
1F
100
AcDbEntity
  8
Default
100
AcDbBlockReference
  2
SE
 10
0.0
 20
0.0
 30
0.0
  0
INSERT
  5
CD
330
1F
100
AcDbEntity
  8
Default
100
AcDbBlockReference
  2
GDimGGroup
 10
0.0
 20
0.0
 30
0.0
  0
INSERT
  5
DA
330
1F
100
AcDbEntity
  8
Default
100
AcDbBlockReference
  2
GDimGGroup1
 10
0.0
 20
0.0
 30
0.0
  0
INSERT
  5
E9
330
1F
100
AcDbEntity
  8
Default
100
AcDbBlockReference
  2
GDimGGroup2
 10
0.0
 20
0.0
 30
0.0
  0
LINE
  5
F6
330
1F
100
AcDbEntity
  8
Standard
  6
Continuous
 62
     7
 48
25.4
100
AcDbLine
 10
6.6
 20
291.0
 30
0.0
 11
6.6
 21
5.0
 31
0.0
  0
LINE
  5
F7
330
1F
100
AcDbEntity
  8
Standard
  6
Continuous
 62
     7
 48
25.4
100
AcDbLine
 10
6.6
 20
5.0
 30
0.0
 11
203.0048694642
 21
5.0
 31
0.0
  0
LINE
  5
F8
330
1F
100
AcDbEntity
  8
Standard
  6
Continuous
 62
     7
 48
25.4
100
AcDbLine
 10
203.0048694642
 20
291.0
 30
0.0
 11
6.6
 21
291.0
 31
0.0
  0
HATCH
  5
F9
330
1F
100
AcDbEntity
  8
0
  6
Continuous
 62
   252
 48
25.4
100
AcDbHatch
 10
0.0
 20
0.0
 30
0.0
210
0.0
220
0.0
230
1.0
  2
SOLID
 70
     1
 71
     0
 91
        1
 92
        1
 93
      139
 72
     1
 10
172.7172376075405
 20
36.00717426027418
 11
172.7172376075405
 21
38.16056787729543
 72
     1
 10
172.7172376075405
 20
38.16056787729543
 11
171.3135439905194
 21
38.16056787729544
 72
     1
 10
171.3135439905194
 20
38.16056787729544
 11
171.3135439905194
 21
36.61701935882525
 72
     1
 10
171.3135439905194
 20
36.61701935882525
 11
171.1917076643316
 21
36.5611499033753
 72
     1
 10
171.1917076643316
 20
36.5611499033753
 11
171.0666502755375
 21
36.51126995692736
 72
     1
 10
171.0666502755375
 20
36.51126995692736
 11
170.9388185719342
 21
36.46764219434532
 72
     1
 10
170.9388185719342
 20
36.46764219434532
 11
170.8086865832739
 21
36.43048421156423
 72
     1
 10
170.8086865832739
 20
36.43048421156423
 11
170.6767498485449
 21
36.39996513139732
 72
     1
 10
170.6767498485449
 20
36.39996513139732
 11
170.5435191598414
 21
36.37620310823803
 72
     1
 10
170.5435191598414
 20
36.37620310823803
 11
170.4095139875734
 21
36.35926380720596
 72
     1
 10
170.4095139875734
 20
36.35926380720596
 11
170.2752557640552
 21
36.34915989868774
 72
     1
 10
170.2752557640552
 20
36.34915989868774
 11
170.1412612066631
 21
36.34585157274731
 72
     1
 10
170.1412612066631
 20
36.34585157274731
 11
170.0152684750314
 21
36.34668446771455
 72
     1
 10
170.0152684750314
 20
36.34668446771455
 11
169.8968082340686
 21
36.35706328170605
 72
     1
 10
169.8968082340686
 20
36.35706328170605
 11
169.7858119386887
 21
36.37592624282478
 72
     1
 10
169.7858119386887
 20
36.37592624282478
 11
169.6822110438061
 21
36.40221157917369
 72
     1
 10
169.6822110438061
 20
36.40221157917369
 11
169.5859370043348
 21
36.43485751885568
 72
     1
 10
169.5859370043348
 20
36.43485751885568
 11
169.496921275189
 21
36.47280228997371
 72
     1
 10
169.496921275189
 20
36.47280228997371
 11
169.3768570709555
 21
36.53733212956858
 72
     1
 10
169.3768570709555
 20
36.53733212956858
 11
169.2727384988467
 21
36.60781187297363
 72
     1
 10
169.2727384988467
 20
36.60781187297363
 11
169.1894514104418
 21
36.67647551794381
 72
     1
 10
169.1894514104418
 20
36.67647551794381
 11
169.1173294851355
 21
36.74883793734485
 72
     1
 10
169.1173294851355
 20
36.74883793734485
 11
169.0538819172082
 21
36.82654144600173
 72
     1
 10
169.0538819172082
 20
36.82654144600173
 11
168.9966179009403
 21
36.91122835873944
 72
     1
 10
168.9966179009403
 20
36.91122835873944
 11
168.9430466306121
 21
37.00454099038299
 72
     1
 10
168.9430466306121
 20
37.00454099038299
 11
168.8906773005039
 21
37.10812165575732
 72
     1
 10
168.8906773005039
 20
37.10812165575732
 11
168.836505619997
 21
37.22742444161827
 72
     1
 10
168.836505619997
 20
37.22742444161827
 11
168.7844135449151
 21
37.36353572944269
 72
     1
 10
168.7844135449151
 20
37.36353572944269
 11
168.7525402409839
 21
37.46570111320462
 72
     1
 10
168.7525402409839
 20
37.46570111320462
 11
168.7241403207949
 21
37.57846664513256
 72
     1
 10
168.7241403207949
 20
37.57846664513256
 11
168.7002334302138
 21
37.70308420636606
 72
     1
 10
168.7002334302138
 20
37.70308420636606
 11
168.6818392151061
 21
37.84080567804467
 72
     1
 10
168.6818392151061
 20
37.84080567804467
 11
168.6699773213378
 21
37.99288294130795
 72
     1
 10
168.6699773213378
 20
37.99288294130795
 11
168.6656673947745
 21
38.16056787729547
 72
     1
 10
168.6656673947745
 20
38.16056787729547
 11
168.6712120570559
 21
38.32825281328298
 72
     1
 10
168.6712120570559
 20
38.32825281328298
 11
168.686472223093
 21
38.48033007654627
 72
     1
 10
168.686472223093
 20
38.48033007654627
 11
168.7101361322584
 21
38.61805154822488
 72
     1
 10
168.7101361322584
 20
38.61805154822488
 11
168.740892023925
 21
38.74266910945838
 72
     1
 10
168.740892023925
 20
38.74266910945838
 11
168.7774281374655
 21
38.8554346413863
 72
     1
 10
168.7774281374655
 20
38.8554346413863
 11
168.8184327122526
 21
38.95760002514824
 72
     1
 10
168.8184327122526
 20
38.95760002514824
 11
168.8854484628985
 21
39.09371131297266
 72
     1
 10
168.8854484628985
 20
39.09371131297266
 11
168.955139597821
 21
39.2130140988336
 72
     1
 10
168.955139597821
 20
39.2130140988336
 11
169.0225120333115
 21
39.31659476420789
 72
     1
 10
169.0225120333115
 20
39.31659476420789
 11
169.0914307486526
 21
39.4099073958514
 72
     1
 10
169.0914307486526
 20
39.4099073958514
 11
169.1651001317433
 21
39.4945943085891
 72
     1
 10
169.1651001317433
 20
39.4945943085891
 11
169.2467245704821
 21
39.57229781724598
 72
     1
 10
169.2467245704821
 20
39.57229781724598
 11
169.3395084527681
 21
39.64466023664699
 72
     1
 10
169.3395084527681
 20
39.64466023664699
 11
169.4466561664998
 21
39.71332388161716
 72
     1
 10
169.4466561664998
 20
39.71332388161716
 11
169.5336896386445
 21
39.76079451607122
 72
     1
 10
169.5336896386445
 20
39.76079451607122
 11
169.6297962819564
 21
39.80615163724154
 72
     1
 10
169.6297962819564
 20
39.80615163724154
 11
169.7350642787605
 21
39.84833347569219
 72
     1
 10
169.7350642787605
 20
39.84833347569219
 11
169.849581811382
 21
39.88627826198729
 72
     1
 10
169.849581811382
 20
39.88627826198729
 11
169.9734370621461
 21
39.91892422669089
 72
     1
 10
169.9734370621461
 20
39.91892422669089
 11
170.1067182133778
 21
39.94520960036712
 72
     1
 10
170.1067182133778
 20
39.94520960036712
 11
170.2495134474023
 21
39.96407261358002
 72
     1
 10
170.2495134474023
 20
39.96407261358002
 11
170.4019109465447
 21
39.97445149689372
 72
     1
 10
170.4019109465447
 20
39.97445149689372
 11
170.5639988931302
 21
39.97528448087226
 72
     1
 10
170.5639988931302
 20
39.97528448087226
 11
170.7940677015586
 21
39.96791705452002
 72
     1
 10
170.7940677015586
 20
39.96791705452002
 11
171.0248685653708
 21
39.94564911414764
 72
     1
 10
171.0248685653708
 20
39.94564911414764
 11
171.2549550680946
 21
39.90833871893882
 72
     1
 10
171.2549550680946
 20
39.90833871893882
 11
171.4828592819786
 21
39.8560316822272
 72
     1
 10
171.4828592819786
 20
39.8560316822272
 11
171.7071223381179
 21
39.78896457142685
 72
     1
 10
171.7071223381179
 20
39.78896457142685
 11
171.9263252902625
 21
39.70756173025599
 72
     1
 10
171.9263252902625
 20
39.70756173025599
 11
172.1391189154063
 21
39.6124263667062
 72
     1
 10
172.1391189154063
 20
39.6124263667062
 11
172.3442511450613
 21
39.50432609735185
 72
     1
 10
172.3442511450613
 20
39.50432609735185
 11
172.5405909692427
 21
39.38417365663604
 72
     1
 10
172.5405909692427
 20
39.38417365663604
 11
172.5405909692427
 21
40.41797801232769
 72
     1
 10
172.5405909692427
 20
40.41797801232769
 11
172.3015900069624
 21
40.52611532128243
 72
     1
 10
172.3015900069624
 20
40.52611532128243
 11
172.0564343849309
 21
40.6226451417334
 72
     1
 10
172.0564343849309
 20
40.6226451417334
 11
171.8059791867947
 21
40.70707201125296
 72
     1
 10
171.8059791867947
 20
40.70707201125296
 11
171.5511302914853
 21
40.77898564983961
 72
     1
 10
171.5511302914853
 20
40.77898564983961
 11
171.2928336083978
 21
40.83806719739523
 72
     1
 10
171.2928336083978
 20
40.83806719739523
 11
171.032063435777
 21
40.88409379760048
 72
     1
 10
171.032063435777
 20
40.88409379760048
 11
170.769810241229
 21
40.91694139294221
 72
     1
 10
170.769810241229
 20
40.91694139294221
 11
170.5070681849877
 21
40.93658565755333
 72
     1
 10
170.5070681849877
 20
40.93658565755333
 11
170.2448227139236
 21
40.94310105971638
 72
     1
 10
170.2448227139236
 20
40.94310105971638
 11
169.9860473983418
 21
40.94182396144203
 72
     1
 10
169.9860473983418
 20
40.94182396144203
 11
169.742742996224
 21
40.92591146575024
 72
     1
 10
169.742742996224
 20
40.92591146575024
 11
169.5147687234499
 21
40.89699143578041
 72
     1
 10
169.5147687234499
 20
40.89699143578041
 11
169.3019837958987
 21
40.85669173467197
 72
     1
 10
169.3019837958987
 20
40.85669173467197
 11
169.10424742945
 21
40.80664022556437
 72
     1
 10
169.10424742945
 20
40.80664022556437
 11
168.9214188399832
 21
40.748464771597
 72
     1
 10
168.9214188399832
 20
40.748464771597
 11
168.7533572433777
 21
40.68379323590929
 72
     1
 10
168.7533572433777
 20
40.68379323590929
 11
168.599921855513
 21
40.6142534816407
 72
     1
 10
168.599921855513
 20
40.6142534816407
 11
168.4609718922684
 21
40.54147337193057
 72
     1
 10
168.4609718922684
 20
40.54147337193057
 11
168.3441295306047
 21
40.4717975202572
 72
     1
 10
168.3441295306047
 20
40.4717975202572
 11
168.2382370831932
 21
40.39997433318328
 72
     1
 10
168.2382370831932
 20
40.39997433318328
 11
168.1417787446954
 21
40.32525775663572
 72
     1
 10
168.1417787446954
 20
40.32525775663572
 11
168.0532387097728
 21
40.24690173654134
 72
     1
 10
168.0532387097728
 20
40.24690173654134
 11
167.9711011730867
 21
40.16416021882696
 72
     1
 10
167.9711011730867
 20
40.16416021882696
 11
167.8938503292988
 21
40.07628714941943
 72
     1
 10
167.8938503292988
 20
40.07628714941943
 11
167.7838207886229
 21
39.93322389259848
 72
     1
 10
167.7838207886229
 20
39.93322389259848
 11
167.6762599019385
 21
39.77441809030643
 72
     1
 10
167.6762599019385
 20
39.77441809030643
 11
167.601959210119
 21
39.6550213233442
 72
     1
 10
167.601959210119
 20
39.6550213233442
 11
167.5285097454347
 21
39.52513083089987
 72
     1
 10
167.5285097454347
 20
39.52513083089987
 11
167.4580057491749
 21
39.38282727804717
 72
     1
 10
167.4580057491749
 20
39.38282727804717
 11
167.3925414626295
 21
39.22619132985976
 72
     1
 10
167.3925414626295
 20
39.22619132985976
 11
167.334211127088
 21
39.05330365141138
 72
     1
 10
167.334211127088
 20
39.05330365141138
 11
167.2851089838399
 21
38.8622449077757
 72
     1
 10
167.2851089838399
 20
38.8622449077757
 11
167.247329274175
 21
38.65109576402647
 72
     1
 10
167.247329274175
 20
38.65109576402647
 11
167.2229662393827
 21
38.41793688523737
 72
     1
 10
167.2229662393827
 20
38.41793688523737
 11
167.2141141207528
 21
38.16084893648212
 72
     1
 10
167.2141141207528
 20
38.16084893648212
 11
167.2141138140291
 21
38.16056786286189
 72
     1
 10
167.2141138140291
 20
38.16056786286189
 11
167.2141141207528
 21
38.1602868181087
 72
     1
 10
167.2141141207528
 20
38.1602868181087
 11
167.2229662393827
 21
37.90319886935345
 72
     1
 10
167.2229662393827
 20
37.90319886935345
 11
167.247329274175
 21
37.67003999056436
 72
     1
 10
167.247329274175
 20
37.67003999056436
 11
167.2851089838399
 21
37.45889084681512
 72
     1
 10
167.2851089838399
 20
37.45889084681512
 11
167.334211127088
 21
37.26783210317947
 72
     1
 10
167.334211127088
 20
37.26783210317947
 11
167.3925414626295
 21
37.09494442473109
 72
     1
 10
167.3925414626295
 20
37.09494442473109
 11
167.4580057491749
 21
36.9383084765437
 72
     1
 10
167.4580057491749
 20
36.9383084765437
 11
167.5285097454346
 21
36.796004923691
 72
     1
 10
167.5285097454346
 20
36.796004923691
 11
167.601959210119
 21
36.66611443124668
 72
     1
 10
167.601959210119
 20
36.66611443124668
 11
167.6762599019385
 21
36.54671766428447
 72
     1
 10
167.6762599019385
 20
36.54671766428447
 11
167.7838207886228
 21
36.38791186199242
 72
     1
 10
167.7838207886228
 20
36.38791186199242
 11
167.8938503292988
 21
36.24484860517147
 72
     1
 10
167.8938503292988
 20
36.24484860517147
 11
167.9711011730867
 21
36.15697553576395
 72
     1
 10
167.9711011730867
 20
36.15697553576395
 11
168.0532387097727
 21
36.07423401804957
 72
     1
 10
168.0532387097727
 20
36.07423401804957
 11
168.1417787446954
 21
35.99587799795518
 72
     1
 10
168.1417787446954
 20
35.99587799795518
 11
168.2382370831932
 21
35.9211614214076
 72
     1
 10
168.2382370831932
 20
35.9211614214076
 11
168.3441295306047
 21
35.84933823433372
 72
     1
 10
168.3441295306047
 20
35.84933823433372
 11
168.4609718922684
 21
35.77966238266035
 72
     1
 10
168.4609718922684
 20
35.77966238266035
 11
168.5999218555129
 21
35.70688227295025
 72
     1
 10
168.5999218555129
 20
35.70688227295025
 11
168.7533572433777
 21
35.63734251868161
 72
     1
 10
168.7533572433777
 20
35.63734251868161
 11
168.9214188399832
 21
35.57267098299393
 72
     1
 10
168.9214188399832
 20
35.57267098299393
 11
169.10424742945
 21
35.51449552902657
 72
     1
 10
169.10424742945
 20
35.51449552902657
 11
169.3019837958987
 21
35.46444401991895
 72
     1
 10
169.3019837958987
 20
35.46444401991895
 11
169.5147687234499
 21
35.42414431881054
 72
     1
 10
169.5147687234499
 20
35.42414431881054
 11
169.742742996224
 21
35.39522428884071
 72
     1
 10
169.742742996224
 20
35.39522428884071
 11
169.9860473983418
 21
35.37931179314892
 72
     1
 10
169.9860473983418
 20
35.37931179314892
 11
170.2448227139236
 21
35.37803469487457
 72
     1
 10
170.2448227139236
 20
35.37803469487457
 11
170.5290512572761
 21
35.38584952449677
 72
     1
 10
170.5290512572761
 20
35.38584952449677
 11
170.8139423257373
 21
35.40943858022688
 72
     1
 10
170.8139423257373
 20
35.40943858022688
 11
171.0981835120091
 21
35.4489119638496
 72
     1
 10
171.0981835120091
 20
35.4489119638496
 11
171.3804481219209
 21
35.50423387728592
 72
     1
 10
171.3804481219209
 20
35.50423387728592
 11
171.6594155003299
 21
35.57522091739236
 72
     1
 10
171.6594155003299
 20
35.57522091739236
 11
171.9337914998247
 21
35.66154377077486
 72
     1
 10
171.9337914998247
 20
35.66154377077486
 11
172.2023284311315
 21
35.76273229044097
 72
     1
 10
172.2023284311315
 20
35.76273229044097
 11
172.4638438523356
 21
35.87818379069809
 72
     1
 10
172.4638438523356
 20
35.87818379069809
 11
172.7172376075405
 21
36.00717426027418
 97
        0
 75
     0
 76
     1
 98
        0
  0
POLYLINE
  5
FA
330
1F
100
AcDbEntity
  8
0
  6
Continuous
 62
   252
 48
25.4
370
     0
100
AcDb2dPolyline
 66
     1
 10
0.0
 20
0.0
 30
0.0
 70
     1
  0
VERTEX
  5
FB
330
FA
100
AcDbEntity
  8
0
  6
Continuous
 62
   252
100
AcDbVertex
100
AcDb2dVertex
 10
172.7172376075
 20
36.0071742603
 30
0.0
 70
     8
  0
VERTEX
  5
FC
330
FA
100
AcDbEntity
  8
0
  6
Continuous
 62
   252
100
AcDbVertex
100
AcDb2dVertex
 10
172.7172376075
 20
38.1605678773
 30
0.0
 70
     8
  0
VERTEX
  5
FD
330
FA
100
AcDbEntity
  8
0
  6
Continuous
 62
   252
100
AcDbVertex
100
AcDb2dVertex
 10
171.3135439905
 20
38.1605678773
 30
0.0
 70
     8
  0
VERTEX
  5
FE
330
FA
100
AcDbEntity
  8
0
  6
Continuous
 62
   252
100
AcDbVertex
100
AcDb2dVertex
 10
171.3135439905
 20
36.6170193588
 30
0.0
 70
     8
  0
VERTEX
  5
FF
330
FA
100
AcDbEntity
  8
0
  6
Continuous
 62
   252
100
AcDbVertex
100
AcDb2dVertex
 10
171.1917076643
 20
36.5611499034
 30
0.0
 70
     8
  0
VERTEX
  5
100
330
FA
100
AcDbEntity
  8
0
  6
Continuous
 62
   252
100
AcDbVertex
100
AcDb2dVertex
 10
171.0666502755
 20
36.5112699569
 30
0.0
 70
     8
  0
VERTEX
  5
101
330
FA
100
AcDbEntity
  8
0
  6
Continuous
 62
   252
100
AcDbVertex
100
AcDb2dVertex
 10
170.9388185719
 20
36.4676421943
 30
0.0
 70
     8
  0
VERTEX
  5
102
330
FA
100
AcDbEntity
  8
0
  6
Continuous
 62
   252
100
AcDbVertex
100
AcDb2dVertex
 10
170.8086865833
 20
36.4304842116
 30
0.0
 70
     8
  0
VERTEX
  5
103
330
FA
100
AcDbEntity
  8
0
  6
Continuous
 62
   252
100
AcDbVertex
100
AcDb2dVertex
 10
170.6767498485
 20
36.3999651314
 30
0.0
 70
     8
  0
VERTEX
  5
104
330
FA
100
AcDbEntity
  8
0
  6
Continuous
 62
   252
100
AcDbVertex
100
AcDb2dVertex
 10
170.5435191598
 20
36.3762031082
 30
0.0
 70
     8
  0
VERTEX
  5
105
330
FA
100
AcDbEntity
  8
0
  6
Continuous
 62
   252
100
AcDbVertex
100
AcDb2dVertex
 10
170.4095139876
 20
36.3592638072
 30
0.0
 70
     8
  0
VERTEX
  5
106
330
FA
100
AcDbEntity
  8
0
  6
Continuous
 62
   252
100
AcDbVertex
100
AcDb2dVertex
 10
170.2752557641
 20
36.3491598987
 30
0.0
 70
     8
  0
VERTEX
  5
107
330
FA
100
AcDbEntity
  8
0
  6
Continuous
 62
   252
100
AcDbVertex
100
AcDb2dVertex
 10
170.1412612067
 20
36.3458515727
 30
0.0
 70
     8
  0
VERTEX
  5
108
330
FA
100
AcDbEntity
  8
0
  6
Continuous
 62
   252
100
AcDbVertex
100
AcDb2dVertex
 10
170.015268475
 20
36.3466844677
 30
0.0
 70
     8
  0
VERTEX
  5
109
330
FA
100
AcDbEntity
  8
0
  6
Continuous
 62
   252
100
AcDbVertex
100
AcDb2dVertex
 10
169.8968082341
 20
36.3570632817
 30
0.0
 70
     8
  0
VERTEX
  5
10A
330
FA
100
AcDbEntity
  8
0
  6
Continuous
 62
   252
100
AcDbVertex
100
AcDb2dVertex
 10
169.7858119387
 20
36.3759262428
 30
0.0
 70
     8
  0
VERTEX
  5
10B
330
FA
100
AcDbEntity
  8
0
  6
Continuous
 62
   252
100
AcDbVertex
100
AcDb2dVertex
 10
169.6822110438
 20
36.4022115792
 30
0.0
 70
     8
  0
VERTEX
  5
10C
330
FA
100
AcDbEntity
  8
0
  6
Continuous
 62
   252
100
AcDbVertex
100
AcDb2dVertex
 10
169.5859370043
 20
36.4348575189
 30
0.0
 70
     8
  0
VERTEX
  5
10D
330
FA
100
AcDbEntity
  8
0
  6
Continuous
 62
   252
100
AcDbVertex
100
AcDb2dVertex
 10
169.4969212752
 20
36.47280229
 30
0.0
 70
     8
  0
VERTEX
  5
10E
330
FA
100
AcDbEntity
  8
0
  6
Continuous
 62
   252
100
AcDbVertex
100
AcDb2dVertex
 10
169.376857071
 20
36.5373321296
 30
0.0
 70
     8
  0
VERTEX
  5
10F
330
FA
100
AcDbEntity
  8
0
  6
Continuous
 62
   252
100
AcDbVertex
100
AcDb2dVertex
 10
169.2727384988
 20
36.607811873
 30
0.0
 70
     8
  0
VERTEX
  5
110
330
FA
100
AcDbEntity
  8
0
  6
Continuous
 62
   252
100
AcDbVertex
100
AcDb2dVertex
 10
169.1894514104
 20
36.6764755179
 30
0.0
 70
     8
  0
VERTEX
  5
111
330
FA
100
AcDbEntity
  8
0
  6
Continuous
 62
   252
100
AcDbVertex
100
AcDb2dVertex
 10
169.1173294851
 20
36.7488379373
 30
0.0
 70
     8
  0
VERTEX
  5
112
330
FA
100
AcDbEntity
  8
0
  6
Continuous
 62
   252
100
AcDbVertex
100
AcDb2dVertex
 10
169.0538819172
 20
36.826541446
 30
0.0
 70
     8
  0
VERTEX
  5
113
330
FA
100
AcDbEntity
  8
0
  6
Continuous
 62
   252
100
AcDbVertex
100
AcDb2dVertex
 10
168.9966179009
 20
36.9112283587
 30
0.0
 70
     8
  0
VERTEX
  5
114
330
FA
100
AcDbEntity
  8
0
  6
Continuous
 62
   252
100
AcDbVertex
100
AcDb2dVertex
 10
168.9430466306
 20
37.0045409904
 30
0.0
 70
     8
  0
VERTEX
  5
115
330
FA
100
AcDbEntity
  8
0
  6
Continuous
 62
   252
100
AcDbVertex
100
AcDb2dVertex
 10
168.8906773005
 20
37.1081216558
 30
0.0
 70
     8
  0
VERTEX
  5
116
330
FA
100
AcDbEntity
  8
0
  6
Continuous
 62
   252
100
AcDbVertex
100
AcDb2dVertex
 10
168.83650562
 20
37.2274244416
 30
0.0
 70
     8
  0
VERTEX
  5
117
330
FA
100
AcDbEntity
  8
0
  6
Continuous
 62
   252
100
AcDbVertex
100
AcDb2dVertex
 10
168.7844135449
 20
37.3635357294
 30
0.0
 70
     8
  0
VERTEX
  5
118
330
FA
100
AcDbEntity
  8
0
  6
Continuous
 62
   252
100
AcDbVertex
100
AcDb2dVertex
 10
168.752540241
 20
37.4657011132
 30
0.0
 70
     8
  0
VERTEX
  5
119
330
FA
100
AcDbEntity
  8
0
  6
Continuous
 62
   252
100
AcDbVertex
100
AcDb2dVertex
 10
168.7241403208
 20
37.5784666451
 30
0.0
 70
     8
  0
VERTEX
  5
11A
330
FA
100
AcDbEntity
  8
0
  6
Continuous
 62
   252
100
AcDbVertex
100
AcDb2dVertex
 10
168.7002334302
 20
37.7030842064
 30
0.0
 70
     8
  0
VERTEX
  5
11B
330
FA
100
AcDbEntity
  8
0
  6
Continuous
 62
   252
100
AcDbVertex
100
AcDb2dVertex
 10
168.6818392151
 20
37.840805678
 30
0.0
 70
     8
  0
VERTEX
  5
11C
330
FA
100
AcDbEntity
  8
0
  6
Continuous
 62
   252
100
AcDbVertex
100
AcDb2dVertex
 10
168.6699773213
 20
37.9928829413
 30
0.0
 70
     8
  0
VERTEX
  5
11D
330
FA
100
AcDbEntity
  8
0
  6
Continuous
 62
   252
100
AcDbVertex
100
AcDb2dVertex
 10
168.6656673948
 20
38.1605678773
 30
0.0
 70
     8
  0
VERTEX
  5
11E
330
FA
100
AcDbEntity
  8
0
  6
Continuous
 62
   252
100
AcDbVertex
100
AcDb2dVertex
 10
168.6712120571
 20
38.3282528133
 30
0.0
 70
     8
  0
VERTEX
  5
11F
330
FA
100
AcDbEntity
  8
0
  6
Continuous
 62
   252
100
AcDbVertex
100
AcDb2dVertex
 10
168.6864722231
 20
38.4803300765
 30
0.0
 70
     8
  0
VERTEX
  5
120
330
FA
100
AcDbEntity
  8
0
  6
Continuous
 62
   252
100
AcDbVertex
100
AcDb2dVertex
 10
168.7101361323
 20
38.6180515482
 30
0.0
 70
     8
  0
VERTEX
  5
121
330
FA
100
AcDbEntity
  8
0
  6
Continuous
 62
   252
100
AcDbVertex
100
AcDb2dVertex
 10
168.7408920239
 20
38.7426691095
 30
0.0
 70
     8
  0
VERTEX
  5
122
330
FA
100
AcDbEntity
  8
0
  6
Continuous
 62
   252
100
AcDbVertex
100
AcDb2dVertex
 10
168.7774281375
 20
38.8554346414
 30
0.0
 70
     8
  0
VERTEX
  5
123
330
FA
100
AcDbEntity
  8
0
  6
Continuous
 62
   252
100
AcDbVertex
100
AcDb2dVertex
 10
168.8184327123
 20
38.9576000251
 30
0.0
 70
     8
  0
VERTEX
  5
124
330
FA
100
AcDbEntity
  8
0
  6
Continuous
 62
   252
100
AcDbVertex
100
AcDb2dVertex
 10
168.8854484629
 20
39.093711313
 30
0.0
 70
     8
  0
VERTEX
  5
125
330
FA
100
AcDbEntity
  8
0
  6
Continuous
 62
   252
100
AcDbVertex
100
AcDb2dVertex
 10
168.9551395978
 20
39.2130140988
 30
0.0
 70
     8
  0
VERTEX
  5
126
330
FA
100
AcDbEntity
  8
0
  6
Continuous
 62
   252
100
AcDbVertex
100
AcDb2dVertex
 10
169.0225120333
 20
39.3165947642
 30
0.0
 70
     8
  0
VERTEX
  5
127
330
FA
100
AcDbEntity
  8
0
  6
Continuous
 62
   252
100
AcDbVertex
100
AcDb2dVertex
 10
169.0914307487
 20
39.4099073959
 30
0.0
 70
     8
  0
VERTEX
  5
128
330
FA
100
AcDbEntity
  8
0
  6
Continuous
 62
   252
100
AcDbVertex
100
AcDb2dVertex
 10
169.1651001317
 20
39.4945943086
 30
0.0
 70
     8
  0
VERTEX
  5
129
330
FA
100
AcDbEntity
  8
0
  6
Continuous
 62
   252
100
AcDbVertex
100
AcDb2dVertex
 10
169.2467245705
 20
39.5722978172
 30
0.0
 70
     8
  0
VERTEX
  5
12A
330
FA
100
AcDbEntity
  8
0
  6
Continuous
 62
   252
100
AcDbVertex
100
AcDb2dVertex
 10
169.3395084528
 20
39.6446602366
 30
0.0
 70
     8
  0
VERTEX
  5
12B
330
FA
100
AcDbEntity
  8
0
  6
Continuous
 62
   252
100
AcDbVertex
100
AcDb2dVertex
 10
169.4466561665
 20
39.7133238816
 30
0.0
 70
     8
  0
VERTEX
  5
12C
330
FA
100
AcDbEntity
  8
0
  6
Continuous
 62
   252
100
AcDbVertex
100
AcDb2dVertex
 10
169.5336896386
 20
39.7607945161
 30
0.0
 70
     8
  0
VERTEX
  5
12D
330
FA
100
AcDbEntity
  8
0
  6
Continuous
 62
   252
100
AcDbVertex
100
AcDb2dVertex
 10
169.629796282
 20
39.8061516372
 30
0.0
 70
     8
  0
VERTEX
  5
12E
330
FA
100
AcDbEntity
  8
0
  6
Continuous
 62
   252
100
AcDbVertex
100
AcDb2dVertex
 10
169.7350642788
 20
39.8483334757
 30
0.0
 70
     8
  0
VERTEX
  5
12F
330
FA
100
AcDbEntity
  8
0
  6
Continuous
 62
   252
100
AcDbVertex
100
AcDb2dVertex
 10
169.8495818114
 20
39.886278262
 30
0.0
 70
     8
  0
VERTEX
  5
130
330
FA
100
AcDbEntity
  8
0
  6
Continuous
 62
   252
100
AcDbVertex
100
AcDb2dVertex
 10
169.9734370621
 20
39.9189242267
 30
0.0
 70
     8
  0
VERTEX
  5
131
330
FA
100
AcDbEntity
  8
0
  6
Continuous
 62
   252
100
AcDbVertex
100
AcDb2dVertex
 10
170.1067182134
 20
39.9452096004
 30
0.0
 70
     8
  0
VERTEX
  5
132
330
FA
100
AcDbEntity
  8
0
  6
Continuous
 62
   252
100
AcDbVertex
100
AcDb2dVertex
 10
170.2495134474
 20
39.9640726136
 30
0.0
 70
     8
  0
VERTEX
  5
133
330
FA
100
AcDbEntity
  8
0
  6
Continuous
 62
   252
100
AcDbVertex
100
AcDb2dVertex
 10
170.4019109465
 20
39.9744514969
 30
0.0
 70
     8
  0
VERTEX
  5
134
330
FA
100
AcDbEntity
  8
0
  6
Continuous
 62
   252
100
AcDbVertex
100
AcDb2dVertex
 10
170.5639988931
 20
39.9752844809
 30
0.0
 70
     8
  0
VERTEX
  5
135
330
FA
100
AcDbEntity
  8
0
  6
Continuous
 62
   252
100
AcDbVertex
100
AcDb2dVertex
 10
170.7940677016
 20
39.9679170545
 30
0.0
 70
     8
  0
VERTEX
  5
136
330
FA
100
AcDbEntity
  8
0
  6
Continuous
 62
   252
100
AcDbVertex
100
AcDb2dVertex
 10
171.0248685654
 20
39.9456491141
 30
0.0
 70
     8
  0
VERTEX
  5
137
330
FA
100
AcDbEntity
  8
0
  6
Continuous
 62
   252
100
AcDbVertex
100
AcDb2dVertex
 10
171.2549550681
 20
39.9083387189
 30
0.0
 70
     8
  0
VERTEX
  5
138
330
FA
100
AcDbEntity
  8
0
  6
Continuous
 62
   252
100
AcDbVertex
100
AcDb2dVertex
 10
171.482859282
 20
39.8560316822
 30
0.0
 70
     8
  0
VERTEX
  5
139
330
FA
100
AcDbEntity
  8
0
  6
Continuous
 62
   252
100
AcDbVertex
100
AcDb2dVertex
 10
171.7071223381
 20
39.7889645714
 30
0.0
 70
     8
  0
VERTEX
  5
13A
330
FA
100
AcDbEntity
  8
0
  6
Continuous
 62
   252
100
AcDbVertex
100
AcDb2dVertex
 10
171.9263252903
 20
39.7075617303
 30
0.0
 70
     8
  0
VERTEX
  5
13B
330
FA
100
AcDbEntity
  8
0
  6
Continuous
 62
   252
100
AcDbVertex
100
AcDb2dVertex
 10
172.1391189154
 20
39.6124263667
 30
0.0
 70
     8
  0
VERTEX
  5
13C
330
FA
100
AcDbEntity
  8
0
  6
Continuous
 62
   252
100
AcDbVertex
100
AcDb2dVertex
 10
172.3442511451
 20
39.5043260974
 30
0.0
 70
     8
  0
VERTEX
  5
13D
330
FA
100
AcDbEntity
  8
0
  6
Continuous
 62
   252
100
AcDbVertex
100
AcDb2dVertex
 10
172.5405909692
 20
39.3841736566
 30
0.0
 70
     8
  0
VERTEX
  5
13E
330
FA
100
AcDbEntity
  8
0
  6
Continuous
 62
   252
100
AcDbVertex
100
AcDb2dVertex
 10
172.5405909692
 20
40.4179780123
 30
0.0
 70
     8
  0
VERTEX
  5
13F
330
FA
100
AcDbEntity
  8
0
  6
Continuous
 62
   252
100
AcDbVertex
100
AcDb2dVertex
 10
172.301590007
 20
40.5261153213
 30
0.0
 70
     8
  0
VERTEX
  5
140
330
FA
100
AcDbEntity
  8
0
  6
Continuous
 62
   252
100
AcDbVertex
100
AcDb2dVertex
 10
172.0564343849
 20
40.6226451417
 30
0.0
 70
     8
  0
VERTEX
  5
141
330
FA
100
AcDbEntity
  8
0
  6
Continuous
 62
   252
100
AcDbVertex
100
AcDb2dVertex
 10
171.8059791868
 20
40.7070720113
 30
0.0
 70
     8
  0
VERTEX
  5
142
330
FA
100
AcDbEntity
  8
0
  6
Continuous
 62
   252
100
AcDbVertex
100
AcDb2dVertex
 10
171.5511302915
 20
40.7789856498
 30
0.0
 70
     8
  0
VERTEX
  5
143
330
FA
100
AcDbEntity
  8
0
  6
Continuous
 62
   252
100
AcDbVertex
100
AcDb2dVertex
 10
171.2928336084
 20
40.8380671974
 30
0.0
 70
     8
  0
VERTEX
  5
144
330
FA
100
AcDbEntity
  8
0
  6
Continuous
 62
   252
100
AcDbVertex
100
AcDb2dVertex
 10
171.0320634358
 20
40.8840937976
 30
0.0
 70
     8
  0
VERTEX
  5
145
330
FA
100
AcDbEntity
  8
0
  6
Continuous
 62
   252
100
AcDbVertex
100
AcDb2dVertex
 10
170.7698102412
 20
40.9169413929
 30
0.0
 70
     8
  0
VERTEX
  5
146
330
FA
100
AcDbEntity
  8
0
  6
Continuous
 62
   252
100
AcDbVertex
100
AcDb2dVertex
 10
170.507068185
 20
40.9365856576
 30
0.0
 70
     8
  0
VERTEX
  5
147
330
FA
100
AcDbEntity
  8
0
  6
Continuous
 62
   252
100
AcDbVertex
100
AcDb2dVertex
 10
170.2448227139
 20
40.9431010597
 30
0.0
 70
     8
  0
VERTEX
  5
148
330
FA
100
AcDbEntity
  8
0
  6
Continuous
 62
   252
100
AcDbVertex
100
AcDb2dVertex
 10
169.9860473983
 20
40.9418239614
 30
0.0
 70
     8
  0
VERTEX
  5
149
330
FA
100
AcDbEntity
  8
0
  6
Continuous
 62
   252
100
AcDbVertex
100
AcDb2dVertex
 10
169.7427429962
 20
40.9259114658
 30
0.0
 70
     8
  0
VERTEX
  5
14A
330
FA
100
AcDbEntity
  8
0
  6
Continuous
 62
   252
100
AcDbVertex
100
AcDb2dVertex
 10
169.5147687234
 20
40.8969914358
 30
0.0
 70
     8
  0
VERTEX
  5
14B
330
FA
100
AcDbEntity
  8
0
  6
Continuous
 62
   252
100
AcDbVertex
100
AcDb2dVertex
 10
169.3019837959
 20
40.8566917347
 30
0.0
 70
     8
  0
VERTEX
  5
14C
330
FA
100
AcDbEntity
  8
0
  6
Continuous
 62
   252
100
AcDbVertex
100
AcDb2dVertex
 10
169.1042474295
 20
40.8066402256
 30
0.0
 70
     8
  0
VERTEX
  5
14D
330
FA
100
AcDbEntity
  8
0
  6
Continuous
 62
   252
100
AcDbVertex
100
AcDb2dVertex
 10
168.92141884
 20
40.7484647716
 30
0.0
 70
     8
  0
VERTEX
  5
14E
330
FA
100
AcDbEntity
  8
0
  6
Continuous
 62
   252
100
AcDbVertex
100
AcDb2dVertex
 10
168.7533572434
 20
40.6837932359
 30
0.0
 70
     8
  0
VERTEX
  5
14F
330
FA
100
AcDbEntity
  8
0
  6
Continuous
 62
   252
100
AcDbVertex
100
AcDb2dVertex
 10
168.5999218555
 20
40.6142534816
 30
0.0
 70
     8
  0
VERTEX
  5
150
330
FA
100
AcDbEntity
  8
0
  6
Continuous
 62
   252
100
AcDbVertex
100
AcDb2dVertex
 10
168.4609718923
 20
40.5414733719
 30
0.0
 70
     8
  0
VERTEX
  5
151
330
FA
100
AcDbEntity
  8
0
  6
Continuous
 62
   252
100
AcDbVertex
100
AcDb2dVertex
 10
168.3441295306
 20
40.4717975203
 30
0.0
 70
     8
  0
VERTEX
  5
152
330
FA
100
AcDbEntity
  8
0
  6
Continuous
 62
   252
100
AcDbVertex
100
AcDb2dVertex
 10
168.2382370832
 20
40.3999743332
 30
0.0
 70
     8
  0
VERTEX
  5
153
330
FA
100
AcDbEntity
  8
0
  6
Continuous
 62
   252
100
AcDbVertex
100
AcDb2dVertex
 10
168.1417787447
 20
40.3252577566
 30
0.0
 70
     8
  0
VERTEX
  5
154
330
FA
100
AcDbEntity
  8
0
  6
Continuous
 62
   252
100
AcDbVertex
100
AcDb2dVertex
 10
168.0532387098
 20
40.2469017365
 30
0.0
 70
     8
  0
VERTEX
  5
155
330
FA
100
AcDbEntity
  8
0
  6
Continuous
 62
   252
100
AcDbVertex
100
AcDb2dVertex
 10
167.9711011731
 20
40.1641602188
 30
0.0
 70
     8
  0
VERTEX
  5
156
330
FA
100
AcDbEntity
  8
0
  6
Continuous
 62
   252
100
AcDbVertex
100
AcDb2dVertex
 10
167.8938503293
 20
40.0762871494
 30
0.0
 70
     8
  0
VERTEX
  5
157
330
FA
100
AcDbEntity
  8
0
  6
Continuous
 62
   252
100
AcDbVertex
100
AcDb2dVertex
 10
167.7838207886
 20
39.9332238926
 30
0.0
 70
     8
  0
VERTEX
  5
158
330
FA
100
AcDbEntity
  8
0
  6
Continuous
 62
   252
100
AcDbVertex
100
AcDb2dVertex
 10
167.6762599019
 20
39.7744180903
 30
0.0
 70
     8
  0
VERTEX
  5
159
330
FA
100
AcDbEntity
  8
0
  6
Continuous
 62
   252
100
AcDbVertex
100
AcDb2dVertex
 10
167.6019592101
 20
39.6550213233
 30
0.0
 70
     8
  0
VERTEX
  5
15A
330
FA
100
AcDbEntity
  8
0
  6
Continuous
 62
   252
100
AcDbVertex
100
AcDb2dVertex
 10
167.5285097454
 20
39.5251308309
 30
0.0
 70
     8
  0
VERTEX
  5
15B
330
FA
100
AcDbEntity
  8
0
  6
Continuous
 62
   252
100
AcDbVertex
100
AcDb2dVertex
 10
167.4580057492
 20
39.382827278
 30
0.0
 70
     8
  0
VERTEX
  5
15C
330
FA
100
AcDbEntity
  8
0
  6
Continuous
 62
   252
100
AcDbVertex
100
AcDb2dVertex
 10
167.3925414626
 20
39.2261913299
 30
0.0
 70
     8
  0
VERTEX
  5
15D
330
FA
100
AcDbEntity
  8
0
  6
Continuous
 62
   252
100
AcDbVertex
100
AcDb2dVertex
 10
167.3342111271
 20
39.0533036514
 30
0.0
 70
     8
  0
VERTEX
  5
15E
330
FA
100
AcDbEntity
  8
0
  6
Continuous
 62
   252
100
AcDbVertex
100
AcDb2dVertex
 10
167.2851089838
 20
38.8622449078
 30
0.0
 70
     8
  0
VERTEX
  5
15F
330
FA
100
AcDbEntity
  8
0
  6
Continuous
 62
   252
100
AcDbVertex
100
AcDb2dVertex
 10
167.2473292742
 20
38.651095764
 30
0.0
 70
     8
  0
VERTEX
  5
160
330
FA
100
AcDbEntity
  8
0
  6
Continuous
 62
   252
100
AcDbVertex
100
AcDb2dVertex
 10
167.2229662394
 20
38.4179368852
 30
0.0
 70
     8
  0
VERTEX
  5
161
330
FA
100
AcDbEntity
  8
0
  6
Continuous
 62
   252
100
AcDbVertex
100
AcDb2dVertex
 10
167.2141141208
 20
38.1608489365
 30
0.0
 70
     8
  0
VERTEX
  5
162
330
FA
100
AcDbEntity
  8
0
  6
Continuous
 62
   252
100
AcDbVertex
100
AcDb2dVertex
 10
167.214113814
 20
38.1605678629
 30
0.0
 70
     8
  0
VERTEX
  5
163
330
FA
100
AcDbEntity
  8
0
  6
Continuous
 62
   252
100
AcDbVertex
100
AcDb2dVertex
 10
167.2141141208
 20
38.1602868181
 30
0.0
 70
     8
  0
VERTEX
  5
164
330
FA
100
AcDbEntity
  8
0
  6
Continuous
 62
   252
100
AcDbVertex
100
AcDb2dVertex
 10
167.2229662394
 20
37.9031988694
 30
0.0
 70
     8
  0
VERTEX
  5
165
330
FA
100
AcDbEntity
  8
0
  6
Continuous
 62
   252
100
AcDbVertex
100
AcDb2dVertex
 10
167.2473292742
 20
37.6700399906
 30
0.0
 70
     8
  0
VERTEX
  5
166
330
FA
100
AcDbEntity
  8
0
  6
Continuous
 62
   252
100
AcDbVertex
100
AcDb2dVertex
 10
167.2851089838
 20
37.4588908468
 30
0.0
 70
     8
  0
VERTEX
  5
167
330
FA
100
AcDbEntity
  8
0
  6
Continuous
 62
   252
100
AcDbVertex
100
AcDb2dVertex
 10
167.3342111271
 20
37.2678321032
 30
0.0
 70
     8
  0
VERTEX
  5
168
330
FA
100
AcDbEntity
  8
0
  6
Continuous
 62
   252
100
AcDbVertex
100
AcDb2dVertex
 10
167.3925414626
 20
37.0949444247
 30
0.0
 70
     8
  0
VERTEX
  5
169
330
FA
100
AcDbEntity
  8
0
  6
Continuous
 62
   252
100
AcDbVertex
100
AcDb2dVertex
 10
167.4580057492
 20
36.9383084765
 30
0.0
 70
     8
  0
VERTEX
  5
16A
330
FA
100
AcDbEntity
  8
0
  6
Continuous
 62
   252
100
AcDbVertex
100
AcDb2dVertex
 10
167.5285097454
 20
36.7960049237
 30
0.0
 70
     8
  0
VERTEX
  5
16B
330
FA
100
AcDbEntity
  8
0
  6
Continuous
 62
   252
100
AcDbVertex
100
AcDb2dVertex
 10
167.6019592101
 20
36.6661144312
 30
0.0
 70
     8
  0
VERTEX
  5
16C
330
FA
100
AcDbEntity
  8
0
  6
Continuous
 62
   252
100
AcDbVertex
100
AcDb2dVertex
 10
167.6762599019
 20
36.5467176643
 30
0.0
 70
     8
  0
VERTEX
  5
16D
330
FA
100
AcDbEntity
  8
0
  6
Continuous
 62
   252
100
AcDbVertex
100
AcDb2dVertex
 10
167.7838207886
 20
36.387911862
 30
0.0
 70
     8
  0
VERTEX
  5
16E
330
FA
100
AcDbEntity
  8
0
  6
Continuous
 62
   252
100
AcDbVertex
100
AcDb2dVertex
 10
167.8938503293
 20
36.2448486052
 30
0.0
 70
     8
  0
VERTEX
  5
16F
330
FA
100
AcDbEntity
  8
0
  6
Continuous
 62
   252
100
AcDbVertex
100
AcDb2dVertex
 10
167.9711011731
 20
36.1569755358
 30
0.0
 70
     8
  0
VERTEX
  5
170
330
FA
100
AcDbEntity
  8
0
  6
Continuous
 62
   252
100
AcDbVertex
100
AcDb2dVertex
 10
168.0532387098
 20
36.074234018
 30
0.0
 70
     8
  0
VERTEX
  5
171
330
FA
100
AcDbEntity
  8
0
  6
Continuous
 62
   252
100
AcDbVertex
100
AcDb2dVertex
 10
168.1417787447
 20
35.995877998
 30
0.0
 70
     8
  0
VERTEX
  5
172
330
FA
100
AcDbEntity
  8
0
  6
Continuous
 62
   252
100
AcDbVertex
100
AcDb2dVertex
 10
168.2382370832
 20
35.9211614214
 30
0.0
 70
     8
  0
VERTEX
  5
173
330
FA
100
AcDbEntity
  8
0
  6
Continuous
 62
   252
100
AcDbVertex
100
AcDb2dVertex
 10
168.3441295306
 20
35.8493382343
 30
0.0
 70
     8
  0
VERTEX
  5
174
330
FA
100
AcDbEntity
  8
0
  6
Continuous
 62
   252
100
AcDbVertex
100
AcDb2dVertex
 10
168.4609718923
 20
35.7796623827
 30
0.0
 70
     8
  0
VERTEX
  5
175
330
FA
100
AcDbEntity
  8
0
  6
Continuous
 62
   252
100
AcDbVertex
100
AcDb2dVertex
 10
168.5999218555
 20
35.706882273
 30
0.0
 70
     8
  0
VERTEX
  5
176
330
FA
100
AcDbEntity
  8
0
  6
Continuous
 62
   252
100
AcDbVertex
100
AcDb2dVertex
 10
168.7533572434
 20
35.6373425187
 30
0.0
 70
     8
  0
VERTEX
  5
177
330
FA
100
AcDbEntity
  8
0
  6
Continuous
 62
   252
100
AcDbVertex
100
AcDb2dVertex
 10
168.92141884
 20
35.572670983
 30
0.0
 70
     8
  0
VERTEX
  5
178
330
FA
100
AcDbEntity
  8
0
  6
Continuous
 62
   252
100
AcDbVertex
100
AcDb2dVertex
 10
169.1042474295
 20
35.514495529
 30
0.0
 70
     8
  0
VERTEX
  5
179
330
FA
100
AcDbEntity
  8
0
  6
Continuous
 62
   252
100
AcDbVertex
100
AcDb2dVertex
 10
169.3019837959
 20
35.4644440199
 30
0.0
 70
     8
  0
VERTEX
  5
17A
330
FA
100
AcDbEntity
  8
0
  6
Continuous
 62
   252
100
AcDbVertex
100
AcDb2dVertex
 10
169.5147687234
 20
35.4241443188
 30
0.0
 70
     8
  0
VERTEX
  5
17B
330
FA
100
AcDbEntity
  8
0
  6
Continuous
 62
   252
100
AcDbVertex
100
AcDb2dVertex
 10
169.7427429962
 20
35.3952242888
 30
0.0
 70
     8
  0
VERTEX
  5
17C
330
FA
100
AcDbEntity
  8
0
  6
Continuous
 62
   252
100
AcDbVertex
100
AcDb2dVertex
 10
169.9860473983
 20
35.3793117931
 30
0.0
 70
     8
  0
VERTEX
  5
17D
330
FA
100
AcDbEntity
  8
0
  6
Continuous
 62
   252
100
AcDbVertex
100
AcDb2dVertex
 10
170.2448227139
 20
35.3780346949
 30
0.0
 70
     8
  0
VERTEX
  5
17E
330
FA
100
AcDbEntity
  8
0
  6
Continuous
 62
   252
100
AcDbVertex
100
AcDb2dVertex
 10
170.5290512573
 20
35.3858495245
 30
0.0
 70
     8
  0
VERTEX
  5
17F
330
FA
100
AcDbEntity
  8
0
  6
Continuous
 62
   252
100
AcDbVertex
100
AcDb2dVertex
 10
170.8139423257
 20
35.4094385802
 30
0.0
 70
     8
  0
VERTEX
  5
180
330
FA
100
AcDbEntity
  8
0
  6
Continuous
 62
   252
100
AcDbVertex
100
AcDb2dVertex
 10
171.098183512
 20
35.4489119638
 30
0.0
 70
     8
  0
VERTEX
  5
181
330
FA
100
AcDbEntity
  8
0
  6
Continuous
 62
   252
100
AcDbVertex
100
AcDb2dVertex
 10
171.3804481219
 20
35.5042338773
 30
0.0
 70
     8
  0
VERTEX
  5
182
330
FA
100
AcDbEntity
  8
0
  6
Continuous
 62
   252
100
AcDbVertex
100
AcDb2dVertex
 10
171.6594155003
 20
35.5752209174
 30
0.0
 70
     8
  0
VERTEX
  5
183
330
FA
100
AcDbEntity
  8
0
  6
Continuous
 62
   252
100
AcDbVertex
100
AcDb2dVertex
 10
171.9337914998
 20
35.6615437708
 30
0.0
 70
     8
  0
VERTEX
  5
184
330
FA
100
AcDbEntity
  8
0
  6
Continuous
 62
   252
100
AcDbVertex
100
AcDb2dVertex
 10
172.2023284311
 20
35.7627322904
 30
0.0
 70
     8
  0
VERTEX
  5
185
330
FA
100
AcDbEntity
  8
0
  6
Continuous
 62
   252
100
AcDbVertex
100
AcDb2dVertex
 10
172.4638438523
 20
35.8781837907
 30
0.0
 70
     8
  0
VERTEX
  5
186
330
FA
100
AcDbEntity
  8
0
  6
Continuous
 62
   252
100
AcDbVertex
100
AcDb2dVertex
 10
172.7172376075
 20
36.0071742603
 30
0.0
 70
     8
  0
SEQEND
  5
187
330
FA
100
AcDbEntity
  8
0
  6
Continuous
 62
   252
 48
25.4
370
     0
  0
HATCH
  5
188
330
1F
100
AcDbEntity
  8
0
  6
Continuous
 62
   252
 48
25.4
100
AcDbHatch
 10
0.0
 20
0.0
 30
0.0
210
0.0
220
0.0
230
1.0
  2
SOLID
 70
     1
 71
     0
 91
        1
 92
        1
 93
       81
 72
     1
 10
178.3239249654455
 20
39.14238211211093
 11
178.3183255861878
 21
39.29451473095851
 72
     1
 10
178.3183255861878
 20
39.29451473095851
 11
178.3029148266429
 21
39.43248724584884
 72
     1
 10
178.3029148266429
 20
39.43248724584884
 11
178.2790173924239
 21
39.55743542938495
 72
     1
 10
178.2790173924239
 20
39.55743542938495
 11
178.2479579891439
 21
39.67049505417
 72
     1
 10
178.2479579891439
 20
39.67049505417
 11
178.2110613224162
 21
39.77280189280702
 72
     1
 10
178.2110613224162
 20
39.77280189280702
 11
178.1696520978538
 21
39.86549171789918
 72
     1
 10
178.1696520978538
 20
39.86549171789918
 11
178.1019750085993
 21
39.98897905770999
 72
     1
 10
178.1019750085993
 20
39.98897905770999
 11
178.031596133291
 21
40.09721683793724
 72
     1
 10
178.031596133291
 20
40.09721683793724
 11
177.9635588392812
 21
40.19119068116036
 72
     1
 10
177.9635588392812
 20
40.19119068116036
 11
177.893960006104
 21
40.27584882257234
 72
     1
 10
177.893960006104
 20
40.27584882257234
 11
177.8195636236611
 21
40.35268125680999
 72
     1
 10
177.8195636236611
 20
40.35268125680999
 11
177.7371336818544
 21
40.42317797851011
 72
     1
 10
177.7371336818544
 20
40.42317797851011
 11
177.6434341705854
 21
40.48882898230956
 72
     1
 10
177.6434341705854
 20
40.48882898230956
 11
177.535229079756
 21
40.55112426284511
 72
     1
 10
177.535229079756
 20
40.55112426284511
 11
177.3999600990802
 21
40.61506720493097
 72
     1
 10
177.3999600990802
 20
40.61506720493097
 11
177.2439748392668
 21
40.67361208797514
 72
     1
 10
177.2439748392668
 20
40.67361208797514
 11
177.1283272011856
 21
40.70803759958527
 72
     1
 10
177.1283272011856
 20
40.70803759958527
 11
177.003249696572
 21
40.73765574074933
 72
     1
 10
177.003249696572
 20
40.73765574074933
 11
176.8686532728818
 21
40.76150321822964
 72
     1
 10
176.8686532728818
 20
40.76150321822964
 11
176.724448877571
 21
40.77861673878849
 72
     1
 10
176.724448877571
 20
40.77861673878849
 11
176.5705474580954
 21
40.78803300918823
 72
     1
 10
176.5705474580954
 20
40.78803300918823
 11
176.4068599619111
 21
40.78878873619118
 72
     1
 10
176.4068599619111
 20
40.78878873619118
 11
173.8577386713705
 21
40.7887887361912
 72
     1
 10
173.8577386713705
 20
40.7887887361912
 11
173.8577386713705
 21
35.53234701839971
 72
     1
 10
173.8577386713705
 20
35.53234701839971
 11
175.2534567564767
 21
35.5323470183997
 72
     1
 10
175.2534567564767
 20
35.5323470183997
 11
175.2534567564767
 21
39.78397004924694
 72
     1
 10
175.2534567564767
 20
39.78397004924694
 11
176.1576246130663
 21
39.78397004924695
 72
     1
 10
176.1576246130663
 20
39.78397004924695
 11
176.2589290341562
 21
39.78171486896078
 72
     1
 10
176.2589290341562
 20
39.78171486896078
 11
176.3510526174439
 21
39.77011577462304
 72
     1
 10
176.3510526174439
 20
39.77011577462304
 11
176.4341212530998
 21
39.75082352601168
 72
     1
 10
176.4341212530998
 20
39.75082352601168
 11
176.5082608312942
 21
39.72548888290466
 72
     1
 10
176.5082608312942
 20
39.72548888290466
 11
176.5735972421976
 21
39.69576260507992
 72
     1
 10
176.5735972421976
 20
39.69576260507992
 11
176.6302563759805
 21
39.66329545231538
 72
     1
 10
176.6302563759805
 20
39.66329545231538
 11
176.6892700245421
 21
39.62078010791478
 72
     1
 10
176.6892700245421
 20
39.62078010791478
 11
176.7382853941597
 21
39.57478732787796
 72
     1
 10
176.7382853941597
 20
39.57478732787796
 11
176.7805153891441
 21
39.52352381403737
 72
     1
 10
176.7805153891441
 20
39.52352381403737
 11
176.809667746029
 21
39.48053847866927
 72
     1
 10
176.809667746029
 20
39.48053847866927
 11
176.8381660323639
 21
39.43282307765289
 72
     1
 10
176.8381660323639
 20
39.43282307765289
 11
176.867645119821
 21
39.37786513497936
 72
     1
 10
176.867645119821
 20
39.37786513497936
 11
176.8959925298107
 21
39.31516419887387
 72
     1
 10
176.8959925298107
 20
39.31516419887387
 11
176.9213355767503
 21
39.24277393808777
 72
     1
 10
176.9213355767503
 20
39.24277393808777
 11
176.9418015750573
 21
39.15874802137248
 72
     1
 10
176.9418015750573
 20
39.15874802137248
 11
176.9555178391489
 21
39.06114011747932
 72
     1
 10
176.9555178391489
 20
39.06114011747932
 11
176.9606116834426
 21
38.94800389515972
 72
     1
 10
176.9606116834426
 20
38.94800389515972
 11
176.9555178391489
 21
38.83486767284018
 72
     1
 10
176.9555178391489
 20
38.83486767284018
 11
176.9418015750573
 21
38.7372597689471
 72
     1
 10
176.9418015750573
 20
38.7372597689471
 11
176.9213355767503
 21
38.65323385223184
 72
     1
 10
176.9213355767503
 20
38.65323385223184
 11
176.8959925298107
 21
38.58084359144576
 72
     1
 10
176.8959925298107
 20
38.58084359144576
 11
176.867645119821
 21
38.51814265534028
 72
     1
 10
176.867645119821
 20
38.51814265534028
 11
176.8381660323639
 21
38.46318471266676
 72
     1
 10
176.8381660323639
 20
38.46318471266676
 11
176.8000899037461
 21
38.40065266405635
 72
     1
 10
176.8000899037461
 20
38.40065266405635
 11
176.7600477569616
 21
38.34608129650103
 72
     1
 10
176.7600477569616
 20
38.34608129650103
 11
176.7148266876995
 21
38.29767731183326
 72
     1
 10
176.7148266876995
 20
38.29767731183326
 11
176.6755794551274
 21
38.26434288742347
 72
     1
 10
176.6755794551274
 20
38.26434288742347
 11
176.6302563759805
 21
38.23271233800426
 72
     1
 10
176.6302563759805
 20
38.23271233800426
 11
176.5807801808744
 21
38.20399108997234
 72
     1
 10
176.5807801808744
 20
38.20399108997234
 11
176.5245776008662
 21
38.17724587688336
 72
     1
 10
176.5245776008662
 20
38.17724587688336
 11
176.4615624943485
 21
38.15360624761472
 72
     1
 10
176.4615624943485
 20
38.15360624761472
 11
176.3916487197139
 21
38.1342017510439
 72
     1
 10
176.3916487197139
 20
38.1342017510439
 11
176.3147501353551
 21
38.1201619360483
 72
     1
 10
176.3147501353551
 20
38.1201619360483
 11
176.2307805996647
 21
38.1126163515054
 72
     1
 10
176.2307805996647
 20
38.1126163515054
 11
175.4289184586045
 21
38.11261635147373
 72
     1
 10
175.4289184586045
 20
38.11261635147373
 11
177.3589971820088
 21
35.5323470183997
 72
     1
 10
177.3589971820088
 20
35.5323470183997
 11
179.0897132710516
 21
35.5323470183997
 72
     1
 10
179.0897132710516
 20
35.5323470183997
 11
177.3293117683367
 21
37.64133527362854
 72
     1
 10
177.3293117683367
 20
37.64133527362854
 11
177.4378413884242
 21
37.68626314565116
 72
     1
 10
177.4378413884242
 20
37.68626314565116
 11
177.535229079756
 21
37.73363996137686
 72
     1
 10
177.535229079756
 20
37.73363996137686
 11
177.6434341705854
 21
37.79593524191246
 72
     1
 10
177.6434341705854
 20
37.79593524191246
 11
177.7371336818544
 21
37.86158624571191
 72
     1
 10
177.7371336818544
 20
37.86158624571191
 11
177.8195636236612
 21
37.93208296741202
 72
     1
 10
177.8195636236612
 20
37.93208296741202
 11
177.893960006104
 21
38.00891540164967
 72
     1
 10
177.893960006104
 20
38.00891540164967
 11
177.9635588392812
 21
38.09357354306162
 72
     1
 10
177.9635588392812
 20
38.09357354306162
 11
178.031596133291
 21
38.18754738628473
 72
     1
 10
178.031596133291
 20
38.18754738628473
 11
178.1019750085993
 21
38.29578516651197
 72
     1
 10
178.1019750085993
 20
38.29578516651197
 11
178.1696520978538
 21
38.41927250632281
 72
     1
 10
178.1696520978538
 20
38.41927250632281
 11
178.2110613224162
 21
38.51196233141494
 72
     1
 10
178.2110613224162
 20
38.51196233141494
 11
178.2479579891439
 21
38.61426917005198
 72
     1
 10
178.2479579891439
 20
38.61426917005198
 11
178.2790173924239
 21
38.727328794837
 72
     1
 10
178.2790173924239
 20
38.727328794837
 11
178.3029148266429
 21
38.8522769783731
 72
     1
 10
178.3029148266429
 20
38.8522769783731
 11
178.3183255861878
 21
38.99024949326337
 72
     1
 10
178.3183255861878
 20
38.99024949326337
 11
178.3239249654455
 21
39.14238211211093
 97
        0
 75
     0
 76
     1
 98
        0
  0
POLYLINE
  5
189
330
1F
100
AcDbEntity
  8
0
  6
Continuous
 62
   252
 48
25.4
370
     0
100
AcDb2dPolyline
 66
     1
 10
0.0
 20
0.0
 30
0.0
 70
     1
  0
VERTEX
  5
18A
330
189
100
AcDbEntity
  8
0
  6
Continuous
 62
   252
100
AcDbVertex
100
AcDb2dVertex
 10
178.3239249654
 20
39.1423821121
 30
0.0
 70
     8
  0
VERTEX
  5
18B
330
189
100
AcDbEntity
  8
0
  6
Continuous
 62
   252
100
AcDbVertex
100
AcDb2dVertex
 10
178.3183255862
 20
39.294514731
 30
0.0
 70
     8
  0
VERTEX
  5
18C
330
189
100
AcDbEntity
  8
0
  6
Continuous
 62
   252
100
AcDbVertex
100
AcDb2dVertex
 10
178.3029148266
 20
39.4324872458
 30
0.0
 70
     8
  0
VERTEX
  5
18D
330
189
100
AcDbEntity
  8
0
  6
Continuous
 62
   252
100
AcDbVertex
100
AcDb2dVertex
 10
178.2790173924
 20
39.5574354294
 30
0.0
 70
     8
  0
VERTEX
  5
18E
330
189
100
AcDbEntity
  8
0
  6
Continuous
 62
   252
100
AcDbVertex
100
AcDb2dVertex
 10
178.2479579891
 20
39.6704950542
 30
0.0
 70
     8
  0
VERTEX
  5
18F
330
189
100
AcDbEntity
  8
0
  6
Continuous
 62
   252
100
AcDbVertex
100
AcDb2dVertex
 10
178.2110613224
 20
39.7728018928
 30
0.0
 70
     8
  0
VERTEX
  5
190
330
189
100
AcDbEntity
  8
0
  6
Continuous
 62
   252
100
AcDbVertex
100
AcDb2dVertex
 10
178.1696520979
 20
39.8654917179
 30
0.0
 70
     8
  0
VERTEX
  5
191
330
189
100
AcDbEntity
  8
0
  6
Continuous
 62
   252
100
AcDbVertex
100
AcDb2dVertex
 10
178.1019750086
 20
39.9889790577
 30
0.0
 70
     8
  0
VERTEX
  5
192
330
189
100
AcDbEntity
  8
0
  6
Continuous
 62
   252
100
AcDbVertex
100
AcDb2dVertex
 10
178.0315961333
 20
40.0972168379
 30
0.0
 70
     8
  0
VERTEX
  5
193
330
189
100
AcDbEntity
  8
0
  6
Continuous
 62
   252
100
AcDbVertex
100
AcDb2dVertex
 10
177.9635588393
 20
40.1911906812
 30
0.0
 70
     8
  0
VERTEX
  5
194
330
189
100
AcDbEntity
  8
0
  6
Continuous
 62
   252
100
AcDbVertex
100
AcDb2dVertex
 10
177.8939600061
 20
40.2758488226
 30
0.0
 70
     8
  0
VERTEX
  5
195
330
189
100
AcDbEntity
  8
0
  6
Continuous
 62
   252
100
AcDbVertex
100
AcDb2dVertex
 10
177.8195636237
 20
40.3526812568
 30
0.0
 70
     8
  0
VERTEX
  5
196
330
189
100
AcDbEntity
  8
0
  6
Continuous
 62
   252
100
AcDbVertex
100
AcDb2dVertex
 10
177.7371336819
 20
40.4231779785
 30
0.0
 70
     8
  0
VERTEX
  5
197
330
189
100
AcDbEntity
  8
0
  6
Continuous
 62
   252
100
AcDbVertex
100
AcDb2dVertex
 10
177.6434341706
 20
40.4888289823
 30
0.0
 70
     8
  0
VERTEX
  5
198
330
189
100
AcDbEntity
  8
0
  6
Continuous
 62
   252
100
AcDbVertex
100
AcDb2dVertex
 10
177.5352290798
 20
40.5511242628
 30
0.0
 70
     8
  0
VERTEX
  5
199
330
189
100
AcDbEntity
  8
0
  6
Continuous
 62
   252
100
AcDbVertex
100
AcDb2dVertex
 10
177.3999600991
 20
40.6150672049
 30
0.0
 70
     8
  0
VERTEX
  5
19A
330
189
100
AcDbEntity
  8
0
  6
Continuous
 62
   252
100
AcDbVertex
100
AcDb2dVertex
 10
177.2439748393
 20
40.673612088
 30
0.0
 70
     8
  0
VERTEX
  5
19B
330
189
100
AcDbEntity
  8
0
  6
Continuous
 62
   252
100
AcDbVertex
100
AcDb2dVertex
 10
177.1283272012
 20
40.7080375996
 30
0.0
 70
     8
  0
VERTEX
  5
19C
330
189
100
AcDbEntity
  8
0
  6
Continuous
 62
   252
100
AcDbVertex
100
AcDb2dVertex
 10
177.0032496966
 20
40.7376557407
 30
0.0
 70
     8
  0
VERTEX
  5
19D
330
189
100
AcDbEntity
  8
0
  6
Continuous
 62
   252
100
AcDbVertex
100
AcDb2dVertex
 10
176.8686532729
 20
40.7615032182
 30
0.0
 70
     8
  0
VERTEX
  5
19E
330
189
100
AcDbEntity
  8
0
  6
Continuous
 62
   252
100
AcDbVertex
100
AcDb2dVertex
 10
176.7244488776
 20
40.7786167388
 30
0.0
 70
     8
  0
VERTEX
  5
19F
330
189
100
AcDbEntity
  8
0
  6
Continuous
 62
   252
100
AcDbVertex
100
AcDb2dVertex
 10
176.5705474581
 20
40.7880330092
 30
0.0
 70
     8
  0
VERTEX
  5
1A0
330
189
100
AcDbEntity
  8
0
  6
Continuous
 62
   252
100
AcDbVertex
100
AcDb2dVertex
 10
176.4068599619
 20
40.7887887362
 30
0.0
 70
     8
  0
VERTEX
  5
1A1
330
189
100
AcDbEntity
  8
0
  6
Continuous
 62
   252
100
AcDbVertex
100
AcDb2dVertex
 10
173.8577386714
 20
40.7887887362
 30
0.0
 70
     8
  0
VERTEX
  5
1A2
330
189
100
AcDbEntity
  8
0
  6
Continuous
 62
   252
100
AcDbVertex
100
AcDb2dVertex
 10
173.8577386714
 20
35.5323470184
 30
0.0
 70
     8
  0
VERTEX
  5
1A3
330
189
100
AcDbEntity
  8
0
  6
Continuous
 62
   252
100
AcDbVertex
100
AcDb2dVertex
 10
175.2534567565
 20
35.5323470184
 30
0.0
 70
     8
  0
VERTEX
  5
1A4
330
189
100
AcDbEntity
  8
0
  6
Continuous
 62
   252
100
AcDbVertex
100
AcDb2dVertex
 10
175.2534567565
 20
39.7839700492
 30
0.0
 70
     8
  0
VERTEX
  5
1A5
330
189
100
AcDbEntity
  8
0
  6
Continuous
 62
   252
100
AcDbVertex
100
AcDb2dVertex
 10
176.1576246131
 20
39.7839700492
 30
0.0
 70
     8
  0
VERTEX
  5
1A6
330
189
100
AcDbEntity
  8
0
  6
Continuous
 62
   252
100
AcDbVertex
100
AcDb2dVertex
 10
176.2589290342
 20
39.781714869
 30
0.0
 70
     8
  0
VERTEX
  5
1A7
330
189
100
AcDbEntity
  8
0
  6
Continuous
 62
   252
100
AcDbVertex
100
AcDb2dVertex
 10
176.3510526174
 20
39.7701157746
 30
0.0
 70
     8
  0
VERTEX
  5
1A8
330
189
100
AcDbEntity
  8
0
  6
Continuous
 62
   252
100
AcDbVertex
100
AcDb2dVertex
 10
176.4341212531
 20
39.750823526
 30
0.0
 70
     8
  0
VERTEX
  5
1A9
330
189
100
AcDbEntity
  8
0
  6
Continuous
 62
   252
100
AcDbVertex
100
AcDb2dVertex
 10
176.5082608313
 20
39.7254888829
 30
0.0
 70
     8
  0
VERTEX
  5
1AA
330
189
100
AcDbEntity
  8
0
  6
Continuous
 62
   252
100
AcDbVertex
100
AcDb2dVertex
 10
176.5735972422
 20
39.6957626051
 30
0.0
 70
     8
  0
VERTEX
  5
1AB
330
189
100
AcDbEntity
  8
0
  6
Continuous
 62
   252
100
AcDbVertex
100
AcDb2dVertex
 10
176.630256376
 20
39.6632954523
 30
0.0
 70
     8
  0
VERTEX
  5
1AC
330
189
100
AcDbEntity
  8
0
  6
Continuous
 62
   252
100
AcDbVertex
100
AcDb2dVertex
 10
176.6892700245
 20
39.6207801079
 30
0.0
 70
     8
  0
VERTEX
  5
1AD
330
189
100
AcDbEntity
  8
0
  6
Continuous
 62
   252
100
AcDbVertex
100
AcDb2dVertex
 10
176.7382853942
 20
39.5747873279
 30
0.0
 70
     8
  0
VERTEX
  5
1AE
330
189
100
AcDbEntity
  8
0
  6
Continuous
 62
   252
100
AcDbVertex
100
AcDb2dVertex
 10
176.7805153891
 20
39.523523814
 30
0.0
 70
     8
  0
VERTEX
  5
1AF
330
189
100
AcDbEntity
  8
0
  6
Continuous
 62
   252
100
AcDbVertex
100
AcDb2dVertex
 10
176.809667746
 20
39.4805384787
 30
0.0
 70
     8
  0
VERTEX
  5
1B0
330
189
100
AcDbEntity
  8
0
  6
Continuous
 62
   252
100
AcDbVertex
100
AcDb2dVertex
 10
176.8381660324
 20
39.4328230777
 30
0.0
 70
     8
  0
VERTEX
  5
1B1
330
189
100
AcDbEntity
  8
0
  6
Continuous
 62
   252
100
AcDbVertex
100
AcDb2dVertex
 10
176.8676451198
 20
39.377865135
 30
0.0
 70
     8
  0
VERTEX
  5
1B2
330
189
100
AcDbEntity
  8
0
  6
Continuous
 62
   252
100
AcDbVertex
100
AcDb2dVertex
 10
176.8959925298
 20
39.3151641989
 30
0.0
 70
     8
  0
VERTEX
  5
1B3
330
189
100
AcDbEntity
  8
0
  6
Continuous
 62
   252
100
AcDbVertex
100
AcDb2dVertex
 10
176.9213355768
 20
39.2427739381
 30
0.0
 70
     8
  0
VERTEX
  5
1B4
330
189
100
AcDbEntity
  8
0
  6
Continuous
 62
   252
100
AcDbVertex
100
AcDb2dVertex
 10
176.9418015751
 20
39.1587480214
 30
0.0
 70
     8
  0
VERTEX
  5
1B5
330
189
100
AcDbEntity
  8
0
  6
Continuous
 62
   252
100
AcDbVertex
100
AcDb2dVertex
 10
176.9555178391
 20
39.0611401175
 30
0.0
 70
     8
  0
VERTEX
  5
1B6
330
189
100
AcDbEntity
  8
0
  6
Continuous
 62
   252
100
AcDbVertex
100
AcDb2dVertex
 10
176.9606116834
 20
38.9480038952
 30
0.0
 70
     8
  0
VERTEX
  5
1B7
330
189
100
AcDbEntity
  8
0
  6
Continuous
 62
   252
100
AcDbVertex
100
AcDb2dVertex
 10
176.9555178391
 20
38.8348676728
 30
0.0
 70
     8
  0
VERTEX
  5
1B8
330
189
100
AcDbEntity
  8
0
  6
Continuous
 62
   252
100
AcDbVertex
100
AcDb2dVertex
 10
176.9418015751
 20
38.7372597689
 30
0.0
 70
     8
  0
VERTEX
  5
1B9
330
189
100
AcDbEntity
  8
0
  6
Continuous
 62
   252
100
AcDbVertex
100
AcDb2dVertex
 10
176.9213355768
 20
38.6532338522
 30
0.0
 70
     8
  0
VERTEX
  5
1BA
330
189
100
AcDbEntity
  8
0
  6
Continuous
 62
   252
100
AcDbVertex
100
AcDb2dVertex
 10
176.8959925298
 20
38.5808435914
 30
0.0
 70
     8
  0
VERTEX
  5
1BB
330
189
100
AcDbEntity
  8
0
  6
Continuous
 62
   252
100
AcDbVertex
100
AcDb2dVertex
 10
176.8676451198
 20
38.5181426553
 30
0.0
 70
     8
  0
VERTEX
  5
1BC
330
189
100
AcDbEntity
  8
0
  6
Continuous
 62
   252
100
AcDbVertex
100
AcDb2dVertex
 10
176.8381660324
 20
38.4631847127
 30
0.0
 70
     8
  0
VERTEX
  5
1BD
330
189
100
AcDbEntity
  8
0
  6
Continuous
 62
   252
100
AcDbVertex
100
AcDb2dVertex
 10
176.8000899037
 20
38.4006526641
 30
0.0
 70
     8
  0
VERTEX
  5
1BE
330
189
100
AcDbEntity
  8
0
  6
Continuous
 62
   252
100
AcDbVertex
100
AcDb2dVertex
 10
176.760047757
 20
38.3460812965
 30
0.0
 70
     8
  0
VERTEX
  5
1BF
330
189
100
AcDbEntity
  8
0
  6
Continuous
 62
   252
100
AcDbVertex
100
AcDb2dVertex
 10
176.7148266877
 20
38.2976773118
 30
0.0
 70
     8
  0
VERTEX
  5
1C0
330
189
100
AcDbEntity
  8
0
  6
Continuous
 62
   252
100
AcDbVertex
100
AcDb2dVertex
 10
176.6755794551
 20
38.2643428874
 30
0.0
 70
     8
  0
VERTEX
  5
1C1
330
189
100
AcDbEntity
  8
0
  6
Continuous
 62
   252
100
AcDbVertex
100
AcDb2dVertex
 10
176.630256376
 20
38.232712338
 30
0.0
 70
     8
  0
VERTEX
  5
1C2
330
189
100
AcDbEntity
  8
0
  6
Continuous
 62
   252
100
AcDbVertex
100
AcDb2dVertex
 10
176.5807801809
 20
38.20399109
 30
0.0
 70
     8
  0
VERTEX
  5
1C3
330
189
100
AcDbEntity
  8
0
  6
Continuous
 62
   252
100
AcDbVertex
100
AcDb2dVertex
 10
176.5245776009
 20
38.1772458769
 30
0.0
 70
     8
  0
VERTEX
  5
1C4
330
189
100
AcDbEntity
  8
0
  6
Continuous
 62
   252
100
AcDbVertex
100
AcDb2dVertex
 10
176.4615624943
 20
38.1536062476
 30
0.0
 70
     8
  0
VERTEX
  5
1C5
330
189
100
AcDbEntity
  8
0
  6
Continuous
 62
   252
100
AcDbVertex
100
AcDb2dVertex
 10
176.3916487197
 20
38.134201751
 30
0.0
 70
     8
  0
VERTEX
  5
1C6
330
189
100
AcDbEntity
  8
0
  6
Continuous
 62
   252
100
AcDbVertex
100
AcDb2dVertex
 10
176.3147501354
 20
38.120161936
 30
0.0
 70
     8
  0
VERTEX
  5
1C7
330
189
100
AcDbEntity
  8
0
  6
Continuous
 62
   252
100
AcDbVertex
100
AcDb2dVertex
 10
176.2307805997
 20
38.1126163515
 30
0.0
 70
     8
  0
VERTEX
  5
1C8
330
189
100
AcDbEntity
  8
0
  6
Continuous
 62
   252
100
AcDbVertex
100
AcDb2dVertex
 10
175.4289184586
 20
38.1126163515
 30
0.0
 70
     8
  0
VERTEX
  5
1C9
330
189
100
AcDbEntity
  8
0
  6
Continuous
 62
   252
100
AcDbVertex
100
AcDb2dVertex
 10
177.358997182
 20
35.5323470184
 30
0.0
 70
     8
  0
VERTEX
  5
1CA
330
189
100
AcDbEntity
  8
0
  6
Continuous
 62
   252
100
AcDbVertex
100
AcDb2dVertex
 10
179.0897132711
 20
35.5323470184
 30
0.0
 70
     8
  0
VERTEX
  5
1CB
330
189
100
AcDbEntity
  8
0
  6
Continuous
 62
   252
100
AcDbVertex
100
AcDb2dVertex
 10
177.3293117683
 20
37.6413352736
 30
0.0
 70
     8
  0
VERTEX
  5
1CC
330
189
100
AcDbEntity
  8
0
  6
Continuous
 62
   252
100
AcDbVertex
100
AcDb2dVertex
 10
177.4378413884
 20
37.6862631457
 30
0.0
 70
     8
  0
VERTEX
  5
1CD
330
189
100
AcDbEntity
  8
0
  6
Continuous
 62
   252
100
AcDbVertex
100
AcDb2dVertex
 10
177.5352290798
 20
37.7336399614
 30
0.0
 70
     8
  0
VERTEX
  5
1CE
330
189
100
AcDbEntity
  8
0
  6
Continuous
 62
   252
100
AcDbVertex
100
AcDb2dVertex
 10
177.6434341706
 20
37.7959352419
 30
0.0
 70
     8
  0
VERTEX
  5
1CF
330
189
100
AcDbEntity
  8
0
  6
Continuous
 62
   252
100
AcDbVertex
100
AcDb2dVertex
 10
177.7371336819
 20
37.8615862457
 30
0.0
 70
     8
  0
VERTEX
  5
1D0
330
189
100
AcDbEntity
  8
0
  6
Continuous
 62
   252
100
AcDbVertex
100
AcDb2dVertex
 10
177.8195636237
 20
37.9320829674
 30
0.0
 70
     8
  0
VERTEX
  5
1D1
330
189
100
AcDbEntity
  8
0
  6
Continuous
 62
   252
100
AcDbVertex
100
AcDb2dVertex
 10
177.8939600061
 20
38.0089154016
 30
0.0
 70
     8
  0
VERTEX
  5
1D2
330
189
100
AcDbEntity
  8
0
  6
Continuous
 62
   252
100
AcDbVertex
100
AcDb2dVertex
 10
177.9635588393
 20
38.0935735431
 30
0.0
 70
     8
  0
VERTEX
  5
1D3
330
189
100
AcDbEntity
  8
0
  6
Continuous
 62
   252
100
AcDbVertex
100
AcDb2dVertex
 10
178.0315961333
 20
38.1875473863
 30
0.0
 70
     8
  0
VERTEX
  5
1D4
330
189
100
AcDbEntity
  8
0
  6
Continuous
 62
   252
100
AcDbVertex
100
AcDb2dVertex
 10
178.1019750086
 20
38.2957851665
 30
0.0
 70
     8
  0
VERTEX
  5
1D5
330
189
100
AcDbEntity
  8
0
  6
Continuous
 62
   252
100
AcDbVertex
100
AcDb2dVertex
 10
178.1696520979
 20
38.4192725063
 30
0.0
 70
     8
  0
VERTEX
  5
1D6
330
189
100
AcDbEntity
  8
0
  6
Continuous
 62
   252
100
AcDbVertex
100
AcDb2dVertex
 10
178.2110613224
 20
38.5119623314
 30
0.0
 70
     8
  0
VERTEX
  5
1D7
330
189
100
AcDbEntity
  8
0
  6
Continuous
 62
   252
100
AcDbVertex
100
AcDb2dVertex
 10
178.2479579891
 20
38.6142691701
 30
0.0
 70
     8
  0
VERTEX
  5
1D8
330
189
100
AcDbEntity
  8
0
  6
Continuous
 62
   252
100
AcDbVertex
100
AcDb2dVertex
 10
178.2790173924
 20
38.7273287948
 30
0.0
 70
     8
  0
VERTEX
  5
1D9
330
189
100
AcDbEntity
  8
0
  6
Continuous
 62
   252
100
AcDbVertex
100
AcDb2dVertex
 10
178.3029148266
 20
38.8522769784
 30
0.0
 70
     8
  0
VERTEX
  5
1DA
330
189
100
AcDbEntity
  8
0
  6
Continuous
 62
   252
100
AcDbVertex
100
AcDb2dVertex
 10
178.3183255862
 20
38.9902494933
 30
0.0
 70
     8
  0
VERTEX
  5
1DB
330
189
100
AcDbEntity
  8
0
  6
Continuous
 62
   252
100
AcDbVertex
100
AcDb2dVertex
 10
178.3239249654
 20
39.1423821121
 30
0.0
 70
     8
  0
SEQEND
  5
1DC
330
189
100
AcDbEntity
  8
0
  6
Continuous
 62
   252
 48
25.4
370
     0
  0
HATCH
  5
1DD
330
1F
100
AcDbEntity
  8
0
  6
Continuous
 62
   252
 48
25.4
100
AcDbHatch
 10
0.0
 20
0.0
 30
0.0
210
0.0
220
0.0
230
1.0
  2
SOLID
 70
     1
 71
     0
 91
        2
 92
        1
 93
        4
 72
     3
 10
182.4154915065637
 20
38.84820993797686
 11
3.546040280182365
 21
0.0
 40
1.0
 50
-129.8029808396431
 51
-50.19702531964591
 73
     1
 72
     3
 10
182.9869162298897
 20
38.16243781293264
 11
2.653398346417479
 21
0.0
 40
1.0
 50
-50.19702716966368
 51
50.55884260689782
 73
     1
 72
     3
 10
182.4164995693563
 20
37.53020458050485
 11
3.504250792424207
 21
0.0
 40
1.0
 50
49.92326879874656
 51
130.3963479626625
 73
     1
 72
     3
 10
181.8793224024342
 20
38.16146713411548
 11
2.67536496177354
 21
0.0
 40
1.0
 50
130.3963479626626
 51
-130.3963479626626
 73
     1
 97
        0
 92
        1
 93
        8
 72
     3
 10
182.7188850629272
 20
38.16282151090785
 11
2.101293158218851
 21
0.0
 40
1.0
 50
143.9338781609766
 51
-142.9654020029433
 73
     1
 72
     3
 10
181.8964309250819
 20
37.54227885885737
 11
1.070999999999976
 21
0.0
 40
1.0
 50
-142.9654020029427
 51
-119.8505517633382
 73
     1
 72
     3
 10
182.4148919479661
 20
38.44571359377819
 11
2.112631485944757
 21
0.0
 40
1.0
 50
-119.8505517633395
 51
-61.34494481304593
 73
     1
 72
     3
 10
182.91439100011
 20
37.5316584261768
 11
1.071000000000003
 21
0.0
 40
1.0
 50
-61.34494481304664
 51
-33.92060808926178
 73
     1
 72
     3
 10
181.973764256272
 20
38.16422457804732
 11
2.20454250370927
 21
0.0
 40
1.0
 50
-33.92060808926112
 51
32.93377974508817
 73
     1
 72
     3
 10
182.9251458907381
 20
38.78049691501871
 11
1.070999999999999
 21
0.0
 40
1.0
 50
32.93377974508775
 51
59.70433099434492
 73
     1
 72
     3
 10
182.4148919479661
 20
37.90715040035985
 11
2.08248070707313
 21
0.0
 40
1.0
 50
59.70433099434629
 51
121.5222523772517
 73
     1
 72
     3
 10
181.8860598223169
 20
38.76937415534602
 11
1.07100000000001
 21
0.0
 40
1.0
 50
121.5222523772514
 51
143.9338781609769
 73
     1
 97
        0
 75
     0
 76
     1
 98
        0
  0
LWPOLYLINE
  5
1DE
330
1F
100
AcDbEntity
  8
0
  6
Continuous
 62
   252
 48
25.4
370
     0
100
AcDbPolyline
 90
        5
 70
     1
 43
0.0
 10
180.1454949952
 20
36.1239637107
 42
0.3620243378
 10
184.6854880179
 20
36.1239637107
 42
0.4703291106
 10
184.6725815358
 20
40.2115974605
 42
0.3663096456
 10
180.1454949952
 20
40.1989705576
 42
0.4621035448
 10
180.1454949952
 20
36.1239637107
 42
0.4621035448
  0
LWPOLYLINE
  5
1DF
330
1F
100
AcDbEntity
  8
0
  6
Continuous
 62
   252
 48
25.4
370
     0
100
AcDbPolyline
 90
        9
 70
     1
 43
0.0
 10
181.0203296895
 20
39.3998916707
 42
0.3302378773
 10
181.0414816569
 20
36.8972185913
 42
0.1012009406
 10
181.3633520359
 20
36.6133720294
 42
0.2609726108
 10
183.427973291
 20
36.5918317238
 42
0.1202356687
 10
183.8031192475
 20
36.9339937189
 42
0.300273068
 10
183.8240356343
 20
39.3627668085
 42
0.1173427357
 10
183.4654250764
 20
39.7052343921
 42
0.2764691629
 10
181.3261092443
 20
39.6823343682
 42
0.0981020723
 10
181.0203296895
 20
39.3998916707
 42
0.0981020723
  0
ARC
  5
1E0
330
1F
100
AcDbEntity
  8
Standard
  6
Continuous
 62
     7
 48
25.4
100
AcDbCircle
 10
182.4154915066
 20
38.848209938
 30
0.0
 40
3.546040280182366
100
AcDbArc
 50
230.1970191604
 51
309.8029746804
  0
ARC
  5
1E1
330
1F
100
AcDbEntity
  8
Standard
  6
Continuous
 62
     7
 48
25.4
100
AcDbCircle
 10
182.9869162299
 20
38.1624378129
 30
0.0
 40
2.653398346417479
100
AcDbArc
 50
309.8029728303
 51
50.5588426069
  0
ARC
  5
1E2
330
1F
100
AcDbEntity
  8
Standard
  6
Continuous
 62
     7
 48
25.4
100
AcDbCircle
 10
182.4164995694
 20
37.5302045805
 30
0.0
 40
3.504250792424207
100
AcDbArc
 50
49.9232687987
 51
130.3963479627
  0
ARC
  5
1E3
330
1F
100
AcDbEntity
  8
Standard
  6
Continuous
 62
     7
 48
25.4
100
AcDbCircle
 10
181.8793224024
 20
38.1614671341
 30
0.0
 40
2.67536496177354
100
AcDbArc
 50
130.3963479627
 51
229.6036520373
  0
ARC
  5
1E4
330
1F
100
AcDbEntity
  8
Standard
  6
Continuous
 62
     7
 48
25.4
100
AcDbCircle
 10
182.7188850629
 20
38.1628215109
 30
0.0
 40
2.101293158218851
100
AcDbArc
 50
143.933878161
 51
217.0345979971
  0
ARC
  5
1E5
330
1F
100
AcDbEntity
  8
Standard
  6
Continuous
 62
     7
 48
25.4
100
AcDbCircle
 10
181.8964309251
 20
37.5422788589
 30
0.0
 40
1.070999999999976
100
AcDbArc
 50
217.0345979971
 51
240.1494482367
  0
ARC
  5
1E6
330
1F
100
AcDbEntity
  8
Standard
  6
Continuous
 62
     7
 48
25.4
100
AcDbCircle
 10
182.414891948
 20
38.4457135938
 30
0.0
 40
2.112631485944757
100
AcDbArc
 50
240.1494482367
 51
298.655055187
  0
ARC
  5
1E7
330
1F
100
AcDbEntity
  8
Standard
  6
Continuous
 62
     7
 48
25.4
100
AcDbCircle
 10
182.9143910001
 20
37.5316584262
 30
0.0
 40
1.071000000000003
100
AcDbArc
 50
298.655055187
 51
326.0793919107
  0
ARC
  5
1E8
330
1F
100
AcDbEntity
  8
Standard
  6
Continuous
 62
     7
 48
25.4
100
AcDbCircle
 10
181.9737642563
 20
38.164224578
 30
0.0
 40
2.20454250370927
100
AcDbArc
 50
326.0793919107
 51
32.9337797451
  0
ARC
  5
1E9
330
1F
100
AcDbEntity
  8
Standard
  6
Continuous
 62
     7
 48
25.4
100
AcDbCircle
 10
182.9251458907
 20
38.780496915
 30
0.0
 40
1.070999999999999
100
AcDbArc
 50
32.9337797451
 51
59.7043309943
  0
ARC
  5
1EA
330
1F
100
AcDbEntity
  8
Standard
  6
Continuous
 62
     7
 48
25.4
100
AcDbCircle
 10
182.414891948
 20
37.9071504004
 30
0.0
 40
2.08248070707313
100
AcDbArc
 50
59.7043309943
 51
121.5222523773
  0
ARC
  5
1EB
330
1F
100
AcDbEntity
  8
Standard
  6
Continuous
 62
     7
 48
25.4
100
AcDbCircle
 10
181.8860598223
 20
38.7693741553
 30
0.0
 40
1.07100000000001
100
AcDbArc
 50
121.5222523773
 51
143.933878161
  0
SPLINE
  5
1EC
330
1F
100
AcDbEntity
  8
Standard
  6
Continuous
 62
     7
 48
25.4
100
AcDbSpline
210
0.0
220
0.0
230
1.0
 70
    11
 71
     1
 72
   142
 73
   140
 74
     0
 42
0.0000000001
 43
0.0000000001
 40
0.0
 40
0.0
 40
0.0071942446043165
 40
0.0143884892086331
 40
0.0215827338129496
 40
0.0287769784172662
 40
0.0359712230215827
 40
0.0431654676258993
 40
0.0503597122302158
 40
0.0575539568345324
 40
0.0647482014388489
 40
0.0719424460431655
 40
0.079136690647482
 40
0.0863309352517986
 40
0.0935251798561151
 40
0.1007194244604317
 40
0.1079136690647482
 40
0.1151079136690648
 40
0.1223021582733813
 40
0.1294964028776978
 40
0.1366906474820144
 40
0.1438848920863309
 40
0.1510791366906475
 40
0.158273381294964
 40
0.1654676258992806
 40
0.1726618705035971
 40
0.1798561151079137
 40
0.1870503597122302
 40
0.1942446043165468
 40
0.2014388489208633
 40
0.2086330935251799
 40
0.2158273381294964
 40
0.223021582733813
 40
0.2302158273381295
 40
0.2374100719424461
 40
0.2446043165467626
 40
0.2517985611510791
 40
0.2589928057553957
 40
0.2661870503597122
 40
0.2733812949640288
 40
0.2805755395683454
 40
0.2877697841726619
 40
0.2949640287769784
 40
0.302158273381295
 40
0.3093525179856115
 40
0.3165467625899281
 40
0.3237410071942447
 40
0.3309352517985612
 40
0.3381294964028777
 40
0.3453237410071943
 40
0.3525179856115108
 40
0.3597122302158274
 40
0.3669064748201439
 40
0.3741007194244604
 40
0.381294964028777
 40
0.3884892086330936
 40
0.3956834532374101
 40
0.4028776978417267
 40
0.4100719424460432
 40
0.4172661870503597
 40
0.4244604316546763
 40
0.4316546762589928
 40
0.4388489208633094
 40
0.4460431654676259
 40
0.4532374100719425
 40
0.460431654676259
 40
0.4676258992805756
 40
0.4748201438848921
 40
0.4820143884892086
 40
0.4892086330935252
 40
0.4964028776978418
 40
0.5035971223021583
 40
0.5107913669064749
 40
0.5179856115107914
 40
0.525179856115108
 40
0.5323741007194245
 40
0.539568345323741
 40
0.5467625899280576
 40
0.5539568345323741
 40
0.5611510791366907
 40
0.5683453237410072
 40
0.5755395683453237
 40
0.5827338129496403
 40
0.5899280575539568
 40
0.5971223021582734
 40
0.60431654676259
 40
0.6115107913669066
 40
0.6187050359712231
 40
0.6258992805755396
 40
0.6330935251798562
 40
0.6402877697841727
 40
0.6474820143884893
 40
0.6546762589928058
 40
0.6618705035971223
 40
0.6690647482014389
 40
0.6762589928057554
 40
0.683453237410072
 40
0.6906474820143885
 40
0.697841726618705
 40
0.7050359712230216
 40
0.7122302158273381
 40
0.7194244604316548
 40
0.7266187050359713
 40
0.7338129496402878
 40
0.7410071942446044
 40
0.7482014388489209
 40
0.7553956834532375
 40
0.762589928057554
 40
0.7697841726618705
 40
0.7769784172661871
 40
0.7841726618705036
 40
0.7913669064748202
 40
0.7985611510791367
 40
0.8057553956834533
 40
0.8129496402877698
 40
0.8201438848920863
 40
0.827338129496403
 40
0.8345323741007195
 40
0.8417266187050361
 40
0.8489208633093526
 40
0.8561151079136691
 40
0.8633093525179857
 40
0.8705035971223022
 40
0.8776978417266188
 40
0.8848920863309353
 40
0.8920863309352518
 40
0.8992805755395684
 40
0.9064748201438849
 40
0.9136690647482015
 40
0.920863309352518
 40
0.9280575539568345
 40
0.9352517985611512
 40
0.9424460431654677
 40
0.9496402877697843
 40
0.9568345323741008
 40
0.9640287769784173
 40
0.9712230215827339
 40
0.9784172661870504
 40
0.985611510791367
 40
0.9928057553956835
 40
1.0
 40
1.0
 10
172.7172376075405
 20
36.00717426027418
 30
0.0
 10
172.7172376075405
 20
38.16056787729543
 30
0.0
 10
171.3135439905194
 20
38.16056787729544
 30
0.0
 10
171.3135439905194
 20
36.61701935882525
 30
0.0
 10
171.1917076643316
 20
36.5611499033753
 30
0.0
 10
171.0666502755375
 20
36.51126995692736
 30
0.0
 10
170.9388185719342
 20
36.46764219434532
 30
0.0
 10
170.8086865832739
 20
36.43048421156423
 30
0.0
 10
170.6767498485449
 20
36.39996513139732
 30
0.0
 10
170.5435191598414
 20
36.37620310823803
 30
0.0
 10
170.4095139875734
 20
36.35926380720596
 30
0.0
 10
170.2752557640552
 20
36.34915989868774
 30
0.0
 10
170.1412612066631
 20
36.34585157274731
 30
0.0
 10
170.0152684750314
 20
36.34668446771455
 30
0.0
 10
169.8968082340686
 20
36.35706328170605
 30
0.0
 10
169.7858119386887
 20
36.37592624282478
 30
0.0
 10
169.6822110438061
 20
36.40221157917369
 30
0.0
 10
169.5859370043348
 20
36.43485751885568
 30
0.0
 10
169.496921275189
 20
36.47280228997371
 30
0.0
 10
169.3768570709555
 20
36.53733212956858
 30
0.0
 10
169.2727384988467
 20
36.60781187297363
 30
0.0
 10
169.1894514104418
 20
36.67647551794381
 30
0.0
 10
169.1173294851355
 20
36.74883793734485
 30
0.0
 10
169.0538819172082
 20
36.82654144600173
 30
0.0
 10
168.9966179009403
 20
36.91122835873944
 30
0.0
 10
168.9430466306121
 20
37.00454099038299
 30
0.0
 10
168.8906773005039
 20
37.10812165575732
 30
0.0
 10
168.836505619997
 20
37.22742444161827
 30
0.0
 10
168.7844135449151
 20
37.36353572944269
 30
0.0
 10
168.7525402409839
 20
37.46570111320462
 30
0.0
 10
168.7241403207949
 20
37.57846664513256
 30
0.0
 10
168.7002334302138
 20
37.70308420636606
 30
0.0
 10
168.6818392151061
 20
37.84080567804467
 30
0.0
 10
168.6699773213378
 20
37.99288294130795
 30
0.0
 10
168.6656673947745
 20
38.16056787729547
 30
0.0
 10
168.6712120570559
 20
38.32825281328298
 30
0.0
 10
168.686472223093
 20
38.48033007654627
 30
0.0
 10
168.7101361322584
 20
38.61805154822488
 30
0.0
 10
168.740892023925
 20
38.74266910945838
 30
0.0
 10
168.7774281374655
 20
38.8554346413863
 30
0.0
 10
168.8184327122526
 20
38.95760002514824
 30
0.0
 10
168.8854484628985
 20
39.09371131297266
 30
0.0
 10
168.955139597821
 20
39.2130140988336
 30
0.0
 10
169.0225120333115
 20
39.31659476420789
 30
0.0
 10
169.0914307486526
 20
39.4099073958514
 30
0.0
 10
169.1651001317433
 20
39.4945943085891
 30
0.0
 10
169.2467245704821
 20
39.57229781724598
 30
0.0
 10
169.3395084527681
 20
39.64466023664699
 30
0.0
 10
169.4466561664998
 20
39.71332388161716
 30
0.0
 10
169.5336896386445
 20
39.76079451607122
 30
0.0
 10
169.6297962819564
 20
39.80615163724154
 30
0.0
 10
169.7350642787605
 20
39.84833347569219
 30
0.0
 10
169.849581811382
 20
39.88627826198729
 30
0.0
 10
169.9734370621461
 20
39.91892422669089
 30
0.0
 10
170.1067182133778
 20
39.94520960036712
 30
0.0
 10
170.2495134474023
 20
39.96407261358002
 30
0.0
 10
170.4019109465447
 20
39.97445149689372
 30
0.0
 10
170.5639988931302
 20
39.97528448087226
 30
0.0
 10
170.7940677015586
 20
39.96791705452002
 30
0.0
 10
171.0248685653708
 20
39.94564911414764
 30
0.0
 10
171.2549550680946
 20
39.90833871893882
 30
0.0
 10
171.4828592819786
 20
39.8560316822272
 30
0.0
 10
171.7071223381179
 20
39.78896457142685
 30
0.0
 10
171.9263252902625
 20
39.70756173025599
 30
0.0
 10
172.1391189154063
 20
39.6124263667062
 30
0.0
 10
172.3442511450613
 20
39.50432609735185
 30
0.0
 10
172.5405909692427
 20
39.38417365663604
 30
0.0
 10
172.5405909692427
 20
40.41797801232769
 30
0.0
 10
172.3015900069624
 20
40.52611532128243
 30
0.0
 10
172.0564343849309
 20
40.6226451417334
 30
0.0
 10
171.8059791867947
 20
40.70707201125296
 30
0.0
 10
171.5511302914853
 20
40.77898564983961
 30
0.0
 10
171.2928336083978
 20
40.83806719739523
 30
0.0
 10
171.032063435777
 20
40.88409379760048
 30
0.0
 10
170.769810241229
 20
40.91694139294221
 30
0.0
 10
170.5070681849877
 20
40.93658565755333
 30
0.0
 10
170.2448227139236
 20
40.94310105971638
 30
0.0
 10
169.9860473983418
 20
40.94182396144203
 30
0.0
 10
169.742742996224
 20
40.92591146575024
 30
0.0
 10
169.5147687234499
 20
40.89699143578041
 30
0.0
 10
169.3019837958987
 20
40.85669173467197
 30
0.0
 10
169.10424742945
 20
40.80664022556437
 30
0.0
 10
168.9214188399832
 20
40.748464771597
 30
0.0
 10
168.7533572433777
 20
40.68379323590929
 30
0.0
 10
168.599921855513
 20
40.6142534816407
 30
0.0
 10
168.4609718922684
 20
40.54147337193057
 30
0.0
 10
168.3441295306047
 20
40.4717975202572
 30
0.0
 10
168.2382370831932
 20
40.39997433318328
 30
0.0
 10
168.1417787446954
 20
40.32525775663572
 30
0.0
 10
168.0532387097728
 20
40.24690173654134
 30
0.0
 10
167.9711011730867
 20
40.16416021882696
 30
0.0
 10
167.8938503292988
 20
40.07628714941943
 30
0.0
 10
167.7838207886229
 20
39.93322389259848
 30
0.0
 10
167.6762599019385
 20
39.77441809030643
 30
0.0
 10
167.601959210119
 20
39.6550213233442
 30
0.0
 10
167.5285097454347
 20
39.52513083089987
 30
0.0
 10
167.4580057491749
 20
39.38282727804717
 30
0.0
 10
167.3925414626295
 20
39.22619132985976
 30
0.0
 10
167.334211127088
 20
39.05330365141138
 30
0.0
 10
167.2851089838399
 20
38.8622449077757
 30
0.0
 10
167.247329274175
 20
38.65109576402647
 30
0.0
 10
167.2229662393827
 20
38.41793688523737
 30
0.0
 10
167.2141141207528
 20
38.16084893648212
 30
0.0
 10
167.2141138140291
 20
38.16056786286189
 30
0.0
 10
167.2141141207528
 20
38.1602868181087
 30
0.0
 10
167.2229662393827
 20
37.90319886935345
 30
0.0
 10
167.247329274175
 20
37.67003999056436
 30
0.0
 10
167.2851089838399
 20
37.45889084681512
 30
0.0
 10
167.334211127088
 20
37.26783210317947
 30
0.0
 10
167.3925414626295
 20
37.09494442473109
 30
0.0
 10
167.4580057491749
 20
36.9383084765437
 30
0.0
 10
167.5285097454346
 20
36.796004923691
 30
0.0
 10
167.601959210119
 20
36.66611443124668
 30
0.0
 10
167.6762599019385
 20
36.54671766428447
 30
0.0
 10
167.7838207886228
 20
36.38791186199242
 30
0.0
 10
167.8938503292988
 20
36.24484860517147
 30
0.0
 10
167.9711011730867
 20
36.15697553576395
 30
0.0
 10
168.0532387097727
 20
36.07423401804957
 30
0.0
 10
168.1417787446954
 20
35.99587799795518
 30
0.0
 10
168.2382370831932
 20
35.9211614214076
 30
0.0
 10
168.3441295306047
 20
35.84933823433372
 30
0.0
 10
168.4609718922684
 20
35.77966238266035
 30
0.0
 10
168.5999218555129
 20
35.70688227295025
 30
0.0
 10
168.7533572433777
 20
35.63734251868161
 30
0.0
 10
168.9214188399832
 20
35.57267098299393
 30
0.0
 10
169.10424742945
 20
35.51449552902657
 30
0.0
 10
169.3019837958987
 20
35.46444401991895
 30
0.0
 10
169.5147687234499
 20
35.42414431881054
 30
0.0
 10
169.742742996224
 20
35.39522428884071
 30
0.0
 10
169.9860473983418
 20
35.37931179314892
 30
0.0
 10
170.2448227139236
 20
35.37803469487457
 30
0.0
 10
170.5290512572761
 20
35.38584952449677
 30
0.0
 10
170.8139423257373
 20
35.40943858022688
 30
0.0
 10
171.0981835120091
 20
35.4489119638496
 30
0.0
 10
171.3804481219209
 20
35.50423387728592
 30
0.0
 10
171.6594155003299
 20
35.57522091739236
 30
0.0
 10
171.9337914998247
 20
35.66154377077486
 30
0.0
 10
172.2023284311315
 20
35.76273229044097
 30
0.0
 10
172.4638438523356
 20
35.87818379069809
 30
0.0
 10
172.7172376075405
 20
36.00717426027418
 30
0.0
  0
SPLINE
  5
1ED
330
1F
100
AcDbEntity
  8
Standard
  6
Continuous
 62
     7
 48
25.4
100
AcDbSpline
210
0.0
220
0.0
230
1.0
 70
    11
 71
     1
 72
    84
 73
    82
 74
     0
 42
0.0000000001
 43
0.0000000001
 40
0.0
 40
0.0
 40
0.0123456790123457
 40
0.0246913580246914
 40
0.037037037037037
 40
0.0493827160493827
 40
0.0617283950617284
 40
0.0740740740740741
 40
0.0864197530864197
 40
0.0987654320987654
 40
0.1111111111111111
 40
0.1234567901234568
 40
0.1358024691358025
 40
0.1481481481481481
 40
0.1604938271604938
 40
0.1728395061728395
 40
0.1851851851851852
 40
0.1975308641975309
 40
0.2098765432098765
 40
0.2222222222222222
 40
0.2345679012345679
 40
0.2469135802469136
 40
0.2592592592592592
 40
0.2716049382716049
 40
0.2839506172839506
 40
0.2962962962962963
 40
0.308641975308642
 40
0.3209876543209876
 40
0.3333333333333333
 40
0.345679012345679
 40
0.3580246913580247
 40
0.3703703703703704
 40
0.382716049382716
 40
0.3950617283950617
 40
0.4074074074074074
 40
0.4197530864197531
 40
0.4320987654320987
 40
0.4444444444444444
 40
0.4567901234567901
 40
0.4691358024691358
 40
0.4814814814814815
 40
0.4938271604938271
 40
0.5061728395061729
 40
0.5185185185185185
 40
0.5308641975308641
 40
0.5432098765432099
 40
0.5555555555555556
 40
0.5679012345679012
 40
0.5802469135802468
 40
0.5925925925925926
 40
0.6049382716049383
 40
0.6172839506172839
 40
0.6296296296296295
 40
0.6419753086419753
 40
0.654320987654321
 40
0.6666666666666666
 40
0.6790123456790123
 40
0.691358024691358
 40
0.7037037037037037
 40
0.7160493827160493
 40
0.728395061728395
 40
0.7407407407407407
 40
0.7530864197530864
 40
0.7654320987654321
 40
0.7777777777777777
 40
0.7901234567901234
 40
0.8024691358024692
 40
0.8148148148148148
 40
0.8271604938271604
 40
0.8395061728395061
 40
0.8518518518518519
 40
0.8641975308641975
 40
0.8765432098765431
 40
0.8888888888888888
 40
0.9012345679012346
 40
0.9135802469135802
 40
0.9259259259259258
 40
0.9382716049382716
 40
0.9506172839506173
 40
0.9629629629629629
 40
0.9753086419753085
 40
0.9876543209876543
 40
1.0
 40
1.0
 10
178.3239249654455
 20
39.14238211211093
 30
0.0
 10
178.3183255861878
 20
39.29451473095851
 30
0.0
 10
178.3029148266429
 20
39.43248724584884
 30
0.0
 10
178.2790173924239
 20
39.55743542938495
 30
0.0
 10
178.2479579891439
 20
39.67049505417
 30
0.0
 10
178.2110613224162
 20
39.77280189280702
 30
0.0
 10
178.1696520978538
 20
39.86549171789918
 30
0.0
 10
178.1019750085993
 20
39.98897905770999
 30
0.0
 10
178.031596133291
 20
40.09721683793724
 30
0.0
 10
177.9635588392812
 20
40.19119068116036
 30
0.0
 10
177.893960006104
 20
40.27584882257234
 30
0.0
 10
177.8195636236611
 20
40.35268125680999
 30
0.0
 10
177.7371336818544
 20
40.42317797851011
 30
0.0
 10
177.6434341705854
 20
40.48882898230956
 30
0.0
 10
177.535229079756
 20
40.55112426284511
 30
0.0
 10
177.3999600990802
 20
40.61506720493097
 30
0.0
 10
177.2439748392668
 20
40.67361208797514
 30
0.0
 10
177.1283272011856
 20
40.70803759958527
 30
0.0
 10
177.003249696572
 20
40.73765574074933
 30
0.0
 10
176.8686532728818
 20
40.76150321822964
 30
0.0
 10
176.724448877571
 20
40.77861673878849
 30
0.0
 10
176.5705474580954
 20
40.78803300918823
 30
0.0
 10
176.4068599619111
 20
40.78878873619118
 30
0.0
 10
173.8577386713705
 20
40.7887887361912
 30
0.0
 10
173.8577386713705
 20
35.53234701839971
 30
0.0
 10
175.2534567564767
 20
35.5323470183997
 30
0.0
 10
175.2534567564767
 20
39.78397004924694
 30
0.0
 10
176.1576246130663
 20
39.78397004924695
 30
0.0
 10
176.2589290341562
 20
39.78171486896078
 30
0.0
 10
176.3510526174439
 20
39.77011577462304
 30
0.0
 10
176.4341212530998
 20
39.75082352601168
 30
0.0
 10
176.5082608312942
 20
39.72548888290466
 30
0.0
 10
176.5735972421976
 20
39.69576260507992
 30
0.0
 10
176.6302563759805
 20
39.66329545231538
 30
0.0
 10
176.6892700245421
 20
39.62078010791478
 30
0.0
 10
176.7382853941597
 20
39.57478732787796
 30
0.0
 10
176.7805153891441
 20
39.52352381403737
 30
0.0
 10
176.809667746029
 20
39.48053847866927
 30
0.0
 10
176.8381660323639
 20
39.43282307765289
 30
0.0
 10
176.867645119821
 20
39.37786513497936
 30
0.0
 10
176.8959925298107
 20
39.31516419887387
 30
0.0
 10
176.9213355767503
 20
39.24277393808777
 30
0.0
 10
176.9418015750573
 20
39.15874802137248
 30
0.0
 10
176.9555178391489
 20
39.06114011747932
 30
0.0
 10
176.9606116834426
 20
38.94800389515972
 30
0.0
 10
176.9555178391489
 20
38.83486767284018
 30
0.0
 10
176.9418015750573
 20
38.7372597689471
 30
0.0
 10
176.9213355767503
 20
38.65323385223184
 30
0.0
 10
176.8959925298107
 20
38.58084359144576
 30
0.0
 10
176.867645119821
 20
38.51814265534028
 30
0.0
 10
176.8381660323639
 20
38.46318471266676
 30
0.0
 10
176.8000899037461
 20
38.40065266405635
 30
0.0
 10
176.7600477569616
 20
38.34608129650103
 30
0.0
 10
176.7148266876995
 20
38.29767731183326
 30
0.0
 10
176.6755794551274
 20
38.26434288742347
 30
0.0
 10
176.6302563759805
 20
38.23271233800426
 30
0.0
 10
176.5807801808744
 20
38.20399108997234
 30
0.0
 10
176.5245776008662
 20
38.17724587688336
 30
0.0
 10
176.4615624943485
 20
38.15360624761472
 30
0.0
 10
176.3916487197139
 20
38.1342017510439
 30
0.0
 10
176.3147501353551
 20
38.1201619360483
 30
0.0
 10
176.2307805996647
 20
38.1126163515054
 30
0.0
 10
175.4289184586045
 20
38.11261635147373
 30
0.0
 10
177.3589971820088
 20
35.5323470183997
 30
0.0
 10
179.0897132710516
 20
35.5323470183997
 30
0.0
 10
177.3293117683367
 20
37.64133527362854
 30
0.0
 10
177.4378413884242
 20
37.68626314565116
 30
0.0
 10
177.535229079756
 20
37.73363996137686
 30
0.0
 10
177.6434341705854
 20
37.79593524191246
 30
0.0
 10
177.7371336818544
 20
37.86158624571191
 30
0.0
 10
177.8195636236612
 20
37.93208296741202
 30
0.0
 10
177.893960006104
 20
38.00891540164967
 30
0.0
 10
177.9635588392812
 20
38.09357354306162
 30
0.0
 10
178.031596133291
 20
38.18754738628473
 30
0.0
 10
178.1019750085993
 20
38.29578516651197
 30
0.0
 10
178.1696520978538
 20
38.41927250632281
 30
0.0
 10
178.2110613224162
 20
38.51196233141494
 30
0.0
 10
178.2479579891439
 20
38.61426917005198
 30
0.0
 10
178.2790173924239
 20
38.727328794837
 30
0.0
 10
178.3029148266429
 20
38.8522769783731
 30
0.0
 10
178.3183255861878
 20
38.99024949326337
 30
0.0
 10
178.3239249654455
 20
39.14238211211093
 30
0.0
  0
SPLINE
  5
1EE
330
1F
100
AcDbEntity
  8
Standard
  6
Continuous
 62
     7
 48
25.4
100
AcDbSpline
210
0.0
220
0.0
230
1.0
 70
    11
 71
     1
 72
    89
 73
    87
 74
     0
 42
0.0000000001
 43
0.0000000001
 40
0.0
 40
0.0
 40
0.0116279069767442
 40
0.0232558139534884
 40
0.0348837209302326
 40
0.0465116279069767
 40
0.0581395348837209
 40
0.0697674418604651
 40
0.0813953488372093
 40
0.0930232558139535
 40
0.1046511627906977
 40
0.1162790697674419
 40
0.1279069767441861
 40
0.1395348837209302
 40
0.1511627906976744
 40
0.1627906976744186
 40
0.1744186046511628
 40
0.186046511627907
 40
0.1976744186046512
 40
0.2093023255813953
 40
0.2209302325581395
 40
0.2325581395348837
 40
0.2441860465116279
 40
0.2558139534883721
 40
0.2674418604651163
 40
0.2790697674418605
 40
0.2906976744186047
 40
0.3023255813953488
 40
0.313953488372093
 40
0.3255813953488372
 40
0.3372093023255814
 40
0.3488372093023256
 40
0.3604651162790697
 40
0.372093023255814
 40
0.3837209302325582
 40
0.3953488372093023
 40
0.4069767441860465
 40
0.4186046511627907
 40
0.4302325581395349
 40
0.4418604651162791
 40
0.4534883720930232
 40
0.4651162790697674
 40
0.4767441860465116
 40
0.4883720930232558
 40
0.5
 40
0.5116279069767442
 40
0.5232558139534884
 40
0.5348837209302325
 40
0.5465116279069767
 40
0.5581395348837209
 40
0.5697674418604651
 40
0.5813953488372093
 40
0.5930232558139534
 40
0.6046511627906976
 40
0.6162790697674418
 40
0.6279069767441861
 40
0.6395348837209303
 40
0.6511627906976745
 40
0.6627906976744186
 40
0.6744186046511628
 40
0.686046511627907
 40
0.6976744186046512
 40
0.7093023255813954
 40
0.7209302325581395
 40
0.7325581395348837
 40
0.7441860465116279
 40
0.7558139534883721
 40
0.7674418604651163
 40
0.7790697674418604
 40
0.7906976744186046
 40
0.8023255813953488
 40
0.813953488372093
 40
0.8255813953488372
 40
0.8372093023255813
 40
0.8488372093023255
 40
0.8604651162790697
 40
0.872093023255814
 40
0.8837209302325582
 40
0.8953488372093024
 40
0.9069767441860465
 40
0.9186046511627907
 40
0.9302325581395349
 40
0.9418604651162791
 40
0.9534883720930233
 40
0.9651162790697674
 40
0.9767441860465116
 40
0.9883720930232558
 40
1.0
 40
1.0
 10
182.423459947966
 20
28.25293596718547
 30
0.0
 10
182.8539625981962
 20
28.2750368414231
 30
0.0
 10
183.2844646292467
 20
28.3302547538267
 30
0.0
 10
183.7149654779771
 20
28.41345757346127
 30
0.0
 10
184.1454645812468
 20
28.51951316939178
 30
0.0
 10
184.5759613759153
 20
28.64328941068323
 30
0.0
 10
185.2934493739534
 20
28.87502323702411
 30
0.0
 10
186.0109267877985
 20
29.11796529355262
 30
0.0
 10
186.7283910103185
 20
29.34835571482897
 30
0.0
 10
187.1588621274273
 20
29.47068107865071
 30
0.0
 10
187.5893269939509
 20
29.57480217128829
 30
0.0
 10
188.0197850467487
 20
29.6555868618067
 30
0.0
 10
188.45023572268
 20
29.70790301927091
 30
0.0
 10
188.8806784586044
 20
29.72661851274591
 30
0.0
 10
189.1366338681093
 20
29.7200716233551
 30
0.0
 10
189.3925868629529
 20
29.70090570054506
 30
0.0
 10
189.6485380351785
 20
29.67019758805393
 30
0.0
 10
189.9044879768289
 20
29.62902412961984
 30
0.0
 10
190.1604372799475
 20
29.57846216898094
 30
0.0
 10
190.4163865365774
 20
29.51958854987537
 30
0.0
 10
190.8003116294502
 20
29.41804935726918
 30
0.0
 10
191.1842399479659
 20
29.30386617914003
 30
0.0
 10
191.9125199479662
 20
29.66473885236155
 30
0.0
 10
191.4143414984801
 20
29.82941892453889
 30
0.0
 10
190.9161734823822
 20
29.98191597883798
 30
0.0
 10
190.5840651125878
 20
30.07289201528601
 30
0.0
 10
190.2519581467708
 20
30.152572892393
 30
0.0
 10
189.9198512916976
 20
30.21860641626755
 30
0.0
 10
189.5877432541345
 20
30.26864039301828
 30
0.0
 10
189.2556327408481
 20
30.30032262875378
 30
0.0
 10
188.9235184586046
 20
30.31130092958268
 30
0.0
 10
188.490220093844
 20
30.29234564294898
 30
0.0
 10
188.0569136871629
 20
30.23938090540868
 30
0.0
 10
187.6235998129844
 20
30.15764105077554
 30
0.0
 10
187.1902790457312
 20
30.05236041286331
 30
0.0
 10
186.7569519598263
 20
29.92877332548578
 30
0.0
 10
186.0347276686974
 20
29.69633055683516
 30
0.0
 10
185.3124900807424
 20
29.45180938273463
 30
0.0
 10
184.5902418553266
 20
29.21944283009975
 30
0.0
 10
184.1568889203918
 20
29.0959380560192
 30
0.0
 10
183.7235336877655
 20
28.99076716916963
 30
0.0
 10
183.2901767318705
 20
28.90916450336482
 30
0.0
 10
182.8568186271297
 20
28.8563643924185
 30
0.0
 10
182.4234599479661
 20
28.83760117014445
 30
0.0
 10
181.9901012688025
 20
28.8563643924185
 30
0.0
 10
181.5567431640617
 20
28.90916450336482
 30
0.0
 10
181.1233862081667
 20
28.99076716916963
 30
0.0
 10
180.6900309755404
 20
29.0959380560192
 30
0.0
 10
180.2566780406056
 20
29.21944283009976
 30
0.0
 10
179.5344298151898
 20
29.45180938273463
 30
0.0
 10
178.8121922272349
 20
29.69633055683516
 30
0.0
 10
178.089967936106
 20
29.92877332548578
 30
0.0
 10
177.6566408502011
 20
30.05236041286334
 30
0.0
 10
177.2233200829479
 20
30.15764105077556
 30
0.0
 10
176.7900062087694
 20
30.2393809054087
 30
0.0
 10
176.3566998020884
 20
30.29234564294901
 30
0.0
 10
175.9234014373278
 20
30.31130092958271
 30
0.0
 10
175.5912871550605
 20
30.30032262874577
 30
0.0
 10
175.2591766416072
 20
30.26864039295397
 30
0.0
 10
174.9270686035914
 20
30.21860641605047
 30
0.0
 10
174.5949617476365
 20
30.15257289187836
 30
0.0
 10
174.2628547803659
 20
30.07289201428083
 30
0.0
 10
173.930746408403
 20
29.981915977101
 30
0.0
 10
173.4325783873993
 20
29.82941892114634
 30
0.0
 10
172.9343999305946
 20
29.66473884649919
 30
0.0
 10
173.6626799479662
 20
29.30386617914019
 30
0.0
 10
174.046608266482
 20
29.4180493572693
 30
0.0
 10
174.4305333593549
 20
29.51958854987545
 30
0.0
 10
174.6864826159848
 20
29.578462168981
 30
0.0
 10
174.9424319191034
 20
29.62902412961988
 30
0.0
 10
175.1983818607539
 20
29.67019758805398
 30
0.0
 10
175.4543330329794
 20
29.70090570054511
 30
0.0
 10
175.710286027823
 20
29.72007162335515
 30
0.0
 10
175.9662414373279
 20
29.72661851274596
 30
0.0
 10
176.3966841732523
 20
29.70790301927096
 30
0.0
 10
176.8271348491837
 20
29.65558686180674
 30
0.0
 10
177.2575929019814
 20
29.57480217128832
 30
0.0
 10
177.688057768505
 20
29.47068107865074
 30
0.0
 10
178.1185288856139
 20
29.34835571482901
 30
0.0
 10
178.8359931081338
 20
29.11796529355265
 30
0.0
 10
179.553470521979
 20
28.87502323702412
 30
0.0
 10
180.270958520017
 20
28.64328941068324
 30
0.0
 10
180.7014553146854
 20
28.5195131693918
 30
0.0
 10
181.1319544179551
 20
28.41345757346128
 30
0.0
 10
181.5624552666855
 20
28.3302547538267
 30
0.0
 10
181.992957297736
 20
28.2750368414231
 30
0.0
 10
182.423459947966
 20
28.25293596718547
 30
0.0
  0
HATCH
  5
1EF
330
1F
100
AcDbEntity
  8
0
  6
Continuous
 62
   252
 48
25.4
100
AcDbHatch
 10
0.0
 20
0.0
 30
0.0
210
0.0
220
0.0
230
1.0
  2
SOLID
 70
     1
 71
     0
 91
        1
 92
        1
 93
       86
 72
     1
 10
182.423459947966
 20
28.25293596718547
 11
182.8539625981962
 21
28.2750368414231
 72
     1
 10
182.8539625981962
 20
28.2750368414231
 11
183.2844646292467
 21
28.3302547538267
 72
     1
 10
183.2844646292467
 20
28.3302547538267
 11
183.7149654779771
 21
28.41345757346127
 72
     1
 10
183.7149654779771
 20
28.41345757346127
 11
184.1454645812468
 21
28.51951316939178
 72
     1
 10
184.1454645812468
 20
28.51951316939178
 11
184.5759613759153
 21
28.64328941068323
 72
     1
 10
184.5759613759153
 20
28.64328941068323
 11
185.2934493739534
 21
28.87502323702411
 72
     1
 10
185.2934493739534
 20
28.87502323702411
 11
186.0109267877985
 21
29.11796529355262
 72
     1
 10
186.0109267877985
 20
29.11796529355262
 11
186.7283910103185
 21
29.34835571482897
 72
     1
 10
186.7283910103185
 20
29.34835571482897
 11
187.1588621274273
 21
29.47068107865071
 72
     1
 10
187.1588621274273
 20
29.47068107865071
 11
187.5893269939509
 21
29.57480217128829
 72
     1
 10
187.5893269939509
 20
29.57480217128829
 11
188.0197850467487
 21
29.6555868618067
 72
     1
 10
188.0197850467487
 20
29.6555868618067
 11
188.45023572268
 21
29.70790301927091
 72
     1
 10
188.45023572268
 20
29.70790301927091
 11
188.8806784586044
 21
29.72661851274591
 72
     1
 10
188.8806784586044
 20
29.72661851274591
 11
189.1366338681093
 21
29.7200716233551
 72
     1
 10
189.1366338681093
 20
29.7200716233551
 11
189.3925868629529
 21
29.70090570054506
 72
     1
 10
189.3925868629529
 20
29.70090570054506
 11
189.6485380351785
 21
29.67019758805393
 72
     1
 10
189.6485380351785
 20
29.67019758805393
 11
189.9044879768289
 21
29.62902412961984
 72
     1
 10
189.9044879768289
 20
29.62902412961984
 11
190.1604372799475
 21
29.57846216898094
 72
     1
 10
190.1604372799475
 20
29.57846216898094
 11
190.4163865365774
 21
29.51958854987537
 72
     1
 10
190.4163865365774
 20
29.51958854987537
 11
190.8003116294502
 21
29.41804935726918
 72
     1
 10
190.8003116294502
 20
29.41804935726918
 11
191.1842399479659
 21
29.30386617914003
 72
     1
 10
191.1842399479659
 20
29.30386617914003
 11
191.9125199479662
 21
29.66473885236155
 72
     1
 10
191.9125199479662
 20
29.66473885236155
 11
191.4143414984801
 21
29.82941892453889
 72
     1
 10
191.4143414984801
 20
29.82941892453889
 11
190.9161734823822
 21
29.98191597883798
 72
     1
 10
190.9161734823822
 20
29.98191597883798
 11
190.5840651125878
 21
30.07289201528601
 72
     1
 10
190.5840651125878
 20
30.07289201528601
 11
190.2519581467708
 21
30.152572892393
 72
     1
 10
190.2519581467708
 20
30.152572892393
 11
189.9198512916976
 21
30.21860641626755
 72
     1
 10
189.9198512916976
 20
30.21860641626755
 11
189.5877432541345
 21
30.26864039301828
 72
     1
 10
189.5877432541345
 20
30.26864039301828
 11
189.2556327408481
 21
30.30032262875378
 72
     1
 10
189.2556327408481
 20
30.30032262875378
 11
188.9235184586046
 21
30.31130092958268
 72
     1
 10
188.9235184586046
 20
30.31130092958268
 11
188.490220093844
 21
30.29234564294898
 72
     1
 10
188.490220093844
 20
30.29234564294898
 11
188.0569136871629
 21
30.23938090540868
 72
     1
 10
188.0569136871629
 20
30.23938090540868
 11
187.6235998129844
 21
30.15764105077554
 72
     1
 10
187.6235998129844
 20
30.15764105077554
 11
187.1902790457312
 21
30.05236041286331
 72
     1
 10
187.1902790457312
 20
30.05236041286331
 11
186.7569519598263
 21
29.92877332548578
 72
     1
 10
186.7569519598263
 20
29.92877332548578
 11
186.0347276686974
 21
29.69633055683516
 72
     1
 10
186.0347276686974
 20
29.69633055683516
 11
185.3124900807424
 21
29.45180938273463
 72
     1
 10
185.3124900807424
 20
29.45180938273463
 11
184.5902418553266
 21
29.21944283009975
 72
     1
 10
184.5902418553266
 20
29.21944283009975
 11
184.1568889203918
 21
29.0959380560192
 72
     1
 10
184.1568889203918
 20
29.0959380560192
 11
183.7235336877655
 21
28.99076716916963
 72
     1
 10
183.7235336877655
 20
28.99076716916963
 11
183.2901767318705
 21
28.90916450336482
 72
     1
 10
183.2901767318705
 20
28.90916450336482
 11
182.8568186271297
 21
28.8563643924185
 72
     1
 10
182.8568186271297
 20
28.8563643924185
 11
182.4234599479661
 21
28.83760117014445
 72
     1
 10
182.4234599479661
 20
28.83760117014445
 11
181.9901012688025
 21
28.8563643924185
 72
     1
 10
181.9901012688025
 20
28.8563643924185
 11
181.5567431640617
 21
28.90916450336482
 72
     1
 10
181.5567431640617
 20
28.90916450336482
 11
181.1233862081667
 21
28.99076716916963
 72
     1
 10
181.1233862081667
 20
28.99076716916963
 11
180.6900309755404
 21
29.0959380560192
 72
     1
 10
180.6900309755404
 20
29.0959380560192
 11
180.2566780406056
 21
29.21944283009976
 72
     1
 10
180.2566780406056
 20
29.21944283009976
 11
179.5344298151898
 21
29.45180938273463
 72
     1
 10
179.5344298151898
 20
29.45180938273463
 11
178.8121922272349
 21
29.69633055683516
 72
     1
 10
178.8121922272349
 20
29.69633055683516
 11
178.089967936106
 21
29.92877332548578
 72
     1
 10
178.089967936106
 20
29.92877332548578
 11
177.6566408502011
 21
30.05236041286334
 72
     1
 10
177.6566408502011
 20
30.05236041286334
 11
177.2233200829479
 21
30.15764105077556
 72
     1
 10
177.2233200829479
 20
30.15764105077556
 11
176.7900062087694
 21
30.2393809054087
 72
     1
 10
176.7900062087694
 20
30.2393809054087
 11
176.3566998020884
 21
30.29234564294901
 72
     1
 10
176.3566998020884
 20
30.29234564294901
 11
175.9234014373278
 21
30.31130092958271
 72
     1
 10
175.9234014373278
 20
30.31130092958271
 11
175.5912871550605
 21
30.30032262874577
 72
     1
 10
175.5912871550605
 20
30.30032262874577
 11
175.2591766416072
 21
30.26864039295397
 72
     1
 10
175.2591766416072
 20
30.26864039295397
 11
174.9270686035914
 21
30.21860641605047
 72
     1
 10
174.9270686035914
 20
30.21860641605047
 11
174.5949617476365
 21
30.15257289187836
 72
     1
 10
174.5949617476365
 20
30.15257289187836
 11
174.2628547803659
 21
30.07289201428083
 72
     1
 10
174.2628547803659
 20
30.07289201428083
 11
173.930746408403
 21
29.981915977101
 72
     1
 10
173.930746408403
 20
29.981915977101
 11
173.4325783873993
 21
29.82941892114634
 72
     1
 10
173.4325783873993
 20
29.82941892114634
 11
172.9343999305946
 21
29.66473884649919
 72
     1
 10
172.9343999305946
 20
29.66473884649919
 11
173.6626799479662
 21
29.30386617914019
 72
     1
 10
173.6626799479662
 20
29.30386617914019
 11
174.046608266482
 21
29.4180493572693
 72
     1
 10
174.046608266482
 20
29.4180493572693
 11
174.4305333593549
 21
29.51958854987545
 72
     1
 10
174.4305333593549
 20
29.51958854987545
 11
174.6864826159848
 21
29.578462168981
 72
     1
 10
174.6864826159848
 20
29.578462168981
 11
174.9424319191034
 21
29.62902412961988
 72
     1
 10
174.9424319191034
 20
29.62902412961988
 11
175.1983818607539
 21
29.67019758805398
 72
     1
 10
175.1983818607539
 20
29.67019758805398
 11
175.4543330329794
 21
29.70090570054511
 72
     1
 10
175.4543330329794
 20
29.70090570054511
 11
175.710286027823
 21
29.72007162335515
 72
     1
 10
175.710286027823
 20
29.72007162335515
 11
175.9662414373279
 21
29.72661851274596
 72
     1
 10
175.9662414373279
 20
29.72661851274596
 11
176.3966841732523
 21
29.70790301927096
 72
     1
 10
176.3966841732523
 20
29.70790301927096
 11
176.8271348491837
 21
29.65558686180674
 72
     1
 10
176.8271348491837
 20
29.65558686180674
 11
177.2575929019814
 21
29.57480217128832
 72
     1
 10
177.2575929019814
 20
29.57480217128832
 11
177.688057768505
 21
29.47068107865074
 72
     1
 10
177.688057768505
 20
29.47068107865074
 11
178.1185288856139
 21
29.34835571482901
 72
     1
 10
178.1185288856139
 20
29.34835571482901
 11
178.8359931081338
 21
29.11796529355265
 72
     1
 10
178.8359931081338
 20
29.11796529355265
 11
179.553470521979
 21
28.87502323702412
 72
     1
 10
179.553470521979
 20
28.87502323702412
 11
180.270958520017
 21
28.64328941068324
 72
     1
 10
180.270958520017
 20
28.64328941068324
 11
180.7014553146854
 21
28.5195131693918
 72
     1
 10
180.7014553146854
 20
28.5195131693918
 11
181.1319544179551
 21
28.41345757346128
 72
     1
 10
181.1319544179551
 20
28.41345757346128
 11
181.5624552666855
 21
28.3302547538267
 72
     1
 10
181.5624552666855
 20
28.3302547538267
 11
181.992957297736
 21
28.2750368414231
 72
     1
 10
181.992957297736
 20
28.2750368414231
 11
182.423459947966
 21
28.25293596718547
 97
        0
 75
     0
 76
     1
 98
        0
  0
POLYLINE
  5
1F0
330
1F
100
AcDbEntity
  8
0
  6
Continuous
 62
   252
 48
25.4
370
     0
100
AcDb2dPolyline
 66
     1
 10
0.0
 20
0.0
 30
0.0
 70
     1
  0
VERTEX
  5
1F1
330
1F0
100
AcDbEntity
  8
0
  6
Continuous
 62
   252
100
AcDbVertex
100
AcDb2dVertex
 10
182.423459948
 20
28.2529359672
 30
0.0
 70
     8
  0
VERTEX
  5
1F2
330
1F0
100
AcDbEntity
  8
0
  6
Continuous
 62
   252
100
AcDbVertex
100
AcDb2dVertex
 10
182.8539625982
 20
28.2750368414
 30
0.0
 70
     8
  0
VERTEX
  5
1F3
330
1F0
100
AcDbEntity
  8
0
  6
Continuous
 62
   252
100
AcDbVertex
100
AcDb2dVertex
 10
183.2844646292
 20
28.3302547538
 30
0.0
 70
     8
  0
VERTEX
  5
1F4
330
1F0
100
AcDbEntity
  8
0
  6
Continuous
 62
   252
100
AcDbVertex
100
AcDb2dVertex
 10
183.714965478
 20
28.4134575735
 30
0.0
 70
     8
  0
VERTEX
  5
1F5
330
1F0
100
AcDbEntity
  8
0
  6
Continuous
 62
   252
100
AcDbVertex
100
AcDb2dVertex
 10
184.1454645812
 20
28.5195131694
 30
0.0
 70
     8
  0
VERTEX
  5
1F6
330
1F0
100
AcDbEntity
  8
0
  6
Continuous
 62
   252
100
AcDbVertex
100
AcDb2dVertex
 10
184.5759613759
 20
28.6432894107
 30
0.0
 70
     8
  0
VERTEX
  5
1F7
330
1F0
100
AcDbEntity
  8
0
  6
Continuous
 62
   252
100
AcDbVertex
100
AcDb2dVertex
 10
185.293449374
 20
28.875023237
 30
0.0
 70
     8
  0
VERTEX
  5
1F8
330
1F0
100
AcDbEntity
  8
0
  6
Continuous
 62
   252
100
AcDbVertex
100
AcDb2dVertex
 10
186.0109267878
 20
29.1179652936
 30
0.0
 70
     8
  0
VERTEX
  5
1F9
330
1F0
100
AcDbEntity
  8
0
  6
Continuous
 62
   252
100
AcDbVertex
100
AcDb2dVertex
 10
186.7283910103
 20
29.3483557148
 30
0.0
 70
     8
  0
VERTEX
  5
1FA
330
1F0
100
AcDbEntity
  8
0
  6
Continuous
 62
   252
100
AcDbVertex
100
AcDb2dVertex
 10
187.1588621274
 20
29.4706810787
 30
0.0
 70
     8
  0
VERTEX
  5
1FB
330
1F0
100
AcDbEntity
  8
0
  6
Continuous
 62
   252
100
AcDbVertex
100
AcDb2dVertex
 10
187.589326994
 20
29.5748021713
 30
0.0
 70
     8
  0
VERTEX
  5
1FC
330
1F0
100
AcDbEntity
  8
0
  6
Continuous
 62
   252
100
AcDbVertex
100
AcDb2dVertex
 10
188.0197850467
 20
29.6555868618
 30
0.0
 70
     8
  0
VERTEX
  5
1FD
330
1F0
100
AcDbEntity
  8
0
  6
Continuous
 62
   252
100
AcDbVertex
100
AcDb2dVertex
 10
188.4502357227
 20
29.7079030193
 30
0.0
 70
     8
  0
VERTEX
  5
1FE
330
1F0
100
AcDbEntity
  8
0
  6
Continuous
 62
   252
100
AcDbVertex
100
AcDb2dVertex
 10
188.8806784586
 20
29.7266185127
 30
0.0
 70
     8
  0
VERTEX
  5
1FF
330
1F0
100
AcDbEntity
  8
0
  6
Continuous
 62
   252
100
AcDbVertex
100
AcDb2dVertex
 10
189.1366338681
 20
29.7200716234
 30
0.0
 70
     8
  0
VERTEX
  5
200
330
1F0
100
AcDbEntity
  8
0
  6
Continuous
 62
   252
100
AcDbVertex
100
AcDb2dVertex
 10
189.392586863
 20
29.7009057005
 30
0.0
 70
     8
  0
VERTEX
  5
201
330
1F0
100
AcDbEntity
  8
0
  6
Continuous
 62
   252
100
AcDbVertex
100
AcDb2dVertex
 10
189.6485380352
 20
29.6701975881
 30
0.0
 70
     8
  0
VERTEX
  5
202
330
1F0
100
AcDbEntity
  8
0
  6
Continuous
 62
   252
100
AcDbVertex
100
AcDb2dVertex
 10
189.9044879768
 20
29.6290241296
 30
0.0
 70
     8
  0
VERTEX
  5
203
330
1F0
100
AcDbEntity
  8
0
  6
Continuous
 62
   252
100
AcDbVertex
100
AcDb2dVertex
 10
190.1604372799
 20
29.578462169
 30
0.0
 70
     8
  0
VERTEX
  5
204
330
1F0
100
AcDbEntity
  8
0
  6
Continuous
 62
   252
100
AcDbVertex
100
AcDb2dVertex
 10
190.4163865366
 20
29.5195885499
 30
0.0
 70
     8
  0
VERTEX
  5
205
330
1F0
100
AcDbEntity
  8
0
  6
Continuous
 62
   252
100
AcDbVertex
100
AcDb2dVertex
 10
190.8003116295
 20
29.4180493573
 30
0.0
 70
     8
  0
VERTEX
  5
206
330
1F0
100
AcDbEntity
  8
0
  6
Continuous
 62
   252
100
AcDbVertex
100
AcDb2dVertex
 10
191.184239948
 20
29.3038661791
 30
0.0
 70
     8
  0
VERTEX
  5
207
330
1F0
100
AcDbEntity
  8
0
  6
Continuous
 62
   252
100
AcDbVertex
100
AcDb2dVertex
 10
191.912519948
 20
29.6647388524
 30
0.0
 70
     8
  0
VERTEX
  5
208
330
1F0
100
AcDbEntity
  8
0
  6
Continuous
 62
   252
100
AcDbVertex
100
AcDb2dVertex
 10
191.4143414985
 20
29.8294189245
 30
0.0
 70
     8
  0
VERTEX
  5
209
330
1F0
100
AcDbEntity
  8
0
  6
Continuous
 62
   252
100
AcDbVertex
100
AcDb2dVertex
 10
190.9161734824
 20
29.9819159788
 30
0.0
 70
     8
  0
VERTEX
  5
20A
330
1F0
100
AcDbEntity
  8
0
  6
Continuous
 62
   252
100
AcDbVertex
100
AcDb2dVertex
 10
190.5840651126
 20
30.0728920153
 30
0.0
 70
     8
  0
VERTEX
  5
20B
330
1F0
100
AcDbEntity
  8
0
  6
Continuous
 62
   252
100
AcDbVertex
100
AcDb2dVertex
 10
190.2519581468
 20
30.1525728924
 30
0.0
 70
     8
  0
VERTEX
  5
20C
330
1F0
100
AcDbEntity
  8
0
  6
Continuous
 62
   252
100
AcDbVertex
100
AcDb2dVertex
 10
189.9198512917
 20
30.2186064163
 30
0.0
 70
     8
  0
VERTEX
  5
20D
330
1F0
100
AcDbEntity
  8
0
  6
Continuous
 62
   252
100
AcDbVertex
100
AcDb2dVertex
 10
189.5877432541
 20
30.268640393
 30
0.0
 70
     8
  0
VERTEX
  5
20E
330
1F0
100
AcDbEntity
  8
0
  6
Continuous
 62
   252
100
AcDbVertex
100
AcDb2dVertex
 10
189.2556327408
 20
30.3003226288
 30
0.0
 70
     8
  0
VERTEX
  5
20F
330
1F0
100
AcDbEntity
  8
0
  6
Continuous
 62
   252
100
AcDbVertex
100
AcDb2dVertex
 10
188.9235184586
 20
30.3113009296
 30
0.0
 70
     8
  0
VERTEX
  5
210
330
1F0
100
AcDbEntity
  8
0
  6
Continuous
 62
   252
100
AcDbVertex
100
AcDb2dVertex
 10
188.4902200938
 20
30.2923456429
 30
0.0
 70
     8
  0
VERTEX
  5
211
330
1F0
100
AcDbEntity
  8
0
  6
Continuous
 62
   252
100
AcDbVertex
100
AcDb2dVertex
 10
188.0569136872
 20
30.2393809054
 30
0.0
 70
     8
  0
VERTEX
  5
212
330
1F0
100
AcDbEntity
  8
0
  6
Continuous
 62
   252
100
AcDbVertex
100
AcDb2dVertex
 10
187.623599813
 20
30.1576410508
 30
0.0
 70
     8
  0
VERTEX
  5
213
330
1F0
100
AcDbEntity
  8
0
  6
Continuous
 62
   252
100
AcDbVertex
100
AcDb2dVertex
 10
187.1902790457
 20
30.0523604129
 30
0.0
 70
     8
  0
VERTEX
  5
214
330
1F0
100
AcDbEntity
  8
0
  6
Continuous
 62
   252
100
AcDbVertex
100
AcDb2dVertex
 10
186.7569519598
 20
29.9287733255
 30
0.0
 70
     8
  0
VERTEX
  5
215
330
1F0
100
AcDbEntity
  8
0
  6
Continuous
 62
   252
100
AcDbVertex
100
AcDb2dVertex
 10
186.0347276687
 20
29.6963305568
 30
0.0
 70
     8
  0
VERTEX
  5
216
330
1F0
100
AcDbEntity
  8
0
  6
Continuous
 62
   252
100
AcDbVertex
100
AcDb2dVertex
 10
185.3124900807
 20
29.4518093827
 30
0.0
 70
     8
  0
VERTEX
  5
217
330
1F0
100
AcDbEntity
  8
0
  6
Continuous
 62
   252
100
AcDbVertex
100
AcDb2dVertex
 10
184.5902418553
 20
29.2194428301
 30
0.0
 70
     8
  0
VERTEX
  5
218
330
1F0
100
AcDbEntity
  8
0
  6
Continuous
 62
   252
100
AcDbVertex
100
AcDb2dVertex
 10
184.1568889204
 20
29.095938056
 30
0.0
 70
     8
  0
VERTEX
  5
219
330
1F0
100
AcDbEntity
  8
0
  6
Continuous
 62
   252
100
AcDbVertex
100
AcDb2dVertex
 10
183.7235336878
 20
28.9907671692
 30
0.0
 70
     8
  0
VERTEX
  5
21A
330
1F0
100
AcDbEntity
  8
0
  6
Continuous
 62
   252
100
AcDbVertex
100
AcDb2dVertex
 10
183.2901767319
 20
28.9091645034
 30
0.0
 70
     8
  0
VERTEX
  5
21B
330
1F0
100
AcDbEntity
  8
0
  6
Continuous
 62
   252
100
AcDbVertex
100
AcDb2dVertex
 10
182.8568186271
 20
28.8563643924
 30
0.0
 70
     8
  0
VERTEX
  5
21C
330
1F0
100
AcDbEntity
  8
0
  6
Continuous
 62
   252
100
AcDbVertex
100
AcDb2dVertex
 10
182.423459948
 20
28.8376011701
 30
0.0
 70
     8
  0
VERTEX
  5
21D
330
1F0
100
AcDbEntity
  8
0
  6
Continuous
 62
   252
100
AcDbVertex
100
AcDb2dVertex
 10
181.9901012688
 20
28.8563643924
 30
0.0
 70
     8
  0
VERTEX
  5
21E
330
1F0
100
AcDbEntity
  8
0
  6
Continuous
 62
   252
100
AcDbVertex
100
AcDb2dVertex
 10
181.5567431641
 20
28.9091645034
 30
0.0
 70
     8
  0
VERTEX
  5
21F
330
1F0
100
AcDbEntity
  8
0
  6
Continuous
 62
   252
100
AcDbVertex
100
AcDb2dVertex
 10
181.1233862082
 20
28.9907671692
 30
0.0
 70
     8
  0
VERTEX
  5
220
330
1F0
100
AcDbEntity
  8
0
  6
Continuous
 62
   252
100
AcDbVertex
100
AcDb2dVertex
 10
180.6900309755
 20
29.095938056
 30
0.0
 70
     8
  0
VERTEX
  5
221
330
1F0
100
AcDbEntity
  8
0
  6
Continuous
 62
   252
100
AcDbVertex
100
AcDb2dVertex
 10
180.2566780406
 20
29.2194428301
 30
0.0
 70
     8
  0
VERTEX
  5
222
330
1F0
100
AcDbEntity
  8
0
  6
Continuous
 62
   252
100
AcDbVertex
100
AcDb2dVertex
 10
179.5344298152
 20
29.4518093827
 30
0.0
 70
     8
  0
VERTEX
  5
223
330
1F0
100
AcDbEntity
  8
0
  6
Continuous
 62
   252
100
AcDbVertex
100
AcDb2dVertex
 10
178.8121922272
 20
29.6963305568
 30
0.0
 70
     8
  0
VERTEX
  5
224
330
1F0
100
AcDbEntity
  8
0
  6
Continuous
 62
   252
100
AcDbVertex
100
AcDb2dVertex
 10
178.0899679361
 20
29.9287733255
 30
0.0
 70
     8
  0
VERTEX
  5
225
330
1F0
100
AcDbEntity
  8
0
  6
Continuous
 62
   252
100
AcDbVertex
100
AcDb2dVertex
 10
177.6566408502
 20
30.0523604129
 30
0.0
 70
     8
  0
VERTEX
  5
226
330
1F0
100
AcDbEntity
  8
0
  6
Continuous
 62
   252
100
AcDbVertex
100
AcDb2dVertex
 10
177.2233200829
 20
30.1576410508
 30
0.0
 70
     8
  0
VERTEX
  5
227
330
1F0
100
AcDbEntity
  8
0
  6
Continuous
 62
   252
100
AcDbVertex
100
AcDb2dVertex
 10
176.7900062088
 20
30.2393809054
 30
0.0
 70
     8
  0
VERTEX
  5
228
330
1F0
100
AcDbEntity
  8
0
  6
Continuous
 62
   252
100
AcDbVertex
100
AcDb2dVertex
 10
176.3566998021
 20
30.2923456429
 30
0.0
 70
     8
  0
VERTEX
  5
229
330
1F0
100
AcDbEntity
  8
0
  6
Continuous
 62
   252
100
AcDbVertex
100
AcDb2dVertex
 10
175.9234014373
 20
30.3113009296
 30
0.0
 70
     8
  0
VERTEX
  5
22A
330
1F0
100
AcDbEntity
  8
0
  6
Continuous
 62
   252
100
AcDbVertex
100
AcDb2dVertex
 10
175.5912871551
 20
30.3003226287
 30
0.0
 70
     8
  0
VERTEX
  5
22B
330
1F0
100
AcDbEntity
  8
0
  6
Continuous
 62
   252
100
AcDbVertex
100
AcDb2dVertex
 10
175.2591766416
 20
30.268640393
 30
0.0
 70
     8
  0
VERTEX
  5
22C
330
1F0
100
AcDbEntity
  8
0
  6
Continuous
 62
   252
100
AcDbVertex
100
AcDb2dVertex
 10
174.9270686036
 20
30.2186064161
 30
0.0
 70
     8
  0
VERTEX
  5
22D
330
1F0
100
AcDbEntity
  8
0
  6
Continuous
 62
   252
100
AcDbVertex
100
AcDb2dVertex
 10
174.5949617476
 20
30.1525728919
 30
0.0
 70
     8
  0
VERTEX
  5
22E
330
1F0
100
AcDbEntity
  8
0
  6
Continuous
 62
   252
100
AcDbVertex
100
AcDb2dVertex
 10
174.2628547804
 20
30.0728920143
 30
0.0
 70
     8
  0
VERTEX
  5
22F
330
1F0
100
AcDbEntity
  8
0
  6
Continuous
 62
   252
100
AcDbVertex
100
AcDb2dVertex
 10
173.9307464084
 20
29.9819159771
 30
0.0
 70
     8
  0
VERTEX
  5
230
330
1F0
100
AcDbEntity
  8
0
  6
Continuous
 62
   252
100
AcDbVertex
100
AcDb2dVertex
 10
173.4325783874
 20
29.8294189211
 30
0.0
 70
     8
  0
VERTEX
  5
231
330
1F0
100
AcDbEntity
  8
0
  6
Continuous
 62
   252
100
AcDbVertex
100
AcDb2dVertex
 10
172.9343999306
 20
29.6647388465
 30
0.0
 70
     8
  0
VERTEX
  5
232
330
1F0
100
AcDbEntity
  8
0
  6
Continuous
 62
   252
100
AcDbVertex
100
AcDb2dVertex
 10
173.662679948
 20
29.3038661791
 30
0.0
 70
     8
  0
VERTEX
  5
233
330
1F0
100
AcDbEntity
  8
0
  6
Continuous
 62
   252
100
AcDbVertex
100
AcDb2dVertex
 10
174.0466082665
 20
29.4180493573
 30
0.0
 70
     8
  0
VERTEX
  5
234
330
1F0
100
AcDbEntity
  8
0
  6
Continuous
 62
   252
100
AcDbVertex
100
AcDb2dVertex
 10
174.4305333594
 20
29.5195885499
 30
0.0
 70
     8
  0
VERTEX
  5
235
330
1F0
100
AcDbEntity
  8
0
  6
Continuous
 62
   252
100
AcDbVertex
100
AcDb2dVertex
 10
174.686482616
 20
29.578462169
 30
0.0
 70
     8
  0
VERTEX
  5
236
330
1F0
100
AcDbEntity
  8
0
  6
Continuous
 62
   252
100
AcDbVertex
100
AcDb2dVertex
 10
174.9424319191
 20
29.6290241296
 30
0.0
 70
     8
  0
VERTEX
  5
237
330
1F0
100
AcDbEntity
  8
0
  6
Continuous
 62
   252
100
AcDbVertex
100
AcDb2dVertex
 10
175.1983818608
 20
29.6701975881
 30
0.0
 70
     8
  0
VERTEX
  5
238
330
1F0
100
AcDbEntity
  8
0
  6
Continuous
 62
   252
100
AcDbVertex
100
AcDb2dVertex
 10
175.454333033
 20
29.7009057005
 30
0.0
 70
     8
  0
VERTEX
  5
239
330
1F0
100
AcDbEntity
  8
0
  6
Continuous
 62
   252
100
AcDbVertex
100
AcDb2dVertex
 10
175.7102860278
 20
29.7200716234
 30
0.0
 70
     8
  0
VERTEX
  5
23A
330
1F0
100
AcDbEntity
  8
0
  6
Continuous
 62
   252
100
AcDbVertex
100
AcDb2dVertex
 10
175.9662414373
 20
29.7266185127
 30
0.0
 70
     8
  0
VERTEX
  5
23B
330
1F0
100
AcDbEntity
  8
0
  6
Continuous
 62
   252
100
AcDbVertex
100
AcDb2dVertex
 10
176.3966841733
 20
29.7079030193
 30
0.0
 70
     8
  0
VERTEX
  5
23C
330
1F0
100
AcDbEntity
  8
0
  6
Continuous
 62
   252
100
AcDbVertex
100
AcDb2dVertex
 10
176.8271348492
 20
29.6555868618
 30
0.0
 70
     8
  0
VERTEX
  5
23D
330
1F0
100
AcDbEntity
  8
0
  6
Continuous
 62
   252
100
AcDbVertex
100
AcDb2dVertex
 10
177.257592902
 20
29.5748021713
 30
0.0
 70
     8
  0
VERTEX
  5
23E
330
1F0
100
AcDbEntity
  8
0
  6
Continuous
 62
   252
100
AcDbVertex
100
AcDb2dVertex
 10
177.6880577685
 20
29.4706810787
 30
0.0
 70
     8
  0
VERTEX
  5
23F
330
1F0
100
AcDbEntity
  8
0
  6
Continuous
 62
   252
100
AcDbVertex
100
AcDb2dVertex
 10
178.1185288856
 20
29.3483557148
 30
0.0
 70
     8
  0
VERTEX
  5
240
330
1F0
100
AcDbEntity
  8
0
  6
Continuous
 62
   252
100
AcDbVertex
100
AcDb2dVertex
 10
178.8359931081
 20
29.1179652936
 30
0.0
 70
     8
  0
VERTEX
  5
241
330
1F0
100
AcDbEntity
  8
0
  6
Continuous
 62
   252
100
AcDbVertex
100
AcDb2dVertex
 10
179.553470522
 20
28.875023237
 30
0.0
 70
     8
  0
VERTEX
  5
242
330
1F0
100
AcDbEntity
  8
0
  6
Continuous
 62
   252
100
AcDbVertex
100
AcDb2dVertex
 10
180.27095852
 20
28.6432894107
 30
0.0
 70
     8
  0
VERTEX
  5
243
330
1F0
100
AcDbEntity
  8
0
  6
Continuous
 62
   252
100
AcDbVertex
100
AcDb2dVertex
 10
180.7014553147
 20
28.5195131694
 30
0.0
 70
     8
  0
VERTEX
  5
244
330
1F0
100
AcDbEntity
  8
0
  6
Continuous
 62
   252
100
AcDbVertex
100
AcDb2dVertex
 10
181.131954418
 20
28.4134575735
 30
0.0
 70
     8
  0
VERTEX
  5
245
330
1F0
100
AcDbEntity
  8
0
  6
Continuous
 62
   252
100
AcDbVertex
100
AcDb2dVertex
 10
181.5624552667
 20
28.3302547538
 30
0.0
 70
     8
  0
VERTEX
  5
246
330
1F0
100
AcDbEntity
  8
0
  6
Continuous
 62
   252
100
AcDbVertex
100
AcDb2dVertex
 10
181.9929572977
 20
28.2750368414
 30
0.0
 70
     8
  0
VERTEX
  5
247
330
1F0
100
AcDbEntity
  8
0
  6
Continuous
 62
   252
100
AcDbVertex
100
AcDb2dVertex
 10
182.423459948
 20
28.2529359672
 30
0.0
 70
     8
  0
SEQEND
  5
248
330
1F0
100
AcDbEntity
  8
0
  6
Continuous
 62
   252
 48
25.4
370
     0
  0
SPLINE
  5
249
330
1F
100
AcDbEntity
  8
Standard
  6
Continuous
 62
     7
 48
25.4
100
AcDbSpline
210
0.0
220
0.0
230
1.0
 70
    11
 71
     1
 72
    99
 73
    97
 74
     0
 42
0.0000000001
 43
0.0000000001
 40
0.0
 40
0.0
 40
0.0104166666666667
 40
0.0208333333333333
 40
0.03125
 40
0.0416666666666667
 40
0.0520833333333333
 40
0.0625
 40
0.0729166666666667
 40
0.0833333333333333
 40
0.09375
 40
0.1041666666666667
 40
0.1145833333333333
 40
0.125
 40
0.1354166666666667
 40
0.1458333333333333
 40
0.15625
 40
0.1666666666666667
 40
0.1770833333333333
 40
0.1875
 40
0.1979166666666667
 40
0.2083333333333333
 40
0.21875
 40
0.2291666666666667
 40
0.2395833333333333
 40
0.25
 40
0.2604166666666666
 40
0.2708333333333333
 40
0.28125
 40
0.2916666666666666
 40
0.3020833333333333
 40
0.3125
 40
0.3229166666666666
 40
0.3333333333333333
 40
0.34375
 40
0.3541666666666666
 40
0.3645833333333333
 40
0.375
 40
0.3854166666666666
 40
0.3958333333333333
 40
0.40625
 40
0.4166666666666666
 40
0.4270833333333333
 40
0.4375
 40
0.4479166666666666
 40
0.4583333333333333
 40
0.46875
 40
0.4791666666666666
 40
0.4895833333333333
 40
0.5
 40
0.5104166666666666
 40
0.5208333333333333
 40
0.53125
 40
0.5416666666666666
 40
0.5520833333333333
 40
0.5625
 40
0.5729166666666666
 40
0.5833333333333333
 40
0.59375
 40
0.6041666666666666
 40
0.6145833333333333
 40
0.625
 40
0.6354166666666666
 40
0.6458333333333333
 40
0.65625
 40
0.6666666666666666
 40
0.6770833333333333
 40
0.6875
 40
0.6979166666666666
 40
0.7083333333333333
 40
0.71875
 40
0.7291666666666666
 40
0.7395833333333333
 40
0.75
 40
0.7604166666666666
 40
0.7708333333333333
 40
0.78125
 40
0.7916666666666666
 40
0.8020833333333333
 40
0.8125
 40
0.8229166666666666
 40
0.8333333333333333
 40
0.84375
 40
0.8541666666666666
 40
0.8645833333333333
 40
0.875
 40
0.8854166666666666
 40
0.8958333333333333
 40
0.90625
 40
0.9166666666666666
 40
0.9270833333333333
 40
0.9375
 40
0.9479166666666666
 40
0.9583333333333333
 40
0.96875
 40
0.9791666666666666
 40
0.9895833333333333
 40
1.0
 40
1.0
 10
182.423459947966
 20
30.31062320122798
 30
0.0
 10
182.8539625981962
 20
30.33272407546561
 30
0.0
 10
183.2844646292467
 20
30.38794198786921
 30
0.0
 10
183.7149654779771
 20
30.47114480750378
 30
0.0
 10
184.1454645812468
 20
30.57720040343427
 30
0.0
 10
184.5759613759152
 20
30.70097664472572
 30
0.0
 10
185.2934493739533
 20
30.93271047106657
 30
0.0
 10
186.0109267877985
 20
31.17565252759512
 30
0.0
 10
186.7283910103184
 20
31.40604294887146
 30
0.0
 10
187.1588621274273
 20
31.52836831269319
 30
0.0
 10
187.5893269939509
 20
31.63248940533079
 30
0.0
 10
188.0197850467487
 20
31.71327409584917
 30
0.0
 10
188.4502357226801
 20
31.7655902533134
 30
0.0
 10
188.8806784586045
 20
31.7843057467884
 30
0.0
 10
189.1186825108234
 20
31.77864203141938
 30
0.0
 10
189.3566844393055
 20
31.76200198124325
 30
0.0
 10
189.5946847200574
 20
31.73525138579977
 30
0.0
 10
189.8326838290856
 20
31.69925603462866
 30
0.0
 10
190.0706822423969
 20
31.65488171726969
 30
0.0
 10
190.3086804359978
 20
31.60299422326261
 30
0.0
 10
190.6656783557067
 20
31.51296969065495
 30
0.0
 10
191.0226784586044
 20
31.41091057675011
 30
0.0
 10
193.7332199479662
 20
30.59773391431092
 30
0.0
 10
193.9134027517615
 20
30.7385815601617
 30
0.0
 10
194.0850648096406
 20
30.89000228723946
 30
0.0
 10
194.1674135499361
 20
30.96943185794425
 30
0.0
 10
194.247299947966
 20
31.05119677231163
 30
0.0
 10
191.0226784586044
 20
32.00842131150859
 30
0.0
 10
190.672818642646
 20
32.10727516492544
 30
0.0
 10
190.3229607691328
 20
32.19429176937082
 30
0.0
 10
190.0897225192373
 20
32.24436862577464
 30
0.0
 10
189.8564840126164
 20
32.28714753693884
 30
0.0
 10
189.6232448012564
 20
32.32181372458469
 30
0.0
 10
189.3900044371436
 20
32.34755241043352
 30
0.0
 10
189.1567624722642
 20
32.36354881620657
 30
0.0
 10
188.9235184586045
 20
32.36898816362518
 30
0.0
 10
188.4902200938439
 20
32.35003287699149
 30
0.0
 10
188.0569136871629
 20
32.29706813945118
 30
0.0
 10
187.6235998129843
 20
32.21532828481804
 30
0.0
 10
187.1902790457312
 20
32.11004764690581
 30
0.0
 10
186.7569519598263
 20
31.98646055952827
 30
0.0
 10
186.0347276686974
 20
31.75401779087763
 30
0.0
 10
185.3124900807424
 20
31.50949661677712
 30
0.0
 10
184.5902418553266
 20
31.27713006414223
 30
0.0
 10
184.1568889203918
 20
31.15362529006169
 30
0.0
 10
183.7235336877655
 20
31.04845440321211
 30
0.0
 10
183.2901767318705
 20
30.96685173740729
 30
0.0
 10
182.8568186271297
 20
30.91405162646099
 30
0.0
 10
182.4234599479661
 20
30.89528840418694
 30
0.0
 10
181.9901012688025
 20
30.91405162646099
 30
0.0
 10
181.5567431640617
 20
30.96685173740731
 30
0.0
 10
181.1233862081667
 20
31.04845440321215
 30
0.0
 10
180.6900309755404
 20
31.15362529006171
 30
0.0
 10
180.2566780406056
 20
31.27713006414227
 30
0.0
 10
179.5344298151898
 20
31.50949661677716
 30
0.0
 10
178.8121922272349
 20
31.75401779087771
 30
0.0
 10
178.089967936106
 20
31.98646055952832
 30
0.0
 10
177.6566408502011
 20
32.11004764690586
 30
0.0
 10
177.2233200829479
 20
32.21532828481809
 30
0.0
 10
176.7900062087694
 20
32.29706813945124
 30
0.0
 10
176.3566998020884
 20
32.35003287699154
 30
0.0
 10
175.9234014373279
 20
32.36898816362524
 30
0.0
 10
175.6901574236682
 20
32.36354881620662
 30
0.0
 10
175.4569154587888
 20
32.34755241043356
 30
0.0
 10
175.2236750946759
 20
32.32181372458474
 30
0.0
 10
174.990435883316
 20
32.28714753693889
 30
0.0
 10
174.7571973766951
 20
32.24436862577471
 30
0.0
 10
174.5239591267996
 20
32.19429176937087
 30
0.0
 10
174.1741012532864
 20
32.10727516492549
 30
0.0
 10
173.8242414373279
 20
32.00842131150865
 30
0.0
 10
170.5996199479661
 20
31.05119677231171
 30
0.0
 10
170.7618550862918
 20
30.89000228723954
 30
0.0
 10
170.9335171441709
 20
30.73858156016177
 30
0.0
 10
171.0226036689285
 20
30.6667904546038
 30
0.0
 10
171.1136999479661
 20
30.59773391431098
 30
0.0
 10
173.8242414373279
 20
31.41091057675016
 30
0.0
 10
174.1812415402257
 20
31.51296969065499
 30
0.0
 10
174.5382394599345
 20
31.60299422326264
 30
0.0
 10
174.7762376535354
 20
31.65488171726974
 30
0.0
 10
175.0142360668467
 20
31.69925603462869
 30
0.0
 10
175.2522351758749
 20
31.7352513857998
 30
0.0
 10
175.4902354566268
 20
31.76200198124328
 30
0.0
 10
175.7282373851089
 20
31.77864203141941
 30
0.0
 10
175.9662414373279
 20
31.78430574678842
 30
0.0
 10
176.3966841732523
 20
31.76559025331342
 30
0.0
 10
176.8271348491837
 20
31.7132740958492
 30
0.0
 10
177.2575929019814
 20
31.6324894053308
 30
0.0
 10
177.6880577685051
 20
31.52836831269321
 30
0.0
 10
178.1185288856139
 20
31.40604294887146
 30
0.0
 10
178.8359931081339
 20
31.17565252759513
 30
0.0
 10
179.553470521979
 20
30.9327104710666
 30
0.0
 10
180.2709585200171
 20
30.70097664472574
 30
0.0
 10
180.7014553146854
 20
30.57720040343429
 30
0.0
 10
181.1319544179551
 20
30.47114480750379
 30
0.0
 10
181.5624552666855
 20
30.38794198786921
 30
0.0
 10
181.992957297736
 20
30.33272407546561
 30
0.0
 10
182.423459947966
 20
30.31062320122798
 30
0.0
  0
HATCH
  5
24A
330
1F
100
AcDbEntity
  8
0
  6
Continuous
 62
   252
 48
25.4
100
AcDbHatch
 10
0.0
 20
0.0
 30
0.0
210
0.0
220
0.0
230
1.0
  2
SOLID
 70
     1
 71
     0
 91
        1
 92
        1
 93
       96
 72
     1
 10
182.423459947966
 20
30.31062320122798
 11
182.8539625981962
 21
30.33272407546561
 72
     1
 10
182.8539625981962
 20
30.33272407546561
 11
183.2844646292467
 21
30.38794198786921
 72
     1
 10
183.2844646292467
 20
30.38794198786921
 11
183.7149654779771
 21
30.47114480750378
 72
     1
 10
183.7149654779771
 20
30.47114480750378
 11
184.1454645812468
 21
30.57720040343427
 72
     1
 10
184.1454645812468
 20
30.57720040343427
 11
184.5759613759152
 21
30.70097664472572
 72
     1
 10
184.5759613759152
 20
30.70097664472572
 11
185.2934493739533
 21
30.93271047106657
 72
     1
 10
185.2934493739533
 20
30.93271047106657
 11
186.0109267877985
 21
31.17565252759512
 72
     1
 10
186.0109267877985
 20
31.17565252759512
 11
186.7283910103184
 21
31.40604294887146
 72
     1
 10
186.7283910103184
 20
31.40604294887146
 11
187.1588621274273
 21
31.52836831269319
 72
     1
 10
187.1588621274273
 20
31.52836831269319
 11
187.5893269939509
 21
31.63248940533079
 72
     1
 10
187.5893269939509
 20
31.63248940533079
 11
188.0197850467487
 21
31.71327409584917
 72
     1
 10
188.0197850467487
 20
31.71327409584917
 11
188.4502357226801
 21
31.7655902533134
 72
     1
 10
188.4502357226801
 20
31.7655902533134
 11
188.8806784586045
 21
31.7843057467884
 72
     1
 10
188.8806784586045
 20
31.7843057467884
 11
189.1186825108234
 21
31.77864203141938
 72
     1
 10
189.1186825108234
 20
31.77864203141938
 11
189.3566844393055
 21
31.76200198124325
 72
     1
 10
189.3566844393055
 20
31.76200198124325
 11
189.5946847200574
 21
31.73525138579977
 72
     1
 10
189.5946847200574
 20
31.73525138579977
 11
189.8326838290856
 21
31.69925603462866
 72
     1
 10
189.8326838290856
 20
31.69925603462866
 11
190.0706822423969
 21
31.65488171726969
 72
     1
 10
190.0706822423969
 20
31.65488171726969
 11
190.3086804359978
 21
31.60299422326261
 72
     1
 10
190.3086804359978
 20
31.60299422326261
 11
190.6656783557067
 21
31.51296969065495
 72
     1
 10
190.6656783557067
 20
31.51296969065495
 11
191.0226784586044
 21
31.41091057675011
 72
     1
 10
191.0226784586044
 20
31.41091057675011
 11
193.7332199479662
 21
30.59773391431092
 72
     1
 10
193.7332199479662
 20
30.59773391431092
 11
193.9134027517615
 21
30.7385815601617
 72
     1
 10
193.9134027517615
 20
30.7385815601617
 11
194.0850648096406
 21
30.89000228723946
 72
     1
 10
194.0850648096406
 20
30.89000228723946
 11
194.1674135499361
 21
30.96943185794425
 72
     1
 10
194.1674135499361
 20
30.96943185794425
 11
194.247299947966
 21
31.05119677231163
 72
     1
 10
194.247299947966
 20
31.05119677231163
 11
191.0226784586044
 21
32.00842131150859
 72
     1
 10
191.0226784586044
 20
32.00842131150859
 11
190.672818642646
 21
32.10727516492544
 72
     1
 10
190.672818642646
 20
32.10727516492544
 11
190.3229607691328
 21
32.19429176937082
 72
     1
 10
190.3229607691328
 20
32.19429176937082
 11
190.0897225192373
 21
32.24436862577464
 72
     1
 10
190.0897225192373
 20
32.24436862577464
 11
189.8564840126164
 21
32.28714753693884
 72
     1
 10
189.8564840126164
 20
32.28714753693884
 11
189.6232448012564
 21
32.32181372458469
 72
     1
 10
189.6232448012564
 20
32.32181372458469
 11
189.3900044371436
 21
32.34755241043352
 72
     1
 10
189.3900044371436
 20
32.34755241043352
 11
189.1567624722642
 21
32.36354881620657
 72
     1
 10
189.1567624722642
 20
32.36354881620657
 11
188.9235184586045
 21
32.36898816362518
 72
     1
 10
188.9235184586045
 20
32.36898816362518
 11
188.4902200938439
 21
32.35003287699149
 72
     1
 10
188.4902200938439
 20
32.35003287699149
 11
188.0569136871629
 21
32.29706813945118
 72
     1
 10
188.0569136871629
 20
32.29706813945118
 11
187.6235998129843
 21
32.21532828481804
 72
     1
 10
187.6235998129843
 20
32.21532828481804
 11
187.1902790457312
 21
32.11004764690581
 72
     1
 10
187.1902790457312
 20
32.11004764690581
 11
186.7569519598263
 21
31.98646055952827
 72
     1
 10
186.7569519598263
 20
31.98646055952827
 11
186.0347276686974
 21
31.75401779087763
 72
     1
 10
186.0347276686974
 20
31.75401779087763
 11
185.3124900807424
 21
31.50949661677712
 72
     1
 10
185.3124900807424
 20
31.50949661677712
 11
184.5902418553266
 21
31.27713006414223
 72
     1
 10
184.5902418553266
 20
31.27713006414223
 11
184.1568889203918
 21
31.15362529006169
 72
     1
 10
184.1568889203918
 20
31.15362529006169
 11
183.7235336877655
 21
31.04845440321211
 72
     1
 10
183.7235336877655
 20
31.04845440321211
 11
183.2901767318705
 21
30.96685173740729
 72
     1
 10
183.2901767318705
 20
30.96685173740729
 11
182.8568186271297
 21
30.91405162646099
 72
     1
 10
182.8568186271297
 20
30.91405162646099
 11
182.4234599479661
 21
30.89528840418694
 72
     1
 10
182.4234599479661
 20
30.89528840418694
 11
181.9901012688025
 21
30.91405162646099
 72
     1
 10
181.9901012688025
 20
30.91405162646099
 11
181.5567431640617
 21
30.96685173740731
 72
     1
 10
181.5567431640617
 20
30.96685173740731
 11
181.1233862081667
 21
31.04845440321215
 72
     1
 10
181.1233862081667
 20
31.04845440321215
 11
180.6900309755404
 21
31.15362529006171
 72
     1
 10
180.6900309755404
 20
31.15362529006171
 11
180.2566780406056
 21
31.27713006414227
 72
     1
 10
180.2566780406056
 20
31.27713006414227
 11
179.5344298151898
 21
31.50949661677716
 72
     1
 10
179.5344298151898
 20
31.50949661677716
 11
178.8121922272349
 21
31.75401779087771
 72
     1
 10
178.8121922272349
 20
31.75401779087771
 11
178.089967936106
 21
31.98646055952832
 72
     1
 10
178.089967936106
 20
31.98646055952832
 11
177.6566408502011
 21
32.11004764690586
 72
     1
 10
177.6566408502011
 20
32.11004764690586
 11
177.2233200829479
 21
32.21532828481809
 72
     1
 10
177.2233200829479
 20
32.21532828481809
 11
176.7900062087694
 21
32.29706813945124
 72
     1
 10
176.7900062087694
 20
32.29706813945124
 11
176.3566998020884
 21
32.35003287699154
 72
     1
 10
176.3566998020884
 20
32.35003287699154
 11
175.9234014373279
 21
32.36898816362524
 72
     1
 10
175.9234014373279
 20
32.36898816362524
 11
175.6901574236682
 21
32.36354881620662
 72
     1
 10
175.6901574236682
 20
32.36354881620662
 11
175.4569154587888
 21
32.34755241043356
 72
     1
 10
175.4569154587888
 20
32.34755241043356
 11
175.2236750946759
 21
32.32181372458474
 72
     1
 10
175.2236750946759
 20
32.32181372458474
 11
174.990435883316
 21
32.28714753693889
 72
     1
 10
174.990435883316
 20
32.28714753693889
 11
174.7571973766951
 21
32.24436862577471
 72
     1
 10
174.7571973766951
 20
32.24436862577471
 11
174.5239591267996
 21
32.19429176937087
 72
     1
 10
174.5239591267996
 20
32.19429176937087
 11
174.1741012532864
 21
32.10727516492549
 72
     1
 10
174.1741012532864
 20
32.10727516492549
 11
173.8242414373279
 21
32.00842131150865
 72
     1
 10
173.8242414373279
 20
32.00842131150865
 11
170.5996199479661
 21
31.05119677231171
 72
     1
 10
170.5996199479661
 20
31.05119677231171
 11
170.7618550862918
 21
30.89000228723954
 72
     1
 10
170.7618550862918
 20
30.89000228723954
 11
170.9335171441709
 21
30.73858156016177
 72
     1
 10
170.9335171441709
 20
30.73858156016177
 11
171.0226036689285
 21
30.6667904546038
 72
     1
 10
171.0226036689285
 20
30.6667904546038
 11
171.1136999479661
 21
30.59773391431098
 72
     1
 10
171.1136999479661
 20
30.59773391431098
 11
173.8242414373279
 21
31.41091057675016
 72
     1
 10
173.8242414373279
 20
31.41091057675016
 11
174.1812415402257
 21
31.51296969065499
 72
     1
 10
174.1812415402257
 20
31.51296969065499
 11
174.5382394599345
 21
31.60299422326264
 72
     1
 10
174.5382394599345
 20
31.60299422326264
 11
174.7762376535354
 21
31.65488171726974
 72
     1
 10
174.7762376535354
 20
31.65488171726974
 11
175.0142360668467
 21
31.69925603462869
 72
     1
 10
175.0142360668467
 20
31.69925603462869
 11
175.2522351758749
 21
31.7352513857998
 72
     1
 10
175.2522351758749
 20
31.7352513857998
 11
175.4902354566268
 21
31.76200198124328
 72
     1
 10
175.4902354566268
 20
31.76200198124328
 11
175.7282373851089
 21
31.77864203141941
 72
     1
 10
175.7282373851089
 20
31.77864203141941
 11
175.9662414373279
 21
31.78430574678842
 72
     1
 10
175.9662414373279
 20
31.78430574678842
 11
176.3966841732523
 21
31.76559025331342
 72
     1
 10
176.3966841732523
 20
31.76559025331342
 11
176.8271348491837
 21
31.7132740958492
 72
     1
 10
176.8271348491837
 20
31.7132740958492
 11
177.2575929019814
 21
31.6324894053308
 72
     1
 10
177.2575929019814
 20
31.6324894053308
 11
177.6880577685051
 21
31.52836831269321
 72
     1
 10
177.6880577685051
 20
31.52836831269321
 11
178.1185288856139
 21
31.40604294887146
 72
     1
 10
178.1185288856139
 20
31.40604294887146
 11
178.8359931081339
 21
31.17565252759513
 72
     1
 10
178.8359931081339
 20
31.17565252759513
 11
179.553470521979
 21
30.9327104710666
 72
     1
 10
179.553470521979
 20
30.9327104710666
 11
180.2709585200171
 21
30.70097664472574
 72
     1
 10
180.2709585200171
 20
30.70097664472574
 11
180.7014553146854
 21
30.57720040343429
 72
     1
 10
180.7014553146854
 20
30.57720040343429
 11
181.1319544179551
 21
30.47114480750379
 72
     1
 10
181.1319544179551
 20
30.47114480750379
 11
181.5624552666855
 21
30.38794198786921
 72
     1
 10
181.5624552666855
 20
30.38794198786921
 11
181.992957297736
 21
30.33272407546561
 72
     1
 10
181.992957297736
 20
30.33272407546561
 11
182.423459947966
 21
30.31062320122798
 97
        0
 75
     0
 76
     1
 98
        0
  0
POLYLINE
  5
24B
330
1F
100
AcDbEntity
  8
0
  6
Continuous
 62
   252
 48
25.4
370
     0
100
AcDb2dPolyline
 66
     1
 10
0.0
 20
0.0
 30
0.0
 70
     1
  0
VERTEX
  5
24C
330
24B
100
AcDbEntity
  8
0
  6
Continuous
 62
   252
100
AcDbVertex
100
AcDb2dVertex
 10
182.423459948
 20
30.3106232012
 30
0.0
 70
     8
  0
VERTEX
  5
24D
330
24B
100
AcDbEntity
  8
0
  6
Continuous
 62
   252
100
AcDbVertex
100
AcDb2dVertex
 10
182.8539625982
 20
30.3327240755
 30
0.0
 70
     8
  0
VERTEX
  5
24E
330
24B
100
AcDbEntity
  8
0
  6
Continuous
 62
   252
100
AcDbVertex
100
AcDb2dVertex
 10
183.2844646292
 20
30.3879419879
 30
0.0
 70
     8
  0
VERTEX
  5
24F
330
24B
100
AcDbEntity
  8
0
  6
Continuous
 62
   252
100
AcDbVertex
100
AcDb2dVertex
 10
183.714965478
 20
30.4711448075
 30
0.0
 70
     8
  0
VERTEX
  5
250
330
24B
100
AcDbEntity
  8
0
  6
Continuous
 62
   252
100
AcDbVertex
100
AcDb2dVertex
 10
184.1454645812
 20
30.5772004034
 30
0.0
 70
     8
  0
VERTEX
  5
251
330
24B
100
AcDbEntity
  8
0
  6
Continuous
 62
   252
100
AcDbVertex
100
AcDb2dVertex
 10
184.5759613759
 20
30.7009766447
 30
0.0
 70
     8
  0
VERTEX
  5
252
330
24B
100
AcDbEntity
  8
0
  6
Continuous
 62
   252
100
AcDbVertex
100
AcDb2dVertex
 10
185.293449374
 20
30.9327104711
 30
0.0
 70
     8
  0
VERTEX
  5
253
330
24B
100
AcDbEntity
  8
0
  6
Continuous
 62
   252
100
AcDbVertex
100
AcDb2dVertex
 10
186.0109267878
 20
31.1756525276
 30
0.0
 70
     8
  0
VERTEX
  5
254
330
24B
100
AcDbEntity
  8
0
  6
Continuous
 62
   252
100
AcDbVertex
100
AcDb2dVertex
 10
186.7283910103
 20
31.4060429489
 30
0.0
 70
     8
  0
VERTEX
  5
255
330
24B
100
AcDbEntity
  8
0
  6
Continuous
 62
   252
100
AcDbVertex
100
AcDb2dVertex
 10
187.1588621274
 20
31.5283683127
 30
0.0
 70
     8
  0
VERTEX
  5
256
330
24B
100
AcDbEntity
  8
0
  6
Continuous
 62
   252
100
AcDbVertex
100
AcDb2dVertex
 10
187.589326994
 20
31.6324894053
 30
0.0
 70
     8
  0
VERTEX
  5
257
330
24B
100
AcDbEntity
  8
0
  6
Continuous
 62
   252
100
AcDbVertex
100
AcDb2dVertex
 10
188.0197850467
 20
31.7132740958
 30
0.0
 70
     8
  0
VERTEX
  5
258
330
24B
100
AcDbEntity
  8
0
  6
Continuous
 62
   252
100
AcDbVertex
100
AcDb2dVertex
 10
188.4502357227
 20
31.7655902533
 30
0.0
 70
     8
  0
VERTEX
  5
259
330
24B
100
AcDbEntity
  8
0
  6
Continuous
 62
   252
100
AcDbVertex
100
AcDb2dVertex
 10
188.8806784586
 20
31.7843057468
 30
0.0
 70
     8
  0
VERTEX
  5
25A
330
24B
100
AcDbEntity
  8
0
  6
Continuous
 62
   252
100
AcDbVertex
100
AcDb2dVertex
 10
189.1186825108
 20
31.7786420314
 30
0.0
 70
     8
  0
VERTEX
  5
25B
330
24B
100
AcDbEntity
  8
0
  6
Continuous
 62
   252
100
AcDbVertex
100
AcDb2dVertex
 10
189.3566844393
 20
31.7620019812
 30
0.0
 70
     8
  0
VERTEX
  5
25C
330
24B
100
AcDbEntity
  8
0
  6
Continuous
 62
   252
100
AcDbVertex
100
AcDb2dVertex
 10
189.5946847201
 20
31.7352513858
 30
0.0
 70
     8
  0
VERTEX
  5
25D
330
24B
100
AcDbEntity
  8
0
  6
Continuous
 62
   252
100
AcDbVertex
100
AcDb2dVertex
 10
189.8326838291
 20
31.6992560346
 30
0.0
 70
     8
  0
VERTEX
  5
25E
330
24B
100
AcDbEntity
  8
0
  6
Continuous
 62
   252
100
AcDbVertex
100
AcDb2dVertex
 10
190.0706822424
 20
31.6548817173
 30
0.0
 70
     8
  0
VERTEX
  5
25F
330
24B
100
AcDbEntity
  8
0
  6
Continuous
 62
   252
100
AcDbVertex
100
AcDb2dVertex
 10
190.308680436
 20
31.6029942233
 30
0.0
 70
     8
  0
VERTEX
  5
260
330
24B
100
AcDbEntity
  8
0
  6
Continuous
 62
   252
100
AcDbVertex
100
AcDb2dVertex
 10
190.6656783557
 20
31.5129696907
 30
0.0
 70
     8
  0
VERTEX
  5
261
330
24B
100
AcDbEntity
  8
0
  6
Continuous
 62
   252
100
AcDbVertex
100
AcDb2dVertex
 10
191.0226784586
 20
31.4109105768
 30
0.0
 70
     8
  0
VERTEX
  5
262
330
24B
100
AcDbEntity
  8
0
  6
Continuous
 62
   252
100
AcDbVertex
100
AcDb2dVertex
 10
193.733219948
 20
30.5977339143
 30
0.0
 70
     8
  0
VERTEX
  5
263
330
24B
100
AcDbEntity
  8
0
  6
Continuous
 62
   252
100
AcDbVertex
100
AcDb2dVertex
 10
193.9134027518
 20
30.7385815602
 30
0.0
 70
     8
  0
VERTEX
  5
264
330
24B
100
AcDbEntity
  8
0
  6
Continuous
 62
   252
100
AcDbVertex
100
AcDb2dVertex
 10
194.0850648096
 20
30.8900022872
 30
0.0
 70
     8
  0
VERTEX
  5
265
330
24B
100
AcDbEntity
  8
0
  6
Continuous
 62
   252
100
AcDbVertex
100
AcDb2dVertex
 10
194.1674135499
 20
30.9694318579
 30
0.0
 70
     8
  0
VERTEX
  5
266
330
24B
100
AcDbEntity
  8
0
  6
Continuous
 62
   252
100
AcDbVertex
100
AcDb2dVertex
 10
194.247299948
 20
31.0511967723
 30
0.0
 70
     8
  0
VERTEX
  5
267
330
24B
100
AcDbEntity
  8
0
  6
Continuous
 62
   252
100
AcDbVertex
100
AcDb2dVertex
 10
191.0226784586
 20
32.0084213115
 30
0.0
 70
     8
  0
VERTEX
  5
268
330
24B
100
AcDbEntity
  8
0
  6
Continuous
 62
   252
100
AcDbVertex
100
AcDb2dVertex
 10
190.6728186426
 20
32.1072751649
 30
0.0
 70
     8
  0
VERTEX
  5
269
330
24B
100
AcDbEntity
  8
0
  6
Continuous
 62
   252
100
AcDbVertex
100
AcDb2dVertex
 10
190.3229607691
 20
32.1942917694
 30
0.0
 70
     8
  0
VERTEX
  5
26A
330
24B
100
AcDbEntity
  8
0
  6
Continuous
 62
   252
100
AcDbVertex
100
AcDb2dVertex
 10
190.0897225192
 20
32.2443686258
 30
0.0
 70
     8
  0
VERTEX
  5
26B
330
24B
100
AcDbEntity
  8
0
  6
Continuous
 62
   252
100
AcDbVertex
100
AcDb2dVertex
 10
189.8564840126
 20
32.2871475369
 30
0.0
 70
     8
  0
VERTEX
  5
26C
330
24B
100
AcDbEntity
  8
0
  6
Continuous
 62
   252
100
AcDbVertex
100
AcDb2dVertex
 10
189.6232448013
 20
32.3218137246
 30
0.0
 70
     8
  0
VERTEX
  5
26D
330
24B
100
AcDbEntity
  8
0
  6
Continuous
 62
   252
100
AcDbVertex
100
AcDb2dVertex
 10
189.3900044371
 20
32.3475524104
 30
0.0
 70
     8
  0
VERTEX
  5
26E
330
24B
100
AcDbEntity
  8
0
  6
Continuous
 62
   252
100
AcDbVertex
100
AcDb2dVertex
 10
189.1567624723
 20
32.3635488162
 30
0.0
 70
     8
  0
VERTEX
  5
26F
330
24B
100
AcDbEntity
  8
0
  6
Continuous
 62
   252
100
AcDbVertex
100
AcDb2dVertex
 10
188.9235184586
 20
32.3689881636
 30
0.0
 70
     8
  0
VERTEX
  5
270
330
24B
100
AcDbEntity
  8
0
  6
Continuous
 62
   252
100
AcDbVertex
100
AcDb2dVertex
 10
188.4902200938
 20
32.350032877
 30
0.0
 70
     8
  0
VERTEX
  5
271
330
24B
100
AcDbEntity
  8
0
  6
Continuous
 62
   252
100
AcDbVertex
100
AcDb2dVertex
 10
188.0569136872
 20
32.2970681395
 30
0.0
 70
     8
  0
VERTEX
  5
272
330
24B
100
AcDbEntity
  8
0
  6
Continuous
 62
   252
100
AcDbVertex
100
AcDb2dVertex
 10
187.623599813
 20
32.2153282848
 30
0.0
 70
     8
  0
VERTEX
  5
273
330
24B
100
AcDbEntity
  8
0
  6
Continuous
 62
   252
100
AcDbVertex
100
AcDb2dVertex
 10
187.1902790457
 20
32.1100476469
 30
0.0
 70
     8
  0
VERTEX
  5
274
330
24B
100
AcDbEntity
  8
0
  6
Continuous
 62
   252
100
AcDbVertex
100
AcDb2dVertex
 10
186.7569519598
 20
31.9864605595
 30
0.0
 70
     8
  0
VERTEX
  5
275
330
24B
100
AcDbEntity
  8
0
  6
Continuous
 62
   252
100
AcDbVertex
100
AcDb2dVertex
 10
186.0347276687
 20
31.7540177909
 30
0.0
 70
     8
  0
VERTEX
  5
276
330
24B
100
AcDbEntity
  8
0
  6
Continuous
 62
   252
100
AcDbVertex
100
AcDb2dVertex
 10
185.3124900807
 20
31.5094966168
 30
0.0
 70
     8
  0
VERTEX
  5
277
330
24B
100
AcDbEntity
  8
0
  6
Continuous
 62
   252
100
AcDbVertex
100
AcDb2dVertex
 10
184.5902418553
 20
31.2771300641
 30
0.0
 70
     8
  0
VERTEX
  5
278
330
24B
100
AcDbEntity
  8
0
  6
Continuous
 62
   252
100
AcDbVertex
100
AcDb2dVertex
 10
184.1568889204
 20
31.1536252901
 30
0.0
 70
     8
  0
VERTEX
  5
279
330
24B
100
AcDbEntity
  8
0
  6
Continuous
 62
   252
100
AcDbVertex
100
AcDb2dVertex
 10
183.7235336878
 20
31.0484544032
 30
0.0
 70
     8
  0
VERTEX
  5
27A
330
24B
100
AcDbEntity
  8
0
  6
Continuous
 62
   252
100
AcDbVertex
100
AcDb2dVertex
 10
183.2901767319
 20
30.9668517374
 30
0.0
 70
     8
  0
VERTEX
  5
27B
330
24B
100
AcDbEntity
  8
0
  6
Continuous
 62
   252
100
AcDbVertex
100
AcDb2dVertex
 10
182.8568186271
 20
30.9140516265
 30
0.0
 70
     8
  0
VERTEX
  5
27C
330
24B
100
AcDbEntity
  8
0
  6
Continuous
 62
   252
100
AcDbVertex
100
AcDb2dVertex
 10
182.423459948
 20
30.8952884042
 30
0.0
 70
     8
  0
VERTEX
  5
27D
330
24B
100
AcDbEntity
  8
0
  6
Continuous
 62
   252
100
AcDbVertex
100
AcDb2dVertex
 10
181.9901012688
 20
30.9140516265
 30
0.0
 70
     8
  0
VERTEX
  5
27E
330
24B
100
AcDbEntity
  8
0
  6
Continuous
 62
   252
100
AcDbVertex
100
AcDb2dVertex
 10
181.5567431641
 20
30.9668517374
 30
0.0
 70
     8
  0
VERTEX
  5
27F
330
24B
100
AcDbEntity
  8
0
  6
Continuous
 62
   252
100
AcDbVertex
100
AcDb2dVertex
 10
181.1233862082
 20
31.0484544032
 30
0.0
 70
     8
  0
VERTEX
  5
280
330
24B
100
AcDbEntity
  8
0
  6
Continuous
 62
   252
100
AcDbVertex
100
AcDb2dVertex
 10
180.6900309755
 20
31.1536252901
 30
0.0
 70
     8
  0
VERTEX
  5
281
330
24B
100
AcDbEntity
  8
0
  6
Continuous
 62
   252
100
AcDbVertex
100
AcDb2dVertex
 10
180.2566780406
 20
31.2771300641
 30
0.0
 70
     8
  0
VERTEX
  5
282
330
24B
100
AcDbEntity
  8
0
  6
Continuous
 62
   252
100
AcDbVertex
100
AcDb2dVertex
 10
179.5344298152
 20
31.5094966168
 30
0.0
 70
     8
  0
VERTEX
  5
283
330
24B
100
AcDbEntity
  8
0
  6
Continuous
 62
   252
100
AcDbVertex
100
AcDb2dVertex
 10
178.8121922272
 20
31.7540177909
 30
0.0
 70
     8
  0
VERTEX
  5
284
330
24B
100
AcDbEntity
  8
0
  6
Continuous
 62
   252
100
AcDbVertex
100
AcDb2dVertex
 10
178.0899679361
 20
31.9864605595
 30
0.0
 70
     8
  0
VERTEX
  5
285
330
24B
100
AcDbEntity
  8
0
  6
Continuous
 62
   252
100
AcDbVertex
100
AcDb2dVertex
 10
177.6566408502
 20
32.1100476469
 30
0.0
 70
     8
  0
VERTEX
  5
286
330
24B
100
AcDbEntity
  8
0
  6
Continuous
 62
   252
100
AcDbVertex
100
AcDb2dVertex
 10
177.2233200829
 20
32.2153282848
 30
0.0
 70
     8
  0
VERTEX
  5
287
330
24B
100
AcDbEntity
  8
0
  6
Continuous
 62
   252
100
AcDbVertex
100
AcDb2dVertex
 10
176.7900062088
 20
32.2970681395
 30
0.0
 70
     8
  0
VERTEX
  5
288
330
24B
100
AcDbEntity
  8
0
  6
Continuous
 62
   252
100
AcDbVertex
100
AcDb2dVertex
 10
176.3566998021
 20
32.350032877
 30
0.0
 70
     8
  0
VERTEX
  5
289
330
24B
100
AcDbEntity
  8
0
  6
Continuous
 62
   252
100
AcDbVertex
100
AcDb2dVertex
 10
175.9234014373
 20
32.3689881636
 30
0.0
 70
     8
  0
VERTEX
  5
28A
330
24B
100
AcDbEntity
  8
0
  6
Continuous
 62
   252
100
AcDbVertex
100
AcDb2dVertex
 10
175.6901574237
 20
32.3635488162
 30
0.0
 70
     8
  0
VERTEX
  5
28B
330
24B
100
AcDbEntity
  8
0
  6
Continuous
 62
   252
100
AcDbVertex
100
AcDb2dVertex
 10
175.4569154588
 20
32.3475524104
 30
0.0
 70
     8
  0
VERTEX
  5
28C
330
24B
100
AcDbEntity
  8
0
  6
Continuous
 62
   252
100
AcDbVertex
100
AcDb2dVertex
 10
175.2236750947
 20
32.3218137246
 30
0.0
 70
     8
  0
VERTEX
  5
28D
330
24B
100
AcDbEntity
  8
0
  6
Continuous
 62
   252
100
AcDbVertex
100
AcDb2dVertex
 10
174.9904358833
 20
32.2871475369
 30
0.0
 70
     8
  0
VERTEX
  5
28E
330
24B
100
AcDbEntity
  8
0
  6
Continuous
 62
   252
100
AcDbVertex
100
AcDb2dVertex
 10
174.7571973767
 20
32.2443686258
 30
0.0
 70
     8
  0
VERTEX
  5
28F
330
24B
100
AcDbEntity
  8
0
  6
Continuous
 62
   252
100
AcDbVertex
100
AcDb2dVertex
 10
174.5239591268
 20
32.1942917694
 30
0.0
 70
     8
  0
VERTEX
  5
290
330
24B
100
AcDbEntity
  8
0
  6
Continuous
 62
   252
100
AcDbVertex
100
AcDb2dVertex
 10
174.1741012533
 20
32.1072751649
 30
0.0
 70
     8
  0
VERTEX
  5
291
330
24B
100
AcDbEntity
  8
0
  6
Continuous
 62
   252
100
AcDbVertex
100
AcDb2dVertex
 10
173.8242414373
 20
32.0084213115
 30
0.0
 70
     8
  0
VERTEX
  5
292
330
24B
100
AcDbEntity
  8
0
  6
Continuous
 62
   252
100
AcDbVertex
100
AcDb2dVertex
 10
170.599619948
 20
31.0511967723
 30
0.0
 70
     8
  0
VERTEX
  5
293
330
24B
100
AcDbEntity
  8
0
  6
Continuous
 62
   252
100
AcDbVertex
100
AcDb2dVertex
 10
170.7618550863
 20
30.8900022872
 30
0.0
 70
     8
  0
VERTEX
  5
294
330
24B
100
AcDbEntity
  8
0
  6
Continuous
 62
   252
100
AcDbVertex
100
AcDb2dVertex
 10
170.9335171442
 20
30.7385815602
 30
0.0
 70
     8
  0
VERTEX
  5
295
330
24B
100
AcDbEntity
  8
0
  6
Continuous
 62
   252
100
AcDbVertex
100
AcDb2dVertex
 10
171.0226036689
 20
30.6667904546
 30
0.0
 70
     8
  0
VERTEX
  5
296
330
24B
100
AcDbEntity
  8
0
  6
Continuous
 62
   252
100
AcDbVertex
100
AcDb2dVertex
 10
171.113699948
 20
30.5977339143
 30
0.0
 70
     8
  0
VERTEX
  5
297
330
24B
100
AcDbEntity
  8
0
  6
Continuous
 62
   252
100
AcDbVertex
100
AcDb2dVertex
 10
173.8242414373
 20
31.4109105768
 30
0.0
 70
     8
  0
VERTEX
  5
298
330
24B
100
AcDbEntity
  8
0
  6
Continuous
 62
   252
100
AcDbVertex
100
AcDb2dVertex
 10
174.1812415402
 20
31.5129696907
 30
0.0
 70
     8
  0
VERTEX
  5
299
330
24B
100
AcDbEntity
  8
0
  6
Continuous
 62
   252
100
AcDbVertex
100
AcDb2dVertex
 10
174.5382394599
 20
31.6029942233
 30
0.0
 70
     8
  0
VERTEX
  5
29A
330
24B
100
AcDbEntity
  8
0
  6
Continuous
 62
   252
100
AcDbVertex
100
AcDb2dVertex
 10
174.7762376535
 20
31.6548817173
 30
0.0
 70
     8
  0
VERTEX
  5
29B
330
24B
100
AcDbEntity
  8
0
  6
Continuous
 62
   252
100
AcDbVertex
100
AcDb2dVertex
 10
175.0142360668
 20
31.6992560346
 30
0.0
 70
     8
  0
VERTEX
  5
29C
330
24B
100
AcDbEntity
  8
0
  6
Continuous
 62
   252
100
AcDbVertex
100
AcDb2dVertex
 10
175.2522351759
 20
31.7352513858
 30
0.0
 70
     8
  0
VERTEX
  5
29D
330
24B
100
AcDbEntity
  8
0
  6
Continuous
 62
   252
100
AcDbVertex
100
AcDb2dVertex
 10
175.4902354566
 20
31.7620019812
 30
0.0
 70
     8
  0
VERTEX
  5
29E
330
24B
100
AcDbEntity
  8
0
  6
Continuous
 62
   252
100
AcDbVertex
100
AcDb2dVertex
 10
175.7282373851
 20
31.7786420314
 30
0.0
 70
     8
  0
VERTEX
  5
29F
330
24B
100
AcDbEntity
  8
0
  6
Continuous
 62
   252
100
AcDbVertex
100
AcDb2dVertex
 10
175.9662414373
 20
31.7843057468
 30
0.0
 70
     8
  0
VERTEX
  5
2A0
330
24B
100
AcDbEntity
  8
0
  6
Continuous
 62
   252
100
AcDbVertex
100
AcDb2dVertex
 10
176.3966841733
 20
31.7655902533
 30
0.0
 70
     8
  0
VERTEX
  5
2A1
330
24B
100
AcDbEntity
  8
0
  6
Continuous
 62
   252
100
AcDbVertex
100
AcDb2dVertex
 10
176.8271348492
 20
31.7132740958
 30
0.0
 70
     8
  0
VERTEX
  5
2A2
330
24B
100
AcDbEntity
  8
0
  6
Continuous
 62
   252
100
AcDbVertex
100
AcDb2dVertex
 10
177.257592902
 20
31.6324894053
 30
0.0
 70
     8
  0
VERTEX
  5
2A3
330
24B
100
AcDbEntity
  8
0
  6
Continuous
 62
   252
100
AcDbVertex
100
AcDb2dVertex
 10
177.6880577685
 20
31.5283683127
 30
0.0
 70
     8
  0
VERTEX
  5
2A4
330
24B
100
AcDbEntity
  8
0
  6
Continuous
 62
   252
100
AcDbVertex
100
AcDb2dVertex
 10
178.1185288856
 20
31.4060429489
 30
0.0
 70
     8
  0
VERTEX
  5
2A5
330
24B
100
AcDbEntity
  8
0
  6
Continuous
 62
   252
100
AcDbVertex
100
AcDb2dVertex
 10
178.8359931081
 20
31.1756525276
 30
0.0
 70
     8
  0
VERTEX
  5
2A6
330
24B
100
AcDbEntity
  8
0
  6
Continuous
 62
   252
100
AcDbVertex
100
AcDb2dVertex
 10
179.553470522
 20
30.9327104711
 30
0.0
 70
     8
  0
VERTEX
  5
2A7
330
24B
100
AcDbEntity
  8
0
  6
Continuous
 62
   252
100
AcDbVertex
100
AcDb2dVertex
 10
180.27095852
 20
30.7009766447
 30
0.0
 70
     8
  0
VERTEX
  5
2A8
330
24B
100
AcDbEntity
  8
0
  6
Continuous
 62
   252
100
AcDbVertex
100
AcDb2dVertex
 10
180.7014553147
 20
30.5772004034
 30
0.0
 70
     8
  0
VERTEX
  5
2A9
330
24B
100
AcDbEntity
  8
0
  6
Continuous
 62
   252
100
AcDbVertex
100
AcDb2dVertex
 10
181.131954418
 20
30.4711448075
 30
0.0
 70
     8
  0
VERTEX
  5
2AA
330
24B
100
AcDbEntity
  8
0
  6
Continuous
 62
   252
100
AcDbVertex
100
AcDb2dVertex
 10
181.5624552667
 20
30.3879419879
 30
0.0
 70
     8
  0
VERTEX
  5
2AB
330
24B
100
AcDbEntity
  8
0
  6
Continuous
 62
   252
100
AcDbVertex
100
AcDb2dVertex
 10
181.9929572977
 20
30.3327240755
 30
0.0
 70
     8
  0
VERTEX
  5
2AC
330
24B
100
AcDbEntity
  8
0
  6
Continuous
 62
   252
100
AcDbVertex
100
AcDb2dVertex
 10
182.423459948
 20
30.3106232012
 30
0.0
 70
     8
  0
SEQEND
  5
2AD
330
24B
100
AcDbEntity
  8
0
  6
Continuous
 62
   252
 48
25.4
370
     0
  0
HATCH
  5
2AE
330
1F
100
AcDbEntity
  8
0
  6
Continuous
 62
   252
 48
25.4
100
AcDbHatch
 10
0.0
 20
0.0
 30
0.0
210
0.0
220
0.0
230
1.0
  2
SOLID
 70
     1
 71
     0
 91
        1
 92
        1
 93
      130
 72
     1
 10
195.9437639479961
 20
32.39814532300313
 11
196.0283332547601
 21
32.49838474015061
 72
     1
 10
196.0283332547601
 20
32.49838474015061
 11
196.1095365653352
 21
32.60156356987058
 72
     1
 10
196.1095365653352
 20
32.60156356987058
 11
196.2123136419326
 21
32.74340889913487
 72
     1
 10
196.2123136419326
 20
32.74340889913487
 11
196.3085180849766
 21
32.88973765533248
 72
     1
 10
196.3085180849766
 20
32.88973765533248
 11
196.3978679479661
 21
33.04008744503379
 72
     1
 10
196.3978679479661
 20
33.04008744503379
 11
196.2354792869609
 21
33.01434715218897
 72
     1
 10
196.2354792869609
 20
33.01434715218897
 11
196.0730925936986
 21
32.99273259903379
 72
     1
 10
196.0730925936986
 20
32.99273259903379
 11
195.8565810549507
 21
32.97080146871989
 72
     1
 10
195.8565810549507
 20
32.97080146871989
 11
195.6400753936169
 21
32.95733408257838
 72
     1
 10
195.6400753936169
 20
32.95733408257838
 11
195.4235769692428
 21
32.95297563822946
 72
     1
 10
195.4235769692428
 20
32.95297563822946
 11
194.9901057031935
 21
32.97248150936083
 72
     1
 10
194.9901057031935
 20
32.97248150936083
 11
194.5566660304029
 21
33.02587061767675
 72
     1
 10
194.5566660304029
 20
33.02587061767675
 11
194.1232550787566
 21
33.10791960446969
 72
     1
 10
194.1232550787566
 20
33.10791960446969
 11
193.6898699761402
 21
33.21340511103223
 72
     1
 10
193.6898699761402
 20
33.21340511103223
 11
193.2565078504393
 21
33.33710377865683
 72
     1
 10
193.2565078504393
 20
33.33710377865683
 11
192.5342808999452
 21
33.56955501575364
 72
     1
 10
192.5342808999452
 20
33.56955501575364
 11
191.8120964992945
 21
33.81390682093032
 72
     1
 10
191.8120964992945
 20
33.81390682093032
 11
191.0899413516612
 21
34.04597697794846
 72
     1
 10
191.0899413516612
 20
34.04597697794846
 11
190.6566567730499
 21
34.16926407908807
 72
     1
 10
190.6566567730499
 20
34.16926407908807
 11
190.2233750665529
 21
34.27420083033731
 72
     1
 10
190.2233750665529
 20
34.27420083033731
 11
189.790093360056
 21
34.35556387298867
 72
     1
 10
189.790093360056
 20
34.35556387298867
 11
189.3568087814447
 21
34.40812984833464
 72
     1
 10
189.3568087814447
 20
34.40812984833464
 11
188.9235184586045
 21
34.42667539766776
 72
     1
 10
188.9235184586045
 20
34.42667539766776
 11
188.4902200938439
 21
34.40772011103405
 72
     1
 10
188.4902200938439
 20
34.40772011103405
 11
188.0569136871629
 21
34.35475537349375
 72
     1
 10
188.0569136871629
 20
34.35475537349375
 11
187.6235998129844
 21
34.2730155188606
 72
     1
 10
187.6235998129844
 20
34.2730155188606
 11
187.1902790457312
 21
34.16773488094837
 72
     1
 10
187.1902790457312
 20
34.16773488094837
 11
186.7569519598263
 21
34.04414779357082
 72
     1
 10
186.7569519598263
 20
34.04414779357082
 11
186.0347276686974
 21
33.81170502492019
 72
     1
 10
186.0347276686974
 20
33.81170502492019
 11
185.3124900807424
 21
33.56718385081967
 72
     1
 10
185.3124900807424
 20
33.56718385081967
 11
184.5902418553266
 21
33.33481729818478
 72
     1
 10
184.5902418553266
 20
33.33481729818478
 11
184.1568889203918
 21
33.21131252410422
 72
     1
 10
184.1568889203918
 20
33.21131252410422
 11
183.7235336877655
 21
33.10614163725465
 72
     1
 10
183.7235336877655
 20
33.10614163725465
 11
183.2901767318705
 21
33.02453897144982
 72
     1
 10
183.2901767318705
 20
33.02453897144982
 11
182.8568186271297
 21
32.97173886050351
 72
     1
 10
182.8568186271297
 20
32.97173886050351
 11
182.4234599479661
 21
32.95297563822946
 72
     1
 10
182.4234599479661
 20
32.95297563822946
 11
181.9901012688025
 21
32.97173886050351
 72
     1
 10
181.9901012688025
 20
32.97173886050351
 11
181.5567431640617
 21
33.02453897144984
 72
     1
 10
181.5567431640617
 20
33.02453897144984
 11
181.1233862081668
 21
33.10614163725466
 72
     1
 10
181.1233862081668
 20
33.10614163725466
 11
180.6900309755404
 21
33.21131252410422
 72
     1
 10
180.6900309755404
 20
33.21131252410422
 11
180.2566780406056
 21
33.33481729818479
 72
     1
 10
180.2566780406056
 20
33.33481729818479
 11
179.5344298151899
 21
33.56718385081968
 72
     1
 10
179.5344298151899
 20
33.56718385081968
 11
178.8121922272349
 21
33.81170502492023
 72
     1
 10
178.8121922272349
 20
33.81170502492023
 11
178.089967936106
 21
34.04414779357084
 72
     1
 10
178.089967936106
 20
34.04414779357084
 11
177.6566408502011
 21
34.16773488094841
 72
     1
 10
177.6566408502011
 20
34.16773488094841
 11
177.2233200829479
 21
34.27301551886063
 72
     1
 10
177.2233200829479
 20
34.27301551886063
 11
176.7900062087694
 21
34.35475537349379
 72
     1
 10
176.7900062087694
 20
34.35475537349379
 11
176.3566998020884
 21
34.40772011103407
 72
     1
 10
176.3566998020884
 20
34.40772011103407
 11
175.9234014373278
 21
34.4266753976678
 72
     1
 10
175.9234014373278
 20
34.4266753976678
 11
175.4901111144876
 21
34.40812984833468
 72
     1
 10
175.4901111144876
 20
34.40812984833468
 11
175.0568265358763
 21
34.3555638729887
 72
     1
 10
175.0568265358763
 20
34.3555638729887
 11
174.6235448293794
 21
34.27420083033735
 72
     1
 10
174.6235448293794
 20
34.27420083033735
 11
174.1902631228824
 21
34.16926407908812
 72
     1
 10
174.1902631228824
 20
34.16926407908812
 11
173.7569785442711
 21
34.04597697794849
 72
     1
 10
173.7569785442711
 20
34.04597697794849
 11
173.0348233966377
 21
33.81390682093036
 72
     1
 10
173.0348233966377
 20
33.81390682093036
 11
172.312638995987
 21
33.56955501575368
 72
     1
 10
172.312638995987
 20
33.56955501575368
 11
171.5904120454929
 21
33.33710377865685
 72
     1
 10
171.5904120454929
 20
33.33710377865685
 11
171.157049919792
 21
33.21340511103227
 72
     1
 10
171.157049919792
 20
33.21340511103227
 11
170.7236648171756
 21
33.10791960446978
 72
     1
 10
170.7236648171756
 20
33.10791960446978
 11
170.2902538655293
 21
33.0258706176768
 72
     1
 10
170.2902538655293
 20
33.0258706176768
 11
169.8568141927388
 21
32.9724815093609
 72
     1
 10
169.8568141927388
 20
32.9724815093609
 11
169.4233429266895
 21
32.95297563822953
 72
     1
 10
169.4233429266895
 20
32.95297563822953
 11
169.2609698399812
 21
32.95536530516614
 72
     1
 10
169.2609698399812
 20
32.95536530516614
 11
169.0985924912969
 21
32.9629694827764
 72
     1
 10
169.0985924912969
 20
32.9629694827764
 11
168.8820837213129
 21
32.98074939070661
 72
     1
 10
168.8820837213129
 20
32.98074939070661
 11
168.6655697536875
 21
33.00667044399911
 72
     1
 10
168.6655697536875
 20
33.00667044399911
 11
168.4490519479663
 21
33.04008744503376
 72
     1
 10
168.4490519479663
 20
33.04008744503376
 11
168.5154116562073
 21
32.92696672402679
 72
     1
 10
168.5154116562073
 20
32.92696672402679
 11
168.5856638368063
 21
32.8160411648753
 72
     1
 10
168.5856638368063
 20
32.8160411648753
 11
168.6851924704777
 21
32.67189791672561
 72
     1
 10
168.6851924704777
 20
32.67189791672561
 11
168.7911372160355
 21
32.53245936166769
 72
     1
 10
168.7911372160355
 20
32.53245936166769
 11
168.9031559479066
 21
32.39814532300638
 72
     1
 10
168.9031559479066
 20
32.39814532300638
 11
169.0908365911667
 21
32.38150684614995
 72
     1
 10
169.0908365911667
 20
32.38150684614995
 11
169.2785125459489
 21
32.37135809082082
 72
     1
 10
169.2785125459489
 20
32.37135809082082
 11
169.4661829266895
 21
32.36811936736319
 72
     1
 10
169.4661829266895
 20
32.36811936736319
 11
169.8996541927388
 21
32.38762753962426
 72
     1
 10
169.8996541927388
 20
32.38762753962426
 11
170.3330938655294
 21
32.44102294631375
 72
     1
 10
170.3330938655294
 20
32.44102294631375
 11
170.7665048171756
 21
32.5230816125186
 72
     1
 10
170.7665048171756
 20
32.5230816125186
 11
171.199889919792
 21
32.62857956332578
 72
     1
 10
171.199889919792
 20
32.62857956332578
 11
171.633252045493
 21
32.75229282382227
 72
     1
 10
171.633252045493
 20
32.75229282382227
 11
172.3554789959871
 21
32.98477148345477
 72
     1
 10
172.3554789959871
 20
32.98477148345477
 11
173.0776633966378
 21
33.22915211509063
 72
     1
 10
173.0776633966378
 20
33.22915211509063
 11
173.7998185442712
 21
33.46124964968801
 72
     1
 10
173.7998185442712
 20
33.46124964968801
 11
174.2331031228825
 21
33.58455129514658
 72
     1
 10
174.2331031228825
 20
33.58455129514658
 11
174.6663848293794
 21
33.68950042590319
 72
     1
 10
174.6663848293794
 20
33.68950042590319
 11
175.0996665358763
 21
33.77087306704484
 72
     1
 10
175.0996665358763
 20
33.77087306704484
 11
175.5329511144877
 21
33.82344524365846
 72
     1
 10
175.5329511144877
 20
33.82344524365846
 11
175.9662414373279
 21
33.84199298083104
 72
     1
 10
175.9662414373279
 20
33.84199298083104
 11
176.3966841732523
 21
33.82327748735603
 72
     1
 10
176.3966841732523
 20
33.82327748735603
 11
176.8271348491837
 21
33.77096132989182
 72
     1
 10
176.8271348491837
 20
33.77096132989182
 11
177.2575929019814
 21
33.69017663937343
 72
     1
 10
177.2575929019814
 20
33.69017663937343
 11
177.6880577685051
 21
33.58605554673584
 72
     1
 10
177.6880577685051
 20
33.58605554673584
 11
178.1185288856139
 21
33.4637301829141
 72
     1
 10
178.1185288856139
 20
33.4637301829141
 11
178.8359931081339
 21
33.23333976163777
 72
     1
 10
178.8359931081339
 20
33.23333976163777
 11
179.553470521979
 21
32.99039770510925
 72
     1
 10
179.553470521979
 20
32.99039770510925
 11
180.2709585200171
 21
32.75866387876839
 72
     1
 10
180.2709585200171
 20
32.75866387876839
 11
180.7014553146854
 21
32.63488763747694
 72
     1
 10
180.7014553146854
 20
32.63488763747694
 11
181.1319544179551
 21
32.52883204154644
 72
     1
 10
181.1319544179551
 20
32.52883204154644
 11
181.5624552666855
 21
32.44562922191187
 72
     1
 10
181.5624552666855
 20
32.44562922191187
 11
181.992957297736
 21
32.39041130950827
 72
     1
 10
181.992957297736
 20
32.39041130950827
 11
182.4234599479661
 21
32.36831043527062
 72
     1
 10
182.4234599479661
 20
32.36831043527062
 11
182.8539625981962
 21
32.39041130950825
 72
     1
 10
182.8539625981962
 20
32.39041130950825
 11
183.2844646292467
 21
32.44562922191184
 72
     1
 10
183.2844646292467
 20
32.44562922191184
 11
183.7149654779771
 21
32.52883204154642
 72
     1
 10
183.7149654779771
 20
32.52883204154642
 11
184.1454645812468
 21
32.63488763747692
 72
     1
 10
184.1454645812468
 20
32.63488763747692
 11
184.5759613759153
 21
32.75866387876836
 72
     1
 10
184.5759613759153
 20
32.75866387876836
 11
185.2934493739533
 21
32.99039770510921
 72
     1
 10
185.2934493739533
 20
32.99039770510921
 11
186.0109267877985
 21
33.23333976163773
 72
     1
 10
186.0109267877985
 20
33.23333976163773
 11
186.7283910103185
 21
33.46373018291405
 72
     1
 10
186.7283910103185
 20
33.46373018291405
 11
187.1588621274273
 21
33.5860555467358
 72
     1
 10
187.1588621274273
 20
33.5860555467358
 11
187.5893269939509
 21
33.69017663937338
 72
     1
 10
187.5893269939509
 20
33.69017663937338
 11
188.0197850467487
 21
33.77096132989178
 72
     1
 10
188.0197850467487
 20
33.77096132989178
 11
188.4502357226801
 21
33.82327748735599
 72
     1
 10
188.4502357226801
 20
33.82327748735599
 11
188.8806784586045
 21
33.84199298083099
 72
     1
 10
188.8806784586045
 20
33.84199298083099
 11
189.3139687814447
 21
33.82344524365841
 72
     1
 10
189.3139687814447
 20
33.82344524365841
 11
189.747253360056
 21
33.77087306704479
 72
     1
 10
189.747253360056
 20
33.77087306704479
 11
190.180535066553
 21
33.68950042590315
 72
     1
 10
190.180535066553
 20
33.68950042590315
 11
190.6138167730499
 21
33.58455129514653
 72
     1
 10
190.6138167730499
 20
33.58455129514653
 11
191.0471013516612
 21
33.46124964968796
 72
     1
 10
191.0471013516612
 20
33.46124964968796
 11
191.7692564992946
 21
33.22915211509058
 72
     1
 10
191.7692564992946
 20
33.22915211509058
 11
192.4914408999453
 21
32.98477148345472
 72
     1
 10
192.4914408999453
 20
32.98477148345472
 11
193.2136678504394
 21
32.75229282382221
 72
     1
 10
193.2136678504394
 20
32.75229282382221
 11
193.6470299761404
 21
32.62857956332573
 72
     1
 10
193.6470299761404
 20
32.62857956332573
 11
194.0804150787567
 21
32.52308161251853
 72
     1
 10
194.0804150787567
 20
32.52308161251853
 11
194.513826030403
 21
32.44102294631368
 72
     1
 10
194.513826030403
 20
32.44102294631368
 11
194.9472657031936
 21
32.38762753962421
 72
     1
 10
194.9472657031936
 20
32.38762753962421
 11
195.3807369692428
 21
32.36811936736313
 72
     1
 10
195.3807369692428
 20
32.36811936736313
 11
195.5684073499824
 21
32.37135809082063
 72
     1
 10
195.5684073499824
 20
32.37135809082063
 11
195.7560833047569
 21
32.38150684614894
 72
     1
 10
195.7560833047569
 20
32.38150684614894
 11
195.9437639479961
 21
32.39814532300313
 97
        0
 75
     0
 76
     1
 98
        0
  0
POLYLINE
  5
2AF
330
1F
100
AcDbEntity
  8
0
  6
Continuous
 62
   252
 48
25.4
370
     0
100
AcDb2dPolyline
 66
     1
 10
0.0
 20
0.0
 30
0.0
 70
     1
  0
VERTEX
  5
2B0
330
2AF
100
AcDbEntity
  8
0
  6
Continuous
 62
   252
100
AcDbVertex
100
AcDb2dVertex
 10
195.943763948
 20
32.398145323
 30
0.0
 70
     8
  0
VERTEX
  5
2B1
330
2AF
100
AcDbEntity
  8
0
  6
Continuous
 62
   252
100
AcDbVertex
100
AcDb2dVertex
 10
195.7560833048
 20
32.3815068461
 30
0.0
 70
     8
  0
VERTEX
  5
2B2
330
2AF
100
AcDbEntity
  8
0
  6
Continuous
 62
   252
100
AcDbVertex
100
AcDb2dVertex
 10
195.56840735
 20
32.3713580908
 30
0.0
 70
     8
  0
VERTEX
  5
2B3
330
2AF
100
AcDbEntity
  8
0
  6
Continuous
 62
   252
100
AcDbVertex
100
AcDb2dVertex
 10
195.3807369692
 20
32.3681193674
 30
0.0
 70
     8
  0
VERTEX
  5
2B4
330
2AF
100
AcDbEntity
  8
0
  6
Continuous
 62
   252
100
AcDbVertex
100
AcDb2dVertex
 10
194.9472657032
 20
32.3876275396
 30
0.0
 70
     8
  0
VERTEX
  5
2B5
330
2AF
100
AcDbEntity
  8
0
  6
Continuous
 62
   252
100
AcDbVertex
100
AcDb2dVertex
 10
194.5138260304
 20
32.4410229463
 30
0.0
 70
     8
  0
VERTEX
  5
2B6
330
2AF
100
AcDbEntity
  8
0
  6
Continuous
 62
   252
100
AcDbVertex
100
AcDb2dVertex
 10
194.0804150788
 20
32.5230816125
 30
0.0
 70
     8
  0
VERTEX
  5
2B7
330
2AF
100
AcDbEntity
  8
0
  6
Continuous
 62
   252
100
AcDbVertex
100
AcDb2dVertex
 10
193.6470299761
 20
32.6285795633
 30
0.0
 70
     8
  0
VERTEX
  5
2B8
330
2AF
100
AcDbEntity
  8
0
  6
Continuous
 62
   252
100
AcDbVertex
100
AcDb2dVertex
 10
193.2136678504
 20
32.7522928238
 30
0.0
 70
     8
  0
VERTEX
  5
2B9
330
2AF
100
AcDbEntity
  8
0
  6
Continuous
 62
   252
100
AcDbVertex
100
AcDb2dVertex
 10
192.4914408999
 20
32.9847714835
 30
0.0
 70
     8
  0
VERTEX
  5
2BA
330
2AF
100
AcDbEntity
  8
0
  6
Continuous
 62
   252
100
AcDbVertex
100
AcDb2dVertex
 10
191.7692564993
 20
33.2291521151
 30
0.0
 70
     8
  0
VERTEX
  5
2BB
330
2AF
100
AcDbEntity
  8
0
  6
Continuous
 62
   252
100
AcDbVertex
100
AcDb2dVertex
 10
191.0471013517
 20
33.4612496497
 30
0.0
 70
     8
  0
VERTEX
  5
2BC
330
2AF
100
AcDbEntity
  8
0
  6
Continuous
 62
   252
100
AcDbVertex
100
AcDb2dVertex
 10
190.613816773
 20
33.5845512951
 30
0.0
 70
     8
  0
VERTEX
  5
2BD
330
2AF
100
AcDbEntity
  8
0
  6
Continuous
 62
   252
100
AcDbVertex
100
AcDb2dVertex
 10
190.1805350666
 20
33.6895004259
 30
0.0
 70
     8
  0
VERTEX
  5
2BE
330
2AF
100
AcDbEntity
  8
0
  6
Continuous
 62
   252
100
AcDbVertex
100
AcDb2dVertex
 10
189.7472533601
 20
33.770873067
 30
0.0
 70
     8
  0
VERTEX
  5
2BF
330
2AF
100
AcDbEntity
  8
0
  6
Continuous
 62
   252
100
AcDbVertex
100
AcDb2dVertex
 10
189.3139687814
 20
33.8234452437
 30
0.0
 70
     8
  0
VERTEX
  5
2C0
330
2AF
100
AcDbEntity
  8
0
  6
Continuous
 62
   252
100
AcDbVertex
100
AcDb2dVertex
 10
188.8806784586
 20
33.8419929808
 30
0.0
 70
     8
  0
VERTEX
  5
2C1
330
2AF
100
AcDbEntity
  8
0
  6
Continuous
 62
   252
100
AcDbVertex
100
AcDb2dVertex
 10
188.4502357227
 20
33.8232774874
 30
0.0
 70
     8
  0
VERTEX
  5
2C2
330
2AF
100
AcDbEntity
  8
0
  6
Continuous
 62
   252
100
AcDbVertex
100
AcDb2dVertex
 10
188.0197850467
 20
33.7709613299
 30
0.0
 70
     8
  0
VERTEX
  5
2C3
330
2AF
100
AcDbEntity
  8
0
  6
Continuous
 62
   252
100
AcDbVertex
100
AcDb2dVertex
 10
187.589326994
 20
33.6901766394
 30
0.0
 70
     8
  0
VERTEX
  5
2C4
330
2AF
100
AcDbEntity
  8
0
  6
Continuous
 62
   252
100
AcDbVertex
100
AcDb2dVertex
 10
187.1588621274
 20
33.5860555467
 30
0.0
 70
     8
  0
VERTEX
  5
2C5
330
2AF
100
AcDbEntity
  8
0
  6
Continuous
 62
   252
100
AcDbVertex
100
AcDb2dVertex
 10
186.7283910103
 20
33.4637301829
 30
0.0
 70
     8
  0
VERTEX
  5
2C6
330
2AF
100
AcDbEntity
  8
0
  6
Continuous
 62
   252
100
AcDbVertex
100
AcDb2dVertex
 10
186.0109267878
 20
33.2333397616
 30
0.0
 70
     8
  0
VERTEX
  5
2C7
330
2AF
100
AcDbEntity
  8
0
  6
Continuous
 62
   252
100
AcDbVertex
100
AcDb2dVertex
 10
185.293449374
 20
32.9903977051
 30
0.0
 70
     8
  0
VERTEX
  5
2C8
330
2AF
100
AcDbEntity
  8
0
  6
Continuous
 62
   252
100
AcDbVertex
100
AcDb2dVertex
 10
184.5759613759
 20
32.7586638788
 30
0.0
 70
     8
  0
VERTEX
  5
2C9
330
2AF
100
AcDbEntity
  8
0
  6
Continuous
 62
   252
100
AcDbVertex
100
AcDb2dVertex
 10
184.1454645812
 20
32.6348876375
 30
0.0
 70
     8
  0
VERTEX
  5
2CA
330
2AF
100
AcDbEntity
  8
0
  6
Continuous
 62
   252
100
AcDbVertex
100
AcDb2dVertex
 10
183.714965478
 20
32.5288320415
 30
0.0
 70
     8
  0
VERTEX
  5
2CB
330
2AF
100
AcDbEntity
  8
0
  6
Continuous
 62
   252
100
AcDbVertex
100
AcDb2dVertex
 10
183.2844646292
 20
32.4456292219
 30
0.0
 70
     8
  0
VERTEX
  5
2CC
330
2AF
100
AcDbEntity
  8
0
  6
Continuous
 62
   252
100
AcDbVertex
100
AcDb2dVertex
 10
182.8539625982
 20
32.3904113095
 30
0.0
 70
     8
  0
VERTEX
  5
2CD
330
2AF
100
AcDbEntity
  8
0
  6
Continuous
 62
   252
100
AcDbVertex
100
AcDb2dVertex
 10
182.423459948
 20
32.3683104353
 30
0.0
 70
     8
  0
VERTEX
  5
2CE
330
2AF
100
AcDbEntity
  8
0
  6
Continuous
 62
   252
100
AcDbVertex
100
AcDb2dVertex
 10
181.9929572977
 20
32.3904113095
 30
0.0
 70
     8
  0
VERTEX
  5
2CF
330
2AF
100
AcDbEntity
  8
0
  6
Continuous
 62
   252
100
AcDbVertex
100
AcDb2dVertex
 10
181.5624552667
 20
32.4456292219
 30
0.0
 70
     8
  0
VERTEX
  5
2D0
330
2AF
100
AcDbEntity
  8
0
  6
Continuous
 62
   252
100
AcDbVertex
100
AcDb2dVertex
 10
181.131954418
 20
32.5288320415
 30
0.0
 70
     8
  0
VERTEX
  5
2D1
330
2AF
100
AcDbEntity
  8
0
  6
Continuous
 62
   252
100
AcDbVertex
100
AcDb2dVertex
 10
180.7014553147
 20
32.6348876375
 30
0.0
 70
     8
  0
VERTEX
  5
2D2
330
2AF
100
AcDbEntity
  8
0
  6
Continuous
 62
   252
100
AcDbVertex
100
AcDb2dVertex
 10
180.27095852
 20
32.7586638788
 30
0.0
 70
     8
  0
VERTEX
  5
2D3
330
2AF
100
AcDbEntity
  8
0
  6
Continuous
 62
   252
100
AcDbVertex
100
AcDb2dVertex
 10
179.553470522
 20
32.9903977051
 30
0.0
 70
     8
  0
VERTEX
  5
2D4
330
2AF
100
AcDbEntity
  8
0
  6
Continuous
 62
   252
100
AcDbVertex
100
AcDb2dVertex
 10
178.8359931081
 20
33.2333397616
 30
0.0
 70
     8
  0
VERTEX
  5
2D5
330
2AF
100
AcDbEntity
  8
0
  6
Continuous
 62
   252
100
AcDbVertex
100
AcDb2dVertex
 10
178.1185288856
 20
33.4637301829
 30
0.0
 70
     8
  0
VERTEX
  5
2D6
330
2AF
100
AcDbEntity
  8
0
  6
Continuous
 62
   252
100
AcDbVertex
100
AcDb2dVertex
 10
177.6880577685
 20
33.5860555467
 30
0.0
 70
     8
  0
VERTEX
  5
2D7
330
2AF
100
AcDbEntity
  8
0
  6
Continuous
 62
   252
100
AcDbVertex
100
AcDb2dVertex
 10
177.257592902
 20
33.6901766394
 30
0.0
 70
     8
  0
VERTEX
  5
2D8
330
2AF
100
AcDbEntity
  8
0
  6
Continuous
 62
   252
100
AcDbVertex
100
AcDb2dVertex
 10
176.8271348492
 20
33.7709613299
 30
0.0
 70
     8
  0
VERTEX
  5
2D9
330
2AF
100
AcDbEntity
  8
0
  6
Continuous
 62
   252
100
AcDbVertex
100
AcDb2dVertex
 10
176.3966841733
 20
33.8232774874
 30
0.0
 70
     8
  0
VERTEX
  5
2DA
330
2AF
100
AcDbEntity
  8
0
  6
Continuous
 62
   252
100
AcDbVertex
100
AcDb2dVertex
 10
175.9662414373
 20
33.8419929808
 30
0.0
 70
     8
  0
VERTEX
  5
2DB
330
2AF
100
AcDbEntity
  8
0
  6
Continuous
 62
   252
100
AcDbVertex
100
AcDb2dVertex
 10
175.5329511145
 20
33.8234452437
 30
0.0
 70
     8
  0
VERTEX
  5
2DC
330
2AF
100
AcDbEntity
  8
0
  6
Continuous
 62
   252
100
AcDbVertex
100
AcDb2dVertex
 10
175.0996665359
 20
33.770873067
 30
0.0
 70
     8
  0
VERTEX
  5
2DD
330
2AF
100
AcDbEntity
  8
0
  6
Continuous
 62
   252
100
AcDbVertex
100
AcDb2dVertex
 10
174.6663848294
 20
33.6895004259
 30
0.0
 70
     8
  0
VERTEX
  5
2DE
330
2AF
100
AcDbEntity
  8
0
  6
Continuous
 62
   252
100
AcDbVertex
100
AcDb2dVertex
 10
174.2331031229
 20
33.5845512951
 30
0.0
 70
     8
  0
VERTEX
  5
2DF
330
2AF
100
AcDbEntity
  8
0
  6
Continuous
 62
   252
100
AcDbVertex
100
AcDb2dVertex
 10
173.7998185443
 20
33.4612496497
 30
0.0
 70
     8
  0
VERTEX
  5
2E0
330
2AF
100
AcDbEntity
  8
0
  6
Continuous
 62
   252
100
AcDbVertex
100
AcDb2dVertex
 10
173.0776633966
 20
33.2291521151
 30
0.0
 70
     8
  0
VERTEX
  5
2E1
330
2AF
100
AcDbEntity
  8
0
  6
Continuous
 62
   252
100
AcDbVertex
100
AcDb2dVertex
 10
172.355478996
 20
32.9847714835
 30
0.0
 70
     8
  0
VERTEX
  5
2E2
330
2AF
100
AcDbEntity
  8
0
  6
Continuous
 62
   252
100
AcDbVertex
100
AcDb2dVertex
 10
171.6332520455
 20
32.7522928238
 30
0.0
 70
     8
  0
VERTEX
  5
2E3
330
2AF
100
AcDbEntity
  8
0
  6
Continuous
 62
   252
100
AcDbVertex
100
AcDb2dVertex
 10
171.1998899198
 20
32.6285795633
 30
0.0
 70
     8
  0
VERTEX
  5
2E4
330
2AF
100
AcDbEntity
  8
0
  6
Continuous
 62
   252
100
AcDbVertex
100
AcDb2dVertex
 10
170.7665048172
 20
32.5230816125
 30
0.0
 70
     8
  0
VERTEX
  5
2E5
330
2AF
100
AcDbEntity
  8
0
  6
Continuous
 62
   252
100
AcDbVertex
100
AcDb2dVertex
 10
170.3330938655
 20
32.4410229463
 30
0.0
 70
     8
  0
VERTEX
  5
2E6
330
2AF
100
AcDbEntity
  8
0
  6
Continuous
 62
   252
100
AcDbVertex
100
AcDb2dVertex
 10
169.8996541927
 20
32.3876275396
 30
0.0
 70
     8
  0
VERTEX
  5
2E7
330
2AF
100
AcDbEntity
  8
0
  6
Continuous
 62
   252
100
AcDbVertex
100
AcDb2dVertex
 10
169.4661829267
 20
32.3681193674
 30
0.0
 70
     8
  0
VERTEX
  5
2E8
330
2AF
100
AcDbEntity
  8
0
  6
Continuous
 62
   252
100
AcDbVertex
100
AcDb2dVertex
 10
169.2785125459
 20
32.3713580908
 30
0.0
 70
     8
  0
VERTEX
  5
2E9
330
2AF
100
AcDbEntity
  8
0
  6
Continuous
 62
   252
100
AcDbVertex
100
AcDb2dVertex
 10
169.0908365912
 20
32.3815068461
 30
0.0
 70
     8
  0
VERTEX
  5
2EA
330
2AF
100
AcDbEntity
  8
0
  6
Continuous
 62
   252
100
AcDbVertex
100
AcDb2dVertex
 10
168.9031559479
 20
32.398145323
 30
0.0
 70
     8
  0
VERTEX
  5
2EB
330
2AF
100
AcDbEntity
  8
0
  6
Continuous
 62
   252
100
AcDbVertex
100
AcDb2dVertex
 10
168.791137216
 20
32.5324593617
 30
0.0
 70
     8
  0
VERTEX
  5
2EC
330
2AF
100
AcDbEntity
  8
0
  6
Continuous
 62
   252
100
AcDbVertex
100
AcDb2dVertex
 10
168.6851924705
 20
32.6718979167
 30
0.0
 70
     8
  0
VERTEX
  5
2ED
330
2AF
100
AcDbEntity
  8
0
  6
Continuous
 62
   252
100
AcDbVertex
100
AcDb2dVertex
 10
168.5856638368
 20
32.8160411649
 30
0.0
 70
     8
  0
VERTEX
  5
2EE
330
2AF
100
AcDbEntity
  8
0
  6
Continuous
 62
   252
100
AcDbVertex
100
AcDb2dVertex
 10
168.5154116562
 20
32.926966724
 30
0.0
 70
     8
  0
VERTEX
  5
2EF
330
2AF
100
AcDbEntity
  8
0
  6
Continuous
 62
   252
100
AcDbVertex
100
AcDb2dVertex
 10
168.449051948
 20
33.040087445
 30
0.0
 70
     8
  0
VERTEX
  5
2F0
330
2AF
100
AcDbEntity
  8
0
  6
Continuous
 62
   252
100
AcDbVertex
100
AcDb2dVertex
 10
168.6655697537
 20
33.006670444
 30
0.0
 70
     8
  0
VERTEX
  5
2F1
330
2AF
100
AcDbEntity
  8
0
  6
Continuous
 62
   252
100
AcDbVertex
100
AcDb2dVertex
 10
168.8820837213
 20
32.9807493907
 30
0.0
 70
     8
  0
VERTEX
  5
2F2
330
2AF
100
AcDbEntity
  8
0
  6
Continuous
 62
   252
100
AcDbVertex
100
AcDb2dVertex
 10
169.0985924913
 20
32.9629694828
 30
0.0
 70
     8
  0
VERTEX
  5
2F3
330
2AF
100
AcDbEntity
  8
0
  6
Continuous
 62
   252
100
AcDbVertex
100
AcDb2dVertex
 10
169.26096984
 20
32.9553653052
 30
0.0
 70
     8
  0
VERTEX
  5
2F4
330
2AF
100
AcDbEntity
  8
0
  6
Continuous
 62
   252
100
AcDbVertex
100
AcDb2dVertex
 10
169.4233429267
 20
32.9529756382
 30
0.0
 70
     8
  0
VERTEX
  5
2F5
330
2AF
100
AcDbEntity
  8
0
  6
Continuous
 62
   252
100
AcDbVertex
100
AcDb2dVertex
 10
169.8568141927
 20
32.9724815094
 30
0.0
 70
     8
  0
VERTEX
  5
2F6
330
2AF
100
AcDbEntity
  8
0
  6
Continuous
 62
   252
100
AcDbVertex
100
AcDb2dVertex
 10
170.2902538655
 20
33.0258706177
 30
0.0
 70
     8
  0
VERTEX
  5
2F7
330
2AF
100
AcDbEntity
  8
0
  6
Continuous
 62
   252
100
AcDbVertex
100
AcDb2dVertex
 10
170.7236648172
 20
33.1079196045
 30
0.0
 70
     8
  0
VERTEX
  5
2F8
330
2AF
100
AcDbEntity
  8
0
  6
Continuous
 62
   252
100
AcDbVertex
100
AcDb2dVertex
 10
171.1570499198
 20
33.213405111
 30
0.0
 70
     8
  0
VERTEX
  5
2F9
330
2AF
100
AcDbEntity
  8
0
  6
Continuous
 62
   252
100
AcDbVertex
100
AcDb2dVertex
 10
171.5904120455
 20
33.3371037787
 30
0.0
 70
     8
  0
VERTEX
  5
2FA
330
2AF
100
AcDbEntity
  8
0
  6
Continuous
 62
   252
100
AcDbVertex
100
AcDb2dVertex
 10
172.312638996
 20
33.5695550158
 30
0.0
 70
     8
  0
VERTEX
  5
2FB
330
2AF
100
AcDbEntity
  8
0
  6
Continuous
 62
   252
100
AcDbVertex
100
AcDb2dVertex
 10
173.0348233966
 20
33.8139068209
 30
0.0
 70
     8
  0
VERTEX
  5
2FC
330
2AF
100
AcDbEntity
  8
0
  6
Continuous
 62
   252
100
AcDbVertex
100
AcDb2dVertex
 10
173.7569785443
 20
34.0459769779
 30
0.0
 70
     8
  0
VERTEX
  5
2FD
330
2AF
100
AcDbEntity
  8
0
  6
Continuous
 62
   252
100
AcDbVertex
100
AcDb2dVertex
 10
174.1902631229
 20
34.1692640791
 30
0.0
 70
     8
  0
VERTEX
  5
2FE
330
2AF
100
AcDbEntity
  8
0
  6
Continuous
 62
   252
100
AcDbVertex
100
AcDb2dVertex
 10
174.6235448294
 20
34.2742008303
 30
0.0
 70
     8
  0
VERTEX
  5
2FF
330
2AF
100
AcDbEntity
  8
0
  6
Continuous
 62
   252
100
AcDbVertex
100
AcDb2dVertex
 10
175.0568265359
 20
34.355563873
 30
0.0
 70
     8
  0
VERTEX
  5
300
330
2AF
100
AcDbEntity
  8
0
  6
Continuous
 62
   252
100
AcDbVertex
100
AcDb2dVertex
 10
175.4901111145
 20
34.4081298483
 30
0.0
 70
     8
  0
VERTEX
  5
301
330
2AF
100
AcDbEntity
  8
0
  6
Continuous
 62
   252
100
AcDbVertex
100
AcDb2dVertex
 10
175.9234014373
 20
34.4266753977
 30
0.0
 70
     8
  0
VERTEX
  5
302
330
2AF
100
AcDbEntity
  8
0
  6
Continuous
 62
   252
100
AcDbVertex
100
AcDb2dVertex
 10
176.3566998021
 20
34.407720111
 30
0.0
 70
     8
  0
VERTEX
  5
303
330
2AF
100
AcDbEntity
  8
0
  6
Continuous
 62
   252
100
AcDbVertex
100
AcDb2dVertex
 10
176.7900062088
 20
34.3547553735
 30
0.0
 70
     8
  0
VERTEX
  5
304
330
2AF
100
AcDbEntity
  8
0
  6
Continuous
 62
   252
100
AcDbVertex
100
AcDb2dVertex
 10
177.2233200829
 20
34.2730155189
 30
0.0
 70
     8
  0
VERTEX
  5
305
330
2AF
100
AcDbEntity
  8
0
  6
Continuous
 62
   252
100
AcDbVertex
100
AcDb2dVertex
 10
177.6566408502
 20
34.1677348809
 30
0.0
 70
     8
  0
VERTEX
  5
306
330
2AF
100
AcDbEntity
  8
0
  6
Continuous
 62
   252
100
AcDbVertex
100
AcDb2dVertex
 10
178.0899679361
 20
34.0441477936
 30
0.0
 70
     8
  0
VERTEX
  5
307
330
2AF
100
AcDbEntity
  8
0
  6
Continuous
 62
   252
100
AcDbVertex
100
AcDb2dVertex
 10
178.8121922272
 20
33.8117050249
 30
0.0
 70
     8
  0
VERTEX
  5
308
330
2AF
100
AcDbEntity
  8
0
  6
Continuous
 62
   252
100
AcDbVertex
100
AcDb2dVertex
 10
179.5344298152
 20
33.5671838508
 30
0.0
 70
     8
  0
VERTEX
  5
309
330
2AF
100
AcDbEntity
  8
0
  6
Continuous
 62
   252
100
AcDbVertex
100
AcDb2dVertex
 10
180.2566780406
 20
33.3348172982
 30
0.0
 70
     8
  0
VERTEX
  5
30A
330
2AF
100
AcDbEntity
  8
0
  6
Continuous
 62
   252
100
AcDbVertex
100
AcDb2dVertex
 10
180.6900309755
 20
33.2113125241
 30
0.0
 70
     8
  0
VERTEX
  5
30B
330
2AF
100
AcDbEntity
  8
0
  6
Continuous
 62
   252
100
AcDbVertex
100
AcDb2dVertex
 10
181.1233862082
 20
33.1061416373
 30
0.0
 70
     8
  0
VERTEX
  5
30C
330
2AF
100
AcDbEntity
  8
0
  6
Continuous
 62
   252
100
AcDbVertex
100
AcDb2dVertex
 10
181.5567431641
 20
33.0245389714
 30
0.0
 70
     8
  0
VERTEX
  5
30D
330
2AF
100
AcDbEntity
  8
0
  6
Continuous
 62
   252
100
AcDbVertex
100
AcDb2dVertex
 10
181.9901012688
 20
32.9717388605
 30
0.0
 70
     8
  0
VERTEX
  5
30E
330
2AF
100
AcDbEntity
  8
0
  6
Continuous
 62
   252
100
AcDbVertex
100
AcDb2dVertex
 10
182.423459948
 20
32.9529756382
 30
0.0
 70
     8
  0
VERTEX
  5
30F
330
2AF
100
AcDbEntity
  8
0
  6
Continuous
 62
   252
100
AcDbVertex
100
AcDb2dVertex
 10
182.8568186271
 20
32.9717388605
 30
0.0
 70
     8
  0
VERTEX
  5
310
330
2AF
100
AcDbEntity
  8
0
  6
Continuous
 62
   252
100
AcDbVertex
100
AcDb2dVertex
 10
183.2901767319
 20
33.0245389714
 30
0.0
 70
     8
  0
VERTEX
  5
311
330
2AF
100
AcDbEntity
  8
0
  6
Continuous
 62
   252
100
AcDbVertex
100
AcDb2dVertex
 10
183.7235336878
 20
33.1061416373
 30
0.0
 70
     8
  0
VERTEX
  5
312
330
2AF
100
AcDbEntity
  8
0
  6
Continuous
 62
   252
100
AcDbVertex
100
AcDb2dVertex
 10
184.1568889204
 20
33.2113125241
 30
0.0
 70
     8
  0
VERTEX
  5
313
330
2AF
100
AcDbEntity
  8
0
  6
Continuous
 62
   252
100
AcDbVertex
100
AcDb2dVertex
 10
184.5902418553
 20
33.3348172982
 30
0.0
 70
     8
  0
VERTEX
  5
314
330
2AF
100
AcDbEntity
  8
0
  6
Continuous
 62
   252
100
AcDbVertex
100
AcDb2dVertex
 10
185.3124900807
 20
33.5671838508
 30
0.0
 70
     8
  0
VERTEX
  5
315
330
2AF
100
AcDbEntity
  8
0
  6
Continuous
 62
   252
100
AcDbVertex
100
AcDb2dVertex
 10
186.0347276687
 20
33.8117050249
 30
0.0
 70
     8
  0
VERTEX
  5
316
330
2AF
100
AcDbEntity
  8
0
  6
Continuous
 62
   252
100
AcDbVertex
100
AcDb2dVertex
 10
186.7569519598
 20
34.0441477936
 30
0.0
 70
     8
  0
VERTEX
  5
317
330
2AF
100
AcDbEntity
  8
0
  6
Continuous
 62
   252
100
AcDbVertex
100
AcDb2dVertex
 10
187.1902790457
 20
34.1677348809
 30
0.0
 70
     8
  0
VERTEX
  5
318
330
2AF
100
AcDbEntity
  8
0
  6
Continuous
 62
   252
100
AcDbVertex
100
AcDb2dVertex
 10
187.623599813
 20
34.2730155189
 30
0.0
 70
     8
  0
VERTEX
  5
319
330
2AF
100
AcDbEntity
  8
0
  6
Continuous
 62
   252
100
AcDbVertex
100
AcDb2dVertex
 10
188.0569136872
 20
34.3547553735
 30
0.0
 70
     8
  0
VERTEX
  5
31A
330
2AF
100
AcDbEntity
  8
0
  6
Continuous
 62
   252
100
AcDbVertex
100
AcDb2dVertex
 10
188.4902200938
 20
34.407720111
 30
0.0
 70
     8
  0
VERTEX
  5
31B
330
2AF
100
AcDbEntity
  8
0
  6
Continuous
 62
   252
100
AcDbVertex
100
AcDb2dVertex
 10
188.9235184586
 20
34.4266753977
 30
0.0
 70
     8
  0
VERTEX
  5
31C
330
2AF
100
AcDbEntity
  8
0
  6
Continuous
 62
   252
100
AcDbVertex
100
AcDb2dVertex
 10
189.3568087814
 20
34.4081298483
 30
0.0
 70
     8
  0
VERTEX
  5
31D
330
2AF
100
AcDbEntity
  8
0
  6
Continuous
 62
   252
100
AcDbVertex
100
AcDb2dVertex
 10
189.7900933601
 20
34.355563873
 30
0.0
 70
     8
  0
VERTEX
  5
31E
330
2AF
100
AcDbEntity
  8
0
  6
Continuous
 62
   252
100
AcDbVertex
100
AcDb2dVertex
 10
190.2233750666
 20
34.2742008303
 30
0.0
 70
     8
  0
VERTEX
  5
31F
330
2AF
100
AcDbEntity
  8
0
  6
Continuous
 62
   252
100
AcDbVertex
100
AcDb2dVertex
 10
190.656656773
 20
34.1692640791
 30
0.0
 70
     8
  0
VERTEX
  5
320
330
2AF
100
AcDbEntity
  8
0
  6
Continuous
 62
   252
100
AcDbVertex
100
AcDb2dVertex
 10
191.0899413517
 20
34.0459769779
 30
0.0
 70
     8
  0
VERTEX
  5
321
330
2AF
100
AcDbEntity
  8
0
  6
Continuous
 62
   252
100
AcDbVertex
100
AcDb2dVertex
 10
191.8120964993
 20
33.8139068209
 30
0.0
 70
     8
  0
VERTEX
  5
322
330
2AF
100
AcDbEntity
  8
0
  6
Continuous
 62
   252
100
AcDbVertex
100
AcDb2dVertex
 10
192.5342808999
 20
33.5695550158
 30
0.0
 70
     8
  0
VERTEX
  5
323
330
2AF
100
AcDbEntity
  8
0
  6
Continuous
 62
   252
100
AcDbVertex
100
AcDb2dVertex
 10
193.2565078504
 20
33.3371037787
 30
0.0
 70
     8
  0
VERTEX
  5
324
330
2AF
100
AcDbEntity
  8
0
  6
Continuous
 62
   252
100
AcDbVertex
100
AcDb2dVertex
 10
193.6898699761
 20
33.213405111
 30
0.0
 70
     8
  0
VERTEX
  5
325
330
2AF
100
AcDbEntity
  8
0
  6
Continuous
 62
   252
100
AcDbVertex
100
AcDb2dVertex
 10
194.1232550788
 20
33.1079196045
 30
0.0
 70
     8
  0
VERTEX
  5
326
330
2AF
100
AcDbEntity
  8
0
  6
Continuous
 62
   252
100
AcDbVertex
100
AcDb2dVertex
 10
194.5566660304
 20
33.0258706177
 30
0.0
 70
     8
  0
VERTEX
  5
327
330
2AF
100
AcDbEntity
  8
0
  6
Continuous
 62
   252
100
AcDbVertex
100
AcDb2dVertex
 10
194.9901057032
 20
32.9724815094
 30
0.0
 70
     8
  0
VERTEX
  5
328
330
2AF
100
AcDbEntity
  8
0
  6
Continuous
 62
   252
100
AcDbVertex
100
AcDb2dVertex
 10
195.4235769692
 20
32.9529756382
 30
0.0
 70
     8
  0
VERTEX
  5
329
330
2AF
100
AcDbEntity
  8
0
  6
Continuous
 62
   252
100
AcDbVertex
100
AcDb2dVertex
 10
195.6400753936
 20
32.9573340826
 30
0.0
 70
     8
  0
VERTEX
  5
32A
330
2AF
100
AcDbEntity
  8
0
  6
Continuous
 62
   252
100
AcDbVertex
100
AcDb2dVertex
 10
195.856581055
 20
32.9708014687
 30
0.0
 70
     8
  0
VERTEX
  5
32B
330
2AF
100
AcDbEntity
  8
0
  6
Continuous
 62
   252
100
AcDbVertex
100
AcDb2dVertex
 10
196.0730925937
 20
32.992732599
 30
0.0
 70
     8
  0
VERTEX
  5
32C
330
2AF
100
AcDbEntity
  8
0
  6
Continuous
 62
   252
100
AcDbVertex
100
AcDb2dVertex
 10
196.235479287
 20
33.0143471522
 30
0.0
 70
     8
  0
VERTEX
  5
32D
330
2AF
100
AcDbEntity
  8
0
  6
Continuous
 62
   252
100
AcDbVertex
100
AcDb2dVertex
 10
196.397867948
 20
33.040087445
 30
0.0
 70
     8
  0
VERTEX
  5
32E
330
2AF
100
AcDbEntity
  8
0
  6
Continuous
 62
   252
100
AcDbVertex
100
AcDb2dVertex
 10
196.308518085
 20
32.8897376553
 30
0.0
 70
     8
  0
VERTEX
  5
32F
330
2AF
100
AcDbEntity
  8
0
  6
Continuous
 62
   252
100
AcDbVertex
100
AcDb2dVertex
 10
196.2123136419
 20
32.7434088991
 30
0.0
 70
     8
  0
VERTEX
  5
330
330
2AF
100
AcDbEntity
  8
0
  6
Continuous
 62
   252
100
AcDbVertex
100
AcDb2dVertex
 10
196.1095365653
 20
32.6015635699
 30
0.0
 70
     8
  0
VERTEX
  5
331
330
2AF
100
AcDbEntity
  8
0
  6
Continuous
 62
   252
100
AcDbVertex
100
AcDb2dVertex
 10
196.0283332548
 20
32.4983847402
 30
0.0
 70
     8
  0
VERTEX
  5
332
330
2AF
100
AcDbEntity
  8
0
  6
Continuous
 62
   252
100
AcDbVertex
100
AcDb2dVertex
 10
195.943763948
 20
32.398145323
 30
0.0
 70
     8
  0
SEQEND
  5
333
330
2AF
100
AcDbEntity
  8
0
  6
Continuous
 62
   252
 48
25.4
370
     0
  0
SPLINE
  5
334
330
1F
100
AcDbEntity
  8
Standard
  6
Continuous
 62
     7
 48
25.4
100
AcDbSpline
210
0.0
220
0.0
230
1.0
 70
    11
 71
     1
 72
   133
 73
   131
 74
     0
 42
0.0000000001
 43
0.0000000001
 40
0.0
 40
0.0
 40
0.0076923076923077
 40
0.0153846153846154
 40
0.0230769230769231
 40
0.0307692307692308
 40
0.0384615384615385
 40
0.0461538461538462
 40
0.0538461538461538
 40
0.0615384615384615
 40
0.0692307692307692
 40
0.0769230769230769
 40
0.0846153846153846
 40
0.0923076923076923
 40
0.1
 40
0.1076923076923077
 40
0.1153846153846154
 40
0.1230769230769231
 40
0.1307692307692308
 40
0.1384615384615385
 40
0.1461538461538462
 40
0.1538461538461539
 40
0.1615384615384616
 40
0.1692307692307692
 40
0.1769230769230769
 40
0.1846153846153846
 40
0.1923076923076923
 40
0.2
 40
0.2076923076923077
 40
0.2153846153846154
 40
0.2230769230769231
 40
0.2307692307692308
 40
0.2384615384615385
 40
0.2461538461538462
 40
0.2538461538461538
 40
0.2615384615384616
 40
0.2692307692307693
 40
0.2769230769230769
 40
0.2846153846153846
 40
0.2923076923076923
 40
0.3
 40
0.3076923076923077
 40
0.3153846153846154
 40
0.3230769230769231
 40
0.3307692307692308
 40
0.3384615384615385
 40
0.3461538461538462
 40
0.3538461538461539
 40
0.3615384615384616
 40
0.3692307692307693
 40
0.3769230769230769
 40
0.3846153846153846
 40
0.3923076923076924
 40
0.4
 40
0.4076923076923077
 40
0.4153846153846154
 40
0.4230769230769231
 40
0.4307692307692308
 40
0.4384615384615385
 40
0.4461538461538462
 40
0.4538461538461539
 40
0.4615384615384616
 40
0.4692307692307692
 40
0.476923076923077
 40
0.4846153846153847
 40
0.4923076923076923
 40
0.5
 40
0.5076923076923077
 40
0.5153846153846154
 40
0.5230769230769231
 40
0.5307692307692308
 40
0.5384615384615386
 40
0.5461538461538462
 40
0.5538461538461539
 40
0.5615384615384615
 40
0.5692307692307692
 40
0.576923076923077
 40
0.5846153846153847
 40
0.5923076923076923
 40
0.6000000000000001
 40
0.6076923076923078
 40
0.6153846153846154
 40
0.6230769230769231
 40
0.6307692307692308
 40
0.6384615384615385
 40
0.6461538461538462
 40
0.6538461538461539
 40
0.6615384615384616
 40
0.6692307692307693
 40
0.676923076923077
 40
0.6846153846153846
 40
0.6923076923076923
 40
0.7000000000000001
 40
0.7076923076923077
 40
0.7153846153846154
 40
0.7230769230769232
 40
0.7307692307692308
 40
0.7384615384615385
 40
0.7461538461538462
 40
0.7538461538461538
 40
0.7615384615384616
 40
0.7692307692307693
 40
0.7769230769230769
 40
0.7846153846153847
 40
0.7923076923076924
 40
0.8
 40
0.8076923076923077
 40
0.8153846153846154
 40
0.8230769230769232
 40
0.8307692307692308
 40
0.8384615384615385
 40
0.8461538461538463
 40
0.8538461538461539
 40
0.8615384615384616
 40
0.8692307692307693
 40
0.8769230769230769
 40
0.8846153846153847
 40
0.8923076923076924
 40
0.9
 40
0.9076923076923078
 40
0.9153846153846155
 40
0.9230769230769231
 40
0.9307692307692308
 40
0.9384615384615385
 40
0.9461538461538462
 40
0.9538461538461539
 40
0.9615384615384616
 40
0.9692307692307693
 40
0.976923076923077
 40
0.9846153846153847
 40
0.9923076923076923
 40
1.0
 40
1.0
 10
195.9437639479961
 20
32.39814532300313
 30
0.0
 10
195.7560833047569
 20
32.38150684614894
 30
0.0
 10
195.5684073499824
 20
32.37135809082063
 30
0.0
 10
195.3807369692428
 20
32.36811936736313
 30
0.0
 10
194.9472657031936
 20
32.38762753962421
 30
0.0
 10
194.513826030403
 20
32.44102294631368
 30
0.0
 10
194.0804150787567
 20
32.52308161251853
 30
0.0
 10
193.6470299761404
 20
32.62857956332573
 30
0.0
 10
193.2136678504394
 20
32.75229282382221
 30
0.0
 10
192.4914408999453
 20
32.98477148345472
 30
0.0
 10
191.7692564992946
 20
33.22915211509058
 30
0.0
 10
191.0471013516612
 20
33.46124964968796
 30
0.0
 10
190.6138167730499
 20
33.58455129514653
 30
0.0
 10
190.180535066553
 20
33.68950042590315
 30
0.0
 10
189.747253360056
 20
33.77087306704479
 30
0.0
 10
189.3139687814447
 20
33.82344524365841
 30
0.0
 10
188.8806784586045
 20
33.84199298083099
 30
0.0
 10
188.4502357226801
 20
33.82327748735599
 30
0.0
 10
188.0197850467487
 20
33.77096132989178
 30
0.0
 10
187.5893269939509
 20
33.69017663937338
 30
0.0
 10
187.1588621274273
 20
33.5860555467358
 30
0.0
 10
186.7283910103185
 20
33.46373018291405
 30
0.0
 10
186.0109267877985
 20
33.23333976163773
 30
0.0
 10
185.2934493739533
 20
32.99039770510921
 30
0.0
 10
184.5759613759153
 20
32.75866387876836
 30
0.0
 10
184.1454645812468
 20
32.63488763747692
 30
0.0
 10
183.7149654779771
 20
32.52883204154642
 30
0.0
 10
183.2844646292467
 20
32.44562922191184
 30
0.0
 10
182.8539625981962
 20
32.39041130950825
 30
0.0
 10
182.4234599479661
 20
32.36831043527062
 30
0.0
 10
181.992957297736
 20
32.39041130950827
 30
0.0
 10
181.5624552666855
 20
32.44562922191187
 30
0.0
 10
181.1319544179551
 20
32.52883204154644
 30
0.0
 10
180.7014553146854
 20
32.63488763747694
 30
0.0
 10
180.2709585200171
 20
32.75866387876839
 30
0.0
 10
179.553470521979
 20
32.99039770510925
 30
0.0
 10
178.8359931081339
 20
33.23333976163777
 30
0.0
 10
178.1185288856139
 20
33.4637301829141
 30
0.0
 10
177.6880577685051
 20
33.58605554673584
 30
0.0
 10
177.2575929019814
 20
33.69017663937343
 30
0.0
 10
176.8271348491837
 20
33.77096132989182
 30
0.0
 10
176.3966841732523
 20
33.82327748735603
 30
0.0
 10
175.9662414373279
 20
33.84199298083104
 30
0.0
 10
175.5329511144877
 20
33.82344524365846
 30
0.0
 10
175.0996665358763
 20
33.77087306704484
 30
0.0
 10
174.6663848293794
 20
33.68950042590319
 30
0.0
 10
174.2331031228825
 20
33.58455129514658
 30
0.0
 10
173.7998185442712
 20
33.46124964968801
 30
0.0
 10
173.0776633966378
 20
33.22915211509063
 30
0.0
 10
172.3554789959871
 20
32.98477148345477
 30
0.0
 10
171.633252045493
 20
32.75229282382227
 30
0.0
 10
171.199889919792
 20
32.62857956332578
 30
0.0
 10
170.7665048171756
 20
32.5230816125186
 30
0.0
 10
170.3330938655294
 20
32.44102294631375
 30
0.0
 10
169.8996541927388
 20
32.38762753962426
 30
0.0
 10
169.4661829266895
 20
32.36811936736319
 30
0.0
 10
169.2785125459489
 20
32.37135809082082
 30
0.0
 10
169.0908365911667
 20
32.38150684614995
 30
0.0
 10
168.9031559479066
 20
32.39814532300638
 30
0.0
 10
168.7911372160355
 20
32.53245936166769
 30
0.0
 10
168.6851924704777
 20
32.67189791672561
 30
0.0
 10
168.5856638368063
 20
32.8160411648753
 30
0.0
 10
168.5154116562073
 20
32.92696672402679
 30
0.0
 10
168.4490519479663
 20
33.04008744503376
 30
0.0
 10
168.6655697536875
 20
33.00667044399911
 30
0.0
 10
168.8820837213129
 20
32.98074939070661
 30
0.0
 10
169.0985924912969
 20
32.9629694827764
 30
0.0
 10
169.2609698399812
 20
32.95536530516614
 30
0.0
 10
169.4233429266895
 20
32.95297563822953
 30
0.0
 10
169.8568141927388
 20
32.9724815093609
 30
0.0
 10
170.2902538655293
 20
33.0258706176768
 30
0.0
 10
170.7236648171756
 20
33.10791960446978
 30
0.0
 10
171.157049919792
 20
33.21340511103227
 30
0.0
 10
171.5904120454929
 20
33.33710377865685
 30
0.0
 10
172.312638995987
 20
33.56955501575368
 30
0.0
 10
173.0348233966377
 20
33.81390682093036
 30
0.0
 10
173.7569785442711
 20
34.04597697794849
 30
0.0
 10
174.1902631228824
 20
34.16926407908812
 30
0.0
 10
174.6235448293794
 20
34.27420083033735
 30
0.0
 10
175.0568265358763
 20
34.3555638729887
 30
0.0
 10
175.4901111144876
 20
34.40812984833468
 30
0.0
 10
175.9234014373278
 20
34.4266753976678
 30
0.0
 10
176.3566998020884
 20
34.40772011103407
 30
0.0
 10
176.7900062087694
 20
34.35475537349379
 30
0.0
 10
177.2233200829479
 20
34.27301551886063
 30
0.0
 10
177.6566408502011
 20
34.16773488094841
 30
0.0
 10
178.089967936106
 20
34.04414779357084
 30
0.0
 10
178.8121922272349
 20
33.81170502492023
 30
0.0
 10
179.5344298151899
 20
33.56718385081968
 30
0.0
 10
180.2566780406056
 20
33.33481729818479
 30
0.0
 10
180.6900309755404
 20
33.21131252410422
 30
0.0
 10
181.1233862081668
 20
33.10614163725466
 30
0.0
 10
181.5567431640617
 20
33.02453897144984
 30
0.0
 10
181.9901012688025
 20
32.97173886050351
 30
0.0
 10
182.4234599479661
 20
32.95297563822946
 30
0.0
 10
182.8568186271297
 20
32.97173886050351
 30
0.0
 10
183.2901767318705
 20
33.02453897144982
 30
0.0
 10
183.7235336877655
 20
33.10614163725465
 30
0.0
 10
184.1568889203918
 20
33.21131252410422
 30
0.0
 10
184.5902418553266
 20
33.33481729818478
 30
0.0
 10
185.3124900807424
 20
33.56718385081967
 30
0.0
 10
186.0347276686974
 20
33.81170502492019
 30
0.0
 10
186.7569519598263
 20
34.04414779357082
 30
0.0
 10
187.1902790457312
 20
34.16773488094837
 30
0.0
 10
187.6235998129844
 20
34.2730155188606
 30
0.0
 10
188.0569136871629
 20
34.35475537349375
 30
0.0
 10
188.4902200938439
 20
34.40772011103405
 30
0.0
 10
188.9235184586045
 20
34.42667539766776
 30
0.0
 10
189.3568087814447
 20
34.40812984833464
 30
0.0
 10
189.790093360056
 20
34.35556387298867
 30
0.0
 10
190.2233750665529
 20
34.27420083033731
 30
0.0
 10
190.6566567730499
 20
34.16926407908807
 30
0.0
 10
191.0899413516612
 20
34.04597697794846
 30
0.0
 10
191.8120964992945
 20
33.81390682093032
 30
0.0
 10
192.5342808999452
 20
33.56955501575364
 30
0.0
 10
193.2565078504393
 20
33.33710377865683
 30
0.0
 10
193.6898699761402
 20
33.21340511103223
 30
0.0
 10
194.1232550787566
 20
33.10791960446969
 30
0.0
 10
194.5566660304029
 20
33.02587061767675
 30
0.0
 10
194.9901057031935
 20
32.97248150936083
 30
0.0
 10
195.4235769692428
 20
32.95297563822946
 30
0.0
 10
195.6400753936169
 20
32.95733408257838
 30
0.0
 10
195.8565810549507
 20
32.97080146871989
 30
0.0
 10
196.0730925936986
 20
32.99273259903379
 30
0.0
 10
196.2354792869609
 20
33.01434715218897
 30
0.0
 10
196.3978679479661
 20
33.04008744503379
 30
0.0
 10
196.3085180849766
 20
32.88973765533248
 30
0.0
 10
196.2123136419326
 20
32.74340889913487
 30
0.0
 10
196.1095365653352
 20
32.60156356987058
 30
0.0
 10
196.0283332547601
 20
32.49838474015061
 30
0.0
 10
195.9437639479961
 20
32.39814532300313
 30
0.0
  0
HATCH
  5
335
330
1F
100
AcDbEntity
  8
0
  6
Continuous
 62
   252
 48
25.4
100
AcDbHatch
 10
0.0
 20
0.0
 30
0.0
210
0.0
220
0.0
230
1.0
  2
SOLID
 70
     1
 71
     0
 91
        1
 92
        1
 93
       12
 72
     1
 10
191.7769814798811
 20
40.78878873619113
 11
190.4096107139236
 21
40.78878873619114
 72
     1
 10
190.4096107139236
 20
40.78878873619114
 11
190.4096107139236
 21
38.8501682949955
 72
     1
 10
190.4096107139236
 20
38.8501682949955
 11
187.986233947966
 21
38.85016829499551
 72
     1
 10
187.986233947966
 20
38.85016829499551
 11
187.986233947966
 21
40.78878873619115
 72
     1
 10
187.986233947966
 20
40.78878873619115
 11
186.6274311820089
 21
40.78878873619115
 72
     1
 10
186.6274311820089
 20
40.78878873619115
 11
186.6274311820088
 21
35.53234701839966
 72
     1
 10
186.6274311820088
 20
35.53234701839966
 11
187.986233947966
 21
35.53234701839966
 72
     1
 10
187.986233947966
 20
35.53234701839966
 11
187.986233947966
 21
37.76549595456993
 72
     1
 10
187.986233947966
 20
37.76549595456993
 11
190.4096107139236
 21
37.76549595456992
 72
     1
 10
190.4096107139236
 20
37.76549595456992
 11
190.4096107139236
 21
35.53234701839965
 72
     1
 10
190.4096107139236
 20
35.53234701839965
 11
191.7769814798811
 21
35.53234701839964
 72
     1
 10
191.7769814798811
 20
35.53234701839964
 11
191.7769814798811
 21
40.78878873619113
 97
        0
 75
     0
 76
     1
 98
        0
  0
POLYLINE
  5
336
330
1F
100
AcDbEntity
  8
0
  6
Continuous
 62
   252
 48
25.4
370
     0
100
AcDb2dPolyline
 66
     1
 10
0.0
 20
0.0
 30
0.0
 70
     1
  0
VERTEX
  5
337
330
336
100
AcDbEntity
  8
0
  6
Continuous
 62
   252
100
AcDbVertex
100
AcDb2dVertex
 10
191.7769814799
 20
40.7887887362
 30
0.0
 70
     8
  0
VERTEX
  5
338
330
336
100
AcDbEntity
  8
0
  6
Continuous
 62
   252
100
AcDbVertex
100
AcDb2dVertex
 10
190.4096107139
 20
40.7887887362
 30
0.0
 70
     8
  0
VERTEX
  5
339
330
336
100
AcDbEntity
  8
0
  6
Continuous
 62
   252
100
AcDbVertex
100
AcDb2dVertex
 10
190.4096107139
 20
38.850168295
 30
0.0
 70
     8
  0
VERTEX
  5
33A
330
336
100
AcDbEntity
  8
0
  6
Continuous
 62
   252
100
AcDbVertex
100
AcDb2dVertex
 10
187.986233948
 20
38.850168295
 30
0.0
 70
     8
  0
VERTEX
  5
33B
330
336
100
AcDbEntity
  8
0
  6
Continuous
 62
   252
100
AcDbVertex
100
AcDb2dVertex
 10
187.986233948
 20
40.7887887362
 30
0.0
 70
     8
  0
VERTEX
  5
33C
330
336
100
AcDbEntity
  8
0
  6
Continuous
 62
   252
100
AcDbVertex
100
AcDb2dVertex
 10
186.627431182
 20
40.7887887362
 30
0.0
 70
     8
  0
VERTEX
  5
33D
330
336
100
AcDbEntity
  8
0
  6
Continuous
 62
   252
100
AcDbVertex
100
AcDb2dVertex
 10
186.627431182
 20
35.5323470184
 30
0.0
 70
     8
  0
VERTEX
  5
33E
330
336
100
AcDbEntity
  8
0
  6
Continuous
 62
   252
100
AcDbVertex
100
AcDb2dVertex
 10
187.986233948
 20
35.5323470184
 30
0.0
 70
     8
  0
VERTEX
  5
33F
330
336
100
AcDbEntity
  8
0
  6
Continuous
 62
   252
100
AcDbVertex
100
AcDb2dVertex
 10
187.986233948
 20
37.7654959546
 30
0.0
 70
     8
  0
VERTEX
  5
340
330
336
100
AcDbEntity
  8
0
  6
Continuous
 62
   252
100
AcDbVertex
100
AcDb2dVertex
 10
190.4096107139
 20
37.7654959546
 30
0.0
 70
     8
  0
VERTEX
  5
341
330
336
100
AcDbEntity
  8
0
  6
Continuous
 62
   252
100
AcDbVertex
100
AcDb2dVertex
 10
190.4096107139
 20
35.5323470184
 30
0.0
 70
     8
  0
VERTEX
  5
342
330
336
100
AcDbEntity
  8
0
  6
Continuous
 62
   252
100
AcDbVertex
100
AcDb2dVertex
 10
191.7769814799
 20
35.5323470184
 30
0.0
 70
     8
  0
VERTEX
  5
343
330
336
100
AcDbEntity
  8
0
  6
Continuous
 62
   252
100
AcDbVertex
100
AcDb2dVertex
 10
191.7769814799
 20
40.7887887362
 30
0.0
 70
     8
  0
SEQEND
  5
344
330
336
100
AcDbEntity
  8
0
  6
Continuous
 62
   252
 48
25.4
370
     0
  0
SPLINE
  5
345
330
1F
100
AcDbEntity
  8
Standard
  6
Continuous
 62
     7
 48
25.4
100
AcDbSpline
210
0.0
220
0.0
230
1.0
 70
    11
 71
     1
 72
    15
 73
    13
 74
     0
 42
0.0000000001
 43
0.0000000001
 40
0.0
 40
0.0
 40
0.0833333333333333
 40
0.1666666666666667
 40
0.25
 40
0.3333333333333333
 40
0.4166666666666666
 40
0.5
 40
0.5833333333333333
 40
0.6666666666666666
 40
0.75
 40
0.8333333333333333
 40
0.9166666666666666
 40
1.0
 40
1.0
 10
191.7769814798811
 20
40.78878873619113
 30
0.0
 10
190.4096107139236
 20
40.78878873619114
 30
0.0
 10
190.4096107139236
 20
38.8501682949955
 30
0.0
 10
187.986233947966
 20
38.85016829499551
 30
0.0
 10
187.986233947966
 20
40.78878873619115
 30
0.0
 10
186.6274311820089
 20
40.78878873619115
 30
0.0
 10
186.6274311820088
 20
35.53234701839966
 30
0.0
 10
187.986233947966
 20
35.53234701839966
 30
0.0
 10
187.986233947966
 20
37.76549595456993
 30
0.0
 10
190.4096107139236
 20
37.76549595456992
 30
0.0
 10
190.4096107139236
 20
35.53234701839965
 30
0.0
 10
191.7769814798811
 20
35.53234701839964
 30
0.0
 10
191.7769814798811
 20
40.78878873619113
 30
0.0
  0
HATCH
  5
346
330
1F
100
AcDbEntity
  8
0
  6
Continuous
 62
   252
 48
25.4
100
AcDbHatch
 10
0.0
 20
0.0
 30
0.0
210
0.0
220
0.0
230
1.0
  2
SOLID
 70
     1
 71
     0
 91
        1
 92
        1
 93
       12
 72
     1
 10
197.2021205862642
 20
35.53234701839963
 11
197.2021205862642
 21
36.53726403967632
 72
     1
 10
197.2021205862642
 20
36.53726403967632
 11
194.6210105862641
 21
36.53726403967633
 72
     1
 10
194.6210105862641
 20
36.53726403967633
 11
194.6210105862641
 21
37.82930020988904
 72
     1
 10
194.6210105862641
 20
37.82930020988904
 11
196.4922982458385
 21
37.82930020988903
 72
     1
 10
196.4922982458385
 20
37.82930020988903
 11
196.4922982458385
 21
38.8023151035061
 72
     1
 10
196.4922982458385
 20
38.8023151035061
 11
194.6210105862641
 21
38.8023151035061
 72
     1
 10
194.6210105862641
 20
38.8023151035061
 11
194.6210105862641
 21
39.78387171491456
 72
     1
 10
194.6210105862641
 20
39.78387171491456
 11
196.8511971820087
 21
39.78387171491455
 72
     1
 10
196.8511971820087
 20
39.78387171491455
 11
196.8511971820087
 21
40.78878873619112
 72
     1
 10
196.8511971820087
 20
40.78878873619112
 11
193.2622078203067
 21
40.78878873619113
 72
     1
 10
193.2622078203067
 20
40.78878873619113
 11
193.2622078203067
 21
35.53234701839964
 72
     1
 10
193.2622078203067
 20
35.53234701839964
 11
197.2021205862642
 21
35.53234701839963
 97
        0
 75
     0
 76
     1
 98
        0
  0
POLYLINE
  5
347
330
1F
100
AcDbEntity
  8
0
  6
Continuous
 62
   252
 48
25.4
370
     0
100
AcDb2dPolyline
 66
     1
 10
0.0
 20
0.0
 30
0.0
 70
     1
  0
VERTEX
  5
348
330
347
100
AcDbEntity
  8
0
  6
Continuous
 62
   252
100
AcDbVertex
100
AcDb2dVertex
 10
197.2021205863
 20
35.5323470184
 30
0.0
 70
     8
  0
VERTEX
  5
349
330
347
100
AcDbEntity
  8
0
  6
Continuous
 62
   252
100
AcDbVertex
100
AcDb2dVertex
 10
193.2622078203
 20
35.5323470184
 30
0.0
 70
     8
  0
VERTEX
  5
34A
330
347
100
AcDbEntity
  8
0
  6
Continuous
 62
   252
100
AcDbVertex
100
AcDb2dVertex
 10
193.2622078203
 20
40.7887887362
 30
0.0
 70
     8
  0
VERTEX
  5
34B
330
347
100
AcDbEntity
  8
0
  6
Continuous
 62
   252
100
AcDbVertex
100
AcDb2dVertex
 10
196.851197182
 20
40.7887887362
 30
0.0
 70
     8
  0
VERTEX
  5
34C
330
347
100
AcDbEntity
  8
0
  6
Continuous
 62
   252
100
AcDbVertex
100
AcDb2dVertex
 10
196.851197182
 20
39.7838717149
 30
0.0
 70
     8
  0
VERTEX
  5
34D
330
347
100
AcDbEntity
  8
0
  6
Continuous
 62
   252
100
AcDbVertex
100
AcDb2dVertex
 10
194.6210105863
 20
39.7838717149
 30
0.0
 70
     8
  0
VERTEX
  5
34E
330
347
100
AcDbEntity
  8
0
  6
Continuous
 62
   252
100
AcDbVertex
100
AcDb2dVertex
 10
194.6210105863
 20
38.8023151035
 30
0.0
 70
     8
  0
VERTEX
  5
34F
330
347
100
AcDbEntity
  8
0
  6
Continuous
 62
   252
100
AcDbVertex
100
AcDb2dVertex
 10
196.4922982458
 20
38.8023151035
 30
0.0
 70
     8
  0
VERTEX
  5
350
330
347
100
AcDbEntity
  8
0
  6
Continuous
 62
   252
100
AcDbVertex
100
AcDb2dVertex
 10
196.4922982458
 20
37.8293002099
 30
0.0
 70
     8
  0
VERTEX
  5
351
330
347
100
AcDbEntity
  8
0
  6
Continuous
 62
   252
100
AcDbVertex
100
AcDb2dVertex
 10
194.6210105863
 20
37.8293002099
 30
0.0
 70
     8
  0
VERTEX
  5
352
330
347
100
AcDbEntity
  8
0
  6
Continuous
 62
   252
100
AcDbVertex
100
AcDb2dVertex
 10
194.6210105863
 20
36.5372640397
 30
0.0
 70
     8
  0
VERTEX
  5
353
330
347
100
AcDbEntity
  8
0
  6
Continuous
 62
   252
100
AcDbVertex
100
AcDb2dVertex
 10
197.2021205863
 20
36.5372640397
 30
0.0
 70
     8
  0
VERTEX
  5
354
330
347
100
AcDbEntity
  8
0
  6
Continuous
 62
   252
100
AcDbVertex
100
AcDb2dVertex
 10
197.2021205863
 20
35.5323470184
 30
0.0
 70
     8
  0
SEQEND
  5
355
330
347
100
AcDbEntity
  8
0
  6
Continuous
 62
   252
 48
25.4
370
     0
  0
SPLINE
  5
356
330
1F
100
AcDbEntity
  8
Standard
  6
Continuous
 62
     7
 48
25.4
100
AcDbSpline
210
0.0
220
0.0
230
1.0
 70
    11
 71
     1
 72
    15
 73
    13
 74
     0
 42
0.0000000001
 43
0.0000000001
 40
0.0
 40
0.0
 40
0.0833333333333333
 40
0.1666666666666667
 40
0.25
 40
0.3333333333333333
 40
0.4166666666666666
 40
0.5
 40
0.5833333333333333
 40
0.6666666666666666
 40
0.75
 40
0.8333333333333333
 40
0.9166666666666666
 40
1.0
 40
1.0
 10
197.2021205862642
 20
35.53234701839963
 30
0.0
 10
193.2622078203067
 20
35.53234701839964
 30
0.0
 10
193.2622078203067
 20
40.78878873619113
 30
0.0
 10
196.8511971820087
 20
40.78878873619112
 30
0.0
 10
196.8511971820087
 20
39.78387171491455
 30
0.0
 10
194.6210105862641
 20
39.78387171491456
 30
0.0
 10
194.6210105862641
 20
38.8023151035061
 30
0.0
 10
196.4922982458385
 20
38.8023151035061
 30
0.0
 10
196.4922982458385
 20
37.82930020988903
 30
0.0
 10
194.6210105862641
 20
37.82930020988904
 30
0.0
 10
194.6210105862641
 20
36.53726403967633
 30
0.0
 10
197.2021205862642
 20
36.53726403967632
 30
0.0
 10
197.2021205862642
 20
35.53234701839963
 30
0.0
  0
LINE
  5
357
330
1F
100
AcDbEntity
  8
Default
  6
Continuous
 62
     7
 48
25.4
100
AcDbLine
 10
6.6
 20
45.0
 30
0.0
 11
203.0048694642
 21
45.0
 31
0.0
  0
LINE
  5
358
330
1F
100
AcDbEntity
  8
Default
  6
Continuous
 62
     7
 48
25.4
100
AcDbLine
 10
6.6
 20
25.0
 30
0.0
 11
203.0048694642
 21
25.0
 31
0.0
  0
LINE
  5
359
330
1F
100
AcDbEntity
  8
Default
  6
Continuous
 62
     7
 48
25.4
100
AcDbLine
 10
6.6
 20
40.0
 30
0.0
 11
105.0
 21
40.0
 31
0.0
  0
LINE
  5
35A
330
1F
100
AcDbEntity
  8
Default
  6
Continuous
 62
     7
 48
25.4
100
AcDbLine
 10
25.0
 20
35.0
 30
0.0
 11
105.0
 21
35.0
 31
0.0
  0
LINE
  5
35B
330
1F
100
AcDbEntity
  8
Default
  6
Continuous
 62
     7
 48
25.4
100
AcDbLine
 10
25.0
 20
30.0
 30
0.0
 11
85.0
 21
30.0
 31
0.0
  0
LINE
  5
35C
330
1F
100
AcDbEntity
  8
Default
  6
Continuous
 62
     7
 48
25.4
100
AcDbLine
 10
25.0
 20
45.0
 30
0.0
 11
25.0
 21
5.0
 31
0.0
  0
LINE
  5
35D
330
1F
100
AcDbEntity
  8
Default
  6
Continuous
 62
     7
 48
25.4
100
AcDbLine
 10
45.0
 20
45.0
 30
0.0
 11
45.0
 21
5.0
 31
0.0
  0
LINE
  5
35E
330
1F
100
AcDbEntity
  8
Default
  6
Continuous
 62
     7
 48
25.4
100
AcDbLine
 10
65.0
 20
45.0
 30
0.0
 11
65.0
 21
25.0
 31
0.0
  0
LINE
  5
35F
330
1F
100
AcDbEntity
  8
Default
  6
Continuous
 62
     7
 48
25.4
100
AcDbLine
 10
85.0
 20
45.0
 30
0.0
 11
85.0
 21
25.0
 31
0.0
  0
LINE
  5
360
330
1F
100
AcDbEntity
  8
Default
  6
Continuous
 62
     7
 48
25.4
100
AcDbLine
 10
105.0
 20
45.0
 30
0.0
 11
105.0
 21
25.0
 31
0.0
  0
LINE
  5
361
330
1F
100
AcDbEntity
  8
Default
  6
Continuous
 62
     7
 48
25.4
100
AcDbLine
 10
25.0
 20
12.0
 30
0.0
 11
203.0048694642
 21
12.0
 31
0.0
  0
LINE
  5
362
330
1F
100
AcDbEntity
  8
Default
  6
Continuous
 62
     7
 48
25.4
100
AcDbLine
 10
6.6
 20
20.0
 30
0.0
 11
25.0
 21
20.0
 31
0.0
  0
LINE
  5
363
330
1F
100
AcDbEntity
  8
Default
  6
Continuous
 62
     7
 48
25.4
100
AcDbLine
 10
163.0
 20
25.0
 30
0.0
 11
163.0
 21
5.0
 31
0.0
  0
TEXT
  5
364
330
1F
100
AcDbEntity
  8
Default
  6
Continuous
 62
     7
 48
25.4
100
AcDbText
 10
6.9540142599
 20
41.7920376842
 30
0.0
 40
2.0
  1
Masstab / Scale
 41
0.9
  7
SEACAD_arial_ttf
 11
6.9540142599
 21
43.7920376842
 31
0.0
100
AcDbText
 73
     3
  0
TEXT
  5
365
330
1F
100
AcDbEntity
  8
Default
  6
Continuous
 62
     7
 48
25.4
100
AcDbText
 10
26.9540142599
 20
41.7920376842
 30
0.0
 40
2.0
  1
AM-Nr. / ECN
 41
0.9
  7
SEACAD_arial_ttf
 11
26.9540142599
 21
43.7920376842
 31
0.0
100
AcDbText
 73
     3
  0
TEXT
  5
366
330
1F
100
AcDbEntity
  8
Default
  6
Continuous
 62
     7
 48
25.4
100
AcDbText
 10
26.9540142599
 20
36.7920376842
 30
0.0
 40
2.0
  1
Datum / Date
 41
0.9
  7
SEACAD_arial_ttf
 11
26.9540142599
 21
38.7920376842
 31
0.0
100
AcDbText
 73
     3
  0
TEXT
  5
367
330
1F
100
AcDbEntity
  8
Default
  6
Continuous
 62
     7
 48
25.4
100
AcDbText
 10
25.5253978501
 20
31.6729863168
 30
0.0
 40
2.0
  1
Verantw. / Respons.
 41
0.8
  7
SEACAD_arial_ttf
 11
25.5253978501
 21
33.6729863168
 31
0.0
100
AcDbText
 73
     3
  0
TEXT
  5
368
330
1F
100
AcDbEntity
  8
Default
  6
Continuous
 62
     7
 48
25.4
100
AcDbText
 10
25.6444492176
 20
26.7920376842
 30
0.0
 40
2.0
  1
Gepruft / Approved
 41
0.8
  7
SEACAD_arial_ttf
 11
25.6444492176
 21
28.7920376842
 31
0.0
100
AcDbText
 73
     3
  0
TEXT
  5
369
330
1F
100
AcDbEntity
  8
Default
  6
Continuous
 62
     7
 48
25.4
100
AcDbText
 10
11.7260289
 20
21.6899061944
 30
0.0
 40
2.0
  1
Status
  7
SEACAD_arial_ttf
 11
11.7260289
 21
23.6899061944
 31
0.0
100
AcDbText
 73
     3
  0
TEXT
  5
36A
330
1F
100
AcDbEntity
  8
Default
  6
Continuous
 62
     7
 48
25.4
100
AcDbText
 10
26.0592381086
 20
18.1421194157
 30
0.0
 40
2.0
  1
Benennung /
  7
SEACAD_arial_ttf
 11
26.0592381086
 21
20.1421194157
 31
0.0
100
AcDbText
 73
     3
  0
TEXT
  5
36B
330
1F
100
AcDbEntity
  8
Default
  6
Continuous
 62
     7
 48
25.4
100
AcDbText
 10
26.0592381086
 20
15.0116846331
 30
0.0
 40
2.0
  1
Title
  7
SEACAD_arial_ttf
 11
26.0592381086
 21
17.0116846331
 31
0.0
100
AcDbText
 73
     3
  0
TEXT
  5
36C
330
1F
100
AcDbEntity
  8
Default
  6
Continuous
 62
     7
 48
25.4
100
AcDbText
 10
26.0022330564
 20
8.7308567533
 30
0.0
 40
2.0
  1
Prod.-No. +
  7
SEACAD_arial_ttf
 11
26.0022330564
 21
10.7308567533
 31
0.0
100
AcDbText
 73
     3
  0
TEXT
  5
36D
330
1F
100
AcDbEntity
  8
Default
  6
Continuous
 62
     7
 48
25.4
100
AcDbText
 10
26.0022330564
 20
5.6004219707
 30
0.0
 40
2.0
  1
variants:
  7
SEACAD_arial_ttf
 11
26.0022330564
 21
7.6004219707
 31
0.0
100
AcDbText
 73
     3
  0
TEXT
  5
36E
330
1F
100
AcDbEntity
  8
Default
  6
Continuous
 62
     7
 48
25.4
100
AcDbText
 10
89.0181404555
 20
30.6686887902
 30
0.0
 40
2.0
  1
Copyright
  7
SEACAD_arial_ttf
 11
89.0181404555
 21
32.6686887902
 31
0.0
100
AcDbText
 73
     3
  0
TEXT
  5
36F
330
1F
100
AcDbEntity
  8
Default
  6
Continuous
 62
     7
 48
25.4
100
AcDbText
 10
89.5181404555
 20
27.5382540076
 30
0.0
 40
2.0
  1
reserved
  7
SEACAD_arial_ttf
 11
89.5181404555
 21
29.5382540076
 31
0.0
100
AcDbText
 73
     3
  0
TEXT
  5
370
330
1F
100
AcDbEntity
  8
Default
  6
Continuous
 62
     7
 48
25.4
100
AcDbText
 10
108.0569338806
 20
40.3608143983
 30
0.0
 40
2.0
  1
Grohe Water Technology
  7
SEACAD_arial_ttf
 11
108.0569338806
 21
42.3608143983
 31
0.0
100
AcDbText
 73
     3
  0
TEXT
  5
371
330
1F
100
AcDbEntity
  8
Default
  6
Continuous
 62
     7
 48
25.4
100
AcDbText
 10
108.0569338806
 20
37.2303796157
 30
0.0
 40
2.0
  1
AG & Co. KG
  7
SEACAD_arial_ttf
 11
108.0569338806
 21
39.2303796157
 31
0.0
100
AcDbText
 73
     3
  0
TEXT
  5
372
330
1F
100
AcDbEntity
  8
Default
  6
Continuous
 62
     7
 48
25.4
100
AcDbText
 10
108.0569338806
 20
34.099944833
 30
0.0
 40
2.0
  1
Hauptstras137
  7
SEACAD_arial_ttf
 11
108.0569338806
 21
36.099944833
 31
0.0
100
AcDbText
 73
     3
  0
TEXT
  5
373
330
1F
100
AcDbEntity
  8
Default
  6
Continuous
 62
     7
 48
25.4
100
AcDbText
 10
108.0569338806
 20
30.9695100504
 30
0.0
 40
2.0
  1
D-58675 Hemer
  7
SEACAD_arial_ttf
 11
108.0569338806
 21
32.9695100504
 31
0.0
100
AcDbText
 73
     3
  0
TEXT
  5
374
330
1F
100
AcDbEntity
  8
Default
  6
Continuous
 62
     7
 48
25.4
100
AcDbText
 10
108.0569338806
 20
27.8390752678
 30
0.0
 40
2.0
  1
Tel. 02372 / 93-0
  7
SEACAD_arial_ttf
 11
108.0569338806
 21
29.8390752678
 31
0.0
100
AcDbText
 73
     3
  0
TEXT
  5
375
330
1F
100
AcDbEntity
  8
Default
  6
Continuous
 62
     7
 48
25.4
100
AcDbText
 10
163.9513570171
 20
22.2273824007
 30
0.0
 40
2.0
  1
Zeichnung Nr. / Drawing No.:
  7
SEACAD_arial_ttf
 11
163.9513570171
 21
24.2273824007
 31
0.0
100
AcDbText
 73
     3
  0
TEXT
  5
376
330
1F
100
AcDbEntity
  8
Default
  6
Continuous
 62
     7
 48
25.4
100
AcDbText
 10
163.8580166214
 20
9.52675378
 30
0.0
 40
1.5
  1
TPI-Referenz / TPI-Reference:
  7
SEACAD_arial_ttf
 11
163.8580166214
 21
11.02675378
 31
0.0
100
AcDbText
 73
     3
  0
LINE
  5
377
330
1F
100
AcDbEntity
  8
Default
  6
Continuous
 62
     7
 48
25.4
100
AcDbLine
 10
203.0048694642
 20
5.0
 30
0.0
 11
203.0048694642
 21
291.0
 31
0.0
  0
ENDSEC
  0
SECTION
  2
OBJECTS
  0
DICTIONARY
  5
C
330
0
100
AcDbDictionary
281
     1
  3
ACAD_GROUP
350
D
  3
ACAD_LAYOUT
350
1A
  3
ACAD_MLINESTYLE
350
17
  3
ACAD_PLOTSETTINGS
350
19
  3
ACAD_PLOTSTYLENAME
350
E
  0
DICTIONARY
  5
D
102
{ACAD_REACTORS
330
C
102
}
330
C
100
AcDbDictionary
281
     1
  0
DICTIONARY
  5
1A
102
{ACAD_REACTORS
330
C
102
}
330
C
100
AcDbDictionary
281
     1
  3
Layout1
350
1E
  3
Model
350
22
  0
DICTIONARY
  5
17
102
{ACAD_REACTORS
330
C
102
}
330
C
100
AcDbDictionary
281
     1
  3
Standard
350
18
  0
DICTIONARY
  5
19
102
{ACAD_REACTORS
330
C
102
}
330
C
100
AcDbDictionary
281
     1
  0
ACDBDICTIONARYWDFLT
  5
E
102
{ACAD_REACTORS
330
C
102
}
330
C
100
AcDbDictionary
281
     1
  3
Normal
350
F
100
AcDbDictionaryWithDefault
340
F
  0
LAYOUT
  5
1E
102
{ACAD_REACTORS
330
1A
102
}
330
1A
100
AcDbPlotSettings
  1

  2

  4

  6

 40
0.0
 41
0.0
 42
0.0
 43
0.0
 44
0.0
 45
0.0
 46
0.0
 47
0.0
 48
0.0
 49
0.0
140
0.0
141
0.0
142
1.0
143
1.0
 70
   688
 72
     0
 73
     0
 74
     5
  7

 75
    16
147
1.0
148
0.0
149
0.0
100
AcDbLayout
  1
Layout1
 70
     1
 71
     1
 10
0.0
 20
0.0
 11
210.0
 21
297.0
 12
0.0
 22
0.0
 32
0.0
 14
0.0
 24
0.0
 34
0.0
 15
210.0
 25
297.0
 35
0.0
146
0.0
 13
0.0
 23
0.0
 33
0.0
 16
1.0
 26
0.0
 36
0.0
 17
0.0
 27
1.0
 37
0.0
 76
     0
330
1B
  0
LAYOUT
  5
22
102
{ACAD_REACTORS
330
1A
102
}
330
1A
100
AcDbPlotSettings
  1

  2

  4

  6

 40
0.0
 41
0.0
 42
0.0
 43
0.0
 44
0.0
 45
0.0
 46
0.0
 47
0.0
 48
0.0
 49
0.0
140
0.0
141
0.0
142
1.0
143
1.0
 70
  1712
 72
     0
 73
     0
 74
     0
  7

 75
     0
147
1.0
148
0.0
149
0.0
100
AcDbLayout
  1
Model
 70
     1
 71
     0
 10
0.0
 20
0.0
 11
210.0
 21
297.0
 12
0.0
 22
0.0
 32
0.0
 14
0.0
 24
0.0
 34
0.0
 15
210.0
 25
297.0
 35
0.0
146
0.0
 13
0.0
 23
0.0
 33
0.0
 16
1.0
 26
0.0
 36
0.0
 17
0.0
 27
1.0
 37
0.0
 76
     0
330
1F
  0
MLINESTYLE
  5
18
102
{ACAD_REACTORS
330
17
102
}
330
17
100
AcDbMlineStyle
  2
Standard
 70
     0
  3

 62
   256
 51
90.0
 52
90.0
 71
     2
 49
0.5
 62
   256
  6
BYLAYER
 49
-0.5
 62
   256
  6
BYLAYER
  0
ACDBPLACEHOLDER
  5
F
102
{ACAD_REACTORS
330
E
102
}
330
E
  0
ENDSEC
  0
EOF
