  0
SECTION
  2
HEADER
  9
$TEXTSIZE
 40
3.2
  9
$TEXTSTYLE
  7
STANDARD
  9
$CLAYER
  8
0
  9
$CELTYPE
  6
BYLAYER
  9
$CECOLOR
 62
256
  9
$DIMSCALE
 40
1
  0
ENDSEC
  0
SECTION
  2
TABLES
  0
TABLE
  2
LTYPE
 70
5
  0
LTYPE
  2
CONTINUOUS
 70
64
  3
Solid line
 72
65
 73
0
 40
0.0
  0
LTYPE
  2
DASHED
 70
64
  3
__ __ __ __ __ __ __ __ __ __ __ __ __ __ __
 72
65
 73
2
 40
0.75
 49
0.5
 49
-0.25
  0
LTYPE
  2
HIDDEN
 70
64
  3
_ _ _ _ _ _ _ _ _ _ _ _ _ _ _ _ _ _ _ _ _ _ _
 72
65
 73
2
 40
0.375
 49
0.25
 49
-0.125
  0
LTYPE
  2
CENTER
 70
64
  3
____ _ ____ _ ____ _ ____ _ ____ _ ____ _ ____
 72
65
 73
4
 40
2.0
 49
1.25
 49
-0.25
 49
0.25
 49
-0.25
  0
LTYPE
  2
PHANTOM
 70
64
  3
_____ _ _ _____ _ _ _____ _ _ _____ _ _ ____
 72
65
 73
6
 40
2.5
 49
1.25
 49
-0.25
 49
0.25
 49
-0.25
 49
0.25
 49
-0.25
  0
ENDTAB
  0
TABLE
  2
LAYER
 70
1
  0
LAYER
  2
0
 70
0
 62
7
  6
CONTINUOUS
  0
ENDTAB
  0
TABLE
  2
STYLE
 70
1
  0
STYLE
  2
STANDARD
 70
0
 40
0
 41
1
 50
0
 71
0
 42
3.2
  3
txt
  4
bigfont.shx
  0
ENDTAB
  0
TABLE
  2
VIEW
 70
0
  0
ENDTAB
  0
ENDSEC
  0
SECTION
  2
BLOCKS
  0
ENDSEC
  0
SECTION
  2
ENTITIES
  0
LINE
  8
0
 62
7
  6
CONTINUOUS
 10
-310.477509
 20
51.685284
 11
-289.522491
 21
51.685284
  0
LINE
  8
0
 62
7
  6
CONTINUOUS
 10
-310.477509
 20
51.685284
 11
-307.579731
 21
52.461740
  0
LINE
  8
0
 62
7
  6
CONTINUOUS
 10
-310.477509
 20
51.685284
 11
-307.579731
 21
50.908827
  0
LINE
  8
0
 62
7
  6
CONTINUOUS
 10
-289.522491
 20
51.685284
 11
-292.420269
 21
50.908827
  0
LINE
  8
0
 62
7
  6
CONTINUOUS
 10
-289.522491
 20
51.685284
 11
-292.420269
 21
52.461740
  0
LINE
  8
0
 62
7
  6
CONTINUOUS
 10
-310.477509
 20
79.000000
 11
-310.477509
 21
49.399284
  0
LINE
  8
0
 62
7
  6
CONTINUOUS
 10
-289.522491
 20
79.000000
 11
-289.522491
 21
49.399284
  0
LINE
  8
0
 62
7
  6
CONTINUOUS
 10
-260.072632
 20
79.000000
 11
-260.072632
 21
122.000000
  0
LINE
  8
0
 62
7
  6
CONTINUOUS
 10
-260.072632
 20
79.000000
 11
-260.849084
 21
81.897779
  0
LINE
  8
0
 62
7
  6
CONTINUOUS
 10
-260.072632
 20
79.000000
 11
-259.296171
 21
81.897777
  0
LINE
  8
0
 62
7
  6
CONTINUOUS
 10
-260.072632
 20
122.000000
 11
-259.296179
 21
119.102221
  0
LINE
  8
0
 62
7
  6
CONTINUOUS
 10
-260.072632
 20
122.000000
 11
-260.849092
 21
119.102223
  0
LINE
  8
0
 62
7
  6
CONTINUOUS
 10
-289.522491
 20
79.000000
 11
-257.786621
 21
79.000000
  0
LINE
  8
0
 62
7
  6
CONTINUOUS
 10
-292.700012
 20
122.000000
 11
-257.786621
 21
122.000000
  0
LINE
  8
0
 62
7
  6
CONTINUOUS
 10
-269.203186
 20
89.000000
 11
-269.203186
 21
79.000000
  0
LINE
  8
0
 62
7
  6
CONTINUOUS
 10
-269.203186
 20
89.000000
 11
-268.426726
 21
86.102223
  0
LINE
  8
0
 62
7
  6
CONTINUOUS
 10
-269.203186
 20
89.000000
 11
-269.979639
 21
86.102221
  0
LINE
  8
0
 62
7
  6
CONTINUOUS
 10
-269.203186
 20
79.000000
 11
-269.979646
 21
81.897777
  0
LINE
  8
0
 62
7
  6
CONTINUOUS
 10
-269.203186
 20
79.000000
 11
-268.426733
 21
81.897779
  0
LINE
  8
0
 62
7
  6
CONTINUOUS
 10
-288.500000
 20
89.000000
 11
-266.917175
 21
89.000000
  0
LINE
  8
0
 62
7
  6
CONTINUOUS
 10
-289.522491
 20
79.000000
 11
-266.917175
 21
79.000000
  0
LINE
  8
0
 62
7
  6
CONTINUOUS
 10
-307.299988
 20
139.499756
 11
-292.700012
 21
139.499756
  0
LINE
  8
0
 62
7
  6
CONTINUOUS
 10
-307.299988
 20
139.499756
 11
-304.402210
 21
140.276212
  0
LINE
  8
0
 62
7
  6
CONTINUOUS
 10
-307.299988
 20
139.499756
 11
-304.402210
 21
138.723299
  0
LINE
  8
0
 62
7
  6
CONTINUOUS
 10
-292.700012
 20
139.499756
 11
-295.597790
 21
138.723299
  0
LINE
  8
0
 62
7
  6
CONTINUOUS
 10
-292.700012
 20
139.499756
 11
-295.597790
 21
140.276212
  0
LINE
  8
0
 62
7
  6
CONTINUOUS
 10
-307.299988
 20
122.000000
 11
-307.299988
 21
141.785751
  0
LINE
  8
0
 62
7
  6
CONTINUOUS
 10
-292.700012
 20
122.000000
 11
-292.700012
 21
141.785751
  0
LINE
  8
0
 62
7
  6
CONTINUOUS
 10
0
 20
298
 11
0
 21
0
  0
LINE
  8
0
 62
7
  6
CONTINUOUS
 10
-420
 20
0
 11
0
 21
0
  0
LINE
  8
0
 62
7
  6
CONTINUOUS
 10
-15
 20
286
 11
-15
 21
11
  0
LINE
  8
0
 62
7
  6
CONTINUOUS
 10
-392
 20
11
 11
-15
 21
11
  0
LINE
  8
0
 62
7
  6
CONTINUOUS
 10
-195
 20
25
 11
-195
 21
11
  0
LINE
  8
0
 62
7
  6
CONTINUOUS
 10
-392
 20
25
 11
-15
 21
25
  0
LINE
  8
0
 62
7
  6
CONTINUOUS
 10
-290
 20
25
 11
-290
 21
11
  0
LINE
  8
0
 62
7
  6
CONTINUOUS
 10
-272
 20
25
 11
-272
 21
11
  0
LINE
  8
0
 62
7
  6
CONTINUOUS
 10
-70
 20
25
 11
-70
 21
11
  0
LINE
  8
0
 62
7
  6
CONTINUOUS
 10
-327.32
 20
18.6
 11
-326.52
 21
18.6
  0
LINE
  8
0
 62
7
  6
CONTINUOUS
 10
-361.4
 20
13
 11
-359.8
 21
13
  0
LINE
  8
0
 62
7
  6
CONTINUOUS
 10
-381.4
 20
18.6
 11
-381.4
 21
18.6
  0
LINE
  8
0
 62
7
  6
CONTINUOUS
 10
-380.6
 20
18.2
 11
-380.6
 21
13
  0
LINE
  8
0
 62
7
  6
CONTINUOUS
 10
-375
 20
18.2
 11
-375
 21
14.6
  0
LINE
  8
0
 62
7
  6
CONTINUOUS
 10
-375.8
 20
16.2
 11
-375.8
 21
15.4
  0
LINE
  8
0
 62
7
  6
CONTINUOUS
 10
-367.8
 20
13.8
 11
-367.8
 21
13
  0
LINE
  8
0
 62
7
  6
CONTINUOUS
 10
-379.8
 20
13.8
 11
-376.6
 21
13.8
  0
LINE
  8
0
 62
7
  6
CONTINUOUS
 10
-379.8
 20
17.4
 11
-379.8
 21
13.8
  0
LINE
  8
0
 62
7
  6
CONTINUOUS
 10
-375.8
 20
17.4
 11
-375.8
 21
14.6
  0
LINE
  8
0
 62
7
  6
CONTINUOUS
 10
-374.2
 20
16.2
 11
-368.6
 21
16.2
  0
LINE
  8
0
 62
7
  6
CONTINUOUS
 10
-374.2
 20
15.4
 11
-369.4
 21
15.4
  0
LINE
  8
0
 62
7
  6
CONTINUOUS
 10
-382.2
 20
18.6
 11
-382.2
 21
18.6
  0
LINE
  8
0
 62
7
  6
CONTINUOUS
 10
-385.4
 20
18.2
 11
-383.8
 21
18.2
  0
LINE
  8
0
 62
7
  6
CONTINUOUS
 10
-384.737
 20
17.4
 11
-382.22
 21
17.4
  0
LINE
  8
0
 62
7
  6
CONTINUOUS
 10
-367.4
 20
18.2
 11
-362.6
 21
18.2
  0
LINE
  8
0
 62
7
  6
CONTINUOUS
 10
-367.4
 20
17.4
 11
-365.4
 21
17.4
  0
LINE
  8
0
 62
7
  6
CONTINUOUS
 10
-367.8
 20
13.8
 11
-366.2
 21
13.8
  0
LINE
  8
0
 62
7
  6
CONTINUOUS
 10
-364.6
 20
17.4
 11
-364.6
 21
14.6
  0
LINE
  8
0
 62
7
  6
CONTINUOUS
 10
-365.4
 20
17.4
 11
-365.4
 21
14.6
  0
LINE
  8
0
 62
7
  6
CONTINUOUS
 10
-364.6
 20
17.4
 11
-363.4
 21
17.4
  0
LINE
  8
0
 62
7
  6
CONTINUOUS
 10
-364.814
 20
13.8
 11
-362.2
 21
13.8
  0
LINE
  8
0
 62
7
  6
CONTINUOUS
 10
-363
 20
18.2
 11
-363
 21
18.2
  0
LINE
  8
0
 62
7
  6
CONTINUOUS
 10
-367.4
 20
18.2
 11
-367.4
 21
17.4
  0
LINE
  8
0
 62
7
  6
CONTINUOUS
 10
-338.52
 20
17.8
 11
-338.52
 21
17
  0
LINE
  8
0
 62
7
  6
CONTINUOUS
 10
-357.4
 20
18.6
 11
-357.4
 21
17.8
  0
LINE
  8
0
 62
7
  6
CONTINUOUS
 10
-383.4
 20
18.2
 11
-383.4
 21
17.8
  0
LINE
  8
0
 62
7
  6
CONTINUOUS
 10
-383.4
 20
17.8
 11
-381.4
 21
17.8
  0
LINE
  8
0
 62
7
  6
CONTINUOUS
 10
-385.4
 20
18.2
 11
-383.4
 21
18.2
  0
LINE
  8
0
 62
7
  6
CONTINUOUS
 10
-381.4
 20
17.8
 11
-381.4
 21
17.48
  0
LINE
  8
0
 62
7
  6
CONTINUOUS
 10
-387
 20
16.6
 11
-387
 21
15.8
  0
LINE
  8
0
 62
7
  6
CONTINUOUS
 10
-343.32
 20
13.8
 11
-341.72
 21
13.8
  0
LINE
  8
0
 62
7
  6
CONTINUOUS
 10
-380.6
 20
13
 11
-376.6
 21
13
  0
LINE
  8
0
 62
7
  6
CONTINUOUS
 10
-387
 20
13.8
 11
-387
 21
13
  0
LINE
  8
0
 62
7
  6
CONTINUOUS
 10
-380.6
 20
18.2
 11
-375
 21
18.2
  0
LINE
  8
0
 62
7
  6
CONTINUOUS
 10
-379.8
 20
17.4
 11
-375.8
 21
17.4
  0
LINE
  8
0
 62
7
  6
CONTINUOUS
 10
-381.4
 20
17.8
 11
-381.4
 21
17
  0
LINE
  8
0
 62
7
  6
CONTINUOUS
 10
-382.2
 20
17.4
 11
-382.2
 21
17
  0
LINE
  8
0
 62
7
  6
CONTINUOUS
 10
-355.8
 20
17.8
 11
-355.8
 21
17
  0
LINE
  8
0
 62
7
  6
CONTINUOUS
 10
-355
 20
16.68
 11
-355
 21
15.88
  0
LINE
  8
0
 62
7
  6
CONTINUOUS
 10
-349.72
 20
13.8
 11
-349.72
 21
13
  0
LINE
  8
0
 62
7
  6
CONTINUOUS
 10
-344.12
 20
13.8
 11
-344.12
 21
13
  0
LINE
  8
0
 62
7
  6
CONTINUOUS
 10
-343.32
 20
13.8
 11
-343.32
 21
13
  0
LINE
  8
0
 62
7
  6
CONTINUOUS
 10
-337.72
 20
17.8
 11
-337.72
 21
17
  0
LINE
  8
0
 62
7
  6
CONTINUOUS
 10
-336.92
 20
17.4
 11
-336.92
 21
16.6
  0
LINE
  8
0
 62
7
  6
CONTINUOUS
 10
-330.52
 20
17.8
 11
-330.52
 21
17
  0
LINE
  8
0
 62
7
  6
CONTINUOUS
 10
-324.92
 20
13.8
 11
-324.92
 21
13
  0
LINE
  8
0
 62
7
  6
CONTINUOUS
 10
-324.12
 20
17.4
 11
-324.12
 21
16.6
  0
LINE
  8
0
 62
7
  6
CONTINUOUS
 10
-318.52
 20
17.4
 11
-318.52
 21
16.6
  0
LINE
  8
0
 62
7
  6
CONTINUOUS
 10
-317.72
 20
17.8
 11
-317.72
 21
17
  0
LINE
  8
0
 62
7
  6
CONTINUOUS
 10
-367.8
 20
13
 11
-363
 21
13
  0
LINE
  8
0
 62
7
  6
CONTINUOUS
 10
-353.8
 20
17.88
 11
-353
 21
17.88
  0
LINE
  8
0
 62
7
  6
CONTINUOUS
 10
-342.92
 20
17.4
 11
-340.92
 21
17.4
  0
LINE
  8
0
 62
7
  6
CONTINUOUS
 10
-387
 20
13.8
 11
-385.4
 21
13.8
  0
LINE
  8
0
 62
7
  6
CONTINUOUS
 10
-387
 20
13
 11
-385.4
 21
13
  0
LINE
  8
0
 62
7
  6
CONTINUOUS
 10
-361
 20
16.6
 11
-358.2
 21
16.6
  0
LINE
  8
0
 62
7
  6
CONTINUOUS
 10
-361
 20
15.8
 11
-359
 21
15.8
  0
LINE
  8
0
 62
7
  6
CONTINUOUS
 10
-343.32
 20
13
 11
-341.72
 21
13
  0
LINE
  8
0
 62
7
  6
CONTINUOUS
 10
-342.92
 20
18.2
 11
-340.12
 21
18.2
  0
LINE
  8
0
 62
7
  6
CONTINUOUS
 10
-383
 20
18.6
 11
-381.4
 21
18.6
  0
LINE
  8
0
 62
7
  6
CONTINUOUS
 10
-382.2
 20
18.6
 11
-382.2
 21
17.8
  0
LINE
  8
0
 62
7
  6
CONTINUOUS
 10
-383
 20
18.6
 11
-383
 21
17.8
  0
LINE
  8
0
 62
7
  6
CONTINUOUS
 10
-361.4
 20
13.8
 11
-361.4
 21
13
  0
LINE
  8
0
 62
7
  6
CONTINUOUS
 10
-361
 20
16.6
 11
-361
 21
15.8
  0
LINE
  8
0
 62
7
  6
CONTINUOUS
 10
-342.92
 20
18.2
 11
-342.92
 21
17.4
  0
LINE
  8
0
 62
7
  6
CONTINUOUS
 10
-361.4
 20
13.8
 11
-359.8
 21
13.8
  0
LINE
  8
0
 62
7
  6
CONTINUOUS
 10
-361.4
 20
13
 11
-359.8
 21
13
  0
LINE
  8
0
 62
7
  6
CONTINUOUS
 10
-325.72
 20
18.6
 11
-325.72
 21
17.8
  0
LINE
  8
0
 62
7
  6
CONTINUOUS
 10
-356.6
 20
17.8
 11
-355.8
 21
17.8
  0
LINE
  8
0
 62
7
  6
CONTINUOUS
 10
-361
 20
18.2
 11
-358.2
 21
18.2
  0
LINE
  8
0
 62
7
  6
CONTINUOUS
 10
-361
 20
17.4
 11
-359
 21
17.4
  0
LINE
  8
0
 62
7
  6
CONTINUOUS
 10
-361
 20
18.2
 11
-361
 21
17.4
  0
LINE
  8
0
 62
7
  6
CONTINUOUS
 10
-346.52
 20
18.2
 11
-346.12
 21
18.2
  0
LINE
  8
0
 62
7
  6
CONTINUOUS
 10
-345.72
 20
16.9056
 11
-345.72
 21
15.4
  0
LINE
  8
0
 62
7
  6
CONTINUOUS
 10
-338.52
 20
17.8
 11
-337.72
 21
17.8
  0
LINE
  8
0
 62
7
  6
CONTINUOUS
 10
-346.12
 20
18.2
 11
-346.12
 21
17.8
  0
LINE
  8
0
 62
7
  6
CONTINUOUS
 10
-346.52
 20
18.2
 11
-346.52
 21
15.4
  0
LINE
  8
0
 62
7
  6
CONTINUOUS
 10
-347.72
 20
18.6
 11
-347.72
 21
15
  0
LINE
  8
0
 62
7
  6
CONTINUOUS
 10
-348.52
 20
18.6
 11
-348.52
 21
15
  0
LINE
  8
0
 62
7
  6
CONTINUOUS
 10
-348.52
 20
18.6
 11
-347.72
 21
18.6
  0
LINE
  8
0
 62
7
  6
CONTINUOUS
 10
-353.8
 20
17.88
 11
-353.8
 21
16.68
  0
LINE
  8
0
 62
7
  6
CONTINUOUS
 10
-353
 20
17.88
 11
-353
 21
16.68
  0
LINE
  8
0
 62
7
  6
CONTINUOUS
 10
-355
 20
16.68
 11
-353.8
 21
16.68
  0
LINE
  8
0
 62
7
  6
CONTINUOUS
 10
-355
 20
15.88
 11
-353.8
 21
15.88
  0
LINE
  8
0
 62
7
  6
CONTINUOUS
 10
-353.8
 20
15.88
 11
-353.8
 21
13.4
  0
LINE
  8
0
 62
7
  6
CONTINUOUS
 10
-353
 20
15.88
 11
-351.491
 21
15.88
  0
LINE
  8
0
 62
7
  6
CONTINUOUS
 10
-353
 20
15.88
 11
-353
 21
14.2
  0
LINE
  8
0
 62
7
  6
CONTINUOUS
 10
-353
 20
16.68
 11
-350.52
 21
16.68
  0
LINE
  8
0
 62
7
  6
CONTINUOUS
 10
-352.6
 20
15.0323
 11
-352.6
 21
14.2214
  0
LINE
  8
0
 62
7
  6
CONTINUOUS
 10
-335.72
 20
18.6
 11
-334.92
 21
18.6
  0
LINE
  8
0
 62
7
  6
CONTINUOUS
 10
-334.92
 20
18.6
 11
-334.92
 21
17.4
  0
LINE
  8
0
 62
7
  6
CONTINUOUS
 10
-335.72
 20
18.6
 11
-335.72
 21
17.4
  0
LINE
  8
0
 62
7
  6
CONTINUOUS
 10
-336.92
 20
17.4
 11
-335.72
 21
17.4
  0
LINE
  8
0
 62
7
  6
CONTINUOUS
 10
-336.92
 20
16.6
 11
-335.72
 21
16.6
  0
LINE
  8
0
 62
7
  6
CONTINUOUS
 10
-336.92
 20
15.4
 11
-336.92
 21
14.6
  0
LINE
  8
0
 62
7
  6
CONTINUOUS
 10
-335.72
 20
15
 11
-335.72
 21
13
  0
LINE
  8
0
 62
7
  6
CONTINUOUS
 10
-334.92
 20
15
 11
-334.92
 21
13
  0
LINE
  8
0
 62
7
  6
CONTINUOUS
 10
-334.92
 20
17.4
 11
-334.565
 21
17.4
  0
LINE
  8
0
 62
7
  6
CONTINUOUS
 10
-334.52
 20
16.4
 11
-334.52
 21
15.7056
  0
LINE
  8
0
 62
7
  6
CONTINUOUS
 10
-333.771
 20
17.8
 11
-333.32
 21
17.8
  0
LINE
  8
0
 62
7
  6
CONTINUOUS
 10
-334.262
 20
17
 11
-333.32
 21
17
  0
LINE
  8
0
 62
7
  6
CONTINUOUS
 10
-332.52
 20
18.6
 11
-332.52
 21
17.8
  0
LINE
  8
0
 62
7
  6
CONTINUOUS
 10
-333.32
 20
18.6
 11
-333.32
 21
17.8
  0
LINE
  8
0
 62
7
  6
CONTINUOUS
 10
-334.22
 20
18.2
 11
-333.72
 21
18.2
  0
LINE
  8
0
 62
7
  6
CONTINUOUS
 10
-332.52
 20
17.8
 11
-331.52
 21
17.8
  0
LINE
  8
0
 62
7
  6
CONTINUOUS
 10
-333.32
 20
17
 11
-333.32
 21
16.4
  0
LINE
  8
0
 62
7
  6
CONTINUOUS
 10
-332.52
 20
17
 11
-332.52
 21
16.4
  0
LINE
  8
0
 62
7
  6
CONTINUOUS
 10
-332.52
 20
17
 11
-332.32
 21
17
  0
LINE
  8
0
 62
7
  6
CONTINUOUS
 10
-333.32
 20
18.6
 11
-332.52
 21
18.6
  0
LINE
  8
0
 62
7
  6
CONTINUOUS
 10
-333.32
 20
13.6609
 11
-333.32
 21
13
  0
LINE
  8
0
 62
7
  6
CONTINUOUS
 10
-332.52
 20
13.6609
 11
-332.52
 21
13
  0
LINE
  8
0
 62
7
  6
CONTINUOUS
 10
-332.52
 20
16.4
 11
-331.32
 21
16.4
  0
LINE
  8
0
 62
7
  6
CONTINUOUS
 10
-332.52
 20
15.6
 11
-332.12
 21
15.6
  0
LINE
  8
0
 62
7
  6
CONTINUOUS
 10
-334.52
 20
15.6
 11
-334.52
 21
14.767
  0
LINE
  8
0
 62
7
  6
CONTINUOUS
 10
-334.52
 20
13.8
 11
-334.52
 21
13
  0
LINE
  8
0
 62
7
  6
CONTINUOUS
 10
-331.32
 20
13.8
 11
-331.32
 21
13
  0
LINE
  8
0
 62
7
  6
CONTINUOUS
 10
-335.72
 20
13
 11
-334.92
 21
13
  0
LINE
  8
0
 62
7
  6
CONTINUOUS
 10
-333.32
 20
13
 11
-332.52
 21
13
  0
LINE
  8
0
 62
7
  6
CONTINUOUS
 10
-334.52
 20
15.6
 11
-333.32
 21
15.6
  0
LINE
  8
0
 62
7
  6
CONTINUOUS
 10
-334.52
 20
16.4
 11
-333.32
 21
16.4
  0
LINE
  8
0
 62
7
  6
CONTINUOUS
 10
-357.4
 20
18.6
 11
-355.8
 21
18.6
  0
LINE
  8
0
 62
7
  6
CONTINUOUS
 10
-356.6
 20
18.6
 11
-356.6
 21
17
  0
LINE
  8
0
 62
7
  6
CONTINUOUS
 10
-330.52
 20
17
 11
-327.32
 21
17
  0
LINE
  8
0
 62
7
  6
CONTINUOUS
 10
-330.52
 20
17.8
 11
-327.32
 21
17.8
  0
LINE
  8
0
 62
7
  6
CONTINUOUS
 10
-327.32
 20
18.6
 11
-327.32
 21
17.8
  0
LINE
  8
0
 62
7
  6
CONTINUOUS
 10
-326.52
 20
18.6
 11
-326.52
 21
17.8
  0
LINE
  8
0
 62
7
  6
CONTINUOUS
 10
-325.72
 20
18.6
 11
-324.92
 21
18.6
  0
LINE
  8
0
 62
7
  6
CONTINUOUS
 10
-326.52
 20
17.8
 11
-324.92
 21
17.8
  0
LINE
  8
0
 62
7
  6
CONTINUOUS
 10
-327.32
 20
17
 11
-327.32
 21
15.4
  0
LINE
  8
0
 62
7
  6
CONTINUOUS
 10
-326.52
 20
17
 11
-325.72
 21
17
  0
LINE
  8
0
 62
7
  6
CONTINUOUS
 10
-326.52
 20
17
 11
-326.52
 21
15.4
  0
LINE
  8
0
 62
7
  6
CONTINUOUS
 10
-330.12
 20
16.4
 11
-330.12
 21
15.6
  0
LINE
  8
0
 62
7
  6
CONTINUOUS
 10
-329.32
 20
15.6
 11
-329.32
 21
14.2
  0
LINE
  8
0
 62
7
  6
CONTINUOUS
 10
-328.52
 20
15.6
 11
-328.52
 21
14.2
  0
LINE
  8
0
 62
7
  6
CONTINUOUS
 10
-330.32
 20
13.4
 11
-328.32
 21
13.4
  0
LINE
  8
0
 62
7
  6
CONTINUOUS
 10
-330.12
 20
16.4
 11
-327.72
 21
16.4
  0
LINE
  8
0
 62
7
  6
CONTINUOUS
 10
-330.12
 20
15.6
 11
-329.32
 21
15.6
  0
LINE
  8
0
 62
7
  6
CONTINUOUS
 10
-330.32
 20
14.2
 11
-329.32
 21
14.2
  0
LINE
  8
0
 62
7
  6
CONTINUOUS
 10
-330.32
 20
14.2
 11
-330.32
 21
13.4
  0
LINE
  8
0
 62
7
  6
CONTINUOUS
 10
-328.52
 20
14.2
 11
-327.52
 21
14.2
  0
LINE
  8
0
 62
7
  6
CONTINUOUS
 10
-321.72
 20
18.6
 11
-320.92
 21
18.6
  0
LINE
  8
0
 62
7
  6
CONTINUOUS
 10
-321.47
 20
13.8
 11
-320.12
 21
13.8
  0
LINE
  8
0
 62
7
  6
CONTINUOUS
 10
-323.32
 20
13
 11
-320.12
 21
13
  0
LINE
  8
0
 62
7
  6
CONTINUOUS
 10
-323.32
 20
13.8
 11
-323.32
 21
13
  0
LINE
  8
0
 62
7
  6
CONTINUOUS
 10
-318.52
 20
17.4
 11
-318.52
 21
16.6
  0
LINE
  8
0
 62
7
  6
CONTINUOUS
 10
-323.745
 20
15.6
 11
-323.745
 21
14.8
  0
LINE
  8
0
 62
7
  6
CONTINUOUS
 10
-323.745
 20
14.8
 11
-321.745
 21
14.8
  0
LINE
  8
0
 62
7
  6
CONTINUOUS
 10
-322.92
 20
16.8
 11
-319.72
 21
16.8
  0
LINE
  8
0
 62
7
  6
CONTINUOUS
 10
-322.92
 20
16
 11
-320.52
 21
16
  0
LINE
  8
0
 62
7
  6
CONTINUOUS
 10
-322.92
 20
16.8
 11
-322.92
 21
16
  0
LINE
  8
0
 62
7
  6
CONTINUOUS
 10
-320.89
 20
14.8
 11
-319.745
 21
14.8
  0
LINE
  8
0
 62
7
  6
CONTINUOUS
 10
-319.32
 20
14.6
 11
-319.32
 21
13.8
  0
LINE
  8
0
 62
7
  6
CONTINUOUS
 10
-320.12
 20
14.6
 11
-320.12
 21
13.8
  0
LINE
  8
0
 62
7
  6
CONTINUOUS
 10
-323.745
 20
15.6
 11
-318.945
 21
15.6
  0
LINE
  8
0
 62
7
  6
CONTINUOUS
 10
-315.32
 20
15
 11
-315.32
 21
14.2
  0
LINE
  8
0
 62
7
  6
CONTINUOUS
 10
-316.12
 20
18.6
 11
-316.12
 21
17.8
  0
LINE
  8
0
 62
7
  6
CONTINUOUS
 10
-316.92
 20
18.6
 11
-316.92
 21
17.8
  0
LINE
  8
0
 62
7
  6
CONTINUOUS
 10
-316.92
 20
18.6
 11
-316.12
 21
18.6
  0
LINE
  8
0
 62
7
  6
CONTINUOUS
 10
-317.72
 20
17.8
 11
-316.92
 21
17.8
  0
LINE
  8
0
 62
7
  6
CONTINUOUS
 10
-317.72
 20
17
 11
-316.287
 21
17
  0
LINE
  8
0
 62
7
  6
CONTINUOUS
 10
-316.12
 20
17.8
 11
-315.32
 21
17.8
  0
LINE
  8
0
 62
7
  6
CONTINUOUS
 10
-316.12
 20
14.4144
 11
-316.12
 21
13
  0
LINE
  8
0
 62
7
  6
CONTINUOUS
 10
-316.92
 20
15.2702
 11
-316.92
 21
13
  0
LINE
  8
0
 62
7
  6
CONTINUOUS
 10
-317.72
 20
15.8404
 11
-317.72
 21
15.0287
  0
LINE
  8
0
 62
7
  6
CONTINUOUS
 10
-316.92
 20
13
 11
-316.12
 21
13
  0
LINE
  8
0
 62
7
  6
CONTINUOUS
 10
-315.32
 20
13.2
 11
-312.92
 21
13.2
  0
LINE
  8
0
 62
7
  6
CONTINUOUS
 10
-313.32
 20
18.4
 11
-313.32
 21
17.2
  0
LINE
  8
0
 62
7
  6
CONTINUOUS
 10
-314.12
 20
18.4
 11
-314.12
 21
17.2
  0
LINE
  8
0
 62
7
  6
CONTINUOUS
 10
-315.32
 20
14
 11
-314.12
 21
14
  0
LINE
  8
0
 62
7
  6
CONTINUOUS
 10
-315.12
 20
17.2
 11
-314.12
 21
17.2
  0
LINE
  8
0
 62
7
  6
CONTINUOUS
 10
-315.12
 20
16.4
 11
-314.12
 21
16.4
  0
LINE
  8
0
 62
7
  6
CONTINUOUS
 10
-315.12
 20
17.2
 11
-315.12
 21
16.4
  0
LINE
  8
0
 62
7
  6
CONTINUOUS
 10
-313.32
 20
14
 11
-312.12
 21
14
  0
LINE
  8
0
 62
7
  6
CONTINUOUS
 10
-313.32
 20
16.4
 11
-313.12
 21
16.4
  0
LINE
  8
0
 62
7
  6
CONTINUOUS
 10
-313.32
 20
17.2
 11
-312.32
 21
17.2
  0
LINE
  8
0
 62
7
  6
CONTINUOUS
 10
-314.12
 20
16.4
 11
-314.12
 21
14
  0
LINE
  8
0
 62
7
  6
CONTINUOUS
 10
-313.32
 20
16.4
 11
-313.32
 21
14
  0
LINE
  8
0
 62
7
  6
CONTINUOUS
 10
-314.12
 20
18.4
 11
-313.32
 21
18.4
  0
LINE
  8
0
 62
7
  6
CONTINUOUS
 10
-315.32
 20
14
 11
-315.32
 21
13.2
  0
LINE
  8
0
 62
7
  6
CONTINUOUS
 10
-320.12
 20
14.6
 11
-319.32
 21
14.6
  0
LINE
  8
0
 62
7
  6
CONTINUOUS
 10
-374.2
 20
16.2
 11
-374.2
 21
15.4
  0
LINE
  8
0
 62
7
  6
CONTINUOUS
 10
-420
 20
298
 11
-420
 21
0
  0
LINE
  8
0
 62
7
  6
CONTINUOUS
 10
-420
 20
298
 11
0
 21
298
  0
LINE
  8
0
 62
7
  6
CONTINUOUS
 10
-392
 20
286
 11
-15
 21
286
  0
LINE
  8
0
 62
7
  6
CONTINUOUS
 10
-308
 20
25
 11
-308
 21
11
  0
LINE
  8
0
 62
7
  6
CONTINUOUS
 10
-254
 20
25
 11
-254
 21
11
  0
LINE
  8
0
 62
7
  6
CONTINUOUS
 10
-236
 20
25
 11
-236
 21
11
  0
LINE
  8
0
 62
7
  6
CONTINUOUS
 10
-218
 20
25
 11
-218
 21
11
  0
LINE
  8
0
 62
7
  6
CONTINUOUS
 10
-125
 20
25
 11
-125
 21
11
  0
LINE
  8
0
 62
7
  6
CONTINUOUS
 10
-407
 20
83.1429
 11
-407
 21
86
  0
LINE
  8
0
 62
7
  6
CONTINUOUS
 10
-401.286
 20
83.1429
 11
-401.286
 21
84.5714
  0
LINE
  8
0
 62
7
  6
CONTINUOUS
 10
-406.429
 20
81.7143
 11
-405.629
 21
81.7143
  0
LINE
  8
0
 62
7
  6
CONTINUOUS
 10
-407
 20
83.1429
 11
-401.286
 21
83.1429
  0
LINE
  8
0
 62
7
  6
CONTINUOUS
 10
-407
 20
98.8571
 11
-401.286
 21
98.8571
  0
LINE
  8
0
 62
7
  6
CONTINUOUS
 10
-407
 20
104.571
 11
-401.286
 21
104.571
  0
LINE
  8
0
 62
7
  6
CONTINUOUS
 10
-407
 20
106
 11
-401.286
 21
106
  0
LINE
  8
0
 62
7
  6
CONTINUOUS
 10
-404.143
 20
80.2857
 11
-404.143
 21
81.7143
  0
LINE
  8
0
 62
7
  6
CONTINUOUS
 10
-406
 20
84.5714
 11
-406
 21
86
  0
LINE
  8
0
 62
7
  6
CONTINUOUS
 10
-407
 20
100.286
 11
-404.643
 21
100.286
  0
LINE
  8
0
 62
7
  6
CONTINUOUS
 10
-407
 20
103.143
 11
-404.643
 21
103.143
  0
LINE
  8
0
 62
7
  6
CONTINUOUS
 10
-404.643
 20
100.286
 11
-404.643
 21
103.143
  0
LINE
  8
0
 62
7
  6
CONTINUOUS
 10
-403.643
 20
100.286
 11
-403.643
 21
103.143
  0
LINE
  8
0
 62
7
  6
CONTINUOUS
 10
-401.286
 20
103.143
 11
-401.286
 21
104.571
  0
LINE
  8
0
 62
7
  6
CONTINUOUS
 10
-401.286
 20
98.8571
 11
-401.286
 21
100.286
  0
LINE
  8
0
 62
7
  6
CONTINUOUS
 10
-407
 20
98.8571
 11
-407
 21
100.286
  0
LINE
  8
0
 62
7
  6
CONTINUOUS
 10
-407
 20
103.143
 11
-407
 21
104.571
  0
LINE
  8
0
 62
7
  6
CONTINUOUS
 10
-407
 20
106
 11
-407
 21
110.5
  0
LINE
  8
0
 62
7
  6
CONTINUOUS
 10
-403.643
 20
100.286
 11
-401.286
 21
100.286
  0
LINE
  8
0
 62
7
  6
CONTINUOUS
 10
-403.643
 20
103.143
 11
-401.286
 21
103.143
  0
LINE
  8
0
 62
7
  6
CONTINUOUS
 10
-401.286
 20
106
 11
-401.286
 21
111
  0
LINE
  8
0
 62
7
  6
CONTINUOUS
 10
-404.643
 20
107.429
 11
-404.643
 21
110
  0
LINE
  8
0
 62
7
  6
CONTINUOUS
 10
-403.643
 20
107.429
 11
-403.643
 21
110
  0
LINE
  8
0
 62
7
  6
CONTINUOUS
 10
-406
 20
107.429
 11
-406
 21
110.5
  0
LINE
  8
0
 62
7
  6
CONTINUOUS
 10
-402.286
 20
107.429
 11
-402.286
 21
111
  0
LINE
  8
0
 62
7
  6
CONTINUOUS
 10
-406
 20
107.429
 11
-404.643
 21
107.429
  0
LINE
  8
0
 62
7
  6
CONTINUOUS
 10
-403.643
 20
107.429
 11
-402.286
 21
107.429
  0
LINE
  8
0
 62
7
  6
CONTINUOUS
 10
-402.286
 20
111
 11
-401.286
 21
111
  0
LINE
  8
0
 62
7
  6
CONTINUOUS
 10
-407
 20
110.5
 11
-406
 21
110.5
  0
LINE
  8
0
 62
7
  6
CONTINUOUS
 10
-404.643
 20
110
 11
-403.643
 21
110
  0
LINE
  8
0
 62
7
  6
CONTINUOUS
 10
-404.143
 20
84.5714
 11
-404.143
 21
86
  0
LINE
  8
0
 62
7
  6
CONTINUOUS
 10
-406
 20
84.5714
 11
-401.286
 21
84.5714
  0
LINE
  8
0
 62
7
  6
CONTINUOUS
 10
-404.143
 20
80.2857
 11
-402.392
 21
80.2857
  0
LINE
  8
0
 62
7
  6
CONTINUOUS
 10
-404.143
 20
81.7143
 11
-401.857
 21
81.7143
  0
LINE
  8
0
 62
7
  6
CONTINUOUS
 10
-404.143
 20
84.5714
 11
-401.286
 21
86.9866
  0
LINE
  8
0
 62
7
  6
CONTINUOUS
 10
-403.306
 20
87.1496
 11
-401.286
 21
88.8572
  0
LINE
  8
0
 62
7
  6
CONTINUOUS
 10
-401.286
 20
86.9866
 11
-401.286
 21
88.8571
  0
LINE
  8
0
 62
7
  6
CONTINUOUS
 10
-392
 20
286
 11
-392
 21
11
  0
LINE
  8
0
 62
7
  6
CONTINUOUS
 10
-407
 20
119.571
 11
-407
 21
121
  0
LINE
  8
0
 62
7
  6
CONTINUOUS
 10
-404.143
 20
119.571
 11
-404.143
 21
120.286
  0
LINE
  8
0
 62
7
  6
CONTINUOUS
 10
-406.714
 20
118.857
 11
-406.314
 21
118.857
  0
LINE
  8
0
 62
7
  6
CONTINUOUS
 10
-407
 20
119.571
 11
-404.143
 21
119.571
  0
LINE
  8
0
 62
7
  6
CONTINUOUS
 10
-407
 20
131
 11
-404.143
 21
131
  0
LINE
  8
0
 62
7
  6
CONTINUOUS
 10
-405.571
 20
118.143
 11
-405.571
 21
118.857
  0
LINE
  8
0
 62
7
  6
CONTINUOUS
 10
-406.5
 20
120.286
 11
-406.5
 21
121
  0
LINE
  8
0
 62
7
  6
CONTINUOUS
 10
-407
 20
131
 11
-407
 21
133.25
  0
LINE
  8
0
 62
7
  6
CONTINUOUS
 10
-404.143
 20
131
 11
-404.143
 21
133.5
  0
LINE
  8
0
 62
7
  6
CONTINUOUS
 10
-405.821
 20
131.714
 11
-405.821
 21
133
  0
LINE
  8
0
 62
7
  6
CONTINUOUS
 10
-405.321
 20
131.714
 11
-405.321
 21
133
  0
LINE
  8
0
 62
7
  6
CONTINUOUS
 10
-406.5
 20
131.714
 11
-406.5
 21
133.25
  0
LINE
  8
0
 62
7
  6
CONTINUOUS
 10
-404.643
 20
131.714
 11
-404.643
 21
133.5
  0
LINE
  8
0
 62
7
  6
CONTINUOUS
 10
-406.5
 20
131.714
 11
-405.821
 21
131.714
  0
LINE
  8
0
 62
7
  6
CONTINUOUS
 10
-405.321
 20
131.714
 11
-404.643
 21
131.714
  0
LINE
  8
0
 62
7
  6
CONTINUOUS
 10
-404.643
 20
133.5
 11
-404.143
 21
133.5
  0
LINE
  8
0
 62
7
  6
CONTINUOUS
 10
-407
 20
133.25
 11
-406.5
 21
133.25
  0
LINE
  8
0
 62
7
  6
CONTINUOUS
 10
-405.821
 20
133
 11
-405.321
 21
133
  0
LINE
  8
0
 62
7
  6
CONTINUOUS
 10
-405.571
 20
120.286
 11
-405.571
 21
121
  0
LINE
  8
0
 62
7
  6
CONTINUOUS
 10
-406.5
 20
120.286
 11
-404.143
 21
120.286
  0
LINE
  8
0
 62
7
  6
CONTINUOUS
 10
-405.571
 20
118.143
 11
-404.696
 21
118.143
  0
LINE
  8
0
 62
7
  6
CONTINUOUS
 10
-405.571
 20
118.857
 11
-404.429
 21
118.857
  0
LINE
  8
0
 62
7
  6
CONTINUOUS
 10
-405.571
 20
120.286
 11
-404.143
 21
121.493
  0
LINE
  8
0
 62
7
  6
CONTINUOUS
 10
-405.153
 20
121.575
 11
-404.143
 21
122.429
  0
LINE
  8
0
 62
7
  6
CONTINUOUS
 10
-404.143
 20
121.493
 11
-404.143
 21
122.429
  0
LINE
  8
0
 62
7
  6
CONTINUOUS
 10
-407
 20
137.429
 11
-407
 21
138.143
  0
LINE
  8
0
 62
7
  6
CONTINUOUS
 10
-407
 20
142.429
 11
-404.143
 21
142.429
  0
LINE
  8
0
 62
7
  6
CONTINUOUS
 10
-407
 20
138.143
 11
-405.321
 21
138.143
  0
LINE
  8
0
 62
7
  6
CONTINUOUS
 10
-407
 20
149.571
 11
-404.143
 21
149.571
  0
LINE
  8
0
 62
7
  6
CONTINUOUS
 10
-402
 20
153.143
 11
-401.5
 21
153.143
  0
LINE
  8
0
 62
7
  6
CONTINUOUS
 10
-406.5
 20
143.143
 11
-405.571
 21
143.143
  0
LINE
  8
0
 62
7
  6
CONTINUOUS
 10
-405.571
 20
143.143
 11
-405.571
 21
143.5
  0
LINE
  8
0
 62
7
  6
CONTINUOUS
 10
-406.5
 20
143.143
 11
-406.5
 21
143.5
  0
LINE
  8
0
 62
7
  6
CONTINUOUS
 10
-405.071
 20
143.143
 11
-405.071
 21
143.5
  0
LINE
  8
0
 62
7
  6
CONTINUOUS
 10
-405.071
 20
143.143
 11
-404.143
 21
143.143
  0
LINE
  8
0
 62
7
  6
CONTINUOUS
 10
-407
 20
142.429
 11
-407
 21
143.5
  0
LINE
  8
0
 62
7
  6
CONTINUOUS
 10
-407
 20
149.571
 11
-407
 21
150.286
  0
LINE
  8
0
 62
7
  6
CONTINUOUS
 10
-404.143
 20
142.429
 11
-404.143
 21
143.143
  0
LINE
  8
0
 62
7
  6
CONTINUOUS
 10
-404.143
 20
149.571
 11
-404.143
 21
150.286
  0
LINE
  8
0
 62
7
  6
CONTINUOUS
 10
-407
 20
137.429
 11
-405.321
 21
137.429
  0
LINE
  8
0
 62
7
  6
CONTINUOUS
 10
-406.161
 20
139.571
 11
-405.821
 21
139.571
  0
LINE
  8
0
 62
7
  6
CONTINUOUS
 10
-406.161
 20
141
 11
-405.821
 21
141
  0
LINE
  8
0
 62
7
  6
CONTINUOUS
 10
-406.161
 20
141.714
 11
-404.143
 21
141.714
  0
LINE
  8
0
 62
7
  6
CONTINUOUS
 10
-405.321
 20
134.929
 11
-405.321
 21
135.643
  0
LINE
  8
0
 62
7
  6
CONTINUOUS
 10
-405.321
 20
141
 11
-404.143
 21
141
  0
LINE
  8
0
 62
7
  6
CONTINUOUS
 10
-404.143
 20
141
 11
-404.143
 21
141.714
  0
LINE
  8
0
 62
7
  6
CONTINUOUS
 10
-405.321
 20
139.571
 11
-404.143
 21
139.571
  0
LINE
  8
0
 62
7
  6
CONTINUOUS
 10
-406.048
 20
150.286
 11
-404.143
 21
150.286
  0
LINE
  8
0
 62
7
  6
CONTINUOUS
 10
-407
 20
151.714
 11
-405.095
 21
151.714
  0
LINE
  8
0
 62
7
  6
CONTINUOUS
 10
-405.821
 20
139.571
 11
-405.821
 21
141
  0
LINE
  8
0
 62
7
  6
CONTINUOUS
 10
-405.321
 20
139.571
 11
-405.321
 21
141
  0
LINE
  8
0
 62
7
  6
CONTINUOUS
 10
-407
 20
150.286
 11
-405.095
 21
151.714
  0
LINE
  8
0
 62
7
  6
CONTINUOUS
 10
-406.048
 20
150.286
 11
-404.143
 21
151.714
  0
LINE
  8
0
 62
7
  6
CONTINUOUS
 10
-399.857
 20
152.429
 11
-399.857
 21
153.143
  0
LINE
  8
0
 62
7
  6
CONTINUOUS
 10
-402
 20
152.429
 11
-401.5
 21
152.429
  0
LINE
  8
0
 62
7
  6
CONTINUOUS
 10
-404.143
 20
151.714
 11
-404.143
 21
152.429
  0
LINE
  8
0
 62
7
  6
CONTINUOUS
 10
-407
 20
152.429
 11
-404.143
 21
152.429
  0
LINE
  8
0
 62
7
  6
CONTINUOUS
 10
-406.161
 20
138.857
 11
-404.143
 21
138.857
  0
LINE
  8
0
 62
7
  6
CONTINUOUS
 10
-404.143
 20
138.857
 11
-404.143
 21
139.571
  0
LINE
  8
0
 62
7
  6
CONTINUOUS
 10
-407
 20
127.429
 11
-404.143
 21
127.429
  0
LINE
  8
0
 62
7
  6
CONTINUOUS
 10
-405.321
 20
128.143
 11
-404.143
 21
128.143
  0
LINE
  8
0
 62
7
  6
CONTINUOUS
 10
-404.143
 20
127.429
 11
-404.143
 21
128.143
  0
LINE
  8
0
 62
7
  6
CONTINUOUS
 10
-405.321
 20
129.571
 11
-404.143
 21
129.571
  0
LINE
  8
0
 62
7
  6
CONTINUOUS
 10
-404.143
 20
129.571
 11
-404.143
 21
130.286
  0
LINE
  8
0
 62
7
  6
CONTINUOUS
 10
-407
 20
130.286
 11
-404.143
 21
130.286
  0
LINE
  8
0
 62
7
  6
CONTINUOUS
 10
-405.321
 20
128.143
 11
-405.321
 21
129.571
  0
LINE
  8
0
 62
7
  6
CONTINUOUS
 10
-405.821
 20
128.143
 11
-405.821
 21
129.571
  0
LINE
  8
0
 62
7
  6
CONTINUOUS
 10
-407
 20
127.429
 11
-407
 21
128.143
  0
LINE
  8
0
 62
7
  6
CONTINUOUS
 10
-407
 20
128.143
 11
-405.821
 21
128.143
  0
LINE
  8
0
 62
7
  6
CONTINUOUS
 10
-407
 20
129.571
 11
-405.821
 21
129.571
  0
LINE
  8
0
 62
7
  6
CONTINUOUS
 10
-407
 20
129.571
 11
-407
 21
130.286
  0
LINE
  8
0
 62
7
  6
CONTINUOUS
 10
-402
 20
152.429
 11
-402
 21
153.143
  0
LINE
  8
0
 62
7
  6
CONTINUOUS
 10
-401.5
 20
152.429
 11
-401.5
 21
153.143
  0
LINE
  8
0
 62
7
  6
CONTINUOUS
 10
-401.25
 20
152.429
 11
-401.25
 21
153.143
  0
LINE
  8
0
 62
7
  6
CONTINUOUS
 10
-406.161
 20
148.143
 11
-405.821
 21
148.143
  0
LINE
  8
0
 62
7
  6
CONTINUOUS
 10
-406.161
 20
146.714
 11
-405.821
 21
146.714
  0
LINE
  8
0
 62
7
  6
CONTINUOUS
 10
-405.821
 20
146.714
 11
-405.821
 21
148.143
  0
LINE
  8
0
 62
7
  6
CONTINUOUS
 10
-405.321
 20
146.714
 11
-405.321
 21
148.143
  0
LINE
  8
0
 62
7
  6
CONTINUOUS
 10
-406.161
 20
146
 11
-404.143
 21
146
  0
LINE
  8
0
 62
7
  6
CONTINUOUS
 10
-405.321
 20
146.714
 11
-404.143
 21
146.714
  0
LINE
  8
0
 62
7
  6
CONTINUOUS
 10
-404.143
 20
146
 11
-404.143
 21
146.714
  0
LINE
  8
0
 62
7
  6
CONTINUOUS
 10
-405.321
 20
148.143
 11
-404.143
 21
148.143
  0
LINE
  8
0
 62
7
  6
CONTINUOUS
 10
-404.143
 20
148.143
 11
-404.143
 21
148.857
  0
LINE
  8
0
 62
7
  6
CONTINUOUS
 10
-406.161
 20
148.857
 11
-404.143
 21
148.857
  0
LINE
  8
0
 62
7
  6
CONTINUOUS
 10
-401.875
 20
138.143
 11
-401.875
 21
138.857
  0
LINE
  8
0
 62
7
  6
CONTINUOUS
 10
-400.696
 20
136
 11
-400.696
 21
136.714
  0
LINE
  8
0
 62
7
  6
CONTINUOUS
 10
-401.25
 20
153.143
 11
-399.857
 21
153.143
  0
LINE
  8
0
 62
7
  6
CONTINUOUS
 10
-401.25
 20
152.429
 11
-399.857
 21
152.429
  0
LINE
  8
0
 62
7
  6
CONTINUOUS
 10
-401.339
 20
121
 11
-401.339
 21
121.714
  0
LINE
  8
0
 62
7
  6
CONTINUOUS
 10
-400.518
 20
145.286
 11
-400.518
 21
146
  0
LINE
  8
0
 62
7
  6
CONTINUOUS
 10
-401.339
 20
146.714
 11
-401.339
 21
147.429
  0
LINE
  8
0
 62
7
  6
CONTINUOUS
 10
-399.857
 20
122.071
 11
-399.857
 21
123.143
  0
LINE
  8
0
 62
7
  6
CONTINUOUS
 10
-401.339
 20
123.143
 11
-399.857
 21
123.143
  0
LINE
  8
0
 62
7
  6
CONTINUOUS
 10
-401.339
 20
122.429
 11
-401.179
 21
122.429
  0
LINE
  8
0
 62
7
  6
CONTINUOUS
 10
-407
 20
151.714
 11
-407
 21
152.429
  0
LINE
  8
0
 62
7
  6
CONTINUOUS
 10
-401.179
 20
122.071
 11
-401.179
 21
122.429
  0
LINE
  8
0
 62
7
  6
CONTINUOUS
 10
-402
 20
156.714
 11
-399.857
 21
156.714
  0
LINE
  8
0
 62
7
  6
CONTINUOUS
 10
-399.857
 20
156.714
 11
-399.857
 21
157.429
  0
LINE
  8
0
 62
7
  6
CONTINUOUS
 10
-402
 20
156.714
 11
-402
 21
157.429
  0
LINE
  8
0
 62
7
  6
CONTINUOUS
 10
-402
 20
157.429
 11
-401.962
 21
157.429
  0
LINE
  8
0
 62
7
  6
CONTINUOUS
 10
-402.714
 20
151.714
 11
-399.857
 21
151.714
  0
LINE
  8
0
 62
7
  6
CONTINUOUS
 10
-399.857
 20
151.714
 11
-399.857
 21
151
  0
LINE
  8
0
 62
7
  6
CONTINUOUS
 10
-401.339
 20
149.571
 11
-400.518
 21
149.571
  0
LINE
  8
0
 62
7
  6
CONTINUOUS
 10
-401.339
 20
151
 11
-400.518
 21
151
  0
LINE
  8
0
 62
7
  6
CONTINUOUS
 10
-402.714
 20
151
 11
-401.962
 21
151
  0
LINE
  8
0
 62
7
  6
CONTINUOUS
 10
-402.714
 20
151.714
 11
-402.714
 21
151
  0
LINE
  8
0
 62
7
  6
CONTINUOUS
 10
-401.339
 20
150.286
 11
-400.518
 21
150.286
  0
LINE
  8
0
 62
7
  6
CONTINUOUS
 10
-399.895
 20
151
 11
-399.857
 21
151
  0
LINE
  8
0
 62
7
  6
CONTINUOUS
 10
-402
 20
148.857
 11
-401.5
 21
148.857
  0
LINE
  8
0
 62
7
  6
CONTINUOUS
 10
-399.857
 20
148.143
 11
-399.857
 21
148.857
  0
LINE
  8
0
 62
7
  6
CONTINUOUS
 10
-402
 20
148.143
 11
-401.5
 21
148.143
  0
LINE
  8
0
 62
7
  6
CONTINUOUS
 10
-402
 20
148.143
 11
-402
 21
148.857
  0
LINE
  8
0
 62
7
  6
CONTINUOUS
 10
-401.5
 20
148.143
 11
-401.5
 21
148.857
  0
LINE
  8
0
 62
7
  6
CONTINUOUS
 10
-401.25
 20
148.143
 11
-401.25
 21
148.857
  0
LINE
  8
0
 62
7
  6
CONTINUOUS
 10
-401.25
 20
148.857
 11
-399.857
 21
148.857
  0
LINE
  8
0
 62
7
  6
CONTINUOUS
 10
-401.25
 20
148.143
 11
-399.857
 21
148.143
  0
LINE
  8
0
 62
7
  6
CONTINUOUS
 10
-402
 20
160.643
 11
-399.804
 21
160.643
  0
LINE
  8
0
 62
7
  6
CONTINUOUS
 10
-402
 20
159.929
 11
-400.518
 21
159.929
  0
LINE
  8
0
 62
7
  6
CONTINUOUS
 10
-402
 20
157.786
 11
-401.5
 21
157.786
  0
LINE
  8
0
 62
7
  6
CONTINUOUS
 10
-401.339
 20
157.429
 11
-399.857
 21
157.429
  0
LINE
  8
0
 62
7
  6
CONTINUOUS
 10
-402
 20
159.929
 11
-402
 21
160.643
  0
LINE
  8
0
 62
7
  6
CONTINUOUS
 10
-399.895
 20
159.929
 11
-399.804
 21
159.929
  0
LINE
  8
0
 62
7
  6
CONTINUOUS
 10
-401.339
 20
156
 11
-399.857
 21
156
  0
LINE
  8
0
 62
7
  6
CONTINUOUS
 10
-401.339
 20
155.286
 11
-401.179
 21
155.286
  0
LINE
  8
0
 62
7
  6
CONTINUOUS
 10
-401.179
 20
154.929
 11
-401.179
 21
155.286
  0
LINE
  8
0
 62
7
  6
CONTINUOUS
 10
-401.339
 20
153.857
 11
-401.339
 21
154.571
  0
LINE
  8
0
 62
7
  6
CONTINUOUS
 10
-399.857
 20
154.929
 11
-399.857
 21
156
  0
LINE
  8
0
 62
7
  6
CONTINUOUS
 10
-402
 20
158.5
 11
-400.518
 21
158.5
  0
LINE
  8
0
 62
7
  6
CONTINUOUS
 10
-402
 20
159.214
 11
-400.518
 21
159.214
  0
LINE
  8
0
 62
7
  6
CONTINUOUS
 10
-402
 20
158.5
 11
-402
 21
159.214
  0
LINE
  8
0
 62
7
  6
CONTINUOUS
 10
-402
 20
129.571
 11
-401.339
 21
129.571
  0
LINE
  8
0
 62
7
  6
CONTINUOUS
 10
-402
 20
131.714
 11
-401.339
 21
131.714
  0
LINE
  8
0
 62
7
  6
CONTINUOUS
 10
-402.714
 20
131
 11
-402
 21
131
  0
LINE
  8
0
 62
7
  6
CONTINUOUS
 10
-402
 20
129.571
 11
-402
 21
130.286
  0
LINE
  8
0
 62
7
  6
CONTINUOUS
 10
-402.714
 20
130.286
 11
-402
 21
130.286
  0
LINE
  8
0
 62
7
  6
CONTINUOUS
 10
-401.339
 20
129.571
 11
-401.339
 21
130.286
  0
LINE
  8
0
 62
7
  6
CONTINUOUS
 10
-402.714
 20
132.429
 11
-399.857
 21
132.429
  0
LINE
  8
0
 62
7
  6
CONTINUOUS
 10
-399.857
 20
132.429
 11
-399.857
 21
133.143
  0
LINE
  8
0
 62
7
  6
CONTINUOUS
 10
-401.339
 20
134.571
 11
-399.857
 21
134.571
  0
LINE
  8
0
 62
7
  6
CONTINUOUS
 10
-401.339
 20
133.857
 11
-399.857
 21
133.857
  0
LINE
  8
0
 62
7
  6
CONTINUOUS
 10
-402.714
 20
133.143
 11
-401.962
 21
133.143
  0
LINE
  8
0
 62
7
  6
CONTINUOUS
 10
-402.714
 20
130.286
 11
-402.714
 21
131
  0
LINE
  8
0
 62
7
  6
CONTINUOUS
 10
-402.714
 20
132.429
 11
-402.714
 21
133.143
  0
LINE
  8
0
 62
7
  6
CONTINUOUS
 10
-401.339
 20
133.143
 11
-399.857
 21
133.143
  0
LINE
  8
0
 62
7
  6
CONTINUOUS
 10
-399.857
 20
133.857
 11
-399.857
 21
134.571
  0
LINE
  8
0
 62
7
  6
CONTINUOUS
 10
-399.804
 20
158.504
 11
-399.804
 21
159.235
  0
LINE
  8
0
 62
7
  6
CONTINUOUS
 10
-401.339
 20
130.286
 11
-400.518
 21
130.286
  0
LINE
  8
0
 62
7
  6
CONTINUOUS
 10
-402
 20
131
 11
-402
 21
131.714
  0
LINE
  8
0
 62
7
  6
CONTINUOUS
 10
-401.339
 20
131
 11
-401.339
 21
131.714
  0
LINE
  8
0
 62
7
  6
CONTINUOUS
 10
-401.339
 20
131
 11
-400.518
 21
131
  0
LINE
  8
0
 62
7
  6
CONTINUOUS
 10
-400.518
 20
131.714
 11
-399.895
 21
131.714
  0
LINE
  8
0
 62
7
  6
CONTINUOUS
 10
-400.518
 20
117.429
 11
-400.518
 21
118.143
  0
LINE
  8
0
 62
7
  6
CONTINUOUS
 10
-401.339
 20
118.857
 11
-401.339
 21
119.571
  0
LINE
  8
0
 62
7
  6
CONTINUOUS
 10
-401.25
 20
116
 11
-399.857
 21
116
  0
LINE
  8
0
 62
7
  6
CONTINUOUS
 10
-402
 20
116.714
 11
-401.5
 21
116.714
  0
LINE
  8
0
 62
7
  6
CONTINUOUS
 10
-399.857
 20
116
 11
-399.857
 21
116.714
  0
LINE
  8
0
 62
7
  6
CONTINUOUS
 10
-402
 20
116
 11
-401.5
 21
116
  0
LINE
  8
0
 62
7
  6
CONTINUOUS
 10
-402
 20
116
 11
-402
 21
116.714
  0
LINE
  8
0
 62
7
  6
CONTINUOUS
 10
-401.5
 20
116
 11
-401.5
 21
116.714
  0
LINE
  8
0
 62
7
  6
CONTINUOUS
 10
-401.25
 20
116
 11
-401.25
 21
116.714
  0
LINE
  8
0
 62
7
  6
CONTINUOUS
 10
-401.25
 20
116.714
 11
-399.857
 21
116.714
  0
LINE
  8
0
 62
7
  6
CONTINUOUS
 10
-402
 20
139.571
 11
-400.518
 21
139.571
  0
LINE
  8
0
 62
7
  6
CONTINUOUS
 10
-399.857
 20
141
 11
-399.857
 21
141.714
  0
LINE
  8
0
 62
7
  6
CONTINUOUS
 10
-402
 20
141.714
 11
-399.857
 21
141.714
  0
LINE
  8
0
 62
7
  6
CONTINUOUS
 10
-402
 20
141
 11
-400.518
 21
141
  0
LINE
  8
0
 62
7
  6
CONTINUOUS
 10
-402
 20
139.571
 11
-402
 21
140.286
  0
LINE
  8
0
 62
7
  6
CONTINUOUS
 10
-402
 20
140.286
 11
-400.518
 21
140.286
  0
LINE
  8
0
 62
7
  6
CONTINUOUS
 10
-402
 20
141
 11
-402
 21
141.714
  0
LINE
  8
0
 62
7
  6
CONTINUOUS
 10
-399.895
 20
141
 11
-399.857
 21
141
  0
LINE
  8
0
 62
7
  6
CONTINUOUS
 10
-402.714
 20
142.429
 11
-399.857
 21
142.429
  0
LINE
  8
0
 62
7
  6
CONTINUOUS
 10
-399.857
 20
142.429
 11
-399.857
 21
143.143
  0
LINE
  8
0
 62
7
  6
CONTINUOUS
 10
-401.339
 20
144.571
 11
-400.518
 21
144.571
  0
LINE
  8
0
 62
7
  6
CONTINUOUS
 10
-401.339
 20
143.857
 11
-400.518
 21
143.857
  0
LINE
  8
0
 62
7
  6
CONTINUOUS
 10
-402.714
 20
143.143
 11
-401.962
 21
143.143
  0
LINE
  8
0
 62
7
  6
CONTINUOUS
 10
-402.714
 20
142.429
 11
-402.714
 21
143.143
  0
LINE
  8
0
 62
7
  6
CONTINUOUS
 10
-401.339
 20
143.143
 11
-400.518
 21
143.143
  0
LINE
  8
0
 62
7
  6
CONTINUOUS
 10
-399.895
 20
143.143
 11
-399.857
 21
143.143
  0
LINE
  8
0
 62
7
  6
CONTINUOUS
 10
-399.857
 20
125.286
 11
-399.857
 21
126
  0
LINE
  8
0
 62
7
  6
CONTINUOUS
 10
-402.714
 20
125.286
 11
-402.714
 21
126
  0
LINE
  8
0
 62
7
  6
CONTINUOUS
 10
-402.714
 20
126
 11
-399.857
 21
126
  0
LINE
  8
0
 62
7
  6
CONTINUOUS
 10
-402
 20
124.571
 11
-402
 21
125.286
  0
LINE
  8
0
 62
7
  6
CONTINUOUS
 10
-402
 20
125.286
 11
-399.857
 21
125.286
  0
LINE
  8
0
 62
7
  6
CONTINUOUS
 10
-402
 20
126.714
 11
-400.518
 21
126.714
  0
LINE
  8
0
 62
7
  6
CONTINUOUS
 10
-402
 20
128.857
 11
-400.518
 21
128.857
  0
LINE
  8
0
 62
7
  6
CONTINUOUS
 10
-402
 20
128.143
 11
-400.518
 21
128.143
  0
LINE
  8
0
 62
7
  6
CONTINUOUS
 10
-402
 20
127.429
 11
-400.518
 21
127.429
  0
LINE
  8
0
 62
7
  6
CONTINUOUS
 10
-402
 20
124.571
 11
-402.714
 21
125.286
  0
LINE
  8
0
 62
7
  6
CENTER
 10
-300
 20
122
 11
-300
 21
79
  0
LINE
  8
0
 62
7
  6
CONTINUOUS
 10
-311.5
 20
91
 11
-288.5
 21
91
  0
LINE
  8
0
 62
7
  6
CONTINUOUS
 10
-289.522
 20
86.9874
 11
-310.478
 21
86.9874
  0
LINE
  8
0
 62
7
  6
CONTINUOUS
 10
-288.5
 20
89
 11
-311.5
 21
89
  0
LINE
  8
0
 62
7
  6
CONTINUOUS
 10
-292.75
 20
109.665
 11
-307.3
 21
109.665
  0
LINE
  8
0
 62
7
  6
CONTINUOUS
 10
-291.5
 20
107.5
 11
-308.5
 21
107.5
  0
LINE
  8
0
 62
7
  6
CONTINUOUS
 10
-291.5
 20
93.5
 11
-289.5
 21
91.5
  0
LINE
  8
0
 62
7
  6
CONTINUOUS
 10
-308.5
 20
93.5
 11
-310.5
 21
91.5
  0
LINE
  8
0
 62
7
  6
CONTINUOUS
 10
-293.2
 20
122
 11
-306.8
 21
122
  0
LINE
  8
0
 62
7
  6
CONTINUOUS
 10
-307.3
 20
109.578
 11
-307.3
 21
117
  0
LINE
  8
0
 62
7
  6
CONTINUOUS
 10
-308.5
 20
107
 11
-308.5
 21
107.5
  0
LINE
  8
0
 62
7
  6
CONTINUOUS
 10
-307.3
 20
109.578
 11
-308.5
 21
107.5
  0
LINE
  8
0
 62
7
  6
CONTINUOUS
 10
-293.2
 20
120
 11
-306.8
 21
120
  0
LINE
  8
0
 62
7
  6
CONTINUOUS
 10
-293.2
 20
117.5
 11
-306.8
 21
117.5
  0
LINE
  8
0
 62
7
  6
CONTINUOUS
 10
-307.3
 20
120.5
 11
-307.3
 21
121.5
  0
LINE
  8
0
 62
7
  6
CONTINUOUS
 10
-291.5
 20
93.5
 11
-291.5
 21
96.5
  0
LINE
  8
0
 62
7
  6
CONTINUOUS
 10
-292.7
 20
109.578
 11
-291.5
 21
107.5
  0
LINE
  8
0
 62
7
  6
CONTINUOUS
 10
-292.7
 20
109.578
 11
-292.7
 21
117
  0
LINE
  8
0
 62
7
  6
CONTINUOUS
 10
-292.7
 20
120.5
 11
-292.7
 21
121.5
  0
LINE
  8
0
 62
7
  6
CONTINUOUS
 10
-293.5
 20
97
 11
-293.5
 21
106.5
  0
LINE
  8
0
 62
7
  6
CONTINUOUS
 10
-291.5
 20
107
 11
-291.5
 21
107.5
  0
LINE
  8
0
 62
7
  6
CONTINUOUS
 10
-291.5
 20
107
 11
-308.5
 21
107
  0
LINE
  8
0
 62
7
  6
CONTINUOUS
 10
-308.5
 20
93.5
 11
-308.5
 21
96.5
  0
LINE
  8
0
 62
7
  6
CONTINUOUS
 10
-291.5
 20
96.5
 11
-308.5
 21
96.5
  0
LINE
  8
0
 62
7
  6
CONTINUOUS
 10
-289.5
 20
91.5
 11
-289.5
 21
91
  0
LINE
  8
0
 62
7
  6
CONTINUOUS
 10
-310.5
 20
91.5
 11
-310.5
 21
91
  0
LINE
  8
0
 62
7
  6
CONTINUOUS
 10
-308.5
 20
93.5
 11
-291.5
 21
93.5
  0
LINE
  8
0
 62
7
  6
CONTINUOUS
 10
-311.5
 20
91
 11
-311.5
 21
89
  0
LINE
  8
0
 62
7
  6
CONTINUOUS
 10
-310.478
 20
89
 11
-310.478
 21
80.162
  0
LINE
  8
0
 62
7
  6
CONTINUOUS
 10
-310.478
 20
89
 11
-309.315
 21
86.9874
  0
LINE
  8
0
 62
7
  6
CONTINUOUS
 10
-309.315
 20
86.9874
 11
-309.315
 21
79
  0
LINE
  8
0
 62
7
  6
CONTINUOUS
 10
-310.478
 20
80.162
 11
-309.315
 21
79
  0
LINE
  8
0
 62
7
  6
CONTINUOUS
 10
-309.315
 20
79
 11
-290.685
 21
79
  0
LINE
  8
0
 62
7
  6
CONTINUOUS
 10
-289.522
 20
80.162
 11
-290.685
 21
79
  0
LINE
  8
0
 62
7
  6
CONTINUOUS
 10
-289.522
 20
89
 11
-289.522
 21
80.162
  0
LINE
  8
0
 62
7
  6
CONTINUOUS
 10
-290.685
 20
86.9874
 11
-290.685
 21
79
  0
LINE
  8
0
 62
7
  6
CONTINUOUS
 10
-289.522
 20
89
 11
-290.685
 21
86.9874
  0
LINE
  8
0
 62
7
  6
CONTINUOUS
 10
-288.5
 20
91
 11
-288.5
 21
89
  0
LINE
  8
0
 62
7
  6
CONTINUOUS
 10
-306.5
 20
97
 11
-306.5
 21
106.5
  0
LINE
  8
0
 62
7
  6
CONTINUOUS
 10
-289.522
 20
80.162
 11
-310.478
 21
80.162
  0
LINE
  8
0
 62
7
  6
CONTINUOUS
 10
-310.5
 20
91.5
 11
-289.5
 21
91.5
  0
ARC
  8
0
 62
7
  6
CONTINUOUS
 10
-376.600006
 20
14.600000
 40
0.800000
 50
-90.000079
 51
0.000000
  0
ARC
  8
0
 62
7
  6
CONTINUOUS
 10
-376.600006
 20
14.600000
 40
1.600000
 50
-90.000079
 51
0.000000
  0
ARC
  8
0
 62
7
  6
CONTINUOUS
 10
-369.399994
 20
16.199999
 40
0.800000
 50
-90.000079
 51
0.000000
  0
ARC
  8
0
 62
7
  6
CONTINUOUS
 10
-363.000000
 20
13.799999
 40
0.800000
 50
-90.000079
 51
0.000000
  0
ARC
  8
0
 62
7
  6
CONTINUOUS
 10
-366.200012
 20
14.600000
 40
1.600000
 50
-30.000026
 51
0.000000
  0
ARC
  8
0
 62
7
  6
CONTINUOUS
 10
-366.200012
 20
14.600000
 40
0.800000
 50
-90.000079
 51
0.000000
  0
ARC
  8
0
 62
7
  6
CONTINUOUS
 10
-363.399994
 20
18.199999
 40
0.800000
 50
-90.000079
 51
0.000000
  0
ARC
  8
0
 62
7
  6
CONTINUOUS
 10
-325.720001
 20
18.599998
 40
0.800000
 50
-90.000079
 51
0.000000
  0
ARC
  8
0
 62
7
  6
CONTINUOUS
 10
-357.399994
 20
18.599998
 40
0.800000
 50
-90.000079
 51
0.000000
  0
ARC
  8
0
 62
7
  6
CONTINUOUS
 10
-387.000000
 20
18.199999
 40
1.600000
 50
-90.000079
 51
0.000000
  0
ARC
  8
0
 62
7
  6
CONTINUOUS
 10
-387.000000
 20
18.199999
 40
2.400000
 50
-90.000079
 51
-19.471236
  0
ARC
  8
0
 62
7
  6
CONTINUOUS
 10
-341.720001
 20
16.999998
 40
4.000000
 50
-90.000079
 51
0.000000
  0
ARC
  8
0
 62
7
  6
CONTINUOUS
 10
-341.720001
 20
16.999998
 40
3.200000
 50
-90.000079
 51
0.000000
  0
ARC
  8
0
 62
7
  6
CONTINUOUS
 10
-385.399994
 20
16.999998
 40
4.000000
 50
-90.000079
 51
0.000000
  0
ARC
  8
0
 62
7
  6
CONTINUOUS
 10
-385.399994
 20
16.999998
 40
3.200000
 50
-90.000079
 51
0.000000
  0
ARC
  8
0
 62
7
  6
CONTINUOUS
 10
-383.000000
 20
18.599998
 40
0.800000
 50
-90.000079
 51
0.000000
  0
ARC
  8
0
 62
7
  6
CONTINUOUS
 10
-382.200012
 20
18.599998
 40
0.800000
 50
-90.000079
 51
0.000000
  0
ARC
  8
0
 62
7
  6
CONTINUOUS
 10
-340.919983
 20
18.199999
 40
0.800000
 50
-90.000079
 51
0.000000
  0
ARC
  8
0
 62
7
  6
CONTINUOUS
 10
-359.000000
 20
16.599998
 40
0.800000
 50
-90.000079
 51
0.000000
  0
ARC
  8
0
 62
7
  6
CONTINUOUS
 10
-359.799988
 20
16.999998
 40
3.200000
 50
-90.000079
 51
0.000000
  0
ARC
  8
0
 62
7
  6
CONTINUOUS
 10
-359.799988
 20
16.999998
 40
4.000000
 50
-90.000079
 51
0.000000
  0
ARC
  8
0
 62
7
  6
CONTINUOUS
 10
-359.000000
 20
18.199999
 40
0.800000
 50
-90.000079
 51
0.000000
  0
CIRCLE
  8
0
 62
7
  6
CONTINUOUS
 10
-344.919983
 20
17.799999
 40
0.800000
  0
CIRCLE
  8
0
 62
7
  6
CONTINUOUS
 10
-344.919983
 20
17.799999
 40
0.400000
  0
ARC
  8
0
 62
7
  6
CONTINUOUS
 10
-344.919983
 20
17.799999
 40
1.200000
 50
180.000143
 51
228.189873
  0
ARC
  8
0
 62
7
  6
CONTINUOUS
 10
-344.119995
 20
15.400000
 40
2.400000
 50
180.000143
 51
270.000229
  0
ARC
  8
0
 62
7
  6
CONTINUOUS
 10
-344.119995
 20
15.400000
 40
1.600000
 50
180.000143
 51
270.000229
  0
ARC
  8
0
 62
7
  6
CONTINUOUS
 10
-349.720001
 20
15.000000
 40
2.000000
 50
-90.000079
 51
0.000000
  0
ARC
  8
0
 62
7
  6
CONTINUOUS
 10
-349.720001
 20
15.000000
 40
1.200000
 50
-90.000079
 51
0.000000
  0
ARC
  8
0
 62
7
  6
CONTINUOUS
 10
-352.919983
 20
16.600000
 40
2.400000
 50
-82.337870
 51
0.000000
  0
ARC
  8
0
 62
7
  6
CONTINUOUS
 10
-352.919983
 20
16.600000
 40
1.600000
 50
-78.463196
 51
-26.743755
  0
ARC
  8
0
 62
7
  6
CONTINUOUS
 10
-353.799988
 20
14.200001
 40
0.800000
 50
-90.000079
 51
0.000000
  0
ARC
  8
0
 62
7
  6
CONTINUOUS
 10
-336.919983
 20
16.599998
 40
1.200000
 50
-90.000079
 51
0.000000
  0
ARC
  8
0
 62
7
  6
CONTINUOUS
 10
-336.919983
 20
16.599998
 40
2.000000
 50
-90.000079
 51
-53.130147
  0
ARC
  8
0
 62
7
  6
CONTINUOUS
 10
-333.720001
 20
16.599998
 40
1.200000
 50
180.000143
 51
228.189873
  0
ARC
  8
0
 62
7
  6
CONTINUOUS
 10
-333.720001
 20
16.599998
 40
2.000000
 50
-126.870010
 51
-113.578273
  0
ARC
  8
0
 62
7
  6
CONTINUOUS
 10
-335.320007
 20
18.199999
 40
1.600000
 50
-75.522551
 51
-48.590420
  0
ARC
  8
0
 62
7
  6
CONTINUOUS
 10
-335.320007
 20
18.199999
 40
1.600000
 50
-14.477524
 51
0.000000
  0
ARC
  8
0
 62
7
  6
CONTINUOUS
 10
-335.320007
 20
18.199999
 40
1.100000
 50
-48.189727
 51
0.000000
  0
ARC
  8
0
 62
7
  6
CONTINUOUS
 10
-332.320007
 20
17.799999
 40
0.800000
 50
-90.000079
 51
0.000000
  0
ARC
  8
0
 62
7
  6
CONTINUOUS
 10
-332.119995
 20
16.400000
 40
0.800000
 50
-90.000079
 51
0.000000
  0
ARC
  8
0
 62
7
  6
CONTINUOUS
 10
-356.600006
 20
18.599998
 40
0.800000
 50
-90.000079
 51
0.000000
  0
ARC
  8
0
 62
7
  6
CONTINUOUS
 10
-325.720001
 20
17.799999
 40
0.800000
 50
-90.000079
 51
0.000000
  0
ARC
  8
0
 62
7
  6
CONTINUOUS
 10
-324.919983
 20
15.400000
 40
2.400000
 50
180.000143
 51
270.000229
  0
ARC
  8
0
 62
7
  6
CONTINUOUS
 10
-324.919983
 20
15.400000
 40
1.600000
 50
180.000143
 51
270.000229
  0
ARC
  8
0
 62
7
  6
CONTINUOUS
 10
-328.519989
 20
16.400000
 40
0.800000
 50
-90.000079
 51
0.000000
  0
ARC
  8
0
 62
7
  6
CONTINUOUS
 10
-328.320007
 20
14.200001
 40
0.800000
 50
-90.000079
 51
0.000000
  0
ARC
  8
0
 62
7
  6
CONTINUOUS
 10
-335.269989
 20
15.599998
 40
1.949998
 50
-67.380235
 51
0.000000
  0
ARC
  8
0
 62
7
  6
CONTINUOUS
 10
-335.269989
 20
15.599998
 40
2.749998
 50
-74.173479
 51
-44.839058
  0
ARC
  8
0
 62
7
  6
CONTINUOUS
 10
-330.570007
 20
15.599998
 40
1.949998
 50
180.000143
 51
247.380399
  0
ARC
  8
0
 62
7
  6
CONTINUOUS
 10
-330.570007
 20
15.599998
 40
2.749998
 50
-135.161088
 51
-105.826678
  0
ARC
  8
0
 62
7
  6
CONTINUOUS
 10
-324.119995
 20
20.399998
 40
3.000000
 50
-90.000079
 51
-36.869928
  0
ARC
  8
0
 62
7
  6
CONTINUOUS
 10
-324.119995
 20
20.399998
 40
3.800000
 50
-90.000079
 51
-42.536934
  0
ARC
  8
0
 62
7
  6
CONTINUOUS
 10
-318.519989
 20
20.399998
 40
3.800000
 50
-137.463219
 51
-90.000079
  0
ARC
  8
0
 62
7
  6
CONTINUOUS
 10
-318.519989
 20
20.399998
 40
3.000000
 50
-143.130218
 51
-90.000079
  0
ARC
  8
0
 62
7
  6
CONTINUOUS
 10
-320.519989
 20
16.799999
 40
0.800000
 50
-90.000079
 51
0.000000
  0
ARC
  8
0
 62
7
  6
CONTINUOUS
 10
-320.119995
 20
13.799999
 40
0.800000
 50
-90.000079
 51
0.000000
  0
ARC
  8
0
 62
7
  6
CONTINUOUS
 10
-319.745392
 20
15.600000
 40
0.800000
 50
-90.000079
 51
0.000000
  0
ARC
  8
0
 62
7
  6
CONTINUOUS
 10
-323.320007
 20
15.539677
 40
1.739678
 50
-90.000072
 51
-25.162133
  0
ARC
  8
0
 62
7
  6
CONTINUOUS
 10
-323.320007
 20
15.539677
 40
2.539678
 50
-43.235595
 51
-16.932738
  0
ARC
  8
0
 62
7
  6
CONTINUOUS
 10
-318.119995
 20
17.799999
 40
2.800000
 50
-81.786858
 51
-64.623124
  0
ARC
  8
0
 62
7
  6
CONTINUOUS
 10
-318.119995
 20
17.799999
 40
2.000000
 50
-78.463107
 51
-23.578198
  0
ARC
  8
0
 62
7
  6
CONTINUOUS
 10
-318.119995
 20
17.799999
 40
2.800000
 50
-44.415347
 51
0.000000
  0
ARC
  8
0
 62
7
  6
CONTINUOUS
 10
-315.320007
 20
15.799999
 40
0.800000
 50
177.025976
 51
270.000229
  0
ARC
  8
0
 62
7
  6
CONTINUOUS
 10
-315.320007
 20
15.799999
 40
1.600000
 50
-120.000105
 51
-90.000079
  0
ARC
  8
0
 62
7
  6
CONTINUOUS
 10
-313.119995
 20
17.199999
 40
0.800000
 50
-90.000079
 51
0.000000
  0
ARC
  8
0
 62
7
  6
CONTINUOUS
 10
-312.919983
 20
14.000000
 40
0.800000
 50
-90.000079
 51
0.000000
  0
ARC
  8
0
 62
7
  6
CONTINUOUS
 10
-398.428558
 20
93.857147
 40
6.142857
 50
-31.914602
 51
31.914602
  0
ARC
  8
0
 62
7
  6
CONTINUOUS
 10
-388.000000
 20
87.362244
 40
6.142857
 50
148.085552
 51
210.348749
  0
ARC
  8
0
 62
7
  6
CONTINUOUS
 10
-388.000000
 20
100.352043
 40
6.142857
 50
149.651497
 51
211.914748
  0
ARC
  8
0
 62
7
  6
CONTINUOUS
 10
-404.142853
 20
80.867355
 40
6.142857
 50
-33.470725
 51
31.914602
  0
ARC
  8
0
 62
7
  6
CONTINUOUS
 10
-393.714294
 20
87.362244
 40
6.142857
 50
148.085552
 51
211.914748
  0
ARC
  8
0
 62
7
  6
CONTINUOUS
 10
-404.142853
 20
93.857147
 40
6.142857
 50
-31.914602
 51
31.914602
  0
ARC
  8
0
 62
7
  6
CONTINUOUS
 10
-393.714294
 20
100.352043
 40
6.142857
 50
148.085552
 51
211.914748
  0
ARC
  8
0
 62
7
  6
CONTINUOUS
 10
-404.142853
 20
106.846939
 40
6.142857
 50
-31.914602
 51
33.470725
  0
ARC
  8
0
 62
7
  6
CONTINUOUS
 10
-401.285706
 20
80.867355
 40
6.142857
 50
2.158052
 51
31.914602
  0
ARC
  8
0
 62
7
  6
CONTINUOUS
 10
-390.857147
 20
87.362244
 40
6.142857
 50
148.085552
 51
211.914748
  0
ARC
  8
0
 62
7
  6
CONTINUOUS
 10
-401.285706
 20
93.857147
 40
6.142857
 50
-31.914602
 51
31.914602
  0
ARC
  8
0
 62
7
  6
CONTINUOUS
 10
-390.857147
 20
100.352043
 40
6.142857
 50
148.085552
 51
211.914748
  0
ARC
  8
0
 62
7
  6
CONTINUOUS
 10
-401.285706
 20
106.846939
 40
6.142857
 50
-31.914602
 51
-2.158064
  0
ARC
  8
0
 62
7
  6
CONTINUOUS
 10
-404.142853
 20
80.867355
 40
6.714286
 50
-23.626199
 51
31.914602
  0
ARC
  8
0
 62
7
  6
CONTINUOUS
 10
-393.714294
 20
87.362244
 40
5.571429
 50
148.085552
 51
211.914748
  0
ARC
  8
0
 62
7
  6
CONTINUOUS
 10
-404.142853
 20
93.857147
 40
6.714286
 50
-31.914602
 51
31.914608
  0
ARC
  8
0
 62
7
  6
CONTINUOUS
 10
-393.714294
 20
100.352043
 40
5.571429
 50
148.085552
 51
211.914762
  0
ARC
  8
0
 62
7
  6
CONTINUOUS
 10
-404.142853
 20
106.846939
 40
6.714286
 50
-31.914602
 51
23.626216
  0
ARC
  8
0
 62
7
  6
CONTINUOUS
 10
-401.285706
 20
80.867355
 40
6.714286
 50
8.226605
 51
31.914602
  0
ARC
  8
0
 62
7
  6
CONTINUOUS
 10
-390.857147
 20
87.362244
 40
5.571429
 50
148.085552
 51
211.914748
  0
ARC
  8
0
 62
7
  6
CONTINUOUS
 10
-401.285706
 20
93.857147
 40
6.714286
 50
-31.914602
 51
31.914608
  0
ARC
  8
0
 62
7
  6
CONTINUOUS
 10
-390.857147
 20
100.352043
 40
5.571429
 50
148.085552
 51
211.914762
  0
ARC
  8
0
 62
7
  6
CONTINUOUS
 10
-401.285706
 20
106.846939
 40
6.714286
 50
-31.914602
 51
-8.226720
  0
ARC
  8
0
 62
7
  6
CONTINUOUS
 10
-388.000000
 20
87.362244
 40
5.571429
 50
148.085552
 51
205.945882
  0
ARC
  8
0
 62
7
  6
CONTINUOUS
 10
-398.428558
 20
93.857147
 40
6.714286
 50
-31.914602
 51
31.914608
  0
ARC
  8
0
 62
7
  6
CONTINUOUS
 10
-388.000000
 20
100.352043
 40
5.571429
 50
154.052998
 51
211.914762
  0
ARC
  8
0
 62
7
  6
CONTINUOUS
 10
-306.799988
 20
120.499992
 40
0.500000
 50
180.000143
 51
270.000229
  0
ARC
  8
0
 62
7
  6
CONTINUOUS
 10
-306.800018
 20
117.000000
 40
0.500000
 50
90.000072
 51
180.000143
  0
ARC
  8
0
 62
7
  6
CONTINUOUS
 10
-306.800018
 20
121.500000
 40
0.500000
 50
90.000072
 51
180.000143
  0
ARC
  8
0
 62
7
  6
CONTINUOUS
 10
-293.200012
 20
116.999992
 40
0.500000
 50
-0.000000
 51
90.000072
  0
ARC
  8
0
 62
7
  6
CONTINUOUS
 10
-293.200012
 20
120.500000
 40
0.500000
 50
-90.000085
 51
0.000003
  0
ARC
  8
0
 62
7
  6
CONTINUOUS
 10
-293.200012
 20
121.499992
 40
0.500000
 50
-0.000000
 51
90.000072
  0
ARC
  8
0
 62
7
  6
CONTINUOUS
 10
-293.000000
 20
97.000000
 40
0.500000
 50
180.000143
 51
270.000229
  0
ARC
  8
0
 62
7
  6
CONTINUOUS
 10
-293.000000
 20
106.500008
 40
0.500000
 50
90.000072
 51
180.000143
  0
ARC
  8
0
 62
7
  6
CONTINUOUS
 10
-307.000000
 20
106.500008
 40
0.500000
 50
0.000009
 51
90.000079
  0
ARC
  8
0
 62
7
  6
CONTINUOUS
 10
-307.000000
 20
97.000000
 40
0.500000
 50
-90.000079
 51
0.000009
  0
LINE
  8
0
 62
7
  6
CONTINUOUS
 10
-393.010393
 20
102.790901
 11
-393.027865
 21
102.832770
  0
LINE
  8
0
 62
7
  6
CONTINUOUS
 10
-393.027865
 20
102.832770
 11
-393.045431
 21
102.874599
  0
LINE
  8
0
 62
7
  6
CONTINUOUS
 10
-393.045431
 20
102.874599
 11
-393.063089
 21
102.916390
  0
LINE
  8
0
 62
7
  6
CONTINUOUS
 10
-393.063089
 20
102.916390
 11
-393.080841
 21
102.958141
  0
LINE
  8
0
 62
7
  6
CONTINUOUS
 10
-393.080841
 20
102.958141
 11
-393.098686
 21
102.999852
  0
LINE
  8
0
 62
7
  6
CONTINUOUS
 10
-393.098686
 20
102.999852
 11
-393.116624
 21
103.041523
  0
LINE
  8
0
 62
7
  6
CONTINUOUS
 10
-393.116624
 20
103.041523
 11
-393.134656
 21
103.083154
  0
LINE
  8
0
 62
7
  6
CONTINUOUS
 10
-393.134656
 20
103.083154
 11
-393.152782
 21
103.124744
  0
LINE
  8
0
 62
7
  6
CONTINUOUS
 10
-393.152782
 20
103.124744
 11
-393.171001
 21
103.166293
  0
LINE
  8
0
 62
7
  6
CONTINUOUS
 10
-393.171001
 20
103.166293
 11
-393.189314
 21
103.207801
  0
LINE
  8
0
 62
7
  6
CONTINUOUS
 10
-393.189314
 20
103.207801
 11
-393.207720
 21
103.249267
  0
LINE
  8
0
 62
7
  6
CONTINUOUS
 10
-393.207720
 20
103.249267
 11
-393.226221
 21
103.290692
  0
LINE
  8
0
 62
7
  6
CONTINUOUS
 10
-393.226221
 20
103.290692
 11
-393.244816
 21
103.332075
  0
LINE
  8
0
 62
7
  6
CONTINUOUS
 10
-393.244816
 20
103.332075
 11
-393.263505
 21
103.373415
  0
LINE
  8
0
 62
7
  6
CONTINUOUS
 10
-393.263505
 20
103.373415
 11
-393.282288
 21
103.414712
  0
LINE
  8
0
 62
7
  6
CONTINUOUS
 10
-393.282288
 20
103.414712
 11
-393.301166
 21
103.455967
  0
LINE
  8
0
 62
7
  6
CONTINUOUS
 10
-399.019305
 20
77.479123
 11
-398.953202
 21
77.519320
  0
LINE
  8
0
 62
7
  6
CONTINUOUS
 10
-398.953202
 20
77.519320
 11
-398.887365
 21
77.559968
  0
LINE
  8
0
 62
7
  6
CONTINUOUS
 10
-398.887365
 20
77.559968
 11
-398.821795
 21
77.601062
  0
LINE
  8
0
 62
7
  6
CONTINUOUS
 10
-398.821795
 20
77.601062
 11
-398.756496
 21
77.642600
  0
LINE
  8
0
 62
7
  6
CONTINUOUS
 10
-398.756496
 20
77.642600
 11
-398.691468
 21
77.684576
  0
LINE
  8
0
 62
7
  6
CONTINUOUS
 10
-398.691468
 20
77.684576
 11
-398.626713
 21
77.726987
  0
LINE
  8
0
 62
7
  6
CONTINUOUS
 10
-398.626713
 20
77.726987
 11
-398.562233
 21
77.769828
  0
LINE
  8
0
 62
7
  6
CONTINUOUS
 10
-398.562233
 20
77.769828
 11
-398.498030
 21
77.813096
  0
LINE
  8
0
 62
7
  6
CONTINUOUS
 10
-398.498030
 20
77.813096
 11
-398.434104
 21
77.856787
  0
LINE
  8
0
 62
7
  6
CONTINUOUS
 10
-398.434104
 20
77.856787
 11
-398.370459
 21
77.900896
  0
LINE
  8
0
 62
7
  6
CONTINUOUS
 10
-398.370459
 20
77.900896
 11
-398.307094
 21
77.945420
  0
LINE
  8
0
 62
7
  6
CONTINUOUS
 10
-398.307094
 20
77.945420
 11
-398.244011
 21
77.990354
  0
LINE
  8
0
 62
7
  6
CONTINUOUS
 10
-398.244011
 20
77.990354
 11
-398.181212
 21
78.035695
  0
LINE
  8
0
 62
7
  6
CONTINUOUS
 10
-398.181212
 20
78.035695
 11
-398.118698
 21
78.081439
  0
LINE
  8
0
 62
7
  6
CONTINUOUS
 10
-398.118698
 20
78.081439
 11
-398.056469
 21
78.127582
  0
LINE
  8
0
 62
7
  6
CONTINUOUS
 10
-398.056469
 20
78.127582
 11
-397.994528
 21
78.174119
  0
LINE
  8
0
 62
7
  6
CONTINUOUS
 10
-395.147038
 20
81.098897
 11
-395.114280
 21
81.143611
  0
LINE
  8
0
 62
7
  6
CONTINUOUS
 10
-395.114280
 20
81.143611
 11
-395.081672
 21
81.188440
  0
LINE
  8
0
 62
7
  6
CONTINUOUS
 10
-395.081672
 20
81.188440
 11
-395.049214
 21
81.233383
  0
LINE
  8
0
 62
7
  6
CONTINUOUS
 10
-395.049214
 20
81.233383
 11
-395.016906
 21
81.278438
  0
LINE
  8
0
 62
7
  6
CONTINUOUS
 10
-395.016906
 20
81.278438
 11
-394.984747
 21
81.323605
  0
LINE
  8
0
 62
7
  6
CONTINUOUS
 10
-394.984747
 20
81.323605
 11
-394.952739
 21
81.368882
  0
LINE
  8
0
 62
7
  6
CONTINUOUS
 10
-394.952739
 20
81.368882
 11
-394.920879
 21
81.414269
  0
LINE
  8
0
 62
7
  6
CONTINUOUS
 10
-394.920879
 20
81.414269
 11
-394.889170
 21
81.459764
  0
LINE
  8
0
 62
7
  6
CONTINUOUS
 10
-394.889170
 20
81.459764
 11
-394.857610
 21
81.505367
  0
LINE
  8
0
 62
7
  6
CONTINUOUS
 10
-394.857610
 20
81.505367
 11
-394.826199
 21
81.551078
  0
LINE
  8
0
 62
7
  6
CONTINUOUS
 10
-394.826199
 20
81.551078
 11
-394.794938
 21
81.596894
  0
LINE
  8
0
 62
7
  6
CONTINUOUS
 10
-394.794938
 20
81.596894
 11
-394.763826
 21
81.642815
  0
LINE
  8
0
 62
7
  6
CONTINUOUS
 10
-394.763826
 20
81.642815
 11
-394.732864
 21
81.688840
  0
LINE
  8
0
 62
7
  6
CONTINUOUS
 10
-394.732864
 20
81.688840
 11
-394.702050
 21
81.734969
  0
LINE
  8
0
 62
7
  6
CONTINUOUS
 10
-394.702050
 20
81.734969
 11
-394.671386
 21
81.781199
  0
LINE
  8
0
 62
7
  6
CONTINUOUS
 10
-394.671386
 20
81.781199
 11
-394.640870
 21
81.827532
  0
LINE
  8
0
 62
7
  6
CONTINUOUS
 10
-393.300855
 20
84.259002
 11
-393.281751
 21
84.300757
  0
LINE
  8
0
 62
7
  6
CONTINUOUS
 10
-393.281751
 20
84.300757
 11
-393.262735
 21
84.342576
  0
LINE
  8
0
 62
7
  6
CONTINUOUS
 10
-393.262735
 20
84.342576
 11
-393.243807
 21
84.384456
  0
LINE
  8
0
 62
7
  6
CONTINUOUS
 10
-393.243807
 20
84.384456
 11
-393.224968
 21
84.426398
  0
LINE
  8
0
 62
7
  6
CONTINUOUS
 10
-393.224968
 20
84.426398
 11
-393.206218
 21
84.468401
  0
LINE
  8
0
 62
7
  6
CONTINUOUS
 10
-393.206218
 20
84.468401
 11
-393.187556
 21
84.510465
  0
LINE
  8
0
 62
7
  6
CONTINUOUS
 10
-393.187556
 20
84.510465
 11
-393.168983
 21
84.552589
  0
LINE
  8
0
 62
7
  6
CONTINUOUS
 10
-393.168983
 20
84.552589
 11
-393.150499
 21
84.594773
  0
LINE
  8
0
 62
7
  6
CONTINUOUS
 10
-393.150499
 20
84.594773
 11
-393.132104
 21
84.637016
  0
LINE
  8
0
 62
7
  6
CONTINUOUS
 10
-393.132104
 20
84.637016
 11
-393.113798
 21
84.679318
  0
LINE
  8
0
 62
7
  6
CONTINUOUS
 10
-393.113798
 20
84.679318
 11
-393.095581
 21
84.721679
  0
LINE
  8
0
 62
7
  6
CONTINUOUS
 10
-393.095581
 20
84.721679
 11
-393.077454
 21
84.764098
  0
LINE
  8
0
 62
7
  6
CONTINUOUS
 10
-393.077454
 20
84.764098
 11
-393.059416
 21
84.806574
  0
LINE
  8
0
 62
7
  6
CONTINUOUS
 10
-393.059416
 20
84.806574
 11
-393.041467
 21
84.849108
  0
LINE
  8
0
 62
7
  6
CONTINUOUS
 10
-393.041467
 20
84.849108
 11
-393.023609
 21
84.891698
  0
LINE
  8
0
 62
7
  6
CONTINUOUS
 10
-393.023609
 20
84.891698
 11
-393.005839
 21
84.934345
  0
LINE
  8
0
 62
7
  6
CONTINUOUS
 10
-394.640309
 20
105.885904
 11
-394.670850
 21
105.932281
  0
LINE
  8
0
 62
7
  6
CONTINUOUS
 10
-394.670850
 20
105.932281
 11
-394.701542
 21
105.978559
  0
LINE
  8
0
 62
7
  6
CONTINUOUS
 10
-394.701542
 20
105.978559
 11
-394.732385
 21
106.024737
  0
LINE
  8
0
 62
7
  6
CONTINUOUS
 10
-394.732385
 20
106.024737
 11
-394.763379
 21
106.070813
  0
LINE
  8
0
 62
7
  6
CONTINUOUS
 10
-394.763379
 20
106.070813
 11
-394.794524
 21
106.116788
  0
LINE
  8
0
 62
7
  6
CONTINUOUS
 10
-394.794524
 20
106.116788
 11
-394.825820
 21
106.162660
  0
LINE
  8
0
 62
7
  6
CONTINUOUS
 10
-394.825820
 20
106.162660
 11
-394.857268
 21
106.208428
  0
LINE
  8
0
 62
7
  6
CONTINUOUS
 10
-394.857268
 20
106.208428
 11
-394.888868
 21
106.254091
  0
LINE
  8
0
 62
7
  6
CONTINUOUS
 10
-394.888868
 20
106.254091
 11
-394.920619
 21
106.299649
  0
LINE
  8
0
 62
7
  6
CONTINUOUS
 10
-394.920619
 20
106.299649
 11
-394.952522
 21
106.345101
  0
LINE
  8
0
 62
7
  6
CONTINUOUS
 10
-394.952522
 20
106.345101
 11
-394.984577
 21
106.390446
  0
LINE
  8
0
 62
7
  6
CONTINUOUS
 10
-394.984577
 20
106.390446
 11
-395.016785
 21
106.435683
  0
LINE
  8
0
 62
7
  6
CONTINUOUS
 10
-395.016785
 20
106.435683
 11
-395.049145
 21
106.480811
  0
LINE
  8
0
 62
7
  6
CONTINUOUS
 10
-395.049145
 20
106.480811
 11
-395.081657
 21
106.525830
  0
LINE
  8
0
 62
7
  6
CONTINUOUS
 10
-395.081657
 20
106.525830
 11
-395.114322
 21
106.570737
  0
LINE
  8
0
 62
7
  6
CONTINUOUS
 10
-395.114322
 20
106.570737
 11
-395.147140
 21
106.615534
  0
LINE
  8
0
 62
7
  6
CONTINUOUS
 10
-397.991726
 20
109.538049
 11
-398.053782
 21
109.584700
  0
LINE
  8
0
 62
7
  6
CONTINUOUS
 10
-398.053782
 20
109.584700
 11
-398.116132
 21
109.630959
  0
LINE
  8
0
 62
7
  6
CONTINUOUS
 10
-398.116132
 20
109.630959
 11
-398.178773
 21
109.676820
  0
LINE
  8
0
 62
7
  6
CONTINUOUS
 10
-398.178773
 20
109.676820
 11
-398.241706
 21
109.722281
  0
LINE
  8
0
 62
7
  6
CONTINUOUS
 10
-398.241706
 20
109.722281
 11
-398.304930
 21
109.767337
  0
LINE
  8
0
 62
7
  6
CONTINUOUS
 10
-398.304930
 20
109.767337
 11
-398.368442
 21
109.811985
  0
LINE
  8
0
 62
7
  6
CONTINUOUS
 10
-398.368442
 20
109.811985
 11
-398.432243
 21
109.856220
  0
LINE
  8
0
 62
7
  6
CONTINUOUS
 10
-398.432243
 20
109.856220
 11
-398.496330
 21
109.900038
  0
LINE
  8
0
 62
7
  6
CONTINUOUS
 10
-398.496330
 20
109.900038
 11
-398.560703
 21
109.943436
  0
LINE
  8
0
 62
7
  6
CONTINUOUS
 10
-398.560703
 20
109.943436
 11
-398.625360
 21
109.986409
  0
LINE
  8
0
 62
7
  6
CONTINUOUS
 10
-398.625360
 20
109.986409
 11
-398.690299
 21
110.028953
  0
LINE
  8
0
 62
7
  6
CONTINUOUS
 10
-398.690299
 20
110.028953
 11
-398.755521
 21
110.071064
  0
LINE
  8
0
 62
7
  6
CONTINUOUS
 10
-398.755521
 20
110.071064
 11
-398.821022
 21
110.112738
  0
LINE
  8
0
 62
7
  6
CONTINUOUS
 10
-398.821022
 20
110.112738
 11
-398.886802
 21
110.153970
  0
LINE
  8
0
 62
7
  6
CONTINUOUS
 10
-398.886802
 20
110.153970
 11
-398.952858
 21
110.194758
  0
LINE
  8
0
 62
7
  6
CONTINUOUS
 10
-398.952858
 20
110.194758
 11
-399.019190
 21
110.235096
  0
LINE
  8
0
 62
7
  6
CONTINUOUS
 10
-405.628915
 20
81.713398
 11
-405.676535
 21
81.585436
  0
LINE
  8
0
 62
7
  6
CONTINUOUS
 10
-405.676535
 20
81.585436
 11
-405.720379
 21
81.456041
  0
LINE
  8
0
 62
7
  6
CONTINUOUS
 10
-405.720379
 20
81.456041
 11
-405.760597
 21
81.325430
  0
LINE
  8
0
 62
7
  6
CONTINUOUS
 10
-405.760597
 20
81.325430
 11
-405.797277
 21
81.193974
  0
LINE
  8
0
 62
7
  6
CONTINUOUS
 10
-405.797277
 20
81.193974
 11
-405.830854
 21
81.060593
  0
LINE
  8
0
 62
7
  6
CONTINUOUS
 10
-405.830854
 20
81.060593
 11
-405.860963
 21
80.927282
  0
LINE
  8
0
 62
7
  6
CONTINUOUS
 10
-405.860963
 20
80.927282
 11
-405.887930
 21
80.793299
  0
LINE
  8
0
 62
7
  6
CONTINUOUS
 10
-405.887930
 20
80.793299
 11
-405.911840
 21
80.658734
  0
LINE
  8
0
 62
7
  6
CONTINUOUS
 10
-405.911840
 20
80.658734
 11
-405.932770
 21
80.523670
  0
LINE
  8
0
 62
7
  6
CONTINUOUS
 10
-405.932770
 20
80.523670
 11
-405.950783
 21
80.388183
  0
LINE
  8
0
 62
7
  6
CONTINUOUS
 10
-405.950783
 20
80.388183
 11
-405.965934
 21
80.252343
  0
LINE
  8
0
 62
7
  6
CONTINUOUS
 10
-405.965934
 20
80.252343
 11
-405.978266
 21
80.116216
  0
LINE
  8
0
 62
7
  6
CONTINUOUS
 10
-405.978266
 20
80.116216
 11
-405.987815
 21
79.979865
  0
LINE
  8
0
 62
7
  6
CONTINUOUS
 10
-405.987815
 20
79.979865
 11
-405.994609
 21
79.843351
  0
LINE
  8
0
 62
7
  6
CONTINUOUS
 10
-405.994609
 20
79.843351
 11
-405.998685
 21
79.705794
  0
LINE
  8
0
 62
7
  6
CONTINUOUS
 10
-405.998685
 20
79.705794
 11
-405.999999
 21
79.568768
  0
LINE
  8
0
 62
7
  6
CONTINUOUS
 10
-403.305615
 20
87.148789
 11
-403.441491
 21
87.527213
  0
LINE
  8
0
 62
7
  6
CONTINUOUS
 10
-403.441491
 20
87.527213
 11
-403.622345
 21
87.885349
  0
LINE
  8
0
 62
7
  6
CONTINUOUS
 10
-403.622345
 20
87.885349
 11
-403.852387
 21
88.213968
  0
LINE
  8
0
 62
7
  6
CONTINUOUS
 10
-403.852387
 20
88.213968
 11
-404.135369
 21
88.498030
  0
LINE
  8
0
 62
7
  6
CONTINUOUS
 10
-404.135369
 20
88.498030
 11
-404.471798
 21
88.715530
  0
LINE
  8
0
 62
7
  6
CONTINUOUS
 10
-404.471798
 20
88.715530
 11
-404.853035
 21
88.838767
  0
LINE
  8
0
 62
7
  6
CONTINUOUS
 10
-404.853035
 20
88.838767
 11
-405.251972
 21
88.844602
  0
LINE
  8
0
 62
7
  6
CONTINUOUS
 10
-405.251972
 20
88.844602
 11
-405.635034
 21
88.732424
  0
LINE
  8
0
 62
7
  6
CONTINUOUS
 10
-405.635034
 20
88.732424
 11
-405.976230
 21
88.523197
  0
LINE
  8
0
 62
7
  6
CONTINUOUS
 10
-405.976230
 20
88.523197
 11
-406.264315
 21
88.245035
  0
LINE
  8
0
 62
7
  6
CONTINUOUS
 10
-406.264315
 20
88.245035
 11
-406.499054
 21
87.920959
  0
LINE
  8
0
 62
7
  6
CONTINUOUS
 10
-406.499054
 20
87.920959
 11
-406.684788
 21
87.565382
  0
LINE
  8
0
 62
7
  6
CONTINUOUS
 10
-406.684788
 20
87.565382
 11
-406.824933
 21
87.189454
  0
LINE
  8
0
 62
7
  6
CONTINUOUS
 10
-406.824933
 20
87.189454
 11
-406.922807
 21
86.800260
  0
LINE
  8
0
 62
7
  6
CONTINUOUS
 10
-406.922807
 20
86.800260
 11
-406.980714
 21
86.403052
  0
LINE
  8
0
 62
7
  6
CONTINUOUS
 10
-406.980714
 20
86.403052
 11
-406.999999
 21
86.002151
  0
LINE
  8
0
 62
7
  6
CONTINUOUS
 10
-404.142853
 20
86.000000
 11
-404.155283
 21
86.232956
  0
LINE
  8
0
 62
7
  6
CONTINUOUS
 10
-404.155283
 20
86.232956
 11
-404.193080
 21
86.463464
  0
LINE
  8
0
 62
7
  6
CONTINUOUS
 10
-404.193080
 20
86.463464
 11
-404.257846
 21
86.688585
  0
LINE
  8
0
 62
7
  6
CONTINUOUS
 10
-404.257846
 20
86.688585
 11
-404.351760
 21
86.902748
  0
LINE
  8
0
 62
7
  6
CONTINUOUS
 10
-404.351760
 20
86.902748
 11
-404.478396
 21
87.099275
  0
LINE
  8
0
 62
7
  6
CONTINUOUS
 10
-404.478396
 20
87.099275
 11
-404.641674
 21
87.266361
  0
LINE
  8
0
 62
7
  6
CONTINUOUS
 10
-404.641674
 20
87.266361
 11
-404.842697
 21
87.384550
  0
LINE
  8
0
 62
7
  6
CONTINUOUS
 10
-404.842697
 20
87.384550
 11
-405.071442
 21
87.428574
  0
LINE
  8
0
 62
7
  6
CONTINUOUS
 10
-405.071442
 20
87.428574
 11
-405.299034
 21
87.384999
  0
LINE
  8
0
 62
7
  6
CONTINUOUS
 10
-405.299034
 20
87.384999
 11
-405.500008
 21
87.267318
  0
LINE
  8
0
 62
7
  6
CONTINUOUS
 10
-405.500008
 20
87.267318
 11
-405.663318
 21
87.100749
  0
LINE
  8
0
 62
7
  6
CONTINUOUS
 10
-405.663318
 20
87.100749
 11
-405.790017
 21
86.904799
  0
LINE
  8
0
 62
7
  6
CONTINUOUS
 10
-405.790017
 20
86.904799
 11
-405.884227
 21
86.690782
  0
LINE
  8
0
 62
7
  6
CONTINUOUS
 10
-405.884227
 20
86.690782
 11
-405.949183
 21
86.466117
  0
LINE
  8
0
 62
7
  6
CONTINUOUS
 10
-405.949183
 20
86.466117
 11
-405.987319
 21
86.235287
  0
LINE
  8
0
 62
7
  6
CONTINUOUS
 10
-405.987319
 20
86.235287
 11
-406.000000
 21
86.000000
  0
LINE
  8
0
 62
7
  6
CONTINUOUS
 10
-406.429038
 20
81.713501
 11
-406.800913
 21
80.881245
  0
LINE
  8
0
 62
7
  6
CONTINUOUS
 10
-406.800913
 20
80.881245
 11
-406.980611
 21
79.986791
  0
LINE
  8
0
 62
7
  6
CONTINUOUS
 10
-406.980611
 20
79.986791
 11
-406.972273
 21
79.075076
  0
LINE
  8
0
 62
7
  6
CONTINUOUS
 10
-406.972273
 20
79.075076
 11
-406.775793
 21
78.184596
  0
LINE
  8
0
 62
7
  6
CONTINUOUS
 10
-406.775793
 20
78.184596
 11
-406.386608
 21
77.360362
  0
LINE
  8
0
 62
7
  6
CONTINUOUS
 10
-406.386608
 20
77.360362
 11
-405.800912
 21
76.662897
  0
LINE
  8
0
 62
7
  6
CONTINUOUS
 10
-405.800912
 20
76.662897
 11
-405.031973
 21
76.177332
  0
LINE
  8
0
 62
7
  6
CONTINUOUS
 10
-405.031973
 20
76.177332
 11
-404.142853
 21
76.000000
  0
LINE
  8
0
 62
7
  6
CONTINUOUS
 10
-404.142853
 20
76.000000
 11
-403.252870
 21
76.177685
  0
LINE
  8
0
 62
7
  6
CONTINUOUS
 10
-403.252870
 20
76.177685
 11
-402.484362
 21
76.663282
  0
LINE
  8
0
 62
7
  6
CONTINUOUS
 10
-402.484362
 20
76.663282
 11
-401.898793
 21
77.360845
  0
LINE
  8
0
 62
7
  6
CONTINUOUS
 10
-401.898793
 20
77.360845
 11
-401.509742
 21
78.185103
  0
LINE
  8
0
 62
7
  6
CONTINUOUS
 10
-401.509742
 20
78.185103
 11
-401.313326
 21
79.076030
  0
LINE
  8
0
 62
7
  6
CONTINUOUS
 10
-401.313326
 20
79.076030
 11
-401.305194
 21
79.987854
  0
LINE
  8
0
 62
7
  6
CONTINUOUS
 10
-401.305194
 20
79.987854
 11
-401.484990
 21
80.881872
  0
LINE
  8
0
 62
7
  6
CONTINUOUS
 10
-401.484990
 20
80.881872
 11
-401.857485
 21
81.714864
  0
LINE
  8
0
 62
7
  6
CONTINUOUS
 10
-406.000000
 20
79.571426
 11
-405.961181
 21
79.135591
  0
LINE
  8
0
 62
7
  6
CONTINUOUS
 10
-405.961181
 20
79.135591
 11
-405.844776
 21
78.713809
  0
LINE
  8
0
 62
7
  6
CONTINUOUS
 10
-405.844776
 20
78.713809
 11
-405.651107
 21
78.321137
  0
LINE
  8
0
 62
7
  6
CONTINUOUS
 10
-405.651107
 20
78.321137
 11
-405.381944
 21
77.975264
  0
LINE
  8
0
 62
7
  6
CONTINUOUS
 10
-405.381944
 20
77.975264
 11
-405.043037
 21
77.697131
  0
LINE
  8
0
 62
7
  6
CONTINUOUS
 10
-405.043037
 20
77.697131
 11
-404.647324
 21
77.509146
  0
LINE
  8
0
 62
7
  6
CONTINUOUS
 10
-404.647324
 20
77.509146
 11
-404.217159
 21
77.430290
  0
LINE
  8
0
 62
7
  6
CONTINUOUS
 10
-404.217159
 20
77.430290
 11
-403.782432
 21
77.469315
  0
LINE
  8
0
 62
7
  6
CONTINUOUS
 10
-403.782432
 20
77.469315
 11
-403.372660
 21
77.621538
  0
LINE
  8
0
 62
7
  6
CONTINUOUS
 10
-403.372660
 20
77.621538
 11
-403.013231
 21
77.870557
  0
LINE
  8
0
 62
7
  6
CONTINUOUS
 10
-403.013231
 20
77.870557
 11
-402.719528
 21
78.194946
  0
LINE
  8
0
 62
7
  6
CONTINUOUS
 10
-402.719528
 20
78.194946
 11
-402.499442
 21
78.573373
  0
LINE
  8
0
 62
7
  6
CONTINUOUS
 10
-402.499442
 20
78.573373
 11
-402.356037
 21
78.987298
  0
LINE
  8
0
 62
7
  6
CONTINUOUS
 10
-402.356037
 20
78.987298
 11
-402.290323
 21
79.420408
  0
LINE
  8
0
 62
7
  6
CONTINUOUS
 10
-402.290323
 20
79.420408
 11
-402.302412
 21
79.858206
  0
LINE
  8
0
 62
7
  6
CONTINUOUS
 10
-402.302412
 20
79.858206
 11
-402.392154
 21
80.286483
  0
LINE
  8
0
 62
7
  6
CONTINUOUS
 10
-401.285706
 20
93.857147
 11
-401.466055
 21
95.105920
  0
LINE
  8
0
 62
7
  6
CONTINUOUS
 10
-401.466055
 20
95.105920
 11
-402.014998
 21
96.240523
  0
LINE
  8
0
 62
7
  6
CONTINUOUS
 10
-402.014998
 20
96.240523
 11
-402.937161
 21
97.095001
  0
LINE
  8
0
 62
7
  6
CONTINUOUS
 10
-402.937161
 20
97.095001
 11
-404.142853
 21
97.428574
  0
LINE
  8
0
 62
7
  6
CONTINUOUS
 10
-404.142853
 20
97.428574
 11
-405.348790
 21
97.094859
  0
LINE
  8
0
 62
7
  6
CONTINUOUS
 10
-405.348790
 20
97.094859
 11
-406.270580
 21
96.240701
  0
LINE
  8
0
 62
7
  6
CONTINUOUS
 10
-406.270580
 20
96.240701
 11
-406.819570
 21
95.106189
  0
LINE
  8
0
 62
7
  6
CONTINUOUS
 10
-406.819570
 20
95.106189
 11
-407.000000
 21
93.857147
  0
LINE
  8
0
 62
7
  6
CONTINUOUS
 10
-407.000000
 20
93.857147
 11
-406.819651
 21
92.608375
  0
LINE
  8
0
 62
7
  6
CONTINUOUS
 10
-406.819651
 20
92.608375
 11
-406.270709
 21
91.473771
  0
LINE
  8
0
 62
7
  6
CONTINUOUS
 10
-406.270709
 20
91.473771
 11
-405.348549
 21
90.619290
  0
LINE
  8
0
 62
7
  6
CONTINUOUS
 10
-405.348549
 20
90.619290
 11
-404.142853
 21
90.285713
  0
LINE
  8
0
 62
7
  6
CONTINUOUS
 10
-404.142853
 20
90.285713
 11
-402.936916
 21
90.619429
  0
LINE
  8
0
 62
7
  6
CONTINUOUS
 10
-402.936916
 20
90.619429
 11
-402.015127
 21
91.473589
  0
LINE
  8
0
 62
7
  6
CONTINUOUS
 10
-402.015127
 20
91.473589
 11
-401.466136
 21
92.608100
  0
LINE
  8
0
 62
7
  6
CONTINUOUS
 10
-401.466136
 20
92.608100
 11
-401.285706
 21
93.857147
  0
LINE
  8
0
 62
7
  6
CONTINUOUS
 10
-402.285706
 20
93.857147
 11
-402.410512
 21
94.629437
  0
LINE
  8
0
 62
7
  6
CONTINUOUS
 10
-402.410512
 20
94.629437
 11
-402.783805
 21
95.317558
  0
LINE
  8
0
 62
7
  6
CONTINUOUS
 10
-402.783805
 20
95.317558
 11
-403.386380
 21
95.814173
  0
LINE
  8
0
 62
7
  6
CONTINUOUS
 10
-403.386380
 20
95.814173
 11
-404.142853
 21
96.000000
  0
LINE
  8
0
 62
7
  6
CONTINUOUS
 10
-404.142853
 20
96.000000
 11
-404.899038
 21
95.814321
  0
LINE
  8
0
 62
7
  6
CONTINUOUS
 10
-404.899038
 20
95.814321
 11
-405.501738
 21
95.317760
  0
LINE
  8
0
 62
7
  6
CONTINUOUS
 10
-405.501738
 20
95.317760
 11
-405.874969
 21
94.630107
  0
LINE
  8
0
 62
7
  6
CONTINUOUS
 10
-405.874969
 20
94.630107
 11
-406.000000
 21
93.857147
  0
LINE
  8
0
 62
7
  6
CONTINUOUS
 10
-406.000000
 20
93.857147
 11
-405.875194
 21
93.084857
  0
LINE
  8
0
 62
7
  6
CONTINUOUS
 10
-405.875194
 20
93.084857
 11
-405.501903
 21
92.396735
  0
LINE
  8
0
 62
7
  6
CONTINUOUS
 10
-405.501903
 20
92.396735
 11
-404.899330
 21
91.900117
  0
LINE
  8
0
 62
7
  6
CONTINUOUS
 10
-404.899330
 20
91.900117
 11
-404.142853
 21
91.714287
  0
LINE
  8
0
 62
7
  6
CONTINUOUS
 10
-404.142853
 20
91.714287
 11
-403.386668
 21
91.899967
  0
LINE
  8
0
 62
7
  6
CONTINUOUS
 10
-403.386668
 20
91.899967
 11
-402.783969
 21
92.396530
  0
LINE
  8
0
 62
7
  6
CONTINUOUS
 10
-402.783969
 20
92.396530
 11
-402.410738
 21
93.084182
  0
LINE
  8
0
 62
7
  6
CONTINUOUS
 10
-402.410738
 20
93.084182
 11
-402.285706
 21
93.857147
  0
LINE
  8
0
 62
7
  6
CONTINUOUS
 10
-405.152818
 20
121.574395
 11
-405.220752
 21
121.763607
  0
LINE
  8
0
 62
7
  6
CONTINUOUS
 10
-405.220752
 20
121.763607
 11
-405.311615
 21
121.943418
  0
LINE
  8
0
 62
7
  6
CONTINUOUS
 10
-405.311615
 20
121.943418
 11
-405.426743
 21
122.107651
  0
LINE
  8
0
 62
7
  6
CONTINUOUS
 10
-405.426743
 20
122.107651
 11
-405.568348
 21
122.249567
  0
LINE
  8
0
 62
7
  6
CONTINUOUS
 10
-405.568348
 20
122.249567
 11
-405.737415
 21
122.358504
  0
LINE
  8
0
 62
7
  6
CONTINUOUS
 10
-405.737415
 20
122.358504
 11
-405.928174
 21
122.419663
  0
LINE
  8
0
 62
7
  6
CONTINUOUS
 10
-405.928174
 20
122.419663
 11
-406.127643
 21
122.422066
  0
LINE
  8
0
 62
7
  6
CONTINUOUS
 10
-406.127643
 20
122.422066
 11
-406.319043
 21
122.365513
  0
LINE
  8
0
 62
7
  6
CONTINUOUS
 10
-406.319043
 20
122.365513
 11
-406.488886
 21
122.260982
  0
LINE
  8
0
 62
7
  6
CONTINUOUS
 10
-406.488886
 20
122.260982
 11
-406.632796
 21
122.121762
  0
LINE
  8
0
 62
7
  6
CONTINUOUS
 10
-406.632796
 20
122.121762
 11
-406.750041
 21
121.959628
  0
LINE
  8
0
 62
7
  6
CONTINUOUS
 10
-406.750041
 20
121.959628
 11
-406.842792
 21
121.781779
  0
LINE
  8
0
 62
7
  6
CONTINUOUS
 10
-406.842792
 20
121.781779
 11
-406.912758
 21
121.593775
  0
LINE
  8
0
 62
7
  6
CONTINUOUS
 10
-406.912758
 20
121.593775
 11
-406.961594
 21
121.399153
  0
LINE
  8
0
 62
7
  6
CONTINUOUS
 10
-406.961594
 20
121.399153
 11
-406.990452
 21
121.200536
  0
LINE
  8
0
 62
7
  6
CONTINUOUS
 10
-406.990452
 20
121.200536
 11
-407.000000
 21
121.000000
  0
LINE
  8
0
 62
7
  6
CONTINUOUS
 10
-405.571442
 20
121.000000
 11
-405.577656
 21
121.116478
  0
LINE
  8
0
 62
7
  6
CONTINUOUS
 10
-405.577656
 20
121.116478
 11
-405.596552
 21
121.231732
  0
LINE
  8
0
 62
7
  6
CONTINUOUS
 10
-405.596552
 20
121.231732
 11
-405.628931
 21
121.344293
  0
LINE
  8
0
 62
7
  6
CONTINUOUS
 10
-405.628931
 20
121.344293
 11
-405.676161
 21
121.451899
  0
LINE
  8
0
 62
7
  6
CONTINUOUS
 10
-405.676161
 20
121.451899
 11
-405.740112
 21
121.550805
  0
LINE
  8
0
 62
7
  6
CONTINUOUS
 10
-405.740112
 20
121.550805
 11
-405.822680
 21
121.634659
  0
LINE
  8
0
 62
7
  6
CONTINUOUS
 10
-405.822680
 20
121.634659
 11
-405.923997
 21
121.693303
  0
LINE
  8
0
 62
7
  6
CONTINUOUS
 10
-405.923997
 20
121.693303
 11
-406.037610
 21
121.714281
  0
LINE
  8
0
 62
7
  6
CONTINUOUS
 10
-406.037610
 20
121.714281
 11
-406.151282
 21
121.691802
  0
LINE
  8
0
 62
7
  6
CONTINUOUS
 10
-406.151282
 20
121.691802
 11
-406.251047
 21
121.632812
  0
LINE
  8
0
 62
7
  6
CONTINUOUS
 10
-406.251047
 20
121.632812
 11
-406.332485
 21
121.549309
  0
LINE
  8
0
 62
7
  6
CONTINUOUS
 10
-406.332485
 20
121.549309
 11
-406.395639
 21
121.451200
  0
LINE
  8
0
 62
7
  6
CONTINUOUS
 10
-406.395639
 20
121.451200
 11
-406.442343
 21
121.344742
  0
LINE
  8
0
 62
7
  6
CONTINUOUS
 10
-406.442343
 20
121.344742
 11
-406.474740
 21
121.232387
  0
LINE
  8
0
 62
7
  6
CONTINUOUS
 10
-406.474740
 20
121.232387
 11
-406.493733
 21
121.116960
  0
LINE
  8
0
 62
7
  6
CONTINUOUS
 10
-406.493733
 20
121.116960
 11
-406.500000
 21
121.000000
  0
LINE
  8
0
 62
7
  6
CONTINUOUS
 10
-406.715107
 20
118.855779
 11
-406.900800
 21
118.439540
  0
LINE
  8
0
 62
7
  6
CONTINUOUS
 10
-406.900800
 20
118.439540
 11
-406.990411
 21
117.992266
  0
LINE
  8
0
 62
7
  6
CONTINUOUS
 10
-406.990411
 20
117.992266
 11
-406.986010
 21
117.536412
  0
LINE
  8
0
 62
7
  6
CONTINUOUS
 10
-406.986010
 20
117.536412
 11
-406.887731
 21
117.091799
  0
LINE
  8
0
 62
7
  6
CONTINUOUS
 10
-406.887731
 20
117.091799
 11
-406.692706
 21
116.679224
  0
LINE
  8
0
 62
7
  6
CONTINUOUS
 10
-406.692706
 20
116.679224
 11
-406.399619
 21
116.330695
  0
LINE
  8
0
 62
7
  6
CONTINUOUS
 10
-406.399619
 20
116.330695
 11
-406.014948
 21
116.088236
  0
LINE
  8
0
 62
7
  6
CONTINUOUS
 10
-406.014948
 20
116.088236
 11
-405.571442
 21
116.000000
  0
LINE
  8
0
 62
7
  6
CONTINUOUS
 10
-405.571442
 20
116.000000
 11
-405.126450
 21
116.088842
  0
LINE
  8
0
 62
7
  6
CONTINUOUS
 10
-405.126450
 20
116.088842
 11
-404.742195
 21
116.331638
  0
LINE
  8
0
 62
7
  6
CONTINUOUS
 10
-404.742195
 20
116.331638
 11
-404.449406
 21
116.680416
  0
LINE
  8
0
 62
7
  6
CONTINUOUS
 10
-404.449406
 20
116.680416
 11
-404.254876
 21
117.092543
  0
LINE
  8
0
 62
7
  6
CONTINUOUS
 10
-404.254876
 20
117.092543
 11
-404.156664
 21
117.538006
  0
LINE
  8
0
 62
7
  6
CONTINUOUS
 10
-404.156664
 20
117.538006
 11
-404.152596
 21
117.993918
  0
LINE
  8
0
 62
7
  6
CONTINUOUS
 10
-404.152596
 20
117.993918
 11
-404.242297
 21
118.440299
  0
LINE
  8
0
 62
7
  6
CONTINUOUS
 10
-404.242297
 20
118.440299
 11
-404.428403
 21
118.856856
  0
LINE
  8
0
 62
7
  6
CONTINUOUS
 10
-406.500000
 20
117.785713
 11
-406.480591
 21
117.567794
  0
LINE
  8
0
 62
7
  6
CONTINUOUS
 10
-406.480591
 20
117.567794
 11
-406.422390
 21
117.356903
  0
LINE
  8
0
 62
7
  6
CONTINUOUS
 10
-406.422390
 20
117.356903
 11
-406.325557
 21
117.160566
  0
LINE
  8
0
 62
7
  6
CONTINUOUS
 10
-406.325557
 20
117.160566
 11
-406.190977
 21
116.987628
  0
LINE
  8
0
 62
7
  6
CONTINUOUS
 10
-406.190977
 20
116.987628
 11
-406.021523
 21
116.848561
  0
LINE
  8
0
 62
7
  6
CONTINUOUS
 10
-406.021523
 20
116.848561
 11
-405.823667
 21
116.754570
  0
LINE
  8
0
 62
7
  6
CONTINUOUS
 10
-405.823667
 20
116.754570
 11
-405.608584
 21
116.715144
  0
LINE
  8
0
 62
7
  6
CONTINUOUS
 10
-405.608584
 20
116.715144
 11
-405.391220
 21
116.734660
  0
LINE
  8
0
 62
7
  6
CONTINUOUS
 10
-405.391220
 20
116.734660
 11
-405.186335
 21
116.810773
  0
LINE
  8
0
 62
7
  6
CONTINUOUS
 10
-405.186335
 20
116.810773
 11
-405.006620
 21
116.935283
  0
LINE
  8
0
 62
7
  6
CONTINUOUS
 10
-405.006620
 20
116.935283
 11
-404.859768
 21
117.097477
  0
LINE
  8
0
 62
7
  6
CONTINUOUS
 10
-404.859768
 20
117.097477
 11
-404.749723
 21
117.286689
  0
LINE
  8
0
 62
7
  6
CONTINUOUS
 10
-404.749723
 20
117.286689
 11
-404.678019
 21
117.493651
  0
LINE
  8
0
 62
7
  6
CONTINUOUS
 10
-404.678019
 20
117.493651
 11
-404.645162
 21
117.710206
  0
LINE
  8
0
 62
7
  6
CONTINUOUS
 10
-404.645162
 20
117.710206
 11
-404.651207
 21
117.929105
  0
LINE
  8
0
 62
7
  6
CONTINUOUS
 10
-404.651207
 20
117.929105
 11
-404.696079
 21
118.143243
  0
LINE
  8
0
 62
7
  6
CONTINUOUS
 10
-404.142853
 20
124.928574
 11
-404.233029
 21
125.552960
  0
LINE
  8
0
 62
7
  6
CONTINUOUS
 10
-404.233029
 20
125.552960
 11
-404.507505
 21
126.120260
  0
LINE
  8
0
 62
7
  6
CONTINUOUS
 10
-404.507505
 20
126.120260
 11
-404.968588
 21
126.547498
  0
LINE
  8
0
 62
7
  6
CONTINUOUS
 10
-404.968588
 20
126.547498
 11
-405.571442
 21
126.714287
  0
LINE
  8
0
 62
7
  6
CONTINUOUS
 10
-405.571442
 20
126.714287
 11
-406.173734
 21
126.547821
  0
LINE
  8
0
 62
7
  6
CONTINUOUS
 10
-406.173734
 20
126.547821
 11
-406.634844
 21
126.120982
  0
LINE
  8
0
 62
7
  6
CONTINUOUS
 10
-406.634844
 20
126.120982
 11
-406.909565
 21
125.553838
  0
LINE
  8
0
 62
7
  6
CONTINUOUS
 10
-406.909565
 20
125.553838
 11
-407.000000
 21
124.928574
  0
LINE
  8
0
 62
7
  6
CONTINUOUS
 10
-407.000000
 20
124.928574
 11
-406.909828
 21
124.304187
  0
LINE
  8
0
 62
7
  6
CONTINUOUS
 10
-406.909828
 20
124.304187
 11
-406.635360
 21
123.736882
  0
LINE
  8
0
 62
7
  6
CONTINUOUS
 10
-406.635360
 20
123.736882
 11
-406.174283
 21
123.309639
  0
LINE
  8
0
 62
7
  6
CONTINUOUS
 10
-406.174283
 20
123.309639
 11
-405.571442
 21
123.142853
  0
LINE
  8
0
 62
7
  6
CONTINUOUS
 10
-405.571442
 20
123.142853
 11
-404.969149
 21
123.309317
  0
LINE
  8
0
 62
7
  6
CONTINUOUS
 10
-404.969149
 20
123.309317
 11
-404.508032
 21
123.736149
  0
LINE
  8
0
 62
7
  6
CONTINUOUS
 10
-404.508032
 20
123.736149
 11
-404.233298
 21
124.303288
  0
LINE
  8
0
 62
7
  6
CONTINUOUS
 10
-404.233298
 20
124.303288
 11
-404.142853
 21
124.928574
  0
LINE
  8
0
 62
7
  6
CONTINUOUS
 10
-404.642853
 20
124.928574
 11
-404.705258
 21
125.314718
  0
LINE
  8
0
 62
7
  6
CONTINUOUS
 10
-404.705258
 20
125.314718
 11
-404.891907
 21
125.658776
  0
LINE
  8
0
 62
7
  6
CONTINUOUS
 10
-404.891907
 20
125.658776
 11
-405.193195
 21
125.907083
  0
LINE
  8
0
 62
7
  6
CONTINUOUS
 10
-405.193195
 20
125.907083
 11
-405.571442
 21
126.000000
  0
LINE
  8
0
 62
7
  6
CONTINUOUS
 10
-405.571442
 20
126.000000
 11
-405.949534
 21
125.907160
  0
LINE
  8
0
 62
7
  6
CONTINUOUS
 10
-405.949534
 20
125.907160
 11
-406.250880
 21
125.658875
  0
LINE
  8
0
 62
7
  6
CONTINUOUS
 10
-406.250880
 20
125.658875
 11
-406.437489
 21
125.315046
  0
LINE
  8
0
 62
7
  6
CONTINUOUS
 10
-406.437489
 20
125.315046
 11
-406.500000
 21
124.928574
  0
LINE
  8
0
 62
7
  6
CONTINUOUS
 10
-406.500000
 20
124.928574
 11
-406.437599
 21
124.542429
  0
LINE
  8
0
 62
7
  6
CONTINUOUS
 10
-406.437599
 20
124.542429
 11
-406.250956
 21
124.198366
  0
LINE
  8
0
 62
7
  6
CONTINUOUS
 10
-406.250956
 20
124.198366
 11
-405.949670
 21
123.950058
  0
LINE
  8
0
 62
7
  6
CONTINUOUS
 10
-405.949670
 20
123.950058
 11
-405.571442
 21
123.857147
  0
LINE
  8
0
 62
7
  6
CONTINUOUS
 10
-405.571442
 20
123.857147
 11
-405.193349
 21
123.949985
  0
LINE
  8
0
 62
7
  6
CONTINUOUS
 10
-405.193349
 20
123.949985
 11
-404.891995
 21
124.198262
  0
LINE
  8
0
 62
7
  6
CONTINUOUS
 10
-404.891995
 20
124.198262
 11
-404.705373
 21
124.542084
  0
LINE
  8
0
 62
7
  6
CONTINUOUS
 10
-404.705373
 20
124.542084
 11
-404.642853
 21
124.928574
  0
LINE
  8
0
 62
7
  6
CONTINUOUS
 10
-406.314261
 20
118.857217
 11
-406.338086
 21
118.793242
  0
LINE
  8
0
 62
7
  6
CONTINUOUS
 10
-406.338086
 20
118.793242
 11
-406.360023
 21
118.728550
  0
LINE
  8
0
 62
7
  6
CONTINUOUS
 10
-406.360023
 20
118.728550
 11
-406.379938
 21
118.663958
  0
LINE
  8
0
 62
7
  6
CONTINUOUS
 10
-406.379938
 20
118.663958
 11
-406.398307
 21
118.598250
  0
LINE
  8
0
 62
7
  6
CONTINUOUS
 10
-406.398307
 20
118.598250
 11
-406.415124
 21
118.531576
  0
LINE
  8
0
 62
7
  6
CONTINUOUS
 10
-406.415124
 20
118.531576
 11
-406.430389
 21
118.464085
  0
LINE
  8
0
 62
7
  6
CONTINUOUS
 10
-406.430389
 20
118.464085
 11
-406.443882
 21
118.397096
  0
LINE
  8
0
 62
7
  6
CONTINUOUS
 10
-406.443882
 20
118.397096
 11
-406.455847
 21
118.329815
  0
LINE
  8
0
 62
7
  6
CONTINUOUS
 10
-406.455847
 20
118.329815
 11
-406.466322
 21
118.262284
  0
LINE
  8
0
 62
7
  6
CONTINUOUS
 10
-406.466322
 20
118.262284
 11
-406.475337
 21
118.194542
  0
LINE
  8
0
 62
7
  6
CONTINUOUS
 10
-406.475337
 20
118.194542
 11
-406.482922
 21
118.126623
  0
LINE
  8
0
 62
7
  6
CONTINUOUS
 10
-406.482922
 20
118.126623
 11
-406.489097
 21
118.058561
  0
LINE
  8
0
 62
7
  6
CONTINUOUS
 10
-406.489097
 20
118.058561
 11
-406.493881
 21
117.990386
  0
LINE
  8
0
 62
7
  6
CONTINUOUS
 10
-406.493881
 20
117.990386
 11
-406.497321
 21
117.921266
  0
LINE
  8
0
 62
7
  6
CONTINUOUS
 10
-406.497321
 20
117.921266
 11
-406.499351
 21
117.852489
  0
LINE
  8
0
 62
7
  6
CONTINUOUS
 10
-406.499351
 20
117.852489
 11
-406.500000
 21
117.785713
  0
LINE
  8
0
 62
7
  6
CONTINUOUS
 10
-405.071442
 20
143.500000
 11
-405.083004
 21
143.775709
  0
LINE
  8
0
 62
7
  6
CONTINUOUS
 10
-405.083004
 20
143.775709
 11
-405.118149
 21
144.049041
  0
LINE
  8
0
 62
7
  6
CONTINUOUS
 10
-405.118149
 20
144.049041
 11
-405.178861
 21
144.319086
  0
LINE
  8
0
 62
7
  6
CONTINUOUS
 10
-405.178861
 20
144.319086
 11
-405.267896
 21
144.580271
  0
LINE
  8
0
 62
7
  6
CONTINUOUS
 10
-405.267896
 20
144.580271
 11
-405.390701
 21
144.827403
  0
LINE
  8
0
 62
7
  6
CONTINUOUS
 10
-405.390701
 20
144.827403
 11
-405.555535
 21
145.048564
  0
LINE
  8
0
 62
7
  6
CONTINUOUS
 10
-405.555535
 20
145.048564
 11
-405.772323
 21
145.217804
  0
LINE
  8
0
 62
7
  6
CONTINUOUS
 10
-405.772323
 20
145.217804
 11
-406.035706
 21
145.285706
  0
LINE
  8
0
 62
7
  6
CONTINUOUS
 10
-406.035706
 20
145.285706
 11
-406.299978
 21
145.217336
  0
LINE
  8
0
 62
7
  6
CONTINUOUS
 10
-406.299978
 20
145.217336
 11
-406.515915
 21
145.048531
  0
LINE
  8
0
 62
7
  6
CONTINUOUS
 10
-406.515915
 20
145.048531
 11
-406.680295
 21
144.828119
  0
LINE
  8
0
 62
7
  6
CONTINUOUS
 10
-406.680295
 20
144.828119
 11
-406.802837
 21
144.581968
  0
LINE
  8
0
 62
7
  6
CONTINUOUS
 10
-406.802837
 20
144.581968
 11
-406.892065
 21
144.320907
  0
LINE
  8
0
 62
7
  6
CONTINUOUS
 10
-406.892065
 20
144.320907
 11
-406.952812
 21
144.051768
  0
LINE
  8
0
 62
7
  6
CONTINUOUS
 10
-406.952812
 20
144.051768
 11
-406.988238
 21
143.778051
  0
LINE
  8
0
 62
7
  6
CONTINUOUS
 10
-406.988238
 20
143.778051
 11
-406.999999
 21
143.502285
  0
LINE
  8
0
 62
7
  6
CONTINUOUS
 10
-405.571442
 20
143.500000
 11
-405.576380
 21
143.655865
  0
LINE
  8
0
 62
7
  6
CONTINUOUS
 10
-405.576380
 20
143.655865
 11
-405.591511
 21
143.811620
  0
LINE
  8
0
 62
7
  6
CONTINUOUS
 10
-405.591511
 20
143.811620
 11
-405.617820
 21
143.966804
  0
LINE
  8
0
 62
7
  6
CONTINUOUS
 10
-405.617820
 20
143.966804
 11
-405.656648
 21
144.118641
  0
LINE
  8
0
 62
7
  6
CONTINUOUS
 10
-405.656648
 20
144.118641
 11
-405.710973
 21
144.265732
  0
LINE
  8
0
 62
7
  6
CONTINUOUS
 10
-405.710973
 20
144.265732
 11
-405.786120
 21
144.403439
  0
LINE
  8
0
 62
7
  6
CONTINUOUS
 10
-405.786120
 20
144.403439
 11
-405.891882
 21
144.518722
  0
LINE
  8
0
 62
7
  6
CONTINUOUS
 10
-405.891882
 20
144.518722
 11
-406.035706
 21
144.571426
  0
LINE
  8
0
 62
7
  6
CONTINUOUS
 10
-406.035706
 20
144.571426
 11
-406.179672
 21
144.518617
  0
LINE
  8
0
 62
7
  6
CONTINUOUS
 10
-406.179672
 20
144.518617
 11
-406.284763
 21
144.404229
  0
LINE
  8
0
 62
7
  6
CONTINUOUS
 10
-406.284763
 20
144.404229
 11
-406.359739
 21
144.267341
  0
LINE
  8
0
 62
7
  6
CONTINUOUS
 10
-406.359739
 20
144.267341
 11
-406.414043
 21
144.121049
  0
LINE
  8
0
 62
7
  6
CONTINUOUS
 10
-406.414043
 20
144.121049
 11
-406.453085
 21
143.969328
  0
LINE
  8
0
 62
7
  6
CONTINUOUS
 10
-406.453085
 20
143.969328
 11
-406.479494
 21
143.814896
  0
LINE
  8
0
 62
7
  6
CONTINUOUS
 10
-406.479494
 20
143.814896
 11
-406.494863
 21
143.658937
  0
LINE
  8
0
 62
7
  6
CONTINUOUS
 10
-406.494863
 20
143.658937
 11
-406.499999
 21
143.502271
  0
LINE
  8
0
 62
7
  6
CONTINUOUS
 10
-401.875000
 20
138.857147
 11
-402.192705
 21
138.750837
  0
LINE
  8
0
 62
7
  6
CONTINUOUS
 10
-402.192705
 20
138.750837
 11
-402.426050
 21
138.506095
  0
LINE
  8
0
 62
7
  6
CONTINUOUS
 10
-402.426050
 20
138.506095
 11
-402.580149
 21
138.203311
  0
LINE
  8
0
 62
7
  6
CONTINUOUS
 10
-402.580149
 20
138.203311
 11
-402.672117
 21
137.875727
  0
LINE
  8
0
 62
7
  6
CONTINUOUS
 10
-402.672117
 20
137.875727
 11
-402.711847
 21
137.537577
  0
LINE
  8
0
 62
7
  6
CONTINUOUS
 10
-402.711847
 20
137.537577
 11
-402.703297
 21
137.198057
  0
LINE
  8
0
 62
7
  6
CONTINUOUS
 10
-402.703297
 20
137.198057
 11
-402.645626
 21
136.862626
  0
LINE
  8
0
 62
7
  6
CONTINUOUS
 10
-402.645626
 20
136.862626
 11
-402.532898
 21
136.541531
  0
LINE
  8
0
 62
7
  6
CONTINUOUS
 10
-402.532898
 20
136.541531
 11
-402.352211
 21
136.253392
  0
LINE
  8
0
 62
7
  6
CONTINUOUS
 10
-402.352211
 20
136.253392
 11
-402.085386
 21
136.045610
  0
LINE
  8
0
 62
7
  6
CONTINUOUS
 10
-402.085386
 20
136.045610
 11
-401.752836
 21
136.015215
  0
LINE
  8
0
 62
7
  6
CONTINUOUS
 10
-401.752836
 20
136.015215
 11
-401.462366
 21
136.184579
  0
LINE
  8
0
 62
7
  6
CONTINUOUS
 10
-401.462366
 20
136.184579
 11
-401.259858
 21
136.456709
  0
LINE
  8
0
 62
7
  6
CONTINUOUS
 10
-401.259858
 20
136.456709
 11
-401.129891
 21
136.771052
  0
LINE
  8
0
 62
7
  6
CONTINUOUS
 10
-401.129891
 20
136.771052
 11
-401.057701
 21
137.103667
  0
LINE
  8
0
 62
7
  6
CONTINUOUS
 10
-401.057701
 20
137.103667
 11
-401.035751
 21
137.443359
  0
LINE
  8
0
 62
7
  6
CONTINUOUS
 10
-401.875000
 20
138.142853
 11
-402.017163
 21
138.077129
  0
LINE
  8
0
 62
7
  6
CONTINUOUS
 10
-402.017163
 20
138.077129
 11
-402.108861
 21
137.946079
  0
LINE
  8
0
 62
7
  6
CONTINUOUS
 10
-402.108861
 20
137.946079
 11
-402.166016
 21
137.795806
  0
LINE
  8
0
 62
7
  6
CONTINUOUS
 10
-402.166016
 20
137.795806
 11
-402.199345
 21
137.638255
  0
LINE
  8
0
 62
7
  6
CONTINUOUS
 10
-402.199345
 20
137.638255
 11
-402.213489
 21
137.477760
  0
LINE
  8
0
 62
7
  6
CONTINUOUS
 10
-402.213489
 20
137.477760
 11
-402.210145
 21
137.317213
  0
LINE
  8
0
 62
7
  6
CONTINUOUS
 10
-402.210145
 20
137.317213
 11
-402.188886
 21
137.157368
  0
LINE
  8
0
 62
7
  6
CONTINUOUS
 10
-402.188886
 20
137.157368
 11
-402.147064
 21
137.001774
  0
LINE
  8
0
 62
7
  6
CONTINUOUS
 10
-402.147064
 20
137.001774
 11
-402.077919
 21
136.856107
  0
LINE
  8
0
 62
7
  6
CONTINUOUS
 10
-402.077919
 20
136.856107
 11
-401.966659
 21
136.740838
  0
LINE
  8
0
 62
7
  6
CONTINUOUS
 10
-401.966659
 20
136.740838
 11
-401.812707
 21
136.726422
  0
LINE
  8
0
 62
7
  6
CONTINUOUS
 10
-401.812707
 20
136.726422
 11
-401.691172
 21
136.828206
  0
LINE
  8
0
 62
7
  6
CONTINUOUS
 10
-401.691172
 20
136.828206
 11
-401.615010
 21
136.969628
  0
LINE
  8
0
 62
7
  6
CONTINUOUS
 10
-401.615010
 20
136.969628
 11
-401.568169
 21
137.123679
  0
LINE
  8
0
 62
7
  6
CONTINUOUS
 10
-401.568169
 20
137.123679
 11
-401.542851
 21
137.282753
  0
LINE
  8
0
 62
7
  6
CONTINUOUS
 10
-401.542851
 20
137.282753
 11
-401.535781
 21
137.443674
  0
LINE
  8
0
 62
7
  6
CONTINUOUS
 10
-406.160706
 20
141.714294
 11
-406.379375
 21
141.664954
  0
LINE
  8
0
 62
7
  6
CONTINUOUS
 10
-406.379375
 20
141.664954
 11
-406.564962
 21
141.537655
  0
LINE
  8
0
 62
7
  6
CONTINUOUS
 10
-406.564962
 20
141.537655
 11
-406.710420
 21
141.365216
  0
LINE
  8
0
 62
7
  6
CONTINUOUS
 10
-406.710420
 20
141.365216
 11
-406.820643
 21
141.168344
  0
LINE
  8
0
 62
7
  6
CONTINUOUS
 10
-406.820643
 20
141.168344
 11
-406.901556
 21
140.957027
  0
LINE
  8
0
 62
7
  6
CONTINUOUS
 10
-406.901556
 20
140.957027
 11
-406.956902
 21
140.737601
  0
LINE
  8
0
 62
7
  6
CONTINUOUS
 10
-406.956902
 20
140.737601
 11
-406.989257
 21
140.513546
  0
LINE
  8
0
 62
7
  6
CONTINUOUS
 10
-406.989257
 20
140.513546
 11
-407.000000
 21
140.285706
  0
LINE
  8
0
 62
7
  6
CONTINUOUS
 10
-407.000000
 20
140.285706
 11
-406.989493
 21
140.060366
  0
LINE
  8
0
 62
7
  6
CONTINUOUS
 10
-406.989493
 20
140.060366
 11
-406.957451
 21
139.836624
  0
LINE
  8
0
 62
7
  6
CONTINUOUS
 10
-406.957451
 20
139.836624
 11
-406.902240
 21
139.616583
  0
LINE
  8
0
 62
7
  6
CONTINUOUS
 10
-406.902240
 20
139.616583
 11
-406.821590
 21
139.405135
  0
LINE
  8
0
 62
7
  6
CONTINUOUS
 10
-406.821590
 20
139.405135
 11
-406.711317
 21
139.207537
  0
LINE
  8
0
 62
7
  6
CONTINUOUS
 10
-406.711317
 20
139.207537
 11
-406.565732
 21
139.034500
  0
LINE
  8
0
 62
7
  6
CONTINUOUS
 10
-406.565732
 20
139.034500
 11
-406.379852
 21
138.906705
  0
LINE
  8
0
 62
7
  6
CONTINUOUS
 10
-406.379852
 20
138.906705
 11
-406.160706
 21
138.857147
  0
LINE
  8
0
 62
7
  6
CONTINUOUS
 10
-406.160706
 20
141.000000
 11
-406.260338
 21
140.968508
  0
LINE
  8
0
 62
7
  6
CONTINUOUS
 10
-406.260338
 20
140.968508
 11
-406.337205
 21
140.895743
  0
LINE
  8
0
 62
7
  6
CONTINUOUS
 10
-406.337205
 20
140.895743
 11
-406.393411
 21
140.805522
  0
LINE
  8
0
 62
7
  6
CONTINUOUS
 10
-406.393411
 20
140.805522
 11
-406.434522
 21
140.707510
  0
LINE
  8
0
 62
7
  6
CONTINUOUS
 10
-406.434522
 20
140.707510
 11
-406.464206
 21
140.605030
  0
LINE
  8
0
 62
7
  6
CONTINUOUS
 10
-406.464206
 20
140.605030
 11
-406.484333
 21
140.500246
  0
LINE
  8
0
 62
7
  6
CONTINUOUS
 10
-406.484333
 20
140.500246
 11
-406.496066
 21
140.394162
  0
LINE
  8
0
 62
7
  6
CONTINUOUS
 10
-406.496066
 20
140.394162
 11
-406.500000
 21
140.285706
  0
LINE
  8
0
 62
7
  6
CONTINUOUS
 10
-406.500000
 20
140.285706
 11
-406.496230
 21
140.179529
  0
LINE
  8
0
 62
7
  6
CONTINUOUS
 10
-406.496230
 20
140.179529
 11
-406.484692
 21
140.073582
  0
LINE
  8
0
 62
7
  6
CONTINUOUS
 10
-406.484692
 20
140.073582
 11
-406.464668
 21
139.968336
  0
LINE
  8
0
 62
7
  6
CONTINUOUS
 10
-406.464668
 20
139.968336
 11
-406.435167
 21
139.865768
  0
LINE
  8
0
 62
7
  6
CONTINUOUS
 10
-406.435167
 20
139.865768
 11
-406.394081
 21
139.767230
  0
LINE
  8
0
 62
7
  6
CONTINUOUS
 10
-406.394081
 20
139.767230
 11
-406.337832
 21
139.676485
  0
LINE
  8
0
 62
7
  6
CONTINUOUS
 10
-406.337832
 20
139.676485
 11
-406.260695
 21
139.603148
  0
LINE
  8
0
 62
7
  6
CONTINUOUS
 10
-406.260695
 20
139.603148
 11
-406.160706
 21
139.571426
  0
LINE
  8
0
 62
7
  6
CONTINUOUS
 10
-405.321442
 20
134.928574
 11
-405.051234
 21
134.971381
  0
LINE
  8
0
 62
7
  6
CONTINUOUS
 10
-405.051234
 20
134.971381
 11
-404.805230
 21
135.090929
  0
LINE
  8
0
 62
7
  6
CONTINUOUS
 10
-404.805230
 20
135.090929
 11
-404.596287
 21
135.268784
  0
LINE
  8
0
 62
7
  6
CONTINUOUS
 10
-404.596287
 20
135.268784
 11
-404.428792
 21
135.486308
  0
LINE
  8
0
 62
7
  6
CONTINUOUS
 10
-404.428792
 20
135.486308
 11
-404.301325
 21
135.730794
  0
LINE
  8
0
 62
7
  6
CONTINUOUS
 10
-404.301325
 20
135.730794
 11
-404.212620
 21
135.990970
  0
LINE
  8
0
 62
7
  6
CONTINUOUS
 10
-404.212620
 20
135.990970
 11
-404.160207
 21
136.260927
  0
LINE
  8
0
 62
7
  6
CONTINUOUS
 10
-404.160207
 20
136.260927
 11
-404.142853
 21
136.535706
  0
LINE
  8
0
 62
7
  6
CONTINUOUS
 10
-404.142853
 20
136.535706
 11
-404.160098
 21
136.809625
  0
LINE
  8
0
 62
7
  6
CONTINUOUS
 10
-404.160098
 20
136.809625
 11
-404.212289
 21
137.079188
  0
LINE
  8
0
 62
7
  6
CONTINUOUS
 10
-404.212289
 20
137.079188
 11
-404.300887
 21
137.339588
  0
LINE
  8
0
 62
7
  6
CONTINUOUS
 10
-404.300887
 20
137.339588
 11
-404.428151
 21
137.584095
  0
LINE
  8
0
 62
7
  6
CONTINUOUS
 10
-404.428151
 20
137.584095
 11
-404.595599
 21
137.801904
  0
LINE
  8
0
 62
7
  6
CONTINUOUS
 10
-404.595599
 20
137.801904
 11
-404.804534
 21
137.980032
  0
LINE
  8
0
 62
7
  6
CONTINUOUS
 10
-404.804534
 20
137.980032
 11
-405.051832
 21
138.100236
  0
LINE
  8
0
 62
7
  6
CONTINUOUS
 10
-405.051832
 20
138.100236
 11
-405.321442
 21
138.142853
  0
LINE
  8
0
 62
7
  6
CONTINUOUS
 10
-405.321442
 20
135.642853
 11
-405.169634
 21
135.665482
  0
LINE
  8
0
 62
7
  6
CONTINUOUS
 10
-405.169634
 20
135.665482
 11
-405.029429
 21
135.729752
  0
LINE
  8
0
 62
7
  6
CONTINUOUS
 10
-405.029429
 20
135.729752
 11
-404.909488
 21
135.826208
  0
LINE
  8
0
 62
7
  6
CONTINUOUS
 10
-404.909488
 20
135.826208
 11
-404.811810
 21
135.946175
  0
LINE
  8
0
 62
7
  6
CONTINUOUS
 10
-404.811810
 20
135.946175
 11
-404.737106
 21
136.081758
  0
LINE
  8
0
 62
7
  6
CONTINUOUS
 10
-404.737106
 20
136.081758
 11
-404.684583
 21
136.227437
  0
LINE
  8
0
 62
7
  6
CONTINUOUS
 10
-404.684583
 20
136.227437
 11
-404.653362
 21
136.379184
  0
LINE
  8
0
 62
7
  6
CONTINUOUS
 10
-404.653362
 20
136.379184
 11
-404.642853
 21
136.535706
  0
LINE
  8
0
 62
7
  6
CONTINUOUS
 10
-404.642853
 20
136.535706
 11
-404.653067
 21
136.690039
  0
LINE
  8
0
 62
7
  6
CONTINUOUS
 10
-404.653067
 20
136.690039
 11
-404.683926
 21
136.841618
  0
LINE
  8
0
 62
7
  6
CONTINUOUS
 10
-404.683926
 20
136.841618
 11
-404.736130
 21
136.987475
  0
LINE
  8
0
 62
7
  6
CONTINUOUS
 10
-404.736130
 20
136.987475
 11
-404.810702
 21
137.123581
  0
LINE
  8
0
 62
7
  6
CONTINUOUS
 10
-404.810702
 20
137.123581
 11
-404.908544
 21
137.244263
  0
LINE
  8
0
 62
7
  6
CONTINUOUS
 10
-404.908544
 20
137.244263
 11
-405.029443
 21
137.341680
  0
LINE
  8
0
 62
7
  6
CONTINUOUS
 10
-405.029443
 20
137.341680
 11
-405.170277
 21
137.406137
  0
LINE
  8
0
 62
7
  6
CONTINUOUS
 10
-405.170277
 20
137.406137
 11
-405.321442
 21
137.428574
  0
LINE
  8
0
 62
7
  6
CONTINUOUS
 10
-406.160706
 20
148.857147
 11
-406.379375
 21
148.807808
  0
LINE
  8
0
 62
7
  6
CONTINUOUS
 10
-406.379375
 20
148.807808
 11
-406.564963
 21
148.680511
  0
LINE
  8
0
 62
7
  6
CONTINUOUS
 10
-406.564963
 20
148.680511
 11
-406.710423
 21
148.508072
  0
LINE
  8
0
 62
7
  6
CONTINUOUS
 10
-406.710423
 20
148.508072
 11
-406.820646
 21
148.311200
  0
LINE
  8
0
 62
7
  6
CONTINUOUS
 10
-406.820646
 20
148.311200
 11
-406.901559
 21
148.099883
  0
LINE
  8
0
 62
7
  6
CONTINUOUS
 10
-406.901559
 20
148.099883
 11
-406.956904
 21
147.880458
  0
LINE
  8
0
 62
7
  6
CONTINUOUS
 10
-406.956904
 20
147.880458
 11
-406.989258
 21
147.656402
  0
LINE
  8
0
 62
7
  6
CONTINUOUS
 10
-406.989258
 20
147.656402
 11
-407.000000
 21
147.428574
  0
LINE
  8
0
 62
7
  6
CONTINUOUS
 10
-407.000000
 20
147.428574
 11
-406.989493
 21
147.203234
  0
LINE
  8
0
 62
7
  6
CONTINUOUS
 10
-406.989493
 20
147.203234
 11
-406.957451
 21
146.979492
  0
LINE
  8
0
 62
7
  6
CONTINUOUS
 10
-406.957451
 20
146.979492
 11
-406.902241
 21
146.759451
  0
LINE
  8
0
 62
7
  6
CONTINUOUS
 10
-406.902241
 20
146.759451
 11
-406.821593
 21
146.548002
  0
LINE
  8
0
 62
7
  6
CONTINUOUS
 10
-406.821593
 20
146.548002
 11
-406.711321
 21
146.350403
  0
LINE
  8
0
 62
7
  6
CONTINUOUS
 10
-406.711321
 20
146.350403
 11
-406.565740
 21
146.177364
  0
LINE
  8
0
 62
7
  6
CONTINUOUS
 10
-406.565740
 20
146.177364
 11
-406.379863
 21
146.049563
  0
LINE
  8
0
 62
7
  6
CONTINUOUS
 10
-406.379863
 20
146.049563
 11
-406.160706
 21
146.000000
  0
LINE
  8
0
 62
7
  6
CONTINUOUS
 10
-406.160706
 20
148.142853
 11
-406.260338
 21
148.111363
  0
LINE
  8
0
 62
7
  6
CONTINUOUS
 10
-406.260338
 20
148.111363
 11
-406.337206
 21
148.038599
  0
LINE
  8
0
 62
7
  6
CONTINUOUS
 10
-406.337206
 20
148.038599
 11
-406.393412
 21
147.948380
  0
LINE
  8
0
 62
7
  6
CONTINUOUS
 10
-406.393412
 20
147.948380
 11
-406.434523
 21
147.850369
  0
LINE
  8
0
 62
7
  6
CONTINUOUS
 10
-406.434523
 20
147.850369
 11
-406.464208
 21
147.747890
  0
LINE
  8
0
 62
7
  6
CONTINUOUS
 10
-406.464208
 20
147.747890
 11
-406.484334
 21
147.643106
  0
LINE
  8
0
 62
7
  6
CONTINUOUS
 10
-406.484334
 20
147.643106
 11
-406.496066
 21
147.537023
  0
LINE
  8
0
 62
7
  6
CONTINUOUS
 10
-406.496066
 20
147.537023
 11
-406.500000
 21
147.428574
  0
LINE
  8
0
 62
7
  6
CONTINUOUS
 10
-406.500000
 20
147.428574
 11
-406.496230
 21
147.322398
  0
LINE
  8
0
 62
7
  6
CONTINUOUS
 10
-406.496230
 20
147.322398
 11
-406.484693
 21
147.216451
  0
LINE
  8
0
 62
7
  6
CONTINUOUS
 10
-406.484693
 20
147.216451
 11
-406.464668
 21
147.111206
  0
LINE
  8
0
 62
7
  6
CONTINUOUS
 10
-406.464668
 20
147.111206
 11
-406.435168
 21
147.008639
  0
LINE
  8
0
 62
7
  6
CONTINUOUS
 10
-406.435168
 20
147.008639
 11
-406.394083
 21
146.910101
  0
LINE
  8
0
 62
7
  6
CONTINUOUS
 10
-406.394083
 20
146.910101
 11
-406.337835
 21
146.819357
  0
LINE
  8
0
 62
7
  6
CONTINUOUS
 10
-406.337835
 20
146.819357
 11
-406.260700
 21
146.746019
  0
LINE
  8
0
 62
7
  6
CONTINUOUS
 10
-406.260700
 20
146.746019
 11
-406.160706
 21
146.714294
  0
LINE
  8
0
 62
7
  6
CONTINUOUS
 10
-401.035706
 20
137.428574
 11
-401.027195
 21
137.587568
  0
LINE
  8
0
 62
7
  6
CONTINUOUS
 10
-401.027195
 20
137.587568
 11
-401.000354
 21
137.746053
  0
LINE
  8
0
 62
7
  6
CONTINUOUS
 10
-401.000354
 20
137.746053
 11
-400.951891
 21
137.898636
  0
LINE
  8
0
 62
7
  6
CONTINUOUS
 10
-400.951891
 20
137.898636
 11
-400.873274
 21
138.038162
  0
LINE
  8
0
 62
7
  6
CONTINUOUS
 10
-400.873274
 20
138.038162
 11
-400.748038
 21
138.134545
  0
LINE
  8
0
 62
7
  6
CONTINUOUS
 10
-400.748038
 20
138.134545
 11
-400.596060
 21
138.110876
  0
LINE
  8
0
 62
7
  6
CONTINUOUS
 10
-400.596060
 20
138.110876
 11
-400.489019
 21
137.993831
  0
LINE
  8
0
 62
7
  6
CONTINUOUS
 10
-400.489019
 20
137.993831
 11
-400.422289
 21
137.849405
  0
LINE
  8
0
 62
7
  6
CONTINUOUS
 10
-400.422289
 20
137.849405
 11
-400.381575
 21
137.694691
  0
LINE
  8
0
 62
7
  6
CONTINUOUS
 10
-400.381575
 20
137.694691
 11
-400.361005
 21
137.535976
  0
LINE
  8
0
 62
7
  6
CONTINUOUS
 10
-400.361005
 20
137.535976
 11
-400.358064
 21
137.376109
  0
LINE
  8
0
 62
7
  6
CONTINUOUS
 10
-400.358064
 20
137.376109
 11
-400.372352
 21
137.217144
  0
LINE
  8
0
 62
7
  6
CONTINUOUS
 10
-400.372352
 20
137.217144
 11
-400.405630
 21
137.060618
  0
LINE
  8
0
 62
7
  6
CONTINUOUS
 10
-400.405630
 20
137.060618
 11
-400.462630
 21
136.910962
  0
LINE
  8
0
 62
7
  6
CONTINUOUS
 10
-400.462630
 20
136.910962
 11
-400.554355
 21
136.779931
  0
LINE
  8
0
 62
7
  6
CONTINUOUS
 10
-400.554355
 20
136.779931
 11
-400.696442
 21
136.714279
  0
LINE
  8
0
 62
7
  6
CONTINUOUS
 10
-401.535647
 20
137.411632
 11
-401.514004
 21
137.751344
  0
LINE
  8
0
 62
7
  6
CONTINUOUS
 10
-401.514004
 20
137.751344
 11
-401.441937
 21
138.084749
  0
LINE
  8
0
 62
7
  6
CONTINUOUS
 10
-401.441937
 20
138.084749
 11
-401.312171
 21
138.399330
  0
LINE
  8
0
 62
7
  6
CONTINUOUS
 10
-401.312171
 20
138.399330
 11
-401.109496
 21
138.672156
  0
LINE
  8
0
 62
7
  6
CONTINUOUS
 10
-401.109496
 20
138.672156
 11
-400.818385
 21
138.841988
  0
LINE
  8
0
 62
7
  6
CONTINUOUS
 10
-400.818385
 20
138.841988
 11
-400.485911
 21
138.811472
  0
LINE
  8
0
 62
7
  6
CONTINUOUS
 10
-400.485911
 20
138.811472
 11
-400.219538
 21
138.604111
  0
LINE
  8
0
 62
7
  6
CONTINUOUS
 10
-400.219538
 20
138.604111
 11
-400.038946
 21
138.316471
  0
LINE
  8
0
 62
7
  6
CONTINUOUS
 10
-400.038946
 20
138.316471
 11
-399.926074
 21
137.995526
  0
LINE
  8
0
 62
7
  6
CONTINUOUS
 10
-399.926074
 20
137.995526
 11
-399.868237
 21
137.660039
  0
LINE
  8
0
 62
7
  6
CONTINUOUS
 10
-399.868237
 20
137.660039
 11
-399.859578
 21
137.319934
  0
LINE
  8
0
 62
7
  6
CONTINUOUS
 10
-399.859578
 20
137.319934
 11
-399.899072
 21
136.982709
  0
LINE
  8
0
 62
7
  6
CONTINUOUS
 10
-399.899072
 20
136.982709
 11
-399.990848
 21
136.654999
  0
LINE
  8
0
 62
7
  6
CONTINUOUS
 10
-399.990848
 20
136.654999
 11
-400.144975
 21
136.351663
  0
LINE
  8
0
 62
7
  6
CONTINUOUS
 10
-400.144975
 20
136.351663
 11
-400.379052
 21
136.106088
  0
LINE
  8
0
 62
7
  6
CONTINUOUS
 10
-400.379052
 20
136.106088
 11
-400.696442
 21
136.000000
  0
LINE
  8
0
 62
7
  6
CONTINUOUS
 10
-401.178558
 20
122.071426
 11
-401.170025
 21
121.899781
  0
LINE
  8
0
 62
7
  6
CONTINUOUS
 10
-401.170025
 20
121.899781
 11
-401.144035
 21
121.729615
  0
LINE
  8
0
 62
7
  6
CONTINUOUS
 10
-401.144035
 20
121.729615
 11
-401.099361
 21
121.562786
  0
LINE
  8
0
 62
7
  6
CONTINUOUS
 10
-401.099361
 20
121.562786
 11
-401.034310
 21
121.403190
  0
LINE
  8
0
 62
7
  6
CONTINUOUS
 10
-401.034310
 20
121.403190
 11
-400.945913
 21
121.255276
  0
LINE
  8
0
 62
7
  6
CONTINUOUS
 10
-400.945913
 20
121.255276
 11
-400.830469
 21
121.127520
  0
LINE
  8
0
 62
7
  6
CONTINUOUS
 10
-400.830469
 20
121.127520
 11
-400.684792
 21
121.034764
  0
LINE
  8
0
 62
7
  6
CONTINUOUS
 10
-400.684792
 20
121.034764
 11
-400.517853
 21
121.000000
  0
LINE
  8
0
 62
7
  6
CONTINUOUS
 10
-400.517853
 20
121.000000
 11
-400.351115
 21
121.034678
  0
LINE
  8
0
 62
7
  6
CONTINUOUS
 10
-400.351115
 20
121.034678
 11
-400.206313
 21
121.126585
  0
LINE
  8
0
 62
7
  6
CONTINUOUS
 10
-400.206313
 20
121.126585
 11
-400.090828
 21
121.253851
  0
LINE
  8
0
 62
7
  6
CONTINUOUS
 10
-400.090828
 20
121.253851
 11
-400.002363
 21
121.401228
  0
LINE
  8
0
 62
7
  6
CONTINUOUS
 10
-400.002363
 20
121.401228
 11
-399.937041
 21
121.560697
  0
LINE
  8
0
 62
7
  6
CONTINUOUS
 10
-399.937041
 20
121.560697
 11
-399.892194
 21
121.727106
  0
LINE
  8
0
 62
7
  6
CONTINUOUS
 10
-399.892194
 20
121.727106
 11
-399.865910
 21
121.897502
  0
LINE
  8
0
 62
7
  6
CONTINUOUS
 10
-399.865910
 20
121.897502
 11
-399.857147
 21
122.071426
  0
LINE
  8
0
 62
7
  6
CONTINUOUS
 10
-401.339294
 20
122.428574
 11
-401.387876
 21
122.411865
  0
LINE
  8
0
 62
7
  6
CONTINUOUS
 10
-401.387876
 20
122.411865
 11
-401.423906
 21
122.375066
  0
LINE
  8
0
 62
7
  6
CONTINUOUS
 10
-401.423906
 20
122.375066
 11
-401.450284
 21
122.329719
  0
LINE
  8
0
 62
7
  6
CONTINUOUS
 10
-401.450284
 20
122.329719
 11
-401.469457
 21
122.280897
  0
LINE
  8
0
 62
7
  6
CONTINUOUS
 10
-401.469457
 20
122.280897
 11
-401.483061
 21
122.231028
  0
LINE
  8
0
 62
7
  6
CONTINUOUS
 10
-401.483061
 20
122.231028
 11
-401.492585
 21
122.178665
  0
LINE
  8
0
 62
7
  6
CONTINUOUS
 10
-401.492585
 20
122.178665
 11
-401.498152
 21
122.125434
  0
LINE
  8
0
 62
7
  6
CONTINUOUS
 10
-401.498152
 20
122.125434
 11
-401.500000
 21
122.071426
  0
LINE
  8
0
 62
7
  6
CONTINUOUS
 10
-401.500000
 20
122.071426
 11
-401.498261
 21
122.019023
  0
LINE
  8
0
 62
7
  6
CONTINUOUS
 10
-401.498261
 20
122.019023
 11
-401.492934
 21
121.966687
  0
LINE
  8
0
 62
7
  6
CONTINUOUS
 10
-401.492934
 20
121.966687
 11
-401.483678
 21
121.914602
  0
LINE
  8
0
 62
7
  6
CONTINUOUS
 10
-401.483678
 20
121.914602
 11
-401.469843
 21
121.863146
  0
LINE
  8
0
 62
7
  6
CONTINUOUS
 10
-401.469843
 20
121.863146
 11
-401.450705
 21
121.814036
  0
LINE
  8
0
 62
7
  6
CONTINUOUS
 10
-401.450705
 20
121.814036
 11
-401.424334
 21
121.768383
  0
LINE
  8
0
 62
7
  6
CONTINUOUS
 10
-401.424334
 20
121.768383
 11
-401.386916
 21
121.730326
  0
LINE
  8
0
 62
7
  6
CONTINUOUS
 10
-401.386916
 20
121.730326
 11
-401.339294
 21
121.714287
  0
LINE
  8
0
 62
7
  6
CONTINUOUS
 10
-400.357147
 20
122.071426
 11
-400.364195
 21
121.966816
  0
LINE
  8
0
 62
7
  6
CONTINUOUS
 10
-400.364195
 20
121.966816
 11
-400.387030
 21
121.863999
  0
LINE
  8
0
 62
7
  6
CONTINUOUS
 10
-400.387030
 20
121.863999
 11
-400.432511
 21
121.768803
  0
LINE
  8
0
 62
7
  6
CONTINUOUS
 10
-400.432511
 20
121.768803
 11
-400.517853
 21
121.714287
  0
LINE
  8
0
 62
7
  6
CONTINUOUS
 10
-400.517853
 20
121.714287
 11
-400.602929
 21
121.768434
  0
LINE
  8
0
 62
7
  6
CONTINUOUS
 10
-400.602929
 20
121.768434
 11
-400.648176
 21
121.862451
  0
LINE
  8
0
 62
7
  6
CONTINUOUS
 10
-400.648176
 20
121.862451
 11
-400.671265
 21
121.965052
  0
LINE
  8
0
 62
7
  6
CONTINUOUS
 10
-400.671265
 20
121.965052
 11
-400.678558
 21
122.071426
  0
LINE
  8
0
 62
7
  6
CONTINUOUS
 10
-400.678558
 20
122.071426
 11
-400.671510
 21
122.176037
  0
LINE
  8
0
 62
7
  6
CONTINUOUS
 10
-400.671510
 20
122.176037
 11
-400.648677
 21
122.278854
  0
LINE
  8
0
 62
7
  6
CONTINUOUS
 10
-400.648677
 20
122.278854
 11
-400.603198
 21
122.374051
  0
LINE
  8
0
 62
7
  6
CONTINUOUS
 10
-400.603198
 20
122.374051
 11
-400.517853
 21
122.428574
  0
LINE
  8
0
 62
7
  6
CONTINUOUS
 10
-400.517853
 20
122.428574
 11
-400.432777
 21
122.374425
  0
LINE
  8
0
 62
7
  6
CONTINUOUS
 10
-400.432777
 20
122.374425
 11
-400.387530
 21
122.280408
  0
LINE
  8
0
 62
7
  6
CONTINUOUS
 10
-400.387530
 20
122.280408
 11
-400.364441
 21
122.177807
  0
LINE
  8
0
 62
7
  6
CONTINUOUS
 10
-400.364441
 20
122.177807
 11
-400.357147
 21
122.071426
  0
LINE
  8
0
 62
7
  6
CONTINUOUS
 10
-401.339294
 20
121.000000
 11
-401.506032
 21
121.034678
  0
LINE
  8
0
 62
7
  6
CONTINUOUS
 10
-401.506032
 20
121.034678
 11
-401.650834
 21
121.126585
  0
LINE
  8
0
 62
7
  6
CONTINUOUS
 10
-401.650834
 20
121.126585
 11
-401.766319
 21
121.253851
  0
LINE
  8
0
 62
7
  6
CONTINUOUS
 10
-401.766319
 20
121.253851
 11
-401.854784
 21
121.401228
  0
LINE
  8
0
 62
7
  6
CONTINUOUS
 10
-401.854784
 20
121.401228
 11
-401.920106
 21
121.560697
  0
LINE
  8
0
 62
7
  6
CONTINUOUS
 10
-401.920106
 20
121.560697
 11
-401.964953
 21
121.727106
  0
LINE
  8
0
 62
7
  6
CONTINUOUS
 10
-401.964953
 20
121.727106
 11
-401.991237
 21
121.897502
  0
LINE
  8
0
 62
7
  6
CONTINUOUS
 10
-401.991237
 20
121.897502
 11
-402.000000
 21
122.071426
  0
LINE
  8
0
 62
7
  6
CONTINUOUS
 10
-402.000000
 20
122.071426
 11
-401.991467
 21
122.243072
  0
LINE
  8
0
 62
7
  6
CONTINUOUS
 10
-401.991467
 20
122.243072
 11
-401.965476
 21
122.413237
  0
LINE
  8
0
 62
7
  6
CONTINUOUS
 10
-401.965476
 20
122.413237
 11
-401.920803
 21
122.580067
  0
LINE
  8
0
 62
7
  6
CONTINUOUS
 10
-401.920803
 20
122.580067
 11
-401.855752
 21
122.739663
  0
LINE
  8
0
 62
7
  6
CONTINUOUS
 10
-401.855752
 20
122.739663
 11
-401.767355
 21
122.887577
  0
LINE
  8
0
 62
7
  6
CONTINUOUS
 10
-401.767355
 20
122.887577
 11
-401.651910
 21
123.015333
  0
LINE
  8
0
 62
7
  6
CONTINUOUS
 10
-401.651910
 20
123.015333
 11
-401.506234
 21
123.108089
  0
LINE
  8
0
 62
7
  6
CONTINUOUS
 10
-401.506234
 20
123.108089
 11
-401.339294
 21
123.142853
  0
LINE
  8
0
 62
7
  6
CONTINUOUS
 10
-400.678675
 20
146.377279
 11
-400.695087
 21
146.118991
  0
LINE
  8
0
 62
7
  6
CONTINUOUS
 10
-400.695087
 20
146.118991
 11
-400.752285
 21
145.865315
  0
LINE
  8
0
 62
7
  6
CONTINUOUS
 10
-400.752285
 20
145.865315
 11
-400.855617
 21
145.627204
  0
LINE
  8
0
 62
7
  6
CONTINUOUS
 10
-400.855617
 20
145.627204
 11
-401.015496
 21
145.423185
  0
LINE
  8
0
 62
7
  6
CONTINUOUS
 10
-401.015496
 20
145.423185
 11
-401.240261
 21
145.297809
  0
LINE
  8
0
 62
7
  6
CONTINUOUS
 10
-401.240261
 20
145.297809
 11
-401.494441
 21
145.315663
  0
LINE
  8
0
 62
7
  6
CONTINUOUS
 10
-401.494441
 20
145.315663
 11
-401.704704
 21
145.464479
  0
LINE
  8
0
 62
7
  6
CONTINUOUS
 10
-401.704704
 20
145.464479
 11
-401.850257
 21
145.677879
  0
LINE
  8
0
 62
7
  6
CONTINUOUS
 10
-401.850257
 20
145.677879
 11
-401.942461
 21
145.919821
  0
LINE
  8
0
 62
7
  6
CONTINUOUS
 10
-401.942461
 20
145.919821
 11
-401.990392
 21
146.175070
  0
LINE
  8
0
 62
7
  6
CONTINUOUS
 10
-401.990392
 20
146.175070
 11
-401.998274
 21
146.434528
  0
LINE
  8
0
 62
7
  6
CONTINUOUS
 10
-401.998274
 20
146.434528
 11
-401.966975
 21
146.691641
  0
LINE
  8
0
 62
7
  6
CONTINUOUS
 10
-401.966975
 20
146.691641
 11
-401.893435
 21
146.940616
  0
LINE
  8
0
 62
7
  6
CONTINUOUS
 10
-401.893435
 20
146.940616
 11
-401.770381
 21
147.169092
  0
LINE
  8
0
 62
7
  6
CONTINUOUS
 10
-401.770381
 20
147.169092
 11
-401.586263
 21
147.350906
  0
LINE
  8
0
 62
7
  6
CONTINUOUS
 10
-401.586263
 20
147.350906
 11
-401.341702
 21
147.428566
  0
LINE
  8
0
 62
7
  6
CONTINUOUS
 10
-400.517853
 20
145.285706
 11
-400.274908
 21
145.360766
  0
LINE
  8
0
 62
7
  6
CONTINUOUS
 10
-400.274908
 20
145.360766
 11
-400.090717
 21
145.539708
  0
LINE
  8
0
 62
7
  6
CONTINUOUS
 10
-400.090717
 20
145.539708
 11
-399.966830
 21
145.765940
  0
LINE
  8
0
 62
7
  6
CONTINUOUS
 10
-399.966830
 20
145.765940
 11
-399.892112
 21
146.013200
  0
LINE
  8
0
 62
7
  6
CONTINUOUS
 10
-399.892112
 20
146.013200
 11
-399.859355
 21
146.269605
  0
LINE
  8
0
 62
7
  6
CONTINUOUS
 10
-399.859355
 20
146.269605
 11
-399.865549
 21
146.527454
  0
LINE
  8
0
 62
7
  6
CONTINUOUS
 10
-399.865549
 20
146.527454
 11
-399.911227
 21
146.781677
  0
LINE
  8
0
 62
7
  6
CONTINUOUS
 10
-399.911227
 20
146.781677
 11
-400.000726
 21
147.024011
  0
LINE
  8
0
 62
7
  6
CONTINUOUS
 10
-400.000726
 20
147.024011
 11
-400.142976
 21
147.239411
  0
LINE
  8
0
 62
7
  6
CONTINUOUS
 10
-400.142976
 20
147.239411
 11
-400.348896
 21
147.392949
  0
LINE
  8
0
 62
7
  6
CONTINUOUS
 10
-400.348896
 20
147.392949
 11
-400.601352
 21
147.419983
  0
LINE
  8
0
 62
7
  6
CONTINUOUS
 10
-400.601352
 20
147.419983
 11
-400.828401
 21
147.302843
  0
LINE
  8
0
 62
7
  6
CONTINUOUS
 10
-400.828401
 20
147.302843
 11
-400.991707
 21
147.103791
  0
LINE
  8
0
 62
7
  6
CONTINUOUS
 10
-400.991707
 20
147.103791
 11
-401.098400
 21
146.868655
  0
LINE
  8
0
 62
7
  6
CONTINUOUS
 10
-401.098400
 20
146.868655
 11
-401.158765
 21
146.617422
  0
LINE
  8
0
 62
7
  6
CONTINUOUS
 10
-401.158765
 20
146.617422
 11
-401.178557
 21
146.359653
  0
LINE
  8
0
 62
7
  6
CONTINUOUS
 10
-401.339294
 20
146.714279
 11
-401.407825
 21
146.680180
  0
LINE
  8
0
 62
7
  6
CONTINUOUS
 10
-401.407825
 20
146.680180
 11
-401.450712
 21
146.614513
  0
LINE
  8
0
 62
7
  6
CONTINUOUS
 10
-401.450712
 20
146.614513
 11
-401.477261
 21
146.540283
  0
LINE
  8
0
 62
7
  6
CONTINUOUS
 10
-401.477261
 20
146.540283
 11
-401.492859
 21
146.462417
  0
LINE
  8
0
 62
7
  6
CONTINUOUS
 10
-401.492859
 20
146.462417
 11
-401.499578
 21
146.382990
  0
LINE
  8
0
 62
7
  6
CONTINUOUS
 10
-401.499578
 20
146.382990
 11
-401.498229
 21
146.304253
  0
LINE
  8
0
 62
7
  6
CONTINUOUS
 10
-401.498229
 20
146.304253
 11
-401.488733
 21
146.225761
  0
LINE
  8
0
 62
7
  6
CONTINUOUS
 10
-401.488733
 20
146.225761
 11
-401.469897
 21
146.149023
  0
LINE
  8
0
 62
7
  6
CONTINUOUS
 10
-401.469897
 20
146.149023
 11
-401.438614
 21
146.076364
  0
LINE
  8
0
 62
7
  6
CONTINUOUS
 10
-401.438614
 20
146.076364
 11
-401.387530
 21
146.016465
  0
LINE
  8
0
 62
7
  6
CONTINUOUS
 10
-401.387530
 20
146.016465
 11
-401.313054
 21
146.004792
  0
LINE
  8
0
 62
7
  6
CONTINUOUS
 10
-401.313054
 20
146.004792
 11
-401.253792
 21
146.054726
  0
LINE
  8
0
 62
7
  6
CONTINUOUS
 10
-401.253792
 20
146.054726
 11
-401.217647
 21
146.123709
  0
LINE
  8
0
 62
7
  6
CONTINUOUS
 10
-401.217647
 20
146.123709
 11
-401.195093
 21
146.199371
  0
LINE
  8
0
 62
7
  6
CONTINUOUS
 10
-401.195093
 20
146.199371
 11
-401.182521
 21
146.278325
  0
LINE
  8
0
 62
7
  6
CONTINUOUS
 10
-401.182521
 20
146.278325
 11
-401.178558
 21
146.357132
  0
LINE
  8
0
 62
7
  6
CONTINUOUS
 10
-400.678317
 20
146.337573
 11
-400.676249
 21
146.417464
  0
LINE
  8
0
 62
7
  6
CONTINUOUS
 10
-400.676249
 20
146.417464
 11
-400.665692
 21
146.497160
  0
LINE
  8
0
 62
7
  6
CONTINUOUS
 10
-400.665692
 20
146.497160
 11
-400.645275
 21
146.574768
  0
LINE
  8
0
 62
7
  6
CONTINUOUS
 10
-400.645275
 20
146.574768
 11
-400.611359
 21
146.647602
  0
LINE
  8
0
 62
7
  6
CONTINUOUS
 10
-400.611359
 20
146.647602
 11
-400.555472
 21
146.704357
  0
LINE
  8
0
 62
7
  6
CONTINUOUS
 10
-400.555472
 20
146.704357
 11
-400.479227
 21
146.703811
  0
LINE
  8
0
 62
7
  6
CONTINUOUS
 10
-400.479227
 20
146.703811
 11
-400.423996
 21
146.647043
  0
LINE
  8
0
 62
7
  6
CONTINUOUS
 10
-400.423996
 20
146.647043
 11
-400.390480
 21
146.574910
  0
LINE
  8
0
 62
7
  6
CONTINUOUS
 10
-400.390480
 20
146.574910
 11
-400.370052
 21
146.497359
  0
LINE
  8
0
 62
7
  6
CONTINUOUS
 10
-400.370052
 20
146.497359
 11
-400.359486
 21
146.417836
  0
LINE
  8
0
 62
7
  6
CONTINUOUS
 10
-400.359486
 20
146.417836
 11
-400.357386
 21
146.337686
  0
LINE
  8
0
 62
7
  6
CONTINUOUS
 10
-400.357386
 20
146.337686
 11
-400.363466
 21
146.257964
  0
LINE
  8
0
 62
7
  6
CONTINUOUS
 10
-400.363466
 20
146.257964
 11
-400.378697
 21
146.178483
  0
LINE
  8
0
 62
7
  6
CONTINUOUS
 10
-400.378697
 20
146.178483
 11
-400.405099
 21
146.102650
  0
LINE
  8
0
 62
7
  6
CONTINUOUS
 10
-400.405099
 20
146.102650
 11
-400.448401
 21
146.035069
  0
LINE
  8
0
 62
7
  6
CONTINUOUS
 10
-400.448401
 20
146.035069
 11
-400.517853
 21
146.000000
  0
LINE
  8
0
 62
7
  6
CONTINUOUS
 10
-401.962053
 20
157.427824
 11
-401.966811
 21
157.450390
  0
LINE
  8
0
 62
7
  6
CONTINUOUS
 10
-401.966811
 20
157.450390
 11
-401.971242
 21
157.473041
  0
LINE
  8
0
 62
7
  6
CONTINUOUS
 10
-401.971242
 20
157.473041
 11
-401.975348
 21
157.495762
  0
LINE
  8
0
 62
7
  6
CONTINUOUS
 10
-401.975348
 20
157.495762
 11
-401.979130
 21
157.518540
  0
LINE
  8
0
 62
7
  6
CONTINUOUS
 10
-401.979130
 20
157.518540
 11
-401.982590
 21
157.541361
  0
LINE
  8
0
 62
7
  6
CONTINUOUS
 10
-401.982590
 20
157.541361
 11
-401.985728
 21
157.564212
  0
LINE
  8
0
 62
7
  6
CONTINUOUS
 10
-401.985728
 20
157.564212
 11
-401.988548
 21
157.587080
  0
LINE
  8
0
 62
7
  6
CONTINUOUS
 10
-401.988548
 20
157.587080
 11
-401.991050
 21
157.609951
  0
LINE
  8
0
 62
7
  6
CONTINUOUS
 10
-401.991050
 20
157.609951
 11
-401.993239
 21
157.632814
  0
LINE
  8
0
 62
7
  6
CONTINUOUS
 10
-401.993239
 20
157.632814
 11
-401.995115
 21
157.655654
  0
LINE
  8
0
 62
7
  6
CONTINUOUS
 10
-401.995115
 20
157.655654
 11
-401.996682
 21
157.678462
  0
LINE
  8
0
 62
7
  6
CONTINUOUS
 10
-401.996682
 20
157.678462
 11
-401.997943
 21
157.701223
  0
LINE
  8
0
 62
7
  6
CONTINUOUS
 10
-401.997943
 20
157.701223
 11
-401.998901
 21
157.723927
  0
LINE
  8
0
 62
7
  6
CONTINUOUS
 10
-401.998901
 20
157.723927
 11
-401.999559
 21
157.746561
  0
LINE
  8
0
 62
7
  6
CONTINUOUS
 10
-401.999559
 20
157.746561
 11
-401.999921
 21
157.769116
  0
LINE
  8
0
 62
7
  6
CONTINUOUS
 10
-401.999921
 20
157.769116
 11
-401.999988
 21
157.792192
  0
LINE
  8
0
 62
7
  6
CONTINUOUS
 10
-401.500000
 20
157.785706
 11
-401.499565
 21
157.759441
  0
LINE
  8
0
 62
7
  6
CONTINUOUS
 10
-401.499565
 20
157.759441
 11
-401.498253
 21
157.733193
  0
LINE
  8
0
 62
7
  6
CONTINUOUS
 10
-401.498253
 20
157.733193
 11
-401.496048
 21
157.706985
  0
LINE
  8
0
 62
7
  6
CONTINUOUS
 10
-401.496048
 20
157.706985
 11
-401.492917
 21
157.680841
  0
LINE
  8
0
 62
7
  6
CONTINUOUS
 10
-401.492917
 20
157.680841
 11
-401.488815
 21
157.654794
  0
LINE
  8
0
 62
7
  6
CONTINUOUS
 10
-401.488815
 20
157.654794
 11
-401.483679
 21
157.628885
  0
LINE
  8
0
 62
7
  6
CONTINUOUS
 10
-401.483679
 20
157.628885
 11
-401.477425
 21
157.603171
  0
LINE
  8
0
 62
7
  6
CONTINUOUS
 10
-401.477425
 20
157.603171
 11
-401.469940
 21
157.577729
  0
LINE
  8
0
 62
7
  6
CONTINUOUS
 10
-401.469940
 20
157.577729
 11
-401.461075
 21
157.552670
  0
LINE
  8
0
 62
7
  6
CONTINUOUS
 10
-401.461075
 20
157.552670
 11
-401.450633
 21
157.528164
  0
LINE
  8
0
 62
7
  6
CONTINUOUS
 10
-401.450633
 20
157.528164
 11
-401.438348
 21
157.504473
  0
LINE
  8
0
 62
7
  6
CONTINUOUS
 10
-401.438348
 20
157.504473
 11
-401.423870
 21
157.482028
  0
LINE
  8
0
 62
7
  6
CONTINUOUS
 10
-401.423870
 20
157.482028
 11
-401.406755
 21
157.461560
  0
LINE
  8
0
 62
7
  6
CONTINUOUS
 10
-401.406755
 20
157.461560
 11
-401.386523
 21
157.444342
  0
LINE
  8
0
 62
7
  6
CONTINUOUS
 10
-401.386523
 20
157.444342
 11
-401.362981
 21
157.432474
  0
LINE
  8
0
 62
7
  6
CONTINUOUS
 10
-401.362981
 20
157.432474
 11
-401.337534
 21
157.428595
  0
LINE
  8
0
 62
7
  6
CONTINUOUS
 10
-401.962053
 20
151.000734
 11
-401.981622
 21
150.893804
  0
LINE
  8
0
 62
7
  6
CONTINUOUS
 10
-401.981622
 20
150.893804
 11
-401.994093
 21
150.785805
  0
LINE
  8
0
 62
7
  6
CONTINUOUS
 10
-401.994093
 20
150.785805
 11
-401.999671
 21
150.676648
  0
LINE
  8
0
 62
7
  6
CONTINUOUS
 10
-401.999671
 20
150.676648
 11
-401.998389
 21
150.568067
  0
LINE
  8
0
 62
7
  6
CONTINUOUS
 10
-401.998389
 20
150.568067
 11
-401.990295
 21
150.459882
  0
LINE
  8
0
 62
7
  6
CONTINUOUS
 10
-401.990295
 20
150.459882
 11
-401.975254
 21
150.352368
  0
LINE
  8
0
 62
7
  6
CONTINUOUS
 10
-401.975254
 20
150.352368
 11
-401.953003
 21
150.245982
  0
LINE
  8
0
 62
7
  6
CONTINUOUS
 10
-401.953003
 20
150.245982
 11
-401.923141
 21
150.141306
  0
LINE
  8
0
 62
7
  6
CONTINUOUS
 10
-401.923141
 20
150.141306
 11
-401.885120
 21
150.039114
  0
LINE
  8
0
 62
7
  6
CONTINUOUS
 10
-401.885120
 20
150.039114
 11
-401.838229
 21
149.940479
  0
LINE
  8
0
 62
7
  6
CONTINUOUS
 10
-401.838229
 20
149.940479
 11
-401.781603
 21
149.846931
  0
LINE
  8
0
 62
7
  6
CONTINUOUS
 10
-401.781603
 20
149.846931
 11
-401.714276
 21
149.760701
  0
LINE
  8
0
 62
7
  6
CONTINUOUS
 10
-401.714276
 20
149.760701
 11
-401.635386
 21
149.685037
  0
LINE
  8
0
 62
7
  6
CONTINUOUS
 10
-401.635386
 20
149.685037
 11
-401.544677
 21
149.624506
  0
LINE
  8
0
 62
7
  6
CONTINUOUS
 10
-401.544677
 20
149.624506
 11
-401.443492
 21
149.584834
  0
LINE
  8
0
 62
7
  6
CONTINUOUS
 10
-401.443492
 20
149.584834
 11
-401.336270
 21
149.571438
  0
LINE
  8
0
 62
7
  6
CONTINUOUS
 10
-399.895094
 20
151.000734
 11
-399.875526
 21
150.893804
  0
LINE
  8
0
 62
7
  6
CONTINUOUS
 10
-399.875526
 20
150.893804
 11
-399.863054
 21
150.785805
  0
LINE
  8
0
 62
7
  6
CONTINUOUS
 10
-399.863054
 20
150.785805
 11
-399.857476
 21
150.676648
  0
LINE
  8
0
 62
7
  6
CONTINUOUS
 10
-399.857476
 20
150.676648
 11
-399.858759
 21
150.568067
  0
LINE
  8
0
 62
7
  6
CONTINUOUS
 10
-399.858759
 20
150.568067
 11
-399.866853
 21
150.459882
  0
LINE
  8
0
 62
7
  6
CONTINUOUS
 10
-399.866853
 20
150.459882
 11
-399.881893
 21
150.352368
  0
LINE
  8
0
 62
7
  6
CONTINUOUS
 10
-399.881893
 20
150.352368
 11
-399.904145
 21
150.245982
  0
LINE
  8
0
 62
7
  6
CONTINUOUS
 10
-399.904145
 20
150.245982
 11
-399.934006
 21
150.141306
  0
LINE
  8
0
 62
7
  6
CONTINUOUS
 10
-399.934006
 20
150.141306
 11
-399.972028
 21
150.039114
  0
LINE
  8
0
 62
7
  6
CONTINUOUS
 10
-399.972028
 20
150.039114
 11
-400.018918
 21
149.940479
  0
LINE
  8
0
 62
7
  6
CONTINUOUS
 10
-400.018918
 20
149.940479
 11
-400.075545
 21
149.846931
  0
LINE
  8
0
 62
7
  6
CONTINUOUS
 10
-400.075545
 20
149.846931
 11
-400.142871
 21
149.760701
  0
LINE
  8
0
 62
7
  6
CONTINUOUS
 10
-400.142871
 20
149.760701
 11
-400.221762
 21
149.685037
  0
LINE
  8
0
 62
7
  6
CONTINUOUS
 10
-400.221762
 20
149.685037
 11
-400.312470
 21
149.624506
  0
LINE
  8
0
 62
7
  6
CONTINUOUS
 10
-400.312470
 20
149.624506
 11
-400.413656
 21
149.584834
  0
LINE
  8
0
 62
7
  6
CONTINUOUS
 10
-400.413656
 20
149.584834
 11
-400.520878
 21
149.571438
  0
LINE
  8
0
 62
7
  6
CONTINUOUS
 10
-401.339294
 20
151.000000
 11
-401.387876
 21
150.983291
  0
LINE
  8
0
 62
7
  6
CONTINUOUS
 10
-401.387876
 20
150.983291
 11
-401.423906
 21
150.946492
  0
LINE
  8
0
 62
7
  6
CONTINUOUS
 10
-401.423906
 20
150.946492
 11
-401.450284
 21
150.901144
  0
LINE
  8
0
 62
7
  6
CONTINUOUS
 10
-401.450284
 20
150.901144
 11
-401.469458
 21
150.852322
  0
LINE
  8
0
 62
7
  6
CONTINUOUS
 10
-401.469458
 20
150.852322
 11
-401.483062
 21
150.802452
  0
LINE
  8
0
 62
7
  6
CONTINUOUS
 10
-401.483062
 20
150.802452
 11
-401.492585
 21
150.750088
  0
LINE
  8
0
 62
7
  6
CONTINUOUS
 10
-401.492585
 20
150.750088
 11
-401.498152
 21
150.696857
  0
LINE
  8
0
 62
7
  6
CONTINUOUS
 10
-401.498152
 20
150.696857
 11
-401.500000
 21
150.642853
  0
LINE
  8
0
 62
7
  6
CONTINUOUS
 10
-401.500000
 20
150.642853
 11
-401.498261
 21
150.590449
  0
LINE
  8
0
 62
7
  6
CONTINUOUS
 10
-401.498261
 20
150.590449
 11
-401.492934
 21
150.538112
  0
LINE
  8
0
 62
7
  6
CONTINUOUS
 10
-401.492934
 20
150.538112
 11
-401.483679
 21
150.486027
  0
LINE
  8
0
 62
7
  6
CONTINUOUS
 10
-401.483679
 20
150.486027
 11
-401.469843
 21
150.434571
  0
LINE
  8
0
 62
7
  6
CONTINUOUS
 10
-401.469843
 20
150.434571
 11
-401.450706
 21
150.385460
  0
LINE
  8
0
 62
7
  6
CONTINUOUS
 10
-401.450706
 20
150.385460
 11
-401.424336
 21
150.339806
  0
LINE
  8
0
 62
7
  6
CONTINUOUS
 10
-401.424336
 20
150.339806
 11
-401.386919
 21
150.301748
  0
LINE
  8
0
 62
7
  6
CONTINUOUS
 10
-401.386919
 20
150.301748
 11
-401.339294
 21
150.285706
  0
LINE
  8
0
 62
7
  6
CONTINUOUS
 10
-400.517853
 20
151.000000
 11
-400.469271
 21
150.983291
  0
LINE
  8
0
 62
7
  6
CONTINUOUS
 10
-400.469271
 20
150.983291
 11
-400.433241
 21
150.946492
  0
LINE
  8
0
 62
7
  6
CONTINUOUS
 10
-400.433241
 20
150.946492
 11
-400.406863
 21
150.901144
  0
LINE
  8
0
 62
7
  6
CONTINUOUS
 10
-400.406863
 20
150.901144
 11
-400.387689
 21
150.852322
  0
LINE
  8
0
 62
7
  6
CONTINUOUS
 10
-400.387689
 20
150.852322
 11
-400.374085
 21
150.802452
  0
LINE
  8
0
 62
7
  6
CONTINUOUS
 10
-400.374085
 20
150.802452
 11
-400.364562
 21
150.750088
  0
LINE
  8
0
 62
7
  6
CONTINUOUS
 10
-400.364562
 20
150.750088
 11
-400.358995
 21
150.696857
  0
LINE
  8
0
 62
7
  6
CONTINUOUS
 10
-400.358995
 20
150.696857
 11
-400.357147
 21
150.642853
  0
LINE
  8
0
 62
7
  6
CONTINUOUS
 10
-400.357147
 20
150.642853
 11
-400.358886
 21
150.590449
  0
LINE
  8
0
 62
7
  6
CONTINUOUS
 10
-400.358886
 20
150.590449
 11
-400.364213
 21
150.538112
  0
LINE
  8
0
 62
7
  6
CONTINUOUS
 10
-400.364213
 20
150.538112
 11
-400.373469
 21
150.486027
  0
LINE
  8
0
 62
7
  6
CONTINUOUS
 10
-400.373469
 20
150.486027
 11
-400.387304
 21
150.434571
  0
LINE
  8
0
 62
7
  6
CONTINUOUS
 10
-400.387304
 20
150.434571
 11
-400.406441
 21
150.385460
  0
LINE
  8
0
 62
7
  6
CONTINUOUS
 10
-400.406441
 20
150.385460
 11
-400.432812
 21
150.339806
  0
LINE
  8
0
 62
7
  6
CONTINUOUS
 10
-400.432812
 20
150.339806
 11
-400.470228
 21
150.301748
  0
LINE
  8
0
 62
7
  6
CONTINUOUS
 10
-400.470228
 20
150.301748
 11
-400.517853
 21
150.285706
  0
LINE
  8
0
 62
7
  6
CONTINUOUS
 10
-399.895094
 20
159.929308
 11
-399.875526
 21
159.822378
  0
LINE
  8
0
 62
7
  6
CONTINUOUS
 10
-399.875526
 20
159.822378
 11
-399.863054
 21
159.714379
  0
LINE
  8
0
 62
7
  6
CONTINUOUS
 10
-399.863054
 20
159.714379
 11
-399.857476
 21
159.605222
  0
LINE
  8
0
 62
7
  6
CONTINUOUS
 10
-399.857476
 20
159.605222
 11
-399.858759
 21
159.496641
  0
LINE
  8
0
 62
7
  6
CONTINUOUS
 10
-399.858759
 20
159.496641
 11
-399.866853
 21
159.388456
  0
LINE
  8
0
 62
7
  6
CONTINUOUS
 10
-399.866853
 20
159.388456
 11
-399.881893
 21
159.280941
  0
LINE
  8
0
 62
7
  6
CONTINUOUS
 10
-399.881893
 20
159.280941
 11
-399.904145
 21
159.174555
  0
LINE
  8
0
 62
7
  6
CONTINUOUS
 10
-399.904145
 20
159.174555
 11
-399.934006
 21
159.069879
  0
LINE
  8
0
 62
7
  6
CONTINUOUS
 10
-399.934006
 20
159.069879
 11
-399.972028
 21
158.967688
  0
LINE
  8
0
 62
7
  6
CONTINUOUS
 10
-399.972028
 20
158.967688
 11
-400.018918
 21
158.869052
  0
LINE
  8
0
 62
7
  6
CONTINUOUS
 10
-400.018918
 20
158.869052
 11
-400.075545
 21
158.775505
  0
LINE
  8
0
 62
7
  6
CONTINUOUS
 10
-400.075545
 20
158.775505
 11
-400.142871
 21
158.689274
  0
LINE
  8
0
 62
7
  6
CONTINUOUS
 10
-400.142871
 20
158.689274
 11
-400.221762
 21
158.613611
  0
LINE
  8
0
 62
7
  6
CONTINUOUS
 10
-400.221762
 20
158.613611
 11
-400.312470
 21
158.553080
  0
LINE
  8
0
 62
7
  6
CONTINUOUS
 10
-400.312470
 20
158.553080
 11
-400.413656
 21
158.513407
  0
LINE
  8
0
 62
7
  6
CONTINUOUS
 10
-400.413656
 20
158.513407
 11
-400.520878
 21
158.500011
  0
LINE
  8
0
 62
7
  6
CONTINUOUS
 10
-399.803558
 20
158.500000
 11
-399.636821
 21
158.534678
  0
LINE
  8
0
 62
7
  6
CONTINUOUS
 10
-399.636821
 20
158.534678
 11
-399.492019
 21
158.626585
  0
LINE
  8
0
 62
7
  6
CONTINUOUS
 10
-399.492019
 20
158.626585
 11
-399.376533
 21
158.753851
  0
LINE
  8
0
 62
7
  6
CONTINUOUS
 10
-399.376533
 20
158.753851
 11
-399.288069
 21
158.901228
  0
LINE
  8
0
 62
7
  6
CONTINUOUS
 10
-399.288069
 20
158.901228
 11
-399.222747
 21
159.060697
  0
LINE
  8
0
 62
7
  6
CONTINUOUS
 10
-399.222747
 20
159.060697
 11
-399.177899
 21
159.227106
  0
LINE
  8
0
 62
7
  6
CONTINUOUS
 10
-399.177899
 20
159.227106
 11
-399.151616
 21
159.397502
  0
LINE
  8
0
 62
7
  6
CONTINUOUS
 10
-399.151616
 20
159.397502
 11
-399.142853
 21
159.571426
  0
LINE
  8
0
 62
7
  6
CONTINUOUS
 10
-399.142853
 20
159.571426
 11
-399.151386
 21
159.743072
  0
LINE
  8
0
 62
7
  6
CONTINUOUS
 10
-399.151386
 20
159.743072
 11
-399.177376
 21
159.913237
  0
LINE
  8
0
 62
7
  6
CONTINUOUS
 10
-399.177376
 20
159.913237
 11
-399.222050
 21
160.080067
  0
LINE
  8
0
 62
7
  6
CONTINUOUS
 10
-399.222050
 20
160.080067
 11
-399.287101
 21
160.239663
  0
LINE
  8
0
 62
7
  6
CONTINUOUS
 10
-399.287101
 20
160.239663
 11
-399.375498
 21
160.387577
  0
LINE
  8
0
 62
7
  6
CONTINUOUS
 10
-399.375498
 20
160.387577
 11
-399.490942
 21
160.515333
  0
LINE
  8
0
 62
7
  6
CONTINUOUS
 10
-399.490942
 20
160.515333
 11
-399.636619
 21
160.608089
  0
LINE
  8
0
 62
7
  6
CONTINUOUS
 10
-399.636619
 20
160.608089
 11
-399.803558
 21
160.642853
  0
LINE
  8
0
 62
7
  6
CONTINUOUS
 10
-400.517853
 20
159.214279
 11
-400.469271
 21
159.230988
  0
LINE
  8
0
 62
7
  6
CONTINUOUS
 10
-400.469271
 20
159.230988
 11
-400.433241
 21
159.267787
  0
LINE
  8
0
 62
7
  6
CONTINUOUS
 10
-400.433241
 20
159.267787
 11
-400.406863
 21
159.313135
  0
LINE
  8
0
 62
7
  6
CONTINUOUS
 10
-400.406863
 20
159.313135
 11
-400.387689
 21
159.361957
  0
LINE
  8
0
 62
7
  6
CONTINUOUS
 10
-400.387689
 20
159.361957
 11
-400.374085
 21
159.411827
  0
LINE
  8
0
 62
7
  6
CONTINUOUS
 10
-400.374085
 20
159.411827
 11
-400.364562
 21
159.464191
  0
LINE
  8
0
 62
7
  6
CONTINUOUS
 10
-400.364562
 20
159.464191
 11
-400.358995
 21
159.517422
  0
LINE
  8
0
 62
7
  6
CONTINUOUS
 10
-400.358995
 20
159.517422
 11
-400.357147
 21
159.571426
  0
LINE
  8
0
 62
7
  6
CONTINUOUS
 10
-400.357147
 20
159.571426
 11
-400.358886
 21
159.623830
  0
LINE
  8
0
 62
7
  6
CONTINUOUS
 10
-400.358886
 20
159.623830
 11
-400.364213
 21
159.676167
  0
LINE
  8
0
 62
7
  6
CONTINUOUS
 10
-400.364213
 20
159.676167
 11
-400.373469
 21
159.728252
  0
LINE
  8
0
 62
7
  6
CONTINUOUS
 10
-400.373469
 20
159.728252
 11
-400.387304
 21
159.779708
  0
LINE
  8
0
 62
7
  6
CONTINUOUS
 10
-400.387304
 20
159.779708
 11
-400.406441
 21
159.828819
  0
LINE
  8
0
 62
7
  6
CONTINUOUS
 10
-400.406441
 20
159.828819
 11
-400.432812
 21
159.874473
  0
LINE
  8
0
 62
7
  6
CONTINUOUS
 10
-400.432812
 20
159.874473
 11
-400.470228
 21
159.912532
  0
LINE
  8
0
 62
7
  6
CONTINUOUS
 10
-400.470228
 20
159.912532
 11
-400.517853
 21
159.928574
  0
LINE
  8
0
 62
7
  6
CONTINUOUS
 10
-399.803558
 20
159.928574
 11
-399.754976
 21
159.911864
  0
LINE
  8
0
 62
7
  6
CONTINUOUS
 10
-399.754976
 20
159.911864
 11
-399.718947
 21
159.875066
  0
LINE
  8
0
 62
7
  6
CONTINUOUS
 10
-399.718947
 20
159.875066
 11
-399.692569
 21
159.829718
  0
LINE
  8
0
 62
7
  6
CONTINUOUS
 10
-399.692569
 20
159.829718
 11
-399.673395
 21
159.780896
  0
LINE
  8
0
 62
7
  6
CONTINUOUS
 10
-399.673395
 20
159.780896
 11
-399.659791
 21
159.731026
  0
LINE
  8
0
 62
7
  6
CONTINUOUS
 10
-399.659791
 20
159.731026
 11
-399.650268
 21
159.678662
  0
LINE
  8
0
 62
7
  6
CONTINUOUS
 10
-399.650268
 20
159.678662
 11
-399.644701
 21
159.625431
  0
LINE
  8
0
 62
7
  6
CONTINUOUS
 10
-399.644701
 20
159.625431
 11
-399.642853
 21
159.571426
  0
LINE
  8
0
 62
7
  6
CONTINUOUS
 10
-399.642853
 20
159.571426
 11
-399.644592
 21
159.519023
  0
LINE
  8
0
 62
7
  6
CONTINUOUS
 10
-399.644592
 20
159.519023
 11
-399.649919
 21
159.466686
  0
LINE
  8
0
 62
7
  6
CONTINUOUS
 10
-399.649919
 20
159.466686
 11
-399.659174
 21
159.414600
  0
LINE
  8
0
 62
7
  6
CONTINUOUS
 10
-399.659174
 20
159.414600
 11
-399.673009
 21
159.363145
  0
LINE
  8
0
 62
7
  6
CONTINUOUS
 10
-399.673009
 20
159.363145
 11
-399.692147
 21
159.314034
  0
LINE
  8
0
 62
7
  6
CONTINUOUS
 10
-399.692147
 20
159.314034
 11
-399.718517
 21
159.268380
  0
LINE
  8
0
 62
7
  6
CONTINUOUS
 10
-399.718517
 20
159.268380
 11
-399.755934
 21
159.230321
  0
LINE
  8
0
 62
7
  6
CONTINUOUS
 10
-399.755934
 20
159.230321
 11
-399.803558
 21
159.214279
  0
LINE
  8
0
 62
7
  6
CONTINUOUS
 10
-401.339294
 20
153.857132
 11
-401.506032
 21
153.891811
  0
LINE
  8
0
 62
7
  6
CONTINUOUS
 10
-401.506032
 20
153.891811
 11
-401.650835
 21
153.983717
  0
LINE
  8
0
 62
7
  6
CONTINUOUS
 10
-401.650835
 20
153.983717
 11
-401.766321
 21
154.110984
  0
LINE
  8
0
 62
7
  6
CONTINUOUS
 10
-401.766321
 20
154.110984
 11
-401.854785
 21
154.258362
  0
LINE
  8
0
 62
7
  6
CONTINUOUS
 10
-401.854785
 20
154.258362
 11
-401.920107
 21
154.417832
  0
LINE
  8
0
 62
7
  6
CONTINUOUS
 10
-401.920107
 20
154.417832
 11
-401.964954
 21
154.584242
  0
LINE
  8
0
 62
7
  6
CONTINUOUS
 10
-401.964954
 20
154.584242
 11
-401.991238
 21
154.754639
  0
LINE
  8
0
 62
7
  6
CONTINUOUS
 10
-401.991238
 20
154.754639
 11
-402.000000
 21
154.928558
  0
LINE
  8
0
 62
7
  6
CONTINUOUS
 10
-402.000000
 20
154.928558
 11
-401.991467
 21
155.100204
  0
LINE
  8
0
 62
7
  6
CONTINUOUS
 10
-401.991467
 20
155.100204
 11
-401.965476
 21
155.270371
  0
LINE
  8
0
 62
7
  6
CONTINUOUS
 10
-401.965476
 20
155.270371
 11
-401.920803
 21
155.437201
  0
LINE
  8
0
 62
7
  6
CONTINUOUS
 10
-401.920803
 20
155.437201
 11
-401.855753
 21
155.596798
  0
LINE
  8
0
 62
7
  6
CONTINUOUS
 10
-401.855753
 20
155.596798
 11
-401.767357
 21
155.744714
  0
LINE
  8
0
 62
7
  6
CONTINUOUS
 10
-401.767357
 20
155.744714
 11
-401.651915
 21
155.872473
  0
LINE
  8
0
 62
7
  6
CONTINUOUS
 10
-401.651915
 20
155.872473
 11
-401.506239
 21
155.965233
  0
LINE
  8
0
 62
7
  6
CONTINUOUS
 10
-401.506239
 20
155.965233
 11
-401.339294
 21
156.000000
  0
LINE
  8
0
 62
7
  6
CONTINUOUS
 10
-400.357147
 20
154.928574
 11
-400.364195
 21
154.823964
  0
LINE
  8
0
 62
7
  6
CONTINUOUS
 10
-400.364195
 20
154.823964
 11
-400.387028
 21
154.721148
  0
LINE
  8
0
 62
7
  6
CONTINUOUS
 10
-400.387028
 20
154.721148
 11
-400.432506
 21
154.625951
  0
LINE
  8
0
 62
7
  6
CONTINUOUS
 10
-400.432506
 20
154.625951
 11
-400.517853
 21
154.571426
  0
LINE
  8
0
 62
7
  6
CONTINUOUS
 10
-400.517853
 20
154.571426
 11
-400.602928
 21
154.625574
  0
LINE
  8
0
 62
7
  6
CONTINUOUS
 10
-400.602928
 20
154.625574
 11
-400.648175
 21
154.719591
  0
LINE
  8
0
 62
7
  6
CONTINUOUS
 10
-400.648175
 20
154.719591
 11
-400.671264
 21
154.822191
  0
LINE
  8
0
 62
7
  6
CONTINUOUS
 10
-400.671264
 20
154.822191
 11
-400.678558
 21
154.928574
  0
LINE
  8
0
 62
7
  6
CONTINUOUS
 10
-400.678558
 20
154.928574
 11
-400.671510
 21
155.033183
  0
LINE
  8
0
 62
7
  6
CONTINUOUS
 10
-400.671510
 20
155.033183
 11
-400.648676
 21
155.136000
  0
LINE
  8
0
 62
7
  6
CONTINUOUS
 10
-400.648676
 20
155.136000
 11
-400.603193
 21
155.231194
  0
LINE
  8
0
 62
7
  6
CONTINUOUS
 10
-400.603193
 20
155.231194
 11
-400.517853
 21
155.285706
  0
LINE
  8
0
 62
7
  6
CONTINUOUS
 10
-400.517853
 20
155.285706
 11
-400.432776
 21
155.231560
  0
LINE
  8
0
 62
7
  6
CONTINUOUS
 10
-400.432776
 20
155.231560
 11
-400.387529
 21
155.137544
  0
LINE
  8
0
 62
7
  6
CONTINUOUS
 10
-400.387529
 20
155.137544
 11
-400.364440
 21
155.034945
  0
LINE
  8
0
 62
7
  6
CONTINUOUS
 10
-400.364440
 20
155.034945
 11
-400.357147
 21
154.928574
  0
LINE
  8
0
 62
7
  6
CONTINUOUS
 10
-401.339294
 20
155.285706
 11
-401.387876
 21
155.268998
  0
LINE
  8
0
 62
7
  6
CONTINUOUS
 10
-401.387876
 20
155.268998
 11
-401.423907
 21
155.232201
  0
LINE
  8
0
 62
7
  6
CONTINUOUS
 10
-401.423907
 20
155.232201
 11
-401.450285
 21
155.186854
  0
LINE
  8
0
 62
7
  6
CONTINUOUS
 10
-401.450285
 20
155.186854
 11
-401.469459
 21
155.138034
  0
LINE
  8
0
 62
7
  6
CONTINUOUS
 10
-401.469459
 20
155.138034
 11
-401.483063
 21
155.088165
  0
LINE
  8
0
 62
7
  6
CONTINUOUS
 10
-401.483063
 20
155.088165
 11
-401.492586
 21
155.035803
  0
LINE
  8
0
 62
7
  6
CONTINUOUS
 10
-401.492586
 20
155.035803
 11
-401.498153
 21
154.982573
  0
LINE
  8
0
 62
7
  6
CONTINUOUS
 10
-401.498153
 20
154.982573
 11
-401.500000
 21
154.928574
  0
LINE
  8
0
 62
7
  6
CONTINUOUS
 10
-401.500000
 20
154.928574
 11
-401.498261
 21
154.876171
  0
LINE
  8
0
 62
7
  6
CONTINUOUS
 10
-401.498261
 20
154.876171
 11
-401.492934
 21
154.823835
  0
LINE
  8
0
 62
7
  6
CONTINUOUS
 10
-401.492934
 20
154.823835
 11
-401.483679
 21
154.771750
  0
LINE
  8
0
 62
7
  6
CONTINUOUS
 10
-401.483679
 20
154.771750
 11
-401.469844
 21
154.720295
  0
LINE
  8
0
 62
7
  6
CONTINUOUS
 10
-401.469844
 20
154.720295
 11
-401.450708
 21
154.671185
  0
LINE
  8
0
 62
7
  6
CONTINUOUS
 10
-401.450708
 20
154.671185
 11
-401.424338
 21
154.625531
  0
LINE
  8
0
 62
7
  6
CONTINUOUS
 10
-401.424338
 20
154.625531
 11
-401.386924
 21
154.587472
  0
LINE
  8
0
 62
7
  6
CONTINUOUS
 10
-401.386924
 20
154.587472
 11
-401.339294
 21
154.571426
  0
LINE
  8
0
 62
7
  6
CONTINUOUS
 10
-401.178558
 20
154.928574
 11
-401.170025
 21
154.756927
  0
LINE
  8
0
 62
7
  6
CONTINUOUS
 10
-401.170025
 20
154.756927
 11
-401.144035
 21
154.586760
  0
LINE
  8
0
 62
7
  6
CONTINUOUS
 10
-401.144035
 20
154.586760
 11
-401.099361
 21
154.419929
  0
LINE
  8
0
 62
7
  6
CONTINUOUS
 10
-401.099361
 20
154.419929
 11
-401.034310
 21
154.260331
  0
LINE
  8
0
 62
7
  6
CONTINUOUS
 10
-401.034310
 20
154.260331
 11
-400.945914
 21
154.112415
  0
LINE
  8
0
 62
7
  6
CONTINUOUS
 10
-400.945914
 20
154.112415
 11
-400.830470
 21
153.984656
  0
LINE
  8
0
 62
7
  6
CONTINUOUS
 10
-400.830470
 20
153.984656
 11
-400.684793
 21
153.891897
  0
LINE
  8
0
 62
7
  6
CONTINUOUS
 10
-400.684793
 20
153.891897
 11
-400.517853
 21
153.857132
  0
LINE
  8
0
 62
7
  6
CONTINUOUS
 10
-400.517853
 20
153.857132
 11
-400.351114
 21
153.891812
  0
LINE
  8
0
 62
7
  6
CONTINUOUS
 10
-400.351114
 20
153.891812
 11
-400.206312
 21
153.983721
  0
LINE
  8
0
 62
7
  6
CONTINUOUS
 10
-400.206312
 20
153.983721
 11
-400.090828
 21
154.110990
  0
LINE
  8
0
 62
7
  6
CONTINUOUS
 10
-400.090828
 20
154.110990
 11
-400.002363
 21
154.258369
  0
LINE
  8
0
 62
7
  6
CONTINUOUS
 10
-400.002363
 20
154.258369
 11
-399.937042
 21
154.417839
  0
LINE
  8
0
 62
7
  6
CONTINUOUS
 10
-399.937042
 20
154.417839
 11
-399.892194
 21
154.584250
  0
LINE
  8
0
 62
7
  6
CONTINUOUS
 10
-399.892194
 20
154.584250
 11
-399.865910
 21
154.754648
  0
LINE
  8
0
 62
7
  6
CONTINUOUS
 10
-399.865910
 20
154.754648
 11
-399.857147
 21
154.928574
  0
LINE
  8
0
 62
7
  6
CONTINUOUS
 10
-400.517853
 20
130.285706
 11
-400.411230
 21
130.299749
  0
LINE
  8
0
 62
7
  6
CONTINUOUS
 10
-400.411230
 20
130.299749
 11
-400.310862
 21
130.339643
  0
LINE
  8
0
 62
7
  6
CONTINUOUS
 10
-400.310862
 20
130.339643
 11
-400.221443
 21
130.399579
  0
LINE
  8
0
 62
7
  6
CONTINUOUS
 10
-400.221443
 20
130.399579
 11
-400.143309
 21
130.474497
  0
LINE
  8
0
 62
7
  6
CONTINUOUS
 10
-400.143309
 20
130.474497
 11
-400.076413
 21
130.559951
  0
LINE
  8
0
 62
7
  6
CONTINUOUS
 10
-400.076413
 20
130.559951
 11
-400.020135
 21
130.652500
  0
LINE
  8
0
 62
7
  6
CONTINUOUS
 10
-400.020135
 20
130.652500
 11
-399.973264
 21
130.750474
  0
LINE
  8
0
 62
7
  6
CONTINUOUS
 10
-399.973264
 20
130.750474
 11
-399.935167
 21
130.852061
  0
LINE
  8
0
 62
7
  6
CONTINUOUS
 10
-399.935167
 20
130.852061
 11
-399.905084
 21
130.956473
  0
LINE
  8
0
 62
7
  6
CONTINUOUS
 10
-399.905084
 20
130.956473
 11
-399.882570
 21
131.062791
  0
LINE
  8
0
 62
7
  6
CONTINUOUS
 10
-399.882570
 20
131.062791
 11
-399.867261
 21
131.170398
  0
LINE
  8
0
 62
7
  6
CONTINUOUS
 10
-399.867261
 20
131.170398
 11
-399.858917
 21
131.278768
  0
LINE
  8
0
 62
7
  6
CONTINUOUS
 10
-399.858917
 20
131.278768
 11
-399.857411
 21
131.387413
  0
LINE
  8
0
 62
7
  6
CONTINUOUS
 10
-399.857411
 20
131.387413
 11
-399.862698
 21
131.495736
  0
LINE
  8
0
 62
7
  6
CONTINUOUS
 10
-399.862698
 20
131.495736
 11
-399.874857
 21
131.603554
  0
LINE
  8
0
 62
7
  6
CONTINUOUS
 10
-399.874857
 20
131.603554
 11
-399.894099
 21
131.710443
  0
LINE
  8
0
 62
7
  6
CONTINUOUS
 10
-400.517853
 20
131.714279
 11
-400.469271
 21
131.697571
  0
LINE
  8
0
 62
7
  6
CONTINUOUS
 10
-400.469271
 20
131.697571
 11
-400.433240
 21
131.660775
  0
LINE
  8
0
 62
7
  6
CONTINUOUS
 10
-400.433240
 20
131.660775
 11
-400.406862
 21
131.615428
  0
LINE
  8
0
 62
7
  6
CONTINUOUS
 10
-400.406862
 20
131.615428
 11
-400.387688
 21
131.566607
  0
LINE
  8
0
 62
7
  6
CONTINUOUS
 10
-400.387688
 20
131.566607
 11
-400.374084
 21
131.516738
  0
LINE
  8
0
 62
7
  6
CONTINUOUS
 10
-400.374084
 20
131.516738
 11
-400.364561
 21
131.464376
  0
LINE
  8
0
 62
7
  6
CONTINUOUS
 10
-400.364561
 20
131.464376
 11
-400.358995
 21
131.411146
  0
LINE
  8
0
 62
7
  6
CONTINUOUS
 10
-400.358995
 20
131.411146
 11
-400.357147
 21
131.357147
  0
LINE
  8
0
 62
7
  6
CONTINUOUS
 10
-400.357147
 20
131.357147
 11
-400.358886
 21
131.304745
  0
LINE
  8
0
 62
7
  6
CONTINUOUS
 10
-400.358886
 20
131.304745
 11
-400.364213
 21
131.252408
  0
LINE
  8
0
 62
7
  6
CONTINUOUS
 10
-400.364213
 20
131.252408
 11
-400.373468
 21
131.200324
  0
LINE
  8
0
 62
7
  6
CONTINUOUS
 10
-400.373468
 20
131.200324
 11
-400.387303
 21
131.148869
  0
LINE
  8
0
 62
7
  6
CONTINUOUS
 10
-400.387303
 20
131.148869
 11
-400.406440
 21
131.099758
  0
LINE
  8
0
 62
7
  6
CONTINUOUS
 10
-400.406440
 20
131.099758
 11
-400.432809
 21
131.054105
  0
LINE
  8
0
 62
7
  6
CONTINUOUS
 10
-400.432809
 20
131.054105
 11
-400.470224
 21
131.016045
  0
LINE
  8
0
 62
7
  6
CONTINUOUS
 10
-400.470224
 20
131.016045
 11
-400.517853
 21
131.000000
  0
LINE
  8
0
 62
7
  6
CONTINUOUS
 10
-401.962053
 20
133.142118
 11
-401.981622
 21
133.249048
  0
LINE
  8
0
 62
7
  6
CONTINUOUS
 10
-401.981622
 20
133.249048
 11
-401.994093
 21
133.357047
  0
LINE
  8
0
 62
7
  6
CONTINUOUS
 10
-401.994093
 20
133.357047
 11
-401.999671
 21
133.466205
  0
LINE
  8
0
 62
7
  6
CONTINUOUS
 10
-401.999671
 20
133.466205
 11
-401.998389
 21
133.574786
  0
LINE
  8
0
 62
7
  6
CONTINUOUS
 10
-401.998389
 20
133.574786
 11
-401.990295
 21
133.682971
  0
LINE
  8
0
 62
7
  6
CONTINUOUS
 10
-401.990295
 20
133.682971
 11
-401.975254
 21
133.790485
  0
LINE
  8
0
 62
7
  6
CONTINUOUS
 10
-401.975254
 20
133.790485
 11
-401.953003
 21
133.896871
  0
LINE
  8
0
 62
7
  6
CONTINUOUS
 10
-401.953003
 20
133.896871
 11
-401.923141
 21
134.001547
  0
LINE
  8
0
 62
7
  6
CONTINUOUS
 10
-401.923141
 20
134.001547
 11
-401.885120
 21
134.103739
  0
LINE
  8
0
 62
7
  6
CONTINUOUS
 10
-401.885120
 20
134.103739
 11
-401.838229
 21
134.202374
  0
LINE
  8
0
 62
7
  6
CONTINUOUS
 10
-401.838229
 20
134.202374
 11
-401.781603
 21
134.295922
  0
LINE
  8
0
 62
7
  6
CONTINUOUS
 10
-401.781603
 20
134.295922
 11
-401.714276
 21
134.382152
  0
LINE
  8
0
 62
7
  6
CONTINUOUS
 10
-401.714276
 20
134.382152
 11
-401.635386
 21
134.457816
  0
LINE
  8
0
 62
7
  6
CONTINUOUS
 10
-401.635386
 20
134.457816
 11
-401.544677
 21
134.518347
  0
LINE
  8
0
 62
7
  6
CONTINUOUS
 10
-401.544677
 20
134.518347
 11
-401.443492
 21
134.558019
  0
LINE
  8
0
 62
7
  6
CONTINUOUS
 10
-401.443492
 20
134.558019
 11
-401.336270
 21
134.571415
  0
LINE
  8
0
 62
7
  6
CONTINUOUS
 10
-401.339294
 20
133.857147
 11
-401.387876
 21
133.840438
  0
LINE
  8
0
 62
7
  6
CONTINUOUS
 10
-401.387876
 20
133.840438
 11
-401.423906
 21
133.803639
  0
LINE
  8
0
 62
7
  6
CONTINUOUS
 10
-401.423906
 20
133.803639
 11
-401.450284
 21
133.758291
  0
LINE
  8
0
 62
7
  6
CONTINUOUS
 10
-401.450284
 20
133.758291
 11
-401.469458
 21
133.709470
  0
LINE
  8
0
 62
7
  6
CONTINUOUS
 10
-401.469458
 20
133.709470
 11
-401.483062
 21
133.659599
  0
LINE
  8
0
 62
7
  6
CONTINUOUS
 10
-401.483062
 20
133.659599
 11
-401.492585
 21
133.607236
  0
LINE
  8
0
 62
7
  6
CONTINUOUS
 10
-401.492585
 20
133.607236
 11
-401.498152
 21
133.554005
  0
LINE
  8
0
 62
7
  6
CONTINUOUS
 10
-401.498152
 20
133.554005
 11
-401.500000
 21
133.500000
  0
LINE
  8
0
 62
7
  6
CONTINUOUS
 10
-401.500000
 20
133.500000
 11
-401.498261
 21
133.447597
  0
LINE
  8
0
 62
7
  6
CONTINUOUS
 10
-401.498261
 20
133.447597
 11
-401.492934
 21
133.395260
  0
LINE
  8
0
 62
7
  6
CONTINUOUS
 10
-401.492934
 20
133.395260
 11
-401.483679
 21
133.343174
  0
LINE
  8
0
 62
7
  6
CONTINUOUS
 10
-401.483679
 20
133.343174
 11
-401.469843
 21
133.291718
  0
LINE
  8
0
 62
7
  6
CONTINUOUS
 10
-401.469843
 20
133.291718
 11
-401.450706
 21
133.242607
  0
LINE
  8
0
 62
7
  6
CONTINUOUS
 10
-401.450706
 20
133.242607
 11
-401.424336
 21
133.196953
  0
LINE
  8
0
 62
7
  6
CONTINUOUS
 10
-401.424336
 20
133.196953
 11
-401.386919
 21
133.158895
  0
LINE
  8
0
 62
7
  6
CONTINUOUS
 10
-401.386919
 20
133.158895
 11
-401.339294
 21
133.142853
  0
LINE
  8
0
 62
7
  6
CONTINUOUS
 10
-401.339294
 20
118.857140
 11
-401.407826
 21
118.823041
  0
LINE
  8
0
 62
7
  6
CONTINUOUS
 10
-401.407826
 20
118.823041
 11
-401.450713
 21
118.757374
  0
LINE
  8
0
 62
7
  6
CONTINUOUS
 10
-401.450713
 20
118.757374
 11
-401.477262
 21
118.683143
  0
LINE
  8
0
 62
7
  6
CONTINUOUS
 10
-401.477262
 20
118.683143
 11
-401.492860
 21
118.605278
  0
LINE
  8
0
 62
7
  6
CONTINUOUS
 10
-401.492860
 20
118.605278
 11
-401.499579
 21
118.525850
  0
LINE
  8
0
 62
7
  6
CONTINUOUS
 10
-401.499579
 20
118.525850
 11
-401.498228
 21
118.447113
  0
LINE
  8
0
 62
7
  6
CONTINUOUS
 10
-401.498228
 20
118.447113
 11
-401.488732
 21
118.368620
  0
LINE
  8
0
 62
7
  6
CONTINUOUS
 10
-401.488732
 20
118.368620
 11
-401.469895
 21
118.291883
  0
LINE
  8
0
 62
7
  6
CONTINUOUS
 10
-401.469895
 20
118.291883
 11
-401.438612
 21
118.219223
  0
LINE
  8
0
 62
7
  6
CONTINUOUS
 10
-401.438612
 20
118.219223
 11
-401.387527
 21
118.159324
  0
LINE
  8
0
 62
7
  6
CONTINUOUS
 10
-401.387527
 20
118.159324
 11
-401.313051
 21
118.147654
  0
LINE
  8
0
 62
7
  6
CONTINUOUS
 10
-401.313051
 20
118.147654
 11
-401.253790
 21
118.197591
  0
LINE
  8
0
 62
7
  6
CONTINUOUS
 10
-401.253790
 20
118.197591
 11
-401.217646
 21
118.266576
  0
LINE
  8
0
 62
7
  6
CONTINUOUS
 10
-401.217646
 20
118.266576
 11
-401.195093
 21
118.342238
  0
LINE
  8
0
 62
7
  6
CONTINUOUS
 10
-401.195093
 20
118.342238
 11
-401.182521
 21
118.421193
  0
LINE
  8
0
 62
7
  6
CONTINUOUS
 10
-401.182521
 20
118.421193
 11
-401.178558
 21
118.500000
  0
LINE
  8
0
 62
7
  6
CONTINUOUS
 10
-400.678317
 20
118.480441
 11
-400.676249
 21
118.560332
  0
LINE
  8
0
 62
7
  6
CONTINUOUS
 10
-400.676249
 20
118.560332
 11
-400.665692
 21
118.640027
  0
LINE
  8
0
 62
7
  6
CONTINUOUS
 10
-400.665692
 20
118.640027
 11
-400.645274
 21
118.717635
  0
LINE
  8
0
 62
7
  6
CONTINUOUS
 10
-400.645274
 20
118.717635
 11
-400.611357
 21
118.790468
  0
LINE
  8
0
 62
7
  6
CONTINUOUS
 10
-400.611357
 20
118.790468
 11
-400.555468
 21
118.847219
  0
LINE
  8
0
 62
7
  6
CONTINUOUS
 10
-400.555468
 20
118.847219
 11
-400.479224
 21
118.846669
  0
LINE
  8
0
 62
7
  6
CONTINUOUS
 10
-400.479224
 20
118.846669
 11
-400.423993
 21
118.789901
  0
LINE
  8
0
 62
7
  6
CONTINUOUS
 10
-400.423993
 20
118.789901
 11
-400.390478
 21
118.717768
  0
LINE
  8
0
 62
7
  6
CONTINUOUS
 10
-400.390478
 20
118.717768
 11
-400.370050
 21
118.640218
  0
LINE
  8
0
 62
7
  6
CONTINUOUS
 10
-400.370050
 20
118.640218
 11
-400.359485
 21
118.560696
  0
LINE
  8
0
 62
7
  6
CONTINUOUS
 10
-400.359485
 20
118.560696
 11
-400.357386
 21
118.480545
  0
LINE
  8
0
 62
7
  6
CONTINUOUS
 10
-400.357386
 20
118.480545
 11
-400.363467
 21
118.400824
  0
LINE
  8
0
 62
7
  6
CONTINUOUS
 10
-400.363467
 20
118.400824
 11
-400.378699
 21
118.321344
  0
LINE
  8
0
 62
7
  6
CONTINUOUS
 10
-400.378699
 20
118.321344
 11
-400.405101
 21
118.245511
  0
LINE
  8
0
 62
7
  6
CONTINUOUS
 10
-400.405101
 20
118.245511
 11
-400.448402
 21
118.177930
  0
LINE
  8
0
 62
7
  6
CONTINUOUS
 10
-400.448402
 20
118.177930
 11
-400.517853
 21
118.142860
  0
LINE
  8
0
 62
7
  6
CONTINUOUS
 10
-400.678675
 20
118.520147
 11
-400.695086
 21
118.261859
  0
LINE
  8
0
 62
7
  6
CONTINUOUS
 10
-400.695086
 20
118.261859
 11
-400.752285
 21
118.008184
  0
LINE
  8
0
 62
7
  6
CONTINUOUS
 10
-400.752285
 20
118.008184
 11
-400.855616
 21
117.770074
  0
LINE
  8
0
 62
7
  6
CONTINUOUS
 10
-400.855616
 20
117.770074
 11
-401.015493
 21
117.566055
  0
LINE
  8
0
 62
7
  6
CONTINUOUS
 10
-401.015493
 20
117.566055
 11
-401.240257
 21
117.440678
  0
LINE
  8
0
 62
7
  6
CONTINUOUS
 10
-401.240257
 20
117.440678
 11
-401.494436
 21
117.458529
  0
LINE
  8
0
 62
7
  6
CONTINUOUS
 10
-401.494436
 20
117.458529
 11
-401.704700
 21
117.607343
  0
LINE
  8
0
 62
7
  6
CONTINUOUS
 10
-401.704700
 20
117.607343
 11
-401.850255
 21
117.820741
  0
LINE
  8
0
 62
7
  6
CONTINUOUS
 10
-401.850255
 20
117.820741
 11
-401.942459
 21
118.062682
  0
LINE
  8
0
 62
7
  6
CONTINUOUS
 10
-401.942459
 20
118.062682
 11
-401.990391
 21
118.317930
  0
LINE
  8
0
 62
7
  6
CONTINUOUS
 10
-401.990391
 20
118.317930
 11
-401.998274
 21
118.577387
  0
LINE
  8
0
 62
7
  6
CONTINUOUS
 10
-401.998274
 20
118.577387
 11
-401.966976
 21
118.834500
  0
LINE
  8
0
 62
7
  6
CONTINUOUS
 10
-401.966976
 20
118.834500
 11
-401.893437
 21
119.083474
  0
LINE
  8
0
 62
7
  6
CONTINUOUS
 10
-401.893437
 20
119.083474
 11
-401.770383
 21
119.311949
  0
LINE
  8
0
 62
7
  6
CONTINUOUS
 10
-401.770383
 20
119.311949
 11
-401.586264
 21
119.493761
  0
LINE
  8
0
 62
7
  6
CONTINUOUS
 10
-401.586264
 20
119.493761
 11
-401.341702
 21
119.571419
  0
LINE
  8
0
 62
7
  6
CONTINUOUS
 10
-400.517853
 20
117.428574
 11
-400.274909
 21
117.503633
  0
LINE
  8
0
 62
7
  6
CONTINUOUS
 10
-400.274909
 20
117.503633
 11
-400.090719
 21
117.682574
  0
LINE
  8
0
 62
7
  6
CONTINUOUS
 10
-400.090719
 20
117.682574
 11
-399.966832
 21
117.908803
  0
LINE
  8
0
 62
7
  6
CONTINUOUS
 10
-399.966832
 20
117.908803
 11
-399.892114
 21
118.156062
  0
LINE
  8
0
 62
7
  6
CONTINUOUS
 10
-399.892114
 20
118.156062
 11
-399.859356
 21
118.412466
  0
LINE
  8
0
 62
7
  6
CONTINUOUS
 10
-399.859356
 20
118.412466
 11
-399.865548
 21
118.670313
  0
LINE
  8
0
 62
7
  6
CONTINUOUS
 10
-399.865548
 20
118.670313
 11
-399.911225
 21
118.924535
  0
LINE
  8
0
 62
7
  6
CONTINUOUS
 10
-399.911225
 20
118.924535
 11
-400.000723
 21
119.166867
  0
LINE
  8
0
 62
7
  6
CONTINUOUS
 10
-400.000723
 20
119.166867
 11
-400.142973
 21
119.382266
  0
LINE
  8
0
 62
7
  6
CONTINUOUS
 10
-400.142973
 20
119.382266
 11
-400.348893
 21
119.535801
  0
LINE
  8
0
 62
7
  6
CONTINUOUS
 10
-400.348893
 20
119.535801
 11
-400.601348
 21
119.562837
  0
LINE
  8
0
 62
7
  6
CONTINUOUS
 10
-400.601348
 20
119.562837
 11
-400.828398
 21
119.445703
  0
LINE
  8
0
 62
7
  6
CONTINUOUS
 10
-400.828398
 20
119.445703
 11
-400.991706
 21
119.246654
  0
LINE
  8
0
 62
7
  6
CONTINUOUS
 10
-400.991706
 20
119.246654
 11
-401.098400
 21
119.011520
  0
LINE
  8
0
 62
7
  6
CONTINUOUS
 10
-401.098400
 20
119.011520
 11
-401.158765
 21
118.760289
  0
LINE
  8
0
 62
7
  6
CONTINUOUS
 10
-401.158765
 20
118.760289
 11
-401.178557
 21
118.502521
  0
LINE
  8
0
 62
7
  6
CONTINUOUS
 10
-400.517853
 20
141.000000
 11
-400.469271
 21
140.983291
  0
LINE
  8
0
 62
7
  6
CONTINUOUS
 10
-400.469271
 20
140.983291
 11
-400.433241
 21
140.946492
  0
LINE
  8
0
 62
7
  6
CONTINUOUS
 10
-400.433241
 20
140.946492
 11
-400.406863
 21
140.901144
  0
LINE
  8
0
 62
7
  6
CONTINUOUS
 10
-400.406863
 20
140.901144
 11
-400.387689
 21
140.852322
  0
LINE
  8
0
 62
7
  6
CONTINUOUS
 10
-400.387689
 20
140.852322
 11
-400.374085
 21
140.802452
  0
LINE
  8
0
 62
7
  6
CONTINUOUS
 10
-400.374085
 20
140.802452
 11
-400.364562
 21
140.750088
  0
LINE
  8
0
 62
7
  6
CONTINUOUS
 10
-400.364562
 20
140.750088
 11
-400.358995
 21
140.696857
  0
LINE
  8
0
 62
7
  6
CONTINUOUS
 10
-400.358995
 20
140.696857
 11
-400.357147
 21
140.642853
  0
LINE
  8
0
 62
7
  6
CONTINUOUS
 10
-400.357147
 20
140.642853
 11
-400.358886
 21
140.590449
  0
LINE
  8
0
 62
7
  6
CONTINUOUS
 10
-400.358886
 20
140.590449
 11
-400.364213
 21
140.538112
  0
LINE
  8
0
 62
7
  6
CONTINUOUS
 10
-400.364213
 20
140.538112
 11
-400.373469
 21
140.486027
  0
LINE
  8
0
 62
7
  6
CONTINUOUS
 10
-400.373469
 20
140.486027
 11
-400.387304
 21
140.434571
  0
LINE
  8
0
 62
7
  6
CONTINUOUS
 10
-400.387304
 20
140.434571
 11
-400.406441
 21
140.385460
  0
LINE
  8
0
 62
7
  6
CONTINUOUS
 10
-400.406441
 20
140.385460
 11
-400.432812
 21
140.339806
  0
LINE
  8
0
 62
7
  6
CONTINUOUS
 10
-400.432812
 20
140.339806
 11
-400.470228
 21
140.301748
  0
LINE
  8
0
 62
7
  6
CONTINUOUS
 10
-400.470228
 20
140.301748
 11
-400.517853
 21
140.285706
  0
LINE
  8
0
 62
7
  6
CONTINUOUS
 10
-400.517853
 20
139.571426
 11
-400.411231
 21
139.585469
  0
LINE
  8
0
 62
7
  6
CONTINUOUS
 10
-400.411231
 20
139.585469
 11
-400.310863
 21
139.625362
  0
LINE
  8
0
 62
7
  6
CONTINUOUS
 10
-400.310863
 20
139.625362
 11
-400.221443
 21
139.685296
  0
LINE
  8
0
 62
7
  6
CONTINUOUS
 10
-400.221443
 20
139.685296
 11
-400.143309
 21
139.760212
  0
LINE
  8
0
 62
7
  6
CONTINUOUS
 10
-400.143309
 20
139.760212
 11
-400.076412
 21
139.845666
  0
LINE
  8
0
 62
7
  6
CONTINUOUS
 10
-400.076412
 20
139.845666
 11
-400.020135
 21
139.938213
  0
LINE
  8
0
 62
7
  6
CONTINUOUS
 10
-400.020135
 20
139.938213
 11
-399.973264
 21
140.036186
  0
LINE
  8
0
 62
7
  6
CONTINUOUS
 10
-399.973264
 20
140.036186
 11
-399.935166
 21
140.137772
  0
LINE
  8
0
 62
7
  6
CONTINUOUS
 10
-399.935166
 20
140.137772
 11
-399.905084
 21
140.242183
  0
LINE
  8
0
 62
7
  6
CONTINUOUS
 10
-399.905084
 20
140.242183
 11
-399.882570
 21
140.348500
  0
LINE
  8
0
 62
7
  6
CONTINUOUS
 10
-399.882570
 20
140.348500
 11
-399.867260
 21
140.456107
  0
LINE
  8
0
 62
7
  6
CONTINUOUS
 10
-399.867260
 20
140.456107
 11
-399.858917
 21
140.564476
  0
LINE
  8
0
 62
7
  6
CONTINUOUS
 10
-399.858917
 20
140.564476
 11
-399.857411
 21
140.673121
  0
LINE
  8
0
 62
7
  6
CONTINUOUS
 10
-399.857411
 20
140.673121
 11
-399.862698
 21
140.781443
  0
LINE
  8
0
 62
7
  6
CONTINUOUS
 10
-399.862698
 20
140.781443
 11
-399.874857
 21
140.889259
  0
LINE
  8
0
 62
7
  6
CONTINUOUS
 10
-399.874857
 20
140.889259
 11
-399.894099
 21
140.996148
  0
LINE
  8
0
 62
7
  6
CONTINUOUS
 10
-401.962053
 20
143.142118
 11
-401.981622
 21
143.249048
  0
LINE
  8
0
 62
7
  6
CONTINUOUS
 10
-401.981622
 20
143.249048
 11
-401.994093
 21
143.357047
  0
LINE
  8
0
 62
7
  6
CONTINUOUS
 10
-401.994093
 20
143.357047
 11
-401.999671
 21
143.466205
  0
LINE
  8
0
 62
7
  6
CONTINUOUS
 10
-401.999671
 20
143.466205
 11
-401.998389
 21
143.574786
  0
LINE
  8
0
 62
7
  6
CONTINUOUS
 10
-401.998389
 20
143.574786
 11
-401.990295
 21
143.682971
  0
LINE
  8
0
 62
7
  6
CONTINUOUS
 10
-401.990295
 20
143.682971
 11
-401.975254
 21
143.790485
  0
LINE
  8
0
 62
7
  6
CONTINUOUS
 10
-401.975254
 20
143.790485
 11
-401.953003
 21
143.896871
  0
LINE
  8
0
 62
7
  6
CONTINUOUS
 10
-401.953003
 20
143.896871
 11
-401.923141
 21
144.001547
  0
LINE
  8
0
 62
7
  6
CONTINUOUS
 10
-401.923141
 20
144.001547
 11
-401.885120
 21
144.103739
  0
LINE
  8
0
 62
7
  6
CONTINUOUS
 10
-401.885120
 20
144.103739
 11
-401.838229
 21
144.202374
  0
LINE
  8
0
 62
7
  6
CONTINUOUS
 10
-401.838229
 20
144.202374
 11
-401.781603
 21
144.295922
  0
LINE
  8
0
 62
7
  6
CONTINUOUS
 10
-401.781603
 20
144.295922
 11
-401.714276
 21
144.382152
  0
LINE
  8
0
 62
7
  6
CONTINUOUS
 10
-401.714276
 20
144.382152
 11
-401.635386
 21
144.457816
  0
LINE
  8
0
 62
7
  6
CONTINUOUS
 10
-401.635386
 20
144.457816
 11
-401.544677
 21
144.518347
  0
LINE
  8
0
 62
7
  6
CONTINUOUS
 10
-401.544677
 20
144.518347
 11
-401.443492
 21
144.558019
  0
LINE
  8
0
 62
7
  6
CONTINUOUS
 10
-401.443492
 20
144.558019
 11
-401.336270
 21
144.571415
  0
LINE
  8
0
 62
7
  6
CONTINUOUS
 10
-399.895094
 20
143.142118
 11
-399.875526
 21
143.249048
  0
LINE
  8
0
 62
7
  6
CONTINUOUS
 10
-399.875526
 20
143.249048
 11
-399.863054
 21
143.357047
  0
LINE
  8
0
 62
7
  6
CONTINUOUS
 10
-399.863054
 20
143.357047
 11
-399.857476
 21
143.466205
  0
LINE
  8
0
 62
7
  6
CONTINUOUS
 10
-399.857476
 20
143.466205
 11
-399.858759
 21
143.574786
  0
LINE
  8
0
 62
7
  6
CONTINUOUS
 10
-399.858759
 20
143.574786
 11
-399.866853
 21
143.682971
  0
LINE
  8
0
 62
7
  6
CONTINUOUS
 10
-399.866853
 20
143.682971
 11
-399.881893
 21
143.790485
  0
LINE
  8
0
 62
7
  6
CONTINUOUS
 10
-399.881893
 20
143.790485
 11
-399.904145
 21
143.896871
  0
LINE
  8
0
 62
7
  6
CONTINUOUS
 10
-399.904145
 20
143.896871
 11
-399.934006
 21
144.001547
  0
LINE
  8
0
 62
7
  6
CONTINUOUS
 10
-399.934006
 20
144.001547
 11
-399.972028
 21
144.103739
  0
LINE
  8
0
 62
7
  6
CONTINUOUS
 10
-399.972028
 20
144.103739
 11
-400.018918
 21
144.202374
  0
LINE
  8
0
 62
7
  6
CONTINUOUS
 10
-400.018918
 20
144.202374
 11
-400.075545
 21
144.295922
  0
LINE
  8
0
 62
7
  6
CONTINUOUS
 10
-400.075545
 20
144.295922
 11
-400.142871
 21
144.382152
  0
LINE
  8
0
 62
7
  6
CONTINUOUS
 10
-400.142871
 20
144.382152
 11
-400.221762
 21
144.457816
  0
LINE
  8
0
 62
7
  6
CONTINUOUS
 10
-400.221762
 20
144.457816
 11
-400.312470
 21
144.518347
  0
LINE
  8
0
 62
7
  6
CONTINUOUS
 10
-400.312470
 20
144.518347
 11
-400.413656
 21
144.558019
  0
LINE
  8
0
 62
7
  6
CONTINUOUS
 10
-400.413656
 20
144.558019
 11
-400.520878
 21
144.571415
  0
LINE
  8
0
 62
7
  6
CONTINUOUS
 10
-401.339294
 20
143.857132
 11
-401.387876
 21
143.840424
  0
LINE
  8
0
 62
7
  6
CONTINUOUS
 10
-401.387876
 20
143.840424
 11
-401.423907
 21
143.803628
  0
LINE
  8
0
 62
7
  6
CONTINUOUS
 10
-401.423907
 20
143.803628
 11
-401.450285
 21
143.758281
  0
LINE
  8
0
 62
7
  6
CONTINUOUS
 10
-401.450285
 20
143.758281
 11
-401.469459
 21
143.709460
  0
LINE
  8
0
 62
7
  6
CONTINUOUS
 10
-401.469459
 20
143.709460
 11
-401.483063
 21
143.659591
  0
LINE
  8
0
 62
7
  6
CONTINUOUS
 10
-401.483063
 20
143.659591
 11
-401.492586
 21
143.607229
  0
LINE
  8
0
 62
7
  6
CONTINUOUS
 10
-401.492586
 20
143.607229
 11
-401.498153
 21
143.553999
  0
LINE
  8
0
 62
7
  6
CONTINUOUS
 10
-401.498153
 20
143.553999
 11
-401.500000
 21
143.500000
  0
LINE
  8
0
 62
7
  6
CONTINUOUS
 10
-401.500000
 20
143.500000
 11
-401.498261
 21
143.447598
  0
LINE
  8
0
 62
7
  6
CONTINUOUS
 10
-401.498261
 20
143.447598
 11
-401.492934
 21
143.395261
  0
LINE
  8
0
 62
7
  6
CONTINUOUS
 10
-401.492934
 20
143.395261
 11
-401.483679
 21
143.343176
  0
LINE
  8
0
 62
7
  6
CONTINUOUS
 10
-401.483679
 20
143.343176
 11
-401.469844
 21
143.291722
  0
LINE
  8
0
 62
7
  6
CONTINUOUS
 10
-401.469844
 20
143.291722
 11
-401.450708
 21
143.242611
  0
LINE
  8
0
 62
7
  6
CONTINUOUS
 10
-401.450708
 20
143.242611
 11
-401.424338
 21
143.196957
  0
LINE
  8
0
 62
7
  6
CONTINUOUS
 10
-401.424338
 20
143.196957
 11
-401.386924
 21
143.158898
  0
LINE
  8
0
 62
7
  6
CONTINUOUS
 10
-401.386924
 20
143.158898
 11
-401.339294
 21
143.142853
  0
LINE
  8
0
 62
7
  6
CONTINUOUS
 10
-400.517853
 20
143.857132
 11
-400.469271
 21
143.840424
  0
LINE
  8
0
 62
7
  6
CONTINUOUS
 10
-400.469271
 20
143.840424
 11
-400.433240
 21
143.803628
  0
LINE
  8
0
 62
7
  6
CONTINUOUS
 10
-400.433240
 20
143.803628
 11
-400.406862
 21
143.758281
  0
LINE
  8
0
 62
7
  6
CONTINUOUS
 10
-400.406862
 20
143.758281
 11
-400.387688
 21
143.709460
  0
LINE
  8
0
 62
7
  6
CONTINUOUS
 10
-400.387688
 20
143.709460
 11
-400.374084
 21
143.659591
  0
LINE
  8
0
 62
7
  6
CONTINUOUS
 10
-400.374084
 20
143.659591
 11
-400.364561
 21
143.607229
  0
LINE
  8
0
 62
7
  6
CONTINUOUS
 10
-400.364561
 20
143.607229
 11
-400.358995
 21
143.553999
  0
LINE
  8
0
 62
7
  6
CONTINUOUS
 10
-400.358995
 20
143.553999
 11
-400.357147
 21
143.500000
  0
LINE
  8
0
 62
7
  6
CONTINUOUS
 10
-400.357147
 20
143.500000
 11
-400.358886
 21
143.447598
  0
LINE
  8
0
 62
7
  6
CONTINUOUS
 10
-400.358886
 20
143.447598
 11
-400.364213
 21
143.395261
  0
LINE
  8
0
 62
7
  6
CONTINUOUS
 10
-400.364213
 20
143.395261
 11
-400.373468
 21
143.343176
  0
LINE
  8
0
 62
7
  6
CONTINUOUS
 10
-400.373468
 20
143.343176
 11
-400.387303
 21
143.291722
  0
LINE
  8
0
 62
7
  6
CONTINUOUS
 10
-400.387303
 20
143.291722
 11
-400.406440
 21
143.242611
  0
LINE
  8
0
 62
7
  6
CONTINUOUS
 10
-400.406440
 20
143.242611
 11
-400.432809
 21
143.196957
  0
LINE
  8
0
 62
7
  6
CONTINUOUS
 10
-400.432809
 20
143.196957
 11
-400.470224
 21
143.158898
  0
LINE
  8
0
 62
7
  6
CONTINUOUS
 10
-400.470224
 20
143.158898
 11
-400.517853
 21
143.142853
  0
LINE
  8
0
 62
7
  6
CONTINUOUS
 10
-402.053558
 20
126.714287
 11
-402.220298
 21
126.748965
  0
LINE
  8
0
 62
7
  6
CONTINUOUS
 10
-402.220298
 20
126.748965
 11
-402.365104
 21
126.840871
  0
LINE
  8
0
 62
7
  6
CONTINUOUS
 10
-402.365104
 20
126.840871
 11
-402.480595
 21
126.968135
  0
LINE
  8
0
 62
7
  6
CONTINUOUS
 10
-402.480595
 20
126.968135
 11
-402.569065
 21
127.115512
  0
LINE
  8
0
 62
7
  6
CONTINUOUS
 10
-402.569065
 20
127.115512
 11
-402.634392
 21
127.274981
  0
LINE
  8
0
 62
7
  6
CONTINUOUS
 10
-402.634392
 20
127.274981
 11
-402.679244
 21
127.441391
  0
LINE
  8
0
 62
7
  6
CONTINUOUS
 10
-402.679244
 20
127.441391
 11
-402.705531
 21
127.611790
  0
LINE
  8
0
 62
7
  6
CONTINUOUS
 10
-402.705531
 20
127.611790
 11
-402.714294
 21
127.785713
  0
LINE
  8
0
 62
7
  6
CONTINUOUS
 10
-402.714294
 20
127.785713
 11
-402.705760
 21
127.957361
  0
LINE
  8
0
 62
7
  6
CONTINUOUS
 10
-402.705760
 20
127.957361
 11
-402.679767
 21
128.127528
  0
LINE
  8
0
 62
7
  6
CONTINUOUS
 10
-402.679767
 20
128.127528
 11
-402.635089
 21
128.294359
  0
LINE
  8
0
 62
7
  6
CONTINUOUS
 10
-402.635089
 20
128.294359
 11
-402.570033
 21
128.453956
  0
LINE
  8
0
 62
7
  6
CONTINUOUS
 10
-402.570033
 20
128.453956
 11
-402.481631
 21
128.601869
  0
LINE
  8
0
 62
7
  6
CONTINUOUS
 10
-402.481631
 20
128.601869
 11
-402.366182
 21
128.729625
  0
LINE
  8
0
 62
7
  6
CONTINUOUS
 10
-402.366182
 20
128.729625
 11
-402.220503
 21
128.822382
  0
LINE
  8
0
 62
7
  6
CONTINUOUS
 10
-402.220503
 20
128.822382
 11
-402.053558
 21
128.857147
  0
LINE
  8
0
 62
7
  6
CONTINUOUS
 10
-400.517853
 20
126.714287
 11
-400.351115
 21
126.748965
  0
LINE
  8
0
 62
7
  6
CONTINUOUS
 10
-400.351115
 20
126.748965
 11
-400.206313
 21
126.840872
  0
LINE
  8
0
 62
7
  6
CONTINUOUS
 10
-400.206313
 20
126.840872
 11
-400.090827
 21
126.968138
  0
LINE
  8
0
 62
7
  6
CONTINUOUS
 10
-400.090827
 20
126.968138
 11
-400.002363
 21
127.115516
  0
LINE
  8
0
 62
7
  6
CONTINUOUS
 10
-400.002363
 20
127.115516
 11
-399.937041
 21
127.274985
  0
LINE
  8
0
 62
7
  6
CONTINUOUS
 10
-399.937041
 20
127.274985
 11
-399.892193
 21
127.441395
  0
LINE
  8
0
 62
7
  6
CONTINUOUS
 10
-399.892193
 20
127.441395
 11
-399.865910
 21
127.611792
  0
LINE
  8
0
 62
7
  6
CONTINUOUS
 10
-399.865910
 20
127.611792
 11
-399.857147
 21
127.785713
  0
LINE
  8
0
 62
7
  6
CONTINUOUS
 10
-399.857147
 20
127.785713
 11
-399.865681
 21
127.957359
  0
LINE
  8
0
 62
7
  6
CONTINUOUS
 10
-399.865681
 20
127.957359
 11
-399.891671
 21
128.127525
  0
LINE
  8
0
 62
7
  6
CONTINUOUS
 10
-399.891671
 20
128.127525
 11
-399.936344
 21
128.294355
  0
LINE
  8
0
 62
7
  6
CONTINUOUS
 10
-399.936344
 20
128.294355
 11
-400.001395
 21
128.453952
  0
LINE
  8
0
 62
7
  6
CONTINUOUS
 10
-400.001395
 20
128.453952
 11
-400.089791
 21
128.601866
  0
LINE
  8
0
 62
7
  6
CONTINUOUS
 10
-400.089791
 20
128.601866
 11
-400.205235
 21
128.729624
  0
LINE
  8
0
 62
7
  6
CONTINUOUS
 10
-400.205235
 20
128.729624
 11
-400.350911
 21
128.822382
  0
LINE
  8
0
 62
7
  6
CONTINUOUS
 10
-400.350911
 20
128.822382
 11
-400.517853
 21
128.857147
  0
LINE
  8
0
 62
7
  6
CONTINUOUS
 10
-402.053558
 20
128.142853
 11
-402.102142
 21
128.126145
  0
LINE
  8
0
 62
7
  6
CONTINUOUS
 10
-402.102142
 20
128.126145
 11
-402.138177
 21
128.089350
  0
LINE
  8
0
 62
7
  6
CONTINUOUS
 10
-402.138177
 20
128.089350
 11
-402.164561
 21
128.044004
  0
LINE
  8
0
 62
7
  6
CONTINUOUS
 10
-402.164561
 20
128.044004
 11
-402.183741
 21
127.995184
  0
LINE
  8
0
 62
7
  6
CONTINUOUS
 10
-402.183741
 20
127.995184
 11
-402.197349
 21
127.945313
  0
LINE
  8
0
 62
7
  6
CONTINUOUS
 10
-402.197349
 20
127.945313
 11
-402.206876
 21
127.892950
  0
LINE
  8
0
 62
7
  6
CONTINUOUS
 10
-402.206876
 20
127.892950
 11
-402.212446
 21
127.839718
  0
LINE
  8
0
 62
7
  6
CONTINUOUS
 10
-402.212446
 20
127.839718
 11
-402.214294
 21
127.785713
  0
LINE
  8
0
 62
7
  6
CONTINUOUS
 10
-402.214294
 20
127.785713
 11
-402.212554
 21
127.733309
  0
LINE
  8
0
 62
7
  6
CONTINUOUS
 10
-402.212554
 20
127.733309
 11
-402.207225
 21
127.680971
  0
LINE
  8
0
 62
7
  6
CONTINUOUS
 10
-402.207225
 20
127.680971
 11
-402.197966
 21
127.628886
  0
LINE
  8
0
 62
7
  6
CONTINUOUS
 10
-402.197966
 20
127.628886
 11
-402.184126
 21
127.577430
  0
LINE
  8
0
 62
7
  6
CONTINUOUS
 10
-402.184126
 20
127.577430
 11
-402.164983
 21
127.528321
  0
LINE
  8
0
 62
7
  6
CONTINUOUS
 10
-402.164983
 20
127.528321
 11
-402.138606
 21
127.482669
  0
LINE
  8
0
 62
7
  6
CONTINUOUS
 10
-402.138606
 20
127.482669
 11
-402.101185
 21
127.444614
  0
LINE
  8
0
 62
7
  6
CONTINUOUS
 10
-402.101185
 20
127.444614
 11
-402.053558
 21
127.428574
  0
LINE
  8
0
 62
7
  6
CONTINUOUS
 10
-400.517853
 20
128.142853
 11
-400.469271
 21
128.126144
  0
LINE
  8
0
 62
7
  6
CONTINUOUS
 10
-400.469271
 20
128.126144
 11
-400.433241
 21
128.089347
  0
LINE
  8
0
 62
7
  6
CONTINUOUS
 10
-400.433241
 20
128.089347
 11
-400.406863
 21
128.044000
  0
LINE
  8
0
 62
7
  6
CONTINUOUS
 10
-400.406863
 20
128.044000
 11
-400.387689
 21
127.995180
  0
LINE
  8
0
 62
7
  6
CONTINUOUS
 10
-400.387689
 20
127.995180
 11
-400.374085
 21
127.945310
  0
LINE
  8
0
 62
7
  6
CONTINUOUS
 10
-400.374085
 20
127.945310
 11
-400.364562
 21
127.892948
  0
LINE
  8
0
 62
7
  6
CONTINUOUS
 10
-400.364562
 20
127.892948
 11
-400.358995
 21
127.839718
  0
LINE
  8
0
 62
7
  6
CONTINUOUS
 10
-400.358995
 20
127.839718
 11
-400.357147
 21
127.785713
  0
LINE
  8
0
 62
7
  6
CONTINUOUS
 10
-400.357147
 20
127.785713
 11
-400.358886
 21
127.733311
  0
LINE
  8
0
 62
7
  6
CONTINUOUS
 10
-400.358886
 20
127.733311
 11
-400.364213
 21
127.680974
  0
LINE
  8
0
 62
7
  6
CONTINUOUS
 10
-400.364213
 20
127.680974
 11
-400.373469
 21
127.628890
  0
LINE
  8
0
 62
7
  6
CONTINUOUS
 10
-400.373469
 20
127.628890
 11
-400.387304
 21
127.577435
  0
LINE
  8
0
 62
7
  6
CONTINUOUS
 10
-400.387304
 20
127.577435
 11
-400.406441
 21
127.528324
  0
LINE
  8
0
 62
7
  6
CONTINUOUS
 10
-400.406441
 20
127.528324
 11
-400.432812
 21
127.482672
  0
LINE
  8
0
 62
7
  6
CONTINUOUS
 10
-400.432812
 20
127.482672
 11
-400.470229
 21
127.444615
  0
LINE
  8
0
 62
7
  6
CONTINUOUS
 10
-400.470229
 20
127.444615
 11
-400.517853
 21
127.428574
  0
LINE
  8
0
 62
7
  6
CONTINUOUS
 10
-306.625007
 20
119.999996
 11
-306.830830
 21
119.964922
  0
LINE
  8
0
 62
7
  6
CONTINUOUS
 10
-306.830830
 20
119.964922
 11
-307.015887
 21
119.868338
  0
LINE
  8
0
 62
7
  6
CONTINUOUS
 10
-307.015887
 20
119.868338
 11
-307.170771
 21
119.727043
  0
LINE
  8
0
 62
7
  6
CONTINUOUS
 10
-307.170771
 20
119.727043
 11
-307.293323
 21
119.556825
  0
LINE
  8
0
 62
7
  6
CONTINUOUS
 10
-307.293323
 20
119.556825
 11
-307.385476
 21
119.368271
  0
LINE
  8
0
 62
7
  6
CONTINUOUS
 10
-307.385476
 20
119.368271
 11
-307.449581
 21
119.168203
  0
LINE
  8
0
 62
7
  6
CONTINUOUS
 10
-307.449581
 20
119.168203
 11
-307.487394
 21
118.961456
  0
LINE
  8
0
 62
7
  6
CONTINUOUS
 10
-307.487394
 20
118.961456
 11
-307.500006
 21
118.749992
  0
LINE
  8
0
 62
7
  6
CONTINUOUS
 10
-307.500006
 20
118.749992
 11
-307.487650
 21
118.540670
  0
LINE
  8
0
 62
7
  6
CONTINUOUS
 10
-307.487650
 20
118.540670
 11
-307.450179
 21
118.334200
  0
LINE
  8
0
 62
7
  6
CONTINUOUS
 10
-307.450179
 20
118.334200
 11
-307.386313
 21
118.133828
  0
LINE
  8
0
 62
7
  6
CONTINUOUS
 10
-307.386313
 20
118.133828
 11
-307.293978
 21
117.944278
  0
LINE
  8
0
 62
7
  6
CONTINUOUS
 10
-307.293978
 20
117.944278
 11
-307.171458
 21
117.773735
  0
LINE
  8
0
 62
7
  6
CONTINUOUS
 10
-307.171458
 20
117.773735
 11
-307.016577
 21
117.632151
  0
LINE
  8
0
 62
7
  6
CONTINUOUS
 10
-307.016577
 20
117.632151
 11
-306.830238
 21
117.534868
  0
LINE
  8
0
 62
7
  6
CONTINUOUS
 10
-306.830238
 20
117.534868
 11
-306.625000
 21
117.499996
  0
LINE
  8
0
 62
7
  6
CONTINUOUS
 10
-293.375003
 20
119.999992
 11
-293.169181
 21
119.964918
  0
LINE
  8
0
 62
7
  6
CONTINUOUS
 10
-293.169181
 20
119.964918
 11
-292.984125
 21
119.868335
  0
LINE
  8
0
 62
7
  6
CONTINUOUS
 10
-292.984125
 20
119.868335
 11
-292.829241
 21
119.727041
  0
LINE
  8
0
 62
7
  6
CONTINUOUS
 10
-292.829241
 20
119.727041
 11
-292.706691
 21
119.556822
  0
LINE
  8
0
 62
7
  6
CONTINUOUS
 10
-292.706691
 20
119.556822
 11
-292.614539
 21
119.368270
  0
LINE
  8
0
 62
7
  6
CONTINUOUS
 10
-292.614539
 20
119.368270
 11
-292.550435
 21
119.168201
  0
LINE
  8
0
 62
7
  6
CONTINUOUS
 10
-292.550435
 20
119.168201
 11
-292.512623
 21
118.961456
  0
LINE
  8
0
 62
7
  6
CONTINUOUS
 10
-292.512623
 20
118.961456
 11
-292.500012
 21
118.749994
  0
LINE
  8
0
 62
7
  6
CONTINUOUS
 10
-292.500012
 20
118.749994
 11
-292.512367
 21
118.540673
  0
LINE
  8
0
 62
7
  6
CONTINUOUS
 10
-292.512367
 20
118.540673
 11
-292.549838
 21
118.334204
  0
LINE
  8
0
 62
7
  6
CONTINUOUS
 10
-292.549838
 20
118.334204
 11
-292.613702
 21
118.133832
  0
LINE
  8
0
 62
7
  6
CONTINUOUS
 10
-292.613702
 20
118.133832
 11
-292.706036
 21
117.944282
  0
LINE
  8
0
 62
7
  6
CONTINUOUS
 10
-292.706036
 20
117.944282
 11
-292.828555
 21
117.773738
  0
LINE
  8
0
 62
7
  6
CONTINUOUS
 10
-292.828555
 20
117.773738
 11
-292.983434
 21
117.632154
  0
LINE
  8
0
 62
7
  6
CONTINUOUS
 10
-292.983434
 20
117.632154
 11
-293.169772
 21
117.534871
  0
LINE
  8
0
 62
7
  6
CONTINUOUS
 10
-293.169772
 20
117.534871
 11
-293.375012
 21
117.499998
  0
TEXT
  8
0
 62
7
  6
CONTINUOUS
 10
-308.685730
 20
51.685284
 40
3.200000
 50
0.000000
  1
PF1/2
  0
TEXT
  8
0
 62
7
  6
CONTINUOUS
 10
-260.079407
 20
96.614288
 40
3.200000
 50
89.900078
  1
43
  0
TEXT
  8
0
 62
7
  6
CONTINUOUS
 10
-269.209961
 20
80.114288
 40
3.200000
 50
89.900078
  1
10
  0
TEXT
  8
0
 62
7
  6
CONTINUOUS
 10
-305.485718
 20
139.499756
 40
3.200000
 50
0.000000
  1
{15
  0
TEXT
  8
0
 62
7
  6
CONTINUOUS
 10
-287.286
 20
12.76
 40
3.2
 50
0
  1
 松 本
  0
TEXT
  8
0
 62
7
  6
CONTINUOUS
 10
-269.286
 20
12.76
 40
3.2
 50
0
  1
 1/1
  0
TEXT
  8
0
 62
7
  6
CONTINUOUS
 10
-252.929
 20
13.6
 40
2
 50
0
  1
93･10･16
  0
TEXT
  8
0
 62
7
  6
CONTINUOUS
 10
-121.786
 20
12.76
 40
3.2
 50
0
  1
28 635
  0
TEXT
  8
0
 62
7
  6
CONTINUOUS
 10
-234.929
 20
21.1
 40
2
 50
0
  1
MATERIAL
  0
TEXT
  8
0
 62
7
  6
CONTINUOUS
 10
-288.929
 20
21.1
 40
2
 50
0
  1
DRAWN
  0
TEXT
  8
0
 62
7
  6
CONTINUOUS
 10
-306.929
 20
21.1
 40
2
 50
0
  1
APPROVED
  0
TEXT
  8
0
 62
7
  6
CONTINUOUS
 10
-215.286
 20
12.76
 40
3.2
 50
0
  1
 000 
  0
TEXT
  8
0
 62
7
  6
CONTINUOUS
 10
-270.929
 20
21.1
 40
2
 50
0
  1
SCALA
  0
TEXT
  8
0
 62
7
  6
CONTINUOUS
 10
-252.929
 20
21.1
 40
2
 50
0
  1
DETO
  0
TEXT
  8
0
 62
7
  6
CONTINUOUS
 10
-123.929
 20
21.1
 40
2
 50
0
  1
NUMBER
  0
TEXT
  8
0
 62
7
  6
CONTINUOUS
 10
-193.929
 20
21.1
 40
2
 50
0
  1
NAME
  0
TEXT
  8
0
 62
7
  6
CONTINUOUS
 10
-390.929
 20
21.1
 40
2
 50
0
  1
COMPAMY
  0
TEXT
  8
0
 62
7
  6
CONTINUOUS
 10
-107.286
 20
286.76
 40
3.2
 50
0
  1
 3RD ANGLE PROJECTION < MM >
  0
TEXT
  8
0
 62
7
  6
CONTINUOUS
 10
-404.85
 20
167.071
 40
2
 50
90.0001
  1
 Die Zeichnung ist unser Eigentum.
  0
TEXT
  8
0
 62
7
  6
CONTINUOUS
 10
-401.85
 20
167.071
 40
2
 50
90.0001
  1
 Jede Vervielfaltigung,Verwertung oder Mitteilung an dritte.
  0
TEXT
  8
0
 62
7
  6
CONTINUOUS
 10
-398.85
 20
167.071
 40
2
 50
90.0001
  1
 Personen ist stratbar und wird gerichtlich verfolgt.
  0
TEXT
  8
0
 62
7
  6
CONTINUOUS
 10
-216.929
 20
21.1
 40
2
 50
0
  1
REVISIONS
  0
TEXT
  8
0
 62
7
  6
CONTINUOUS
 10
-184.286
 20
19.76
 40
3.2
 50
0
  1
ﾘﾗｸｻ 1994
  0
TEXT
  8
0
 62
7
  6
CONTINUOUS
 10
-184.286
 20
15.76
 40
3.2
 50
0
  1
 ﾊﾝﾄﾞ ｼｬﾜｰ ﾆｯﾌﾟﾙ
  0
TEXT
  8
0
 62
7
  6
CONTINUOUS
 10
-305.286
 20
12.76
 40
3.2
 50
0
  1
 青 木
  0
TEXT
  8
0
 62
7
  6
CONTINUOUS
 10
-68.9286
 20
21.1
 40
2
 50
0
  1
CODE
  0
TEXT
  8
0
 62
7
  6
CONTINUOUS
 10
-233.286
 20
12.76
 40
3.2
 50
0
  1
 別 紙 
  0
ENDSEC
  0
EOF
