  0
SECTION
  2
HEADER
  9
$ACADVER
  1
AC1015
  9
$ACADMAINTVER
 70
     6
  9
$DWGCODEPAGE
  3
ANSI_932
  9
$INSBASE
 10
0.0
 20
0.0
 30
0.0
  9
$EXTMIN
 10
23.283333
 20
25.752778
 30
1.000000E+20
  9
$EXTMAX
 10
198.966667
 20
276.930556
 30
-1.000000E+20
  9
$LIMMIN
 10
23.283333
 20
25.752778
  9
$LIMMAX
 10
198.966667
 20
276.930556
  9
$ORTHOMODE
 70
     0
  9
$REGENMODE
 70
     1
  9
$FILLMODE
 70
     1
  9
$QTEXTMODE
 70
     0
  9
$MIRRTEXT
 70
     1
  9
$LTSCALE
 40
1.0
  9
$ATTMODE
 70
     1
  9
$TEXTSIZE
 40
0.2
  9
$TRACEWID
 40
0.05
  9
$TEXTSTYLE
  7
Standard
  9
$CLAYER
  8
0
  9
$CELTYPE
  6
Continuous
  9
$CECOLOR
 62
   256
  9
$CELTSCALE
 40
1.0
  9
$DISPSILH
 70
     0
  9
$DIMSCALE
 40
1.0
  9
$DIMASZ
 40
0.18
  9
$DIMEXO
 40
0.0625
  9
$DIMDLI
 40
0.38
  9
$DIMRND
 40
0.0
  9
$DIMDLE
 40
0.0
  9
$DIMEXE
 40
0.18
  9
$DIMTP
 40
0.0
  9
$DIMTM
 40
0.0
  9
$DIMTXT
 40
0.18
  9
$DIMCEN
 40
0.09
  9
$DIMTSZ
 40
0.0
  9
$DIMTOL
 70
     0
  9
$DIMLIM
 70
     0
  9
$DIMTIH
 70
     1
  9
$DIMTOH
 70
     1
  9
$DIMSE1
 70
     0
  9
$DIMSE2
 70
     0
  9
$DIMTAD
 70
     0
  9
$DIMZIN
 70
     0
  9
$DIMBLK
  1

  9
$DIMASO
 70
     1
  9
$DIMSHO
 70
     1
  9
$DIMPOST
  1

  9
$DIMAPOST
  1

  9
$DIMALT
 70
     0
  9
$DIMALTD
 70
     2
  9
$DIMALTF
 40
25.4
  9
$DIMLFAC
 40
1.0
  9
$DIMTOFL
 70
     0
  9
$DIMTVP
 40
0.0
  9
$DIMTIX
 70
     0
  9
$DIMSOXD
 70
     0
  9
$DIMSAH
 70
     0
  9
$DIMBLK1
  1

  9
$DIMBLK2
  1

  9
$DIMSTYLE
  2
Standard
  9
$DIMCLRD
 70
     0
  9
$DIMCLRE
 70
     0
  9
$DIMCLRT
 70
     0
  9
$DIMTFAC
 40
1.0
  9
$DIMGAP
 40
0.09
  9
$DIMJUST
 70
     0
  9
$DIMSD1
 70
     0
  9
$DIMSD2
 70
     0
  9
$DIMTOLJ
 70
     1
  9
$DIMTZIN
 70
     0
  9
$DIMALTZ
 70
     0
  9
$DIMALTTZ
 70
     0
  9
$DIMUPT
 70
     0
  9
$DIMDEC
 70
     4
  9
$DIMTDEC
 70
     4
  9
$DIMALTU
 70
     2
  9
$DIMALTTD
 70
     2
  9
$DIMTXSTY
  7
Standard
  9
$DIMAUNIT
 70
     0
  9
$DIMADEC
 70
     0
  9
$DIMALTRND
 40
0.0
  9
$DIMAZIN
 70
     0
  9
$DIMDSEP
 70
     0
  9
$DIMATFIT
 70
     3
  9
$DIMFRAC
 70
     0
  9
$DIMLDRBLK
  1

  9
$DIMLUNIT
 70
     2
  9
$DIMLWD
 70
     0
  9
$DIMLWE
 70
     0
  9
$DIMTMOVE
 70
     0
  9
$LUNITS
 70
     2
  9
$LUPREC
 70
     4
  9
$SKETCHINC
 40
0.1
  9
$FILLETRAD
 40
0.0
  9
$AUNITS
 70
     0
  9
$AUPREC
 70
     0
  9
$MENU
  1
acad
  9
$ELEVATION
 40
0.0
  9
$PELEVATION
 40
0.0
  9
$THICKNESS
 40
0.0
  9
$LIMCHECK
 70
     0
  9
$CHAMFERA
 40
0.0
  9
$CHAMFERB
 40
0.0
  9
$CHAMFERC
 40
0.0
  9
$CHAMFERD
 40
0.0
  9
$SKPOLY
 70
     0
  9
$TDCREATE
 40
0.000000000
  9
$TDUCREATE
 40
0.000000000
  9
$TDUPDATE
 40
0.000000000
  9
$TDUUPDATE
 40
0.000000000
  9
$TDINDWG
 40
0.0000000000
  9
$TDUSRTIMER
 40
0.0000000000
  9
$USRTIMER
 70
     1
  9
$ANGBASE
 50
0.0
  9
$ANGDIR
 70
     0
  9
$PDMODE
 70
     0
  9
$PDSIZE
 40
0.0
  9
$PLINEWID
 40
0.0
  9
$SPLFRAME
 70
     0
  9
$SPLINETYPE
 70
     6
  9
$SPLINESEGS
 70
     8
  9
$HANDSEED
  5
196
  9
$SURFTAB1
 70
     6
  9
$SURFTAB2
 70
     6
  9
$SURFTYPE
 70
     6
  9
$SURFU
 70
     6
  9
$SURFV
 70
     6
  9
$UCSBASE
  2

  9
$UCSNAME
  2

  9
$UCSORG
 10
0.0
 20
0.0
 30
0.0
  9
$UCSXDIR
 10
1.0
 20
0.0
 30
0.0
  9
$UCSYDIR
 10
0.0
 20
1.0
 30
0.0
  9
$UCSORTHOREF
  2

  9
$UCSORTHOVIEW
 70
     0
  9
$UCSORGTOP
 10
0.0
 20
0.0
 30
0.0
  9
$UCSORGBOTTOM
 10
0.0
 20
0.0
 30
0.0
  9
$UCSORGLEFT
 10
0.0
 20
0.0
 30
0.0
  9
$UCSORGRIGHT
 10
0.0
 20
0.0
 30
0.0
  9
$UCSORGFRONT
 10
0.0
 20
0.0
 30
0.0
  9
$UCSORGBACK
 10
0.0
 20
0.0
 30
0.0
  9
$PUCSBASE
  2

  9
$PUCSNAME
  2

  9
$PUCSORG
 10
0.0
 20
0.0
 30
0.0
  9
$PUCSXDIR
 10
1.0
 20
0.0
 30
0.0
  9
$PUCSYDIR
 10
0.0
 20
1.0
 30
0.0
  9
$PUCSORTHOREF
  2

  9
$PUCSORTHOVIEW
 70
     0
  9
$PUCSORGTOP
 10
0.0
 20
0.0
 30
0.0
  9
$PUCSORGBOTTOM
 10
0.0
 20
0.0
 30
0.0
  9
$PUCSORGLEFT
 10
0.0
 20
0.0
 30
0.0
  9
$PUCSORGRIGHT
 10
0.0
 20
0.0
 30
0.0
  9
$PUCSORGFRONT
 10
0.0
 20
0.0
 30
0.0
  9
$PUCSORGBACK
 10
0.0
 20
0.0
 30
0.0
  9
$USERI1
 70
     0
  9
$USERI2
 70
     0
  9
$USERI3
 70
     0
  9
$USERI4
 70
     0
  9
$USERI5
 70
     0
  9
$USERR1
 40
0.0
  9
$USERR2
 40
0.0
  9
$USERR3
 40
0.0
  9
$USERR4
 40
0.0
  9
$USERR5
 40
0.0
  9
$WORLDVIEW
 70
     1
  9
$SHADEDGE
 70
     3
  9
$SHADEDIF
 70
    70
  9
$TILEMODE
 70
     1
  9
$MAXACTVP
 70
    16
  9
$PINSBASE
 10
0.0
 20
0.0
 30
0.0
  9
$PLIMCHECK
 70
     0
  9
$PEXTMIN
 10
1.000000E+20
 20
1.000000E+20
 30
1.000000E+20
  9
$PEXTMAX
 10
-1.000000E+20
 20
-1.000000E+20
 30
-1.000000E+20
  9
$PLIMMIN
 10
0.0
 20
0.0
  9
$PLIMMAX
 10
12.0
 20
9.0
  9
$UNITMODE
 70
     0
  9
$VISRETAIN
 70
     0
  9
$PLINEGEN
 70
     1
  9
$PSLTSCALE
 70
     0
  9
$TREEDEPTH
 70
  3020
  9
$CMLSTYLE
  2
Standard
  9
$CMLJUST
 70
     0
  9
$CMLSCALE
 40
1.0
  9
$PROXYGRAPHICS
 70
     0
  9
$MEASUREMENT
 70
     1
  9
$CELWEIGHT
370
     0
  9
$ENDCAPS
280
     0
  9
$JOINSTYLE
280
     0
  9
$LWDISPLAY
290
     0
  9
$INSUNITS
 70
     0
  9
$HYPERLINKBASE
  1

  9
$STYLESHEET
  1

  9
$XEDIT
290
     1
  9
$CEPSNTYPE
380
     0
  9
$PSTYLEMODE
290
     1
  9
$FINGERPRINTGUID
  2

  9
$VERSIONGUID
  2

  9
$EXTNAMES
290
     1
  9
$PSVPSCALE
 40
0.0
  0
ENDSEC
  0
SECTION
  2
CLASSES
  0
CLASS
  1
LWPOLYLINE
  2
AcDbPolyline
  3
AutoCAD 2000
 90
    32768
280
     0
281
     1
  0
CLASS
  1
IMAGE
  2
AcDbRasterImage
  3
ISM
 90
      127
280
     0
281
     1
  0
CLASS
  1
OLE2FRAME
  2
AcDbOle2Frame
  3
AutoCAD 2000
 90
    32768
280
     0
281
     1
  0
CLASS
  1
HATCH
  2
AcDbHatch
  3
AutoCAD 2000
 90
        0
280
     0
281
     1
  0
CLASS
  1
DICTIONARYVAR
  2
AcDbDictionaryVar
  3
AutoCAD 2000
 90
    32768
280
     0
281
     0
  0
CLASS
  1
RASTERVARIABLES
  2
AcDbRasterVariables
  3
ISM
 90
    32768
280
     0
281
     0
  0
CLASS
  1
IMAGEDEF
  2
AcDbRasterImageDef
  3
ISM
 90
        0
280
     0
281
     0
  0
CLASS
  1
IMAGEDEF_REACTOR
  2
AcDbRasterImageDefReactor
  3
ISM
 90
        1
280
     0
281
     0
  0
CLASS
  1
IDBUFFER
  2
AcDbIdBuffer
  3
AutoCAD 2000
 90
    32768
280
     0
281
     0
  0
CLASS
  1
SPATIAL_FILTER
  2
AcDbSpatialFilter
  3
AutoCAD 2000
 90
    32768
280
     0
281
     0
  0
CLASS
  1
XRECORD
  2
AcDbXrecord
  3
AutoCAD 2000
 90
    32768
280
     0
281
     0
  0
CLASS
  1
SORTENTSTABLE
  2
AcDbSortentsTable
  3
AutoCAD 2000
 90
    32768
280
     0
281
     0
  0
CLASS
  1
LAYER_INDEX
  2
AcDbLayerIndex
  3
AutoCAD 2000
 90
    32768
280
     0
281
     0
  0
CLASS
  1
SPATIAL_INDEX
  2
AcDbSpatialIndex
  3
AutoCAD 2000
 90
    32768
280
     0
281
     0
  0
CLASS
  1
OBJECT_PTR
  2
CAseDLPNTableRecord
  3
"ASE-LPNTableRecord"
 90
    32769
280
     0
281
     0
  0
CLASS
  1
LAYOUT
  2
AcDbLayout
  3
AutoCAD 2000
 90
        0
280
     0
281
     0
  0
CLASS
  1
PLOTSETTINGS
  2
AcDbPlotSettings
  3
AutoCAD 2000
 90
    32768
280
     0
281
     0
  0
CLASS
  1
ACDBDICTIONARYWDFLT
  2
AcDbDictionaryWithDefault
  3
AutoCAD 2000
 90
        0
280
     0
281
     0
  0
CLASS
  1
ACDBPLACEHOLDER
  2
AcDbPlaceHolder
  3
AutoCAD 2000
 90
        0
280
     0
281
     0
  0
CLASS
  1
VBA_PROJECT
  2
AcDbVbaProject
  3
acadvba
 90
    32768
280
     0
281
     0
  0
CLASS
  1
WIPEOUT
  2
AcDbWipeout
  3
WipeOut|AutoCAD Express Tool|expresstools@autodesk.com
 90
    32895
280
     0
281
     1
  0
CLASS
  1
WIPEOUTVARIABLES
  2
AcDbWipeoutVariables
  3
WipeOut|AutoCAD Express Tool|expresstools@autodesk.com
 90
        0
280
     0
281
     0
  0
CLASS
  1
RTEXT
  2
RText
  3
RText|AutoCAD Express Tool|expresstools@autodesk.com
 90
    32768
280
     0
281
     1
  0
CLASS
  1
ARCALIGNEDTEXT
  2
AcDbArcAlignedText
  3
ATEXT|AutoCAD Express Tool|expresstools@autodesk.com
 90
    32768
280
     0
281
     1
  0
ENDSEC
  0
SECTION
  2
TABLES
  0
TABLE
  2
VPORT
  5
7
100
AcDbSymbolTable
 70
     1
  0
VPORT
  5
15
100
AcDbSymbolTableRecord
100
AcDbViewportTableRecord
  2
*ACTIVE
 70
     0
 10
0.0
 20
0.0
 11
1.0
 21
1.0
 12
6.591288
 22
4.579184
 13
0.0
 23
0.0
 14
1.0
 24
1.0
 15
0.0
 25
0.0
 16
0.0
 26
0.0
 36
1.0
 17
0.0
 27
0.0
 37
0.0
 40
9.158369
 41
0.688564
 42
50.0
 43
0.0
 44
0.0
 50
0.0
 51
0.0
 71
     0
 72
   100
 73
     1
 74
     1
 75
     0
 76
     0
 77
     0
 78
     0
281
     0
 65
     0
110
0.0
120
0.0
130
0.0
111
1.0
121
0.0
131
0.0
112
0.0
122
1.0
132
0.0
345
0
346
0
 79
     0
146
0.0
  0
ENDTAB
  0
TABLE
  2
LTYPE
  5
4
100
AcDbSymbolTable
 70
     5
  0
LTYPE
  5
11
100
AcDbSymbolTableRecord
100
AcDbLinetypeTableRecord
  2
ByBlock
 70
    64
  3

 72
    65
 73
     0
 40
0.0
  0
LTYPE
  5
12
100
AcDbSymbolTableRecord
100
AcDbLinetypeTableRecord
  2
ByLayer
 70
    64
  3

 72
    65
 73
     0
 40
0.0
  0
LTYPE
  5
13
100
AcDbSymbolTableRecord
100
AcDbLinetypeTableRecord
  2
Continuous
 70
    64
  3
Solid line
 72
    65
 73
     0
 40
0.0
  0
LTYPE
  5
52
100
AcDbSymbolTableRecord
100
AcDbLinetypeTableRecord
  2
AI9-LType1
 70
    64
  3
Illustrator Dash Style No.1
 72
    65
 73
     4
 40
8.000295
 49
4.99992
 74
     0
 49
-1.000125
 74
     0
 49
1.000125
 74
     0
 49
-1.000125
 74
     0
  0
LTYPE
  5
83
100
AcDbSymbolTableRecord
100
AcDbLinetypeTableRecord
  2
AI9-LType2
 70
    64
  3
Illustrator Dash Style No.2
 72
    65
 73
     2
 40
2.00025
 49
1.000125
 74
     0
 49
-1.000125
 74
     0
  0
ENDTAB
  0
TABLE
  2
LAYER
  5
2
100
AcDbSymbolTable
 70
     3
  0
LAYER
  5
14
100
AcDbSymbolTableRecord
100
AcDbLayerTableRecord
  2
0
 70
     0
 62
     7
  6
Continuous
290
     1
370
    -3
390
1D
  0
LAYER
  5
28
100
AcDbSymbolTableRecord
100
AcDbLayerTableRecord
  2
レイヤー_2
 70
     0
 62
     1
  6
Continuous
290
     1
370
    -3
390
1D
  0
LAYER
  5
17A
100
AcDbSymbolTableRecord
100
AcDbLayerTableRecord
  2
レイヤー_1
 70
     4
 62
   160
  6
Continuous
290
     1
370
    -3
390
1D
  0
ENDTAB
  0
TABLE
  2
STYLE
  5
3
100
AcDbSymbolTable
 70
     5
  0
STYLE
  5
17
100
AcDbSymbolTableRecord
100
AcDbTextStyleTableRecord
  2
Standard
 70
     0
 40
0.0
 41
1.0
 50
0.0
 71
     0
 42
0.0
  3
txt
  4

  0
STYLE
  5
24
100
AcDbSymbolTableRecord
100
AcDbTextStyleTableRecord
  2
STD
 70
     0
 40
0.0
 41
1.0
 50
0.0
 71
     0
 42
0.0
  3
txt
  4

  0
STYLE
  5
25
100
AcDbSymbolTableRecord
100
AcDbTextStyleTableRecord
  2
TATESTD
 70
     4
 40
0.0
 41
1.0
 50
0.0
 71
     0
 42
0.0
  3
txt
  4

  0
STYLE
  5
26
100
AcDbSymbolTableRecord
100
AcDbTextStyleTableRecord
  2
KANJISTD
 70
     0
 40
0.0
 41
1.0
 50
0.0
 71
     0
 42
0.0
  3
txt
  4
extfont
  0
STYLE
  5
27
100
AcDbSymbolTableRecord
100
AcDbTextStyleTableRecord
  2
KANJITATE
 70
     4
 40
0.0
 41
1.0
 50
0.0
 71
     0
 42
0.0
  3
txt
  4
extfont
  0
ENDTAB
  0
TABLE
  2
VIEW
  5
5
100
AcDbSymbolTable
 70
     0
  0
ENDTAB
  0
TABLE
  2
UCS
  5
6
100
AcDbSymbolTable
 70
     0
  0
ENDTAB
  0
TABLE
  2
APPID
  5
8
100
AcDbSymbolTable
 70
     1
  0
APPID
  5
16
100
AcDbSymbolTableRecord
100
AcDbRegAppTableRecord
  2
ACAD
 70
     0
  0
ENDTAB
  0
TABLE
  2
DIMSTYLE
  5
9
100
AcDbSymbolTable
 70
     1
100
AcDbDimStyleTable
 71
     0
  0
DIMSTYLE
105
18
100
AcDbSymbolTableRecord
100
AcDbDimStyleTableRecord
  2
Standard
 70
     0
  3

  4

 40
1.0
 41
0.18
 42
0.0625
 43
0.38
 44
0.18
 45
0.0
 46
0.0
 47
0.0
 48
0.0
 71
     0
 72
     0
 73
     1
 74
     1
 75
     0
 76
     0
 77
     0
 78
     0
 79
     0
140
0.18
141
0.09
142
0.0
143
25.4
144
1.0
145
0.0
146
1.0
147
0.09
148
0.0
170
     0
171
     2
172
     0
173
     0
174
     0
175
     0
176
     0
177
     0
178
     0
179
     0
271
     4
272
     4
273
     2
274
     2
275
     0
276
     0
277
     2
278
    46
279
     0
280
     0
281
     0
282
     0
283
     1
284
     0
285
     0
286
     0
288
     0
340
17
341
0
342
0
343
0
344
0
371
    -2
372
    -2
  0
ENDTAB
  0
TABLE
  2
BLOCK_RECORD
  5
1
100
AcDbSymbolTable
 70
     2
  0
BLOCK_RECORD
  5
A
100
AcDbSymbolTableRecord
100
AcDbBlockTableRecord
  2
*MODEL_SPACE
340
20
  0
BLOCK_RECORD
  5
B
100
AcDbSymbolTableRecord
100
AcDbBlockTableRecord
  2
*PAPER_SPACE
340
21
  0
BLOCK_RECORD
  5
29
100
AcDbSymbolTableRecord
100
AcDbBlockTableRecord
  2
AI9-BLK1
340
0
102
{BLKREFS
331
2A
102
}
  0
BLOCK_RECORD
  5
E3
100
AcDbSymbolTableRecord
100
AcDbBlockTableRecord
  2
AI9-BLK2
340
0
102
{BLKREFS
331
E4
102
}
  0
ENDTAB
  0
ENDSEC
  0
SECTION
  2
BLOCKS
  0
BLOCK
  5
D
100
AcDbEntity
  8
0
100
AcDbBlockBegin
  2
*MODEL_SPACE
 70
     0
 10
0.0
 20
0.0
 30
0.0
  3
*MODEL_SPACE
  1

  0
ENDBLK
  5
E
100
AcDbEntity
  8
0
100
AcDbBlockEnd
  0
BLOCK
  5
F
100
AcDbEntity
 67
     1
  8
0
100
AcDbBlockBegin
  2
*PAPER_SPACE
 70
     0
 10
0.0
 20
0.0
 30
0.0
  3
*PAPER_SPACE
  1

  0
ENDBLK
  5
10
100
AcDbEntity
 67
     1
  8
0
100
AcDbBlockEnd
  0
BLOCK
  5
2B
100
AcDbEntity
  8
レイヤー_2
 62
     7
100
AcDbBlockBegin
  2
AI9-BLK1
 70
     0
 10
0.0
 20
0.0
 30
0.0
  3
AI9-BLK1
  1

  0
LINE
  5
E1
100
AcDbEntity
  8
レイヤー_2
 62
     7
100
AcDbLine
 10
-32.593187
 20
-12.31191
 30
0.0
 11
-21.364243
 21
-12.31191
 31
0.0
  0
LINE
  5
E0
100
AcDbEntity
  8
レイヤー_2
 62
     7
100
AcDbLine
 10
-21.364243
 20
-6.137093
 30
0.0
 11
-32.593187
 21
-6.137093
 31
0.0
  0
LINE
  5
DF
100
AcDbEntity
  8
レイヤー_2
 62
     7
100
AcDbLine
 10
-39.315602
 20
-7.533735
 30
0.0
 11
-39.47821
 21
-7.696343
 31
0.0
  0
LINE
  5
DE
100
AcDbEntity
  8
レイヤー_2
 62
     7
100
AcDbLine
 10
-39.47821
 20
-10.753004
 30
0.0
 11
-39.315602
 21
-10.915096
 31
0.0
  0
LINE
  5
DD
100
AcDbEntity
  8
レイヤー_2
 62
     7
100
AcDbLine
 10
-39.315602
 20
-10.915096
 30
0.0
 11
-36.829449
 21
-10.915096
 31
0.0
  0
LINE
  5
DC
100
AcDbEntity
  8
レイヤー_2
 62
     7
100
AcDbLine
 10
-39.315602
 20
-7.533735
 30
0.0
 11
-39.315602
 21
-10.915096
 31
0.0
  0
LINE
  5
DB
100
AcDbEntity
  8
レイヤー_2
 62
     7
100
AcDbLine
 10
-39.47821
 20
-9.224415
 30
0.0
 11
-39.47821
 21
-10.753004
 31
0.0
  0
LINE
  5
DA
100
AcDbEntity
  8
レイヤー_2
 62
     7
100
AcDbLine
 10
-39.47821
 20
-7.696343
 30
0.0
 11
-39.47821
 21
-9.224415
 31
0.0
  0
LINE
  5
D9
100
AcDbEntity
  8
レイヤー_2
 62
     7
100
AcDbLine
 10
-39.493197
 20
-10.590396
 30
0.0
 11
-36.829449
 21
-10.590396
 31
0.0
  0
LINE
  5
D8
100
AcDbEntity
  8
レイヤー_2
 62
     7
100
AcDbLine
 10
-36.829449
 20
-7.858435
 30
0.0
 11
-39.537811
 21
-7.858435
 31
0.0
  0
LINE
  5
D7
100
AcDbEntity
  8
レイヤー_2
 62
     7
100
AcDbLine
 10
-19.458416
 20
-8.13921
 30
0.0
 11
-20.926027
 21
-8.151785
 31
0.0
  0
LINE
  5
D6
100
AcDbEntity
  8
レイヤー_2
 62
     7
100
AcDbLine
 10
-20.926027
 20
-10.297046
 30
0.0
 11
-19.458416
 21
-10.30962
 31
0.0
  0
LINE
  5
D5
100
AcDbEntity
  8
レイヤー_2
 62
     7
100
AcDbLine
 10
-19.382279
 20
-3.658691
 30
0.0
 11
-19.382279
 21
-8.062385
 31
0.0
  0
LINE
  5
D4
100
AcDbEntity
  8
レイヤー_2
 62
     7
100
AcDbLine
 10
-17.269402
 20
-9.224415
 30
0.0
 11
-17.269402
 21
-3.658691
 31
0.0
  0
SPLINE
  5
D3
100
AcDbEntity
  8
レイヤー_2
 62
     7
100
AcDbSpline
210
0.0
220
0.0
230
1.0
 70
     8
 71
     3
 72
     8
 73
     4
 74
     0
 42
0.00000001
 43
0.00000001
 40
0.0
 40
0.0
 40
0.0
 40
0.0
 40
1.0
 40
1.0
 40
1.0
 40
1.0
 10
-17.269402398003471
 20
-3.6586914062499996
 30
0.0
 10
-17.269402398003471
 20
-3.5916842990451388
 30
0.0
 10
-17.32452392578125
 20
-3.5370795355902773
 30
0.0
 10
-17.392047797309026
 20
-3.5370795355902773
 30
0.0
  0
SPLINE
  5
D2
100
AcDbEntity
  8
レイヤー_2
 62
     7
100
AcDbSpline
210
0.0
220
0.0
230
1.0
 70
     8
 71
     3
 72
     8
 73
     4
 74
     0
 42
0.00000001
 43
0.00000001
 40
0.0
 40
0.0
 40
0.0
 40
0.0
 40
1.0
 40
1.0
 40
1.0
 40
1.0
 10
-19.260667588975693
 20
-3.5370795355902773
 30
0.0
 10
-19.327846950954861
 20
-3.5370795355902773
 30
0.0
 10
-19.382279459635416
 20
-3.5916842990451388
 30
0.0
 10
-19.382279459635416
 20
-3.6586914062499996
 30
0.0
  0
LINE
  5
D1
100
AcDbEntity
  8
レイヤー_2
 62
     7
100
AcDbLine
 10
-19.382279
 20
-10.386618
 30
0.0
 11
-19.382279
 21
-14.789967
 31
0.0
  0
LINE
  5
D0
100
AcDbEntity
  8
レイヤー_2
 62
     7
100
AcDbLine
 10
-17.269402
 20
-14.789967
 30
0.0
 11
-17.269402
 21
-9.224415
 31
0.0
  0
SPLINE
  5
CF
100
AcDbEntity
  8
レイヤー_2
 62
     7
100
AcDbSpline
210
0.0
220
0.0
230
1.0
 70
     8
 71
     3
 72
     8
 73
     4
 74
     0
 42
0.00000001
 43
0.00000001
 40
0.0
 40
0.0
 40
0.0
 40
0.0
 40
1.0
 40
1.0
 40
1.0
 40
1.0
 10
-19.382279459635416
 20
-14.789967176649304
 30
0.0
 10
-19.382279459635416
 20
-14.85714653862847
 30
0.0
 10
-19.327846950954861
 20
-14.911751302083331
 30
0.0
 10
-19.260667588975693
 20
-14.911751302083331
 30
0.0
  0
SPLINE
  5
CE
100
AcDbEntity
  8
レイヤー_2
 62
     7
100
AcDbSpline
210
0.0
220
0.0
230
1.0
 70
     8
 71
     3
 72
     8
 73
     4
 74
     0
 42
0.00000001
 43
0.00000001
 40
0.0
 40
0.0
 40
0.0
 40
0.0
 40
1.0
 40
1.0
 40
1.0
 40
1.0
 10
-17.392047797309026
 20
-14.911751302083331
 30
0.0
 10
-17.32452392578125
 20
-14.911751302083331
 30
0.0
 10
-17.269402398003471
 20
-14.85714653862847
 30
0.0
 10
-17.269402398003471
 20
-14.789967176649304
 30
0.0
  0
SPLINE
  5
CD
100
AcDbEntity
  8
レイヤー_2
 62
     7
100
AcDbSpline
210
0.0
220
0.0
230
1.0
 70
     8
 71
     3
 72
     8
 73
     4
 74
     0
 42
0.00000001
 43
0.00000001
 40
0.0
 40
0.0
 40
0.0
 40
0.0
 40
1.0
 40
1.0
 40
1.0
 40
1.0
 10
-19.459794108072916
 20
-8.1392103407118039
 30
0.0
 10
-19.417763943142358
 20
-8.1369710286458332
 30
0.0
 10
-19.384691026475693
 20
-8.1030368381076379
 30
0.0
 10
-19.382279459635416
 20
-8.0613511827256943
 30
0.0
  0
SPLINE
  5
CC
100
AcDbEntity
  8
レイヤー_2
 62
     7
100
AcDbSpline
210
0.0
220
0.0
230
1.0
 70
     8
 71
     3
 72
     8
 73
     4
 74
     0
 42
0.00000001
 43
0.00000001
 40
0.0
 40
0.0
 40
0.0
 40
0.0
 40
1.0
 40
1.0
 40
1.0
 40
1.0
 10
-19.382279459635416
 20
-10.387479654947915
 30
0.0
 10
-19.38400200737847
 20
-10.34544949001736
 30
0.0
 10
-19.417763943142358
 20
-10.312548828124999
 30
0.0
 10
-19.459105088975694
 20
-10.309620496961804
 30
0.0
  0
LINE
  5
CB
100
AcDbEntity
  8
レイヤー_2
 62
     7
100
AcDbLine
 10
-21.364243
 20
-11.215164
 30
0.0
 11
-20.926027
 21
-11.215164
 31
0.0
  0
LINE
  5
CA
100
AcDbEntity
  8
レイヤー_2
 62
     7
100
AcDbLine
 10
-20.926027
 20
-7.234184
 30
0.0
 11
-21.364243
 21
-7.234184
 31
0.0
  0
LINE
  5
C9
100
AcDbEntity
  8
レイヤー_2
 62
     7
100
AcDbLine
 10
-21.364243
 20
-12.31191
 30
0.0
 11
-21.364243
 21
-6.137093
 31
0.0
  0
SPLINE
  5
C8
100
AcDbEntity
  8
レイヤー_2
 62
     7
100
AcDbSpline
210
0.0
220
0.0
230
1.0
 70
     8
 71
     3
 72
    17
 73
    13
 74
     0
 42
0.00000001
 43
0.00000001
 40
0.0
 40
0.0
 40
0.0
 40
0.0
 40
1.0
 40
1.0
 40
1.0
 40
2.0
 40
2.0
 40
2.0
 40
3.0
 40
3.0
 40
3.0
 40
4.0
 40
4.0
 40
4.0
 40
4.0
 10
-17.269402398003471
 20
-9.2244154188368039
 30
0.0
 10
-17.269402398003471
 20
-8.6413330078124986
 30
0.0
 10
-17.742758517795139
 20
-8.1683213975694429
 30
0.0
 10
-18.325668674045136
 20
-8.1683213975694429
 30
0.0
 10
-18.909267849392361
 20
-8.1683213975694429
 30
0.0
 10
-19.382279459635416
 20
-8.6413330078124986
 30
0.0
 10
-19.382279459635416
 20
-9.2244154188368039
 30
0.0
 10
-19.382279459635416
 20
-9.8080145941840264
 30
0.0
 10
-18.909267849392361
 20
-10.280509440104165
 30
0.0
 10
-18.325668674045136
 20
-10.280509440104165
 30
0.0
 10
-17.742758517795139
 20
-10.280509440104165
 30
0.0
 10
-17.269402398003471
 20
-9.8080145941840264
 30
0.0
 10
-17.269402398003471
 20
-9.2244154188368039
 30
0.0
  0
LINE
  5
C7
100
AcDbEntity
  8
レイヤー_2
 62
     7
100
AcDbLine
 10
-19.260668
 20
-3.53708
 30
0.0
 11
-17.392048
 21
-3.53708
 31
0.0
  0
LINE
  5
C6
100
AcDbEntity
  8
レイヤー_2
 62
     7
100
AcDbLine
 10
-17.392048
 20
-14.911751
 30
0.0
 11
-19.260668
 21
-14.911751
 31
0.0
  0
LINE
  5
C5
100
AcDbEntity
  8
レイヤー_2
 62
     7
100
AcDbLine
 10
-20.926027
 20
-11.215164
 30
0.0
 11
-20.926027
 21
-7.234184
 31
0.0
  0
POLYLINE
  5
BE
100
AcDbEntity
  8
レイヤー_2
 62
     7
100
AcDb2dPolyline
 66
     1
 10
0.0
 20
0.0
 30
0.0
  0
VERTEX
  5
BF
100
AcDbEntity
  8
レイヤー_2
 62
     7
100
AcDbVertex
100
AcDb2dVertex
 10
-19.458416
 20
-10.306003
 30
0.0
  0
VERTEX
  5
C0
100
AcDbEntity
  8
レイヤー_2
 62
     7
100
AcDbVertex
100
AcDb2dVertex
 10
-19.46255
 20
-10.309104
 30
0.0
  0
VERTEX
  5
C1
100
AcDbEntity
  8
レイヤー_2
 62
     7
100
AcDbVertex
100
AcDb2dVertex
 10
-19.421898
 20
-10.273275
 30
0.0
  0
VERTEX
  5
C2
100
AcDbEntity
  8
レイヤー_2
 62
     7
100
AcDbVertex
100
AcDb2dVertex
 10
-19.326813
 20
-10.188181
 30
0.0
  0
VERTEX
  5
C3
100
AcDbEntity
  8
レイヤー_2
 62
     7
100
AcDbVertex
100
AcDb2dVertex
 10
-19.106327
 20
-9.99405
 30
0.0
  0
SEQEND
  5
C4
100
AcDbEntity
  8
レイヤー_2
 62
     7
  0
POLYLINE
  5
B8
100
AcDbEntity
  8
レイヤー_2
 62
     7
100
AcDb2dPolyline
 66
     1
 10
0.0
 20
0.0
 30
0.0
  0
VERTEX
  5
B9
100
AcDbEntity
  8
レイヤー_2
 62
     7
100
AcDbVertex
100
AcDb2dVertex
 10
-19.106327
 20
-8.454781
 30
0.0
  0
VERTEX
  5
BA
100
AcDbEntity
  8
レイヤー_2
 62
     7
100
AcDbVertex
100
AcDb2dVertex
 10
-19.319234
 20
-8.267712
 30
0.0
  0
VERTEX
  5
BB
100
AcDbEntity
  8
レイヤー_2
 62
     7
100
AcDbVertex
100
AcDb2dVertex
 10
-19.428099
 20
-8.170561
 30
0.0
  0
VERTEX
  5
BC
100
AcDbEntity
  8
レイヤー_2
 62
     7
100
AcDbVertex
100
AcDb2dVertex
 10
-19.458416
 20
-8.143
 30
0.0
  0
SEQEND
  5
BD
100
AcDbEntity
  8
レイヤー_2
 62
     7
  0
SPLINE
  5
B7
100
AcDbEntity
  8
レイヤー_2
 62
     7
100
AcDbSpline
210
0.0
220
0.0
230
1.0
 70
     8
 71
     3
 72
     8
 73
     4
 74
     0
 42
0.00000001
 43
0.00000001
 40
0.0
 40
0.0
 40
0.0
 40
0.0
 40
1.0
 40
1.0
 40
1.0
 40
1.0
 10
-25.572427029079858
 20
-6.1370930989583332
 30
0.0
 10
-26.352741156684026
 20
-5.8430541992187495
 30
0.0
 10
-27.175774468315971
 20
-5.8645860460069441
 30
0.0
 10
-27.894765896267359
 20
-6.1370930989583332
 30
0.0
  0
LINE
  5
B6
100
AcDbEntity
  8
レイヤー_2
 62
     7
100
AcDbLine
 10
-28.789802
 20
-13.038825
 30
0.0
 11
-28.789802
 21
-12.31191
 31
0.0
  0
LINE
  5
B5
100
AcDbEntity
  8
レイヤー_2
 62
     7
100
AcDbLine
 10
-24.694272
 20
-13.038825
 30
0.0
 11
-24.694272
 21
-12.31191
 31
0.0
  0
LINE
  5
B4
100
AcDbEntity
  8
レイヤー_2
 62
     7
100
AcDbLine
 10
-28.789113
 20
-13.038825
 30
0.0
 11
-24.694272
 21
-13.038825
 31
0.0
  0
SPLINE
  5
B3
100
AcDbEntity
  8
レイヤー_2
 62
     7
100
AcDbSpline
210
0.0
220
0.0
230
1.0
 70
     8
 71
     3
 72
    11
 73
     7
 74
     0
 42
0.00000001
 43
0.00000001
 40
0.0
 40
0.0
 40
0.0
 40
0.0
 40
1.0
 40
1.0
 40
1.0
 40
2.0
 40
2.0
 40
2.0
 40
2.0
 10
-18.454170735677081
 20
-22.650813802083331
 30
0.0
 10
-18.499301486545136
 20
-22.650813802083331
 30
0.0
 10
-18.539953613281249
 20
-22.669245062934024
 30
0.0
 10
-18.569581434461803
 20
-22.698356119791665
 30
0.0
 10
-18.601276312934026
 20
-22.730223253038194
 30
0.0
 10
-18.616779242621526
 20
-22.771736653645831
 30
0.0
 10
-18.616779242621526
 20
-22.813422309027775
 30
0.0
  0
LINE
  5
B2
100
AcDbEntity
  8
レイヤー_2
 62
     7
100
AcDbLine
 10
-15.041804
 20
-22.650814
 30
0.0
 11
-18.454171
 21
-22.650814
 31
0.0
  0
LINE
  5
B1
100
AcDbEntity
  8
レイヤー_2
 62
     7
100
AcDbLine
 10
-18.616779
 20
-26.501914
 30
0.0
 11
-18.616779
 21
-22.813422
 31
0.0
  0
SPLINE
  5
B0
100
AcDbEntity
  8
レイヤー_2
 62
     7
100
AcDbSpline
210
0.0
220
0.0
230
1.0
 70
     8
 71
     3
 72
    11
 73
     7
 74
     0
 42
0.00000001
 43
0.00000001
 40
0.0
 40
0.0
 40
0.0
 40
0.0
 40
1.0
 40
1.0
 40
1.0
 40
2.0
 40
2.0
 40
2.0
 40
2.0
 10
9.0084079318576382
 20
-26.501913791232635
 30
0.0
 10
9.0084079318576382
 20
-26.546700032552081
 30
0.0
 10
9.0266669379340261
 20
-26.587352159288191
 30
0.0
 10
9.0559502495659707
 20
-26.616979980468749
 30
0.0
 10
9.0876451280381936
 20
-26.649363878038191
 30
0.0
 10
9.1289862738715275
 20
-26.664522298177079
 30
0.0
 10
9.1703274197048597
 20
-26.664522298177079
 30
0.0
  0
SPLINE
  5
AF
100
AcDbEntity
  8
レイヤー_2
 62
     7
100
AcDbSpline
210
0.0
220
0.0
230
1.0
 70
     8
 71
     3
 72
    11
 73
     7
 74
     0
 42
0.00000001
 43
0.00000001
 40
0.0
 40
0.0
 40
0.0
 40
0.0
 40
1.0
 40
1.0
 40
1.0
 40
2.0
 40
2.0
 40
2.0
 40
2.0
 10
9.1703274197048597
 20
-22.650813802083331
 30
0.0
 10
9.125541178385415
 20
-22.650813802083331
 30
0.0
 10
9.0852335611979154
 20
-22.669245062934024
 30
0.0
 10
9.0559502495659707
 20
-22.698356119791665
 30
0.0
 10
9.0239108615451382
 20
-22.730223253038194
 30
0.0
 10
9.0084079318576382
 20
-22.771736653645831
 30
0.0
 10
9.0084079318576382
 20
-22.813422309027775
 30
0.0
  0
LINE
  5
AE
100
AcDbEntity
  8
レイヤー_2
  6
AI9-LType2
 62
     7
100
AcDbLine
 10
9.170327
 20
-26.664522
 30
0.0
 11
11.932605
 21
-26.664522
 31
0.0
  0
LINE
  5
AD
100
AcDbEntity
  8
レイヤー_2
 62
     7
100
AcDbLine
 10
11.932605
 20
-26.664522
 30
0.0
 11
12.583039
 21
-26.664522
 31
0.0
  0
LINE
  5
AC
100
AcDbEntity
  8
レイヤー_2
  6
AI9-LType2
 62
     7
100
AcDbLine
 10
12.583039
 20
-22.650814
 30
0.0
 11
9.820761
 21
-22.650814
 31
0.0
  0
LINE
  5
AB
100
AcDbEntity
  8
レイヤー_2
 62
     7
100
AcDbLine
 10
9.820761
 20
-22.650814
 30
0.0
 11
9.170327
 21
-22.650814
 31
0.0
  0
SPLINE
  5
AA
100
AcDbEntity
  8
レイヤー_2
 62
     7
100
AcDbSpline
210
0.0
220
0.0
230
1.0
 70
     8
 71
     3
 72
    11
 73
     7
 74
     0
 42
0.00000001
 43
0.00000001
 40
0.0
 40
0.0
 40
0.0
 40
0.0
 40
1.0
 40
1.0
 40
1.0
 40
2.0
 40
2.0
 40
2.0
 40
2.0
 10
12.74495849609375
 20
-22.796024576822916
 30
0.0
 10
12.740479871961805
 20
-22.757439507378471
 30
0.0
 10
12.723254394531249
 20
-22.723505316840274
 30
0.0
 10
12.697760687934027
 20
-22.698356119791665
 30
0.0
 10
12.666065809461804
 20
-22.666488986545136
 30
0.0
 10
12.624724663628472
 20
-22.650813802083331
 30
0.0
 10
12.583039008246526
 20
-22.650813802083331
 30
0.0
  0
SPLINE
  5
A9
100
AcDbEntity
  8
レイヤー_2
 62
     7
100
AcDbSpline
210
0.0
220
0.0
230
1.0
 70
     8
 71
     3
 72
    11
 73
     7
 74
     0
 42
0.00000001
 43
0.00000001
 40
0.0
 40
0.0
 40
0.0
 40
0.0
 40
1.0
 40
1.0
 40
1.0
 40
2.0
 40
2.0
 40
2.0
 40
2.0
 10
12.583039008246526
 20
-26.664522298177079
 30
0.0
 10
12.628514268663194
 20
-26.664522298177079
 30
0.0
 10
12.668477376302082
 20
-26.646607801649303
 30
0.0
 10
12.697760687934027
 20
-26.616979980468749
 30
0.0
 10
12.725321451822916
 20
-26.589419216579859
 30
0.0
 10
12.740824381510416
 20
-26.554968261718749
 30
0.0
 10
12.74495849609375
 20
-26.519828287760415
 30
0.0
  0
SPLINE
  5
A8
100
AcDbEntity
  8
レイヤー_2
 62
     7
100
AcDbSpline
210
0.0
220
0.0
230
1.0
 70
     8
 71
     3
 72
     8
 73
     4
 74
     0
 42
0.00000001
 43
0.00000001
 40
0.0
 40
0.0
 40
0.0
 40
0.0
 40
1.0
 40
1.0
 40
1.0
 40
1.0
 10
12.74495849609375
 20
-22.801364474826386
 30
0.0
 10
12.74495849609375
 20
-22.799641927083332
 30
0.0
 10
12.74495849609375
 20
-22.797747124565969
 30
0.0
 10
12.744269476996527
 20
-22.796024576822916
 30
0.0
  0
LINE
  5
A7
100
AcDbEntity
  8
レイヤー_2
  6
AI9-LType2
 62
     7
100
AcDbLine
 10
12.744958
 20
-26.514316
 30
0.0
 11
12.744958
 21
-23.451454
 31
0.0
  0
LINE
  5
A6
100
AcDbEntity
  8
レイヤー_2
 62
     7
100
AcDbLine
 10
12.744958
 20
-23.451454
 30
0.0
 11
12.744958
 21
-22.801364
 31
0.0
  0
LINE
  5
A5
100
AcDbEntity
  8
レイヤー_2
  6
AI9-LType2
 62
     7
100
AcDbLine
 10
12.744958
 20
-26.445414
 30
0.0
 11
31.506949
 21
-26.445414
 31
0.0
  0
LINE
  5
A4
100
AcDbEntity
  8
レイヤー_2
 62
     7
100
AcDbLine
 10
31.506949
 20
-26.445414
 30
0.0
 11
32.156694
 21
-26.445414
 31
0.0
  0
LINE
  5
A3
100
AcDbEntity
  8
レイヤー_2
  6
AI9-LType2
 62
     7
100
AcDbLine
 10
32.969392
 20
-26.445414
 30
0.0
 11
36.282884
 21
-26.445414
 31
0.0
  0
LINE
  5
A2
100
AcDbEntity
  8
レイヤー_2
 62
     7
100
AcDbLine
 10
36.282884
 20
-26.445414
 30
0.0
 11
36.932974
 21
-26.445414
 31
0.0
  0
LINE
  5
A1
100
AcDbEntity
  8
レイヤー_2
  6
AI9-LType2
 62
     7
100
AcDbLine
 10
36.932974
 20
-22.870266
 30
0.0
 11
32.05403
 21
-22.870266
 31
0.0
  0
LINE
  5
A0
100
AcDbEntity
  8
レイヤー_2
 62
     7
100
AcDbLine
 10
32.05403
 20
-22.870266
 30
0.0
 11
31.404285
 21
-22.870266
 31
0.0
  0
LINE
  5
9F
100
AcDbEntity
  8
レイヤー_2
  6
AI9-LType2
 62
     7
100
AcDbLine
 10
30.591242
 20
-22.870266
 30
0.0
 11
13.394704
 21
-22.870266
 31
0.0
  0
LINE
  5
9E
100
AcDbEntity
  8
レイヤー_2
 62
     7
100
AcDbLine
 10
13.394704
 20
-22.870266
 30
0.0
 11
12.744958
 21
-22.870266
 31
0.0
  0
SPLINE
  5
9D
100
AcDbEntity
  8
レイヤー_2
  6
AI9-LType2
 62
     7
100
AcDbSpline
210
0.0
220
0.0
230
1.0
 70
     8
 71
     3
 72
    11
 73
     7
 74
     0
 42
0.00000001
 43
0.00000001
 40
0.0
 40
0.0
 40
0.0
 40
0.0
 40
1.0
 40
1.0
 40
1.0
 40
2.0
 40
2.0
 40
2.0
 40
2.0
 10
41.807439507378469
 20
-31.320224338107636
 30
0.0
 10
41.807439507378469
 20
-29.973881022135412
 30
0.0
 10
41.262080891927077
 20
-28.755006239149303
 30
0.0
 10
40.379791937934023
 20
-27.873750813802079
 30
0.0
 10
39.589142523871523
 20
-27.082756890190971
 30
0.0
 10
38.595576985677077
 20
-26.620425075954859
 30
0.0
 10
37.580996365017356
 20
-26.488822428385415
 30
0.0
  0
SPLINE
  5
9C
100
AcDbEntity
  8
レイヤー_2
 62
     7
100
AcDbSpline
210
0.0
220
0.0
230
1.0
 70
     8
 71
     3
 72
     8
 73
     4
 74
     0
 42
0.00000001
 43
0.00000001
 40
0.0
 40
0.0
 40
0.0
 40
0.0
 40
1.0
 40
1.0
 40
1.0
 40
1.0
 10
37.580996365017356
 20
-26.488822428385415
 30
0.0
 10
37.354653591579854
 20
-26.458505588107638
 30
0.0
 10
37.129344346788194
 20
-26.444036187065969
 30
0.0
 10
36.932973904079859
 20
-26.445414225260414
 30
0.0
  0
SPLINE
  5
9B
100
AcDbEntity
  8
レイヤー_2
  6
AI9-LType2
 62
     7
100
AcDbSpline
210
0.0
220
0.0
230
1.0
 70
     8
 71
     3
 72
    11
 73
     7
 74
     0
 42
0.00000001
 43
0.00000001
 40
0.0
 40
0.0
 40
0.0
 40
0.0
 40
1.0
 40
1.0
 40
1.0
 40
2.0
 40
2.0
 40
2.0
 40
2.0
 10
45.382759602864581
 20
-31.320224338107636
 30
0.0
 10
45.382759602864581
 20
-28.987205674913191
 30
0.0
 10
44.436391872829859
 20
-26.873984103732635
 30
0.0
 10
42.907803005642357
 20
-25.345050726996526
 30
0.0
 10
41.419521755642357
 20
-23.856941731770831
 30
0.0
 10
39.514039442274303
 20
-23.040109592013888
 30
0.0
 10
37.582374403211801
 20
-22.89541558159722
 30
0.0
  0
SPLINE
  5
9A
100
AcDbEntity
  8
レイヤー_2
 62
     7
100
AcDbSpline
210
0.0
220
0.0
230
1.0
 70
     8
 71
     3
 72
     8
 73
     4
 74
     0
 42
0.00000001
 43
0.00000001
 40
0.0
 40
0.0
 40
0.0
 40
0.0
 40
1.0
 40
1.0
 40
1.0
 40
1.0
 10
37.582374403211801
 20
-22.89541558159722
 30
0.0
 10
37.354653591579854
 20
-22.877501085069444
 30
0.0
 10
37.127966308593749
 20
-22.869232855902776
 30
0.0
 10
36.932973904079859
 20
-22.870266384548611
 30
0.0
  0
LINE
  5
99
100
AcDbEntity
  8
レイヤー_2
  6
AI9-LType2
 62
     7
100
AcDbLine
 10
45.38276
 20
-32.783012
 30
0.0
 11
45.38276
 21
-31.970658
 31
0.0
  0
LINE
  5
98
100
AcDbEntity
  8
レイヤー_2
 62
     7
100
AcDbLine
 10
45.38276
 20
-31.970658
 30
0.0
 11
45.38276
 21
-31.320224
 31
0.0
  0
LINE
  5
97
100
AcDbEntity
  8
レイヤー_2
  6
AI9-LType2
 62
     7
100
AcDbLine
 10
41.80744
 20
-31.320224
 30
0.0
 11
41.80744
 21
-32.133267
 31
0.0
  0
LINE
  5
96
100
AcDbEntity
  8
レイヤー_2
 62
     7
100
AcDbLine
 10
41.80744
 20
-32.133267
 30
0.0
 11
41.80744
 21
-32.783012
 31
0.0
  0
LINE
  5
95
100
AcDbEntity
  8
レイヤー_2
  6
AI9-LType2
 62
     7
100
AcDbLine
 10
41.645176
 20
-32.783012
 30
0.0
 11
41.645176
 21
-34.895544
 31
0.0
  0
LINE
  5
94
100
AcDbEntity
  8
レイヤー_2
 62
     7
100
AcDbLine
 10
41.645176
 20
-34.895544
 30
0.0
 11
41.645176
 21
-35.545289
 31
0.0
  0
LINE
  5
93
100
AcDbEntity
  8
レイヤー_2
  6
AI9-LType2
 62
     7
100
AcDbLine
 10
45.545368
 20
-35.545289
 30
0.0
 11
45.545368
 21
-33.432757
 31
0.0
  0
LINE
  5
92
100
AcDbEntity
  8
レイヤー_2
 62
     7
100
AcDbLine
 10
45.545368
 20
-33.432757
 30
0.0
 11
45.545368
 21
-32.783012
 31
0.0
  0
LINE
  5
91
100
AcDbEntity
  8
レイヤー_2
  6
AI9-LType2
 62
     7
100
AcDbLine
 10
9.008408
 20
-26.501914
 30
0.0
 11
9.008408
 21
-23.463167
 31
0.0
  0
LINE
  5
90
100
AcDbEntity
  8
レイヤー_2
 62
     7
100
AcDbLine
 10
9.008408
 20
-23.463167
 30
0.0
 11
9.008408
 21
-22.813422
 31
0.0
  0
LINE
  5
8F
100
AcDbEntity
  8
レイヤー_2
  6
AI9-LType2
 62
     7
100
AcDbLine
 10
41.645176
 20
-32.783012
 30
0.0
 11
44.895279
 21
-32.783012
 31
0.0
  0
LINE
  5
8E
100
AcDbEntity
  8
レイヤー_2
 62
     7
100
AcDbLine
 10
44.895279
 20
-32.783012
 30
0.0
 11
45.545368
 21
-32.783012
 31
0.0
  0
LINE
  5
8D
100
AcDbEntity
  8
レイヤー_2
 62
     7
100
AcDbLine
 10
12.583039
 20
-26.664522
 30
0.0
 11
12.583039
 21
-26.633516
 31
0.0
  0
LINE
  5
8C
100
AcDbEntity
  8
レイヤー_2
  6
AI9-LType2
 62
     7
100
AcDbLine
 10
12.744269
 20
-26.519828
 30
0.0
 11
12.744269
 21
-23.445942
 31
0.0
  0
LINE
  5
8B
100
AcDbEntity
  8
レイヤー_2
 62
     7
100
AcDbLine
 10
12.744269
 20
-23.445942
 30
0.0
 11
12.744269
 21
-22.796025
 31
0.0
  0
LINE
  5
8A
100
AcDbEntity
  8
レイヤー_2
  6
AI9-LType2
 62
     7
100
AcDbLine
 10
43.5951
 20
-35.545289
 30
0.0
 11
44.895279
 21
-35.545289
 31
0.0
  0
LINE
  5
89
100
AcDbEntity
  8
レイヤー_2
 62
     7
100
AcDbLine
 10
44.895279
 20
-35.545289
 30
0.0
 11
45.545368
 21
-35.545289
 31
0.0
  0
LINE
  5
88
100
AcDbEntity
  8
レイヤー_2
  6
AI9-LType2
 62
     7
100
AcDbLine
 10
41.645176
 20
-35.545289
 30
0.0
 11
42.945355
 21
-35.545289
 31
0.0
  0
LINE
  5
87
100
AcDbEntity
  8
レイヤー_2
 62
     7
100
AcDbLine
 10
42.945355
 20
-35.545289
 30
0.0
 11
43.5951
 21
-35.545289
 31
0.0
  0
LINE
  5
86
100
AcDbEntity
  8
レイヤー_2
  6
AI9-LType2
 62
     7
100
AcDbLine
 10
-18.616779
 20
-23.195139
 30
0.0
 11
8.357974
 21
-23.195139
 31
0.0
  0
LINE
  5
85
100
AcDbEntity
  8
レイヤー_2
 62
     7
100
AcDbLine
 10
8.357974
 20
-23.195139
 30
0.0
 11
9.008408
 21
-23.195139
 31
0.0
  0
LINE
  5
84
100
AcDbEntity
  8
レイヤー_2
  6
AI9-LType2
 62
     7
100
AcDbLine
 10
-18.743214
 20
-26.120197
 30
0.0
 11
8.357974
 21
-26.120197
 31
0.0
  0
LINE
  5
82
100
AcDbEntity
  8
レイヤー_2
 62
     7
100
AcDbLine
 10
8.357974
 20
-26.120197
 30
0.0
 11
9.008408
 21
-26.120197
 31
0.0
  0
SPLINE
  5
81
100
AcDbEntity
  8
レイヤー_2
 62
     7
100
AcDbSpline
210
0.0
220
0.0
230
1.0
 70
     8
 71
     3
 72
     8
 73
     4
 74
     0
 42
0.00000001
 43
0.00000001
 40
0.0
 40
0.0
 40
0.0
 40
0.0
 40
1.0
 40
1.0
 40
1.0
 40
1.0
 10
-25.279249403211804
 20
-18.970418294270832
 30
0.0
 10
-25.279249403211804
 20
-21.303781467013888
 30
0.0
 10
-23.387891981336804
 20
-23.195138888888888
 30
0.0
 10
-21.054528808593748
 20
-23.195138888888888
 30
0.0
  0
SPLINE
  5
80
100
AcDbEntity
  8
レイヤー_2
 62
     7
100
AcDbSpline
210
0.0
220
0.0
230
1.0
 70
     8
 71
     3
 72
     8
 73
     4
 74
     0
 42
0.00000001
 43
0.00000001
 40
0.0
 40
0.0
 40
0.0
 40
0.0
 40
1.0
 40
1.0
 40
1.0
 40
1.0
 10
-28.204479980468747
 20
-18.970418294270832
 30
0.0
 10
-28.204479980468747
 20
-22.919186740451387
 30
0.0
 10
-25.002952745225691
 20
-26.120197211371526
 30
0.0
 10
-21.054528808593748
 20
-26.120197211371526
 30
0.0
  0
LINE
  5
7F
100
AcDbEntity
  8
レイヤー_2
 62
     7
100
AcDbLine
 10
-18.616779
 20
-23.195139
 30
0.0
 11
-21.054529
 21
-23.195139
 31
0.0
  0
LINE
  5
7E
100
AcDbEntity
  8
レイヤー_2
 62
     7
100
AcDbLine
 10
-21.054529
 20
-26.120197
 30
0.0
 11
-18.616779
 21
-26.120197
 31
0.0
  0
LINE
  5
7D
100
AcDbEntity
  8
レイヤー_2
 62
     7
100
AcDbLine
 10
-28.20448
 20
-16.776754
 30
0.0
 11
-28.20448
 21
-18.970418
 31
0.0
  0
LINE
  5
7C
100
AcDbEntity
  8
レイヤー_2
 62
     7
100
AcDbLine
 10
-25.279249
 20
-18.970418
 30
0.0
 11
-25.279249
 21
-16.776754
 31
0.0
  0
LINE
  5
7B
100
AcDbEntity
  8
レイヤー_2
 62
     7
100
AcDbLine
 10
-24.710809
 20
-16.776754
 30
0.0
 11
-24.710809
 21
-13.038825
 31
0.0
  0
LINE
  5
7A
100
AcDbEntity
  8
レイヤー_2
 62
     7
100
AcDbLine
 10
-28.772576
 20
-13.038825
 30
0.0
 11
-28.772576
 21
-16.776754
 31
0.0
  0
SPLINE
  5
79
100
AcDbEntity
  8
レイヤー_2
 62
     7
100
AcDbSpline
210
0.0
220
0.0
230
1.0
 70
     8
 71
     3
 72
     8
 73
     4
 74
     0
 42
0.00000001
 43
0.00000001
 40
0.0
 40
0.0
 40
0.0
 40
0.0
 40
1.0
 40
1.0
 40
1.0
 40
1.0
 10
-14.880573187934026
 20
-22.796024576822916
 30
0.0
 10
-14.889185926649304
 20
-22.712653266059025
 30
0.0
 10
-14.959810384114583
 20
-22.651330566406248
 30
0.0
 10
-15.041803656684026
 20
-22.650813802083331
 30
0.0
  0
SPLINE
  5
78
100
AcDbEntity
  8
レイヤー_2
 62
     7
100
AcDbSpline
210
0.0
220
0.0
230
1.0
 70
     8
 71
     3
 72
     8
 73
     4
 74
     0
 42
0.00000001
 43
0.00000001
 40
0.0
 40
0.0
 40
0.0
 40
0.0
 40
1.0
 40
1.0
 40
1.0
 40
1.0
 10
-15.041803656684026
 20
-26.664522298177079
 30
0.0
 10
-14.958432345920137
 20
-26.664522298177079
 30
0.0
 10
-14.889185926649304
 20
-26.60182156032986
 30
0.0
 10
-14.880573187934026
 20
-26.519828287760415
 30
0.0
  0
LINE
  5
77
100
AcDbEntity
  8
レイヤー_2
 62
     7
100
AcDbLine
 10
-18.454171
 20
-26.664522
 30
0.0
 11
-15.041804
 21
-26.664522
 31
0.0
  0
SPLINE
  5
76
100
AcDbEntity
  8
レイヤー_2
 62
     7
100
AcDbSpline
210
0.0
220
0.0
230
1.0
 70
     8
 71
     3
 72
     8
 73
     4
 74
     0
 42
0.00000001
 43
0.00000001
 40
0.0
 40
0.0
 40
0.0
 40
0.0
 40
1.0
 40
1.0
 40
1.0
 40
1.0
 10
-18.616779242621526
 20
-26.501913791232635
 30
0.0
 10
-18.616779242621526
 20
-26.592175292968747
 30
0.0
 10
-18.544087727864582
 20
-26.664522298177079
 30
0.0
 10
-18.454170735677081
 20
-26.664522298177079
 30
0.0
  0
SPLINE
  5
75
100
AcDbEntity
  8
レイヤー_2
 62
     7
100
AcDbSpline
210
0.0
220
0.0
230
1.0
 70
     8
 71
     3
 72
     8
 73
     4
 74
     0
 42
0.00000001
 43
0.00000001
 40
0.0
 40
0.0
 40
0.0
 40
0.0
 40
1.0
 40
1.0
 40
1.0
 40
1.0
 10
-14.879884168836805
 20
-22.801364474826386
 30
0.0
 10
-14.879884168836805
 20
-22.799641927083332
 30
0.0
 10
-14.879884168836805
 20
-22.797747124565969
 30
0.0
 10
-14.880573187934026
 20
-22.796024576822916
 30
0.0
  0
LINE
  5
74
100
AcDbEntity
  8
レイヤー_2
 62
     7
100
AcDbLine
 10
-14.879884
 20
-26.514316
 30
0.0
 11
-14.879884
 21
-22.801364
 31
0.0
  0
LINE
  5
73
100
AcDbEntity
  8
レイヤー_2
 62
     7
100
AcDbLine
 10
26.882941
 20
-32.783012
 30
0.0
 11
26.882941
 21
-31.320224
 31
0.0
  0
LINE
  5
72
100
AcDbEntity
  8
レイヤー_2
 62
     7
100
AcDbLine
 10
23.307966
 20
-31.320224
 30
0.0
 11
23.307966
 21
-32.783012
 31
0.0
  0
SPLINE
  5
71
100
AcDbEntity
  8
レイヤー_2
 62
     7
100
AcDbSpline
210
0.0
220
0.0
230
1.0
 70
     8
 71
     3
 72
     8
 73
     4
 74
     0
 42
0.00000001
 43
0.00000001
 40
0.0
 40
0.0
 40
0.0
 40
0.0
 40
1.0
 40
1.0
 40
1.0
 40
1.0
 10
23.307965766059027
 20
-31.320224338107636
 30
0.0
 10
23.307965766059027
 20
-28.628226725260415
 30
0.0
 10
21.125497775607638
 20
-26.445414225260414
 30
0.0
 10
18.432811143663194
 20
-26.445414225260414
 30
0.0
  0
SPLINE
  5
70
100
AcDbEntity
  8
レイヤー_2
 62
     7
100
AcDbSpline
210
0.0
220
0.0
230
1.0
 70
     8
 71
     3
 72
     8
 73
     4
 74
     0
 42
0.00000001
 43
0.00000001
 40
0.0
 40
0.0
 40
0.0
 40
0.0
 40
1.0
 40
1.0
 40
1.0
 40
1.0
 10
26.882941351996525
 20
-31.320224338107636
 30
0.0
 10
26.882941351996525
 20
-26.653497992621524
 30
0.0
 10
23.099537489149302
 20
-22.870266384548611
 30
0.0
 10
18.432811143663194
 20
-22.870266384548611
 30
0.0
  0
LINE
  5
6F
100
AcDbEntity
  8
レイヤー_2
 62
     7
100
AcDbLine
 10
-14.879884
 20
-26.445414
 30
0.0
 11
18.432811
 21
-26.445414
 31
0.0
  0
LINE
  5
6E
100
AcDbEntity
  8
レイヤー_2
 62
     7
100
AcDbLine
 10
18.432811
 20
-22.870266
 30
0.0
 11
-14.879884
 21
-22.870266
 31
0.0
  0
LINE
  5
6D
100
AcDbEntity
  8
レイヤー_2
 62
     7
100
AcDbLine
 10
23.145702
 20
-32.783012
 30
0.0
 11
23.145702
 21
-35.545289
 31
0.0
  0
LINE
  5
6C
100
AcDbEntity
  8
レイヤー_2
 62
     7
100
AcDbLine
 10
27.045894
 20
-35.545289
 30
0.0
 11
27.045894
 21
-32.783012
 31
0.0
  0
LINE
  5
6B
100
AcDbEntity
  8
レイヤー_2
 62
     7
100
AcDbLine
 10
-24.710809
 20
-13.038825
 30
0.0
 11
-28.772576
 21
-13.038825
 31
0.0
  0
LINE
  5
6A
100
AcDbEntity
  8
レイヤー_2
 62
     7
100
AcDbLine
 10
-24.710809
 20
-16.776754
 30
0.0
 11
-28.772576
 21
-16.776754
 31
0.0
  0
LINE
  5
69
100
AcDbEntity
  8
レイヤー_2
 62
     7
100
AcDbLine
 10
23.145702
 20
-32.783012
 30
0.0
 11
27.045894
 21
-32.783012
 31
0.0
  0
LINE
  5
68
100
AcDbEntity
  8
レイヤー_2
 62
     7
100
AcDbLine
 10
23.145702
 20
-35.545289
 30
0.0
 11
27.045894
 21
-35.545289
 31
0.0
  0
LINE
  5
67
100
AcDbEntity
  8
レイヤー_2
 62
     7
100
AcDbLine
 10
-14.880573
 20
-25.581384
 30
0.0
 11
-14.880573
 21
-22.796025
 31
0.0
  0
LINE
  5
66
100
AcDbEntity
  8
レイヤー_2
 62
     7
100
AcDbLine
 10
-14.880573
 20
-26.519828
 30
0.0
 11
-14.880573
 21
-25.581384
 31
0.0
  0
LINE
  5
65
100
AcDbEntity
  8
レイヤー_2
 62
     7
100
AcDbLine
 10
-35.031281
 20
-14.099398
 30
0.0
 11
-35.031281
 21
-4.349433
 31
0.0
  0
LINE
  5
64
100
AcDbEntity
  8
レイヤー_2
 62
     7
100
AcDbLine
 10
-36.829449
 20
-4.349433
 30
0.0
 11
-35.031281
 21
-4.349433
 31
0.0
  0
LINE
  5
63
100
AcDbEntity
  8
レイヤー_2
 62
     7
100
AcDbLine
 10
-36.829449
 20
-14.099398
 30
0.0
 11
-35.031281
 21
-14.099398
 31
0.0
  0
LINE
  5
62
100
AcDbEntity
  8
レイヤー_2
 62
     7
100
AcDbLine
 10
-32.593187
 20
-12.31191
 30
0.0
 11
-32.593187
 21
-6.137093
 31
0.0
  0
LINE
  5
61
100
AcDbEntity
  8
レイヤー_2
 62
     7
100
AcDbLine
 10
-32.593187
 20
-6.137093
 30
0.0
 11
-35.031281
 21
-6.137093
 31
0.0
  0
LINE
  5
60
100
AcDbEntity
  8
レイヤー_2
 62
     7
100
AcDbLine
 10
-32.593187
 20
-12.31191
 30
0.0
 11
-35.031281
 21
-12.31191
 31
0.0
  0
LINE
  5
5F
100
AcDbEntity
  8
レイヤー_2
 62
     7
100
AcDbLine
 10
-35.031281
 20
-10.164065
 30
0.0
 11
-35.031281
 21
-8.187097
 31
0.0
  0
LINE
  5
5E
100
AcDbEntity
  8
レイヤー_2
 62
     7
100
AcDbLine
 10
-35.031281
 20
-8.187097
 30
0.0
 11
-32.593187
 21
-8.187097
 31
0.0
  0
LINE
  5
5D
100
AcDbEntity
  8
レイヤー_2
 62
     7
100
AcDbLine
 10
-35.031281
 20
-10.164065
 30
0.0
 11
-32.593187
 21
-10.164065
 31
0.0
  0
SPLINE
  5
5C
100
AcDbEntity
  8
レイヤー_2
 62
     7
100
AcDbSpline
210
0.0
220
0.0
230
1.0
 70
     8
 71
     3
 72
    11
 73
     7
 74
     0
 42
0.00000001
 43
0.00000001
 40
0.0
 40
0.0
 40
0.0
 40
0.0
 40
1.0
 40
1.0
 40
1.0
 40
2.0
 40
2.0
 40
2.0
 40
2.0
 10
30.591242133246524
 20
-22.870266384548611
 30
0.0
 10
30.535431586371526
 20
-23.583056640624999
 30
0.0
 10
30.664967176649302
 20
-24.280688476562499
 30
0.0
 10
31.188621690538191
 20
-24.996407063802081
 30
0.0
 10
31.63786214192708
 20
-25.60963406032986
 30
0.0
 10
31.946542697482634
 20
-26.03475884331597
 30
0.0
 10
32.157727050781247
 20
-26.44679226345486
 30
0.0
  0
SPLINE
  5
5B
100
AcDbEntity
  8
レイヤー_2
 62
     7
100
AcDbSpline
210
0.0
220
0.0
230
1.0
 70
     8
 71
     3
 72
    11
 73
     7
 74
     0
 42
0.00000001
 43
0.00000001
 40
0.0
 40
0.0
 40
0.0
 40
0.0
 40
1.0
 40
1.0
 40
1.0
 40
2.0
 40
2.0
 40
2.0
 40
2.0
 10
31.404284667968746
 20
-22.870266384548611
 30
0.0
 10
31.348129611545136
 20
-23.583056640624999
 30
0.0
 10
31.476976182725693
 20
-24.280688476562499
 30
0.0
 10
32.001664225260413
 20
-24.996407063802081
 30
0.0
 10
32.450215657552079
 20
-25.60963406032986
 30
0.0
 10
32.758896213107633
 20
-26.03475884331597
 30
0.0
 10
32.970425075954857
 20
-26.44679226345486
 30
0.0
  0
LINE
  5
5A
100
AcDbEntity
  8
レイヤー_2
 62
     7
100
AcDbLine
 10
-36.829449
 20
-7.533735
 30
0.0
 11
-39.315602
 21
-7.533735
 31
0.0
  0
LINE
  5
59
100
AcDbEntity
  8
レイヤー_2
  6
AI9-LType1
 62
     7
100
AcDbLine
 10
-16.220715
 20
-9.219937
 30
0.0
 11
-41.321853
 21
-9.219937
 31
0.0
  0
LINE
  5
58
100
AcDbEntity
  8
レイヤー_2
 62
     7
100
AcDbLine
 10
-41.321853
 20
-9.219937
 30
0.0
 11
-41.971426
 21
-9.219937
 31
0.0
  0
LINE
  5
57
100
AcDbEntity
  8
レイヤー_2
  6
AI9-LType1
 62
     7
100
AcDbLine
 10
-26.733769
 20
-5.224487
 30
0.0
 11
-26.733769
 21
-17.219621
 31
0.0
  0
LINE
  5
56
100
AcDbEntity
  8
レイヤー_2
 62
     7
100
AcDbLine
 10
-26.733769
 20
-17.219621
 30
0.0
 11
-26.733769
 21
-17.869538
 31
0.0
  0
LINE
  5
55
100
AcDbEntity
  8
レイヤー_2
  6
AI9-LType1
 62
     7
100
AcDbLine
 10
25.095626
 20
-32.133267
 30
0.0
 11
25.095626
 21
-35.468808
 31
0.0
  0
LINE
  5
54
100
AcDbEntity
  8
レイヤー_2
 62
     7
100
AcDbLine
 10
25.095626
 20
-35.468808
 30
0.0
 11
25.095626
 21
-36.119242
 31
0.0
  0
LINE
  5
53
100
AcDbEntity
  8
レイヤー_2
  6
AI9-LType1
 62
     7
100
AcDbLine
 10
43.5951
 20
-32.133267
 30
0.0
 11
43.5951
 21
-35.67827
 31
0.0
  0
LINE
  5
51
100
AcDbEntity
  8
レイヤー_2
 62
     7
100
AcDbLine
 10
43.5951
 20
-35.67827
 30
0.0
 11
43.5951
 21
-36.328704
 31
0.0
  0
LINE
  5
50
100
AcDbEntity
  8
レイヤー_2
 62
     7
100
AcDbLine
 10
-35.031281
 20
-8.187097
 30
0.0
 11
-32.593187
 21
-10.164065
 31
0.0
  0
LINE
  5
4F
100
AcDbEntity
  8
レイヤー_2
 62
     7
100
AcDbLine
 10
-35.031281
 20
-10.164065
 30
0.0
 11
-32.593187
 21
-8.187097
 31
0.0
  0
LINE
  5
4E
100
AcDbEntity
  8
レイヤー_2
 62
     7
100
AcDbLine
 10
-37.614758
 20
-4.349433
 30
0.0
 11
-45.721585
 21
-4.349433
 31
0.0
  0
LINE
  5
4D
100
AcDbEntity
  8
レイヤー_2
 62
     7
100
AcDbLine
 10
-47.218823
 20
-4.349433
 30
0.0
 11
-56.077714
 21
-4.349433
 31
0.0
  0
LINE
  5
4C
100
AcDbEntity
  8
レイヤー_2
 62
     7
100
AcDbLine
 10
-37.496419
 20
-14.099398
 30
0.0
 11
-55.969366
 21
-14.099398
 31
0.0
  0
LINE
  5
4B
100
AcDbEntity
  8
レイヤー_2
 62
     7
100
AcDbLine
 10
-55.163386
 20
-3.490398
 30
0.0
 11
-55.163386
 21
-15.039048
 31
0.0
  0
LINE
  5
4A
100
AcDbEntity
  8
レイヤー_2
 62
     7
100
AcDbLine
 10
-39.609296
 20
-10.92991
 30
0.0
 11
-47.218134
 21
-10.92991
 31
0.0
  0
LINE
  5
49
100
AcDbEntity
  8
レイヤー_2
 62
     7
100
AcDbLine
 10
-39.652705
 20
-7.548032
 30
0.0
 11
-47.203837
 21
-7.548032
 31
0.0
  0
LINE
  5
48
100
AcDbEntity
  8
レイヤー_2
 62
     7
100
AcDbLine
 10
-55.9735
 20
-3.631131
 30
0.0
 11
-54.383588
 21
-5.044137
 31
0.0
  0
LINE
  5
47
100
AcDbEntity
  8
レイヤー_2
 62
     7
100
AcDbLine
 10
-55.997099
 20
-13.368004
 30
0.0
 11
-54.406843
 21
-14.78101
 31
0.0
  0
LINE
  5
46
100
AcDbEntity
  8
レイヤー_2
 62
     7
100
AcDbLine
 10
-47.277218
 20
-10.24313
 30
0.0
 11
-45.686789
 21
-11.656308
 31
0.0
  0
LINE
  5
45
100
AcDbEntity
  8
レイヤー_2
 62
     7
100
AcDbLine
 10
-47.277218
 20
-6.923264
 30
0.0
 11
-45.686789
 21
-8.336614
 31
0.0
  0
LINE
  5
44
100
AcDbEntity
  8
レイヤー_2
 62
     7
100
AcDbLine
 10
-46.523775
 20
-11.663888
 30
0.0
 11
-46.523775
 21
12.307948
 31
0.0
  0
LINE
  5
43
100
AcDbEntity
  8
レイヤー_2
 62
     7
100
AcDbLine
 10
-37.52243
 20
15.864665
 30
0.0
 11
-25.845968
 21
15.864665
 31
0.0
  0
LINE
  5
42
100
AcDbEntity
  8
レイヤー_2
 62
     7
100
AcDbLine
 10
-25.933818
 20
16.708196
 30
0.0
 11
-27.346996
 21
15.118285
 31
0.0
  0
LINE
  5
41
100
AcDbEntity
  8
レイヤー_2
 62
     7
100
AcDbLine
 10
-36.118553
 20
16.642567
 30
0.0
 11
-37.531559
 21
15.052656
 31
0.0
  0
LINE
  5
40
100
AcDbEntity
  8
レイヤー_2
 62
     7
100
AcDbLine
 10
-36.818424
 20
1.767851
 30
0.0
 11
-36.818424
 21
36.210193
 31
0.0
  0
LINE
  5
3F
100
AcDbEntity
  8
レイヤー_2
 62
     7
100
AcDbLine
 10
25.101482
 20
-25.50008
 30
0.0
 11
25.101482
 21
36.328704
 31
0.0
  0
LINE
  5
3E
100
AcDbEntity
  8
レイヤー_2
 62
     7
100
AcDbLine
 10
-37.638702
 20
35.526341
 30
0.0
 11
26.179453
 21
35.526341
 31
0.0
  0
LINE
  5
3D
100
AcDbEntity
  8
レイヤー_2
 62
     7
100
AcDbLine
 10
-36.818424
 20
35.527203
 30
0.0
 11
-37.52553
 21
34.731213
 31
0.0
  0
LINE
  5
3C
100
AcDbEntity
  8
レイヤー_2
 62
     7
100
AcDbLine
 10
-36.110802
 20
36.32302
 30
0.0
 11
-36.818424
 21
35.527203
 31
0.0
  0
LINE
  5
3B
100
AcDbEntity
  8
レイヤー_2
 62
     7
100
AcDbLine
 10
25.102861
 20
35.532715
 30
0.0
 11
24.395582
 21
34.736726
 31
0.0
  0
LINE
  5
3A
100
AcDbEntity
  8
レイヤー_2
 62
     7
100
AcDbLine
 10
25.810139
 20
36.328704
 30
0.0
 11
25.102861
 21
35.532715
 31
0.0
  0
LINE
  5
39
100
AcDbEntity
  8
レイヤー_2
 62
     7
100
AcDbLine
 10
-37.657305
 20
25.618936
 30
0.0
 11
-16.420531
 21
25.618936
 31
0.0
  0
LINE
  5
38
100
AcDbEntity
  8
レイヤー_2
 62
     7
100
AcDbLine
 10
-16.528707
 20
26.462295
 30
0.0
 11
-17.941885
 21
24.872039
 31
0.0
  0
LINE
  5
37
100
AcDbEntity
  8
レイヤー_2
 62
     7
100
AcDbLine
 10
-36.118553
 20
26.396838
 30
0.0
 11
-37.531559
 21
24.806927
 31
0.0
  0
LINE
  5
36
100
AcDbEntity
  8
レイヤー_2
 62
     7
100
AcDbLine
 10
-17.269402
 20
-2.846338
 30
0.0
 11
-17.269402
 21
26.50467
 31
0.0
  0
LINE
  5
35
100
AcDbEntity
  8
レイヤー_2
 62
     7
100
AcDbLine
 10
56.024315
 20
-9.219937
 30
0.0
 11
-15.653308
 21
-9.219937
 31
0.0
  0
LINE
  5
34
100
AcDbEntity
  8
レイヤー_2
 62
     7
100
AcDbLine
 10
55.3005
 20
-36.246022
 30
0.0
 11
55.3005
 21
-8.407583
 31
0.0
  0
LINE
  5
33
100
AcDbEntity
  8
レイヤー_2
 62
     7
100
AcDbLine
 10
55.281208
 20
-35.459851
 30
0.0
 11
56.077714
 21
-36.167474
 31
0.0
  0
LINE
  5
32
100
AcDbEntity
  8
レイヤー_2
 62
     7
100
AcDbLine
 10
54.485735
 20
-34.752228
 30
0.0
 11
55.281208
 21
-35.459851
 31
0.0
  0
LINE
  5
31
100
AcDbEntity
  8
レイヤー_2
 62
     7
100
AcDbLine
 10
55.281208
 20
-9.258005
 30
0.0
 11
56.077714
 21
-9.965111
 31
0.0
  0
LINE
  5
30
100
AcDbEntity
  8
レイヤー_2
 62
     7
100
AcDbLine
 10
54.485735
 20
-34.752228
 30
0.0
 11
55.281208
 21
-35.459851
 31
0.0
  0
LINE
  5
2F
100
AcDbEntity
  8
レイヤー_2
 62
     7
100
AcDbLine
 10
54.485735
 20
-8.550382
 30
0.0
 11
55.281208
 21
-9.258005
 31
0.0
  0
LINE
  5
2E
100
AcDbEntity
  8
レイヤー_2
 62
     7
100
AcDbLine
 10
-26.733769
 20
-4.803497
 30
0.0
 11
-26.733769
 21
16.958827
 31
0.0
  0
LINE
  5
2D
100
AcDbEntity
  8
レイヤー_2
 62
     7
100
AcDbLine
 10
27.746971
 20
-35.545289
 30
0.0
 11
56.06979
 21
-35.545289
 31
0.0
  0
LINE
  5
2C
100
AcDbEntity
  8
レイヤー_2
 62
     7
100
AcDbLine
 10
-36.818424
 20
-18.731673
 30
0.0
 11
-36.818424
 21
0.606165
 31
0.0
  0
ENDBLK
  5
E2
100
AcDbEntity
  8
レイヤー_2
100
AcDbBlockEnd
  0
BLOCK
  5
E5
100
AcDbEntity
  8
レイヤー_2
 62
     7
100
AcDbBlockBegin
  2
AI9-BLK2
 70
     0
 10
0.0
 20
0.0
 30
0.0
  3
AI9-BLK2
  1

  0
SPLINE
  5
171
100
AcDbEntity
  8
レイヤー_2
 62
     7
100
AcDbSpline
210
0.0
220
0.0
230
1.0
 70
     8
 71
     3
 72
    11
 73
     7
 74
     0
 42
0.00000001
 43
0.00000001
 40
0.0
 40
0.0
 40
0.0
 40
0.0
 40
1.0
 40
1.0
 40
1.0
 40
2.0
 40
2.0
 40
2.0
 40
2.0
 10
2.0261467827690969
 20
-14.795565456814234
 30
0.0
 10
2.0261467827690969
 20
-13.686933729383679
 30
0.0
 10
1.1276658799913193
 20
-12.788452826605901
 30
0.0
 10
0.0195509168836806
 20
-12.788452826605901
 30
0.0
 10
-1.0889085557725693
 20
-12.788452826605901
 30
0.0
 10
-1.9875617133246526
 20
-13.686933729383679
 30
0.0
 10
-1.9875617133246526
 20
-14.795565456814234
 30
0.0
  0
SPLINE
  5
170
100
AcDbEntity
  8
レイヤー_2
 62
     7
100
AcDbSpline
210
0.0
220
0.0
230
1.0
 70
     8
 71
     3
 72
     8
 73
     4
 74
     0
 42
0.00000001
 43
0.00000001
 40
0.0
 40
0.0
 40
0.0
 40
0.0
 40
1.0
 40
1.0
 40
1.0
 40
1.0
 10
-1.9875617133246526
 20
-14.795565456814234
 30
0.0
 10
-1.9875617133246526
 20
-15.128533935546873
 30
0.0
 10
-1.9066019694010414
 20
-15.442037624782985
 30
0.0
 10
-1.7682813856336803
 20
-15.707998996310762
 30
0.0
  0
SPLINE
  5
16F
100
AcDbEntity
  8
レイヤー_2
 62
     7
100
AcDbSpline
210
0.0
220
0.0
230
1.0
 70
     8
 71
     3
 72
     8
 73
     4
 74
     0
 42
0.00000001
 43
0.00000001
 40
0.0
 40
0.0
 40
0.0
 40
0.0
 40
1.0
 40
1.0
 40
1.0
 40
1.0
 10
1.8066942003038193
 20
-15.707998996310762
 30
0.0
 10
1.957933892144097
 20
-15.411031765407985
 30
0.0
 10
2.0289028591579861
 20
-15.094771999782985
 30
0.0
 10
2.0261467827690969
 20
-14.795565456814234
 30
0.0
  0
HATCH
  5
16E
100
AcDbEntity
  8
レイヤー_2
 62
     7
100
AcDbHatch
 10
0.0
 20
0.0
 30
0.0
210
0.0
220
0.0
230
1.0
  2
SOLID
 70
     1
 71
     0
 91
        1
 92
        1
 93
        1
 72
     4
 94
        3
 73
     0
 74
     0
 95
       17
 96
       13
 40
0.0
 40
0.0
 40
0.0
 40
0.0
 40
1.0
 40
1.0
 40
1.0
 40
2.0
 40
2.0
 40
2.0
 40
3.0
 40
3.0
 40
3.0
 40
4.0
 40
4.0
 40
4.0
 40
4.0
 10
-1.8742180718315971
 20
-14.795565456814234
 10
-1.8742180718315971
 20
-15.109241400824651
 10
-1.8476908365885416
 20
-15.431702338324651
 10
-1.7171217176649305
 20
-15.681127251519095
 10
-1.7171217176649305
 20
-15.681127251519095
 10
-1.8196133083767358
 20
-15.733492702907984
 10
-1.8196133083767358
 20
-15.733492702907984
 10
-1.965340847439236
 20
-15.45306193033854
 10
-2.1014221191406248
 20
-15.147826470269095
 10
-2.1014221191406248
 20
-14.795565456814234
 10
-2.1014221191406248
 20
-14.795565456814234
 10
-1.8742180718315971
 20
-14.795565456814234
 10
-1.8742180718315971
 20
-14.795565456814234
 97
        0
 75
     0
 76
     1
 98
        1
 10
0.0
 20
0.0
  0
HATCH
  5
16D
100
AcDbEntity
  8
レイヤー_2
 62
     7
100
AcDbHatch
 10
0.0
 20
0.0
 30
0.0
210
0.0
220
0.0
230
1.0
  2
SOLID
 70
     1
 71
     0
 91
        1
 92
        1
 93
        1
 72
     4
 94
        3
 73
     0
 74
     0
 95
       17
 96
       13
 40
0.0
 40
0.0
 40
0.0
 40
0.0
 40
1.0
 40
1.0
 40
1.0
 40
2.0
 40
2.0
 40
2.0
 40
3.0
 40
3.0
 40
3.0
 40
4.0
 40
4.0
 40
4.0
 40
4.0
 10
1.7557067871093748
 20
-15.681127251519095
 10
1.9022956000434026
 20
-15.39380628797743
 10
1.9150424533420136
 20
-15.085814751519095
 10
1.9126308865017358
 20
-14.795565456814234
 10
1.9126308865017358
 20
-14.795565456814234
 10
2.1394904242621524
 20
-14.795565456814234
 10
2.1394904242621524
 20
-14.795565456814234
 10
2.1424187554253469
 20
-15.103040228949652
 10
2.0139166937934028
 20
-15.428946261935762
 10
1.8580261230468749
 20
-15.734181722005207
 10
1.8580261230468749
 20
-15.734181722005207
 10
1.7557067871093748
 20
-15.681127251519095
 10
1.7557067871093748
 20
-15.681127251519095
 97
        0
 75
     0
 76
     1
 98
        1
 10
0.0
 20
0.0
  0
SPLINE
  5
16C
100
AcDbEntity
  8
レイヤー_2
 62
     7
100
AcDbSpline
210
0.0
220
0.0
230
1.0
 70
     8
 71
     3
 72
    11
 73
     7
 74
     0
 42
0.00000001
 43
0.00000001
 40
0.0
 40
0.0
 40
0.0
 40
0.0
 40
1.0
 40
1.0
 40
1.0
 40
2.0
 40
2.0
 40
2.0
 40
2.0
 10
1.8066942003038193
 20
-14.795565456814234
 30
0.0
 10
1.8066942003038193
 20
-13.808201090494791
 30
0.0
 10
1.0063985188802083
 20
-13.00790540907118
 30
0.0
 10
0.0195509168836806
 20
-13.00790540907118
 30
0.0
 10
-0.9683302137586805
 20
-13.00790540907118
 30
0.0
 10
-1.7682813856336803
 20
-13.808201090494791
 30
0.0
 10
-1.7682813856336803
 20
-14.795565456814234
 30
0.0
  0
SPLINE
  5
16B
100
AcDbEntity
  8
レイヤー_2
 62
     7
100
AcDbSpline
210
0.0
220
0.0
230
1.0
 70
     8
 71
     3
 72
     8
 73
     4
 74
     0
 42
0.00000001
 43
0.00000001
 40
0.0
 40
0.0
 40
0.0
 40
0.0
 40
1.0
 40
1.0
 40
1.0
 40
1.0
 10
15.09149915907118
 20
1.7427876790364583
 30
0.0
 10
14.768521457248262
 20
2.6307610405815969
 30
0.0
 10
14.080191379123262
 20
3.2801615397135415
 30
0.0
 10
13.252679443359375
 20
3.585741509331597
 30
0.0
  0
SPLINE
  5
16A
100
AcDbEntity
  8
レイヤー_2
 62
     7
100
AcDbSpline
210
0.0
220
0.0
230
1.0
 70
     8
 71
     3
 72
     8
 73
     4
 74
     0
 42
0.00000001
 43
0.00000001
 40
0.0
 40
0.0
 40
0.0
 40
0.0
 40
1.0
 40
1.0
 40
1.0
 40
1.0
 10
11.139974636501735
 20
3.5902201334635415
 30
0.0
 10
10.247178141276041
 20
3.2670701768663193
 30
0.0
 10
9.5943325466579861
 20
2.5749504937065968
 30
0.0
 10
9.288924831814235
 20
1.7424431694878471
 30
0.0
  0
SPLINE
  5
169
100
AcDbEntity
  8
レイヤー_2
 62
     7
100
AcDbSpline
210
0.0
220
0.0
230
1.0
 70
     8
 71
     3
 72
     8
 73
     4
 74
     0
 42
0.00000001
 43
0.00000001
 40
0.0
 40
0.0
 40
0.0
 40
0.0
 40
1.0
 40
1.0
 40
1.0
 40
1.0
 10
9.288924831814235
 20
-0.3692281087239583
 30
0.0
 10
9.6127638075086796
 20
-1.2592685275607638
 30
0.0
 10
10.303160942925347
 20
-1.9095303005642359
 30
0.0
 10
11.134117974175346
 20
-2.2149380154079861
 30
0.0
  0
SPLINE
  5
168
100
AcDbEntity
  8
レイヤー_2
 62
     7
100
AcDbSpline
210
0.0
220
0.0
230
1.0
 70
     8
 71
     3
 72
     8
 73
     4
 74
     0
 42
0.00000001
 43
0.00000001
 40
0.0
 40
0.0
 40
0.0
 40
0.0
 40
1.0
 40
1.0
 40
1.0
 40
1.0
 10
13.246822781032986
 20
-2.2149380154079861
 30
0.0
 10
14.13686319986979
 20
-1.8902377658420138
 30
0.0
 10
14.787124972873263
 20
-1.1996683756510416
 30
0.0
 10
15.09149915907118
 20
-0.3692281087239583
 30
0.0
  0
LINE
  5
167
100
AcDbEntity
  8
レイヤー_2
 62
     7
100
AcDbLine
 10
-11.128434
 20
-2.414754
 30
0.0
 11
-2.044923
 21
-2.536021
 31
0.0
  0
SPLINE
  5
166
100
AcDbEntity
  8
レイヤー_2
 62
     7
100
AcDbSpline
210
0.0
220
0.0
230
1.0
 70
     8
 71
     3
 72
     8
 73
     4
 74
     0
 42
0.00000001
 43
0.00000001
 40
0.0
 40
0.0
 40
0.0
 40
0.0
 40
1.0
 40
1.0
 40
1.0
 40
1.0
 10
-9.2834126790364575
 20
1.7427876790364583
 30
0.0
 10
-9.6081129286024289
 20
2.6340338812934023
 30
0.0
 10
-10.300404866536457
 20
3.285673692491319
 30
0.0
 10
-11.132567681206597
 20
3.5893588595920134
 30
0.0
  0
SPLINE
  5
165
100
AcDbEntity
  8
レイヤー_2
 62
     7
100
AcDbSpline
210
0.0
220
0.0
230
1.0
 70
     8
 71
     3
 72
     8
 73
     4
 74
     0
 42
0.00000001
 43
0.00000001
 40
0.0
 40
0.0
 40
0.0
 40
0.0
 40
1.0
 40
1.0
 40
1.0
 40
1.0
 10
-13.244755723741319
 20
3.5862582736545137
 30
0.0
 10
-14.132901340060762
 20
3.2619025336371523
 30
0.0
 10
-14.781957329644095
 20
2.5713331434461804
 30
0.0
 10
-15.085814751519095
 20
1.7433044433593747
 30
0.0
  0
SPLINE
  5
164
100
AcDbEntity
  8
レイヤー_2
 62
     7
100
AcDbSpline
210
0.0
220
0.0
230
1.0
 70
     8
 71
     3
 72
     8
 73
     4
 74
     0
 42
0.00000001
 43
0.00000001
 40
0.0
 40
0.0
 40
0.0
 40
0.0
 40
1.0
 40
1.0
 40
1.0
 40
1.0
 10
-15.085814751519095
 20
-0.369744873046875
 30
0.0
 10
-14.761803521050346
 20
-1.2592685275607638
 30
0.0
 10
-14.071061876085068
 20
-1.9098748101128471
 30
0.0
 10
-13.241310628255206
 20
-2.2149380154079861
 30
0.0
  0
SPLINE
  5
163
100
AcDbEntity
  8
レイヤー_2
 62
     7
100
AcDbSpline
210
0.0
220
0.0
230
1.0
 70
     8
 71
     3
 72
     8
 73
     4
 74
     0
 42
0.00000001
 43
0.00000001
 40
0.0
 40
0.0
 40
0.0
 40
0.0
 40
1.0
 40
1.0
 40
1.0
 40
1.0
 10
-11.128433566623263
 20
-2.2149380154079861
 30
0.0
 10
-10.238393147786457
 20
-1.8902377658420138
 30
0.0
 10
-9.5877868652343743
 20
-1.1996683756510416
 30
0.0
 10
-9.2834126790364575
 20
-0.3692281087239583
 30
0.0
  0
SPLINE
  5
162
100
AcDbEntity
  8
レイヤー_2
 62
     7
100
AcDbSpline
210
0.0
220
0.0
230
1.0
 70
     8
 71
     3
 72
     8
 73
     4
 74
     0
 42
0.00000001
 43
0.00000001
 40
0.0
 40
0.0
 40
0.0
 40
0.0
 40
1.0
 40
1.0
 40
1.0
 40
1.0
 10
16.9494391547309
 20
1.7436489529079859
 30
0.0
 10
16.528448486328124
 20
3.6408630371093746
 30
0.0
 10
15.053947618272568
 20
5.0323371039496525
 30
0.0
 10
13.24665052625868
 20
5.4457485622829855
 30
0.0
  0
SPLINE
  5
161
100
AcDbEntity
  8
レイヤー_2
 62
     7
100
AcDbSpline
210
0.0
220
0.0
230
1.0
 70
     8
 71
     3
 72
     8
 73
     4
 74
     0
 42
0.00000001
 43
0.00000001
 40
0.0
 40
0.0
 40
0.0
 40
0.0
 40
1.0
 40
1.0
 40
1.0
 40
1.0
 10
11.134117974175346
 20
5.4457485622829855
 30
0.0
 10
10.040816921657985
 20
5.203213840060763
 30
0.0
 10
9.1158087836371511
 20
4.61151869032118
 30
0.0
 10
8.4590013292100679
 20
3.8239698621961802
 30
0.0
  0
SPLINE
  5
160
100
AcDbEntity
  8
レイヤー_2
 62
     7
100
AcDbSpline
210
0.0
220
0.0
230
1.0
 70
     8
 71
     3
 72
     8
 73
     4
 74
     0
 42
0.00000001
 43
0.00000001
 40
0.0
 40
0.0
 40
0.0
 40
0.0
 40
1.0
 40
1.0
 40
1.0
 40
1.0
 10
8.4590013292100679
 20
-2.4500657823350691
 30
0.0
 10
9.1793707953559025
 20
-3.3072055392795137
 30
0.0
 10
10.132284206814235
 20
-3.8546312120225692
 30
0.0
 10
11.134117974175346
 20
-4.0721889919704859
 30
0.0
  0
SPLINE
  5
15F
100
AcDbEntity
  8
レイヤー_2
 62
     7
100
AcDbSpline
210
0.0
220
0.0
230
1.0
 70
     8
 71
     3
 72
     8
 73
     4
 74
     0
 42
0.00000001
 43
0.00000001
 40
0.0
 40
0.0
 40
0.0
 40
0.0
 40
1.0
 40
1.0
 40
1.0
 40
1.0
 10
13.24665052625868
 20
-4.0721889919704859
 30
0.0
 10
15.143864610460069
 20
-3.6511983235677081
 30
0.0
 10
16.535510932074651
 20
-2.1777309841579857
 30
0.0
 10
16.9494391547309
 20
-0.3699171278211805
 30
0.0
  0
SPLINE
  5
15E
100
AcDbEntity
  8
レイヤー_2
 62
     7
100
AcDbSpline
210
0.0
220
0.0
230
1.0
 70
     8
 71
     3
 72
     8
 73
     4
 74
     0
 42
0.00000001
 43
0.00000001
 40
0.0
 40
0.0
 40
0.0
 40
0.0
 40
1.0
 40
1.0
 40
1.0
 40
1.0
 10
-8.4536614312065961
 20
3.8239698621961802
 30
0.0
 10
-9.1742031521267347
 20
4.68128187391493
 30
0.0
 10
-10.126599799262152
 20
5.2273295084635416
 30
0.0
 10
-11.128433566623263
 20
5.4457485622829855
 30
0.0
  0
SPLINE
  5
15D
100
AcDbEntity
  8
レイヤー_2
 62
     7
100
AcDbSpline
210
0.0
220
0.0
230
1.0
 70
     8
 71
     3
 72
     8
 73
     4
 74
     0
 42
0.00000001
 43
0.00000001
 40
0.0
 40
0.0
 40
0.0
 40
0.0
 40
1.0
 40
1.0
 40
1.0
 40
1.0
 10
-13.240793863932291
 20
5.4457485622829855
 30
0.0
 10
-15.13800794813368
 20
5.0252746582031245
 30
0.0
 10
-16.529482014973958
 20
3.5512905544704858
 30
0.0
 10
-16.943754747178819
 20
1.7436489529079859
 30
0.0
  0
SPLINE
  5
15C
100
AcDbEntity
  8
レイヤー_2
 62
     7
100
AcDbSpline
210
0.0
220
0.0
230
1.0
 70
     8
 71
     3
 72
     8
 73
     4
 74
     0
 42
0.00000001
 43
0.00000001
 40
0.0
 40
0.0
 40
0.0
 40
0.0
 40
1.0
 40
1.0
 40
1.0
 40
1.0
 10
-16.943754747178819
 20
-0.3702616373697916
 30
0.0
 10
-16.522591824001733
 20
-2.267303466796875
 30
0.0
 10
-15.048435465494791
 20
-3.6587775336371524
 30
0.0
 10
-13.240793863932291
 20
-4.0721889919704859
 30
0.0
  0
SPLINE
  5
15B
100
AcDbEntity
  8
レイヤー_2
 62
     7
100
AcDbSpline
210
0.0
220
0.0
230
1.0
 70
     8
 71
     3
 72
     8
 73
     4
 74
     0
 42
0.00000001
 43
0.00000001
 40
0.0
 40
0.0
 40
0.0
 40
0.0
 40
1.0
 40
1.0
 40
1.0
 40
1.0
 10
-11.128433566623263
 20
-4.0721889919704859
 30
0.0
 10
-10.035477023654513
 20
-3.8299987792968748
 30
0.0
 10
-9.1101243760850679
 20
-3.2377868652343746
 30
0.0
 10
-8.4531446668836789
 20
-2.4505825466579858
 30
0.0
  0
LINE
  5
15A
100
AcDbEntity
  8
レイヤー_2
 62
     7
100
AcDbLine
 10
0.003187
 20
3.936452
 30
0.0
 11
-11.128434
 21
3.787969
 31
0.0
  0
LINE
  5
159
100
AcDbEntity
  8
レイヤー_2
 62
     7
100
AcDbLine
 10
11.134118
 20
3.787969
 30
0.0
 11
0.003187
 21
3.936452
 31
0.0
  0
LINE
  5
158
100
AcDbEntity
  8
レイヤー_2
 62
     7
100
AcDbLine
 10
2.049746
 20
-2.536021
 30
0.0
 11
11.134118
 21
-2.414754
 31
0.0
  0
LINE
  5
157
100
AcDbEntity
  8
レイヤー_2
 62
     7
100
AcDbLine
 10
-2.044923
 20
-3.176464
 30
0.0
 11
-2.044923
 21
-2.536021
 31
0.0
  0
LINE
  5
156
100
AcDbEntity
  8
レイヤー_2
 62
     7
100
AcDbLine
 10
2.050262
 20
-3.176464
 30
0.0
 11
2.050262
 21
-2.536021
 31
0.0
  0
LINE
  5
155
100
AcDbEntity
  8
レイヤー_2
 62
     7
100
AcDbLine
 10
-2.044923
 20
-3.176464
 30
0.0
 11
2.050607
 21
-3.176464
 31
0.0
  0
SPLINE
  5
154
100
AcDbEntity
  8
レイヤー_2
 62
     7
100
AcDbSpline
210
0.0
220
0.0
230
1.0
 70
     8
 71
     3
 72
     8
 73
     4
 74
     0
 42
0.00000001
 43
0.00000001
 40
0.0
 40
0.0
 40
0.0
 40
0.0
 40
1.0
 40
1.0
 40
1.0
 40
1.0
 10
2.050262451171875
 20
-2.5360209147135415
 30
0.0
 10
2.050262451171875
 20
-2.5360209147135415
 30
0.0
 10
1.1156080457899304
 20
-1.8561313205295138
 30
0.0
 10
0.0076653374565972
 20
-1.8561313205295138
 30
0.0
  0
SPLINE
  5
153
100
AcDbEntity
  8
レイヤー_2
 62
     7
100
AcDbSpline
210
0.0
220
0.0
230
1.0
 70
     8
 71
     3
 72
     8
 73
     4
 74
     0
 42
0.00000001
 43
0.00000001
 40
0.0
 40
0.0
 40
0.0
 40
0.0
 40
1.0
 40
1.0
 40
1.0
 40
1.0
 10
-2.0285583496093746
 20
-2.5360209147135415
 30
0.0
 10
-2.0285583496093746
 20
-2.5360209147135415
 30
0.0
 10
-1.0939039442274305
 20
-1.8561313205295138
 30
0.0
 10
0.0138665093315972
 20
-1.8561313205295138
 30
0.0
  0
LINE
  5
152
100
AcDbEntity
  8
レイヤー_2
 62
     7
100
AcDbLine
 10
11.134118
 20
-0.450877
 30
0.0
 11
11.134118
 21
-4.878858
 31
0.0
  0
LINE
  5
151
100
AcDbEntity
  8
レイヤー_2
 62
     7
100
AcDbLine
 10
13.246651
 20
-4.878858
 30
0.0
 11
13.246651
 21
-0.450877
 31
0.0
  0
SPLINE
  5
150
100
AcDbEntity
  8
レイヤー_2
 62
     7
100
AcDbSpline
210
0.0
220
0.0
230
1.0
 70
     8
 71
     3
 72
     8
 73
     4
 74
     0
 42
0.00000001
 43
0.00000001
 40
0.0
 40
0.0
 40
0.0
 40
0.0
 40
1.0
 40
1.0
 40
1.0
 40
1.0
 10
11.134117974175346
 20
-4.8788581000434021
 30
0.0
 10
11.134117974175346
 20
-4.9463819715711805
 30
0.0
 10
11.188722737630208
 20
-5.0006422254774305
 30
0.0
 10
11.255902099609374
 20
-5.0006422254774305
 30
0.0
  0
SPLINE
  5
14F
100
AcDbEntity
  8
レイヤー_2
 62
     7
100
AcDbSpline
210
0.0
220
0.0
230
1.0
 70
     8
 71
     3
 72
     8
 73
     4
 74
     0
 42
0.00000001
 43
0.00000001
 40
0.0
 40
0.0
 40
0.0
 40
0.0
 40
1.0
 40
1.0
 40
1.0
 40
1.0
 10
13.124866400824651
 20
-5.0006422254774305
 30
0.0
 10
13.192218017578124
 20
-5.0006422254774305
 30
0.0
 10
13.24665052625868
 20
-4.9463819715711805
 30
0.0
 10
13.24665052625868
 20
-4.8788581000434021
 30
0.0
  0
LINE
  5
14E
100
AcDbEntity
  8
レイヤー_2
 62
     7
100
AcDbLine
 10
17.755764
 20
1.743304
 30
0.0
 11
13.327438
 21
1.743304
 31
0.0
  0
LINE
  5
14D
100
AcDbEntity
  8
レイヤー_2
 62
     7
100
AcDbLine
 10
13.327438
 20
-0.369745
 30
0.0
 11
17.755764
 21
-0.369745
 31
0.0
  0
SPLINE
  5
14C
100
AcDbEntity
  8
レイヤー_2
 62
     7
100
AcDbSpline
210
0.0
220
0.0
230
1.0
 70
     8
 71
     3
 72
     8
 73
     4
 74
     0
 42
0.00000001
 43
0.00000001
 40
0.0
 40
0.0
 40
0.0
 40
0.0
 40
1.0
 40
1.0
 40
1.0
 40
1.0
 10
17.755763753255206
 20
-0.369744873046875
 30
0.0
 10
17.823632134331596
 20
-0.369744873046875
 30
0.0
 10
17.878064643012152
 20
-0.3151401095920139
 30
0.0
 10
17.878064643012152
 20
-0.2479607476128472
 30
0.0
  0
SPLINE
  5
14B
100
AcDbEntity
  8
レイヤー_2
 62
     7
100
AcDbSpline
210
0.0
220
0.0
230
1.0
 70
     8
 71
     3
 72
     8
 73
     4
 74
     0
 42
0.00000001
 43
0.00000001
 40
0.0
 40
0.0
 40
0.0
 40
0.0
 40
1.0
 40
1.0
 40
1.0
 40
1.0
 10
17.878064643012152
 20
1.6210035536024303
 30
0.0
 10
17.878064643012152
 20
1.6886996799045138
 30
0.0
 10
17.823632134331596
 20
1.7433044433593747
 30
0.0
 10
17.755763753255206
 20
1.7433044433593747
 30
0.0
  0
SPLINE
  5
14A
100
AcDbEntity
  8
レイヤー_2
 62
     7
100
AcDbSpline
210
0.0
220
0.0
230
1.0
 70
     8
 71
     3
 72
     8
 73
     4
 74
     0
 42
0.00000001
 43
0.00000001
 40
0.0
 40
0.0
 40
0.0
 40
0.0
 40
1.0
 40
1.0
 40
1.0
 40
1.0
 10
13.322442626953125
 20
-0.369744873046875
 30
0.0
 10
13.279378933376735
 20
-0.372845458984375
 30
0.0
 10
13.246822781032986
 20
-0.4083299424913194
 30
0.0
 10
13.24665052625868
 20
-0.4508768717447916
 30
0.0
  0
SPLINE
  5
149
100
AcDbEntity
  8
レイヤー_2
 62
     7
100
AcDbSpline
210
0.0
220
0.0
230
1.0
 70
     8
 71
     3
 72
     8
 73
     4
 74
     0
 42
0.00000001
 43
0.00000001
 40
0.0
 40
0.0
 40
0.0
 40
0.0
 40
1.0
 40
1.0
 40
1.0
 40
1.0
 10
13.246822781032986
 20
1.8185797797309027
 30
0.0
 10
13.250095621744791
 20
1.7756883409288193
 30
0.0
 10
13.28540785047743
 20
1.7433044433593747
 30
0.0
 10
13.327438015407985
 20
1.7433044433593747
 30
0.0
  0
LINE
  5
148
100
AcDbEntity
  8
レイヤー_2
 62
     7
100
AcDbLine
 10
11.134118
 20
6.252073
 30
0.0
 11
11.134118
 21
1.824092
 31
0.0
  0
LINE
  5
147
100
AcDbEntity
  8
レイヤー_2
 62
     7
100
AcDbLine
 10
13.246651
 20
1.824092
 30
0.0
 11
13.246651
 21
6.252073
 31
0.0
  0
LINE
  5
146
100
AcDbEntity
  8
レイヤー_2
 62
     7
100
AcDbLine
 10
11.052814
 20
1.743304
 30
0.0
 11
6.62466
 21
1.743304
 31
0.0
  0
LINE
  5
145
100
AcDbEntity
  8
レイヤー_2
 62
     7
100
AcDbLine
 10
6.62466
 20
-0.369745
 30
0.0
 11
11.052814
 21
-0.369745
 31
0.0
  0
SPLINE
  5
144
100
AcDbEntity
  8
レイヤー_2
 62
     7
100
AcDbSpline
210
0.0
220
0.0
230
1.0
 70
     8
 71
     3
 72
     8
 73
     4
 74
     0
 42
0.00000001
 43
0.00000001
 40
0.0
 40
0.0
 40
0.0
 40
0.0
 40
1.0
 40
1.0
 40
1.0
 40
1.0
 10
11.134117974175346
 20
-0.4450202094184028
 30
0.0
 10
11.131189643012151
 20
-0.402301025390625
 30
0.0
 10
11.095532904730902
 20
-0.369744873046875
 30
0.0
 10
11.05298597547743
 20
-0.369744873046875
 30
0.0
  0
SPLINE
  5
143
100
AcDbEntity
  8
レイヤー_2
 62
     7
100
AcDbSpline
210
0.0
220
0.0
230
1.0
 70
     8
 71
     3
 72
     8
 73
     4
 74
     0
 42
0.00000001
 43
0.00000001
 40
0.0
 40
0.0
 40
0.0
 40
0.0
 40
1.0
 40
1.0
 40
1.0
 40
1.0
 10
6.6246602376302075
 20
1.7433044433593747
 30
0.0
 10
6.5576531304253463
 20
1.7433044433593747
 30
0.0
 10
6.5027038574218743
 20
1.6886996799045138
 30
0.0
 10
6.5027038574218743
 20
1.6210035536024303
 30
0.0
  0
SPLINE
  5
142
100
AcDbEntity
  8
レイヤー_2
 62
     7
100
AcDbSpline
210
0.0
220
0.0
230
1.0
 70
     8
 71
     3
 72
     8
 73
     4
 74
     0
 42
0.00000001
 43
0.00000001
 40
0.0
 40
0.0
 40
0.0
 40
0.0
 40
1.0
 40
1.0
 40
1.0
 40
1.0
 10
6.5027038574218743
 20
-0.2479607476128472
 30
0.0
 10
6.5027038574218743
 20
-0.3151401095920139
 30
0.0
 10
6.5576531304253463
 20
-0.369744873046875
 30
0.0
 10
6.6246602376302075
 20
-0.369744873046875
 30
0.0
  0
SPLINE
  5
141
100
AcDbEntity
  8
レイヤー_2
 62
     7
100
AcDbSpline
210
0.0
220
0.0
230
1.0
 70
     8
 71
     3
 72
     8
 73
     4
 74
     0
 42
0.00000001
 43
0.00000001
 40
0.0
 40
0.0
 40
0.0
 40
0.0
 40
1.0
 40
1.0
 40
1.0
 40
1.0
 10
11.058498128255208
 20
1.7433044433593747
 30
0.0
 10
11.101217312282985
 20
1.7458882649739582
 30
0.0
 10
11.134117974175346
 20
1.7817172580295138
 30
0.0
 10
11.134117974175346
 20
1.8240919325086804
 30
0.0
  0
SPLINE
  5
140
100
AcDbEntity
  8
レイヤー_2
 62
     7
100
AcDbSpline
210
0.0
220
0.0
230
1.0
 70
     8
 71
     3
 72
     8
 73
     4
 74
     0
 42
0.00000001
 43
0.00000001
 40
0.0
 40
0.0
 40
0.0
 40
0.0
 40
1.0
 40
1.0
 40
1.0
 40
1.0
 10
13.24665052625868
 20
6.2520731608072913
 30
0.0
 10
13.24665052625868
 20
6.3192525227864573
 30
0.0
 10
13.192218017578124
 20
6.3742017957899302
 30
0.0
 10
13.124866400824651
 20
6.3742017957899302
 30
0.0
  0
SPLINE
  5
13F
100
AcDbEntity
  8
レイヤー_2
 62
     7
100
AcDbSpline
210
0.0
220
0.0
230
1.0
 70
     8
 71
     3
 72
     8
 73
     4
 74
     0
 42
0.00000001
 43
0.00000001
 40
0.0
 40
0.0
 40
0.0
 40
0.0
 40
1.0
 40
1.0
 40
1.0
 40
1.0
 10
11.255902099609374
 20
6.3742017957899302
 30
0.0
 10
11.188722737630208
 20
6.3742017957899302
 30
0.0
 10
11.134117974175346
 20
6.3192525227864573
 30
0.0
 10
11.134117974175346
 20
6.2520731608072913
 30
0.0
  0
SPLINE
  5
13E
100
AcDbEntity
  8
レイヤー_2
 62
     7
100
AcDbSpline
210
0.0
220
0.0
230
1.0
 70
     8
 71
     3
 72
     8
 73
     4
 74
     0
 42
0.00000001
 43
0.00000001
 40
0.0
 40
0.0
 40
0.0
 40
0.0
 40
1.0
 40
1.0
 40
1.0
 40
1.0
 10
-13.240793863932291
 20
-4.8788581000434021
 30
0.0
 10
-13.240793863932291
 20
-4.9463819715711805
 30
0.0
 10
-13.18618910047743
 20
-5.0006422254774305
 30
0.0
 10
-13.119009738498264
 20
-5.0006422254774305
 30
0.0
  0
SPLINE
  5
13D
100
AcDbEntity
  8
レイヤー_2
 62
     7
100
AcDbSpline
210
0.0
220
0.0
230
1.0
 70
     8
 71
     3
 72
     8
 73
     4
 74
     0
 42
0.00000001
 43
0.00000001
 40
0.0
 40
0.0
 40
0.0
 40
0.0
 40
1.0
 40
1.0
 40
1.0
 40
1.0
 10
-11.250562201605902
 20
-5.0006422254774305
 30
0.0
 10
-11.182866075303819
 20
-5.0006422254774305
 30
0.0
 10
-11.128433566623263
 20
-4.9463819715711805
 30
0.0
 10
-11.128433566623263
 20
-4.8788581000434021
 30
0.0
  0
LINE
  5
13C
100
AcDbEntity
  8
レイヤー_2
 62
     7
100
AcDbLine
 10
-13.240794
 20
-0.450877
 30
0.0
 11
-13.240794
 21
-4.878858
 31
0.0
  0
LINE
  5
13B
100
AcDbEntity
  8
レイヤー_2
 62
     7
100
AcDbLine
 10
-11.128434
 20
-4.878858
 30
0.0
 11
-11.128434
 21
-0.450877
 31
0.0
  0
LINE
  5
13A
100
AcDbEntity
  8
レイヤー_2
 62
     7
100
AcDbLine
 10
-6.61932
 20
1.743304
 30
0.0
 11
-11.047129
 21
1.743304
 31
0.0
  0
LINE
  5
139
100
AcDbEntity
  8
レイヤー_2
 62
     7
100
AcDbLine
 10
-11.047129
 20
-0.369745
 30
0.0
 11
-6.61932
 21
-0.369745
 31
0.0
  0
LINE
  5
138
100
AcDbEntity
  8
レイヤー_2
 62
     7
100
AcDbLine
 10
-13.322098
 20
1.743304
 30
0.0
 11
-17.750252
 21
1.743304
 31
0.0
  0
LINE
  5
137
100
AcDbEntity
  8
レイヤー_2
 62
     7
100
AcDbLine
 10
-17.750252
 20
-0.369745
 30
0.0
 11
-13.322098
 21
-0.369745
 31
0.0
  0
SPLINE
  5
136
100
AcDbEntity
  8
レイヤー_2
 62
     7
100
AcDbSpline
210
0.0
220
0.0
230
1.0
 70
     8
 71
     3
 72
     8
 73
     4
 74
     0
 42
0.00000001
 43
0.00000001
 40
0.0
 40
0.0
 40
0.0
 40
0.0
 40
1.0
 40
1.0
 40
1.0
 40
1.0
 10
-17.75025160047743
 20
1.7433044433593747
 30
0.0
 10
-17.817775472005206
 20
1.7433044433593747
 30
0.0
 10
-17.872380235460067
 20
1.6886996799045138
 30
0.0
 10
-17.872380235460067
 20
1.6210035536024303
 30
0.0
  0
SPLINE
  5
135
100
AcDbEntity
  8
レイヤー_2
 62
     7
100
AcDbSpline
210
0.0
220
0.0
230
1.0
 70
     8
 71
     3
 72
     8
 73
     4
 74
     0
 42
0.00000001
 43
0.00000001
 40
0.0
 40
0.0
 40
0.0
 40
0.0
 40
1.0
 40
1.0
 40
1.0
 40
1.0
 10
-17.872380235460067
 20
-0.2479607476128472
 30
0.0
 10
-17.872380235460067
 20
-0.3151401095920139
 30
0.0
 10
-17.817775472005206
 20
-0.369744873046875
 30
0.0
 10
-17.75025160047743
 20
-0.369744873046875
 30
0.0
  0
SPLINE
  5
134
100
AcDbEntity
  8
レイヤー_2
 62
     7
100
AcDbSpline
210
0.0
220
0.0
230
1.0
 70
     8
 71
     3
 72
     8
 73
     4
 74
     0
 42
0.00000001
 43
0.00000001
 40
0.0
 40
0.0
 40
0.0
 40
0.0
 40
1.0
 40
1.0
 40
1.0
 40
1.0
 10
-13.241310628255206
 20
-0.4450202094184028
 30
0.0
 10
-13.244238959418402
 20
-0.402301025390625
 30
0.0
 10
-13.279723442925347
 20
-0.369744873046875
 30
0.0
 10
-13.322098117404513
 20
-0.369744873046875
 30
0.0
  0
SPLINE
  5
133
100
AcDbEntity
  8
レイヤー_2
 62
     7
100
AcDbSpline
210
0.0
220
0.0
230
1.0
 70
     8
 71
     3
 72
     8
 73
     4
 74
     0
 42
0.00000001
 43
0.00000001
 40
0.0
 40
0.0
 40
0.0
 40
0.0
 40
1.0
 40
1.0
 40
1.0
 40
1.0
 10
-11.052813720703124
 20
-0.369744873046875
 30
0.0
 10
-11.095705159505208
 20
-0.372845458984375
 30
0.0
 10
-11.128433566623263
 20
-0.4083299424913194
 30
0.0
 10
-11.128433566623263
 20
-0.4508768717447916
 30
0.0
  0
SPLINE
  5
132
100
AcDbEntity
  8
レイヤー_2
 62
     7
100
AcDbSpline
210
0.0
220
0.0
230
1.0
 70
     8
 71
     3
 72
     8
 73
     4
 74
     0
 42
0.00000001
 43
0.00000001
 40
0.0
 40
0.0
 40
0.0
 40
0.0
 40
1.0
 40
1.0
 40
1.0
 40
1.0
 10
-11.128433566623263
 20
1.8185797797309027
 30
0.0
 10
-11.125160725911456
 20
1.7756883409288193
 30
0.0
 10
-11.089676242404513
 20
1.7433044433593747
 30
0.0
 10
-11.047129313151041
 20
1.7433044433593747
 30
0.0
  0
LINE
  5
131
100
AcDbEntity
  8
レイヤー_2
 62
     7
100
AcDbLine
 10
-13.240794
 20
6.252073
 30
0.0
 11
-13.240794
 21
1.824092
 31
0.0
  0
LINE
  5
130
100
AcDbEntity
  8
レイヤー_2
 62
     7
100
AcDbLine
 10
-11.128434
 20
1.824092
 30
0.0
 11
-11.128434
 21
6.252073
 31
0.0
  0
SPLINE
  5
12F
100
AcDbEntity
  8
レイヤー_2
 62
     7
100
AcDbSpline
210
0.0
220
0.0
230
1.0
 70
     8
 71
     3
 72
     8
 73
     4
 74
     0
 42
0.00000001
 43
0.00000001
 40
0.0
 40
0.0
 40
0.0
 40
0.0
 40
1.0
 40
1.0
 40
1.0
 40
1.0
 10
-6.6193203396267357
 20
-0.369744873046875
 30
0.0
 10
-6.5517964680989573
 20
-0.369744873046875
 30
0.0
 10
-6.4971917046440968
 20
-0.3151401095920139
 30
0.0
 10
-6.4971917046440968
 20
-0.2479607476128472
 30
0.0
  0
SPLINE
  5
12E
100
AcDbEntity
  8
レイヤー_2
 62
     7
100
AcDbSpline
210
0.0
220
0.0
230
1.0
 70
     8
 71
     3
 72
     8
 73
     4
 74
     0
 42
0.00000001
 43
0.00000001
 40
0.0
 40
0.0
 40
0.0
 40
0.0
 40
1.0
 40
1.0
 40
1.0
 40
1.0
 10
-6.4971917046440968
 20
1.6210035536024303
 30
0.0
 10
-6.4971917046440968
 20
1.6886996799045138
 30
0.0
 10
-6.5517964680989573
 20
1.7433044433593747
 30
0.0
 10
-6.6193203396267357
 20
1.7433044433593747
 30
0.0
  0
SPLINE
  5
12D
100
AcDbEntity
  8
レイヤー_2
 62
     7
100
AcDbSpline
210
0.0
220
0.0
230
1.0
 70
     8
 71
     3
 72
     8
 73
     4
 74
     0
 42
0.00000001
 43
0.00000001
 40
0.0
 40
0.0
 40
0.0
 40
0.0
 40
1.0
 40
1.0
 40
1.0
 40
1.0
 10
-13.31641370985243
 20
1.7433044433593747
 30
0.0
 10
-13.273694525824652
 20
1.7458882649739582
 30
0.0
 10
-13.240793863932291
 20
1.7817172580295138
 30
0.0
 10
-13.240793863932291
 20
1.8240919325086804
 30
0.0
  0
SPLINE
  5
12C
100
AcDbEntity
  8
レイヤー_2
 62
     7
100
AcDbSpline
210
0.0
220
0.0
230
1.0
 70
     8
 71
     3
 72
     8
 73
     4
 74
     0
 42
0.00000001
 43
0.00000001
 40
0.0
 40
0.0
 40
0.0
 40
0.0
 40
1.0
 40
1.0
 40
1.0
 40
1.0
 10
-11.128433566623263
 20
6.2520731608072913
 30
0.0
 10
-11.128433566623263
 20
6.3192525227864573
 30
0.0
 10
-11.182866075303819
 20
6.3742017957899302
 30
0.0
 10
-11.250562201605902
 20
6.3742017957899302
 30
0.0
  0
SPLINE
  5
12B
100
AcDbEntity
  8
レイヤー_2
 62
     7
100
AcDbSpline
210
0.0
220
0.0
230
1.0
 70
     8
 71
     3
 72
     8
 73
     4
 74
     0
 42
0.00000001
 43
0.00000001
 40
0.0
 40
0.0
 40
0.0
 40
0.0
 40
1.0
 40
1.0
 40
1.0
 40
1.0
 10
-13.119009738498264
 20
6.3742017957899302
 30
0.0
 10
-13.18618910047743
 20
6.3742017957899302
 30
0.0
 10
-13.240793863932291
 20
6.3192525227864573
 30
0.0
 10
-13.240793863932291
 20
6.2520731608072913
 30
0.0
  0
SPLINE
  5
12A
100
AcDbEntity
  8
レイヤー_2
 62
     7
100
AcDbSpline
210
0.0
220
0.0
230
1.0
 70
     8
 71
     3
 72
     8
 73
     4
 74
     0
 42
0.00000001
 43
0.00000001
 40
0.0
 40
0.0
 40
0.0
 40
0.0
 40
1.0
 40
1.0
 40
1.0
 40
1.0
 10
13.24665052625868
 20
-1.0988993326822916
 30
0.0
 10
13.562221272786458
 20
-0.9125196668836805
 30
0.0
 10
13.810095893012152
 20
-0.6549987792968749
 30
0.0
 10
13.975977240668401
 20
-0.369744873046875
 30
0.0
  0
SPLINE
  5
129
100
AcDbEntity
  8
レイヤー_2
 62
     7
100
AcDbSpline
210
0.0
220
0.0
230
1.0
 70
     8
 71
     3
 72
     8
 73
     4
 74
     0
 42
0.00000001
 43
0.00000001
 40
0.0
 40
0.0
 40
0.0
 40
0.0
 40
1.0
 40
1.0
 40
1.0
 40
1.0
 10
10.404619004991318
 20
-0.369744873046875
 30
0.0
 10
10.590998670789929
 20
-0.6849711100260416
 30
0.0
 10
10.848002794053819
 20
-0.9331902398003471
 30
0.0
 10
11.134117974175346
 20
-1.0988993326822916
 30
0.0
  0
SPLINE
  5
128
100
AcDbEntity
  8
レイヤー_2
 62
     7
100
AcDbSpline
210
0.0
220
0.0
230
1.0
 70
     8
 71
     3
 72
     8
 73
     4
 74
     0
 42
0.00000001
 43
0.00000001
 40
0.0
 40
0.0
 40
0.0
 40
0.0
 40
1.0
 40
1.0
 40
1.0
 40
1.0
 10
11.134117974175346
 20
2.4724589029947914
 30
0.0
 10
10.818547227647569
 20
2.2859069824218747
 30
0.0
 10
10.570672607421875
 20
2.0285583496093746
 30
0.0
 10
10.404619004991318
 20
1.7433044433593747
 30
0.0
  0
SPLINE
  5
127
100
AcDbEntity
  8
レイヤー_2
 62
     7
100
AcDbSpline
210
0.0
220
0.0
230
1.0
 70
     8
 71
     3
 72
     8
 73
     4
 74
     0
 42
0.00000001
 43
0.00000001
 40
0.0
 40
0.0
 40
0.0
 40
0.0
 40
1.0
 40
1.0
 40
1.0
 40
1.0
 10
13.975977240668401
 20
1.7433044433593747
 30
0.0
 10
13.789425320095486
 20
2.0585306803385417
 30
0.0
 10
13.532593451605901
 20
2.306749810112847
 30
0.0
 10
13.24665052625868
 20
2.4724589029947914
 30
0.0
  0
SPLINE
  5
126
100
AcDbEntity
  8
レイヤー_2
 62
     7
100
AcDbSpline
210
0.0
220
0.0
230
1.0
 70
     8
 71
     3
 72
     8
 73
     4
 74
     0
 42
0.00000001
 43
0.00000001
 40
0.0
 40
0.0
 40
0.0
 40
0.0
 40
1.0
 40
1.0
 40
1.0
 40
1.0
 10
-11.128433566623263
 20
-1.0988993326822916
 30
0.0
 10
-10.81269056532118
 20
-0.9125196668836805
 30
0.0
 10
-10.564815945095486
 20
-0.6549987792968749
 30
0.0
 10
-10.398590087890623
 20
-0.369744873046875
 30
0.0
  0
SPLINE
  5
125
100
AcDbEntity
  8
レイヤー_2
 62
     7
100
AcDbSpline
210
0.0
220
0.0
230
1.0
 70
     8
 71
     3
 72
     8
 73
     4
 74
     0
 42
0.00000001
 43
0.00000001
 40
0.0
 40
0.0
 40
0.0
 40
0.0
 40
1.0
 40
1.0
 40
1.0
 40
1.0
 10
-13.970292833116318
 20
-0.369744873046875
 30
0.0
 10
-13.783913167317706
 20
-0.6849711100260416
 30
0.0
 10
-13.526564534505207
 20
-0.9331902398003471
 30
0.0
 10
-13.240793863932291
 20
-1.0988993326822916
 30
0.0
  0
SPLINE
  5
124
100
AcDbEntity
  8
レイヤー_2
 62
     7
100
AcDbSpline
210
0.0
220
0.0
230
1.0
 70
     8
 71
     3
 72
     8
 73
     4
 74
     0
 42
0.00000001
 43
0.00000001
 40
0.0
 40
0.0
 40
0.0
 40
0.0
 40
1.0
 40
1.0
 40
1.0
 40
1.0
 10
-13.240793863932291
 20
2.4724589029947914
 30
0.0
 10
-13.556536865234374
 20
2.2859069824218747
 30
0.0
 10
-13.804411485460069
 20
2.0285583496093746
 30
0.0
 10
-13.970292833116318
 20
1.7433044433593747
 30
0.0
  0
SPLINE
  5
123
100
AcDbEntity
  8
レイヤー_2
 62
     7
100
AcDbSpline
210
0.0
220
0.0
230
1.0
 70
     8
 71
     3
 72
     8
 73
     4
 74
     0
 42
0.00000001
 43
0.00000001
 40
0.0
 40
0.0
 40
0.0
 40
0.0
 40
1.0
 40
1.0
 40
1.0
 40
1.0
 10
-10.398590087890623
 20
1.7433044433593747
 30
0.0
 10
-10.585831027560763
 20
2.0585306803385417
 30
0.0
 10
-10.84249064127604
 20
2.306749810112847
 30
0.0
 10
-11.128433566623263
 20
2.4724589029947914
 30
0.0
  0
SPLINE
  5
122
100
AcDbEntity
  8
レイヤー_2
 62
     7
100
AcDbSpline
210
0.0
220
0.0
230
1.0
 70
     8
 71
     3
 72
     8
 73
     4
 74
     0
 42
0.00000001
 43
0.00000001
 40
0.0
 40
0.0
 40
0.0
 40
0.0
 40
1.0
 40
1.0
 40
1.0
 40
1.0
 10
-11.128433566623263
 20
-2.2149380154079861
 30
0.0
 10
-10.238565402560763
 20
-1.8902377658420138
 30
0.0
 10
-9.5877868652343743
 20
-1.1996683756510416
 30
0.0
 10
-9.2834126790364575
 20
-0.369744873046875
 30
0.0
  0
SPLINE
  5
121
100
AcDbEntity
  8
レイヤー_2
 62
     7
100
AcDbSpline
210
0.0
220
0.0
230
1.0
 70
     8
 71
     3
 72
     8
 73
     4
 74
     0
 42
0.00000001
 43
0.00000001
 40
0.0
 40
0.0
 40
0.0
 40
0.0
 40
1.0
 40
1.0
 40
1.0
 40
1.0
 10
-9.2834126790364575
 20
1.7433044433593747
 30
0.0
 10
-9.6072516547309021
 20
2.6326558430989579
 30
0.0
 10
-10.297821044921873
 20
3.283089870876736
 30
0.0
 10
-11.128433566623263
 20
3.587980821397569
 30
0.0
  0
LINE
  5
120
100
AcDbEntity
  8
レイヤー_2
 62
     7
100
AcDbLine
 10
13.124866
 20
-5.000642
 30
0.0
 11
11.255902
 21
-5.000642
 31
0.0
  0
LINE
  5
11F
100
AcDbEntity
  8
レイヤー_2
 62
     7
100
AcDbLine
 10
17.878065
 20
0.686694
 30
0.0
 11
17.878065
 21
-0.247961
 31
0.0
  0
LINE
  5
11E
100
AcDbEntity
  8
レイヤー_2
 62
     7
100
AcDbLine
 10
17.878065
 20
1.621004
 30
0.0
 11
17.878065
 21
0.686694
 31
0.0
  0
LINE
  5
11D
100
AcDbEntity
  8
レイヤー_2
 62
     7
100
AcDbLine
 10
6.502704
 20
-0.247961
 30
0.0
 11
6.502704
 21
1.621004
 31
0.0
  0
LINE
  5
11C
100
AcDbEntity
  8
レイヤー_2
 62
     7
100
AcDbLine
 10
11.255902
 20
6.374202
 30
0.0
 11
13.124866
 21
6.374202
 31
0.0
  0
LINE
  5
11B
100
AcDbEntity
  8
レイヤー_2
 62
     7
100
AcDbLine
 10
-11.250562
 20
-5.000642
 30
0.0
 11
-13.11901
 21
-5.000642
 31
0.0
  0
LINE
  5
11A
100
AcDbEntity
  8
レイヤー_2
 62
     7
100
AcDbLine
 10
-17.87238
 20
-0.247961
 30
0.0
 11
-17.87238
 21
1.621004
 31
0.0
  0
LINE
  5
119
100
AcDbEntity
  8
レイヤー_2
 62
     7
100
AcDbLine
 10
-6.497192
 20
0.686694
 30
0.0
 11
-6.497192
 21
-0.247961
 31
0.0
  0
LINE
  5
118
100
AcDbEntity
  8
レイヤー_2
 62
     7
100
AcDbLine
 10
-6.497192
 20
1.621004
 30
0.0
 11
-6.497192
 21
0.686694
 31
0.0
  0
LINE
  5
117
100
AcDbEntity
  8
レイヤー_2
 62
     7
100
AcDbLine
 10
-13.11901
 20
6.374202
 30
0.0
 11
-11.250562
 21
6.374202
 31
0.0
  0
SPLINE
  5
116
100
AcDbEntity
  8
レイヤー_2
 62
     7
100
AcDbSpline
210
0.0
220
0.0
230
1.0
 70
     8
 71
     3
 72
     8
 73
     4
 74
     0
 42
0.00000001
 43
0.00000001
 40
0.0
 40
0.0
 40
0.0
 40
0.0
 40
1.0
 40
1.0
 40
1.0
 40
1.0
 10
-13.87176310221354
 20
-0.369744873046875
 30
0.0
 10
-13.787875027126734
 20
-0.5034145779079861
 30
0.0
 10
-13.690378824869791
 20
-0.6241651746961805
 30
0.0
 10
-13.592193603515623
 20
-0.7204555935329861
 30
0.0
  0
SPLINE
  5
115
100
AcDbEntity
  8
レイヤー_2
 62
     7
100
AcDbSpline
210
0.0
220
0.0
230
1.0
 70
     8
 71
     3
 72
     8
 73
     4
 74
     0
 42
0.00000001
 43
0.00000001
 40
0.0
 40
0.0
 40
0.0
 40
0.0
 40
1.0
 40
1.0
 40
1.0
 40
1.0
 10
-13.240793863932291
 20
2.3742736816406249
 30
0.0
 10
-13.509339057074651
 20
2.2061530219184027
 30
0.0
 10
-13.723796251085068
 20
1.9846333821614581
 30
0.0
 10
-13.87176310221354
 20
1.7433044433593747
 30
0.0
  0
SPLINE
  5
114
100
AcDbEntity
  8
レイヤー_2
 62
     7
100
AcDbSpline
210
0.0
220
0.0
230
1.0
 70
     8
 71
     3
 72
     8
 73
     4
 74
     0
 42
0.00000001
 43
0.00000001
 40
0.0
 40
0.0
 40
0.0
 40
0.0
 40
1.0
 40
1.0
 40
1.0
 40
1.0
 10
-10.497119818793403
 20
1.7433044433593747
 30
0.0
 10
-10.66541273328993
 20
2.0111606174045136
 30
0.0
 10
-10.886760118272569
 20
2.2254455566406248
 30
0.0
 10
-11.128433566623263
 20
2.3742736816406249
 30
0.0
  0
SPLINE
  5
113
100
AcDbEntity
  8
レイヤー_2
 62
     7
100
AcDbSpline
210
0.0
220
0.0
230
1.0
 70
     8
 71
     3
 72
     8
 73
     4
 74
     0
 42
0.00000001
 43
0.00000001
 40
0.0
 40
0.0
 40
0.0
 40
0.0
 40
1.0
 40
1.0
 40
1.0
 40
1.0
 10
-11.128433566623263
 20
-1.0007141113281248
 30
0.0
 10
-10.860232883029513
 20
-0.8325934516059027
 30
0.0
 10
-10.645947943793402
 20
-0.6110738118489583
 30
0.0
 10
-10.497119818793403
 20
-0.369744873046875
 30
0.0
  0
SPLINE
  5
112
100
AcDbEntity
  8
レイヤー_2
 62
     7
100
AcDbSpline
210
0.0
220
0.0
230
1.0
 70
     8
 71
     3
 72
     8
 73
     4
 74
     0
 42
0.00000001
 43
0.00000001
 40
0.0
 40
0.0
 40
0.0
 40
0.0
 40
1.0
 40
1.0
 40
1.0
 40
1.0
 10
-13.592193603515623
 20
-0.7204555935329861
 30
0.0
 10
-13.480228000217013
 20
-0.8325934516059027
 30
0.0
 10
-13.358788384331596
 20
-0.9287116156684027
 30
0.0
 10
-13.240793863932291
 20
-1.0007141113281248
 30
0.0
  0
SPLINE
  5
111
100
AcDbEntity
  8
レイヤー_2
 62
     7
100
AcDbSpline
210
0.0
220
0.0
230
1.0
 70
     8
 71
     3
 72
     8
 73
     4
 74
     0
 42
0.00000001
 43
0.00000001
 40
0.0
 40
0.0
 40
0.0
 40
0.0
 40
1.0
 40
1.0
 40
1.0
 40
1.0
 10
10.50263197157118
 20
-0.369744873046875
 30
0.0
 10
10.586864556206596
 20
-0.5034145779079861
 30
0.0
 10
10.684188503689235
 20
-0.6241651746961805
 30
0.0
 10
10.782545979817707
 20
-0.7204555935329861
 30
0.0
  0
SPLINE
  5
110
100
AcDbEntity
  8
レイヤー_2
 62
     7
100
AcDbSpline
210
0.0
220
0.0
230
1.0
 70
     8
 71
     3
 72
     8
 73
     4
 74
     0
 42
0.00000001
 43
0.00000001
 40
0.0
 40
0.0
 40
0.0
 40
0.0
 40
1.0
 40
1.0
 40
1.0
 40
1.0
 10
11.134117974175346
 20
2.3742736816406249
 30
0.0
 10
10.865917290581596
 20
2.2061530219184027
 30
0.0
 10
10.65146009657118
 20
1.9846333821614581
 30
0.0
 10
10.50263197157118
 20
1.7433044433593747
 30
0.0
  0
SPLINE
  5
10F
100
AcDbEntity
  8
レイヤー_2
 62
     7
100
AcDbSpline
210
0.0
220
0.0
230
1.0
 70
     8
 71
     3
 72
     8
 73
     4
 74
     0
 42
0.00000001
 43
0.00000001
 40
0.0
 40
0.0
 40
0.0
 40
0.0
 40
1.0
 40
1.0
 40
1.0
 40
1.0
 10
13.877792019314235
 20
1.7433044433593747
 30
0.0
 10
13.709843614366319
 20
2.0111606174045136
 30
0.0
 10
13.488323974609374
 20
2.2254455566406248
 30
0.0
 10
13.24665052625868
 20
2.3742736816406249
 30
0.0
  0
SPLINE
  5
10E
100
AcDbEntity
  8
レイヤー_2
 62
     7
100
AcDbSpline
210
0.0
220
0.0
230
1.0
 70
     8
 71
     3
 72
     8
 73
     4
 74
     0
 42
0.00000001
 43
0.00000001
 40
0.0
 40
0.0
 40
0.0
 40
0.0
 40
1.0
 40
1.0
 40
1.0
 40
1.0
 10
13.24665052625868
 20
-1.0007141113281248
 30
0.0
 10
13.514678955078123
 20
-0.8325934516059027
 30
0.0
 10
13.728963894314235
 20
-0.6110738118489583
 30
0.0
 10
13.877792019314235
 20
-0.369744873046875
 30
0.0
  0
SPLINE
  5
10D
100
AcDbEntity
  8
レイヤー_2
 62
     7
100
AcDbSpline
210
0.0
220
0.0
230
1.0
 70
     8
 71
     3
 72
     8
 73
     4
 74
     0
 42
0.00000001
 43
0.00000001
 40
0.0
 40
0.0
 40
0.0
 40
0.0
 40
1.0
 40
1.0
 40
1.0
 40
1.0
 10
10.782545979817707
 20
-0.7204555935329861
 30
0.0
 10
10.894511583116319
 20
-0.8325934516059027
 30
0.0
 10
11.016812472873262
 20
-0.9287116156684027
 30
0.0
 10
11.134117974175346
 20
-1.0007141113281248
 30
0.0
  0
LINE
  5
10C
100
AcDbEntity
  8
レイヤー_2
 62
     7
100
AcDbLine
 10
-13.187567
 20
1.691284
 30
0.0
 11
-11.187345
 21
-0.374396
 31
0.0
  0
LINE
  5
10B
100
AcDbEntity
  8
レイヤー_2
 62
     7
100
AcDbLine
 10
-13.187567
 20
-0.363544
 30
0.0
 11
-11.165468
 21
1.723495
 31
0.0
  0
LINE
  5
10A
100
AcDbEntity
  8
レイヤー_2
 62
     7
100
AcDbLine
 10
11.157545
 20
1.740548
 30
0.0
 11
13.21685
 21
-0.34873
 31
0.0
  0
LINE
  5
109
100
AcDbEntity
  8
レイヤー_2
 62
     7
100
AcDbLine
 10
11.164779
 20
-0.356309
 30
0.0
 11
13.239244
 21
1.72539
 31
0.0
  0
LINE
  5
108
100
AcDbEntity
  8
レイヤー_2
  6
AI9-LType1
 62
     7
100
AcDbLine
 10
12.220701
 20
-5.505349
 30
0.0
 11
12.220701
 21
6.70407
 31
0.0
  0
LINE
  5
107
100
AcDbEntity
  8
レイヤー_2
 62
     7
100
AcDbLine
 10
12.220701
 20
6.70407
 30
0.0
 11
12.220701
 21
7.353815
 31
0.0
  0
LINE
  5
106
100
AcDbEntity
  8
レイヤー_2
 62
     7
100
AcDbLine
 10
1.481477
 20
-13.420972
 30
0.0
 11
1.481477
 21
-9.108057
 31
0.0
  0
LINE
  5
105
100
AcDbEntity
  8
レイヤー_2
 62
     7
100
AcDbLine
 10
-1.443409
 20
-9.108057
 30
0.0
 11
-1.443409
 21
-13.420972
 31
0.0
  0
LINE
  5
104
100
AcDbEntity
  8
レイヤー_2
 62
     7
100
AcDbLine
 10
-1.443409
 20
-6.914393
 30
0.0
 11
-1.443409
 21
-9.108057
 31
0.0
  0
LINE
  5
103
100
AcDbEntity
  8
レイヤー_2
 62
     7
100
AcDbLine
 10
1.481477
 20
-9.108057
 30
0.0
 11
1.481477
 21
-6.914393
 31
0.0
  0
LINE
  5
102
100
AcDbEntity
  8
レイヤー_2
 62
     7
100
AcDbLine
 10
2.050607
 20
-6.914393
 30
0.0
 11
2.050607
 21
-3.176464
 31
0.0
  0
LINE
  5
101
100
AcDbEntity
  8
レイヤー_2
 62
     7
100
AcDbLine
 10
-2.012194
 20
-3.176464
 30
0.0
 11
-2.012194
 21
-6.914393
 31
0.0
  0
LINE
  5
100
100
AcDbEntity
  8
レイヤー_2
 62
     7
100
AcDbLine
 10
1.806694
 20
-22.920651
 30
0.0
 11
1.806694
 21
-21.457863
 31
0.0
  0
LINE
  5
FF
100
AcDbEntity
  8
レイヤー_2
 62
     7
100
AcDbLine
 10
-1.768281
 20
-21.457863
 30
0.0
 11
-1.768281
 21
-22.920651
 31
0.0
  0
LINE
  5
FE
100
AcDbEntity
  8
レイヤー_2
 62
     7
100
AcDbLine
 10
-1.930545
 20
-22.920651
 30
0.0
 11
-1.930545
 21
-25.682928
 31
0.0
  0
LINE
  5
FD
100
AcDbEntity
  8
レイヤー_2
 62
     7
100
AcDbLine
 10
1.969303
 20
-25.682928
 30
0.0
 11
1.969303
 21
-22.920651
 31
0.0
  0
LINE
  5
FC
100
AcDbEntity
  8
レイヤー_2
 62
     7
100
AcDbLine
 10
2.050607
 20
-3.176464
 30
0.0
 11
-1.9538
 21
-3.176464
 31
0.0
  0
LINE
  5
FB
100
AcDbEntity
  8
レイヤー_2
 62
     7
100
AcDbLine
 10
-1.9538
 20
-6.914393
 30
0.0
 11
-2.012194
 21
-6.914393
 31
0.0
  0
LINE
  5
FA
100
AcDbEntity
  8
レイヤー_2
 62
     7
100
AcDbLine
 10
2.050607
 20
-6.914393
 30
0.0
 11
-1.9538
 21
-6.914393
 31
0.0
  0
LINE
  5
F9
100
AcDbEntity
  8
レイヤー_2
 62
     7
100
AcDbLine
 10
-2.012194
 20
-3.176464
 30
0.0
 11
2.050607
 21
-3.176464
 31
0.0
  0
LINE
  5
F8
100
AcDbEntity
  8
レイヤー_2
 62
     7
100
AcDbLine
 10
-0.240898
 20
-22.920651
 30
0.0
 11
1.969303
 21
-22.920651
 31
0.0
  0
LINE
  5
F7
100
AcDbEntity
  8
レイヤー_2
 62
     7
100
AcDbLine
 10
-1.930545
 20
-22.920651
 30
0.0
 11
-0.240898
 21
-22.920651
 31
0.0
  0
LINE
  5
F6
100
AcDbEntity
  8
レイヤー_2
 62
     7
100
AcDbLine
 10
-0.240898
 20
-25.682928
 30
0.0
 11
1.969303
 21
-25.682928
 31
0.0
  0
LINE
  5
F5
100
AcDbEntity
  8
レイヤー_2
 62
     7
100
AcDbLine
 10
-1.930545
 20
-25.682928
 30
0.0
 11
-0.240898
 21
-25.682928
 31
0.0
  0
LINE
  5
F4
100
AcDbEntity
  8
レイヤー_2
 62
     7
100
AcDbLine
 10
1.806694
 20
-21.457863
 30
0.0
 11
1.806694
 21
-14.795565
 31
0.0
  0
LINE
  5
F3
100
AcDbEntity
  8
レイヤー_2
 62
     7
100
AcDbLine
 10
-1.768281
 20
-14.795565
 30
0.0
 11
-1.768281
 21
-21.457863
 31
0.0
  0
LINE
  5
F2
100
AcDbEntity
  8
レイヤー_2
  6
AI9-LType1
 62
     7
100
AcDbLine
 10
0.003014
 20
-26.406399
 30
0.0
 11
0.003014
 21
-1.658727
 31
0.0
  0
LINE
  5
F1
100
AcDbEntity
  8
レイヤー_2
 62
     7
100
AcDbLine
 10
0.003014
 20
-1.658727
 30
0.0
 11
0.003014
 21
-1.008466
 31
0.0
  0
LINE
  5
F0
100
AcDbEntity
  8
レイヤー_2
  6
AI9-LType1
 62
     7
100
AcDbLine
 10
-18.544174
 20
0.642424
 30
0.0
 11
17.893912
 21
0.642424
 31
0.0
  0
LINE
  5
EF
100
AcDbEntity
  8
レイヤー_2
 62
     7
100
AcDbLine
 10
17.893912
 20
0.642424
 30
0.0
 11
18.544174
 21
0.642424
 31
0.0
  0
LINE
  5
EE
100
AcDbEntity
  8
レイヤー_2
  6
AI9-LType1
 62
     7
100
AcDbLine
 10
-12.203303
 20
-5.505349
 30
0.0
 11
-12.203303
 21
6.547662
 31
0.0
  0
LINE
  5
ED
100
AcDbEntity
  8
レイヤー_2
 62
     7
100
AcDbLine
 10
-12.203303
 20
6.547662
 30
0.0
 11
-12.203303
 21
7.197407
 31
0.0
  0
LINE
  5
EC
100
AcDbEntity
  8
レイヤー_2
  6
AI9-LType1
 62
     7
100
AcDbLine
 10
12.220701
 20
-5.505349
 30
0.0
 11
12.220701
 21
6.70407
 31
0.0
  0
LINE
  5
EB
100
AcDbEntity
  8
レイヤー_2
 62
     7
100
AcDbLine
 10
12.220701
 20
6.70407
 30
0.0
 11
12.220701
 21
7.353815
 31
0.0
  0
LINE
  5
EA
100
AcDbEntity
  8
レイヤー_2
 62
     7
100
AcDbLine
 10
-12.204854
 20
7.944132
 30
0.0
 11
-12.204854
 21
26.406399
 31
0.0
  0
LINE
  5
E9
100
AcDbEntity
  8
レイヤー_2
 62
     7
100
AcDbLine
 10
12.232414
 20
8.265215
 30
0.0
 11
12.232414
 21
26.328367
 31
0.0
  0
LINE
  5
E8
100
AcDbEntity
  8
レイヤー_2
 62
     7
100
AcDbLine
 10
-12.785352
 20
25.609892
 30
0.0
 11
12.893528
 21
25.609892
 31
0.0
  0
LINE
  5
E7
100
AcDbEntity
  8
レイヤー_2
 62
     7
100
AcDbLine
 10
-11.515662
 20
26.374187
 30
0.0
 11
-12.92884
 21
24.784103
 31
0.0
  0
LINE
  5
E6
100
AcDbEntity
  8
レイヤー_2
 62
     7
100
AcDbLine
 10
12.951923
 20
26.353
 30
0.0
 11
11.538572
 21
24.762743
 31
0.0
  0
ENDBLK
  5
172
100
AcDbEntity
  8
レイヤー_2
100
AcDbBlockEnd
  0
ENDSEC
  0
SECTION
  2
ENTITIES
  0
MTEXT
  5
195
100
AcDbEntity
  8
レイヤー_1
 62
     7
100
AcDbMText
 10
47.801389
 20
54.121991
 30
0.0
 40
3.674768
 41
0.0
 71
     1
 72
     2
  1
\fOsaka|b0|i0|c128;\H3.6748;\C7;\U+0033\U+0031\U+002E\U+0031\U+0035\U+0031\U+002E\U+0038\U+0039\U+0032\U+002E\U+0058\U+0058
  7
STD
210
0.0
220
0.0
230
1.0
 73
     1
 44
1.0
  0
MTEXT
  5
194
100
AcDbEntity
  8
レイヤー_1
 62
     7
100
AcDbMText
 10
39.6875
 20
56.608234
 30
0.0
 40
1.574901
 41
0.0
 71
     1
 72
     2
  1
\fOsaka|b0|i0|c128;\H1.5749;\C7;\U+54C1\U+756A
  7
STD
210
0.0
220
0.0
230
1.0
 73
     1
 44
1.0
  0
MTEXT
  5
193
100
AcDbEntity
  8
レイヤー_1
 62
     7
100
AcDbMText
 10
47.801389
 20
32.959209
 30
0.0
 40
3.149486
 41
0.0
 71
     1
 72
     2
  1
\fOsaka|b0|i0|c128;\H3.1495;\C7;\U+58C1\U+51FA\U+FF12\U+30D0\U+30EB\U+30D6\U+30AD\U+30C3\U+30C1\U+30F3\U+7528\U+6DF7\U+5408\U+6813
  7
STD
210
0.0
220
0.0
230
1.0
 73
     1
 44
1.0
  0
MTEXT
  5
192
100
AcDbEntity
  8
レイヤー_1
 62
     7
100
AcDbMText
 10
39.6875
 20
35.441567
 30
0.0
 40
1.574901
 41
0.0
 71
     1
 72
     2
  1
\fOsaka|b0|i0|c128;\H1.5749;\C7;\U+54C1
  7
STD
210
0.0
220
0.0
230
1.0
 73
     1
 44
1.0
  0
MTEXT
  5
191
100
AcDbEntity
  8
レイヤー_1
 62
     7
100
AcDbMText
 10
47.319248
 20
43.304752
 30
0.0
 40
3.499429
 41
0.0
 71
     1
 72
     2
  1
\fOsaka|b0|i0|c128;\H3.4994;\W0.90;\C7;\U+FF34\U+FF41\U+FF52\U+FF41
  7
STD
210
0.0
220
0.0
230
1.0
 73
     1
 44
1.0
  0
POLYLINE
  5
18B
100
AcDbEntity
  8
レイヤー_1
 62
     7
100
AcDb2dPolyline
 66
     1
 10
0.0
 20
0.0
 30
0.0
 70
     1
  0
VERTEX
  5
18C
100
AcDbEntity
  8
レイヤー_1
 62
     7
100
AcDbVertex
100
AcDb2dVertex
 10
23.636111
 20
26.105556
 30
0.0
  0
VERTEX
  5
18D
100
AcDbEntity
  8
レイヤー_1
 62
     7
100
AcDbVertex
100
AcDb2dVertex
 10
198.613889
 20
26.105556
 30
0.0
  0
VERTEX
  5
18E
100
AcDbEntity
  8
レイヤー_1
 62
     7
100
AcDbVertex
100
AcDb2dVertex
 10
198.613889
 20
276.577778
 30
0.0
  0
VERTEX
  5
18F
100
AcDbEntity
  8
レイヤー_1
 62
     7
100
AcDbVertex
100
AcDb2dVertex
 10
23.636111
 20
276.577778
 30
0.0
  0
SEQEND
  5
190
100
AcDbEntity
  8
レイヤー_1
 62
     7
  0
LINE
  5
18A
100
AcDbEntity
  8
レイヤー_1
 62
     7
100
AcDbLine
 10
170.568056
 20
36.5125
 30
0.0
 11
27.693056
 21
36.5125
 31
0.0
  0
LINE
  5
189
100
AcDbEntity
  8
レイヤー_1
 62
     7
100
AcDbLine
 10
170.568056
 20
47.095833
 30
0.0
 11
27.693056
 21
47.095833
 31
0.0
  0
LINE
  5
188
100
AcDbEntity
  8
レイヤー_1
 62
     7
100
AcDbLine
 10
23.636111
 20
57.855556
 30
0.0
 11
198.261111
 21
57.855556
 31
0.0
  0
LINE
  5
187
100
AcDbEntity
  8
レイヤー_1
 62
     7
100
AcDbLine
 10
170.744444
 20
57.855556
 30
0.0
 11
170.744444
 21
26.458333
 31
0.0
  0
MTEXT
  5
186
100
AcDbEntity
  8
レイヤー_1
 62
     7
100
AcDbMText
 10
33.3375
 20
46.024901
 30
0.0
 40
1.574901
 41
0.0
 71
     1
 72
     2
  1
\fOsaka|b0|i0|c128;\H1.5749;\C7;\U+30B7\U+30EA\U+30FC\U+30BA
  7
STD
210
0.0
220
0.0
230
1.0
 73
     1
 44
1.0
  0
MTEXT
  5
185
100
AcDbEntity
  8
レイヤー_1
 62
     7
100
AcDbMText
 10
174.095833
 20
54.655042
 30
0.0
 40
3.149486
 41
0.0
 71
     1
 72
     2
  1
\fHeiseiKakuGothicCAN W9|b0|i0|c128;\H3.1495;\C253;\U+5BF8\U+6CD5\U+53C2\U+8003\U+56F3
  7
STD
210
0.0
220
0.0
230
1.0
 73
     1
 44
1.0
  0
LINE
  5
184
100
AcDbEntity
  8
レイヤー_1
 62
     7
100
AcDbLine
 10
27.516667
 20
57.855556
 30
0.0
 11
27.516667
 21
26.458333
 31
0.0
  0
IMAGE
  5
181
100
AcDbEntity
  8
レイヤー_1
 62
     7
 92
        0
100
AcDbRasterImage
 90
        0
 10
172.155556
 20
28.574682
 30
0.0
 11
0.352531
 21
0.0
 31
0.0
 12
0.0
 22
0.352813
 32
0.0
 13
70.0
 23
9.0
340
183
 70
     7
280
     0
281
    50
282
    50
283
     0
360
182
 71
     1
 91
        2
 14
-0.5
 24
-0.5
 14
69.5
 24
8.5
  0
IMAGE
  5
17E
100
AcDbEntity
  8
レイヤー_1
 62
     7
 92
        0
100
AcDbRasterImage
 90
        0
 10
172.155556
 20
28.574682
 30
0.0
 11
0.352531
 21
0.0
 31
0.0
 12
0.0
 22
0.352813
 32
0.0
 13
70.0
 23
9.0
340
180
 70
     7
280
     0
281
    50
282
    50
283
     0
360
17F
 71
     1
 91
        2
 14
-0.5
 24
-0.5
 14
69.5
 24
8.5
  0
MTEXT
  5
17D
100
AcDbEntity
  8
レイヤー_1
 62
     7
100
AcDbMText
 10
113.418056
 20
46.024901
 30
0.0
 40
1.574901
 41
0.0
 71
     1
 72
     2
  1
\fOsaka|b0|i0|c128;\H1.5749;\C7;\U+4ED5\U+4E0A
  7
STD
210
0.0
220
0.0
230
1.0
 73
     1
 44
1.0
  0
MTEXT
  5
17C
100
AcDbEntity
  8
レイヤー_1
 62
     7
100
AcDbMText
 10
124.765511
 20
40.968164
 30
0.0
 40
1.162842
 41
0.0
 71
     1
 72
     2
  1
\fOsaka|b0|i0|c128;\H1.1628;\W2.71;\C7;
  7
STD
210
0.0
220
0.0
230
1.0
 73
     1
 44
1.0
  0
HATCH
  5
17B
100
AcDbEntity
  8
レイヤー_1
 62
     7
100
AcDbHatch
 10
0.0
 20
0.0
 30
0.0
210
0.0
220
0.0
230
1.0
  2
SOLID
 70
     1
 71
     0
 91
        1
 92
        1
 93
        1
 72
     4
 94
        3
 73
     0
 74
     0
 95
       17
 96
       13
 40
0.0
 40
0.0
 40
0.0
 40
0.0
 40
1.0
 40
1.0
 40
1.0
 40
2.0
 40
2.0
 40
2.0
 40
3.0
 40
3.0
 40
3.0
 40
4.0
 40
4.0
 40
4.0
 40
4.0
 10
58.155967881944441
 20
40.211154513888886
 10
58.155967881944441
 20
40.016162109374996
 10
57.998010253906244
 20
39.858376736111104
 10
57.80319010416666
 20
39.858376736111104
 10
57.608369954427076
 20
39.858376736111104
 10
57.450412326388886
 20
40.016162109374996
 10
57.450412326388886
 20
40.211154513888886
 10
57.450412326388886
 20
40.406146918402776
 10
57.608369954427076
 20
40.56393229166666
 10
57.80319010416666
 20
40.56393229166666
 10
57.998010253906244
 20
40.56393229166666
 10
58.155967881944441
 20
40.406146918402776
 10
58.155967881944441
 20
40.211154513888886
 97
        0
 75
     2
 76
     1
 98
        1
 10
0.0
 20
0.0
  0
MTEXT
  5
179
100
AcDbEntity
  8
レイヤー_2
 62
     7
100
AcDbMText
 10
37.367228
 20
194.480389
 30
0.0
 40
4.724702
 41
0.0
 71
     1
 72
     2
  1
\fMS Gothic|b0|i0|c128;\H4.7247;\C7;\U+0031\U+0035\U+0030\U+00B1\U+0031\U+0030
  7
STD
210
0.0
220
0.0
230
1.0
 73
     1
 44
1.0
  0
MTEXT
  5
178
100
AcDbEntity
  8
レイヤー_2
 62
     7
100
AcDbMText
 10
118.452029
 20
213.941734
 30
0.0
 40
4.724702
 41
0.0
 71
     1
 72
     2
  1
\fMS Gothic|b0|i0|c128;\H4.7247;\C7;\U+0033\U+0036\U+0035\U+FF5E\U+0035\U+0034\U+0035
  7
STD
210
0.0
220
0.0
230
1.0
 73
     1
 44
1.0
  0
MTEXT
  5
177
100
AcDbEntity
  8
レイヤー_2
 62
     7
100
AcDbMText
 10
105.053019
 20
204.119766
 30
0.0
 40
4.724702
 41
0.0
 71
     1
 72
     2
  1
\fMS Gothic|b0|i0|c128;\H4.7247;\C7;\U+0031\U+0032\U+0030
  7
STD
210
0.0
220
0.0
230
1.0
 73
     1
 44
1.0
  0
MTEXT
  5
176
100
AcDbEntity
  8
レイヤー_2
 62
     7
100
AcDbMText
 10
85.246895
 20
172.569312
 30
0.0
 40
4.724702
 41
0.0
 71
     1
 72
     2
  1
\fMS Gothic|b0|i0|c128;\H4.7247;\C7;\U+0047\U+0031\U+002F\U+0032
  7
STD
210
0.0
220
0.0
230
1.0
 11
0.0
 21
1.0
 31
0.0
 73
     1
 44
1.0
  0
MTEXT
  5
175
100
AcDbEntity
  8
レイヤー_2
 62
     7
100
AcDbMText
 10
76.515645
 20
157.66445
 30
0.0
 40
4.724702
 41
0.0
 71
     1
 72
     2
  1
\fMS Gothic|b0|i0|c128;\H4.7247;\C7;\U+03C6\U+0036\U+0030
  7
STD
210
0.0
220
0.0
230
1.0
 11
0.0
 21
1.0
 31
0.0
 73
     1
 44
1.0
  0
MTEXT
  5
174
100
AcDbEntity
  8
レイヤー_2
 62
     7
100
AcDbMText
 10
187.640473
 20
145.670006
 30
0.0
 40
4.724702
 41
0.0
 71
     1
 72
     2
  1
\fMS Gothic|b0|i0|c128;\H4.7247;\C7;\U+0031\U+0036\U+0030
  7
STD
210
0.0
220
0.0
230
1.0
 11
0.0
 21
1.0
 31
0.0
 73
     1
 44
1.0
  0
MTEXT
  5
173
100
AcDbEntity
  8
レイヤー_2
 62
     7
100
AcDbMText
 10
103.200936
 20
194.479356
 30
0.0
 40
4.724702
 41
0.0
 71
     1
 72
     2
  1
\fMS Gothic|b0|i0|c128;\H4.7247;\C7;\U+0036\U+0035
  7
STD
210
0.0
220
0.0
230
1.0
 73
     1
 44
1.0
  0
INSERT
  5
E4
100
AcDbEntity
  8
レイヤー_2
 62
     7
100
AcDbBlockReference
  2
AI9-BLK2
 10
48.456904
 20
163.102964
 30
0.0
  0
INSERT
  5
2A
100
AcDbEntity
  8
レイヤー_2
 62
     7
100
AcDbBlockReference
  2
AI9-BLK1
 10
138.024133
 20
172.965325
 30
0.0
  0
ENDSEC
  0
SECTION
  2
OBJECTS
  0
DICTIONARY
  5
19
100
AcDbDictionary
280
     0
281
     1
  3
ACAD_GROUP
350
1A
  3
ACAD_MLINESTYLE
350
1B
  3
ACAD_LAYOUT
350
1E
  3
ACAD_PLOTSETTINGS
350
22
  3
ACAD_PLOTSTYLENAME
350
1F
  3
ACAD_WIPEOUT_VARS
350
23
  0
DICTIONARY
  5
1A
102
{ACAD_REACTORS
330
19
102
}
100
AcDbDictionary
280
     0
281
     1
  0
DICTIONARY
  5
1B
102
{ACAD_REACTORS
330
19
102
}
100
AcDbDictionary
280
     0
281
     1
  3
Standard
350
1C
  0
MLINESTYLE
  5
1C
102
{ACAD_REACTORS
330
1B
102
}
100
AcDbMlineStyle
  2
Standard
 70
     0
  3

 62
     0
 51
90.0
 52
90.0
 71
     2
 49
0.5
 62
   256
  6
ByLayer
 49
-0.5
 62
   256
  6
ByLayer
  0
ACDBDICTIONARYWDFLT
  5
1F
102
{ACAD_REACTORS
330
19
102
}
100
AcDbDictionary
281
     1
  3
Normal
350
1D
100
AcDbDictionaryWithDefault
340
1D
  0
ACDBPLACEHOLDER
  5
1D
102
{ACAD_REACTORS
330
1F
102
}
  0
LAYOUT
  5
20
102
{ACAD_REACTORS
330
1E
102
}
100
AcDbPlotSettings
  1

  2

  4

  6

 40
0.0
 41
0.0
 42
0.0
 43
0.0
 44
0.0
 45
0.0
 46
0.0
 47
0.0
 48
0.0
 49
0.0
140
0.0
141
0.0
142
1.0
143
1.0
 70
  1024
 72
     0
 73
     0
 74
     0
  7

 75
     0
147
1.0
148
0.0
149
0.0
100
AcDbLayout
  1
Model
 70
     0
 71
     0
 10
0.0
 20
0.0
 11
0.0
 21
0.0
 12
0.0
 22
0.0
 32
0.0
 14
0.0
 24
0.0
 34
0.0
 15
0.0
 25
0.0
 35
0.0
146
0.0
 13
0.0
 23
0.0
 33
0.0
 16
0.0
 26
0.0
 36
0.0
 17
0.0
 27
0.0
 37
0.0
 76
     0
330
A
331
0
345
0
346
0
  0
LAYOUT
  5
21
102
{ACAD_REACTORS
330
1E
102
}
100
AcDbPlotSettings
  1

  2

  4

  6

 40
0.0
 41
0.0
 42
0.0
 43
0.0
 44
0.0
 45
0.0
 46
0.0
 47
0.0
 48
0.0
 49
0.0
140
0.0
141
0.0
142
1.0
143
1.0
 70
     0
 72
     0
 73
     0
 74
     0
  7

 75
     0
147
1.0
148
0.0
149
0.0
100
AcDbLayout
  1
Layout1
 70
     0
 71
     0
 10
0.0
 20
0.0
 11
0.0
 21
0.0
 12
0.0
 22
0.0
 32
0.0
 14
0.0
 24
0.0
 34
0.0
 15
0.0
 25
0.0
 35
0.0
146
0.0
 13
0.0
 23
0.0
 33
0.0
 16
0.0
 26
0.0
 36
0.0
 17
0.0
 27
0.0
 37
0.0
 76
     0
330
B
331
0
345
0
346
0
  0
DICTIONARY
  5
1E
102
{ACAD_REACTORS
330
19
102
}
100
AcDbDictionary
280
     0
281
     1
  3
Layout1
350
21
  3
Model
350
20
  0
DICTIONARY
  5
22
102
{ACAD_REACTORS
330
19
102
}
100
AcDbDictionary
280
     0
281
     1
  0
WIPEOUTVARIABLES
  5
23
100
AcDbWipeoutVariables
 70
     1
  0
IMAGEDEF_REACTOR
  5
17F
100
AcDbRasterImageDefReactor
 90
        2
330
17E
  0
IMAGEDEF
  5
180
100
AcDbRasterImageDef
 90
        0
  1
\\192.168.6.3\free(2009_04\一過性\DB_WEB用DXF_丸茂\KITCHEN\31151892_1.bmp
 10
70.0
 20
9.0
 11
0.352778
 21
0.352778
280
     1
281
     0
  0
IMAGEDEF_REACTOR
  5
182
100
AcDbRasterImageDefReactor
 90
        2
330
181
  0
IMAGEDEF
  5
183
100
AcDbRasterImageDef
 90
        0
  1
\\192.168.6.3\free(2009_04\一過性\DB_WEB用DXF_丸茂\KITCHEN\31151892_2.bmp
 10
70.0
 20
9.0
 11
0.352778
 21
0.352778
280
     1
281
     0
  0
ENDSEC
  0
EOF
