  0
SECTION
  2
HEADER
  9
$ACADVER
  1
AC1015
  9
$ACADMAINTVER
 70
     6
  9
$DWGCODEPAGE
  3
ANSI_932
  9
$INSBASE
 10
0.0
 20
0.0
 30
0.0
  9
$EXTMIN
 10
23.283333
 20
25.752778
 30
1.000000E+20
  9
$EXTMAX
 10
198.966667
 20
276.930556
 30
-1.000000E+20
  9
$LIMMIN
 10
23.283333
 20
25.752778
  9
$LIMMAX
 10
198.966667
 20
276.930556
  9
$ORTHOMODE
 70
     0
  9
$REGENMODE
 70
     1
  9
$FILLMODE
 70
     1
  9
$QTEXTMODE
 70
     0
  9
$MIRRTEXT
 70
     1
  9
$LTSCALE
 40
1.0
  9
$ATTMODE
 70
     1
  9
$TEXTSIZE
 40
0.2
  9
$TRACEWID
 40
0.05
  9
$TEXTSTYLE
  7
Standard
  9
$CLAYER
  8
0
  9
$CELTYPE
  6
Continuous
  9
$CECOLOR
 62
   256
  9
$CELTSCALE
 40
1.0
  9
$DISPSILH
 70
     0
  9
$DIMSCALE
 40
1.0
  9
$DIMASZ
 40
0.18
  9
$DIMEXO
 40
0.0625
  9
$DIMDLI
 40
0.38
  9
$DIMRND
 40
0.0
  9
$DIMDLE
 40
0.0
  9
$DIMEXE
 40
0.18
  9
$DIMTP
 40
0.0
  9
$DIMTM
 40
0.0
  9
$DIMTXT
 40
0.18
  9
$DIMCEN
 40
0.09
  9
$DIMTSZ
 40
0.0
  9
$DIMTOL
 70
     0
  9
$DIMLIM
 70
     0
  9
$DIMTIH
 70
     1
  9
$DIMTOH
 70
     1
  9
$DIMSE1
 70
     0
  9
$DIMSE2
 70
     0
  9
$DIMTAD
 70
     0
  9
$DIMZIN
 70
     0
  9
$DIMBLK
  1

  9
$DIMASO
 70
     1
  9
$DIMSHO
 70
     1
  9
$DIMPOST
  1

  9
$DIMAPOST
  1

  9
$DIMALT
 70
     0
  9
$DIMALTD
 70
     2
  9
$DIMALTF
 40
25.4
  9
$DIMLFAC
 40
1.0
  9
$DIMTOFL
 70
     0
  9
$DIMTVP
 40
0.0
  9
$DIMTIX
 70
     0
  9
$DIMSOXD
 70
     0
  9
$DIMSAH
 70
     0
  9
$DIMBLK1
  1

  9
$DIMBLK2
  1

  9
$DIMSTYLE
  2
Standard
  9
$DIMCLRD
 70
     0
  9
$DIMCLRE
 70
     0
  9
$DIMCLRT
 70
     0
  9
$DIMTFAC
 40
1.0
  9
$DIMGAP
 40
0.09
  9
$DIMJUST
 70
     0
  9
$DIMSD1
 70
     0
  9
$DIMSD2
 70
     0
  9
$DIMTOLJ
 70
     1
  9
$DIMTZIN
 70
     0
  9
$DIMALTZ
 70
     0
  9
$DIMALTTZ
 70
     0
  9
$DIMUPT
 70
     0
  9
$DIMDEC
 70
     4
  9
$DIMTDEC
 70
     4
  9
$DIMALTU
 70
     2
  9
$DIMALTTD
 70
     2
  9
$DIMTXSTY
  7
Standard
  9
$DIMAUNIT
 70
     0
  9
$DIMADEC
 70
     0
  9
$DIMALTRND
 40
0.0
  9
$DIMAZIN
 70
     0
  9
$DIMDSEP
 70
     0
  9
$DIMATFIT
 70
     3
  9
$DIMFRAC
 70
     0
  9
$DIMLDRBLK
  1

  9
$DIMLUNIT
 70
     2
  9
$DIMLWD
 70
     0
  9
$DIMLWE
 70
     0
  9
$DIMTMOVE
 70
     0
  9
$LUNITS
 70
     2
  9
$LUPREC
 70
     4
  9
$SKETCHINC
 40
0.1
  9
$FILLETRAD
 40
0.0
  9
$AUNITS
 70
     0
  9
$AUPREC
 70
     0
  9
$MENU
  1
acad
  9
$ELEVATION
 40
0.0
  9
$PELEVATION
 40
0.0
  9
$THICKNESS
 40
0.0
  9
$LIMCHECK
 70
     0
  9
$CHAMFERA
 40
0.0
  9
$CHAMFERB
 40
0.0
  9
$CHAMFERC
 40
0.0
  9
$CHAMFERD
 40
0.0
  9
$SKPOLY
 70
     0
  9
$TDCREATE
 40
0.000000000
  9
$TDUCREATE
 40
0.000000000
  9
$TDUPDATE
 40
0.000000000
  9
$TDUUPDATE
 40
0.000000000
  9
$TDINDWG
 40
0.0000000000
  9
$TDUSRTIMER
 40
0.0000000000
  9
$USRTIMER
 70
     1
  9
$ANGBASE
 50
0.0
  9
$ANGDIR
 70
     0
  9
$PDMODE
 70
     0
  9
$PDSIZE
 40
0.0
  9
$PLINEWID
 40
0.0
  9
$SPLFRAME
 70
     0
  9
$SPLINETYPE
 70
     6
  9
$SPLINESEGS
 70
     8
  9
$HANDSEED
  5
876
  9
$SURFTAB1
 70
     6
  9
$SURFTAB2
 70
     6
  9
$SURFTYPE
 70
     6
  9
$SURFU
 70
     6
  9
$SURFV
 70
     6
  9
$UCSBASE
  2

  9
$UCSNAME
  2

  9
$UCSORG
 10
0.0
 20
0.0
 30
0.0
  9
$UCSXDIR
 10
1.0
 20
0.0
 30
0.0
  9
$UCSYDIR
 10
0.0
 20
1.0
 30
0.0
  9
$UCSORTHOREF
  2

  9
$UCSORTHOVIEW
 70
     0
  9
$UCSORGTOP
 10
0.0
 20
0.0
 30
0.0
  9
$UCSORGBOTTOM
 10
0.0
 20
0.0
 30
0.0
  9
$UCSORGLEFT
 10
0.0
 20
0.0
 30
0.0
  9
$UCSORGRIGHT
 10
0.0
 20
0.0
 30
0.0
  9
$UCSORGFRONT
 10
0.0
 20
0.0
 30
0.0
  9
$UCSORGBACK
 10
0.0
 20
0.0
 30
0.0
  9
$PUCSBASE
  2

  9
$PUCSNAME
  2

  9
$PUCSORG
 10
0.0
 20
0.0
 30
0.0
  9
$PUCSXDIR
 10
1.0
 20
0.0
 30
0.0
  9
$PUCSYDIR
 10
0.0
 20
1.0
 30
0.0
  9
$PUCSORTHOREF
  2

  9
$PUCSORTHOVIEW
 70
     0
  9
$PUCSORGTOP
 10
0.0
 20
0.0
 30
0.0
  9
$PUCSORGBOTTOM
 10
0.0
 20
0.0
 30
0.0
  9
$PUCSORGLEFT
 10
0.0
 20
0.0
 30
0.0
  9
$PUCSORGRIGHT
 10
0.0
 20
0.0
 30
0.0
  9
$PUCSORGFRONT
 10
0.0
 20
0.0
 30
0.0
  9
$PUCSORGBACK
 10
0.0
 20
0.0
 30
0.0
  9
$USERI1
 70
     0
  9
$USERI2
 70
     0
  9
$USERI3
 70
     0
  9
$USERI4
 70
     0
  9
$USERI5
 70
     0
  9
$USERR1
 40
0.0
  9
$USERR2
 40
0.0
  9
$USERR3
 40
0.0
  9
$USERR4
 40
0.0
  9
$USERR5
 40
0.0
  9
$WORLDVIEW
 70
     1
  9
$SHADEDGE
 70
     3
  9
$SHADEDIF
 70
    70
  9
$TILEMODE
 70
     1
  9
$MAXACTVP
 70
    16
  9
$PINSBASE
 10
0.0
 20
0.0
 30
0.0
  9
$PLIMCHECK
 70
     0
  9
$PEXTMIN
 10
1.000000E+20
 20
1.000000E+20
 30
1.000000E+20
  9
$PEXTMAX
 10
-1.000000E+20
 20
-1.000000E+20
 30
-1.000000E+20
  9
$PLIMMIN
 10
0.0
 20
0.0
  9
$PLIMMAX
 10
12.0
 20
9.0
  9
$UNITMODE
 70
     0
  9
$VISRETAIN
 70
     0
  9
$PLINEGEN
 70
     1
  9
$PSLTSCALE
 70
     0
  9
$TREEDEPTH
 70
  3020
  9
$CMLSTYLE
  2
Standard
  9
$CMLJUST
 70
     0
  9
$CMLSCALE
 40
1.0
  9
$PROXYGRAPHICS
 70
     0
  9
$MEASUREMENT
 70
     1
  9
$CELWEIGHT
370
     0
  9
$ENDCAPS
280
     0
  9
$JOINSTYLE
280
     0
  9
$LWDISPLAY
290
     0
  9
$INSUNITS
 70
     0
  9
$HYPERLINKBASE
  1

  9
$STYLESHEET
  1

  9
$XEDIT
290
     1
  9
$CEPSNTYPE
380
     0
  9
$PSTYLEMODE
290
     1
  9
$FINGERPRINTGUID
  2

  9
$VERSIONGUID
  2

  9
$EXTNAMES
290
     1
  9
$PSVPSCALE
 40
0.0
  0
ENDSEC
  0
SECTION
  2
CLASSES
  0
CLASS
  1
LWPOLYLINE
  2
AcDbPolyline
  3
AutoCAD 2000
 90
    32768
280
     0
281
     1
  0
CLASS
  1
IMAGE
  2
AcDbRasterImage
  3
ISM
 90
      127
280
     0
281
     1
  0
CLASS
  1
OLE2FRAME
  2
AcDbOle2Frame
  3
AutoCAD 2000
 90
    32768
280
     0
281
     1
  0
CLASS
  1
HATCH
  2
AcDbHatch
  3
AutoCAD 2000
 90
    32768
280
     0
281
     1
  0
CLASS
  1
DICTIONARYVAR
  2
AcDbDictionaryVar
  3
AutoCAD 2000
 90
    32768
280
     0
281
     0
  0
CLASS
  1
RASTERVARIABLES
  2
AcDbRasterVariables
  3
ISM
 90
    32768
280
     0
281
     0
  0
CLASS
  1
IMAGEDEF
  2
AcDbRasterImageDef
  3
ISM
 90
        0
280
     0
281
     0
  0
CLASS
  1
IMAGEDEF_REACTOR
  2
AcDbRasterImageDefReactor
  3
ISM
 90
        1
280
     0
281
     0
  0
CLASS
  1
IDBUFFER
  2
AcDbIdBuffer
  3
AutoCAD 2000
 90
    32768
280
     0
281
     0
  0
CLASS
  1
SPATIAL_FILTER
  2
AcDbSpatialFilter
  3
AutoCAD 2000
 90
    32768
280
     0
281
     0
  0
CLASS
  1
XRECORD
  2
AcDbXrecord
  3
AutoCAD 2000
 90
    32768
280
     0
281
     0
  0
CLASS
  1
SORTENTSTABLE
  2
AcDbSortentsTable
  3
AutoCAD 2000
 90
    32768
280
     0
281
     0
  0
CLASS
  1
LAYER_INDEX
  2
AcDbLayerIndex
  3
AutoCAD 2000
 90
    32768
280
     0
281
     0
  0
CLASS
  1
SPATIAL_INDEX
  2
AcDbSpatialIndex
  3
AutoCAD 2000
 90
    32768
280
     0
281
     0
  0
CLASS
  1
OBJECT_PTR
  2
CAseDLPNTableRecord
  3
"ASE-LPNTableRecord"
 90
    32769
280
     0
281
     0
  0
CLASS
  1
LAYOUT
  2
AcDbLayout
  3
AutoCAD 2000
 90
        0
280
     0
281
     0
  0
CLASS
  1
PLOTSETTINGS
  2
AcDbPlotSettings
  3
AutoCAD 2000
 90
    32768
280
     0
281
     0
  0
CLASS
  1
ACDBDICTIONARYWDFLT
  2
AcDbDictionaryWithDefault
  3
AutoCAD 2000
 90
        0
280
     0
281
     0
  0
CLASS
  1
ACDBPLACEHOLDER
  2
AcDbPlaceHolder
  3
AutoCAD 2000
 90
        0
280
     0
281
     0
  0
CLASS
  1
VBA_PROJECT
  2
AcDbVbaProject
  3
acadvba
 90
    32768
280
     0
281
     0
  0
CLASS
  1
WIPEOUT
  2
AcDbWipeout
  3
WipeOut|AutoCAD Express Tool|expresstools@autodesk.com
 90
    32895
280
     0
281
     1
  0
CLASS
  1
WIPEOUTVARIABLES
  2
AcDbWipeoutVariables
  3
WipeOut|AutoCAD Express Tool|expresstools@autodesk.com
 90
        0
280
     0
281
     0
  0
CLASS
  1
RTEXT
  2
RText
  3
RText|AutoCAD Express Tool|expresstools@autodesk.com
 90
    32768
280
     0
281
     1
  0
CLASS
  1
ARCALIGNEDTEXT
  2
AcDbArcAlignedText
  3
ATEXT|AutoCAD Express Tool|expresstools@autodesk.com
 90
    32768
280
     0
281
     1
  0
ENDSEC
  0
SECTION
  2
TABLES
  0
TABLE
  2
VPORT
  5
7
100
AcDbSymbolTable
 70
     1
  0
VPORT
  5
15
100
AcDbSymbolTableRecord
100
AcDbViewportTableRecord
  2
*ACTIVE
 70
     0
 10
0.0
 20
0.0
 11
1.0
 21
1.0
 12
6.591288
 22
4.579184
 13
0.0
 23
0.0
 14
1.0
 24
1.0
 15
0.0
 25
0.0
 16
0.0
 26
0.0
 36
1.0
 17
0.0
 27
0.0
 37
0.0
 40
9.158369
 41
0.688564
 42
50.0
 43
0.0
 44
0.0
 50
0.0
 51
0.0
 71
     0
 72
   100
 73
     1
 74
     1
 75
     0
 76
     0
 77
     0
 78
     0
281
     0
 65
     0
110
0.0
120
0.0
130
0.0
111
1.0
121
0.0
131
0.0
112
0.0
122
1.0
132
0.0
345
0
346
0
 79
     0
146
0.0
  0
ENDTAB
  0
TABLE
  2
LTYPE
  5
4
100
AcDbSymbolTable
 70
     6
  0
LTYPE
  5
11
100
AcDbSymbolTableRecord
100
AcDbLinetypeTableRecord
  2
ByBlock
 70
    64
  3

 72
    65
 73
     0
 40
0.0
  0
LTYPE
  5
12
100
AcDbSymbolTableRecord
100
AcDbLinetypeTableRecord
  2
ByLayer
 70
    64
  3

 72
    65
 73
     0
 40
0.0
  0
LTYPE
  5
13
100
AcDbSymbolTableRecord
100
AcDbLinetypeTableRecord
  2
Continuous
 70
    64
  3
Solid line
 72
    65
 73
     0
 40
0.0
  0
LTYPE
  5
29
100
AcDbSymbolTableRecord
100
AcDbLinetypeTableRecord
  2
AI9-LType1
 70
    64
  3
Illustrator Dash Style No.1
 72
    65
 73
     4
 40
11.80472
 49
7.377924
 74
     0
 49
-1.475599
 74
     0
 49
1.475599
 74
     0
 49
-1.475599
 74
     0
  0
LTYPE
  5
53
100
AcDbSymbolTableRecord
100
AcDbLinetypeTableRecord
  2
AI9-LType2
 70
    64
  3
Illustrator Dash Style No.2
 72
    65
 73
     4
 40
30.942281
 49
19.338926
 74
     0
 49
-3.867785
 74
     0
 49
3.867785
 74
     0
 49
-3.867785
 74
     0
  0
LTYPE
  5
F9
100
AcDbSymbolTableRecord
100
AcDbLinetypeTableRecord
  2
AI9-LType3
 70
    64
  3
Illustrator Dash Style No.3
 72
    65
 73
     4
 40
139.430088
 49
87.139109
 74
     0
 49
-17.430326
 74
     0
 49
17.430326
 74
     0
 49
-17.430326
 74
     0
  0
ENDTAB
  0
TABLE
  2
LAYER
  5
2
100
AcDbSymbolTable
 70
     3
  0
LAYER
  5
14
100
AcDbSymbolTableRecord
100
AcDbLayerTableRecord
  2
0
 70
     0
 62
     7
  6
Continuous
290
     1
370
    -3
390
1D
  0
LAYER
  5
28
100
AcDbSymbolTableRecord
100
AcDbLayerTableRecord
  2
レイヤー_2
 70
     0
 62
     1
  6
Continuous
290
     1
370
    -3
390
1D
  0
LAYER
  5
85B
100
AcDbSymbolTableRecord
100
AcDbLayerTableRecord
  2
レイヤー_1
 70
     0
 62
   160
  6
Continuous
290
     1
370
    -3
390
1D
  0
ENDTAB
  0
TABLE
  2
STYLE
  5
3
100
AcDbSymbolTable
 70
     5
  0
STYLE
  5
17
100
AcDbSymbolTableRecord
100
AcDbTextStyleTableRecord
  2
Standard
 70
     0
 40
0.0
 41
1.0
 50
0.0
 71
     0
 42
0.0
  3
txt
  4

  0
STYLE
  5
24
100
AcDbSymbolTableRecord
100
AcDbTextStyleTableRecord
  2
STD
 70
     0
 40
0.0
 41
1.0
 50
0.0
 71
     0
 42
0.0
  3
txt
  4

  0
STYLE
  5
25
100
AcDbSymbolTableRecord
100
AcDbTextStyleTableRecord
  2
TATESTD
 70
     4
 40
0.0
 41
1.0
 50
0.0
 71
     0
 42
0.0
  3
txt
  4

  0
STYLE
  5
26
100
AcDbSymbolTableRecord
100
AcDbTextStyleTableRecord
  2
KANJISTD
 70
     0
 40
0.0
 41
1.0
 50
0.0
 71
     0
 42
0.0
  3
txt
  4
extfont
  0
STYLE
  5
27
100
AcDbSymbolTableRecord
100
AcDbTextStyleTableRecord
  2
KANJITATE
 70
     4
 40
0.0
 41
1.0
 50
0.0
 71
     0
 42
0.0
  3
txt
  4
extfont
  0
ENDTAB
  0
TABLE
  2
VIEW
  5
5
100
AcDbSymbolTable
 70
     0
  0
ENDTAB
  0
TABLE
  2
UCS
  5
6
100
AcDbSymbolTable
 70
     0
  0
ENDTAB
  0
TABLE
  2
APPID
  5
8
100
AcDbSymbolTable
 70
     1
  0
APPID
  5
16
100
AcDbSymbolTableRecord
100
AcDbRegAppTableRecord
  2
ACAD
 70
     0
  0
ENDTAB
  0
TABLE
  2
DIMSTYLE
  5
9
100
AcDbSymbolTable
 70
     1
100
AcDbDimStyleTable
 71
     0
  0
DIMSTYLE
105
18
100
AcDbSymbolTableRecord
100
AcDbDimStyleTableRecord
  2
Standard
 70
     0
  3

  4

 40
1.0
 41
0.18
 42
0.0625
 43
0.38
 44
0.18
 45
0.0
 46
0.0
 47
0.0
 48
0.0
 71
     0
 72
     0
 73
     1
 74
     1
 75
     0
 76
     0
 77
     0
 78
     0
 79
     0
140
0.18
141
0.09
142
0.0
143
25.4
144
1.0
145
0.0
146
1.0
147
0.09
148
0.0
170
     0
171
     2
172
     0
173
     0
174
     0
175
     0
176
     0
177
     0
178
     0
179
     0
271
     4
272
     4
273
     2
274
     2
275
     0
276
     0
277
     2
278
    46
279
     0
280
     0
281
     0
282
     0
283
     1
284
     0
285
     0
286
     0
288
     0
340
17
341
0
342
0
343
0
344
0
371
    -2
372
    -2
  0
ENDTAB
  0
TABLE
  2
BLOCK_RECORD
  5
1
100
AcDbSymbolTable
 70
     0
  0
BLOCK_RECORD
  5
A
100
AcDbSymbolTableRecord
100
AcDbBlockTableRecord
  2
*MODEL_SPACE
340
20
  0
BLOCK_RECORD
  5
B
100
AcDbSymbolTableRecord
100
AcDbBlockTableRecord
  2
*PAPER_SPACE
340
21
  0
ENDTAB
  0
ENDSEC
  0
SECTION
  2
BLOCKS
  0
BLOCK
  5
D
100
AcDbEntity
  8
0
100
AcDbBlockBegin
  2
*MODEL_SPACE
 70
     0
 10
0.0
 20
0.0
 30
0.0
  3
*MODEL_SPACE
  1

  0
ENDBLK
  5
E
100
AcDbEntity
  8
0
100
AcDbBlockEnd
  0
BLOCK
  5
F
100
AcDbEntity
 67
     1
  8
0
100
AcDbBlockBegin
  2
*PAPER_SPACE
 70
     0
 10
0.0
 20
0.0
 30
0.0
  3
*PAPER_SPACE
  1

  0
ENDBLK
  5
10
100
AcDbEntity
 67
     1
  8
0
100
AcDbBlockEnd
  0
ENDSEC
  0
SECTION
  2
ENTITIES
  0
MTEXT
  5
875
100
AcDbEntity
  8
レイヤー_1
 62
     7
100
AcDbMText
 10
47.801389
 20
54.121991
 30
0.0
 40
3.674768
 41
0.0
 71
     1
 72
     2
  1
\fOsaka|b0|i0|c128;\H3.6748;\C7;\U+0033\U+0032\U+002E\U+0038\U+0030\U+0030\U+002E\U+0036\U+0032\U+0035\U+002E\U+0058\U+0058\U+0020\U+002B\U+0020\U+0032\U+0037\U+002E\U+0037\U+0031\U+0039\U+002E\U+0039\U+0037\U+0030\U+002E\U+0058\U+0058
  7
STD
210
0.0
220
0.0
230
1.0
 73
     1
 44
1.0
  0
MTEXT
  5
874
100
AcDbEntity
  8
レイヤー_1
 62
     7
100
AcDbMText
 10
39.6875
 20
56.608234
 30
0.0
 40
1.574901
 41
0.0
 71
     1
 72
     2
  1
\fOsaka|b0|i0|c128;\H1.5749;\C7;\U+54C1\U+756A
  7
STD
210
0.0
220
0.0
230
1.0
 73
     1
 44
1.0
  0
MTEXT
  5
873
100
AcDbEntity
  8
レイヤー_1
 62
     7
100
AcDbMText
 10
47.801389
 20
32.959208
 30
0.0
 40
3.149486
 41
0.0
 71
     1
 72
     2
  1
\fOsaka|b0|i0|c128;\H3.1495;\C7;\U+0033\U+7A74\U+578B\U+30B7\U+30F3\U+30B0\U+30EB\U+30EC\U+30D0\U+30FC\U+30AD\U+30C3\U+30C1\U+30F3\U+7528\U+6DF7\U+5408\U+6813
  7
STD
210
0.0
220
0.0
230
1.0
 73
     1
 44
1.0
  0
MTEXT
  5
872
100
AcDbEntity
  8
レイヤー_1
 62
     7
100
AcDbMText
 10
39.6875
 20
35.441567
 30
0.0
 40
1.574901
 41
0.0
 71
     1
 72
     2
  1
\fOsaka|b0|i0|c128;\H1.5749;\C7;\U+54C1
  7
STD
210
0.0
220
0.0
230
1.0
 73
     1
 44
1.0
  0
MTEXT
  5
871
100
AcDbEntity
  8
レイヤー_1
 62
     7
100
AcDbMText
 10
47.801389
 20
42.954808
 30
0.0
 40
3.149486
 41
0.0
 71
     1
 72
     2
  1
\fOsaka|b0|i0|c128;\H3.1495;\C7;\U+004B\U+0049\U+0054\U+0043\U+0048\U+0045\U+004E\U+0020\U+0020\H2.6248;\U+004D\U+0045\U+0054\U+0041\U+002E\U+0030\U+0032
  7
STD
210
0.0
220
0.0
230
1.0
 73
     1
 44
1.0
  0
POLYLINE
  5
86B
100
AcDbEntity
  8
レイヤー_1
 62
     7
100
AcDb2dPolyline
 66
     1
 10
0.0
 20
0.0
 30
0.0
 70
     1
  0
VERTEX
  5
86C
100
AcDbEntity
  8
レイヤー_1
 62
     7
100
AcDbVertex
100
AcDb2dVertex
 10
23.636111
 20
26.105556
 30
0.0
  0
VERTEX
  5
86D
100
AcDbEntity
  8
レイヤー_1
 62
     7
100
AcDbVertex
100
AcDb2dVertex
 10
198.613889
 20
26.105556
 30
0.0
  0
VERTEX
  5
86E
100
AcDbEntity
  8
レイヤー_1
 62
     7
100
AcDbVertex
100
AcDb2dVertex
 10
198.613889
 20
276.577778
 30
0.0
  0
VERTEX
  5
86F
100
AcDbEntity
  8
レイヤー_1
 62
     7
100
AcDbVertex
100
AcDb2dVertex
 10
23.636111
 20
276.577778
 30
0.0
  0
SEQEND
  5
870
100
AcDbEntity
  8
レイヤー_1
 62
     7
  0
LINE
  5
86A
100
AcDbEntity
  8
レイヤー_1
 62
     7
100
AcDbLine
 10
170.568056
 20
36.5125
 30
0.0
 11
27.693056
 21
36.5125
 31
0.0
  0
LINE
  5
869
100
AcDbEntity
  8
レイヤー_1
 62
     7
100
AcDbLine
 10
170.568056
 20
47.095833
 30
0.0
 11
27.693056
 21
47.095833
 31
0.0
  0
LINE
  5
868
100
AcDbEntity
  8
レイヤー_1
 62
     7
100
AcDbLine
 10
23.636111
 20
57.855556
 30
0.0
 11
198.261111
 21
57.855556
 31
0.0
  0
LINE
  5
867
100
AcDbEntity
  8
レイヤー_1
 62
     7
100
AcDbLine
 10
170.744444
 20
57.855556
 30
0.0
 11
170.744444
 21
26.458333
 31
0.0
  0
MTEXT
  5
866
100
AcDbEntity
  8
レイヤー_1
 62
     7
100
AcDbMText
 10
33.3375
 20
46.024901
 30
0.0
 40
1.574901
 41
0.0
 71
     1
 72
     2
  1
\fOsaka|b0|i0|c128;\H1.5749;\C7;\U+30B7\U+30EA\U+30FC\U+30BA
  7
STD
210
0.0
220
0.0
230
1.0
 73
     1
 44
1.0
  0
MTEXT
  5
865
100
AcDbEntity
  8
レイヤー_1
 62
     7
100
AcDbMText
 10
174.095833
 20
54.655042
 30
0.0
 40
3.149486
 41
0.0
 71
     1
 72
     2
  1
\fHeiseiKakuGothicCAN W9|b0|i0|c128;\H3.1495;\C253;\U+5BF8\U+6CD5\U+53C2\U+8003\U+56F3
  7
STD
210
0.0
220
0.0
230
1.0
 73
     1
 44
1.0
  0
LINE
  5
864
100
AcDbEntity
  8
レイヤー_1
 62
     7
100
AcDbLine
 10
27.516667
 20
57.855556
 30
0.0
 11
27.516667
 21
26.458333
 31
0.0
  0
IMAGE
  5
861
100
AcDbEntity
  8
レイヤー_1
 62
     7
 92
        0
100
AcDbRasterImage
 90
        0
 10
172.155556
 20
28.574682
 30
0.0
 11
0.352531
 21
0.0
 31
0.0
 12
0.0
 22
0.352813
 32
0.0
 13
70.0
 23
9.0
340
863
 70
     7
280
     0
281
    50
282
    50
283
     0
360
862
 71
     1
 91
        2
 14
-0.5
 24
-0.5
 14
69.5
 24
8.5
  0
IMAGE
  5
85E
100
AcDbEntity
  8
レイヤー_1
 62
     7
 92
        0
100
AcDbRasterImage
 90
        0
 10
172.155556
 20
28.574682
 30
0.0
 11
0.352531
 21
0.0
 31
0.0
 12
0.0
 22
0.352813
 32
0.0
 13
70.0
 23
9.0
340
860
 70
     7
280
     0
281
    50
282
    50
283
     0
360
85F
 71
     1
 91
        2
 14
-0.5
 24
-0.5
 14
69.5
 24
8.5
  0
MTEXT
  5
85D
100
AcDbEntity
  8
レイヤー_1
 62
     7
100
AcDbMText
 10
113.418056
 20
46.024901
 30
0.0
 40
1.574901
 41
0.0
 71
     1
 72
     2
  1
\fOsaka|b0|i0|c128;\H1.5749;\C7;\U+4ED5\U+4E0A
  7
STD
210
0.0
220
0.0
230
1.0
 73
     1
 44
1.0
  0
MTEXT
  5
85C
100
AcDbEntity
  8
レイヤー_1
 62
     7
100
AcDbMText
 10
124.765511
 20
40.968165
 30
0.0
 40
1.162843
 41
0.0
 71
     1
 72
     2
  1
\fOsaka|b0|i0|c128;\H1.1628;\W2.71;\C7;
  7
STD
210
0.0
220
0.0
230
1.0
 73
     1
 44
1.0
  0
POLYLINE
  5
852
100
AcDbEntity
  8
レイヤー_2
 62
     7
100
AcDb2dPolyline
 66
     1
 10
0.0
 20
0.0
 30
0.0
  0
VERTEX
  5
853
100
AcDbEntity
  8
レイヤー_2
 62
     7
100
AcDbVertex
100
AcDb2dVertex
 10
147.871422
 20
208.516644
 30
0.0
  0
VERTEX
  5
854
100
AcDbEntity
  8
レイヤー_2
 62
     7
100
AcDbVertex
100
AcDb2dVertex
 10
147.638534
 20
209.391353
 30
0.0
  0
VERTEX
  5
855
100
AcDbEntity
  8
レイヤー_2
 62
     7
100
AcDbVertex
100
AcDb2dVertex
 10
146.997401
 20
209.973747
 30
0.0
  0
VERTEX
  5
856
100
AcDbEntity
  8
レイヤー_2
 62
     7
100
AcDbVertex
100
AcDb2dVertex
 10
146.181258
 20
210.20698
 30
0.0
  0
VERTEX
  5
857
100
AcDbEntity
  8
レイヤー_2
 62
     7
100
AcDbVertex
100
AcDb2dVertex
 10
145.306548
 20
209.973747
 30
0.0
  0
VERTEX
  5
858
100
AcDbEntity
  8
レイヤー_2
 62
     7
100
AcDbVertex
100
AcDb2dVertex
 10
144.665761
 20
209.391353
 30
0.0
  0
VERTEX
  5
859
100
AcDbEntity
  8
レイヤー_2
 62
     7
100
AcDbVertex
100
AcDb2dVertex
 10
144.432528
 20
208.516644
 30
0.0
  0
SEQEND
  5
85A
100
AcDbEntity
  8
レイヤー_2
 62
     7
  0
LINE
  5
851
100
AcDbEntity
  8
レイヤー_2
 62
     7
100
AcDbLine
 10
150.901728
 20
163.053097
 30
0.0
 11
150.901728
 21
164.801655
 31
0.0
  0
LINE
  5
850
100
AcDbEntity
  8
レイヤー_2
 62
     7
100
AcDbLine
 10
141.401188
 20
164.801655
 30
0.0
 11
141.401188
 21
163.053097
 31
0.0
  0
LINE
  5
84F
100
AcDbEntity
  8
レイヤー_2
 62
     7
100
AcDbLine
 10
147.871422
 20
177.508545
 30
0.0
 11
147.871422
 21
208.516644
 31
0.0
  0
LINE
  5
84E
100
AcDbEntity
  8
レイヤー_2
 62
     7
100
AcDbLine
 10
144.432528
 20
208.516644
 30
0.0
 11
144.432528
 21
177.508545
 31
0.0
  0
LINE
  5
84D
100
AcDbEntity
  8
レイヤー_2
 62
     7
100
AcDbLine
 10
143.149919
 20
177.508545
 30
0.0
 11
143.149919
 21
164.801655
 31
0.0
  0
LINE
  5
84C
100
AcDbEntity
  8
レイヤー_2
 62
     7
100
AcDbLine
 10
149.154031
 20
164.801655
 30
0.0
 11
149.154031
 21
177.508545
 31
0.0
  0
LINE
  5
84B
100
AcDbEntity
  8
レイヤー_2
 62
     7
100
AcDbLine
 10
171.266721
 20
172.029121
 30
0.0
 11
171.266721
 21
164.801655
 31
0.0
  0
LINE
  5
84A
100
AcDbEntity
  8
レイヤー_2
 62
     7
100
AcDbLine
 10
163.514223
 20
164.801655
 30
0.0
 11
163.514223
 21
172.029121
 31
0.0
  0
LINE
  5
849
100
AcDbEntity
  8
レイヤー_2
 62
     7
100
AcDbLine
 10
163.514223
 20
172.436848
 30
0.0
 11
163.514223
 21
177.508545
 31
0.0
  0
LINE
  5
848
100
AcDbEntity
  8
レイヤー_2
 62
     7
100
AcDbLine
 10
171.266721
 20
177.508545
 30
0.0
 11
171.266721
 21
172.436848
 31
0.0
  0
POLYLINE
  5
843
100
AcDbEntity
  8
レイヤー_2
 62
     7
100
AcDb2dPolyline
 66
     1
 10
0.0
 20
0.0
 30
0.0
  0
VERTEX
  5
844
100
AcDbEntity
  8
レイヤー_2
 62
     7
100
AcDbVertex
100
AcDb2dVertex
 10
163.514223
 20
177.508545
 30
0.0
  0
VERTEX
  5
845
100
AcDbEntity
  8
レイヤー_2
 62
     7
100
AcDbVertex
100
AcDb2dVertex
 10
167.419927
 20
177.624472
 30
0.0
  0
VERTEX
  5
846
100
AcDbEntity
  8
レイヤー_2
 62
     7
100
AcDbVertex
100
AcDb2dVertex
 10
171.266721
 20
177.508545
 30
0.0
  0
SEQEND
  5
847
100
AcDbEntity
  8
レイヤー_2
 62
     7
  0
LINE
  5
842
100
AcDbEntity
  8
レイヤー_2
 62
     7
100
AcDbLine
 10
172.140742
 20
164.801655
 30
0.0
 11
172.140742
 21
163.110802
 31
0.0
  0
LINE
  5
841
100
AcDbEntity
  8
レイヤー_2
 62
     7
100
AcDbLine
 10
162.640202
 20
163.110802
 30
0.0
 11
162.640202
 21
164.801655
 31
0.0
  0
LINE
  5
840
100
AcDbEntity
  8
レイヤー_2
 62
     7
100
AcDbLine
 10
150.901728
 20
164.801655
 30
0.0
 11
141.401188
 21
164.801655
 31
0.0
  0
LINE
  5
83F
100
AcDbEntity
  8
レイヤー_2
 62
     7
100
AcDbLine
 10
144.432528
 20
197.325079
 30
0.0
 11
147.871422
 21
197.325079
 31
0.0
  0
LINE
  5
83E
100
AcDbEntity
  8
レイヤー_2
 62
     7
100
AcDbLine
 10
144.432528
 20
194.061884
 30
0.0
 11
147.871422
 21
194.061884
 31
0.0
  0
LINE
  5
83D
100
AcDbEntity
  8
レイヤー_2
 62
     7
100
AcDbLine
 10
143.149919
 20
177.508545
 30
0.0
 11
149.154031
 21
177.508545
 31
0.0
  0
LINE
  5
83C
100
AcDbEntity
  8
レイヤー_2
 62
     7
100
AcDbLine
 10
167.419927
 20
172.029121
 30
0.0
 11
163.514223
 21
172.029121
 31
0.0
  0
LINE
  5
83B
100
AcDbEntity
  8
レイヤー_2
 62
     7
100
AcDbLine
 10
171.266721
 20
172.029121
 30
0.0
 11
167.419927
 21
172.029121
 31
0.0
  0
LINE
  5
83A
100
AcDbEntity
  8
レイヤー_2
 62
     7
100
AcDbLine
 10
170.334478
 20
172.029121
 30
0.0
 11
170.334478
 21
172.436848
 31
0.0
  0
LINE
  5
839
100
AcDbEntity
  8
レイヤー_2
 62
     7
100
AcDbLine
 10
164.446465
 20
172.436848
 30
0.0
 11
164.446465
 21
172.029121
 31
0.0
  0
POLYLINE
  5
82A
100
AcDbEntity
  8
レイヤー_2
 62
     7
100
AcDb2dPolyline
 66
     1
 10
0.0
 20
0.0
 30
0.0
  0
VERTEX
  5
82B
100
AcDbEntity
  8
レイヤー_2
 62
     7
100
AcDbVertex
100
AcDb2dVertex
 10
166.195885
 20
175.235299
 30
0.0
  0
VERTEX
  5
82C
100
AcDbEntity
  8
レイヤー_2
 62
     7
100
AcDbVertex
100
AcDb2dVertex
 10
166.370896
 20
175.81752
 30
0.0
  0
VERTEX
  5
82D
100
AcDbEntity
  8
レイヤー_2
 62
     7
100
AcDbVertex
100
AcDb2dVertex
 10
166.778795
 20
176.28433
 30
0.0
  0
VERTEX
  5
82E
100
AcDbEntity
  8
レイヤー_2
 62
     7
100
AcDbVertex
100
AcDb2dVertex
 10
167.419927
 20
176.458652
 30
0.0
  0
VERTEX
  5
82F
100
AcDbEntity
  8
レイヤー_2
 62
     7
100
AcDbVertex
100
AcDb2dVertex
 10
168.002148
 20
176.28433
 30
0.0
  0
VERTEX
  5
830
100
AcDbEntity
  8
レイヤー_2
 62
     7
100
AcDbVertex
100
AcDb2dVertex
 10
168.410737
 20
175.81752
 30
0.0
  0
VERTEX
  5
831
100
AcDbEntity
  8
レイヤー_2
 62
     7
100
AcDbVertex
100
AcDb2dVertex
 10
168.585748
 20
175.235299
 30
0.0
  0
VERTEX
  5
832
100
AcDbEntity
  8
レイヤー_2
 62
     7
100
AcDbVertex
100
AcDb2dVertex
 10
168.410737
 20
174.651699
 30
0.0
  0
VERTEX
  5
833
100
AcDbEntity
  8
レイヤー_2
 62
     7
100
AcDbVertex
100
AcDb2dVertex
 10
168.002148
 20
174.186267
 30
0.0
  0
VERTEX
  5
834
100
AcDbEntity
  8
レイヤー_2
 62
     7
100
AcDbVertex
100
AcDb2dVertex
 10
167.419927
 20
174.010395
 30
0.0
  0
VERTEX
  5
835
100
AcDbEntity
  8
レイヤー_2
 62
     7
100
AcDbVertex
100
AcDb2dVertex
 10
166.778795
 20
174.186267
 30
0.0
  0
VERTEX
  5
836
100
AcDbEntity
  8
レイヤー_2
 62
     7
100
AcDbVertex
100
AcDb2dVertex
 10
166.370896
 20
174.651699
 30
0.0
  0
VERTEX
  5
837
100
AcDbEntity
  8
レイヤー_2
 62
     7
100
AcDbVertex
100
AcDb2dVertex
 10
166.195885
 20
175.235299
 30
0.0
  0
SEQEND
  5
838
100
AcDbEntity
  8
レイヤー_2
 62
     7
  0
LINE
  5
829
100
AcDbEntity
  8
レイヤー_2
 62
     7
100
AcDbLine
 10
171.266721
 20
172.436848
 30
0.0
 11
163.514223
 21
172.436848
 31
0.0
  0
LINE
  5
828
100
AcDbEntity
  8
レイヤー_2
 62
     7
100
AcDbLine
 10
172.140742
 20
163.110802
 30
0.0
 11
162.640202
 21
163.110802
 31
0.0
  0
LINE
  5
827
100
AcDbEntity
  8
レイヤー_2
 62
     7
100
AcDbLine
 10
172.140742
 20
164.801655
 30
0.0
 11
162.640202
 21
164.801655
 31
0.0
  0
LINE
  5
826
100
AcDbEntity
  8
レイヤー_2
 62
     7
100
AcDbLine
 10
77.057829
 20
163.760547
 30
0.0
 11
77.057829
 21
165.509966
 31
0.0
  0
POLYLINE
  5
81A
100
AcDbEntity
  8
レイヤー_2
 62
     7
100
AcDb2dPolyline
 66
     1
 10
0.0
 20
0.0
 30
0.0
  0
VERTEX
  5
81B
100
AcDbEntity
  8
レイヤー_2
 62
     7
100
AcDbVertex
100
AcDb2dVertex
 10
73.151952
 20
207.47588
 30
0.0
  0
VERTEX
  5
81C
100
AcDbEntity
  8
レイヤー_2
 62
     7
100
AcDbVertex
100
AcDb2dVertex
 10
74.376855
 20
207.359436
 30
0.0
  0
VERTEX
  5
81D
100
AcDbEntity
  8
レイヤー_2
 62
     7
100
AcDbVertex
100
AcDb2dVertex
 10
75.542504
 20
207.068498
 30
0.0
  0
VERTEX
  5
81E
100
AcDbEntity
  8
レイヤー_2
 62
     7
100
AcDbVertex
100
AcDb2dVertex
 10
76.64924
 20
206.54381
 30
0.0
  0
VERTEX
  5
81F
100
AcDbEntity
  8
レイヤー_2
 62
     7
100
AcDbVertex
100
AcDb2dVertex
 10
77.583034
 20
205.902333
 30
0.0
  0
VERTEX
  5
820
100
AcDbEntity
  8
レイヤー_2
 62
     7
100
AcDbVertex
100
AcDb2dVertex
 10
78.456365
 20
205.028312
 30
0.0
  0
VERTEX
  5
821
100
AcDbEntity
  8
レイヤー_2
 62
     7
100
AcDbVertex
100
AcDb2dVertex
 10
79.156581
 20
204.03733
 30
0.0
  0
VERTEX
  5
822
100
AcDbEntity
  8
レイヤー_2
 62
     7
100
AcDbVertex
100
AcDb2dVertex
 10
79.622013
 20
202.929905
 30
0.0
  0
VERTEX
  5
823
100
AcDbEntity
  8
レイヤー_2
 62
     7
100
AcDbVertex
100
AcDb2dVertex
 10
79.972207
 20
201.822134
 30
0.0
  0
VERTEX
  5
824
100
AcDbEntity
  8
レイヤー_2
 62
     7
100
AcDbVertex
100
AcDb2dVertex
 10
80.088996
 20
200.598264
 30
0.0
  0
SEQEND
  5
825
100
AcDbEntity
  8
レイヤー_2
 62
     7
  0
POLYLINE
  5
80E
100
AcDbEntity
  8
レイヤー_2
 62
     7
100
AcDb2dPolyline
 66
     1
 10
0.0
 20
0.0
 30
0.0
  0
VERTEX
  5
80F
100
AcDbEntity
  8
レイヤー_2
 62
     7
100
AcDbVertex
100
AcDb2dVertex
 10
73.151952
 20
210.915119
 30
0.0
  0
VERTEX
  5
810
100
AcDbEntity
  8
レイヤー_2
 62
     7
100
AcDbVertex
100
AcDb2dVertex
 10
74.959766
 20
210.798503
 30
0.0
  0
VERTEX
  5
811
100
AcDbEntity
  8
レイヤー_2
 62
     7
100
AcDbVertex
100
AcDb2dVertex
 10
76.708324
 20
210.332209
 30
0.0
  0
VERTEX
  5
812
100
AcDbEntity
  8
レイヤー_2
 62
     7
100
AcDbVertex
100
AcDb2dVertex
 10
78.340266
 20
209.515894
 30
0.0
  0
VERTEX
  5
813
100
AcDbEntity
  8
レイヤー_2
 62
     7
100
AcDbVertex
100
AcDb2dVertex
 10
79.797885
 20
208.525256
 30
0.0
  0
VERTEX
  5
814
100
AcDbEntity
  8
レイヤー_2
 62
     7
100
AcDbVertex
100
AcDb2dVertex
 10
81.079633
 20
207.24282
 30
0.0
  0
VERTEX
  5
815
100
AcDbEntity
  8
レイヤー_2
 62
     7
100
AcDbVertex
100
AcDb2dVertex
 10
82.129354
 20
205.785544
 30
0.0
  0
VERTEX
  5
816
100
AcDbEntity
  8
レイヤー_2
 62
     7
100
AcDbVertex
100
AcDb2dVertex
 10
82.886586
 20
204.153947
 30
0.0
  0
VERTEX
  5
817
100
AcDbEntity
  8
レイヤー_2
 62
     7
100
AcDbVertex
100
AcDb2dVertex
 10
83.35288
 20
202.405044
 30
0.0
  0
VERTEX
  5
818
100
AcDbEntity
  8
レイヤー_2
 62
     7
100
AcDbVertex
100
AcDb2dVertex
 10
83.527201
 20
200.598264
 30
0.0
  0
SEQEND
  5
819
100
AcDbEntity
  8
レイヤー_2
 62
     7
  0
LINE
  5
80D
100
AcDbEntity
  8
レイヤー_2
 62
     7
100
AcDbLine
 10
73.151952
 20
207.47588
 30
0.0
 11
55.957997
 21
207.47588
 31
0.0
  0
LINE
  5
80C
100
AcDbEntity
  8
レイヤー_2
 62
     7
100
AcDbLine
 10
55.957997
 20
210.915119
 30
0.0
 11
73.151952
 21
210.915119
 31
0.0
  0
LINE
  5
80B
100
AcDbEntity
  8
レイヤー_2
 62
     7
100
AcDbLine
 10
80.088996
 20
178.27439
 30
0.0
 11
80.088996
 21
200.598264
 31
0.0
  0
LINE
  5
80A
100
AcDbEntity
  8
レイヤー_2
 62
     7
100
AcDbLine
 10
83.527201
 20
200.598264
 30
0.0
 11
83.527201
 21
178.27439
 31
0.0
  0
POLYLINE
  5
7FE
100
AcDbEntity
  8
レイヤー_2
 62
     7
100
AcDb2dPolyline
 66
     1
 10
0.0
 20
0.0
 30
0.0
  0
VERTEX
  5
7FF
100
AcDbEntity
  8
レイヤー_2
 62
     7
100
AcDbVertex
100
AcDb2dVertex
 10
49.080036
 20
200.598264
 30
0.0
  0
VERTEX
  5
800
100
AcDbEntity
  8
レイヤー_2
 62
     7
100
AcDbVertex
100
AcDb2dVertex
 10
49.196136
 20
201.822134
 30
0.0
  0
VERTEX
  5
801
100
AcDbEntity
  8
レイヤー_2
 62
     7
100
AcDbVertex
100
AcDb2dVertex
 10
49.488624
 20
202.929905
 30
0.0
  0
VERTEX
  5
802
100
AcDbEntity
  8
レイヤー_2
 62
     7
100
AcDbVertex
100
AcDb2dVertex
 10
50.012451
 20
204.03733
 30
0.0
  0
VERTEX
  5
803
100
AcDbEntity
  8
レイヤー_2
 62
     7
100
AcDbVertex
100
AcDb2dVertex
 10
50.712667
 20
205.028312
 30
0.0
  0
VERTEX
  5
804
100
AcDbEntity
  8
レイヤー_2
 62
     7
100
AcDbVertex
100
AcDb2dVertex
 10
51.528293
 20
205.902333
 30
0.0
  0
VERTEX
  5
805
100
AcDbEntity
  8
レイヤー_2
 62
     7
100
AcDbVertex
100
AcDb2dVertex
 10
52.518241
 20
206.54381
 30
0.0
  0
VERTEX
  5
806
100
AcDbEntity
  8
レイヤー_2
 62
     7
100
AcDbVertex
100
AcDb2dVertex
 10
53.626356
 20
207.068498
 30
0.0
  0
VERTEX
  5
807
100
AcDbEntity
  8
レイヤー_2
 62
     7
100
AcDbVertex
100
AcDb2dVertex
 10
54.792177
 20
207.359436
 30
0.0
  0
VERTEX
  5
808
100
AcDbEntity
  8
レイヤー_2
 62
     7
100
AcDbVertex
100
AcDb2dVertex
 10
55.957997
 20
207.47588
 30
0.0
  0
SEQEND
  5
809
100
AcDbEntity
  8
レイヤー_2
 62
     7
  0
POLYLINE
  5
7F2
100
AcDbEntity
  8
レイヤー_2
 62
     7
100
AcDb2dPolyline
 66
     1
 10
0.0
 20
0.0
 30
0.0
  0
VERTEX
  5
7F3
100
AcDbEntity
  8
レイヤー_2
 62
     7
100
AcDbVertex
100
AcDb2dVertex
 10
45.641142
 20
200.598264
 30
0.0
  0
VERTEX
  5
7F4
100
AcDbEntity
  8
レイヤー_2
 62
     7
100
AcDbVertex
100
AcDb2dVertex
 10
45.816153
 20
202.405044
 30
0.0
  0
VERTEX
  5
7F5
100
AcDbEntity
  8
レイヤー_2
 62
     7
100
AcDbVertex
100
AcDb2dVertex
 10
46.282446
 20
204.153947
 30
0.0
  0
VERTEX
  5
7F6
100
AcDbEntity
  8
レイヤー_2
 62
     7
100
AcDbVertex
100
AcDb2dVertex
 10
47.039678
 20
205.785544
 30
0.0
  0
VERTEX
  5
7F7
100
AcDbEntity
  8
レイヤー_2
 62
     7
100
AcDbVertex
100
AcDb2dVertex
 10
48.031005
 20
207.24282
 30
0.0
  0
VERTEX
  5
7F8
100
AcDbEntity
  8
レイヤー_2
 62
     7
100
AcDbVertex
100
AcDb2dVertex
 10
49.313441
 20
208.525256
 30
0.0
  0
VERTEX
  5
7F9
100
AcDbEntity
  8
レイヤー_2
 62
     7
100
AcDbVertex
100
AcDb2dVertex
 10
50.828767
 20
209.515894
 30
0.0
  0
VERTEX
  5
7FA
100
AcDbEntity
  8
レイヤー_2
 62
     7
100
AcDbVertex
100
AcDb2dVertex
 10
52.460708
 20
210.332209
 30
0.0
  0
VERTEX
  5
7FB
100
AcDbEntity
  8
レイヤー_2
 62
     7
100
AcDbVertex
100
AcDb2dVertex
 10
54.150872
 20
210.798503
 30
0.0
  0
VERTEX
  5
7FC
100
AcDbEntity
  8
レイヤー_2
 62
     7
100
AcDbVertex
100
AcDb2dVertex
 10
55.957997
 20
210.915119
 30
0.0
  0
SEQEND
  5
7FD
100
AcDbEntity
  8
レイヤー_2
 62
     7
  0
LINE
  5
7F1
100
AcDbEntity
  8
レイヤー_2
 62
     7
100
AcDbLine
 10
45.641142
 20
198.03339
 30
0.0
 11
45.641142
 21
200.598264
 31
0.0
  0
LINE
  5
7F0
100
AcDbEntity
  8
レイヤー_2
 62
     7
100
AcDbLine
 10
49.080036
 20
200.598264
 30
0.0
 11
49.080036
 21
198.03339
 31
0.0
  0
LINE
  5
7EF
100
AcDbEntity
  8
レイヤー_2
 62
     7
100
AcDbLine
 10
49.080036
 20
198.03339
 30
0.0
 11
49.080036
 21
194.769507
 31
0.0
  0
LINE
  5
7EE
100
AcDbEntity
  8
レイヤー_2
 62
     7
100
AcDbLine
 10
45.641142
 20
194.769507
 30
0.0
 11
45.641142
 21
198.03339
 31
0.0
  0
LINE
  5
7ED
100
AcDbEntity
  8
レイヤー_2
 62
     7
100
AcDbLine
 10
84.809638
 20
174.543696
 30
0.0
 11
84.809638
 21
174.48599
 31
0.0
  0
LINE
  5
7EC
100
AcDbEntity
  8
レイヤー_2
 62
     7
100
AcDbLine
 10
85.684348
 20
172.736571
 30
0.0
 11
85.684348
 21
165.509966
 31
0.0
  0
LINE
  5
7EB
100
AcDbEntity
  8
レイヤー_2
 62
     7
100
AcDbLine
 10
77.990761
 20
165.509966
 30
0.0
 11
77.990761
 21
172.736571
 31
0.0
  0
LINE
  5
7EA
100
AcDbEntity
  8
レイヤー_2
 62
     7
100
AcDbLine
 10
85.043043
 20
173.203554
 30
0.0
 11
85.043043
 21
172.736571
 31
0.0
  0
POLYLINE
  5
7E5
100
AcDbEntity
  8
レイヤー_2
 62
     7
100
AcDb2dPolyline
 66
     1
 10
0.0
 20
0.0
 30
0.0
  0
VERTEX
  5
7E6
100
AcDbEntity
  8
レイヤー_2
 62
     7
100
AcDbVertex
100
AcDb2dVertex
 10
84.751933
 20
174.48599
 30
0.0
  0
VERTEX
  5
7E7
100
AcDbEntity
  8
レイヤー_2
 62
     7
100
AcDbVertex
100
AcDb2dVertex
 10
84.926427
 20
174.019008
 30
0.0
  0
VERTEX
  5
7E8
100
AcDbEntity
  8
レイヤー_2
 62
     7
100
AcDbVertex
100
AcDb2dVertex
 10
85.043043
 20
173.203554
 30
0.0
  0
SEQEND
  5
7E9
100
AcDbEntity
  8
レイヤー_2
 62
     7
  0
LINE
  5
7E4
100
AcDbEntity
  8
レイヤー_2
 62
     7
100
AcDbLine
 10
78.632065
 20
172.736571
 30
0.0
 11
78.632065
 21
173.14447
 31
0.0
  0
LINE
  5
7E3
100
AcDbEntity
  8
レイヤー_2
 62
     7
100
AcDbLine
 10
76.241513
 20
176.758375
 30
0.0
 11
77.990761
 21
176.758375
 31
0.0
  0
LINE
  5
7E2
100
AcDbEntity
  8
レイヤー_2
 62
     7
100
AcDbLine
 10
77.990761
 20
175.068212
 30
0.0
 11
76.241513
 21
175.068212
 31
0.0
  0
LINE
  5
7E1
100
AcDbEntity
  8
レイヤー_2
 62
     7
100
AcDbLine
 10
66.740974
 20
177.108569
 30
0.0
 11
76.241513
 21
177.108569
 31
0.0
  0
LINE
  5
7E0
100
AcDbEntity
  8
レイヤー_2
 62
     7
100
AcDbLine
 10
76.241513
 20
174.719396
 30
0.0
 11
66.740974
 21
174.719396
 31
0.0
  0
LINE
  5
7DF
100
AcDbEntity
  8
レイヤー_2
 62
     7
100
AcDbLine
 10
77.990761
 20
176.817459
 30
0.0
 11
77.990761
 21
178.215995
 31
0.0
  0
LINE
  5
7DE
100
AcDbEntity
  8
レイヤー_2
 62
     7
100
AcDbLine
 10
77.990761
 20
173.14447
 30
0.0
 11
77.990761
 21
175.068212
 31
0.0
  0
LINE
  5
7DD
100
AcDbEntity
  8
レイヤー_2
 62
     7
100
AcDbLine
 10
85.684348
 20
175.477317
 30
0.0
 11
85.684348
 21
174.951423
 31
0.0
  0
LINE
  5
7DC
100
AcDbEntity
  8
レイヤー_2
 62
     7
100
AcDbLine
 10
85.684348
 20
178.215995
 30
0.0
 11
85.684348
 21
176.350648
 31
0.0
  0
POLYLINE
  5
7D7
100
AcDbEntity
  8
レイヤー_2
 62
     7
100
AcDb2dPolyline
 66
     1
 10
0.0
 20
0.0
 30
0.0
  0
VERTEX
  5
7D8
100
AcDbEntity
  8
レイヤー_2
 62
     7
100
AcDbVertex
100
AcDb2dVertex
 10
77.990761
 20
178.215995
 30
0.0
  0
VERTEX
  5
7D9
100
AcDbEntity
  8
レイヤー_2
 62
     7
100
AcDbVertex
100
AcDb2dVertex
 10
81.836865
 20
178.27439
 30
0.0
  0
VERTEX
  5
7DA
100
AcDbEntity
  8
レイヤー_2
 62
     7
100
AcDbVertex
100
AcDb2dVertex
 10
85.684348
 20
178.215995
 30
0.0
  0
SEQEND
  5
7DB
100
AcDbEntity
  8
レイヤー_2
 62
     7
  0
LINE
  5
7D6
100
AcDbEntity
  8
レイヤー_2
 62
     7
100
AcDbLine
 10
86.558369
 20
165.509966
 30
0.0
 11
86.558369
 21
163.760547
 31
0.0
  0
LINE
  5
7D5
100
AcDbEntity
  8
レイヤー_2
 62
     7
100
AcDbLine
 10
77.057829
 20
165.509966
 30
0.0
 11
77.116223
 21
165.509966
 31
0.0
  0
LINE
  5
7D4
100
AcDbEntity
  8
レイヤー_2
 62
     7
100
AcDbLine
 10
45.641142
 20
198.03339
 30
0.0
 11
49.080036
 21
198.03339
 31
0.0
  0
LINE
  5
7D3
100
AcDbEntity
  8
レイヤー_2
 62
     7
100
AcDbLine
 10
45.816153
 20
198.03339
 30
0.0
 11
45.641142
 21
198.03339
 31
0.0
  0
LINE
  5
7D2
100
AcDbEntity
  8
レイヤー_2
 62
     7
100
AcDbLine
 10
49.080036
 20
198.03339
 30
0.0
 11
45.816153
 21
198.03339
 31
0.0
  0
LINE
  5
7D1
100
AcDbEntity
  8
レイヤー_2
 62
     7
100
AcDbLine
 10
85.684348
 20
172.736571
 30
0.0
 11
77.990761
 21
172.736571
 31
0.0
  0
LINE
  5
7D0
100
AcDbEntity
  8
レイヤー_2
 62
     7
100
AcDbLine
 10
83.177696
 20
173.203554
 30
0.0
 11
83.177696
 21
172.736571
 31
0.0
  0
LINE
  5
7CF
100
AcDbEntity
  8
レイヤー_2
 62
     7
100
AcDbLine
 10
83.061769
 20
173.728069
 30
0.0
 11
83.177696
 21
173.203554
 31
0.0
  0
LINE
  5
7CE
100
AcDbEntity
  8
レイヤー_2
 62
     7
100
AcDbLine
 10
80.496723
 20
172.736571
 30
0.0
 11
80.496723
 21
173.14447
 31
0.0
  0
LINE
  5
7CD
100
AcDbEntity
  8
レイヤー_2
 62
     7
100
AcDbLine
 10
76.241513
 20
177.108569
 30
0.0
 11
76.241513
 21
174.719396
 31
0.0
  0
LINE
  5
7CC
100
AcDbEntity
  8
レイヤー_2
 62
     7
100
AcDbLine
 10
85.684348
 20
176.350648
 30
0.0
 11
85.684348
 21
175.477317
 31
0.0
  0
LINE
  5
7CB
100
AcDbEntity
  8
レイヤー_2
 62
     7
100
AcDbLine
 10
85.684348
 20
175.826133
 30
0.0
 11
85.684348
 21
175.942749
 31
0.0
  0
LINE
  5
7CA
100
AcDbEntity
  8
レイヤー_2
 62
     7
100
AcDbLine
 10
81.836865
 20
173.14447
 30
0.0
 11
77.990761
 21
173.14447
 31
0.0
  0
LINE
  5
7C9
100
AcDbEntity
  8
レイヤー_2
 62
     7
100
AcDbLine
 10
85.684348
 20
174.951423
 30
0.0
 11
81.836865
 21
173.14447
 31
0.0
  0
POLYLINE
  5
7C1
100
AcDbEntity
  8
レイヤー_2
 62
     7
100
AcDb2dPolyline
 66
     1
 10
0.0
 20
0.0
 30
0.0
  0
VERTEX
  5
7C2
100
AcDbEntity
  8
レイヤー_2
 62
     7
100
AcDbVertex
100
AcDb2dVertex
 10
77.990761
 20
175.068212
 30
0.0
  0
VERTEX
  5
7C3
100
AcDbEntity
  8
レイヤー_2
 62
     7
100
AcDbVertex
100
AcDb2dVertex
 10
77.990761
 20
175.301617
 30
0.0
  0
VERTEX
  5
7C4
100
AcDbEntity
  8
レイヤー_2
 62
     7
100
AcDbVertex
100
AcDb2dVertex
 10
78.048466
 20
175.535022
 30
0.0
  0
VERTEX
  5
7C5
100
AcDbEntity
  8
レイヤー_2
 62
     7
100
AcDbVertex
100
AcDb2dVertex
 10
78.048466
 20
176.350648
 30
0.0
  0
VERTEX
  5
7C6
100
AcDbEntity
  8
レイヤー_2
 62
     7
100
AcDbVertex
100
AcDb2dVertex
 10
77.990761
 20
176.584054
 30
0.0
  0
VERTEX
  5
7C7
100
AcDbEntity
  8
レイヤー_2
 62
     7
100
AcDbVertex
100
AcDb2dVertex
 10
77.990761
 20
176.817459
 30
0.0
  0
SEQEND
  5
7C8
100
AcDbEntity
  8
レイヤー_2
 62
     7
  0
LINE
  5
7C0
100
AcDbEntity
  8
レイヤー_2
 62
     7
100
AcDbLine
 10
82.770658
 20
165.509966
 30
0.0
 11
77.116223
 21
165.509966
 31
0.0
  0
LINE
  5
7BF
100
AcDbEntity
  8
レイヤー_2
 62
     7
100
AcDbLine
 10
86.558369
 20
165.509966
 30
0.0
 11
82.770658
 21
165.509966
 31
0.0
  0
LINE
  5
7BE
100
AcDbEntity
  8
レイヤー_2
 62
     7
100
AcDbLine
 10
47.3897
 20
194.769507
 30
0.0
 11
45.641142
 21
194.769507
 31
0.0
  0
LINE
  5
7BD
100
AcDbEntity
  8
レイヤー_2
 62
     7
100
AcDbLine
 10
49.080036
 20
194.769507
 30
0.0
 11
47.3897
 21
194.769507
 31
0.0
  0
LINE
  5
7BC
100
AcDbEntity
  8
レイヤー_2
 62
     7
100
AcDbLine
 10
66.740974
 20
177.108569
 30
0.0
 11
66.740974
 21
174.719396
 31
0.0
  0
LINE
  5
7BB
100
AcDbEntity
  8
レイヤー_2
 62
     7
100
AcDbLine
 10
169.984456
 20
152.91263
 30
0.0
 11
169.809101
 21
152.738481
 31
0.0
  0
LINE
  5
7BA
100
AcDbEntity
  8
レイヤー_2
 62
     7
100
AcDbLine
 10
164.971842
 20
152.738481
 30
0.0
 11
164.855054
 21
152.91263
 31
0.0
  0
LINE
  5
7B9
100
AcDbEntity
  8
レイヤー_2
 62
     7
100
AcDbLine
 10
169.984456
 20
162.936308
 30
0.0
 11
169.984456
 21
155.533831
 31
0.0
  0
LINE
  5
7B8
100
AcDbEntity
  8
レイヤー_2
 62
     7
100
AcDbLine
 10
169.984456
 20
153.610951
 30
0.0
 11
169.984456
 21
152.91263
 31
0.0
  0
LINE
  5
7B7
100
AcDbEntity
  8
レイヤー_2
 62
     7
100
AcDbLine
 10
164.855054
 20
152.91263
 30
0.0
 11
164.855054
 21
153.610951
 31
0.0
  0
LINE
  5
7B6
100
AcDbEntity
  8
レイヤー_2
 62
     7
100
AcDbLine
 10
164.855054
 20
155.476298
 30
0.0
 11
164.855054
 21
162.936308
 31
0.0
  0
LINE
  5
7B5
100
AcDbEntity
  8
レイヤー_2
 62
     7
100
AcDbLine
 10
167.419927
 20
152.91263
 30
0.0
 11
164.855054
 21
152.91263
 31
0.0
  0
LINE
  5
7B4
100
AcDbEntity
  8
レイヤー_2
 62
     7
100
AcDbLine
 10
169.984456
 20
152.91263
 30
0.0
 11
167.419927
 21
152.91263
 31
0.0
  0
LINE
  5
7B3
100
AcDbEntity
  8
レイヤー_2
 62
     7
100
AcDbLine
 10
167.419927
 20
152.738481
 30
0.0
 11
169.809101
 21
152.738481
 31
0.0
  0
LINE
  5
7B2
100
AcDbEntity
  8
レイヤー_2
 62
     7
100
AcDbLine
 10
164.971842
 20
152.738481
 30
0.0
 11
167.419927
 21
152.738481
 31
0.0
  0
LINE
  5
7B1
100
AcDbEntity
  8
レイヤー_2
 62
     7
100
AcDbLine
 10
172.140742
 20
163.053097
 30
0.0
 11
162.640202
 21
163.053097
 31
0.0
  0
LINE
  5
7B0
100
AcDbEntity
  8
レイヤー_2
 62
     7
100
AcDbLine
 10
171.266721
 20
154.950404
 30
0.0
 11
171.266721
 21
154.660155
 31
0.0
  0
LINE
  5
7AF
100
AcDbEntity
  8
レイヤー_2
 62
     7
100
AcDbLine
 10
163.514223
 20
154.660155
 30
0.0
 11
163.514223
 21
154.950404
 31
0.0
  0
LINE
  5
7AE
100
AcDbEntity
  8
レイヤー_2
 62
     7
100
AcDbLine
 10
163.281334
 20
155.00966
 30
0.0
 11
163.281334
 21
155.476298
 31
0.0
  0
LINE
  5
7AD
100
AcDbEntity
  8
レイヤー_2
 62
     7
100
AcDbLine
 10
171.499609
 20
155.476298
 30
0.0
 11
171.499609
 21
155.00966
 31
0.0
  0
LINE
  5
7AC
100
AcDbEntity
  8
レイヤー_2
 62
     7
100
AcDbLine
 10
171.266721
 20
154.660155
 30
0.0
 11
163.514223
 21
154.660155
 31
0.0
  0
LINE
  5
7AB
100
AcDbEntity
  8
レイヤー_2
 62
     7
100
AcDbLine
 10
171.499609
 20
155.00966
 30
0.0
 11
163.281334
 21
155.00966
 31
0.0
  0
LINE
  5
7AA
100
AcDbEntity
  8
レイヤー_2
 62
     7
100
AcDbLine
 10
168.993647
 20
153.610951
 30
0.0
 11
168.993647
 21
154.660155
 31
0.0
  0
LINE
  5
7A9
100
AcDbEntity
  8
レイヤー_2
 62
     7
100
AcDbLine
 10
165.787297
 20
153.610951
 30
0.0
 11
165.787297
 21
154.660155
 31
0.0
  0
LINE
  5
7A8
100
AcDbEntity
  8
レイヤー_2
 62
     7
100
AcDbLine
 10
165.496186
 20
153.610951
 30
0.0
 11
168.410737
 21
153.610951
 31
0.0
  0
LINE
  5
7A7
100
AcDbEntity
  8
レイヤー_2
 62
     7
100
AcDbLine
 10
168.876858
 20
153.610951
 30
0.0
 11
168.410737
 21
153.610951
 31
0.0
  0
LINE
  5
7A6
100
AcDbEntity
  8
レイヤー_2
 62
     7
100
AcDbLine
 10
170.683122
 20
153.610951
 30
0.0
 11
168.876858
 21
153.610951
 31
0.0
  0
LINE
  5
7A5
100
AcDbEntity
  8
レイヤー_2
 62
     7
100
AcDbLine
 10
165.496186
 20
153.610951
 30
0.0
 11
165.146164
 21
153.610951
 31
0.0
  0
LINE
  5
7A4
100
AcDbEntity
  8
レイヤー_2
 62
     7
100
AcDbLine
 10
164.0396
 20
153.610951
 30
0.0
 11
164.0396
 21
154.660155
 31
0.0
  0
LINE
  5
7A3
100
AcDbEntity
  8
レイヤー_2
 62
     7
100
AcDbLine
 10
164.0396
 20
153.610951
 30
0.0
 11
165.146164
 21
153.610951
 31
0.0
  0
LINE
  5
7A2
100
AcDbEntity
  8
レイヤー_2
 62
     7
100
AcDbLine
 10
170.742377
 20
153.610951
 30
0.0
 11
170.742377
 21
154.660155
 31
0.0
  0
LINE
  5
7A1
100
AcDbEntity
  8
レイヤー_2
 62
     7
100
AcDbLine
 10
170.742377
 20
153.610951
 30
0.0
 11
170.683122
 21
153.610951
 31
0.0
  0
LINE
  5
7A0
100
AcDbEntity
  8
レイヤー_2
 62
     7
100
AcDbLine
 10
167.419927
 20
155.476298
 30
0.0
 11
163.281334
 21
155.476298
 31
0.0
  0
LINE
  5
79F
100
AcDbEntity
  8
レイヤー_2
 62
     7
100
AcDbLine
 10
171.499609
 20
155.476298
 30
0.0
 11
167.419927
 21
155.476298
 31
0.0
  0
LINE
  5
79E
100
AcDbEntity
  8
レイヤー_2
 62
     7
100
AcDbLine
 10
169.634779
 20
162.936308
 30
0.0
 11
169.634779
 21
155.476298
 31
0.0
  0
LINE
  5
79D
100
AcDbEntity
  8
レイヤー_2
 62
     7
100
AcDbLine
 10
169.634779
 20
153.610951
 30
0.0
 11
169.634779
 21
152.91263
 31
0.0
  0
LINE
  5
79C
100
AcDbEntity
  8
レイヤー_2
 62
     7
100
AcDbLine
 10
165.146164
 20
152.91263
 30
0.0
 11
165.146164
 21
153.610951
 31
0.0
  0
LINE
  5
79B
100
AcDbEntity
  8
レイヤー_2
 62
     7
100
AcDbLine
 10
165.146164
 20
155.476298
 30
0.0
 11
165.146164
 21
162.936308
 31
0.0
  0
POLYLINE
  5
796
100
AcDbEntity
  8
レイヤー_2
 62
     7
100
AcDb2dPolyline
 66
     1
 10
0.0
 20
0.0
 30
0.0
  0
VERTEX
  5
797
100
AcDbEntity
  8
レイヤー_2
 62
     7
100
AcDbVertex
100
AcDb2dVertex
 10
144.083195
 20
161.944982
 30
0.0
  0
VERTEX
  5
798
100
AcDbEntity
  8
レイヤー_2
 62
     7
100
AcDbVertex
100
AcDb2dVertex
 10
144.024628
 20
161.712954
 30
0.0
  0
VERTEX
  5
799
100
AcDbEntity
  8
レイヤー_2
 62
     7
100
AcDbVertex
100
AcDb2dVertex
 10
144.083195
 20
161.421155
 30
0.0
  0
SEQEND
  5
79A
100
AcDbEntity
  8
レイヤー_2
 62
     7
  0
LINE
  5
795
100
AcDbEntity
  8
レイヤー_2
 62
     7
100
AcDbLine
 10
144.083195
 20
159.847607
 30
0.0
 11
144.024628
 21
159.555808
 31
0.0
  0
LINE
  5
794
100
AcDbEntity
  8
レイヤー_2
 62
     7
100
AcDbLine
 10
144.024628
 20
159.555808
 30
0.0
 11
144.024628
 21
158.73932
 31
0.0
  0
POLYLINE
  5
78F
100
AcDbEntity
  8
レイヤー_2
 62
     7
100
AcDb2dPolyline
 66
     1
 10
0.0
 20
0.0
 30
0.0
  0
VERTEX
  5
790
100
AcDbEntity
  8
レイヤー_2
 62
     7
100
AcDbVertex
100
AcDb2dVertex
 10
144.140728
 20
162.004065
 30
0.0
  0
VERTEX
  5
791
100
AcDbEntity
  8
レイヤー_2
 62
     7
100
AcDbVertex
100
AcDb2dVertex
 10
144.083195
 20
162.004065
 30
0.0
  0
VERTEX
  5
792
100
AcDbEntity
  8
レイヤー_2
 62
     7
100
AcDbVertex
100
AcDb2dVertex
 10
144.083195
 20
161.944982
 30
0.0
  0
SEQEND
  5
793
100
AcDbEntity
  8
レイヤー_2
 62
     7
  0
LINE
  5
78E
100
AcDbEntity
  8
レイヤー_2
 62
     7
100
AcDbLine
 10
144.083195
 20
162.936308
 30
0.0
 11
144.083195
 21
162.004065
 31
0.0
  0
LINE
  5
78D
100
AcDbEntity
  8
レイヤー_2
 62
     7
100
AcDbLine
 10
145.890148
 20
129.77468
 30
0.0
 11
145.890148
 21
147.610628
 31
0.0
  0
LINE
  5
78C
100
AcDbEntity
  8
レイヤー_2
 62
     7
100
AcDbLine
 10
144.19895
 20
158.73932
 30
0.0
 11
144.19895
 21
155.884025
 31
0.0
  0
LINE
  5
78B
100
AcDbEntity
  8
レイヤー_2
 62
     7
100
AcDbLine
 10
144.19895
 20
154.485316
 30
0.0
 11
144.19895
 21
129.541791
 31
0.0
  0
LINE
  5
78A
100
AcDbEntity
  8
レイヤー_2
 62
     7
100
AcDbLine
 10
150.203063
 20
155.650448
 30
0.0
 11
150.203063
 21
155.884025
 31
0.0
  0
LINE
  5
789
100
AcDbEntity
  8
レイヤー_2
 62
     7
100
AcDbLine
 10
141.984787
 20
155.884025
 30
0.0
 11
141.984787
 21
155.650448
 31
0.0
  0
LINE
  5
788
100
AcDbEntity
  8
レイヤー_2
 62
     7
100
AcDbLine
 10
148.103966
 20
162.702903
 30
0.0
 11
148.103966
 21
162.936308
 31
0.0
  0
LINE
  5
787
100
AcDbEntity
  8
レイヤー_2
 62
     7
100
AcDbLine
 10
146.413802
 20
129.716113
 30
0.0
 11
146.413802
 21
147.610628
 31
0.0
  0
LINE
  5
786
100
AcDbEntity
  8
レイヤー_2
 62
     7
100
AcDbLine
 10
145.424026
 20
162.936308
 30
0.0
 11
145.424026
 21
155.884025
 31
0.0
  0
LINE
  5
785
100
AcDbEntity
  8
レイヤー_2
 62
     7
100
AcDbLine
 10
146.764168
 20
155.884025
 30
0.0
 11
146.764168
 21
162.936308
 31
0.0
  0
POLYLINE
  5
780
100
AcDbEntity
  8
レイヤー_2
 62
     7
100
AcDb2dPolyline
 66
     1
 10
0.0
 20
0.0
 30
0.0
  0
VERTEX
  5
781
100
AcDbEntity
  8
レイヤー_2
 62
     7
100
AcDbVertex
100
AcDb2dVertex
 10
141.634077
 20
154.543022
 30
0.0
  0
VERTEX
  5
782
100
AcDbEntity
  8
レイヤー_2
 62
     7
100
AcDbVertex
100
AcDb2dVertex
 10
141.634077
 20
154.485316
 30
0.0
  0
VERTEX
  5
783
100
AcDbEntity
  8
レイヤー_2
 62
     7
100
AcDbVertex
100
AcDb2dVertex
 10
141.692988
 20
154.427094
 30
0.0
  0
SEQEND
  5
784
100
AcDbEntity
  8
レイヤー_2
 62
     7
  0
POLYLINE
  5
77B
100
AcDbEntity
  8
レイヤー_2
 62
     7
100
AcDb2dPolyline
 66
     1
 10
0.0
 20
0.0
 30
0.0
  0
VERTEX
  5
77C
100
AcDbEntity
  8
レイヤー_2
 62
     7
100
AcDbVertex
100
AcDb2dVertex
 10
150.494173
 20
154.427094
 30
0.0
  0
VERTEX
  5
77D
100
AcDbEntity
  8
レイヤー_2
 62
     7
100
AcDbVertex
100
AcDb2dVertex
 10
150.553084
 20
154.485316
 30
0.0
  0
VERTEX
  5
77E
100
AcDbEntity
  8
レイヤー_2
 62
     7
100
AcDbVertex
100
AcDb2dVertex
 10
150.553084
 20
154.543022
 30
0.0
  0
SEQEND
  5
77F
100
AcDbEntity
  8
レイヤー_2
 62
     7
  0
LINE
  5
77A
100
AcDbEntity
  8
レイヤー_2
 62
     7
100
AcDbLine
 10
150.553084
 20
154.543022
 30
0.0
 11
150.553084
 21
155.533831
 31
0.0
  0
LINE
  5
779
100
AcDbEntity
  8
レイヤー_2
 62
     7
100
AcDbLine
 10
141.634077
 20
155.533831
 30
0.0
 11
141.634077
 21
154.543022
 31
0.0
  0
POLYLINE
  5
774
100
AcDbEntity
  8
レイヤー_2
 62
     7
100
AcDb2dPolyline
 66
     1
 10
0.0
 20
0.0
 30
0.0
  0
VERTEX
  5
775
100
AcDbEntity
  8
レイヤー_2
 62
     7
100
AcDbVertex
100
AcDb2dVertex
 10
141.692988
 20
155.650448
 30
0.0
  0
VERTEX
  5
776
100
AcDbEntity
  8
レイヤー_2
 62
     7
100
AcDbVertex
100
AcDb2dVertex
 10
141.634077
 20
155.592225
 30
0.0
  0
VERTEX
  5
777
100
AcDbEntity
  8
レイヤー_2
 62
     7
100
AcDbVertex
100
AcDb2dVertex
 10
141.634077
 20
155.533831
 30
0.0
  0
SEQEND
  5
778
100
AcDbEntity
  8
レイヤー_2
 62
     7
  0
POLYLINE
  5
76F
100
AcDbEntity
  8
レイヤー_2
 62
     7
100
AcDb2dPolyline
 66
     1
 10
0.0
 20
0.0
 30
0.0
  0
VERTEX
  5
770
100
AcDbEntity
  8
レイヤー_2
 62
     7
100
AcDbVertex
100
AcDb2dVertex
 10
150.553084
 20
155.533831
 30
0.0
  0
VERTEX
  5
771
100
AcDbEntity
  8
レイヤー_2
 62
     7
100
AcDbVertex
100
AcDb2dVertex
 10
150.553084
 20
155.592225
 30
0.0
  0
VERTEX
  5
772
100
AcDbEntity
  8
レイヤー_2
 62
     7
100
AcDbVertex
100
AcDb2dVertex
 10
150.494173
 20
155.650448
 30
0.0
  0
SEQEND
  5
773
100
AcDbEntity
  8
レイヤー_2
 62
     7
  0
LINE
  5
76E
100
AcDbEntity
  8
レイヤー_2
 62
     7
100
AcDbLine
 10
147.230979
 20
154.135467
 30
0.0
 11
147.230979
 21
154.368528
 31
0.0
  0
LINE
  5
76D
100
AcDbEntity
  8
レイヤー_2
 62
     7
100
AcDbLine
 10
144.956871
 20
154.368528
 30
0.0
 11
144.956871
 21
154.135467
 31
0.0
  0
LINE
  5
76C
100
AcDbEntity
  8
レイヤー_2
 62
     7
100
AcDbLine
 10
147.230979
 20
154.368528
 30
0.0
 11
146.879924
 21
154.427094
 31
0.0
  0
LINE
  5
76B
100
AcDbEntity
  8
レイヤー_2
 62
     7
100
AcDbLine
 10
145.306548
 20
154.427094
 30
0.0
 11
144.956871
 21
154.368528
 31
0.0
  0
LINE
  5
76A
100
AcDbEntity
  8
レイヤー_2
 62
     7
100
AcDbLine
 10
144.956871
 20
154.135467
 30
0.0
 11
145.247982
 21
153.670207
 31
0.0
  0
LINE
  5
769
100
AcDbEntity
  8
レイヤー_2
 62
     7
100
AcDbLine
 10
146.939179
 20
153.670207
 30
0.0
 11
147.230979
 21
154.135467
 31
0.0
  0
LINE
  5
768
100
AcDbEntity
  8
レイヤー_2
 62
     7
100
AcDbLine
 10
146.939179
 20
149.649608
 30
0.0
 11
146.939179
 21
153.670207
 31
0.0
  0
LINE
  5
767
100
AcDbEntity
  8
レイヤー_2
 62
     7
100
AcDbLine
 10
145.247982
 20
153.670207
 30
0.0
 11
145.247982
 21
149.649608
 31
0.0
  0
LINE
  5
766
100
AcDbEntity
  8
レイヤー_2
 62
     7
100
AcDbLine
 10
145.424026
 20
161.421155
 30
0.0
 11
145.364771
 21
161.421155
 31
0.0
  0
LINE
  5
765
100
AcDbEntity
  8
レイヤー_2
 62
     7
100
AcDbLine
 10
145.364771
 20
161.421155
 30
0.0
 11
144.782549
 21
161.421155
 31
0.0
  0
LINE
  5
764
100
AcDbEntity
  8
レイヤー_2
 62
     7
100
AcDbLine
 10
144.782549
 20
161.421155
 30
0.0
 11
144.60685
 21
161.421155
 31
0.0
  0
LINE
  5
763
100
AcDbEntity
  8
レイヤー_2
 62
     7
100
AcDbLine
 10
144.60685
 20
161.421155
 30
0.0
 11
144.19895
 21
161.421155
 31
0.0
  0
LINE
  5
762
100
AcDbEntity
  8
レイヤー_2
 62
     7
100
AcDbLine
 10
144.19895
 20
161.421155
 30
0.0
 11
144.140728
 21
161.421155
 31
0.0
  0
LINE
  5
761
100
AcDbEntity
  8
レイヤー_2
 62
     7
100
AcDbLine
 10
144.140728
 20
161.421155
 30
0.0
 11
144.083195
 21
161.421155
 31
0.0
  0
LINE
  5
760
100
AcDbEntity
  8
レイヤー_2
 62
     7
100
AcDbLine
 10
144.140728
 20
159.847607
 30
0.0
 11
144.083195
 21
159.847607
 31
0.0
  0
LINE
  5
75F
100
AcDbEntity
  8
レイヤー_2
 62
     7
100
AcDbLine
 10
144.19895
 20
159.847607
 30
0.0
 11
144.140728
 21
159.847607
 31
0.0
  0
LINE
  5
75E
100
AcDbEntity
  8
レイヤー_2
 62
     7
100
AcDbLine
 10
144.60685
 20
159.847607
 30
0.0
 11
144.19895
 21
159.847607
 31
0.0
  0
LINE
  5
75D
100
AcDbEntity
  8
レイヤー_2
 62
     7
100
AcDbLine
 10
144.782549
 20
159.847607
 30
0.0
 11
144.60685
 21
159.847607
 31
0.0
  0
LINE
  5
75C
100
AcDbEntity
  8
レイヤー_2
 62
     7
100
AcDbLine
 10
145.364771
 20
159.847607
 30
0.0
 11
144.782549
 21
159.847607
 31
0.0
  0
LINE
  5
75B
100
AcDbEntity
  8
レイヤー_2
 62
     7
100
AcDbLine
 10
145.424026
 20
159.847607
 30
0.0
 11
145.364771
 21
159.847607
 31
0.0
  0
LINE
  5
75A
100
AcDbEntity
  8
レイヤー_2
 62
     7
100
AcDbLine
 10
145.424026
 20
158.73932
 30
0.0
 11
144.024628
 21
158.73932
 31
0.0
  0
LINE
  5
759
100
AcDbEntity
  8
レイヤー_2
 62
     7
100
AcDbLine
 10
144.665761
 20
162.936308
 30
0.0
 11
144.665761
 21
162.178387
 31
0.0
  0
LINE
  5
758
100
AcDbEntity
  8
レイヤー_2
 62
     7
100
AcDbLine
 10
144.49075
 20
162.178387
 30
0.0
 11
144.140728
 21
162.178387
 31
0.0
  0
LINE
  5
757
100
AcDbEntity
  8
レイヤー_2
 62
     7
100
AcDbLine
 10
144.49075
 20
162.178387
 30
0.0
 11
144.49075
 21
162.936308
 31
0.0
  0
LINE
  5
756
100
AcDbEntity
  8
レイヤー_2
 62
     7
100
AcDbLine
 10
145.424026
 20
162.178387
 30
0.0
 11
144.665761
 21
162.178387
 31
0.0
  0
LINE
  5
755
100
AcDbEntity
  8
レイヤー_2
 62
     7
100
AcDbLine
 10
145.424026
 20
162.004065
 30
0.0
 11
144.083195
 21
162.004065
 31
0.0
  0
LINE
  5
754
100
AcDbEntity
  8
レイヤー_2
 62
     7
100
AcDbLine
 10
144.60685
 20
159.847607
 30
0.0
 11
144.60685
 21
161.421155
 31
0.0
  0
LINE
  5
753
100
AcDbEntity
  8
レイヤー_2
 62
     7
100
AcDbLine
 10
144.782549
 20
161.421155
 30
0.0
 11
144.782549
 21
159.847607
 31
0.0
  0
LINE
  5
752
100
AcDbEntity
  8
レイヤー_2
 62
     7
100
AcDbLine
 10
144.140728
 20
159.847607
 30
0.0
 11
144.140728
 21
161.421155
 31
0.0
  0
LINE
  5
751
100
AcDbEntity
  8
レイヤー_2
 62
     7
100
AcDbLine
 10
147.171723
 20
155.884025
 30
0.0
 11
150.203063
 21
155.884025
 31
0.0
  0
LINE
  5
750
100
AcDbEntity
  8
レイヤー_2
 62
     7
100
AcDbLine
 10
141.984787
 20
155.884025
 30
0.0
 11
147.171723
 21
155.884025
 31
0.0
  0
LINE
  5
74F
100
AcDbEntity
  8
レイヤー_2
 62
     7
100
AcDbLine
 10
148.103966
 20
162.411792
 30
0.0
 11
148.103966
 21
162.702903
 31
0.0
  0
LINE
  5
74E
100
AcDbEntity
  8
レイヤー_2
 62
     7
100
AcDbLine
 10
148.103966
 20
162.411792
 30
0.0
 11
146.764168
 21
162.411792
 31
0.0
  0
LINE
  5
74D
100
AcDbEntity
  8
レイヤー_2
 62
     7
100
AcDbLine
 10
150.494173
 20
154.427094
 30
0.0
 11
141.692988
 21
154.427094
 31
0.0
  0
LINE
  5
74C
100
AcDbEntity
  8
レイヤー_2
 62
     7
100
AcDbLine
 10
141.692988
 20
155.650448
 30
0.0
 11
150.494173
 21
155.650448
 31
0.0
  0
LINE
  5
74B
100
AcDbEntity
  8
レイヤー_2
 62
     7
100
AcDbLine
 10
150.203063
 20
155.650448
 30
0.0
 11
150.319851
 21
155.650448
 31
0.0
  0
LINE
  5
74A
100
AcDbEntity
  8
レイヤー_2
 62
     7
100
AcDbLine
 10
141.867654
 20
155.650448
 30
0.0
 11
141.925876
 21
155.650448
 31
0.0
  0
LINE
  5
749
100
AcDbEntity
  8
レイヤー_2
 62
     7
100
AcDbLine
 10
149.445142
 20
154.427094
 30
0.0
 11
146.879924
 21
154.427094
 31
0.0
  0
LINE
  5
748
100
AcDbEntity
  8
レイヤー_2
 62
     7
100
AcDbLine
 10
144.19895
 20
154.427094
 30
0.0
 11
143.674607
 21
154.427094
 31
0.0
  0
LINE
  5
747
100
AcDbEntity
  8
レイヤー_2
 62
     7
100
AcDbLine
 10
147.230979
 20
154.135467
 30
0.0
 11
144.956871
 21
154.135467
 31
0.0
  0
LINE
  5
746
100
AcDbEntity
  8
レイヤー_2
 62
     7
100
AcDbLine
 10
146.939179
 20
153.670207
 30
0.0
 11
145.247982
 21
153.670207
 31
0.0
  0
LINE
  5
745
100
AcDbEntity
  8
レイヤー_2
 62
     7
100
AcDbLine
 10
145.424026
 20
159.555808
 30
0.0
 11
144.024628
 21
159.555808
 31
0.0
  0
LINE
  5
744
100
AcDbEntity
  8
レイヤー_2
 62
     7
100
AcDbLine
 10
167.478494
 20
151.222294
 30
0.0
 11
167.536027
 21
151.455699
 31
0.0
  0
LINE
  5
743
100
AcDbEntity
  8
レイヤー_2
 62
     7
100
AcDbLine
 10
167.536027
 20
150.932045
 30
0.0
 11
167.478494
 21
151.222294
 31
0.0
  0
POLYLINE
  5
73E
100
AcDbEntity
  8
レイヤー_2
 62
     7
100
AcDb2dPolyline
 66
     1
 10
0.0
 20
0.0
 30
0.0
  0
VERTEX
  5
73F
100
AcDbEntity
  8
レイヤー_2
 62
     7
100
AcDbVertex
100
AcDb2dVertex
 10
169.51799
 20
151.455699
 30
0.0
  0
VERTEX
  5
740
100
AcDbEntity
  8
レイヤー_2
 62
     7
100
AcDbVertex
100
AcDb2dVertex
 10
169.51799
 20
151.222294
 30
0.0
  0
VERTEX
  5
741
100
AcDbEntity
  8
レイヤー_2
 62
     7
100
AcDbVertex
100
AcDb2dVertex
 10
169.459768
 20
150.932045
 30
0.0
  0
SEQEND
  5
742
100
AcDbEntity
  8
レイヤー_2
 62
     7
  0
LINE
  5
73D
100
AcDbEntity
  8
レイヤー_2
 62
     7
100
AcDbLine
 10
167.478494
 20
148.251588
 30
0.0
 11
167.478494
 21
149.067042
 31
0.0
  0
LINE
  5
73C
100
AcDbEntity
  8
レイヤー_2
 62
     7
100
AcDbLine
 10
169.51799
 20
149.067042
 30
0.0
 11
169.51799
 21
148.251588
 31
0.0
  0
LINE
  5
73B
100
AcDbEntity
  8
レイヤー_2
 62
     7
100
AcDbLine
 10
167.478494
 20
149.067042
 30
0.0
 11
167.536027
 21
149.357981
 31
0.0
  0
LINE
  5
73A
100
AcDbEntity
  8
レイヤー_2
 62
     7
100
AcDbLine
 10
169.459768
 20
149.357981
 30
0.0
 11
169.51799
 21
149.067042
 31
0.0
  0
POLYLINE
  5
735
100
AcDbEntity
  8
レイヤー_2
 62
     7
100
AcDb2dPolyline
 66
     1
 10
0.0
 20
0.0
 30
0.0
  0
VERTEX
  5
736
100
AcDbEntity
  8
レイヤー_2
 62
     7
100
AcDbVertex
100
AcDb2dVertex
 10
167.536027
 20
151.455699
 30
0.0
  0
VERTEX
  5
737
100
AcDbEntity
  8
レイヤー_2
 62
     7
100
AcDbVertex
100
AcDb2dVertex
 10
167.536027
 20
151.513921
 30
0.0
  0
VERTEX
  5
738
100
AcDbEntity
  8
レイヤー_2
 62
     7
100
AcDbVertex
100
AcDb2dVertex
 10
167.594249
 20
151.513921
 30
0.0
  0
SEQEND
  5
739
100
AcDbEntity
  8
レイヤー_2
 62
     7
  0
POLYLINE
  5
730
100
AcDbEntity
  8
レイヤー_2
 62
     7
100
AcDb2dPolyline
 66
     1
 10
0.0
 20
0.0
 30
0.0
  0
VERTEX
  5
731
100
AcDbEntity
  8
レイヤー_2
 62
     7
100
AcDbVertex
100
AcDb2dVertex
 10
169.401546
 20
151.513921
 30
0.0
  0
VERTEX
  5
732
100
AcDbEntity
  8
レイヤー_2
 62
     7
100
AcDbVertex
100
AcDb2dVertex
 10
169.459768
 20
151.513921
 30
0.0
  0
VERTEX
  5
733
100
AcDbEntity
  8
レイヤー_2
 62
     7
100
AcDbVertex
100
AcDb2dVertex
 10
169.51799
 20
151.455699
 30
0.0
  0
SEQEND
  5
734
100
AcDbEntity
  8
レイヤー_2
 62
     7
  0
LINE
  5
72F
100
AcDbEntity
  8
レイヤー_2
 62
     7
100
AcDbLine
 10
167.536027
 20
151.513921
 30
0.0
 11
167.536027
 21
152.738481
 31
0.0
  0
LINE
  5
72E
100
AcDbEntity
  8
レイヤー_2
 62
     7
100
AcDbLine
 10
169.459768
 20
152.738481
 30
0.0
 11
169.459768
 21
151.513921
 31
0.0
  0
LINE
  5
72D
100
AcDbEntity
  8
レイヤー_2
 62
     7
100
AcDbLine
 10
167.652816
 20
130.415812
 30
0.0
 11
167.652816
 21
148.251588
 31
0.0
  0
LINE
  5
72C
100
AcDbEntity
  8
レイヤー_2
 62
     7
100
AcDbLine
 10
169.34298
 20
148.251588
 30
0.0
 11
169.34298
 21
130.415812
 31
0.0
  0
LINE
  5
72B
100
AcDbEntity
  8
レイヤー_2
 62
     7
100
AcDbLine
 10
165.262953
 20
151.222294
 30
0.0
 11
165.262953
 21
151.455699
 31
0.0
  0
LINE
  5
72A
100
AcDbEntity
  8
レイヤー_2
 62
     7
100
AcDbLine
 10
165.321175
 20
150.932045
 30
0.0
 11
165.262953
 21
151.222294
 31
0.0
  0
POLYLINE
  5
725
100
AcDbEntity
  8
レイヤー_2
 62
     7
100
AcDb2dPolyline
 66
     1
 10
0.0
 20
0.0
 30
0.0
  0
VERTEX
  5
726
100
AcDbEntity
  8
レイヤー_2
 62
     7
100
AcDbVertex
100
AcDb2dVertex
 10
167.244916
 20
151.455699
 30
0.0
  0
VERTEX
  5
727
100
AcDbEntity
  8
レイヤー_2
 62
     7
100
AcDbVertex
100
AcDb2dVertex
 10
167.30245
 20
151.222294
 30
0.0
  0
VERTEX
  5
728
100
AcDbEntity
  8
レイヤー_2
 62
     7
100
AcDbVertex
100
AcDb2dVertex
 10
167.244916
 20
150.932045
 30
0.0
  0
SEQEND
  5
729
100
AcDbEntity
  8
レイヤー_2
 62
     7
  0
LINE
  5
724
100
AcDbEntity
  8
レイヤー_2
 62
     7
100
AcDbLine
 10
165.262953
 20
148.251588
 30
0.0
 11
165.262953
 21
149.067042
 31
0.0
  0
LINE
  5
723
100
AcDbEntity
  8
レイヤー_2
 62
     7
100
AcDbLine
 10
167.30245
 20
149.067042
 30
0.0
 11
167.30245
 21
148.251588
 31
0.0
  0
LINE
  5
722
100
AcDbEntity
  8
レイヤー_2
 62
     7
100
AcDbLine
 10
165.262953
 20
149.067042
 30
0.0
 11
165.321175
 21
149.357981
 31
0.0
  0
LINE
  5
721
100
AcDbEntity
  8
レイヤー_2
 62
     7
100
AcDbLine
 10
167.244916
 20
149.357981
 30
0.0
 11
167.30245
 21
149.067042
 31
0.0
  0
POLYLINE
  5
71C
100
AcDbEntity
  8
レイヤー_2
 62
     7
100
AcDb2dPolyline
 66
     1
 10
0.0
 20
0.0
 30
0.0
  0
VERTEX
  5
71D
100
AcDbEntity
  8
レイヤー_2
 62
     7
100
AcDbVertex
100
AcDb2dVertex
 10
165.262953
 20
151.455699
 30
0.0
  0
VERTEX
  5
71E
100
AcDbEntity
  8
レイヤー_2
 62
     7
100
AcDbVertex
100
AcDb2dVertex
 10
165.321175
 20
151.513921
 30
0.0
  0
VERTEX
  5
71F
100
AcDbEntity
  8
レイヤー_2
 62
     7
100
AcDbVertex
100
AcDb2dVertex
 10
165.380431
 20
151.513921
 30
0.0
  0
SEQEND
  5
720
100
AcDbEntity
  8
レイヤー_2
 62
     7
  0
POLYLINE
  5
717
100
AcDbEntity
  8
レイヤー_2
 62
     7
100
AcDb2dPolyline
 66
     1
 10
0.0
 20
0.0
 30
0.0
  0
VERTEX
  5
718
100
AcDbEntity
  8
レイヤー_2
 62
     7
100
AcDbVertex
100
AcDb2dVertex
 10
167.186694
 20
151.513921
 30
0.0
  0
VERTEX
  5
719
100
AcDbEntity
  8
レイヤー_2
 62
     7
100
AcDbVertex
100
AcDb2dVertex
 10
167.244916
 20
151.513921
 30
0.0
  0
VERTEX
  5
71A
100
AcDbEntity
  8
レイヤー_2
 62
     7
100
AcDbVertex
100
AcDb2dVertex
 10
167.244916
 20
151.455699
 30
0.0
  0
SEQEND
  5
71B
100
AcDbEntity
  8
レイヤー_2
 62
     7
  0
LINE
  5
716
100
AcDbEntity
  8
レイヤー_2
 62
     7
100
AcDbLine
 10
165.321175
 20
151.513921
 30
0.0
 11
165.321175
 21
152.738481
 31
0.0
  0
LINE
  5
715
100
AcDbEntity
  8
レイヤー_2
 62
     7
100
AcDbLine
 10
167.244916
 20
152.738481
 30
0.0
 11
167.244916
 21
151.513921
 31
0.0
  0
LINE
  5
714
100
AcDbEntity
  8
レイヤー_2
 62
     7
100
AcDbLine
 10
165.437964
 20
130.765489
 30
0.0
 11
165.437964
 21
148.192677
 31
0.0
  0
LINE
  5
713
100
AcDbEntity
  8
レイヤー_2
 62
     7
100
AcDbLine
 10
167.128128
 20
148.251588
 30
0.0
 11
167.128128
 21
130.415812
 31
0.0
  0
LINE
  5
712
100
AcDbEntity
  8
レイヤー_2
 62
     7
100
AcDbLine
 10
167.536027
 20
150.932045
 30
0.0
 11
167.594249
 21
150.932045
 31
0.0
  0
LINE
  5
711
100
AcDbEntity
  8
レイヤー_2
 62
     7
100
AcDbLine
 10
167.594249
 20
150.932045
 30
0.0
 11
167.652816
 21
150.932045
 31
0.0
  0
LINE
  5
710
100
AcDbEntity
  8
レイヤー_2
 62
     7
100
AcDbLine
 10
167.652816
 20
150.932045
 30
0.0
 11
168.061404
 21
150.932045
 31
0.0
  0
LINE
  5
70F
100
AcDbEntity
  8
レイヤー_2
 62
     7
100
AcDbLine
 10
168.061404
 20
150.932045
 30
0.0
 11
168.235726
 21
150.932045
 31
0.0
  0
LINE
  5
70E
100
AcDbEntity
  8
レイヤー_2
 62
     7
100
AcDbLine
 10
168.235726
 20
150.932045
 30
0.0
 11
168.818636
 21
150.932045
 31
0.0
  0
LINE
  5
70D
100
AcDbEntity
  8
レイヤー_2
 62
     7
100
AcDbLine
 10
168.818636
 20
150.932045
 30
0.0
 11
168.93508
 21
150.932045
 31
0.0
  0
LINE
  5
70C
100
AcDbEntity
  8
レイヤー_2
 62
     7
100
AcDbLine
 10
168.93508
 20
150.932045
 30
0.0
 11
169.34298
 21
150.932045
 31
0.0
  0
LINE
  5
70B
100
AcDbEntity
  8
レイヤー_2
 62
     7
100
AcDbLine
 10
169.34298
 20
150.932045
 30
0.0
 11
169.401546
 21
150.932045
 31
0.0
  0
LINE
  5
70A
100
AcDbEntity
  8
レイヤー_2
 62
     7
100
AcDbLine
 10
169.401546
 20
150.932045
 30
0.0
 11
169.459768
 21
150.932045
 31
0.0
  0
LINE
  5
709
100
AcDbEntity
  8
レイヤー_2
 62
     7
100
AcDbLine
 10
167.478494
 20
148.251588
 30
0.0
 11
169.51799
 21
148.251588
 31
0.0
  0
LINE
  5
708
100
AcDbEntity
  8
レイヤー_2
 62
     7
100
AcDbLine
 10
169.401546
 20
149.357981
 30
0.0
 11
169.459768
 21
149.357981
 31
0.0
  0
LINE
  5
707
100
AcDbEntity
  8
レイヤー_2
 62
     7
100
AcDbLine
 10
169.34298
 20
149.357981
 30
0.0
 11
169.401546
 21
149.357981
 31
0.0
  0
LINE
  5
706
100
AcDbEntity
  8
レイヤー_2
 62
     7
100
AcDbLine
 10
168.93508
 20
149.357981
 30
0.0
 11
169.34298
 21
149.357981
 31
0.0
  0
LINE
  5
705
100
AcDbEntity
  8
レイヤー_2
 62
     7
100
AcDbLine
 10
168.818636
 20
149.357981
 30
0.0
 11
168.93508
 21
149.357981
 31
0.0
  0
LINE
  5
704
100
AcDbEntity
  8
レイヤー_2
 62
     7
100
AcDbLine
 10
168.235726
 20
149.357981
 30
0.0
 11
168.818636
 21
149.357981
 31
0.0
  0
LINE
  5
703
100
AcDbEntity
  8
レイヤー_2
 62
     7
100
AcDbLine
 10
168.061404
 20
149.357981
 30
0.0
 11
168.235726
 21
149.357981
 31
0.0
  0
LINE
  5
702
100
AcDbEntity
  8
レイヤー_2
 62
     7
100
AcDbLine
 10
167.652816
 20
149.357981
 30
0.0
 11
168.061404
 21
149.357981
 31
0.0
  0
LINE
  5
701
100
AcDbEntity
  8
レイヤー_2
 62
     7
100
AcDbLine
 10
167.594249
 20
149.357981
 30
0.0
 11
167.652816
 21
149.357981
 31
0.0
  0
LINE
  5
700
100
AcDbEntity
  8
レイヤー_2
 62
     7
100
AcDbLine
 10
167.536027
 20
149.357981
 30
0.0
 11
167.594249
 21
149.357981
 31
0.0
  0
LINE
  5
6FF
100
AcDbEntity
  8
レイヤー_2
 62
     7
100
AcDbLine
 10
167.594249
 20
151.688243
 30
0.0
 11
167.944615
 21
151.688243
 31
0.0
  0
LINE
  5
6FE
100
AcDbEntity
  8
レイヤー_2
 62
     7
100
AcDbLine
 10
168.002148
 20
152.738481
 30
0.0
 11
168.002148
 21
151.688243
 31
0.0
  0
LINE
  5
6FD
100
AcDbEntity
  8
レイヤー_2
 62
     7
100
AcDbLine
 10
168.993647
 20
152.738481
 30
0.0
 11
168.993647
 21
151.688243
 31
0.0
  0
LINE
  5
6FC
100
AcDbEntity
  8
レイヤー_2
 62
     7
100
AcDbLine
 10
169.051869
 20
151.688243
 30
0.0
 11
169.459768
 21
151.688243
 31
0.0
  0
LINE
  5
6FB
100
AcDbEntity
  8
レイヤー_2
 62
     7
100
AcDbLine
 10
168.119626
 20
151.688243
 30
0.0
 11
168.93508
 21
151.688243
 31
0.0
  0
LINE
  5
6FA
100
AcDbEntity
  8
レイヤー_2
 62
     7
100
AcDbLine
 10
167.536027
 20
151.513921
 30
0.0
 11
169.459768
 21
151.513921
 31
0.0
  0
LINE
  5
6F9
100
AcDbEntity
  8
レイヤー_2
 62
     7
100
AcDbLine
 10
168.876858
 20
150.932045
 30
0.0
 11
168.876858
 21
149.357981
 31
0.0
  0
LINE
  5
6F8
100
AcDbEntity
  8
レイヤー_2
 62
     7
100
AcDbLine
 10
168.177848
 20
150.932045
 30
0.0
 11
168.177848
 21
149.357981
 31
0.0
  0
LINE
  5
6F7
100
AcDbEntity
  8
レイヤー_2
 62
     7
100
AcDbLine
 10
167.594249
 20
150.932045
 30
0.0
 11
167.594249
 21
149.357981
 31
0.0
  0
LINE
  5
6F6
100
AcDbEntity
  8
レイヤー_2
 62
     7
100
AcDbLine
 10
169.401546
 20
149.357981
 30
0.0
 11
169.401546
 21
150.932045
 31
0.0
  0
LINE
  5
6F5
100
AcDbEntity
  8
レイヤー_2
 62
     7
100
AcDbLine
 10
165.321175
 20
150.932045
 30
0.0
 11
165.380431
 21
150.932045
 31
0.0
  0
LINE
  5
6F4
100
AcDbEntity
  8
レイヤー_2
 62
     7
100
AcDbLine
 10
165.380431
 20
150.932045
 30
0.0
 11
165.437964
 21
150.932045
 31
0.0
  0
LINE
  5
6F3
100
AcDbEntity
  8
レイヤー_2
 62
     7
100
AcDbLine
 10
165.437964
 20
150.932045
 30
0.0
 11
165.845863
 21
150.932045
 31
0.0
  0
LINE
  5
6F2
100
AcDbEntity
  8
レイヤー_2
 62
     7
100
AcDbLine
 10
165.845863
 20
150.932045
 30
0.0
 11
166.020874
 21
150.932045
 31
0.0
  0
LINE
  5
6F1
100
AcDbEntity
  8
レイヤー_2
 62
     7
100
AcDbLine
 10
166.020874
 20
150.932045
 30
0.0
 11
166.545218
 21
150.932045
 31
0.0
  0
LINE
  5
6F0
100
AcDbEntity
  8
レイヤー_2
 62
     7
100
AcDbLine
 10
166.545218
 20
150.932045
 30
0.0
 11
166.720573
 21
150.932045
 31
0.0
  0
LINE
  5
6EF
100
AcDbEntity
  8
レイヤー_2
 62
     7
100
AcDbLine
 10
166.720573
 20
150.932045
 30
0.0
 11
167.128128
 21
150.932045
 31
0.0
  0
LINE
  5
6EE
100
AcDbEntity
  8
レイヤー_2
 62
     7
100
AcDbLine
 10
167.128128
 20
150.932045
 30
0.0
 11
167.186694
 21
150.932045
 31
0.0
  0
LINE
  5
6ED
100
AcDbEntity
  8
レイヤー_2
 62
     7
100
AcDbLine
 10
167.186694
 20
150.932045
 30
0.0
 11
167.244916
 21
150.932045
 31
0.0
  0
LINE
  5
6EC
100
AcDbEntity
  8
レイヤー_2
 62
     7
100
AcDbLine
 10
165.262953
 20
148.251588
 30
0.0
 11
167.30245
 21
148.251588
 31
0.0
  0
LINE
  5
6EB
100
AcDbEntity
  8
レイヤー_2
 62
     7
100
AcDbLine
 10
167.186694
 20
149.357981
 30
0.0
 11
167.244916
 21
149.357981
 31
0.0
  0
LINE
  5
6EA
100
AcDbEntity
  8
レイヤー_2
 62
     7
100
AcDbLine
 10
167.128128
 20
149.357981
 30
0.0
 11
167.186694
 21
149.357981
 31
0.0
  0
LINE
  5
6E9
100
AcDbEntity
  8
レイヤー_2
 62
     7
100
AcDbLine
 10
166.720573
 20
149.357981
 30
0.0
 11
167.128128
 21
149.357981
 31
0.0
  0
LINE
  5
6E8
100
AcDbEntity
  8
レイヤー_2
 62
     7
100
AcDbLine
 10
166.545218
 20
149.357981
 30
0.0
 11
166.720573
 21
149.357981
 31
0.0
  0
LINE
  5
6E7
100
AcDbEntity
  8
レイヤー_2
 62
     7
100
AcDbLine
 10
166.020874
 20
149.357981
 30
0.0
 11
166.545218
 21
149.357981
 31
0.0
  0
LINE
  5
6E6
100
AcDbEntity
  8
レイヤー_2
 62
     7
100
AcDbLine
 10
165.845863
 20
149.357981
 30
0.0
 11
166.020874
 21
149.357981
 31
0.0
  0
LINE
  5
6E5
100
AcDbEntity
  8
レイヤー_2
 62
     7
100
AcDbLine
 10
165.437964
 20
149.357981
 30
0.0
 11
165.845863
 21
149.357981
 31
0.0
  0
LINE
  5
6E4
100
AcDbEntity
  8
レイヤー_2
 62
     7
100
AcDbLine
 10
165.380431
 20
149.357981
 30
0.0
 11
165.437964
 21
149.357981
 31
0.0
  0
LINE
  5
6E3
100
AcDbEntity
  8
レイヤー_2
 62
     7
100
AcDbLine
 10
165.321175
 20
149.357981
 30
0.0
 11
165.380431
 21
149.357981
 31
0.0
  0
LINE
  5
6E2
100
AcDbEntity
  8
レイヤー_2
 62
     7
100
AcDbLine
 10
165.321175
 20
151.688243
 30
0.0
 11
165.729074
 21
151.688243
 31
0.0
  0
LINE
  5
6E1
100
AcDbEntity
  8
レイヤー_2
 62
     7
100
AcDbLine
 10
165.787297
 20
151.688243
 30
0.0
 11
165.787297
 21
152.738481
 31
0.0
  0
LINE
  5
6E0
100
AcDbEntity
  8
レイヤー_2
 62
     7
100
AcDbLine
 10
166.836328
 20
151.688243
 30
0.0
 11
167.244916
 21
151.688243
 31
0.0
  0
LINE
  5
6DF
100
AcDbEntity
  8
レイヤー_2
 62
     7
100
AcDbLine
 10
166.720573
 20
151.688243
 30
0.0
 11
166.720573
 21
152.738481
 31
0.0
  0
LINE
  5
6DE
100
AcDbEntity
  8
レイヤー_2
 62
     7
100
AcDbLine
 10
165.904774
 20
151.688243
 30
0.0
 11
166.662006
 21
151.688243
 31
0.0
  0
LINE
  5
6DD
100
AcDbEntity
  8
レイヤー_2
 62
     7
100
AcDbLine
 10
165.321175
 20
151.513921
 30
0.0
 11
167.244916
 21
151.513921
 31
0.0
  0
LINE
  5
6DC
100
AcDbEntity
  8
レイヤー_2
 62
     7
100
AcDbLine
 10
166.662006
 20
150.932045
 30
0.0
 11
166.662006
 21
149.357981
 31
0.0
  0
LINE
  5
6DB
100
AcDbEntity
  8
レイヤー_2
 62
     7
100
AcDbLine
 10
165.904774
 20
150.932045
 30
0.0
 11
165.904774
 21
149.357981
 31
0.0
  0
LINE
  5
6DA
100
AcDbEntity
  8
レイヤー_2
 62
     7
100
AcDbLine
 10
165.380431
 20
150.932045
 30
0.0
 11
165.380431
 21
149.357981
 31
0.0
  0
LINE
  5
6D9
100
AcDbEntity
  8
レイヤー_2
 62
     7
100
AcDbLine
 10
167.186694
 20
149.357981
 30
0.0
 11
167.186694
 21
150.932045
 31
0.0
  0
LINE
  5
6D8
100
AcDbEntity
  8
レイヤー_2
 62
     7
100
AcDbLine
 10
167.186694
 20
150.815601
 30
0.0
 11
167.594249
 21
150.815601
 31
0.0
  0
LINE
  5
6D7
100
AcDbEntity
  8
レイヤー_2
 62
     7
100
AcDbLine
 10
167.244916
 20
149.300103
 30
0.0
 11
167.536027
 21
149.300103
 31
0.0
  0
LINE
  5
6D6
100
AcDbEntity
  8
レイヤー_2
 62
     7
100
AcDbLine
 10
167.30245
 20
148.251588
 30
0.0
 11
167.478494
 21
148.251588
 31
0.0
  0
LINE
  5
6D5
100
AcDbEntity
  8
レイヤー_2
 62
     7
100
AcDbLine
 10
167.536027
 20
151.688243
 30
0.0
 11
167.244916
 21
151.688243
 31
0.0
  0
LINE
  5
6D4
100
AcDbEntity
  8
レイヤー_2
 62
     7
100
AcDbLine
 10
167.244916
 20
151.513921
 30
0.0
 11
167.536027
 21
151.513921
 31
0.0
  0
LINE
  5
6D3
100
AcDbEntity
  8
レイヤー_2
 62
     7
100
AcDbLine
 10
167.478494
 20
149.067042
 30
0.0
 11
169.51799
 21
149.067042
 31
0.0
  0
LINE
  5
6D2
100
AcDbEntity
  8
レイヤー_2
 62
     7
100
AcDbLine
 10
165.262953
 20
149.067042
 30
0.0
 11
167.30245
 21
149.067042
 31
0.0
  0
LINE
  5
6D1
100
AcDbEntity
  8
レイヤー_2
 62
     7
100
AcDbLine
 10
167.30245
 20
149.009165
 30
0.0
 11
167.478494
 21
149.009165
 31
0.0
  0
POLYLINE
  5
6C5
100
AcDbEntity
  8
レイヤー_2
 62
     7
100
AcDb2dPolyline
 66
     1
 10
0.0
 20
0.0
 30
0.0
  0
VERTEX
  5
6C6
100
AcDbEntity
  8
レイヤー_2
 62
     7
100
AcDbVertex
100
AcDb2dVertex
 10
144.140728
 20
129.48288
 30
0.0
  0
VERTEX
  5
6C7
100
AcDbEntity
  8
レイヤー_2
 62
     7
100
AcDbVertex
100
AcDb2dVertex
 10
144.373961
 20
129.48288
 30
0.0
  0
VERTEX
  5
6C8
100
AcDbEntity
  8
レイヤー_2
 62
     7
100
AcDbVertex
100
AcDb2dVertex
 10
144.432528
 20
129.541791
 30
0.0
  0
VERTEX
  5
6C9
100
AcDbEntity
  8
レイヤー_2
 62
     7
100
AcDbVertex
100
AcDb2dVertex
 10
144.665761
 20
129.541791
 30
0.0
  0
VERTEX
  5
6CA
100
AcDbEntity
  8
レイヤー_2
 62
     7
100
AcDbVertex
100
AcDb2dVertex
 10
144.840427
 20
129.599669
 30
0.0
  0
VERTEX
  5
6CB
100
AcDbEntity
  8
レイヤー_2
 62
     7
100
AcDbVertex
100
AcDb2dVertex
 10
145.132227
 20
129.599669
 30
0.0
  0
VERTEX
  5
6CC
100
AcDbEntity
  8
レイヤー_2
 62
     7
100
AcDbVertex
100
AcDb2dVertex
 10
145.247982
 20
129.65858
 30
0.0
  0
VERTEX
  5
6CD
100
AcDbEntity
  8
レイヤー_2
 62
     7
100
AcDbVertex
100
AcDb2dVertex
 10
145.598348
 20
129.65858
 30
0.0
  0
VERTEX
  5
6CE
100
AcDbEntity
  8
レイヤー_2
 62
     7
100
AcDbVertex
100
AcDb2dVertex
 10
145.715137
 20
129.716113
 30
0.0
  0
VERTEX
  5
6CF
100
AcDbEntity
  8
レイヤー_2
 62
     7
100
AcDbVertex
100
AcDb2dVertex
 10
146.413802
 20
129.716113
 30
0.0
  0
SEQEND
  5
6D0
100
AcDbEntity
  8
レイヤー_2
 62
     7
  0
POLYLINE
  5
6B6
100
AcDbEntity
  8
レイヤー_2
 62
     7
100
AcDb2dPolyline
 66
     1
 10
0.0
 20
0.0
 30
0.0
  0
VERTEX
  5
6B7
100
AcDbEntity
  8
レイヤー_2
 62
     7
100
AcDbVertex
100
AcDb2dVertex
 10
169.34298
 20
130.35759
 30
0.0
  0
VERTEX
  5
6B8
100
AcDbEntity
  8
レイヤー_2
 62
     7
100
AcDbVertex
100
AcDb2dVertex
 10
169.34298
 20
130.298334
 30
0.0
  0
VERTEX
  5
6B9
100
AcDbEntity
  8
レイヤー_2
 62
     7
100
AcDbVertex
100
AcDb2dVertex
 10
169.284757
 20
130.298334
 30
0.0
  0
VERTEX
  5
6BA
100
AcDbEntity
  8
レイヤー_2
 62
     7
100
AcDbVertex
100
AcDb2dVertex
 10
169.284757
 20
130.240801
 30
0.0
  0
VERTEX
  5
6BB
100
AcDbEntity
  8
レイヤー_2
 62
     7
100
AcDbVertex
100
AcDb2dVertex
 10
169.22688
 20
130.240801
 30
0.0
  0
VERTEX
  5
6BC
100
AcDbEntity
  8
レイヤー_2
 62
     7
100
AcDbVertex
100
AcDb2dVertex
 10
169.167969
 20
130.182579
 30
0.0
  0
VERTEX
  5
6BD
100
AcDbEntity
  8
レイヤー_2
 62
     7
100
AcDbVertex
100
AcDb2dVertex
 10
169.109747
 20
130.182579
 30
0.0
  0
VERTEX
  5
6BE
100
AcDbEntity
  8
レイヤー_2
 62
     7
100
AcDbVertex
100
AcDb2dVertex
 10
169.051869
 20
130.124013
 30
0.0
  0
VERTEX
  5
6BF
100
AcDbEntity
  8
レイヤー_2
 62
     7
100
AcDbVertex
100
AcDb2dVertex
 10
168.410737
 20
130.124013
 30
0.0
  0
VERTEX
  5
6C0
100
AcDbEntity
  8
レイヤー_2
 62
     7
100
AcDbVertex
100
AcDb2dVertex
 10
168.235726
 20
130.182579
 30
0.0
  0
VERTEX
  5
6C1
100
AcDbEntity
  8
レイヤー_2
 62
     7
100
AcDbVertex
100
AcDb2dVertex
 10
168.061404
 20
130.182579
 30
0.0
  0
VERTEX
  5
6C2
100
AcDbEntity
  8
レイヤー_2
 62
     7
100
AcDbVertex
100
AcDb2dVertex
 10
167.886049
 20
130.240801
 30
0.0
  0
VERTEX
  5
6C3
100
AcDbEntity
  8
レイヤー_2
 62
     7
100
AcDbVertex
100
AcDb2dVertex
 10
167.652816
 20
130.35759
 30
0.0
  0
SEQEND
  5
6C4
100
AcDbEntity
  8
レイヤー_2
 62
     7
  0
POLYLINE
  5
6A4
100
AcDbEntity
  8
レイヤー_2
 62
     7
100
AcDb2dPolyline
 66
     1
 10
0.0
 20
0.0
 30
0.0
  0
VERTEX
  5
6A5
100
AcDbEntity
  8
レイヤー_2
 62
     7
100
AcDbVertex
100
AcDb2dVertex
 10
167.128128
 20
130.35759
 30
0.0
  0
VERTEX
  5
6A6
100
AcDbEntity
  8
レイヤー_2
 62
     7
100
AcDbVertex
100
AcDb2dVertex
 10
167.069906
 20
130.35759
 30
0.0
  0
VERTEX
  5
6A7
100
AcDbEntity
  8
レイヤー_2
 62
     7
100
AcDbVertex
100
AcDb2dVertex
 10
167.012373
 20
130.415812
 30
0.0
  0
VERTEX
  5
6A8
100
AcDbEntity
  8
レイヤー_2
 62
     7
100
AcDbVertex
100
AcDb2dVertex
 10
166.895584
 20
130.415812
 30
0.0
  0
VERTEX
  5
6A9
100
AcDbEntity
  8
レイヤー_2
 62
     7
100
AcDbVertex
100
AcDb2dVertex
 10
166.836328
 20
130.474379
 30
0.0
  0
VERTEX
  5
6AA
100
AcDbEntity
  8
レイヤー_2
 62
     7
100
AcDbVertex
100
AcDb2dVertex
 10
166.720573
 20
130.474379
 30
0.0
  0
VERTEX
  5
6AB
100
AcDbEntity
  8
レイヤー_2
 62
     7
100
AcDbVertex
100
AcDb2dVertex
 10
166.662006
 20
130.531912
 30
0.0
  0
VERTEX
  5
6AC
100
AcDbEntity
  8
レイヤー_2
 62
     7
100
AcDbVertex
100
AcDb2dVertex
 10
166.545218
 20
130.590823
 30
0.0
  0
VERTEX
  5
6AD
100
AcDbEntity
  8
レイヤー_2
 62
     7
100
AcDbVertex
100
AcDb2dVertex
 10
166.428773
 20
130.590823
 30
0.0
  0
VERTEX
  5
6AE
100
AcDbEntity
  8
レイヤー_2
 62
     7
100
AcDbVertex
100
AcDb2dVertex
 10
166.312674
 20
130.64939
 30
0.0
  0
VERTEX
  5
6AF
100
AcDbEntity
  8
レイヤー_2
 62
     7
100
AcDbVertex
100
AcDb2dVertex
 10
166.195885
 20
130.64939
 30
0.0
  0
VERTEX
  5
6B0
100
AcDbEntity
  8
レイヤー_2
 62
     7
100
AcDbVertex
100
AcDb2dVertex
 10
166.079785
 20
130.707612
 30
0.0
  0
VERTEX
  5
6B1
100
AcDbEntity
  8
レイヤー_2
 62
     7
100
AcDbVertex
100
AcDb2dVertex
 10
165.962307
 20
130.707612
 30
0.0
  0
VERTEX
  5
6B2
100
AcDbEntity
  8
レイヤー_2
 62
     7
100
AcDbVertex
100
AcDb2dVertex
 10
165.845863
 20
130.765489
 30
0.0
  0
VERTEX
  5
6B3
100
AcDbEntity
  8
レイヤー_2
 62
     7
100
AcDbVertex
100
AcDb2dVertex
 10
165.496186
 20
130.765489
 30
0.0
  0
VERTEX
  5
6B4
100
AcDbEntity
  8
レイヤー_2
 62
     7
100
AcDbVertex
100
AcDb2dVertex
 10
165.437964
 20
130.707612
 30
0.0
  0
SEQEND
  5
6B5
100
AcDbEntity
  8
レイヤー_2
 62
     7
  0
LINE
  5
6A3
100
AcDbEntity
  8
レイヤー_2
 62
     7
100
AcDbLine
 10
84.285811
 20
163.703014
 30
0.0
 11
84.285811
 21
156.882586
 31
0.0
  0
LINE
  5
6A2
100
AcDbEntity
  8
レイヤー_2
 62
     7
100
AcDbLine
 10
84.285811
 20
155.018273
 30
0.0
 11
84.285811
 21
153.619564
 31
0.0
  0
LINE
  5
6A1
100
AcDbEntity
  8
レイヤー_2
 62
     7
100
AcDbLine
 10
79.156581
 20
153.619564
 30
0.0
 11
79.156581
 21
155.018273
 31
0.0
  0
LINE
  5
6A0
100
AcDbEntity
  8
レイヤー_2
 62
     7
100
AcDbLine
 10
79.156581
 20
156.882586
 30
0.0
 11
79.156581
 21
163.760547
 31
0.0
  0
LINE
  5
69F
100
AcDbEntity
  8
レイヤー_2
 62
     7
100
AcDbLine
 10
84.285811
 20
153.619564
 30
0.0
 11
84.110801
 21
153.445414
 31
0.0
  0
LINE
  5
69E
100
AcDbEntity
  8
レイヤー_2
 62
     7
100
AcDbLine
 10
79.331764
 20
153.445414
 30
0.0
 11
79.156581
 21
153.619564
 31
0.0
  0
LINE
  5
69D
100
AcDbEntity
  8
レイヤー_2
 62
     7
100
AcDbLine
 10
80.029913
 20
149.775009
 30
0.0
 11
80.088996
 21
150.066637
 31
0.0
  0
LINE
  5
69C
100
AcDbEntity
  8
レイヤー_2
 62
     7
100
AcDbLine
 10
82.011876
 20
150.066637
 30
0.0
 11
82.07027
 21
149.775009
 31
0.0
  0
LINE
  5
69B
100
AcDbEntity
  8
レイヤー_2
 62
     7
100
AcDbLine
 10
80.029913
 20
148.958866
 30
0.0
 11
80.029913
 21
149.775009
 31
0.0
  0
LINE
  5
69A
100
AcDbEntity
  8
レイヤー_2
 62
     7
100
AcDbLine
 10
82.07027
 20
149.775009
 30
0.0
 11
82.07027
 21
148.958866
 31
0.0
  0
LINE
  5
699
100
AcDbEntity
  8
レイヤー_2
 62
     7
100
AcDbLine
 10
80.029913
 20
151.930261
 30
0.0
 11
80.088996
 21
152.163666
 31
0.0
  0
LINE
  5
698
100
AcDbEntity
  8
レイヤー_2
 62
     7
100
AcDbLine
 10
80.088996
 20
151.639323
 30
0.0
 11
80.029913
 21
151.930261
 31
0.0
  0
POLYLINE
  5
693
100
AcDbEntity
  8
レイヤー_2
 62
     7
100
AcDb2dPolyline
 66
     1
 10
0.0
 20
0.0
 30
0.0
  0
VERTEX
  5
694
100
AcDbEntity
  8
レイヤー_2
 62
     7
100
AcDbVertex
100
AcDb2dVertex
 10
82.011876
 20
152.163666
 30
0.0
  0
VERTEX
  5
695
100
AcDbEntity
  8
レイヤー_2
 62
     7
100
AcDbVertex
100
AcDb2dVertex
 10
82.07027
 20
151.930261
 30
0.0
  0
VERTEX
  5
696
100
AcDbEntity
  8
レイヤー_2
 62
     7
100
AcDbVertex
100
AcDb2dVertex
 10
82.011876
 20
151.639323
 30
0.0
  0
SEQEND
  5
697
100
AcDbEntity
  8
レイヤー_2
 62
     7
  0
POLYLINE
  5
68E
100
AcDbEntity
  8
レイヤー_2
 62
     7
100
AcDb2dPolyline
 66
     1
 10
0.0
 20
0.0
 30
0.0
  0
VERTEX
  5
68F
100
AcDbEntity
  8
レイヤー_2
 62
     7
100
AcDbVertex
100
AcDb2dVertex
 10
80.088996
 20
152.163666
 30
0.0
  0
VERTEX
  5
690
100
AcDbEntity
  8
レイヤー_2
 62
     7
100
AcDbVertex
100
AcDb2dVertex
 10
80.088996
 20
152.2212
 30
0.0
  0
VERTEX
  5
691
100
AcDbEntity
  8
レイヤー_2
 62
     7
100
AcDbVertex
100
AcDb2dVertex
 10
80.14739
 20
152.2212
 30
0.0
  0
SEQEND
  5
692
100
AcDbEntity
  8
レイヤー_2
 62
     7
  0
POLYLINE
  5
689
100
AcDbEntity
  8
レイヤー_2
 62
     7
100
AcDb2dPolyline
 66
     1
 10
0.0
 20
0.0
 30
0.0
  0
VERTEX
  5
68A
100
AcDbEntity
  8
レイヤー_2
 62
     7
100
AcDbVertex
100
AcDb2dVertex
 10
81.953654
 20
152.2212
 30
0.0
  0
VERTEX
  5
68B
100
AcDbEntity
  8
レイヤー_2
 62
     7
100
AcDbVertex
100
AcDb2dVertex
 10
82.011876
 20
152.2212
 30
0.0
  0
VERTEX
  5
68C
100
AcDbEntity
  8
レイヤー_2
 62
     7
100
AcDbVertex
100
AcDb2dVertex
 10
82.011876
 20
152.163666
 30
0.0
  0
SEQEND
  5
68D
100
AcDbEntity
  8
レイヤー_2
 62
     7
  0
LINE
  5
688
100
AcDbEntity
  8
レイヤー_2
 62
     7
100
AcDbLine
 10
80.088996
 20
152.2212
 30
0.0
 11
80.088996
 21
152.396899
 31
0.0
  0
LINE
  5
687
100
AcDbEntity
  8
レイヤー_2
 62
     7
100
AcDbLine
 10
82.011876
 20
152.396899
 30
0.0
 11
82.011876
 21
152.2212
 31
0.0
  0
LINE
  5
686
100
AcDbEntity
  8
レイヤー_2
 62
     7
100
AcDbLine
 10
80.204924
 20
130.307981
 30
0.0
 11
80.204924
 21
148.958866
 31
0.0
  0
LINE
  5
685
100
AcDbEntity
  8
レイヤー_2
 62
     7
100
AcDbLine
 10
81.895949
 20
148.958866
 30
0.0
 11
81.895949
 21
130.890546
 31
0.0
  0
POLYLINE
  5
680
100
AcDbEntity
  8
レイヤー_2
 62
     7
100
AcDb2dPolyline
 66
     1
 10
0.0
 20
0.0
 30
0.0
  0
VERTEX
  5
681
100
AcDbEntity
  8
レイヤー_2
 62
     7
100
AcDbVertex
100
AcDb2dVertex
 10
82.07027
 20
151.522534
 30
0.0
  0
VERTEX
  5
682
100
AcDbEntity
  8
レイヤー_2
 62
     7
100
AcDbVertex
100
AcDb2dVertex
 10
82.07027
 20
151.581101
 30
0.0
  0
VERTEX
  5
683
100
AcDbEntity
  8
レイヤー_2
 62
     7
100
AcDbVertex
100
AcDb2dVertex
 10
82.011876
 20
151.696684
 30
0.0
  0
SEQEND
  5
684
100
AcDbEntity
  8
レイヤー_2
 62
     7
  0
POLYLINE
  5
67B
100
AcDbEntity
  8
レイヤー_2
 62
     7
100
AcDb2dPolyline
 66
     1
 10
0.0
 20
0.0
 30
0.0
  0
VERTEX
  5
67C
100
AcDbEntity
  8
レイヤー_2
 62
     7
100
AcDbVertex
100
AcDb2dVertex
 10
82.07027
 20
152.104411
 30
0.0
  0
VERTEX
  5
67D
100
AcDbEntity
  8
レイヤー_2
 62
     7
100
AcDbVertex
100
AcDb2dVertex
 10
82.07027
 20
152.163666
 30
0.0
  0
VERTEX
  5
67E
100
AcDbEntity
  8
レイヤー_2
 62
     7
100
AcDbVertex
100
AcDb2dVertex
 10
82.129354
 20
152.2212
 30
0.0
  0
SEQEND
  5
67F
100
AcDbEntity
  8
レイヤー_2
 62
     7
  0
POLYLINE
  5
674
100
AcDbEntity
  8
レイヤー_2
 62
     7
100
AcDb2dPolyline
 66
     1
 10
0.0
 20
0.0
 30
0.0
  0
VERTEX
  5
675
100
AcDbEntity
  8
レイヤー_2
 62
     7
100
AcDbVertex
100
AcDb2dVertex
 10
83.936479
 20
152.2212
 30
0.0
  0
VERTEX
  5
676
100
AcDbEntity
  8
レイヤー_2
 62
     7
100
AcDbVertex
100
AcDb2dVertex
 10
83.994012
 20
152.163666
 30
0.0
  0
VERTEX
  5
677
100
AcDbEntity
  8
レイヤー_2
 62
     7
100
AcDbVertex
100
AcDb2dVertex
 10
84.052406
 20
151.872728
 30
0.0
  0
VERTEX
  5
678
100
AcDbEntity
  8
レイヤー_2
 62
     7
100
AcDbVertex
100
AcDb2dVertex
 10
83.994012
 20
151.581101
 30
0.0
  0
VERTEX
  5
679
100
AcDbEntity
  8
レイヤー_2
 62
     7
100
AcDbVertex
100
AcDb2dVertex
 10
83.994012
 20
151.522534
 30
0.0
  0
SEQEND
  5
67A
100
AcDbEntity
  8
レイヤー_2
 62
     7
  0
LINE
  5
673
100
AcDbEntity
  8
レイヤー_2
 62
     7
100
AcDbLine
 10
82.07027
 20
149.949159
 30
0.0
 11
82.07027
 21
150.00807
 31
0.0
  0
LINE
  5
672
100
AcDbEntity
  8
レイヤー_2
 62
     7
100
AcDbLine
 10
83.994012
 20
150.00807
 30
0.0
 11
84.052406
 21
149.657532
 31
0.0
  0
LINE
  5
671
100
AcDbEntity
  8
レイヤー_2
 62
     7
100
AcDbLine
 10
84.052406
 20
149.657532
 30
0.0
 11
84.052406
 21
148.958866
 31
0.0
  0
LINE
  5
670
100
AcDbEntity
  8
レイヤー_2
 62
     7
100
AcDbLine
 10
82.07027
 20
152.2212
 30
0.0
 11
82.07027
 21
152.396899
 31
0.0
  0
LINE
  5
66F
100
AcDbEntity
  8
レイヤー_2
 62
     7
100
AcDbLine
 10
83.994012
 20
152.396899
 30
0.0
 11
83.994012
 21
152.2212
 31
0.0
  0
LINE
  5
66E
100
AcDbEntity
  8
レイヤー_2
 62
     7
100
AcDbLine
 10
82.129354
 20
152.2212
 30
0.0
 11
82.187059
 21
152.2212
 31
0.0
  0
LINE
  5
66D
100
AcDbEntity
  8
レイヤー_2
 62
     7
100
AcDbLine
 10
83.877395
 20
152.2212
 30
0.0
 11
83.936479
 21
152.2212
 31
0.0
  0
LINE
  5
66C
100
AcDbEntity
  8
レイヤー_2
 62
     7
100
AcDbLine
 10
82.187059
 20
130.949113
 30
0.0
 11
82.187059
 21
148.958866
 31
0.0
  0
LINE
  5
66B
100
AcDbEntity
  8
レイヤー_2
 62
     7
100
AcDbLine
 10
83.877395
 20
148.958866
 30
0.0
 11
83.877395
 21
131.065213
 31
0.0
  0
LINE
  5
66A
100
AcDbEntity
  8
レイヤー_2
 62
     7
100
AcDbLine
 10
85.625954
 20
156.358759
 30
0.0
 11
85.625954
 21
156.06696
 31
0.0
  0
LINE
  5
669
100
AcDbEntity
  8
レイヤー_2
 62
     7
100
AcDbLine
 10
77.874144
 20
156.06696
 30
0.0
 11
77.874144
 21
156.358759
 31
0.0
  0
LINE
  5
668
100
AcDbEntity
  8
レイヤー_2
 62
     7
100
AcDbLine
 10
85.85867
 20
156.882586
 30
0.0
 11
85.85867
 21
156.358759
 31
0.0
  0
LINE
  5
667
100
AcDbEntity
  8
レイヤー_2
 62
     7
100
AcDbLine
 10
77.583034
 20
156.358759
 30
0.0
 11
77.583034
 21
156.882586
 31
0.0
  0
LINE
  5
666
100
AcDbEntity
  8
レイヤー_2
 62
     7
100
AcDbLine
 10
84.285811
 20
153.619564
 30
0.0
 11
79.156581
 21
153.619564
 31
0.0
  0
LINE
  5
665
100
AcDbEntity
  8
レイヤー_2
 62
     7
100
AcDbLine
 10
79.331764
 20
153.445414
 30
0.0
 11
84.110801
 21
153.445414
 31
0.0
  0
LINE
  5
664
100
AcDbEntity
  8
レイヤー_2
 62
     7
100
AcDbLine
 10
81.953654
 20
150.066637
 30
0.0
 11
82.011876
 21
150.066637
 31
0.0
  0
LINE
  5
663
100
AcDbEntity
  8
レイヤー_2
 62
     7
100
AcDbLine
 10
81.895949
 20
150.066637
 30
0.0
 11
81.953654
 21
150.066637
 31
0.0
  0
LINE
  5
662
100
AcDbEntity
  8
レイヤー_2
 62
     7
100
AcDbLine
 10
81.488222
 20
150.066637
 30
0.0
 11
81.895949
 21
150.066637
 31
0.0
  0
LINE
  5
661
100
AcDbEntity
  8
レイヤー_2
 62
     7
100
AcDbLine
 10
81.312349
 20
150.066637
 30
0.0
 11
81.488222
 21
150.066637
 31
0.0
  0
LINE
  5
660
100
AcDbEntity
  8
レイヤー_2
 62
     7
100
AcDbLine
 10
80.787834
 20
150.066637
 30
0.0
 11
81.312349
 21
150.066637
 31
0.0
  0
LINE
  5
65F
100
AcDbEntity
  8
レイヤー_2
 62
     7
100
AcDbLine
 10
80.613512
 20
150.066637
 30
0.0
 11
80.787834
 21
150.066637
 31
0.0
  0
LINE
  5
65E
100
AcDbEntity
  8
レイヤー_2
 62
     7
100
AcDbLine
 10
80.204924
 20
150.066637
 30
0.0
 11
80.613512
 21
150.066637
 31
0.0
  0
LINE
  5
65D
100
AcDbEntity
  8
レイヤー_2
 62
     7
100
AcDbLine
 10
80.14739
 20
150.066637
 30
0.0
 11
80.204924
 21
150.066637
 31
0.0
  0
LINE
  5
65C
100
AcDbEntity
  8
レイヤー_2
 62
     7
100
AcDbLine
 10
80.088996
 20
150.066637
 30
0.0
 11
80.14739
 21
150.066637
 31
0.0
  0
LINE
  5
65B
100
AcDbEntity
  8
レイヤー_2
 62
     7
100
AcDbLine
 10
80.029913
 20
148.958866
 30
0.0
 11
82.07027
 21
148.958866
 31
0.0
  0
LINE
  5
65A
100
AcDbEntity
  8
レイヤー_2
 62
     7
100
AcDbLine
 10
80.088996
 20
151.639323
 30
0.0
 11
80.14739
 21
151.639323
 31
0.0
  0
LINE
  5
659
100
AcDbEntity
  8
レイヤー_2
 62
     7
100
AcDbLine
 10
80.14739
 20
151.639323
 30
0.0
 11
80.204924
 21
151.639323
 31
0.0
  0
LINE
  5
658
100
AcDbEntity
  8
レイヤー_2
 62
     7
100
AcDbLine
 10
80.204924
 20
151.639323
 30
0.0
 11
80.613512
 21
151.639323
 31
0.0
  0
LINE
  5
657
100
AcDbEntity
  8
レイヤー_2
 62
     7
100
AcDbLine
 10
80.613512
 20
151.639323
 30
0.0
 11
80.787834
 21
151.639323
 31
0.0
  0
LINE
  5
656
100
AcDbEntity
  8
レイヤー_2
 62
     7
100
AcDbLine
 10
80.787834
 20
151.639323
 30
0.0
 11
81.312349
 21
151.639323
 31
0.0
  0
LINE
  5
655
100
AcDbEntity
  8
レイヤー_2
 62
     7
100
AcDbLine
 10
81.312349
 20
151.639323
 30
0.0
 11
81.488222
 21
151.639323
 31
0.0
  0
LINE
  5
654
100
AcDbEntity
  8
レイヤー_2
 62
     7
100
AcDbLine
 10
81.488222
 20
151.639323
 30
0.0
 11
81.895949
 21
151.639323
 31
0.0
  0
LINE
  5
653
100
AcDbEntity
  8
レイヤー_2
 62
     7
100
AcDbLine
 10
81.895949
 20
151.639323
 30
0.0
 11
81.953654
 21
151.639323
 31
0.0
  0
LINE
  5
652
100
AcDbEntity
  8
レイヤー_2
 62
     7
100
AcDbLine
 10
81.953654
 20
151.639323
 30
0.0
 11
82.011876
 21
151.639323
 31
0.0
  0
LINE
  5
651
100
AcDbEntity
  8
レイヤー_2
 62
     7
100
AcDbLine
 10
81.138717
 20
152.396899
 30
0.0
 11
81.836865
 21
152.396899
 31
0.0
  0
LINE
  5
650
100
AcDbEntity
  8
レイヤー_2
 62
     7
100
AcDbLine
 10
81.895949
 20
152.396899
 30
0.0
 11
82.011876
 21
152.396899
 31
0.0
  0
LINE
  5
64F
100
AcDbEntity
  8
レイヤー_2
 62
     7
100
AcDbLine
 10
81.895949
 20
152.396899
 30
0.0
 11
81.895949
 21
153.445414
 31
0.0
  0
LINE
  5
64E
100
AcDbEntity
  8
レイヤー_2
 62
     7
100
AcDbLine
 10
80.088996
 20
152.396899
 30
0.0
 11
80.204924
 21
152.396899
 31
0.0
  0
LINE
  5
64D
100
AcDbEntity
  8
レイヤー_2
 62
     7
100
AcDbLine
 10
80.204924
 20
153.445414
 30
0.0
 11
80.204924
 21
152.396899
 31
0.0
  0
LINE
  5
64C
100
AcDbEntity
  8
レイヤー_2
 62
     7
100
AcDbLine
 10
80.263318
 20
152.396899
 30
0.0
 11
80.962155
 21
152.396899
 31
0.0
  0
LINE
  5
64B
100
AcDbEntity
  8
レイヤー_2
 62
     7
100
AcDbLine
 10
81.021239
 20
153.445414
 30
0.0
 11
81.021239
 21
152.396899
 31
0.0
  0
LINE
  5
64A
100
AcDbEntity
  8
レイヤー_2
 62
     7
100
AcDbLine
 10
80.088996
 20
152.2212
 30
0.0
 11
82.011876
 21
152.2212
 31
0.0
  0
LINE
  5
649
100
AcDbEntity
  8
レイヤー_2
 62
     7
100
AcDbLine
 10
81.429138
 20
151.639323
 30
0.0
 11
81.429138
 21
150.066637
 31
0.0
  0
LINE
  5
648
100
AcDbEntity
  8
レイヤー_2
 62
     7
100
AcDbLine
 10
80.671734
 20
151.639323
 30
0.0
 11
80.671734
 21
150.066637
 31
0.0
  0
LINE
  5
647
100
AcDbEntity
  8
レイヤー_2
 62
     7
100
AcDbLine
 10
80.14739
 20
151.639323
 30
0.0
 11
80.14739
 21
150.066637
 31
0.0
  0
LINE
  5
646
100
AcDbEntity
  8
レイヤー_2
 62
     7
100
AcDbLine
 10
81.953654
 20
150.066637
 30
0.0
 11
81.953654
 21
151.639323
 31
0.0
  0
LINE
  5
645
100
AcDbEntity
  8
レイヤー_2
 62
     7
100
AcDbLine
 10
82.07027
 20
151.522534
 30
0.0
 11
82.129354
 21
151.522534
 31
0.0
  0
LINE
  5
644
100
AcDbEntity
  8
レイヤー_2
 62
     7
100
AcDbLine
 10
82.129354
 20
151.522534
 30
0.0
 11
82.187059
 21
151.522534
 31
0.0
  0
LINE
  5
643
100
AcDbEntity
  8
レイヤー_2
 62
     7
100
AcDbLine
 10
82.187059
 20
151.522534
 30
0.0
 11
82.594786
 21
151.522534
 31
0.0
  0
LINE
  5
642
100
AcDbEntity
  8
レイヤー_2
 62
     7
100
AcDbLine
 10
82.594786
 20
151.522534
 30
0.0
 11
82.770658
 21
151.522534
 31
0.0
  0
LINE
  5
641
100
AcDbEntity
  8
レイヤー_2
 62
     7
100
AcDbLine
 10
82.770658
 20
151.522534
 30
0.0
 11
83.295174
 21
151.522534
 31
0.0
  0
LINE
  5
640
100
AcDbEntity
  8
レイヤー_2
 62
     7
100
AcDbLine
 10
83.295174
 20
151.522534
 30
0.0
 11
83.469496
 21
151.522534
 31
0.0
  0
LINE
  5
63F
100
AcDbEntity
  8
レイヤー_2
 62
     7
100
AcDbLine
 10
83.469496
 20
151.522534
 30
0.0
 11
83.877395
 21
151.522534
 31
0.0
  0
LINE
  5
63E
100
AcDbEntity
  8
レイヤー_2
 62
     7
100
AcDbLine
 10
83.877395
 20
151.522534
 30
0.0
 11
83.936479
 21
151.522534
 31
0.0
  0
LINE
  5
63D
100
AcDbEntity
  8
レイヤー_2
 62
     7
100
AcDbLine
 10
83.936479
 20
151.522534
 30
0.0
 11
83.994012
 21
151.522534
 31
0.0
  0
LINE
  5
63C
100
AcDbEntity
  8
レイヤー_2
 62
     7
100
AcDbLine
 10
83.936479
 20
150.00807
 30
0.0
 11
83.994012
 21
150.00807
 31
0.0
  0
LINE
  5
63B
100
AcDbEntity
  8
レイヤー_2
 62
     7
100
AcDbLine
 10
83.877395
 20
150.00807
 30
0.0
 11
83.936479
 21
150.00807
 31
0.0
  0
LINE
  5
63A
100
AcDbEntity
  8
レイヤー_2
 62
     7
100
AcDbLine
 10
83.469496
 20
150.00807
 30
0.0
 11
83.877395
 21
150.00807
 31
0.0
  0
LINE
  5
639
100
AcDbEntity
  8
レイヤー_2
 62
     7
100
AcDbLine
 10
83.295174
 20
150.00807
 30
0.0
 11
83.469496
 21
150.00807
 31
0.0
  0
LINE
  5
638
100
AcDbEntity
  8
レイヤー_2
 62
     7
100
AcDbLine
 10
82.770658
 20
150.00807
 30
0.0
 11
83.295174
 21
150.00807
 31
0.0
  0
LINE
  5
637
100
AcDbEntity
  8
レイヤー_2
 62
     7
100
AcDbLine
 10
82.594786
 20
150.00807
 30
0.0
 11
82.770658
 21
150.00807
 31
0.0
  0
LINE
  5
636
100
AcDbEntity
  8
レイヤー_2
 62
     7
100
AcDbLine
 10
82.187059
 20
150.00807
 30
0.0
 11
82.594786
 21
150.00807
 31
0.0
  0
LINE
  5
635
100
AcDbEntity
  8
レイヤー_2
 62
     7
100
AcDbLine
 10
82.129354
 20
150.00807
 30
0.0
 11
82.187059
 21
150.00807
 31
0.0
  0
LINE
  5
634
100
AcDbEntity
  8
レイヤー_2
 62
     7
100
AcDbLine
 10
82.07027
 20
150.00807
 30
0.0
 11
82.129354
 21
150.00807
 31
0.0
  0
LINE
  5
633
100
AcDbEntity
  8
レイヤー_2
 62
     7
100
AcDbLine
 10
82.07027
 20
148.958866
 30
0.0
 11
84.052406
 21
148.958866
 31
0.0
  0
LINE
  5
632
100
AcDbEntity
  8
レイヤー_2
 62
     7
100
AcDbLine
 10
83.994012
 20
152.396899
 30
0.0
 11
83.877395
 21
152.396899
 31
0.0
  0
LINE
  5
631
100
AcDbEntity
  8
レイヤー_2
 62
     7
100
AcDbLine
 10
83.877395
 20
152.396899
 30
0.0
 11
83.877395
 21
153.445414
 31
0.0
  0
LINE
  5
630
100
AcDbEntity
  8
レイヤー_2
 62
     7
100
AcDbLine
 10
82.94498
 20
152.396899
 30
0.0
 11
82.245454
 21
152.396899
 31
0.0
  0
LINE
  5
62F
100
AcDbEntity
  8
レイヤー_2
 62
     7
100
AcDbLine
 10
83.002686
 20
153.445414
 30
0.0
 11
83.002686
 21
152.396899
 31
0.0
  0
LINE
  5
62E
100
AcDbEntity
  8
レイヤー_2
 62
     7
100
AcDbLine
 10
82.07027
 20
152.2212
 30
0.0
 11
83.994012
 21
152.2212
 31
0.0
  0
LINE
  5
62D
100
AcDbEntity
  8
レイヤー_2
 62
     7
100
AcDbLine
 10
82.187059
 20
152.396899
 30
0.0
 11
82.07027
 21
152.396899
 31
0.0
  0
LINE
  5
62C
100
AcDbEntity
  8
レイヤー_2
 62
     7
100
AcDbLine
 10
82.187059
 20
153.445414
 30
0.0
 11
82.187059
 21
152.396899
 31
0.0
  0
LINE
  5
62B
100
AcDbEntity
  8
レイヤー_2
 62
     7
100
AcDbLine
 10
83.81969
 20
152.396899
 30
0.0
 11
83.119302
 21
152.396899
 31
0.0
  0
LINE
  5
62A
100
AcDbEntity
  8
レイヤー_2
 62
     7
100
AcDbLine
 10
83.411102
 20
151.522534
 30
0.0
 11
83.411102
 21
150.00807
 31
0.0
  0
LINE
  5
629
100
AcDbEntity
  8
レイヤー_2
 62
     7
100
AcDbLine
 10
82.653181
 20
151.522534
 30
0.0
 11
82.653181
 21
150.00807
 31
0.0
  0
LINE
  5
628
100
AcDbEntity
  8
レイヤー_2
 62
     7
100
AcDbLine
 10
83.936479
 20
150.00807
 30
0.0
 11
83.936479
 21
151.522534
 31
0.0
  0
LINE
  5
627
100
AcDbEntity
  8
レイヤー_2
 62
     7
100
AcDbLine
 10
82.129354
 20
151.522534
 30
0.0
 11
82.129354
 21
150.00807
 31
0.0
  0
LINE
  5
626
100
AcDbEntity
  8
レイヤー_2
 62
     7
100
AcDbLine
 10
81.836865
 20
155.018273
 30
0.0
 11
81.836865
 21
156.06696
 31
0.0
  0
LINE
  5
625
100
AcDbEntity
  8
レイヤー_2
 62
     7
100
AcDbLine
 10
78.923176
 20
155.018273
 30
0.0
 11
78.923176
 21
156.06696
 31
0.0
  0
LINE
  5
624
100
AcDbEntity
  8
レイヤー_2
 62
     7
100
AcDbLine
 10
81.429138
 20
155.018273
 30
0.0
 11
78.923176
 21
155.018273
 31
0.0
  0
LINE
  5
623
100
AcDbEntity
  8
レイヤー_2
 62
     7
100
AcDbLine
 10
81.895949
 20
155.018273
 30
0.0
 11
81.429138
 21
155.018273
 31
0.0
  0
LINE
  5
622
100
AcDbEntity
  8
レイヤー_2
 62
     7
100
AcDbLine
 10
84.460133
 20
155.018273
 30
0.0
 11
84.460133
 21
156.06696
 31
0.0
  0
LINE
  5
621
100
AcDbEntity
  8
レイヤー_2
 62
     7
100
AcDbLine
 10
81.895949
 20
155.018273
 30
0.0
 11
84.460133
 21
155.018273
 31
0.0
  0
LINE
  5
620
100
AcDbEntity
  8
レイヤー_2
 62
     7
100
AcDbLine
 10
84.693711
 20
155.018273
 30
0.0
 11
84.460133
 21
155.018273
 31
0.0
  0
LINE
  5
61F
100
AcDbEntity
  8
レイヤー_2
 62
     7
100
AcDbLine
 10
78.689771
 20
155.018273
 30
0.0
 11
78.689771
 21
156.06696
 31
0.0
  0
LINE
  5
61E
100
AcDbEntity
  8
レイヤー_2
 62
     7
100
AcDbLine
 10
78.923176
 20
155.018273
 30
0.0
 11
78.689771
 21
155.018273
 31
0.0
  0
LINE
  5
61D
100
AcDbEntity
  8
レイヤー_2
 62
     7
100
AcDbLine
 10
84.809638
 20
155.018273
 30
0.0
 11
84.809638
 21
156.06696
 31
0.0
  0
LINE
  5
61C
100
AcDbEntity
  8
レイヤー_2
 62
     7
100
AcDbLine
 10
84.693711
 20
155.018273
 30
0.0
 11
84.809638
 21
155.018273
 31
0.0
  0
LINE
  5
61B
100
AcDbEntity
  8
レイヤー_2
 62
     7
100
AcDbLine
 10
85.625954
 20
156.06696
 30
0.0
 11
77.874144
 21
156.06696
 31
0.0
  0
LINE
  5
61A
100
AcDbEntity
  8
レイヤー_2
 62
     7
100
AcDbLine
 10
77.583034
 20
156.882586
 30
0.0
 11
85.85867
 21
156.882586
 31
0.0
  0
LINE
  5
619
100
AcDbEntity
  8
レイヤー_2
 62
     7
100
AcDbLine
 10
77.583034
 20
156.358759
 30
0.0
 11
85.85867
 21
156.358759
 31
0.0
  0
LINE
  5
618
100
AcDbEntity
  8
レイヤー_2
 62
     7
100
AcDbLine
 10
80.029913
 20
149.775009
 30
0.0
 11
82.07027
 21
149.775009
 31
0.0
  0
LINE
  5
617
100
AcDbEntity
  8
レイヤー_2
 62
     7
100
AcDbLine
 10
82.07027
 20
149.657532
 30
0.0
 11
84.052406
 21
149.657532
 31
0.0
  0
LINE
  5
616
100
AcDbEntity
  8
レイヤー_2
 62
     7
100
AcDbLine
 10
83.877395
 20
131.065213
 30
0.0
 11
83.760607
 21
131.124124
 31
0.0
  0
LINE
  5
615
100
AcDbEntity
  8
レイヤー_2
 62
     7
100
AcDbLine
 10
83.760607
 20
131.124124
 30
0.0
 11
83.643818
 21
131.124124
 31
0.0
  0
LINE
  5
614
100
AcDbEntity
  8
レイヤー_2
 62
     7
100
AcDbLine
 10
83.643818
 20
131.124124
 30
0.0
 11
83.527201
 21
131.065213
 31
0.0
  0
LINE
  5
613
100
AcDbEntity
  8
レイヤー_2
 62
     7
100
AcDbLine
 10
83.527201
 20
131.065213
 30
0.0
 11
83.35288
 21
131.065213
 31
0.0
  0
LINE
  5
612
100
AcDbEntity
  8
レイヤー_2
 62
     7
100
AcDbLine
 10
83.35288
 20
131.065213
 30
0.0
 11
83.236091
 21
131.065213
 31
0.0
  0
LINE
  5
611
100
AcDbEntity
  8
レイヤー_2
 62
     7
100
AcDbLine
 10
83.236091
 20
131.065213
 30
0.0
 11
83.061769
 21
131.065213
 31
0.0
  0
LINE
  5
610
100
AcDbEntity
  8
レイヤー_2
 62
     7
100
AcDbLine
 10
83.061769
 20
131.065213
 30
0.0
 11
82.886586
 21
131.065213
 31
0.0
  0
LINE
  5
60F
100
AcDbEntity
  8
レイヤー_2
 62
     7
100
AcDbLine
 10
82.886586
 20
131.065213
 30
0.0
 11
82.711575
 21
131.007335
 31
0.0
  0
LINE
  5
60E
100
AcDbEntity
  8
レイヤー_2
 62
     7
100
AcDbLine
 10
82.711575
 20
131.007335
 30
0.0
 11
82.537253
 21
131.007335
 31
0.0
  0
LINE
  5
60D
100
AcDbEntity
  8
レイヤー_2
 62
     7
100
AcDbLine
 10
82.537253
 20
131.007335
 30
0.0
 11
82.361381
 21
130.949113
 31
0.0
  0
LINE
  5
60C
100
AcDbEntity
  8
レイヤー_2
 62
     7
100
AcDbLine
 10
82.361381
 20
130.949113
 30
0.0
 11
82.187059
 21
130.949113
 31
0.0
  0
LINE
  5
60B
100
AcDbEntity
  8
レイヤー_2
 62
     7
100
AcDbLine
 10
82.187059
 20
130.949113
 30
0.0
 11
82.011876
 21
130.890546
 31
0.0
  0
LINE
  5
60A
100
AcDbEntity
  8
レイヤー_2
 62
     7
100
AcDbLine
 10
82.011876
 20
130.890546
 30
0.0
 11
81.77916
 21
130.832324
 31
0.0
  0
LINE
  5
609
100
AcDbEntity
  8
レイヤー_2
 62
     7
100
AcDbLine
 10
81.77916
 20
130.832324
 30
0.0
 11
81.604149
 21
130.774102
 31
0.0
  0
LINE
  5
608
100
AcDbEntity
  8
レイヤー_2
 62
     7
100
AcDbLine
 10
81.604149
 20
130.774102
 30
0.0
 11
81.371433
 21
130.716225
 31
0.0
  0
LINE
  5
607
100
AcDbEntity
  8
レイヤー_2
 62
     7
100
AcDbLine
 10
81.371433
 20
130.716225
 30
0.0
 11
81.138717
 21
130.657313
 31
0.0
  0
LINE
  5
606
100
AcDbEntity
  8
レイヤー_2
 62
     7
100
AcDbLine
 10
81.138717
 20
130.657313
 30
0.0
 11
80.904622
 21
130.598747
 31
0.0
  0
LINE
  5
605
100
AcDbEntity
  8
レイヤー_2
 62
     7
100
AcDbLine
 10
80.904622
 20
130.598747
 30
0.0
 11
80.671734
 21
130.482992
 31
0.0
  0
LINE
  5
604
100
AcDbEntity
  8
レイヤー_2
 62
     7
100
AcDbLine
 10
80.671734
 20
130.482992
 30
0.0
 11
80.555806
 21
130.423736
 31
0.0
  0
LINE
  5
603
100
AcDbEntity
  8
レイヤー_2
 62
     7
100
AcDbLine
 10
80.204924
 20
130.307981
 30
0.0
 11
80.43919
 21
130.423736
 31
0.0
  0
LINE
  5
602
100
AcDbEntity
  8
レイヤー_2
 62
     7
100
AcDbLine
 10
80.43919
 20
130.423736
 30
0.0
 11
80.671734
 21
130.482992
 31
0.0
  0
LINE
  5
601
100
AcDbEntity
  8
レイヤー_2
 62
     7
100
AcDbLine
 10
80.671734
 20
130.482992
 30
0.0
 11
80.846228
 21
130.540525
 31
0.0
  0
LINE
  5
600
100
AcDbEntity
  8
レイヤー_2
 62
     7
100
AcDbLine
 10
145.481559
 20
147.66885
 30
0.0
 11
145.481559
 21
149.533681
 31
0.0
  0
LINE
  5
5FF
100
AcDbEntity
  8
レイヤー_2
 62
     7
100
AcDbLine
 10
146.705602
 20
147.66885
 30
0.0
 11
146.705602
 21
149.533681
 31
0.0
  0
LINE
  5
5FE
100
AcDbEntity
  8
レイヤー_2
 62
     7
100
AcDbLine
 10
146.413802
 20
147.610628
 30
0.0
 11
145.306548
 21
147.610628
 31
0.0
  0
LINE
  5
5FD
100
AcDbEntity
  8
レイヤー_2
 62
     7
100
AcDbLine
 10
146.413802
 20
149.649608
 30
0.0
 11
145.306548
 21
149.649608
 31
0.0
  0
LINE
  5
5FC
100
AcDbEntity
  8
レイヤー_2
 62
     7
100
AcDbLine
 10
147.171723
 20
149.649608
 30
0.0
 11
146.705602
 21
149.533681
 31
0.0
  0
LINE
  5
5FB
100
AcDbEntity
  8
レイヤー_2
 62
     7
100
AcDbLine
 10
147.171723
 20
149.649608
 30
0.0
 11
146.413802
 21
149.649608
 31
0.0
  0
LINE
  5
5FA
100
AcDbEntity
  8
レイヤー_2
 62
     7
100
AcDbLine
 10
147.171723
 20
147.610628
 30
0.0
 11
146.705602
 21
147.66885
 31
0.0
  0
LINE
  5
5F9
100
AcDbEntity
  8
レイヤー_2
 62
     7
100
AcDbLine
 10
147.171723
 20
147.610628
 30
0.0
 11
146.413802
 21
147.610628
 31
0.0
  0
LINE
  5
5F8
100
AcDbEntity
  8
レイヤー_2
 62
     7
100
AcDbLine
 10
147.287823
 20
147.66885
 30
0.0
 11
147.171723
 21
147.610628
 31
0.0
  0
LINE
  5
5F7
100
AcDbEntity
  8
レイヤー_2
 62
     7
100
AcDbLine
 10
147.287823
 20
149.533681
 30
0.0
 11
147.171723
 21
149.649608
 31
0.0
  0
LINE
  5
5F6
100
AcDbEntity
  8
レイヤー_2
 62
     7
100
AcDbLine
 10
147.287823
 20
147.66885
 30
0.0
 11
147.287823
 21
149.533681
 31
0.0
  0
LINE
  5
5F5
100
AcDbEntity
  8
レイヤー_2
 62
     7
100
AcDbLine
 10
145.306548
 20
149.649608
 30
0.0
 11
145.015438
 21
149.649608
 31
0.0
  0
LINE
  5
5F4
100
AcDbEntity
  8
レイヤー_2
 62
     7
100
AcDbLine
 10
145.306548
 20
147.610628
 30
0.0
 11
145.015438
 21
147.610628
 31
0.0
  0
LINE
  5
5F3
100
AcDbEntity
  8
レイヤー_2
 62
     7
100
AcDbLine
 10
145.015438
 20
149.649608
 30
0.0
 11
145.481559
 21
149.533681
 31
0.0
  0
LINE
  5
5F2
100
AcDbEntity
  8
レイヤー_2
 62
     7
100
AcDbLine
 10
145.015438
 20
147.610628
 30
0.0
 11
145.481559
 21
147.66885
 31
0.0
  0
LINE
  5
5F1
100
AcDbEntity
  8
レイヤー_2
 62
     7
100
AcDbLine
 10
144.840427
 20
147.66885
 30
0.0
 11
145.015438
 21
147.610628
 31
0.0
  0
LINE
  5
5F0
100
AcDbEntity
  8
レイヤー_2
 62
     7
100
AcDbLine
 10
144.840427
 20
149.533681
 30
0.0
 11
145.015438
 21
149.649608
 31
0.0
  0
LINE
  5
5EF
100
AcDbEntity
  8
レイヤー_2
 62
     7
100
AcDbLine
 10
144.840427
 20
147.66885
 30
0.0
 11
144.840427
 21
149.533681
 31
0.0
  0
POLYLINE
  5
5E7
100
AcDbEntity
  8
レイヤー_2
 62
     7
100
AcDb2dPolyline
 66
     1
 10
0.0
 20
0.0
 30
0.0
  0
VERTEX
  5
5E8
100
AcDbEntity
  8
レイヤー_2
 62
     7
100
AcDbVertex
100
AcDb2dVertex
 10
145.481559
 20
149.533681
 30
0.0
  0
VERTEX
  5
5E9
100
AcDbEntity
  8
レイヤー_2
 62
     7
100
AcDbVertex
100
AcDb2dVertex
 10
145.539781
 20
149.591041
 30
0.0
  0
VERTEX
  5
5EA
100
AcDbEntity
  8
レイヤー_2
 62
     7
100
AcDbVertex
100
AcDb2dVertex
 10
145.65657
 20
149.591041
 30
0.0
  0
VERTEX
  5
5EB
100
AcDbEntity
  8
レイヤー_2
 62
     7
100
AcDbVertex
100
AcDb2dVertex
 10
145.77267
 20
149.649608
 30
0.0
  0
VERTEX
  5
5EC
100
AcDbEntity
  8
レイヤー_2
 62
     7
100
AcDbVertex
100
AcDb2dVertex
 10
146.356269
 20
149.649608
 30
0.0
  0
VERTEX
  5
5ED
100
AcDbEntity
  8
レイヤー_2
 62
     7
100
AcDbVertex
100
AcDb2dVertex
 10
146.705602
 20
149.533681
 30
0.0
  0
SEQEND
  5
5EE
100
AcDbEntity
  8
レイヤー_2
 62
     7
  0
POLYLINE
  5
5E0
100
AcDbEntity
  8
レイヤー_2
 62
     7
100
AcDb2dPolyline
 66
     1
 10
0.0
 20
0.0
 30
0.0
  0
VERTEX
  5
5E1
100
AcDbEntity
  8
レイヤー_2
 62
     7
100
AcDbVertex
100
AcDb2dVertex
 10
145.481559
 20
147.66885
 30
0.0
  0
VERTEX
  5
5E2
100
AcDbEntity
  8
レイヤー_2
 62
     7
100
AcDbVertex
100
AcDb2dVertex
 10
145.65657
 20
147.66885
 30
0.0
  0
VERTEX
  5
5E3
100
AcDbEntity
  8
レイヤー_2
 62
     7
100
AcDbVertex
100
AcDb2dVertex
 10
145.831581
 20
147.610628
 30
0.0
  0
VERTEX
  5
5E4
100
AcDbEntity
  8
レイヤー_2
 62
     7
100
AcDbVertex
100
AcDb2dVertex
 10
146.53128
 20
147.610628
 30
0.0
  0
VERTEX
  5
5E5
100
AcDbEntity
  8
レイヤー_2
 62
     7
100
AcDbVertex
100
AcDb2dVertex
 10
146.705602
 20
147.66885
 30
0.0
  0
SEQEND
  5
5E6
100
AcDbEntity
  8
レイヤー_2
 62
     7
  0
LINE
  5
5DF
100
AcDbEntity
  8
レイヤー_2
 62
     7
100
AcDbLine
 10
86.267258
 20
156.591475
 30
0.0
 11
86.267258
 21
156.358759
 31
0.0
  0
LINE
  5
5DE
100
AcDbEntity
  8
レイヤー_2
 62
     7
100
AcDbLine
 10
77.640739
 20
155.251678
 30
0.0
 11
77.640739
 21
156.24266
 31
0.0
  0
LINE
  5
5DD
100
AcDbEntity
  8
レイヤー_2
 62
     7
100
AcDbLine
 10
86.616591
 20
156.24266
 30
0.0
 11
86.616591
 21
155.251678
 31
0.0
  0
POLYLINE
  5
5D8
100
AcDbEntity
  8
レイヤー_2
 62
     7
100
AcDb2dPolyline
 66
     1
 10
0.0
 20
0.0
 30
0.0
  0
VERTEX
  5
5D9
100
AcDbEntity
  8
レイヤー_2
 62
     7
100
AcDbVertex
100
AcDb2dVertex
 10
86.500663
 20
156.358759
 30
0.0
  0
VERTEX
  5
5DA
100
AcDbEntity
  8
レイヤー_2
 62
     7
100
AcDbVertex
100
AcDb2dVertex
 10
86.558369
 20
156.299676
 30
0.0
  0
VERTEX
  5
5DB
100
AcDbEntity
  8
レイヤー_2
 62
     7
100
AcDbVertex
100
AcDb2dVertex
 10
86.616591
 20
156.24266
 30
0.0
  0
SEQEND
  5
5DC
100
AcDbEntity
  8
レイヤー_2
 62
     7
  0
POLYLINE
  5
5D3
100
AcDbEntity
  8
レイヤー_2
 62
     7
100
AcDb2dPolyline
 66
     1
 10
0.0
 20
0.0
 30
0.0
  0
VERTEX
  5
5D4
100
AcDbEntity
  8
レイヤー_2
 62
     7
100
AcDbVertex
100
AcDb2dVertex
 10
77.640739
 20
156.24266
 30
0.0
  0
VERTEX
  5
5D5
100
AcDbEntity
  8
レイヤー_2
 62
     7
100
AcDbVertex
100
AcDb2dVertex
 10
77.699822
 20
156.299676
 30
0.0
  0
VERTEX
  5
5D6
100
AcDbEntity
  8
レイヤー_2
 62
     7
100
AcDbVertex
100
AcDb2dVertex
 10
77.757355
 20
156.358759
 30
0.0
  0
SEQEND
  5
5D7
100
AcDbEntity
  8
レイヤー_2
 62
     7
  0
POLYLINE
  5
5CE
100
AcDbEntity
  8
レイヤー_2
 62
     7
100
AcDb2dPolyline
 66
     1
 10
0.0
 20
0.0
 30
0.0
  0
VERTEX
  5
5CF
100
AcDbEntity
  8
レイヤー_2
 62
     7
100
AcDbVertex
100
AcDb2dVertex
 10
86.616591
 20
155.251678
 30
0.0
  0
VERTEX
  5
5D0
100
AcDbEntity
  8
レイヤー_2
 62
     7
100
AcDbVertex
100
AcDb2dVertex
 10
86.558369
 20
155.192594
 30
0.0
  0
VERTEX
  5
5D1
100
AcDbEntity
  8
レイヤー_2
 62
     7
100
AcDbVertex
100
AcDb2dVertex
 10
86.500663
 20
155.135061
 30
0.0
  0
SEQEND
  5
5D2
100
AcDbEntity
  8
レイヤー_2
 62
     7
  0
POLYLINE
  5
5C9
100
AcDbEntity
  8
レイヤー_2
 62
     7
100
AcDb2dPolyline
 66
     1
 10
0.0
 20
0.0
 30
0.0
  0
VERTEX
  5
5CA
100
AcDbEntity
  8
レイヤー_2
 62
     7
100
AcDbVertex
100
AcDb2dVertex
 10
77.757355
 20
155.135061
 30
0.0
  0
VERTEX
  5
5CB
100
AcDbEntity
  8
レイヤー_2
 62
     7
100
AcDbVertex
100
AcDb2dVertex
 10
77.699822
 20
155.192594
 30
0.0
  0
VERTEX
  5
5CC
100
AcDbEntity
  8
レイヤー_2
 62
     7
100
AcDbVertex
100
AcDb2dVertex
 10
77.640739
 20
155.251678
 30
0.0
  0
SEQEND
  5
5CD
100
AcDbEntity
  8
レイヤー_2
 62
     7
  0
POLYLINE
  5
5C4
100
AcDbEntity
  8
レイヤー_2
 62
     7
100
AcDb2dPolyline
 66
     1
 10
0.0
 20
0.0
 30
0.0
  0
VERTEX
  5
5C5
100
AcDbEntity
  8
レイヤー_2
 62
     7
100
AcDbVertex
100
AcDb2dVertex
 10
85.625954
 20
156.24266
 30
0.0
  0
VERTEX
  5
5C6
100
AcDbEntity
  8
レイヤー_2
 62
     7
100
AcDbVertex
100
AcDb2dVertex
 10
85.684348
 20
156.299676
 30
0.0
  0
VERTEX
  5
5C7
100
AcDbEntity
  8
レイヤー_2
 62
     7
100
AcDbVertex
100
AcDb2dVertex
 10
85.742053
 20
156.358759
 30
0.0
  0
SEQEND
  5
5C8
100
AcDbEntity
  8
レイヤー_2
 62
     7
  0
LINE
  5
5C3
100
AcDbEntity
  8
レイヤー_2
 62
     7
100
AcDbLine
 10
85.625954
 20
156.06696
 30
0.0
 11
85.625954
 21
156.24266
 31
0.0
  0
LINE
  5
5C2
100
AcDbEntity
  8
レイヤー_2
 62
     7
100
AcDbLine
 10
79.447692
 20
150.357231
 30
0.0
 11
79.447692
 21
153.445414
 31
0.0
  0
LINE
  5
5C1
100
AcDbEntity
  8
レイヤー_2
 62
     7
100
AcDbLine
 10
79.156581
 20
148.318079
 30
0.0
 11
79.039964
 21
148.376301
 31
0.0
  0
LINE
  5
5C0
100
AcDbEntity
  8
レイヤー_2
 62
     7
100
AcDbLine
 10
86.267258
 20
156.591475
 30
0.0
 11
85.85867
 21
156.591475
 31
0.0
  0
LINE
  5
5BF
100
AcDbEntity
  8
レイヤー_2
 62
     7
100
AcDbLine
 10
85.800275
 20
155.251678
 30
0.0
 11
85.800275
 21
156.24266
 31
0.0
  0
LINE
  5
5BE
100
AcDbEntity
  8
レイヤー_2
 62
     7
100
AcDbLine
 10
77.874144
 20
156.358759
 30
0.0
 11
77.757355
 21
156.358759
 31
0.0
  0
LINE
  5
5BD
100
AcDbEntity
  8
レイヤー_2
 62
     7
100
AcDbLine
 10
86.500663
 20
156.358759
 30
0.0
 11
85.800275
 21
156.358759
 31
0.0
  0
LINE
  5
5BC
100
AcDbEntity
  8
レイヤー_2
 62
     7
100
AcDbLine
 10
84.809638
 20
155.135061
 30
0.0
 11
86.500663
 21
155.135061
 31
0.0
  0
LINE
  5
5BB
100
AcDbEntity
  8
レイヤー_2
 62
     7
100
AcDbLine
 10
77.757355
 20
155.135061
 30
0.0
 11
78.689771
 21
155.135061
 31
0.0
  0
LINE
  5
5BA
100
AcDbEntity
  8
レイヤー_2
 62
     7
100
AcDbLine
 10
86.325652
 20
156.358759
 30
0.0
 11
86.267258
 21
156.358759
 31
0.0
  0
LINE
  5
5B9
100
AcDbEntity
  8
レイヤー_2
 62
     7
100
AcDbLine
 10
85.800275
 20
156.358759
 30
0.0
 11
85.742053
 21
156.358759
 31
0.0
  0
POLYLINE
  5
5B4
100
AcDbEntity
  8
レイヤー_2
 62
     7
100
AcDb2dPolyline
 66
     1
 10
0.0
 20
0.0
 30
0.0
  0
VERTEX
  5
5B5
100
AcDbEntity
  8
レイヤー_2
 62
     7
100
AcDbVertex
100
AcDb2dVertex
 10
79.739491
 20
148.318079
 30
0.0
  0
VERTEX
  5
5B6
100
AcDbEntity
  8
レイヤー_2
 62
     7
100
AcDbVertex
100
AcDb2dVertex
 10
80.088996
 20
148.376301
 30
0.0
  0
VERTEX
  5
5B7
100
AcDbEntity
  8
レイヤー_2
 62
     7
100
AcDbVertex
100
AcDb2dVertex
 10
80.204924
 20
148.376301
 30
0.0
  0
SEQEND
  5
5B8
100
AcDbEntity
  8
レイヤー_2
 62
     7
  0
LINE
  5
5B3
100
AcDbEntity
  8
レイヤー_2
 62
     7
100
AcDbLine
 10
79.447692
 20
148.318079
 30
0.0
 11
80.204924
 21
148.318079
 31
0.0
  0
POLYLINE
  5
5AE
100
AcDbEntity
  8
レイヤー_2
 62
     7
100
AcDb2dPolyline
 66
     1
 10
0.0
 20
0.0
 30
0.0
  0
VERTEX
  5
5AF
100
AcDbEntity
  8
レイヤー_2
 62
     7
100
AcDbVertex
100
AcDb2dVertex
 10
79.681097
 20
150.357231
 30
0.0
  0
VERTEX
  5
5B0
100
AcDbEntity
  8
レイヤー_2
 62
     7
100
AcDbVertex
100
AcDb2dVertex
 10
80.029913
 20
150.298319
 30
0.0
  0
VERTEX
  5
5B1
100
AcDbEntity
  8
レイヤー_2
 62
     7
100
AcDbVertex
100
AcDb2dVertex
 10
80.14739
 20
150.240959
 30
0.0
  0
SEQEND
  5
5B2
100
AcDbEntity
  8
レイヤー_2
 62
     7
  0
LINE
  5
5AD
100
AcDbEntity
  8
レイヤー_2
 62
     7
100
AcDbLine
 10
79.447692
 20
150.357231
 30
0.0
 11
80.14739
 21
150.357231
 31
0.0
  0
POLYLINE
  5
5A8
100
AcDbEntity
  8
レイヤー_2
 62
     7
100
AcDb2dPolyline
 66
     1
 10
0.0
 20
0.0
 30
0.0
  0
VERTEX
  5
5A9
100
AcDbEntity
  8
レイヤー_2
 62
     7
100
AcDbVertex
100
AcDb2dVertex
 10
79.039964
 20
148.376301
 30
0.0
  0
VERTEX
  5
5AA
100
AcDbEntity
  8
レイヤー_2
 62
     7
100
AcDbVertex
100
AcDb2dVertex
 10
79.331764
 20
148.318079
 30
0.0
  0
VERTEX
  5
5AB
100
AcDbEntity
  8
レイヤー_2
 62
     7
100
AcDbVertex
100
AcDb2dVertex
 10
79.447692
 20
148.318079
 30
0.0
  0
SEQEND
  5
5AC
100
AcDbEntity
  8
レイヤー_2
 62
     7
  0
POLYLINE
  5
5A3
100
AcDbEntity
  8
レイヤー_2
 62
     7
100
AcDb2dPolyline
 66
     1
 10
0.0
 20
0.0
 30
0.0
  0
VERTEX
  5
5A4
100
AcDbEntity
  8
レイヤー_2
 62
     7
100
AcDbVertex
100
AcDb2dVertex
 10
79.039964
 20
150.240959
 30
0.0
  0
VERTEX
  5
5A5
100
AcDbEntity
  8
レイヤー_2
 62
     7
100
AcDbVertex
100
AcDb2dVertex
 10
79.331764
 20
150.357231
 30
0.0
  0
VERTEX
  5
5A6
100
AcDbEntity
  8
レイヤー_2
 62
     7
100
AcDbVertex
100
AcDb2dVertex
 10
79.447692
 20
150.357231
 30
0.0
  0
SEQEND
  5
5A7
100
AcDbEntity
  8
レイヤー_2
 62
     7
  0
LINE
  5
5A2
100
AcDbEntity
  8
レイヤー_2
 62
     7
100
AcDbLine
 10
79.039964
 20
148.376301
 30
0.0
 11
79.039964
 21
150.240959
 31
0.0
  0
LINE
  5
5A1
100
AcDbEntity
  8
レイヤー_2
 62
     7
100
AcDbLine
 10
79.156581
 20
150.357231
 30
0.0
 11
79.039964
 21
150.240959
 31
0.0
  0
LINE
  5
5A0
100
AcDbEntity
  8
レイヤー_2
 62
     7
100
AcDbLine
 10
79.156581
 20
150.357231
 30
0.0
 11
79.447692
 21
150.357231
 31
0.0
  0
LINE
  5
59F
100
AcDbEntity
  8
レイヤー_2
 62
     7
100
AcDbLine
 10
79.156581
 20
148.318079
 30
0.0
 11
79.447692
 21
148.318079
 31
0.0
  0
LINE
  5
59E
100
AcDbEntity
  8
レイヤー_2
 62
     7
100
AcDbLine
 10
83.994012
 20
153.445414
 30
0.0
 11
83.994012
 21
155.018273
 31
0.0
  0
LINE
  5
59D
100
AcDbEntity
  8
レイヤー_2
 62
     7
100
AcDbLine
 10
83.994012
 20
156.882586
 30
0.0
 11
83.994012
 21
163.703014
 31
0.0
  0
LINE
  5
59C
100
AcDbEntity
  8
レイヤー_2
 62
     7
100
AcDbLine
 10
79.447692
 20
153.445414
 30
0.0
 11
79.447692
 21
155.018273
 31
0.0
  0
LINE
  5
59B
100
AcDbEntity
  8
レイヤー_2
 62
     7
100
AcDbLine
 10
79.447692
 20
156.882586
 30
0.0
 11
79.447692
 21
163.760547
 31
0.0
  0
POLYLINE
  5
580
100
AcDbEntity
  8
レイヤー_2
 62
     7
100
AcDb2dPolyline
 66
     1
 10
0.0
 20
0.0
 30
0.0
  0
VERTEX
  5
581
100
AcDbEntity
  8
レイヤー_2
 62
     7
100
AcDbVertex
100
AcDb2dVertex
 10
148.746132
 20
95.526986
 30
0.0
  0
VERTEX
  5
582
100
AcDbEntity
  8
レイヤー_2
 62
     7
100
AcDbVertex
100
AcDb2dVertex
 10
148.629343
 20
96.168462
 30
0.0
  0
VERTEX
  5
583
100
AcDbEntity
  8
レイヤー_2
 62
     7
100
AcDbVertex
100
AcDb2dVertex
 10
148.396799
 20
96.808906
 30
0.0
  0
VERTEX
  5
584
100
AcDbEntity
  8
レイヤー_2
 62
     7
100
AcDbVertex
100
AcDb2dVertex
 10
147.987522
 20
97.334283
 30
0.0
  0
VERTEX
  5
585
100
AcDbEntity
  8
レイヤー_2
 62
     7
100
AcDbVertex
100
AcDb2dVertex
 10
147.463523
 20
97.741838
 30
0.0
  0
VERTEX
  5
586
100
AcDbEntity
  8
レイヤー_2
 62
     7
100
AcDbVertex
100
AcDb2dVertex
 10
146.82239
 20
98.032948
 30
0.0
  0
VERTEX
  5
587
100
AcDbEntity
  8
レイヤー_2
 62
     7
100
AcDbVertex
100
AcDb2dVertex
 10
146.181258
 20
98.092204
 30
0.0
  0
VERTEX
  5
588
100
AcDbEntity
  8
レイヤー_2
 62
     7
100
AcDbVertex
100
AcDb2dVertex
 10
145.481559
 20
98.032948
 30
0.0
  0
VERTEX
  5
589
100
AcDbEntity
  8
レイヤー_2
 62
     7
100
AcDbVertex
100
AcDb2dVertex
 10
144.840427
 20
97.741838
 30
0.0
  0
VERTEX
  5
58A
100
AcDbEntity
  8
レイヤー_2
 62
     7
100
AcDbVertex
100
AcDb2dVertex
 10
144.316428
 20
97.334283
 30
0.0
  0
VERTEX
  5
58B
100
AcDbEntity
  8
レイヤー_2
 62
     7
100
AcDbVertex
100
AcDb2dVertex
 10
143.907151
 20
96.808906
 30
0.0
  0
VERTEX
  5
58C
100
AcDbEntity
  8
レイヤー_2
 62
     7
100
AcDbVertex
100
AcDb2dVertex
 10
143.674607
 20
96.168462
 30
0.0
  0
VERTEX
  5
58D
100
AcDbEntity
  8
レイヤー_2
 62
     7
100
AcDbVertex
100
AcDb2dVertex
 10
143.557818
 20
95.526986
 30
0.0
  0
VERTEX
  5
58E
100
AcDbEntity
  8
レイヤー_2
 62
     7
100
AcDbVertex
100
AcDb2dVertex
 10
143.674607
 20
94.885853
 30
0.0
  0
VERTEX
  5
58F
100
AcDbEntity
  8
レイヤー_2
 62
     7
100
AcDbVertex
100
AcDb2dVertex
 10
143.907151
 20
94.244721
 30
0.0
  0
VERTEX
  5
590
100
AcDbEntity
  8
レイヤー_2
 62
     7
100
AcDbVertex
100
AcDb2dVertex
 10
144.316428
 20
93.720033
 30
0.0
  0
VERTEX
  5
591
100
AcDbEntity
  8
レイヤー_2
 62
     7
100
AcDbVertex
100
AcDb2dVertex
 10
144.840427
 20
93.312478
 30
0.0
  0
VERTEX
  5
592
100
AcDbEntity
  8
レイヤー_2
 62
     7
100
AcDbVertex
100
AcDb2dVertex
 10
145.481559
 20
93.020679
 30
0.0
  0
VERTEX
  5
593
100
AcDbEntity
  8
レイヤー_2
 62
     7
100
AcDbVertex
100
AcDb2dVertex
 10
146.181258
 20
92.962112
 30
0.0
  0
VERTEX
  5
594
100
AcDbEntity
  8
レイヤー_2
 62
     7
100
AcDbVertex
100
AcDb2dVertex
 10
146.82239
 20
93.020679
 30
0.0
  0
VERTEX
  5
595
100
AcDbEntity
  8
レイヤー_2
 62
     7
100
AcDbVertex
100
AcDb2dVertex
 10
147.463523
 20
93.312478
 30
0.0
  0
VERTEX
  5
596
100
AcDbEntity
  8
レイヤー_2
 62
     7
100
AcDbVertex
100
AcDb2dVertex
 10
147.987522
 20
93.720033
 30
0.0
  0
VERTEX
  5
597
100
AcDbEntity
  8
レイヤー_2
 62
     7
100
AcDbVertex
100
AcDb2dVertex
 10
148.396799
 20
94.244721
 30
0.0
  0
VERTEX
  5
598
100
AcDbEntity
  8
レイヤー_2
 62
     7
100
AcDbVertex
100
AcDb2dVertex
 10
148.629343
 20
94.885853
 30
0.0
  0
VERTEX
  5
599
100
AcDbEntity
  8
レイヤー_2
 62
     7
100
AcDbVertex
100
AcDb2dVertex
 10
148.746132
 20
95.526986
 30
0.0
  0
SEQEND
  5
59A
100
AcDbEntity
  8
レイヤー_2
 62
     7
  0
POLYLINE
  5
565
100
AcDbEntity
  8
レイヤー_2
 62
     7
100
AcDb2dPolyline
 66
     1
 10
0.0
 20
0.0
 30
0.0
  0
VERTEX
  5
566
100
AcDbEntity
  8
レイヤー_2
 62
     7
100
AcDbVertex
100
AcDb2dVertex
 10
164.550852
 20
95.526986
 30
0.0
  0
VERTEX
  5
567
100
AcDbEntity
  8
レイヤー_2
 62
     7
100
AcDbVertex
100
AcDb2dVertex
 10
164.66833
 20
96.168462
 30
0.0
  0
VERTEX
  5
568
100
AcDbEntity
  8
レイヤー_2
 62
     7
100
AcDbVertex
100
AcDb2dVertex
 10
164.901218
 20
96.808906
 30
0.0
  0
VERTEX
  5
569
100
AcDbEntity
  8
レイヤー_2
 62
     7
100
AcDbVertex
100
AcDb2dVertex
 10
165.309117
 20
97.334283
 30
0.0
  0
VERTEX
  5
56A
100
AcDbEntity
  8
レイヤー_2
 62
     7
100
AcDbVertex
100
AcDb2dVertex
 10
165.83415
 20
97.741838
 30
0.0
  0
VERTEX
  5
56B
100
AcDbEntity
  8
レイヤー_2
 62
     7
100
AcDbVertex
100
AcDb2dVertex
 10
166.475282
 20
98.032948
 30
0.0
  0
VERTEX
  5
56C
100
AcDbEntity
  8
レイヤー_2
 62
     7
100
AcDbVertex
100
AcDb2dVertex
 10
167.174981
 20
98.092204
 30
0.0
  0
VERTEX
  5
56D
100
AcDbEntity
  8
レイヤー_2
 62
     7
100
AcDbVertex
100
AcDb2dVertex
 10
167.815424
 20
98.032948
 30
0.0
  0
VERTEX
  5
56E
100
AcDbEntity
  8
レイヤー_2
 62
     7
100
AcDbVertex
100
AcDb2dVertex
 10
168.456901
 20
97.741838
 30
0.0
  0
VERTEX
  5
56F
100
AcDbEntity
  8
レイヤー_2
 62
     7
100
AcDbVertex
100
AcDb2dVertex
 10
168.981245
 20
97.334283
 30
0.0
  0
VERTEX
  5
570
100
AcDbEntity
  8
レイヤー_2
 62
     7
100
AcDbVertex
100
AcDb2dVertex
 10
169.389144
 20
96.808906
 30
0.0
  0
VERTEX
  5
571
100
AcDbEntity
  8
レイヤー_2
 62
     7
100
AcDbVertex
100
AcDb2dVertex
 10
169.622721
 20
96.168462
 30
0.0
  0
VERTEX
  5
572
100
AcDbEntity
  8
レイヤー_2
 62
     7
100
AcDbVertex
100
AcDb2dVertex
 10
169.738477
 20
95.526986
 30
0.0
  0
VERTEX
  5
573
100
AcDbEntity
  8
レイヤー_2
 62
     7
100
AcDbVertex
100
AcDb2dVertex
 10
169.622721
 20
94.885853
 30
0.0
  0
VERTEX
  5
574
100
AcDbEntity
  8
レイヤー_2
 62
     7
100
AcDbVertex
100
AcDb2dVertex
 10
169.389144
 20
94.244721
 30
0.0
  0
VERTEX
  5
575
100
AcDbEntity
  8
レイヤー_2
 62
     7
100
AcDbVertex
100
AcDb2dVertex
 10
168.981245
 20
93.720033
 30
0.0
  0
VERTEX
  5
576
100
AcDbEntity
  8
レイヤー_2
 62
     7
100
AcDbVertex
100
AcDb2dVertex
 10
168.456901
 20
93.312478
 30
0.0
  0
VERTEX
  5
577
100
AcDbEntity
  8
レイヤー_2
 62
     7
100
AcDbVertex
100
AcDb2dVertex
 10
167.815424
 20
93.020679
 30
0.0
  0
VERTEX
  5
578
100
AcDbEntity
  8
レイヤー_2
 62
     7
100
AcDbVertex
100
AcDb2dVertex
 10
167.174981
 20
92.962112
 30
0.0
  0
VERTEX
  5
579
100
AcDbEntity
  8
レイヤー_2
 62
     7
100
AcDbVertex
100
AcDb2dVertex
 10
166.475282
 20
93.020679
 30
0.0
  0
VERTEX
  5
57A
100
AcDbEntity
  8
レイヤー_2
 62
     7
100
AcDbVertex
100
AcDb2dVertex
 10
165.83415
 20
93.312478
 30
0.0
  0
VERTEX
  5
57B
100
AcDbEntity
  8
レイヤー_2
 62
     7
100
AcDbVertex
100
AcDb2dVertex
 10
165.309117
 20
93.720033
 30
0.0
  0
VERTEX
  5
57C
100
AcDbEntity
  8
レイヤー_2
 62
     7
100
AcDbVertex
100
AcDb2dVertex
 10
164.901218
 20
94.244721
 30
0.0
  0
VERTEX
  5
57D
100
AcDbEntity
  8
レイヤー_2
 62
     7
100
AcDbVertex
100
AcDb2dVertex
 10
164.66833
 20
94.885853
 30
0.0
  0
VERTEX
  5
57E
100
AcDbEntity
  8
レイヤー_2
 62
     7
100
AcDbVertex
100
AcDb2dVertex
 10
164.550852
 20
95.526986
 30
0.0
  0
SEQEND
  5
57F
100
AcDbEntity
  8
レイヤー_2
 62
     7
  0
LINE
  5
564
100
AcDbEntity
  8
レイヤー_2
 62
     7
100
AcDbLine
 10
167.419927
 20
132.513875
 30
0.0
 11
167.419927
 21
133.155352
 31
0.0
  0
LINE
  5
563
100
AcDbEntity
  8
レイヤー_2
 62
     7
100
AcDbLine
 10
167.419927
 20
133.854706
 30
0.0
 11
167.419927
 21
137.293945
 31
0.0
  0
LINE
  5
562
100
AcDbEntity
  8
レイヤー_2
 62
     7
100
AcDbLine
 10
167.419927
 20
137.9933
 30
0.0
 11
167.419927
 21
138.69231
 31
0.0
  0
LINE
  5
561
100
AcDbEntity
  8
レイヤー_2
 62
     7
100
AcDbLine
 10
167.419927
 20
139.392697
 30
0.0
 11
167.419927
 21
142.830903
 31
0.0
  0
LINE
  5
560
100
AcDbEntity
  8
レイヤー_2
 62
     7
100
AcDbLine
 10
167.419927
 20
143.530257
 30
0.0
 11
167.419927
 21
144.172423
 31
0.0
  0
LINE
  5
55F
100
AcDbEntity
  8
レイヤー_2
 62
     7
100
AcDbLine
 10
167.419927
 20
144.871433
 30
0.0
 11
167.419927
 21
148.310155
 31
0.0
  0
LINE
  5
55E
100
AcDbEntity
  8
レイヤー_2
 62
     7
100
AcDbLine
 10
167.419927
 20
149.009165
 30
0.0
 11
167.419927
 21
149.708519
 31
0.0
  0
LINE
  5
55D
100
AcDbEntity
  8
レイヤー_2
 62
     7
100
AcDbLine
 10
167.419927
 20
150.407874
 30
0.0
 11
167.419927
 21
153.844356
 31
0.0
  0
LINE
  5
55C
100
AcDbEntity
  8
レイヤー_2
 62
     7
100
AcDbLine
 10
167.419927
 20
154.485316
 30
0.0
 11
167.419927
 21
155.183982
 31
0.0
  0
LINE
  5
55B
100
AcDbEntity
  8
レイヤー_2
 62
     7
100
AcDbLine
 10
167.419927
 20
155.884025
 30
0.0
 11
167.419927
 21
159.322403
 31
0.0
  0
LINE
  5
55A
100
AcDbEntity
  8
レイヤー_2
 62
     7
100
AcDbLine
 10
167.419927
 20
160.021929
 30
0.0
 11
167.419927
 21
160.721628
 31
0.0
  0
LINE
  5
559
100
AcDbEntity
  8
レイヤー_2
 62
     7
100
AcDbLine
 10
167.419927
 20
161.421155
 30
0.0
 11
167.419927
 21
164.860049
 31
0.0
  0
LINE
  5
558
100
AcDbEntity
  8
レイヤー_2
 62
     7
100
AcDbLine
 10
167.419927
 20
165.501354
 30
0.0
 11
167.419927
 21
166.20088
 31
0.0
  0
LINE
  5
557
100
AcDbEntity
  8
レイヤー_2
 62
     7
100
AcDbLine
 10
167.419927
 20
166.89989
 30
0.0
 11
167.419927
 21
170.338784
 31
0.0
  0
LINE
  5
556
100
AcDbEntity
  8
レイヤー_2
 62
     7
100
AcDbLine
 10
167.419927
 20
171.037622
 30
0.0
 11
167.419927
 21
171.73801
 31
0.0
  0
LINE
  5
555
100
AcDbEntity
  8
レイヤー_2
 62
     7
100
AcDbLine
 10
167.419927
 20
172.436848
 30
0.0
 11
167.419927
 21
175.875742
 31
0.0
  0
LINE
  5
554
100
AcDbEntity
  8
レイヤー_2
 62
     7
100
AcDbLine
 10
167.419927
 20
176.517735
 30
0.0
 11
167.419927
 21
177.216745
 31
0.0
  0
LINE
  5
553
100
AcDbEntity
  8
レイヤー_2
 62
     7
100
AcDbLine
 10
167.419927
 20
177.916272
 30
0.0
 11
167.419927
 21
178.440788
 31
0.0
  0
LINE
  5
552
100
AcDbEntity
  8
レイヤー_2
 62
     7
100
AcDbLine
 10
167.419927
 20
178.440788
 30
0.0
 11
167.419927
 21
177.741261
 31
0.0
  0
LINE
  5
551
100
AcDbEntity
  8
レイヤー_2
 62
     7
100
AcDbLine
 10
146.181258
 20
211.431022
 30
0.0
 11
146.181258
 21
207.992128
 31
0.0
  0
LINE
  5
550
100
AcDbEntity
  8
レイヤー_2
 62
     7
100
AcDbLine
 10
146.181258
 20
207.351168
 30
0.0
 11
146.181258
 21
206.651641
 31
0.0
  0
LINE
  5
54F
100
AcDbEntity
  8
レイヤー_2
 62
     7
100
AcDbLine
 10
146.181258
 20
205.952287
 30
0.0
 11
146.181258
 21
202.513392
 31
0.0
  0
LINE
  5
54E
100
AcDbEntity
  8
レイヤー_2
 62
     7
100
AcDbLine
 10
146.181258
 20
201.813866
 30
0.0
 11
146.181258
 21
201.114511
 31
0.0
  0
LINE
  5
54D
100
AcDbEntity
  8
レイヤー_2
 62
     7
100
AcDbLine
 10
146.181258
 20
200.414985
 30
0.0
 11
146.181258
 21
196.97609
 31
0.0
  0
LINE
  5
54C
100
AcDbEntity
  8
レイヤー_2
 62
     7
100
AcDbLine
 10
146.181258
 20
196.334441
 30
0.0
 11
146.181258
 21
195.635604
 31
0.0
  0
LINE
  5
54B
100
AcDbEntity
  8
レイヤー_2
 62
     7
100
AcDbLine
 10
146.181258
 20
194.935905
 30
0.0
 11
146.181258
 21
191.497011
 31
0.0
  0
LINE
  5
54A
100
AcDbEntity
  8
レイヤー_2
 62
     7
100
AcDbLine
 10
146.181258
 20
190.797312
 30
0.0
 11
146.181258
 21
190.097785
 31
0.0
  0
LINE
  5
549
100
AcDbEntity
  8
レイヤー_2
 62
     7
100
AcDbLine
 10
146.181258
 20
189.45717
 30
0.0
 11
146.181258
 21
185.960742
 31
0.0
  0
LINE
  5
548
100
AcDbEntity
  8
レイヤー_2
 62
     7
100
AcDbLine
 10
146.181258
 20
185.319438
 30
0.0
 11
146.181258
 21
184.61905
 31
0.0
  0
LINE
  5
547
100
AcDbEntity
  8
レイヤー_2
 62
     7
100
AcDbLine
 10
146.181258
 20
183.920212
 30
0.0
 11
146.181258
 21
180.480457
 31
0.0
  0
LINE
  5
546
100
AcDbEntity
  8
レイヤー_2
 62
     7
100
AcDbLine
 10
146.181258
 20
179.781619
 30
0.0
 11
146.181258
 21
179.082092
 31
0.0
  0
LINE
  5
545
100
AcDbEntity
  8
レイヤー_2
 62
     7
100
AcDbLine
 10
146.181258
 20
178.440788
 30
0.0
 11
146.181258
 21
174.943499
 31
0.0
  0
LINE
  5
544
100
AcDbEntity
  8
レイヤー_2
 62
     7
100
AcDbLine
 10
146.181258
 20
174.302195
 30
0.0
 11
146.181258
 21
173.602668
 31
0.0
  0
LINE
  5
543
100
AcDbEntity
  8
レイヤー_2
 62
     7
100
AcDbLine
 10
146.181258
 20
172.90383
 30
0.0
 11
146.181258
 21
169.464075
 31
0.0
  0
LINE
  5
542
100
AcDbEntity
  8
レイヤー_2
 62
     7
100
AcDbLine
 10
146.181258
 20
168.765237
 30
0.0
 11
146.181258
 21
168.066227
 31
0.0
  0
LINE
  5
541
100
AcDbEntity
  8
レイヤー_2
 62
     7
100
AcDbLine
 10
146.181258
 20
167.425095
 30
0.0
 11
146.181258
 21
163.927806
 31
0.0
  0
LINE
  5
540
100
AcDbEntity
  8
レイヤー_2
 62
     7
100
AcDbLine
 10
146.181258
 20
163.286502
 30
0.0
 11
146.181258
 21
162.586975
 31
0.0
  0
LINE
  5
53F
100
AcDbEntity
  8
レイヤー_2
 62
     7
100
AcDbLine
 10
146.181258
 20
161.887276
 30
0.0
 11
146.181258
 21
158.44821
 31
0.0
  0
LINE
  5
53E
100
AcDbEntity
  8
レイヤー_2
 62
     7
100
AcDbLine
 10
146.181258
 20
157.748511
 30
0.0
 11
146.181258
 21
157.049673
 31
0.0
  0
LINE
  5
53D
100
AcDbEntity
  8
レイヤー_2
 62
     7
100
AcDbLine
 10
146.181258
 20
156.40768
 30
0.0
 11
146.181258
 21
152.970163
 31
0.0
  0
LINE
  5
53C
100
AcDbEntity
  8
レイヤー_2
 62
     7
100
AcDbLine
 10
146.181258
 20
152.271498
 30
0.0
 11
146.181258
 21
151.571799
 31
0.0
  0
LINE
  5
53B
100
AcDbEntity
  8
レイヤー_2
 62
     7
100
AcDbLine
 10
146.181258
 20
150.873134
 30
0.0
 11
146.181258
 21
147.435617
 31
0.0
  0
LINE
  5
53A
100
AcDbEntity
  8
レイヤー_2
 62
     7
100
AcDbLine
 10
146.181258
 20
146.735919
 30
0.0
 11
146.181258
 21
146.03622
 31
0.0
  0
LINE
  5
539
100
AcDbEntity
  8
レイヤー_2
 62
     7
100
AcDbLine
 10
146.181258
 20
145.395776
 30
0.0
 11
146.181258
 21
141.956882
 31
0.0
  0
LINE
  5
538
100
AcDbEntity
  8
レイヤー_2
 62
     7
100
AcDbLine
 10
146.181258
 20
141.257183
 30
0.0
 11
146.181258
 21
140.558518
 31
0.0
  0
LINE
  5
537
100
AcDbEntity
  8
レイヤー_2
 62
     7
100
AcDbLine
 10
146.181258
 20
139.85813
 30
0.0
 11
146.181258
 21
136.419925
 31
0.0
  0
LINE
  5
536
100
AcDbEntity
  8
レイヤー_2
 62
     7
100
AcDbLine
 10
146.181258
 20
135.719537
 30
0.0
 11
146.181258
 21
135.020527
 31
0.0
  0
LINE
  5
535
100
AcDbEntity
  8
レイヤー_2
 62
     7
100
AcDbLine
 10
146.181258
 20
134.379395
 30
0.0
 11
146.181258
 21
130.9405
 31
0.0
  0
LINE
  5
534
100
AcDbEntity
  8
レイヤー_2
 62
     7
100
AcDbLine
 10
146.181258
 20
130.240801
 30
0.0
 11
146.181258
 21
129.541791
 31
0.0
  0
LINE
  5
533
100
AcDbEntity
  8
レイヤー_2
 62
     7
100
AcDbLine
 10
146.181258
 20
128.841748
 30
0.0
 11
146.181258
 21
125.403543
 31
0.0
  0
LINE
  5
532
100
AcDbEntity
  8
レイヤー_2
 62
     7
100
AcDbLine
 10
146.181258
 20
124.704533
 30
0.0
 11
146.181258
 21
124.004145
 31
0.0
  0
LINE
  5
531
100
AcDbEntity
  8
レイヤー_2
 62
     7
100
AcDbLine
 10
146.181258
 20
99.606668
 30
0.0
 11
146.181258
 21
98.907658
 31
0.0
  0
LINE
  5
530
100
AcDbEntity
  8
レイヤー_2
 62
     7
100
AcDbLine
 10
146.181258
 20
98.207959
 30
0.0
 11
146.181258
 21
94.769065
 31
0.0
  0
LINE
  5
52F
100
AcDbEntity
  8
レイヤー_2
 62
     7
100
AcDbLine
 10
146.181258
 20
94.06971
 30
0.0
 11
146.181258
 21
93.370011
 31
0.0
  0
LINE
  5
52E
100
AcDbEntity
  8
レイヤー_2
 62
     7
100
AcDbLine
 10
146.181258
 20
92.728879
 30
0.0
 11
146.181258
 21
91.388737
 31
0.0
  0
LINE
  5
52D
100
AcDbEntity
  8
レイヤー_2
 62
     7
100
AcDbLine
 10
146.181258
 20
91.388737
 30
0.0
 11
146.181258
 21
92.088091
 31
0.0
  0
LINE
  5
52C
100
AcDbEntity
  8
レイヤー_2
 62
     7
100
AcDbLine
 10
81.836865
 20
129.317171
 30
0.0
 11
81.836865
 21
132.755377
 31
0.0
  0
LINE
  5
52B
100
AcDbEntity
  8
レイヤー_2
 62
     7
100
AcDbLine
 10
81.836865
 20
133.455075
 30
0.0
 11
81.836865
 21
134.15443
 31
0.0
  0
LINE
  5
52A
100
AcDbEntity
  8
レイヤー_2
 62
     7
100
AcDbLine
 10
81.836865
 20
134.854129
 30
0.0
 11
81.836865
 21
138.293023
 31
0.0
  0
LINE
  5
529
100
AcDbEntity
  8
レイヤー_2
 62
     7
100
AcDbLine
 10
81.836865
 20
138.992033
 30
0.0
 11
81.836865
 21
139.692421
 31
0.0
  0
LINE
  5
528
100
AcDbEntity
  8
レイヤー_2
 62
     7
100
AcDbLine
 10
81.836865
 20
140.333553
 30
0.0
 11
81.836865
 21
143.771758
 31
0.0
  0
LINE
  5
527
100
AcDbEntity
  8
レイヤー_2
 62
     7
100
AcDbLine
 10
81.836865
 20
144.472146
 30
0.0
 11
81.836865
 21
145.171156
 31
0.0
  0
LINE
  5
526
100
AcDbEntity
  8
レイヤー_2
 62
     7
100
AcDbLine
 10
81.836865
 20
145.869822
 30
0.0
 11
81.836865
 21
149.308716
 31
0.0
  0
LINE
  5
525
100
AcDbEntity
  8
レイヤー_2
 62
     7
100
AcDbLine
 10
81.836865
 20
150.00807
 30
0.0
 11
81.836865
 21
150.648169
 31
0.0
  0
LINE
  5
524
100
AcDbEntity
  8
レイヤー_2
 62
     7
100
AcDbLine
 10
81.836865
 20
151.347523
 30
0.0
 11
81.836865
 21
154.784867
 31
0.0
  0
LINE
  5
523
100
AcDbEntity
  8
レイヤー_2
 62
     7
100
AcDbLine
 10
81.836865
 20
155.483533
 30
0.0
 11
81.836865
 21
156.183576
 31
0.0
  0
LINE
  5
522
100
AcDbEntity
  8
レイヤー_2
 62
     7
100
AcDbLine
 10
81.836865
 20
156.882586
 30
0.0
 11
81.836865
 21
160.322342
 31
0.0
  0
LINE
  5
521
100
AcDbEntity
  8
レイヤー_2
 62
     7
100
AcDbLine
 10
81.836865
 20
161.021351
 30
0.0
 11
81.836865
 21
161.662484
 31
0.0
  0
LINE
  5
520
100
AcDbEntity
  8
レイヤー_2
 62
     7
100
AcDbLine
 10
81.836865
 20
162.361321
 30
0.0
 11
81.836865
 21
165.801077
 31
0.0
  0
LINE
  5
51F
100
AcDbEntity
  8
レイヤー_2
 62
     7
100
AcDbLine
 10
81.836865
 20
166.499915
 30
0.0
 11
81.836865
 21
167.199613
 31
0.0
  0
LINE
  5
51E
100
AcDbEntity
  8
レイヤー_2
 62
     7
100
AcDbLine
 10
81.836865
 20
167.89914
 30
0.0
 11
81.836865
 21
171.337345
 31
0.0
  0
LINE
  5
51D
100
AcDbEntity
  8
レイヤー_2
 62
     7
100
AcDbLine
 10
81.836865
 20
172.037733
 30
0.0
 11
81.836865
 21
172.678866
 31
0.0
  0
LINE
  5
51C
100
AcDbEntity
  8
レイヤー_2
 62
     7
100
AcDbLine
 10
81.836865
 20
173.377875
 30
0.0
 11
81.836865
 21
176.817459
 31
0.0
  0
LINE
  5
51B
100
AcDbEntity
  8
レイヤー_2
 62
     7
100
AcDbLine
 10
81.836865
 20
177.516469
 30
0.0
 11
81.836865
 21
178.215995
 31
0.0
  0
LINE
  5
51A
100
AcDbEntity
  8
レイヤー_2
 62
     7
100
AcDbLine
 10
81.836865
 20
178.915522
 30
0.0
 11
81.836865
 21
182.354588
 31
0.0
  0
LINE
  5
519
100
AcDbEntity
  8
レイヤー_2
 62
     7
100
AcDbLine
 10
81.836865
 20
183.054115
 30
0.0
 11
81.836865
 21
183.69542
 31
0.0
  0
LINE
  5
518
100
AcDbEntity
  8
レイヤー_2
 62
     7
100
AcDbLine
 10
81.836865
 20
184.394946
 30
0.0
 11
81.836865
 21
187.834013
 31
0.0
  0
LINE
  5
517
100
AcDbEntity
  8
レイヤー_2
 62
     7
100
AcDbLine
 10
81.836865
 20
188.53285
 30
0.0
 11
81.836865
 21
189.231688
 31
0.0
  0
LINE
  5
516
100
AcDbEntity
  8
レイヤー_2
 62
     7
100
AcDbLine
 10
81.836865
 20
189.932076
 30
0.0
 11
81.836865
 21
193.37097
 31
0.0
  0
LINE
  5
515
100
AcDbEntity
  8
レイヤー_2
 62
     7
100
AcDbLine
 10
81.836865
 20
194.070497
 30
0.0
 11
81.836865
 21
194.711112
 31
0.0
  0
LINE
  5
514
100
AcDbEntity
  8
レイヤー_2
 62
     7
100
AcDbLine
 10
81.836865
 20
195.410639
 30
0.0
 11
81.836865
 21
198.849706
 31
0.0
  0
LINE
  5
513
100
AcDbEntity
  8
レイヤー_2
 62
     7
100
AcDbLine
 10
81.836865
 20
199.549232
 30
0.0
 11
81.836865
 21
200.248587
 31
0.0
  0
LINE
  5
512
100
AcDbEntity
  8
レイヤー_2
 62
     7
100
AcDbLine
 10
81.836865
 20
200.773102
 30
0.0
 11
81.836865
 21
200.073404
 31
0.0
  0
LINE
  5
511
100
AcDbEntity
  8
レイヤー_2
 62
     7
100
AcDbLine
 10
47.3897
 20
193.895486
 30
0.0
 11
47.3897
 21
197.334036
 31
0.0
  0
LINE
  5
510
100
AcDbEntity
  8
レイヤー_2
 62
     7
100
AcDbLine
 10
47.3897
 20
198.03339
 30
0.0
 11
47.3897
 21
198.733261
 31
0.0
  0
LINE
  5
50F
100
AcDbEntity
  8
レイヤー_2
 62
     7
100
AcDbLine
 10
47.3897
 20
199.024372
 30
0.0
 11
47.3897
 21
198.32519
 31
0.0
  0
LINE
  5
50E
100
AcDbEntity
  8
レイヤー_2
  6
AI9-LType1
 62
     7
100
AcDbLine
 10
142.01097
 20
95.526986
 30
0.0
 11
150.597182
 21
95.526986
 31
0.0
  0
LINE
  5
50D
100
AcDbEntity
  8
レイヤー_2
 62
     7
100
AcDbLine
 10
71.053889
 20
163.760547
 30
0.0
 11
29.261952
 21
163.760547
 31
0.0
  0
LINE
  5
50C
100
AcDbEntity
  8
レイヤー_2
 62
     7
100
AcDbLine
 10
182.633469
 20
177.682867
 30
0.0
 11
171.67462
 21
177.682867
 31
0.0
  0
LINE
  5
50B
100
AcDbEntity
  8
レイヤー_2
 62
     7
100
AcDbLine
 10
181.75807
 20
177.624472
 30
0.0
 11
180.942272
 21
176.866551
 31
0.0
  0
LINE
  5
50A
100
AcDbEntity
  8
レイヤー_2
 62
     7
100
AcDbLine
 10
182.633469
 20
178.32486
 30
0.0
 11
181.75807
 21
177.624472
 31
0.0
  0
LINE
  5
509
100
AcDbEntity
  8
レイヤー_2
 62
     7
100
AcDbLine
 10
81.079633
 20
186.20121
 30
0.0
 11
81.836865
 21
185.326672
 31
0.0
  0
LINE
  5
508
100
AcDbEntity
  8
レイヤー_2
 62
     7
100
AcDbLine
 10
66.857762
 20
185.268967
 30
0.0
 11
67.557289
 21
184.451963
 31
0.0
  0
LINE
  5
507
100
AcDbEntity
  8
レイヤー_2
 62
     7
100
AcDbLine
 10
82.594786
 20
185.268967
 30
0.0
 11
65.691942
 21
185.268967
 31
0.0
  0
LINE
  5
506
100
AcDbEntity
  8
レイヤー_2
 62
     7
100
AcDbLine
 10
181.000838
 20
162.061598
 30
0.0
 11
182.807791
 21
164.102128
 31
0.0
  0
LINE
  5
505
100
AcDbEntity
  8
レイヤー_2
 62
     7
100
AcDbLine
 10
151.019206
 20
170.905158
 30
0.0
 11
151.019206
 21
165.384565
 31
0.0
  0
LINE
  5
504
100
AcDbEntity
  8
レイヤー_2
 62
     7
100
AcDbLine
 10
141.517977
 20
170.030448
 30
0.0
 11
140.760056
 21
169.214822
 31
0.0
  0
LINE
  5
503
100
AcDbEntity
  8
レイヤー_2
 62
     7
100
AcDbLine
 10
142.275898
 20
170.905158
 30
0.0
 11
141.517977
 21
170.030448
 31
0.0
  0
LINE
  5
502
100
AcDbEntity
  8
レイヤー_2
 62
     7
100
AcDbLine
 10
151.019206
 20
170.030448
 30
0.0
 11
150.260596
 21
169.155739
 31
0.0
  0
LINE
  5
501
100
AcDbEntity
  8
レイヤー_2
 62
     7
100
AcDbLine
 10
151.777127
 20
170.846075
 30
0.0
 11
151.019206
 21
170.030448
 31
0.0
  0
LINE
  5
500
100
AcDbEntity
  8
レイヤー_2
 62
     7
100
AcDbLine
 10
141.517977
 20
170.905158
 30
0.0
 11
141.517977
 21
165.618142
 31
0.0
  0
LINE
  5
4FF
100
AcDbEntity
  8
レイヤー_2
 62
     7
100
AcDbLine
 10
47.3897
 20
219.944542
 30
0.0
 11
47.3897
 21
207.068498
 31
0.0
  0
LINE
  5
4FE
100
AcDbEntity
  8
レイヤー_2
 62
     7
100
AcDbLine
 10
81.895949
 20
219.012127
 30
0.0
 11
82.653181
 21
218.196156
 31
0.0
  0
LINE
  5
4FD
100
AcDbEntity
  8
レイヤー_2
 62
     7
100
AcDbLine
 10
81.138717
 20
219.886148
 30
0.0
 11
81.895949
 21
219.012127
 31
0.0
  0
LINE
  5
4FC
100
AcDbEntity
  8
レイヤー_2
 62
     7
100
AcDbLine
 10
47.3897
 20
219.012127
 30
0.0
 11
48.147793
 21
218.137417
 31
0.0
  0
LINE
  5
4FB
100
AcDbEntity
  8
レイヤー_2
 62
     7
100
AcDbLine
 10
46.631779
 20
219.827753
 30
0.0
 11
47.3897
 21
219.012127
 31
0.0
  0
LINE
  5
4FA
100
AcDbEntity
  8
レイヤー_2
 62
     7
100
AcDbLine
 10
81.895949
 20
219.944542
 30
0.0
 11
81.895949
 21
207.18477
 31
0.0
  0
LINE
  5
4F9
100
AcDbEntity
  8
レイヤー_2
 62
     7
100
AcDbLine
 10
82.711575
 20
219.012127
 30
0.0
 11
46.398374
 21
219.012127
 31
0.0
  0
LINE
  5
4F8
100
AcDbEntity
  8
レイヤー_2
 62
     7
100
AcDbLine
 10
30.370067
 20
210.973513
 30
0.0
 11
31.244777
 21
211.672351
 31
0.0
  0
LINE
  5
4F7
100
AcDbEntity
  8
レイヤー_2
 62
     7
100
AcDbLine
 10
29.553752
 20
210.215592
 30
0.0
 11
30.370067
 21
210.973513
 31
0.0
  0
LINE
  5
4F6
100
AcDbEntity
  8
レイヤー_2
 62
     7
100
AcDbLine
 10
30.312534
 20
163.818941
 30
0.0
 11
31.185693
 21
164.576173
 31
0.0
  0
LINE
  5
4F5
100
AcDbEntity
  8
レイヤー_2
 62
     7
100
AcDbLine
 10
29.49553
 20
163.06102
 30
0.0
 11
30.312534
 21
163.818941
 31
0.0
  0
LINE
  5
4F4
100
AcDbEntity
  8
レイヤー_2
 62
     7
100
AcDbLine
 10
38.471381
 20
194.652718
 30
0.0
 11
45.232553
 21
194.652718
 31
0.0
  0
LINE
  5
4F3
100
AcDbEntity
  8
レイヤー_2
 62
     7
100
AcDbLine
 10
39.346091
 20
195.353106
 30
0.0
 11
39.346091
 21
163.002626
 31
0.0
  0
LINE
  5
4F2
100
AcDbEntity
  8
レイヤー_2
 62
     7
100
AcDbLine
 10
52.927519
 20
210.973513
 30
0.0
 11
29.261952
 21
210.973513
 31
0.0
  0
LINE
  5
4F1
100
AcDbEntity
  8
レイヤー_2
 62
     7
100
AcDbLine
 10
30.312534
 20
211.906273
 30
0.0
 11
30.312534
 21
163.002626
 31
0.0
  0
LINE
  5
4F0
100
AcDbEntity
  8
レイヤー_2
 62
     7
100
AcDbLine
 10
39.287697
 20
194.536791
 30
0.0
 11
40.104012
 21
195.294023
 31
0.0
  0
LINE
  5
4EF
100
AcDbEntity
  8
レイヤー_2
 62
     7
100
AcDbLine
 10
38.413848
 20
193.779559
 30
0.0
 11
39.287697
 21
194.536791
 31
0.0
  0
LINE
  5
4EE
100
AcDbEntity
  8
レイヤー_2
 62
     7
100
AcDbLine
 10
182.923546
 20
163.053097
 30
0.0
 11
176.746145
 21
163.053097
 31
0.0
  0
LINE
  5
4ED
100
AcDbEntity
  8
レイヤー_2
 62
     7
100
AcDbLine
 10
140.702523
 20
170.030448
 30
0.0
 11
162.862755
 21
170.030448
 31
0.0
  0
LINE
  5
4EC
100
AcDbEntity
  8
レイヤー_2
 62
     7
100
AcDbLine
 10
66.099669
 20
186.142988
 30
0.0
 11
66.857762
 21
185.268967
 31
0.0
  0
LINE
  5
4EB
100
AcDbEntity
  8
レイヤー_2
 62
     7
100
AcDbLine
 10
81.836865
 20
185.326672
 30
0.0
 11
82.594786
 21
184.511046
 31
0.0
  0
LINE
  5
4EA
100
AcDbEntity
  8
レイヤー_2
 62
     7
100
AcDbLine
 10
66.740974
 20
177.86649
 30
0.0
 11
66.740974
 21
186.258915
 31
0.0
  0
LINE
  5
4E9
100
AcDbEntity
  8
レイヤー_2
 62
     7
100
AcDbLine
 10
170.042678
 20
141.140394
 30
0.0
 11
170.742377
 21
140.265685
 31
0.0
  0
LINE
  5
4E8
100
AcDbEntity
  8
レイヤー_2
 62
     7
100
AcDbLine
 10
164.796832
 20
141.140394
 30
0.0
 11
165.554753
 21
140.32494
 31
0.0
  0
LINE
  5
4E7
100
AcDbEntity
  8
レイヤー_2
 62
     7
100
AcDbLine
 10
164.0396
 20
142.015104
 30
0.0
 11
164.796832
 21
141.140394
 31
0.0
  0
LINE
  5
4E6
100
AcDbEntity
  8
レイヤー_2
 62
     7
100
AcDbLine
 10
196.071753
 20
141.140394
 30
0.0
 11
163.165579
 21
141.140394
 31
0.0
  0
LINE
  5
4E5
100
AcDbEntity
  8
レイヤー_2
 62
     7
100
AcDbLine
 10
169.284757
 20
141.956882
 30
0.0
 11
170.042678
 21
141.140394
 31
0.0
  0
LINE
  5
4E4
100
AcDbEntity
  8
レイヤー_2
 62
     7
100
AcDbLine
 10
169.926579
 20
152.097176
 30
0.0
 11
169.926579
 21
140.091363
 31
0.0
  0
LINE
  5
4E3
100
AcDbEntity
  8
レイヤー_2
 62
     7
100
AcDbLine
 10
164.855054
 20
152.155054
 30
0.0
 11
164.855054
 21
140.208152
 31
0.0
  0
LINE
  5
4E2
100
AcDbEntity
  8
レイヤー_2
 62
     7
100
AcDbLine
 10
181.874859
 20
162.053674
 30
0.0
 11
181.874859
 21
178.790293
 31
0.0
  0
LINE
  5
4E1
100
AcDbEntity
  8
レイヤー_2
 62
     7
100
AcDbLine
 10
39.346091
 20
163.818941
 30
0.0
 11
40.161717
 21
164.51864
 31
0.0
  0
LINE
  5
4E0
100
AcDbEntity
  8
レイヤー_2
 62
     7
100
AcDbLine
 10
38.471381
 20
163.06102
 30
0.0
 11
39.346091
 21
163.818941
 31
0.0
  0
LINE
  5
4DF
100
AcDbEntity
  8
レイヤー_2
 62
     7
100
AcDbLine
 10
39.346091
 20
163.818941
 30
0.0
 11
40.161717
 21
164.51864
 31
0.0
  0
POLYLINE
  5
4DA
100
AcDbEntity
  8
レイヤー_2
 62
     7
100
AcDb2dPolyline
 66
     1
 10
0.0
 20
0.0
 30
0.0
  0
VERTEX
  5
4DB
100
AcDbEntity
  8
レイヤー_2
 62
     7
100
AcDbVertex
100
AcDb2dVertex
 10
148.803665
 20
98.207959
 30
0.0
  0
VERTEX
  5
4DC
100
AcDbEntity
  8
レイヤー_2
 62
     7
100
AcDbVertex
100
AcDb2dVertex
 10
140.702523
 20
90.106128
 30
0.0
  0
VERTEX
  5
4DD
100
AcDbEntity
  8
レイヤー_2
 62
     7
100
AcDbVertex
100
AcDb2dVertex
 10
130.358279
 20
90.106128
 30
0.0
  0
SEQEND
  5
4DE
100
AcDbEntity
  8
レイヤー_2
 62
     7
  0
LINE
  5
4D9
100
AcDbEntity
  8
レイヤー_2
 62
     7
100
AcDbLine
 10
182.93457
 20
90.106128
 30
0.0
 11
173.317242
 21
90.106128
 31
0.0
  0
LINE
  5
4D8
100
AcDbEntity
  8
レイヤー_2
 62
     7
100
AcDbLine
 10
147.004636
 20
97.391816
 30
0.0
 11
149.219488
 21
97.391816
 31
0.0
  0
LINE
  5
4D7
100
AcDbEntity
  8
レイヤー_2
 62
     7
100
AcDbLine
 10
143.317695
 20
93.720033
 30
0.0
 11
145.532547
 21
93.720033
 31
0.0
  0
LINE
  5
4D6
100
AcDbEntity
  8
レイヤー_2
 62
     7
100
AcDbLine
 10
172.478706
 20
90.106128
 30
0.0
 11
164.435786
 21
98.207959
 31
0.0
  0
LINE
  5
4D5
100
AcDbEntity
  8
レイヤー_2
 62
     7
100
AcDbLine
 10
172.478706
 20
90.106128
 30
0.0
 11
182.096723
 21
90.106128
 31
0.0
  0
LINE
  5
4D4
100
AcDbEntity
  8
レイヤー_2
 62
     7
100
AcDbLine
 10
166.466669
 20
97.391816
 30
0.0
 11
164.251817
 21
97.391816
 31
0.0
  0
LINE
  5
4D3
100
AcDbEntity
  8
レイヤー_2
 62
     7
100
AcDbLine
 10
169.967575
 20
93.720033
 30
0.0
 11
167.694501
 21
93.720033
 31
0.0
  0
LINE
  5
4D2
100
AcDbEntity
  8
レイヤー_2
 62
     7
100
AcDbLine
 10
106.196446
 20
163.053097
 30
0.0
 11
173.43403
 21
163.053097
 31
0.0
  0
LINE
  5
4D1
100
AcDbEntity
  8
レイヤー_2
 62
     7
100
AcDbLine
 10
91.2797
 20
163.760547
 30
0.0
 11
71.928598
 21
163.760547
 31
0.0
  0
LINE
  5
4D0
100
AcDbEntity
  8
レイヤー_2
 62
     7
100
AcDbLine
 10
123.246913
 20
149.579673
 30
0.0
 11
123.246913
 21
149.327664
 31
0.0
  0
LINE
  5
4CF
100
AcDbEntity
  8
レイヤー_2
 62
     7
100
AcDbLine
 10
125.165487
 20
149.588285
 30
0.0
 11
123.110832
 21
149.308716
 31
0.0
  0
LINE
  5
4CE
100
AcDbEntity
  8
レイヤー_2
 62
     7
100
AcDbLine
 10
125.067646
 20
149.826686
 30
0.0
 11
125.067646
 21
149.57261
 31
0.0
  0
LINE
  5
4CD
100
AcDbEntity
  8
レイヤー_2
 62
     7
100
AcDbLine
 10
123.110832
 20
149.308716
 30
0.0
 11
123.110832
 21
148.823646
 31
0.0
  0
LINE
  5
4CC
100
AcDbEntity
  8
レイヤー_2
 62
     7
100
AcDbLine
 10
125.165487
 20
149.101493
 30
0.0
 11
125.165487
 21
149.588285
 31
0.0
  0
LINE
  5
4CB
100
AcDbEntity
  8
レイヤー_2
 62
     7
100
AcDbLine
 10
125.165487
 20
149.101493
 30
0.0
 11
123.110832
 21
148.823646
 31
0.0
  0
LINE
  5
4CA
100
AcDbEntity
  8
レイヤー_2
 62
     7
100
AcDbLine
 10
123.246913
 20
148.836738
 30
0.0
 11
123.246913
 21
148.585246
 31
0.0
  0
LINE
  5
4C9
100
AcDbEntity
  8
レイヤー_2
 62
     7
100
AcDbLine
 10
125.165487
 20
148.846039
 30
0.0
 11
123.110832
 21
148.565609
 31
0.0
  0
LINE
  5
4C8
100
AcDbEntity
  8
レイヤー_2
 62
     7
100
AcDbLine
 10
125.067646
 20
149.084268
 30
0.0
 11
125.067646
 21
148.830192
 31
0.0
  0
LINE
  5
4C7
100
AcDbEntity
  8
レイヤー_2
 62
     7
100
AcDbLine
 10
123.110832
 20
148.565609
 30
0.0
 11
123.110832
 21
148.081228
 31
0.0
  0
LINE
  5
4C6
100
AcDbEntity
  8
レイヤー_2
 62
     7
100
AcDbLine
 10
125.165487
 20
148.359764
 30
0.0
 11
125.165487
 21
148.846039
 31
0.0
  0
LINE
  5
4C5
100
AcDbEntity
  8
レイヤー_2
 62
     7
100
AcDbLine
 10
125.165487
 20
148.359764
 30
0.0
 11
123.110832
 21
148.081228
 31
0.0
  0
LINE
  5
4C4
100
AcDbEntity
  8
レイヤー_2
 62
     7
100
AcDbLine
 10
123.246913
 20
148.094664
 30
0.0
 11
123.246913
 21
147.842483
 31
0.0
  0
LINE
  5
4C3
100
AcDbEntity
  8
レイヤー_2
 62
     7
100
AcDbLine
 10
125.165487
 20
148.103277
 30
0.0
 11
123.110832
 21
147.82388
 31
0.0
  0
LINE
  5
4C2
100
AcDbEntity
  8
レイヤー_2
 62
     7
100
AcDbLine
 10
125.067646
 20
148.342539
 30
0.0
 11
125.067646
 21
148.087429
 31
0.0
  0
LINE
  5
4C1
100
AcDbEntity
  8
レイヤー_2
 62
     7
100
AcDbLine
 10
123.110832
 20
147.82388
 30
0.0
 11
123.110832
 21
147.338121
 31
0.0
  0
LINE
  5
4C0
100
AcDbEntity
  8
レイヤー_2
 62
     7
100
AcDbLine
 10
125.165487
 20
147.617863
 30
0.0
 11
125.165487
 21
148.103277
 31
0.0
  0
LINE
  5
4BF
100
AcDbEntity
  8
レイヤー_2
 62
     7
100
AcDbLine
 10
125.165487
 20
147.617863
 30
0.0
 11
123.110832
 21
147.337432
 31
0.0
  0
LINE
  5
4BE
100
AcDbEntity
  8
レイヤー_2
 62
     7
100
AcDbLine
 10
123.246913
 20
147.352591
 30
0.0
 11
123.246913
 21
147.10041
 31
0.0
  0
LINE
  5
4BD
100
AcDbEntity
  8
レイヤー_2
 62
     7
100
AcDbLine
 10
125.165487
 20
147.361203
 30
0.0
 11
123.110832
 21
147.081806
 31
0.0
  0
LINE
  5
4BC
100
AcDbEntity
  8
レイヤー_2
 62
     7
100
AcDbLine
 10
125.067646
 20
147.599948
 30
0.0
 11
125.067646
 21
147.345356
 31
0.0
  0
LINE
  5
4BB
100
AcDbEntity
  8
レイヤー_2
 62
     7
100
AcDbLine
 10
123.110832
 20
147.081806
 30
0.0
 11
123.110832
 21
146.59467
 31
0.0
  0
LINE
  5
4BA
100
AcDbEntity
  8
レイヤー_2
 62
     7
100
AcDbLine
 10
125.165487
 20
146.874411
 30
0.0
 11
125.165487
 21
147.361203
 31
0.0
  0
LINE
  5
4B9
100
AcDbEntity
  8
レイヤー_2
 62
     7
100
AcDbLine
 10
125.165487
 20
146.874411
 30
0.0
 11
123.110832
 21
146.59467
 31
0.0
  0
LINE
  5
4B8
100
AcDbEntity
  8
レイヤー_2
 62
     7
100
AcDbLine
 10
123.246913
 20
154.02798
 30
0.0
 11
123.246913
 21
153.775282
 31
0.0
  0
LINE
  5
4B7
100
AcDbEntity
  8
レイヤー_2
 62
     7
100
AcDbLine
 10
125.207517
 20
154.293769
 30
0.0
 11
123.116344
 21
154.010065
 31
0.0
  0
LINE
  5
4B6
100
AcDbEntity
  8
レイヤー_2
 62
     7
100
AcDbLine
 10
125.165487
 20
154.034526
 30
0.0
 11
123.110832
 21
153.75599
 31
0.0
  0
LINE
  5
4B5
100
AcDbEntity
  8
レイヤー_2
 62
     7
100
AcDbLine
 10
125.165487
 20
153.581668
 30
0.0
 11
125.165487
 21
154.034526
 31
0.0
  0
LINE
  5
4B4
100
AcDbEntity
  8
レイヤー_2
 62
     7
100
AcDbLine
 10
125.067646
 20
154.274476
 30
0.0
 11
125.067646
 21
154.020056
 31
0.0
  0
LINE
  5
4B3
100
AcDbEntity
  8
レイヤー_2
 62
     7
100
AcDbLine
 10
123.110832
 20
153.75599
 30
0.0
 11
123.110832
 21
153.269714
 31
0.0
  0
LINE
  5
4B2
100
AcDbEntity
  8
レイヤー_2
 62
     7
100
AcDbLine
 10
125.165487
 20
153.548939
 30
0.0
 11
125.165487
 21
154.034526
 31
0.0
  0
LINE
  5
4B1
100
AcDbEntity
  8
レイヤー_2
 62
     7
100
AcDbLine
 10
125.165487
 20
153.548939
 30
0.0
 11
123.110832
 21
153.269714
 31
0.0
  0
LINE
  5
4B0
100
AcDbEntity
  8
レイヤー_2
 62
     7
100
AcDbLine
 10
123.246913
 20
153.291418
 30
0.0
 11
123.246913
 21
153.03941
 31
0.0
  0
LINE
  5
4AF
100
AcDbEntity
  8
レイヤー_2
 62
     7
100
AcDbLine
 10
125.165487
 20
153.300031
 30
0.0
 11
123.110832
 21
153.020462
 31
0.0
  0
LINE
  5
4AE
100
AcDbEntity
  8
レイヤー_2
 62
     7
100
AcDbLine
 10
125.067646
 20
153.53826
 30
0.0
 11
125.067646
 21
153.284184
 31
0.0
  0
LINE
  5
4AD
100
AcDbEntity
  8
レイヤー_2
 62
     7
100
AcDbLine
 10
123.110832
 20
153.020462
 30
0.0
 11
123.110832
 21
152.533842
 31
0.0
  0
LINE
  5
4AC
100
AcDbEntity
  8
レイヤー_2
 62
     7
100
AcDbLine
 10
125.165487
 20
152.813067
 30
0.0
 11
125.165487
 21
153.300031
 31
0.0
  0
LINE
  5
4AB
100
AcDbEntity
  8
レイヤー_2
 62
     7
100
AcDbLine
 10
125.165487
 20
152.813067
 30
0.0
 11
123.110832
 21
152.533842
 31
0.0
  0
LINE
  5
4AA
100
AcDbEntity
  8
レイヤー_2
 62
     7
100
AcDbLine
 10
123.246913
 20
153.291418
 30
0.0
 11
123.246913
 21
153.03941
 31
0.0
  0
LINE
  5
4A9
100
AcDbEntity
  8
レイヤー_2
 62
     7
100
AcDbLine
 10
125.165487
 20
153.300031
 30
0.0
 11
123.110832
 21
153.020462
 31
0.0
  0
LINE
  5
4A8
100
AcDbEntity
  8
レイヤー_2
 62
     7
100
AcDbLine
 10
125.067646
 20
153.53826
 30
0.0
 11
125.067646
 21
153.284184
 31
0.0
  0
LINE
  5
4A7
100
AcDbEntity
  8
レイヤー_2
 62
     7
100
AcDbLine
 10
123.110832
 20
153.020462
 30
0.0
 11
123.110832
 21
152.533842
 31
0.0
  0
LINE
  5
4A6
100
AcDbEntity
  8
レイヤー_2
 62
     7
100
AcDbLine
 10
125.165487
 20
152.813067
 30
0.0
 11
125.165487
 21
153.300031
 31
0.0
  0
LINE
  5
4A5
100
AcDbEntity
  8
レイヤー_2
 62
     7
100
AcDbLine
 10
125.165487
 20
152.813067
 30
0.0
 11
123.110832
 21
152.533842
 31
0.0
  0
LINE
  5
4A4
100
AcDbEntity
  8
レイヤー_2
 62
     7
100
AcDbLine
 10
123.246913
 20
152.549
 30
0.0
 11
123.246913
 21
152.295958
 31
0.0
  0
LINE
  5
4A3
100
AcDbEntity
  8
レイヤー_2
 62
     7
100
AcDbLine
 10
125.165487
 20
152.556924
 30
0.0
 11
123.110832
 21
152.278044
 31
0.0
  0
LINE
  5
4A2
100
AcDbEntity
  8
レイヤー_2
 62
     7
100
AcDbLine
 10
125.067646
 20
152.795841
 30
0.0
 11
125.067646
 21
152.541766
 31
0.0
  0
LINE
  5
4A1
100
AcDbEntity
  8
レイヤー_2
 62
     7
100
AcDbLine
 10
123.110832
 20
152.278044
 30
0.0
 11
123.110832
 21
151.791768
 31
0.0
  0
LINE
  5
4A0
100
AcDbEntity
  8
レイヤー_2
 62
     7
100
AcDbLine
 10
125.165487
 20
152.070649
 30
0.0
 11
125.165487
 21
152.556924
 31
0.0
  0
LINE
  5
49F
100
AcDbEntity
  8
レイヤー_2
 62
     7
100
AcDbLine
 10
125.165487
 20
152.070649
 30
0.0
 11
123.110832
 21
151.791768
 31
0.0
  0
LINE
  5
49E
100
AcDbEntity
  8
レイヤー_2
 62
     7
100
AcDbLine
 10
123.246913
 20
151.806238
 30
0.0
 11
123.246913
 21
151.554229
 31
0.0
  0
LINE
  5
49D
100
AcDbEntity
  8
レイヤー_2
 62
     7
100
AcDbLine
 10
125.165487
 20
151.814851
 30
0.0
 11
123.110832
 21
151.535626
 31
0.0
  0
LINE
  5
49C
100
AcDbEntity
  8
レイヤー_2
 62
     7
100
AcDbLine
 10
125.067646
 20
152.054112
 30
0.0
 11
125.067646
 21
151.799003
 31
0.0
  0
LINE
  5
49B
100
AcDbEntity
  8
レイヤー_2
 62
     7
100
AcDbLine
 10
123.110832
 20
151.535626
 30
0.0
 11
123.110832
 21
151.04935
 31
0.0
  0
LINE
  5
49A
100
AcDbEntity
  8
レイヤー_2
 62
     7
100
AcDbLine
 10
125.165487
 20
151.328403
 30
0.0
 11
125.165487
 21
151.814851
 31
0.0
  0
LINE
  5
499
100
AcDbEntity
  8
レイヤー_2
 62
     7
100
AcDbLine
 10
125.165487
 20
151.328403
 30
0.0
 11
123.110832
 21
151.04935
 31
0.0
  0
LINE
  5
498
100
AcDbEntity
  8
レイヤー_2
 62
     7
100
AcDbLine
 10
123.246913
 20
151.064509
 30
0.0
 11
123.246913
 21
150.811811
 31
0.0
  0
LINE
  5
497
100
AcDbEntity
  8
レイヤー_2
 62
     7
100
AcDbLine
 10
125.165487
 20
151.072432
 30
0.0
 11
123.110832
 21
150.793896
 31
0.0
  0
LINE
  5
496
100
AcDbEntity
  8
レイヤー_2
 62
     7
100
AcDbLine
 10
125.067646
 20
151.310833
 30
0.0
 11
125.067646
 21
151.057274
 31
0.0
  0
LINE
  5
495
100
AcDbEntity
  8
レイヤー_2
 62
     7
100
AcDbLine
 10
123.110832
 20
150.793896
 30
0.0
 11
123.110832
 21
150.306932
 31
0.0
  0
LINE
  5
494
100
AcDbEntity
  8
レイヤー_2
 62
     7
100
AcDbLine
 10
125.165487
 20
150.586674
 30
0.0
 11
125.165487
 21
151.072432
 31
0.0
  0
LINE
  5
493
100
AcDbEntity
  8
レイヤー_2
 62
     7
100
AcDbLine
 10
125.165487
 20
150.586674
 30
0.0
 11
123.110832
 21
150.306932
 31
0.0
  0
LINE
  5
492
100
AcDbEntity
  8
レイヤー_2
 62
     7
100
AcDbLine
 10
123.246913
 20
150.32278
 30
0.0
 11
123.246913
 21
150.069393
 31
0.0
  0
LINE
  5
491
100
AcDbEntity
  8
レイヤー_2
 62
     7
100
AcDbLine
 10
125.165487
 20
150.330014
 30
0.0
 11
123.110832
 21
150.051478
 31
0.0
  0
LINE
  5
490
100
AcDbEntity
  8
レイヤー_2
 62
     7
100
AcDbLine
 10
125.067646
 20
150.569104
 30
0.0
 11
125.067646
 21
150.315545
 31
0.0
  0
LINE
  5
48F
100
AcDbEntity
  8
レイヤー_2
 62
     7
100
AcDbLine
 10
123.110832
 20
150.051478
 30
0.0
 11
123.110832
 21
149.565375
 31
0.0
  0
LINE
  5
48E
100
AcDbEntity
  8
レイヤー_2
 62
     7
100
AcDbLine
 10
125.165487
 20
149.843911
 30
0.0
 11
125.165487
 21
150.330014
 31
0.0
  0
LINE
  5
48D
100
AcDbEntity
  8
レイヤー_2
 62
     7
100
AcDbLine
 10
125.165487
 20
149.843911
 30
0.0
 11
123.110832
 21
149.565375
 31
0.0
  0
SPLINE
  5
48C
100
AcDbEntity
  8
レイヤー_2
 62
     7
100
AcDbSpline
210
0.0
220
0.0
230
1.0
 70
     8
 71
     3
 72
    11
 73
     7
 74
     0
 42
0.00000001
 43
0.00000001
 40
0.0
 40
0.0
 40
0.0
 40
0.0
 40
1.0
 40
1.0
 40
1.0
 40
2.0
 40
2.0
 40
2.0
 40
2.0
 10
123.11944444444444
 20
154.01006537543401
 30
0.0
 10
123.11944444444444
 20
154.04623887803817
 30
0.0
 10
123.11944444444444
 20
154.19007161458333
 30
0.0
 10
123.11944444444444
 20
154.19007161458333
 30
0.0
 10
123.11944444444444
 20
154.19007161458333
 30
0.0
 10
123.11875542534722
 20
154.41400282118053
 30
0.0
 10
123.11875542534722
 20
154.41400282118053
 30
0.0
  0
LINE
  5
48B
100
AcDbEntity
  8
レイヤー_2
 62
     7
100
AcDbLine
 10
125.205794
 20
154.421927
 30
0.0
 11
125.205794
 21
154.293769
 31
0.0
  0
LINE
  5
48A
100
AcDbEntity
  8
レイヤー_2
 62
     7
100
AcDbLine
 10
123.246913
 20
146.601904
 30
0.0
 11
123.246913
 21
146.349723
 31
0.0
  0
LINE
  5
489
100
AcDbEntity
  8
レイヤー_2
 62
     7
100
AcDbLine
 10
125.165487
 20
146.609828
 30
0.0
 11
123.110832
 21
146.33112
 31
0.0
  0
LINE
  5
488
100
AcDbEntity
  8
レイヤー_2
 62
     7
100
AcDbLine
 10
125.067646
 20
146.848229
 30
0.0
 11
125.067646
 21
146.59467
 31
0.0
  0
LINE
  5
487
100
AcDbEntity
  8
レイヤー_2
 62
     7
100
AcDbLine
 10
123.110832
 20
146.33112
 30
0.0
 11
123.110832
 21
145.844672
 31
0.0
  0
LINE
  5
486
100
AcDbEntity
  8
レイヤー_2
 62
     7
100
AcDbLine
 10
125.165487
 20
146.123381
 30
0.0
 11
125.165487
 21
146.609828
 31
0.0
  0
LINE
  5
485
100
AcDbEntity
  8
レイヤー_2
 62
     7
100
AcDbLine
 10
125.165487
 20
146.123381
 30
0.0
 11
123.110832
 21
145.844672
 31
0.0
  0
LINE
  5
484
100
AcDbEntity
  8
レイヤー_2
 62
     7
100
AcDbLine
 10
123.256904
 20
145.863965
 30
0.0
 11
123.281364
 21
145.578711
 31
0.0
  0
LINE
  5
483
100
AcDbEntity
  8
レイヤー_2
 62
     7
100
AcDbLine
 10
125.170654
 20
146.005214
 30
0.0
 11
123.148039
 21
145.547705
 31
0.0
  0
LINE
  5
482
100
AcDbEntity
  8
レイヤー_2
 62
     7
100
AcDbLine
 10
125.063856
 20
146.109945
 30
0.0
 11
125.074881
 21
145.981443
 31
0.0
  0
LINE
  5
481
100
AcDbEntity
  8
レイヤー_2
 62
     7
100
AcDbLine
 10
123.148039
 20
145.547705
 30
0.0
 11
123.190758
 21
145.063669
 31
0.0
  0
LINE
  5
480
100
AcDbEntity
  8
レイヤー_2
 62
     7
100
AcDbLine
 10
125.213718
 20
145.521178
 30
0.0
 11
125.170654
 21
146.005214
 31
0.0
  0
LINE
  5
47F
100
AcDbEntity
  8
レイヤー_2
 62
     7
100
AcDbLine
 10
125.213718
 20
145.521178
 30
0.0
 11
123.190758
 21
145.063669
 31
0.0
  0
LINE
  5
47E
100
AcDbEntity
  8
レイヤー_2
 62
     7
100
AcDbLine
 10
123.349232
 20
145.100532
 30
0.0
 11
123.398842
 21
144.82079
 31
0.0
  0
LINE
  5
47D
100
AcDbEntity
  8
レイヤー_2
 62
     7
100
AcDbLine
 10
125.242657
 20
145.410246
 30
0.0
 11
123.267239
 21
144.778415
 31
0.0
  0
LINE
  5
47C
100
AcDbEntity
  8
レイヤー_2
 62
     7
100
AcDbLine
 10
125.126557
 20
145.501541
 30
0.0
 11
125.148261
 21
145.377862
 31
0.0
  0
LINE
  5
47B
100
AcDbEntity
  8
レイヤー_2
 62
     7
100
AcDbLine
 10
123.267239
 20
144.778415
 30
0.0
 11
123.351988
 21
144.300581
 31
0.0
  0
LINE
  5
47A
100
AcDbEntity
  8
レイヤー_2
 62
     7
100
AcDbLine
 10
125.327062
 20
144.931722
 30
0.0
 11
125.242657
 21
145.410246
 31
0.0
  0
LINE
  5
479
100
AcDbEntity
  8
レイヤー_2
 62
     7
100
AcDbLine
 10
125.327062
 20
144.931722
 30
0.0
 11
123.351988
 21
144.300581
 31
0.0
  0
LINE
  5
478
100
AcDbEntity
  8
レイヤー_2
 62
     7
100
AcDbLine
 10
123.490481
 20
144.343989
 30
0.0
 11
123.571096
 21
144.042543
 31
0.0
  0
LINE
  5
477
100
AcDbEntity
  8
レイヤー_2
 62
     7
100
AcDbLine
 10
125.356689
 20
144.791851
 30
0.0
 11
123.444317
 21
143.989488
 31
0.0
  0
LINE
  5
476
100
AcDbEntity
  8
レイヤー_2
 62
     7
100
AcDbLine
 10
125.22612
 20
144.899338
 30
0.0
 11
125.265739
 21
144.750854
 31
0.0
  0
LINE
  5
475
100
AcDbEntity
  8
レイヤー_2
 62
     7
100
AcDbLine
 10
123.444317
 20
143.989488
 30
0.0
 11
123.569718
 21
143.520266
 31
0.0
  0
LINE
  5
474
100
AcDbEntity
  8
レイヤー_2
 62
     7
100
AcDbLine
 10
125.481746
 20
144.322285
 30
0.0
 11
125.356689
 21
144.791851
 31
0.0
  0
LINE
  5
473
100
AcDbEntity
  8
レイヤー_2
 62
     7
100
AcDbLine
 10
125.481746
 20
144.322285
 30
0.0
 11
123.569718
 21
143.520266
 31
0.0
  0
LINE
  5
472
100
AcDbEntity
  8
レイヤー_2
 62
     7
100
AcDbLine
 10
123.699943
 20
143.575043
 30
0.0
 11
123.814665
 21
143.258784
 31
0.0
  0
LINE
  5
471
100
AcDbEntity
  8
レイヤー_2
 62
     7
100
AcDbLine
 10
125.5286
 20
144.159332
 30
0.0
 11
123.693742
 21
143.194016
 31
0.0
  0
LINE
  5
470
100
AcDbEntity
  8
レイヤー_2
 62
     7
100
AcDbLine
 10
125.38115
 20
144.278876
 30
0.0
 11
125.441439
 21
144.111789
 31
0.0
  0
LINE
  5
46F
100
AcDbEntity
  8
レイヤー_2
 62
     7
100
AcDbLine
 10
123.693742
 20
143.194016
 30
0.0
 11
123.86014
 21
142.737885
 31
0.0
  0
LINE
  5
46E
100
AcDbEntity
  8
レイヤー_2
 62
     7
100
AcDbLine
 10
125.694998
 20
143.702512
 30
0.0
 11
125.5286
 21
144.159332
 31
0.0
  0
LINE
  5
46D
100
AcDbEntity
  8
レイヤー_2
 62
     7
100
AcDbLine
 10
125.694998
 20
143.702512
 30
0.0
 11
123.86014
 21
142.737196
 31
0.0
  0
LINE
  5
46C
100
AcDbEntity
  8
レイヤー_2
 62
     7
100
AcDbLine
 10
123.980374
 20
142.801964
 30
0.0
 11
124.188458
 21
142.409912
 31
0.0
  0
LINE
  5
46B
100
AcDbEntity
  8
レイヤー_2
 62
     7
100
AcDbLine
 10
125.76011
 20
143.539903
 30
0.0
 11
124.076836
 21
142.329297
 31
0.0
  0
LINE
  5
46A
100
AcDbEntity
  8
レイヤー_2
 62
     7
100
AcDbLine
 10
125.591989
 20
143.647735
 30
0.0
 11
125.681562
 21
143.480648
 31
0.0
  0
LINE
  5
469
100
AcDbEntity
  8
レイヤー_2
 62
     7
100
AcDbLine
 10
124.076836
 20
142.329297
 30
0.0
 11
124.305935
 21
141.900038
 31
0.0
  0
LINE
  5
468
100
AcDbEntity
  8
レイヤー_2
 62
     7
100
AcDbLine
 10
125.98852
 20
143.110989
 30
0.0
 11
125.76011
 21
143.539903
 31
0.0
  0
LINE
  5
467
100
AcDbEntity
  8
レイヤー_2
 62
     7
100
AcDbLine
 10
125.98852
 20
143.110989
 30
0.0
 11
124.305935
 21
141.900038
 31
0.0
  0
LINE
  5
466
100
AcDbEntity
  8
レイヤー_2
 62
     7
100
AcDbLine
 10
127.49196
 20
157.513727
 30
0.0
 11
127.49196
 21
157.246388
 31
0.0
  0
LINE
  5
465
100
AcDbEntity
  8
レイヤー_2
 62
     7
100
AcDbLine
 10
120.784359
 20
157.246388
 30
0.0
 11
120.784359
 21
157.513727
 31
0.0
  0
LINE
  5
464
100
AcDbEntity
  8
レイヤー_2
 62
     7
100
AcDbLine
 10
120.560772
 20
157.529575
 30
0.0
 11
120.560772
 21
157.976232
 31
0.0
  0
LINE
  5
463
100
AcDbEntity
  8
レイヤー_2
 62
     7
100
AcDbLine
 10
127.714857
 20
157.976232
 30
0.0
 11
127.714857
 21
157.529575
 31
0.0
  0
LINE
  5
462
100
AcDbEntity
  8
レイヤー_2
 62
     7
100
AcDbLine
 10
120.411599
 20
163.053097
 30
0.0
 11
120.411599
 21
164.5431
 31
0.0
  0
LINE
  5
461
100
AcDbEntity
  8
レイヤー_2
 62
     7
100
AcDbLine
 10
127.86403
 20
164.5431
 30
0.0
 11
127.86403
 21
163.053097
 31
0.0
  0
LINE
  5
460
100
AcDbEntity
  8
レイヤー_2
 62
     7
100
AcDbLine
 10
121.902292
 20
154.527174
 30
0.0
 11
121.902292
 21
156.352214
 31
0.0
  0
LINE
  5
45F
100
AcDbEntity
  8
レイヤー_2
 62
     7
100
AcDbLine
 10
121.902292
 20
157.976232
 30
0.0
 11
121.902292
 21
163.053786
 31
0.0
  0
LINE
  5
45E
100
AcDbEntity
  8
レイヤー_2
 62
     7
100
AcDbLine
 10
126.372993
 20
163.053786
 30
0.0
 11
126.372993
 21
157.976232
 31
0.0
  0
LINE
  5
45D
100
AcDbEntity
  8
レイヤー_2
 62
     7
100
AcDbLine
 10
126.372993
 20
156.352214
 30
0.0
 11
126.372993
 21
154.527174
 31
0.0
  0
LINE
  5
45C
100
AcDbEntity
  8
レイヤー_2
 62
     7
100
AcDbLine
 10
126.372993
 20
154.527174
 30
0.0
 11
126.269295
 21
154.423305
 31
0.0
  0
LINE
  5
45B
100
AcDbEntity
  8
レイヤー_2
 62
     7
100
AcDbLine
 10
122.006334
 20
154.423305
 30
0.0
 11
121.902292
 21
154.527174
 31
0.0
  0
LINE
  5
45A
100
AcDbEntity
  8
レイヤー_2
 62
     7
100
AcDbLine
 10
127.49196
 20
157.246388
 30
0.0
 11
120.784359
 21
157.246388
 31
0.0
  0
LINE
  5
459
100
AcDbEntity
  8
レイヤー_2
 62
     7
100
AcDbLine
 10
127.714857
 20
157.529575
 30
0.0
 11
120.560772
 21
157.529575
 31
0.0
  0
LINE
  5
458
100
AcDbEntity
  8
レイヤー_2
 62
     7
100
AcDbLine
 10
127.714857
 20
157.976232
 30
0.0
 11
120.560772
 21
157.976232
 31
0.0
  0
LINE
  5
457
100
AcDbEntity
  8
レイヤー_2
 62
     7
100
AcDbLine
 10
120.411599
 20
164.5431
 30
0.0
 11
127.86403
 21
164.5431
 31
0.0
  0
LINE
  5
456
100
AcDbEntity
  8
レイヤー_2
 62
     7
100
AcDbLine
 10
126.372993
 20
154.527174
 30
0.0
 11
121.902292
 21
154.527174
 31
0.0
  0
LINE
  5
455
100
AcDbEntity
  8
レイヤー_2
 62
     7
100
AcDbLine
 10
122.006334
 20
154.423305
 30
0.0
 11
126.269295
 21
154.423305
 31
0.0
  0
LINE
  5
454
100
AcDbEntity
  8
レイヤー_2
 62
     7
100
AcDbLine
 10
122.503461
 20
156.352214
 30
0.0
 11
125.042497
 21
156.352214
 31
0.0
  0
LINE
  5
453
100
AcDbEntity
  8
レイヤー_2
 62
     7
100
AcDbLine
 10
125.7074
 20
156.352214
 30
0.0
 11
125.7074
 21
157.246388
 31
0.0
  0
LINE
  5
452
100
AcDbEntity
  8
レイヤー_2
 62
     7
100
AcDbLine
 10
125.401131
 20
156.352214
 30
0.0
 11
125.042497
 21
156.352214
 31
0.0
  0
LINE
  5
451
100
AcDbEntity
  8
レイヤー_2
 62
     7
100
AcDbLine
 10
126.982775
 20
156.352214
 30
0.0
 11
125.401131
 21
156.352214
 31
0.0
  0
LINE
  5
450
100
AcDbEntity
  8
レイヤー_2
 62
     7
100
AcDbLine
 10
122.503461
 20
156.352214
 30
0.0
 11
122.503461
 21
157.246388
 31
0.0
  0
LINE
  5
44F
100
AcDbEntity
  8
レイヤー_2
 62
     7
100
AcDbLine
 10
122.503461
 20
156.352214
 30
0.0
 11
122.197881
 21
156.352214
 31
0.0
  0
LINE
  5
44E
100
AcDbEntity
  8
レイヤー_2
 62
     7
100
AcDbLine
 10
121.239456
 20
156.352214
 30
0.0
 11
121.239456
 21
157.246388
 31
0.0
  0
LINE
  5
44D
100
AcDbEntity
  8
レイヤー_2
 62
     7
100
AcDbLine
 10
121.239456
 20
156.352214
 30
0.0
 11
122.197881
 21
156.352214
 31
0.0
  0
LINE
  5
44C
100
AcDbEntity
  8
レイヤー_2
 62
     7
100
AcDbLine
 10
127.036174
 20
156.352214
 30
0.0
 11
127.036174
 21
157.246388
 31
0.0
  0
LINE
  5
44B
100
AcDbEntity
  8
レイヤー_2
 62
     7
100
AcDbLine
 10
127.036174
 20
156.352214
 30
0.0
 11
126.982775
 21
156.352214
 31
0.0
  0
LINE
  5
44A
100
AcDbEntity
  8
レイヤー_2
 62
     7
100
AcDbLine
 10
124.138159
 20
163.053097
 30
0.0
 11
127.86403
 21
163.053097
 31
0.0
  0
LINE
  5
449
100
AcDbEntity
  8
レイヤー_2
 62
     7
100
AcDbLine
 10
120.411599
 20
163.053097
 30
0.0
 11
124.138159
 21
163.053097
 31
0.0
  0
LINE
  5
448
100
AcDbEntity
  8
レイヤー_2
 62
     7
100
AcDbLine
 10
126.075681
 20
163.053786
 30
0.0
 11
126.075681
 21
157.976232
 31
0.0
  0
LINE
  5
447
100
AcDbEntity
  8
レイヤー_2
 62
     7
100
AcDbLine
 10
126.075681
 20
156.352214
 30
0.0
 11
126.075681
 21
154.527174
 31
0.0
  0
LINE
  5
446
100
AcDbEntity
  8
レイヤー_2
 62
     7
100
AcDbLine
 10
122.199948
 20
154.527174
 30
0.0
 11
122.199948
 21
156.352214
 31
0.0
  0
LINE
  5
445
100
AcDbEntity
  8
レイヤー_2
 62
     7
100
AcDbLine
 10
122.199948
 20
157.976232
 30
0.0
 11
122.199948
 21
163.053786
 31
0.0
  0
LINE
  5
444
100
AcDbEntity
  8
レイヤー_2
 62
     7
100
AcDbLine
 10
128.446596
 20
184.878465
 30
0.0
 11
128.501373
 21
184.874848
 31
0.0
  0
LINE
  5
443
100
AcDbEntity
  8
レイヤー_2
 62
     7
100
AcDbLine
 10
128.501373
 20
184.483657
 30
0.0
 11
128.446596
 21
184.480729
 31
0.0
  0
POLYLINE
  5
438
100
AcDbEntity
  8
レイヤー_2
 62
     7
100
AcDb2dPolyline
 66
     1
 10
0.0
 20
0.0
 30
0.0
  0
VERTEX
  5
439
100
AcDbEntity
  8
レイヤー_2
 62
     7
100
AcDbVertex
100
AcDb2dVertex
 10
128.501373
 20
184.874159
 30
0.0
  0
VERTEX
  5
43A
100
AcDbEntity
  8
レイヤー_2
 62
     7
100
AcDbVertex
100
AcDb2dVertex
 10
128.511019
 20
184.872781
 30
0.0
  0
VERTEX
  5
43B
100
AcDbEntity
  8
レイヤー_2
 62
     7
100
AcDbVertex
100
AcDb2dVertex
 10
128.519632
 20
184.868302
 30
0.0
  0
VERTEX
  5
43C
100
AcDbEntity
  8
レイヤー_2
 62
     7
100
AcDbVertex
100
AcDb2dVertex
 10
128.523766
 20
184.862618
 30
0.0
  0
VERTEX
  5
43D
100
AcDbEntity
  8
レイヤー_2
 62
     7
100
AcDbVertex
100
AcDb2dVertex
 10
128.527555
 20
184.857623
 30
0.0
  0
VERTEX
  5
43E
100
AcDbEntity
  8
レイヤー_2
 62
     7
100
AcDbVertex
100
AcDb2dVertex
 10
128.529622
 20
184.852455
 30
0.0
  0
VERTEX
  5
43F
100
AcDbEntity
  8
レイヤー_2
 62
     7
100
AcDbVertex
100
AcDb2dVertex
 10
128.531
 20
184.846771
 30
0.0
  0
VERTEX
  5
440
100
AcDbEntity
  8
レイヤー_2
 62
     7
100
AcDbVertex
100
AcDb2dVertex
 10
128.533757
 20
184.825066
 30
0.0
  0
VERTEX
  5
441
100
AcDbEntity
  8
レイヤー_2
 62
     7
100
AcDbVertex
100
AcDb2dVertex
 10
128.536168
 20
184.786309
 30
0.0
  0
SEQEND
  5
442
100
AcDbEntity
  8
レイヤー_2
 62
     7
  0
POLYLINE
  5
42D
100
AcDbEntity
  8
レイヤー_2
 62
     7
100
AcDb2dPolyline
 66
     1
 10
0.0
 20
0.0
 30
0.0
  0
VERTEX
  5
42E
100
AcDbEntity
  8
レイヤー_2
 62
     7
100
AcDbVertex
100
AcDb2dVertex
 10
128.538235
 20
184.679511
 30
0.0
  0
VERTEX
  5
42F
100
AcDbEntity
  8
レイヤー_2
 62
     7
100
AcDbVertex
100
AcDb2dVertex
 10
128.538235
 20
184.634897
 30
0.0
  0
VERTEX
  5
430
100
AcDbEntity
  8
レイヤー_2
 62
     7
100
AcDbVertex
100
AcDb2dVertex
 10
128.536168
 20
184.578742
 30
0.0
  0
VERTEX
  5
431
100
AcDbEntity
  8
レイヤー_2
 62
     7
100
AcDbVertex
100
AcDb2dVertex
 10
128.533757
 20
184.534128
 30
0.0
  0
VERTEX
  5
432
100
AcDbEntity
  8
レイヤー_2
 62
     7
100
AcDbVertex
100
AcDb2dVertex
 10
128.529622
 20
184.505189
 30
0.0
  0
VERTEX
  5
433
100
AcDbEntity
  8
レイヤー_2
 62
     7
100
AcDbVertex
100
AcDb2dVertex
 10
128.526177
 20
184.497955
 30
0.0
  0
VERTEX
  5
434
100
AcDbEntity
  8
レイヤー_2
 62
     7
100
AcDbVertex
100
AcDb2dVertex
 10
128.52101
 20
184.49227
 30
0.0
  0
VERTEX
  5
435
100
AcDbEntity
  8
レイヤー_2
 62
     7
100
AcDbVertex
100
AcDb2dVertex
 10
128.512397
 20
184.486586
 30
0.0
  0
VERTEX
  5
436
100
AcDbEntity
  8
レイヤー_2
 62
     7
100
AcDbVertex
100
AcDb2dVertex
 10
128.50654
 20
184.485036
 30
0.0
  0
SEQEND
  5
437
100
AcDbEntity
  8
レイヤー_2
 62
     7
  0
LINE
  5
42C
100
AcDbEntity
  8
レイヤー_2
 62
     7
100
AcDbLine
 10
128.446596
 20
185.600385
 30
0.0
 11
128.497238
 21
185.598318
 31
0.0
  0
LINE
  5
42B
100
AcDbEntity
  8
レイヤー_2
 62
     7
100
AcDbLine
 10
128.505851
 20
185.208506
 30
0.0
 11
128.448318
 21
185.203338
 31
0.0
  0
LINE
  5
42A
100
AcDbEntity
  8
レイヤー_2
 62
     7
100
AcDbLine
 10
128.448318
 20
184.154995
 30
0.0
 11
128.505851
 21
184.152239
 31
0.0
  0
LINE
  5
429
100
AcDbEntity
  8
レイヤー_2
 62
     7
100
AcDbLine
 10
128.497238
 20
183.760187
 30
0.0
 11
128.446596
 21
183.758809
 31
0.0
  0
POLYLINE
  5
41D
100
AcDbEntity
  8
レイヤー_2
 62
     7
100
AcDb2dPolyline
 66
     1
 10
0.0
 20
0.0
 30
0.0
  0
VERTEX
  5
41E
100
AcDbEntity
  8
レイヤー_2
 62
     7
100
AcDbVertex
100
AcDb2dVertex
 10
128.505851
 20
184.150689
 30
0.0
  0
VERTEX
  5
41F
100
AcDbEntity
  8
レイヤー_2
 62
     7
100
AcDbVertex
100
AcDb2dVertex
 10
128.505851
 20
184.152239
 30
0.0
  0
VERTEX
  5
420
100
AcDbEntity
  8
レイヤー_2
 62
     7
100
AcDbVertex
100
AcDb2dVertex
 10
128.51722
 20
184.148622
 30
0.0
  0
VERTEX
  5
421
100
AcDbEntity
  8
レイヤー_2
 62
     7
100
AcDbVertex
100
AcDb2dVertex
 10
128.523766
 20
184.142765
 30
0.0
  0
VERTEX
  5
422
100
AcDbEntity
  8
レイヤー_2
 62
     7
100
AcDbVertex
100
AcDb2dVertex
 10
128.529622
 20
184.13777
 30
0.0
  0
VERTEX
  5
423
100
AcDbEntity
  8
レイヤー_2
 62
     7
100
AcDbVertex
100
AcDb2dVertex
 10
128.531689
 20
184.132775
 30
0.0
  0
VERTEX
  5
424
100
AcDbEntity
  8
レイヤー_2
 62
     7
100
AcDbVertex
100
AcDb2dVertex
 10
128.533067
 20
184.127607
 30
0.0
  0
VERTEX
  5
425
100
AcDbEntity
  8
レイヤー_2
 62
     7
100
AcDbVertex
100
AcDb2dVertex
 10
128.53479
 20
184.121922
 30
0.0
  0
VERTEX
  5
426
100
AcDbEntity
  8
レイヤー_2
 62
     7
100
AcDbVertex
100
AcDb2dVertex
 10
128.536168
 20
184.101769
 30
0.0
  0
VERTEX
  5
427
100
AcDbEntity
  8
レイヤー_2
 62
     7
100
AcDbVertex
100
AcDb2dVertex
 10
128.538235
 20
184.063528
 30
0.0
  0
SEQEND
  5
428
100
AcDbEntity
  8
レイヤー_2
 62
     7
  0
POLYLINE
  5
413
100
AcDbEntity
  8
レイヤー_2
 62
     7
100
AcDb2dPolyline
 66
     1
 10
0.0
 20
0.0
 30
0.0
  0
VERTEX
  5
414
100
AcDbEntity
  8
レイヤー_2
 62
     7
100
AcDbVertex
100
AcDb2dVertex
 10
128.536168
 20
183.89713
 30
0.0
  0
VERTEX
  5
415
100
AcDbEntity
  8
レイヤー_2
 62
     7
100
AcDbVertex
100
AcDb2dVertex
 10
128.533757
 20
183.853894
 30
0.0
  0
VERTEX
  5
416
100
AcDbEntity
  8
レイヤー_2
 62
     7
100
AcDbVertex
100
AcDb2dVertex
 10
128.531
 20
183.810658
 30
0.0
  0
VERTEX
  5
417
100
AcDbEntity
  8
レイヤー_2
 62
     7
100
AcDbVertex
100
AcDb2dVertex
 10
128.526177
 20
183.781892
 30
0.0
  0
VERTEX
  5
418
100
AcDbEntity
  8
レイヤー_2
 62
     7
100
AcDbVertex
100
AcDb2dVertex
 10
128.523077
 20
183.776035
 30
0.0
  0
VERTEX
  5
419
100
AcDbEntity
  8
レイヤー_2
 62
     7
100
AcDbVertex
100
AcDb2dVertex
 10
128.518943
 20
183.77035
 30
0.0
  0
VERTEX
  5
41A
100
AcDbEntity
  8
レイヤー_2
 62
     7
100
AcDbVertex
100
AcDb2dVertex
 10
128.509985
 20
183.763805
 30
0.0
  0
VERTEX
  5
41B
100
AcDbEntity
  8
レイヤー_2
 62
     7
100
AcDbVertex
100
AcDb2dVertex
 10
128.499995
 20
183.760187
 30
0.0
  0
SEQEND
  5
41C
100
AcDbEntity
  8
レイヤー_2
 62
     7
  0
POLYLINE
  5
407
100
AcDbEntity
  8
レイヤー_2
 62
     7
100
AcDb2dPolyline
 66
     1
 10
0.0
 20
0.0
 30
0.0
  0
VERTEX
  5
408
100
AcDbEntity
  8
レイヤー_2
 62
     7
100
AcDbVertex
100
AcDb2dVertex
 10
128.497238
 20
185.598318
 30
0.0
  0
VERTEX
  5
409
100
AcDbEntity
  8
レイヤー_2
 62
     7
100
AcDbVertex
100
AcDb2dVertex
 10
128.498617
 20
185.598318
 30
0.0
  0
VERTEX
  5
40A
100
AcDbEntity
  8
レイヤー_2
 62
     7
100
AcDbVertex
100
AcDb2dVertex
 10
128.508607
 20
185.596079
 30
0.0
  0
VERTEX
  5
40B
100
AcDbEntity
  8
レイヤー_2
 62
     7
100
AcDbVertex
100
AcDb2dVertex
 10
128.51722
 20
185.590394
 30
0.0
  0
VERTEX
  5
40C
100
AcDbEntity
  8
レイヤー_2
 62
     7
100
AcDbVertex
100
AcDb2dVertex
 10
128.52101
 20
185.585916
 30
0.0
  0
VERTEX
  5
40D
100
AcDbEntity
  8
レイヤー_2
 62
     7
100
AcDbVertex
100
AcDb2dVertex
 10
128.523766
 20
185.580231
 30
0.0
  0
VERTEX
  5
40E
100
AcDbEntity
  8
レイヤー_2
 62
     7
100
AcDbVertex
100
AcDb2dVertex
 10
128.526177
 20
185.577303
 30
0.0
  0
VERTEX
  5
40F
100
AcDbEntity
  8
レイヤー_2
 62
     7
100
AcDbVertex
100
AcDb2dVertex
 10
128.528244
 20
185.57093
 30
0.0
  0
VERTEX
  5
410
100
AcDbEntity
  8
レイヤー_2
 62
     7
100
AcDbVertex
100
AcDb2dVertex
 10
128.531
 20
185.548537
 30
0.0
  0
VERTEX
  5
411
100
AcDbEntity
  8
レイヤー_2
 62
     7
100
AcDbVertex
100
AcDb2dVertex
 10
128.533067
 20
185.512535
 30
0.0
  0
SEQEND
  5
412
100
AcDbEntity
  8
レイヤー_2
 62
     7
  0
POLYLINE
  5
3FD
100
AcDbEntity
  8
レイヤー_2
 62
     7
100
AcDb2dPolyline
 66
     1
 10
0.0
 20
0.0
 30
0.0
  0
VERTEX
  5
3FE
100
AcDbEntity
  8
レイヤー_2
 62
     7
100
AcDbVertex
100
AcDb2dVertex
 10
128.538235
 20
185.345276
 30
0.0
  0
VERTEX
  5
3FF
100
AcDbEntity
  8
レイヤー_2
 62
     7
100
AcDbVertex
100
AcDb2dVertex
 10
128.538235
 20
185.30204
 30
0.0
  0
VERTEX
  5
400
100
AcDbEntity
  8
レイヤー_2
 62
     7
100
AcDbVertex
100
AcDb2dVertex
 10
128.536168
 20
185.258976
 30
0.0
  0
VERTEX
  5
401
100
AcDbEntity
  8
レイヤー_2
 62
     7
100
AcDbVertex
100
AcDb2dVertex
 10
128.533067
 20
185.230037
 30
0.0
  0
VERTEX
  5
402
100
AcDbEntity
  8
レイヤー_2
 62
     7
100
AcDbVertex
100
AcDb2dVertex
 10
128.530311
 20
185.224353
 30
0.0
  0
VERTEX
  5
403
100
AcDbEntity
  8
レイヤー_2
 62
     7
100
AcDbVertex
100
AcDb2dVertex
 10
128.526177
 20
185.217118
 30
0.0
  0
VERTEX
  5
404
100
AcDbEntity
  8
レイヤー_2
 62
     7
100
AcDbVertex
100
AcDb2dVertex
 10
128.518943
 20
185.211262
 30
0.0
  0
VERTEX
  5
405
100
AcDbEntity
  8
レイヤー_2
 62
     7
100
AcDbVertex
100
AcDb2dVertex
 10
128.507918
 20
185.208506
 30
0.0
  0
SEQEND
  5
406
100
AcDbEntity
  8
レイヤー_2
 62
     7
  0
LINE
  5
3FC
100
AcDbEntity
  8
レイヤー_2
 62
     7
100
AcDbLine
 10
128.536168
 20
185.466371
 30
0.0
 11
128.537546
 21
185.428992
 31
0.0
  0
LINE
  5
3FB
100
AcDbEntity
  8
レイヤー_2
 62
     7
100
AcDbLine
 10
128.538235
 20
185.37921
 30
0.0
 11
128.538235
 21
185.34097
 31
0.0
  0
LINE
  5
3FA
100
AcDbEntity
  8
レイヤー_2
 62
     7
100
AcDbLine
 10
128.538235
 20
184.016675
 30
0.0
 11
128.538235
 21
183.979985
 31
0.0
  0
LINE
  5
3F9
100
AcDbEntity
  8
レイヤー_2
 62
     7
100
AcDbLine
 10
128.537546
 20
183.930203
 30
0.0
 11
128.536168
 21
183.892824
 31
0.0
  0
LINE
  5
3F8
100
AcDbEntity
  8
レイヤー_2
 62
     7
100
AcDbLine
 10
128.446596
 20
186.212062
 30
0.0
 11
128.494138
 21
186.211373
 31
0.0
  0
LINE
  5
3F7
100
AcDbEntity
  8
レイヤー_2
 62
     7
100
AcDbLine
 10
128.508607
 20
185.820871
 30
0.0
 11
128.449007
 21
185.815015
 31
0.0
  0
LINE
  5
3F6
100
AcDbEntity
  8
レイヤー_2
 62
     7
100
AcDbLine
 10
128.449007
 20
183.543319
 30
0.0
 11
128.508607
 21
183.538323
 31
0.0
  0
LINE
  5
3F5
100
AcDbEntity
  8
レイヤー_2
 62
     7
100
AcDbLine
 10
128.494138
 20
183.147822
 30
0.0
 11
128.446596
 21
183.146444
 31
0.0
  0
POLYLINE
  5
3E9
100
AcDbEntity
  8
レイヤー_2
 62
     7
100
AcDb2dPolyline
 66
     1
 10
0.0
 20
0.0
 30
0.0
  0
VERTEX
  5
3EA
100
AcDbEntity
  8
レイヤー_2
 62
     7
100
AcDbVertex
100
AcDb2dVertex
 10
128.494138
 20
186.211373
 30
0.0
  0
VERTEX
  5
3EB
100
AcDbEntity
  8
レイヤー_2
 62
     7
100
AcDbVertex
100
AcDb2dVertex
 10
128.496549
 20
186.211373
 30
0.0
  0
VERTEX
  5
3EC
100
AcDbEntity
  8
レイヤー_2
 62
     7
100
AcDbVertex
100
AcDb2dVertex
 10
128.505851
 20
186.208445
 30
0.0
  0
VERTEX
  5
3ED
100
AcDbEntity
  8
レイヤー_2
 62
     7
100
AcDbVertex
100
AcDb2dVertex
 10
128.513775
 20
186.204138
 30
0.0
  0
VERTEX
  5
3EE
100
AcDbEntity
  8
レイヤー_2
 62
     7
100
AcDbVertex
100
AcDb2dVertex
 10
128.518943
 20
186.199143
 30
0.0
  0
VERTEX
  5
3EF
100
AcDbEntity
  8
レイヤー_2
 62
     7
100
AcDbVertex
100
AcDb2dVertex
 10
128.52101
 20
186.194147
 30
0.0
  0
VERTEX
  5
3F0
100
AcDbEntity
  8
レイヤー_2
 62
     7
100
AcDbVertex
100
AcDb2dVertex
 10
128.523077
 20
186.191219
 30
0.0
  0
VERTEX
  5
3F1
100
AcDbEntity
  8
レイヤー_2
 62
     7
100
AcDbVertex
100
AcDb2dVertex
 10
128.523077
 20
186.186913
 30
0.0
  0
VERTEX
  5
3F2
100
AcDbEntity
  8
レイヤー_2
 62
     7
100
AcDbVertex
100
AcDb2dVertex
 10
128.525144
 20
186.1783
 30
0.0
  0
VERTEX
  5
3F3
100
AcDbEntity
  8
レイヤー_2
 62
     7
100
AcDbVertex
100
AcDb2dVertex
 10
128.526866
 20
186.168137
 30
0.0
  0
SEQEND
  5
3F4
100
AcDbEntity
  8
レイヤー_2
 62
     7
  0
POLYLINE
  5
3DF
100
AcDbEntity
  8
レイヤー_2
 62
     7
100
AcDb2dPolyline
 66
     1
 10
0.0
 20
0.0
 30
0.0
  0
VERTEX
  5
3E0
100
AcDbEntity
  8
レイヤー_2
 62
     7
100
AcDbVertex
100
AcDb2dVertex
 10
128.538235
 20
185.907343
 30
0.0
  0
VERTEX
  5
3E1
100
AcDbEntity
  8
レイヤー_2
 62
     7
100
AcDbVertex
100
AcDb2dVertex
 10
128.538235
 20
185.873409
 30
0.0
  0
VERTEX
  5
3E2
100
AcDbEntity
  8
レイヤー_2
 62
     7
100
AcDbVertex
100
AcDb2dVertex
 10
128.536168
 20
185.846021
 30
0.0
  0
VERTEX
  5
3E3
100
AcDbEntity
  8
レイヤー_2
 62
     7
100
AcDbVertex
100
AcDb2dVertex
 10
128.53479
 20
185.840336
 30
0.0
  0
VERTEX
  5
3E4
100
AcDbEntity
  8
レイヤー_2
 62
     7
100
AcDbVertex
100
AcDb2dVertex
 10
128.531689
 20
185.83379
 30
0.0
  0
VERTEX
  5
3E5
100
AcDbEntity
  8
レイヤー_2
 62
     7
100
AcDbVertex
100
AcDb2dVertex
 10
128.526177
 20
185.828106
 30
0.0
  0
VERTEX
  5
3E6
100
AcDbEntity
  8
レイヤー_2
 62
     7
100
AcDbVertex
100
AcDb2dVertex
 10
128.51722
 20
185.822249
 30
0.0
  0
VERTEX
  5
3E7
100
AcDbEntity
  8
レイヤー_2
 62
     7
100
AcDbVertex
100
AcDb2dVertex
 10
128.507229
 20
185.820871
 30
0.0
  0
SEQEND
  5
3E8
100
AcDbEntity
  8
レイヤー_2
 62
     7
  0
LINE
  5
3DE
100
AcDbEntity
  8
レイヤー_2
 62
     7
100
AcDbLine
 10
128.538235
 20
183.459086
 30
0.0
 11
128.538235
 21
183.388462
 31
0.0
  0
LINE
  5
3DD
100
AcDbEntity
  8
レイヤー_2
 62
     7
100
AcDbLine
 10
128.53479
 20
183.294066
 30
0.0
 11
128.529622
 21
183.224131
 31
0.0
  0
LINE
  5
3DC
100
AcDbEntity
  8
レイヤー_2
 62
     7
100
AcDbLine
 10
128.529622
 20
186.135064
 30
0.0
 11
128.53479
 21
186.065129
 31
0.0
  0
LINE
  5
3DB
100
AcDbEntity
  8
レイヤー_2
 62
     7
100
AcDbLine
 10
128.538235
 20
185.970733
 30
0.0
 11
128.538235
 21
185.899419
 31
0.0
  0
POLYLINE
  5
3D0
100
AcDbEntity
  8
レイヤー_2
 62
     7
100
AcDb2dPolyline
 66
     1
 10
0.0
 20
0.0
 30
0.0
  0
VERTEX
  5
3D1
100
AcDbEntity
  8
レイヤー_2
 62
     7
100
AcDbVertex
100
AcDb2dVertex
 10
128.500684
 20
184.485725
 30
0.0
  0
VERTEX
  5
3D2
100
AcDbEntity
  8
レイヤー_2
 62
     7
100
AcDbVertex
100
AcDb2dVertex
 10
128.508607
 20
184.483657
 30
0.0
  0
VERTEX
  5
3D3
100
AcDbEntity
  8
レイヤー_2
 62
     7
100
AcDbVertex
100
AcDb2dVertex
 10
128.51722
 20
184.479351
 30
0.0
  0
VERTEX
  5
3D4
100
AcDbEntity
  8
レイヤー_2
 62
     7
100
AcDbVertex
100
AcDb2dVertex
 10
128.521699
 20
184.474183
 30
0.0
  0
VERTEX
  5
3D5
100
AcDbEntity
  8
レイヤー_2
 62
     7
100
AcDbVertex
100
AcDb2dVertex
 10
128.525144
 20
184.469188
 30
0.0
  0
VERTEX
  5
3D6
100
AcDbEntity
  8
レイヤー_2
 62
     7
100
AcDbVertex
100
AcDb2dVertex
 10
128.526866
 20
184.464882
 30
0.0
  0
VERTEX
  5
3D7
100
AcDbEntity
  8
レイヤー_2
 62
     7
100
AcDbVertex
100
AcDb2dVertex
 10
128.528244
 20
184.461953
 30
0.0
  0
VERTEX
  5
3D8
100
AcDbEntity
  8
レイヤー_2
 62
     7
100
AcDbVertex
100
AcDb2dVertex
 10
128.529622
 20
184.457647
 30
0.0
  0
VERTEX
  5
3D9
100
AcDbEntity
  8
レイヤー_2
 62
     7
100
AcDbVertex
100
AcDb2dVertex
 10
128.530311
 20
184.440422
 30
0.0
  0
SEQEND
  5
3DA
100
AcDbEntity
  8
レイヤー_2
 62
     7
  0
LINE
  5
3CF
100
AcDbEntity
  8
レイヤー_2
 62
     7
100
AcDbLine
 10
128.526177
 20
185.224353
 30
0.0
 11
128.53479
 21
185.130646
 31
0.0
  0
LINE
  5
3CE
100
AcDbEntity
  8
レイヤー_2
 62
     7
100
AcDbLine
 10
128.536168
 20
185.006795
 30
0.0
 11
128.529622
 21
184.913089
 31
0.0
  0
LINE
  5
3CD
100
AcDbEntity
  8
レイヤー_2
 62
     7
100
AcDbLine
 10
128.529622
 20
184.446106
 30
0.0
 11
128.536168
 21
184.35171
 31
0.0
  0
LINE
  5
3CC
100
AcDbEntity
  8
レイヤー_2
 62
     7
100
AcDbLine
 10
128.53479
 20
184.227859
 30
0.0
 11
128.526177
 21
184.134153
 31
0.0
  0
LINE
  5
3CB
100
AcDbEntity
  8
レイヤー_2
 62
     7
100
AcDbLine
 10
128.445907
 20
186.621339
 30
0.0
 11
128.492071
 21
186.621339
 31
0.0
  0
LINE
  5
3CA
100
AcDbEntity
  8
レイヤー_2
 62
     7
100
AcDbLine
 10
128.511019
 20
186.230149
 30
0.0
 11
128.450385
 21
186.224292
 31
0.0
  0
LINE
  5
3C9
100
AcDbEntity
  8
レイヤー_2
 62
     7
100
AcDbLine
 10
128.450385
 20
183.134041
 30
0.0
 11
128.511019
 21
183.129046
 31
0.0
  0
LINE
  5
3C8
100
AcDbEntity
  8
レイヤー_2
 62
     7
100
AcDbLine
 10
128.492071
 20
182.737166
 30
0.0
 11
128.445907
 21
182.737166
 31
0.0
  0
LINE
  5
3C7
100
AcDbEntity
  8
レイヤー_2
 62
     7
100
AcDbLine
 10
128.526177
 20
185.828795
 30
0.0
 11
128.533067
 21
185.764716
 31
0.0
  0
LINE
  5
3C6
100
AcDbEntity
  8
レイヤー_2
 62
     7
100
AcDbLine
 10
128.536857
 20
185.635008
 30
0.0
 11
128.531689
 21
185.535617
 31
0.0
  0
LINE
  5
3C5
100
AcDbEntity
  8
レイヤー_2
 62
     7
100
AcDbLine
 10
128.531689
 20
183.823577
 30
0.0
 11
128.536857
 21
183.724875
 31
0.0
  0
LINE
  5
3C4
100
AcDbEntity
  8
レイヤー_2
 62
     7
100
AcDbLine
 10
128.533067
 20
183.594478
 30
0.0
 11
128.522388
 21
183.496465
 31
0.0
  0
LINE
  5
3C3
100
AcDbEntity
  8
レイヤー_2
 62
     7
100
AcDbLine
 10
128.523077
 20
186.581721
 30
0.0
 11
128.533067
 21
186.490253
 31
0.0
  0
LINE
  5
3C2
100
AcDbEntity
  8
レイヤー_2
 62
     7
100
AcDbLine
 10
128.538235
 20
186.36623
 30
0.0
 11
128.538235
 21
186.273385
 31
0.0
  0
LINE
  5
3C1
100
AcDbEntity
  8
レイヤー_2
 62
     7
100
AcDbLine
 10
128.538235
 20
183.08581
 30
0.0
 11
128.538235
 21
182.992965
 31
0.0
  0
LINE
  5
3C0
100
AcDbEntity
  8
レイヤー_2
 62
     7
100
AcDbLine
 10
128.533067
 20
182.86963
 30
0.0
 11
128.523077
 21
182.776785
 31
0.0
  0
LINE
  5
3BF
100
AcDbEntity
  8
レイヤー_2
 62
     7
100
AcDbLine
 10
128.536168
 20
184.928936
 30
0.0
 11
128.529622
 21
184.830923
 31
0.0
  0
LINE
  5
3BE
100
AcDbEntity
  8
レイヤー_2
 62
     7
100
AcDbLine
 10
128.529622
 20
184.528271
 30
0.0
 11
128.536168
 21
184.430259
 31
0.0
  0
LINE
  5
3BD
100
AcDbEntity
  8
レイヤー_2
 62
     7
100
AcDbLine
 10
128.445218
 20
186.764655
 30
0.0
 11
128.491382
 21
186.764655
 31
0.0
  0
LINE
  5
3BC
100
AcDbEntity
  8
レイヤー_2
 62
     7
100
AcDbLine
 10
128.491382
 20
182.592989
 30
0.0
 11
128.445218
 21
182.592989
 31
0.0
  0
SPLINE
  5
3BB
100
AcDbEntity
  8
レイヤー_2
 62
     7
100
AcDbSpline
210
0.0
220
0.0
230
1.0
 70
     8
 71
     3
 72
     8
 73
     4
 74
     0
 42
0.00000001
 43
0.00000001
 40
0.0
 40
0.0
 40
0.0
 40
0.0
 40
1.0
 40
1.0
 40
1.0
 40
1.0
 10
128.49138183593749
 20
186.76465521918402
 30
0.0
 10
128.50585123697917
 20
186.76465521918402
 30
0.0
 10
128.5196316189236
 20
186.75311414930553
 30
0.0
 10
128.52100965711804
 20
186.73881700303818
 30
0.0
  0
SPLINE
  5
3BA
100
AcDbEntity
  8
レイヤー_2
 62
     7
100
AcDbSpline
210
0.0
220
0.0
230
1.0
 70
     8
 71
     3
 72
     8
 73
     4
 74
     0
 42
0.00000001
 43
0.00000001
 40
0.0
 40
0.0
 40
0.0
 40
0.0
 40
1.0
 40
1.0
 40
1.0
 40
1.0
 10
128.52100965711804
 20
182.62037760416666
 30
0.0
 10
128.5196316189236
 20
182.60453016493054
 30
0.0
 10
128.50585123697917
 20
182.59298909505208
 30
0.0
 10
128.49138183593749
 20
182.59298909505208
 30
0.0
  0
LINE
  5
3B9
100
AcDbEntity
  8
レイヤー_2
 62
     7
100
AcDbLine
 10
128.536168
 20
185.845331
 30
0.0
 11
128.532378
 21
185.775396
 31
0.0
  0
LINE
  5
3B8
100
AcDbEntity
  8
レイヤー_2
 62
     7
100
AcDbLine
 10
128.532378
 20
183.583799
 30
0.0
 11
128.536857
 21
183.485097
 31
0.0
  0
LINE
  5
3B7
100
AcDbEntity
  8
レイヤー_2
 62
     7
100
AcDbLine
 10
128.531689
 20
184.195475
 30
0.0
 11
128.536168
 21
184.116927
 31
0.0
  0
LINE
  5
3B6
100
AcDbEntity
  8
レイヤー_2
 62
     7
100
AcDbLine
 10
128.536168
 20
185.242268
 30
0.0
 11
128.531689
 21
185.16527
 31
0.0
  0
LINE
  5
3B5
100
AcDbEntity
  8
レイヤー_2
 62
     7
100
AcDbLine
 10
128.52101
 20
186.738817
 30
0.0
 11
128.531689
 21
186.638565
 31
0.0
  0
LINE
  5
3B4
100
AcDbEntity
  8
レイヤー_2
 62
     7
100
AcDbLine
 10
128.538235
 20
186.505412
 30
0.0
 11
128.538235
 21
186.40447
 31
0.0
  0
LINE
  5
3B3
100
AcDbEntity
  8
レイヤー_2
 62
     7
100
AcDbLine
 10
128.538235
 20
182.954724
 30
0.0
 11
128.538235
 21
182.853783
 31
0.0
  0
LINE
  5
3B2
100
AcDbEntity
  8
レイヤー_2
 62
     7
100
AcDbLine
 10
128.531689
 20
182.719769
 30
0.0
 11
128.52101
 21
182.620378
 31
0.0
  0
LINE
  5
3B1
100
AcDbEntity
  8
レイヤー_2
 62
     7
100
AcDbLine
 10
128.407666
 20
182.071402
 30
0.0
 11
127.118856
 21
182.071402
 31
0.0
  0
LINE
  5
3B0
100
AcDbEntity
  8
レイヤー_2
 62
     7
100
AcDbLine
 10
127.118856
 20
187.287793
 30
0.0
 11
128.407666
 21
187.287793
 31
0.0
  0
LINE
  5
3AF
100
AcDbEntity
  8
レイヤー_2
 62
     7
100
AcDbLine
 10
128.445218
 20
182.561294
 30
0.0
 11
128.437294
 21
182.101718
 31
0.0
  0
LINE
  5
3AE
100
AcDbEntity
  8
レイヤー_2
 62
     7
100
AcDbLine
 10
128.437294
 20
187.257476
 30
0.0
 11
128.445218
 21
186.796522
 31
0.0
  0
LINE
  5
3AD
100
AcDbEntity
  8
レイヤー_2
 62
     7
100
AcDbLine
 10
122.199948
 20
164.558948
 30
0.0
 11
122.199948
 21
164.930674
 31
0.0
  0
LINE
  5
3AC
100
AcDbEntity
  8
レイヤー_2
 62
     7
100
AcDbLine
 10
126.075681
 20
164.930674
 30
0.0
 11
126.075681
 21
164.558948
 31
0.0
  0
LINE
  5
3AB
100
AcDbEntity
  8
レイヤー_2
 62
     7
100
AcDbLine
 10
121.157463
 20
187.287793
 30
0.0
 11
127.118856
 21
187.287793
 31
0.0
  0
LINE
  5
3AA
100
AcDbEntity
  8
レイヤー_2
 62
     7
100
AcDbLine
 10
121.937088
 20
182.071402
 30
0.0
 11
121.157463
 21
182.071402
 31
0.0
  0
LINE
  5
3A9
100
AcDbEntity
  8
レイヤー_2
 62
     7
100
AcDbLine
 10
127.118856
 20
182.071402
 30
0.0
 11
126.338542
 21
182.071402
 31
0.0
  0
SPLINE
  5
3A8
100
AcDbEntity
  8
レイヤー_2
 62
     7
100
AcDbSpline
210
0.0
220
0.0
230
1.0
 70
     8
 71
     3
 72
     8
 73
     4
 74
     0
 42
0.00000001
 43
0.00000001
 40
0.0
 40
0.0
 40
0.0
 40
0.0
 40
1.0
 40
1.0
 40
1.0
 40
1.0
 10
126.07774793836805
 20
181.80905761718748
 30
0.0
 10
126.07912597656249
 20
181.95323486328124
 30
0.0
 10
126.19453667534721
 20
182.06847330729164
 30
0.0
 10
126.33785264756943
 20
182.07002360026041
 30
0.0
  0
SPLINE
  5
3A7
100
AcDbEntity
  8
レイヤー_2
 62
     7
100
AcDbSpline
210
0.0
220
0.0
230
1.0
 70
     8
 71
     3
 72
     8
 73
     4
 74
     0
 42
0.00000001
 43
0.00000001
 40
0.0
 40
0.0
 40
0.0
 40
0.0
 40
1.0
 40
1.0
 40
1.0
 40
1.0
 10
121.93639865451388
 20
182.07002360026041
 30
0.0
 10
122.08178168402776
 20
182.06847330729164
 30
0.0
 10
122.19857042100693
 20
181.95185682508679
 30
0.0
 10
122.19857042100693
 20
181.80767957899303
 30
0.0
  0
LINE
  5
3A6
100
AcDbEntity
  8
レイヤー_2
 62
     7
100
AcDbLine
 10
126.075681
 20
181.809058
 30
0.0
 11
126.075681
 21
181.028054
 31
0.0
  0
LINE
  5
3A5
100
AcDbEntity
  8
レイヤー_2
 62
     7
100
AcDbLine
 10
122.199948
 20
181.028054
 30
0.0
 11
122.199948
 21
181.806991
 31
0.0
  0
LINE
  5
3A4
100
AcDbEntity
  8
レイヤー_2
 62
     7
100
AcDbLine
 10
126.075681
 20
181.028054
 30
0.0
 11
126.075681
 21
164.930674
 31
0.0
  0
LINE
  5
3A3
100
AcDbEntity
  8
レイヤー_2
 62
     7
100
AcDbLine
 10
122.199948
 20
164.930674
 30
0.0
 11
122.199948
 21
181.028054
 31
0.0
  0
POLYLINE
  5
396
100
AcDbEntity
  8
レイヤー_2
 62
     7
100
AcDb2dPolyline
 66
     1
 10
0.0
 20
0.0
 30
0.0
  0
VERTEX
  5
397
100
AcDbEntity
  8
レイヤー_2
 62
     7
100
AcDbVertex
100
AcDb2dVertex
 10
128.501373
 20
184.874848
 30
0.0
  0
VERTEX
  5
398
100
AcDbEntity
  8
レイヤー_2
 62
     7
100
AcDbVertex
100
AcDb2dVertex
 10
128.501373
 20
184.874848
 30
0.0
  0
VERTEX
  5
399
100
AcDbEntity
  8
レイヤー_2
 62
     7
100
AcDbVertex
100
AcDb2dVertex
 10
128.497238
 20
184.860379
 30
0.0
  0
VERTEX
  5
39A
100
AcDbEntity
  8
レイヤー_2
 62
     7
100
AcDbVertex
100
AcDb2dVertex
 10
128.494138
 20
184.818004
 30
0.0
  0
VERTEX
  5
39B
100
AcDbEntity
  8
レイヤー_2
 62
     7
100
AcDbVertex
100
AcDb2dVertex
 10
128.492071
 20
184.754614
 30
0.0
  0
VERTEX
  5
39C
100
AcDbEntity
  8
レイヤー_2
 62
     7
100
AcDbVertex
100
AcDb2dVertex
 10
128.491382
 20
184.679511
 30
0.0
  0
VERTEX
  5
39D
100
AcDbEntity
  8
レイヤー_2
 62
     7
100
AcDbVertex
100
AcDb2dVertex
 10
128.492071
 20
184.604753
 30
0.0
  0
VERTEX
  5
39E
100
AcDbEntity
  8
レイヤー_2
 62
     7
100
AcDbVertex
100
AcDb2dVertex
 10
128.494138
 20
184.541191
 30
0.0
  0
VERTEX
  5
39F
100
AcDbEntity
  8
レイヤー_2
 62
     7
100
AcDbVertex
100
AcDb2dVertex
 10
128.497238
 20
184.498816
 30
0.0
  0
VERTEX
  5
3A0
100
AcDbEntity
  8
レイヤー_2
 62
     7
100
AcDbVertex
100
AcDb2dVertex
 10
128.501373
 20
184.483657
 30
0.0
  0
VERTEX
  5
3A1
100
AcDbEntity
  8
レイヤー_2
 62
     7
100
AcDbVertex
100
AcDb2dVertex
 10
128.501373
 20
184.483657
 30
0.0
  0
SEQEND
  5
3A2
100
AcDbEntity
  8
レイヤー_2
 62
     7
  0
POLYLINE
  5
391
100
AcDbEntity
  8
レイヤー_2
 62
     7
100
AcDb2dPolyline
 66
     1
 10
0.0
 20
0.0
 30
0.0
  0
VERTEX
  5
392
100
AcDbEntity
  8
レイヤー_2
 62
     7
100
AcDbVertex
100
AcDb2dVertex
 10
128.536168
 20
184.786309
 30
0.0
  0
VERTEX
  5
393
100
AcDbEntity
  8
レイヤー_2
 62
     7
100
AcDbVertex
100
AcDb2dVertex
 10
128.538235
 20
184.744451
 30
0.0
  0
VERTEX
  5
394
100
AcDbEntity
  8
レイヤー_2
 62
     7
100
AcDbVertex
100
AcDb2dVertex
 10
128.538235
 20
184.679511
 30
0.0
  0
SEQEND
  5
395
100
AcDbEntity
  8
レイヤー_2
 62
     7
  0
POLYLINE
  5
37E
100
AcDbEntity
  8
レイヤー_2
 62
     7
100
AcDb2dPolyline
 66
     1
 10
0.0
 20
0.0
 30
0.0
  0
VERTEX
  5
37F
100
AcDbEntity
  8
レイヤー_2
 62
     7
100
AcDbVertex
100
AcDb2dVertex
 10
128.531689
 20
184.679511
 30
0.0
  0
VERTEX
  5
380
100
AcDbEntity
  8
レイヤー_2
 62
     7
100
AcDbVertex
100
AcDb2dVertex
 10
128.531689
 20
184.704833
 30
0.0
  0
VERTEX
  5
381
100
AcDbEntity
  8
レイヤー_2
 62
     7
100
AcDbVertex
100
AcDb2dVertex
 10
128.533067
 20
184.727226
 30
0.0
  0
VERTEX
  5
382
100
AcDbEntity
  8
レイヤー_2
 62
     7
100
AcDbVertex
100
AcDb2dVertex
 10
128.533067
 20
184.741523
 30
0.0
  0
VERTEX
  5
383
100
AcDbEntity
  8
レイヤー_2
 62
     7
100
AcDbVertex
100
AcDb2dVertex
 10
128.53479
 20
184.746691
 30
0.0
  0
VERTEX
  5
384
100
AcDbEntity
  8
レイヤー_2
 62
     7
100
AcDbVertex
100
AcDb2dVertex
 10
128.536168
 20
184.741523
 30
0.0
  0
VERTEX
  5
385
100
AcDbEntity
  8
レイヤー_2
 62
     7
100
AcDbVertex
100
AcDb2dVertex
 10
128.537546
 20
184.727226
 30
0.0
  0
VERTEX
  5
386
100
AcDbEntity
  8
レイヤー_2
 62
     7
100
AcDbVertex
100
AcDb2dVertex
 10
128.538235
 20
184.704833
 30
0.0
  0
VERTEX
  5
387
100
AcDbEntity
  8
レイヤー_2
 62
     7
100
AcDbVertex
100
AcDb2dVertex
 10
128.538235
 20
184.679511
 30
0.0
  0
VERTEX
  5
388
100
AcDbEntity
  8
レイヤー_2
 62
     7
100
AcDbVertex
100
AcDb2dVertex
 10
128.538235
 20
184.653673
 30
0.0
  0
VERTEX
  5
389
100
AcDbEntity
  8
レイヤー_2
 62
     7
100
AcDbVertex
100
AcDb2dVertex
 10
128.537546
 20
184.631969
 30
0.0
  0
VERTEX
  5
38A
100
AcDbEntity
  8
レイヤー_2
 62
     7
100
AcDbVertex
100
AcDb2dVertex
 10
128.536168
 20
184.617672
 30
0.0
  0
VERTEX
  5
38B
100
AcDbEntity
  8
レイヤー_2
 62
     7
100
AcDbVertex
100
AcDb2dVertex
 10
128.53479
 20
184.612676
 30
0.0
  0
VERTEX
  5
38C
100
AcDbEntity
  8
レイヤー_2
 62
     7
100
AcDbVertex
100
AcDb2dVertex
 10
128.533067
 20
184.617672
 30
0.0
  0
VERTEX
  5
38D
100
AcDbEntity
  8
レイヤー_2
 62
     7
100
AcDbVertex
100
AcDb2dVertex
 10
128.533067
 20
184.631969
 30
0.0
  0
VERTEX
  5
38E
100
AcDbEntity
  8
レイヤー_2
 62
     7
100
AcDbVertex
100
AcDb2dVertex
 10
128.531689
 20
184.653673
 30
0.0
  0
VERTEX
  5
38F
100
AcDbEntity
  8
レイヤー_2
 62
     7
100
AcDbVertex
100
AcDb2dVertex
 10
128.531689
 20
184.679511
 30
0.0
  0
SEQEND
  5
390
100
AcDbEntity
  8
レイヤー_2
 62
     7
  0
POLYLINE
  5
372
100
AcDbEntity
  8
レイヤー_2
 62
     7
100
AcDb2dPolyline
 66
     1
 10
0.0
 20
0.0
 30
0.0
  0
VERTEX
  5
373
100
AcDbEntity
  8
レイヤー_2
 62
     7
100
AcDbVertex
100
AcDb2dVertex
 10
128.497238
 20
185.598318
 30
0.0
  0
VERTEX
  5
374
100
AcDbEntity
  8
レイヤー_2
 62
     7
100
AcDbVertex
100
AcDb2dVertex
 10
128.494138
 20
185.58316
 30
0.0
  0
VERTEX
  5
375
100
AcDbEntity
  8
レイヤー_2
 62
     7
100
AcDbVertex
100
AcDb2dVertex
 10
128.492071
 20
185.541302
 30
0.0
  0
VERTEX
  5
376
100
AcDbEntity
  8
レイヤー_2
 62
     7
100
AcDbVertex
100
AcDb2dVertex
 10
128.491382
 20
185.477912
 30
0.0
  0
VERTEX
  5
377
100
AcDbEntity
  8
レイヤー_2
 62
     7
100
AcDbVertex
100
AcDb2dVertex
 10
128.492071
 20
185.402292
 30
0.0
  0
VERTEX
  5
378
100
AcDbEntity
  8
レイヤー_2
 62
     7
100
AcDbVertex
100
AcDb2dVertex
 10
128.494138
 20
185.32805
 30
0.0
  0
VERTEX
  5
379
100
AcDbEntity
  8
レイヤー_2
 62
     7
100
AcDbVertex
100
AcDb2dVertex
 10
128.497238
 20
185.264661
 30
0.0
  0
VERTEX
  5
37A
100
AcDbEntity
  8
レイヤー_2
 62
     7
100
AcDbVertex
100
AcDb2dVertex
 10
128.501373
 20
185.222803
 30
0.0
  0
VERTEX
  5
37B
100
AcDbEntity
  8
レイヤー_2
 62
     7
100
AcDbVertex
100
AcDb2dVertex
 10
128.505851
 20
185.208506
 30
0.0
  0
VERTEX
  5
37C
100
AcDbEntity
  8
レイヤー_2
 62
     7
100
AcDbVertex
100
AcDb2dVertex
 10
128.505851
 20
185.208506
 30
0.0
  0
SEQEND
  5
37D
100
AcDbEntity
  8
レイヤー_2
 62
     7
  0
POLYLINE
  5
366
100
AcDbEntity
  8
レイヤー_2
 62
     7
100
AcDb2dPolyline
 66
     1
 10
0.0
 20
0.0
 30
0.0
  0
VERTEX
  5
367
100
AcDbEntity
  8
レイヤー_2
 62
     7
100
AcDbVertex
100
AcDb2dVertex
 10
128.505851
 20
184.152239
 30
0.0
  0
VERTEX
  5
368
100
AcDbEntity
  8
レイヤー_2
 62
     7
100
AcDbVertex
100
AcDb2dVertex
 10
128.505851
 20
184.152239
 30
0.0
  0
VERTEX
  5
369
100
AcDbEntity
  8
レイヤー_2
 62
     7
100
AcDbVertex
100
AcDb2dVertex
 10
128.501373
 20
184.136392
 30
0.0
  0
VERTEX
  5
36A
100
AcDbEntity
  8
レイヤー_2
 62
     7
100
AcDbVertex
100
AcDb2dVertex
 10
128.497238
 20
184.094534
 30
0.0
  0
VERTEX
  5
36B
100
AcDbEntity
  8
レイヤー_2
 62
     7
100
AcDbVertex
100
AcDb2dVertex
 10
128.494138
 20
184.031144
 30
0.0
  0
VERTEX
  5
36C
100
AcDbEntity
  8
レイヤー_2
 62
     7
100
AcDbVertex
100
AcDb2dVertex
 10
128.492071
 20
183.955524
 30
0.0
  0
VERTEX
  5
36D
100
AcDbEntity
  8
レイヤー_2
 62
     7
100
AcDbVertex
100
AcDb2dVertex
 10
128.491382
 20
183.881283
 30
0.0
  0
VERTEX
  5
36E
100
AcDbEntity
  8
レイヤー_2
 62
     7
100
AcDbVertex
100
AcDb2dVertex
 10
128.492071
 20
183.817893
 30
0.0
  0
VERTEX
  5
36F
100
AcDbEntity
  8
レイヤー_2
 62
     7
100
AcDbVertex
100
AcDb2dVertex
 10
128.494138
 20
183.775346
 30
0.0
  0
VERTEX
  5
370
100
AcDbEntity
  8
レイヤー_2
 62
     7
100
AcDbVertex
100
AcDb2dVertex
 10
128.497238
 20
183.760187
 30
0.0
  0
SEQEND
  5
371
100
AcDbEntity
  8
レイヤー_2
 62
     7
  0
POLYLINE
  5
361
100
AcDbEntity
  8
レイヤー_2
 62
     7
100
AcDb2dPolyline
 66
     1
 10
0.0
 20
0.0
 30
0.0
  0
VERTEX
  5
362
100
AcDbEntity
  8
レイヤー_2
 62
     7
100
AcDbVertex
100
AcDb2dVertex
 10
128.538235
 20
184.065078
 30
0.0
  0
VERTEX
  5
363
100
AcDbEntity
  8
レイヤー_2
 62
     7
100
AcDbVertex
100
AcDb2dVertex
 10
128.538235
 20
184.019603
 30
0.0
  0
VERTEX
  5
364
100
AcDbEntity
  8
レイヤー_2
 62
     7
100
AcDbVertex
100
AcDb2dVertex
 10
128.538235
 20
184.016675
 30
0.0
  0
SEQEND
  5
365
100
AcDbEntity
  8
レイヤー_2
 62
     7
  0
POLYLINE
  5
35C
100
AcDbEntity
  8
レイヤー_2
 62
     7
100
AcDb2dPolyline
 66
     1
 10
0.0
 20
0.0
 30
0.0
  0
VERTEX
  5
35D
100
AcDbEntity
  8
レイヤー_2
 62
     7
100
AcDbVertex
100
AcDb2dVertex
 10
128.533067
 20
185.513224
 30
0.0
  0
VERTEX
  5
35E
100
AcDbEntity
  8
レイヤー_2
 62
     7
100
AcDbVertex
100
AcDb2dVertex
 10
128.536168
 20
185.467749
 30
0.0
  0
VERTEX
  5
35F
100
AcDbEntity
  8
レイヤー_2
 62
     7
100
AcDbVertex
100
AcDb2dVertex
 10
128.536168
 20
185.466371
 30
0.0
  0
SEQEND
  5
360
100
AcDbEntity
  8
レイヤー_2
 62
     7
  0
POLYLINE
  5
349
100
AcDbEntity
  8
レイヤー_2
 62
     7
100
AcDb2dPolyline
 66
     1
 10
0.0
 20
0.0
 30
0.0
  0
VERTEX
  5
34A
100
AcDbEntity
  8
レイヤー_2
 62
     7
100
AcDbVertex
100
AcDb2dVertex
 10
128.531689
 20
185.428992
 30
0.0
  0
VERTEX
  5
34B
100
AcDbEntity
  8
レイヤー_2
 62
     7
100
AcDbVertex
100
AcDb2dVertex
 10
128.531689
 20
185.450524
 30
0.0
  0
VERTEX
  5
34C
100
AcDbEntity
  8
レイヤー_2
 62
     7
100
AcDbVertex
100
AcDb2dVertex
 10
128.533067
 20
185.464993
 30
0.0
  0
VERTEX
  5
34D
100
AcDbEntity
  8
レイヤー_2
 62
     7
100
AcDbVertex
100
AcDb2dVertex
 10
128.533067
 20
185.470677
 30
0.0
  0
VERTEX
  5
34E
100
AcDbEntity
  8
レイヤー_2
 62
     7
100
AcDbVertex
100
AcDb2dVertex
 10
128.53479
 20
185.464993
 30
0.0
  0
VERTEX
  5
34F
100
AcDbEntity
  8
レイヤー_2
 62
     7
100
AcDbVertex
100
AcDb2dVertex
 10
128.536168
 20
185.450524
 30
0.0
  0
VERTEX
  5
350
100
AcDbEntity
  8
レイヤー_2
 62
     7
100
AcDbVertex
100
AcDb2dVertex
 10
128.537546
 20
185.429681
 30
0.0
  0
VERTEX
  5
351
100
AcDbEntity
  8
レイヤー_2
 62
     7
100
AcDbVertex
100
AcDb2dVertex
 10
128.538235
 20
185.40367
 30
0.0
  0
VERTEX
  5
352
100
AcDbEntity
  8
レイヤー_2
 62
     7
100
AcDbVertex
100
AcDb2dVertex
 10
128.538235
 20
185.377832
 30
0.0
  0
VERTEX
  5
353
100
AcDbEntity
  8
レイヤー_2
 62
     7
100
AcDbVertex
100
AcDb2dVertex
 10
128.538235
 20
185.356817
 30
0.0
  0
VERTEX
  5
354
100
AcDbEntity
  8
レイヤー_2
 62
     7
100
AcDbVertex
100
AcDb2dVertex
 10
128.537546
 20
185.34097
 30
0.0
  0
VERTEX
  5
355
100
AcDbEntity
  8
レイヤー_2
 62
     7
100
AcDbVertex
100
AcDb2dVertex
 10
128.536168
 20
185.336663
 30
0.0
  0
VERTEX
  5
356
100
AcDbEntity
  8
レイヤー_2
 62
     7
100
AcDbVertex
100
AcDb2dVertex
 10
128.53479
 20
185.34097
 30
0.0
  0
VERTEX
  5
357
100
AcDbEntity
  8
レイヤー_2
 62
     7
100
AcDbVertex
100
AcDb2dVertex
 10
128.533067
 20
185.356817
 30
0.0
  0
VERTEX
  5
358
100
AcDbEntity
  8
レイヤー_2
 62
     7
100
AcDbVertex
100
AcDb2dVertex
 10
128.533067
 20
185.377832
 30
0.0
  0
VERTEX
  5
359
100
AcDbEntity
  8
レイヤー_2
 62
     7
100
AcDbVertex
100
AcDb2dVertex
 10
128.531689
 20
185.40367
 30
0.0
  0
VERTEX
  5
35A
100
AcDbEntity
  8
レイヤー_2
 62
     7
100
AcDbVertex
100
AcDb2dVertex
 10
128.531689
 20
185.428992
 30
0.0
  0
SEQEND
  5
35B
100
AcDbEntity
  8
レイヤー_2
 62
     7
  0
POLYLINE
  5
336
100
AcDbEntity
  8
レイヤー_2
 62
     7
100
AcDb2dPolyline
 66
     1
 10
0.0
 20
0.0
 30
0.0
  0
VERTEX
  5
337
100
AcDbEntity
  8
レイヤー_2
 62
     7
100
AcDbVertex
100
AcDb2dVertex
 10
128.531689
 20
183.929514
 30
0.0
  0
VERTEX
  5
338
100
AcDbEntity
  8
レイヤー_2
 62
     7
100
AcDbVertex
100
AcDb2dVertex
 10
128.531689
 20
183.955524
 30
0.0
  0
VERTEX
  5
339
100
AcDbEntity
  8
レイヤー_2
 62
     7
100
AcDbVertex
100
AcDb2dVertex
 10
128.533067
 20
183.981363
 30
0.0
  0
VERTEX
  5
33A
100
AcDbEntity
  8
レイヤー_2
 62
     7
100
AcDbVertex
100
AcDb2dVertex
 10
128.533067
 20
184.002378
 30
0.0
  0
VERTEX
  5
33B
100
AcDbEntity
  8
レイヤー_2
 62
     7
100
AcDbVertex
100
AcDb2dVertex
 10
128.53479
 20
184.016675
 30
0.0
  0
VERTEX
  5
33C
100
AcDbEntity
  8
レイヤー_2
 62
     7
100
AcDbVertex
100
AcDb2dVertex
 10
128.536168
 20
184.022531
 30
0.0
  0
VERTEX
  5
33D
100
AcDbEntity
  8
レイヤー_2
 62
     7
100
AcDbVertex
100
AcDb2dVertex
 10
128.537546
 20
184.016675
 30
0.0
  0
VERTEX
  5
33E
100
AcDbEntity
  8
レイヤー_2
 62
     7
100
AcDbVertex
100
AcDb2dVertex
 10
128.538235
 20
184.002378
 30
0.0
  0
VERTEX
  5
33F
100
AcDbEntity
  8
レイヤー_2
 62
     7
100
AcDbVertex
100
AcDb2dVertex
 10
128.538235
 20
183.981363
 30
0.0
  0
VERTEX
  5
340
100
AcDbEntity
  8
レイヤー_2
 62
     7
100
AcDbVertex
100
AcDb2dVertex
 10
128.538235
 20
183.955524
 30
0.0
  0
VERTEX
  5
341
100
AcDbEntity
  8
レイヤー_2
 62
     7
100
AcDbVertex
100
AcDb2dVertex
 10
128.537546
 20
183.929514
 30
0.0
  0
VERTEX
  5
342
100
AcDbEntity
  8
レイヤー_2
 62
     7
100
AcDbVertex
100
AcDb2dVertex
 10
128.536168
 20
183.907293
 30
0.0
  0
VERTEX
  5
343
100
AcDbEntity
  8
レイヤー_2
 62
     7
100
AcDbVertex
100
AcDb2dVertex
 10
128.53479
 20
183.894202
 30
0.0
  0
VERTEX
  5
344
100
AcDbEntity
  8
レイヤー_2
 62
     7
100
AcDbVertex
100
AcDb2dVertex
 10
128.533067
 20
183.888517
 30
0.0
  0
VERTEX
  5
345
100
AcDbEntity
  8
レイヤー_2
 62
     7
100
AcDbVertex
100
AcDb2dVertex
 10
128.533067
 20
183.894202
 30
0.0
  0
VERTEX
  5
346
100
AcDbEntity
  8
レイヤー_2
 62
     7
100
AcDbVertex
100
AcDb2dVertex
 10
128.531689
 20
183.907293
 30
0.0
  0
VERTEX
  5
347
100
AcDbEntity
  8
レイヤー_2
 62
     7
100
AcDbVertex
100
AcDb2dVertex
 10
128.531689
 20
183.929514
 30
0.0
  0
SEQEND
  5
348
100
AcDbEntity
  8
レイヤー_2
 62
     7
  0
POLYLINE
  5
32A
100
AcDbEntity
  8
レイヤー_2
 62
     7
100
AcDb2dPolyline
 66
     1
 10
0.0
 20
0.0
 30
0.0
  0
VERTEX
  5
32B
100
AcDbEntity
  8
レイヤー_2
 62
     7
100
AcDbVertex
100
AcDb2dVertex
 10
128.494138
 20
186.211373
 30
0.0
  0
VERTEX
  5
32C
100
AcDbEntity
  8
レイヤー_2
 62
     7
100
AcDbVertex
100
AcDb2dVertex
 10
128.492071
 20
186.196903
 30
0.0
  0
VERTEX
  5
32D
100
AcDbEntity
  8
レイヤー_2
 62
     7
100
AcDbVertex
100
AcDb2dVertex
 10
128.491382
 20
186.155218
 30
0.0
  0
VERTEX
  5
32E
100
AcDbEntity
  8
レイヤー_2
 62
     7
100
AcDbVertex
100
AcDb2dVertex
 10
128.492071
 20
186.090967
 30
0.0
  0
VERTEX
  5
32F
100
AcDbEntity
  8
レイヤー_2
 62
     7
100
AcDbVertex
100
AcDb2dVertex
 10
128.494138
 20
186.016897
 30
0.0
  0
VERTEX
  5
330
100
AcDbEntity
  8
レイヤー_2
 62
     7
100
AcDbVertex
100
AcDb2dVertex
 10
128.497238
 20
185.941966
 30
0.0
  0
VERTEX
  5
331
100
AcDbEntity
  8
レイヤー_2
 62
     7
100
AcDbVertex
100
AcDb2dVertex
 10
128.501373
 20
185.878577
 30
0.0
  0
VERTEX
  5
332
100
AcDbEntity
  8
レイヤー_2
 62
     7
100
AcDbVertex
100
AcDb2dVertex
 10
128.505851
 20
185.835341
 30
0.0
  0
VERTEX
  5
333
100
AcDbEntity
  8
レイヤー_2
 62
     7
100
AcDbVertex
100
AcDb2dVertex
 10
128.508607
 20
185.820871
 30
0.0
  0
VERTEX
  5
334
100
AcDbEntity
  8
レイヤー_2
 62
     7
100
AcDbVertex
100
AcDb2dVertex
 10
128.508607
 20
185.820871
 30
0.0
  0
SEQEND
  5
335
100
AcDbEntity
  8
レイヤー_2
 62
     7
  0
POLYLINE
  5
31F
100
AcDbEntity
  8
レイヤー_2
 62
     7
100
AcDb2dPolyline
 66
     1
 10
0.0
 20
0.0
 30
0.0
  0
VERTEX
  5
320
100
AcDbEntity
  8
レイヤー_2
 62
     7
100
AcDbVertex
100
AcDb2dVertex
 10
128.508607
 20
183.538323
 30
0.0
  0
VERTEX
  5
321
100
AcDbEntity
  8
レイヤー_2
 62
     7
100
AcDbVertex
100
AcDb2dVertex
 10
128.505851
 20
183.522476
 30
0.0
  0
VERTEX
  5
322
100
AcDbEntity
  8
レイヤー_2
 62
     7
100
AcDbVertex
100
AcDb2dVertex
 10
128.501373
 20
183.480618
 30
0.0
  0
VERTEX
  5
323
100
AcDbEntity
  8
レイヤー_2
 62
     7
100
AcDbVertex
100
AcDb2dVertex
 10
128.497238
 20
183.417228
 30
0.0
  0
VERTEX
  5
324
100
AcDbEntity
  8
レイヤー_2
 62
     7
100
AcDbVertex
100
AcDb2dVertex
 10
128.494138
 20
183.342297
 30
0.0
  0
VERTEX
  5
325
100
AcDbEntity
  8
レイヤー_2
 62
     7
100
AcDbVertex
100
AcDb2dVertex
 10
128.492071
 20
183.268056
 30
0.0
  0
VERTEX
  5
326
100
AcDbEntity
  8
レイヤー_2
 62
     7
100
AcDbVertex
100
AcDb2dVertex
 10
128.491382
 20
183.204666
 30
0.0
  0
VERTEX
  5
327
100
AcDbEntity
  8
レイヤー_2
 62
     7
100
AcDbVertex
100
AcDb2dVertex
 10
128.492071
 20
183.162291
 30
0.0
  0
VERTEX
  5
328
100
AcDbEntity
  8
レイヤー_2
 62
     7
100
AcDbVertex
100
AcDb2dVertex
 10
128.494138
 20
183.147822
 30
0.0
  0
SEQEND
  5
329
100
AcDbEntity
  8
レイヤー_2
 62
     7
  0
POLYLINE
  5
31A
100
AcDbEntity
  8
レイヤー_2
 62
     7
100
AcDb2dPolyline
 66
     1
 10
0.0
 20
0.0
 30
0.0
  0
VERTEX
  5
31B
100
AcDbEntity
  8
レイヤー_2
 62
     7
100
AcDbVertex
100
AcDb2dVertex
 10
128.526866
 20
186.168137
 30
0.0
  0
VERTEX
  5
31C
100
AcDbEntity
  8
レイヤー_2
 62
     7
100
AcDbVertex
100
AcDb2dVertex
 10
128.529622
 20
186.135064
 30
0.0
  0
VERTEX
  5
31D
100
AcDbEntity
  8
レイヤー_2
 62
     7
100
AcDbVertex
100
AcDb2dVertex
 10
128.529622
 20
186.135064
 30
0.0
  0
SEQEND
  5
31E
100
AcDbEntity
  8
レイヤー_2
 62
     7
  0
POLYLINE
  5
307
100
AcDbEntity
  8
レイヤー_2
 62
     7
100
AcDb2dPolyline
 66
     1
 10
0.0
 20
0.0
 30
0.0
  0
VERTEX
  5
308
100
AcDbEntity
  8
レイヤー_2
 62
     7
100
AcDbVertex
100
AcDb2dVertex
 10
128.531689
 20
183.294066
 30
0.0
  0
VERTEX
  5
309
100
AcDbEntity
  8
レイヤー_2
 62
     7
100
AcDbVertex
100
AcDb2dVertex
 10
128.531689
 20
183.314909
 30
0.0
  0
VERTEX
  5
30A
100
AcDbEntity
  8
レイヤー_2
 62
     7
100
AcDbVertex
100
AcDb2dVertex
 10
128.533067
 20
183.342297
 30
0.0
  0
VERTEX
  5
30B
100
AcDbEntity
  8
レイヤー_2
 62
     7
100
AcDbVertex
100
AcDb2dVertex
 10
128.533067
 20
183.36693
 30
0.0
  0
VERTEX
  5
30C
100
AcDbEntity
  8
レイヤー_2
 62
     7
100
AcDbVertex
100
AcDb2dVertex
 10
128.53479
 20
183.388462
 30
0.0
  0
VERTEX
  5
30D
100
AcDbEntity
  8
レイヤー_2
 62
     7
100
AcDbVertex
100
AcDb2dVertex
 10
128.536168
 20
183.40362
 30
0.0
  0
VERTEX
  5
30E
100
AcDbEntity
  8
レイヤー_2
 62
     7
100
AcDbVertex
100
AcDb2dVertex
 10
128.537546
 20
183.408615
 30
0.0
  0
VERTEX
  5
30F
100
AcDbEntity
  8
レイヤー_2
 62
     7
100
AcDbVertex
100
AcDb2dVertex
 10
128.538235
 20
183.40362
 30
0.0
  0
VERTEX
  5
310
100
AcDbEntity
  8
レイヤー_2
 62
     7
100
AcDbVertex
100
AcDb2dVertex
 10
128.538235
 20
183.388462
 30
0.0
  0
VERTEX
  5
311
100
AcDbEntity
  8
レイヤー_2
 62
     7
100
AcDbVertex
100
AcDb2dVertex
 10
128.538235
 20
183.36693
 30
0.0
  0
VERTEX
  5
312
100
AcDbEntity
  8
レイヤー_2
 62
     7
100
AcDbVertex
100
AcDb2dVertex
 10
128.537546
 20
183.341608
 30
0.0
  0
VERTEX
  5
313
100
AcDbEntity
  8
レイヤー_2
 62
     7
100
AcDbVertex
100
AcDb2dVertex
 10
128.536168
 20
183.314909
 30
0.0
  0
VERTEX
  5
314
100
AcDbEntity
  8
レイヤー_2
 62
     7
100
AcDbVertex
100
AcDb2dVertex
 10
128.53479
 20
183.294066
 30
0.0
  0
VERTEX
  5
315
100
AcDbEntity
  8
レイヤー_2
 62
     7
100
AcDbVertex
100
AcDb2dVertex
 10
128.533067
 20
183.278908
 30
0.0
  0
VERTEX
  5
316
100
AcDbEntity
  8
レイヤー_2
 62
     7
100
AcDbVertex
100
AcDb2dVertex
 10
128.533067
 20
183.274601
 30
0.0
  0
VERTEX
  5
317
100
AcDbEntity
  8
レイヤー_2
 62
     7
100
AcDbVertex
100
AcDb2dVertex
 10
128.531689
 20
183.278908
 30
0.0
  0
VERTEX
  5
318
100
AcDbEntity
  8
レイヤー_2
 62
     7
100
AcDbVertex
100
AcDb2dVertex
 10
128.531689
 20
183.294066
 30
0.0
  0
SEQEND
  5
319
100
AcDbEntity
  8
レイヤー_2
 62
     7
  0
POLYLINE
  5
2F4
100
AcDbEntity
  8
レイヤー_2
 62
     7
100
AcDb2dPolyline
 66
     1
 10
0.0
 20
0.0
 30
0.0
  0
VERTEX
  5
2F5
100
AcDbEntity
  8
レイヤー_2
 62
     7
100
AcDbVertex
100
AcDb2dVertex
 10
128.531689
 20
186.065129
 30
0.0
  0
VERTEX
  5
2F6
100
AcDbEntity
  8
レイヤー_2
 62
     7
100
AcDbVertex
100
AcDb2dVertex
 10
128.531689
 20
186.079598
 30
0.0
  0
VERTEX
  5
2F7
100
AcDbEntity
  8
レイヤー_2
 62
     7
100
AcDbVertex
100
AcDb2dVertex
 10
128.533067
 20
186.084593
 30
0.0
  0
VERTEX
  5
2F8
100
AcDbEntity
  8
レイヤー_2
 62
     7
100
AcDbVertex
100
AcDb2dVertex
 10
128.533067
 20
186.079598
 30
0.0
  0
VERTEX
  5
2F9
100
AcDbEntity
  8
レイヤー_2
 62
     7
100
AcDbVertex
100
AcDb2dVertex
 10
128.53479
 20
186.065129
 30
0.0
  0
VERTEX
  5
2FA
100
AcDbEntity
  8
レイヤー_2
 62
     7
100
AcDbVertex
100
AcDb2dVertex
 10
128.536168
 20
186.042735
 30
0.0
  0
VERTEX
  5
2FB
100
AcDbEntity
  8
レイヤー_2
 62
     7
100
AcDbVertex
100
AcDb2dVertex
 10
128.537546
 20
186.018275
 30
0.0
  0
VERTEX
  5
2FC
100
AcDbEntity
  8
レイヤー_2
 62
     7
100
AcDbVertex
100
AcDb2dVertex
 10
128.538235
 20
185.991576
 30
0.0
  0
VERTEX
  5
2FD
100
AcDbEntity
  8
レイヤー_2
 62
     7
100
AcDbVertex
100
AcDb2dVertex
 10
128.538235
 20
185.970044
 30
0.0
  0
VERTEX
  5
2FE
100
AcDbEntity
  8
レイヤー_2
 62
     7
100
AcDbVertex
100
AcDb2dVertex
 10
128.538235
 20
185.955575
 30
0.0
  0
VERTEX
  5
2FF
100
AcDbEntity
  8
レイヤー_2
 62
     7
100
AcDbVertex
100
AcDb2dVertex
 10
128.537546
 20
185.94989
 30
0.0
  0
VERTEX
  5
300
100
AcDbEntity
  8
レイヤー_2
 62
     7
100
AcDbVertex
100
AcDb2dVertex
 10
128.536168
 20
185.955575
 30
0.0
  0
VERTEX
  5
301
100
AcDbEntity
  8
レイヤー_2
 62
     7
100
AcDbVertex
100
AcDb2dVertex
 10
128.53479
 20
185.970044
 30
0.0
  0
VERTEX
  5
302
100
AcDbEntity
  8
レイヤー_2
 62
     7
100
AcDbVertex
100
AcDb2dVertex
 10
128.533067
 20
185.991576
 30
0.0
  0
VERTEX
  5
303
100
AcDbEntity
  8
レイヤー_2
 62
     7
100
AcDbVertex
100
AcDb2dVertex
 10
128.533067
 20
186.018275
 30
0.0
  0
VERTEX
  5
304
100
AcDbEntity
  8
レイヤー_2
 62
     7
100
AcDbVertex
100
AcDb2dVertex
 10
128.531689
 20
186.042735
 30
0.0
  0
VERTEX
  5
305
100
AcDbEntity
  8
レイヤー_2
 62
     7
100
AcDbVertex
100
AcDb2dVertex
 10
128.531689
 20
186.065129
 30
0.0
  0
SEQEND
  5
306
100
AcDbEntity
  8
レイヤー_2
 62
     7
  0
POLYLINE
  5
2ED
100
AcDbEntity
  8
レイヤー_2
 62
     7
100
AcDb2dPolyline
 66
     1
 10
0.0
 20
0.0
 30
0.0
  0
VERTEX
  5
2EE
100
AcDbEntity
  8
レイヤー_2
 62
     7
100
AcDbVertex
100
AcDb2dVertex
 10
128.491382
 20
185.068635
 30
0.0
  0
VERTEX
  5
2EF
100
AcDbEntity
  8
レイヤー_2
 62
     7
100
AcDbVertex
100
AcDb2dVertex
 10
128.492071
 20
184.993704
 30
0.0
  0
VERTEX
  5
2F0
100
AcDbEntity
  8
レイヤー_2
 62
     7
100
AcDbVertex
100
AcDb2dVertex
 10
128.494138
 20
184.930314
 30
0.0
  0
VERTEX
  5
2F1
100
AcDbEntity
  8
レイヤー_2
 62
     7
100
AcDbVertex
100
AcDb2dVertex
 10
128.497238
 20
184.887767
 30
0.0
  0
VERTEX
  5
2F2
100
AcDbEntity
  8
レイヤー_2
 62
     7
100
AcDbVertex
100
AcDb2dVertex
 10
128.499306
 20
184.874848
 30
0.0
  0
SEQEND
  5
2F3
100
AcDbEntity
  8
レイヤー_2
 62
     7
  0
POLYLINE
  5
2E8
100
AcDbEntity
  8
レイヤー_2
 62
     7
100
AcDb2dPolyline
 66
     1
 10
0.0
 20
0.0
 30
0.0
  0
VERTEX
  5
2E9
100
AcDbEntity
  8
レイヤー_2
 62
     7
100
AcDbVertex
100
AcDb2dVertex
 10
128.492071
 20
185.206955
 30
0.0
  0
VERTEX
  5
2EA
100
AcDbEntity
  8
レイヤー_2
 62
     7
100
AcDbVertex
100
AcDb2dVertex
 10
128.491382
 20
185.143566
 30
0.0
  0
VERTEX
  5
2EB
100
AcDbEntity
  8
レイヤー_2
 62
     7
100
AcDbVertex
100
AcDb2dVertex
 10
128.491382
 20
185.068635
 30
0.0
  0
SEQEND
  5
2EC
100
AcDbEntity
  8
レイヤー_2
 62
     7
  0
POLYLINE
  5
2E3
100
AcDbEntity
  8
レイヤー_2
 62
     7
100
AcDb2dPolyline
 66
     1
 10
0.0
 20
0.0
 30
0.0
  0
VERTEX
  5
2E4
100
AcDbEntity
  8
レイヤー_2
 62
     7
100
AcDbVertex
100
AcDb2dVertex
 10
128.529622
 20
184.446106
 30
0.0
  0
VERTEX
  5
2E5
100
AcDbEntity
  8
レイヤー_2
 62
     7
100
AcDbVertex
100
AcDb2dVertex
 10
128.529622
 20
184.446106
 30
0.0
  0
VERTEX
  5
2E6
100
AcDbEntity
  8
レイヤー_2
 62
     7
100
AcDbVertex
100
AcDb2dVertex
 10
128.530311
 20
184.4418
 30
0.0
  0
SEQEND
  5
2E7
100
AcDbEntity
  8
レイヤー_2
 62
     7
  0
POLYLINE
  5
2D0
100
AcDbEntity
  8
レイヤー_2
 62
     7
100
AcDb2dPolyline
 66
     1
 10
0.0
 20
0.0
 30
0.0
  0
VERTEX
  5
2D1
100
AcDbEntity
  8
レイヤー_2
 62
     7
100
AcDbVertex
100
AcDb2dVertex
 10
128.536857
 20
185.047792
 30
0.0
  0
VERTEX
  5
2D2
100
AcDbEntity
  8
レイヤー_2
 62
     7
100
AcDbVertex
100
AcDb2dVertex
 10
128.536857
 20
185.07363
 30
0.0
  0
VERTEX
  5
2D3
100
AcDbEntity
  8
レイヤー_2
 62
     7
100
AcDbVertex
100
AcDb2dVertex
 10
128.536168
 20
185.10033
 30
0.0
  0
VERTEX
  5
2D4
100
AcDbEntity
  8
レイヤー_2
 62
     7
100
AcDbVertex
100
AcDb2dVertex
 10
128.536168
 20
185.120483
 30
0.0
  0
VERTEX
  5
2D5
100
AcDbEntity
  8
レイヤー_2
 62
     7
100
AcDbVertex
100
AcDb2dVertex
 10
128.53479
 20
185.132886
 30
0.0
  0
VERTEX
  5
2D6
100
AcDbEntity
  8
レイヤー_2
 62
     7
100
AcDbVertex
100
AcDb2dVertex
 10
128.533757
 20
185.136331
 30
0.0
  0
VERTEX
  5
2D7
100
AcDbEntity
  8
レイヤー_2
 62
     7
100
AcDbVertex
100
AcDb2dVertex
 10
128.533067
 20
185.128407
 30
0.0
  0
VERTEX
  5
2D8
100
AcDbEntity
  8
レイヤー_2
 62
     7
100
AcDbVertex
100
AcDb2dVertex
 10
128.533067
 20
185.111871
 30
0.0
  0
VERTEX
  5
2D9
100
AcDbEntity
  8
レイヤー_2
 62
     7
100
AcDbVertex
100
AcDb2dVertex
 10
128.533067
 20
185.089478
 30
0.0
  0
VERTEX
  5
2DA
100
AcDbEntity
  8
レイヤー_2
 62
     7
100
AcDbVertex
100
AcDb2dVertex
 10
128.533067
 20
185.06295
 30
0.0
  0
VERTEX
  5
2DB
100
AcDbEntity
  8
レイヤー_2
 62
     7
100
AcDbVertex
100
AcDb2dVertex
 10
128.533067
 20
185.03849
 30
0.0
  0
VERTEX
  5
2DC
100
AcDbEntity
  8
レイヤー_2
 62
     7
100
AcDbVertex
100
AcDb2dVertex
 10
128.533757
 20
185.018164
 30
0.0
  0
VERTEX
  5
2DD
100
AcDbEntity
  8
レイヤー_2
 62
     7
100
AcDbVertex
100
AcDb2dVertex
 10
128.53479
 20
185.005245
 30
0.0
  0
VERTEX
  5
2DE
100
AcDbEntity
  8
レイヤー_2
 62
     7
100
AcDbVertex
100
AcDb2dVertex
 10
128.536168
 20
185.002317
 30
0.0
  0
VERTEX
  5
2DF
100
AcDbEntity
  8
レイヤー_2
 62
     7
100
AcDbVertex
100
AcDb2dVertex
 10
128.536168
 20
185.008862
 30
0.0
  0
VERTEX
  5
2E0
100
AcDbEntity
  8
レイヤー_2
 62
     7
100
AcDbVertex
100
AcDb2dVertex
 10
128.536857
 20
185.025399
 30
0.0
  0
VERTEX
  5
2E1
100
AcDbEntity
  8
レイヤー_2
 62
     7
100
AcDbVertex
100
AcDb2dVertex
 10
128.536857
 20
185.047792
 30
0.0
  0
SEQEND
  5
2E2
100
AcDbEntity
  8
レイヤー_2
 62
     7
  0
POLYLINE
  5
2BD
100
AcDbEntity
  8
レイヤー_2
 62
     7
100
AcDb2dPolyline
 66
     1
 10
0.0
 20
0.0
 30
0.0
  0
VERTEX
  5
2BE
100
AcDbEntity
  8
レイヤー_2
 62
     7
100
AcDbVertex
100
AcDb2dVertex
 10
128.536857
 20
184.310714
 30
0.0
  0
VERTEX
  5
2BF
100
AcDbEntity
  8
レイヤー_2
 62
     7
100
AcDbVertex
100
AcDb2dVertex
 10
128.536857
 20
184.333796
 30
0.0
  0
VERTEX
  5
2C0
100
AcDbEntity
  8
レイヤー_2
 62
     7
100
AcDbVertex
100
AcDb2dVertex
 10
128.536168
 20
184.349643
 30
0.0
  0
VERTEX
  5
2C1
100
AcDbEntity
  8
レイヤー_2
 62
     7
100
AcDbVertex
100
AcDb2dVertex
 10
128.536168
 20
184.356878
 30
0.0
  0
VERTEX
  5
2C2
100
AcDbEntity
  8
レイヤー_2
 62
     7
100
AcDbVertex
100
AcDb2dVertex
 10
128.53479
 20
184.35395
 30
0.0
  0
VERTEX
  5
2C3
100
AcDbEntity
  8
レイヤー_2
 62
     7
100
AcDbVertex
100
AcDb2dVertex
 10
128.533757
 20
184.341031
 30
0.0
  0
VERTEX
  5
2C4
100
AcDbEntity
  8
レイヤー_2
 62
     7
100
AcDbVertex
100
AcDb2dVertex
 10
128.533067
 20
184.320877
 30
0.0
  0
VERTEX
  5
2C5
100
AcDbEntity
  8
レイヤー_2
 62
     7
100
AcDbVertex
100
AcDb2dVertex
 10
128.533067
 20
184.294866
 30
0.0
  0
VERTEX
  5
2C6
100
AcDbEntity
  8
レイヤー_2
 62
     7
100
AcDbVertex
100
AcDb2dVertex
 10
128.533067
 20
184.268856
 30
0.0
  0
VERTEX
  5
2C7
100
AcDbEntity
  8
レイヤー_2
 62
     7
100
AcDbVertex
100
AcDb2dVertex
 10
128.533067
 20
184.247324
 30
0.0
  0
VERTEX
  5
2C8
100
AcDbEntity
  8
レイヤー_2
 62
     7
100
AcDbVertex
100
AcDb2dVertex
 10
128.533067
 20
184.229926
 30
0.0
  0
VERTEX
  5
2C9
100
AcDbEntity
  8
レイヤー_2
 62
     7
100
AcDbVertex
100
AcDb2dVertex
 10
128.533757
 20
184.222864
 30
0.0
  0
VERTEX
  5
2CA
100
AcDbEntity
  8
レイヤー_2
 62
     7
100
AcDbVertex
100
AcDb2dVertex
 10
128.53479
 20
184.22562
 30
0.0
  0
VERTEX
  5
2CB
100
AcDbEntity
  8
レイヤー_2
 62
     7
100
AcDbVertex
100
AcDb2dVertex
 10
128.536168
 20
184.238711
 30
0.0
  0
VERTEX
  5
2CC
100
AcDbEntity
  8
レイヤー_2
 62
     7
100
AcDbVertex
100
AcDb2dVertex
 10
128.536168
 20
184.258865
 30
0.0
  0
VERTEX
  5
2CD
100
AcDbEntity
  8
レイヤー_2
 62
     7
100
AcDbVertex
100
AcDb2dVertex
 10
128.536857
 20
184.284703
 30
0.0
  0
VERTEX
  5
2CE
100
AcDbEntity
  8
レイヤー_2
 62
     7
100
AcDbVertex
100
AcDb2dVertex
 10
128.536857
 20
184.310714
 30
0.0
  0
SEQEND
  5
2CF
100
AcDbEntity
  8
レイヤー_2
 62
     7
  0
POLYLINE
  5
2B6
100
AcDbEntity
  8
レイヤー_2
 62
     7
100
AcDb2dPolyline
 66
     1
 10
0.0
 20
0.0
 30
0.0
  0
VERTEX
  5
2B7
100
AcDbEntity
  8
レイヤー_2
 62
     7
100
AcDbVertex
100
AcDb2dVertex
 10
128.491382
 20
185.819493
 30
0.0
  0
VERTEX
  5
2B8
100
AcDbEntity
  8
レイヤー_2
 62
     7
100
AcDbVertex
100
AcDb2dVertex
 10
128.492071
 20
185.77264
 30
0.0
  0
VERTEX
  5
2B9
100
AcDbEntity
  8
レイヤー_2
 62
     7
100
AcDbVertex
100
AcDb2dVertex
 10
128.494138
 20
185.698398
 30
0.0
  0
VERTEX
  5
2BA
100
AcDbEntity
  8
レイヤー_2
 62
     7
100
AcDbVertex
100
AcDb2dVertex
 10
128.496549
 20
185.622778
 30
0.0
  0
VERTEX
  5
2BB
100
AcDbEntity
  8
レイヤー_2
 62
     7
100
AcDbVertex
100
AcDb2dVertex
 10
128.497238
 20
185.597457
 30
0.0
  0
SEQEND
  5
2BC
100
AcDbEntity
  8
レイヤー_2
 62
     7
  0
POLYLINE
  5
2AF
100
AcDbEntity
  8
レイヤー_2
 62
     7
100
AcDb2dPolyline
 66
     1
 10
0.0
 20
0.0
 30
0.0
  0
VERTEX
  5
2B0
100
AcDbEntity
  8
レイヤー_2
 62
     7
100
AcDbVertex
100
AcDb2dVertex
 10
128.497238
 20
183.762427
 30
0.0
  0
VERTEX
  5
2B1
100
AcDbEntity
  8
レイヤー_2
 62
     7
100
AcDbVertex
100
AcDb2dVertex
 10
128.496549
 20
183.735727
 30
0.0
  0
VERTEX
  5
2B2
100
AcDbEntity
  8
レイヤー_2
 62
     7
100
AcDbVertex
100
AcDb2dVertex
 10
128.494138
 20
183.660796
 30
0.0
  0
VERTEX
  5
2B3
100
AcDbEntity
  8
レイヤー_2
 62
     7
100
AcDbVertex
100
AcDb2dVertex
 10
128.492071
 20
183.585866
 30
0.0
  0
VERTEX
  5
2B4
100
AcDbEntity
  8
レイヤー_2
 62
     7
100
AcDbVertex
100
AcDb2dVertex
 10
128.491382
 20
183.539701
 30
0.0
  0
SEQEND
  5
2B5
100
AcDbEntity
  8
レイヤー_2
 62
     7
  0
POLYLINE
  5
2A4
100
AcDbEntity
  8
レイヤー_2
 62
     7
100
AcDb2dPolyline
 66
     1
 10
0.0
 20
0.0
 30
0.0
  0
VERTEX
  5
2A5
100
AcDbEntity
  8
レイヤー_2
 62
     7
100
AcDbVertex
100
AcDb2dVertex
 10
128.492071
 20
186.621339
 30
0.0
  0
VERTEX
  5
2A6
100
AcDbEntity
  8
レイヤー_2
 62
     7
100
AcDbVertex
100
AcDb2dVertex
 10
128.491382
 20
186.606181
 30
0.0
  0
VERTEX
  5
2A7
100
AcDbEntity
  8
レイヤー_2
 62
     7
100
AcDbVertex
100
AcDb2dVertex
 10
128.492071
 20
186.564495
 30
0.0
  0
VERTEX
  5
2A8
100
AcDbEntity
  8
レイヤー_2
 62
     7
100
AcDbVertex
100
AcDb2dVertex
 10
128.494138
 20
186.500244
 30
0.0
  0
VERTEX
  5
2A9
100
AcDbEntity
  8
レイヤー_2
 62
     7
100
AcDbVertex
100
AcDb2dVertex
 10
128.497238
 20
186.426175
 30
0.0
  0
VERTEX
  5
2AA
100
AcDbEntity
  8
レイヤー_2
 62
     7
100
AcDbVertex
100
AcDb2dVertex
 10
128.501373
 20
186.351072
 30
0.0
  0
VERTEX
  5
2AB
100
AcDbEntity
  8
レイヤー_2
 62
     7
100
AcDbVertex
100
AcDb2dVertex
 10
128.505851
 20
186.287682
 30
0.0
  0
VERTEX
  5
2AC
100
AcDbEntity
  8
レイヤー_2
 62
     7
100
AcDbVertex
100
AcDb2dVertex
 10
128.508607
 20
186.245996
 30
0.0
  0
VERTEX
  5
2AD
100
AcDbEntity
  8
レイヤー_2
 62
     7
100
AcDbVertex
100
AcDb2dVertex
 10
128.511019
 20
186.230149
 30
0.0
  0
SEQEND
  5
2AE
100
AcDbEntity
  8
レイヤー_2
 62
     7
  0
POLYLINE
  5
299
100
AcDbEntity
  8
レイヤー_2
 62
     7
100
AcDb2dPolyline
 66
     1
 10
0.0
 20
0.0
 30
0.0
  0
VERTEX
  5
29A
100
AcDbEntity
  8
レイヤー_2
 62
     7
100
AcDbVertex
100
AcDb2dVertex
 10
128.511019
 20
183.129046
 30
0.0
  0
VERTEX
  5
29B
100
AcDbEntity
  8
レイヤー_2
 62
     7
100
AcDbVertex
100
AcDb2dVertex
 10
128.508607
 20
183.113199
 30
0.0
  0
VERTEX
  5
29C
100
AcDbEntity
  8
レイヤー_2
 62
     7
100
AcDbVertex
100
AcDb2dVertex
 10
128.505851
 20
183.071513
 30
0.0
  0
VERTEX
  5
29D
100
AcDbEntity
  8
レイヤー_2
 62
     7
100
AcDbVertex
100
AcDb2dVertex
 10
128.501373
 20
183.007951
 30
0.0
  0
VERTEX
  5
29E
100
AcDbEntity
  8
レイヤー_2
 62
     7
100
AcDbVertex
100
AcDb2dVertex
 10
128.497238
 20
182.933192
 30
0.0
  0
VERTEX
  5
29F
100
AcDbEntity
  8
レイヤー_2
 62
     7
100
AcDbVertex
100
AcDb2dVertex
 10
128.494138
 20
182.858089
 30
0.0
  0
VERTEX
  5
2A0
100
AcDbEntity
  8
レイヤー_2
 62
     7
100
AcDbVertex
100
AcDb2dVertex
 10
128.492071
 20
182.794699
 30
0.0
  0
VERTEX
  5
2A1
100
AcDbEntity
  8
レイヤー_2
 62
     7
100
AcDbVertex
100
AcDb2dVertex
 10
128.491382
 20
182.752325
 30
0.0
  0
VERTEX
  5
2A2
100
AcDbEntity
  8
レイヤー_2
 62
     7
100
AcDbVertex
100
AcDb2dVertex
 10
128.492071
 20
182.737166
 30
0.0
  0
SEQEND
  5
2A3
100
AcDbEntity
  8
レイヤー_2
 62
     7
  0
POLYLINE
  5
286
100
AcDbEntity
  8
レイヤー_2
 62
     7
100
AcDb2dPolyline
 66
     1
 10
0.0
 20
0.0
 30
0.0
  0
VERTEX
  5
287
100
AcDbEntity
  8
レイヤー_2
 62
     7
100
AcDbVertex
100
AcDb2dVertex
 10
128.536857
 20
185.644999
 30
0.0
  0
VERTEX
  5
288
100
AcDbEntity
  8
レイヤー_2
 62
     7
100
AcDbVertex
100
AcDb2dVertex
 10
128.536857
 20
185.664464
 30
0.0
  0
VERTEX
  5
289
100
AcDbEntity
  8
レイヤー_2
 62
     7
100
AcDbVertex
100
AcDb2dVertex
 10
128.536168
 20
185.689785
 30
0.0
  0
VERTEX
  5
28A
100
AcDbEntity
  8
レイヤー_2
 62
     7
100
AcDbVertex
100
AcDb2dVertex
 10
128.536168
 20
185.715624
 30
0.0
  0
VERTEX
  5
28B
100
AcDbEntity
  8
レイヤー_2
 62
     7
100
AcDbVertex
100
AcDb2dVertex
 10
128.53479
 20
185.738706
 30
0.0
  0
VERTEX
  5
28C
100
AcDbEntity
  8
レイヤー_2
 62
     7
100
AcDbVertex
100
AcDb2dVertex
 10
128.533757
 20
185.756104
 30
0.0
  0
VERTEX
  5
28D
100
AcDbEntity
  8
レイヤー_2
 62
     7
100
AcDbVertex
100
AcDb2dVertex
 10
128.533067
 20
185.764716
 30
0.0
  0
VERTEX
  5
28E
100
AcDbEntity
  8
レイヤー_2
 62
     7
100
AcDbVertex
100
AcDb2dVertex
 10
128.533067
 20
185.764716
 30
0.0
  0
VERTEX
  5
28F
100
AcDbEntity
  8
レイヤー_2
 62
     7
100
AcDbVertex
100
AcDb2dVertex
 10
128.533067
 20
185.753175
 30
0.0
  0
VERTEX
  5
290
100
AcDbEntity
  8
レイヤー_2
 62
     7
100
AcDbVertex
100
AcDb2dVertex
 10
128.533067
 20
185.734399
 30
0.0
  0
VERTEX
  5
291
100
AcDbEntity
  8
レイヤー_2
 62
     7
100
AcDbVertex
100
AcDb2dVertex
 10
128.533067
 20
185.709939
 30
0.0
  0
VERTEX
  5
292
100
AcDbEntity
  8
レイヤー_2
 62
     7
100
AcDbVertex
100
AcDb2dVertex
 10
128.533757
 20
185.683929
 30
0.0
  0
VERTEX
  5
293
100
AcDbEntity
  8
レイヤー_2
 62
     7
100
AcDbVertex
100
AcDb2dVertex
 10
128.53479
 20
185.659469
 30
0.0
  0
VERTEX
  5
294
100
AcDbEntity
  8
レイヤー_2
 62
     7
100
AcDbVertex
100
AcDb2dVertex
 10
128.536168
 20
185.642243
 30
0.0
  0
VERTEX
  5
295
100
AcDbEntity
  8
レイヤー_2
 62
     7
100
AcDbVertex
100
AcDb2dVertex
 10
128.536168
 20
185.63208
 30
0.0
  0
VERTEX
  5
296
100
AcDbEntity
  8
レイヤー_2
 62
     7
100
AcDbVertex
100
AcDb2dVertex
 10
128.536857
 20
185.633458
 30
0.0
  0
VERTEX
  5
297
100
AcDbEntity
  8
レイヤー_2
 62
     7
100
AcDbVertex
100
AcDb2dVertex
 10
128.536857
 20
185.644999
 30
0.0
  0
SEQEND
  5
298
100
AcDbEntity
  8
レイヤー_2
 62
     7
  0
POLYLINE
  5
273
100
AcDbEntity
  8
レイヤー_2
 62
     7
100
AcDb2dPolyline
 66
     1
 10
0.0
 20
0.0
 30
0.0
  0
VERTEX
  5
274
100
AcDbEntity
  8
レイヤー_2
 62
     7
100
AcDbVertex
100
AcDb2dVertex
 10
128.536857
 20
183.714195
 30
0.0
  0
VERTEX
  5
275
100
AcDbEntity
  8
レイヤー_2
 62
     7
100
AcDbVertex
100
AcDb2dVertex
 10
128.536857
 20
183.724875
 30
0.0
  0
VERTEX
  5
276
100
AcDbEntity
  8
レイヤー_2
 62
     7
100
AcDbVertex
100
AcDb2dVertex
 10
128.536168
 20
183.725736
 30
0.0
  0
VERTEX
  5
277
100
AcDbEntity
  8
レイヤー_2
 62
     7
100
AcDbVertex
100
AcDb2dVertex
 10
128.536168
 20
183.716951
 30
0.0
  0
VERTEX
  5
278
100
AcDbEntity
  8
レイヤー_2
 62
     7
100
AcDbVertex
100
AcDb2dVertex
 10
128.53479
 20
183.698348
 30
0.0
  0
VERTEX
  5
279
100
AcDbEntity
  8
レイヤー_2
 62
     7
100
AcDbVertex
100
AcDb2dVertex
 10
128.533757
 20
183.675266
 30
0.0
  0
VERTEX
  5
27A
100
AcDbEntity
  8
レイヤー_2
 62
     7
100
AcDbVertex
100
AcDb2dVertex
 10
128.533067
 20
183.649255
 30
0.0
  0
VERTEX
  5
27B
100
AcDbEntity
  8
レイヤー_2
 62
     7
100
AcDbVertex
100
AcDb2dVertex
 10
128.533067
 20
183.624795
 30
0.0
  0
VERTEX
  5
27C
100
AcDbEntity
  8
レイヤー_2
 62
     7
100
AcDbVertex
100
AcDb2dVertex
 10
128.533067
 20
183.604641
 30
0.0
  0
VERTEX
  5
27D
100
AcDbEntity
  8
レイヤー_2
 62
     7
100
AcDbVertex
100
AcDb2dVertex
 10
128.533067
 20
183.594478
 30
0.0
  0
VERTEX
  5
27E
100
AcDbEntity
  8
レイヤー_2
 62
     7
100
AcDbVertex
100
AcDb2dVertex
 10
128.533067
 20
183.5931
 30
0.0
  0
VERTEX
  5
27F
100
AcDbEntity
  8
レイヤー_2
 62
     7
100
AcDbVertex
100
AcDb2dVertex
 10
128.533757
 20
183.603263
 30
0.0
  0
VERTEX
  5
280
100
AcDbEntity
  8
レイヤー_2
 62
     7
100
AcDbVertex
100
AcDb2dVertex
 10
128.53479
 20
183.620489
 30
0.0
  0
VERTEX
  5
281
100
AcDbEntity
  8
レイヤー_2
 62
     7
100
AcDbVertex
100
AcDb2dVertex
 10
128.536168
 20
183.643571
 30
0.0
  0
VERTEX
  5
282
100
AcDbEntity
  8
レイヤー_2
 62
     7
100
AcDbVertex
100
AcDb2dVertex
 10
128.536168
 20
183.670098
 30
0.0
  0
VERTEX
  5
283
100
AcDbEntity
  8
レイヤー_2
 62
     7
100
AcDbVertex
100
AcDb2dVertex
 10
128.536857
 20
183.694731
 30
0.0
  0
VERTEX
  5
284
100
AcDbEntity
  8
レイヤー_2
 62
     7
100
AcDbVertex
100
AcDb2dVertex
 10
128.536857
 20
183.714195
 30
0.0
  0
SEQEND
  5
285
100
AcDbEntity
  8
レイヤー_2
 62
     7
  0
POLYLINE
  5
260
100
AcDbEntity
  8
レイヤー_2
 62
     7
100
AcDb2dPolyline
 66
     1
 10
0.0
 20
0.0
 30
0.0
  0
VERTEX
  5
261
100
AcDbEntity
  8
レイヤー_2
 62
     7
100
AcDbVertex
100
AcDb2dVertex
 10
128.531689
 20
186.490253
 30
0.0
  0
VERTEX
  5
262
100
AcDbEntity
  8
レイヤー_2
 62
     7
100
AcDbVertex
100
AcDb2dVertex
 10
128.531689
 20
186.495249
 30
0.0
  0
VERTEX
  5
263
100
AcDbEntity
  8
レイヤー_2
 62
     7
100
AcDbVertex
100
AcDb2dVertex
 10
128.533067
 20
186.490253
 30
0.0
  0
VERTEX
  5
264
100
AcDbEntity
  8
レイヤー_2
 62
     7
100
AcDbVertex
100
AcDb2dVertex
 10
128.533067
 20
186.475095
 30
0.0
  0
VERTEX
  5
265
100
AcDbEntity
  8
レイヤー_2
 62
     7
100
AcDbVertex
100
AcDb2dVertex
 10
128.53479
 20
186.453391
 30
0.0
  0
VERTEX
  5
266
100
AcDbEntity
  8
レイヤー_2
 62
     7
100
AcDbVertex
100
AcDb2dVertex
 10
128.536168
 20
186.427553
 30
0.0
  0
VERTEX
  5
267
100
AcDbEntity
  8
レイヤー_2
 62
     7
100
AcDbVertex
100
AcDb2dVertex
 10
128.537546
 20
186.402403
 30
0.0
  0
VERTEX
  5
268
100
AcDbEntity
  8
レイヤー_2
 62
     7
100
AcDbVertex
100
AcDb2dVertex
 10
128.538235
 20
186.380699
 30
0.0
  0
VERTEX
  5
269
100
AcDbEntity
  8
レイヤー_2
 62
     7
100
AcDbVertex
100
AcDb2dVertex
 10
128.538235
 20
186.36623
 30
0.0
  0
VERTEX
  5
26A
100
AcDbEntity
  8
レイヤー_2
 62
     7
100
AcDbVertex
100
AcDb2dVertex
 10
128.538235
 20
186.360546
 30
0.0
  0
VERTEX
  5
26B
100
AcDbEntity
  8
レイヤー_2
 62
     7
100
AcDbVertex
100
AcDb2dVertex
 10
128.537546
 20
186.36623
 30
0.0
  0
VERTEX
  5
26C
100
AcDbEntity
  8
レイヤー_2
 62
     7
100
AcDbVertex
100
AcDb2dVertex
 10
128.536168
 20
186.38001
 30
0.0
  0
VERTEX
  5
26D
100
AcDbEntity
  8
レイヤー_2
 62
     7
100
AcDbVertex
100
AcDb2dVertex
 10
128.53479
 20
186.402403
 30
0.0
  0
VERTEX
  5
26E
100
AcDbEntity
  8
レイヤー_2
 62
     7
100
AcDbVertex
100
AcDb2dVertex
 10
128.533067
 20
186.427553
 30
0.0
  0
VERTEX
  5
26F
100
AcDbEntity
  8
レイヤー_2
 62
     7
100
AcDbVertex
100
AcDb2dVertex
 10
128.533067
 20
186.453391
 30
0.0
  0
VERTEX
  5
270
100
AcDbEntity
  8
レイヤー_2
 62
     7
100
AcDbVertex
100
AcDb2dVertex
 10
128.531689
 20
186.475095
 30
0.0
  0
VERTEX
  5
271
100
AcDbEntity
  8
レイヤー_2
 62
     7
100
AcDbVertex
100
AcDb2dVertex
 10
128.531689
 20
186.490253
 30
0.0
  0
SEQEND
  5
272
100
AcDbEntity
  8
レイヤー_2
 62
     7
  0
POLYLINE
  5
24D
100
AcDbEntity
  8
レイヤー_2
 62
     7
100
AcDb2dPolyline
 66
     1
 10
0.0
 20
0.0
 30
0.0
  0
VERTEX
  5
24E
100
AcDbEntity
  8
レイヤー_2
 62
     7
100
AcDbVertex
100
AcDb2dVertex
 10
128.531689
 20
182.86963
 30
0.0
  0
VERTEX
  5
24F
100
AcDbEntity
  8
レイヤー_2
 62
     7
100
AcDbVertex
100
AcDb2dVertex
 10
128.531689
 20
182.8841
 30
0.0
  0
VERTEX
  5
250
100
AcDbEntity
  8
レイヤー_2
 62
     7
100
AcDbVertex
100
AcDb2dVertex
 10
128.533067
 20
182.905804
 30
0.0
  0
VERTEX
  5
251
100
AcDbEntity
  8
レイヤー_2
 62
     7
100
AcDbVertex
100
AcDb2dVertex
 10
128.533067
 20
182.930953
 30
0.0
  0
VERTEX
  5
252
100
AcDbEntity
  8
レイヤー_2
 62
     7
100
AcDbVertex
100
AcDb2dVertex
 10
128.53479
 20
182.956963
 30
0.0
  0
VERTEX
  5
253
100
AcDbEntity
  8
レイヤー_2
 62
     7
100
AcDbVertex
100
AcDb2dVertex
 10
128.536168
 20
182.979184
 30
0.0
  0
VERTEX
  5
254
100
AcDbEntity
  8
レイヤー_2
 62
     7
100
AcDbVertex
100
AcDb2dVertex
 10
128.537546
 20
182.992965
 30
0.0
  0
VERTEX
  5
255
100
AcDbEntity
  8
レイヤー_2
 62
     7
100
AcDbVertex
100
AcDb2dVertex
 10
128.538235
 20
182.99796
 30
0.0
  0
VERTEX
  5
256
100
AcDbEntity
  8
レイヤー_2
 62
     7
100
AcDbVertex
100
AcDb2dVertex
 10
128.538235
 20
182.992965
 30
0.0
  0
VERTEX
  5
257
100
AcDbEntity
  8
レイヤー_2
 62
     7
100
AcDbVertex
100
AcDb2dVertex
 10
128.538235
 20
182.979184
 30
0.0
  0
VERTEX
  5
258
100
AcDbEntity
  8
レイヤー_2
 62
     7
100
AcDbVertex
100
AcDb2dVertex
 10
128.537546
 20
182.956963
 30
0.0
  0
VERTEX
  5
259
100
AcDbEntity
  8
レイヤー_2
 62
     7
100
AcDbVertex
100
AcDb2dVertex
 10
128.536168
 20
182.930953
 30
0.0
  0
VERTEX
  5
25A
100
AcDbEntity
  8
レイヤー_2
 62
     7
100
AcDbVertex
100
AcDb2dVertex
 10
128.53479
 20
182.905804
 30
0.0
  0
VERTEX
  5
25B
100
AcDbEntity
  8
レイヤー_2
 62
     7
100
AcDbVertex
100
AcDb2dVertex
 10
128.533067
 20
182.8841
 30
0.0
  0
VERTEX
  5
25C
100
AcDbEntity
  8
レイヤー_2
 62
     7
100
AcDbVertex
100
AcDb2dVertex
 10
128.533067
 20
182.86963
 30
0.0
  0
VERTEX
  5
25D
100
AcDbEntity
  8
レイヤー_2
 62
     7
100
AcDbVertex
100
AcDb2dVertex
 10
128.531689
 20
182.863946
 30
0.0
  0
VERTEX
  5
25E
100
AcDbEntity
  8
レイヤー_2
 62
     7
100
AcDbVertex
100
AcDb2dVertex
 10
128.531689
 20
182.86963
 30
0.0
  0
SEQEND
  5
25F
100
AcDbEntity
  8
レイヤー_2
 62
     7
  0
LINE
  5
24C
100
AcDbEntity
  8
レイヤー_2
 62
     7
100
AcDbLine
 10
128.536168
 20
184.960631
 30
0.0
 11
128.536168
 21
184.99801
 31
0.0
  0
POLYLINE
  5
243
100
AcDbEntity
  8
レイヤー_2
 62
     7
100
AcDb2dPolyline
 66
     1
 10
0.0
 20
0.0
 30
0.0
  0
VERTEX
  5
244
100
AcDbEntity
  8
レイヤー_2
 62
     7
100
AcDbVertex
100
AcDb2dVertex
 10
128.533757
 20
184.97355
 30
0.0
  0
VERTEX
  5
245
100
AcDbEntity
  8
レイヤー_2
 62
     7
100
AcDbVertex
100
AcDb2dVertex
 10
128.53479
 20
184.954085
 30
0.0
  0
VERTEX
  5
246
100
AcDbEntity
  8
レイヤー_2
 62
     7
100
AcDbVertex
100
AcDb2dVertex
 10
128.53479
 20
184.936171
 30
0.0
  0
VERTEX
  5
247
100
AcDbEntity
  8
レイヤー_2
 62
     7
100
AcDbVertex
100
AcDb2dVertex
 10
128.535479
 20
184.928936
 30
0.0
  0
VERTEX
  5
248
100
AcDbEntity
  8
レイヤー_2
 62
     7
100
AcDbVertex
100
AcDb2dVertex
 10
128.536168
 20
184.929625
 30
0.0
  0
VERTEX
  5
249
100
AcDbEntity
  8
レイヤー_2
 62
     7
100
AcDbVertex
100
AcDb2dVertex
 10
128.536168
 20
184.941166
 30
0.0
  0
VERTEX
  5
24A
100
AcDbEntity
  8
レイヤー_2
 62
     7
100
AcDbVertex
100
AcDb2dVertex
 10
128.536168
 20
184.960631
 30
0.0
  0
SEQEND
  5
24B
100
AcDbEntity
  8
レイヤー_2
 62
     7
  0
POLYLINE
  5
23A
100
AcDbEntity
  8
レイヤー_2
 62
     7
100
AcDb2dPolyline
 66
     1
 10
0.0
 20
0.0
 30
0.0
  0
VERTEX
  5
23B
100
AcDbEntity
  8
レイヤー_2
 62
     7
100
AcDbVertex
100
AcDb2dVertex
 10
128.536168
 20
184.398564
 30
0.0
  0
VERTEX
  5
23C
100
AcDbEntity
  8
レイヤー_2
 62
     7
100
AcDbVertex
100
AcDb2dVertex
 10
128.536168
 20
184.418028
 30
0.0
  0
VERTEX
  5
23D
100
AcDbEntity
  8
レイヤー_2
 62
     7
100
AcDbVertex
100
AcDb2dVertex
 10
128.536168
 20
184.42888
 30
0.0
  0
VERTEX
  5
23E
100
AcDbEntity
  8
レイヤー_2
 62
     7
100
AcDbVertex
100
AcDb2dVertex
 10
128.535479
 20
184.430948
 30
0.0
  0
VERTEX
  5
23F
100
AcDbEntity
  8
レイヤー_2
 62
     7
100
AcDbVertex
100
AcDb2dVertex
 10
128.53479
 20
184.422335
 30
0.0
  0
VERTEX
  5
240
100
AcDbEntity
  8
レイヤー_2
 62
     7
100
AcDbVertex
100
AcDb2dVertex
 10
128.53479
 20
184.405798
 30
0.0
  0
VERTEX
  5
241
100
AcDbEntity
  8
レイヤー_2
 62
     7
100
AcDbVertex
100
AcDb2dVertex
 10
128.533757
 20
184.385645
 30
0.0
  0
SEQEND
  5
242
100
AcDbEntity
  8
レイヤー_2
 62
     7
  0
LINE
  5
239
100
AcDbEntity
  8
レイヤー_2
 62
     7
100
AcDbLine
 10
128.536168
 20
184.359634
 30
0.0
 11
128.536168
 21
184.398564
 31
0.0
  0
LINE
  5
238
100
AcDbEntity
  8
レイヤー_2
 62
     7
100
AcDbLine
 10
128.538235
 20
186.505412
 30
0.0
 11
128.531689
 21
186.638565
 31
0.0
  0
LINE
  5
237
100
AcDbEntity
  8
レイヤー_2
 62
     7
100
AcDbLine
 10
128.531689
 20
182.719769
 30
0.0
 11
128.538235
 21
182.853783
 31
0.0
  0
LINE
  5
236
100
AcDbEntity
  8
レイヤー_2
 62
     7
100
AcDbLine
 10
128.407666
 20
187.287793
 30
0.0
 11
128.407666
 21
182.071402
 31
0.0
  0
LINE
  5
235
100
AcDbEntity
  8
レイヤー_2
 62
     7
100
AcDbLine
 10
127.118856
 20
182.071402
 30
0.0
 11
127.118856
 21
187.287793
 31
0.0
  0
LINE
  5
234
100
AcDbEntity
  8
レイヤー_2
 62
     7
100
AcDbLine
 10
128.437294
 20
182.101718
 30
0.0
 11
128.437294
 21
187.257476
 31
0.0
  0
POLYLINE
  5
22D
100
AcDbEntity
  8
レイヤー_2
 62
     7
100
AcDb2dPolyline
 66
     1
 10
0.0
 20
0.0
 30
0.0
  0
VERTEX
  5
22E
100
AcDbEntity
  8
レイヤー_2
 62
     7
100
AcDbVertex
100
AcDb2dVertex
 10
128.448318
 20
182.737166
 30
0.0
  0
VERTEX
  5
22F
100
AcDbEntity
  8
レイヤー_2
 62
     7
100
AcDbVertex
100
AcDb2dVertex
 10
128.446596
 20
182.711156
 30
0.0
  0
VERTEX
  5
230
100
AcDbEntity
  8
レイヤー_2
 62
     7
100
AcDbVertex
100
AcDb2dVertex
 10
128.445907
 20
182.631919
 30
0.0
  0
VERTEX
  5
231
100
AcDbEntity
  8
レイヤー_2
 62
     7
100
AcDbVertex
100
AcDb2dVertex
 10
128.445218
 20
182.58007
 30
0.0
  0
VERTEX
  5
232
100
AcDbEntity
  8
レイヤー_2
 62
     7
100
AcDbVertex
100
AcDb2dVertex
 10
128.445218
 20
182.561294
 30
0.0
  0
SEQEND
  5
233
100
AcDbEntity
  8
レイヤー_2
 62
     7
  0
POLYLINE
  5
222
100
AcDbEntity
  8
レイヤー_2
 62
     7
100
AcDb2dPolyline
 66
     1
 10
0.0
 20
0.0
 30
0.0
  0
VERTEX
  5
223
100
AcDbEntity
  8
レイヤー_2
 62
     7
100
AcDbVertex
100
AcDb2dVertex
 10
128.450385
 20
183.147822
 30
0.0
  0
VERTEX
  5
224
100
AcDbEntity
  8
レイヤー_2
 62
     7
100
AcDbVertex
100
AcDb2dVertex
 10
128.449696
 20
183.11182
 30
0.0
  0
VERTEX
  5
225
100
AcDbEntity
  8
レイヤー_2
 62
     7
100
AcDbVertex
100
AcDb2dVertex
 10
128.448318
 20
183.03465
 30
0.0
  0
VERTEX
  5
226
100
AcDbEntity
  8
レイヤー_2
 62
     7
100
AcDbVertex
100
AcDb2dVertex
 10
128.446596
 20
182.943872
 30
0.0
  0
VERTEX
  5
227
100
AcDbEntity
  8
レイヤー_2
 62
     7
100
AcDbVertex
100
AcDb2dVertex
 10
128.445907
 20
182.852405
 30
0.0
  0
VERTEX
  5
228
100
AcDbEntity
  8
レイヤー_2
 62
     7
100
AcDbVertex
100
AcDb2dVertex
 10
128.445218
 20
182.775407
 30
0.0
  0
VERTEX
  5
229
100
AcDbEntity
  8
レイヤー_2
 62
     7
100
AcDbVertex
100
AcDb2dVertex
 10
128.445218
 20
182.705471
 30
0.0
  0
VERTEX
  5
22A
100
AcDbEntity
  8
レイヤー_2
 62
     7
100
AcDbVertex
100
AcDb2dVertex
 10
128.445907
 20
182.723386
 30
0.0
  0
VERTEX
  5
22B
100
AcDbEntity
  8
レイヤー_2
 62
     7
100
AcDbVertex
100
AcDb2dVertex
 10
128.446596
 20
182.737166
 30
0.0
  0
SEQEND
  5
22C
100
AcDbEntity
  8
レイヤー_2
 62
     7
  0
POLYLINE
  5
214
100
AcDbEntity
  8
レイヤー_2
 62
     7
100
AcDb2dPolyline
 66
     1
 10
0.0
 20
0.0
 30
0.0
  0
VERTEX
  5
215
100
AcDbEntity
  8
レイヤー_2
 62
     7
100
AcDbVertex
100
AcDb2dVertex
 10
128.451074
 20
183.543319
 30
0.0
  0
VERTEX
  5
216
100
AcDbEntity
  8
レイヤー_2
 62
     7
100
AcDbVertex
100
AcDb2dVertex
 10
128.451074
 20
183.571396
 30
0.0
  0
VERTEX
  5
217
100
AcDbEntity
  8
レイヤー_2
 62
     7
100
AcDbVertex
100
AcDb2dVertex
 10
128.450385
 20
183.590172
 30
0.0
  0
VERTEX
  5
218
100
AcDbEntity
  8
レイヤー_2
 62
     7
100
AcDbVertex
100
AcDb2dVertex
 10
128.449696
 20
183.571396
 30
0.0
  0
VERTEX
  5
219
100
AcDbEntity
  8
レイヤー_2
 62
     7
100
AcDbVertex
100
AcDb2dVertex
 10
128.448318
 20
183.519548
 30
0.0
  0
VERTEX
  5
21A
100
AcDbEntity
  8
レイヤー_2
 62
     7
100
AcDbVertex
100
AcDb2dVertex
 10
128.446596
 20
183.443239
 30
0.0
  0
VERTEX
  5
21B
100
AcDbEntity
  8
レイヤー_2
 62
     7
100
AcDbVertex
100
AcDb2dVertex
 10
128.445907
 20
183.351082
 30
0.0
  0
VERTEX
  5
21C
100
AcDbEntity
  8
レイヤー_2
 62
     7
100
AcDbVertex
100
AcDb2dVertex
 10
128.445218
 20
183.260132
 30
0.0
  0
VERTEX
  5
21D
100
AcDbEntity
  8
レイヤー_2
 62
     7
100
AcDbVertex
100
AcDb2dVertex
 10
128.445218
 20
183.129735
 30
0.0
  0
VERTEX
  5
21E
100
AcDbEntity
  8
レイヤー_2
 62
     7
100
AcDbVertex
100
AcDb2dVertex
 10
128.445907
 20
183.11182
 30
0.0
  0
VERTEX
  5
21F
100
AcDbEntity
  8
レイヤー_2
 62
     7
100
AcDbVertex
100
AcDb2dVertex
 10
128.446596
 20
183.131285
 30
0.0
  0
VERTEX
  5
220
100
AcDbEntity
  8
レイヤー_2
 62
     7
100
AcDbVertex
100
AcDb2dVertex
 10
128.448318
 20
183.146444
 30
0.0
  0
SEQEND
  5
221
100
AcDbEntity
  8
レイヤー_2
 62
     7
  0
POLYLINE
  5
206
100
AcDbEntity
  8
レイヤー_2
 62
     7
100
AcDb2dPolyline
 66
     1
 10
0.0
 20
0.0
 30
0.0
  0
VERTEX
  5
207
100
AcDbEntity
  8
レイヤー_2
 62
     7
100
AcDbVertex
100
AcDb2dVertex
 10
128.450385
 20
184.154995
 30
0.0
  0
VERTEX
  5
208
100
AcDbEntity
  8
レイヤー_2
 62
     7
100
AcDbVertex
100
AcDb2dVertex
 10
128.450385
 20
184.181006
 30
0.0
  0
VERTEX
  5
209
100
AcDbEntity
  8
レイヤー_2
 62
     7
100
AcDbVertex
100
AcDb2dVertex
 10
128.449696
 20
184.199093
 30
0.0
  0
VERTEX
  5
20A
100
AcDbEntity
  8
レイヤー_2
 62
     7
100
AcDbVertex
100
AcDb2dVertex
 10
128.448318
 20
184.181006
 30
0.0
  0
VERTEX
  5
20B
100
AcDbEntity
  8
レイヤー_2
 62
     7
100
AcDbVertex
100
AcDb2dVertex
 10
128.446596
 20
184.129157
 30
0.0
  0
VERTEX
  5
20C
100
AcDbEntity
  8
レイヤー_2
 62
     7
100
AcDbVertex
100
AcDb2dVertex
 10
128.445907
 20
184.052848
 30
0.0
  0
VERTEX
  5
20D
100
AcDbEntity
  8
レイヤー_2
 62
     7
100
AcDbVertex
100
AcDb2dVertex
 10
128.445218
 20
183.96052
 30
0.0
  0
VERTEX
  5
20E
100
AcDbEntity
  8
レイヤー_2
 62
     7
100
AcDbVertex
100
AcDb2dVertex
 10
128.445218
 20
183.791882
 30
0.0
  0
VERTEX
  5
20F
100
AcDbEntity
  8
レイヤー_2
 62
     7
100
AcDbVertex
100
AcDb2dVertex
 10
128.445907
 20
183.738656
 30
0.0
  0
VERTEX
  5
210
100
AcDbEntity
  8
レイヤー_2
 62
     7
100
AcDbVertex
100
AcDb2dVertex
 10
128.446596
 20
183.722808
 30
0.0
  0
VERTEX
  5
211
100
AcDbEntity
  8
レイヤー_2
 62
     7
100
AcDbVertex
100
AcDb2dVertex
 10
128.448318
 20
183.740034
 30
0.0
  0
VERTEX
  5
212
100
AcDbEntity
  8
レイヤー_2
 62
     7
100
AcDbVertex
100
AcDb2dVertex
 10
128.449007
 20
183.758809
 30
0.0
  0
SEQEND
  5
213
100
AcDbEntity
  8
レイヤー_2
 62
     7
  0
POLYLINE
  5
1F8
100
AcDbEntity
  8
レイヤー_2
 62
     7
100
AcDb2dPolyline
 66
     1
 10
0.0
 20
0.0
 30
0.0
  0
VERTEX
  5
1F9
100
AcDbEntity
  8
レイヤー_2
 62
     7
100
AcDbVertex
100
AcDb2dVertex
 10
128.450385
 20
184.87347
 30
0.0
  0
VERTEX
  5
1FA
100
AcDbEntity
  8
レイヤー_2
 62
     7
100
AcDbVertex
100
AcDb2dVertex
 10
128.449696
 20
184.898619
 30
0.0
  0
VERTEX
  5
1FB
100
AcDbEntity
  8
レイヤー_2
 62
     7
100
AcDbVertex
100
AcDb2dVertex
 10
128.448318
 20
184.917395
 30
0.0
  0
VERTEX
  5
1FC
100
AcDbEntity
  8
レイヤー_2
 62
     7
100
AcDbVertex
100
AcDb2dVertex
 10
128.446596
 20
184.900859
 30
0.0
  0
VERTEX
  5
1FD
100
AcDbEntity
  8
レイヤー_2
 62
     7
100
AcDbVertex
100
AcDb2dVertex
 10
128.445907
 20
184.848149
 30
0.0
  0
VERTEX
  5
1FE
100
AcDbEntity
  8
レイヤー_2
 62
     7
100
AcDbVertex
100
AcDb2dVertex
 10
128.445218
 20
184.770462
 30
0.0
  0
VERTEX
  5
1FF
100
AcDbEntity
  8
レイヤー_2
 62
     7
100
AcDbVertex
100
AcDb2dVertex
 10
128.445218
 20
184.587355
 30
0.0
  0
VERTEX
  5
200
100
AcDbEntity
  8
レイヤー_2
 62
     7
100
AcDbVertex
100
AcDb2dVertex
 10
128.445907
 20
184.511046
 30
0.0
  0
VERTEX
  5
201
100
AcDbEntity
  8
レイヤー_2
 62
     7
100
AcDbVertex
100
AcDb2dVertex
 10
128.446596
 20
184.457647
 30
0.0
  0
VERTEX
  5
202
100
AcDbEntity
  8
レイヤー_2
 62
     7
100
AcDbVertex
100
AcDb2dVertex
 10
128.448318
 20
184.4418
 30
0.0
  0
VERTEX
  5
203
100
AcDbEntity
  8
レイヤー_2
 62
     7
100
AcDbVertex
100
AcDb2dVertex
 10
128.449696
 20
184.459197
 30
0.0
  0
VERTEX
  5
204
100
AcDbEntity
  8
レイヤー_2
 62
     7
100
AcDbVertex
100
AcDb2dVertex
 10
128.450385
 20
184.480729
 30
0.0
  0
SEQEND
  5
205
100
AcDbEntity
  8
レイヤー_2
 62
     7
  0
POLYLINE
  5
1EA
100
AcDbEntity
  8
レイヤー_2
 62
     7
100
AcDb2dPolyline
 66
     1
 10
0.0
 20
0.0
 30
0.0
  0
VERTEX
  5
1EB
100
AcDbEntity
  8
レイヤー_2
 62
     7
100
AcDbVertex
100
AcDb2dVertex
 10
128.449007
 20
185.600385
 30
0.0
  0
VERTEX
  5
1EC
100
AcDbEntity
  8
レイヤー_2
 62
     7
100
AcDbVertex
100
AcDb2dVertex
 10
128.448318
 20
185.617611
 30
0.0
  0
VERTEX
  5
1ED
100
AcDbEntity
  8
レイヤー_2
 62
     7
100
AcDbVertex
100
AcDb2dVertex
 10
128.446596
 20
185.636386
 30
0.0
  0
VERTEX
  5
1EE
100
AcDbEntity
  8
レイヤー_2
 62
     7
100
AcDbVertex
100
AcDb2dVertex
 10
128.445907
 20
185.619161
 30
0.0
  0
VERTEX
  5
1EF
100
AcDbEntity
  8
レイヤー_2
 62
     7
100
AcDbVertex
100
AcDb2dVertex
 10
128.445218
 20
185.566623
 30
0.0
  0
VERTEX
  5
1F0
100
AcDbEntity
  8
レイヤー_2
 62
     7
100
AcDbVertex
100
AcDb2dVertex
 10
128.445218
 20
185.398675
 30
0.0
  0
VERTEX
  5
1F1
100
AcDbEntity
  8
レイヤー_2
 62
     7
100
AcDbVertex
100
AcDb2dVertex
 10
128.445907
 20
185.306519
 30
0.0
  0
VERTEX
  5
1F2
100
AcDbEntity
  8
レイヤー_2
 62
     7
100
AcDbVertex
100
AcDb2dVertex
 10
128.446596
 20
185.230037
 30
0.0
  0
VERTEX
  5
1F3
100
AcDbEntity
  8
レイヤー_2
 62
     7
100
AcDbVertex
100
AcDb2dVertex
 10
128.448318
 20
185.178189
 30
0.0
  0
VERTEX
  5
1F4
100
AcDbEntity
  8
レイヤー_2
 62
     7
100
AcDbVertex
100
AcDb2dVertex
 10
128.449696
 20
185.160102
 30
0.0
  0
VERTEX
  5
1F5
100
AcDbEntity
  8
レイヤー_2
 62
     7
100
AcDbVertex
100
AcDb2dVertex
 10
128.450385
 20
185.178189
 30
0.0
  0
VERTEX
  5
1F6
100
AcDbEntity
  8
レイヤー_2
 62
     7
100
AcDbVertex
100
AcDb2dVertex
 10
128.450385
 20
185.18973
 30
0.0
  0
SEQEND
  5
1F7
100
AcDbEntity
  8
レイヤー_2
 62
     7
  0
POLYLINE
  5
1DC
100
AcDbEntity
  8
レイヤー_2
 62
     7
100
AcDb2dPolyline
 66
     1
 10
0.0
 20
0.0
 30
0.0
  0
VERTEX
  5
1DD
100
AcDbEntity
  8
レイヤー_2
 62
     7
100
AcDbVertex
100
AcDb2dVertex
 10
128.448318
 20
186.212062
 30
0.0
  0
VERTEX
  5
1DE
100
AcDbEntity
  8
レイヤー_2
 62
     7
100
AcDbVertex
100
AcDb2dVertex
 10
128.446596
 20
186.227909
 30
0.0
  0
VERTEX
  5
1DF
100
AcDbEntity
  8
レイヤー_2
 62
     7
100
AcDbVertex
100
AcDb2dVertex
 10
128.445907
 20
186.245996
 30
0.0
  0
VERTEX
  5
1E0
100
AcDbEntity
  8
レイヤー_2
 62
     7
100
AcDbVertex
100
AcDb2dVertex
 10
128.445218
 20
186.228598
 30
0.0
  0
VERTEX
  5
1E1
100
AcDbEntity
  8
レイヤー_2
 62
     7
100
AcDbVertex
100
AcDb2dVertex
 10
128.445218
 20
186.098891
 30
0.0
  0
VERTEX
  5
1E2
100
AcDbEntity
  8
レイヤー_2
 62
     7
100
AcDbVertex
100
AcDb2dVertex
 10
128.445907
 20
186.007423
 30
0.0
  0
VERTEX
  5
1E3
100
AcDbEntity
  8
レイヤー_2
 62
     7
100
AcDbVertex
100
AcDb2dVertex
 10
128.446596
 20
185.914578
 30
0.0
  0
VERTEX
  5
1E4
100
AcDbEntity
  8
レイヤー_2
 62
     7
100
AcDbVertex
100
AcDb2dVertex
 10
128.448318
 20
185.839647
 30
0.0
  0
VERTEX
  5
1E5
100
AcDbEntity
  8
レイヤー_2
 62
     7
100
AcDbVertex
100
AcDb2dVertex
 10
128.449696
 20
185.787798
 30
0.0
  0
VERTEX
  5
1E6
100
AcDbEntity
  8
レイヤー_2
 62
     7
100
AcDbVertex
100
AcDb2dVertex
 10
128.450385
 20
185.769023
 30
0.0
  0
VERTEX
  5
1E7
100
AcDbEntity
  8
レイヤー_2
 62
     7
100
AcDbVertex
100
AcDb2dVertex
 10
128.451074
 20
185.787798
 30
0.0
  0
VERTEX
  5
1E8
100
AcDbEntity
  8
レイヤー_2
 62
     7
100
AcDbVertex
100
AcDb2dVertex
 10
128.451074
 20
185.839647
 30
0.0
  0
SEQEND
  5
1E9
100
AcDbEntity
  8
レイヤー_2
 62
     7
  0
POLYLINE
  5
1D1
100
AcDbEntity
  8
レイヤー_2
 62
     7
100
AcDb2dPolyline
 66
     1
 10
0.0
 20
0.0
 30
0.0
  0
VERTEX
  5
1D2
100
AcDbEntity
  8
レイヤー_2
 62
     7
100
AcDbVertex
100
AcDb2dVertex
 10
128.446596
 20
186.621339
 30
0.0
  0
VERTEX
  5
1D3
100
AcDbEntity
  8
レイヤー_2
 62
     7
100
AcDbVertex
100
AcDb2dVertex
 10
128.445907
 20
186.634947
 30
0.0
  0
VERTEX
  5
1D4
100
AcDbEntity
  8
レイヤー_2
 62
     7
100
AcDbVertex
100
AcDb2dVertex
 10
128.445218
 20
186.653034
 30
0.0
  0
VERTEX
  5
1D5
100
AcDbEntity
  8
レイヤー_2
 62
     7
100
AcDbVertex
100
AcDb2dVertex
 10
128.445218
 20
186.583099
 30
0.0
  0
VERTEX
  5
1D6
100
AcDbEntity
  8
レイヤー_2
 62
     7
100
AcDbVertex
100
AcDb2dVertex
 10
128.445907
 20
186.505412
 30
0.0
  0
VERTEX
  5
1D7
100
AcDbEntity
  8
レイヤー_2
 62
     7
100
AcDbVertex
100
AcDb2dVertex
 10
128.446596
 20
186.415323
 30
0.0
  0
VERTEX
  5
1D8
100
AcDbEntity
  8
レイヤー_2
 62
     7
100
AcDbVertex
100
AcDb2dVertex
 10
128.448318
 20
186.322994
 30
0.0
  0
VERTEX
  5
1D9
100
AcDbEntity
  8
レイヤー_2
 62
     7
100
AcDbVertex
100
AcDb2dVertex
 10
128.449696
 20
186.245996
 30
0.0
  0
VERTEX
  5
1DA
100
AcDbEntity
  8
レイヤー_2
 62
     7
100
AcDbVertex
100
AcDb2dVertex
 10
128.450385
 20
186.212062
 30
0.0
  0
SEQEND
  5
1DB
100
AcDbEntity
  8
レイヤー_2
 62
     7
  0
POLYLINE
  5
1CA
100
AcDbEntity
  8
レイヤー_2
 62
     7
100
AcDb2dPolyline
 66
     1
 10
0.0
 20
0.0
 30
0.0
  0
VERTEX
  5
1CB
100
AcDbEntity
  8
レイヤー_2
 62
     7
100
AcDbVertex
100
AcDb2dVertex
 10
128.445218
 20
186.796522
 30
0.0
  0
VERTEX
  5
1CC
100
AcDbEntity
  8
レイヤー_2
 62
     7
100
AcDbVertex
100
AcDb2dVertex
 10
128.445218
 20
186.777747
 30
0.0
  0
VERTEX
  5
1CD
100
AcDbEntity
  8
レイヤー_2
 62
     7
100
AcDbVertex
100
AcDb2dVertex
 10
128.445907
 20
186.725898
 30
0.0
  0
VERTEX
  5
1CE
100
AcDbEntity
  8
レイヤー_2
 62
     7
100
AcDbVertex
100
AcDb2dVertex
 10
128.446596
 20
186.648039
 30
0.0
  0
VERTEX
  5
1CF
100
AcDbEntity
  8
レイヤー_2
 62
     7
100
AcDbVertex
100
AcDb2dVertex
 10
128.448318
 20
186.621339
 30
0.0
  0
SEQEND
  5
1D0
100
AcDbEntity
  8
レイヤー_2
 62
     7
  0
LINE
  5
1C9
100
AcDbEntity
  8
レイヤー_2
 62
     7
100
AcDbLine
 10
128.452452
 20
183.534017
 30
0.0
 11
128.45383
 21
183.758809
 31
0.0
  0
LINE
  5
1C8
100
AcDbEntity
  8
レイヤー_2
 62
     7
100
AcDbLine
 10
128.452452
 20
184.166536
 30
0.0
 11
128.45383
 21
184.482107
 31
0.0
  0
LINE
  5
1C7
100
AcDbEntity
  8
レイヤー_2
 62
     7
100
AcDbLine
 10
128.45383
 20
184.877087
 30
0.0
 11
128.452452
 21
185.194036
 31
0.0
  0
LINE
  5
1C6
100
AcDbEntity
  8
レイヤー_2
 62
     7
100
AcDbLine
 10
128.45383
 20
185.599696
 30
0.0
 11
128.452452
 21
185.815876
 31
0.0
  0
LINE
  5
1C5
100
AcDbEntity
  8
レイヤー_2
 62
     7
100
AcDbLine
 10
125.293989
 20
164.930674
 30
0.0
 11
126.075681
 21
164.930674
 31
0.0
  0
LINE
  5
1C4
100
AcDbEntity
  8
レイヤー_2
 62
     7
100
AcDbLine
 10
122.199948
 20
164.930674
 30
0.0
 11
125.293989
 21
164.930674
 31
0.0
  0
LINE
  5
1C3
100
AcDbEntity
  8
レイヤー_2
 62
     7
100
AcDbLine
 10
127.118856
 20
187.287793
 30
0.0
 11
127.118856
 21
182.071402
 31
0.0
  0
LINE
  5
1C2
100
AcDbEntity
  8
レイヤー_2
 62
     7
100
AcDbLine
 10
121.157463
 20
187.287793
 30
0.0
 11
121.157463
 21
182.071402
 31
0.0
  0
LINE
  5
1C1
100
AcDbEntity
  8
レイヤー_2
 62
     7
100
AcDbLine
 10
126.075681
 20
181.028054
 30
0.0
 11
122.199948
 21
181.028054
 31
0.0
  0
LINE
  5
1C0
100
AcDbEntity
  8
レイヤー_2
 62
     7
100
AcDbLine
 10
123.178356
 20
181.028054
 30
0.0
 11
122.199948
 21
181.028054
 31
0.0
  0
LINE
  5
1BF
100
AcDbEntity
  8
レイヤー_2
 62
     7
100
AcDbLine
 10
126.075681
 20
181.028054
 30
0.0
 11
123.178356
 21
181.028054
 31
0.0
  0
LINE
  5
1BE
100
AcDbEntity
  8
レイヤー_2
 62
     7
100
AcDbLine
 10
123.178356
 20
164.930674
 30
0.0
 11
122.199948
 21
164.930674
 31
0.0
  0
LINE
  5
1BD
100
AcDbEntity
  8
レイヤー_2
 62
     7
100
AcDbLine
 10
126.075681
 20
164.930674
 30
0.0
 11
123.178356
 21
164.930674
 31
0.0
  0
LINE
  5
1BC
100
AcDbEntity
  8
レイヤー_2
 62
     7
100
AcDbLine
 10
120.411599
 20
164.5431
 30
0.0
 11
124.138159
 21
164.5431
 31
0.0
  0
LINE
  5
1BB
100
AcDbEntity
  8
レイヤー_2
 62
     7
100
AcDbLine
 10
124.138159
 20
163.053097
 30
0.0
 11
127.86403
 21
163.053097
 31
0.0
  0
LINE
  5
1BA
100
AcDbEntity
  8
レイヤー_2
 62
     7
100
AcDbLine
 10
120.411599
 20
163.053097
 30
0.0
 11
124.138159
 21
163.053097
 31
0.0
  0
POLYLINE
  5
1A8
100
AcDbEntity
  8
レイヤー_2
 62
     7
100
AcDb2dPolyline
 66
     1
 10
0.0
 20
0.0
 30
0.0
  0
VERTEX
  5
1A9
100
AcDbEntity
  8
レイヤー_2
 62
     7
100
AcDbVertex
100
AcDb2dVertex
 10
128.538235
 20
184.679511
 30
0.0
  0
VERTEX
  5
1AA
100
AcDbEntity
  8
レイヤー_2
 62
     7
100
AcDbVertex
100
AcDb2dVertex
 10
128.538235
 20
184.614743
 30
0.0
  0
VERTEX
  5
1AB
100
AcDbEntity
  8
レイヤー_2
 62
     7
100
AcDbVertex
100
AcDb2dVertex
 10
128.536168
 20
184.561517
 30
0.0
  0
VERTEX
  5
1AC
100
AcDbEntity
  8
レイヤー_2
 62
     7
100
AcDbVertex
100
AcDb2dVertex
 10
128.533067
 20
184.525343
 30
0.0
  0
VERTEX
  5
1AD
100
AcDbEntity
  8
レイヤー_2
 62
     7
100
AcDbVertex
100
AcDb2dVertex
 10
128.529622
 20
184.512424
 30
0.0
  0
VERTEX
  5
1AE
100
AcDbEntity
  8
レイヤー_2
 62
     7
100
AcDbVertex
100
AcDb2dVertex
 10
128.526177
 20
184.525343
 30
0.0
  0
VERTEX
  5
1AF
100
AcDbEntity
  8
レイヤー_2
 62
     7
100
AcDbVertex
100
AcDb2dVertex
 10
128.523077
 20
184.561517
 30
0.0
  0
VERTEX
  5
1B0
100
AcDbEntity
  8
レイヤー_2
 62
     7
100
AcDbVertex
100
AcDb2dVertex
 10
128.52101
 20
184.614743
 30
0.0
  0
VERTEX
  5
1B1
100
AcDbEntity
  8
レイヤー_2
 62
     7
100
AcDbVertex
100
AcDb2dVertex
 10
128.52101
 20
184.679511
 30
0.0
  0
VERTEX
  5
1B2
100
AcDbEntity
  8
レイヤー_2
 62
     7
100
AcDbVertex
100
AcDb2dVertex
 10
128.52101
 20
184.744451
 30
0.0
  0
VERTEX
  5
1B3
100
AcDbEntity
  8
レイヤー_2
 62
     7
100
AcDbVertex
100
AcDb2dVertex
 10
128.523077
 20
184.797678
 30
0.0
  0
VERTEX
  5
1B4
100
AcDbEntity
  8
レイヤー_2
 62
     7
100
AcDbVertex
100
AcDb2dVertex
 10
128.526177
 20
184.833851
 30
0.0
  0
VERTEX
  5
1B5
100
AcDbEntity
  8
レイヤー_2
 62
     7
100
AcDbVertex
100
AcDb2dVertex
 10
128.529622
 20
184.846771
 30
0.0
  0
VERTEX
  5
1B6
100
AcDbEntity
  8
レイヤー_2
 62
     7
100
AcDbVertex
100
AcDb2dVertex
 10
128.533067
 20
184.833851
 30
0.0
  0
VERTEX
  5
1B7
100
AcDbEntity
  8
レイヤー_2
 62
     7
100
AcDbVertex
100
AcDb2dVertex
 10
128.536168
 20
184.797678
 30
0.0
  0
VERTEX
  5
1B8
100
AcDbEntity
  8
レイヤー_2
 62
     7
100
AcDbVertex
100
AcDb2dVertex
 10
128.536168
 20
184.786309
 30
0.0
  0
SEQEND
  5
1B9
100
AcDbEntity
  8
レイヤー_2
 62
     7
  0
POLYLINE
  5
196
100
AcDbEntity
  8
レイヤー_2
 62
     7
100
AcDb2dPolyline
 66
     1
 10
0.0
 20
0.0
 30
0.0
  0
VERTEX
  5
197
100
AcDbEntity
  8
レイヤー_2
 62
     7
100
AcDbVertex
100
AcDb2dVertex
 10
128.536168
 20
183.892824
 30
0.0
  0
VERTEX
  5
198
100
AcDbEntity
  8
レイヤー_2
 62
     7
100
AcDbVertex
100
AcDb2dVertex
 10
128.536168
 20
183.891446
 30
0.0
  0
VERTEX
  5
199
100
AcDbEntity
  8
レイヤー_2
 62
     7
100
AcDbVertex
100
AcDb2dVertex
 10
128.533067
 20
183.836669
 30
0.0
  0
VERTEX
  5
19A
100
AcDbEntity
  8
レイヤー_2
 62
     7
100
AcDbVertex
100
AcDb2dVertex
 10
128.529622
 20
183.800667
 30
0.0
  0
VERTEX
  5
19B
100
AcDbEntity
  8
レイヤー_2
 62
     7
100
AcDbVertex
100
AcDb2dVertex
 10
128.526177
 20
183.787576
 30
0.0
  0
VERTEX
  5
19C
100
AcDbEntity
  8
レイヤー_2
 62
     7
100
AcDbVertex
100
AcDb2dVertex
 10
128.523077
 20
183.800667
 30
0.0
  0
VERTEX
  5
19D
100
AcDbEntity
  8
レイヤー_2
 62
     7
100
AcDbVertex
100
AcDb2dVertex
 10
128.52101
 20
183.836669
 30
0.0
  0
VERTEX
  5
19E
100
AcDbEntity
  8
レイヤー_2
 62
     7
100
AcDbVertex
100
AcDb2dVertex
 10
128.52101
 20
183.891446
 30
0.0
  0
VERTEX
  5
19F
100
AcDbEntity
  8
レイヤー_2
 62
     7
100
AcDbVertex
100
AcDb2dVertex
 10
128.52101
 20
183.955524
 30
0.0
  0
VERTEX
  5
1A0
100
AcDbEntity
  8
レイヤー_2
 62
     7
100
AcDbVertex
100
AcDb2dVertex
 10
128.523077
 20
184.019603
 30
0.0
  0
VERTEX
  5
1A1
100
AcDbEntity
  8
レイヤー_2
 62
     7
100
AcDbVertex
100
AcDb2dVertex
 10
128.526177
 20
184.07438
 30
0.0
  0
VERTEX
  5
1A2
100
AcDbEntity
  8
レイヤー_2
 62
     7
100
AcDbVertex
100
AcDb2dVertex
 10
128.529622
 20
184.110381
 30
0.0
  0
VERTEX
  5
1A3
100
AcDbEntity
  8
レイヤー_2
 62
     7
100
AcDbVertex
100
AcDb2dVertex
 10
128.533067
 20
184.121922
 30
0.0
  0
VERTEX
  5
1A4
100
AcDbEntity
  8
レイヤー_2
 62
     7
100
AcDbVertex
100
AcDb2dVertex
 10
128.536168
 20
184.110381
 30
0.0
  0
VERTEX
  5
1A5
100
AcDbEntity
  8
レイヤー_2
 62
     7
100
AcDbVertex
100
AcDb2dVertex
 10
128.538235
 20
184.07438
 30
0.0
  0
VERTEX
  5
1A6
100
AcDbEntity
  8
レイヤー_2
 62
     7
100
AcDbVertex
100
AcDb2dVertex
 10
128.538235
 20
184.065078
 30
0.0
  0
SEQEND
  5
1A7
100
AcDbEntity
  8
レイヤー_2
 62
     7
  0
POLYLINE
  5
184
100
AcDbEntity
  8
レイヤー_2
 62
     7
100
AcDb2dPolyline
 66
     1
 10
0.0
 20
0.0
 30
0.0
  0
VERTEX
  5
185
100
AcDbEntity
  8
レイヤー_2
 62
     7
100
AcDbVertex
100
AcDb2dVertex
 10
128.538235
 20
185.34097
 30
0.0
  0
VERTEX
  5
186
100
AcDbEntity
  8
レイヤー_2
 62
     7
100
AcDbVertex
100
AcDb2dVertex
 10
128.538235
 20
185.339591
 30
0.0
  0
VERTEX
  5
187
100
AcDbEntity
  8
レイヤー_2
 62
     7
100
AcDbVertex
100
AcDb2dVertex
 10
128.538235
 20
185.285503
 30
0.0
  0
VERTEX
  5
188
100
AcDbEntity
  8
レイヤー_2
 62
     7
100
AcDbVertex
100
AcDb2dVertex
 10
128.536168
 20
185.248813
 30
0.0
  0
VERTEX
  5
189
100
AcDbEntity
  8
レイヤー_2
 62
     7
100
AcDbVertex
100
AcDb2dVertex
 10
128.533067
 20
185.235894
 30
0.0
  0
VERTEX
  5
18A
100
AcDbEntity
  8
レイヤー_2
 62
     7
100
AcDbVertex
100
AcDb2dVertex
 10
128.529622
 20
185.248813
 30
0.0
  0
VERTEX
  5
18B
100
AcDbEntity
  8
レイヤー_2
 62
     7
100
AcDbVertex
100
AcDb2dVertex
 10
128.526177
 20
185.285503
 30
0.0
  0
VERTEX
  5
18C
100
AcDbEntity
  8
レイヤー_2
 62
     7
100
AcDbVertex
100
AcDb2dVertex
 10
128.523077
 20
185.339591
 30
0.0
  0
VERTEX
  5
18D
100
AcDbEntity
  8
レイヤー_2
 62
     7
100
AcDbVertex
100
AcDb2dVertex
 10
128.52101
 20
185.40367
 30
0.0
  0
VERTEX
  5
18E
100
AcDbEntity
  8
レイヤー_2
 62
     7
100
AcDbVertex
100
AcDb2dVertex
 10
128.52101
 20
185.467749
 30
0.0
  0
VERTEX
  5
18F
100
AcDbEntity
  8
レイヤー_2
 62
     7
100
AcDbVertex
100
AcDb2dVertex
 10
128.52101
 20
185.521148
 30
0.0
  0
VERTEX
  5
190
100
AcDbEntity
  8
レイヤー_2
 62
     7
100
AcDbVertex
100
AcDb2dVertex
 10
128.523077
 20
185.557838
 30
0.0
  0
VERTEX
  5
191
100
AcDbEntity
  8
レイヤー_2
 62
     7
100
AcDbVertex
100
AcDb2dVertex
 10
128.526177
 20
185.57093
 30
0.0
  0
VERTEX
  5
192
100
AcDbEntity
  8
レイヤー_2
 62
     7
100
AcDbVertex
100
AcDb2dVertex
 10
128.529622
 20
185.557838
 30
0.0
  0
VERTEX
  5
193
100
AcDbEntity
  8
レイヤー_2
 62
     7
100
AcDbVertex
100
AcDb2dVertex
 10
128.533067
 20
185.521148
 30
0.0
  0
VERTEX
  5
194
100
AcDbEntity
  8
レイヤー_2
 62
     7
100
AcDbVertex
100
AcDb2dVertex
 10
128.533067
 20
185.513224
 30
0.0
  0
SEQEND
  5
195
100
AcDbEntity
  8
レイヤー_2
 62
     7
  0
POLYLINE
  5
174
100
AcDbEntity
  8
レイヤー_2
 62
     7
100
AcDb2dPolyline
 66
     1
 10
0.0
 20
0.0
 30
0.0
  0
VERTEX
  5
175
100
AcDbEntity
  8
レイヤー_2
 62
     7
100
AcDbVertex
100
AcDb2dVertex
 10
128.538235
 20
185.899419
 30
0.0
  0
VERTEX
  5
176
100
AcDbEntity
  8
レイヤー_2
 62
     7
100
AcDbVertex
100
AcDb2dVertex
 10
128.538235
 20
185.89873
 30
0.0
  0
VERTEX
  5
177
100
AcDbEntity
  8
レイヤー_2
 62
     7
100
AcDbVertex
100
AcDb2dVertex
 10
128.538235
 20
185.862729
 30
0.0
  0
VERTEX
  5
178
100
AcDbEntity
  8
レイヤー_2
 62
     7
100
AcDbVertex
100
AcDb2dVertex
 10
128.536168
 20
185.849638
 30
0.0
  0
VERTEX
  5
179
100
AcDbEntity
  8
レイヤー_2
 62
     7
100
AcDbVertex
100
AcDb2dVertex
 10
128.533067
 20
185.862729
 30
0.0
  0
VERTEX
  5
17A
100
AcDbEntity
  8
レイヤー_2
 62
     7
100
AcDbVertex
100
AcDb2dVertex
 10
128.529622
 20
185.89873
 30
0.0
  0
VERTEX
  5
17B
100
AcDbEntity
  8
レイヤー_2
 62
     7
100
AcDbVertex
100
AcDb2dVertex
 10
128.526177
 20
185.953507
 30
0.0
  0
VERTEX
  5
17C
100
AcDbEntity
  8
レイヤー_2
 62
     7
100
AcDbVertex
100
AcDb2dVertex
 10
128.523077
 20
186.018275
 30
0.0
  0
VERTEX
  5
17D
100
AcDbEntity
  8
レイヤー_2
 62
     7
100
AcDbVertex
100
AcDb2dVertex
 10
128.52101
 20
186.081665
 30
0.0
  0
VERTEX
  5
17E
100
AcDbEntity
  8
レイヤー_2
 62
     7
100
AcDbVertex
100
AcDb2dVertex
 10
128.52101
 20
186.135064
 30
0.0
  0
VERTEX
  5
17F
100
AcDbEntity
  8
レイヤー_2
 62
     7
100
AcDbVertex
100
AcDb2dVertex
 10
128.52101
 20
186.171754
 30
0.0
  0
VERTEX
  5
180
100
AcDbEntity
  8
レイヤー_2
 62
     7
100
AcDbVertex
100
AcDb2dVertex
 10
128.523077
 20
186.183984
 30
0.0
  0
VERTEX
  5
181
100
AcDbEntity
  8
レイヤー_2
 62
     7
100
AcDbVertex
100
AcDb2dVertex
 10
128.526177
 20
186.171754
 30
0.0
  0
VERTEX
  5
182
100
AcDbEntity
  8
レイヤー_2
 62
     7
100
AcDbVertex
100
AcDb2dVertex
 10
128.526866
 20
186.168137
 30
0.0
  0
SEQEND
  5
183
100
AcDbEntity
  8
レイヤー_2
 62
     7
  0
POLYLINE
  5
16E
100
AcDbEntity
  8
レイヤー_2
 62
     7
100
AcDb2dPolyline
 66
     1
 10
0.0
 20
0.0
 30
0.0
  0
VERTEX
  5
16F
100
AcDbEntity
  8
レイヤー_2
 62
     7
100
AcDbVertex
100
AcDb2dVertex
 10
128.536168
 20
183.509557
 30
0.0
  0
VERTEX
  5
170
100
AcDbEntity
  8
レイヤー_2
 62
     7
100
AcDbVertex
100
AcDb2dVertex
 10
128.538235
 20
183.495087
 30
0.0
  0
VERTEX
  5
171
100
AcDbEntity
  8
レイヤー_2
 62
     7
100
AcDbVertex
100
AcDb2dVertex
 10
128.538235
 20
183.459086
 30
0.0
  0
VERTEX
  5
172
100
AcDbEntity
  8
レイヤー_2
 62
     7
100
AcDbVertex
100
AcDb2dVertex
 10
128.538235
 20
183.459086
 30
0.0
  0
SEQEND
  5
173
100
AcDbEntity
  8
レイヤー_2
 62
     7
  0
POLYLINE
  5
160
100
AcDbEntity
  8
レイヤー_2
 62
     7
100
AcDb2dPolyline
 66
     1
 10
0.0
 20
0.0
 30
0.0
  0
VERTEX
  5
161
100
AcDbEntity
  8
レイヤー_2
 62
     7
100
AcDbVertex
100
AcDb2dVertex
 10
128.529622
 20
183.224131
 30
0.0
  0
VERTEX
  5
162
100
AcDbEntity
  8
レイヤー_2
 62
     7
100
AcDbVertex
100
AcDb2dVertex
 10
128.529622
 20
183.222753
 30
0.0
  0
VERTEX
  5
163
100
AcDbEntity
  8
レイヤー_2
 62
     7
100
AcDbVertex
100
AcDb2dVertex
 10
128.526177
 20
183.186751
 30
0.0
  0
VERTEX
  5
164
100
AcDbEntity
  8
レイヤー_2
 62
     7
100
AcDbVertex
100
AcDb2dVertex
 10
128.523077
 20
183.173832
 30
0.0
  0
VERTEX
  5
165
100
AcDbEntity
  8
レイヤー_2
 62
     7
100
AcDbVertex
100
AcDb2dVertex
 10
128.52101
 20
183.18744
 30
0.0
  0
VERTEX
  5
166
100
AcDbEntity
  8
レイヤー_2
 62
     7
100
AcDbVertex
100
AcDb2dVertex
 10
128.52101
 20
183.224131
 30
0.0
  0
VERTEX
  5
167
100
AcDbEntity
  8
レイヤー_2
 62
     7
100
AcDbVertex
100
AcDb2dVertex
 10
128.52101
 20
183.27753
 30
0.0
  0
VERTEX
  5
168
100
AcDbEntity
  8
レイヤー_2
 62
     7
100
AcDbVertex
100
AcDb2dVertex
 10
128.523077
 20
183.342297
 30
0.0
  0
VERTEX
  5
169
100
AcDbEntity
  8
レイヤー_2
 62
     7
100
AcDbVertex
100
AcDb2dVertex
 10
128.526177
 20
183.405687
 30
0.0
  0
VERTEX
  5
16A
100
AcDbEntity
  8
レイヤー_2
 62
     7
100
AcDbVertex
100
AcDb2dVertex
 10
128.529622
 20
183.459775
 30
0.0
  0
VERTEX
  5
16B
100
AcDbEntity
  8
レイヤー_2
 62
     7
100
AcDbVertex
100
AcDb2dVertex
 10
128.533067
 20
183.496465
 30
0.0
  0
VERTEX
  5
16C
100
AcDbEntity
  8
レイヤー_2
 62
     7
100
AcDbVertex
100
AcDb2dVertex
 10
128.536168
 20
183.509557
 30
0.0
  0
SEQEND
  5
16D
100
AcDbEntity
  8
レイヤー_2
 62
     7
  0
POLYLINE
  5
15B
100
AcDbEntity
  8
レイヤー_2
 62
     7
100
AcDb2dPolyline
 66
     1
 10
0.0
 20
0.0
 30
0.0
  0
VERTEX
  5
15C
100
AcDbEntity
  8
レイヤー_2
 62
     7
100
AcDbVertex
100
AcDb2dVertex
 10
128.491382
 20
184.29056
 30
0.0
  0
VERTEX
  5
15D
100
AcDbEntity
  8
レイヤー_2
 62
     7
100
AcDbVertex
100
AcDb2dVertex
 10
128.491382
 20
184.215629
 30
0.0
  0
VERTEX
  5
15E
100
AcDbEntity
  8
レイヤー_2
 62
     7
100
AcDbVertex
100
AcDb2dVertex
 10
128.492071
 20
184.152239
 30
0.0
  0
SEQEND
  5
15F
100
AcDbEntity
  8
レイヤー_2
 62
     7
  0
POLYLINE
  5
154
100
AcDbEntity
  8
レイヤー_2
 62
     7
100
AcDb2dPolyline
 66
     1
 10
0.0
 20
0.0
 30
0.0
  0
VERTEX
  5
155
100
AcDbEntity
  8
レイヤー_2
 62
     7
100
AcDbVertex
100
AcDb2dVertex
 10
128.499306
 20
184.483657
 30
0.0
  0
VERTEX
  5
156
100
AcDbEntity
  8
レイヤー_2
 62
     7
100
AcDbVertex
100
AcDb2dVertex
 10
128.497238
 20
184.471427
 30
0.0
  0
VERTEX
  5
157
100
AcDbEntity
  8
レイヤー_2
 62
     7
100
AcDbVertex
100
AcDb2dVertex
 10
128.494138
 20
184.42888
 30
0.0
  0
VERTEX
  5
158
100
AcDbEntity
  8
レイヤー_2
 62
     7
100
AcDbVertex
100
AcDb2dVertex
 10
128.492071
 20
184.364802
 30
0.0
  0
VERTEX
  5
159
100
AcDbEntity
  8
レイヤー_2
 62
     7
100
AcDbVertex
100
AcDb2dVertex
 10
128.491382
 20
184.29056
 30
0.0
  0
SEQEND
  5
15A
100
AcDbEntity
  8
レイヤー_2
 62
     7
  0
POLYLINE
  5
14C
100
AcDbEntity
  8
レイヤー_2
 62
     7
100
AcDb2dPolyline
 66
     1
 10
0.0
 20
0.0
 30
0.0
  0
VERTEX
  5
14D
100
AcDbEntity
  8
レイヤー_2
 62
     7
100
AcDbVertex
100
AcDb2dVertex
 10
128.519632
 20
184.29056
 30
0.0
  0
VERTEX
  5
14E
100
AcDbEntity
  8
レイヤー_2
 62
     7
100
AcDbVertex
100
AcDb2dVertex
 10
128.52101
 20
184.35395
 30
0.0
  0
VERTEX
  5
14F
100
AcDbEntity
  8
レイヤー_2
 62
     7
100
AcDbVertex
100
AcDb2dVertex
 10
128.523077
 20
184.409416
 30
0.0
  0
VERTEX
  5
150
100
AcDbEntity
  8
レイヤー_2
 62
     7
100
AcDbVertex
100
AcDb2dVertex
 10
128.526177
 20
184.446106
 30
0.0
  0
VERTEX
  5
151
100
AcDbEntity
  8
レイヤー_2
 62
     7
100
AcDbVertex
100
AcDb2dVertex
 10
128.528244
 20
184.458336
 30
0.0
  0
VERTEX
  5
152
100
AcDbEntity
  8
レイヤー_2
 62
     7
100
AcDbVertex
100
AcDb2dVertex
 10
128.529622
 20
184.446106
 30
0.0
  0
SEQEND
  5
153
100
AcDbEntity
  8
レイヤー_2
 62
     7
  0
POLYLINE
  5
144
100
AcDbEntity
  8
レイヤー_2
 62
     7
100
AcDb2dPolyline
 66
     1
 10
0.0
 20
0.0
 30
0.0
  0
VERTEX
  5
145
100
AcDbEntity
  8
レイヤー_2
 62
     7
100
AcDbVertex
100
AcDb2dVertex
 10
128.526177
 20
184.134153
 30
0.0
  0
VERTEX
  5
146
100
AcDbEntity
  8
レイヤー_2
 62
     7
100
AcDbVertex
100
AcDb2dVertex
 10
128.523766
 20
184.121233
 30
0.0
  0
VERTEX
  5
147
100
AcDbEntity
  8
レイヤー_2
 62
     7
100
AcDbVertex
100
AcDb2dVertex
 10
128.522388
 20
184.134153
 30
0.0
  0
VERTEX
  5
148
100
AcDbEntity
  8
レイヤー_2
 62
     7
100
AcDbVertex
100
AcDb2dVertex
 10
128.52101
 20
184.170154
 30
0.0
  0
VERTEX
  5
149
100
AcDbEntity
  8
レイヤー_2
 62
     7
100
AcDbVertex
100
AcDb2dVertex
 10
128.519632
 20
184.224931
 30
0.0
  0
VERTEX
  5
14A
100
AcDbEntity
  8
レイヤー_2
 62
     7
100
AcDbVertex
100
AcDb2dVertex
 10
128.519632
 20
184.29056
 30
0.0
  0
SEQEND
  5
14B
100
AcDbEntity
  8
レイヤー_2
 62
     7
  0
POLYLINE
  5
13C
100
AcDbEntity
  8
レイヤー_2
 62
     7
100
AcDb2dPolyline
 66
     1
 10
0.0
 20
0.0
 30
0.0
  0
VERTEX
  5
13D
100
AcDbEntity
  8
レイヤー_2
 62
     7
100
AcDbVertex
100
AcDb2dVertex
 10
128.519632
 20
185.068635
 30
0.0
  0
VERTEX
  5
13E
100
AcDbEntity
  8
レイヤー_2
 62
     7
100
AcDbVertex
100
AcDb2dVertex
 10
128.519632
 20
185.133575
 30
0.0
  0
VERTEX
  5
13F
100
AcDbEntity
  8
レイヤー_2
 62
     7
100
AcDbVertex
100
AcDb2dVertex
 10
128.52101
 20
185.187491
 30
0.0
  0
VERTEX
  5
140
100
AcDbEntity
  8
レイヤー_2
 62
     7
100
AcDbVertex
100
AcDb2dVertex
 10
128.522388
 20
185.224353
 30
0.0
  0
VERTEX
  5
141
100
AcDbEntity
  8
レイヤー_2
 62
     7
100
AcDbVertex
100
AcDb2dVertex
 10
128.523766
 20
185.237272
 30
0.0
  0
VERTEX
  5
142
100
AcDbEntity
  8
レイヤー_2
 62
     7
100
AcDbVertex
100
AcDb2dVertex
 10
128.526177
 20
185.224353
 30
0.0
  0
SEQEND
  5
143
100
AcDbEntity
  8
レイヤー_2
 62
     7
  0
POLYLINE
  5
134
100
AcDbEntity
  8
レイヤー_2
 62
     7
100
AcDb2dPolyline
 66
     1
 10
0.0
 20
0.0
 30
0.0
  0
VERTEX
  5
135
100
AcDbEntity
  8
レイヤー_2
 62
     7
100
AcDbVertex
100
AcDb2dVertex
 10
128.529622
 20
184.913089
 30
0.0
  0
VERTEX
  5
136
100
AcDbEntity
  8
レイヤー_2
 62
     7
100
AcDbVertex
100
AcDb2dVertex
 10
128.528244
 20
184.899997
 30
0.0
  0
VERTEX
  5
137
100
AcDbEntity
  8
レイヤー_2
 62
     7
100
AcDbVertex
100
AcDb2dVertex
 10
128.526177
 20
184.913778
 30
0.0
  0
VERTEX
  5
138
100
AcDbEntity
  8
レイヤー_2
 62
     7
100
AcDbVertex
100
AcDb2dVertex
 10
128.523077
 20
184.94909
 30
0.0
  0
VERTEX
  5
139
100
AcDbEntity
  8
レイヤー_2
 62
     7
100
AcDbVertex
100
AcDb2dVertex
 10
128.52101
 20
185.005245
 30
0.0
  0
VERTEX
  5
13A
100
AcDbEntity
  8
レイヤー_2
 62
     7
100
AcDbVertex
100
AcDb2dVertex
 10
128.519632
 20
185.068635
 30
0.0
  0
SEQEND
  5
13B
100
AcDbEntity
  8
レイヤー_2
 62
     7
  0
POLYLINE
  5
12B
100
AcDbEntity
  8
レイヤー_2
 62
     7
100
AcDb2dPolyline
 66
     1
 10
0.0
 20
0.0
 30
0.0
  0
VERTEX
  5
12C
100
AcDbEntity
  8
レイヤー_2
 62
     7
100
AcDbVertex
100
AcDb2dVertex
 10
128.527555
 20
185.56869
 30
0.0
  0
VERTEX
  5
12D
100
AcDbEntity
  8
レイヤー_2
 62
     7
100
AcDbVertex
100
AcDb2dVertex
 10
128.526866
 20
185.580231
 30
0.0
  0
VERTEX
  5
12E
100
AcDbEntity
  8
レイヤー_2
 62
     7
100
AcDbVertex
100
AcDb2dVertex
 10
128.525144
 20
185.635008
 30
0.0
  0
VERTEX
  5
12F
100
AcDbEntity
  8
レイヤー_2
 62
     7
100
AcDbVertex
100
AcDb2dVertex
 10
128.523077
 20
185.698398
 30
0.0
  0
VERTEX
  5
130
100
AcDbEntity
  8
レイヤー_2
 62
     7
100
AcDbVertex
100
AcDb2dVertex
 10
128.52101
 20
185.763166
 30
0.0
  0
VERTEX
  5
131
100
AcDbEntity
  8
レイヤー_2
 62
     7
100
AcDbVertex
100
AcDb2dVertex
 10
128.519632
 20
185.817943
 30
0.0
  0
VERTEX
  5
132
100
AcDbEntity
  8
レイヤー_2
 62
     7
100
AcDbVertex
100
AcDb2dVertex
 10
128.519632
 20
185.825178
 30
0.0
  0
SEQEND
  5
133
100
AcDbEntity
  8
レイヤー_2
 62
     7
  0
POLYLINE
  5
126
100
AcDbEntity
  8
レイヤー_2
 62
     7
100
AcDb2dPolyline
 66
     1
 10
0.0
 20
0.0
 30
0.0
  0
VERTEX
  5
127
100
AcDbEntity
  8
レイヤー_2
 62
     7
100
AcDbVertex
100
AcDb2dVertex
 10
128.52101
 20
186.59464
 30
0.0
  0
VERTEX
  5
128
100
AcDbEntity
  8
レイヤー_2
 62
     7
100
AcDbVertex
100
AcDb2dVertex
 10
128.523077
 20
186.581721
 30
0.0
  0
VERTEX
  5
129
100
AcDbEntity
  8
レイヤー_2
 62
     7
100
AcDbVertex
100
AcDb2dVertex
 10
128.523077
 20
186.581721
 30
0.0
  0
SEQEND
  5
12A
100
AcDbEntity
  8
レイヤー_2
 62
     7
  0
POLYLINE
  5
119
100
AcDbEntity
  8
レイヤー_2
 62
     7
100
AcDb2dPolyline
 66
     1
 10
0.0
 20
0.0
 30
0.0
  0
VERTEX
  5
11A
100
AcDbEntity
  8
レイヤー_2
 62
     7
100
AcDbVertex
100
AcDb2dVertex
 10
128.538235
 20
186.273385
 30
0.0
  0
VERTEX
  5
11B
100
AcDbEntity
  8
レイヤー_2
 62
     7
100
AcDbVertex
100
AcDb2dVertex
 10
128.538235
 20
186.273385
 30
0.0
  0
VERTEX
  5
11C
100
AcDbEntity
  8
レイヤー_2
 62
     7
100
AcDbVertex
100
AcDb2dVertex
 10
128.538235
 20
186.260465
 30
0.0
  0
VERTEX
  5
11D
100
AcDbEntity
  8
レイヤー_2
 62
     7
100
AcDbVertex
100
AcDb2dVertex
 10
128.536168
 20
186.273385
 30
0.0
  0
VERTEX
  5
11E
100
AcDbEntity
  8
レイヤー_2
 62
     7
100
AcDbVertex
100
AcDb2dVertex
 10
128.533067
 20
186.309386
 30
0.0
  0
VERTEX
  5
11F
100
AcDbEntity
  8
レイヤー_2
 62
     7
100
AcDbVertex
100
AcDb2dVertex
 10
128.529622
 20
186.363474
 30
0.0
  0
VERTEX
  5
120
100
AcDbEntity
  8
レイヤー_2
 62
     7
100
AcDbVertex
100
AcDb2dVertex
 10
128.526177
 20
186.427553
 30
0.0
  0
VERTEX
  5
121
100
AcDbEntity
  8
レイヤー_2
 62
     7
100
AcDbVertex
100
AcDb2dVertex
 10
128.523077
 20
186.490942
 30
0.0
  0
VERTEX
  5
122
100
AcDbEntity
  8
レイヤー_2
 62
     7
100
AcDbVertex
100
AcDb2dVertex
 10
128.52101
 20
186.545719
 30
0.0
  0
VERTEX
  5
123
100
AcDbEntity
  8
レイヤー_2
 62
     7
100
AcDbVertex
100
AcDb2dVertex
 10
128.52101
 20
186.581721
 30
0.0
  0
VERTEX
  5
124
100
AcDbEntity
  8
レイヤー_2
 62
     7
100
AcDbVertex
100
AcDb2dVertex
 10
128.52101
 20
186.59464
 30
0.0
  0
SEQEND
  5
125
100
AcDbEntity
  8
レイヤー_2
 62
     7
  0
POLYLINE
  5
114
100
AcDbEntity
  8
レイヤー_2
 62
     7
100
AcDb2dPolyline
 66
     1
 10
0.0
 20
0.0
 30
0.0
  0
VERTEX
  5
115
100
AcDbEntity
  8
レイヤー_2
 62
     7
100
AcDbVertex
100
AcDb2dVertex
 10
128.538235
 20
183.098901
 30
0.0
  0
VERTEX
  5
116
100
AcDbEntity
  8
レイヤー_2
 62
     7
100
AcDbVertex
100
AcDb2dVertex
 10
128.538235
 20
183.08581
 30
0.0
  0
VERTEX
  5
117
100
AcDbEntity
  8
レイヤー_2
 62
     7
100
AcDbVertex
100
AcDb2dVertex
 10
128.538235
 20
183.08581
 30
0.0
  0
SEQEND
  5
118
100
AcDbEntity
  8
レイヤー_2
 62
     7
  0
POLYLINE
  5
107
100
AcDbEntity
  8
レイヤー_2
 62
     7
100
AcDb2dPolyline
 66
     1
 10
0.0
 20
0.0
 30
0.0
  0
VERTEX
  5
108
100
AcDbEntity
  8
レイヤー_2
 62
     7
100
AcDbVertex
100
AcDb2dVertex
 10
128.523077
 20
182.776785
 30
0.0
  0
VERTEX
  5
109
100
AcDbEntity
  8
レイヤー_2
 62
     7
100
AcDbVertex
100
AcDb2dVertex
 10
128.523077
 20
182.776785
 30
0.0
  0
VERTEX
  5
10A
100
AcDbEntity
  8
レイヤー_2
 62
     7
100
AcDbVertex
100
AcDb2dVertex
 10
128.52101
 20
182.764555
 30
0.0
  0
VERTEX
  5
10B
100
AcDbEntity
  8
レイヤー_2
 62
     7
100
AcDbVertex
100
AcDb2dVertex
 10
128.52101
 20
182.776785
 30
0.0
  0
VERTEX
  5
10C
100
AcDbEntity
  8
レイヤー_2
 62
     7
100
AcDbVertex
100
AcDb2dVertex
 10
128.52101
 20
182.813475
 30
0.0
  0
VERTEX
  5
10D
100
AcDbEntity
  8
レイヤー_2
 62
     7
100
AcDbVertex
100
AcDb2dVertex
 10
128.523077
 20
182.868252
 30
0.0
  0
VERTEX
  5
10E
100
AcDbEntity
  8
レイヤー_2
 62
     7
100
AcDbVertex
100
AcDb2dVertex
 10
128.526177
 20
182.931642
 30
0.0
  0
VERTEX
  5
10F
100
AcDbEntity
  8
レイヤー_2
 62
     7
100
AcDbVertex
100
AcDb2dVertex
 10
128.529622
 20
182.995721
 30
0.0
  0
VERTEX
  5
110
100
AcDbEntity
  8
レイヤー_2
 62
     7
100
AcDbVertex
100
AcDb2dVertex
 10
128.533067
 20
183.049809
 30
0.0
  0
VERTEX
  5
111
100
AcDbEntity
  8
レイヤー_2
 62
     7
100
AcDbVertex
100
AcDb2dVertex
 10
128.536168
 20
183.08581
 30
0.0
  0
VERTEX
  5
112
100
AcDbEntity
  8
レイヤー_2
 62
     7
100
AcDbVertex
100
AcDb2dVertex
 10
128.538235
 20
183.098901
 30
0.0
  0
SEQEND
  5
113
100
AcDbEntity
  8
レイヤー_2
 62
     7
  0
LINE
  5
106
100
AcDbEntity
  8
レイヤー_2
 62
     7
100
AcDbLine
 10
128.527555
 20
184.870542
 30
0.0
 11
128.526866
 21
184.874159
 31
0.0
  0
LINE
  5
105
100
AcDbEntity
  8
レイヤー_2
 62
     7
100
AcDbLine
 10
128.531689
 20
185.780564
 30
0.0
 11
128.529622
 21
185.831723
 31
0.0
  0
LINE
  5
104
100
AcDbEntity
  8
レイヤー_2
 62
     7
100
AcDbLine
 10
128.529622
 20
184.13777
 30
0.0
 11
128.529622
 21
184.173082
 31
0.0
  0
LINE
  5
103
100
AcDbEntity
  8
レイヤー_2
 62
     7
100
AcDbLine
 10
128.529622
 20
185.186801
 30
0.0
 11
128.529622
 21
185.220047
 31
0.0
  0
LINE
  5
102
100
AcDbEntity
  8
レイヤー_2
 62
     7
100
AcDbLine
 10
128.538235
 20
186.40447
 30
0.0
 11
128.52101
 21
186.738817
 31
0.0
  0
LINE
  5
101
100
AcDbEntity
  8
レイヤー_2
 62
     7
100
AcDbLine
 10
128.52101
 20
182.620378
 30
0.0
 11
128.538235
 21
182.954724
 31
0.0
  0
POLYLINE
  5
FC
100
AcDbEntity
  8
レイヤー_2
 62
     7
100
AcDb2dPolyline
 66
     1
 10
0.0
 20
0.0
 30
0.0
  0
VERTEX
  5
FD
100
AcDbEntity
  8
レイヤー_2
 62
     7
100
AcDbVertex
100
AcDb2dVertex
 10
126.338542
 20
182.07433
 30
0.0
  0
VERTEX
  5
FE
100
AcDbEntity
  8
レイヤー_2
 62
     7
100
AcDbVertex
100
AcDb2dVertex
 10
126.335097
 20
182.077086
 30
0.0
  0
VERTEX
  5
FF
100
AcDbEntity
  8
レイヤー_2
 62
     7
100
AcDbVertex
100
AcDb2dVertex
 10
126.326139
 20
182.082943
 30
0.0
  0
SEQEND
  5
100
100
AcDbEntity
  8
レイヤー_2
 62
     7
  0
SPLINE
  5
FB
100
AcDbEntity
  8
レイヤー_2
 62
     7
100
AcDbSpline
210
0.0
220
0.0
230
1.0
 70
     8
 71
     3
 72
    11
 73
     7
 74
     0
 42
0.00000001
 43
0.00000001
 40
0.0
 40
0.0
 40
0.0
 40
0.0
 40
1.0
 40
1.0
 40
1.0
 40
2.0
 40
2.0
 40
2.0
 40
2.0
 10
126.15422905815971
 20
181.99354248046873
 30
0.0
 10
126.15422905815971
 20
181.99354248046873
 30
0.0
 10
125.09727376302082
 20
182.89925808376734
 30
0.0
 10
124.13815917968749
 20
182.89925808376734
 30
0.0
 10
123.17904459635416
 20
182.89925808376734
 30
0.0
 10
122.12208930121527
 20
181.99354248046873
 30
0.0
 10
122.12208930121527
 20
181.99354248046873
 30
0.0
  0
SPLINE
  5
FA
100
AcDbEntity
  8
レイヤー_2
  6
AI9-LType3
 62
     7
100
AcDbSpline
210
0.0
220
0.0
230
1.0
 70
     8
 71
     3
 72
     8
 73
     4
 74
     0
 42
0.00000001
 43
0.00000001
 40
0.0
 40
0.0
 40
0.0
 40
0.0
 40
1.0
 40
1.0
 40
1.0
 40
1.0
 10
124.15676269531249
 20
145.89290364583331
 30
0.0
 10
124.15676269531249
 20
145.89290364583331
 30
0.0
 10
124.23048773871527
 20
143.78174913194442
 30
0.0
 10
125.41422254774304
 20
142.08159450954861
 30
0.0
  0
SPLINE
  5
F8
100
AcDbEntity
  8
レイヤー_2
 62
     7
100
AcDbSpline
210
0.0
220
0.0
230
1.0
 70
     8
 71
     3
 72
     8
 73
     4
 74
     0
 42
0.00000001
 43
0.00000001
 40
0.0
 40
0.0
 40
0.0
 40
0.0
 40
1.0
 40
1.0
 40
1.0
 40
1.0
 10
125.41422254774304
 20
142.08159450954861
 30
0.0
 10
125.52584364149304
 20
141.9207085503472
 30
0.0
 10
125.64676649305554
 20
141.76361219618053
 30
0.0
 10
125.77940266927082
 20
141.61306152343749
 30
0.0
  0
LINE
  5
F7
100
AcDbEntity
  8
レイヤー_2
  6
AI9-LType1
 62
     7
100
AcDbLine
 10
124.138159
 20
91.933407
 30
0.0
 11
124.138159
 21
193.063323
 31
0.0
  0
LINE
  5
F6
100
AcDbEntity
  8
レイヤー_2
 62
     7
100
AcDbLine
 10
124.138159
 20
187.016836
 30
0.0
 11
124.138159
 21
187.612665
 31
0.0
  0
LINE
  5
F5
100
AcDbEntity
  8
レイヤー_2
 62
     7
100
AcDbLine
 10
126.351633
 20
153.982505
 30
0.0
 11
126.351633
 21
130.420291
 31
0.0
  0
LINE
  5
F4
100
AcDbEntity
  8
レイヤー_2
 62
     7
100
AcDbLine
 10
121.93571
 20
154.074833
 30
0.0
 11
121.93571
 21
130.420291
 31
0.0
  0
LINE
  5
F3
100
AcDbEntity
  8
レイヤー_2
 62
     7
100
AcDbLine
 10
100.995041
 20
157.96469
 30
0.0
 11
119.604069
 21
157.96469
 31
0.0
  0
LINE
  5
F2
100
AcDbEntity
  8
レイヤー_2
 62
     7
100
AcDbLine
 10
102.552913
 20
158.595832
 30
0.0
 11
101.095121
 21
157.298926
 31
0.0
  0
LINE
  5
F1
100
AcDbEntity
  8
レイヤー_2
 62
     7
100
AcDbLine
 10
101.028803
 20
163.053786
 30
0.0
 11
117.508073
 21
163.053786
 31
0.0
  0
LINE
  5
F0
100
AcDbEntity
  8
レイヤー_2
 62
     7
100
AcDbLine
 10
102.538789
 20
163.760547
 30
0.0
 11
101.081341
 21
162.465191
 31
0.0
  0
LINE
  5
EF
100
AcDbEntity
  8
レイヤー_2
 62
     7
100
AcDbLine
 10
127.843704
 20
164.939286
 30
0.0
 11
127.843704
 21
170.606813
 31
0.0
  0
LINE
  5
EE
100
AcDbEntity
  8
レイヤー_2
 62
     7
100
AcDbLine
 10
128.636076
 20
170.030448
 30
0.0
 11
109.622249
 21
170.030448
 31
0.0
  0
LINE
  5
ED
100
AcDbEntity
  8
レイヤー_2
 62
     7
100
AcDbLine
 10
101.005032
 20
187.287793
 30
0.0
 11
120.455697
 21
187.287793
 31
0.0
  0
LINE
  5
EC
100
AcDbEntity
  8
レイヤー_2
 62
     7
100
AcDbLine
 10
101.760197
 20
188.109104
 30
0.0
 11
101.760197
 21
138.992033
 31
0.0
  0
LINE
  5
EB
100
AcDbEntity
  8
レイヤー_2
 62
     7
100
AcDbLine
 10
127.211184
 20
170.731525
 30
0.0
 11
128.507229
 21
169.273905
 31
0.0
  0
LINE
  5
EA
100
AcDbEntity
  8
レイヤー_2
 62
     7
100
AcDbLine
 10
119.7684
 20
170.712061
 30
0.0
 11
121.064445
 21
169.253752
 31
0.0
  0
LINE
  5
E9
100
AcDbEntity
  8
レイヤー_2
 62
     7
100
AcDbLine
 10
102.503304
 20
187.982324
 30
0.0
 11
101.04534
 21
186.686968
 31
0.0
  0
LINE
  5
E8
100
AcDbEntity
  8
レイヤー_2
 62
     7
100
AcDbLine
 10
120.429169
 20
164.882442
 30
0.0
 11
120.429169
 21
170.599578
 31
0.0
  0
MTEXT
  5
E7
100
AcDbEntity
  8
レイヤー_2
 62
     7
100
AcDbMText
 10
108.471932
 20
174.689308
 30
0.0
 40
3.674768
 41
0.0
 71
     1
 72
     2
  1
\fGothicBBB Medium|b0|i0|c128;\H3.6748;\C7;\U+03C6\U+0035\U+0030
  7
STD
210
0.0
220
0.0
230
1.0
 73
     1
 44
1.0
  0
MTEXT
  5
E6
100
AcDbEntity
  8
レイヤー_2
 62
     7
100
AcDbMText
 10
97.380045
 20
171.435358
 30
0.0
 40
3.674768
 41
0.0
 71
     1
 72
     2
  1
\fGothicBBB Medium|b0|i0|c128;\H3.6748;\C7;\U+0031\U+0036\U+0032
  7
STD
210
0.0
220
0.0
230
1.0
 11
0.0
 21
1.0
 31
0.0
 73
     1
 44
1.0
  0
MTEXT
  5
E5
100
AcDbEntity
  8
レイヤー_2
 62
     7
100
AcDbMText
 10
97.123558
 20
139.391664
 30
0.0
 40
3.674768
 41
0.0
 71
     1
 72
     2
  1
\fGothicBBB Medium|b0|i0|c128;\H3.6748;\C7;\U+006D\U+0061\U+0078\U+002E\U+0033\U+0035
  7
STD
210
0.0
220
0.0
230
1.0
 11
0.0
 21
1.0
 31
0.0
 73
     1
 44
1.0
  0
LINE
  5
E4
100
AcDbEntity
  8
レイヤー_2
 62
     7
100
AcDbLine
 10
167.213911
 20
131.576465
 30
0.0
 11
167.213911
 21
128.658469
 31
0.0
  0
LINE
  5
E3
100
AcDbEntity
  8
レイヤー_2
 62
     7
100
AcDbLine
 10
167.213911
 20
128.064879
 30
0.0
 11
167.213911
 21
127.471289
 31
0.0
  0
LINE
  5
E2
100
AcDbEntity
  8
レイヤー_2
 62
     7
100
AcDbLine
 10
167.213911
 20
126.877355
 30
0.0
 11
167.213911
 21
123.960048
 31
0.0
  0
MTEXT
  5
E1
100
AcDbEntity
  8
レイヤー_2
  6
AI9-LType2
 62
     7
100
AcDbMText
 10
151.050901
 20
103.062672
 30
0.0
 40
3.674768
 41
0.0
 71
     1
 72
     2
  1
\fGothicBBB Medium|b0|i0|c128;\H3.6748;\C7;\U+0047\U+0031\U+002F\U+0032
  7
STD
210
0.0
220
0.0
230
1.0
 73
     1
 44
1.0
  0
MTEXT
  5
E0
100
AcDbEntity
  8
レイヤー_2
  6
AI9-LType2
 62
     7
100
AcDbMText
 10
173.619721
 20
103.062672
 30
0.0
 40
3.674768
 41
0.0
 71
     1
 72
     2
  1
\fGothicBBB Medium|b0|i0|c128;\H3.6748;\C7;\U+0047\U+0031\U+002F\U+0032
  7
STD
210
0.0
220
0.0
230
1.0
 73
     1
 44
1.0
  0
LINE
  5
DF
100
AcDbEntity
  8
レイヤー_2
  6
AI9-LType2
 62
     7
100
AcDbLine
 10
168.527525
 20
118.368313
 30
0.0
 11
168.527525
 21
153.690188
 31
0.0
  0
LINE
  5
DE
100
AcDbEntity
  8
レイヤー_2
  6
AI9-LType2
 62
     7
100
AcDbLine
 10
168.613997
 20
118.424468
 30
0.0
 11
178.403925
 21
126.600713
 31
0.0
  0
SPLINE
  5
DD
100
AcDbEntity
  8
レイヤー_2
 62
     7
100
AcDbSpline
210
0.0
220
0.0
230
1.0
 70
     8
 71
     3
 72
    95
 73
    91
 74
     0
 42
0.00000001
 43
0.00000001
 40
0.0
 40
0.0
 40
0.0
 40
0.0
 40
1.0
 40
1.0
 40
1.0
 40
2.0
 40
2.0
 40
2.0
 40
3.0
 40
3.0
 40
3.0
 40
4.0
 40
4.0
 40
4.0
 40
5.0
 40
5.0
 40
5.0
 40
6.0
 40
6.0
 40
6.0
 40
7.0
 40
7.0
 40
7.0
 40
8.0
 40
8.0
 40
8.0
 40
9.0
 40
9.0
 40
9.0
 40
10.0
 40
10.0
 40
10.0
 40
11.0
 40
11.0
 40
11.0
 40
12.0
 40
12.0
 40
12.0
 40
13.0
 40
13.0
 40
13.0
 40
14.0
 40
14.0
 40
14.0
 40
15.0
 40
15.0
 40
15.0
 40
16.0
 40
16.0
 40
16.0
 40
17.0
 40
17.0
 40
17.0
 40
18.0
 40
18.0
 40
18.0
 40
19.0
 40
19.0
 40
19.0
 40
20.0
 40
20.0
 40
20.0
 40
21.0
 40
21.0
 40
21.0
 40
22.0
 40
22.0
 40
22.0
 40
23.0
 40
23.0
 40
23.0
 40
24.0
 40
24.0
 40
24.0
 40
25.0
 40
25.0
 40
25.0
 40
26.0
 40
26.0
 40
26.0
 40
27.0
 40
27.0
 40
27.0
 40
28.0
 40
28.0
 40
28.0
 40
29.0
 40
29.0
 40
29.0
 40
30.0
 40
30.0
 40
30.0
 40
30.0
 10
177.67356499565972
 20
121.22601996527777
 30
0.0
 10
177.68148871527777
 20
121.22464192708333
 30
0.0
 10
177.69079047309026
 20
121.22154134114582
 30
0.0
 10
177.69940321180553
 20
121.21947428385415
 30
0.0
 10
177.70732693142361
 20
121.21671820746526
 30
0.0
 10
177.7166286892361
 20
121.21430664062498
 30
0.0
 10
177.72455240885415
 20
121.21292860243055
 30
0.0
 10
177.73316514756942
 20
121.21155056423611
 30
0.0
 10
177.74177788628469
 20
121.20879448784721
 30
0.0
 10
177.75039062499999
 20
121.20776095920138
 30
0.0
 10
177.76003689236109
 20
121.20638292100693
 30
0.0
 10
177.76796061197916
 20
121.20500488281249
 30
0.0
 10
177.77726236979166
 20
121.20431586371527
 30
0.0
 10
177.78587510850693
 20
121.20362684461804
 30
0.0
 10
177.7944878472222
 20
121.20362684461804
 30
0.0
 10
177.80310058593747
 20
121.20362684461804
 30
0.0
 10
177.82342664930553
 20
121.20362684461804
 30
0.0
 10
177.84271918402777
 20
121.20638292100693
 30
0.0
 10
177.86235622829861
 20
121.21155056423611
 30
0.0
 10
177.88233778211804
 20
121.21568467881943
 30
0.0
 10
177.90197482638888
 20
121.22154134114582
 30
0.0
 10
177.92126736111109
 20
121.22739800347222
 30
0.0
 10
177.93987087673611
 20
121.23256564670137
 30
0.0
 10
177.96019694010414
 20
121.23876681857638
 30
0.0
 10
177.97983398437498
 20
121.24324544270833
 30
0.0
 10
177.99774848090277
 20
121.24910210503471
 30
0.0
 10
178.01704101562498
 20
121.2518581814236
 30
0.0
 10
178.0359890407986
 20
121.25461425781249
 30
0.0
 10
178.05390353732636
 20
121.25633680555555
 30
0.0
 10
178.0731960720486
 20
121.25633680555555
 30
0.0
 10
178.09076605902777
 20
121.25323621961805
 30
0.0
 10
178.11660427517359
 20
121.24600151909721
 30
0.0
 10
178.14313151041665
 20
121.23532172309027
 30
0.0
 10
178.16483561197916
 20
121.21878526475693
 30
0.0
 10
178.18929578993053
 20
121.20155978732637
 30
0.0
 10
178.21237792968748
 20
121.18123372395833
 30
0.0
 10
178.23477105034721
 20
121.15952962239582
 30
0.0
 10
178.25716417100693
 20
121.13644748263887
 30
0.0
 10
178.28024631076389
 20
121.11508789062499
 30
0.0
 10
178.30298394097221
 20
121.09269476996526
 30
0.0
 10
178.32399902343749
 20
121.07167968749999
 30
0.0
 10
178.34708116319442
 20
121.05307617187499
 30
0.0
 10
178.37223036024304
 20
121.03722873263888
 30
0.0
 10
178.39324544270832
 20
121.02138129340277
 30
0.0
 10
178.41908365885416
 20
121.01276855468748
 30
0.0
 10
178.44492187499998
 20
121.00966796874999
 30
0.0
 10
178.47110460069442
 20
121.00553385416666
 30
0.0
 10
178.49694281684026
 20
121.00966796874999
 30
0.0
 10
178.52002495659721
 20
121.02000325520832
 30
0.0
 10
178.54655219184025
 20
121.03137207031249
 30
0.0
 10
178.57273491753472
 20
121.04377441406248
 30
0.0
 10
178.59857313368053
 20
121.05514322916666
 30
0.0
 10
178.62578938802082
 20
121.06823459201388
 30
0.0
 10
178.65266113281248
 20
121.08270399305555
 30
0.0
 10
178.67849934895833
 20
121.09855143229166
 30
0.0
 10
178.70433756510414
 20
121.11198730468749
 30
0.0
 10
178.73052029079861
 20
121.12438964843749
 30
0.0
 10
178.75704752604165
 20
121.13369140624999
 30
0.0
 10
178.78081868489582
 20
121.14092610677082
 30
0.0
 10
178.80596788194444
 20
121.14368218315971
 30
0.0
 10
178.83146158854166
 20
121.14092610677082
 30
0.0
 10
178.84937608506942
 20
121.13817003038193
 30
0.0
 10
178.86729058159722
 20
121.13231336805555
 30
0.0
 10
178.88313802083331
 20
121.12301161024304
 30
0.0
 10
178.89967447916666
 20
121.11267632378471
 30
0.0
 10
178.91689995659721
 20
121.10061848958333
 30
0.0
 10
178.9327473958333
 20
121.08890516493055
 30
0.0
 10
178.94928385416665
 20
121.07615831163193
 30
0.0
 10
178.96513129340275
 20
121.06168891059026
 30
0.0
 10
178.98201226128469
 20
121.0472195095486
 30
0.0
 10
178.99854871961804
 20
121.03412814670138
 30
0.0
 10
179.01508517795136
 20
121.02000325520832
 30
0.0
 10
179.03299967447916
 20
121.00828993055555
 30
0.0
 10
179.04953613281248
 20
120.99519856770833
 30
0.0
 10
179.06848415798609
 20
120.9852077907986
 30
0.0
 10
179.0877766927083
 20
120.97659505208333
 30
0.0
 10
179.09501139322916
 20
120.97383897569443
 30
0.0
 10
179.10293511284721
 20
120.97073838975693
 30
0.0
 10
179.1122368706597
 20
120.96798231336804
 30
0.0
 10
179.12016059027775
 20
120.96660427517359
 30
0.0
 10
179.12946234809027
 20
120.96350368923611
 30
0.0
 10
179.13807508680554
 20
120.96212565104166
 30
0.0
 10
179.14599880642359
 20
120.96143663194444
 30
0.0
 10
179.15564507378471
 20
120.95936957465277
 30
0.0
 10
179.16425781249998
 20
120.95868055555555
 30
0.0
 10
179.17287055121525
 20
120.9573025173611
 30
0.0
 10
179.18148328993053
 20
120.9573025173611
 30
0.0
 10
179.19009602864583
 20
120.95557996961804
 30
0.0
 10
179.1987087673611
 20
120.95489095052082
 30
0.0
 10
179.20801052517359
 20
120.95489095052082
 30
0.0
 10
179.21662326388886
 20
120.95489095052082
 30
0.0
  0
LINE
  5
DC
100
AcDbEntity
  8
レイヤー_2
 62
     7
100
AcDbLine
 10
179.827094
 20
116.470066
 30
0.0
 11
179.745445
 21
116.470066
 31
0.0
  0
LINE
  5
DB
100
AcDbEntity
  8
レイヤー_2
 62
     7
100
AcDbLine
 10
179.745445
 20
117.21145
 30
0.0
 11
179.745445
 21
116.470066
 31
0.0
  0
LINE
  5
DA
100
AcDbEntity
  8
レイヤー_2
 62
     7
100
AcDbLine
 10
179.745445
 20
116.470066
 30
0.0
 11
179.827094
 21
116.328817
 31
0.0
  0
LINE
  5
D9
100
AcDbEntity
  8
レイヤー_2
 62
     7
100
AcDbLine
 10
177.144743
 20
116.470066
 30
0.0
 11
177.063094
 21
116.470066
 31
0.0
  0
LINE
  5
D8
100
AcDbEntity
  8
レイヤー_2
 62
     7
100
AcDbLine
 10
177.144743
 20
116.470066
 30
0.0
 11
177.144743
 21
117.21145
 31
0.0
  0
LINE
  5
D7
100
AcDbEntity
  8
レイヤー_2
 62
     7
100
AcDbLine
 10
177.063094
 20
116.328817
 30
0.0
 11
177.144743
 21
116.470066
 31
0.0
  0
LINE
  5
D6
100
AcDbEntity
  8
レイヤー_2
  6
AI9-LType2
 62
     7
100
AcDbLine
 10
178.444922
 20
126.519409
 30
0.0
 11
178.444922
 21
111.948722
 31
0.0
  0
LINE
  5
D5
100
AcDbEntity
  8
レイヤー_2
 62
     7
100
AcDbLine
 10
177.682867
 20
117.287587
 30
0.0
 11
177.349382
 21
117.287587
 31
0.0
  0
LINE
  5
D4
100
AcDbEntity
  8
レイヤー_2
 62
     7
100
AcDbLine
 10
177.682867
 20
118.99222
 30
0.0
 11
177.682867
 21
117.287587
 31
0.0
  0
LINE
  5
D3
100
AcDbEntity
  8
レイヤー_2
 62
     7
100
AcDbLine
 10
177.349382
 20
118.99222
 30
0.0
 11
177.682867
 21
118.99222
 31
0.0
  0
LINE
  5
D2
100
AcDbEntity
  8
レイヤー_2
 62
     7
100
AcDbLine
 10
177.349382
 20
118.99222
 30
0.0
 11
177.349382
 21
117.287587
 31
0.0
  0
LINE
  5
D1
100
AcDbEntity
  8
レイヤー_2
 62
     7
100
AcDbLine
 10
177.226736
 20
120.119111
 30
0.0
 11
178.444922
 21
120.119111
 31
0.0
  0
LINE
  5
D0
100
AcDbEntity
  8
レイヤー_2
 62
     7
100
AcDbLine
 10
176.738911
 20
117.19388
 30
0.0
 11
178.444922
 21
117.19388
 31
0.0
  0
LINE
  5
CF
100
AcDbEntity
  8
レイヤー_2
 62
     7
100
AcDbLine
 10
176.576991
 20
117.287587
 30
0.0
 11
176.738911
 21
117.19388
 31
0.0
  0
LINE
  5
CE
100
AcDbEntity
  8
レイヤー_2
 62
     7
100
AcDbLine
 10
177.226736
 20
120.119111
 30
0.0
 11
176.66553
 21
119.14656
 31
0.0
  0
LINE
  5
CD
100
AcDbEntity
  8
レイヤー_2
 62
     7
100
AcDbLine
 10
176.576991
 20
118.99222
 30
0.0
 11
176.576991
 21
117.287587
 31
0.0
  0
LINE
  5
CC
100
AcDbEntity
  8
レイヤー_2
 62
     7
100
AcDbLine
 10
179.265888
 20
120.119111
 30
0.0
 11
178.444922
 21
120.119111
 31
0.0
  0
LINE
  5
CB
100
AcDbEntity
  8
レイヤー_2
 62
     7
100
AcDbLine
 10
179.867402
 20
117.19388
 30
0.0
 11
178.444922
 21
117.19388
 31
0.0
  0
LINE
  5
CA
100
AcDbEntity
  8
レイヤー_2
 62
     7
100
AcDbLine
 10
179.54184
 20
117.287587
 30
0.0
 11
179.207322
 21
117.287587
 31
0.0
  0
LINE
  5
C9
100
AcDbEntity
  8
レイヤー_2
 62
     7
100
AcDbLine
 10
179.207322
 20
117.287587
 30
0.0
 11
179.207322
 21
118.99222
 31
0.0
  0
LINE
  5
C8
100
AcDbEntity
  8
レイヤー_2
 62
     7
100
AcDbLine
 10
179.207322
 20
118.99222
 30
0.0
 11
179.54184
 21
118.99222
 31
0.0
  0
LINE
  5
C7
100
AcDbEntity
  8
レイヤー_2
 62
     7
100
AcDbLine
 10
179.54184
 20
117.287587
 30
0.0
 11
179.54184
 21
118.99222
 31
0.0
  0
LINE
  5
C6
100
AcDbEntity
  8
レイヤー_2
 62
     7
100
AcDbLine
 10
178.444922
 20
120.119111
 30
0.0
 11
179.663452
 21
120.119111
 31
0.0
  0
LINE
  5
C5
100
AcDbEntity
  8
レイヤー_2
 62
     7
100
AcDbLine
 10
178.444922
 20
117.19388
 30
0.0
 11
180.151967
 21
117.19388
 31
0.0
  0
LINE
  5
C4
100
AcDbEntity
  8
レイヤー_2
 62
     7
100
AcDbLine
 10
180.151967
 20
117.19388
 30
0.0
 11
180.314231
 21
117.287587
 31
0.0
  0
LINE
  5
C3
100
AcDbEntity
  8
レイヤー_2
 62
     7
100
AcDbLine
 10
180.314231
 20
118.99222
 30
0.0
 11
179.663452
 21
120.119111
 31
0.0
  0
LINE
  5
C2
100
AcDbEntity
  8
レイヤー_2
 62
     7
100
AcDbLine
 10
180.314231
 20
117.287587
 30
0.0
 11
180.314231
 21
118.99222
 31
0.0
  0
LINE
  5
C1
100
AcDbEntity
  8
レイヤー_2
 62
     7
100
AcDbLine
 10
176.66553
 20
119.14656
 30
0.0
 11
176.576991
 21
118.99222
 31
0.0
  0
SPLINE
  5
C0
100
AcDbEntity
  8
レイヤー_2
 62
     7
100
AcDbSpline
210
0.0
220
0.0
230
1.0
 70
     8
 71
     3
 72
     8
 73
     4
 74
     0
 42
0.00000001
 43
0.00000001
 40
0.0
 40
0.0
 40
0.0
 40
0.0
 40
1.0
 40
1.0
 40
1.0
 40
1.0
 10
177.68286675347221
 20
117.28758680555555
 30
0.0
 10
177.93194715711803
 20
117.22557508680555
 30
0.0
 10
178.18791775173611
 20
117.19388020833333
 30
0.0
 10
178.44492187499998
 20
117.19388020833333
 30
0.0
  0
SPLINE
  5
BF
100
AcDbEntity
  8
レイヤー_2
 62
     7
100
AcDbSpline
210
0.0
220
0.0
230
1.0
 70
     8
 71
     3
 72
     8
 73
     4
 74
     0
 42
0.00000001
 43
0.00000001
 40
0.0
 40
0.0
 40
0.0
 40
0.0
 40
1.0
 40
1.0
 40
1.0
 40
1.0
 10
176.57699110243053
 20
117.28758680555555
 30
0.0
 10
176.81814778645833
 20
117.1621853298611
 30
0.0
 10
177.10650227864582
 20
117.1621853298611
 30
0.0
 10
177.34938151041666
 20
117.28758680555555
 30
0.0
  0
SPLINE
  5
BE
100
AcDbEntity
  8
レイヤー_2
 62
     7
100
AcDbSpline
210
0.0
220
0.0
230
1.0
 70
     8
 71
     3
 72
     8
 73
     4
 74
     0
 42
0.00000001
 43
0.00000001
 40
0.0
 40
0.0
 40
0.0
 40
0.0
 40
1.0
 40
1.0
 40
1.0
 40
1.0
 10
178.44492187499998
 20
119.27471788194444
 30
0.0
 10
178.16552463107638
 20
119.27471788194444
 30
0.0
 10
177.89542914496525
 20
119.17549913194443
 30
0.0
 10
177.68286675347221
 20
118.99222005208333
 30
0.0
  0
SPLINE
  5
BD
100
AcDbEntity
  8
レイヤー_2
 62
     7
100
AcDbSpline
210
0.0
220
0.0
230
1.0
 70
     8
 71
     3
 72
    11
 73
     7
 74
     0
 42
0.00000001
 43
0.00000001
 40
0.0
 40
0.0
 40
0.0
 40
0.0
 40
1.0
 40
1.0
 40
1.0
 40
2.0
 40
2.0
 40
2.0
 40
2.0
 10
177.34938151041666
 20
118.99222005208333
 30
0.0
 10
177.28151312934025
 20
119.20719401041666
 30
0.0
 10
177.05517035590276
 20
119.32536078559026
 30
0.0
 10
176.84191894531247
 20
119.25818142361111
 30
0.0
 10
176.77439507378472
 20
119.23751085069443
 30
0.0
 10
176.71307237413194
 20
119.19995930989582
 30
0.0
 10
176.66553005642359
 20
119.1465603298611
 30
0.0
  0
SPLINE
  5
BC
100
AcDbEntity
  8
レイヤー_2
 62
     7
100
AcDbSpline
210
0.0
220
0.0
230
1.0
 70
     8
 71
     3
 72
     8
 73
     4
 74
     0
 42
0.00000001
 43
0.00000001
 40
0.0
 40
0.0
 40
0.0
 40
0.0
 40
1.0
 40
1.0
 40
1.0
 40
1.0
 10
178.44492187499998
 20
117.19388020833333
 30
0.0
 10
178.70227050781247
 20
117.19388020833333
 30
0.0
 10
178.95824110243055
 20
117.22557508680555
 30
0.0
 10
179.20732150607637
 20
117.28758680555555
 30
0.0
  0
SPLINE
  5
BB
100
AcDbEntity
  8
レイヤー_2
 62
     7
100
AcDbSpline
210
0.0
220
0.0
230
1.0
 70
     8
 71
     3
 72
     8
 73
     4
 74
     0
 42
0.00000001
 43
0.00000001
 40
0.0
 40
0.0
 40
0.0
 40
0.0
 40
1.0
 40
1.0
 40
1.0
 40
1.0
 10
179.54184027777777
 20
117.28758680555555
 30
0.0
 10
179.78437499999998
 20
117.1621853298611
 30
0.0
 10
180.07204047309025
 20
117.1621853298611
 30
0.0
 10
180.31423068576387
 20
117.28758680555555
 30
0.0
  0
SPLINE
  5
BA
100
AcDbEntity
  8
レイヤー_2
 62
     7
100
AcDbSpline
210
0.0
220
0.0
230
1.0
 70
     8
 71
     3
 72
     8
 73
     4
 74
     0
 42
0.00000001
 43
0.00000001
 40
0.0
 40
0.0
 40
0.0
 40
0.0
 40
1.0
 40
1.0
 40
1.0
 40
1.0
 10
179.20732150607637
 20
118.99222005208333
 30
0.0
 10
178.9947591145833
 20
119.17549913194443
 30
0.0
 10
178.7246636284722
 20
119.27471788194444
 30
0.0
 10
178.44492187499998
 20
119.27471788194444
 30
0.0
  0
SPLINE
  5
B9
100
AcDbEntity
  8
レイヤー_2
 62
     7
100
AcDbSpline
210
0.0
220
0.0
230
1.0
 70
     8
 71
     3
 72
    11
 73
     7
 74
     0
 42
0.00000001
 43
0.00000001
 40
0.0
 40
0.0
 40
0.0
 40
0.0
 40
1.0
 40
1.0
 40
1.0
 40
2.0
 40
2.0
 40
2.0
 40
2.0
 10
180.31423068576387
 20
118.99222005208333
 30
0.0
 10
180.24774034288194
 20
119.20719401041666
 30
0.0
 10
180.02001953124997
 20
119.32536078559026
 30
0.0
 10
179.80745713975693
 20
119.25818142361111
 30
0.0
 10
179.68067762586804
 20
119.21925184461804
 30
0.0
 10
179.58145887586804
 20
119.12072211371526
 30
0.0
 10
179.54184027777777
 20
118.99222005208333
 30
0.0
  0
LINE
  5
B8
100
AcDbEntity
  8
レイヤー_2
 62
     7
100
AcDbLine
 10
176.514979
 20
112.581931
 30
0.0
 11
176.332734
 21
112.680116
 31
0.0
  0
LINE
  5
B7
100
AcDbEntity
  8
レイヤー_2
 62
     7
100
AcDbLine
 10
180.557454
 20
112.680116
 30
0.0
 11
180.375209
 21
112.581931
 31
0.0
  0
LINE
  5
B6
100
AcDbEntity
  8
レイヤー_2
 62
     7
100
AcDbLine
 10
176.332734
 20
115.930219
 30
0.0
 11
176.514979
 21
116.02806
 31
0.0
  0
LINE
  5
B5
100
AcDbEntity
  8
レイヤー_2
 62
     7
100
AcDbLine
 10
180.375209
 20
116.02806
 30
0.0
 11
180.557454
 21
115.930219
 31
0.0
  0
LINE
  5
B4
100
AcDbEntity
  8
レイヤー_2
 62
     7
100
AcDbLine
 10
176.576991
 20
112.435859
 30
0.0
 11
180.314231
 21
112.435859
 31
0.0
  0
LINE
  5
B3
100
AcDbEntity
  8
レイヤー_2
 62
     7
100
AcDbLine
 10
177.162657
 20
112.680116
 30
0.0
 11
177.632224
 21
112.680116
 31
0.0
  0
LINE
  5
B2
100
AcDbEntity
  8
レイヤー_2
 62
     7
100
AcDbLine
 10
179.257275
 20
112.680116
 30
0.0
 11
179.727531
 21
112.680116
 31
0.0
  0
LINE
  5
B1
100
AcDbEntity
  8
レイヤー_2
 62
     7
100
AcDbLine
 10
180.557454
 20
112.680116
 30
0.0
 11
180.314231
 21
112.435859
 31
0.0
  0
LINE
  5
B0
100
AcDbEntity
  8
レイヤー_2
 62
     7
100
AcDbLine
 10
176.332734
 20
112.680116
 30
0.0
 11
176.576991
 21
112.435859
 31
0.0
  0
LINE
  5
AF
100
AcDbEntity
  8
レイヤー_2
 62
     7
100
AcDbLine
 10
180.314231
 20
116.173787
 30
0.0
 11
176.576991
 21
116.173787
 31
0.0
  0
LINE
  5
AE
100
AcDbEntity
  8
レイヤー_2
 62
     7
100
AcDbLine
 10
180.314231
 20
116.173787
 30
0.0
 11
180.557454
 21
115.930219
 31
0.0
  0
LINE
  5
AD
100
AcDbEntity
  8
レイヤー_2
 62
     7
100
AcDbLine
 10
179.727531
 20
115.930219
 30
0.0
 11
179.257275
 21
115.930219
 31
0.0
  0
LINE
  5
AC
100
AcDbEntity
  8
レイヤー_2
 62
     7
100
AcDbLine
 10
177.632224
 20
115.930219
 30
0.0
 11
177.162657
 21
115.930219
 31
0.0
  0
LINE
  5
AB
100
AcDbEntity
  8
レイヤー_2
 62
     7
100
AcDbLine
 10
176.576991
 20
116.173787
 30
0.0
 11
176.332734
 21
115.930219
 31
0.0
  0
LINE
  5
AA
100
AcDbEntity
  8
レイヤー_2
 62
     7
100
AcDbLine
 10
176.332734
 20
112.680116
 30
0.0
 11
176.332734
 21
115.930219
 31
0.0
  0
LINE
  5
A9
100
AcDbEntity
  8
レイヤー_2
 62
     7
100
AcDbLine
 10
177.162657
 20
112.680116
 30
0.0
 11
177.162657
 21
115.930219
 31
0.0
  0
LINE
  5
A8
100
AcDbEntity
  8
レイヤー_2
 62
     7
100
AcDbLine
 10
177.632224
 20
112.680116
 30
0.0
 11
177.632224
 21
115.930219
 31
0.0
  0
LINE
  5
A7
100
AcDbEntity
  8
レイヤー_2
 62
     7
100
AcDbLine
 10
179.257275
 20
112.680116
 30
0.0
 11
179.257275
 21
115.930219
 31
0.0
  0
LINE
  5
A6
100
AcDbEntity
  8
レイヤー_2
 62
     7
100
AcDbLine
 10
179.727531
 20
112.680116
 30
0.0
 11
179.727531
 21
115.930219
 31
0.0
  0
LINE
  5
A5
100
AcDbEntity
  8
レイヤー_2
 62
     7
100
AcDbLine
 10
180.557454
 20
112.680116
 30
0.0
 11
180.557454
 21
115.930219
 31
0.0
  0
SPLINE
  5
A4
100
AcDbEntity
  8
レイヤー_2
 62
     7
100
AcDbSpline
210
0.0
220
0.0
230
1.0
 70
     8
 71
     3
 72
     8
 73
     4
 74
     0
 42
0.00000001
 43
0.00000001
 40
0.0
 40
0.0
 40
0.0
 40
0.0
 40
1.0
 40
1.0
 40
1.0
 40
1.0
 10
176.51497938368053
 20
112.58193088107637
 30
0.0
 10
176.72891981336804
 20
112.46755371093749
 30
0.0
 10
176.99246961805554
 20
112.50786132812499
 30
0.0
 10
177.16265733506944
 20
112.68011610243055
 30
0.0
  0
SPLINE
  5
A3
100
AcDbEntity
  8
レイヤー_2
 62
     7
100
AcDbSpline
210
0.0
220
0.0
230
1.0
 70
     8
 71
     3
 72
     8
 73
     4
 74
     0
 42
0.00000001
 43
0.00000001
 40
0.0
 40
0.0
 40
0.0
 40
0.0
 40
1.0
 40
1.0
 40
1.0
 40
1.0
 10
179.72753092447914
 20
112.68011610243055
 30
0.0
 10
179.89771864149304
 20
112.50786132812499
 30
0.0
 10
180.16126844618054
 20
112.46755371093749
 30
0.0
 10
180.37520887586803
 20
112.58193088107637
 30
0.0
  0
SPLINE
  5
A2
100
AcDbEntity
  8
レイヤー_2
 62
     7
100
AcDbSpline
210
0.0
220
0.0
230
1.0
 70
     8
 71
     3
 72
     8
 73
     4
 74
     0
 42
0.00000001
 43
0.00000001
 40
0.0
 40
0.0
 40
0.0
 40
0.0
 40
1.0
 40
1.0
 40
1.0
 40
1.0
 10
177.63222384982637
 20
112.68011610243055
 30
0.0
 10
178.15243326822915
 20
112.46307508680555
 30
0.0
 10
178.73775499131943
 20
112.46307508680555
 30
0.0
 10
179.25727539062498
 20
112.68011610243055
 30
0.0
  0
SPLINE
  5
A1
100
AcDbEntity
  8
レイヤー_2
 62
     7
100
AcDbSpline
210
0.0
220
0.0
230
1.0
 70
     8
 71
     3
 72
     8
 73
     4
 74
     0
 42
0.00000001
 43
0.00000001
 40
0.0
 40
0.0
 40
0.0
 40
0.0
 40
1.0
 40
1.0
 40
1.0
 40
1.0
 10
177.16265733506944
 20
115.93021918402776
 30
0.0
 10
176.99246961805554
 20
116.10316297743054
 30
0.0
 10
176.72891981336804
 20
116.14278157552083
 30
0.0
 10
176.51497938368053
 20
116.02805989583332
 30
0.0
  0
SPLINE
  5
A0
100
AcDbEntity
  8
レイヤー_2
 62
     7
100
AcDbSpline
210
0.0
220
0.0
230
1.0
 70
     8
 71
     3
 72
     8
 73
     4
 74
     0
 42
0.00000001
 43
0.00000001
 40
0.0
 40
0.0
 40
0.0
 40
0.0
 40
1.0
 40
1.0
 40
1.0
 40
1.0
 10
180.37520887586803
 20
116.02805989583332
 30
0.0
 10
180.16126844618054
 20
116.14278157552083
 30
0.0
 10
179.89771864149304
 20
116.10316297743054
 30
0.0
 10
179.72753092447914
 20
115.93021918402776
 30
0.0
  0
SPLINE
  5
9F
100
AcDbEntity
  8
レイヤー_2
 62
     7
100
AcDbSpline
210
0.0
220
0.0
230
1.0
 70
     8
 71
     3
 72
     8
 73
     4
 74
     0
 42
0.00000001
 43
0.00000001
 40
0.0
 40
0.0
 40
0.0
 40
0.0
 40
1.0
 40
1.0
 40
1.0
 40
1.0
 10
179.25727539062498
 20
115.93021918402776
 30
0.0
 10
178.73775499131943
 20
116.14657118055554
 30
0.0
 10
178.15243326822915
 20
116.14657118055554
 30
0.0
 10
177.63222384982637
 20
115.93021918402776
 30
0.0
  0
LINE
  5
9E
100
AcDbEntity
  8
レイヤー_2
 62
     7
100
AcDbLine
 10
177.673565
 20
120.119111
 30
0.0
 11
177.673565
 21
121.231532
 31
0.0
  0
LINE
  5
9D
100
AcDbEntity
  8
レイヤー_2
 62
     7
100
AcDbLine
 10
179.216623
 20
120.119111
 30
0.0
 11
179.216623
 21
120.954891
 31
0.0
  0
LINE
  5
9C
100
AcDbEntity
  8
レイヤー_2
 62
     7
100
AcDbLine
 10
179.827094
 20
116.328817
 30
0.0
 11
179.827094
 21
117.19388
 31
0.0
  0
LINE
  5
9B
100
AcDbEntity
  8
レイヤー_2
 62
     7
100
AcDbLine
 10
177.063094
 20
117.19388
 30
0.0
 11
177.063094
 21
116.328817
 31
0.0
  0
LINE
  5
9A
100
AcDbEntity
  8
レイヤー_2
 62
     7
100
AcDbLine
 10
177.144743
 20
116.470066
 30
0.0
 11
179.745445
 21
116.470066
 31
0.0
  0
LINE
  5
99
100
AcDbEntity
  8
レイヤー_2
  6
AI9-LType2
 62
     7
100
AcDbLine
 10
165.828982
 20
118.28632
 30
0.0
 11
165.828982
 21
153.567887
 31
0.0
  0
SPLINE
  5
98
100
AcDbEntity
  8
レイヤー_2
 62
     7
100
AcDbSpline
210
0.0
220
0.0
230
1.0
 70
     8
 71
     3
 72
    95
 73
    91
 74
     0
 42
0.00000001
 43
0.00000001
 40
0.0
 40
0.0
 40
0.0
 40
0.0
 40
1.0
 40
1.0
 40
1.0
 40
2.0
 40
2.0
 40
2.0
 40
3.0
 40
3.0
 40
3.0
 40
4.0
 40
4.0
 40
4.0
 40
5.0
 40
5.0
 40
5.0
 40
6.0
 40
6.0
 40
6.0
 40
7.0
 40
7.0
 40
7.0
 40
8.0
 40
8.0
 40
8.0
 40
9.0
 40
9.0
 40
9.0
 40
10.0
 40
10.0
 40
10.0
 40
11.0
 40
11.0
 40
11.0
 40
12.0
 40
12.0
 40
12.0
 40
13.0
 40
13.0
 40
13.0
 40
14.0
 40
14.0
 40
14.0
 40
15.0
 40
15.0
 40
15.0
 40
16.0
 40
16.0
 40
16.0
 40
17.0
 40
17.0
 40
17.0
 40
18.0
 40
18.0
 40
18.0
 40
19.0
 40
19.0
 40
19.0
 40
20.0
 40
20.0
 40
20.0
 40
21.0
 40
21.0
 40
21.0
 40
22.0
 40
22.0
 40
22.0
 40
23.0
 40
23.0
 40
23.0
 40
24.0
 40
24.0
 40
24.0
 40
25.0
 40
25.0
 40
25.0
 40
26.0
 40
26.0
 40
26.0
 40
27.0
 40
27.0
 40
27.0
 40
28.0
 40
28.0
 40
28.0
 40
29.0
 40
29.0
 40
29.0
 40
30.0
 40
30.0
 40
30.0
 40
30.0
 10
156.16721191406248
 20
121.06306694878471
 30
0.0
 10
156.17582465277778
 20
121.06031087239582
 30
0.0
 10
156.18512641059027
 20
121.05858832465276
 30
0.0
 10
156.19305013020832
 20
121.05583224826388
 30
0.0
 10
156.20097384982637
 20
121.05307617187499
 30
0.0
 10
156.21062011718749
 20
121.05169813368055
 30
0.0
 10
156.21923285590276
 20
121.04997558593749
 30
0.0
 10
156.22715657552081
 20
121.0472195095486
 30
0.0
 10
156.23645833333333
 20
121.04584147135415
 30
0.0
 10
156.2450710720486
 20
121.04446343315971
 30
0.0
 10
156.25368381076387
 20
121.04274088541665
 30
0.0
 10
156.26229654947915
 20
121.04136284722222
 30
0.0
 10
156.27090928819442
 20
121.04067382812499
 30
0.0
 10
156.28021104600694
 20
121.03998480902777
 30
0.0
 10
156.28813476562499
 20
121.03998480902777
 30
0.0
 10
156.29709201388889
 20
121.03998480902777
 30
0.0
 10
156.31707356770832
 20
121.04067382812499
 30
0.0
 10
156.33671061197916
 20
121.04274088541665
 30
0.0
 10
156.35600314670137
 20
121.0472195095486
 30
0.0
 10
156.37632921006943
 20
121.05238715277777
 30
0.0
 10
156.39562174479164
 20
121.05789930555555
 30
0.0
 10
156.41525878906248
 20
121.06306694878471
 30
0.0
 10
156.43455132378472
 20
121.06961263020833
 30
0.0
 10
156.45384385850693
 20
121.07478027343748
 30
0.0
 10
156.47348090277777
 20
121.07960340711804
 30
0.0
 10
156.49208441840275
 20
121.08546006944444
 30
0.0
 10
156.51172146267359
 20
121.08890516493055
 30
0.0
 10
156.53032497829861
 20
121.09062771267359
 30
0.0
 10
156.54823947482637
 20
121.09269476996526
 30
0.0
 10
156.56649848090277
 20
121.09200575086804
 30
0.0
 10
156.58441297743053
 20
121.08890516493055
 30
0.0
 10
156.6109402126736
 20
121.08339301215277
 30
0.0
 10
156.63712293836804
 20
121.07099066840277
 30
0.0
 10
156.65848253038192
 20
121.05445421006944
 30
0.0
 10
156.68397623697916
 20
121.03722873263888
 30
0.0
 10
156.70705837673609
 20
121.01690266927082
 30
0.0
 10
156.72841796874999
 20
120.99519856770833
 30
0.0
 10
156.75150010850692
 20
120.97383897569443
 30
0.0
 10
156.77389322916665
 20
120.95213487413193
 30
0.0
 10
156.7969753689236
 20
120.92905273437499
 30
0.0
 10
156.81799045138888
 20
120.90907118055554
 30
0.0
 10
156.84176161024305
 20
120.89012315538193
 30
0.0
 10
156.86622178819442
 20
120.87289767795137
 30
0.0
 10
156.88758138020833
 20
120.85842827690971
 30
0.0
 10
156.91307508680555
 20
120.84912651909721
 30
0.0
 10
156.93891330295136
 20
120.84533691406249
 30
0.0
 10
156.96475151909721
 20
120.84258083767359
 30
0.0
 10
156.99093424479165
 20
120.84637044270832
 30
0.0
 10
157.01470540364582
 20
120.85705023871526
 30
0.0
 10
157.04054361979166
 20
120.86841905381944
 30
0.0
 10
157.06638183593748
 20
120.88013237847221
 30
0.0
 10
157.09222005208332
 20
120.89150119357637
 30
0.0
 10
157.11978081597221
 20
120.90459255642359
 30
0.0
 10
157.14699707031249
 20
120.91906195746526
 30
0.0
 10
157.17249077690971
 20
120.93490939670137
 30
0.0
 10
157.19832899305555
 20
120.94937879774305
 30
0.0
 10
157.22416720920137
 20
120.96074761284721
 30
0.0
 10
157.25172797309025
 20
120.96936035156249
 30
0.0
 10
157.27481011284721
 20
120.97797309027777
 30
0.0
 10
157.30064832899305
 20
120.98107367621526
 30
0.0
 10
157.32510850694442
 20
120.97797309027777
 30
0.0
 10
157.34371202256943
 20
120.97452799479166
 30
0.0
 10
157.3612820095486
 20
120.96798231336804
 30
0.0
 10
157.3771294487847
 20
120.95868055555555
 30
0.0
 10
157.39435492621527
 20
120.94937879774305
 30
0.0
 10
157.41158040364581
 20
120.93766547309026
 30
0.0
 10
157.42673882378472
 20
120.9262966579861
 30
0.0
 10
157.44327528211804
 20
120.91182725694443
 30
0.0
 10
157.45981174045139
 20
120.89873589409721
 30
0.0
 10
157.47565917968748
 20
120.88426649305555
 30
0.0
 10
157.49219563802083
 20
120.87014160156249
 30
0.0
 10
157.50942111545137
 20
120.85705023871526
 30
0.0
 10
157.52768012152777
 20
120.84395887586804
 30
0.0
 10
157.54352756076386
 20
120.83259006076388
 30
0.0
 10
157.56213107638888
 20
120.82156575520833
 30
0.0
 10
157.58142361111109
 20
120.81364203559026
 30
0.0
 10
157.58969184027777
 20
120.81019694010415
 30
0.0
 10
157.59727105034722
 20
120.80744086371527
 30
0.0
 10
157.60622829861109
 20
120.80502929687499
 30
0.0
 10
157.61484103732639
 20
120.8022732204861
 30
0.0
 10
157.62345377604166
 20
120.80089518229165
 30
0.0
 10
157.63206651475693
 20
120.79951714409721
 30
0.0
 10
157.63999023437498
 20
120.79710557725693
 30
0.0
 10
157.64929199218747
 20
120.79572753906248
 30
0.0
 10
157.65790473090277
 20
120.79503851996526
 30
0.0
 10
157.66582845052082
 20
120.79434950086805
 30
0.0
 10
157.67581922743054
 20
120.79297146267361
 30
0.0
 10
157.68374294704859
 20
120.79297146267361
 30
0.0
 10
157.69338921440971
 20
120.79159342447916
 30
0.0
 10
157.7026909722222
 20
120.79090440538194
 30
0.0
 10
157.71130371093747
 20
120.79090440538194
 30
0.0
  0
LINE
  5
97
100
AcDbEntity
  8
レイヤー_2
 62
     7
100
AcDbLine
 10
158.320741
 20
116.306424
 30
0.0
 11
158.239437
 21
116.306424
 31
0.0
  0
LINE
  5
96
100
AcDbEntity
  8
レイヤー_2
 62
     7
100
AcDbLine
 10
158.239437
 20
117.047119
 30
0.0
 11
158.239437
 21
116.306424
 31
0.0
  0
LINE
  5
95
100
AcDbEntity
  8
レイヤー_2
 62
     7
100
AcDbLine
 10
158.239437
 20
116.306424
 30
0.0
 11
158.320741
 21
116.165175
 31
0.0
  0
LINE
  5
94
100
AcDbEntity
  8
レイヤー_2
 62
     7
100
AcDbLine
 10
155.639079
 20
116.306424
 30
0.0
 11
155.557775
 21
116.306424
 31
0.0
  0
LINE
  5
93
100
AcDbEntity
  8
レイヤー_2
 62
     7
100
AcDbLine
 10
155.639079
 20
116.306424
 30
0.0
 11
155.639079
 21
117.047119
 31
0.0
  0
LINE
  5
92
100
AcDbEntity
  8
レイヤー_2
 62
     7
100
AcDbLine
 10
155.557775
 20
116.165175
 30
0.0
 11
155.639079
 21
116.306424
 31
0.0
  0
LINE
  5
91
100
AcDbEntity
  8
レイヤー_2
  6
AI9-LType2
 62
     7
100
AcDbLine
 10
156.848996
 20
126.416401
 30
0.0
 11
156.848996
 21
111.845025
 31
0.0
  0
LINE
  5
90
100
AcDbEntity
  8
レイヤー_2
 62
     7
100
AcDbLine
 10
156.176514
 20
117.124289
 30
0.0
 11
155.843028
 21
117.124289
 31
0.0
  0
LINE
  5
8F
100
AcDbEntity
  8
レイヤー_2
 62
     7
100
AcDbLine
 10
156.176514
 20
118.829612
 30
0.0
 11
156.176514
 21
117.124289
 31
0.0
  0
LINE
  5
8E
100
AcDbEntity
  8
レイヤー_2
 62
     7
100
AcDbLine
 10
155.843028
 20
118.829612
 30
0.0
 11
156.176514
 21
118.829612
 31
0.0
  0
LINE
  5
8D
100
AcDbEntity
  8
レイヤー_2
 62
     7
100
AcDbLine
 10
155.843028
 20
118.829612
 30
0.0
 11
155.843028
 21
117.124289
 31
0.0
  0
LINE
  5
8C
100
AcDbEntity
  8
レイヤー_2
 62
     7
100
AcDbLine
 10
155.720383
 20
119.956502
 30
0.0
 11
156.938913
 21
119.956502
 31
0.0
  0
LINE
  5
8B
100
AcDbEntity
  8
レイヤー_2
 62
     7
100
AcDbLine
 10
155.232902
 20
117.030583
 30
0.0
 11
156.938913
 21
117.030583
 31
0.0
  0
LINE
  5
8A
100
AcDbEntity
  8
レイヤー_2
 62
     7
100
AcDbLine
 10
155.070638
 20
117.124289
 30
0.0
 11
155.232902
 21
117.030583
 31
0.0
  0
LINE
  5
89
100
AcDbEntity
  8
レイヤー_2
 62
     7
100
AcDbLine
 10
155.720383
 20
119.956502
 30
0.0
 11
155.159177
 21
118.983607
 31
0.0
  0
LINE
  5
88
100
AcDbEntity
  8
レイヤー_2
 62
     7
100
AcDbLine
 10
155.070638
 20
118.829612
 30
0.0
 11
155.070638
 21
117.124289
 31
0.0
  0
LINE
  5
87
100
AcDbEntity
  8
レイヤー_2
 62
     7
100
AcDbLine
 10
157.760224
 20
119.956502
 30
0.0
 11
156.938913
 21
119.956502
 31
0.0
  0
LINE
  5
86
100
AcDbEntity
  8
レイヤー_2
 62
     7
100
AcDbLine
 10
158.361738
 20
117.030583
 30
0.0
 11
156.938913
 21
117.030583
 31
0.0
  0
LINE
  5
85
100
AcDbEntity
  8
レイヤー_2
 62
     7
100
AcDbLine
 10
158.035487
 20
117.124289
 30
0.0
 11
157.702002
 21
117.124289
 31
0.0
  0
LINE
  5
84
100
AcDbEntity
  8
レイヤー_2
 62
     7
100
AcDbLine
 10
157.702002
 20
117.124289
 30
0.0
 11
157.702002
 21
118.829612
 31
0.0
  0
LINE
  5
83
100
AcDbEntity
  8
レイヤー_2
 62
     7
100
AcDbLine
 10
157.702002
 20
118.829612
 30
0.0
 11
158.035487
 21
118.829612
 31
0.0
  0
LINE
  5
82
100
AcDbEntity
  8
レイヤー_2
 62
     7
100
AcDbLine
 10
158.035487
 20
117.124289
 30
0.0
 11
158.035487
 21
118.829612
 31
0.0
  0
LINE
  5
81
100
AcDbEntity
  8
レイヤー_2
 62
     7
100
AcDbLine
 10
156.938913
 20
119.956502
 30
0.0
 11
158.158133
 21
119.956502
 31
0.0
  0
LINE
  5
80
100
AcDbEntity
  8
レイヤー_2
 62
     7
100
AcDbLine
 10
156.938913
 20
117.030583
 30
0.0
 11
158.644925
 21
117.030583
 31
0.0
  0
LINE
  5
7F
100
AcDbEntity
  8
レイヤー_2
 62
     7
100
AcDbLine
 10
158.644925
 20
117.030583
 30
0.0
 11
158.807878
 21
117.124289
 31
0.0
  0
LINE
  5
7E
100
AcDbEntity
  8
レイヤー_2
 62
     7
100
AcDbLine
 10
158.807878
 20
118.829612
 30
0.0
 11
158.158133
 21
119.956502
 31
0.0
  0
LINE
  5
7D
100
AcDbEntity
  8
レイヤー_2
 62
     7
100
AcDbLine
 10
158.807878
 20
117.124289
 30
0.0
 11
158.807878
 21
118.829612
 31
0.0
  0
LINE
  5
7C
100
AcDbEntity
  8
レイヤー_2
 62
     7
100
AcDbLine
 10
155.159177
 20
118.983607
 30
0.0
 11
155.070638
 21
118.829612
 31
0.0
  0
SPLINE
  5
7B
100
AcDbEntity
  8
レイヤー_2
 62
     7
100
AcDbSpline
210
0.0
220
0.0
230
1.0
 70
     8
 71
     3
 72
     8
 73
     4
 74
     0
 42
0.00000001
 43
0.00000001
 40
0.0
 40
0.0
 40
0.0
 40
0.0
 40
1.0
 40
1.0
 40
1.0
 40
1.0
 10
156.176513671875
 20
117.12428927951387
 30
0.0
 10
156.42593858506942
 20
117.06158854166665
 30
0.0
 10
156.68225368923609
 20
117.03058268229165
 30
0.0
 10
156.93891330295136
 20
117.03058268229165
 30
0.0
  0
SPLINE
  5
7A
100
AcDbEntity
  8
レイヤー_2
 62
     7
100
AcDbSpline
210
0.0
220
0.0
230
1.0
 70
     8
 71
     3
 72
     8
 73
     4
 74
     0
 42
0.00000001
 43
0.00000001
 40
0.0
 40
0.0
 40
0.0
 40
0.0
 40
1.0
 40
1.0
 40
1.0
 40
1.0
 10
155.07063802083331
 20
117.12428927951387
 30
0.0
 10
155.31282823350693
 20
116.99957682291665
 30
0.0
 10
155.60014919704861
 20
116.99957682291665
 30
0.0
 10
155.84302842881942
 20
117.12428927951387
 30
0.0
  0
SPLINE
  5
79
100
AcDbEntity
  8
レイヤー_2
 62
     7
100
AcDbSpline
210
0.0
220
0.0
230
1.0
 70
     8
 71
     3
 72
     8
 73
     4
 74
     0
 42
0.00000001
 43
0.00000001
 40
0.0
 40
0.0
 40
0.0
 40
0.0
 40
1.0
 40
1.0
 40
1.0
 40
1.0
 10
156.93891330295136
 20
119.11142035590277
 30
0.0
 10
156.66020507812499
 20
119.11142035590277
 30
0.0
 10
156.38976508246526
 20
119.01116807725694
 30
0.0
 10
156.176513671875
 20
118.82961154513887
 30
0.0
  0
SPLINE
  5
78
100
AcDbEntity
  8
レイヤー_2
 62
     7
100
AcDbSpline
210
0.0
220
0.0
230
1.0
 70
     8
 71
     3
 72
    11
 73
     7
 74
     0
 42
0.00000001
 43
0.00000001
 40
0.0
 40
0.0
 40
0.0
 40
0.0
 40
1.0
 40
1.0
 40
1.0
 40
2.0
 40
2.0
 40
2.0
 40
2.0
 10
155.84302842881942
 20
118.82961154513887
 30
0.0
 10
155.77516004774304
 20
119.04286295572916
 30
0.0
 10
155.54916178385415
 20
119.16240776909721
 30
0.0
 10
155.33659939236111
 20
119.09557291666665
 30
0.0
 10
155.26804199218748
 20
119.07455783420137
 30
0.0
 10
155.20740831163192
 20
119.03562825520832
 30
0.0
 10
155.15917697482638
 20
118.98360731336804
 30
0.0
  0
SPLINE
  5
77
100
AcDbEntity
  8
レイヤー_2
 62
     7
100
AcDbSpline
210
0.0
220
0.0
230
1.0
 70
     8
 71
     3
 72
     8
 73
     4
 74
     0
 42
0.00000001
 43
0.00000001
 40
0.0
 40
0.0
 40
0.0
 40
0.0
 40
1.0
 40
1.0
 40
1.0
 40
1.0
 10
156.93891330295136
 20
117.03058268229165
 30
0.0
 10
157.19626193576389
 20
117.03058268229165
 30
0.0
 10
157.45257703993053
 20
117.06158854166665
 30
0.0
 10
157.70200195312498
 20
117.12428927951387
 30
0.0
  0
SPLINE
  5
76
100
AcDbEntity
  8
レイヤー_2
 62
     7
100
AcDbSpline
210
0.0
220
0.0
230
1.0
 70
     8
 71
     3
 72
     8
 73
     4
 74
     0
 42
0.00000001
 43
0.00000001
 40
0.0
 40
0.0
 40
0.0
 40
0.0
 40
1.0
 40
1.0
 40
1.0
 40
1.0
 10
158.03548719618055
 20
117.12428927951387
 30
0.0
 10
158.27836642795137
 20
116.99957682291665
 30
0.0
 10
158.56568739149304
 20
116.99957682291665
 30
0.0
 10
158.80787760416666
 20
117.12428927951387
 30
0.0
  0
SPLINE
  5
75
100
AcDbEntity
  8
レイヤー_2
 62
     7
100
AcDbSpline
210
0.0
220
0.0
230
1.0
 70
     8
 71
     3
 72
     8
 73
     4
 74
     0
 42
0.00000001
 43
0.00000001
 40
0.0
 40
0.0
 40
0.0
 40
0.0
 40
1.0
 40
1.0
 40
1.0
 40
1.0
 10
157.70200195312498
 20
118.82961154513887
 30
0.0
 10
157.48943956163194
 20
119.01116807725694
 30
0.0
 10
157.21831054687499
 20
119.11142035590277
 30
0.0
 10
156.93891330295136
 20
119.11142035590277
 30
0.0
  0
SPLINE
  5
74
100
AcDbEntity
  8
レイヤー_2
 62
     7
100
AcDbSpline
210
0.0
220
0.0
230
1.0
 70
     8
 71
     3
 72
    11
 73
     7
 74
     0
 42
0.00000001
 43
0.00000001
 40
0.0
 40
0.0
 40
0.0
 40
0.0
 40
1.0
 40
1.0
 40
1.0
 40
2.0
 40
2.0
 40
2.0
 40
2.0
 10
158.80787760416666
 20
118.82961154513887
 30
0.0
 10
158.74173177083333
 20
119.04286295572916
 30
0.0
 10
158.51469997829861
 20
119.16240776909721
 30
0.0
 10
158.30144856770832
 20
119.09557291666665
 30
0.0
 10
158.17466905381943
 20
119.05560980902777
 30
0.0
 10
158.07510579427083
 20
118.95639105902777
 30
0.0
 10
158.03548719618055
 20
118.82961154513887
 30
0.0
  0
LINE
  5
73
100
AcDbEntity
  8
レイヤー_2
 62
     7
100
AcDbLine
 10
155.008626
 20
112.418633
 30
0.0
 11
154.82707
 21
112.516474
 31
0.0
  0
LINE
  5
72
100
AcDbEntity
  8
レイヤー_2
 62
     7
100
AcDbLine
 10
159.051446
 20
112.516474
 30
0.0
 11
158.8692
 21
112.418633
 31
0.0
  0
LINE
  5
71
100
AcDbEntity
  8
レイヤー_2
 62
     7
100
AcDbLine
 10
154.82707
 20
115.767266
 30
0.0
 11
155.008626
 21
115.864762
 31
0.0
  0
LINE
  5
70
100
AcDbEntity
  8
レイヤー_2
 62
     7
100
AcDbLine
 10
158.8692
 20
115.864762
 30
0.0
 11
159.051446
 21
115.767266
 31
0.0
  0
LINE
  5
6F
100
AcDbEntity
  8
レイヤー_2
 62
     7
100
AcDbLine
 10
155.070638
 20
112.272906
 30
0.0
 11
158.807878
 21
112.272906
 31
0.0
  0
LINE
  5
6E
100
AcDbEntity
  8
レイヤー_2
 62
     7
100
AcDbLine
 10
155.656304
 20
112.516474
 30
0.0
 11
156.126904
 21
112.516474
 31
0.0
  0
LINE
  5
6D
100
AcDbEntity
  8
レイヤー_2
 62
     7
100
AcDbLine
 10
157.751611
 20
112.516474
 30
0.0
 11
158.222211
 21
112.516474
 31
0.0
  0
LINE
  5
6C
100
AcDbEntity
  8
レイヤー_2
 62
     7
100
AcDbLine
 10
159.051446
 20
112.516474
 30
0.0
 11
158.807878
 21
112.272906
 31
0.0
  0
LINE
  5
6B
100
AcDbEntity
  8
レイヤー_2
 62
     7
100
AcDbLine
 10
154.82707
 20
112.516474
 30
0.0
 11
155.070638
 21
112.272906
 31
0.0
  0
LINE
  5
6A
100
AcDbEntity
  8
レイヤー_2
 62
     7
100
AcDbLine
 10
158.807878
 20
116.010834
 30
0.0
 11
155.070638
 21
116.010834
 31
0.0
  0
LINE
  5
69
100
AcDbEntity
  8
レイヤー_2
 62
     7
100
AcDbLine
 10
158.807878
 20
116.010834
 30
0.0
 11
159.051446
 21
115.767266
 31
0.0
  0
LINE
  5
68
100
AcDbEntity
  8
レイヤー_2
 62
     7
100
AcDbLine
 10
157.977265
 20
115.767266
 30
0.0
 11
157.506665
 21
115.767266
 31
0.0
  0
LINE
  5
67
100
AcDbEntity
  8
レイヤー_2
 62
     7
100
AcDbLine
 10
155.881269
 20
115.767266
 30
0.0
 11
155.411358
 21
115.767266
 31
0.0
  0
LINE
  5
66
100
AcDbEntity
  8
レイヤー_2
 62
     7
100
AcDbLine
 10
155.070638
 20
116.010834
 30
0.0
 11
154.82707
 21
115.767266
 31
0.0
  0
LINE
  5
65
100
AcDbEntity
  8
レイヤー_2
 62
     7
100
AcDbLine
 10
154.82707
 20
112.516474
 30
0.0
 11
154.82707
 21
115.767266
 31
0.0
  0
LINE
  5
64
100
AcDbEntity
  8
レイヤー_2
 62
     7
100
AcDbLine
 10
155.656304
 20
112.516474
 30
0.0
 11
155.656304
 21
115.767266
 31
0.0
  0
LINE
  5
63
100
AcDbEntity
  8
レイヤー_2
 62
     7
100
AcDbLine
 10
156.126904
 20
112.516474
 30
0.0
 11
156.126904
 21
115.767266
 31
0.0
  0
LINE
  5
62
100
AcDbEntity
  8
レイヤー_2
 62
     7
100
AcDbLine
 10
157.751611
 20
112.516474
 30
0.0
 11
157.751611
 21
115.767266
 31
0.0
  0
LINE
  5
61
100
AcDbEntity
  8
レイヤー_2
 62
     7
100
AcDbLine
 10
158.222211
 20
112.516474
 30
0.0
 11
158.222211
 21
115.767266
 31
0.0
  0
LINE
  5
60
100
AcDbEntity
  8
レイヤー_2
 62
     7
100
AcDbLine
 10
159.051446
 20
112.516474
 30
0.0
 11
159.051446
 21
115.767266
 31
0.0
  0
SPLINE
  5
5F
100
AcDbEntity
  8
レイヤー_2
 62
     7
100
AcDbSpline
210
0.0
220
0.0
230
1.0
 70
     8
 71
     3
 72
     8
 73
     4
 74
     0
 42
0.00000001
 43
0.00000001
 40
0.0
 40
0.0
 40
0.0
 40
0.0
 40
1.0
 40
1.0
 40
1.0
 40
1.0
 10
155.00862630208331
 20
112.41863335503471
 30
0.0
 10
155.22256673177083
 20
112.30391167534721
 30
0.0
 10
155.48715006510415
 20
112.34353027343749
 30
0.0
 10
155.6563042534722
 20
112.51647406684027
 30
0.0
  0
SPLINE
  5
5E
100
AcDbEntity
  8
レイヤー_2
 62
     7
100
AcDbSpline
210
0.0
220
0.0
230
1.0
 70
     8
 71
     3
 72
     8
 73
     4
 74
     0
 42
0.00000001
 43
0.00000001
 40
0.0
 40
0.0
 40
0.0
 40
0.0
 40
1.0
 40
1.0
 40
1.0
 40
1.0
 10
158.22221137152778
 20
112.51647406684027
 30
0.0
 10
158.39136555989583
 20
112.34353027343749
 30
0.0
 10
158.65525987413193
 20
112.30391167534721
 30
0.0
 10
158.86920030381944
 20
112.41863335503471
 30
0.0
  0
SPLINE
  5
5D
100
AcDbEntity
  8
レイヤー_2
 62
     7
100
AcDbSpline
210
0.0
220
0.0
230
1.0
 70
     8
 71
     3
 72
     8
 73
     4
 74
     0
 42
0.00000001
 43
0.00000001
 40
0.0
 40
0.0
 40
0.0
 40
0.0
 40
1.0
 40
1.0
 40
1.0
 40
1.0
 10
156.12690429687498
 20
112.51647406684027
 30
0.0
 10
156.64711371527775
 20
112.30046657986109
 30
0.0
 10
157.23209092881942
 20
112.30046657986109
 30
0.0
 10
157.75161132812499
 20
112.51647406684027
 30
0.0
  0
SPLINE
  5
5C
100
AcDbEntity
  8
レイヤー_2
 62
     7
100
AcDbSpline
210
0.0
220
0.0
230
1.0
 70
     8
 71
     3
 72
     8
 73
     4
 74
     0
 42
0.00000001
 43
0.00000001
 40
0.0
 40
0.0
 40
0.0
 40
0.0
 40
1.0
 40
1.0
 40
1.0
 40
1.0
 10
155.6563042534722
 20
115.76726616753471
 30
0.0
 10
155.48715006510415
 20
115.93883192274305
 30
0.0
 10
155.22256673177083
 20
115.97913953993054
 30
0.0
 10
155.00862630208331
 20
115.86476236979166
 30
0.0
  0
SPLINE
  5
5B
100
AcDbEntity
  8
レイヤー_2
 62
     7
100
AcDbSpline
210
0.0
220
0.0
230
1.0
 70
     8
 71
     3
 72
     8
 73
     4
 74
     0
 42
0.00000001
 43
0.00000001
 40
0.0
 40
0.0
 40
0.0
 40
0.0
 40
1.0
 40
1.0
 40
1.0
 40
1.0
 10
158.86920030381944
 20
115.86476236979166
 30
0.0
 10
158.65525987413193
 20
115.97913953993054
 30
0.0
 10
158.39136555989583
 20
115.93883192274305
 30
0.0
 10
158.22221137152778
 20
115.76726616753471
 30
0.0
  0
SPLINE
  5
5A
100
AcDbEntity
  8
レイヤー_2
 62
     7
100
AcDbSpline
210
0.0
220
0.0
230
1.0
 70
     8
 71
     3
 72
     8
 73
     4
 74
     0
 42
0.00000001
 43
0.00000001
 40
0.0
 40
0.0
 40
0.0
 40
0.0
 40
1.0
 40
1.0
 40
1.0
 40
1.0
 10
157.75161132812499
 20
115.76726616753471
 30
0.0
 10
157.23209092881942
 20
115.98361816406249
 30
0.0
 10
156.64711371527775
 20
115.98361816406249
 30
0.0
 10
156.12690429687498
 20
115.76726616753471
 30
0.0
  0
LINE
  5
59
100
AcDbEntity
  8
レイヤー_2
 62
     7
100
AcDbLine
 10
156.167212
 20
119.956502
 30
0.0
 11
156.167212
 21
121.068235
 31
0.0
  0
LINE
  5
58
100
AcDbEntity
  8
レイヤー_2
 62
     7
100
AcDbLine
 10
157.711304
 20
119.956502
 30
0.0
 11
157.711304
 21
120.790904
 31
0.0
  0
LINE
  5
57
100
AcDbEntity
  8
レイヤー_2
 62
     7
100
AcDbLine
 10
158.320741
 20
116.165175
 30
0.0
 11
158.320741
 21
117.030583
 31
0.0
  0
LINE
  5
56
100
AcDbEntity
  8
レイヤー_2
 62
     7
100
AcDbLine
 10
155.557775
 20
117.030583
 30
0.0
 11
155.557775
 21
116.165175
 31
0.0
  0
LINE
  5
55
100
AcDbEntity
  8
レイヤー_2
 62
     7
100
AcDbLine
 10
155.639079
 20
116.306424
 30
0.0
 11
158.239437
 21
116.306424
 31
0.0
  0
LINE
  5
54
100
AcDbEntity
  8
レイヤー_2
  6
AI9-LType2
 62
     7
100
AcDbLine
 10
165.828982
 20
118.28632
 30
0.0
 11
156.848996
 21
126.416401
 31
0.0
  0
MTEXT
  5
52
100
AcDbEntity
  8
レイヤー_2
 62
     7
100
AcDbMText
 10
158.190516
 20
111.344124
 30
0.0
 40
2.624835
 41
0.0
 71
     1
 72
     2
  1
\fGothicBBB Medium|b0|i0|c128;\H2.6248;\C7;\U+63A5\U+7D9A\U+30BD\U+30B1\U+30C3\U+30C8
  7
STD
210
0.0
220
0.0
230
1.0
 73
     1
 44
1.0
  0
MTEXT
  5
51
100
AcDbEntity
  8
レイヤー_2
 62
     7
100
AcDbMText
 10
158.896761
 20
107.324387
 30
0.0
 40
2.624835
 41
0.0
 71
     1
 72
     2
  1
\fGothicBBB Medium|b0|i0|c128;\H2.6248;\C7;\U+FF08\U+9006\U+6B62\U+5F01\U+4ED8\U+FF09
  7
STD
210
0.0
220
0.0
230
1.0
 73
     1
 44
1.0
  0
SPLINE
  5
50
100
AcDbEntity
  8
レイヤー_2
 62
     7
100
AcDbSpline
210
0.0
220
0.0
230
1.0
 70
     8
 71
     3
 72
    11
 73
     7
 74
     0
 42
0.00000001
 43
0.00000001
 40
0.0
 40
0.0
 40
0.0
 40
0.0
 40
1.0
 40
1.0
 40
1.0
 40
2.0
 40
2.0
 40
2.0
 40
2.0
 10
80.088996039496521
 20
183.17951660156248
 30
0.0
 10
79.465778266059019
 20
183.68680691189235
 30
0.0
 10
79.068041992187489
 20
184.4605753580729
 30
0.0
 10
79.068041992187489
 20
185.32667236328123
 30
0.0
 10
79.068041992187489
 20
186.19414740668401
 30
0.0
 10
79.465778266059019
 20
186.96722683376734
 30
0.0
 10
80.088996039496521
 20
187.47520616319443
 30
0.0
  0
SPLINE
  5
4F
100
AcDbEntity
  8
レイヤー_2
 62
     7
100
AcDbSpline
210
0.0
220
0.0
230
1.0
 70
     8
 71
     3
 72
    11
 73
     7
 74
     0
 42
0.00000001
 43
0.00000001
 40
0.0
 40
0.0
 40
0.0
 40
0.0
 40
1.0
 40
1.0
 40
1.0
 40
2.0
 40
2.0
 40
2.0
 40
2.0
 10
83.661215549045124
 20
187.41181640624998
 30
0.0
 10
84.24050835503472
 20
186.90452609592012
 30
0.0
 10
84.607927788628459
 20
186.15814615885415
 30
0.0
 10
84.607927788628459
 20
185.32667236328123
 30
0.0
 10
84.607927788628459
 20
184.43456488715276
 30
0.0
 10
84.185042317708323
 20
183.64133165147567
 30
0.0
 10
83.529268391927076
 20
183.13490261501735
 30
0.0
  0
SPLINE
  5
4E
100
AcDbEntity
  8
レイヤー_2
 62
     7
100
AcDbSpline
210
0.0
220
0.0
230
1.0
 70
     8
 71
     3
 72
    17
 73
    13
 74
     0
 42
0.00000001
 43
0.00000001
 40
0.0
 40
0.0
 40
0.0
 40
0.0
 40
1.0
 40
1.0
 40
1.0
 40
2.0
 40
2.0
 40
2.0
 40
3.0
 40
3.0
 40
3.0
 40
4.0
 40
4.0
 40
4.0
 40
4.0
 10
121.93502061631943
 20
95.51113823784722
 30
0.0
 10
121.93502061631943
 20
96.746204969618049
 30
0.0
 10
122.93547634548609
 20
97.746316189236097
 30
0.0
 10
124.17054307725694
 20
97.746316189236097
 30
0.0
 10
125.40560980902777
 20
97.746316189236097
 30
0.0
 10
126.40641004774304
 20
96.746204969618049
 30
0.0
 10
126.40641004774304
 20
95.51113823784722
 30
0.0
 10
126.40641004774304
 20
94.276416015624989
 30
0.0
 10
125.40560980902777
 20
93.275615776909717
 30
0.0
 10
124.17054307725694
 20
93.275615776909717
 30
0.0
 10
122.93547634548609
 20
93.275615776909717
 30
0.0
 10
121.93502061631943
 20
94.276416015624989
 30
0.0
 10
121.93502061631943
 20
95.51113823784722
 30
0.0
  0
LINE
  5
4D
100
AcDbEntity
  8
レイヤー_2
 62
     7
100
AcDbLine
 10
117.955591
 20
89.835343
 30
0.0
 11
126.42777
 21
97.816941
 31
0.0
  0
LINE
  5
4C
100
AcDbEntity
  8
レイヤー_2
 62
     7
100
AcDbLine
 10
117.955591
 20
89.835343
 30
0.0
 11
107.914516
 21
89.835343
 31
0.0
  0
LINE
  5
4B
100
AcDbEntity
  8
レイヤー_2
 62
     7
100
AcDbLine
 10
126.633097
 20
97.101394
 30
0.0
 11
124.682829
 21
97.101394
 31
0.0
  0
LINE
  5
4A
100
AcDbEntity
  8
レイヤー_2
 62
     7
100
AcDbLine
 10
123.46292
 20
93.957745
 30
0.0
 11
121.512652
 21
93.957745
 31
0.0
  0
MTEXT
  5
49
100
AcDbEntity
  8
レイヤー_2
 62
     7
100
AcDbMText
 10
107.388794
 20
94.651816
 30
0.0
 40
3.674768
 41
0.0
 71
     1
 72
     2
  1
\fGothicBBB Medium|b0|i0|c128;\H3.6748;\C7;\U+03C6\U+0033\U+0032
  7
STD
210
0.0
220
0.0
230
1.0
 73
     1
 44
1.0
  0
MTEXT
  5
48
100
AcDbEntity
  8
レイヤー_2
 62
     7
100
AcDbMText
 10
34.689987
 20
175.872125
 30
0.0
 40
3.674768
 41
0.0
 71
     1
 72
     2
  1
\fGothicBBB Medium|b0|i0|c128;\H3.6748;\C7;\U+0031\U+0038\U+0030
  7
STD
210
0.0
220
0.0
230
1.0
 11
0.0
 21
1.0
 31
0.0
 73
     1
 44
1.0
  0
MTEXT
  5
47
100
AcDbEntity
  8
レイヤー_2
 62
     7
100
AcDbMText
 10
25.83368
 20
183.967065
 30
0.0
 40
3.674768
 41
0.0
 71
     1
 72
     2
  1
\fGothicBBB Medium|b0|i0|c128;\H3.6748;\C7;\U+0032\U+0037\U+0035
  7
STD
210
0.0
220
0.0
230
1.0
 11
0.0
 21
1.0
 31
0.0
 73
     1
 44
1.0
  0
MTEXT
  5
46
100
AcDbEntity
  8
レイヤー_2
 62
     7
100
AcDbMText
 10
60.607498
 20
223.918345
 30
0.0
 40
3.674768
 41
0.0
 71
     1
 72
     2
  1
\fGothicBBB Medium|b0|i0|c128;\H3.6748;\C7;\U+0032\U+0030\U+0030
  7
STD
210
0.0
220
0.0
230
1.0
 73
     1
 44
1.0
  0
MTEXT
  5
45
100
AcDbEntity
  8
レイヤー_2
 62
     7
100
AcDbMText
 10
70.144556
 20
190.064597
 30
0.0
 40
3.674768
 41
0.0
 71
     1
 72
     2
  1
\fGothicBBB Medium|b0|i0|c128;\H3.6748;\C7;\U+0039\U+0030
  7
STD
210
0.0
220
0.0
230
1.0
 73
     1
 44
1.0
  0
MTEXT
  5
44
100
AcDbEntity
  8
レイヤー_2
 62
     7
100
AcDbMText
 10
151.377151
 20
174.885334
 30
0.0
 40
3.674768
 41
0.0
 71
     1
 72
     2
  1
\fGothicBBB Medium|b0|i0|c128;\H3.6748;\C7;\U+03C6\U+0035\U+0035
  7
STD
210
0.0
220
0.0
230
1.0
 73
     1
 44
1.0
  0
POLYLINE
  5
3F
100
AcDbEntity
  8
レイヤー_2
 62
     7
100
AcDb2dPolyline
 66
     1
 10
0.0
 20
0.0
 30
0.0
  0
VERTEX
  5
40
100
AcDbEntity
  8
レイヤー_2
 62
     7
100
AcDbVertex
100
AcDb2dVertex
 10
124.138159
 20
191.449468
 30
0.0
  0
VERTEX
  5
41
100
AcDbEntity
  8
レイヤー_2
 62
     7
100
AcDbVertex
100
AcDb2dVertex
 10
124.138159
 20
219.415203
 30
0.0
  0
VERTEX
  5
42
100
AcDbEntity
  8
レイヤー_2
 62
     7
100
AcDbVertex
100
AcDb2dVertex
 10
124.138159
 20
200.771552
 30
0.0
  0
SEQEND
  5
43
100
AcDbEntity
  8
レイヤー_2
 62
     7
  0
LINE
  5
3E
100
AcDbEntity
  8
レイヤー_2
 62
     7
100
AcDbLine
 10
146.181258
 20
212.669189
 30
0.0
 11
146.181258
 21
219.415203
 31
0.0
  0
LINE
  5
3D
100
AcDbEntity
  8
レイヤー_2
 62
     7
100
AcDbLine
 10
167.419927
 20
179.796088
 30
0.0
 11
167.419927
 21
219.415203
 31
0.0
  0
LINE
  5
3C
100
AcDbEntity
  8
レイヤー_2
 62
     7
100
AcDbLine
 10
123.078448
 20
218.354975
 30
0.0
 11
169.24066
 21
218.354975
 31
0.0
  0
LINE
  5
3B
100
AcDbEntity
  8
レイヤー_2
 62
     7
100
AcDbLine
 10
167.849531
 20
218.784406
 30
0.0
 11
166.990668
 21
217.926061
 31
0.0
  0
LINE
  5
3A
100
AcDbEntity
  8
レイヤー_2
 62
     7
100
AcDbLine
 10
146.579511
 20
218.753917
 30
0.0
 11
145.721338
 21
217.895055
 31
0.0
  0
LINE
  5
39
100
AcDbEntity
  8
レイヤー_2
 62
     7
100
AcDbLine
 10
124.50644
 20
218.723256
 30
0.0
 11
123.647578
 21
217.864738
 31
0.0
  0
MTEXT
  5
38
100
AcDbEntity
  8
レイヤー_2
  6
AI9-LType1
 62
     7
100
AcDbMText
 10
122.310536
 20
223.13114
 30
0.0
 40
3.674768
 41
0.0
 71
     1
 72
     2
  1
\fGothicBBB Medium|b0|i0|c128;\H3.6748;\C7;\U+0031\U+0035\U+0030\U+FF5E\U+0035\U+0030\U+0030
  7
STD
210
0.0
220
0.0
230
1.0
 73
     1
 44
1.0
  0
MTEXT
  5
37
100
AcDbEntity
  8
レイヤー_2
  6
AI9-LType1
 62
     7
100
AcDbMText
 10
151.852919
 20
223.13114
 30
0.0
 40
3.674768
 41
0.0
 71
     1
 72
     2
  1
\fGothicBBB Medium|b0|i0|c128;\H3.6748;\C7;\U+0031\U+0030\U+0030
  7
STD
210
0.0
220
0.0
230
1.0
 73
     1
 44
1.0
  0
LINE
  5
36
100
AcDbEntity
  8
レイヤー_2
  6
AI9-LType1
 62
     7
100
AcDbLine
 10
163.272032
 20
95.526986
 30
0.0
 11
171.858244
 21
95.526986
 31
0.0
  0
LINE
  5
35
100
AcDbEntity
  8
レイヤー_2
  6
AI9-LType1
 62
     7
100
AcDbLine
 10
120.56594
 20
95.511138
 30
0.0
 11
128.660881
 21
95.511138
 31
0.0
  0
MTEXT
  5
34
100
AcDbEntity
  8
レイヤー_2
 62
     7
100
AcDbMText
 10
171.251562
 20
94.651816
 30
0.0
 40
3.674768
 41
0.0
 71
     1
 72
     2
  1
\fGothicBBB Medium|b0|i0|c128;\H3.6748;\C7;\U+03C6\U+0033\U+0032
  7
STD
210
0.0
220
0.0
230
1.0
 73
     1
 44
1.0
  0
MTEXT
  5
33
100
AcDbEntity
  8
レイヤー_2
 62
     7
100
AcDbMText
 10
129.520432
 20
94.651816
 30
0.0
 40
3.674768
 41
0.0
 71
     1
 72
     2
  1
\fGothicBBB Medium|b0|i0|c128;\H3.6748;\C7;\U+03C6\U+0033\U+0035
  7
STD
210
0.0
220
0.0
230
1.0
 73
     1
 44
1.0
  0
LINE
  5
32
100
AcDbEntity
  8
レイヤー_2
 62
     7
100
AcDbLine
 10
125.696031
 20
132.328874
 30
0.0
 11
126.991387
 21
130.871254
 31
0.0
  0
LINE
  5
31
100
AcDbEntity
  8
レイヤー_2
 62
     7
100
AcDbLine
 10
121.283553
 20
132.328874
 30
0.0
 11
122.579598
 21
130.871254
 31
0.0
  0
MTEXT
  5
30
100
AcDbEntity
  8
レイヤー_2
 62
     7
100
AcDbMText
 10
97.426267
 20
135.960234
 30
0.0
 40
3.674768
 41
0.0
 71
     1
 72
     2
  1
\fGothicBBB Medium|b0|i0|c128;\H3.6748;\C7;\U+004D\U+0033\U+0030\U+00D7\U+0031\U+002E\U+0035
  7
STD
210
0.0
220
0.0
230
1.0
 73
     1
 44
1.0
  0
LINE
  5
2F
100
AcDbEntity
  8
レイヤー_2
 62
     7
100
AcDbLine
 10
128.334285
 20
131.657425
 30
0.0
 11
97.425578
 21
131.657425
 31
0.0
  0
MTEXT
  5
2E
100
AcDbEntity
  8
レイヤー_2
  6
AI9-LType1
 62
     7
100
AcDbMText
 10
171.54853
 20
146.208015
 30
0.0
 40
3.674768
 41
0.0
 71
     1
 72
     2
  1
\fGothicBBB Medium|b0|i0|c128;\H3.6748;\C7;\U+004D\U+0033\U+0030\U+00D7\U+0031\U+002E\U+0035
  7
STD
210
0.0
220
0.0
230
1.0
 73
     1
 44
1.0
  0
MTEXT
  5
2D
100
AcDbEntity
  8
レイヤー_2
  6
AI9-LType1
 62
     7
100
AcDbMText
 10
177.725701
 20
166.938303
 30
0.0
 40
3.674768
 41
0.0
 71
     1
 72
     2
  1
\fGothicBBB Medium|b0|i0|c128;\H3.6748;\C7;\U+0038\U+0034
  7
STD
210
0.0
220
0.0
230
1.0
 11
0.0
 21
1.0
 31
0.0
 73
     1
 44
1.0
  0
LINE
  5
2C
100
AcDbEntity
  8
レイヤー_2
  6
AI9-LType1
 62
     7
100
AcDbLine
 10
146.181258
 20
122.80663
 30
0.0
 11
146.181258
 21
100.482756
 31
0.0
  0
LINE
  5
2B
100
AcDbEntity
  8
レイヤー_2
  6
AI9-LType1
 62
     7
100
AcDbLine
 10
167.213911
 20
122.80663
 30
0.0
 11
167.213911
 21
116.305735
 31
0.0
  0
LINE
  5
2A
100
AcDbEntity
  8
レイヤー_2
  6
AI9-LType1
 62
     7
100
AcDbLine
 10
167.213911
 20
109.927829
 30
0.0
 11
167.213911
 21
90.5471
 31
0.0
  0
ENDSEC
  0
SECTION
  2
OBJECTS
  0
DICTIONARY
  5
19
100
AcDbDictionary
280
     0
281
     1
  3
ACAD_GROUP
350
1A
  3
ACAD_MLINESTYLE
350
1B
  3
ACAD_LAYOUT
350
1E
  3
ACAD_PLOTSETTINGS
350
22
  3
ACAD_PLOTSTYLENAME
350
1F
  3
ACAD_WIPEOUT_VARS
350
23
  0
DICTIONARY
  5
1A
102
{ACAD_REACTORS
330
19
102
}
100
AcDbDictionary
280
     0
281
     1
  0
DICTIONARY
  5
1B
102
{ACAD_REACTORS
330
19
102
}
100
AcDbDictionary
280
     0
281
     1
  3
Standard
350
1C
  0
MLINESTYLE
  5
1C
102
{ACAD_REACTORS
330
1B
102
}
100
AcDbMlineStyle
  2
Standard
 70
     0
  3

 62
     0
 51
90.0
 52
90.0
 71
     2
 49
0.5
 62
   256
  6
ByLayer
 49
-0.5
 62
   256
  6
ByLayer
  0
ACDBDICTIONARYWDFLT
  5
1F
102
{ACAD_REACTORS
330
19
102
}
100
AcDbDictionary
281
     1
  3
Normal
350
1D
100
AcDbDictionaryWithDefault
340
1D
  0
ACDBPLACEHOLDER
  5
1D
102
{ACAD_REACTORS
330
1F
102
}
  0
LAYOUT
  5
20
102
{ACAD_REACTORS
330
1E
102
}
100
AcDbPlotSettings
  1

  2

  4

  6

 40
0.0
 41
0.0
 42
0.0
 43
0.0
 44
0.0
 45
0.0
 46
0.0
 47
0.0
 48
0.0
 49
0.0
140
0.0
141
0.0
142
1.0
143
1.0
 70
  1024
 72
     0
 73
     0
 74
     0
  7

 75
     0
147
1.0
148
0.0
149
0.0
100
AcDbLayout
  1
Model
 70
     0
 71
     0
 10
0.0
 20
0.0
 11
0.0
 21
0.0
 12
0.0
 22
0.0
 32
0.0
 14
0.0
 24
0.0
 34
0.0
 15
0.0
 25
0.0
 35
0.0
146
0.0
 13
0.0
 23
0.0
 33
0.0
 16
0.0
 26
0.0
 36
0.0
 17
0.0
 27
0.0
 37
0.0
 76
     0
330
A
331
0
345
0
346
0
  0
LAYOUT
  5
21
102
{ACAD_REACTORS
330
1E
102
}
100
AcDbPlotSettings
  1

  2

  4

  6

 40
0.0
 41
0.0
 42
0.0
 43
0.0
 44
0.0
 45
0.0
 46
0.0
 47
0.0
 48
0.0
 49
0.0
140
0.0
141
0.0
142
1.0
143
1.0
 70
     0
 72
     0
 73
     0
 74
     0
  7

 75
     0
147
1.0
148
0.0
149
0.0
100
AcDbLayout
  1
Layout1
 70
     0
 71
     0
 10
0.0
 20
0.0
 11
0.0
 21
0.0
 12
0.0
 22
0.0
 32
0.0
 14
0.0
 24
0.0
 34
0.0
 15
0.0
 25
0.0
 35
0.0
146
0.0
 13
0.0
 23
0.0
 33
0.0
 16
0.0
 26
0.0
 36
0.0
 17
0.0
 27
0.0
 37
0.0
 76
     0
330
B
331
0
345
0
346
0
  0
DICTIONARY
  5
1E
102
{ACAD_REACTORS
330
19
102
}
100
AcDbDictionary
280
     0
281
     1
  3
Layout1
350
21
  3
Model
350
20
  0
DICTIONARY
  5
22
102
{ACAD_REACTORS
330
19
102
}
100
AcDbDictionary
280
     0
281
     1
  0
WIPEOUTVARIABLES
  5
23
100
AcDbWipeoutVariables
 70
     1
  0
IMAGEDEF_REACTOR
  5
85F
100
AcDbRasterImageDefReactor
 90
        2
330
85E
  0
IMAGEDEF
  5
860
100
AcDbRasterImageDef
 90
        0
  1
\\192.168.6.2\free(2012_03\一過性\WEB_DXF\32800625+27719970_1.bmp
 10
70.0
 20
9.0
 11
0.352778
 21
0.352778
280
     1
281
     0
  0
IMAGEDEF_REACTOR
  5
862
100
AcDbRasterImageDefReactor
 90
        2
330
861
  0
IMAGEDEF
  5
863
100
AcDbRasterImageDef
 90
        0
  1
\\192.168.6.2\free(2012_03\一過性\WEB_DXF\32800625+27719970_2.bmp
 10
70.0
 20
9.0
 11
0.352778
 21
0.352778
280
     1
281
     0
  0
ENDSEC
  0
EOF
