  0
SECTION
  2
HEADER
  9
$ACADVER
  1
AC1015
  9
$ACADMAINTVER
 70
     6
  9
$DWGCODEPAGE
  3
ANSI_932
  9
$INSBASE
 10
0.0
 20
0.0
 30
0.0
  9
$EXTMIN
 10
23.283333
 20
25.752778
 30
1.000000E+20
  9
$EXTMAX
 10
198.966667
 20
276.930556
 30
-1.000000E+20
  9
$LIMMIN
 10
23.283333
 20
25.752778
  9
$LIMMAX
 10
198.966667
 20
276.930556
  9
$ORTHOMODE
 70
     0
  9
$REGENMODE
 70
     1
  9
$FILLMODE
 70
     1
  9
$QTEXTMODE
 70
     0
  9
$MIRRTEXT
 70
     1
  9
$LTSCALE
 40
1.0
  9
$ATTMODE
 70
     1
  9
$TEXTSIZE
 40
0.2
  9
$TRACEWID
 40
0.05
  9
$TEXTSTYLE
  7
Standard
  9
$CLAYER
  8
0
  9
$CELTYPE
  6
Continuous
  9
$CECOLOR
 62
   256
  9
$CELTSCALE
 40
1.0
  9
$DISPSILH
 70
     0
  9
$DIMSCALE
 40
1.0
  9
$DIMASZ
 40
0.18
  9
$DIMEXO
 40
0.0625
  9
$DIMDLI
 40
0.38
  9
$DIMRND
 40
0.0
  9
$DIMDLE
 40
0.0
  9
$DIMEXE
 40
0.18
  9
$DIMTP
 40
0.0
  9
$DIMTM
 40
0.0
  9
$DIMTXT
 40
0.18
  9
$DIMCEN
 40
0.09
  9
$DIMTSZ
 40
0.0
  9
$DIMTOL
 70
     0
  9
$DIMLIM
 70
     0
  9
$DIMTIH
 70
     1
  9
$DIMTOH
 70
     1
  9
$DIMSE1
 70
     0
  9
$DIMSE2
 70
     0
  9
$DIMTAD
 70
     0
  9
$DIMZIN
 70
     0
  9
$DIMBLK
  1

  9
$DIMASO
 70
     1
  9
$DIMSHO
 70
     1
  9
$DIMPOST
  1

  9
$DIMAPOST
  1

  9
$DIMALT
 70
     0
  9
$DIMALTD
 70
     2
  9
$DIMALTF
 40
25.4
  9
$DIMLFAC
 40
1.0
  9
$DIMTOFL
 70
     0
  9
$DIMTVP
 40
0.0
  9
$DIMTIX
 70
     0
  9
$DIMSOXD
 70
     0
  9
$DIMSAH
 70
     0
  9
$DIMBLK1
  1

  9
$DIMBLK2
  1

  9
$DIMSTYLE
  2
Standard
  9
$DIMCLRD
 70
     0
  9
$DIMCLRE
 70
     0
  9
$DIMCLRT
 70
     0
  9
$DIMTFAC
 40
1.0
  9
$DIMGAP
 40
0.09
  9
$DIMJUST
 70
     0
  9
$DIMSD1
 70
     0
  9
$DIMSD2
 70
     0
  9
$DIMTOLJ
 70
     1
  9
$DIMTZIN
 70
     0
  9
$DIMALTZ
 70
     0
  9
$DIMALTTZ
 70
     0
  9
$DIMUPT
 70
     0
  9
$DIMDEC
 70
     4
  9
$DIMTDEC
 70
     4
  9
$DIMALTU
 70
     2
  9
$DIMALTTD
 70
     2
  9
$DIMTXSTY
  7
Standard
  9
$DIMAUNIT
 70
     0
  9
$DIMADEC
 70
     0
  9
$DIMALTRND
 40
0.0
  9
$DIMAZIN
 70
     0
  9
$DIMDSEP
 70
     0
  9
$DIMATFIT
 70
     3
  9
$DIMFRAC
 70
     0
  9
$DIMLDRBLK
  1

  9
$DIMLUNIT
 70
     2
  9
$DIMLWD
 70
     0
  9
$DIMLWE
 70
     0
  9
$DIMTMOVE
 70
     0
  9
$LUNITS
 70
     2
  9
$LUPREC
 70
     4
  9
$SKETCHINC
 40
0.1
  9
$FILLETRAD
 40
0.0
  9
$AUNITS
 70
     0
  9
$AUPREC
 70
     0
  9
$MENU
  1
acad
  9
$ELEVATION
 40
0.0
  9
$PELEVATION
 40
0.0
  9
$THICKNESS
 40
0.0
  9
$LIMCHECK
 70
     0
  9
$CHAMFERA
 40
0.0
  9
$CHAMFERB
 40
0.0
  9
$CHAMFERC
 40
0.0
  9
$CHAMFERD
 40
0.0
  9
$SKPOLY
 70
     0
  9
$TDCREATE
 40
0.000000000
  9
$TDUCREATE
 40
0.000000000
  9
$TDUPDATE
 40
0.000000000
  9
$TDUUPDATE
 40
0.000000000
  9
$TDINDWG
 40
0.0000000000
  9
$TDUSRTIMER
 40
0.0000000000
  9
$USRTIMER
 70
     1
  9
$ANGBASE
 50
0.0
  9
$ANGDIR
 70
     0
  9
$PDMODE
 70
     0
  9
$PDSIZE
 40
0.0
  9
$PLINEWID
 40
0.0
  9
$SPLFRAME
 70
     0
  9
$SPLINETYPE
 70
     6
  9
$SPLINESEGS
 70
     8
  9
$HANDSEED
  5
573
  9
$SURFTAB1
 70
     6
  9
$SURFTAB2
 70
     6
  9
$SURFTYPE
 70
     6
  9
$SURFU
 70
     6
  9
$SURFV
 70
     6
  9
$UCSBASE
  2

  9
$UCSNAME
  2

  9
$UCSORG
 10
0.0
 20
0.0
 30
0.0
  9
$UCSXDIR
 10
1.0
 20
0.0
 30
0.0
  9
$UCSYDIR
 10
0.0
 20
1.0
 30
0.0
  9
$UCSORTHOREF
  2

  9
$UCSORTHOVIEW
 70
     0
  9
$UCSORGTOP
 10
0.0
 20
0.0
 30
0.0
  9
$UCSORGBOTTOM
 10
0.0
 20
0.0
 30
0.0
  9
$UCSORGLEFT
 10
0.0
 20
0.0
 30
0.0
  9
$UCSORGRIGHT
 10
0.0
 20
0.0
 30
0.0
  9
$UCSORGFRONT
 10
0.0
 20
0.0
 30
0.0
  9
$UCSORGBACK
 10
0.0
 20
0.0
 30
0.0
  9
$PUCSBASE
  2

  9
$PUCSNAME
  2

  9
$PUCSORG
 10
0.0
 20
0.0
 30
0.0
  9
$PUCSXDIR
 10
1.0
 20
0.0
 30
0.0
  9
$PUCSYDIR
 10
0.0
 20
1.0
 30
0.0
  9
$PUCSORTHOREF
  2

  9
$PUCSORTHOVIEW
 70
     0
  9
$PUCSORGTOP
 10
0.0
 20
0.0
 30
0.0
  9
$PUCSORGBOTTOM
 10
0.0
 20
0.0
 30
0.0
  9
$PUCSORGLEFT
 10
0.0
 20
0.0
 30
0.0
  9
$PUCSORGRIGHT
 10
0.0
 20
0.0
 30
0.0
  9
$PUCSORGFRONT
 10
0.0
 20
0.0
 30
0.0
  9
$PUCSORGBACK
 10
0.0
 20
0.0
 30
0.0
  9
$USERI1
 70
     0
  9
$USERI2
 70
     0
  9
$USERI3
 70
     0
  9
$USERI4
 70
     0
  9
$USERI5
 70
     0
  9
$USERR1
 40
0.0
  9
$USERR2
 40
0.0
  9
$USERR3
 40
0.0
  9
$USERR4
 40
0.0
  9
$USERR5
 40
0.0
  9
$WORLDVIEW
 70
     1
  9
$SHADEDGE
 70
     3
  9
$SHADEDIF
 70
    70
  9
$TILEMODE
 70
     1
  9
$MAXACTVP
 70
    16
  9
$PINSBASE
 10
0.0
 20
0.0
 30
0.0
  9
$PLIMCHECK
 70
     0
  9
$PEXTMIN
 10
1.000000E+20
 20
1.000000E+20
 30
1.000000E+20
  9
$PEXTMAX
 10
-1.000000E+20
 20
-1.000000E+20
 30
-1.000000E+20
  9
$PLIMMIN
 10
0.0
 20
0.0
  9
$PLIMMAX
 10
12.0
 20
9.0
  9
$UNITMODE
 70
     0
  9
$VISRETAIN
 70
     0
  9
$PLINEGEN
 70
     1
  9
$PSLTSCALE
 70
     0
  9
$TREEDEPTH
 70
  3020
  9
$CMLSTYLE
  2
Standard
  9
$CMLJUST
 70
     0
  9
$CMLSCALE
 40
1.0
  9
$PROXYGRAPHICS
 70
     0
  9
$MEASUREMENT
 70
     1
  9
$CELWEIGHT
370
     0
  9
$ENDCAPS
280
     0
  9
$JOINSTYLE
280
     0
  9
$LWDISPLAY
290
     0
  9
$INSUNITS
 70
     0
  9
$HYPERLINKBASE
  1

  9
$STYLESHEET
  1

  9
$XEDIT
290
     1
  9
$CEPSNTYPE
380
     0
  9
$PSTYLEMODE
290
     1
  9
$FINGERPRINTGUID
  2

  9
$VERSIONGUID
  2

  9
$EXTNAMES
290
     1
  9
$PSVPSCALE
 40
0.0
  0
ENDSEC
  0
SECTION
  2
CLASSES
  0
CLASS
  1
LWPOLYLINE
  2
AcDbPolyline
  3
AutoCAD 2000
 90
    32768
280
     0
281
     1
  0
CLASS
  1
IMAGE
  2
AcDbRasterImage
  3
ISM
 90
      127
280
     0
281
     1
  0
CLASS
  1
OLE2FRAME
  2
AcDbOle2Frame
  3
AutoCAD 2000
 90
    32768
280
     0
281
     1
  0
CLASS
  1
HATCH
  2
AcDbHatch
  3
AutoCAD 2000
 90
    32768
280
     0
281
     1
  0
CLASS
  1
DICTIONARYVAR
  2
AcDbDictionaryVar
  3
AutoCAD 2000
 90
    32768
280
     0
281
     0
  0
CLASS
  1
RASTERVARIABLES
  2
AcDbRasterVariables
  3
ISM
 90
    32768
280
     0
281
     0
  0
CLASS
  1
IMAGEDEF
  2
AcDbRasterImageDef
  3
ISM
 90
        0
280
     0
281
     0
  0
CLASS
  1
IMAGEDEF_REACTOR
  2
AcDbRasterImageDefReactor
  3
ISM
 90
        1
280
     0
281
     0
  0
CLASS
  1
IDBUFFER
  2
AcDbIdBuffer
  3
AutoCAD 2000
 90
    32768
280
     0
281
     0
  0
CLASS
  1
SPATIAL_FILTER
  2
AcDbSpatialFilter
  3
AutoCAD 2000
 90
    32768
280
     0
281
     0
  0
CLASS
  1
XRECORD
  2
AcDbXrecord
  3
AutoCAD 2000
 90
    32768
280
     0
281
     0
  0
CLASS
  1
SORTENTSTABLE
  2
AcDbSortentsTable
  3
AutoCAD 2000
 90
    32768
280
     0
281
     0
  0
CLASS
  1
LAYER_INDEX
  2
AcDbLayerIndex
  3
AutoCAD 2000
 90
    32768
280
     0
281
     0
  0
CLASS
  1
SPATIAL_INDEX
  2
AcDbSpatialIndex
  3
AutoCAD 2000
 90
    32768
280
     0
281
     0
  0
CLASS
  1
OBJECT_PTR
  2
CAseDLPNTableRecord
  3
"ASE-LPNTableRecord"
 90
    32769
280
     0
281
     0
  0
CLASS
  1
LAYOUT
  2
AcDbLayout
  3
AutoCAD 2000
 90
        0
280
     0
281
     0
  0
CLASS
  1
PLOTSETTINGS
  2
AcDbPlotSettings
  3
AutoCAD 2000
 90
    32768
280
     0
281
     0
  0
CLASS
  1
ACDBDICTIONARYWDFLT
  2
AcDbDictionaryWithDefault
  3
AutoCAD 2000
 90
        0
280
     0
281
     0
  0
CLASS
  1
ACDBPLACEHOLDER
  2
AcDbPlaceHolder
  3
AutoCAD 2000
 90
        0
280
     0
281
     0
  0
CLASS
  1
VBA_PROJECT
  2
AcDbVbaProject
  3
acadvba
 90
    32768
280
     0
281
     0
  0
CLASS
  1
WIPEOUT
  2
AcDbWipeout
  3
WipeOut|AutoCAD Express Tool|expresstools@autodesk.com
 90
    32895
280
     0
281
     1
  0
CLASS
  1
WIPEOUTVARIABLES
  2
AcDbWipeoutVariables
  3
WipeOut|AutoCAD Express Tool|expresstools@autodesk.com
 90
        0
280
     0
281
     0
  0
CLASS
  1
RTEXT
  2
RText
  3
RText|AutoCAD Express Tool|expresstools@autodesk.com
 90
    32768
280
     0
281
     1
  0
CLASS
  1
ARCALIGNEDTEXT
  2
AcDbArcAlignedText
  3
ATEXT|AutoCAD Express Tool|expresstools@autodesk.com
 90
    32768
280
     0
281
     1
  0
ENDSEC
  0
SECTION
  2
TABLES
  0
TABLE
  2
VPORT
  5
7
100
AcDbSymbolTable
 70
     1
  0
VPORT
  5
15
100
AcDbSymbolTableRecord
100
AcDbViewportTableRecord
  2
*ACTIVE
 70
     0
 10
0.0
 20
0.0
 11
1.0
 21
1.0
 12
6.591288
 22
4.579184
 13
0.0
 23
0.0
 14
1.0
 24
1.0
 15
0.0
 25
0.0
 16
0.0
 26
0.0
 36
1.0
 17
0.0
 27
0.0
 37
0.0
 40
9.158369
 41
0.688564
 42
50.0
 43
0.0
 44
0.0
 50
0.0
 51
0.0
 71
     0
 72
   100
 73
     1
 74
     1
 75
     0
 76
     0
 77
     0
 78
     0
281
     0
 65
     0
110
0.0
120
0.0
130
0.0
111
1.0
121
0.0
131
0.0
112
0.0
122
1.0
132
0.0
345
0
346
0
 79
     0
146
0.0
  0
ENDTAB
  0
TABLE
  2
LTYPE
  5
4
100
AcDbSymbolTable
 70
     4
  0
LTYPE
  5
11
100
AcDbSymbolTableRecord
100
AcDbLinetypeTableRecord
  2
ByBlock
 70
    64
  3

 72
    65
 73
     0
 40
0.0
  0
LTYPE
  5
12
100
AcDbSymbolTableRecord
100
AcDbLinetypeTableRecord
  2
ByLayer
 70
    64
  3

 72
    65
 73
     0
 40
0.0
  0
LTYPE
  5
13
100
AcDbSymbolTableRecord
100
AcDbLinetypeTableRecord
  2
Continuous
 70
    64
  3
Solid line
 72
    65
 73
     0
 40
0.0
  0
LTYPE
  5
3B
100
AcDbSymbolTableRecord
100
AcDbLinetypeTableRecord
  2
AI9-LType1
 70
    64
  3
Illustrator Dash Style No.1
 72
    65
 73
     4
 40
35.602228
 49
22.251352
 74
     0
 49
-4.450292
 74
     0
 49
4.450292
 74
     0
 49
-4.450292
 74
     0
  0
ENDTAB
  0
TABLE
  2
LAYER
  5
2
100
AcDbSymbolTable
 70
     3
  0
LAYER
  5
14
100
AcDbSymbolTableRecord
100
AcDbLayerTableRecord
  2
0
 70
     0
 62
     7
  6
Continuous
290
     1
370
    -3
390
1D
  0
LAYER
  5
28
100
AcDbSymbolTableRecord
100
AcDbLayerTableRecord
  2
レイヤー_2
 70
     0
 62
     1
  6
Continuous
290
     1
370
    -3
390
1D
  0
LAYER
  5
558
100
AcDbSymbolTableRecord
100
AcDbLayerTableRecord
  2
レイヤー_1
 70
     0
 62
   160
  6
Continuous
290
     1
370
    -3
390
1D
  0
ENDTAB
  0
TABLE
  2
STYLE
  5
3
100
AcDbSymbolTable
 70
     5
  0
STYLE
  5
17
100
AcDbSymbolTableRecord
100
AcDbTextStyleTableRecord
  2
Standard
 70
     0
 40
0.0
 41
1.0
 50
0.0
 71
     0
 42
0.0
  3
txt
  4

  0
STYLE
  5
24
100
AcDbSymbolTableRecord
100
AcDbTextStyleTableRecord
  2
STD
 70
     0
 40
0.0
 41
1.0
 50
0.0
 71
     0
 42
0.0
  3
txt
  4

  0
STYLE
  5
25
100
AcDbSymbolTableRecord
100
AcDbTextStyleTableRecord
  2
TATESTD
 70
     4
 40
0.0
 41
1.0
 50
0.0
 71
     0
 42
0.0
  3
txt
  4

  0
STYLE
  5
26
100
AcDbSymbolTableRecord
100
AcDbTextStyleTableRecord
  2
KANJISTD
 70
     0
 40
0.0
 41
1.0
 50
0.0
 71
     0
 42
0.0
  3
txt
  4
extfont
  0
STYLE
  5
27
100
AcDbSymbolTableRecord
100
AcDbTextStyleTableRecord
  2
KANJITATE
 70
     4
 40
0.0
 41
1.0
 50
0.0
 71
     0
 42
0.0
  3
txt
  4
extfont
  0
ENDTAB
  0
TABLE
  2
VIEW
  5
5
100
AcDbSymbolTable
 70
     0
  0
ENDTAB
  0
TABLE
  2
UCS
  5
6
100
AcDbSymbolTable
 70
     0
  0
ENDTAB
  0
TABLE
  2
APPID
  5
8
100
AcDbSymbolTable
 70
     1
  0
APPID
  5
16
100
AcDbSymbolTableRecord
100
AcDbRegAppTableRecord
  2
ACAD
 70
     0
  0
ENDTAB
  0
TABLE
  2
DIMSTYLE
  5
9
100
AcDbSymbolTable
 70
     1
100
AcDbDimStyleTable
 71
     0
  0
DIMSTYLE
105
18
100
AcDbSymbolTableRecord
100
AcDbDimStyleTableRecord
  2
Standard
 70
     0
  3

  4

 40
1.0
 41
0.18
 42
0.0625
 43
0.38
 44
0.18
 45
0.0
 46
0.0
 47
0.0
 48
0.0
 71
     0
 72
     0
 73
     1
 74
     1
 75
     0
 76
     0
 77
     0
 78
     0
 79
     0
140
0.18
141
0.09
142
0.0
143
25.4
144
1.0
145
0.0
146
1.0
147
0.09
148
0.0
170
     0
171
     2
172
     0
173
     0
174
     0
175
     0
176
     0
177
     0
178
     0
179
     0
271
     4
272
     4
273
     2
274
     2
275
     0
276
     0
277
     2
278
    46
279
     0
280
     0
281
     0
282
     0
283
     1
284
     0
285
     0
286
     0
288
     0
340
17
341
0
342
0
343
0
344
0
371
    -2
372
    -2
  0
ENDTAB
  0
TABLE
  2
BLOCK_RECORD
  5
1
100
AcDbSymbolTable
 70
     3
  0
BLOCK_RECORD
  5
A
100
AcDbSymbolTableRecord
100
AcDbBlockTableRecord
  2
*MODEL_SPACE
340
20
  0
BLOCK_RECORD
  5
B
100
AcDbSymbolTableRecord
100
AcDbBlockTableRecord
  2
*PAPER_SPACE
340
21
  0
BLOCK_RECORD
  5
29
100
AcDbSymbolTableRecord
100
AcDbBlockTableRecord
  2
AI9-BLK1
340
0
102
{BLKREFS
331
2A
102
}
  0
BLOCK_RECORD
  5
35
100
AcDbSymbolTableRecord
100
AcDbBlockTableRecord
  2
AI9-BLK2
340
0
102
{BLKREFS
331
36
102
}
  0
BLOCK_RECORD
  5
82
100
AcDbSymbolTableRecord
100
AcDbBlockTableRecord
  2
AI9-BLK3
340
0
102
{BLKREFS
331
83
102
}
  0
ENDTAB
  0
ENDSEC
  0
SECTION
  2
BLOCKS
  0
BLOCK
  5
D
100
AcDbEntity
  8
0
100
AcDbBlockBegin
  2
*MODEL_SPACE
 70
     0
 10
0.0
 20
0.0
 30
0.0
  3
*MODEL_SPACE
  1

  0
ENDBLK
  5
E
100
AcDbEntity
  8
0
100
AcDbBlockEnd
  0
BLOCK
  5
F
100
AcDbEntity
 67
     1
  8
0
100
AcDbBlockBegin
  2
*PAPER_SPACE
 70
     0
 10
0.0
 20
0.0
 30
0.0
  3
*PAPER_SPACE
  1

  0
ENDBLK
  5
10
100
AcDbEntity
 67
     1
  8
0
100
AcDbBlockEnd
  0
BLOCK
  5
2B
100
AcDbEntity
  8
レイヤー_2
 62
     7
100
AcDbBlockBegin
  2
AI9-BLK1
 70
     0
 10
0.0
 20
0.0
 30
0.0
  3
AI9-BLK1
  1

  0
LINE
  5
2F
100
AcDbEntity
  8
レイヤー_2
 62
     7
100
AcDbLine
 10
0.0
 20
-8.489749
 30
0.0
 11
0.0
 21
-4.324628
 31
0.0
  0
LINE
  5
2E
100
AcDbEntity
  8
レイヤー_2
 62
     7
100
AcDbLine
 10
0.0
 20
-3.54707
 30
0.0
 11
0.0
 21
-2.699921
 31
0.0
  0
LINE
  5
2D
100
AcDbEntity
  8
レイヤー_2
 62
     7
100
AcDbLine
 10
0.0
 20
-1.852428
 30
0.0
 11
0.0
 21
2.312004
 31
0.0
  0
LINE
  5
2C
100
AcDbEntity
  8
レイヤー_2
 62
     7
100
AcDbLine
 10
0.0
 20
2.973806
 30
0.0
 11
0.0
 21
8.489749
 31
0.0
  0
ENDBLK
  5
30
100
AcDbEntity
  8
レイヤー_2
100
AcDbBlockEnd
  0
BLOCK
  5
37
100
AcDbEntity
  8
レイヤー_2
 62
     7
100
AcDbBlockBegin
  2
AI9-BLK2
 70
     0
 10
0.0
 20
0.0
 30
0.0
  3
AI9-BLK2
  1

  0
MTEXT
  5
39
100
AcDbEntity
  8
レイヤー_2
 62
     7
100
AcDbMText
 10
-9.805259
 20
3.109043
 30
0.0
 40
2.624835
 41
0.0
 71
     1
 72
     2
  1
\fGothicBBB Medium|b0|i0|c128;\H2.6248;\C7;\U+63A5\U+7D9A\U+30BD\U+30B1\U+30C3\U+30C8
  7
STD
210
0.0
220
0.0
230
1.0
 73
     1
 44
1.0
  0
MTEXT
  5
38
100
AcDbEntity
  8
レイヤー_2
 62
     7
100
AcDbMText
 10
-11.361408
 20
-0.408744
 30
0.0
 40
2.624835
 41
0.0
 71
     1
 72
     2
  1
\fGothicBBB Medium|b0|i0|c128;\H2.6248;\C7;\U+FF08\U+9006\U+6B62\U+5F01\U+4ED8\U+FF09
  7
STD
210
0.0
220
0.0
230
1.0
 73
     1
 44
1.0
  0
ENDBLK
  5
3A
100
AcDbEntity
  8
レイヤー_2
100
AcDbBlockEnd
  0
BLOCK
  5
84
100
AcDbEntity
  8
レイヤー_2
  6
AI9-LType1
 62
     7
100
AcDbBlockBegin
  2
AI9-BLK3
 70
     0
 10
0.0
 20
0.0
 30
0.0
  3
AI9-BLK3
  1

  0
LINE
  5
CA
100
AcDbEntity
  8
レイヤー_2
  6
AI9-LType1
 62
     7
100
AcDbLine
 10
-7.213513
 20
-15.272539
 30
0.0
 11
-7.213513
 21
22.968882
 31
0.0
  0
LINE
  5
C9
100
AcDbEntity
  8
レイヤー_2
  6
AI9-LType1
 62
     7
100
AcDbLine
 10
-7.109988
 20
-15.204671
 30
0.0
 11
4.630381
 21
-5.39924
 31
0.0
  0
SPLINE
  5
C8
100
AcDbEntity
  8
レイヤー_2
 62
     7
100
AcDbSpline
210
0.0
220
0.0
230
1.0
 70
     8
 71
     3
 72
    95
 73
    91
 74
     0
 42
0.00000001
 43
0.00000001
 40
0.0
 40
0.0
 40
0.0
 40
0.0
 40
1.0
 40
1.0
 40
1.0
 40
2.0
 40
2.0
 40
2.0
 40
3.0
 40
3.0
 40
3.0
 40
4.0
 40
4.0
 40
4.0
 40
5.0
 40
5.0
 40
5.0
 40
6.0
 40
6.0
 40
6.0
 40
7.0
 40
7.0
 40
7.0
 40
8.0
 40
8.0
 40
8.0
 40
9.0
 40
9.0
 40
9.0
 40
10.0
 40
10.0
 40
10.0
 40
11.0
 40
11.0
 40
11.0
 40
12.0
 40
12.0
 40
12.0
 40
13.0
 40
13.0
 40
13.0
 40
14.0
 40
14.0
 40
14.0
 40
15.0
 40
15.0
 40
15.0
 40
16.0
 40
16.0
 40
16.0
 40
17.0
 40
17.0
 40
17.0
 40
18.0
 40
18.0
 40
18.0
 40
19.0
 40
19.0
 40
19.0
 40
20.0
 40
20.0
 40
20.0
 40
21.0
 40
21.0
 40
21.0
 40
22.0
 40
22.0
 40
22.0
 40
23.0
 40
23.0
 40
23.0
 40
24.0
 40
24.0
 40
24.0
 40
25.0
 40
25.0
 40
25.0
 40
26.0
 40
26.0
 40
26.0
 40
27.0
 40
27.0
 40
27.0
 40
28.0
 40
28.0
 40
28.0
 40
29.0
 40
29.0
 40
29.0
 40
30.0
 40
30.0
 40
30.0
 40
30.0
 10
3.7541205512152773
 20
-11.84363538953993
 30
0.0
 10
3.7641113281249998
 20
-11.847080485026041
 30
0.0
 10
3.7741021050347219
 20
-11.850525580512151
 30
0.0
 10
3.7847819010416663
 20
-11.853970675998262
 30
0.0
 10
3.7947726779513884
 20
-11.855348714192708
 30
0.0
 10
3.8056247287326386
 20
-11.858793809678819
 30
0.0
 10
3.816304524739583
 20
-11.860171847873263
 30
0.0
 10
3.8254340277777774
 20
-11.861894395616318
 30
0.0
 10
3.8361138237847219
 20
-11.86533949110243
 30
0.0
 10
3.8471381293402773
 20
-11.867062038845486
 30
0.0
 10
3.8569566514756941
 20
-11.868784586588541
 30
0.0
 10
3.8676364474826386
 20
-11.870162624782985
 30
0.0
 10
3.8784884982638888
 20
-11.870162624782985
 30
0.0
 10
3.8893405490451385
 20
-11.87188517252604
 30
0.0
 10
3.8993313259548605
 20
-11.87188517252604
 30
0.0
 10
3.910011121961805
 20
-11.87188517252604
 30
0.0
 10
3.9339545355902774
 20
-11.87188517252604
 30
0.0
 10
3.9572089301215274
 20
-11.868784586588541
 30
0.0
 10
3.9796020507812497
 20
-11.861894395616318
 30
0.0
 10
4.0037177191840279
 20
-11.857071261935763
 30
0.0
 10
4.0276611328124998
 20
-11.850525580512151
 30
0.0
 10
4.0509155273437498
 20
-11.84363538953993
 30
0.0
 10
4.0750311957465275
 20
-11.83743421766493
 30
0.0
 10
4.0972520616319441
 20
-11.830544026692706
 30
0.0
 10
4.1206787109374998
 20
-11.823653835720485
 30
0.0
 10
4.1437608506944441
 20
-11.817452663845485
 30
0.0
 10
4.1670152452256941
 20
-11.811940511067707
 30
0.0
 10
4.1892361111111107
 20
-11.810562472873263
 30
0.0
 10
4.2109402126736111
 20
-11.809184434678818
 30
0.0
 10
4.2324720594618048
 20
-11.809184434678818
 30
0.0
 10
4.2548651801215271
 20
-11.811940511067707
 30
0.0
 10
4.2863878038194443
 20
-11.820897759331595
 30
0.0
 10
4.3170491536458329
 20
-11.833989122178819
 30
0.0
 10
4.3427151150173611
 20
-11.853970675998262
 30
0.0
 10
4.3735487196180554
 20
-11.875330268012151
 30
0.0
 10
4.4016262478298609
 20
-11.898412407769095
 30
0.0
 10
4.4272922092013882
 20
-11.925284152560764
 30
0.0
 10
4.4538194444444441
 20
-11.951466878255207
 30
0.0
 10
4.4820692274305554
 20
-11.977994113498262
 30
0.0
 10
4.5084242078993055
 20
-12.004865858289929
 30
0.0
 10
4.5340901692708329
 20
-12.02967054578993
 30
0.0
 10
4.5623399522569441
 20
-12.051030137803819
 30
0.0
 10
4.591451009114583
 20
-12.070667182074653
 30
0.0
 10
4.617978244357638
 20
-12.089270697699652
 30
0.0
 10
4.6486395941840275
 20
-12.10098402235243
 30
0.0
 10
4.679989963107638
 20
-12.105807156032984
 30
0.0
 10
4.7108235677083332
 20
-12.109252251519097
 30
0.0
 10
4.7414849175347218
 20
-12.104084608289929
 30
0.0
 10
4.7695624457465273
 20
-12.092715793185763
 30
0.0
 10
4.8010850694444436
 20
-12.077557373046874
 30
0.0
 10
4.8319186740451388
 20
-12.064466010199652
 30
0.0
 10
4.8632690429687493
 20
-12.049307590060764
 30
0.0
 10
4.8965142144097218
 20
-12.034493679470485
 30
0.0
 10
4.9287258572048609
 20
-12.016234673394097
 30
0.0
 10
4.9595594618055552
 20
-11.997975667317707
 30
0.0
 10
4.9902208116319438
 20
-11.981439208984375
 30
0.0
 10
5.0208821614583332
 20
-11.966280788845484
 30
0.0
 10
5.0532660590277771
 20
-11.956634521484373
 30
0.0
 10
5.0822048611111104
 20
-11.946643744574653
 30
0.0
 10
5.1128662109374998
 20
-11.94319864908854
 30
0.0
 10
5.1426662868923607
 20
-11.946643744574653
 30
0.0
 10
5.1641981336805554
 20
-11.949744330512152
 30
0.0
 10
5.1857299804687491
 20
-11.958012559678819
 30
0.0
 10
5.2050225151909721
 20
-11.968347846137151
 30
0.0
 10
5.2255208333333325
 20
-11.981439208984375
 30
0.0
 10
5.2448133680555546
 20
-11.994530571831596
 30
0.0
 10
5.2637613932291663
 20
-12.009688991970485
 30
0.0
 10
5.284604220920138
 20
-12.026225450303818
 30
0.0
 10
5.3044135199652773
 20
-12.041039360894096
 30
0.0
 10
5.323361545138888
 20
-12.057575819227429
 30
0.0
 10
5.3426540798611102
 20
-12.07617933485243
 30
0.0
 10
5.3631523980034714
 20
-12.092715793185763
 30
0.0
 10
5.3848564995659718
 20
-12.105807156032984
 30
0.0
 10
5.4046657986111102
 20
-12.120621066623263
 30
0.0
 10
5.4270589192708325
 20
-12.132334391276041
 30
0.0
 10
5.4494520399305548
 20
-12.144047715928819
 30
0.0
 10
5.4592705620659716
 20
-12.148870849609374
 30
0.0
 10
5.4692613389756941
 20
-12.150248887803818
 30
0.0
 10
5.4792521158854166
 20
-12.15369398328993
 30
0.0
 10
5.4901041666666659
 20
-12.155761040581597
 30
0.0
 10
5.499061414930555
 20
-12.158517116970485
 30
0.0
 10
5.5100857204861109
 20
-12.160584174262151
 30
0.0
 10
5.5207655164930554
 20
-12.161962212456595
 30
0.0
 10
5.5314453124999998
 20
-12.164029269748262
 30
0.0
 10
5.5414360894097214
 20
-12.165407307942708
 30
0.0
 10
5.5522881401909716
 20
-12.166785346137152
 30
0.0
 10
5.5629679361979161
 20
-12.166785346137152
 30
0.0
 10
5.5729587131076386
 20
-12.168852403428819
 30
0.0
 10
5.5838107638888888
 20
-12.168852403428819
 30
0.0
 10
5.5944905598958332
 20
-12.170230441623263
 30
0.0
 10
5.6053426106770825
 20
-12.170230441623263
 30
0.0
  0
LINE
  5
C7
100
AcDbEntity
  8
レイヤー_2
 62
     7
100
AcDbLine
 10
6.335703
 20
-17.549058
 30
0.0
 11
6.238723
 21
-17.549058
 31
0.0
  0
LINE
  5
C6
100
AcDbEntity
  8
レイヤー_2
 62
     7
100
AcDbLine
 10
6.238723
 20
-16.658845
 30
0.0
 11
6.238723
 21
-17.549058
 31
0.0
  0
LINE
  5
C5
100
AcDbEntity
  8
レイヤー_2
 62
     7
100
AcDbLine
 10
6.238723
 20
-17.549058
 30
0.0
 11
6.335703
 21
-17.71649
 31
0.0
  0
LINE
  5
C4
100
AcDbEntity
  8
レイヤー_2
 62
     7
100
AcDbLine
 10
3.12074
 20
-17.549058
 30
0.0
 11
3.022899
 21
-17.549058
 31
0.0
  0
LINE
  5
C3
100
AcDbEntity
  8
レイヤー_2
 62
     7
100
AcDbLine
 10
3.12074
 20
-17.549058
 30
0.0
 11
3.12074
 21
-16.658845
 31
0.0
  0
LINE
  5
C2
100
AcDbEntity
  8
レイヤー_2
 62
     7
100
AcDbLine
 10
3.022899
 20
-17.71649
 30
0.0
 11
3.12074
 21
-17.549058
 31
0.0
  0
LINE
  5
C1
100
AcDbEntity
  8
レイヤー_2
  6
AI9-LType1
 62
     7
100
AcDbLine
 10
4.67999
 20
-5.49708
 30
0.0
 11
4.67999
 21
-22.968882
 31
0.0
  0
LINE
  5
C0
100
AcDbEntity
  8
レイヤー_2
 62
     7
100
AcDbLine
 10
3.765834
 20
-16.56755
 30
0.0
 11
3.365342
 21
-16.56755
 31
0.0
  0
LINE
  5
BF
100
AcDbEntity
  8
レイヤー_2
 62
     7
100
AcDbLine
 10
3.765834
 20
-14.521508
 30
0.0
 11
3.765834
 21
-16.56755
 31
0.0
  0
LINE
  5
BE
100
AcDbEntity
  8
レイヤー_2
 62
     7
100
AcDbLine
 10
3.365342
 20
-14.521508
 30
0.0
 11
3.765834
 21
-14.521508
 31
0.0
  0
LINE
  5
BD
100
AcDbEntity
  8
レイヤー_2
 62
     7
100
AcDbLine
 10
3.365342
 20
-14.521508
 30
0.0
 11
3.365342
 21
-16.56755
 31
0.0
  0
LINE
  5
BC
100
AcDbEntity
  8
レイヤー_2
 62
     7
100
AcDbLine
 10
3.21858
 20
-13.17172
 30
0.0
 11
4.67999
 21
-13.17172
 31
0.0
  0
LINE
  5
BB
100
AcDbEntity
  8
レイヤー_2
 62
     7
100
AcDbLine
 10
2.633431
 20
-16.680205
 30
0.0
 11
4.67999
 21
-16.680205
 31
0.0
  0
LINE
  5
BA
100
AcDbEntity
  8
レイヤー_2
 62
     7
100
AcDbLine
 10
2.439472
 20
-16.56755
 30
0.0
 11
2.633431
 21
-16.680205
 31
0.0
  0
LINE
  5
B9
100
AcDbEntity
  8
レイヤー_2
 62
     7
100
AcDbLine
 10
3.21858
 20
-13.17172
 30
0.0
 11
2.544548
 21
-14.33754
 31
0.0
  0
LINE
  5
B8
100
AcDbEntity
  8
レイヤー_2
 62
     7
100
AcDbLine
 10
2.439472
 20
-14.521508
 30
0.0
 11
2.439472
 21
-16.56755
 31
0.0
  0
LINE
  5
B7
100
AcDbEntity
  8
レイヤー_2
 62
     7
100
AcDbLine
 10
5.663392
 20
-13.17172
 30
0.0
 11
4.67999
 21
-13.17172
 31
0.0
  0
LINE
  5
B6
100
AcDbEntity
  8
レイヤー_2
 62
     7
100
AcDbLine
 10
6.384451
 20
-16.680205
 30
0.0
 11
4.67999
 21
-16.680205
 31
0.0
  0
LINE
  5
B5
100
AcDbEntity
  8
レイヤー_2
 62
     7
100
AcDbLine
 10
5.994983
 20
-16.56755
 30
0.0
 11
5.593802
 21
-16.56755
 31
0.0
  0
LINE
  5
B4
100
AcDbEntity
  8
レイヤー_2
 62
     7
100
AcDbLine
 10
5.593802
 20
-16.56755
 30
0.0
 11
5.593802
 21
-14.521508
 31
0.0
  0
LINE
  5
B3
100
AcDbEntity
  8
レイヤー_2
 62
     7
100
AcDbLine
 10
5.593802
 20
-14.521508
 30
0.0
 11
5.994983
 21
-14.521508
 31
0.0
  0
LINE
  5
B2
100
AcDbEntity
  8
レイヤー_2
 62
     7
100
AcDbLine
 10
5.994983
 20
-16.56755
 30
0.0
 11
5.994983
 21
-14.521508
 31
0.0
  0
LINE
  5
B1
100
AcDbEntity
  8
レイヤー_2
 62
     7
100
AcDbLine
 10
4.67999
 20
-13.17172
 30
0.0
 11
6.140883
 21
-13.17172
 31
0.0
  0
LINE
  5
B0
100
AcDbEntity
  8
レイヤー_2
 62
     7
100
AcDbLine
 10
4.67999
 20
-16.680205
 30
0.0
 11
6.726204
 21
-16.680205
 31
0.0
  0
LINE
  5
AF
100
AcDbEntity
  8
レイヤー_2
 62
     7
100
AcDbLine
 10
6.726204
 20
-16.680205
 30
0.0
 11
6.920852
 21
-16.56755
 31
0.0
  0
LINE
  5
AE
100
AcDbEntity
  8
レイヤー_2
 62
     7
100
AcDbLine
 10
6.920852
 20
-14.521508
 30
0.0
 11
6.140883
 21
-13.17172
 31
0.0
  0
LINE
  5
AD
100
AcDbEntity
  8
レイヤー_2
 62
     7
100
AcDbLine
 10
6.920852
 20
-16.56755
 30
0.0
 11
6.920852
 21
-14.521508
 31
0.0
  0
LINE
  5
AC
100
AcDbEntity
  8
レイヤー_2
 62
     7
100
AcDbLine
 10
2.544548
 20
-14.33754
 30
0.0
 11
2.439472
 21
-14.521508
 31
0.0
  0
SPLINE
  5
AB
100
AcDbEntity
  8
レイヤー_2
 62
     7
100
AcDbSpline
210
0.0
220
0.0
230
1.0
 70
     8
 71
     3
 72
     8
 73
     4
 74
     0
 42
0.00000001
 43
0.00000001
 40
0.0
 40
0.0
 40
0.0
 40
0.0
 40
1.0
 40
1.0
 40
1.0
 40
1.0
 10
3.7658338758680552
 20
-16.567550320095485
 30
0.0
 10
4.065040418836805
 20
-16.642308892144097
 30
0.0
 10
4.371826171875
 20
-16.680204942491319
 30
0.0
 10
4.679989963107638
 20
-16.680204942491319
 30
0.0
  0
SPLINE
  5
AA
100
AcDbEntity
  8
レイヤー_2
 62
     7
100
AcDbSpline
210
0.0
220
0.0
230
1.0
 70
     8
 71
     3
 72
     8
 73
     4
 74
     0
 42
0.00000001
 43
0.00000001
 40
0.0
 40
0.0
 40
0.0
 40
0.0
 40
1.0
 40
1.0
 40
1.0
 40
1.0
 10
2.4394721137152775
 20
-16.567550320095485
 30
0.0
 10
2.7286878797743053
 20
-16.718445502387151
 30
0.0
 10
3.0744032118055551
 20
-16.718445502387151
 30
0.0
 10
3.3653415256076387
 20
-16.567550320095485
 30
0.0
  0
SPLINE
  5
A9
100
AcDbEntity
  8
レイヤー_2
 62
     7
100
AcDbSpline
210
0.0
220
0.0
230
1.0
 70
     8
 71
     3
 72
     8
 73
     4
 74
     0
 42
0.00000001
 43
0.00000001
 40
0.0
 40
0.0
 40
0.0
 40
0.0
 40
1.0
 40
1.0
 40
1.0
 40
1.0
 10
4.679989963107638
 20
-14.183199734157984
 30
0.0
 10
4.3444376627604164
 20
-14.183199734157984
 30
0.0
 10
4.0200819227430555
 20
-14.304122585720485
 30
0.0
 10
3.7658338758680552
 20
-14.521508110894096
 30
0.0
  0
SPLINE
  5
A8
100
AcDbEntity
  8
レイヤー_2
 62
     7
100
AcDbSpline
210
0.0
220
0.0
230
1.0
 70
     8
 71
     3
 72
    11
 73
     7
 74
     0
 42
0.00000001
 43
0.00000001
 40
0.0
 40
0.0
 40
0.0
 40
0.0
 40
1.0
 40
1.0
 40
1.0
 40
2.0
 40
2.0
 40
2.0
 40
2.0
 10
3.3653415256076387
 20
-14.521508110894096
 30
0.0
 10
3.2848985460069442
 20
-14.266226535373262
 30
0.0
 10
3.0129082573784718
 20
-14.123599582248263
 30
0.0
 10
2.7569376627604165
 20
-14.204559326171873
 30
0.0
 10
2.6756334092881944
 20
-14.229708523220484
 30
0.0
 10
2.6017361111111108
 20
-14.274494764539929
 30
0.0
 10
2.5445475260416663
 20
-14.337540011935763
 30
0.0
  0
SPLINE
  5
A7
100
AcDbEntity
  8
レイヤー_2
 62
     7
100
AcDbSpline
210
0.0
220
0.0
230
1.0
 70
     8
 71
     3
 72
     8
 73
     4
 74
     0
 42
0.00000001
 43
0.00000001
 40
0.0
 40
0.0
 40
0.0
 40
0.0
 40
1.0
 40
1.0
 40
1.0
 40
1.0
 10
4.679989963107638
 20
-16.680204942491319
 30
0.0
 10
4.9884982638888884
 20
-16.680204942491319
 30
0.0
 10
5.2944227430555548
 20
-16.642308892144097
 30
0.0
 10
5.5938015407986104
 20
-16.567550320095485
 30
0.0
  0
SPLINE
  5
A6
100
AcDbEntity
  8
レイヤー_2
 62
     7
100
AcDbSpline
210
0.0
220
0.0
230
1.0
 70
     8
 71
     3
 72
     8
 73
     4
 74
     0
 42
0.00000001
 43
0.00000001
 40
0.0
 40
0.0
 40
0.0
 40
0.0
 40
1.0
 40
1.0
 40
1.0
 40
1.0
 10
5.9949829101562493
 20
-16.567550320095485
 30
0.0
 10
6.2850599500868052
 20
-16.718445502387151
 30
0.0
 10
6.630775282118055
 20
-16.718445502387151
 30
0.0
 10
6.9208523220486109
 20
-16.567550320095485
 30
0.0
  0
SPLINE
  5
A5
100
AcDbEntity
  8
レイヤー_2
 62
     7
100
AcDbSpline
210
0.0
220
0.0
230
1.0
 70
     8
 71
     3
 72
     8
 73
     4
 74
     0
 42
0.00000001
 43
0.00000001
 40
0.0
 40
0.0
 40
0.0
 40
0.0
 40
1.0
 40
1.0
 40
1.0
 40
1.0
 10
5.5938015407986104
 20
-14.521508110894096
 30
0.0
 10
5.3385199652777775
 20
-14.304122585720485
 30
0.0
 10
5.0150254991319443
 20
-14.183199734157984
 30
0.0
 10
4.679989963107638
 20
-14.183199734157984
 30
0.0
  0
SPLINE
  5
A4
100
AcDbEntity
  8
レイヤー_2
 62
     7
100
AcDbSpline
210
0.0
220
0.0
230
1.0
 70
     8
 71
     3
 72
    11
 73
     7
 74
     0
 42
0.00000001
 43
0.00000001
 40
0.0
 40
0.0
 40
0.0
 40
0.0
 40
1.0
 40
1.0
 40
1.0
 40
2.0
 40
2.0
 40
2.0
 40
2.0
 10
6.9208523220486109
 20
-14.521508110894096
 30
0.0
 10
6.8412706163194441
 20
-14.266226535373262
 30
0.0
 10
6.568763563368055
 20
-14.123599582248263
 30
0.0
 10
6.3124484592013888
 20
-14.204559326171873
 30
0.0
 10
6.1615532769097214
 20
-14.251068115234373
 30
0.0
 10
6.042352973090277
 20
-14.37061292860243
 30
0.0
 10
5.9949829101562493
 20
-14.521508110894096
 30
0.0
  0
LINE
  5
A3
100
AcDbEntity
  8
レイヤー_2
 62
     7
100
AcDbLine
 10
2.365403
 20
-22.209583
 30
0.0
 11
2.145778
 21
-22.093483
 31
0.0
  0
LINE
  5
A2
100
AcDbEntity
  8
レイヤー_2
 62
     7
100
AcDbLine
 10
7.213513
 20
-22.093483
 30
0.0
 11
6.993199
 21
-22.209583
 31
0.0
  0
LINE
  5
A1
100
AcDbEntity
  8
レイヤー_2
 62
     7
100
AcDbLine
 10
2.145778
 20
-18.19398
 30
0.0
 11
2.365403
 21
-18.07788
 31
0.0
  0
LINE
  5
A0
100
AcDbEntity
  8
レイヤー_2
 62
     7
100
AcDbLine
 10
6.993199
 20
-18.07788
 30
0.0
 11
7.213513
 21
-18.19398
 31
0.0
  0
LINE
  5
9F
100
AcDbEntity
  8
レイヤー_2
 62
     7
100
AcDbLine
 10
2.439472
 20
-22.385283
 30
0.0
 11
6.920852
 21
-22.385283
 31
0.0
  0
LINE
  5
9E
100
AcDbEntity
  8
レイヤー_2
 62
     7
100
AcDbLine
 10
3.140549
 20
-22.093483
 30
0.0
 11
3.7052
 21
-22.093483
 31
0.0
  0
LINE
  5
9D
100
AcDbEntity
  8
レイヤー_2
 62
     7
100
AcDbLine
 10
5.653402
 20
-22.093483
 30
0.0
 11
6.218053
 21
-22.093483
 31
0.0
  0
LINE
  5
9C
100
AcDbEntity
  8
レイヤー_2
 62
     7
100
AcDbLine
 10
7.213513
 20
-22.093483
 30
0.0
 11
6.920852
 21
-22.385283
 31
0.0
  0
LINE
  5
9B
100
AcDbEntity
  8
レイヤー_2
 62
     7
100
AcDbLine
 10
2.145778
 20
-22.093483
 30
0.0
 11
2.439472
 21
-22.385283
 31
0.0
  0
LINE
  5
9A
100
AcDbEntity
  8
レイヤー_2
 62
     7
100
AcDbLine
 10
6.920852
 20
-17.90218
 30
0.0
 11
2.439472
 21
-17.90218
 31
0.0
  0
LINE
  5
99
100
AcDbEntity
  8
レイヤー_2
 62
     7
100
AcDbLine
 10
6.920852
 20
-17.90218
 30
0.0
 11
7.213513
 21
-18.19398
 31
0.0
  0
LINE
  5
98
100
AcDbEntity
  8
レイヤー_2
 62
     7
100
AcDbLine
 10
6.218053
 20
-18.19398
 30
0.0
 11
5.653402
 21
-18.19398
 31
0.0
  0
LINE
  5
97
100
AcDbEntity
  8
レイヤー_2
 62
     7
100
AcDbLine
 10
3.7052
 20
-18.19398
 30
0.0
 11
3.140549
 21
-18.19398
 31
0.0
  0
LINE
  5
96
100
AcDbEntity
  8
レイヤー_2
 62
     7
100
AcDbLine
 10
2.439472
 20
-17.90218
 30
0.0
 11
2.145778
 21
-18.19398
 31
0.0
  0
LINE
  5
95
100
AcDbEntity
  8
レイヤー_2
 62
     7
100
AcDbLine
 10
2.145778
 20
-22.093483
 30
0.0
 11
2.145778
 21
-18.19398
 31
0.0
  0
LINE
  5
94
100
AcDbEntity
  8
レイヤー_2
 62
     7
100
AcDbLine
 10
3.140549
 20
-22.093483
 30
0.0
 11
3.140549
 21
-18.19398
 31
0.0
  0
LINE
  5
93
100
AcDbEntity
  8
レイヤー_2
 62
     7
100
AcDbLine
 10
3.7052
 20
-22.093483
 30
0.0
 11
3.7052
 21
-18.19398
 31
0.0
  0
LINE
  5
92
100
AcDbEntity
  8
レイヤー_2
 62
     7
100
AcDbLine
 10
5.653402
 20
-22.093483
 30
0.0
 11
5.653402
 21
-18.19398
 31
0.0
  0
LINE
  5
91
100
AcDbEntity
  8
レイヤー_2
 62
     7
100
AcDbLine
 10
6.218053
 20
-22.093483
 30
0.0
 11
6.218053
 21
-18.19398
 31
0.0
  0
LINE
  5
90
100
AcDbEntity
  8
レイヤー_2
 62
     7
100
AcDbLine
 10
7.213513
 20
-22.093483
 30
0.0
 11
7.213513
 21
-18.19398
 31
0.0
  0
SPLINE
  5
8F
100
AcDbEntity
  8
レイヤー_2
 62
     7
100
AcDbSpline
210
0.0
220
0.0
230
1.0
 70
     8
 71
     3
 72
     8
 73
     4
 74
     0
 42
0.00000001
 43
0.00000001
 40
0.0
 40
0.0
 40
0.0
 40
0.0
 40
1.0
 40
1.0
 40
1.0
 40
1.0
 10
2.3654025607638887
 20
-22.209583197699651
 30
0.0
 10
2.6210286458333329
 20
-22.347387017144094
 30
0.0
 10
2.9367716471354166
 20
-22.29915568033854
 30
0.0
 10
3.1405490451388887
 20
-22.093483479817706
 30
0.0
  0
SPLINE
  5
8E
100
AcDbEntity
  8
レイヤー_2
 62
     7
100
AcDbSpline
210
0.0
220
0.0
230
1.0
 70
     8
 71
     3
 72
     8
 73
     4
 74
     0
 42
0.00000001
 43
0.00000001
 40
0.0
 40
0.0
 40
0.0
 40
0.0
 40
1.0
 40
1.0
 40
1.0
 40
1.0
 10
6.2180528428819439
 20
-22.093483479817706
 30
0.0
 10
6.4218302408854164
 20
-22.29915568033854
 30
0.0
 10
6.7377454969618054
 20
-22.347387017144094
 30
0.0
 10
6.9931993272569439
 20
-22.209583197699651
 30
0.0
  0
SPLINE
  5
8D
100
AcDbEntity
  8
レイヤー_2
 62
     7
100
AcDbSpline
210
0.0
220
0.0
230
1.0
 70
     8
 71
     3
 72
     8
 73
     4
 74
     0
 42
0.00000001
 43
0.00000001
 40
0.0
 40
0.0
 40
0.0
 40
0.0
 40
1.0
 40
1.0
 40
1.0
 40
1.0
 10
3.7052001953124996
 20
-22.093483479817706
 30
0.0
 10
4.3296237521701384
 20
-22.35221015082465
 30
0.0
 10
5.0300116644965271
 20
-22.35221015082465
 30
0.0
 10
5.653401692708333
 20
-22.093483479817706
 30
0.0
  0
SPLINE
  5
8C
100
AcDbEntity
  8
レイヤー_2
 62
     7
100
AcDbSpline
210
0.0
220
0.0
230
1.0
 70
     8
 71
     3
 72
     8
 73
     4
 74
     0
 42
0.00000001
 43
0.00000001
 40
0.0
 40
0.0
 40
0.0
 40
0.0
 40
1.0
 40
1.0
 40
1.0
 40
1.0
 10
3.1405490451388887
 20
-18.193979899088539
 30
0.0
 10
2.9367716471354166
 20
-17.988307698567706
 30
0.0
 10
2.6210286458333329
 20
-17.940076361762152
 30
0.0
 10
2.3654025607638887
 20
-18.077880181206595
 30
0.0
  0
SPLINE
  5
8B
100
AcDbEntity
  8
レイヤー_2
 62
     7
100
AcDbSpline
210
0.0
220
0.0
230
1.0
 70
     8
 71
     3
 72
     8
 73
     4
 74
     0
 42
0.00000001
 43
0.00000001
 40
0.0
 40
0.0
 40
0.0
 40
0.0
 40
1.0
 40
1.0
 40
1.0
 40
1.0
 10
6.9931993272569439
 20
-18.077880181206595
 30
0.0
 10
6.7377454969618054
 20
-17.940076361762152
 30
0.0
 10
6.4218302408854164
 20
-17.988307698567706
 30
0.0
 10
6.2180528428819439
 20
-18.193979899088539
 30
0.0
  0
SPLINE
  5
8A
100
AcDbEntity
  8
レイヤー_2
 62
     7
100
AcDbSpline
210
0.0
220
0.0
230
1.0
 70
     8
 71
     3
 72
     8
 73
     4
 74
     0
 42
0.00000001
 43
0.00000001
 40
0.0
 40
0.0
 40
0.0
 40
0.0
 40
1.0
 40
1.0
 40
1.0
 40
1.0
 10
5.653401692708333
 20
-18.193979899088539
 30
0.0
 10
5.0300116644965271
 20
-17.935253228081596
 30
0.0
 10
4.3296237521701384
 20
-17.935253228081596
 30
0.0
 10
3.7052001953124996
 20
-18.193979899088539
 30
0.0
  0
LINE
  5
89
100
AcDbEntity
  8
レイヤー_2
 62
     7
100
AcDbLine
 10
3.754121
 20
-13.17172
 30
0.0
 11
3.754121
 21
-11.837434
 31
0.0
  0
LINE
  5
88
100
AcDbEntity
  8
レイヤー_2
 62
     7
100
AcDbLine
 10
5.605343
 20
-13.17172
 30
0.0
 11
5.605343
 21
-12.17023
 31
0.0
  0
LINE
  5
87
100
AcDbEntity
  8
レイヤー_2
 62
     7
100
AcDbLine
 10
6.335703
 20
-17.71649
 30
0.0
 11
6.335703
 21
-16.680205
 31
0.0
  0
LINE
  5
86
100
AcDbEntity
  8
レイヤー_2
 62
     7
100
AcDbLine
 10
3.022899
 20
-16.680205
 30
0.0
 11
3.022899
 21
-17.71649
 31
0.0
  0
LINE
  5
85
100
AcDbEntity
  8
レイヤー_2
 62
     7
100
AcDbLine
 10
3.12074
 20
-17.549058
 30
0.0
 11
6.238723
 21
-17.549058
 31
0.0
  0
ENDBLK
  5
CB
100
AcDbEntity
  8
レイヤー_2
100
AcDbBlockEnd
  0
ENDSEC
  0
SECTION
  2
ENTITIES
  0
MTEXT
  5
572
100
AcDbEntity
  8
レイヤー_1
 62
     7
100
AcDbMText
 10
47.801389
 20
54.121991
 30
0.0
 40
3.674768
 41
0.0
 71
     1
 72
     2
  1
\fOsaka|b0|i0|c128;\H3.6748;\C7;\U+0033\U+0032\U+002E\U+0038\U+0030\U+0030\U+002E\U+0037\U+0039\U+0030\U+002E\U+0058\U+0058
  7
STD
210
0.0
220
0.0
230
1.0
 73
     1
 44
1.0
  0
MTEXT
  5
571
100
AcDbEntity
  8
レイヤー_1
 62
     7
100
AcDbMText
 10
39.6875
 20
56.608234
 30
0.0
 40
1.574901
 41
0.0
 71
     1
 72
     2
  1
\fOsaka|b0|i0|c128;\H1.5749;\C7;\U+54C1\U+756A
  7
STD
210
0.0
220
0.0
230
1.0
 73
     1
 44
1.0
  0
MTEXT
  5
570
100
AcDbEntity
  8
レイヤー_1
 62
     7
100
AcDbMText
 10
47.801389
 20
32.959208
 30
0.0
 40
3.149486
 41
0.0
 71
     1
 72
     2
  1
\fOsaka|b0|i0|c128;\H3.1495;\C7;\U+0032\U+7A74\U+578B\U+30B7\U+30F3\U+30B0\U+30EB\U+30EC\U+30D0\U+30FC\U+30AD\U+30C3\U+30C1\U+30F3\U+7528\U+6DF7\U+5408\U+6813
  7
STD
210
0.0
220
0.0
230
1.0
 73
     1
 44
1.0
  0
MTEXT
  5
56F
100
AcDbEntity
  8
レイヤー_1
 62
     7
100
AcDbMText
 10
39.6875
 20
35.441567
 30
0.0
 40
1.574901
 41
0.0
 71
     1
 72
     2
  1
\fOsaka|b0|i0|c128;\H1.5749;\C7;\U+54C1
  7
STD
210
0.0
220
0.0
230
1.0
 73
     1
 44
1.0
  0
MTEXT
  5
56E
100
AcDbEntity
  8
レイヤー_1
 62
     7
100
AcDbMText
 10
47.801389
 20
42.954808
 30
0.0
 40
3.149486
 41
0.0
 71
     1
 72
     2
  1
\fOsaka|b0|i0|c128;\H3.1495;\C7;\U+004B\U+0049\U+0054\U+0043\U+0048\U+0045\U+004E\U+0020\U+0020\H2.6248;\U+0045\U+004C\U+0049\U+004F
  7
STD
210
0.0
220
0.0
230
1.0
 73
     1
 44
1.0
  0
POLYLINE
  5
568
100
AcDbEntity
  8
レイヤー_1
 62
     7
100
AcDb2dPolyline
 66
     1
 10
0.0
 20
0.0
 30
0.0
 70
     1
  0
VERTEX
  5
569
100
AcDbEntity
  8
レイヤー_1
 62
     7
100
AcDbVertex
100
AcDb2dVertex
 10
23.636111
 20
26.105556
 30
0.0
  0
VERTEX
  5
56A
100
AcDbEntity
  8
レイヤー_1
 62
     7
100
AcDbVertex
100
AcDb2dVertex
 10
198.613889
 20
26.105556
 30
0.0
  0
VERTEX
  5
56B
100
AcDbEntity
  8
レイヤー_1
 62
     7
100
AcDbVertex
100
AcDb2dVertex
 10
198.613889
 20
276.577778
 30
0.0
  0
VERTEX
  5
56C
100
AcDbEntity
  8
レイヤー_1
 62
     7
100
AcDbVertex
100
AcDb2dVertex
 10
23.636111
 20
276.577778
 30
0.0
  0
SEQEND
  5
56D
100
AcDbEntity
  8
レイヤー_1
 62
     7
  0
LINE
  5
567
100
AcDbEntity
  8
レイヤー_1
 62
     7
100
AcDbLine
 10
170.568056
 20
36.5125
 30
0.0
 11
27.693056
 21
36.5125
 31
0.0
  0
LINE
  5
566
100
AcDbEntity
  8
レイヤー_1
 62
     7
100
AcDbLine
 10
170.568056
 20
47.095833
 30
0.0
 11
27.693056
 21
47.095833
 31
0.0
  0
LINE
  5
565
100
AcDbEntity
  8
レイヤー_1
 62
     7
100
AcDbLine
 10
23.636111
 20
57.855556
 30
0.0
 11
198.261111
 21
57.855556
 31
0.0
  0
LINE
  5
564
100
AcDbEntity
  8
レイヤー_1
 62
     7
100
AcDbLine
 10
170.744444
 20
57.855556
 30
0.0
 11
170.744444
 21
26.458333
 31
0.0
  0
MTEXT
  5
563
100
AcDbEntity
  8
レイヤー_1
 62
     7
100
AcDbMText
 10
33.3375
 20
46.024901
 30
0.0
 40
1.574901
 41
0.0
 71
     1
 72
     2
  1
\fOsaka|b0|i0|c128;\H1.5749;\C7;\U+30B7\U+30EA\U+30FC\U+30BA
  7
STD
210
0.0
220
0.0
230
1.0
 73
     1
 44
1.0
  0
MTEXT
  5
562
100
AcDbEntity
  8
レイヤー_1
 62
     7
100
AcDbMText
 10
174.095833
 20
54.655042
 30
0.0
 40
3.149486
 41
0.0
 71
     1
 72
     2
  1
\fHeiseiKakuGothicCAN W9|b0|i0|c128;\H3.1495;\C253;\U+5BF8\U+6CD5\U+53C2\U+8003\U+56F3
  7
STD
210
0.0
220
0.0
230
1.0
 73
     1
 44
1.0
  0
LINE
  5
561
100
AcDbEntity
  8
レイヤー_1
 62
     7
100
AcDbLine
 10
27.516667
 20
57.855556
 30
0.0
 11
27.516667
 21
26.458333
 31
0.0
  0
IMAGE
  5
55E
100
AcDbEntity
  8
レイヤー_1
 62
     7
 92
        0
100
AcDbRasterImage
 90
        0
 10
172.155556
 20
28.574682
 30
0.0
 11
0.352531
 21
0.0
 31
0.0
 12
0.0
 22
0.352813
 32
0.0
 13
70.0
 23
9.0
340
560
 70
     7
280
     0
281
    50
282
    50
283
     0
360
55F
 71
     1
 91
        2
 14
-0.5
 24
-0.5
 14
69.5
 24
8.5
  0
IMAGE
  5
55B
100
AcDbEntity
  8
レイヤー_1
 62
     7
 92
        0
100
AcDbRasterImage
 90
        0
 10
172.155556
 20
28.574682
 30
0.0
 11
0.352531
 21
0.0
 31
0.0
 12
0.0
 22
0.352813
 32
0.0
 13
70.0
 23
9.0
340
55D
 70
     7
280
     0
281
    50
282
    50
283
     0
360
55C
 71
     1
 91
        2
 14
-0.5
 24
-0.5
 14
69.5
 24
8.5
  0
MTEXT
  5
55A
100
AcDbEntity
  8
レイヤー_1
 62
     7
100
AcDbMText
 10
113.418056
 20
46.024901
 30
0.0
 40
1.574901
 41
0.0
 71
     1
 72
     2
  1
\fOsaka|b0|i0|c128;\H1.5749;\C7;\U+4ED5\U+4E0A
  7
STD
210
0.0
220
0.0
230
1.0
 73
     1
 44
1.0
  0
MTEXT
  5
559
100
AcDbEntity
  8
レイヤー_1
 62
     7
100
AcDbMText
 10
124.765511
 20
40.968165
 30
0.0
 40
1.162843
 41
0.0
 71
     1
 72
     2
  1
\fOsaka|b0|i0|c128;\H1.1628;\W2.71;\C7;
  7
STD
210
0.0
220
0.0
230
1.0
 73
     1
 44
1.0
  0
POLYLINE
  5
53D
100
AcDbEntity
  8
レイヤー_2
 62
     7
100
AcDb2dPolyline
 66
     1
 10
0.0
 20
0.0
 30
0.0
  0
VERTEX
  5
53E
100
AcDbEntity
  8
レイヤー_2
 62
     7
100
AcDbVertex
100
AcDb2dVertex
 10
56.496982
 20
93.656643
 30
0.0
  0
VERTEX
  5
53F
100
AcDbEntity
  8
レイヤー_2
 62
     7
100
AcDbVertex
100
AcDb2dVertex
 10
56.356078
 20
94.573383
 30
0.0
  0
VERTEX
  5
540
100
AcDbEntity
  8
レイヤー_2
 62
     7
100
AcDbVertex
100
AcDb2dVertex
 10
56.002955
 20
95.491846
 30
0.0
  0
VERTEX
  5
541
100
AcDbEntity
  8
レイヤー_2
 62
     7
100
AcDbVertex
100
AcDb2dVertex
 10
55.437443
 20
96.196712
 30
0.0
  0
VERTEX
  5
542
100
AcDbEntity
  8
レイヤー_2
 62
     7
100
AcDbVertex
100
AcDb2dVertex
 10
54.662469
 20
96.833366
 30
0.0
  0
VERTEX
  5
543
100
AcDbEntity
  8
レイヤー_2
 62
     7
100
AcDbVertex
100
AcDb2dVertex
 10
53.742973
 20
97.184766
 30
0.0
  0
VERTEX
  5
544
100
AcDbEntity
  8
レイヤー_2
 62
     7
100
AcDbVertex
100
AcDb2dVertex
 10
52.825199
 20
97.327393
 30
0.0
  0
VERTEX
  5
545
100
AcDbEntity
  8
レイヤー_2
 62
     7
100
AcDbVertex
100
AcDb2dVertex
 10
51.908459
 20
97.184766
 30
0.0
  0
VERTEX
  5
546
100
AcDbEntity
  8
レイヤー_2
 62
     7
100
AcDbVertex
100
AcDb2dVertex
 10
50.990686
 20
96.833366
 30
0.0
  0
VERTEX
  5
547
100
AcDbEntity
  8
レイヤー_2
 62
     7
100
AcDbVertex
100
AcDb2dVertex
 10
50.284441
 20
96.196712
 30
0.0
  0
VERTEX
  5
548
100
AcDbEntity
  8
レイヤー_2
 62
     7
100
AcDbVertex
100
AcDb2dVertex
 10
49.648649
 20
95.491846
 30
0.0
  0
VERTEX
  5
549
100
AcDbEntity
  8
レイヤー_2
 62
     7
100
AcDbVertex
100
AcDb2dVertex
 10
49.295527
 20
94.573383
 30
0.0
  0
VERTEX
  5
54A
100
AcDbEntity
  8
レイヤー_2
 62
     7
100
AcDbVertex
100
AcDb2dVertex
 10
49.153761
 20
93.656643
 30
0.0
  0
VERTEX
  5
54B
100
AcDbEntity
  8
レイヤー_2
 62
     7
100
AcDbVertex
100
AcDb2dVertex
 10
49.295527
 20
92.738181
 30
0.0
  0
VERTEX
  5
54C
100
AcDbEntity
  8
レイヤー_2
 62
     7
100
AcDbVertex
100
AcDb2dVertex
 10
49.648649
 20
91.819374
 30
0.0
  0
VERTEX
  5
54D
100
AcDbEntity
  8
レイヤー_2
 62
     7
100
AcDbVertex
100
AcDb2dVertex
 10
50.284441
 20
91.043538
 30
0.0
  0
VERTEX
  5
54E
100
AcDbEntity
  8
レイヤー_2
 62
     7
100
AcDbVertex
100
AcDb2dVertex
 10
50.990686
 20
90.478198
 30
0.0
  0
VERTEX
  5
54F
100
AcDbEntity
  8
レイヤー_2
 62
     7
100
AcDbVertex
100
AcDb2dVertex
 10
51.908459
 20
90.126799
 30
0.0
  0
VERTEX
  5
550
100
AcDbEntity
  8
レイヤー_2
 62
     7
100
AcDbVertex
100
AcDb2dVertex
 10
52.825199
 20
89.984172
 30
0.0
  0
VERTEX
  5
551
100
AcDbEntity
  8
レイヤー_2
 62
     7
100
AcDbVertex
100
AcDb2dVertex
 10
53.742973
 20
90.126799
 30
0.0
  0
VERTEX
  5
552
100
AcDbEntity
  8
レイヤー_2
 62
     7
100
AcDbVertex
100
AcDb2dVertex
 10
54.662469
 20
90.478198
 30
0.0
  0
VERTEX
  5
553
100
AcDbEntity
  8
レイヤー_2
 62
     7
100
AcDbVertex
100
AcDb2dVertex
 10
55.437443
 20
91.043538
 30
0.0
  0
VERTEX
  5
554
100
AcDbEntity
  8
レイヤー_2
 62
     7
100
AcDbVertex
100
AcDb2dVertex
 10
56.002955
 20
91.819374
 30
0.0
  0
VERTEX
  5
555
100
AcDbEntity
  8
レイヤー_2
 62
     7
100
AcDbVertex
100
AcDb2dVertex
 10
56.356078
 20
92.738181
 30
0.0
  0
VERTEX
  5
556
100
AcDbEntity
  8
レイヤー_2
 62
     7
100
AcDbVertex
100
AcDb2dVertex
 10
56.496982
 20
93.656643
 30
0.0
  0
SEQEND
  5
557
100
AcDbEntity
  8
レイヤー_2
 62
     7
  0
LINE
  5
53C
100
AcDbEntity
  8
レイヤー_2
 62
     7
100
AcDbLine
 10
47.106858
 20
159.78594
 30
0.0
 11
47.106858
 21
157.668757
 31
0.0
  0
LINE
  5
53B
100
AcDbEntity
  8
レイヤー_2
 62
     7
100
AcDbLine
 10
58.544575
 20
157.668757
 30
0.0
 11
58.544575
 21
159.78594
 31
0.0
  0
LINE
  5
53A
100
AcDbEntity
  8
レイヤー_2
 62
     7
100
AcDbLine
 10
50.072051
 20
223.327109
 30
0.0
 11
50.072051
 21
219.584874
 31
0.0
  0
LINE
  5
539
100
AcDbEntity
  8
レイヤー_2
 62
     7
100
AcDbLine
 10
55.579209
 20
219.584874
 30
0.0
 11
55.579209
 21
223.327109
 31
0.0
  0
LINE
  5
538
100
AcDbEntity
  8
レイヤー_2
 62
     7
100
AcDbLine
 10
56.002955
 20
224.386648
 30
0.0
 11
56.002955
 21
224.880847
 31
0.0
  0
LINE
  5
537
100
AcDbEntity
  8
レイヤー_2
 62
     7
100
AcDbLine
 10
49.718929
 20
224.880847
 30
0.0
 11
49.718929
 21
224.386648
 31
0.0
  0
LINE
  5
536
100
AcDbEntity
  8
レイヤー_2
 62
     7
100
AcDbLine
 10
49.718929
 20
224.386648
 30
0.0
 11
49.718929
 21
223.539327
 31
0.0
  0
LINE
  5
535
100
AcDbEntity
  8
レイヤー_2
 62
     7
100
AcDbLine
 10
56.002955
 20
223.539327
 30
0.0
 11
56.002955
 21
224.386648
 31
0.0
  0
LINE
  5
534
100
AcDbEntity
  8
レイヤー_2
 62
     7
100
AcDbLine
 10
49.718929
 20
223.539327
 30
0.0
 11
49.718929
 21
209.348462
 31
0.0
  0
LINE
  5
533
100
AcDbEntity
  8
レイヤー_2
 62
     7
100
AcDbLine
 10
56.002955
 20
209.348462
 30
0.0
 11
56.002955
 21
223.539327
 31
0.0
  0
LINE
  5
532
100
AcDbEntity
  8
レイヤー_2
 62
     7
100
AcDbLine
 10
56.002955
 20
159.78594
 30
0.0
 11
56.002955
 21
209.348462
 31
0.0
  0
LINE
  5
531
100
AcDbEntity
  8
レイヤー_2
 62
     7
100
AcDbLine
 10
49.718929
 20
209.348462
 30
0.0
 11
49.718929
 21
159.78594
 31
0.0
  0
LINE
  5
530
100
AcDbEntity
  8
レイヤー_2
 62
     7
100
AcDbLine
 10
68.146917
 20
159.78594
 30
0.0
 11
68.146917
 21
157.668757
 31
0.0
  0
LINE
  5
52F
100
AcDbEntity
  8
レイヤー_2
 62
     7
100
AcDbLine
 10
79.583945
 20
157.668757
 30
0.0
 11
79.583945
 21
159.78594
 31
0.0
  0
POLYLINE
  5
52A
100
AcDbEntity
  8
レイヤー_2
 62
     7
100
AcDb2dPolyline
 66
     1
 10
0.0
 20
0.0
 30
0.0
  0
VERTEX
  5
52B
100
AcDbEntity
  8
レイヤー_2
 62
     7
100
AcDbVertex
100
AcDb2dVertex
 10
78.313049
 20
174.189023
 30
0.0
  0
VERTEX
  5
52C
100
AcDbEntity
  8
レイヤー_2
 62
     7
100
AcDbVertex
100
AcDb2dVertex
 10
78.241908
 20
174.258786
 30
0.0
  0
VERTEX
  5
52D
100
AcDbEntity
  8
レイヤー_2
 62
     7
100
AcDbVertex
100
AcDb2dVertex
 10
78.101693
 20
174.328377
 30
0.0
  0
SEQEND
  5
52E
100
AcDbEntity
  8
レイヤー_2
 62
     7
  0
POLYLINE
  5
525
100
AcDbEntity
  8
レイヤー_2
 62
     7
100
AcDb2dPolyline
 66
     1
 10
0.0
 20
0.0
 30
0.0
  0
VERTEX
  5
526
100
AcDbEntity
  8
レイヤー_2
 62
     7
100
AcDbVertex
100
AcDb2dVertex
 10
69.629342
 20
174.328377
 30
0.0
  0
VERTEX
  5
527
100
AcDbEntity
  8
レイヤー_2
 62
     7
100
AcDbVertex
100
AcDb2dVertex
 10
69.487576
 20
174.258786
 30
0.0
  0
VERTEX
  5
528
100
AcDbEntity
  8
レイヤー_2
 62
     7
100
AcDbVertex
100
AcDb2dVertex
 10
69.416951
 20
174.189023
 30
0.0
  0
SEQEND
  5
529
100
AcDbEntity
  8
レイヤー_2
 62
     7
  0
LINE
  5
524
100
AcDbEntity
  8
レイヤー_2
 62
     7
100
AcDbLine
 10
78.313049
 20
169.669402
 30
0.0
 11
78.313049
 21
174.189023
 31
0.0
  0
LINE
  5
523
100
AcDbEntity
  8
レイヤー_2
 62
     7
100
AcDbLine
 10
69.416951
 20
174.189023
 30
0.0
 11
69.416951
 21
169.669402
 31
0.0
  0
POLYLINE
  5
51E
100
AcDbEntity
  8
レイヤー_2
 62
     7
100
AcDb2dPolyline
 66
     1
 10
0.0
 20
0.0
 30
0.0
  0
VERTEX
  5
51F
100
AcDbEntity
  8
レイヤー_2
 62
     7
100
AcDbVertex
100
AcDb2dVertex
 10
69.840698
 20
169.175203
 30
0.0
  0
VERTEX
  5
520
100
AcDbEntity
  8
レイヤー_2
 62
     7
100
AcDbVertex
100
AcDb2dVertex
 10
69.91115
 20
169.175203
 30
0.0
  0
VERTEX
  5
521
100
AcDbEntity
  8
レイヤー_2
 62
     7
100
AcDbVertex
100
AcDb2dVertex
 10
69.98143
 20
169.317658
 30
0.0
  0
SEQEND
  5
522
100
AcDbEntity
  8
レイヤー_2
 62
     7
  0
POLYLINE
  5
519
100
AcDbEntity
  8
レイヤー_2
 62
     7
100
AcDb2dPolyline
 66
     1
 10
0.0
 20
0.0
 30
0.0
  0
VERTEX
  5
51A
100
AcDbEntity
  8
レイヤー_2
 62
     7
100
AcDbVertex
100
AcDb2dVertex
 10
77.747709
 20
169.317658
 30
0.0
  0
VERTEX
  5
51B
100
AcDbEntity
  8
レイヤー_2
 62
     7
100
AcDbVertex
100
AcDb2dVertex
 10
77.819023
 20
169.175203
 30
0.0
  0
VERTEX
  5
51C
100
AcDbEntity
  8
レイヤー_2
 62
     7
100
AcDbVertex
100
AcDb2dVertex
 10
77.889475
 20
169.175203
 30
0.0
  0
SEQEND
  5
51D
100
AcDbEntity
  8
レイヤー_2
 62
     7
  0
LINE
  5
518
100
AcDbEntity
  8
レイヤー_2
 62
     7
100
AcDbLine
 10
69.98143
 20
169.599639
 30
0.0
 11
69.98143
 21
169.317658
 31
0.0
  0
LINE
  5
517
100
AcDbEntity
  8
レイヤー_2
 62
     7
100
AcDbLine
 10
77.747709
 20
169.317658
 30
0.0
 11
77.747709
 21
169.599639
 31
0.0
  0
LINE
  5
516
100
AcDbEntity
  8
レイヤー_2
 62
     7
100
AcDbLine
 10
69.416951
 20
169.175203
 30
0.0
 11
69.416951
 21
159.78594
 31
0.0
  0
LINE
  5
515
100
AcDbEntity
  8
レイヤー_2
 62
     7
100
AcDbLine
 10
78.313049
 20
159.78594
 30
0.0
 11
78.313049
 21
169.175203
 31
0.0
  0
LINE
  5
514
100
AcDbEntity
  8
レイヤー_2
 62
     7
100
AcDbLine
 10
52.825199
 20
157.668757
 30
0.0
 11
58.544575
 21
157.668757
 31
0.0
  0
LINE
  5
513
100
AcDbEntity
  8
レイヤー_2
 62
     7
100
AcDbLine
 10
47.106858
 20
157.668757
 30
0.0
 11
52.825199
 21
157.668757
 31
0.0
  0
LINE
  5
512
100
AcDbEntity
  8
レイヤー_2
 62
     7
100
AcDbLine
 10
52.825199
 20
159.78594
 30
0.0
 11
58.544575
 21
159.78594
 31
0.0
  0
LINE
  5
511
100
AcDbEntity
  8
レイヤー_2
 62
     7
100
AcDbLine
 10
47.106858
 20
159.78594
 30
0.0
 11
52.825199
 21
159.78594
 31
0.0
  0
POLYLINE
  5
500
100
AcDbEntity
  8
レイヤー_2
 62
     7
100
AcDb2dPolyline
 66
     1
 10
0.0
 20
0.0
 30
0.0
  0
VERTEX
  5
501
100
AcDbEntity
  8
レイヤー_2
 62
     7
100
AcDbVertex
100
AcDb2dVertex
 10
50.284441
 20
219.584874
 30
0.0
  0
VERTEX
  5
502
100
AcDbEntity
  8
レイヤー_2
 62
     7
100
AcDbVertex
100
AcDb2dVertex
 10
50.84892
 20
219.584874
 30
0.0
  0
VERTEX
  5
503
100
AcDbEntity
  8
レイヤー_2
 62
     7
100
AcDbVertex
100
AcDb2dVertex
 10
51.131763
 20
219.656188
 30
0.0
  0
VERTEX
  5
504
100
AcDbEntity
  8
レイヤー_2
 62
     7
100
AcDbVertex
100
AcDb2dVertex
 10
54.73206
 20
219.656188
 30
0.0
  0
VERTEX
  5
505
100
AcDbEntity
  8
レイヤー_2
 62
     7
100
AcDbVertex
100
AcDb2dVertex
 10
54.943589
 20
219.584874
 30
0.0
  0
VERTEX
  5
506
100
AcDbEntity
  8
レイヤー_2
 62
     7
100
AcDbVertex
100
AcDb2dVertex
 10
55.437443
 20
219.584874
 30
0.0
  0
VERTEX
  5
507
100
AcDbEntity
  8
レイヤー_2
 62
     7
100
AcDbVertex
100
AcDb2dVertex
 10
55.2974
 20
219.514594
 30
0.0
  0
VERTEX
  5
508
100
AcDbEntity
  8
レイヤー_2
 62
     7
100
AcDbVertex
100
AcDb2dVertex
 10
54.026676
 20
219.514594
 30
0.0
  0
VERTEX
  5
509
100
AcDbEntity
  8
レイヤー_2
 62
     7
100
AcDbVertex
100
AcDb2dVertex
 10
53.602068
 20
219.444142
 30
0.0
  0
VERTEX
  5
50A
100
AcDbEntity
  8
レイヤー_2
 62
     7
100
AcDbVertex
100
AcDb2dVertex
 10
53.178322
 20
219.444142
 30
0.0
  0
VERTEX
  5
50B
100
AcDbEntity
  8
レイヤー_2
 62
     7
100
AcDbVertex
100
AcDb2dVertex
 10
52.754919
 20
219.444142
 30
0.0
  0
VERTEX
  5
50C
100
AcDbEntity
  8
レイヤー_2
 62
     7
100
AcDbVertex
100
AcDb2dVertex
 10
51.908459
 20
219.444142
 30
0.0
  0
VERTEX
  5
50D
100
AcDbEntity
  8
レイヤー_2
 62
     7
100
AcDbVertex
100
AcDb2dVertex
 10
51.484885
 20
219.514594
 30
0.0
  0
VERTEX
  5
50E
100
AcDbEntity
  8
レイヤー_2
 62
     7
100
AcDbVertex
100
AcDb2dVertex
 10
50.284441
 20
219.514594
 30
0.0
  0
VERTEX
  5
50F
100
AcDbEntity
  8
レイヤー_2
 62
     7
100
AcDbVertex
100
AcDb2dVertex
 10
50.284441
 20
219.584874
 30
0.0
  0
SEQEND
  5
510
100
AcDbEntity
  8
レイヤー_2
 62
     7
  0
POLYLINE
  5
4EF
100
AcDbEntity
  8
レイヤー_2
 62
     7
100
AcDb2dPolyline
 66
     1
 10
0.0
 20
0.0
 30
0.0
  0
VERTEX
  5
4F0
100
AcDbEntity
  8
レイヤー_2
 62
     7
100
AcDbVertex
100
AcDb2dVertex
 10
50.072051
 20
219.584874
 30
0.0
  0
VERTEX
  5
4F1
100
AcDbEntity
  8
レイヤー_2
 62
     7
100
AcDbVertex
100
AcDb2dVertex
 10
50.637564
 20
219.584874
 30
0.0
  0
VERTEX
  5
4F2
100
AcDbEntity
  8
レイヤー_2
 62
     7
100
AcDbVertex
100
AcDb2dVertex
 10
50.990686
 20
219.656188
 30
0.0
  0
VERTEX
  5
4F3
100
AcDbEntity
  8
レイヤー_2
 62
     7
100
AcDbVertex
100
AcDb2dVertex
 10
54.73206
 20
219.656188
 30
0.0
  0
VERTEX
  5
4F4
100
AcDbEntity
  8
レイヤー_2
 62
     7
100
AcDbVertex
100
AcDb2dVertex
 10
55.01473
 20
219.584874
 30
0.0
  0
VERTEX
  5
4F5
100
AcDbEntity
  8
レイヤー_2
 62
     7
100
AcDbVertex
100
AcDb2dVertex
 10
55.579209
 20
219.584874
 30
0.0
  0
VERTEX
  5
4F6
100
AcDbEntity
  8
レイヤー_2
 62
     7
100
AcDbVertex
100
AcDb2dVertex
 10
55.579209
 20
219.514594
 30
0.0
  0
VERTEX
  5
4F7
100
AcDbEntity
  8
レイヤー_2
 62
     7
100
AcDbVertex
100
AcDb2dVertex
 10
54.73206
 20
219.514594
 30
0.0
  0
VERTEX
  5
4F8
100
AcDbEntity
  8
レイヤー_2
 62
     7
100
AcDbVertex
100
AcDb2dVertex
 10
54.378765
 20
219.444142
 30
0.0
  0
VERTEX
  5
4F9
100
AcDbEntity
  8
レイヤー_2
 62
     7
100
AcDbVertex
100
AcDb2dVertex
 10
53.532477
 20
219.444142
 30
0.0
  0
VERTEX
  5
4FA
100
AcDbEntity
  8
レイヤー_2
 62
     7
100
AcDbVertex
100
AcDb2dVertex
 10
53.038279
 20
219.444142
 30
0.0
  0
VERTEX
  5
4FB
100
AcDbEntity
  8
レイヤー_2
 62
     7
100
AcDbVertex
100
AcDb2dVertex
 10
51.343119
 20
219.444142
 30
0.0
  0
VERTEX
  5
4FC
100
AcDbEntity
  8
レイヤー_2
 62
     7
100
AcDbVertex
100
AcDb2dVertex
 10
50.990686
 20
219.514594
 30
0.0
  0
VERTEX
  5
4FD
100
AcDbEntity
  8
レイヤー_2
 62
     7
100
AcDbVertex
100
AcDb2dVertex
 10
50.143537
 20
219.514594
 30
0.0
  0
VERTEX
  5
4FE
100
AcDbEntity
  8
レイヤー_2
 62
     7
100
AcDbVertex
100
AcDb2dVertex
 10
50.072051
 20
219.584874
 30
0.0
  0
SEQEND
  5
4FF
100
AcDbEntity
  8
レイヤー_2
 62
     7
  0
POLYLINE
  5
4C7
100
AcDbEntity
  8
レイヤー_2
 62
     7
100
AcDb2dPolyline
 66
     1
 10
0.0
 20
0.0
 30
0.0
  0
VERTEX
  5
4C8
100
AcDbEntity
  8
レイヤー_2
 62
     7
100
AcDbVertex
100
AcDb2dVertex
 10
49.718929
 20
224.880847
 30
0.0
  0
VERTEX
  5
4C9
100
AcDbEntity
  8
レイヤー_2
 62
     7
100
AcDbVertex
100
AcDb2dVertex
 10
49.718929
 20
225.374874
 30
0.0
  0
VERTEX
  5
4CA
100
AcDbEntity
  8
レイヤー_2
 62
     7
100
AcDbVertex
100
AcDb2dVertex
 10
49.860695
 20
225.868901
 30
0.0
  0
VERTEX
  5
4CB
100
AcDbEntity
  8
レイヤー_2
 62
     7
100
AcDbVertex
100
AcDb2dVertex
 10
50.284441
 20
226.71605
 30
0.0
  0
VERTEX
  5
4CC
100
AcDbEntity
  8
レイヤー_2
 62
     7
100
AcDbVertex
100
AcDb2dVertex
 10
50.56625
 20
227.069172
 30
0.0
  0
VERTEX
  5
4CD
100
AcDbEntity
  8
レイヤー_2
 62
     7
100
AcDbVertex
100
AcDb2dVertex
 10
50.920406
 20
227.422294
 30
0.0
  0
VERTEX
  5
4CE
100
AcDbEntity
  8
レイヤー_2
 62
     7
100
AcDbVertex
100
AcDb2dVertex
 10
51.766694
 20
227.846041
 30
0.0
  0
VERTEX
  5
4CF
100
AcDbEntity
  8
レイヤー_2
 62
     7
100
AcDbVertex
100
AcDb2dVertex
 10
52.26072
 20
227.986945
 30
0.0
  0
VERTEX
  5
4D0
100
AcDbEntity
  8
レイヤー_2
 62
     7
100
AcDbVertex
100
AcDb2dVertex
 10
52.754919
 20
228.057397
 30
0.0
  0
VERTEX
  5
4D1
100
AcDbEntity
  8
レイヤー_2
 62
     7
100
AcDbVertex
100
AcDb2dVertex
 10
53.178322
 20
227.986945
 30
0.0
  0
VERTEX
  5
4D2
100
AcDbEntity
  8
レイヤー_2
 62
     7
100
AcDbVertex
100
AcDb2dVertex
 10
53.672521
 20
227.916493
 30
0.0
  0
VERTEX
  5
4D3
100
AcDbEntity
  8
レイヤー_2
 62
     7
100
AcDbVertex
100
AcDb2dVertex
 10
54.096956
 20
227.774727
 30
0.0
  0
VERTEX
  5
4D4
100
AcDbEntity
  8
レイヤー_2
 62
     7
100
AcDbVertex
100
AcDb2dVertex
 10
54.520703
 20
227.563371
 30
0.0
  0
VERTEX
  5
4D5
100
AcDbEntity
  8
レイヤー_2
 62
     7
100
AcDbVertex
100
AcDb2dVertex
 10
54.943589
 20
227.280528
 30
0.0
  0
VERTEX
  5
4D6
100
AcDbEntity
  8
レイヤー_2
 62
     7
100
AcDbVertex
100
AcDb2dVertex
 10
55.226086
 20
226.92844
 30
0.0
  0
VERTEX
  5
4D7
100
AcDbEntity
  8
レイヤー_2
 62
     7
100
AcDbVertex
100
AcDb2dVertex
 10
55.508757
 20
226.504693
 30
0.0
  0
VERTEX
  5
4D8
100
AcDbEntity
  8
レイヤー_2
 62
     7
100
AcDbVertex
100
AcDb2dVertex
 10
55.720113
 20
226.080257
 30
0.0
  0
VERTEX
  5
4D9
100
AcDbEntity
  8
レイヤー_2
 62
     7
100
AcDbVertex
100
AcDb2dVertex
 10
55.861879
 20
225.657372
 30
0.0
  0
VERTEX
  5
4DA
100
AcDbEntity
  8
レイヤー_2
 62
     7
100
AcDbVertex
100
AcDb2dVertex
 10
55.931642
 20
225.163517
 30
0.0
  0
VERTEX
  5
4DB
100
AcDbEntity
  8
レイヤー_2
 62
     7
100
AcDbVertex
100
AcDb2dVertex
 10
55.931642
 20
224.669318
 30
0.0
  0
VERTEX
  5
4DC
100
AcDbEntity
  8
レイヤー_2
 62
     7
100
AcDbVertex
100
AcDb2dVertex
 10
55.861879
 20
224.174258
 30
0.0
  0
VERTEX
  5
4DD
100
AcDbEntity
  8
レイヤー_2
 62
     7
100
AcDbVertex
100
AcDb2dVertex
 10
55.720113
 20
223.750856
 30
0.0
  0
VERTEX
  5
4DE
100
AcDbEntity
  8
レイヤー_2
 62
     7
100
AcDbVertex
100
AcDb2dVertex
 10
55.508757
 20
223.327109
 30
0.0
  0
VERTEX
  5
4DF
100
AcDbEntity
  8
レイヤー_2
 62
     7
100
AcDbVertex
100
AcDb2dVertex
 10
55.226086
 20
222.903535
 30
0.0
  0
VERTEX
  5
4E0
100
AcDbEntity
  8
レイヤー_2
 62
     7
100
AcDbVertex
100
AcDb2dVertex
 10
54.943589
 20
222.551101
 30
0.0
  0
VERTEX
  5
4E1
100
AcDbEntity
  8
レイヤー_2
 62
     7
100
AcDbVertex
100
AcDb2dVertex
 10
54.520703
 20
222.268431
 30
0.0
  0
VERTEX
  5
4E2
100
AcDbEntity
  8
レイヤー_2
 62
     7
100
AcDbVertex
100
AcDb2dVertex
 10
54.096956
 20
222.057075
 30
0.0
  0
VERTEX
  5
4E3
100
AcDbEntity
  8
レイヤー_2
 62
     7
100
AcDbVertex
100
AcDb2dVertex
 10
53.672521
 20
221.915309
 30
0.0
  0
VERTEX
  5
4E4
100
AcDbEntity
  8
レイヤー_2
 62
     7
100
AcDbVertex
100
AcDb2dVertex
 10
53.178322
 20
221.844857
 30
0.0
  0
VERTEX
  5
4E5
100
AcDbEntity
  8
レイヤー_2
 62
     7
100
AcDbVertex
100
AcDb2dVertex
 10
52.754919
 20
221.774405
 30
0.0
  0
VERTEX
  5
4E6
100
AcDbEntity
  8
レイヤー_2
 62
     7
100
AcDbVertex
100
AcDb2dVertex
 10
52.26072
 20
221.844857
 30
0.0
  0
VERTEX
  5
4E7
100
AcDbEntity
  8
レイヤー_2
 62
     7
100
AcDbVertex
100
AcDb2dVertex
 10
51.766694
 20
221.985933
 30
0.0
  0
VERTEX
  5
4E8
100
AcDbEntity
  8
レイヤー_2
 62
     7
100
AcDbVertex
100
AcDb2dVertex
 10
50.920406
 20
222.409336
 30
0.0
  0
VERTEX
  5
4E9
100
AcDbEntity
  8
レイヤー_2
 62
     7
100
AcDbVertex
100
AcDb2dVertex
 10
50.56625
 20
222.762458
 30
0.0
  0
VERTEX
  5
4EA
100
AcDbEntity
  8
レイヤー_2
 62
     7
100
AcDbVertex
100
AcDb2dVertex
 10
50.284441
 20
223.11558
 30
0.0
  0
VERTEX
  5
4EB
100
AcDbEntity
  8
レイヤー_2
 62
     7
100
AcDbVertex
100
AcDb2dVertex
 10
49.860695
 20
223.962212
 30
0.0
  0
VERTEX
  5
4EC
100
AcDbEntity
  8
レイヤー_2
 62
     7
100
AcDbVertex
100
AcDb2dVertex
 10
49.718929
 20
224.4571
 30
0.0
  0
VERTEX
  5
4ED
100
AcDbEntity
  8
レイヤー_2
 62
     7
100
AcDbVertex
100
AcDb2dVertex
 10
49.718929
 20
224.880847
 30
0.0
  0
SEQEND
  5
4EE
100
AcDbEntity
  8
レイヤー_2
 62
     7
  0
POLYLINE
  5
4C0
100
AcDbEntity
  8
レイヤー_2
 62
     7
100
AcDb2dPolyline
 66
     1
 10
0.0
 20
0.0
 30
0.0
  0
VERTEX
  5
4C1
100
AcDbEntity
  8
レイヤー_2
 62
     7
100
AcDbVertex
100
AcDb2dVertex
 10
56.002955
 20
224.386648
 30
0.0
  0
VERTEX
  5
4C2
100
AcDbEntity
  8
レイヤー_2
 62
     7
100
AcDbVertex
100
AcDb2dVertex
 10
55.931642
 20
224.174258
 30
0.0
  0
VERTEX
  5
4C3
100
AcDbEntity
  8
レイヤー_2
 62
     7
100
AcDbVertex
100
AcDb2dVertex
 10
55.861879
 20
223.680404
 30
0.0
  0
VERTEX
  5
4C4
100
AcDbEntity
  8
レイヤー_2
 62
     7
100
AcDbVertex
100
AcDb2dVertex
 10
55.720113
 20
223.256657
 30
0.0
  0
VERTEX
  5
4C5
100
AcDbEntity
  8
レイヤー_2
 62
     7
100
AcDbVertex
100
AcDb2dVertex
 10
55.579209
 20
222.973987
 30
0.0
  0
SEQEND
  5
4C6
100
AcDbEntity
  8
レイヤー_2
 62
     7
  0
POLYLINE
  5
4B9
100
AcDbEntity
  8
レイヤー_2
 62
     7
100
AcDb2dPolyline
 66
     1
 10
0.0
 20
0.0
 30
0.0
  0
VERTEX
  5
4BA
100
AcDbEntity
  8
レイヤー_2
 62
     7
100
AcDbVertex
100
AcDb2dVertex
 10
50.072051
 20
222.973987
 30
0.0
  0
VERTEX
  5
4BB
100
AcDbEntity
  8
レイヤー_2
 62
     7
100
AcDbVertex
100
AcDb2dVertex
 10
50.072051
 20
223.0453
 30
0.0
  0
VERTEX
  5
4BC
100
AcDbEntity
  8
レイヤー_2
 62
     7
100
AcDbVertex
100
AcDb2dVertex
 10
49.860695
 20
223.468014
 30
0.0
  0
VERTEX
  5
4BD
100
AcDbEntity
  8
レイヤー_2
 62
     7
100
AcDbVertex
100
AcDb2dVertex
 10
49.718929
 20
223.962212
 30
0.0
  0
VERTEX
  5
4BE
100
AcDbEntity
  8
レイヤー_2
 62
     7
100
AcDbVertex
100
AcDb2dVertex
 10
49.718929
 20
224.386648
 30
0.0
  0
SEQEND
  5
4BF
100
AcDbEntity
  8
レイヤー_2
 62
     7
  0
POLYLINE
  5
4AE
100
AcDbEntity
  8
レイヤー_2
 62
     7
100
AcDb2dPolyline
 66
     1
 10
0.0
 20
0.0
 30
0.0
  0
VERTEX
  5
4AF
100
AcDbEntity
  8
レイヤー_2
 62
     7
100
AcDbVertex
100
AcDb2dVertex
 10
50.072051
 20
223.327109
 30
0.0
  0
VERTEX
  5
4B0
100
AcDbEntity
  8
レイヤー_2
 62
     7
100
AcDbVertex
100
AcDb2dVertex
 10
50.56625
 20
222.691317
 30
0.0
  0
VERTEX
  5
4B1
100
AcDbEntity
  8
レイヤー_2
 62
     7
100
AcDbVertex
100
AcDb2dVertex
 10
51.201354
 20
222.19729
 30
0.0
  0
VERTEX
  5
4B2
100
AcDbEntity
  8
レイヤー_2
 62
     7
100
AcDbVertex
100
AcDb2dVertex
 10
51.978912
 20
221.844857
 30
0.0
  0
VERTEX
  5
4B3
100
AcDbEntity
  8
レイヤー_2
 62
     7
100
AcDbVertex
100
AcDb2dVertex
 10
52.825199
 20
221.774405
 30
0.0
  0
VERTEX
  5
4B4
100
AcDbEntity
  8
レイヤー_2
 62
     7
100
AcDbVertex
100
AcDb2dVertex
 10
53.672521
 20
221.844857
 30
0.0
  0
VERTEX
  5
4B5
100
AcDbEntity
  8
レイヤー_2
 62
     7
100
AcDbVertex
100
AcDb2dVertex
 10
54.44939
 20
222.19729
 30
0.0
  0
VERTEX
  5
4B6
100
AcDbEntity
  8
レイヤー_2
 62
     7
100
AcDbVertex
100
AcDb2dVertex
 10
55.156323
 20
222.691317
 30
0.0
  0
VERTEX
  5
4B7
100
AcDbEntity
  8
レイヤー_2
 62
     7
100
AcDbVertex
100
AcDb2dVertex
 10
55.579209
 20
223.327109
 30
0.0
  0
SEQEND
  5
4B8
100
AcDbEntity
  8
レイヤー_2
 62
     7
  0
POLYLINE
  5
4A7
100
AcDbEntity
  8
レイヤー_2
 62
     7
100
AcDb2dPolyline
 66
     1
 10
0.0
 20
0.0
 30
0.0
  0
VERTEX
  5
4A8
100
AcDbEntity
  8
レイヤー_2
 62
     7
100
AcDbVertex
100
AcDb2dVertex
 10
49.718929
 20
224.386648
 30
0.0
  0
VERTEX
  5
4A9
100
AcDbEntity
  8
レイヤー_2
 62
     7
100
AcDbVertex
100
AcDb2dVertex
 10
49.718929
 20
223.892449
 30
0.0
  0
VERTEX
  5
4AA
100
AcDbEntity
  8
レイヤー_2
 62
     7
100
AcDbVertex
100
AcDb2dVertex
 10
49.860695
 20
223.468014
 30
0.0
  0
VERTEX
  5
4AB
100
AcDbEntity
  8
レイヤー_2
 62
     7
100
AcDbVertex
100
AcDb2dVertex
 10
50.072051
 20
223.0453
 30
0.0
  0
VERTEX
  5
4AC
100
AcDbEntity
  8
レイヤー_2
 62
     7
100
AcDbVertex
100
AcDb2dVertex
 10
50.072051
 20
222.903535
 30
0.0
  0
SEQEND
  5
4AD
100
AcDbEntity
  8
レイヤー_2
 62
     7
  0
POLYLINE
  5
4A0
100
AcDbEntity
  8
レイヤー_2
 62
     7
100
AcDb2dPolyline
 66
     1
 10
0.0
 20
0.0
 30
0.0
  0
VERTEX
  5
4A1
100
AcDbEntity
  8
レイヤー_2
 62
     7
100
AcDbVertex
100
AcDb2dVertex
 10
55.579209
 20
222.903535
 30
0.0
  0
VERTEX
  5
4A2
100
AcDbEntity
  8
レイヤー_2
 62
     7
100
AcDbVertex
100
AcDb2dVertex
 10
55.720113
 20
223.256657
 30
0.0
  0
VERTEX
  5
4A3
100
AcDbEntity
  8
レイヤー_2
 62
     7
100
AcDbVertex
100
AcDb2dVertex
 10
55.861879
 20
223.680404
 30
0.0
  0
VERTEX
  5
4A4
100
AcDbEntity
  8
レイヤー_2
 62
     7
100
AcDbVertex
100
AcDb2dVertex
 10
55.931642
 20
224.174258
 30
0.0
  0
VERTEX
  5
4A5
100
AcDbEntity
  8
レイヤー_2
 62
     7
100
AcDbVertex
100
AcDb2dVertex
 10
56.002955
 20
224.386648
 30
0.0
  0
SEQEND
  5
4A6
100
AcDbEntity
  8
レイヤー_2
 62
     7
  0
LINE
  5
49F
100
AcDbEntity
  8
レイヤー_2
 62
     7
100
AcDbLine
 10
73.86457
 20
159.78594
 30
0.0
 11
79.583945
 21
159.78594
 31
0.0
  0
LINE
  5
49E
100
AcDbEntity
  8
レイヤー_2
 62
     7
100
AcDbLine
 10
68.146917
 20
159.78594
 30
0.0
 11
73.86457
 21
159.78594
 31
0.0
  0
LINE
  5
49D
100
AcDbEntity
  8
レイヤー_2
 62
     7
100
AcDbLine
 10
73.653213
 20
157.668757
 30
0.0
 11
79.371727
 21
157.668757
 31
0.0
  0
LINE
  5
49C
100
AcDbEntity
  8
レイヤー_2
 62
     7
100
AcDbLine
 10
67.934871
 20
157.668757
 30
0.0
 11
73.653213
 21
157.668757
 31
0.0
  0
LINE
  5
49B
100
AcDbEntity
  8
レイヤー_2
 62
     7
100
AcDbLine
 10
74.570987
 20
170.23457
 30
0.0
 11
73.159186
 21
170.23457
 31
0.0
  0
POLYLINE
  5
496
100
AcDbEntity
  8
レイヤー_2
 62
     7
100
AcDb2dPolyline
 66
     1
 10
0.0
 20
0.0
 30
0.0
  0
VERTEX
  5
497
100
AcDbEntity
  8
レイヤー_2
 62
     7
100
AcDbVertex
100
AcDb2dVertex
 10
74.570987
 20
170.23457
 30
0.0
  0
VERTEX
  5
498
100
AcDbEntity
  8
レイヤー_2
 62
     7
100
AcDbVertex
100
AcDb2dVertex
 10
74.71258
 20
170.23457
 30
0.0
  0
VERTEX
  5
499
100
AcDbEntity
  8
レイヤー_2
 62
     7
100
AcDbVertex
100
AcDb2dVertex
 10
74.783204
 20
170.375647
 30
0.0
  0
SEQEND
  5
49A
100
AcDbEntity
  8
レイヤー_2
 62
     7
  0
POLYLINE
  5
491
100
AcDbEntity
  8
レイヤー_2
 62
     7
100
AcDb2dPolyline
 66
     1
 10
0.0
 20
0.0
 30
0.0
  0
VERTEX
  5
492
100
AcDbEntity
  8
レイヤー_2
 62
     7
100
AcDbVertex
100
AcDb2dVertex
 10
73.017421
 20
170.375647
 30
0.0
  0
VERTEX
  5
493
100
AcDbEntity
  8
レイヤー_2
 62
     7
100
AcDbVertex
100
AcDb2dVertex
 10
73.017421
 20
170.23457
 30
0.0
  0
VERTEX
  5
494
100
AcDbEntity
  8
レイヤー_2
 62
     7
100
AcDbVertex
100
AcDb2dVertex
 10
73.159186
 20
170.23457
 30
0.0
  0
SEQEND
  5
495
100
AcDbEntity
  8
レイヤー_2
 62
     7
  0
LINE
  5
490
100
AcDbEntity
  8
レイヤー_2
 62
     7
100
AcDbLine
 10
73.017421
 20
170.375647
 30
0.0
 11
73.017421
 21
174.189023
 31
0.0
  0
LINE
  5
48F
100
AcDbEntity
  8
レイヤー_2
 62
     7
100
AcDbLine
 10
74.71258
 20
174.189023
 30
0.0
 11
74.783204
 21
170.375647
 31
0.0
  0
LINE
  5
48E
100
AcDbEntity
  8
レイヤー_2
 62
     7
100
AcDbLine
 10
73.229811
 20
174.399519
 30
0.0
 11
74.500534
 21
174.399519
 31
0.0
  0
POLYLINE
  5
489
100
AcDbEntity
  8
レイヤー_2
 62
     7
100
AcDb2dPolyline
 66
     1
 10
0.0
 20
0.0
 30
0.0
  0
VERTEX
  5
48A
100
AcDbEntity
  8
レイヤー_2
 62
     7
100
AcDbVertex
100
AcDb2dVertex
 10
73.229811
 20
174.399519
 30
0.0
  0
VERTEX
  5
48B
100
AcDbEntity
  8
レイヤー_2
 62
     7
100
AcDbVertex
100
AcDb2dVertex
 10
73.087873
 20
174.328377
 30
0.0
  0
VERTEX
  5
48C
100
AcDbEntity
  8
レイヤー_2
 62
     7
100
AcDbVertex
100
AcDb2dVertex
 10
73.017421
 20
174.189023
 30
0.0
  0
SEQEND
  5
48D
100
AcDbEntity
  8
レイヤー_2
 62
     7
  0
POLYLINE
  5
484
100
AcDbEntity
  8
レイヤー_2
 62
     7
100
AcDb2dPolyline
 66
     1
 10
0.0
 20
0.0
 30
0.0
  0
VERTEX
  5
485
100
AcDbEntity
  8
レイヤー_2
 62
     7
100
AcDbVertex
100
AcDb2dVertex
 10
74.71258
 20
174.189023
 30
0.0
  0
VERTEX
  5
486
100
AcDbEntity
  8
レイヤー_2
 62
     7
100
AcDbVertex
100
AcDb2dVertex
 10
74.641439
 20
174.328377
 30
0.0
  0
VERTEX
  5
487
100
AcDbEntity
  8
レイヤー_2
 62
     7
100
AcDbVertex
100
AcDb2dVertex
 10
74.500534
 20
174.399519
 30
0.0
  0
SEQEND
  5
488
100
AcDbEntity
  8
レイヤー_2
 62
     7
  0
POLYLINE
  5
47E
100
AcDbEntity
  8
レイヤー_2
 62
     7
100
AcDb2dPolyline
 66
     1
 10
0.0
 20
0.0
 30
0.0
  0
VERTEX
  5
47F
100
AcDbEntity
  8
レイヤー_2
 62
     7
100
AcDbVertex
100
AcDb2dVertex
 10
74.783204
 20
174.399519
 30
0.0
  0
VERTEX
  5
480
100
AcDbEntity
  8
レイヤー_2
 62
     7
100
AcDbVertex
100
AcDb2dVertex
 10
75.206779
 20
174.399519
 30
0.0
  0
VERTEX
  5
481
100
AcDbEntity
  8
レイヤー_2
 62
     7
100
AcDbVertex
100
AcDb2dVertex
 10
75.912335
 20
174.328377
 30
0.0
  0
VERTEX
  5
482
100
AcDbEntity
  8
レイヤー_2
 62
     7
100
AcDbVertex
100
AcDb2dVertex
 10
78.101693
 20
174.328377
 30
0.0
  0
SEQEND
  5
483
100
AcDbEntity
  8
レイヤー_2
 62
     7
  0
POLYLINE
  5
479
100
AcDbEntity
  8
レイヤー_2
 62
     7
100
AcDb2dPolyline
 66
     1
 10
0.0
 20
0.0
 30
0.0
  0
VERTEX
  5
47A
100
AcDbEntity
  8
レイヤー_2
 62
     7
100
AcDbVertex
100
AcDb2dVertex
 10
69.629342
 20
174.328377
 30
0.0
  0
VERTEX
  5
47B
100
AcDbEntity
  8
レイヤー_2
 62
     7
100
AcDbVertex
100
AcDb2dVertex
 10
72.241413
 20
174.328377
 30
0.0
  0
VERTEX
  5
47C
100
AcDbEntity
  8
レイヤー_2
 62
     7
100
AcDbVertex
100
AcDb2dVertex
 10
72.947658
 20
174.399519
 30
0.0
  0
SEQEND
  5
47D
100
AcDbEntity
  8
レイヤー_2
 62
     7
  0
POLYLINE
  5
473
100
AcDbEntity
  8
レイヤー_2
 62
     7
100
AcDb2dPolyline
 66
     1
 10
0.0
 20
0.0
 30
0.0
  0
VERTEX
  5
474
100
AcDbEntity
  8
レイヤー_2
 62
     7
100
AcDbVertex
100
AcDb2dVertex
 10
74.500534
 20
174.399519
 30
0.0
  0
VERTEX
  5
475
100
AcDbEntity
  8
レイヤー_2
 62
     7
100
AcDbVertex
100
AcDb2dVertex
 10
74.570987
 20
174.399519
 30
0.0
  0
VERTEX
  5
476
100
AcDbEntity
  8
レイヤー_2
 62
     7
100
AcDbVertex
100
AcDb2dVertex
 10
74.71258
 20
174.399519
 30
0.0
  0
VERTEX
  5
477
100
AcDbEntity
  8
レイヤー_2
 62
     7
100
AcDbVertex
100
AcDb2dVertex
 10
74.783204
 20
174.399519
 30
0.0
  0
SEQEND
  5
478
100
AcDbEntity
  8
レイヤー_2
 62
     7
  0
POLYLINE
  5
46D
100
AcDbEntity
  8
レイヤー_2
 62
     7
100
AcDb2dPolyline
 66
     1
 10
0.0
 20
0.0
 30
0.0
  0
VERTEX
  5
46E
100
AcDbEntity
  8
レイヤー_2
 62
     7
100
AcDbVertex
100
AcDb2dVertex
 10
72.947658
 20
174.399519
 30
0.0
  0
VERTEX
  5
46F
100
AcDbEntity
  8
レイヤー_2
 62
     7
100
AcDbVertex
100
AcDb2dVertex
 10
73.017421
 20
174.399519
 30
0.0
  0
VERTEX
  5
470
100
AcDbEntity
  8
レイヤー_2
 62
     7
100
AcDbVertex
100
AcDb2dVertex
 10
73.159186
 20
174.399519
 30
0.0
  0
VERTEX
  5
471
100
AcDbEntity
  8
レイヤー_2
 62
     7
100
AcDbVertex
100
AcDb2dVertex
 10
73.229811
 20
174.399519
 30
0.0
  0
SEQEND
  5
472
100
AcDbEntity
  8
レイヤー_2
 62
     7
  0
LINE
  5
46C
100
AcDbEntity
  8
レイヤー_2
 62
     7
100
AcDbLine
 10
78.313049
 20
169.599639
 30
0.0
 11
69.416951
 21
169.599639
 31
0.0
  0
LINE
  5
46B
100
AcDbEntity
  8
レイヤー_2
 62
     7
100
AcDbLine
 10
69.416951
 20
169.669402
 30
0.0
 11
69.416951
 21
169.599639
 31
0.0
  0
LINE
  5
46A
100
AcDbEntity
  8
レイヤー_2
 62
     7
100
AcDbLine
 10
78.313049
 20
169.599639
 30
0.0
 11
78.313049
 21
169.669402
 31
0.0
  0
LINE
  5
469
100
AcDbEntity
  8
レイヤー_2
 62
     7
100
AcDbLine
 10
69.770074
 20
169.175203
 30
0.0
 11
77.960788
 21
169.175203
 31
0.0
  0
LINE
  5
468
100
AcDbEntity
  8
レイヤー_2
 62
     7
100
AcDbLine
 10
73.86457
 20
169.175203
 30
0.0
 11
78.313049
 21
169.175203
 31
0.0
  0
LINE
  5
467
100
AcDbEntity
  8
レイヤー_2
 62
     7
100
AcDbLine
 10
69.416951
 20
169.175203
 30
0.0
 11
73.86457
 21
169.175203
 31
0.0
  0
POLYLINE
  5
460
100
AcDbEntity
  8
レイヤー_2
 62
     7
100
AcDb2dPolyline
 66
     1
 10
0.0
 20
0.0
 30
0.0
  0
VERTEX
  5
461
100
AcDbEntity
  8
レイヤー_2
 62
     7
100
AcDbVertex
100
AcDb2dVertex
 10
49.718929
 20
223.539327
 30
0.0
  0
VERTEX
  5
462
100
AcDbEntity
  8
レイヤー_2
 62
     7
100
AcDbVertex
100
AcDb2dVertex
 10
49.718929
 20
223.0453
 30
0.0
  0
VERTEX
  5
463
100
AcDbEntity
  8
レイヤー_2
 62
     7
100
AcDbVertex
100
AcDb2dVertex
 10
49.860695
 20
222.621554
 30
0.0
  0
VERTEX
  5
464
100
AcDbEntity
  8
レイヤー_2
 62
     7
100
AcDbVertex
100
AcDb2dVertex
 10
50.072051
 20
222.19729
 30
0.0
  0
VERTEX
  5
465
100
AcDbEntity
  8
レイヤー_2
 62
     7
100
AcDbVertex
100
AcDb2dVertex
 10
50.072051
 20
222.057075
 30
0.0
  0
SEQEND
  5
466
100
AcDbEntity
  8
レイヤー_2
 62
     7
  0
POLYLINE
  5
459
100
AcDbEntity
  8
レイヤー_2
 62
     7
100
AcDb2dPolyline
 66
     1
 10
0.0
 20
0.0
 30
0.0
  0
VERTEX
  5
45A
100
AcDbEntity
  8
レイヤー_2
 62
     7
100
AcDbVertex
100
AcDb2dVertex
 10
55.579209
 20
222.057075
 30
0.0
  0
VERTEX
  5
45B
100
AcDbEntity
  8
レイヤー_2
 62
     7
100
AcDbVertex
100
AcDb2dVertex
 10
55.720113
 20
222.409336
 30
0.0
  0
VERTEX
  5
45C
100
AcDbEntity
  8
レイヤー_2
 62
     7
100
AcDbVertex
100
AcDb2dVertex
 10
55.861879
 20
222.833082
 30
0.0
  0
VERTEX
  5
45D
100
AcDbEntity
  8
レイヤー_2
 62
     7
100
AcDbVertex
100
AcDb2dVertex
 10
55.931642
 20
223.327109
 30
0.0
  0
VERTEX
  5
45E
100
AcDbEntity
  8
レイヤー_2
 62
     7
100
AcDbVertex
100
AcDb2dVertex
 10
56.002955
 20
223.539327
 30
0.0
  0
SEQEND
  5
45F
100
AcDbEntity
  8
レイヤー_2
 62
     7
  0
LINE
  5
458
100
AcDbEntity
  8
レイヤー_2
 62
     7
100
AcDbLine
 10
114.249013
 20
159.78594
 30
0.0
 11
114.249013
 21
157.668757
 31
0.0
  0
LINE
  5
457
100
AcDbEntity
  8
レイヤー_2
 62
     7
100
AcDbLine
 10
125.757354
 20
157.668757
 30
0.0
 11
125.757354
 21
159.78594
 31
0.0
  0
LINE
  5
456
100
AcDbEntity
  8
レイヤー_2
 62
     7
100
AcDbLine
 10
165.928545
 20
221.563048
 30
0.0
 11
165.999859
 21
219.444142
 31
0.0
  0
LINE
  5
455
100
AcDbEntity
  8
レイヤー_2
 62
     7
100
AcDbLine
 10
171.507189
 20
219.656188
 30
0.0
 11
171.435875
 21
221.774405
 31
0.0
  0
LINE
  5
454
100
AcDbEntity
  8
レイヤー_2
 62
     7
100
AcDbLine
 10
171.435875
 20
221.774405
 30
0.0
 11
172.848364
 21
221.774405
 31
0.0
  0
LINE
  5
453
100
AcDbEntity
  8
レイヤー_2
 62
     7
100
AcDbLine
 10
162.046267
 20
221.42111
 30
0.0
 11
165.928545
 21
221.563048
 31
0.0
  0
LINE
  5
452
100
AcDbEntity
  8
レイヤー_2
 62
     7
100
AcDbLine
 10
158.304205
 20
221.280378
 30
0.0
 11
161.199118
 21
221.35083
 31
0.0
  0
LINE
  5
451
100
AcDbEntity
  8
レイヤー_2
 62
     7
100
AcDbLine
 10
172.636146
 20
228.057397
 30
0.0
 11
158.09302
 21
227.563371
 31
0.0
  0
LINE
  5
450
100
AcDbEntity
  8
レイヤー_2
 62
     7
100
AcDbLine
 10
158.162267
 20
221.632467
 30
0.0
 11
158.304205
 21
221.632467
 31
0.0
  0
LINE
  5
44F
100
AcDbEntity
  8
レイヤー_2
 62
     7
100
AcDbLine
 10
158.09302
 20
227.139796
 30
0.0
 11
157.951082
 21
227.139796
 31
0.0
  0
POLYLINE
  5
443
100
AcDbEntity
  8
レイヤー_2
 62
     7
100
AcDb2dPolyline
 66
     1
 10
0.0
 20
0.0
 30
0.0
  0
VERTEX
  5
444
100
AcDbEntity
  8
レイヤー_2
 62
     7
100
AcDbVertex
100
AcDb2dVertex
 10
133.805442
 20
220.433057
 30
0.0
  0
VERTEX
  5
445
100
AcDbEntity
  8
レイヤー_2
 62
     7
100
AcDbVertex
100
AcDb2dVertex
 10
132.251704
 20
220.291291
 30
0.0
  0
VERTEX
  5
446
100
AcDbEntity
  8
レイヤー_2
 62
     7
100
AcDbVertex
100
AcDb2dVertex
 10
130.41719
 20
219.797264
 30
0.0
  0
VERTEX
  5
447
100
AcDbEntity
  8
レイヤー_2
 62
     7
100
AcDbVertex
100
AcDb2dVertex
 10
128.651579
 20
218.949943
 30
0.0
  0
VERTEX
  5
448
100
AcDbEntity
  8
レイヤー_2
 62
     7
100
AcDbVertex
100
AcDb2dVertex
 10
127.098185
 20
217.819952
 30
0.0
  0
VERTEX
  5
449
100
AcDbEntity
  8
レイヤー_2
 62
     7
100
AcDbVertex
100
AcDb2dVertex
 10
125.757354
 20
216.478604
 30
0.0
  0
VERTEX
  5
44A
100
AcDbEntity
  8
レイヤー_2
 62
     7
100
AcDbVertex
100
AcDb2dVertex
 10
124.627363
 20
214.92521
 30
0.0
  0
VERTEX
  5
44B
100
AcDbEntity
  8
レイヤー_2
 62
     7
100
AcDbVertex
100
AcDb2dVertex
 10
123.780558
 20
213.160977
 30
0.0
  0
VERTEX
  5
44C
100
AcDbEntity
  8
レイヤー_2
 62
     7
100
AcDbVertex
100
AcDb2dVertex
 10
123.286187
 20
211.324741
 30
0.0
  0
VERTEX
  5
44D
100
AcDbEntity
  8
レイヤー_2
 62
     7
100
AcDbVertex
100
AcDb2dVertex
 10
123.145283
 20
209.348462
 30
0.0
  0
SEQEND
  5
44E
100
AcDbEntity
  8
レイヤー_2
 62
     7
  0
POLYLINE
  5
437
100
AcDbEntity
  8
レイヤー_2
 62
     7
100
AcDb2dPolyline
 66
     1
 10
0.0
 20
0.0
 30
0.0
  0
VERTEX
  5
438
100
AcDbEntity
  8
レイヤー_2
 62
     7
100
AcDbVertex
100
AcDb2dVertex
 10
133.594257
 20
226.645597
 30
0.0
  0
VERTEX
  5
439
100
AcDbEntity
  8
レイヤー_2
 62
     7
100
AcDbVertex
100
AcDb2dVertex
 10
131.19337
 20
226.434241
 30
0.0
  0
VERTEX
  5
43A
100
AcDbEntity
  8
レイヤー_2
 62
     7
100
AcDbVertex
100
AcDb2dVertex
 10
128.299146
 20
225.657372
 30
0.0
  0
VERTEX
  5
43B
100
AcDbEntity
  8
レイヤー_2
 62
     7
100
AcDbVertex
100
AcDb2dVertex
 10
125.545136
 20
224.386648
 30
0.0
  0
VERTEX
  5
43C
100
AcDbEntity
  8
レイヤー_2
 62
     7
100
AcDbVertex
100
AcDb2dVertex
 10
123.075003
 20
222.621554
 30
0.0
  0
VERTEX
  5
43D
100
AcDbEntity
  8
レイヤー_2
 62
     7
100
AcDbVertex
100
AcDb2dVertex
 10
120.955924
 20
220.503509
 30
0.0
  0
VERTEX
  5
43E
100
AcDbEntity
  8
レイヤー_2
 62
     7
100
AcDbVertex
100
AcDb2dVertex
 10
119.189969
 20
218.032342
 30
0.0
  0
VERTEX
  5
43F
100
AcDbEntity
  8
レイヤー_2
 62
     7
100
AcDbVertex
100
AcDb2dVertex
 10
117.920795
 20
215.279194
 30
0.0
  0
VERTEX
  5
440
100
AcDbEntity
  8
レイヤー_2
 62
     7
100
AcDbVertex
100
AcDb2dVertex
 10
117.143237
 20
212.38428
 30
0.0
  0
VERTEX
  5
441
100
AcDbEntity
  8
レイヤー_2
 62
     7
100
AcDbVertex
100
AcDb2dVertex
 10
116.861428
 20
209.348462
 30
0.0
  0
SEQEND
  5
442
100
AcDbEntity
  8
レイヤー_2
 62
     7
  0
LINE
  5
436
100
AcDbEntity
  8
レイヤー_2
 62
     7
100
AcDbLine
 10
123.145283
 20
159.78594
 30
0.0
 11
123.145283
 21
209.348462
 31
0.0
  0
LINE
  5
435
100
AcDbEntity
  8
レイヤー_2
 62
     7
100
AcDbLine
 10
116.861428
 20
209.348462
 30
0.0
 11
116.861428
 21
159.78594
 31
0.0
  0
LINE
  5
434
100
AcDbEntity
  8
レイヤー_2
 62
     7
100
AcDbLine
 10
157.951082
 20
227.492919
 30
0.0
 11
133.594257
 21
226.645597
 31
0.0
  0
LINE
  5
433
100
AcDbEntity
  8
レイヤー_2
 62
     7
100
AcDbLine
 10
133.805442
 20
220.433057
 30
0.0
 11
158.162267
 21
221.280378
 31
0.0
  0
LINE
  5
432
100
AcDbEntity
  8
レイヤー_2
 62
     7
100
AcDbLine
 10
124.485425
 20
169.669402
 30
0.0
 11
124.485425
 21
169.881448
 31
0.0
  0
LINE
  5
431
100
AcDbEntity
  8
レイヤー_2
 62
     7
100
AcDbLine
 10
115.589499
 20
172.141431
 30
0.0
 11
115.589499
 21
171.716995
 31
0.0
  0
LINE
  5
430
100
AcDbEntity
  8
レイヤー_2
 62
     7
100
AcDbLine
 10
115.589499
 20
174.189023
 30
0.0
 11
115.589499
 21
173.270561
 31
0.0
  0
POLYLINE
  5
42B
100
AcDbEntity
  8
レイヤー_2
 62
     7
100
AcDb2dPolyline
 66
     1
 10
0.0
 20
0.0
 30
0.0
  0
VERTEX
  5
42C
100
AcDbEntity
  8
レイヤー_2
 62
     7
100
AcDbVertex
100
AcDb2dVertex
 10
115.802751
 20
174.399519
 30
0.0
  0
VERTEX
  5
42D
100
AcDbEntity
  8
レイヤー_2
 62
     7
100
AcDbVertex
100
AcDb2dVertex
 10
115.660813
 20
174.328377
 30
0.0
  0
VERTEX
  5
42E
100
AcDbEntity
  8
レイヤー_2
 62
     7
100
AcDbVertex
100
AcDb2dVertex
 10
115.589499
 20
174.189023
 30
0.0
  0
SEQEND
  5
42F
100
AcDbEntity
  8
レイヤー_2
 62
     7
  0
LINE
  5
42A
100
AcDbEntity
  8
レイヤー_2
 62
     7
100
AcDbLine
 10
140.230889
 20
174.399519
 30
0.0
 11
123.145283
 21
174.399519
 31
0.0
  0
LINE
  5
429
100
AcDbEntity
  8
レイヤー_2
 62
     7
100
AcDbLine
 10
116.861428
 20
174.399519
 30
0.0
 11
115.802751
 21
174.399519
 31
0.0
  0
POLYLINE
  5
424
100
AcDbEntity
  8
レイヤー_2
 62
     7
100
AcDb2dPolyline
 66
     1
 10
0.0
 20
0.0
 30
0.0
  0
VERTEX
  5
425
100
AcDbEntity
  8
レイヤー_2
 62
     7
100
AcDbVertex
100
AcDb2dVertex
 10
124.415489
 20
169.599639
 30
0.0
  0
VERTEX
  5
426
100
AcDbEntity
  8
レイヤー_2
 62
     7
100
AcDbVertex
100
AcDb2dVertex
 10
124.485425
 20
169.599639
 30
0.0
  0
VERTEX
  5
427
100
AcDbEntity
  8
レイヤー_2
 62
     7
100
AcDbVertex
100
AcDb2dVertex
 10
124.485425
 20
169.669402
 30
0.0
  0
SEQEND
  5
428
100
AcDbEntity
  8
レイヤー_2
 62
     7
  0
POLYLINE
  5
41F
100
AcDbEntity
  8
レイヤー_2
 62
     7
100
AcDb2dPolyline
 66
     1
 10
0.0
 20
0.0
 30
0.0
  0
VERTEX
  5
420
100
AcDbEntity
  8
レイヤー_2
 62
     7
100
AcDbVertex
100
AcDb2dVertex
 10
124.838892
 20
170.23457
 30
0.0
  0
VERTEX
  5
421
100
AcDbEntity
  8
レイヤー_2
 62
     7
100
AcDbVertex
100
AcDb2dVertex
 10
124.557083
 20
170.093838
 30
0.0
  0
VERTEX
  5
422
100
AcDbEntity
  8
レイヤー_2
 62
     7
100
AcDbVertex
100
AcDb2dVertex
 10
124.485425
 20
169.881448
 30
0.0
  0
SEQEND
  5
423
100
AcDbEntity
  8
レイヤー_2
 62
     7
  0
POLYLINE
  5
41A
100
AcDbEntity
  8
レイヤー_2
 62
     7
100
AcDb2dPolyline
 66
     1
 10
0.0
 20
0.0
 30
0.0
  0
VERTEX
  5
41B
100
AcDbEntity
  8
レイヤー_2
 62
     7
100
AcDbVertex
100
AcDb2dVertex
 10
140.371105
 20
174.189023
 30
0.0
  0
VERTEX
  5
41C
100
AcDbEntity
  8
レイヤー_2
 62
     7
100
AcDbVertex
100
AcDb2dVertex
 10
140.300825
 20
174.328377
 30
0.0
  0
VERTEX
  5
41D
100
AcDbEntity
  8
レイヤー_2
 62
     7
100
AcDbVertex
100
AcDb2dVertex
 10
140.230889
 20
174.399519
 30
0.0
  0
SEQEND
  5
41E
100
AcDbEntity
  8
レイヤー_2
 62
     7
  0
LINE
  5
419
100
AcDbEntity
  8
レイヤー_2
 62
     7
100
AcDbLine
 10
124.133336
 20
169.175203
 30
0.0
 11
124.062712
 21
169.175203
 31
0.0
  0
POLYLINE
  5
414
100
AcDbEntity
  8
レイヤー_2
 62
     7
100
AcDb2dPolyline
 66
     1
 10
0.0
 20
0.0
 30
0.0
  0
VERTEX
  5
415
100
AcDbEntity
  8
レイヤー_2
 62
     7
100
AcDbVertex
100
AcDb2dVertex
 10
116.01428
 20
169.175203
 30
0.0
  0
VERTEX
  5
416
100
AcDbEntity
  8
レイヤー_2
 62
     7
100
AcDbVertex
100
AcDb2dVertex
 10
116.084904
 20
169.175203
 30
0.0
  0
VERTEX
  5
417
100
AcDbEntity
  8
レイヤー_2
 62
     7
100
AcDbVertex
100
AcDb2dVertex
 10
116.084904
 20
169.317658
 30
0.0
  0
SEQEND
  5
418
100
AcDbEntity
  8
レイヤー_2
 62
     7
  0
POLYLINE
  5
40F
100
AcDbEntity
  8
レイヤー_2
 62
     7
100
AcDb2dPolyline
 66
     1
 10
0.0
 20
0.0
 30
0.0
  0
VERTEX
  5
410
100
AcDbEntity
  8
レイヤー_2
 62
     7
100
AcDbVertex
100
AcDb2dVertex
 10
123.921118
 20
169.317658
 30
0.0
  0
VERTEX
  5
411
100
AcDbEntity
  8
レイヤー_2
 62
     7
100
AcDbVertex
100
AcDb2dVertex
 10
123.991743
 20
169.175203
 30
0.0
  0
VERTEX
  5
412
100
AcDbEntity
  8
レイヤー_2
 62
     7
100
AcDbVertex
100
AcDb2dVertex
 10
124.062712
 20
169.175203
 30
0.0
  0
SEQEND
  5
413
100
AcDbEntity
  8
レイヤー_2
 62
     7
  0
LINE
  5
40E
100
AcDbEntity
  8
レイヤー_2
 62
     7
100
AcDbLine
 10
116.084904
 20
169.669402
 30
0.0
 11
116.084904
 21
169.317658
 31
0.0
  0
LINE
  5
40D
100
AcDbEntity
  8
レイヤー_2
 62
     7
100
AcDbLine
 10
123.921118
 20
169.317658
 30
0.0
 11
123.921118
 21
169.599639
 31
0.0
  0
POLYLINE
  5
408
100
AcDbEntity
  8
レイヤー_2
 62
     7
100
AcDb2dPolyline
 66
     1
 10
0.0
 20
0.0
 30
0.0
  0
VERTEX
  5
409
100
AcDbEntity
  8
レイヤー_2
 62
     7
100
AcDbVertex
100
AcDb2dVertex
 10
116.436993
 20
171.222796
 30
0.0
  0
VERTEX
  5
40A
100
AcDbEntity
  8
レイヤー_2
 62
     7
100
AcDbVertex
100
AcDb2dVertex
 10
116.225464
 20
170.728769
 30
0.0
  0
VERTEX
  5
40B
100
AcDbEntity
  8
レイヤー_2
 62
     7
100
AcDbVertex
100
AcDb2dVertex
 10
116.084904
 20
169.669402
 30
0.0
  0
SEQEND
  5
40C
100
AcDbEntity
  8
レイヤー_2
 62
     7
  0
LINE
  5
407
100
AcDbEntity
  8
レイヤー_2
 62
     7
100
AcDbLine
 10
115.519908
 20
169.175203
 30
0.0
 11
115.519908
 21
159.78594
 31
0.0
  0
LINE
  5
406
100
AcDbEntity
  8
レイヤー_2
 62
     7
100
AcDbLine
 10
124.485425
 20
159.78594
 30
0.0
 11
124.485425
 21
169.175203
 31
0.0
  0
LINE
  5
405
100
AcDbEntity
  8
レイヤー_2
 62
     7
100
AcDbLine
 10
114.249013
 20
157.668757
 30
0.0
 11
125.757354
 21
157.668757
 31
0.0
  0
LINE
  5
404
100
AcDbEntity
  8
レイヤー_2
 62
     7
100
AcDbLine
 10
114.249013
 20
159.78594
 30
0.0
 11
125.757354
 21
159.78594
 31
0.0
  0
LINE
  5
403
100
AcDbEntity
  8
レイヤー_2
 62
     7
100
AcDbLine
 10
168.753868
 20
219.584874
 30
0.0
 11
171.507189
 21
219.656188
 31
0.0
  0
LINE
  5
402
100
AcDbEntity
  8
レイヤー_2
 62
     7
100
AcDbLine
 10
165.999859
 20
219.444142
 30
0.0
 11
168.753868
 21
219.584874
 31
0.0
  0
POLYLINE
  5
3FD
100
AcDbEntity
  8
レイヤー_2
 62
     7
100
AcDb2dPolyline
 66
     1
 10
0.0
 20
0.0
 30
0.0
  0
VERTEX
  5
3FE
100
AcDbEntity
  8
レイヤー_2
 62
     7
100
AcDbVertex
100
AcDb2dVertex
 10
162.046267
 20
221.42111
 30
0.0
  0
VERTEX
  5
3FF
100
AcDbEntity
  8
レイヤー_2
 62
     7
100
AcDbVertex
100
AcDb2dVertex
 10
161.69349
 20
221.42111
 30
0.0
  0
VERTEX
  5
400
100
AcDbEntity
  8
レイヤー_2
 62
     7
100
AcDbVertex
100
AcDb2dVertex
 10
161.199118
 20
221.35083
 30
0.0
  0
SEQEND
  5
401
100
AcDbEntity
  8
レイヤー_2
 62
     7
  0
LINE
  5
3FC
100
AcDbEntity
  8
レイヤー_2
 62
     7
100
AcDbLine
 10
172.778084
 20
224.880847
 30
0.0
 11
172.636146
 21
228.057397
 31
0.0
  0
LINE
  5
3FB
100
AcDbEntity
  8
レイヤー_2
 62
     7
100
AcDbLine
 10
172.848364
 20
221.774405
 30
0.0
 11
172.778084
 21
224.880847
 31
0.0
  0
LINE
  5
3FA
100
AcDbEntity
  8
レイヤー_2
 62
     7
100
AcDbLine
 10
158.162267
 20
224.386648
 30
0.0
 11
158.09302
 21
227.563371
 31
0.0
  0
LINE
  5
3F9
100
AcDbEntity
  8
レイヤー_2
 62
     7
100
AcDbLine
 10
158.304205
 20
221.280378
 30
0.0
 11
158.162267
 21
224.386648
 31
0.0
  0
POLYLINE
  5
3F0
100
AcDbEntity
  8
レイヤー_2
 62
     7
100
AcDb2dPolyline
 66
     1
 10
0.0
 20
0.0
 30
0.0
  0
VERTEX
  5
3F1
100
AcDbEntity
  8
レイヤー_2
 62
     7
100
AcDbVertex
100
AcDb2dVertex
 10
168.612275
 20
223.327109
 30
0.0
  0
VERTEX
  5
3F2
100
AcDbEntity
  8
レイヤー_2
 62
     7
100
AcDbVertex
100
AcDb2dVertex
 10
168.117904
 20
223.186205
 30
0.0
  0
VERTEX
  5
3F3
100
AcDbEntity
  8
レイヤー_2
 62
     7
100
AcDbVertex
100
AcDb2dVertex
 10
167.835406
 20
223.0453
 30
0.0
  0
VERTEX
  5
3F4
100
AcDbEntity
  8
レイヤー_2
 62
     7
100
AcDbVertex
100
AcDb2dVertex
 10
167.482284
 20
222.903535
 30
0.0
  0
VERTEX
  5
3F5
100
AcDbEntity
  8
レイヤー_2
 62
     7
100
AcDbVertex
100
AcDb2dVertex
 10
166.635824
 20
222.19729
 30
0.0
  0
VERTEX
  5
3F6
100
AcDbEntity
  8
レイヤー_2
 62
     7
100
AcDbVertex
100
AcDb2dVertex
 10
165.999859
 20
221.563048
 30
0.0
  0
VERTEX
  5
3F7
100
AcDbEntity
  8
レイヤー_2
 62
     7
100
AcDbVertex
100
AcDb2dVertex
 10
165.928545
 20
221.563048
 30
0.0
  0
SEQEND
  5
3F8
100
AcDbEntity
  8
レイヤー_2
 62
     7
  0
POLYLINE
  5
3E5
100
AcDbEntity
  8
レイヤー_2
 62
     7
100
AcDb2dPolyline
 66
     1
 10
0.0
 20
0.0
 30
0.0
  0
VERTEX
  5
3E6
100
AcDbEntity
  8
レイヤー_2
 62
     7
100
AcDbVertex
100
AcDb2dVertex
 10
171.435875
 20
221.774405
 30
0.0
  0
VERTEX
  5
3E7
100
AcDbEntity
  8
レイヤー_2
 62
     7
100
AcDbVertex
100
AcDb2dVertex
 10
171.366284
 20
221.844857
 30
0.0
  0
VERTEX
  5
3E8
100
AcDbEntity
  8
レイヤー_2
 62
     7
100
AcDbVertex
100
AcDb2dVertex
 10
171.083442
 20
222.057075
 30
0.0
  0
VERTEX
  5
3E9
100
AcDbEntity
  8
レイヤー_2
 62
     7
100
AcDbVertex
100
AcDb2dVertex
 10
170.73032
 20
222.339056
 30
0.0
  0
VERTEX
  5
3EA
100
AcDbEntity
  8
レイヤー_2
 62
     7
100
AcDbVertex
100
AcDb2dVertex
 10
170.377886
 20
222.551101
 30
0.0
  0
VERTEX
  5
3EB
100
AcDbEntity
  8
レイヤー_2
 62
     7
100
AcDbVertex
100
AcDb2dVertex
 10
170.024764
 20
222.833082
 30
0.0
  0
VERTEX
  5
3EC
100
AcDbEntity
  8
レイヤー_2
 62
     7
100
AcDbVertex
100
AcDb2dVertex
 10
169.530393
 20
223.11558
 30
0.0
  0
VERTEX
  5
3ED
100
AcDbEntity
  8
レイヤー_2
 62
     7
100
AcDbVertex
100
AcDb2dVertex
 10
169.036366
 20
223.256657
 30
0.0
  0
VERTEX
  5
3EE
100
AcDbEntity
  8
レイヤー_2
 62
     7
100
AcDbVertex
100
AcDb2dVertex
 10
168.612275
 20
223.327109
 30
0.0
  0
SEQEND
  5
3EF
100
AcDbEntity
  8
レイヤー_2
 62
     7
  0
LINE
  5
3E4
100
AcDbEntity
  8
レイヤー_2
 62
     7
100
AcDbLine
 10
158.09302
 20
224.386648
 30
0.0
 11
158.162267
 21
221.280378
 31
0.0
  0
LINE
  5
3E3
100
AcDbEntity
  8
レイヤー_2
 62
     7
100
AcDbLine
 10
157.951082
 20
227.492919
 30
0.0
 11
158.09302
 21
224.386648
 31
0.0
  0
POLYLINE
  5
3DB
100
AcDbEntity
  8
レイヤー_2
 62
     7
100
AcDb2dPolyline
 66
     1
 10
0.0
 20
0.0
 30
0.0
  0
VERTEX
  5
3DC
100
AcDbEntity
  8
レイヤー_2
 62
     7
100
AcDbVertex
100
AcDb2dVertex
 10
115.589499
 20
171.716995
 30
0.0
  0
VERTEX
  5
3DD
100
AcDbEntity
  8
レイヤー_2
 62
     7
100
AcDbVertex
100
AcDb2dVertex
 10
115.589499
 20
171.647404
 30
0.0
  0
VERTEX
  5
3DE
100
AcDbEntity
  8
レイヤー_2
 62
     7
100
AcDbVertex
100
AcDb2dVertex
 10
116.01428
 20
171.504605
 30
0.0
  0
VERTEX
  5
3DF
100
AcDbEntity
  8
レイヤー_2
 62
     7
100
AcDbVertex
100
AcDb2dVertex
 10
116.367057
 20
171.294109
 30
0.0
  0
VERTEX
  5
3E0
100
AcDbEntity
  8
レイヤー_2
 62
     7
100
AcDbVertex
100
AcDb2dVertex
 10
116.791149
 20
171.153205
 30
0.0
  0
VERTEX
  5
3E1
100
AcDbEntity
  8
レイヤー_2
 62
     7
100
AcDbVertex
100
AcDb2dVertex
 10
116.861428
 20
171.081892
 30
0.0
  0
SEQEND
  5
3E2
100
AcDbEntity
  8
レイヤー_2
 62
     7
  0
POLYLINE
  5
3D6
100
AcDbEntity
  8
レイヤー_2
 62
     7
100
AcDb2dPolyline
 66
     1
 10
0.0
 20
0.0
 30
0.0
  0
VERTEX
  5
3D7
100
AcDbEntity
  8
レイヤー_2
 62
     7
100
AcDbVertex
100
AcDb2dVertex
 10
115.589499
 20
172.351926
 30
0.0
  0
VERTEX
  5
3D8
100
AcDbEntity
  8
レイヤー_2
 62
     7
100
AcDbVertex
100
AcDb2dVertex
 10
115.589499
 20
172.212572
 30
0.0
  0
VERTEX
  5
3D9
100
AcDbEntity
  8
レイヤー_2
 62
     7
100
AcDbVertex
100
AcDb2dVertex
 10
115.589499
 20
172.141431
 30
0.0
  0
SEQEND
  5
3DA
100
AcDbEntity
  8
レイヤー_2
 62
     7
  0
LINE
  5
3D5
100
AcDbEntity
  8
レイヤー_2
 62
     7
100
AcDbLine
 10
115.589499
 20
172.282163
 30
0.0
 11
115.589499
 21
172.351926
 31
0.0
  0
LINE
  5
3D4
100
AcDbEntity
  8
レイヤー_2
 62
     7
100
AcDbLine
 10
115.589499
 20
173.270561
 30
0.0
 11
115.589499
 21
172.351926
 31
0.0
  0
LINE
  5
3D3
100
AcDbEntity
  8
レイヤー_2
 62
     7
100
AcDbLine
 10
124.557083
 20
174.399519
 30
0.0
 11
140.230889
 21
174.399519
 31
0.0
  0
LINE
  5
3D2
100
AcDbEntity
  8
レイヤー_2
 62
     7
100
AcDbLine
 10
124.557083
 20
174.399519
 30
0.0
 11
124.133336
 21
174.399519
 31
0.0
  0
LINE
  5
3D1
100
AcDbEntity
  8
レイヤー_2
 62
     7
100
AcDbLine
 10
124.415489
 20
169.599639
 30
0.0
 11
123.145283
 21
169.599639
 31
0.0
  0
LINE
  5
3D0
100
AcDbEntity
  8
レイヤー_2
 62
     7
100
AcDbLine
 10
124.203271
 20
169.599639
 30
0.0
 11
123.921118
 21
169.599639
 31
0.0
  0
LINE
  5
3CF
100
AcDbEntity
  8
レイヤー_2
 62
     7
100
AcDbLine
 10
140.300825
 20
170.23457
 30
0.0
 11
124.768267
 21
170.23457
 31
0.0
  0
POLYLINE
  5
3CA
100
AcDbEntity
  8
レイヤー_2
 62
     7
100
AcDb2dPolyline
 66
     1
 10
0.0
 20
0.0
 30
0.0
  0
VERTEX
  5
3CB
100
AcDbEntity
  8
レイヤー_2
 62
     7
100
AcDbVertex
100
AcDb2dVertex
 10
140.300825
 20
170.23457
 30
0.0
  0
VERTEX
  5
3CC
100
AcDbEntity
  8
レイヤー_2
 62
     7
100
AcDbVertex
100
AcDb2dVertex
 10
140.371105
 20
170.23457
 30
0.0
  0
VERTEX
  5
3CD
100
AcDbEntity
  8
レイヤー_2
 62
     7
100
AcDbVertex
100
AcDb2dVertex
 10
140.442418
 20
170.375647
 30
0.0
  0
SEQEND
  5
3CE
100
AcDbEntity
  8
レイヤー_2
 62
     7
  0
LINE
  5
3C9
100
AcDbEntity
  8
レイヤー_2
 62
     7
100
AcDbLine
 10
140.371105
 20
174.189023
 30
0.0
 11
140.442418
 21
170.375647
 31
0.0
  0
LINE
  5
3C8
100
AcDbEntity
  8
レイヤー_2
 62
     7
100
AcDbLine
 10
115.942966
 20
169.175203
 30
0.0
 11
116.861428
 21
169.175203
 31
0.0
  0
LINE
  5
3C7
100
AcDbEntity
  8
レイヤー_2
 62
     7
100
AcDbLine
 10
123.145283
 20
169.175203
 30
0.0
 11
124.062712
 21
169.175203
 31
0.0
  0
LINE
  5
3C6
100
AcDbEntity
  8
レイヤー_2
 62
     7
100
AcDbLine
 10
115.519908
 20
169.175203
 30
0.0
 11
116.861428
 21
169.175203
 31
0.0
  0
LINE
  5
3C5
100
AcDbEntity
  8
レイヤー_2
 62
     7
100
AcDbLine
 10
123.145283
 20
169.175203
 30
0.0
 11
124.485425
 21
169.175203
 31
0.0
  0
LINE
  5
3C4
100
AcDbEntity
  8
レイヤー_2
 62
     7
100
AcDbLine
 10
47.106858
 20
157.807939
 30
0.0
 11
58.544575
 21
157.807939
 31
0.0
  0
LINE
  5
3C3
100
AcDbEntity
  8
レイヤー_2
 62
     7
100
AcDbLine
 10
47.106858
 20
157.807939
 30
0.0
 11
58.544575
 21
157.807939
 31
0.0
  0
POLYLINE
  5
3A8
100
AcDbEntity
  8
レイヤー_2
 62
     7
100
AcDb2dPolyline
 66
     1
 10
0.0
 20
0.0
 30
0.0
  0
VERTEX
  5
3A9
100
AcDbEntity
  8
レイヤー_2
 62
     7
100
AcDbVertex
100
AcDb2dVertex
 10
77.395448
 20
93.656643
 30
0.0
  0
VERTEX
  5
3AA
100
AcDbEntity
  8
レイヤー_2
 62
     7
100
AcDbVertex
100
AcDb2dVertex
 10
77.324996
 20
94.573383
 30
0.0
  0
VERTEX
  5
3AB
100
AcDbEntity
  8
レイヤー_2
 62
     7
100
AcDbVertex
100
AcDb2dVertex
 10
76.972563
 20
95.491846
 30
0.0
  0
VERTEX
  5
3AC
100
AcDbEntity
  8
レイヤー_2
 62
     7
100
AcDbVertex
100
AcDb2dVertex
 10
76.33677
 20
96.196712
 30
0.0
  0
VERTEX
  5
3AD
100
AcDbEntity
  8
レイヤー_2
 62
     7
100
AcDbVertex
100
AcDb2dVertex
 10
75.629492
 20
96.833366
 30
0.0
  0
VERTEX
  5
3AE
100
AcDbEntity
  8
レイヤー_2
 62
     7
100
AcDbVertex
100
AcDb2dVertex
 10
74.71258
 20
97.184766
 30
0.0
  0
VERTEX
  5
3AF
100
AcDbEntity
  8
レイヤー_2
 62
     7
100
AcDbVertex
100
AcDb2dVertex
 10
73.794979
 20
97.327393
 30
0.0
  0
VERTEX
  5
3B0
100
AcDbEntity
  8
レイヤー_2
 62
     7
100
AcDbVertex
100
AcDb2dVertex
 10
72.806925
 20
97.184766
 30
0.0
  0
VERTEX
  5
3B1
100
AcDbEntity
  8
レイヤー_2
 62
     7
100
AcDbVertex
100
AcDb2dVertex
 10
71.958054
 20
96.833366
 30
0.0
  0
VERTEX
  5
3B2
100
AcDbEntity
  8
レイヤー_2
 62
     7
100
AcDbVertex
100
AcDb2dVertex
 10
71.182907
 20
96.196712
 30
0.0
  0
VERTEX
  5
3B3
100
AcDbEntity
  8
レイヤー_2
 62
     7
100
AcDbVertex
100
AcDb2dVertex
 10
70.617395
 20
95.491846
 30
0.0
  0
VERTEX
  5
3B4
100
AcDbEntity
  8
レイヤー_2
 62
     7
100
AcDbVertex
100
AcDb2dVertex
 10
70.264273
 20
94.573383
 30
0.0
  0
VERTEX
  5
3B5
100
AcDbEntity
  8
レイヤー_2
 62
     7
100
AcDbVertex
100
AcDb2dVertex
 10
70.123368
 20
93.656643
 30
0.0
  0
VERTEX
  5
3B6
100
AcDbEntity
  8
レイヤー_2
 62
     7
100
AcDbVertex
100
AcDb2dVertex
 10
70.264273
 20
92.738181
 30
0.0
  0
VERTEX
  5
3B7
100
AcDbEntity
  8
レイヤー_2
 62
     7
100
AcDbVertex
100
AcDb2dVertex
 10
70.617395
 20
91.819374
 30
0.0
  0
VERTEX
  5
3B8
100
AcDbEntity
  8
レイヤー_2
 62
     7
100
AcDbVertex
100
AcDb2dVertex
 10
71.182907
 20
91.043538
 30
0.0
  0
VERTEX
  5
3B9
100
AcDbEntity
  8
レイヤー_2
 62
     7
100
AcDbVertex
100
AcDb2dVertex
 10
71.958054
 20
90.478198
 30
0.0
  0
VERTEX
  5
3BA
100
AcDbEntity
  8
レイヤー_2
 62
     7
100
AcDbVertex
100
AcDb2dVertex
 10
72.806925
 20
90.126799
 30
0.0
  0
VERTEX
  5
3BB
100
AcDbEntity
  8
レイヤー_2
 62
     7
100
AcDbVertex
100
AcDb2dVertex
 10
73.794979
 20
89.984172
 30
0.0
  0
VERTEX
  5
3BC
100
AcDbEntity
  8
レイヤー_2
 62
     7
100
AcDbVertex
100
AcDb2dVertex
 10
74.71258
 20
90.126799
 30
0.0
  0
VERTEX
  5
3BD
100
AcDbEntity
  8
レイヤー_2
 62
     7
100
AcDbVertex
100
AcDb2dVertex
 10
75.629492
 20
90.478198
 30
0.0
  0
VERTEX
  5
3BE
100
AcDbEntity
  8
レイヤー_2
 62
     7
100
AcDbVertex
100
AcDb2dVertex
 10
76.33677
 20
91.043538
 30
0.0
  0
VERTEX
  5
3BF
100
AcDbEntity
  8
レイヤー_2
 62
     7
100
AcDbVertex
100
AcDb2dVertex
 10
76.972563
 20
91.819374
 30
0.0
  0
VERTEX
  5
3C0
100
AcDbEntity
  8
レイヤー_2
 62
     7
100
AcDbVertex
100
AcDb2dVertex
 10
77.324996
 20
92.738181
 30
0.0
  0
VERTEX
  5
3C1
100
AcDbEntity
  8
レイヤー_2
 62
     7
100
AcDbVertex
100
AcDb2dVertex
 10
77.395448
 20
93.656643
 30
0.0
  0
SEQEND
  5
3C2
100
AcDbEntity
  8
レイヤー_2
 62
     7
  0
LINE
  5
3A7
100
AcDbEntity
  8
レイヤー_2
 62
     7
100
AcDbLine
 10
76.407222
 20
155.831487
 30
0.0
 11
76.33677
 21
156.115019
 31
0.0
  0
LINE
  5
3A6
100
AcDbEntity
  8
レイヤー_2
 62
     7
100
AcDbLine
 10
76.265457
 20
155.478193
 30
0.0
 11
76.407222
 21
155.831487
 31
0.0
  0
POLYLINE
  5
3A1
100
AcDbEntity
  8
レイヤー_2
 62
     7
100
AcDb2dPolyline
 66
     1
 10
0.0
 20
0.0
 30
0.0
  0
VERTEX
  5
3A2
100
AcDbEntity
  8
レイヤー_2
 62
     7
100
AcDbVertex
100
AcDb2dVertex
 10
73.936056
 20
156.115019
 30
0.0
  0
VERTEX
  5
3A3
100
AcDbEntity
  8
レイヤー_2
 62
     7
100
AcDbVertex
100
AcDb2dVertex
 10
73.86457
 20
155.831487
 30
0.0
  0
VERTEX
  5
3A4
100
AcDbEntity
  8
レイヤー_2
 62
     7
100
AcDbVertex
100
AcDb2dVertex
 10
74.006335
 20
155.478193
 30
0.0
  0
SEQEND
  5
3A5
100
AcDbEntity
  8
レイヤー_2
 62
     7
  0
LINE
  5
3A0
100
AcDbEntity
  8
レイヤー_2
 62
     7
100
AcDbLine
 10
76.407222
 20
153.220449
 30
0.0
 11
76.265457
 21
153.571677
 31
0.0
  0
LINE
  5
39F
100
AcDbEntity
  8
レイヤー_2
 62
     7
100
AcDbLine
 10
74.006335
 20
153.571677
 30
0.0
 11
73.86457
 21
153.220449
 31
0.0
  0
LINE
  5
39E
100
AcDbEntity
  8
レイヤー_2
 62
     7
100
AcDbLine
 10
76.407222
 20
152.232568
 30
0.0
 11
76.407222
 21
153.220449
 31
0.0
  0
LINE
  5
39D
100
AcDbEntity
  8
レイヤー_2
 62
     7
100
AcDbLine
 10
73.86457
 20
153.220449
 30
0.0
 11
73.86457
 21
152.232568
 31
0.0
  0
POLYLINE
  5
398
100
AcDbEntity
  8
レイヤー_2
 62
     7
100
AcDb2dPolyline
 66
     1
 10
0.0
 20
0.0
 30
0.0
  0
VERTEX
  5
399
100
AcDbEntity
  8
レイヤー_2
 62
     7
100
AcDbVertex
100
AcDb2dVertex
 10
76.33677
 20
156.115019
 30
0.0
  0
VERTEX
  5
39A
100
AcDbEntity
  8
レイヤー_2
 62
     7
100
AcDbVertex
100
AcDb2dVertex
 10
76.33677
 20
156.184782
 30
0.0
  0
VERTEX
  5
39B
100
AcDbEntity
  8
レイヤー_2
 62
     7
100
AcDbVertex
100
AcDb2dVertex
 10
76.265457
 20
156.184782
 30
0.0
  0
SEQEND
  5
39C
100
AcDbEntity
  8
レイヤー_2
 62
     7
  0
POLYLINE
  5
393
100
AcDbEntity
  8
レイヤー_2
 62
     7
100
AcDb2dPolyline
 66
     1
 10
0.0
 20
0.0
 30
0.0
  0
VERTEX
  5
394
100
AcDbEntity
  8
レイヤー_2
 62
     7
100
AcDbVertex
100
AcDb2dVertex
 10
74.07696
 20
156.184782
 30
0.0
  0
VERTEX
  5
395
100
AcDbEntity
  8
レイヤー_2
 62
     7
100
AcDbVertex
100
AcDb2dVertex
 10
74.006335
 20
156.184782
 30
0.0
  0
VERTEX
  5
396
100
AcDbEntity
  8
レイヤー_2
 62
     7
100
AcDbVertex
100
AcDb2dVertex
 10
73.936056
 20
156.115019
 30
0.0
  0
SEQEND
  5
397
100
AcDbEntity
  8
レイヤー_2
 62
     7
  0
LINE
  5
392
100
AcDbEntity
  8
レイヤー_2
 62
     7
100
AcDbLine
 10
76.265457
 20
156.184782
 30
0.0
 11
76.265457
 21
157.668757
 31
0.0
  0
LINE
  5
391
100
AcDbEntity
  8
レイヤー_2
 62
     7
100
AcDbLine
 10
74.006335
 20
157.668757
 30
0.0
 11
74.006335
 21
156.184782
 31
0.0
  0
LINE
  5
390
100
AcDbEntity
  8
レイヤー_2
 62
     7
100
AcDbLine
 10
76.195005
 20
135.781893
 30
0.0
 11
76.195005
 21
146.72455
 31
0.0
  0
LINE
  5
38F
100
AcDbEntity
  8
レイヤー_2
 62
     7
100
AcDbLine
 10
76.195005
 20
148.206974
 30
0.0
 11
76.195005
 21
152.232568
 31
0.0
  0
LINE
  5
38E
100
AcDbEntity
  8
レイヤー_2
 62
     7
100
AcDbLine
 10
74.07696
 20
152.232568
 30
0.0
 11
74.07696
 21
135.640644
 31
0.0
  0
LINE
  5
38D
100
AcDbEntity
  8
レイヤー_2
 62
     7
100
AcDbLine
 10
73.653213
 20
155.831487
 30
0.0
 11
73.653213
 21
156.115019
 31
0.0
  0
LINE
  5
38C
100
AcDbEntity
  8
レイヤー_2
 62
     7
100
AcDbLine
 10
73.582933
 20
155.478193
 30
0.0
 11
73.653213
 21
155.831487
 31
0.0
  0
POLYLINE
  5
387
100
AcDbEntity
  8
レイヤー_2
 62
     7
100
AcDb2dPolyline
 66
     1
 10
0.0
 20
0.0
 30
0.0
  0
VERTEX
  5
388
100
AcDbEntity
  8
レイヤー_2
 62
     7
100
AcDbVertex
100
AcDb2dVertex
 10
71.252498
 20
156.115019
 30
0.0
  0
VERTEX
  5
389
100
AcDbEntity
  8
レイヤー_2
 62
     7
100
AcDbVertex
100
AcDb2dVertex
 10
71.182907
 20
155.831487
 30
0.0
  0
VERTEX
  5
38A
100
AcDbEntity
  8
レイヤー_2
 62
     7
100
AcDbVertex
100
AcDb2dVertex
 10
71.252498
 20
155.478193
 30
0.0
  0
SEQEND
  5
38B
100
AcDbEntity
  8
レイヤー_2
 62
     7
  0
LINE
  5
386
100
AcDbEntity
  8
レイヤー_2
 62
     7
100
AcDbLine
 10
73.653213
 20
152.232568
 30
0.0
 11
73.653213
 21
153.220449
 31
0.0
  0
LINE
  5
385
100
AcDbEntity
  8
レイヤー_2
 62
     7
100
AcDbLine
 10
71.182907
 20
153.220449
 30
0.0
 11
71.182907
 21
152.232568
 31
0.0
  0
LINE
  5
384
100
AcDbEntity
  8
レイヤー_2
 62
     7
100
AcDbLine
 10
73.653213
 20
153.220449
 30
0.0
 11
73.582933
 21
153.571677
 31
0.0
  0
LINE
  5
383
100
AcDbEntity
  8
レイヤー_2
 62
     7
100
AcDbLine
 10
71.252498
 20
153.571677
 30
0.0
 11
71.182907
 21
153.220449
 31
0.0
  0
POLYLINE
  5
37E
100
AcDbEntity
  8
レイヤー_2
 62
     7
100
AcDb2dPolyline
 66
     1
 10
0.0
 20
0.0
 30
0.0
  0
VERTEX
  5
37F
100
AcDbEntity
  8
レイヤー_2
 62
     7
100
AcDbVertex
100
AcDb2dVertex
 10
73.653213
 20
156.115019
 30
0.0
  0
VERTEX
  5
380
100
AcDbEntity
  8
レイヤー_2
 62
     7
100
AcDbVertex
100
AcDb2dVertex
 10
73.582933
 20
156.184782
 30
0.0
  0
VERTEX
  5
381
100
AcDbEntity
  8
レイヤー_2
 62
     7
100
AcDbVertex
100
AcDb2dVertex
 10
73.512309
 20
156.184782
 30
0.0
  0
SEQEND
  5
382
100
AcDbEntity
  8
レイヤー_2
 62
     7
  0
POLYLINE
  5
379
100
AcDbEntity
  8
レイヤー_2
 62
     7
100
AcDb2dPolyline
 66
     1
 10
0.0
 20
0.0
 30
0.0
  0
VERTEX
  5
37A
100
AcDbEntity
  8
レイヤー_2
 62
     7
100
AcDbVertex
100
AcDb2dVertex
 10
71.323812
 20
156.184782
 30
0.0
  0
VERTEX
  5
37B
100
AcDbEntity
  8
レイヤー_2
 62
     7
100
AcDbVertex
100
AcDb2dVertex
 10
71.252498
 20
156.184782
 30
0.0
  0
VERTEX
  5
37C
100
AcDbEntity
  8
レイヤー_2
 62
     7
100
AcDbVertex
100
AcDb2dVertex
 10
71.252498
 20
156.115019
 30
0.0
  0
SEQEND
  5
37D
100
AcDbEntity
  8
レイヤー_2
 62
     7
  0
LINE
  5
378
100
AcDbEntity
  8
レイヤー_2
 62
     7
100
AcDbLine
 10
73.582933
 20
156.184782
 30
0.0
 11
73.582933
 21
157.668757
 31
0.0
  0
LINE
  5
377
100
AcDbEntity
  8
レイヤー_2
 62
     7
100
AcDbLine
 10
71.252498
 20
157.668757
 30
0.0
 11
71.252498
 21
156.184782
 31
0.0
  0
LINE
  5
376
100
AcDbEntity
  8
レイヤー_2
 62
     7
100
AcDbLine
 10
73.512309
 20
135.640644
 30
0.0
 11
73.512309
 21
152.232568
 31
0.0
  0
LINE
  5
375
100
AcDbEntity
  8
レイヤー_2
 62
     7
100
AcDbLine
 10
71.393403
 20
152.232568
 30
0.0
 11
71.393403
 21
135.994111
 31
0.0
  0
LINE
  5
374
100
AcDbEntity
  8
レイヤー_2
 62
     7
100
AcDbLine
 10
76.689204
 20
148.206974
 30
0.0
 11
76.689204
 21
157.668757
 31
0.0
  0
POLYLINE
  5
36F
100
AcDbEntity
  8
レイヤー_2
 62
     7
100
AcDb2dPolyline
 66
     1
 10
0.0
 20
0.0
 30
0.0
  0
VERTEX
  5
370
100
AcDbEntity
  8
レイヤー_2
 62
     7
100
AcDbVertex
100
AcDb2dVertex
 10
68.49935
 20
148.206974
 30
0.0
  0
VERTEX
  5
371
100
AcDbEntity
  8
レイヤー_2
 62
     7
100
AcDbVertex
100
AcDb2dVertex
 10
68.428898
 20
148.137039
 30
0.0
  0
VERTEX
  5
372
100
AcDbEntity
  8
レイヤー_2
 62
     7
100
AcDbVertex
100
AcDb2dVertex
 10
68.357585
 20
148.065725
 30
0.0
  0
SEQEND
  5
373
100
AcDbEntity
  8
レイヤー_2
 62
     7
  0
POLYLINE
  5
36A
100
AcDbEntity
  8
レイヤー_2
 62
     7
100
AcDb2dPolyline
 66
     1
 10
0.0
 20
0.0
 30
0.0
  0
VERTEX
  5
36B
100
AcDbEntity
  8
レイヤー_2
 62
     7
100
AcDbVertex
100
AcDb2dVertex
 10
79.229961
 20
148.065725
 30
0.0
  0
VERTEX
  5
36C
100
AcDbEntity
  8
レイヤー_2
 62
     7
100
AcDbVertex
100
AcDb2dVertex
 10
79.160371
 20
148.137039
 30
0.0
  0
VERTEX
  5
36D
100
AcDbEntity
  8
レイヤー_2
 62
     7
100
AcDbVertex
100
AcDb2dVertex
 10
79.089918
 20
148.206974
 30
0.0
  0
SEQEND
  5
36E
100
AcDbEntity
  8
レイヤー_2
 62
     7
  0
LINE
  5
369
100
AcDbEntity
  8
レイヤー_2
 62
     7
100
AcDbLine
 10
79.229961
 20
146.865454
 30
0.0
 11
79.229961
 21
148.065725
 31
0.0
  0
LINE
  5
368
100
AcDbEntity
  8
レイヤー_2
 62
     7
100
AcDbLine
 10
68.357585
 20
148.065725
 30
0.0
 11
68.357585
 21
146.865454
 31
0.0
  0
POLYLINE
  5
363
100
AcDbEntity
  8
レイヤー_2
 62
     7
100
AcDb2dPolyline
 66
     1
 10
0.0
 20
0.0
 30
0.0
  0
VERTEX
  5
364
100
AcDbEntity
  8
レイヤー_2
 62
     7
100
AcDbVertex
100
AcDb2dVertex
 10
68.357585
 20
146.865454
 30
0.0
  0
VERTEX
  5
365
100
AcDbEntity
  8
レイヤー_2
 62
     7
100
AcDbVertex
100
AcDb2dVertex
 10
68.428898
 20
146.794141
 30
0.0
  0
VERTEX
  5
366
100
AcDbEntity
  8
レイヤー_2
 62
     7
100
AcDbVertex
100
AcDb2dVertex
 10
68.49935
 20
146.72455
 30
0.0
  0
SEQEND
  5
367
100
AcDbEntity
  8
レイヤー_2
 62
     7
  0
POLYLINE
  5
35E
100
AcDbEntity
  8
レイヤー_2
 62
     7
100
AcDb2dPolyline
 66
     1
 10
0.0
 20
0.0
 30
0.0
  0
VERTEX
  5
35F
100
AcDbEntity
  8
レイヤー_2
 62
     7
100
AcDbVertex
100
AcDb2dVertex
 10
79.089918
 20
146.72455
 30
0.0
  0
VERTEX
  5
360
100
AcDbEntity
  8
レイヤー_2
 62
     7
100
AcDbVertex
100
AcDb2dVertex
 10
79.160371
 20
146.794141
 30
0.0
  0
VERTEX
  5
361
100
AcDbEntity
  8
レイヤー_2
 62
     7
100
AcDbVertex
100
AcDb2dVertex
 10
79.229961
 20
146.865454
 30
0.0
  0
SEQEND
  5
362
100
AcDbEntity
  8
レイヤー_2
 62
     7
  0
LINE
  5
35D
100
AcDbEntity
  8
レイヤー_2
 62
     7
100
AcDbLine
 10
77.253682
 20
146.653236
 30
0.0
 11
76.689204
 21
146.72455
 31
0.0
  0
LINE
  5
35C
100
AcDbEntity
  8
レイヤー_2
 62
     7
100
AcDbLine
 10
76.901249
 20
145.806087
 30
0.0
 11
77.253682
 21
146.300114
 31
0.0
  0
LINE
  5
35B
100
AcDbEntity
  8
レイヤー_2
 62
     7
100
AcDbLine
 10
77.253682
 20
146.300114
 30
0.0
 11
77.253682
 21
146.653236
 31
0.0
  0
LINE
  5
35A
100
AcDbEntity
  8
レイヤー_2
 62
     7
100
AcDbLine
 10
76.901249
 20
140.934722
 30
0.0
 11
76.901249
 21
145.806087
 31
0.0
  0
LINE
  5
359
100
AcDbEntity
  8
レイヤー_2
 62
     7
100
AcDbLine
 10
77.253682
 20
138.393275
 30
0.0
 11
77.324996
 21
138.464244
 31
0.0
  0
LINE
  5
358
100
AcDbEntity
  8
レイヤー_2
 62
     7
100
AcDbLine
 10
74.07696
 20
155.337461
 30
0.0
 11
73.723665
 21
155.337461
 31
0.0
  0
LINE
  5
357
100
AcDbEntity
  8
レイヤー_2
 62
     7
100
AcDbLine
 10
73.723665
 20
155.337461
 30
0.0
 11
73.512309
 21
155.337461
 31
0.0
  0
LINE
  5
356
100
AcDbEntity
  8
レイヤー_2
 62
     7
100
AcDbLine
 10
73.86457
 20
152.232568
 30
0.0
 11
73.653213
 21
152.232568
 31
0.0
  0
LINE
  5
355
100
AcDbEntity
  8
レイヤー_2
 62
     7
100
AcDbLine
 10
73.723665
 20
153.502603
 30
0.0
 11
73.653213
 21
153.502603
 31
0.0
  0
LINE
  5
354
100
AcDbEntity
  8
レイヤー_2
 62
     7
100
AcDbLine
 10
73.936056
 20
153.502603
 30
0.0
 11
73.723665
 21
153.502603
 31
0.0
  0
LINE
  5
353
100
AcDbEntity
  8
レイヤー_2
 62
     7
100
AcDbLine
 10
73.582933
 20
156.397
 30
0.0
 11
73.653213
 21
156.397
 31
0.0
  0
LINE
  5
352
100
AcDbEntity
  8
レイヤー_2
 62
     7
100
AcDbLine
 10
73.653213
 20
156.397
 30
0.0
 11
73.653213
 21
157.668757
 31
0.0
  0
LINE
  5
351
100
AcDbEntity
  8
レイヤー_2
 62
     7
100
AcDbLine
 10
74.006335
 20
156.184782
 30
0.0
 11
73.582933
 21
156.184782
 31
0.0
  0
LINE
  5
350
100
AcDbEntity
  8
レイヤー_2
 62
     7
100
AcDbLine
 10
73.794979
 20
156.397
 30
0.0
 11
74.006335
 21
156.397
 31
0.0
  0
LINE
  5
34F
100
AcDbEntity
  8
レイヤー_2
 62
     7
100
AcDbLine
 10
73.794979
 20
157.668757
 30
0.0
 11
73.794979
 21
156.397
 31
0.0
  0
LINE
  5
34E
100
AcDbEntity
  8
レイヤー_2
 62
     7
100
AcDbLine
 10
73.723665
 20
155.337461
 30
0.0
 11
73.723665
 21
153.502603
 31
0.0
  0
LINE
  5
34D
100
AcDbEntity
  8
レイヤー_2
 62
     7
100
AcDbLine
 10
76.265457
 20
155.478193
 30
0.0
 11
76.195005
 21
155.478193
 31
0.0
  0
LINE
  5
34C
100
AcDbEntity
  8
レイヤー_2
 62
     7
100
AcDbLine
 10
76.195005
 20
155.478193
 30
0.0
 11
75.700978
 21
155.478193
 31
0.0
  0
LINE
  5
34B
100
AcDbEntity
  8
レイヤー_2
 62
     7
100
AcDbLine
 10
75.700978
 20
155.478193
 30
0.0
 11
75.48876
 21
155.478193
 31
0.0
  0
LINE
  5
34A
100
AcDbEntity
  8
レイヤー_2
 62
     7
100
AcDbLine
 10
75.48876
 20
155.478193
 30
0.0
 11
74.783204
 21
155.478193
 31
0.0
  0
LINE
  5
349
100
AcDbEntity
  8
レイヤー_2
 62
     7
100
AcDbLine
 10
74.783204
 20
155.478193
 30
0.0
 11
74.641439
 21
155.478193
 31
0.0
  0
LINE
  5
348
100
AcDbEntity
  8
レイヤー_2
 62
     7
100
AcDbLine
 10
74.641439
 20
155.478193
 30
0.0
 11
74.147412
 21
155.478193
 31
0.0
  0
LINE
  5
347
100
AcDbEntity
  8
レイヤー_2
 62
     7
100
AcDbLine
 10
74.147412
 20
155.478193
 30
0.0
 11
74.07696
 21
155.478193
 31
0.0
  0
LINE
  5
346
100
AcDbEntity
  8
レイヤー_2
 62
     7
100
AcDbLine
 10
74.07696
 20
155.478193
 30
0.0
 11
74.006335
 21
155.478193
 31
0.0
  0
LINE
  5
345
100
AcDbEntity
  8
レイヤー_2
 62
     7
100
AcDbLine
 10
74.07696
 20
153.571677
 30
0.0
 11
74.006335
 21
153.571677
 31
0.0
  0
LINE
  5
344
100
AcDbEntity
  8
レイヤー_2
 62
     7
100
AcDbLine
 10
74.147412
 20
153.571677
 30
0.0
 11
74.07696
 21
153.571677
 31
0.0
  0
LINE
  5
343
100
AcDbEntity
  8
レイヤー_2
 62
     7
100
AcDbLine
 10
74.641439
 20
153.571677
 30
0.0
 11
74.147412
 21
153.571677
 31
0.0
  0
LINE
  5
342
100
AcDbEntity
  8
レイヤー_2
 62
     7
100
AcDbLine
 10
74.783204
 20
153.571677
 30
0.0
 11
74.641439
 21
153.571677
 31
0.0
  0
LINE
  5
341
100
AcDbEntity
  8
レイヤー_2
 62
     7
100
AcDbLine
 10
75.48876
 20
153.571677
 30
0.0
 11
74.783204
 21
153.571677
 31
0.0
  0
LINE
  5
340
100
AcDbEntity
  8
レイヤー_2
 62
     7
100
AcDbLine
 10
75.700978
 20
153.571677
 30
0.0
 11
75.48876
 21
153.571677
 31
0.0
  0
LINE
  5
33F
100
AcDbEntity
  8
レイヤー_2
 62
     7
100
AcDbLine
 10
76.195005
 20
153.571677
 30
0.0
 11
75.700978
 21
153.571677
 31
0.0
  0
LINE
  5
33E
100
AcDbEntity
  8
レイヤー_2
 62
     7
100
AcDbLine
 10
76.265457
 20
153.571677
 30
0.0
 11
76.195005
 21
153.571677
 31
0.0
  0
LINE
  5
33D
100
AcDbEntity
  8
レイヤー_2
 62
     7
100
AcDbLine
 10
76.407222
 20
152.232568
 30
0.0
 11
73.86457
 21
152.232568
 31
0.0
  0
LINE
  5
33C
100
AcDbEntity
  8
レイヤー_2
 62
     7
100
AcDbLine
 10
76.265457
 20
156.397
 30
0.0
 11
75.842571
 21
156.397
 31
0.0
  0
LINE
  5
33B
100
AcDbEntity
  8
レイヤー_2
 62
     7
100
AcDbLine
 10
76.265457
 20
156.397
 30
0.0
 11
76.265457
 21
157.668757
 31
0.0
  0
LINE
  5
33A
100
AcDbEntity
  8
レイヤー_2
 62
     7
100
AcDbLine
 10
75.842571
 20
157.668757
 30
0.0
 11
75.842571
 21
156.397
 31
0.0
  0
LINE
  5
339
100
AcDbEntity
  8
レイヤー_2
 62
     7
100
AcDbLine
 10
76.265457
 20
156.184782
 30
0.0
 11
74.006335
 21
156.184782
 31
0.0
  0
LINE
  5
338
100
AcDbEntity
  8
レイヤー_2
 62
     7
100
AcDbLine
 10
75.629492
 20
156.397
 30
0.0
 11
74.641439
 21
156.397
 31
0.0
  0
LINE
  5
337
100
AcDbEntity
  8
レイヤー_2
 62
     7
100
AcDbLine
 10
75.629492
 20
156.397
 30
0.0
 11
75.629492
 21
157.668757
 31
0.0
  0
LINE
  5
336
100
AcDbEntity
  8
レイヤー_2
 62
     7
100
AcDbLine
 10
74.641439
 20
157.668757
 30
0.0
 11
74.641439
 21
156.397
 31
0.0
  0
LINE
  5
335
100
AcDbEntity
  8
レイヤー_2
 62
     7
100
AcDbLine
 10
74.500534
 20
156.397
 30
0.0
 11
74.006335
 21
156.397
 31
0.0
  0
LINE
  5
334
100
AcDbEntity
  8
レイヤー_2
 62
     7
100
AcDbLine
 10
74.500534
 20
156.397
 30
0.0
 11
74.500534
 21
157.668757
 31
0.0
  0
LINE
  5
333
100
AcDbEntity
  8
レイヤー_2
 62
     7
100
AcDbLine
 10
74.006335
 20
157.668757
 30
0.0
 11
74.006335
 21
156.397
 31
0.0
  0
LINE
  5
332
100
AcDbEntity
  8
レイヤー_2
 62
     7
100
AcDbLine
 10
74.641439
 20
153.571677
 30
0.0
 11
74.641439
 21
155.478193
 31
0.0
  0
LINE
  5
331
100
AcDbEntity
  8
レイヤー_2
 62
     7
100
AcDbLine
 10
74.783204
 20
155.478193
 30
0.0
 11
74.783204
 21
153.571677
 31
0.0
  0
LINE
  5
330
100
AcDbEntity
  8
レイヤー_2
 62
     7
100
AcDbLine
 10
75.48876
 20
153.571677
 30
0.0
 11
75.48876
 21
155.478193
 31
0.0
  0
LINE
  5
32F
100
AcDbEntity
  8
レイヤー_2
 62
     7
100
AcDbLine
 10
75.700978
 20
155.478193
 30
0.0
 11
75.700978
 21
153.571677
 31
0.0
  0
LINE
  5
32E
100
AcDbEntity
  8
レイヤー_2
 62
     7
100
AcDbLine
 10
74.147412
 20
155.478193
 30
0.0
 11
74.147412
 21
153.571677
 31
0.0
  0
LINE
  5
32D
100
AcDbEntity
  8
レイヤー_2
 62
     7
100
AcDbLine
 10
76.195005
 20
153.571677
 30
0.0
 11
76.195005
 21
155.478193
 31
0.0
  0
LINE
  5
32C
100
AcDbEntity
  8
レイヤー_2
 62
     7
100
AcDbLine
 10
76.265457
 20
155.478193
 30
0.0
 11
76.265457
 21
153.571677
 31
0.0
  0
LINE
  5
32B
100
AcDbEntity
  8
レイヤー_2
 62
     7
100
AcDbLine
 10
74.07696
 20
153.571677
 30
0.0
 11
74.07696
 21
155.478193
 31
0.0
  0
LINE
  5
32A
100
AcDbEntity
  8
レイヤー_2
 62
     7
100
AcDbLine
 10
73.582933
 20
155.478193
 30
0.0
 11
73.512309
 21
155.478193
 31
0.0
  0
LINE
  5
329
100
AcDbEntity
  8
レイヤー_2
 62
     7
100
AcDbLine
 10
73.512309
 20
155.478193
 30
0.0
 11
73.441857
 21
155.478193
 31
0.0
  0
LINE
  5
328
100
AcDbEntity
  8
レイヤー_2
 62
     7
100
AcDbLine
 10
73.441857
 20
155.478193
 30
0.0
 11
72.947658
 21
155.478193
 31
0.0
  0
LINE
  5
327
100
AcDbEntity
  8
レイヤー_2
 62
     7
100
AcDbLine
 10
72.947658
 20
155.478193
 30
0.0
 11
72.806925
 21
155.478193
 31
0.0
  0
LINE
  5
326
100
AcDbEntity
  8
レイヤー_2
 62
     7
100
AcDbLine
 10
72.806925
 20
155.478193
 30
0.0
 11
72.09982
 21
155.478193
 31
0.0
  0
LINE
  5
325
100
AcDbEntity
  8
レイヤー_2
 62
     7
100
AcDbLine
 10
72.09982
 20
155.478193
 30
0.0
 11
71.888291
 21
155.478193
 31
0.0
  0
LINE
  5
324
100
AcDbEntity
  8
レイヤー_2
 62
     7
100
AcDbLine
 10
71.888291
 20
155.478193
 30
0.0
 11
71.393403
 21
155.478193
 31
0.0
  0
LINE
  5
323
100
AcDbEntity
  8
レイヤー_2
 62
     7
100
AcDbLine
 10
71.393403
 20
155.478193
 30
0.0
 11
71.323812
 21
155.478193
 31
0.0
  0
LINE
  5
322
100
AcDbEntity
  8
レイヤー_2
 62
     7
100
AcDbLine
 10
71.323812
 20
155.478193
 30
0.0
 11
71.252498
 21
155.478193
 31
0.0
  0
LINE
  5
321
100
AcDbEntity
  8
レイヤー_2
 62
     7
100
AcDbLine
 10
73.653213
 20
152.232568
 30
0.0
 11
71.182907
 21
152.232568
 31
0.0
  0
LINE
  5
320
100
AcDbEntity
  8
レイヤー_2
 62
     7
100
AcDbLine
 10
71.323812
 20
153.571677
 30
0.0
 11
71.252498
 21
153.571677
 31
0.0
  0
LINE
  5
31F
100
AcDbEntity
  8
レイヤー_2
 62
     7
100
AcDbLine
 10
71.393403
 20
153.571677
 30
0.0
 11
71.323812
 21
153.571677
 31
0.0
  0
LINE
  5
31E
100
AcDbEntity
  8
レイヤー_2
 62
     7
100
AcDbLine
 10
71.888291
 20
153.571677
 30
0.0
 11
71.393403
 21
153.571677
 31
0.0
  0
LINE
  5
31D
100
AcDbEntity
  8
レイヤー_2
 62
     7
100
AcDbLine
 10
72.09982
 20
153.571677
 30
0.0
 11
71.888291
 21
153.571677
 31
0.0
  0
LINE
  5
31C
100
AcDbEntity
  8
レイヤー_2
 62
     7
100
AcDbLine
 10
72.806925
 20
153.571677
 30
0.0
 11
72.09982
 21
153.571677
 31
0.0
  0
LINE
  5
31B
100
AcDbEntity
  8
レイヤー_2
 62
     7
100
AcDbLine
 10
72.947658
 20
153.571677
 30
0.0
 11
72.806925
 21
153.571677
 31
0.0
  0
LINE
  5
31A
100
AcDbEntity
  8
レイヤー_2
 62
     7
100
AcDbLine
 10
73.441857
 20
153.571677
 30
0.0
 11
72.947658
 21
153.571677
 31
0.0
  0
LINE
  5
319
100
AcDbEntity
  8
レイヤー_2
 62
     7
100
AcDbLine
 10
73.512309
 20
153.571677
 30
0.0
 11
73.441857
 21
153.571677
 31
0.0
  0
LINE
  5
318
100
AcDbEntity
  8
レイヤー_2
 62
     7
100
AcDbLine
 10
73.582933
 20
153.571677
 30
0.0
 11
73.512309
 21
153.571677
 31
0.0
  0
LINE
  5
317
100
AcDbEntity
  8
レイヤー_2
 62
     7
100
AcDbLine
 10
73.582933
 20
156.397
 30
0.0
 11
73.087873
 21
156.397
 31
0.0
  0
LINE
  5
316
100
AcDbEntity
  8
レイヤー_2
 62
     7
100
AcDbLine
 10
73.582933
 20
156.397
 30
0.0
 11
73.582933
 21
157.668757
 31
0.0
  0
LINE
  5
315
100
AcDbEntity
  8
レイヤー_2
 62
     7
100
AcDbLine
 10
73.087873
 20
157.668757
 30
0.0
 11
73.087873
 21
156.397
 31
0.0
  0
LINE
  5
314
100
AcDbEntity
  8
レイヤー_2
 62
     7
100
AcDbLine
 10
73.582933
 20
156.184782
 30
0.0
 11
71.252498
 21
156.184782
 31
0.0
  0
LINE
  5
313
100
AcDbEntity
  8
レイヤー_2
 62
     7
100
AcDbLine
 10
72.947658
 20
156.397
 30
0.0
 11
71.958054
 21
156.397
 31
0.0
  0
LINE
  5
312
100
AcDbEntity
  8
レイヤー_2
 62
     7
100
AcDbLine
 10
72.947658
 20
156.397
 30
0.0
 11
72.947658
 21
157.668757
 31
0.0
  0
LINE
  5
311
100
AcDbEntity
  8
レイヤー_2
 62
     7
100
AcDbLine
 10
71.958054
 20
157.668757
 30
0.0
 11
71.958054
 21
156.397
 31
0.0
  0
LINE
  5
310
100
AcDbEntity
  8
レイヤー_2
 62
     7
100
AcDbLine
 10
71.747386
 20
156.397
 30
0.0
 11
71.323812
 21
156.397
 31
0.0
  0
LINE
  5
30F
100
AcDbEntity
  8
レイヤー_2
 62
     7
100
AcDbLine
 10
71.747386
 20
156.397
 30
0.0
 11
71.747386
 21
157.668757
 31
0.0
  0
LINE
  5
30E
100
AcDbEntity
  8
レイヤー_2
 62
     7
100
AcDbLine
 10
71.323812
 20
157.668757
 30
0.0
 11
71.323812
 21
156.397
 31
0.0
  0
LINE
  5
30D
100
AcDbEntity
  8
レイヤー_2
 62
     7
100
AcDbLine
 10
71.888291
 20
153.571677
 30
0.0
 11
71.888291
 21
155.478193
 31
0.0
  0
LINE
  5
30C
100
AcDbEntity
  8
レイヤー_2
 62
     7
100
AcDbLine
 10
72.09982
 20
155.478193
 30
0.0
 11
72.09982
 21
153.571677
 31
0.0
  0
LINE
  5
30B
100
AcDbEntity
  8
レイヤー_2
 62
     7
100
AcDbLine
 10
72.806925
 20
153.571677
 30
0.0
 11
72.806925
 21
155.478193
 31
0.0
  0
LINE
  5
30A
100
AcDbEntity
  8
レイヤー_2
 62
     7
100
AcDbLine
 10
72.947658
 20
155.478193
 30
0.0
 11
72.947658
 21
153.571677
 31
0.0
  0
LINE
  5
309
100
AcDbEntity
  8
レイヤー_2
 62
     7
100
AcDbLine
 10
71.393403
 20
155.478193
 30
0.0
 11
71.393403
 21
153.571677
 31
0.0
  0
LINE
  5
308
100
AcDbEntity
  8
レイヤー_2
 62
     7
100
AcDbLine
 10
73.441857
 20
153.571677
 30
0.0
 11
73.441857
 21
155.478193
 31
0.0
  0
LINE
  5
307
100
AcDbEntity
  8
レイヤー_2
 62
     7
100
AcDbLine
 10
73.512309
 20
155.478193
 30
0.0
 11
73.512309
 21
153.571677
 31
0.0
  0
LINE
  5
306
100
AcDbEntity
  8
レイヤー_2
 62
     7
100
AcDbLine
 10
71.323812
 20
153.571677
 30
0.0
 11
71.323812
 21
155.478193
 31
0.0
  0
LINE
  5
305
100
AcDbEntity
  8
レイヤー_2
 62
     7
100
AcDbLine
 10
75.206779
 20
148.206974
 30
0.0
 11
79.089918
 21
148.206974
 31
0.0
  0
LINE
  5
304
100
AcDbEntity
  8
レイヤー_2
 62
     7
100
AcDbLine
 10
68.49935
 20
148.206974
 30
0.0
 11
70.829785
 21
148.206974
 31
0.0
  0
LINE
  5
303
100
AcDbEntity
  8
レイヤー_2
 62
     7
100
AcDbLine
 10
70.829785
 20
146.72455
 30
0.0
 11
68.49935
 21
146.72455
 31
0.0
  0
LINE
  5
302
100
AcDbEntity
  8
レイヤー_2
 62
     7
100
AcDbLine
 10
79.089918
 20
146.72455
 30
0.0
 11
75.206779
 21
146.72455
 31
0.0
  0
POLYLINE
  5
2FD
100
AcDbEntity
  8
レイヤー_2
 62
     7
100
AcDb2dPolyline
 66
     1
 10
0.0
 20
0.0
 30
0.0
  0
VERTEX
  5
2FE
100
AcDbEntity
  8
レイヤー_2
 62
     7
100
AcDbVertex
100
AcDb2dVertex
 10
75.135638
 20
148.065725
 30
0.0
  0
VERTEX
  5
2FF
100
AcDbEntity
  8
レイヤー_2
 62
     7
100
AcDbVertex
100
AcDb2dVertex
 10
75.135638
 20
148.137039
 30
0.0
  0
VERTEX
  5
300
100
AcDbEntity
  8
レイヤー_2
 62
     7
100
AcDbVertex
100
AcDb2dVertex
 10
75.206779
 20
148.206974
 30
0.0
  0
SEQEND
  5
301
100
AcDbEntity
  8
レイヤー_2
 62
     7
  0
LINE
  5
2FC
100
AcDbEntity
  8
レイヤー_2
 62
     7
100
AcDbLine
 10
75.135638
 20
146.865454
 30
0.0
 11
75.135638
 21
148.065725
 31
0.0
  0
POLYLINE
  5
2F7
100
AcDbEntity
  8
レイヤー_2
 62
     7
100
AcDb2dPolyline
 66
     1
 10
0.0
 20
0.0
 30
0.0
  0
VERTEX
  5
2F8
100
AcDbEntity
  8
レイヤー_2
 62
     7
100
AcDbVertex
100
AcDb2dVertex
 10
75.206779
 20
146.72455
 30
0.0
  0
VERTEX
  5
2F9
100
AcDbEntity
  8
レイヤー_2
 62
     7
100
AcDbVertex
100
AcDb2dVertex
 10
75.135638
 20
146.794141
 30
0.0
  0
VERTEX
  5
2FA
100
AcDbEntity
  8
レイヤー_2
 62
     7
100
AcDbVertex
100
AcDb2dVertex
 10
75.135638
 20
146.865454
 30
0.0
  0
SEQEND
  5
2FB
100
AcDbEntity
  8
レイヤー_2
 62
     7
  0
LINE
  5
2F6
100
AcDbEntity
  8
レイヤー_2
 62
     7
100
AcDbLine
 10
75.135638
 20
148.065725
 30
0.0
 11
75.135638
 21
147.784261
 31
0.0
  0
POLYLINE
  5
2F1
100
AcDbEntity
  8
レイヤー_2
 62
     7
100
AcDb2dPolyline
 66
     1
 10
0.0
 20
0.0
 30
0.0
  0
VERTEX
  5
2F2
100
AcDbEntity
  8
レイヤー_2
 62
     7
100
AcDbVertex
100
AcDb2dVertex
 10
75.206779
 20
148.206974
 30
0.0
  0
VERTEX
  5
2F3
100
AcDbEntity
  8
レイヤー_2
 62
     7
100
AcDbVertex
100
AcDb2dVertex
 10
75.135638
 20
148.137039
 30
0.0
  0
VERTEX
  5
2F4
100
AcDbEntity
  8
レイヤー_2
 62
     7
100
AcDbVertex
100
AcDb2dVertex
 10
75.135638
 20
148.065725
 30
0.0
  0
SEQEND
  5
2F5
100
AcDbEntity
  8
レイヤー_2
 62
     7
  0
LINE
  5
2F0
100
AcDbEntity
  8
レイヤー_2
 62
     7
100
AcDbLine
 10
68.710707
 20
148.206974
 30
0.0
 11
71.393403
 21
148.206974
 31
0.0
  0
LINE
  5
2EF
100
AcDbEntity
  8
レイヤー_2
 62
     7
100
AcDbLine
 10
76.689204
 20
148.206974
 30
0.0
 11
78.877528
 21
148.206974
 31
0.0
  0
POLYLINE
  5
2E8
100
AcDbEntity
  8
レイヤー_2
 62
     7
100
AcDb2dPolyline
 66
     1
 10
0.0
 20
0.0
 30
0.0
  0
VERTEX
  5
2E9
100
AcDbEntity
  8
レイヤー_2
 62
     7
100
AcDbVertex
100
AcDb2dVertex
 10
70.829785
 20
148.206974
 30
0.0
  0
VERTEX
  5
2EA
100
AcDbEntity
  8
レイヤー_2
 62
     7
100
AcDbVertex
100
AcDb2dVertex
 10
70.899376
 20
148.206974
 30
0.0
  0
VERTEX
  5
2EB
100
AcDbEntity
  8
レイヤー_2
 62
     7
100
AcDbVertex
100
AcDb2dVertex
 10
70.899376
 20
148.137039
 30
0.0
  0
VERTEX
  5
2EC
100
AcDbEntity
  8
レイヤー_2
 62
     7
100
AcDbVertex
100
AcDb2dVertex
 10
70.969828
 20
148.137039
 30
0.0
  0
VERTEX
  5
2ED
100
AcDbEntity
  8
レイヤー_2
 62
     7
100
AcDbVertex
100
AcDb2dVertex
 10
70.969828
 20
148.065725
 30
0.0
  0
SEQEND
  5
2EE
100
AcDbEntity
  8
レイヤー_2
 62
     7
  0
LINE
  5
2E7
100
AcDbEntity
  8
レイヤー_2
 62
     7
100
AcDbLine
 10
70.969828
 20
148.065725
 30
0.0
 11
70.969828
 21
146.865454
 31
0.0
  0
POLYLINE
  5
2E0
100
AcDbEntity
  8
レイヤー_2
 62
     7
100
AcDb2dPolyline
 66
     1
 10
0.0
 20
0.0
 30
0.0
  0
VERTEX
  5
2E1
100
AcDbEntity
  8
レイヤー_2
 62
     7
100
AcDbVertex
100
AcDb2dVertex
 10
70.969828
 20
146.865454
 30
0.0
  0
VERTEX
  5
2E2
100
AcDbEntity
  8
レイヤー_2
 62
     7
100
AcDbVertex
100
AcDb2dVertex
 10
70.969828
 20
146.794141
 30
0.0
  0
VERTEX
  5
2E3
100
AcDbEntity
  8
レイヤー_2
 62
     7
100
AcDbVertex
100
AcDb2dVertex
 10
70.899376
 20
146.794141
 30
0.0
  0
VERTEX
  5
2E4
100
AcDbEntity
  8
レイヤー_2
 62
     7
100
AcDbVertex
100
AcDb2dVertex
 10
70.899376
 20
146.72455
 30
0.0
  0
VERTEX
  5
2E5
100
AcDbEntity
  8
レイヤー_2
 62
     7
100
AcDbVertex
100
AcDb2dVertex
 10
70.829785
 20
146.72455
 30
0.0
  0
SEQEND
  5
2E6
100
AcDbEntity
  8
レイヤー_2
 62
     7
  0
LINE
  5
2DF
100
AcDbEntity
  8
レイヤー_2
 62
     7
100
AcDbLine
 10
76.548127
 20
146.72455
 30
0.0
 11
76.195005
 21
146.72455
 31
0.0
  0
LINE
  5
2DE
100
AcDbEntity
  8
レイヤー_2
 62
     7
100
AcDbLine
 10
70.969828
 20
147.853507
 30
0.0
 11
71.393403
 21
147.853507
 31
0.0
  0
LINE
  5
2DD
100
AcDbEntity
  8
レイヤー_2
 62
     7
100
AcDbLine
 10
71.393403
 20
146.72455
 30
0.0
 11
69.699794
 21
146.72455
 31
0.0
  0
LINE
  5
2DC
100
AcDbEntity
  8
レイヤー_2
 62
     7
100
AcDbLine
 10
76.972563
 20
138.53418
 30
0.0
 11
76.195005
 21
138.393275
 31
0.0
  0
LINE
  5
2DB
100
AcDbEntity
  8
レイヤー_2
 62
     7
100
AcDbLine
 10
76.972563
 20
140.794162
 30
0.0
 11
76.195005
 21
140.934722
 31
0.0
  0
LINE
  5
2DA
100
AcDbEntity
  8
レイヤー_2
 62
     7
100
AcDbLine
 10
76.972563
 20
138.53418
 30
0.0
 11
76.972563
 21
140.794162
 31
0.0
  0
LINE
  5
2D9
100
AcDbEntity
  8
レイヤー_2
 62
     7
100
AcDbLine
 10
77.253682
 20
146.653236
 30
0.0
 11
76.195005
 21
146.653236
 31
0.0
  0
LINE
  5
2D8
100
AcDbEntity
  8
レイヤー_2
 62
     7
100
AcDbLine
 10
77.253682
 20
146.300114
 30
0.0
 11
76.195005
 21
146.300114
 31
0.0
  0
LINE
  5
2D7
100
AcDbEntity
  8
レイヤー_2
 62
     7
100
AcDbLine
 10
76.901249
 20
145.806087
 30
0.0
 11
76.195005
 21
145.806087
 31
0.0
  0
LINE
  5
2D6
100
AcDbEntity
  8
レイヤー_2
 62
     7
100
AcDbLine
 10
77.18323
 20
138.393275
 30
0.0
 11
76.972563
 21
138.53418
 31
0.0
  0
LINE
  5
2D5
100
AcDbEntity
  8
レイヤー_2
 62
     7
100
AcDbLine
 10
77.18323
 20
138.393275
 30
0.0
 11
76.195005
 21
138.393275
 31
0.0
  0
LINE
  5
2D4
100
AcDbEntity
  8
レイヤー_2
 62
     7
100
AcDbLine
 10
77.18323
 20
140.934722
 30
0.0
 11
76.972563
 21
140.794162
 31
0.0
  0
LINE
  5
2D3
100
AcDbEntity
  8
レイヤー_2
 62
     7
100
AcDbLine
 10
77.18323
 20
140.934722
 30
0.0
 11
76.195005
 21
140.934722
 31
0.0
  0
LINE
  5
2D2
100
AcDbEntity
  8
レイヤー_2
 62
     7
100
AcDbLine
 10
77.395448
 20
138.53418
 30
0.0
 11
77.18323
 21
138.393275
 31
0.0
  0
LINE
  5
2D1
100
AcDbEntity
  8
レイヤー_2
 62
     7
100
AcDbLine
 10
77.395448
 20
140.794162
 30
0.0
 11
77.18323
 21
140.934722
 31
0.0
  0
LINE
  5
2D0
100
AcDbEntity
  8
レイヤー_2
 62
     7
100
AcDbLine
 10
77.395448
 20
138.53418
 30
0.0
 11
77.395448
 21
140.794162
 31
0.0
  0
LINE
  5
2CF
100
AcDbEntity
  8
レイヤー_2
 62
     7
100
AcDbLine
 10
77.253682
 20
140.934722
 30
0.0
 11
77.18323
 21
140.934722
 31
0.0
  0
LINE
  5
2CE
100
AcDbEntity
  8
レイヤー_2
 62
     7
100
AcDbLine
 10
77.253682
 20
138.393275
 30
0.0
 11
77.18323
 21
138.393275
 31
0.0
  0
LINE
  5
2CD
100
AcDbEntity
  8
レイヤー_2
 62
     7
100
AcDbLine
 10
73.936056
 20
156.184782
 30
0.0
 11
73.582933
 21
156.184782
 31
0.0
  0
LINE
  5
2CC
100
AcDbEntity
  8
レイヤー_2
 62
     7
100
AcDbLine
 10
73.86457
 20
153.149308
 30
0.0
 11
73.653213
 21
153.149308
 31
0.0
  0
POLYLINE
  5
2BA
100
AcDbEntity
  8
レイヤー_2
 62
     7
100
AcDb2dPolyline
 66
     1
 10
0.0
 20
0.0
 30
0.0
  0
VERTEX
  5
2BB
100
AcDbEntity
  8
レイヤー_2
 62
     7
100
AcDbVertex
100
AcDb2dVertex
 10
71.393403
 20
135.994111
 30
0.0
  0
VERTEX
  5
2BC
100
AcDbEntity
  8
レイヤー_2
 62
     7
100
AcDbVertex
100
AcDb2dVertex
 10
71.463855
 20
135.994111
 30
0.0
  0
VERTEX
  5
2BD
100
AcDbEntity
  8
レイヤー_2
 62
     7
100
AcDbVertex
100
AcDb2dVertex
 10
71.463855
 20
135.922797
 30
0.0
  0
VERTEX
  5
2BE
100
AcDbEntity
  8
レイヤー_2
 62
     7
100
AcDbVertex
100
AcDb2dVertex
 10
71.535168
 20
135.922797
 30
0.0
  0
VERTEX
  5
2BF
100
AcDbEntity
  8
レイヤー_2
 62
     7
100
AcDbVertex
100
AcDb2dVertex
 10
71.605621
 20
135.852862
 30
0.0
  0
VERTEX
  5
2C0
100
AcDbEntity
  8
レイヤー_2
 62
     7
100
AcDbVertex
100
AcDb2dVertex
 10
71.676934
 20
135.852862
 30
0.0
  0
VERTEX
  5
2C1
100
AcDbEntity
  8
レイヤー_2
 62
     7
100
AcDbVertex
100
AcDb2dVertex
 10
71.817839
 20
135.710579
 30
0.0
  0
VERTEX
  5
2C2
100
AcDbEntity
  8
レイヤー_2
 62
     7
100
AcDbVertex
100
AcDb2dVertex
 10
71.888291
 20
135.710579
 30
0.0
  0
VERTEX
  5
2C3
100
AcDbEntity
  8
レイヤー_2
 62
     7
100
AcDbVertex
100
AcDb2dVertex
 10
72.029195
 20
135.640644
 30
0.0
  0
VERTEX
  5
2C4
100
AcDbEntity
  8
レイヤー_2
 62
     7
100
AcDbVertex
100
AcDb2dVertex
 10
72.171133
 20
135.640644
 30
0.0
  0
VERTEX
  5
2C5
100
AcDbEntity
  8
レイヤー_2
 62
     7
100
AcDbVertex
100
AcDb2dVertex
 10
72.241413
 20
135.569331
 30
0.0
  0
VERTEX
  5
2C6
100
AcDbEntity
  8
レイヤー_2
 62
     7
100
AcDbVertex
100
AcDb2dVertex
 10
72.38249
 20
135.569331
 30
0.0
  0
VERTEX
  5
2C7
100
AcDbEntity
  8
レイヤー_2
 62
     7
100
AcDbVertex
100
AcDb2dVertex
 10
72.523222
 20
135.49974
 30
0.0
  0
VERTEX
  5
2C8
100
AcDbEntity
  8
レイヤー_2
 62
     7
100
AcDbVertex
100
AcDb2dVertex
 10
73.159186
 20
135.49974
 30
0.0
  0
VERTEX
  5
2C9
100
AcDbEntity
  8
レイヤー_2
 62
     7
100
AcDbVertex
100
AcDb2dVertex
 10
73.300952
 20
135.569331
 30
0.0
  0
VERTEX
  5
2CA
100
AcDbEntity
  8
レイヤー_2
 62
     7
100
AcDbVertex
100
AcDb2dVertex
 10
73.512309
 20
135.640644
 30
0.0
  0
SEQEND
  5
2CB
100
AcDbEntity
  8
レイヤー_2
 62
     7
  0
POLYLINE
  5
2A9
100
AcDbEntity
  8
レイヤー_2
 62
     7
100
AcDb2dPolyline
 66
     1
 10
0.0
 20
0.0
 30
0.0
  0
VERTEX
  5
2AA
100
AcDbEntity
  8
レイヤー_2
 62
     7
100
AcDbVertex
100
AcDb2dVertex
 10
74.07696
 20
135.640644
 30
0.0
  0
VERTEX
  5
2AB
100
AcDbEntity
  8
レイヤー_2
 62
     7
100
AcDbVertex
100
AcDb2dVertex
 10
74.147412
 20
135.569331
 30
0.0
  0
VERTEX
  5
2AC
100
AcDbEntity
  8
レイヤー_2
 62
     7
100
AcDbVertex
100
AcDb2dVertex
 10
74.218726
 20
135.569331
 30
0.0
  0
VERTEX
  5
2AD
100
AcDbEntity
  8
レイヤー_2
 62
     7
100
AcDbVertex
100
AcDb2dVertex
 10
74.289178
 20
135.49974
 30
0.0
  0
VERTEX
  5
2AE
100
AcDbEntity
  8
レイヤー_2
 62
     7
100
AcDbVertex
100
AcDb2dVertex
 10
74.358769
 20
135.49974
 30
0.0
  0
VERTEX
  5
2AF
100
AcDbEntity
  8
レイヤー_2
 62
     7
100
AcDbVertex
100
AcDb2dVertex
 10
74.500534
 20
135.428426
 30
0.0
  0
VERTEX
  5
2B0
100
AcDbEntity
  8
レイヤー_2
 62
     7
100
AcDbVertex
100
AcDb2dVertex
 10
74.570987
 20
135.428426
 30
0.0
  0
VERTEX
  5
2B1
100
AcDbEntity
  8
レイヤー_2
 62
     7
100
AcDbVertex
100
AcDb2dVertex
 10
74.71258
 20
135.357113
 30
0.0
  0
VERTEX
  5
2B2
100
AcDbEntity
  8
レイヤー_2
 62
     7
100
AcDbVertex
100
AcDb2dVertex
 10
74.854518
 20
135.357113
 30
0.0
  0
VERTEX
  5
2B3
100
AcDbEntity
  8
レイヤー_2
 62
     7
100
AcDbVertex
100
AcDb2dVertex
 10
74.994561
 20
135.287866
 30
0.0
  0
VERTEX
  5
2B4
100
AcDbEntity
  8
レイヤー_2
 62
     7
100
AcDbVertex
100
AcDb2dVertex
 10
75.700978
 20
135.287866
 30
0.0
  0
VERTEX
  5
2B5
100
AcDbEntity
  8
レイヤー_2
 62
     7
100
AcDbVertex
100
AcDb2dVertex
 10
75.842571
 20
135.357113
 30
0.0
  0
VERTEX
  5
2B6
100
AcDbEntity
  8
レイヤー_2
 62
     7
100
AcDbVertex
100
AcDb2dVertex
 10
75.912335
 20
135.428426
 30
0.0
  0
VERTEX
  5
2B7
100
AcDbEntity
  8
レイヤー_2
 62
     7
100
AcDbVertex
100
AcDb2dVertex
 10
76.053239
 20
135.49974
 30
0.0
  0
VERTEX
  5
2B8
100
AcDbEntity
  8
レイヤー_2
 62
     7
100
AcDbVertex
100
AcDb2dVertex
 10
76.195005
 20
135.781893
 30
0.0
  0
SEQEND
  5
2B9
100
AcDbEntity
  8
レイヤー_2
 62
     7
  0
POLYLINE
  5
2A2
100
AcDbEntity
  8
レイヤー_2
 62
     7
100
AcDb2dPolyline
 66
     1
 10
0.0
 20
0.0
 30
0.0
  0
VERTEX
  5
2A3
100
AcDbEntity
  8
レイヤー_2
 62
     7
100
AcDbVertex
100
AcDb2dVertex
 10
73.512309
 20
135.640644
 30
0.0
  0
VERTEX
  5
2A4
100
AcDbEntity
  8
レイヤー_2
 62
     7
100
AcDbVertex
100
AcDb2dVertex
 10
73.582933
 20
135.569331
 30
0.0
  0
VERTEX
  5
2A5
100
AcDbEntity
  8
レイヤー_2
 62
     7
100
AcDbVertex
100
AcDb2dVertex
 10
73.723665
 20
135.569331
 30
0.0
  0
VERTEX
  5
2A6
100
AcDbEntity
  8
レイヤー_2
 62
     7
100
AcDbVertex
100
AcDb2dVertex
 10
73.936056
 20
135.569331
 30
0.0
  0
VERTEX
  5
2A7
100
AcDbEntity
  8
レイヤー_2
 62
     7
100
AcDbVertex
100
AcDb2dVertex
 10
74.07696
 20
135.640644
 30
0.0
  0
SEQEND
  5
2A8
100
AcDbEntity
  8
レイヤー_2
 62
     7
  0
LINE
  5
2A1
100
AcDbEntity
  8
レイヤー_2
 62
     7
100
AcDbLine
 10
110.718479
 20
157.668757
 30
0.0
 11
130.064068
 21
157.668757
 31
0.0
  0
LINE
  5
2A0
100
AcDbEntity
  8
レイヤー_2
 62
     7
100
AcDbLine
 10
122.933065
 20
136.416824
 30
0.0
 11
122.933065
 21
145.664838
 31
0.0
  0
LINE
  5
29F
100
AcDbEntity
  8
レイヤー_2
 62
     7
100
AcDbLine
 10
120.885645
 20
143.053456
 30
0.0
 11
120.885645
 21
135.49974
 31
0.0
  0
POLYLINE
  5
29A
100
AcDbEntity
  8
レイヤー_2
 62
     7
100
AcDb2dPolyline
 66
     1
 10
0.0
 20
0.0
 30
0.0
  0
VERTEX
  5
29B
100
AcDbEntity
  8
レイヤー_2
 62
     7
100
AcDbVertex
100
AcDb2dVertex
 10
114.743384
 20
148.206974
 30
0.0
  0
VERTEX
  5
29C
100
AcDbEntity
  8
レイヤー_2
 62
     7
100
AcDbVertex
100
AcDb2dVertex
 10
114.672759
 20
148.206974
 30
0.0
  0
VERTEX
  5
29D
100
AcDbEntity
  8
レイヤー_2
 62
     7
100
AcDbVertex
100
AcDb2dVertex
 10
114.60179
 20
148.137039
 30
0.0
  0
SEQEND
  5
29E
100
AcDbEntity
  8
レイヤー_2
 62
     7
  0
POLYLINE
  5
295
100
AcDbEntity
  8
レイヤー_2
 62
     7
100
AcDb2dPolyline
 66
     1
 10
0.0
 20
0.0
 30
0.0
  0
VERTEX
  5
296
100
AcDbEntity
  8
レイヤー_2
 62
     7
100
AcDbVertex
100
AcDb2dVertex
 10
114.60179
 20
146.865454
 30
0.0
  0
VERTEX
  5
297
100
AcDbEntity
  8
レイヤー_2
 62
     7
100
AcDbVertex
100
AcDb2dVertex
 10
114.672759
 20
146.794141
 30
0.0
  0
VERTEX
  5
298
100
AcDbEntity
  8
レイヤー_2
 62
     7
100
AcDbVertex
100
AcDb2dVertex
 10
114.743384
 20
146.72455
 30
0.0
  0
SEQEND
  5
299
100
AcDbEntity
  8
レイヤー_2
 62
     7
  0
LINE
  5
294
100
AcDbEntity
  8
レイヤー_2
 62
     7
100
AcDbLine
 10
114.60179
 20
148.137039
 30
0.0
 11
114.60179
 21
146.865454
 31
0.0
  0
LINE
  5
293
100
AcDbEntity
  8
レイヤー_2
 62
     7
100
AcDbLine
 10
125.262294
 20
146.865454
 30
0.0
 11
125.262294
 21
148.137039
 31
0.0
  0
POLYLINE
  5
28E
100
AcDbEntity
  8
レイヤー_2
 62
     7
100
AcDb2dPolyline
 66
     1
 10
0.0
 20
0.0
 30
0.0
  0
VERTEX
  5
28F
100
AcDbEntity
  8
レイヤー_2
 62
     7
100
AcDbVertex
100
AcDb2dVertex
 10
125.262294
 20
148.137039
 30
0.0
  0
VERTEX
  5
290
100
AcDbEntity
  8
レイヤー_2
 62
     7
100
AcDbVertex
100
AcDb2dVertex
 10
125.193047
 20
148.206974
 30
0.0
  0
VERTEX
  5
291
100
AcDbEntity
  8
レイヤー_2
 62
     7
100
AcDbVertex
100
AcDb2dVertex
 10
125.121734
 20
148.206974
 30
0.0
  0
SEQEND
  5
292
100
AcDbEntity
  8
レイヤー_2
 62
     7
  0
POLYLINE
  5
289
100
AcDbEntity
  8
レイヤー_2
 62
     7
100
AcDb2dPolyline
 66
     1
 10
0.0
 20
0.0
 30
0.0
  0
VERTEX
  5
28A
100
AcDbEntity
  8
レイヤー_2
 62
     7
100
AcDbVertex
100
AcDb2dVertex
 10
125.121734
 20
146.72455
 30
0.0
  0
VERTEX
  5
28B
100
AcDbEntity
  8
レイヤー_2
 62
     7
100
AcDbVertex
100
AcDb2dVertex
 10
125.193047
 20
146.794141
 30
0.0
  0
VERTEX
  5
28C
100
AcDbEntity
  8
レイヤー_2
 62
     7
100
AcDbVertex
100
AcDb2dVertex
 10
125.262294
 20
146.865454
 30
0.0
  0
SEQEND
  5
28D
100
AcDbEntity
  8
レイヤー_2
 62
     7
  0
LINE
  5
288
100
AcDbEntity
  8
レイヤー_2
 62
     7
100
AcDbLine
 10
114.743384
 20
148.206974
 30
0.0
 11
124.485425
 21
148.206974
 31
0.0
  0
LINE
  5
287
100
AcDbEntity
  8
レイヤー_2
 62
     7
100
AcDbLine
 10
116.296777
 20
146.72455
 30
0.0
 11
114.743384
 21
146.72455
 31
0.0
  0
POLYLINE
  5
282
100
AcDbEntity
  8
レイヤー_2
 62
     7
100
AcDb2dPolyline
 66
     1
 10
0.0
 20
0.0
 30
0.0
  0
VERTEX
  5
283
100
AcDbEntity
  8
レイヤー_2
 62
     7
100
AcDbVertex
100
AcDb2dVertex
 10
124.910205
 20
148.206974
 30
0.0
  0
VERTEX
  5
284
100
AcDbEntity
  8
レイヤー_2
 62
     7
100
AcDbVertex
100
AcDb2dVertex
 10
124.838892
 20
148.206974
 30
0.0
  0
VERTEX
  5
285
100
AcDbEntity
  8
レイヤー_2
 62
     7
100
AcDbVertex
100
AcDb2dVertex
 10
124.838892
 20
148.137039
 30
0.0
  0
SEQEND
  5
286
100
AcDbEntity
  8
レイヤー_2
 62
     7
  0
LINE
  5
281
100
AcDbEntity
  8
レイヤー_2
 62
     7
100
AcDbLine
 10
114.954568
 20
148.206974
 30
0.0
 11
117.920795
 21
148.206974
 31
0.0
  0
LINE
  5
280
100
AcDbEntity
  8
レイヤー_2
 62
     7
100
AcDbLine
 10
120.038151
 20
148.206974
 30
0.0
 11
120.885645
 21
148.206974
 31
0.0
  0
LINE
  5
27F
100
AcDbEntity
  8
レイヤー_2
 62
     7
100
AcDbLine
 10
122.933065
 20
148.206974
 30
0.0
 11
124.910205
 21
148.206974
 31
0.0
  0
LINE
  5
27E
100
AcDbEntity
  8
レイヤー_2
 62
     7
100
AcDbLine
 10
124.838892
 20
147.996479
 30
0.0
 11
124.838892
 21
148.137039
 31
0.0
  0
LINE
  5
27D
100
AcDbEntity
  8
レイヤー_2
 62
     7
100
AcDbLine
 10
125.121734
 20
146.72455
 30
0.0
 11
124.062712
 21
146.72455
 31
0.0
  0
POLYLINE
  5
278
100
AcDbEntity
  8
レイヤー_2
 62
     7
100
AcDb2dPolyline
 66
     1
 10
0.0
 20
0.0
 30
0.0
  0
VERTEX
  5
279
100
AcDbEntity
  8
レイヤー_2
 62
     7
100
AcDbVertex
100
AcDb2dVertex
 10
124.838892
 20
147.996479
 30
0.0
  0
VERTEX
  5
27A
100
AcDbEntity
  8
レイヤー_2
 62
     7
100
AcDbVertex
100
AcDb2dVertex
 10
124.838892
 20
147.924821
 30
0.0
  0
VERTEX
  5
27B
100
AcDbEntity
  8
レイヤー_2
 62
     7
100
AcDbVertex
100
AcDb2dVertex
 10
124.696954
 20
147.924821
 30
0.0
  0
SEQEND
  5
27C
100
AcDbEntity
  8
レイヤー_2
 62
     7
  0
LINE
  5
277
100
AcDbEntity
  8
レイヤー_2
 62
     7
100
AcDbLine
 10
124.910205
 20
148.206974
 30
0.0
 11
125.121734
 21
148.206974
 31
0.0
  0
LINE
  5
276
100
AcDbEntity
  8
レイヤー_2
 62
     7
100
AcDbLine
 10
120.180089
 20
147.218576
 30
0.0
 11
124.838892
 21
147.218576
 31
0.0
  0
LINE
  5
275
100
AcDbEntity
  8
レイヤー_2
 62
     7
100
AcDbLine
 10
115.448595
 20
147.218576
 30
0.0
 11
120.180089
 21
147.218576
 31
0.0
  0
LINE
  5
274
100
AcDbEntity
  8
レイヤー_2
 62
     7
100
AcDbLine
 10
117.143237
 20
157.597443
 30
0.0
 11
117.143237
 21
152.655282
 31
0.0
  0
LINE
  5
273
100
AcDbEntity
  8
レイヤー_2
 62
     7
100
AcDbLine
 10
123.075003
 20
157.597443
 30
0.0
 11
123.075003
 21
152.655282
 31
0.0
  0
LINE
  5
272
100
AcDbEntity
  8
レイヤー_2
 62
     7
100
AcDbLine
 10
118.272884
 20
145.525656
 30
0.0
 11
118.272884
 21
143.053456
 31
0.0
  0
LINE
  5
271
100
AcDbEntity
  8
レイヤー_2
 62
     7
100
AcDbLine
 10
122.015291
 20
145.525656
 30
0.0
 11
122.015291
 21
143.053456
 31
0.0
  0
LINE
  5
270
100
AcDbEntity
  8
レイヤー_2
 62
     7
100
AcDbLine
 10
115.589499
 20
148.206974
 30
0.0
 11
115.589499
 21
147.853507
 31
0.0
  0
LINE
  5
26F
100
AcDbEntity
  8
レイヤー_2
 62
     7
100
AcDbLine
 10
124.768267
 20
147.853507
 30
0.0
 11
124.768267
 21
148.206974
 31
0.0
  0
LINE
  5
26E
100
AcDbEntity
  8
レイヤー_2
 62
     7
100
AcDbLine
 10
115.448595
 20
147.853507
 30
0.0
 11
115.448595
 21
147.218576
 31
0.0
  0
LINE
  5
26D
100
AcDbEntity
  8
レイヤー_2
 62
     7
100
AcDbLine
 10
124.838892
 20
147.218576
 30
0.0
 11
124.838892
 21
147.853507
 31
0.0
  0
LINE
  5
26C
100
AcDbEntity
  8
レイヤー_2
 62
     7
100
AcDbLine
 10
116.649211
 20
157.668757
 30
0.0
 11
116.649211
 21
152.655282
 31
0.0
  0
LINE
  5
26B
100
AcDbEntity
  8
レイヤー_2
 62
     7
100
AcDbLine
 10
123.709245
 20
152.655282
 30
0.0
 11
123.709245
 21
157.668757
 31
0.0
  0
LINE
  5
26A
100
AcDbEntity
  8
レイヤー_2
 62
     7
100
AcDbLine
 10
117.990731
 20
145.525656
 30
0.0
 11
117.990731
 21
143.125114
 31
0.0
  0
LINE
  5
269
100
AcDbEntity
  8
レイヤー_2
 62
     7
100
AcDbLine
 10
122.367725
 20
143.125114
 30
0.0
 11
122.367725
 21
145.525656
 31
0.0
  0
LINE
  5
268
100
AcDbEntity
  8
レイヤー_2
 62
     7
100
AcDbLine
 10
117.990731
 20
143.125114
 30
0.0
 11
118.0617
 21
143.053456
 31
0.0
  0
LINE
  5
267
100
AcDbEntity
  8
レイヤー_2
 62
     7
100
AcDbLine
 10
122.22682
 20
143.053456
 30
0.0
 11
122.367725
 21
143.125114
 31
0.0
  0
LINE
  5
266
100
AcDbEntity
  8
レイヤー_2
 62
     7
100
AcDbLine
 10
120.180089
 20
148.206974
 30
0.0
 11
124.768267
 21
148.206974
 31
0.0
  0
LINE
  5
265
100
AcDbEntity
  8
レイヤー_2
 62
     7
100
AcDbLine
 10
115.589499
 20
148.206974
 30
0.0
 11
120.180089
 21
148.206974
 31
0.0
  0
LINE
  5
264
100
AcDbEntity
  8
レイヤー_2
 62
     7
100
AcDbLine
 10
120.180089
 20
147.853507
 30
0.0
 11
124.838892
 21
147.853507
 31
0.0
  0
LINE
  5
263
100
AcDbEntity
  8
レイヤー_2
 62
     7
100
AcDbLine
 10
115.448595
 20
147.853507
 30
0.0
 11
120.180089
 21
147.853507
 31
0.0
  0
LINE
  5
262
100
AcDbEntity
  8
レイヤー_2
 62
     7
100
AcDbLine
 10
120.180089
 20
143.125114
 30
0.0
 11
122.367725
 21
143.125114
 31
0.0
  0
LINE
  5
261
100
AcDbEntity
  8
レイヤー_2
 62
     7
100
AcDbLine
 10
117.990731
 20
143.125114
 30
0.0
 11
120.180089
 21
143.125114
 31
0.0
  0
LINE
  5
260
100
AcDbEntity
  8
レイヤー_2
 62
     7
100
AcDbLine
 10
120.180089
 20
143.053456
 30
0.0
 11
118.0617
 21
143.053456
 31
0.0
  0
LINE
  5
25F
100
AcDbEntity
  8
レイヤー_2
 62
     7
100
AcDbLine
 10
122.22682
 20
143.053456
 30
0.0
 11
120.180089
 21
143.053456
 31
0.0
  0
POLYLINE
  5
24D
100
AcDbEntity
  8
レイヤー_2
 62
     7
100
AcDb2dPolyline
 66
     1
 10
0.0
 20
0.0
 30
0.0
  0
VERTEX
  5
24E
100
AcDbEntity
  8
レイヤー_2
 62
     7
100
AcDbVertex
100
AcDb2dVertex
 10
120.885645
 20
135.49974
 30
0.0
  0
VERTEX
  5
24F
100
AcDbEntity
  8
レイヤー_2
 62
     7
100
AcDbVertex
100
AcDb2dVertex
 10
120.955924
 20
135.428426
 30
0.0
  0
VERTEX
  5
250
100
AcDbEntity
  8
レイヤー_2
 62
     7
100
AcDbVertex
100
AcDb2dVertex
 10
121.027238
 20
135.428426
 30
0.0
  0
VERTEX
  5
251
100
AcDbEntity
  8
レイヤー_2
 62
     7
100
AcDbVertex
100
AcDb2dVertex
 10
121.097862
 20
135.357113
 30
0.0
  0
VERTEX
  5
252
100
AcDbEntity
  8
レイヤー_2
 62
     7
100
AcDbVertex
100
AcDb2dVertex
 10
121.238422
 20
135.357113
 30
0.0
  0
VERTEX
  5
253
100
AcDbEntity
  8
レイヤー_2
 62
     7
100
AcDbVertex
100
AcDb2dVertex
 10
121.309047
 20
135.287866
 30
0.0
  0
VERTEX
  5
254
100
AcDbEntity
  8
レイヤー_2
 62
     7
100
AcDbVertex
100
AcDb2dVertex
 10
121.591889
 20
135.287866
 30
0.0
  0
VERTEX
  5
255
100
AcDbEntity
  8
レイヤー_2
 62
     7
100
AcDbVertex
100
AcDb2dVertex
 10
121.732794
 20
135.216553
 30
0.0
  0
VERTEX
  5
256
100
AcDbEntity
  8
レイヤー_2
 62
     7
100
AcDbVertex
100
AcDb2dVertex
 10
121.803073
 20
135.216553
 30
0.0
  0
VERTEX
  5
257
100
AcDbEntity
  8
レイヤー_2
 62
     7
100
AcDbVertex
100
AcDb2dVertex
 10
121.944667
 20
135.287866
 30
0.0
  0
VERTEX
  5
258
100
AcDbEntity
  8
レイヤー_2
 62
     7
100
AcDbVertex
100
AcDb2dVertex
 10
122.085916
 20
135.287866
 30
0.0
  0
VERTEX
  5
259
100
AcDbEntity
  8
レイヤー_2
 62
     7
100
AcDbVertex
100
AcDb2dVertex
 10
122.367725
 20
135.428426
 30
0.0
  0
VERTEX
  5
25A
100
AcDbEntity
  8
レイヤー_2
 62
     7
100
AcDbVertex
100
AcDb2dVertex
 10
122.650222
 20
135.710579
 30
0.0
  0
VERTEX
  5
25B
100
AcDbEntity
  8
レイヤー_2
 62
     7
100
AcDbVertex
100
AcDb2dVertex
 10
122.79216
 20
135.922797
 30
0.0
  0
VERTEX
  5
25C
100
AcDbEntity
  8
レイヤー_2
 62
     7
100
AcDbVertex
100
AcDb2dVertex
 10
122.861751
 20
136.134671
 30
0.0
  0
VERTEX
  5
25D
100
AcDbEntity
  8
レイヤー_2
 62
     7
100
AcDbVertex
100
AcDb2dVertex
 10
122.933065
 20
136.416824
 30
0.0
  0
SEQEND
  5
25E
100
AcDbEntity
  8
レイヤー_2
 62
     7
  0
LINE
  5
24C
100
AcDbEntity
  8
レイヤー_2
 62
     7
100
AcDbLine
 10
126.181101
 20
151.525979
 30
0.0
 11
126.181101
 21
152.655282
 31
0.0
  0
LINE
  5
24B
100
AcDbEntity
  8
レイヤー_2
 62
     7
100
AcDbLine
 10
124.768267
 20
148.843283
 30
0.0
 11
124.768267
 21
150.256462
 31
0.0
  0
LINE
  5
24A
100
AcDbEntity
  8
レイヤー_2
 62
     7
100
AcDbLine
 10
115.589499
 20
151.173201
 30
0.0
 11
115.589499
 21
148.843283
 31
0.0
  0
POLYLINE
  5
245
100
AcDbEntity
  8
レイヤー_2
 62
     7
100
AcDb2dPolyline
 66
     1
 10
0.0
 20
0.0
 30
0.0
  0
VERTEX
  5
246
100
AcDbEntity
  8
レイヤー_2
 62
     7
100
AcDbVertex
100
AcDb2dVertex
 10
124.768267
 20
150.397021
 30
0.0
  0
VERTEX
  5
247
100
AcDbEntity
  8
レイヤー_2
 62
     7
100
AcDbVertex
100
AcDb2dVertex
 10
124.768267
 20
150.256462
 30
0.0
  0
VERTEX
  5
248
100
AcDbEntity
  8
レイヤー_2
 62
     7
100
AcDbVertex
100
AcDb2dVertex
 10
124.768267
 20
150.184804
 30
0.0
  0
SEQEND
  5
249
100
AcDbEntity
  8
レイヤー_2
 62
     7
  0
LINE
  5
244
100
AcDbEntity
  8
レイヤー_2
 62
     7
100
AcDbLine
 10
124.627363
 20
148.206974
 30
0.0
 11
124.627363
 21
148.843283
 31
0.0
  0
LINE
  5
243
100
AcDbEntity
  8
レイヤー_2
 62
     7
100
AcDbLine
 10
115.660813
 20
148.843283
 30
0.0
 11
115.660813
 21
148.206974
 31
0.0
  0
LINE
  5
242
100
AcDbEntity
  8
レイヤー_2
 62
     7
100
AcDbLine
 10
115.589499
 20
148.206974
 30
0.0
 11
115.589499
 21
147.853507
 31
0.0
  0
LINE
  5
241
100
AcDbEntity
  8
レイヤー_2
 62
     7
100
AcDbLine
 10
124.768267
 20
147.853507
 30
0.0
 11
124.768267
 21
148.206974
 31
0.0
  0
LINE
  5
240
100
AcDbEntity
  8
レイヤー_2
 62
     7
100
AcDbLine
 10
115.448595
 20
147.853507
 30
0.0
 11
115.448595
 21
147.218576
 31
0.0
  0
LINE
  5
23F
100
AcDbEntity
  8
レイヤー_2
 62
     7
100
AcDbLine
 10
124.838892
 20
147.218576
 30
0.0
 11
124.838892
 21
147.853507
 31
0.0
  0
LINE
  5
23E
100
AcDbEntity
  8
レイヤー_2
 62
     7
100
AcDbLine
 10
116.649211
 20
155.972392
 30
0.0
 11
116.649211
 21
152.655282
 31
0.0
  0
LINE
  5
23D
100
AcDbEntity
  8
レイヤー_2
 62
     7
100
AcDbLine
 10
123.709245
 20
152.655282
 30
0.0
 11
123.709245
 21
155.972392
 31
0.0
  0
LINE
  5
23C
100
AcDbEntity
  8
レイヤー_2
 62
     7
100
AcDbLine
 10
114.107419
 20
152.655282
 30
0.0
 11
114.107419
 21
151.525979
 31
0.0
  0
LINE
  5
23B
100
AcDbEntity
  8
レイヤー_2
 62
     7
100
AcDbLine
 10
116.649211
 20
152.655282
 30
0.0
 11
116.649211
 21
151.525979
 31
0.0
  0
LINE
  5
23A
100
AcDbEntity
  8
レイヤー_2
 62
     7
100
AcDbLine
 10
115.731437
 20
151.525979
 30
0.0
 11
118.272884
 21
150.325708
 31
0.0
  0
LINE
  5
239
100
AcDbEntity
  8
レイヤー_2
 62
     7
100
AcDbLine
 10
114.814697
 20
151.525979
 30
0.0
 11
117.355455
 21
150.325708
 31
0.0
  0
LINE
  5
238
100
AcDbEntity
  8
レイヤー_2
 62
     7
100
AcDbLine
 10
118.343509
 20
150.11349
 30
0.0
 11
118.343509
 21
151.525979
 31
0.0
  0
LINE
  5
237
100
AcDbEntity
  8
レイヤー_2
 62
     7
100
AcDbLine
 10
118.343509
 20
150.184804
 30
0.0
 11
118.272884
 21
150.325708
 31
0.0
  0
LINE
  5
236
100
AcDbEntity
  8
レイヤー_2
 62
     7
100
AcDbLine
 10
118.343509
 20
150.11349
 30
0.0
 11
118.343509
 21
150.184804
 31
0.0
  0
LINE
  5
235
100
AcDbEntity
  8
レイヤー_2
 62
     7
100
AcDbLine
 10
114.107419
 20
152.655282
 30
0.0
 11
126.181101
 21
152.655282
 31
0.0
  0
LINE
  5
234
100
AcDbEntity
  8
レイヤー_2
 62
     7
100
AcDbLine
 10
114.107419
 20
151.525979
 30
0.0
 11
126.181101
 21
151.525979
 31
0.0
  0
POLYLINE
  5
22F
100
AcDbEntity
  8
レイヤー_2
 62
     7
100
AcDb2dPolyline
 66
     1
 10
0.0
 20
0.0
 30
0.0
  0
VERTEX
  5
230
100
AcDbEntity
  8
レイヤー_2
 62
     7
100
AcDbVertex
100
AcDb2dVertex
 10
118.343509
 20
150.11349
 30
0.0
  0
VERTEX
  5
231
100
AcDbEntity
  8
レイヤー_2
 62
     7
100
AcDbVertex
100
AcDb2dVertex
 10
117.920795
 20
150.11349
 30
0.0
  0
VERTEX
  5
232
100
AcDbEntity
  8
レイヤー_2
 62
     7
100
AcDbVertex
100
AcDb2dVertex
 10
117.426769
 20
150.11349
 30
0.0
  0
SEQEND
  5
233
100
AcDbEntity
  8
レイヤー_2
 62
     7
  0
LINE
  5
22E
100
AcDbEntity
  8
レイヤー_2
 62
     7
100
AcDbLine
 10
124.696954
 20
150.184804
 30
0.0
 11
124.696954
 21
151.525979
 31
0.0
  0
LINE
  5
22D
100
AcDbEntity
  8
レイヤー_2
 62
     7
100
AcDbLine
 10
115.589499
 20
148.843283
 30
0.0
 11
124.768267
 21
148.843283
 31
0.0
  0
LINE
  5
22C
100
AcDbEntity
  8
レイヤー_2
 62
     7
100
AcDbLine
 10
117.426769
 20
150.184804
 30
0.0
 11
117.355455
 21
150.325708
 31
0.0
  0
LINE
  5
22B
100
AcDbEntity
  8
レイヤー_2
 62
     7
100
AcDbLine
 10
117.426769
 20
150.11349
 30
0.0
 11
117.426769
 21
150.184804
 31
0.0
  0
LINE
  5
22A
100
AcDbEntity
  8
レイヤー_2
 62
     7
100
AcDbLine
 10
125.898603
 20
151.525979
 30
0.0
 11
124.768267
 21
150.325708
 31
0.0
  0
LINE
  5
229
100
AcDbEntity
  8
レイヤー_2
 62
     7
100
AcDbLine
 10
124.768267
 20
150.325708
 30
0.0
 11
124.696954
 21
150.184804
 31
0.0
  0
LINE
  5
228
100
AcDbEntity
  8
レイヤー_2
 62
     7
100
AcDbLine
 10
115.589499
 20
151.030575
 30
0.0
 11
114.814697
 21
151.525979
 31
0.0
  0
LINE
  5
227
100
AcDbEntity
  8
レイヤー_2
 62
     7
100
AcDbLine
 10
115.589499
 20
148.206974
 30
0.0
 11
124.768267
 21
148.206974
 31
0.0
  0
LINE
  5
226
100
AcDbEntity
  8
レイヤー_2
 62
     7
100
AcDbLine
 10
115.448595
 20
147.853507
 30
0.0
 11
124.838892
 21
147.853507
 31
0.0
  0
LINE
  5
225
100
AcDbEntity
  8
レイヤー_2
 62
     7
100
AcDbLine
 10
115.448595
 20
147.218576
 30
0.0
 11
124.838892
 21
147.218576
 31
0.0
  0
LINE
  5
224
100
AcDbEntity
  8
レイヤー_2
 62
     7
100
AcDbLine
 10
120.038151
 20
145.877056
 30
0.0
 11
120.24968
 21
145.877056
 31
0.0
  0
POLYLINE
  5
21F
100
AcDbEntity
  8
レイヤー_2
 62
     7
100
AcDb2dPolyline
 66
     1
 10
0.0
 20
0.0
 30
0.0
  0
VERTEX
  5
220
100
AcDbEntity
  8
レイヤー_2
 62
     7
100
AcDbVertex
100
AcDb2dVertex
 10
120.24968
 20
145.877056
 30
0.0
  0
VERTEX
  5
221
100
AcDbEntity
  8
レイヤー_2
 62
     7
100
AcDbVertex
100
AcDb2dVertex
 10
121.097862
 20
145.664838
 30
0.0
  0
VERTEX
  5
222
100
AcDbEntity
  8
レイヤー_2
 62
     7
100
AcDbVertex
100
AcDb2dVertex
 10
122.085916
 20
145.525656
 30
0.0
  0
SEQEND
  5
223
100
AcDbEntity
  8
レイヤー_2
 62
     7
  0
LINE
  5
21E
100
AcDbEntity
  8
レイヤー_2
 62
     7
100
AcDbLine
 10
122.085916
 20
145.525656
 30
0.0
 11
118.272884
 21
145.525656
 31
0.0
  0
POLYLINE
  5
219
100
AcDbEntity
  8
レイヤー_2
 62
     7
100
AcDb2dPolyline
 66
     1
 10
0.0
 20
0.0
 30
0.0
  0
VERTEX
  5
21A
100
AcDbEntity
  8
レイヤー_2
 62
     7
100
AcDbVertex
100
AcDb2dVertex
 10
118.272884
 20
145.525656
 30
0.0
  0
VERTEX
  5
21B
100
AcDbEntity
  8
レイヤー_2
 62
     7
100
AcDbVertex
100
AcDb2dVertex
 10
119.189969
 20
145.664838
 30
0.0
  0
VERTEX
  5
21C
100
AcDbEntity
  8
レイヤー_2
 62
     7
100
AcDbVertex
100
AcDb2dVertex
 10
120.038151
 20
145.877056
 30
0.0
  0
SEQEND
  5
21D
100
AcDbEntity
  8
レイヤー_2
 62
     7
  0
LINE
  5
218
100
AcDbEntity
  8
レイヤー_2
 62
     7
100
AcDbLine
 10
120.24968
 20
147.147263
 30
0.0
 11
120.24968
 21
145.877056
 31
0.0
  0
LINE
  5
217
100
AcDbEntity
  8
レイヤー_2
 62
     7
100
AcDbLine
 10
120.038151
 20
145.877056
 30
0.0
 11
120.038151
 21
147.147263
 31
0.0
  0
POLYLINE
  5
212
100
AcDbEntity
  8
レイヤー_2
 62
     7
100
AcDb2dPolyline
 66
     1
 10
0.0
 20
0.0
 30
0.0
  0
VERTEX
  5
213
100
AcDbEntity
  8
レイヤー_2
 62
     7
100
AcDbVertex
100
AcDb2dVertex
 10
116.436993
 20
145.877056
 30
0.0
  0
VERTEX
  5
214
100
AcDbEntity
  8
レイヤー_2
 62
     7
100
AcDbVertex
100
AcDb2dVertex
 10
117.285175
 20
145.664838
 30
0.0
  0
VERTEX
  5
215
100
AcDbEntity
  8
レイヤー_2
 62
     7
100
AcDbVertex
100
AcDb2dVertex
 10
118.272884
 20
145.525656
 30
0.0
  0
SEQEND
  5
216
100
AcDbEntity
  8
レイヤー_2
 62
     7
  0
LINE
  5
211
100
AcDbEntity
  8
レイヤー_2
 62
     7
100
AcDbLine
 10
116.436993
 20
147.147263
 30
0.0
 11
116.436993
 21
145.877056
 31
0.0
  0
POLYLINE
  5
20C
100
AcDbEntity
  8
レイヤー_2
 62
     7
100
AcDb2dPolyline
 66
     1
 10
0.0
 20
0.0
 30
0.0
  0
VERTEX
  5
20D
100
AcDbEntity
  8
レイヤー_2
 62
     7
100
AcDbVertex
100
AcDb2dVertex
 10
122.085916
 20
145.525656
 30
0.0
  0
VERTEX
  5
20E
100
AcDbEntity
  8
レイヤー_2
 62
     7
100
AcDbVertex
100
AcDb2dVertex
 10
123.003689
 20
145.664838
 30
0.0
  0
VERTEX
  5
20F
100
AcDbEntity
  8
レイヤー_2
 62
     7
100
AcDbVertex
100
AcDb2dVertex
 10
123.921118
 20
145.877056
 30
0.0
  0
SEQEND
  5
210
100
AcDbEntity
  8
レイヤー_2
 62
     7
  0
LINE
  5
20B
100
AcDbEntity
  8
レイヤー_2
 62
     7
100
AcDbLine
 10
123.921118
 20
145.877056
 30
0.0
 11
123.921118
 21
147.147263
 31
0.0
  0
LINE
  5
20A
100
AcDbEntity
  8
レイヤー_2
 62
     7
100
AcDbLine
 10
116.296777
 20
145.877056
 30
0.0
 11
116.436993
 21
145.877056
 31
0.0
  0
LINE
  5
209
100
AcDbEntity
  8
レイヤー_2
 62
     7
100
AcDbLine
 10
116.296777
 20
145.877056
 30
0.0
 11
116.296777
 21
145.525656
 31
0.0
  0
LINE
  5
208
100
AcDbEntity
  8
レイヤー_2
 62
     7
100
AcDbLine
 10
118.272884
 20
145.525656
 30
0.0
 11
116.296777
 21
145.525656
 31
0.0
  0
LINE
  5
207
100
AcDbEntity
  8
レイヤー_2
 62
     7
100
AcDbLine
 10
123.921118
 20
145.877056
 30
0.0
 11
123.991743
 21
145.877056
 31
0.0
  0
LINE
  5
206
100
AcDbEntity
  8
レイヤー_2
 62
     7
100
AcDbLine
 10
123.991743
 20
145.525656
 30
0.0
 11
123.991743
 21
145.877056
 31
0.0
  0
LINE
  5
205
100
AcDbEntity
  8
レイヤー_2
 62
     7
100
AcDbLine
 10
123.991743
 20
145.525656
 30
0.0
 11
122.085916
 21
145.525656
 31
0.0
  0
LINE
  5
204
100
AcDbEntity
  8
レイヤー_2
 62
     7
100
AcDbLine
 10
123.991743
 20
147.147263
 30
0.0
 11
123.991743
 21
145.877056
 31
0.0
  0
LINE
  5
203
100
AcDbEntity
  8
レイヤー_2
 62
     7
100
AcDbLine
 10
116.296777
 20
145.877056
 30
0.0
 11
116.296777
 21
147.147263
 31
0.0
  0
LINE
  5
202
100
AcDbEntity
  8
レイヤー_2
 62
     7
100
AcDbLine
 10
124.768267
 20
150.256462
 30
0.0
 11
124.696954
 21
150.184804
 31
0.0
  0
LINE
  5
201
100
AcDbEntity
  8
レイヤー_2
 62
     7
100
AcDbLine
 10
52.825199
 20
147.008081
 30
0.0
 11
57.485036
 21
147.008081
 31
0.0
  0
LINE
  5
200
100
AcDbEntity
  8
レイヤー_2
 62
     7
100
AcDbLine
 10
48.165535
 20
147.008081
 30
0.0
 11
52.825199
 21
147.008081
 31
0.0
  0
LINE
  5
1FF
100
AcDbEntity
  8
レイヤー_2
 62
     7
100
AcDbLine
 10
49.860695
 20
157.385225
 30
0.0
 11
49.860695
 21
152.443064
 31
0.0
  0
LINE
  5
1FE
100
AcDbEntity
  8
レイヤー_2
 62
     7
100
AcDbLine
 10
55.720113
 20
157.385225
 30
0.0
 11
55.720113
 21
152.443064
 31
0.0
  0
LINE
  5
1FD
100
AcDbEntity
  8
レイヤー_2
 62
     7
100
AcDbLine
 10
50.990686
 20
145.312061
 30
0.0
 11
50.990686
 21
142.841583
 31
0.0
  0
LINE
  5
1FC
100
AcDbEntity
  8
レイヤー_2
 62
     7
100
AcDbLine
 10
54.73206
 20
145.312061
 30
0.0
 11
54.73206
 21
142.841583
 31
0.0
  0
LINE
  5
1FB
100
AcDbEntity
  8
レイヤー_2
 62
     7
100
AcDbLine
 10
57.414756
 20
148.631066
 30
0.0
 11
57.414756
 21
151.314106
 31
0.0
  0
LINE
  5
1FA
100
AcDbEntity
  8
レイヤー_2
 62
     7
100
AcDbLine
 10
48.236849
 20
151.314106
 30
0.0
 11
48.236849
 21
148.631066
 31
0.0
  0
LINE
  5
1F9
100
AcDbEntity
  8
レイヤー_2
 62
     7
100
AcDbLine
 10
43.576841
 20
152.443064
 30
0.0
 11
43.576841
 21
151.314106
 31
0.0
  0
LINE
  5
1F8
100
AcDbEntity
  8
レイヤー_2
 62
     7
100
AcDbLine
 10
62.07373
 20
151.314106
 30
0.0
 11
62.07373
 21
152.443064
 31
0.0
  0
LINE
  5
1F7
100
AcDbEntity
  8
レイヤー_2
 62
     7
100
AcDbLine
 10
57.344303
 20
147.996479
 30
0.0
 11
57.344303
 21
148.631066
 31
0.0
  0
LINE
  5
1F6
100
AcDbEntity
  8
レイヤー_2
 62
     7
100
AcDbLine
 10
48.378615
 20
148.631066
 30
0.0
 11
48.378615
 21
147.996479
 31
0.0
  0
LINE
  5
1F5
100
AcDbEntity
  8
レイヤー_2
 62
     7
100
AcDbLine
 10
48.236849
 20
147.996479
 30
0.0
 11
48.236849
 21
147.643012
 31
0.0
  0
LINE
  5
1F4
100
AcDbEntity
  8
レイヤー_2
 62
     7
100
AcDbLine
 10
57.414756
 20
147.643012
 30
0.0
 11
57.414756
 21
147.996479
 31
0.0
  0
LINE
  5
1F3
100
AcDbEntity
  8
レイヤー_2
 62
     7
100
AcDbLine
 10
48.165535
 20
147.643012
 30
0.0
 11
48.165535
 21
147.008081
 31
0.0
  0
LINE
  5
1F2
100
AcDbEntity
  8
レイヤー_2
 62
     7
100
AcDbLine
 10
57.485036
 20
147.008081
 30
0.0
 11
57.485036
 21
147.643012
 31
0.0
  0
LINE
  5
1F1
100
AcDbEntity
  8
レイヤー_2
 62
     7
100
AcDbLine
 10
56.638748
 20
145.312061
 30
0.0
 11
57.203227
 21
145.664838
 31
0.0
  0
LINE
  5
1F0
100
AcDbEntity
  8
レイヤー_2
 62
     7
100
AcDbLine
 10
48.448206
 20
145.664838
 30
0.0
 11
49.013546
 21
145.312061
 31
0.0
  0
LINE
  5
1EF
100
AcDbEntity
  8
レイヤー_2
 62
     7
100
AcDbLine
 10
57.203227
 20
145.664838
 30
0.0
 11
57.203227
 21
147.008081
 31
0.0
  0
LINE
  5
1EE
100
AcDbEntity
  8
レイヤー_2
 62
     7
100
AcDbLine
 10
48.448206
 20
147.008081
 30
0.0
 11
48.448206
 21
145.664838
 31
0.0
  0
LINE
  5
1ED
100
AcDbEntity
  8
レイヤー_2
 62
     7
100
AcDbLine
 10
49.295527
 20
157.456194
 30
0.0
 11
49.295527
 21
152.443064
 31
0.0
  0
LINE
  5
1EC
100
AcDbEntity
  8
レイヤー_2
 62
     7
100
AcDbLine
 10
56.356078
 20
152.443064
 30
0.0
 11
56.356078
 21
157.456194
 31
0.0
  0
LINE
  5
1EB
100
AcDbEntity
  8
レイヤー_2
 62
     7
100
AcDbLine
 10
50.637564
 20
145.312061
 30
0.0
 11
50.637564
 21
142.912896
 31
0.0
  0
LINE
  5
1EA
100
AcDbEntity
  8
レイヤー_2
 62
     7
100
AcDbLine
 10
55.01473
 20
142.912896
 30
0.0
 11
55.01473
 21
145.312061
 31
0.0
  0
LINE
  5
1E9
100
AcDbEntity
  8
レイヤー_2
 62
     7
100
AcDbLine
 10
50.637564
 20
142.912896
 30
0.0
 11
50.77864
 21
142.841583
 31
0.0
  0
LINE
  5
1E8
100
AcDbEntity
  8
レイヤー_2
 62
     7
100
AcDbLine
 10
54.943589
 20
142.841583
 30
0.0
 11
55.01473
 21
142.912896
 31
0.0
  0
LINE
  5
1E7
100
AcDbEntity
  8
レイヤー_2
 62
     7
100
AcDbLine
 10
47.600884
 20
152.443064
 30
0.0
 11
47.600884
 21
151.314106
 31
0.0
  0
LINE
  5
1E6
100
AcDbEntity
  8
レイヤー_2
 62
     7
100
AcDbLine
 10
58.050548
 20
152.443064
 30
0.0
 11
58.050548
 21
151.314106
 31
0.0
  0
LINE
  5
1E5
100
AcDbEntity
  8
レイヤー_2
 62
     7
100
AcDbLine
 10
47.600884
 20
151.314106
 30
0.0
 11
58.050548
 21
151.314106
 31
0.0
  0
LINE
  5
1E4
100
AcDbEntity
  8
レイヤー_2
 62
     7
100
AcDbLine
 10
47.600884
 20
152.443064
 30
0.0
 11
58.050548
 21
152.443064
 31
0.0
  0
LINE
  5
1E3
100
AcDbEntity
  8
レイヤー_2
 62
     7
100
AcDbLine
 10
53.319398
 20
151.314106
 30
0.0
 11
53.319398
 21
150.11349
 31
0.0
  0
LINE
  5
1E2
100
AcDbEntity
  8
レイヤー_2
 62
     7
100
AcDbLine
 10
52.331173
 20
151.314106
 30
0.0
 11
52.331173
 21
150.11349
 31
0.0
  0
POLYLINE
  5
1DD
100
AcDbEntity
  8
レイヤー_2
 62
     7
100
AcDb2dPolyline
 66
     1
 10
0.0
 20
0.0
 30
0.0
  0
VERTEX
  5
1DE
100
AcDbEntity
  8
レイヤー_2
 62
     7
100
AcDbVertex
100
AcDb2dVertex
 10
53.319398
 20
149.97293
 30
0.0
  0
VERTEX
  5
1DF
100
AcDbEntity
  8
レイヤー_2
 62
     7
100
AcDbVertex
100
AcDb2dVertex
 10
52.825199
 20
150.042177
 30
0.0
  0
VERTEX
  5
1E0
100
AcDbEntity
  8
レイヤー_2
 62
     7
100
AcDbVertex
100
AcDb2dVertex
 10
52.331173
 20
149.97293
 30
0.0
  0
SEQEND
  5
1E1
100
AcDbEntity
  8
レイヤー_2
 62
     7
  0
LINE
  5
1DC
100
AcDbEntity
  8
レイヤー_2
 62
     7
100
AcDbLine
 10
53.319398
 20
150.11349
 30
0.0
 11
53.319398
 21
149.97293
 31
0.0
  0
LINE
  5
1DB
100
AcDbEntity
  8
レイヤー_2
 62
     7
100
AcDbLine
 10
52.331173
 20
149.97293
 30
0.0
 11
52.331173
 21
150.11349
 31
0.0
  0
LINE
  5
1DA
100
AcDbEntity
  8
レイヤー_2
 62
     7
100
AcDbLine
 10
48.236849
 20
148.631066
 30
0.0
 11
57.414756
 21
148.631066
 31
0.0
  0
LINE
  5
1D9
100
AcDbEntity
  8
レイヤー_2
 62
     7
100
AcDbLine
 10
61.863063
 20
152.443064
 30
0.0
 11
61.863063
 21
151.314106
 31
0.0
  0
LINE
  5
1D8
100
AcDbEntity
  8
レイヤー_2
 62
     7
100
AcDbLine
 10
58.050548
 20
151.314106
 30
0.0
 11
61.863063
 21
151.314106
 31
0.0
  0
LINE
  5
1D7
100
AcDbEntity
  8
レイヤー_2
 62
     7
100
AcDbLine
 10
58.050548
 20
152.443064
 30
0.0
 11
61.863063
 21
152.443064
 31
0.0
  0
LINE
  5
1D6
100
AcDbEntity
  8
レイヤー_2
 62
     7
100
AcDbLine
 10
43.788197
 20
152.443064
 30
0.0
 11
43.788197
 21
151.314106
 31
0.0
  0
LINE
  5
1D5
100
AcDbEntity
  8
レイヤー_2
 62
     7
100
AcDbLine
 10
43.788197
 20
151.314106
 30
0.0
 11
47.600884
 21
151.314106
 31
0.0
  0
LINE
  5
1D4
100
AcDbEntity
  8
レイヤー_2
 62
     7
100
AcDbLine
 10
43.788197
 20
152.443064
 30
0.0
 11
47.600884
 21
152.443064
 31
0.0
  0
LINE
  5
1D3
100
AcDbEntity
  8
レイヤー_2
 62
     7
100
AcDbLine
 10
44.142353
 20
151.314106
 30
0.0
 11
48.236849
 21
150.184804
 31
0.0
  0
LINE
  5
1D2
100
AcDbEntity
  8
レイヤー_2
 62
     7
100
AcDbLine
 10
57.414756
 20
149.760368
 30
0.0
 11
61.579532
 21
151.314106
 31
0.0
  0
LINE
  5
1D1
100
AcDbEntity
  8
レイヤー_2
 62
     7
100
AcDbLine
 10
43.576841
 20
151.314106
 30
0.0
 11
43.788197
 21
151.314106
 31
0.0
  0
LINE
  5
1D0
100
AcDbEntity
  8
レイヤー_2
 62
     7
100
AcDbLine
 10
43.576841
 20
152.443064
 30
0.0
 11
43.788197
 21
152.443064
 31
0.0
  0
LINE
  5
1CF
100
AcDbEntity
  8
レイヤー_2
 62
     7
100
AcDbLine
 10
61.863063
 20
151.314106
 30
0.0
 11
62.07373
 21
151.314106
 31
0.0
  0
LINE
  5
1CE
100
AcDbEntity
  8
レイヤー_2
 62
     7
100
AcDbLine
 10
61.863063
 20
152.443064
 30
0.0
 11
62.07373
 21
152.443064
 31
0.0
  0
LINE
  5
1CD
100
AcDbEntity
  8
レイヤー_2
 62
     7
100
AcDbLine
 10
52.825199
 20
147.996479
 30
0.0
 11
57.414756
 21
147.996479
 31
0.0
  0
LINE
  5
1CC
100
AcDbEntity
  8
レイヤー_2
 62
     7
100
AcDbLine
 10
48.236849
 20
147.996479
 30
0.0
 11
52.825199
 21
147.996479
 31
0.0
  0
LINE
  5
1CB
100
AcDbEntity
  8
レイヤー_2
 62
     7
100
AcDbLine
 10
52.825199
 20
147.643012
 30
0.0
 11
57.485036
 21
147.643012
 31
0.0
  0
LINE
  5
1CA
100
AcDbEntity
  8
レイヤー_2
 62
     7
100
AcDbLine
 10
48.165535
 20
147.643012
 30
0.0
 11
52.825199
 21
147.643012
 31
0.0
  0
LINE
  5
1C9
100
AcDbEntity
  8
レイヤー_2
 62
     7
100
AcDbLine
 10
55.085182
 20
146.936768
 30
0.0
 11
55.085182
 21
145.664838
 31
0.0
  0
LINE
  5
1C8
100
AcDbEntity
  8
レイヤー_2
 62
     7
100
AcDbLine
 10
54.943589
 20
145.664838
 30
0.0
 11
55.085182
 21
145.664838
 31
0.0
  0
LINE
  5
1C7
100
AcDbEntity
  8
レイヤー_2
 62
     7
100
AcDbLine
 10
54.943589
 20
145.664838
 30
0.0
 11
54.943589
 21
146.936768
 31
0.0
  0
LINE
  5
1C6
100
AcDbEntity
  8
レイヤー_2
 62
     7
100
AcDbLine
 10
50.707155
 20
146.936768
 30
0.0
 11
50.707155
 21
145.664838
 31
0.0
  0
LINE
  5
1C5
100
AcDbEntity
  8
レイヤー_2
 62
     7
100
AcDbLine
 10
50.56625
 20
145.664838
 30
0.0
 11
50.707155
 21
145.664838
 31
0.0
  0
LINE
  5
1C4
100
AcDbEntity
  8
レイヤー_2
 62
     7
100
AcDbLine
 10
50.56625
 20
145.664838
 30
0.0
 11
50.56625
 21
146.936768
 31
0.0
  0
POLYLINE
  5
1BF
100
AcDbEntity
  8
レイヤー_2
 62
     7
100
AcDb2dPolyline
 66
     1
 10
0.0
 20
0.0
 30
0.0
  0
VERTEX
  5
1C0
100
AcDbEntity
  8
レイヤー_2
 62
     7
100
AcDbVertex
100
AcDb2dVertex
 10
52.825199
 20
145.312061
 30
0.0
  0
VERTEX
  5
1C1
100
AcDbEntity
  8
レイヤー_2
 62
     7
100
AcDbVertex
100
AcDb2dVertex
 10
54.096956
 20
145.454343
 30
0.0
  0
VERTEX
  5
1C2
100
AcDbEntity
  8
レイヤー_2
 62
     7
100
AcDbVertex
100
AcDb2dVertex
 10
54.943589
 20
145.664838
 30
0.0
  0
SEQEND
  5
1C3
100
AcDbEntity
  8
レイヤー_2
 62
     7
  0
POLYLINE
  5
1BA
100
AcDbEntity
  8
レイヤー_2
 62
     7
100
AcDb2dPolyline
 66
     1
 10
0.0
 20
0.0
 30
0.0
  0
VERTEX
  5
1BB
100
AcDbEntity
  8
レイヤー_2
 62
     7
100
AcDbVertex
100
AcDb2dVertex
 10
50.707155
 20
145.664838
 30
0.0
  0
VERTEX
  5
1BC
100
AcDbEntity
  8
レイヤー_2
 62
     7
100
AcDbVertex
100
AcDb2dVertex
 10
51.554476
 20
145.454343
 30
0.0
  0
VERTEX
  5
1BD
100
AcDbEntity
  8
レイヤー_2
 62
     7
100
AcDbVertex
100
AcDb2dVertex
 10
52.825199
 20
145.312061
 30
0.0
  0
SEQEND
  5
1BE
100
AcDbEntity
  8
レイヤー_2
 62
     7
  0
LINE
  5
1B9
100
AcDbEntity
  8
レイヤー_2
 62
     7
100
AcDbLine
 10
56.144549
 20
145.312061
 30
0.0
 11
52.825199
 21
145.312061
 31
0.0
  0
POLYLINE
  5
1B3
100
AcDbEntity
  8
レイヤー_2
 62
     7
100
AcDb2dPolyline
 66
     1
 10
0.0
 20
0.0
 30
0.0
  0
VERTEX
  5
1B4
100
AcDbEntity
  8
レイヤー_2
 62
     7
100
AcDbVertex
100
AcDb2dVertex
 10
55.085182
 20
145.664838
 30
0.0
  0
VERTEX
  5
1B5
100
AcDbEntity
  8
レイヤー_2
 62
     7
100
AcDbVertex
100
AcDb2dVertex
 10
55.156323
 20
145.664838
 30
0.0
  0
VERTEX
  5
1B6
100
AcDbEntity
  8
レイヤー_2
 62
     7
100
AcDbVertex
100
AcDb2dVertex
 10
55.650522
 20
145.383374
 30
0.0
  0
VERTEX
  5
1B7
100
AcDbEntity
  8
レイヤー_2
 62
     7
100
AcDbVertex
100
AcDb2dVertex
 10
56.144549
 20
145.312061
 30
0.0
  0
SEQEND
  5
1B8
100
AcDbEntity
  8
レイヤー_2
 62
     7
  0
LINE
  5
1B2
100
AcDbEntity
  8
レイヤー_2
 62
     7
100
AcDbLine
 10
52.825199
 20
145.312061
 30
0.0
 11
49.507572
 21
145.312061
 31
0.0
  0
POLYLINE
  5
1AC
100
AcDbEntity
  8
レイヤー_2
 62
     7
100
AcDb2dPolyline
 66
     1
 10
0.0
 20
0.0
 30
0.0
  0
VERTEX
  5
1AD
100
AcDbEntity
  8
レイヤー_2
 62
     7
100
AcDbVertex
100
AcDb2dVertex
 10
49.507572
 20
145.312061
 30
0.0
  0
VERTEX
  5
1AE
100
AcDbEntity
  8
レイヤー_2
 62
     7
100
AcDbVertex
100
AcDb2dVertex
 10
50.00246
 20
145.383374
 30
0.0
  0
VERTEX
  5
1AF
100
AcDbEntity
  8
レイヤー_2
 62
     7
100
AcDbVertex
100
AcDb2dVertex
 10
50.496659
 20
145.595592
 30
0.0
  0
VERTEX
  5
1B0
100
AcDbEntity
  8
レイヤー_2
 62
     7
100
AcDbVertex
100
AcDb2dVertex
 10
50.56625
 20
145.664838
 30
0.0
  0
SEQEND
  5
1B1
100
AcDbEntity
  8
レイヤー_2
 62
     7
  0
POLYLINE
  5
1A7
100
AcDbEntity
  8
レイヤー_2
 62
     7
100
AcDb2dPolyline
 66
     1
 10
0.0
 20
0.0
 30
0.0
  0
VERTEX
  5
1A8
100
AcDbEntity
  8
レイヤー_2
 62
     7
100
AcDbVertex
100
AcDb2dVertex
 10
57.203227
 20
145.664838
 30
0.0
  0
VERTEX
  5
1A9
100
AcDbEntity
  8
レイヤー_2
 62
     7
100
AcDbVertex
100
AcDb2dVertex
 10
56.708339
 20
145.454343
 30
0.0
  0
VERTEX
  5
1AA
100
AcDbEntity
  8
レイヤー_2
 62
     7
100
AcDbVertex
100
AcDb2dVertex
 10
56.144549
 20
145.312061
 30
0.0
  0
SEQEND
  5
1AB
100
AcDbEntity
  8
レイヤー_2
 62
     7
  0
LINE
  5
1A6
100
AcDbEntity
  8
レイヤー_2
 62
     7
100
AcDbLine
 10
57.203227
 20
145.664838
 30
0.0
 11
57.203227
 21
146.936768
 31
0.0
  0
POLYLINE
  5
1A0
100
AcDbEntity
  8
レイヤー_2
 62
     7
100
AcDb2dPolyline
 66
     1
 10
0.0
 20
0.0
 30
0.0
  0
VERTEX
  5
1A1
100
AcDbEntity
  8
レイヤー_2
 62
     7
100
AcDbVertex
100
AcDb2dVertex
 10
48.448206
 20
145.664838
 30
0.0
  0
VERTEX
  5
1A2
100
AcDbEntity
  8
レイヤー_2
 62
     7
100
AcDbVertex
100
AcDb2dVertex
 10
48.519347
 20
145.664838
 30
0.0
  0
VERTEX
  5
1A3
100
AcDbEntity
  8
レイヤー_2
 62
     7
100
AcDbVertex
100
AcDb2dVertex
 10
49.013546
 20
145.383374
 30
0.0
  0
VERTEX
  5
1A4
100
AcDbEntity
  8
レイヤー_2
 62
     7
100
AcDbVertex
100
AcDb2dVertex
 10
49.507572
 20
145.312061
 30
0.0
  0
SEQEND
  5
1A5
100
AcDbEntity
  8
レイヤー_2
 62
     7
  0
LINE
  5
19F
100
AcDbEntity
  8
レイヤー_2
 62
     7
100
AcDbLine
 10
48.448206
 20
146.936768
 30
0.0
 11
48.448206
 21
145.664838
 31
0.0
  0
LINE
  5
19E
100
AcDbEntity
  8
レイヤー_2
 62
     7
100
AcDbLine
 10
56.638748
 20
145.312061
 30
0.0
 11
56.144549
 21
145.312061
 31
0.0
  0
LINE
  5
19D
100
AcDbEntity
  8
レイヤー_2
 62
     7
100
AcDbLine
 10
49.507572
 20
145.312061
 30
0.0
 11
49.013546
 21
145.312061
 31
0.0
  0
LINE
  5
19C
100
AcDbEntity
  8
レイヤー_2
 62
     7
100
AcDbLine
 10
52.825199
 20
142.912896
 30
0.0
 11
55.01473
 21
142.912896
 31
0.0
  0
LINE
  5
19B
100
AcDbEntity
  8
レイヤー_2
 62
     7
100
AcDbLine
 10
50.637564
 20
142.912896
 30
0.0
 11
52.825199
 21
142.912896
 31
0.0
  0
LINE
  5
19A
100
AcDbEntity
  8
レイヤー_2
 62
     7
100
AcDbLine
 10
52.825199
 20
142.841583
 30
0.0
 11
50.77864
 21
142.841583
 31
0.0
  0
LINE
  5
199
100
AcDbEntity
  8
レイヤー_2
 62
     7
100
AcDbLine
 10
54.943589
 20
142.841583
 30
0.0
 11
52.825199
 21
142.841583
 31
0.0
  0
LINE
  5
198
100
AcDbEntity
  8
レイヤー_2
 62
     7
100
AcDbLine
 10
120.180089
 20
140.934722
 30
0.0
 11
120.180089
 21
143.053456
 31
0.0
  0
LINE
  5
197
100
AcDbEntity
  8
レイヤー_2
 62
     7
100
AcDbLine
 10
118.132324
 20
143.053456
 30
0.0
 11
118.132324
 21
140.934722
 31
0.0
  0
LINE
  5
196
100
AcDbEntity
  8
レイヤー_2
 62
     7
100
AcDbLine
 10
120.31996
 20
138.605493
 30
0.0
 11
119.614749
 21
138.464244
 31
0.0
  0
POLYLINE
  5
191
100
AcDbEntity
  8
レイヤー_2
 62
     7
100
AcDb2dPolyline
 66
     1
 10
0.0
 20
0.0
 30
0.0
  0
VERTEX
  5
192
100
AcDbEntity
  8
レイヤー_2
 62
     7
100
AcDbVertex
100
AcDb2dVertex
 10
119.614749
 20
138.464244
 30
0.0
  0
VERTEX
  5
193
100
AcDbEntity
  8
レイヤー_2
 62
     7
100
AcDbVertex
100
AcDb2dVertex
 10
119.544124
 20
138.464244
 30
0.0
  0
VERTEX
  5
194
100
AcDbEntity
  8
レイヤー_2
 62
     7
100
AcDbVertex
100
AcDb2dVertex
 10
118.83788
 20
138.605493
 30
0.0
  0
SEQEND
  5
195
100
AcDbEntity
  8
レイヤー_2
 62
     7
  0
LINE
  5
190
100
AcDbEntity
  8
レイヤー_2
 62
     7
100
AcDbLine
 10
118.83788
 20
138.605493
 30
0.0
 11
118.83788
 21
140.865131
 31
0.0
  0
POLYLINE
  5
18B
100
AcDbEntity
  8
レイヤー_2
 62
     7
100
AcDb2dPolyline
 66
     1
 10
0.0
 20
0.0
 30
0.0
  0
VERTEX
  5
18C
100
AcDbEntity
  8
レイヤー_2
 62
     7
100
AcDbVertex
100
AcDb2dVertex
 10
119.614749
 20
140.934722
 30
0.0
  0
VERTEX
  5
18D
100
AcDbEntity
  8
レイヤー_2
 62
     7
100
AcDbVertex
100
AcDb2dVertex
 10
119.544124
 20
140.934722
 30
0.0
  0
VERTEX
  5
18E
100
AcDbEntity
  8
レイヤー_2
 62
     7
100
AcDbVertex
100
AcDb2dVertex
 10
118.83788
 20
140.865131
 30
0.0
  0
SEQEND
  5
18F
100
AcDbEntity
  8
レイヤー_2
 62
     7
  0
LINE
  5
18A
100
AcDbEntity
  8
レイヤー_2
 62
     7
100
AcDbLine
 10
120.31996
 20
140.865131
 30
0.0
 11
119.614749
 21
140.934722
 31
0.0
  0
LINE
  5
189
100
AcDbEntity
  8
レイヤー_2
 62
     7
100
AcDbLine
 10
120.31996
 20
138.605493
 30
0.0
 11
120.31996
 21
140.865131
 31
0.0
  0
POLYLINE
  5
184
100
AcDbEntity
  8
レイヤー_2
 62
     7
100
AcDb2dPolyline
 66
     1
 10
0.0
 20
0.0
 30
0.0
  0
VERTEX
  5
185
100
AcDbEntity
  8
レイヤー_2
 62
     7
100
AcDbVertex
100
AcDb2dVertex
 10
118.83788
 20
140.865131
 30
0.0
  0
VERTEX
  5
186
100
AcDbEntity
  8
レイヤー_2
 62
     7
100
AcDbVertex
100
AcDb2dVertex
 10
118.414822
 20
140.934722
 30
0.0
  0
VERTEX
  5
187
100
AcDbEntity
  8
レイヤー_2
 62
     7
100
AcDbVertex
100
AcDb2dVertex
 10
118.272884
 20
140.934722
 30
0.0
  0
SEQEND
  5
188
100
AcDbEntity
  8
レイヤー_2
 62
     7
  0
LINE
  5
183
100
AcDbEntity
  8
レイヤー_2
 62
     7
100
AcDbLine
 10
119.614749
 20
140.934722
 30
0.0
 11
118.272884
 21
140.934722
 31
0.0
  0
POLYLINE
  5
17E
100
AcDbEntity
  8
レイヤー_2
 62
     7
100
AcDb2dPolyline
 66
     1
 10
0.0
 20
0.0
 30
0.0
  0
VERTEX
  5
17F
100
AcDbEntity
  8
レイヤー_2
 62
     7
100
AcDbVertex
100
AcDb2dVertex
 10
118.83788
 20
138.605493
 30
0.0
  0
VERTEX
  5
180
100
AcDbEntity
  8
レイヤー_2
 62
     7
100
AcDbVertex
100
AcDb2dVertex
 10
118.414822
 20
138.464244
 30
0.0
  0
VERTEX
  5
181
100
AcDbEntity
  8
レイヤー_2
 62
     7
100
AcDbVertex
100
AcDb2dVertex
 10
118.272884
 20
138.464244
 30
0.0
  0
SEQEND
  5
182
100
AcDbEntity
  8
レイヤー_2
 62
     7
  0
LINE
  5
17D
100
AcDbEntity
  8
レイヤー_2
 62
     7
100
AcDbLine
 10
119.614749
 20
138.464244
 30
0.0
 11
118.272884
 21
138.464244
 31
0.0
  0
POLYLINE
  5
178
100
AcDbEntity
  8
レイヤー_2
 62
     7
100
AcDb2dPolyline
 66
     1
 10
0.0
 20
0.0
 30
0.0
  0
VERTEX
  5
179
100
AcDbEntity
  8
レイヤー_2
 62
     7
100
AcDbVertex
100
AcDb2dVertex
 10
118.272884
 20
138.464244
 30
0.0
  0
VERTEX
  5
17A
100
AcDbEntity
  8
レイヤー_2
 62
     7
100
AcDbVertex
100
AcDb2dVertex
 10
117.849482
 20
138.53418
 30
0.0
  0
VERTEX
  5
17B
100
AcDbEntity
  8
レイヤー_2
 62
     7
100
AcDbVertex
100
AcDb2dVertex
 10
117.707888
 20
138.605493
 30
0.0
  0
SEQEND
  5
17C
100
AcDbEntity
  8
レイヤー_2
 62
     7
  0
LINE
  5
177
100
AcDbEntity
  8
レイヤー_2
 62
     7
100
AcDbLine
 10
117.707888
 20
138.605493
 30
0.0
 11
117.707888
 21
140.865131
 31
0.0
  0
POLYLINE
  5
172
100
AcDbEntity
  8
レイヤー_2
 62
     7
100
AcDb2dPolyline
 66
     1
 10
0.0
 20
0.0
 30
0.0
  0
VERTEX
  5
173
100
AcDbEntity
  8
レイヤー_2
 62
     7
100
AcDbVertex
100
AcDb2dVertex
 10
118.272884
 20
140.934722
 30
0.0
  0
VERTEX
  5
174
100
AcDbEntity
  8
レイヤー_2
 62
     7
100
AcDbVertex
100
AcDb2dVertex
 10
117.849482
 20
140.865131
 30
0.0
  0
VERTEX
  5
175
100
AcDbEntity
  8
レイヤー_2
 62
     7
100
AcDbVertex
100
AcDb2dVertex
 10
117.707888
 20
140.865131
 30
0.0
  0
SEQEND
  5
176
100
AcDbEntity
  8
レイヤー_2
 62
     7
  0
LINE
  5
171
100
AcDbEntity
  8
レイヤー_2
 62
     7
100
AcDbLine
 10
120.461553
 20
140.934722
 30
0.0
 11
120.31996
 21
140.865131
 31
0.0
  0
LINE
  5
170
100
AcDbEntity
  8
レイヤー_2
 62
     7
100
AcDbLine
 10
120.461553
 20
140.934722
 30
0.0
 11
119.614749
 21
140.934722
 31
0.0
  0
LINE
  5
16F
100
AcDbEntity
  8
レイヤー_2
 62
     7
100
AcDbLine
 10
120.461553
 20
138.464244
 30
0.0
 11
120.31996
 21
138.605493
 31
0.0
  0
LINE
  5
16E
100
AcDbEntity
  8
レイヤー_2
 62
     7
100
AcDbLine
 10
120.461553
 20
138.464244
 30
0.0
 11
119.614749
 21
138.464244
 31
0.0
  0
LINE
  5
16D
100
AcDbEntity
  8
レイヤー_2
 62
     7
100
AcDbLine
 10
117.707888
 20
138.605493
 30
0.0
 11
117.778857
 21
138.464244
 31
0.0
  0
LINE
  5
16C
100
AcDbEntity
  8
レイヤー_2
 62
     7
100
AcDbLine
 10
118.272884
 20
138.464244
 30
0.0
 11
117.778857
 21
138.464244
 31
0.0
  0
LINE
  5
16B
100
AcDbEntity
  8
レイヤー_2
 62
     7
100
AcDbLine
 10
117.707888
 20
140.865131
 30
0.0
 11
117.778857
 21
140.934722
 31
0.0
  0
LINE
  5
16A
100
AcDbEntity
  8
レイヤー_2
 62
     7
100
AcDbLine
 10
118.272884
 20
140.934722
 30
0.0
 11
117.778857
 21
140.934722
 31
0.0
  0
LINE
  5
169
100
AcDbEntity
  8
レイヤー_2
 62
     7
100
AcDbLine
 10
120.673771
 20
138.605493
 30
0.0
 11
120.602802
 21
138.53418
 31
0.0
  0
LINE
  5
168
100
AcDbEntity
  8
レイヤー_2
 62
     7
100
AcDbLine
 10
120.532867
 20
138.464244
 30
0.0
 11
120.461553
 21
138.464244
 31
0.0
  0
LINE
  5
167
100
AcDbEntity
  8
レイヤー_2
 62
     7
100
AcDbLine
 10
120.673771
 20
140.865131
 30
0.0
 11
120.461553
 21
140.934722
 31
0.0
  0
LINE
  5
166
100
AcDbEntity
  8
レイヤー_2
 62
     7
100
AcDbLine
 10
120.673771
 20
138.605493
 30
0.0
 11
120.673771
 21
140.865131
 31
0.0
  0
LINE
  5
165
100
AcDbEntity
  8
レイヤー_2
 62
     7
100
AcDbLine
 10
120.532867
 20
140.934722
 30
0.0
 11
120.461553
 21
140.934722
 31
0.0
  0
LINE
  5
164
100
AcDbEntity
  8
レイヤー_2
 62
     7
100
AcDbLine
 10
120.532867
 20
138.464244
 30
0.0
 11
120.461553
 21
138.464244
 31
0.0
  0
LINE
  5
163
100
AcDbEntity
  8
レイヤー_2
 62
     7
100
AcDbLine
 10
120.180089
 20
133.52191
 30
0.0
 11
120.180089
 21
137.688409
 31
0.0
  0
LINE
  5
162
100
AcDbEntity
  8
レイヤー_2
 62
     7
100
AcDbLine
 10
120.180089
 20
138.53418
 30
0.0
 11
120.180089
 21
139.311738
 31
0.0
  0
LINE
  5
161
100
AcDbEntity
  8
レイヤー_2
 62
     7
100
AcDbLine
 10
120.180089
 20
140.158887
 30
0.0
 11
120.180089
 21
144.324007
 31
0.0
  0
LINE
  5
160
100
AcDbEntity
  8
レイヤー_2
 62
     7
100
AcDbLine
 10
120.180089
 20
145.170812
 30
0.0
 11
120.180089
 21
146.019683
 31
0.0
  0
LINE
  5
15F
100
AcDbEntity
  8
レイヤー_2
 62
     7
100
AcDbLine
 10
120.180089
 20
146.865454
 30
0.0
 11
120.180089
 21
151.030575
 31
0.0
  0
LINE
  5
15E
100
AcDbEntity
  8
レイヤー_2
 62
     7
100
AcDbLine
 10
120.180089
 20
151.879446
 30
0.0
 11
120.180089
 21
152.655282
 31
0.0
  0
LINE
  5
15D
100
AcDbEntity
  8
レイヤー_2
 62
     7
100
AcDbLine
 10
120.180089
 20
153.502603
 30
0.0
 11
120.180089
 21
157.668757
 31
0.0
  0
LINE
  5
15C
100
AcDbEntity
  8
レイヤー_2
 62
     7
100
AcDbLine
 10
120.180089
 20
158.515734
 30
0.0
 11
120.180089
 21
159.361332
 31
0.0
  0
LINE
  5
15B
100
AcDbEntity
  8
レイヤー_2
 62
     7
100
AcDbLine
 10
120.180089
 20
160.208826
 30
0.0
 11
120.180089
 21
164.375152
 31
0.0
  0
LINE
  5
15A
100
AcDbEntity
  8
レイヤー_2
 62
     7
100
AcDbLine
 10
120.180089
 20
165.222473
 30
0.0
 11
120.180089
 21
165.998481
 31
0.0
  0
LINE
  5
159
100
AcDbEntity
  8
レイヤー_2
 62
     7
100
AcDbLine
 10
120.180089
 20
166.84563
 30
0.0
 11
120.180089
 21
171.01075
 31
0.0
  0
LINE
  5
158
100
AcDbEntity
  8
レイヤー_2
 62
     7
100
AcDbLine
 10
120.180089
 20
171.857727
 30
0.0
 11
120.180089
 21
172.706771
 31
0.0
  0
LINE
  5
157
100
AcDbEntity
  8
レイヤー_2
 62
     7
100
AcDbLine
 10
120.180089
 20
173.55392
 30
0.0
 11
120.180089
 21
177.718868
 31
0.0
  0
LINE
  5
156
100
AcDbEntity
  8
レイヤー_2
 62
     7
100
AcDbLine
 10
120.180089
 20
178.566189
 30
0.0
 11
120.180089
 21
179.342025
 31
0.0
  0
LINE
  5
155
100
AcDbEntity
  8
レイヤー_2
 62
     7
100
AcDbLine
 10
120.180089
 20
180.189346
 30
0.0
 11
120.180089
 21
184.355844
 31
0.0
  0
LINE
  5
154
100
AcDbEntity
  8
レイヤー_2
 62
     7
100
AcDbLine
 10
120.180089
 20
185.203166
 30
0.0
 11
120.180089
 21
186.050487
 31
0.0
  0
LINE
  5
153
100
AcDbEntity
  8
レイヤー_2
 62
     7
100
AcDbLine
 10
120.180089
 20
186.895913
 30
0.0
 11
120.180089
 21
191.062584
 31
0.0
  0
LINE
  5
152
100
AcDbEntity
  8
レイヤー_2
 62
     7
100
AcDbLine
 10
120.180089
 20
191.909905
 30
0.0
 11
120.180089
 21
192.685741
 31
0.0
  0
LINE
  5
151
100
AcDbEntity
  8
レイヤー_2
 62
     7
100
AcDbLine
 10
120.180089
 20
193.533062
 30
0.0
 11
120.180089
 21
197.699561
 31
0.0
  0
LINE
  5
150
100
AcDbEntity
  8
レイヤー_2
 62
     7
100
AcDbLine
 10
120.180089
 20
198.545504
 30
0.0
 11
120.180089
 21
199.392997
 31
0.0
  0
LINE
  5
14F
100
AcDbEntity
  8
レイヤー_2
 62
     7
100
AcDbLine
 10
120.180089
 20
200.241007
 30
0.0
 11
120.180089
 21
204.406645
 31
0.0
  0
LINE
  5
14E
100
AcDbEntity
  8
レイヤー_2
 62
     7
100
AcDbLine
 10
120.180089
 20
205.253105
 30
0.0
 11
120.180089
 21
206.029801
 31
0.0
  0
LINE
  5
14D
100
AcDbEntity
  8
レイヤー_2
 62
     7
100
AcDbLine
 10
120.180089
 20
206.877295
 30
0.0
 11
120.180089
 21
209.348462
 31
0.0
  0
LINE
  5
14C
100
AcDbEntity
  8
レイヤー_2
 62
     7
100
AcDbLine
 10
120.180089
 20
209.348462
 30
0.0
 11
120.180089
 21
208.571593
 31
0.0
  0
LINE
  5
14B
100
AcDbEntity
  8
レイヤー_2
 62
     7
100
AcDbLine
 10
52.825199
 20
88.995774
 30
0.0
 11
52.825199
 21
93.162272
 31
0.0
  0
LINE
  5
14A
100
AcDbEntity
  8
レイヤー_2
 62
     7
100
AcDbLine
 10
52.825199
 20
94.009766
 30
0.0
 11
52.825199
 21
94.856915
 31
0.0
  0
LINE
  5
149
100
AcDbEntity
  8
レイヤー_2
 62
     7
100
AcDbLine
 10
52.825199
 20
95.702341
 30
0.0
 11
52.825199
 21
99.869184
 31
0.0
  0
LINE
  5
148
100
AcDbEntity
  8
レイヤー_2
 62
     7
100
AcDbLine
 10
52.825199
 20
121.237733
 30
0.0
 11
52.825199
 21
122.084882
 31
0.0
  0
LINE
  5
147
100
AcDbEntity
  8
レイヤー_2
 62
     7
100
AcDbLine
 10
52.825199
 20
122.932031
 30
0.0
 11
52.825199
 21
127.097152
 31
0.0
  0
LINE
  5
146
100
AcDbEntity
  8
レイヤー_2
 62
     7
100
AcDbLine
 10
52.825199
 20
127.945679
 30
0.0
 11
52.825199
 21
128.791794
 31
0.0
  0
LINE
  5
145
100
AcDbEntity
  8
レイヤー_2
 62
     7
100
AcDbLine
 10
52.825199
 20
129.638943
 30
0.0
 11
52.825199
 21
133.805442
 31
0.0
  0
LINE
  5
144
100
AcDbEntity
  8
レイヤー_2
 62
     7
100
AcDbLine
 10
52.825199
 20
134.581622
 30
0.0
 11
52.825199
 21
135.428426
 31
0.0
  0
LINE
  5
143
100
AcDbEntity
  8
レイヤー_2
 62
     7
100
AcDbLine
 10
52.825199
 20
136.275575
 30
0.0
 11
52.825199
 21
140.440696
 31
0.0
  0
LINE
  5
142
100
AcDbEntity
  8
レイヤー_2
 62
     7
100
AcDbLine
 10
52.825199
 20
141.288189
 30
0.0
 11
52.825199
 21
142.135338
 31
0.0
  0
LINE
  5
141
100
AcDbEntity
  8
レイヤー_2
 62
     7
100
AcDbLine
 10
52.825199
 20
142.982142
 30
0.0
 11
52.825199
 21
147.147263
 31
0.0
  0
LINE
  5
140
100
AcDbEntity
  8
レイヤー_2
 62
     7
100
AcDbLine
 10
52.825199
 20
147.924821
 30
0.0
 11
52.825199
 21
148.77197
 31
0.0
  0
LINE
  5
13F
100
AcDbEntity
  8
レイヤー_2
 62
     7
100
AcDbLine
 10
52.825199
 20
149.619463
 30
0.0
 11
52.825199
 21
153.785617
 31
0.0
  0
LINE
  5
13E
100
AcDbEntity
  8
レイヤー_2
 62
     7
100
AcDbLine
 10
52.825199
 20
154.631216
 30
0.0
 11
52.825199
 21
155.478193
 31
0.0
  0
LINE
  5
13D
100
AcDbEntity
  8
レイヤー_2
 62
     7
100
AcDbLine
 10
52.825199
 20
156.325686
 30
0.0
 11
52.825199
 21
160.492185
 31
0.0
  0
LINE
  5
13C
100
AcDbEntity
  8
レイヤー_2
 62
     7
100
AcDbLine
 10
52.825199
 20
161.268193
 30
0.0
 11
52.825199
 21
162.115342
 31
0.0
  0
LINE
  5
13B
100
AcDbEntity
  8
レイヤー_2
 62
     7
100
AcDbLine
 10
52.825199
 20
162.962663
 30
0.0
 11
52.825199
 21
167.127611
 31
0.0
  0
LINE
  5
13A
100
AcDbEntity
  8
レイヤー_2
 62
     7
100
AcDbLine
 10
52.825199
 20
167.97476
 30
0.0
 11
52.825199
 21
168.823804
 31
0.0
  0
LINE
  5
139
100
AcDbEntity
  8
レイヤー_2
 62
     7
100
AcDbLine
 10
52.825199
 20
169.599639
 30
0.0
 11
52.825199
 21
173.834178
 31
0.0
  0
LINE
  5
138
100
AcDbEntity
  8
レイヤー_2
 62
     7
100
AcDbLine
 10
52.825199
 20
174.611909
 30
0.0
 11
52.825199
 21
175.459058
 31
0.0
  0
LINE
  5
137
100
AcDbEntity
  8
レイヤー_2
 62
     7
100
AcDbLine
 10
52.825199
 20
176.306379
 30
0.0
 11
52.825199
 21
180.47305
 31
0.0
  0
LINE
  5
136
100
AcDbEntity
  8
レイヤー_2
 62
     7
100
AcDbLine
 10
52.825199
 20
181.320199
 30
0.0
 11
52.825199
 21
182.165797
 31
0.0
  0
LINE
  5
135
100
AcDbEntity
  8
レイヤー_2
 62
     7
100
AcDbLine
 10
52.825199
 20
182.943355
 30
0.0
 11
52.825199
 21
187.179617
 31
0.0
  0
LINE
  5
134
100
AcDbEntity
  8
レイヤー_2
 62
     7
100
AcDbLine
 10
52.825199
 20
187.955625
 30
0.0
 11
52.825199
 21
188.802774
 31
0.0
  0
LINE
  5
133
100
AcDbEntity
  8
レイヤー_2
 62
     7
100
AcDbLine
 10
52.825199
 20
189.650095
 30
0.0
 11
52.825199
 21
193.816421
 31
0.0
  0
LINE
  5
132
100
AcDbEntity
  8
レイヤー_2
 62
     7
100
AcDbLine
 10
52.825199
 20
194.662192
 30
0.0
 11
52.825199
 21
195.509513
 31
0.0
  0
LINE
  5
131
100
AcDbEntity
  8
レイヤー_2
 62
     7
100
AcDbLine
 10
52.825199
 20
196.287071
 30
0.0
 11
52.825199
 21
200.523678
 31
0.0
  0
LINE
  5
130
100
AcDbEntity
  8
レイヤー_2
 62
     7
100
AcDbLine
 10
52.825199
 20
201.299685
 30
0.0
 11
52.825199
 21
202.146834
 31
0.0
  0
LINE
  5
12F
100
AcDbEntity
  8
レイヤー_2
 62
     7
100
AcDbLine
 10
52.825199
 20
202.994156
 30
0.0
 11
52.825199
 21
207.159104
 31
0.0
  0
LINE
  5
12E
100
AcDbEntity
  8
レイヤー_2
 62
     7
100
AcDbLine
 10
52.825199
 20
208.007114
 30
0.0
 11
52.825199
 21
208.853574
 31
0.0
  0
LINE
  5
12D
100
AcDbEntity
  8
レイヤー_2
 62
     7
100
AcDbLine
 10
52.825199
 20
209.630271
 30
0.0
 11
52.825199
 21
213.79608
 31
0.0
  0
LINE
  5
12C
100
AcDbEntity
  8
レイヤー_2
 62
     7
100
AcDbLine
 10
52.825199
 20
214.643401
 30
0.0
 11
52.825199
 21
215.49055
 31
0.0
  0
LINE
  5
12B
100
AcDbEntity
  8
レイヤー_2
 62
     7
100
AcDbLine
 10
52.825199
 20
216.337872
 30
0.0
 11
52.825199
 21
220.503509
 31
0.0
  0
LINE
  5
12A
100
AcDbEntity
  8
レイヤー_2
 62
     7
100
AcDbLine
 10
52.825199
 20
221.35083
 30
0.0
 11
52.825199
 21
222.19729
 31
0.0
  0
LINE
  5
129
100
AcDbEntity
  8
レイヤー_2
 62
     7
100
AcDbLine
 10
52.825199
 20
222.973987
 30
0.0
 11
52.825199
 21
227.139796
 31
0.0
  0
LINE
  5
128
100
AcDbEntity
  8
レイヤー_2
 62
     7
100
AcDbLine
 10
52.825199
 20
227.986945
 30
0.0
 11
52.825199
 21
228.834266
 31
0.0
  0
LINE
  5
127
100
AcDbEntity
  8
レイヤー_2
 62
     7
100
AcDbLine
 10
52.825199
 20
229.469198
 30
0.0
 11
52.825199
 21
228.62291
 31
0.0
  0
LINE
  5
126
100
AcDbEntity
  8
レイヤー_2
 62
     7
100
AcDbLine
 10
48.519347
 20
93.656643
 30
0.0
 11
52.684295
 21
93.656643
 31
0.0
  0
LINE
  5
125
100
AcDbEntity
  8
レイヤー_2
 62
     7
100
AcDbLine
 10
53.532477
 20
93.656643
 30
0.0
 11
54.378765
 21
93.656643
 31
0.0
  0
LINE
  5
124
100
AcDbEntity
  8
レイヤー_2
 62
     7
100
AcDbLine
 10
55.226086
 20
93.656643
 30
0.0
 11
59.391896
 21
93.656643
 31
0.0
  0
LINE
  5
123
100
AcDbEntity
  8
レイヤー_2
 62
     7
100
AcDbLine
 10
60.239217
 20
93.656643
 30
0.0
 11
61.085505
 21
93.656643
 31
0.0
  0
LINE
  5
122
100
AcDbEntity
  8
レイヤー_2
 62
     7
100
AcDbLine
 10
61.863063
 20
93.656643
 30
0.0
 11
66.028872
 21
93.656643
 31
0.0
  0
LINE
  5
121
100
AcDbEntity
  8
レイヤー_2
 62
     7
100
AcDbLine
 10
66.87516
 20
93.656643
 30
0.0
 11
67.722481
 21
93.656643
 31
0.0
  0
LINE
  5
120
100
AcDbEntity
  8
レイヤー_2
 62
     7
100
AcDbLine
 10
68.570664
 20
93.656643
 30
0.0
 11
72.735612
 21
93.656643
 31
0.0
  0
LINE
  5
11F
100
AcDbEntity
  8
レイヤー_2
 62
     7
100
AcDbLine
 10
73.582933
 20
93.656643
 30
0.0
 11
74.430082
 21
93.656643
 31
0.0
  0
LINE
  5
11E
100
AcDbEntity
  8
レイヤー_2
 62
     7
100
AcDbLine
 10
75.206779
 20
93.656643
 30
0.0
 11
78.172317
 21
93.656643
 31
0.0
  0
LINE
  5
11D
100
AcDbEntity
  8
レイヤー_2
 62
     7
100
AcDbLine
 10
78.172317
 20
93.656643
 30
0.0
 11
77.324996
 21
93.656643
 31
0.0
  0
LINE
  5
11C
100
AcDbEntity
  8
レイヤー_2
 62
     7
100
AcDbLine
 10
169.036366
 20
218.526369
 30
0.0
 11
168.894773
 21
222.691317
 31
0.0
  0
LINE
  5
11B
100
AcDbEntity
  8
レイヤー_2
 62
     7
100
AcDbLine
 10
168.823459
 20
223.539327
 30
0.0
 11
168.823459
 21
224.316024
 31
0.0
  0
LINE
  5
11A
100
AcDbEntity
  8
レイヤー_2
 62
     7
100
AcDbLine
 10
168.823459
 20
224.386648
 30
0.0
 11
168.823459
 21
223.539327
 31
0.0
  0
LINE
  5
119
100
AcDbEntity
  8
レイヤー_2
 62
     7
100
AcDbLine
 10
73.794979
 20
88.995774
 30
0.0
 11
73.794979
 21
93.162272
 31
0.0
  0
LINE
  5
118
100
AcDbEntity
  8
レイヤー_2
 62
     7
100
AcDbLine
 10
73.794979
 20
94.009766
 30
0.0
 11
73.794979
 21
94.856915
 31
0.0
  0
LINE
  5
117
100
AcDbEntity
  8
レイヤー_2
 62
     7
100
AcDbLine
 10
73.794979
 20
95.702341
 30
0.0
 11
73.794979
 21
99.869184
 31
0.0
  0
LINE
  5
116
100
AcDbEntity
  8
レイヤー_2
 62
     7
100
AcDbLine
 10
73.794979
 20
136.275575
 30
0.0
 11
73.794979
 21
140.440696
 31
0.0
  0
LINE
  5
115
100
AcDbEntity
  8
レイヤー_2
 62
     7
100
AcDbLine
 10
73.794979
 20
141.288189
 30
0.0
 11
73.794979
 21
142.135338
 31
0.0
  0
LINE
  5
114
100
AcDbEntity
  8
レイヤー_2
 62
     7
100
AcDbLine
 10
73.794979
 20
142.982142
 30
0.0
 11
73.794979
 21
147.147263
 31
0.0
  0
LINE
  5
113
100
AcDbEntity
  8
レイヤー_2
 62
     7
100
AcDbLine
 10
73.794979
 20
147.924821
 30
0.0
 11
73.794979
 21
148.77197
 31
0.0
  0
LINE
  5
112
100
AcDbEntity
  8
レイヤー_2
 62
     7
100
AcDbLine
 10
73.794979
 20
149.619463
 30
0.0
 11
73.794979
 21
153.785617
 31
0.0
  0
LINE
  5
111
100
AcDbEntity
  8
レイヤー_2
 62
     7
100
AcDbLine
 10
73.794979
 20
154.631216
 30
0.0
 11
73.794979
 21
155.478193
 31
0.0
  0
LINE
  5
110
100
AcDbEntity
  8
レイヤー_2
 62
     7
100
AcDbLine
 10
73.794979
 20
156.325686
 30
0.0
 11
73.794979
 21
160.492185
 31
0.0
  0
LINE
  5
10F
100
AcDbEntity
  8
レイヤー_2
 62
     7
100
AcDbLine
 10
73.794979
 20
161.268193
 30
0.0
 11
73.794979
 21
162.115342
 31
0.0
  0
LINE
  5
10E
100
AcDbEntity
  8
レイヤー_2
 62
     7
100
AcDbLine
 10
73.794979
 20
162.962663
 30
0.0
 11
73.794979
 21
167.127611
 31
0.0
  0
LINE
  5
10D
100
AcDbEntity
  8
レイヤー_2
 62
     7
100
AcDbLine
 10
73.794979
 20
167.97476
 30
0.0
 11
73.794979
 21
168.823804
 31
0.0
  0
LINE
  5
10C
100
AcDbEntity
  8
レイヤー_2
 62
     7
100
AcDbLine
 10
73.794979
 20
169.599639
 30
0.0
 11
73.794979
 21
173.834178
 31
0.0
  0
LINE
  5
10B
100
AcDbEntity
  8
レイヤー_2
 62
     7
100
AcDbLine
 10
73.794979
 20
174.611909
 30
0.0
 11
73.794979
 21
175.459058
 31
0.0
  0
LINE
  5
10A
100
AcDbEntity
  8
レイヤー_2
 62
     7
100
AcDbLine
 10
73.794979
 20
176.306379
 30
0.0
 11
73.794979
 21
176.447111
 31
0.0
  0
LINE
  5
109
100
AcDbEntity
  8
レイヤー_2
 62
     7
100
AcDbLine
 10
73.794979
 20
176.447111
 30
0.0
 11
73.794979
 21
175.671275
 31
0.0
  0
LINE
  5
108
100
AcDbEntity
  8
レイヤー_2
 62
     7
100
AcDbLine
 10
33.834455
 20
158.656982
 30
0.0
 11
33.834455
 21
132.381239
 31
0.0
  0
LINE
  5
107
100
AcDbEntity
  8
レイヤー_2
 62
     7
100
AcDbLine
 10
41.741466
 20
157.668757
 30
0.0
 11
32.774916
 21
157.668757
 31
0.0
  0
LINE
  5
106
100
AcDbEntity
  8
レイヤー_2
 62
     7
100
AcDbLine
 10
41.741466
 20
152.443064
 30
0.0
 11
32.774916
 21
152.443064
 31
0.0
  0
LINE
  5
105
100
AcDbEntity
  8
レイヤー_2
 62
     7
100
AcDbLine
 10
34.540011
 20
151.769892
 30
0.0
 11
33.056897
 21
153.182381
 31
0.0
  0
LINE
  5
104
100
AcDbEntity
  8
レイヤー_2
 62
     7
100
AcDbLine
 10
34.540011
 20
157.031931
 30
0.0
 11
33.056897
 21
158.515734
 31
0.0
  0
LINE
  5
103
100
AcDbEntity
  8
レイヤー_2
 62
     7
100
AcDbLine
 10
130.840937
 20
157.668757
 30
0.0
 11
194.311309
 21
157.668757
 31
0.0
  0
LINE
  5
102
100
AcDbEntity
  8
レイヤー_2
 62
     7
100
AcDbLine
 10
80.359953
 20
87.089258
 30
0.0
 11
70.405177
 21
96.97427
 31
0.0
  0
LINE
  5
101
100
AcDbEntity
  8
レイヤー_2
 62
     7
100
AcDbLine
 10
80.359953
 20
87.089258
 30
0.0
 11
96.59531
 21
87.089258
 31
0.0
  0
LINE
  5
100
100
AcDbEntity
  8
レイヤー_2
 62
     7
100
AcDbLine
 10
69.98143
 20
96.196712
 30
0.0
 11
72.735612
 21
96.196712
 31
0.0
  0
LINE
  5
FF
100
AcDbEntity
  8
レイヤー_2
 62
     7
100
AcDbLine
 10
74.924281
 20
91.043538
 30
0.0
 11
77.677257
 21
91.043538
 31
0.0
  0
LINE
  5
FE
100
AcDbEntity
  8
レイヤー_2
 62
     7
100
AcDbLine
 10
56.694386
 20
89.736125
 30
0.0
 11
49.371663
 21
96.97427
 31
0.0
  0
LINE
  5
FD
100
AcDbEntity
  8
レイヤー_2
 62
     7
100
AcDbLine
 10
48.947917
 20
96.196712
 30
0.0
 11
51.702098
 21
96.196712
 31
0.0
  0
LINE
  5
FC
100
AcDbEntity
  8
レイヤー_2
 62
     7
100
AcDbLine
 10
53.890767
 20
91.043538
 30
0.0
 11
56.643571
 21
91.043538
 31
0.0
  0
LINE
  5
FB
100
AcDbEntity
  8
レイヤー_2
 62
     7
100
AcDbLine
 10
182.379565
 20
219.584874
 30
0.0
 11
172.425307
 21
219.584874
 31
0.0
  0
LINE
  5
FA
100
AcDbEntity
  8
レイヤー_2
 62
     7
100
AcDbLine
 10
181.602696
 20
220.714865
 30
0.0
 11
181.602696
 21
156.819713
 31
0.0
  0
LINE
  5
F9
100
AcDbEntity
  8
レイヤー_2
 62
     7
100
AcDbLine
 10
168.742499
 20
226.045462
 30
0.0
 11
168.742499
 21
236.941782
 31
0.0
  0
LINE
  5
F8
100
AcDbEntity
  8
レイヤー_2
 62
     7
100
AcDbLine
 10
119.885533
 20
218.773382
 30
0.0
 11
119.885533
 21
236.870641
 31
0.0
  0
LINE
  5
F7
100
AcDbEntity
  8
レイヤー_2
 62
     7
100
AcDbLine
 10
119.107975
 20
236.093944
 30
0.0
 11
169.588615
 21
236.093944
 31
0.0
  0
LINE
  5
F6
100
AcDbEntity
  8
レイヤー_2
 62
     7
100
AcDbLine
 10
194.028467
 20
228.057397
 30
0.0
 11
173.342391
 21
228.057397
 31
0.0
  0
LINE
  5
F5
100
AcDbEntity
  8
レイヤー_2
 62
     7
100
AcDbLine
 10
193.957842
 20
227.280528
 30
0.0
 11
192.475418
 21
228.763642
 31
0.0
  0
LINE
  5
F4
100
AcDbEntity
  8
レイヤー_2
 62
     7
100
AcDbLine
 10
120.591089
 20
236.800189
 30
0.0
 11
119.179289
 21
235.388388
 31
0.0
  0
LINE
  5
F3
100
AcDbEntity
  8
レイヤー_2
 62
     7
100
AcDbLine
 10
169.518335
 20
236.729736
 30
0.0
 11
168.03591
 21
235.317936
 31
0.0
  0
LINE
  5
F2
100
AcDbEntity
  8
レイヤー_2
 62
     7
100
AcDbLine
 10
182.168037
 20
218.949943
 30
0.0
 11
180.685956
 21
220.433057
 31
0.0
  0
LINE
  5
F1
100
AcDbEntity
  8
レイヤー_2
 62
     7
100
AcDbLine
 10
182.30963
 20
156.891199
 30
0.0
 11
180.825827
 21
158.373107
 31
0.0
  0
LINE
  5
F0
100
AcDbEntity
  8
レイヤー_2
 62
     7
100
AcDbLine
 10
193.251598
 20
228.904719
 30
0.0
 11
193.251598
 21
156.74995
 31
0.0
  0
LINE
  5
EF
100
AcDbEntity
  8
レイヤー_2
 62
     7
100
AcDbLine
 10
193.957842
 20
156.891199
 30
0.0
 11
192.475418
 21
158.373107
 31
0.0
  0
LINE
  5
EE
100
AcDbEntity
  8
レイヤー_2
 62
     7
100
AcDbLine
 10
46.812474
 20
157.844457
 30
0.0
 11
46.812474
 21
236.941782
 31
0.0
  0
LINE
  5
ED
100
AcDbEntity
  8
レイヤー_2
 62
     7
100
AcDbLine
 10
58.250191
 20
158.055124
 30
0.0
 11
58.250191
 21
237.012406
 31
0.0
  0
LINE
  5
EC
100
AcDbEntity
  8
レイヤー_2
 62
     7
100
AcDbLine
 10
45.965153
 20
236.093944
 30
0.0
 11
59.168826
 21
236.093944
 31
0.0
  0
LINE
  5
EB
100
AcDbEntity
  8
レイヤー_2
 62
     7
100
AcDbLine
 10
47.518891
 20
236.800189
 30
0.0
 11
46.106919
 21
235.388388
 31
0.0
  0
LINE
  5
EA
100
AcDbEntity
  8
レイヤー_2
 62
     7
100
AcDbLine
 10
58.955747
 20
236.729736
 30
0.0
 11
57.544808
 21
235.317936
 31
0.0
  0
LINE
  5
E9
100
AcDbEntity
  8
レイヤー_2
 62
     7
100
AcDbLine
 10
168.894773
 20
175.24684
 30
0.0
 11
168.894773
 21
156.819713
 31
0.0
  0
LINE
  5
E8
100
AcDbEntity
  8
レイヤー_2
 62
     7
100
AcDbLine
 10
169.671642
 20
156.891199
 30
0.0
 11
168.188528
 21
158.373107
 31
0.0
  0
LINE
  5
E7
100
AcDbEntity
  8
レイヤー_2
 62
     7
100
AcDbLine
 10
169.741922
 20
174.399519
 30
0.0
 11
141.219287
 21
174.399519
 31
0.0
  0
LINE
  5
E6
100
AcDbEntity
  8
レイヤー_2
 62
     7
100
AcDbLine
 10
169.671642
 20
173.55392
 30
0.0
 11
168.188528
 21
174.965031
 31
0.0
  0
LINE
  5
E5
100
AcDbEntity
  8
レイヤー_2
 62
     7
100
AcDbLine
 10
115.589499
 20
119.742217
 30
0.0
 11
143.975363
 21
119.742217
 31
0.0
  0
LINE
  5
E4
100
AcDbEntity
  8
レイヤー_2
 62
     7
100
AcDbLine
 10
116.649211
 20
119.742217
 30
0.0
 11
115.731437
 21
118.684229
 31
0.0
  0
LINE
  5
E3
100
AcDbEntity
  8
レイヤー_2
 62
     7
100
AcDbLine
 10
117.56664
 20
120.731993
 30
0.0
 11
116.649211
 21
119.742217
 31
0.0
  0
LINE
  5
E2
100
AcDbEntity
  8
レイヤー_2
 62
     7
100
AcDbLine
 10
123.709245
 20
119.742217
 30
0.0
 11
122.79216
 21
118.684229
 31
0.0
  0
LINE
  5
E1
100
AcDbEntity
  8
レイヤー_2
 62
     7
100
AcDbLine
 10
124.627363
 20
120.731993
 30
0.0
 11
123.709245
 21
119.742217
 31
0.0
  0
LINE
  5
E0
100
AcDbEntity
  8
レイヤー_2
 62
     7
100
AcDbLine
 10
116.578586
 20
152.232568
 30
0.0
 11
116.578586
 21
118.612915
 31
0.0
  0
LINE
  5
DF
100
AcDbEntity
  8
レイヤー_2
 62
     7
100
AcDbLine
 10
123.709245
 20
152.02035
 30
0.0
 11
123.709245
 21
118.543324
 31
0.0
  0
LINE
  5
DE
100
AcDbEntity
  8
レイヤー_2
 62
     7
100
AcDbLine
 10
42.588787
 20
157.668757
 30
0.0
 11
83.820207
 21
157.668757
 31
0.0
  0
MTEXT
  5
DD
100
AcDbEntity
  8
レイヤー_2
 62
     7
100
AcDbMText
 10
188.495069
 20
189.532789
 30
0.0
 40
3.674768
 41
0.0
 71
     1
 72
     2
  1
\fGothicBBBPro Medium|b0|i0|c128;\H3.6748;\C7;\U+0033\U+0033\U+0037
  7
STD
210
0.0
220
0.0
230
1.0
 11
0.0
 21
1.0
 31
0.0
 73
     1
 44
1.0
  0
MTEXT
  5
DC
100
AcDbEntity
  8
レイヤー_2
 62
     7
100
AcDbMText
 10
176.492357
 20
186.236522
 30
0.0
 40
3.674768
 41
0.0
 71
     1
 72
     2
  1
\fGothicBBBPro Medium|b0|i0|c128;\H3.6748;\C7;\U+0032\U+0039\U+0037
  7
STD
210
0.0
220
0.0
230
1.0
 11
0.0
 21
1.0
 31
0.0
 73
     1
 44
1.0
  0
MTEXT
  5
DB
100
AcDbEntity
  8
レイヤー_2
 62
     7
100
AcDbMText
 10
164.137211
 20
163.115108
 30
0.0
 40
3.674768
 41
0.0
 71
     1
 72
     2
  1
\fGothicBBBPro Medium|b0|i0|c128;\H3.6748;\C7;\U+0038\U+0030
  7
STD
210
0.0
220
0.0
230
1.0
 11
0.0
 21
1.0
 31
0.0
 73
     1
 44
1.0
  0
MTEXT
  5
DA
100
AcDbEntity
  8
レイヤー_2
 62
     7
100
AcDbMText
 10
29.05295
 20
132.815666
 30
0.0
 40
3.674768
 41
0.0
 71
     1
 72
     2
  1
\fGothicBBBPro Medium|b0|i0|c128;\H3.6748;\C7;\U+006D\U+0061\U+0078\U+002E\U+0034\U+0035
  7
STD
210
0.0
220
0.0
230
1.0
 11
0.0
 21
1.0
 31
0.0
 73
     1
 44
1.0
  0
MTEXT
  5
D9
100
AcDbEntity
  8
レイヤー_2
 62
     7
100
AcDbMText
 10
47.289448
 20
240.952447
 30
0.0
 40
3.674768
 41
0.0
 71
     1
 72
     2
  1
\fGothicBBBPro Medium|b0|i0|c128;\H3.6748;\C7;\U+03C6\U+0035\U+0035
  7
STD
210
0.0
220
0.0
230
1.0
 73
     1
 44
1.0
  0
MTEXT
  5
D8
100
AcDbEntity
  8
レイヤー_2
 62
     7
100
AcDbMText
 10
141.158309
 20
240.952275
 30
0.0
 40
3.674768
 41
0.0
 71
     1
 72
     2
  1
\fGothicBBBPro Medium|b0|i0|c128;\H3.6748;\C7;\U+0032\U+0033\U+0035
  7
STD
210
0.0
220
0.0
230
1.0
 73
     1
 44
1.0
  0
MTEXT
  5
D7
100
AcDbEntity
  8
レイヤー_2
 62
     7
100
AcDbMText
 10
127.745519
 20
123.841077
 30
0.0
 40
3.674768
 41
0.0
 71
     1
 72
     2
  1
\fGothicBBBPro Medium|b0|i0|c128;\H3.6748;\C7;\U+004D\U+0033\U+0034\U+00D7\U+0031
  7
STD
210
0.0
220
0.0
230
1.0
 73
     1
 44
1.0
  0
MTEXT
  5
D6
100
AcDbEntity
  8
レイヤー_2
 62
     7
100
AcDbMText
 10
81.14888
 20
92.011151
 30
0.0
 40
3.674768
 41
0.0
 71
     1
 72
     2
  1
\fGothicBBBPro Medium|b0|i0|c128;\H3.6748;\C7;\U+0032\U+002D\U+03C6\U+0033\U+0035
  7
STD
210
0.0
220
0.0
230
1.0
 73
     1
 44
1.0
  0
LINE
  5
D5
100
AcDbEntity
  8
レイヤー_2
 62
     7
100
AcDbLine
 10
73.890408
 20
102.01789
 30
0.0
 11
73.890408
 21
106.184389
 31
0.0
  0
LINE
  5
D4
100
AcDbEntity
  8
レイヤー_2
 62
     7
100
AcDbLine
 10
73.890408
 20
107.031538
 30
0.0
 11
73.890408
 21
107.877308
 31
0.0
  0
LINE
  5
D3
100
AcDbEntity
  8
レイヤー_2
 62
     7
100
AcDbLine
 10
52.996076
 20
79.127298
 30
0.0
 11
52.996076
 21
87.082368
 31
0.0
  0
LINE
  5
D2
100
AcDbEntity
  8
レイヤー_2
 62
     7
100
AcDbLine
 10
73.812377
 20
78.939884
 30
0.0
 11
73.812377
 21
87.29493
 31
0.0
  0
LINE
  5
D1
100
AcDbEntity
  8
レイヤー_2
 62
     7
100
AcDbLine
 10
75.024533
 20
80.009242
 30
0.0
 11
52.220241
 21
80.009242
 31
0.0
  0
LINE
  5
D0
100
AcDbEntity
  8
レイヤー_2
 62
     7
100
AcDbLine
 10
73.03568
 20
79.374311
 30
0.0
 11
74.517932
 21
80.7868
 31
0.0
  0
LINE
  5
CF
100
AcDbEntity
  8
レイヤー_2
 62
     7
100
AcDbLine
 10
52.290521
 20
79.305065
 30
0.0
 11
53.702321
 21
80.717554
 31
0.0
  0
MTEXT
  5
CE
100
AcDbEntity
  8
レイヤー_2
  6
AI9-LType1
 62
     7
100
AcDbMText
 10
59.796522
 20
84.413682
 30
0.0
 40
3.674768
 41
0.0
 71
     1
 72
     2
  1
\fGothicBBBPro Medium|b0|i0|c128;\H3.6748;\C7;\U+0031\U+0030\U+0030
  7
STD
210
0.0
220
0.0
230
1.0
 73
     1
 44
1.0
  0
MTEXT
  5
CD
100
AcDbEntity
  8
レイヤー_2
  6
AI9-LType1
 62
     7
100
AcDbMText
 10
56.711612
 20
109.039913
 30
0.0
 40
3.674768
 41
0.0
 71
     1
 72
     2
  1
\fGothicBBBPro Medium|b0|i0|c128;\H3.6748;\C7;\U+0047\U+0031\U+002F\U+0032
  7
STD
210
0.0
220
0.0
230
1.0
 73
     1
 44
1.0
  0
MTEXT
  5
CC
100
AcDbEntity
  8
レイヤー_2
  6
AI9-LType1
 62
     7
100
AcDbMText
 10
81.698889
 20
109.612144
 30
0.0
 40
3.674768
 41
0.0
 71
     1
 72
     2
  1
\fGothicBBBPro Medium|b0|i0|c128;\H3.6748;\C7;\U+0047\U+0031\U+002F\U+0032
  7
STD
210
0.0
220
0.0
230
1.0
 73
     1
 44
1.0
  0
INSERT
  5
83
100
AcDbEntity
  8
レイヤー_2
  6
AI9-LType1
 62
     7
100
AcDbBlockReference
  2
AI9-BLK3
 10
82.676607
 20
134.064599
 30
0.0
  0
LINE
  5
81
100
AcDbEntity
  8
レイヤー_2
  6
AI9-LType1
 62
     7
100
AcDbLine
 10
72.521499
 20
118.694219
 30
0.0
 11
72.521499
 21
156.887754
 31
0.0
  0
SPLINE
  5
80
100
AcDbEntity
  8
レイヤー_2
 62
     7
100
AcDbSpline
210
0.0
220
0.0
230
1.0
 70
     8
 71
     3
 72
    95
 73
    91
 74
     0
 42
0.00000001
 43
0.00000001
 40
0.0
 40
0.0
 40
0.0
 40
0.0
 40
1.0
 40
1.0
 40
1.0
 40
2.0
 40
2.0
 40
2.0
 40
3.0
 40
3.0
 40
3.0
 40
4.0
 40
4.0
 40
4.0
 40
5.0
 40
5.0
 40
5.0
 40
6.0
 40
6.0
 40
6.0
 40
7.0
 40
7.0
 40
7.0
 40
8.0
 40
8.0
 40
8.0
 40
9.0
 40
9.0
 40
9.0
 40
10.0
 40
10.0
 40
10.0
 40
11.0
 40
11.0
 40
11.0
 40
12.0
 40
12.0
 40
12.0
 40
13.0
 40
13.0
 40
13.0
 40
14.0
 40
14.0
 40
14.0
 40
15.0
 40
15.0
 40
15.0
 40
16.0
 40
16.0
 40
16.0
 40
17.0
 40
17.0
 40
17.0
 40
18.0
 40
18.0
 40
18.0
 40
19.0
 40
19.0
 40
19.0
 40
20.0
 40
20.0
 40
20.0
 40
21.0
 40
21.0
 40
21.0
 40
22.0
 40
22.0
 40
22.0
 40
23.0
 40
23.0
 40
23.0
 40
24.0
 40
24.0
 40
24.0
 40
25.0
 40
25.0
 40
25.0
 40
26.0
 40
26.0
 40
26.0
 40
27.0
 40
27.0
 40
27.0
 40
28.0
 40
28.0
 40
28.0
 40
29.0
 40
29.0
 40
29.0
 40
30.0
 40
30.0
 40
30.0
 40
30.0
 10
60.641087510850689
 20
122.02528211805554
 30
0.0
 10
60.651939561631941
 20
122.02183702256943
 30
0.0
 10
60.662619357638881
 20
122.01839192708333
 30
0.0
 10
60.671921115451383
 20
122.01529134114583
 30
0.0
 10
60.68260091145833
 20
122.01356879340277
 30
0.0
 10
60.693452962239576
 20
122.01012369791665
 30
0.0
 10
60.7034437391493
 20
122.0084011501736
 30
0.0
 10
60.714123535156247
 20
122.00530056423609
 30
0.0
 10
60.724114312065964
 20
122.00357801649305
 30
0.0
 10
60.734105088975689
 20
122.00219997829861
 30
0.0
 10
60.744784884982636
 20
122.00013292100694
 30
0.0
 10
60.755636935763881
 20
121.99875488281249
 30
0.0
 10
60.765627712673606
 20
121.99875488281249
 30
0.0
 10
60.776307508680553
 20
121.99703233506943
 30
0.0
 10
60.787159559461799
 20
121.99703233506943
 30
0.0
 10
60.796116807725689
 20
121.99703233506943
 30
0.0
 10
60.821093749999996
 20
121.99703233506943
 30
0.0
 10
60.84417588975694
 20
122.00013292100694
 30
0.0
 10
60.86743028428819
 20
122.00702311197915
 30
0.0
 10
60.891545952690969
 20
122.01184624565971
 30
0.0
 10
60.915489366319441
 20
122.01839192708333
 30
0.0
 10
60.937882486979163
 20
122.02528211805554
 30
0.0
 10
60.961998155381941
 20
122.03182779947916
 30
0.0
 10
60.985252549913191
 20
122.03837348090276
 30
0.0
 10
61.008506944444441
 20
122.04526367187499
 30
0.0
 10
61.030900065104163
 20
122.05008680555555
 30
0.0
 10
61.054154459635413
 20
122.0549099392361
 30
0.0
 10
61.077236599392357
 20
122.05835503472221
 30
0.0
 10
61.098079427083327
 20
122.05973307291666
 30
0.0
 10
61.120300292968743
 20
122.05835503472221
 30
0.0
 10
61.140970865885414
 20
122.0549099392361
 30
0.0
 10
61.174216037326381
 20
122.04836425781249
 30
0.0
 10
61.204188368055547
 20
122.03355034722222
 30
0.0
 10
61.231576877170134
 20
122.01356879340277
 30
0.0
 10
61.261204698350689
 20
121.99393174913193
 30
0.0
 10
61.288593207465276
 20
121.97050509982638
 30
0.0
 10
61.314259168836799
 20
121.94397786458332
 30
0.0
 10
61.341647677951386
 20
121.91572808159721
 30
0.0
 10
61.369208441840271
 20
121.89092339409721
 30
0.0
 10
61.396424696180553
 20
121.86439615885415
 30
0.0
 10
61.422090657552076
 20
121.83959147135415
 30
0.0
 10
61.449479166666663
 20
121.81616482204861
 30
0.0
 10
61.479279242621523
 20
121.79618326822916
 30
0.0
 10
61.505117458767359
 20
121.77826877170138
 30
0.0
 10
61.535606553819441
 20
121.7665554470486
 30
0.0
 10
61.566440158420136
 20
121.76311035156249
 30
0.0
 10
61.597101508246524
 20
121.76000976562499
 30
0.0
 10
61.628624131944441
 20
121.76483289930555
 30
0.0
 10
61.657562934027773
 20
121.77654622395832
 30
0.0
 10
61.688224283854161
 20
121.78998209635415
 30
0.0
 10
61.719574652777773
 20
121.80445149739582
 30
0.0
 10
61.75109727647569
 20
121.81960991753471
 30
0.0
 10
61.783481174045136
 20
121.83442382812498
 30
0.0
 10
61.816726345486103
 20
121.85096028645832
 30
0.0
 10
61.847215440538186
 20
121.87094184027777
 30
0.0
 10
61.87632649739583
 20
121.8874782986111
 30
0.0
 10
61.907849121093747
 20
121.90056966145832
 30
0.0
 10
61.940922037760409
 20
121.91228298611109
 30
0.0
 10
61.968310546874996
 20
121.92261827256944
 30
0.0
 10
62.000005425347219
 20
121.92571885850694
 30
0.0
 10
62.029805501302079
 20
121.92261827256944
 30
0.0
 10
62.0521986219618
 20
121.91917317708332
 30
0.0
 10
62.072007921006936
 20
121.91090494791665
 30
0.0
 10
62.091989474826384
 20
121.89919162326387
 30
0.0
 10
62.112832302517354
 20
121.8874782986111
 30
0.0
 10
62.13333062065972
 20
121.87438693576388
 30
0.0
 10
62.151589626736104
 20
121.85922851562499
 30
0.0
 10
62.171571180555553
 20
121.84441460503471
 30
0.0
 10
62.191380479600689
 20
121.82615559895832
 30
0.0
 10
62.20963948567708
 20
121.80927463107638
 30
0.0
 10
62.231171332465273
 20
121.79308268229165
 30
0.0
 10
62.250291612413186
 20
121.77826877170138
 30
0.0
 10
62.271823459201386
 20
121.76138780381943
 30
0.0
 10
62.292666286892356
 20
121.74829644097221
 30
0.0
 10
62.31333685980902
 20
121.73520507812499
 30
0.0
 10
62.33659125434027
 20
121.72486979166665
 30
0.0
 10
62.347271050347217
 20
121.72142469618055
 30
0.0
 10
62.356400553385413
 20
121.71660156249999
 30
0.0
 10
62.367080349392353
 20
121.71522352430554
 30
0.0
 10
62.376382107204854
 20
121.71177842881943
 30
0.0
 10
62.387061903211801
 20
121.71040039062498
 30
0.0
 10
62.397913953993047
 20
121.70833333333333
 30
0.0
 10
62.406871202256937
 20
121.70488823784721
 30
0.0
 10
62.418584526909719
 20
121.70351019965277
 30
0.0
 10
62.428575303819436
 20
121.70351019965277
 30
0.0
 10
62.438393825954854
 20
121.70213216145832
 30
0.0
 10
62.450107150607636
 20
121.70006510416665
 30
0.0
 10
62.460786946614576
 20
121.70006510416665
 30
0.0
 10
62.471638997395829
 20
121.69868706597221
 30
0.0
 10
62.481629774305553
 20
121.69868706597221
 30
0.0
 10
62.492309570312493
 20
121.69868706597221
 30
0.0
  0
LINE
  5
7F
100
AcDbEntity
  8
レイヤー_2
 62
     7
100
AcDbLine
 10
63.22267
 20
116.320204
 30
0.0
 11
63.126552
 21
116.320204
 31
0.0
  0
LINE
  5
7E
100
AcDbEntity
  8
レイヤー_2
 62
     7
100
AcDbLine
 10
63.126552
 20
117.210417
 30
0.0
 11
63.126552
 21
116.320204
 31
0.0
  0
LINE
  5
7D
100
AcDbEntity
  8
レイヤー_2
 62
     7
100
AcDbLine
 10
63.126552
 20
116.320204
 30
0.0
 11
63.22267
 21
116.152428
 31
0.0
  0
LINE
  5
7C
100
AcDbEntity
  8
レイヤー_2
 62
     7
100
AcDbLine
 10
60.008568
 20
116.320204
 30
0.0
 11
59.910727
 21
116.320204
 31
0.0
  0
LINE
  5
7B
100
AcDbEntity
  8
レイヤー_2
 62
     7
100
AcDbLine
 10
60.008568
 20
116.320204
 30
0.0
 11
60.008568
 21
117.210417
 31
0.0
  0
LINE
  5
7A
100
AcDbEntity
  8
レイヤー_2
 62
     7
100
AcDbLine
 10
59.910727
 20
116.152428
 30
0.0
 11
60.008568
 21
116.320204
 31
0.0
  0
LINE
  5
79
100
AcDbEntity
  8
レイヤー_2
  6
AI9-LType1
 62
     7
100
AcDbLine
 10
61.56644
 20
128.370459
 30
0.0
 11
61.56644
 21
110.898313
 31
0.0
  0
LINE
  5
78
100
AcDbEntity
  8
レイヤー_2
 62
     7
100
AcDbLine
 10
60.652801
 20
117.301367
 30
0.0
 11
60.251619
 21
117.301367
 31
0.0
  0
LINE
  5
77
100
AcDbEntity
  8
レイヤー_2
 62
     7
100
AcDbLine
 10
60.652801
 20
119.346031
 30
0.0
 11
60.652801
 21
117.301367
 31
0.0
  0
LINE
  5
76
100
AcDbEntity
  8
レイヤー_2
 62
     7
100
AcDbLine
 10
60.251619
 20
119.346031
 30
0.0
 11
60.652801
 21
119.346031
 31
0.0
  0
LINE
  5
75
100
AcDbEntity
  8
レイヤー_2
 62
     7
100
AcDbLine
 10
60.251619
 20
119.346031
 30
0.0
 11
60.251619
 21
117.301367
 31
0.0
  0
LINE
  5
74
100
AcDbEntity
  8
レイヤー_2
 62
     7
100
AcDbLine
 10
60.104686
 20
120.697198
 30
0.0
 11
61.56644
 21
120.697198
 31
0.0
  0
LINE
  5
73
100
AcDbEntity
  8
レイヤー_2
 62
     7
100
AcDbLine
 10
59.521259
 20
117.188713
 30
0.0
 11
61.56644
 21
117.188713
 31
0.0
  0
LINE
  5
72
100
AcDbEntity
  8
レイヤー_2
 62
     7
100
AcDbLine
 10
59.325578
 20
117.301367
 30
0.0
 11
59.521259
 21
117.188713
 31
0.0
  0
LINE
  5
71
100
AcDbEntity
  8
レイヤー_2
 62
     7
100
AcDbLine
 10
60.104686
 20
120.697198
 30
0.0
 11
59.431687
 21
119.529999
 31
0.0
  0
LINE
  5
70
100
AcDbEntity
  8
レイヤー_2
 62
     7
100
AcDbLine
 10
59.325578
 20
119.346031
 30
0.0
 11
59.325578
 21
117.301367
 31
0.0
  0
LINE
  5
6F
100
AcDbEntity
  8
レイヤー_2
 62
     7
100
AcDbLine
 10
62.551048
 20
120.697198
 30
0.0
 11
61.56644
 21
120.697198
 31
0.0
  0
LINE
  5
6E
100
AcDbEntity
  8
レイヤー_2
 62
     7
100
AcDbLine
 10
63.27159
 20
117.188713
 30
0.0
 11
61.56644
 21
117.188713
 31
0.0
  0
LINE
  5
6D
100
AcDbEntity
  8
レイヤー_2
 62
     7
100
AcDbLine
 10
62.88195
 20
117.301367
 30
0.0
 11
62.480769
 21
117.301367
 31
0.0
  0
LINE
  5
6C
100
AcDbEntity
  8
レイヤー_2
 62
     7
100
AcDbLine
 10
62.480769
 20
117.301367
 30
0.0
 11
62.480769
 21
119.346031
 31
0.0
  0
LINE
  5
6B
100
AcDbEntity
  8
レイヤー_2
 62
     7
100
AcDbLine
 10
62.480769
 20
119.346031
 30
0.0
 11
62.88195
 21
119.346031
 31
0.0
  0
LINE
  5
6A
100
AcDbEntity
  8
レイヤー_2
 62
     7
100
AcDbLine
 10
62.88195
 20
117.301367
 30
0.0
 11
62.88195
 21
119.346031
 31
0.0
  0
LINE
  5
69
100
AcDbEntity
  8
レイヤー_2
 62
     7
100
AcDbLine
 10
61.56644
 20
120.697198
 30
0.0
 11
63.028711
 21
120.697198
 31
0.0
  0
LINE
  5
68
100
AcDbEntity
  8
レイヤー_2
 62
     7
100
AcDbLine
 10
61.56644
 20
117.188713
 30
0.0
 11
63.613171
 21
117.188713
 31
0.0
  0
LINE
  5
67
100
AcDbEntity
  8
レイヤー_2
 62
     7
100
AcDbLine
 10
63.613171
 20
117.188713
 30
0.0
 11
63.807992
 21
117.301367
 31
0.0
  0
LINE
  5
66
100
AcDbEntity
  8
レイヤー_2
 62
     7
100
AcDbLine
 10
63.807992
 20
119.346031
 30
0.0
 11
63.028711
 21
120.697198
 31
0.0
  0
LINE
  5
65
100
AcDbEntity
  8
レイヤー_2
 62
     7
100
AcDbLine
 10
63.807992
 20
117.301367
 30
0.0
 11
63.807992
 21
119.346031
 31
0.0
  0
LINE
  5
64
100
AcDbEntity
  8
レイヤー_2
 62
     7
100
AcDbLine
 10
59.431687
 20
119.529999
 30
0.0
 11
59.325578
 21
119.346031
 31
0.0
  0
SPLINE
  5
63
100
AcDbEntity
  8
レイヤー_2
 62
     7
100
AcDbSpline
210
0.0
220
0.0
230
1.0
 70
     8
 71
     3
 72
     8
 73
     4
 74
     0
 42
0.00000001
 43
0.00000001
 40
0.0
 40
0.0
 40
0.0
 40
0.0
 40
1.0
 40
1.0
 40
1.0
 40
1.0
 10
60.65280083550347
 20
117.30136718749999
 30
0.0
 10
60.952007378472217
 20
117.22695312499999
 30
0.0
 10
61.258793131510409
 20
117.18871256510415
 30
0.0
 10
61.566440158420136
 20
117.18871256510415
 30
0.0
  0
SPLINE
  5
62
100
AcDbEntity
  8
レイヤー_2
 62
     7
100
AcDbSpline
210
0.0
220
0.0
230
1.0
 70
     8
 71
     3
 72
     8
 73
     4
 74
     0
 42
0.00000001
 43
0.00000001
 40
0.0
 40
0.0
 40
0.0
 40
0.0
 40
1.0
 40
1.0
 40
1.0
 40
1.0
 10
59.325577799479163
 20
117.30136718749999
 30
0.0
 10
59.616688368055549
 20
117.15047200520833
 30
0.0
 10
59.961370171440969
 20
117.15047200520833
 30
0.0
 10
60.251619466145826
 20
117.30136718749999
 30
0.0
  0
SPLINE
  5
61
100
AcDbEntity
  8
レイヤー_2
 62
     7
100
AcDbSpline
210
0.0
220
0.0
230
1.0
 70
     8
 71
     3
 72
     8
 73
     4
 74
     0
 42
0.00000001
 43
0.00000001
 40
0.0
 40
0.0
 40
0.0
 40
0.0
 40
1.0
 40
1.0
 40
1.0
 40
1.0
 10
61.566440158420136
 20
119.68399522569443
 30
0.0
 10
61.232265896267357
 20
119.68399522569443
 30
0.0
 10
60.90739339192708
 20
119.56479492187499
 30
0.0
 10
60.65280083550347
 20
119.34603135850693
 30
0.0
  0
SPLINE
  5
60
100
AcDbEntity
  8
レイヤー_2
 62
     7
100
AcDbSpline
210
0.0
220
0.0
230
1.0
 70
     8
 71
     3
 72
    11
 73
     7
 74
     0
 42
0.00000001
 43
0.00000001
 40
0.0
 40
0.0
 40
0.0
 40
0.0
 40
1.0
 40
1.0
 40
1.0
 40
2.0
 40
2.0
 40
2.0
 40
2.0
 10
60.251619466145826
 20
119.34603135850693
 30
0.0
 10
60.171865505642359
 20
119.60131293402776
 30
0.0
 10
59.900047471788191
 20
119.74531792534721
 30
0.0
 10
59.644765896267359
 20
119.66401367187498
 30
0.0
 10
59.563461642795133
 20
119.63920898437499
 30
0.0
 10
59.490425618489581
 20
119.5930447048611
 30
0.0
 10
59.431686740451383
 20
119.52999945746527
 30
0.0
  0
SPLINE
  5
5F
100
AcDbEntity
  8
レイヤー_2
 62
     7
100
AcDbSpline
210
0.0
220
0.0
230
1.0
 70
     8
 71
     3
 72
     8
 73
     4
 74
     0
 42
0.00000001
 43
0.00000001
 40
0.0
 40
0.0
 40
0.0
 40
0.0
 40
1.0
 40
1.0
 40
1.0
 40
1.0
 10
61.566440158420136
 20
117.18871256510415
 30
0.0
 10
61.874776204427079
 20
117.18871256510415
 30
0.0
 10
62.182250976562493
 20
117.22695312499999
 30
0.0
 10
62.480768500434024
 20
117.30136718749999
 30
0.0
  0
SPLINE
  5
5E
100
AcDbEntity
  8
レイヤー_2
 62
     7
100
AcDbSpline
210
0.0
220
0.0
230
1.0
 70
     8
 71
     3
 72
     8
 73
     4
 74
     0
 42
0.00000001
 43
0.00000001
 40
0.0
 40
0.0
 40
0.0
 40
0.0
 40
1.0
 40
1.0
 40
1.0
 40
1.0
 10
62.881949869791661
 20
117.30136718749999
 30
0.0
 10
63.172199164496519
 20
117.15047200520833
 30
0.0
 10
63.517742241753467
 20
117.15047200520833
 30
0.0
 10
63.807991536458324
 20
117.30136718749999
 30
0.0
  0
SPLINE
  5
5D
100
AcDbEntity
  8
レイヤー_2
 62
     7
100
AcDbSpline
210
0.0
220
0.0
230
1.0
 70
     8
 71
     3
 72
     8
 73
     4
 74
     0
 42
0.00000001
 43
0.00000001
 40
0.0
 40
0.0
 40
0.0
 40
0.0
 40
1.0
 40
1.0
 40
1.0
 40
1.0
 10
62.480768500434024
 20
119.34603135850693
 30
0.0
 10
62.226175944010414
 20
119.56479492187499
 30
0.0
 10
61.90130343967013
 20
119.68399522569443
 30
0.0
 10
61.566440158420136
 20
119.68399522569443
 30
0.0
  0
SPLINE
  5
5C
100
AcDbEntity
  8
レイヤー_2
 62
     7
100
AcDbSpline
210
0.0
220
0.0
230
1.0
 70
     8
 71
     3
 72
    11
 73
     7
 74
     0
 42
0.00000001
 43
0.00000001
 40
0.0
 40
0.0
 40
0.0
 40
0.0
 40
1.0
 40
1.0
 40
1.0
 40
2.0
 40
2.0
 40
2.0
 40
2.0
 10
63.807991536458324
 20
119.34603135850693
 30
0.0
 10
63.728409830729163
 20
119.60131293402776
 30
0.0
 10
63.455558268229161
 20
119.74531792534721
 30
0.0
 10
63.200276692708329
 20
119.66401367187498
 30
0.0
 10
63.048692491319436
 20
119.61784939236109
 30
0.0
 10
62.930181206597219
 20
119.49830457899304
 30
0.0
 10
62.881949869791661
 20
119.34603135850693
 30
0.0
  0
LINE
  5
5B
100
AcDbEntity
  8
レイヤー_2
 62
     7
100
AcDbLine
 10
59.252542
 20
111.659334
 30
0.0
 11
59.033778
 21
111.775434
 31
0.0
  0
LINE
  5
5A
100
AcDbEntity
  8
レイヤー_2
 62
     7
100
AcDbLine
 10
64.100652
 20
111.775434
 30
0.0
 11
63.880855
 21
111.659334
 31
0.0
  0
LINE
  5
59
100
AcDbEntity
  8
レイヤー_2
 62
     7
100
AcDbLine
 10
59.033778
 20
115.67356
 30
0.0
 11
59.252542
 21
115.791037
 31
0.0
  0
LINE
  5
58
100
AcDbEntity
  8
レイヤー_2
 62
     7
100
AcDbLine
 10
63.880855
 20
115.791037
 30
0.0
 11
64.100652
 21
115.67356
 31
0.0
  0
LINE
  5
57
100
AcDbEntity
  8
レイヤー_2
 62
     7
100
AcDbLine
 10
59.325578
 20
111.483634
 30
0.0
 11
63.807992
 21
111.483634
 31
0.0
  0
LINE
  5
56
100
AcDbEntity
  8
レイヤー_2
 62
     7
100
AcDbLine
 10
60.02855
 20
111.775434
 30
0.0
 11
60.592339
 21
111.775434
 31
0.0
  0
LINE
  5
55
100
AcDbEntity
  8
レイヤー_2
 62
     7
100
AcDbLine
 10
62.54123
 20
111.775434
 30
0.0
 11
63.10502
 21
111.775434
 31
0.0
  0
LINE
  5
54
100
AcDbEntity
  8
レイヤー_2
 62
     7
100
AcDbLine
 10
64.100652
 20
111.775434
 30
0.0
 11
63.807992
 21
111.483634
 31
0.0
  0
LINE
  5
53
100
AcDbEntity
  8
レイヤー_2
 62
     7
100
AcDbLine
 10
59.033778
 20
111.775434
 30
0.0
 11
59.325578
 21
111.483634
 31
0.0
  0
LINE
  5
52
100
AcDbEntity
  8
レイヤー_2
 62
     7
100
AcDbLine
 10
63.807992
 20
115.965359
 30
0.0
 11
59.325578
 21
115.965359
 31
0.0
  0
LINE
  5
51
100
AcDbEntity
  8
レイヤー_2
 62
     7
100
AcDbLine
 10
63.807992
 20
115.965359
 30
0.0
 11
64.100652
 21
115.67356
 31
0.0
  0
LINE
  5
50
100
AcDbEntity
  8
レイヤー_2
 62
     7
100
AcDbLine
 10
62.811498
 20
115.67356
 30
0.0
 11
62.247019
 21
115.67356
 31
0.0
  0
LINE
  5
4F
100
AcDbEntity
  8
レイヤー_2
 62
     7
100
AcDbLine
 10
60.298817
 20
115.67356
 30
0.0
 11
59.734338
 21
115.67356
 31
0.0
  0
LINE
  5
4E
100
AcDbEntity
  8
レイヤー_2
 62
     7
100
AcDbLine
 10
59.325578
 20
115.965359
 30
0.0
 11
59.033778
 21
115.67356
 31
0.0
  0
LINE
  5
4D
100
AcDbEntity
  8
レイヤー_2
 62
     7
100
AcDbLine
 10
59.033778
 20
111.775434
 30
0.0
 11
59.033778
 21
115.67356
 31
0.0
  0
LINE
  5
4C
100
AcDbEntity
  8
レイヤー_2
 62
     7
100
AcDbLine
 10
60.02855
 20
111.775434
 30
0.0
 11
60.02855
 21
115.67356
 31
0.0
  0
LINE
  5
4B
100
AcDbEntity
  8
レイヤー_2
 62
     7
100
AcDbLine
 10
60.592339
 20
111.775434
 30
0.0
 11
60.592339
 21
115.67356
 31
0.0
  0
LINE
  5
4A
100
AcDbEntity
  8
レイヤー_2
 62
     7
100
AcDbLine
 10
62.54123
 20
111.775434
 30
0.0
 11
62.54123
 21
115.67356
 31
0.0
  0
LINE
  5
49
100
AcDbEntity
  8
レイヤー_2
 62
     7
100
AcDbLine
 10
63.10502
 20
111.775434
 30
0.0
 11
63.10502
 21
115.67356
 31
0.0
  0
LINE
  5
48
100
AcDbEntity
  8
レイヤー_2
 62
     7
100
AcDbLine
 10
64.100652
 20
111.775434
 30
0.0
 11
64.100652
 21
115.67356
 31
0.0
  0
SPLINE
  5
47
100
AcDbEntity
  8
レイヤー_2
 62
     7
100
AcDbSpline
210
0.0
220
0.0
230
1.0
 70
     8
 71
     3
 72
     8
 73
     4
 74
     0
 42
0.00000001
 43
0.00000001
 40
0.0
 40
0.0
 40
0.0
 40
0.0
 40
1.0
 40
1.0
 40
1.0
 40
1.0
 10
59.252541775173604
 20
111.65933430989583
 30
0.0
 10
59.508684624565966
 20
111.52153049045138
 30
0.0
 10
59.824599880642353
 20
111.56803927951388
 30
0.0
 10
60.028549533420133
 20
111.77543402777776
 30
0.0
  0
SPLINE
  5
46
100
AcDbEntity
  8
レイヤー_2
 62
     7
100
AcDbSpline
210
0.0
220
0.0
230
1.0
 70
     8
 71
     3
 72
     8
 73
     4
 74
     0
 42
0.00000001
 43
0.00000001
 40
0.0
 40
0.0
 40
0.0
 40
0.0
 40
1.0
 40
1.0
 40
1.0
 40
1.0
 10
63.105019802517354
 20
111.77543402777776
 30
0.0
 10
63.308969455295134
 20
111.56803927951388
 30
0.0
 10
63.625573730468744
 20
111.52153049045138
 30
0.0
 10
63.880855305989577
 20
111.65933430989583
 30
0.0
  0
SPLINE
  5
45
100
AcDbEntity
  8
レイヤー_2
 62
     7
100
AcDbSpline
210
0.0
220
0.0
230
1.0
 70
     8
 71
     3
 72
     8
 73
     4
 74
     0
 42
0.00000001
 43
0.00000001
 40
0.0
 40
0.0
 40
0.0
 40
0.0
 40
1.0
 40
1.0
 40
1.0
 40
1.0
 10
60.592339409722214
 20
111.77543402777776
 30
0.0
 10
61.215729437934023
 20
111.51670735677082
 30
0.0
 10
61.917839898003464
 20
111.51670735677082
 30
0.0
 10
62.541229926215273
 20
111.77543402777776
 30
0.0
  0
SPLINE
  5
44
100
AcDbEntity
  8
レイヤー_2
 62
     7
100
AcDbSpline
210
0.0
220
0.0
230
1.0
 70
     8
 71
     3
 72
     8
 73
     4
 74
     0
 42
0.00000001
 43
0.00000001
 40
0.0
 40
0.0
 40
0.0
 40
0.0
 40
1.0
 40
1.0
 40
1.0
 40
1.0
 10
60.028549533420133
 20
115.67355957031249
 30
0.0
 10
59.824599880642353
 20
115.87888726128472
 30
0.0
 10
59.508684624565966
 20
115.92677408854166
 30
0.0
 10
59.252541775173604
 20
115.79103732638887
 30
0.0
  0
SPLINE
  5
43
100
AcDbEntity
  8
レイヤー_2
 62
     7
100
AcDbSpline
210
0.0
220
0.0
230
1.0
 70
     8
 71
     3
 72
     8
 73
     4
 74
     0
 42
0.00000001
 43
0.00000001
 40
0.0
 40
0.0
 40
0.0
 40
0.0
 40
1.0
 40
1.0
 40
1.0
 40
1.0
 10
63.880855305989577
 20
115.79103732638887
 30
0.0
 10
63.625573730468744
 20
115.92677408854166
 30
0.0
 10
63.308969455295134
 20
115.87888726128472
 30
0.0
 10
63.105019802517354
 20
115.67355957031249
 30
0.0
  0
SPLINE
  5
42
100
AcDbEntity
  8
レイヤー_2
 62
     7
100
AcDbSpline
210
0.0
220
0.0
230
1.0
 70
     8
 71
     3
 72
     8
 73
     4
 74
     0
 42
0.00000001
 43
0.00000001
 40
0.0
 40
0.0
 40
0.0
 40
0.0
 40
1.0
 40
1.0
 40
1.0
 40
1.0
 10
62.541229926215273
 20
115.67355957031249
 30
0.0
 10
61.917839898003464
 20
115.93366427951388
 30
0.0
 10
61.215729437934023
 20
115.93366427951388
 30
0.0
 10
60.592339409722214
 20
115.67355957031249
 30
0.0
  0
LINE
  5
41
100
AcDbEntity
  8
レイヤー_2
 62
     7
100
AcDbLine
 10
60.641088
 20
120.697198
 30
0.0
 11
60.641088
 21
122.030105
 31
0.0
  0
LINE
  5
40
100
AcDbEntity
  8
レイヤー_2
 62
     7
100
AcDbLine
 10
62.49231
 20
120.697198
 30
0.0
 11
62.49231
 21
121.698687
 31
0.0
  0
LINE
  5
3F
100
AcDbEntity
  8
レイヤー_2
 62
     7
100
AcDbLine
 10
63.22267
 20
116.152428
 30
0.0
 11
63.22267
 21
117.188713
 31
0.0
  0
LINE
  5
3E
100
AcDbEntity
  8
レイヤー_2
 62
     7
100
AcDbLine
 10
59.910727
 20
117.188713
 30
0.0
 11
59.910727
 21
116.152428
 31
0.0
  0
LINE
  5
3D
100
AcDbEntity
  8
レイヤー_2
 62
     7
100
AcDbLine
 10
60.008568
 20
116.320204
 30
0.0
 11
63.126552
 21
116.320204
 31
0.0
  0
LINE
  5
3C
100
AcDbEntity
  8
レイヤー_2
  6
AI9-LType1
 62
     7
100
AcDbLine
 10
72.516676
 20
118.712478
 30
0.0
 11
61.458436
 21
128.44315
 31
0.0
  0
INSERT
  5
36
100
AcDbEntity
  8
レイヤー_2
 62
     7
100
AcDbBlockReference
  2
AI9-BLK2
 10
74.623697
 20
114.303962
 30
0.0
  0
LINE
  5
34
100
AcDbEntity
  8
レイヤー_2
 62
     7
100
AcDbLine
 10
52.825199
 20
119.884844
 30
0.0
 11
52.825199
 21
114.736838
 31
0.0
  0
LINE
  5
33
100
AcDbEntity
  8
レイヤー_2
 62
     7
100
AcDbLine
 10
52.825199
 20
113.559304
 30
0.0
 11
52.825199
 21
112.529565
 31
0.0
  0
LINE
  5
32
100
AcDbEntity
  8
レイヤー_2
 62
     7
100
AcDbLine
 10
52.825199
 20
111.058854
 30
0.0
 11
52.825199
 21
103.999164
 31
0.0
  0
LINE
  5
31
100
AcDbEntity
  8
レイヤー_2
 62
     7
100
AcDbLine
 10
52.825199
 20
102.233553
 30
0.0
 11
52.825199
 21
101.056364
 31
0.0
  0
INSERT
  5
2A
100
AcDbEntity
  8
レイヤー_2
 62
     7
100
AcDbBlockReference
  2
AI9-BLK1
 10
73.890408
 20
126.369892
 30
0.0
  0
ENDSEC
  0
SECTION
  2
OBJECTS
  0
DICTIONARY
  5
19
100
AcDbDictionary
280
     0
281
     1
  3
ACAD_GROUP
350
1A
  3
ACAD_MLINESTYLE
350
1B
  3
ACAD_LAYOUT
350
1E
  3
ACAD_PLOTSETTINGS
350
22
  3
ACAD_PLOTSTYLENAME
350
1F
  3
ACAD_WIPEOUT_VARS
350
23
  0
DICTIONARY
  5
1A
102
{ACAD_REACTORS
330
19
102
}
100
AcDbDictionary
280
     0
281
     1
  0
DICTIONARY
  5
1B
102
{ACAD_REACTORS
330
19
102
}
100
AcDbDictionary
280
     0
281
     1
  3
Standard
350
1C
  0
MLINESTYLE
  5
1C
102
{ACAD_REACTORS
330
1B
102
}
100
AcDbMlineStyle
  2
Standard
 70
     0
  3

 62
     0
 51
90.0
 52
90.0
 71
     2
 49
0.5
 62
   256
  6
ByLayer
 49
-0.5
 62
   256
  6
ByLayer
  0
ACDBDICTIONARYWDFLT
  5
1F
102
{ACAD_REACTORS
330
19
102
}
100
AcDbDictionary
281
     1
  3
Normal
350
1D
100
AcDbDictionaryWithDefault
340
1D
  0
ACDBPLACEHOLDER
  5
1D
102
{ACAD_REACTORS
330
1F
102
}
  0
LAYOUT
  5
20
102
{ACAD_REACTORS
330
1E
102
}
100
AcDbPlotSettings
  1

  2

  4

  6

 40
0.0
 41
0.0
 42
0.0
 43
0.0
 44
0.0
 45
0.0
 46
0.0
 47
0.0
 48
0.0
 49
0.0
140
0.0
141
0.0
142
1.0
143
1.0
 70
  1024
 72
     0
 73
     0
 74
     0
  7

 75
     0
147
1.0
148
0.0
149
0.0
100
AcDbLayout
  1
Model
 70
     0
 71
     0
 10
0.0
 20
0.0
 11
0.0
 21
0.0
 12
0.0
 22
0.0
 32
0.0
 14
0.0
 24
0.0
 34
0.0
 15
0.0
 25
0.0
 35
0.0
146
0.0
 13
0.0
 23
0.0
 33
0.0
 16
0.0
 26
0.0
 36
0.0
 17
0.0
 27
0.0
 37
0.0
 76
     0
330
A
331
0
345
0
346
0
  0
LAYOUT
  5
21
102
{ACAD_REACTORS
330
1E
102
}
100
AcDbPlotSettings
  1

  2

  4

  6

 40
0.0
 41
0.0
 42
0.0
 43
0.0
 44
0.0
 45
0.0
 46
0.0
 47
0.0
 48
0.0
 49
0.0
140
0.0
141
0.0
142
1.0
143
1.0
 70
     0
 72
     0
 73
     0
 74
     0
  7

 75
     0
147
1.0
148
0.0
149
0.0
100
AcDbLayout
  1
Layout1
 70
     0
 71
     0
 10
0.0
 20
0.0
 11
0.0
 21
0.0
 12
0.0
 22
0.0
 32
0.0
 14
0.0
 24
0.0
 34
0.0
 15
0.0
 25
0.0
 35
0.0
146
0.0
 13
0.0
 23
0.0
 33
0.0
 16
0.0
 26
0.0
 36
0.0
 17
0.0
 27
0.0
 37
0.0
 76
     0
330
B
331
0
345
0
346
0
  0
DICTIONARY
  5
1E
102
{ACAD_REACTORS
330
19
102
}
100
AcDbDictionary
280
     0
281
     1
  3
Layout1
350
21
  3
Model
350
20
  0
DICTIONARY
  5
22
102
{ACAD_REACTORS
330
19
102
}
100
AcDbDictionary
280
     0
281
     1
  0
WIPEOUTVARIABLES
  5
23
100
AcDbWipeoutVariables
 70
     1
  0
IMAGEDEF_REACTOR
  5
55C
100
AcDbRasterImageDefReactor
 90
        2
330
55B
  0
IMAGEDEF
  5
55D
100
AcDbRasterImageDef
 90
        0
  1
\\192.168.6.3\free(2009_04\一過性\DB_WEB用DXF_丸茂\KITCHEN\32800790_1.bmp
 10
70.0
 20
9.0
 11
0.352778
 21
0.352778
280
     1
281
     0
  0
IMAGEDEF_REACTOR
  5
55F
100
AcDbRasterImageDefReactor
 90
        2
330
55E
  0
IMAGEDEF
  5
560
100
AcDbRasterImageDef
 90
        0
  1
\\192.168.6.3\free(2009_04\一過性\DB_WEB用DXF_丸茂\KITCHEN\32800790_2.bmp
 10
70.0
 20
9.0
 11
0.352778
 21
0.352778
280
     1
281
     0
  0
ENDSEC
  0
EOF
