  0
SECTION
  2
HEADER
  9
$ACADVER
  1
AC1015
  9
$ACADMAINTVER
 70
     6
  9
$DWGCODEPAGE
  3
ANSI_932
  9
$INSBASE
 10
0.0
 20
0.0
 30
0.0
  9
$EXTMIN
 10
23.283333
 20
25.752778
 30
1.000000E+20
  9
$EXTMAX
 10
198.966667
 20
276.930556
 30
-1.000000E+20
  9
$LIMMIN
 10
23.283333
 20
25.752778
  9
$LIMMAX
 10
198.966667
 20
276.930556
  9
$ORTHOMODE
 70
     0
  9
$REGENMODE
 70
     1
  9
$FILLMODE
 70
     1
  9
$QTEXTMODE
 70
     0
  9
$MIRRTEXT
 70
     1
  9
$LTSCALE
 40
1.0
  9
$ATTMODE
 70
     1
  9
$TEXTSIZE
 40
0.2
  9
$TRACEWID
 40
0.05
  9
$TEXTSTYLE
  7
Standard
  9
$CLAYER
  8
0
  9
$CELTYPE
  6
Continuous
  9
$CECOLOR
 62
   256
  9
$CELTSCALE
 40
1.0
  9
$DISPSILH
 70
     0
  9
$DIMSCALE
 40
1.0
  9
$DIMASZ
 40
0.18
  9
$DIMEXO
 40
0.0625
  9
$DIMDLI
 40
0.38
  9
$DIMRND
 40
0.0
  9
$DIMDLE
 40
0.0
  9
$DIMEXE
 40
0.18
  9
$DIMTP
 40
0.0
  9
$DIMTM
 40
0.0
  9
$DIMTXT
 40
0.18
  9
$DIMCEN
 40
0.09
  9
$DIMTSZ
 40
0.0
  9
$DIMTOL
 70
     0
  9
$DIMLIM
 70
     0
  9
$DIMTIH
 70
     1
  9
$DIMTOH
 70
     1
  9
$DIMSE1
 70
     0
  9
$DIMSE2
 70
     0
  9
$DIMTAD
 70
     0
  9
$DIMZIN
 70
     0
  9
$DIMBLK
  1

  9
$DIMASO
 70
     1
  9
$DIMSHO
 70
     1
  9
$DIMPOST
  1

  9
$DIMAPOST
  1

  9
$DIMALT
 70
     0
  9
$DIMALTD
 70
     2
  9
$DIMALTF
 40
25.4
  9
$DIMLFAC
 40
1.0
  9
$DIMTOFL
 70
     0
  9
$DIMTVP
 40
0.0
  9
$DIMTIX
 70
     0
  9
$DIMSOXD
 70
     0
  9
$DIMSAH
 70
     0
  9
$DIMBLK1
  1

  9
$DIMBLK2
  1

  9
$DIMSTYLE
  2
Standard
  9
$DIMCLRD
 70
     0
  9
$DIMCLRE
 70
     0
  9
$DIMCLRT
 70
     0
  9
$DIMTFAC
 40
1.0
  9
$DIMGAP
 40
0.09
  9
$DIMJUST
 70
     0
  9
$DIMSD1
 70
     0
  9
$DIMSD2
 70
     0
  9
$DIMTOLJ
 70
     1
  9
$DIMTZIN
 70
     0
  9
$DIMALTZ
 70
     0
  9
$DIMALTTZ
 70
     0
  9
$DIMUPT
 70
     0
  9
$DIMDEC
 70
     4
  9
$DIMTDEC
 70
     4
  9
$DIMALTU
 70
     2
  9
$DIMALTTD
 70
     2
  9
$DIMTXSTY
  7
Standard
  9
$DIMAUNIT
 70
     0
  9
$DIMADEC
 70
     0
  9
$DIMALTRND
 40
0.0
  9
$DIMAZIN
 70
     0
  9
$DIMDSEP
 70
     0
  9
$DIMATFIT
 70
     3
  9
$DIMFRAC
 70
     0
  9
$DIMLDRBLK
  1

  9
$DIMLUNIT
 70
     2
  9
$DIMLWD
 70
     0
  9
$DIMLWE
 70
     0
  9
$DIMTMOVE
 70
     0
  9
$LUNITS
 70
     2
  9
$LUPREC
 70
     4
  9
$SKETCHINC
 40
0.1
  9
$FILLETRAD
 40
0.0
  9
$AUNITS
 70
     0
  9
$AUPREC
 70
     0
  9
$MENU
  1
acad
  9
$ELEVATION
 40
0.0
  9
$PELEVATION
 40
0.0
  9
$THICKNESS
 40
0.0
  9
$LIMCHECK
 70
     0
  9
$CHAMFERA
 40
0.0
  9
$CHAMFERB
 40
0.0
  9
$CHAMFERC
 40
0.0
  9
$CHAMFERD
 40
0.0
  9
$SKPOLY
 70
     0
  9
$TDCREATE
 40
0.000000000
  9
$TDUCREATE
 40
0.000000000
  9
$TDUPDATE
 40
0.000000000
  9
$TDUUPDATE
 40
0.000000000
  9
$TDINDWG
 40
0.0000000000
  9
$TDUSRTIMER
 40
0.0000000000
  9
$USRTIMER
 70
     1
  9
$ANGBASE
 50
0.0
  9
$ANGDIR
 70
     0
  9
$PDMODE
 70
     0
  9
$PDSIZE
 40
0.0
  9
$PLINEWID
 40
0.0
  9
$SPLFRAME
 70
     0
  9
$SPLINETYPE
 70
     6
  9
$SPLINESEGS
 70
     8
  9
$HANDSEED
  5
8B6
  9
$SURFTAB1
 70
     6
  9
$SURFTAB2
 70
     6
  9
$SURFTYPE
 70
     6
  9
$SURFU
 70
     6
  9
$SURFV
 70
     6
  9
$UCSBASE
  2

  9
$UCSNAME
  2

  9
$UCSORG
 10
0.0
 20
0.0
 30
0.0
  9
$UCSXDIR
 10
1.0
 20
0.0
 30
0.0
  9
$UCSYDIR
 10
0.0
 20
1.0
 30
0.0
  9
$UCSORTHOREF
  2

  9
$UCSORTHOVIEW
 70
     0
  9
$UCSORGTOP
 10
0.0
 20
0.0
 30
0.0
  9
$UCSORGBOTTOM
 10
0.0
 20
0.0
 30
0.0
  9
$UCSORGLEFT
 10
0.0
 20
0.0
 30
0.0
  9
$UCSORGRIGHT
 10
0.0
 20
0.0
 30
0.0
  9
$UCSORGFRONT
 10
0.0
 20
0.0
 30
0.0
  9
$UCSORGBACK
 10
0.0
 20
0.0
 30
0.0
  9
$PUCSBASE
  2

  9
$PUCSNAME
  2

  9
$PUCSORG
 10
0.0
 20
0.0
 30
0.0
  9
$PUCSXDIR
 10
1.0
 20
0.0
 30
0.0
  9
$PUCSYDIR
 10
0.0
 20
1.0
 30
0.0
  9
$PUCSORTHOREF
  2

  9
$PUCSORTHOVIEW
 70
     0
  9
$PUCSORGTOP
 10
0.0
 20
0.0
 30
0.0
  9
$PUCSORGBOTTOM
 10
0.0
 20
0.0
 30
0.0
  9
$PUCSORGLEFT
 10
0.0
 20
0.0
 30
0.0
  9
$PUCSORGRIGHT
 10
0.0
 20
0.0
 30
0.0
  9
$PUCSORGFRONT
 10
0.0
 20
0.0
 30
0.0
  9
$PUCSORGBACK
 10
0.0
 20
0.0
 30
0.0
  9
$USERI1
 70
     0
  9
$USERI2
 70
     0
  9
$USERI3
 70
     0
  9
$USERI4
 70
     0
  9
$USERI5
 70
     0
  9
$USERR1
 40
0.0
  9
$USERR2
 40
0.0
  9
$USERR3
 40
0.0
  9
$USERR4
 40
0.0
  9
$USERR5
 40
0.0
  9
$WORLDVIEW
 70
     1
  9
$SHADEDGE
 70
     3
  9
$SHADEDIF
 70
    70
  9
$TILEMODE
 70
     1
  9
$MAXACTVP
 70
    16
  9
$PINSBASE
 10
0.0
 20
0.0
 30
0.0
  9
$PLIMCHECK
 70
     0
  9
$PEXTMIN
 10
1.000000E+20
 20
1.000000E+20
 30
1.000000E+20
  9
$PEXTMAX
 10
-1.000000E+20
 20
-1.000000E+20
 30
-1.000000E+20
  9
$PLIMMIN
 10
0.0
 20
0.0
  9
$PLIMMAX
 10
12.0
 20
9.0
  9
$UNITMODE
 70
     0
  9
$VISRETAIN
 70
     0
  9
$PLINEGEN
 70
     1
  9
$PSLTSCALE
 70
     0
  9
$TREEDEPTH
 70
  3020
  9
$CMLSTYLE
  2
Standard
  9
$CMLJUST
 70
     0
  9
$CMLSCALE
 40
1.0
  9
$PROXYGRAPHICS
 70
     0
  9
$MEASUREMENT
 70
     1
  9
$CELWEIGHT
370
     0
  9
$ENDCAPS
280
     0
  9
$JOINSTYLE
280
     0
  9
$LWDISPLAY
290
     0
  9
$INSUNITS
 70
     0
  9
$HYPERLINKBASE
  1

  9
$STYLESHEET
  1

  9
$XEDIT
290
     1
  9
$CEPSNTYPE
380
     0
  9
$PSTYLEMODE
290
     1
  9
$FINGERPRINTGUID
  2

  9
$VERSIONGUID
  2

  9
$EXTNAMES
290
     1
  9
$PSVPSCALE
 40
0.0
  0
ENDSEC
  0
SECTION
  2
CLASSES
  0
CLASS
  1
LWPOLYLINE
  2
AcDbPolyline
  3
AutoCAD 2000
 90
    32768
280
     0
281
     1
  0
CLASS
  1
IMAGE
  2
AcDbRasterImage
  3
ISM
 90
      127
280
     0
281
     1
  0
CLASS
  1
OLE2FRAME
  2
AcDbOle2Frame
  3
AutoCAD 2000
 90
    32768
280
     0
281
     1
  0
CLASS
  1
HATCH
  2
AcDbHatch
  3
AutoCAD 2000
 90
    32768
280
     0
281
     1
  0
CLASS
  1
DICTIONARYVAR
  2
AcDbDictionaryVar
  3
AutoCAD 2000
 90
    32768
280
     0
281
     0
  0
CLASS
  1
RASTERVARIABLES
  2
AcDbRasterVariables
  3
ISM
 90
    32768
280
     0
281
     0
  0
CLASS
  1
IMAGEDEF
  2
AcDbRasterImageDef
  3
ISM
 90
        0
280
     0
281
     0
  0
CLASS
  1
IMAGEDEF_REACTOR
  2
AcDbRasterImageDefReactor
  3
ISM
 90
        1
280
     0
281
     0
  0
CLASS
  1
IDBUFFER
  2
AcDbIdBuffer
  3
AutoCAD 2000
 90
    32768
280
     0
281
     0
  0
CLASS
  1
SPATIAL_FILTER
  2
AcDbSpatialFilter
  3
AutoCAD 2000
 90
    32768
280
     0
281
     0
  0
CLASS
  1
XRECORD
  2
AcDbXrecord
  3
AutoCAD 2000
 90
    32768
280
     0
281
     0
  0
CLASS
  1
SORTENTSTABLE
  2
AcDbSortentsTable
  3
AutoCAD 2000
 90
    32768
280
     0
281
     0
  0
CLASS
  1
LAYER_INDEX
  2
AcDbLayerIndex
  3
AutoCAD 2000
 90
    32768
280
     0
281
     0
  0
CLASS
  1
SPATIAL_INDEX
  2
AcDbSpatialIndex
  3
AutoCAD 2000
 90
    32768
280
     0
281
     0
  0
CLASS
  1
OBJECT_PTR
  2
CAseDLPNTableRecord
  3
"ASE-LPNTableRecord"
 90
    32769
280
     0
281
     0
  0
CLASS
  1
LAYOUT
  2
AcDbLayout
  3
AutoCAD 2000
 90
        0
280
     0
281
     0
  0
CLASS
  1
PLOTSETTINGS
  2
AcDbPlotSettings
  3
AutoCAD 2000
 90
    32768
280
     0
281
     0
  0
CLASS
  1
ACDBDICTIONARYWDFLT
  2
AcDbDictionaryWithDefault
  3
AutoCAD 2000
 90
        0
280
     0
281
     0
  0
CLASS
  1
ACDBPLACEHOLDER
  2
AcDbPlaceHolder
  3
AutoCAD 2000
 90
        0
280
     0
281
     0
  0
CLASS
  1
VBA_PROJECT
  2
AcDbVbaProject
  3
acadvba
 90
    32768
280
     0
281
     0
  0
CLASS
  1
WIPEOUT
  2
AcDbWipeout
  3
WipeOut|AutoCAD Express Tool|expresstools@autodesk.com
 90
    32895
280
     0
281
     1
  0
CLASS
  1
WIPEOUTVARIABLES
  2
AcDbWipeoutVariables
  3
WipeOut|AutoCAD Express Tool|expresstools@autodesk.com
 90
        0
280
     0
281
     0
  0
CLASS
  1
RTEXT
  2
RText
  3
RText|AutoCAD Express Tool|expresstools@autodesk.com
 90
    32768
280
     0
281
     1
  0
CLASS
  1
ARCALIGNEDTEXT
  2
AcDbArcAlignedText
  3
ATEXT|AutoCAD Express Tool|expresstools@autodesk.com
 90
    32768
280
     0
281
     1
  0
ENDSEC
  0
SECTION
  2
TABLES
  0
TABLE
  2
VPORT
  5
7
100
AcDbSymbolTable
 70
     1
  0
VPORT
  5
15
100
AcDbSymbolTableRecord
100
AcDbViewportTableRecord
  2
*ACTIVE
 70
     0
 10
0.0
 20
0.0
 11
1.0
 21
1.0
 12
6.591288
 22
4.579184
 13
0.0
 23
0.0
 14
1.0
 24
1.0
 15
0.0
 25
0.0
 16
0.0
 26
0.0
 36
1.0
 17
0.0
 27
0.0
 37
0.0
 40
9.158369
 41
0.688564
 42
50.0
 43
0.0
 44
0.0
 50
0.0
 51
0.0
 71
     0
 72
   100
 73
     1
 74
     1
 75
     0
 76
     0
 77
     0
 78
     0
281
     0
 65
     0
110
0.0
120
0.0
130
0.0
111
1.0
121
0.0
131
0.0
112
0.0
122
1.0
132
0.0
345
0
346
0
 79
     0
146
0.0
  0
ENDTAB
  0
TABLE
  2
LTYPE
  5
4
100
AcDbSymbolTable
 70
     6
  0
LTYPE
  5
11
100
AcDbSymbolTableRecord
100
AcDbLinetypeTableRecord
  2
ByBlock
 70
    64
  3

 72
    65
 73
     0
 40
0.0
  0
LTYPE
  5
12
100
AcDbSymbolTableRecord
100
AcDbLinetypeTableRecord
  2
ByLayer
 70
    64
  3

 72
    65
 73
     0
 40
0.0
  0
LTYPE
  5
13
100
AcDbSymbolTableRecord
100
AcDbLinetypeTableRecord
  2
Continuous
 70
    64
  3
Solid line
 72
    65
 73
     0
 40
0.0
  0
LTYPE
  5
D5
100
AcDbSymbolTableRecord
100
AcDbLinetypeTableRecord
  2
AI9-LType1
 70
    64
  3
Illustrator Dash Style No.1
 72
    65
 73
     4
 40
12.134109
 49
7.583805
 74
     0
 49
-1.516768
 74
     0
 49
1.516768
 74
     0
 49
-1.516768
 74
     0
  0
LTYPE
  5
FE
100
AcDbSymbolTableRecord
100
AcDbLinetypeTableRecord
  2
AI9-LType2
 70
    64
  3
Illustrator Dash Style No.2
 72
    65
 73
     4
 40
31.805845
 49
19.87864
 74
     0
 49
-3.975735
 74
     0
 49
3.975735
 74
     0
 49
-3.975735
 74
     0
  0
LTYPE
  5
1A4
100
AcDbSymbolTableRecord
100
AcDbLinetypeTableRecord
  2
AI9-LType3
 70
    64
  3
Illustrator Dash Style No.3
 72
    65
 73
     4
 40
143.321331
 49
89.571018
 74
     0
 49
-17.916771
 74
     0
 49
17.916771
 74
     0
 49
-17.916771
 74
     0
  0
ENDTAB
  0
TABLE
  2
LAYER
  5
2
100
AcDbSymbolTable
 70
     3
  0
LAYER
  5
14
100
AcDbSymbolTableRecord
100
AcDbLayerTableRecord
  2
0
 70
     0
 62
     7
  6
Continuous
290
     1
370
    -3
390
1D
  0
LAYER
  5
28
100
AcDbSymbolTableRecord
100
AcDbLayerTableRecord
  2
レイヤー_2
 70
     0
 62
     1
  6
Continuous
290
     1
370
    -3
390
1D
  0
LAYER
  5
89B
100
AcDbSymbolTableRecord
100
AcDbLayerTableRecord
  2
レイヤー_1
 70
     0
 62
   160
  6
Continuous
290
     1
370
    -3
390
1D
  0
ENDTAB
  0
TABLE
  2
STYLE
  5
3
100
AcDbSymbolTable
 70
     5
  0
STYLE
  5
17
100
AcDbSymbolTableRecord
100
AcDbTextStyleTableRecord
  2
Standard
 70
     0
 40
0.0
 41
1.0
 50
0.0
 71
     0
 42
0.0
  3
txt
  4

  0
STYLE
  5
24
100
AcDbSymbolTableRecord
100
AcDbTextStyleTableRecord
  2
STD
 70
     0
 40
0.0
 41
1.0
 50
0.0
 71
     0
 42
0.0
  3
txt
  4

  0
STYLE
  5
25
100
AcDbSymbolTableRecord
100
AcDbTextStyleTableRecord
  2
TATESTD
 70
     4
 40
0.0
 41
1.0
 50
0.0
 71
     0
 42
0.0
  3
txt
  4

  0
STYLE
  5
26
100
AcDbSymbolTableRecord
100
AcDbTextStyleTableRecord
  2
KANJISTD
 70
     0
 40
0.0
 41
1.0
 50
0.0
 71
     0
 42
0.0
  3
txt
  4
extfont
  0
STYLE
  5
27
100
AcDbSymbolTableRecord
100
AcDbTextStyleTableRecord
  2
KANJITATE
 70
     4
 40
0.0
 41
1.0
 50
0.0
 71
     0
 42
0.0
  3
txt
  4
extfont
  0
ENDTAB
  0
TABLE
  2
VIEW
  5
5
100
AcDbSymbolTable
 70
     0
  0
ENDTAB
  0
TABLE
  2
UCS
  5
6
100
AcDbSymbolTable
 70
     0
  0
ENDTAB
  0
TABLE
  2
APPID
  5
8
100
AcDbSymbolTable
 70
     1
  0
APPID
  5
16
100
AcDbSymbolTableRecord
100
AcDbRegAppTableRecord
  2
ACAD
 70
     0
  0
ENDTAB
  0
TABLE
  2
DIMSTYLE
  5
9
100
AcDbSymbolTable
 70
     1
100
AcDbDimStyleTable
 71
     0
  0
DIMSTYLE
105
18
100
AcDbSymbolTableRecord
100
AcDbDimStyleTableRecord
  2
Standard
 70
     0
  3

  4

 40
1.0
 41
0.18
 42
0.0625
 43
0.38
 44
0.18
 45
0.0
 46
0.0
 47
0.0
 48
0.0
 71
     0
 72
     0
 73
     1
 74
     1
 75
     0
 76
     0
 77
     0
 78
     0
 79
     0
140
0.18
141
0.09
142
0.0
143
25.4
144
1.0
145
0.0
146
1.0
147
0.09
148
0.0
170
     0
171
     2
172
     0
173
     0
174
     0
175
     0
176
     0
177
     0
178
     0
179
     0
271
     4
272
     4
273
     2
274
     2
275
     0
276
     0
277
     2
278
    46
279
     0
280
     0
281
     0
282
     0
283
     1
284
     0
285
     0
286
     0
288
     0
340
17
341
0
342
0
343
0
344
0
371
    -2
372
    -2
  0
ENDTAB
  0
TABLE
  2
BLOCK_RECORD
  5
1
100
AcDbSymbolTable
 70
     0
  0
BLOCK_RECORD
  5
A
100
AcDbSymbolTableRecord
100
AcDbBlockTableRecord
  2
*MODEL_SPACE
340
20
  0
BLOCK_RECORD
  5
B
100
AcDbSymbolTableRecord
100
AcDbBlockTableRecord
  2
*PAPER_SPACE
340
21
  0
ENDTAB
  0
ENDSEC
  0
SECTION
  2
BLOCKS
  0
BLOCK
  5
D
100
AcDbEntity
  8
0
100
AcDbBlockBegin
  2
*MODEL_SPACE
 70
     0
 10
0.0
 20
0.0
 30
0.0
  3
*MODEL_SPACE
  1

  0
ENDBLK
  5
E
100
AcDbEntity
  8
0
100
AcDbBlockEnd
  0
BLOCK
  5
F
100
AcDbEntity
 67
     1
  8
0
100
AcDbBlockBegin
  2
*PAPER_SPACE
 70
     0
 10
0.0
 20
0.0
 30
0.0
  3
*PAPER_SPACE
  1

  0
ENDBLK
  5
10
100
AcDbEntity
 67
     1
  8
0
100
AcDbBlockEnd
  0
ENDSEC
  0
SECTION
  2
ENTITIES
  0
MTEXT
  5
8B5
100
AcDbEntity
  8
レイヤー_1
 62
     7
100
AcDbMText
 10
47.801389
 20
54.121991
 30
0.0
 40
3.674768
 41
0.0
 71
     1
 72
     2
  1
\fOsaka|b0|i0|c128;\H3.6748;\C7;\U+0033\U+0032\U+002E\U+0038\U+0031\U+0035\U+002E\U+0036\U+0032\U+0035\U+002E\U+0058\U+0058\U+0020\U+002B\U+0020\U+0032\U+0037\U+002E\U+0037\U+0031\U+0039\U+002E\U+0039\U+0037\U+0030\U+002E\U+0058\U+0058
  7
STD
210
0.0
220
0.0
230
1.0
 73
     1
 44
1.0
  0
MTEXT
  5
8B4
100
AcDbEntity
  8
レイヤー_1
 62
     7
100
AcDbMText
 10
39.6875
 20
56.608234
 30
0.0
 40
1.574901
 41
0.0
 71
     1
 72
     2
  1
\fOsaka|b0|i0|c128;\H1.5749;\C7;\U+54C1\U+756A
  7
STD
210
0.0
220
0.0
230
1.0
 73
     1
 44
1.0
  0
MTEXT
  5
8B3
100
AcDbEntity
  8
レイヤー_1
 62
     7
100
AcDbMText
 10
47.801389
 20
32.959208
 30
0.0
 40
3.149486
 41
0.0
 71
     1
 72
     2
  1
\fOsaka|b0|i0|c128;\H3.1495;\C7;\U+0033\U+7A74\U+578B\U+30B7\U+30F3\U+30B0\U+30EB\U+30EC\U+30D0\U+30FC\U+30AD\U+30C3\U+30C1\U+30F3\U+7528\U+6DF7\U+5408\U+6813
  7
STD
210
0.0
220
0.0
230
1.0
 73
     1
 44
1.0
  0
MTEXT
  5
8B2
100
AcDbEntity
  8
レイヤー_1
 62
     7
100
AcDbMText
 10
39.6875
 20
35.441567
 30
0.0
 40
1.574901
 41
0.0
 71
     1
 72
     2
  1
\fOsaka|b0|i0|c128;\H1.5749;\C7;\U+54C1
  7
STD
210
0.0
220
0.0
230
1.0
 73
     1
 44
1.0
  0
MTEXT
  5
8B1
100
AcDbEntity
  8
レイヤー_1
 62
     7
100
AcDbMText
 10
47.801389
 20
42.954808
 30
0.0
 40
3.149486
 41
0.0
 71
     1
 72
     2
  1
\fOsaka|b0|i0|c128;\H3.1495;\C7;\U+004B\U+0049\U+0054\U+0043\U+0048\U+0045\U+004E\U+0020\U+0020\H2.6248;\U+004D\U+0045\U+0054\U+0041\U+002E\U+0030\U+0032
  7
STD
210
0.0
220
0.0
230
1.0
 73
     1
 44
1.0
  0
POLYLINE
  5
8AB
100
AcDbEntity
  8
レイヤー_1
 62
     7
100
AcDb2dPolyline
 66
     1
 10
0.0
 20
0.0
 30
0.0
 70
     1
  0
VERTEX
  5
8AC
100
AcDbEntity
  8
レイヤー_1
 62
     7
100
AcDbVertex
100
AcDb2dVertex
 10
23.636111
 20
26.105556
 30
0.0
  0
VERTEX
  5
8AD
100
AcDbEntity
  8
レイヤー_1
 62
     7
100
AcDbVertex
100
AcDb2dVertex
 10
198.613889
 20
26.105556
 30
0.0
  0
VERTEX
  5
8AE
100
AcDbEntity
  8
レイヤー_1
 62
     7
100
AcDbVertex
100
AcDb2dVertex
 10
198.613889
 20
276.577778
 30
0.0
  0
VERTEX
  5
8AF
100
AcDbEntity
  8
レイヤー_1
 62
     7
100
AcDbVertex
100
AcDb2dVertex
 10
23.636111
 20
276.577778
 30
0.0
  0
SEQEND
  5
8B0
100
AcDbEntity
  8
レイヤー_1
 62
     7
  0
LINE
  5
8AA
100
AcDbEntity
  8
レイヤー_1
 62
     7
100
AcDbLine
 10
170.568056
 20
36.5125
 30
0.0
 11
27.693056
 21
36.5125
 31
0.0
  0
LINE
  5
8A9
100
AcDbEntity
  8
レイヤー_1
 62
     7
100
AcDbLine
 10
170.568056
 20
47.095833
 30
0.0
 11
27.693056
 21
47.095833
 31
0.0
  0
LINE
  5
8A8
100
AcDbEntity
  8
レイヤー_1
 62
     7
100
AcDbLine
 10
23.636111
 20
57.855556
 30
0.0
 11
198.261111
 21
57.855556
 31
0.0
  0
LINE
  5
8A7
100
AcDbEntity
  8
レイヤー_1
 62
     7
100
AcDbLine
 10
170.744444
 20
57.855556
 30
0.0
 11
170.744444
 21
26.458333
 31
0.0
  0
MTEXT
  5
8A6
100
AcDbEntity
  8
レイヤー_1
 62
     7
100
AcDbMText
 10
33.3375
 20
46.024901
 30
0.0
 40
1.574901
 41
0.0
 71
     1
 72
     2
  1
\fOsaka|b0|i0|c128;\H1.5749;\C7;\U+30B7\U+30EA\U+30FC\U+30BA
  7
STD
210
0.0
220
0.0
230
1.0
 73
     1
 44
1.0
  0
MTEXT
  5
8A5
100
AcDbEntity
  8
レイヤー_1
 62
     7
100
AcDbMText
 10
174.095833
 20
54.655042
 30
0.0
 40
3.149486
 41
0.0
 71
     1
 72
     2
  1
\fHeiseiKakuGothicCAN W9|b0|i0|c128;\H3.1495;\C253;\U+5BF8\U+6CD5\U+53C2\U+8003\U+56F3
  7
STD
210
0.0
220
0.0
230
1.0
 73
     1
 44
1.0
  0
LINE
  5
8A4
100
AcDbEntity
  8
レイヤー_1
 62
     7
100
AcDbLine
 10
27.516667
 20
57.855556
 30
0.0
 11
27.516667
 21
26.458333
 31
0.0
  0
IMAGE
  5
8A1
100
AcDbEntity
  8
レイヤー_1
 62
     7
 92
        0
100
AcDbRasterImage
 90
        0
 10
172.155556
 20
28.574682
 30
0.0
 11
0.352531
 21
0.0
 31
0.0
 12
0.0
 22
0.352813
 32
0.0
 13
70.0
 23
9.0
340
8A3
 70
     7
280
     0
281
    50
282
    50
283
     0
360
8A2
 71
     1
 91
        2
 14
-0.5
 24
-0.5
 14
69.5
 24
8.5
  0
IMAGE
  5
89E
100
AcDbEntity
  8
レイヤー_1
 62
     7
 92
        0
100
AcDbRasterImage
 90
        0
 10
172.155556
 20
28.574682
 30
0.0
 11
0.352531
 21
0.0
 31
0.0
 12
0.0
 22
0.352813
 32
0.0
 13
70.0
 23
9.0
340
8A0
 70
     7
280
     0
281
    50
282
    50
283
     0
360
89F
 71
     1
 91
        2
 14
-0.5
 24
-0.5
 14
69.5
 24
8.5
  0
MTEXT
  5
89D
100
AcDbEntity
  8
レイヤー_1
 62
     7
100
AcDbMText
 10
113.418056
 20
46.024901
 30
0.0
 40
1.574901
 41
0.0
 71
     1
 72
     2
  1
\fOsaka|b0|i0|c128;\H1.5749;\C7;\U+4ED5\U+4E0A
  7
STD
210
0.0
220
0.0
230
1.0
 73
     1
 44
1.0
  0
MTEXT
  5
89C
100
AcDbEntity
  8
レイヤー_1
 62
     7
100
AcDbMText
 10
124.765511
 20
40.968165
 30
0.0
 40
1.162843
 41
0.0
 71
     1
 72
     2
  1
\fOsaka|b0|i0|c128;\H1.1628;\W2.71;\C7;
  7
STD
210
0.0
220
0.0
230
1.0
 73
     1
 44
1.0
  0
LINE
  5
89A
100
AcDbEntity
  8
レイヤー_2
 62
     7
100
AcDbLine
 10
151.799864
 20
155.388448
 30
0.0
 11
151.799864
 21
157.086536
 31
0.0
  0
LINE
  5
899
100
AcDbEntity
  8
レイヤー_2
 62
     7
100
AcDbLine
 10
142.57321
 20
157.086536
 30
0.0
 11
142.57321
 21
155.388448
 31
0.0
  0
LINE
  5
898
100
AcDbEntity
  8
レイヤー_2
 62
     7
100
AcDbLine
 10
144.270953
 20
169.426523
 30
0.0
 11
144.270953
 21
157.086536
 31
0.0
  0
LINE
  5
897
100
AcDbEntity
  8
レイヤー_2
 62
     7
100
AcDbLine
 10
150.102121
 20
157.086536
 30
0.0
 11
150.102121
 21
169.426523
 31
0.0
  0
LINE
  5
896
100
AcDbEntity
  8
レイヤー_2
 62
     7
100
AcDbLine
 10
171.578502
 20
164.105229
 30
0.0
 11
171.578502
 21
157.086536
 31
0.0
  0
LINE
  5
895
100
AcDbEntity
  8
レイヤー_2
 62
     7
100
AcDbLine
 10
164.049246
 20
157.086536
 30
0.0
 11
164.049246
 21
164.105229
 31
0.0
  0
LINE
  5
894
100
AcDbEntity
  8
レイヤー_2
 62
     7
100
AcDbLine
 10
164.049246
 20
164.502276
 30
0.0
 11
164.049246
 21
169.426523
 31
0.0
  0
LINE
  5
893
100
AcDbEntity
  8
レイヤー_2
 62
     7
100
AcDbLine
 10
171.578502
 20
169.426523
 30
0.0
 11
171.578502
 21
164.502276
 31
0.0
  0
POLYLINE
  5
88E
100
AcDbEntity
  8
レイヤー_2
 62
     7
100
AcDb2dPolyline
 66
     1
 10
0.0
 20
0.0
 30
0.0
  0
VERTEX
  5
88F
100
AcDbEntity
  8
レイヤー_2
 62
     7
100
AcDbVertex
100
AcDb2dVertex
 10
164.049246
 20
169.426523
 30
0.0
  0
VERTEX
  5
890
100
AcDbEntity
  8
レイヤー_2
 62
     7
100
AcDbVertex
100
AcDb2dVertex
 10
167.841951
 20
169.539867
 30
0.0
  0
VERTEX
  5
891
100
AcDbEntity
  8
レイヤー_2
 62
     7
100
AcDbVertex
100
AcDb2dVertex
 10
171.578502
 20
169.426523
 30
0.0
  0
SEQEND
  5
892
100
AcDbEntity
  8
レイヤー_2
 62
     7
  0
LINE
  5
88D
100
AcDbEntity
  8
レイヤー_2
 62
     7
100
AcDbLine
 10
172.427029
 20
157.086536
 30
0.0
 11
172.427029
 21
155.443914
 31
0.0
  0
LINE
  5
88C
100
AcDbEntity
  8
レイヤー_2
 62
     7
100
AcDbLine
 10
163.199685
 20
155.443914
 30
0.0
 11
163.199685
 21
157.086536
 31
0.0
  0
LINE
  5
88B
100
AcDbEntity
  8
レイヤー_2
 62
     7
100
AcDbLine
 10
151.799864
 20
157.086536
 30
0.0
 11
142.57321
 21
157.086536
 31
0.0
  0
LINE
  5
88A
100
AcDbEntity
  8
レイヤー_2
 62
     7
100
AcDbLine
 10
144.270953
 20
169.426523
 30
0.0
 11
150.102121
 21
169.426523
 31
0.0
  0
LINE
  5
889
100
AcDbEntity
  8
レイヤー_2
 62
     7
100
AcDbLine
 10
167.841951
 20
164.105229
 30
0.0
 11
164.049246
 21
164.105229
 31
0.0
  0
LINE
  5
888
100
AcDbEntity
  8
レイヤー_2
 62
     7
100
AcDbLine
 10
171.578502
 20
164.105229
 30
0.0
 11
167.841951
 21
164.105229
 31
0.0
  0
LINE
  5
887
100
AcDbEntity
  8
レイヤー_2
 62
     7
100
AcDbLine
 10
170.672442
 20
164.105229
 30
0.0
 11
170.672442
 21
164.502276
 31
0.0
  0
LINE
  5
886
100
AcDbEntity
  8
レイヤー_2
 62
     7
100
AcDbLine
 10
164.954617
 20
164.502276
 30
0.0
 11
164.954617
 21
164.105229
 31
0.0
  0
POLYLINE
  5
877
100
AcDbEntity
  8
レイヤー_2
 62
     7
100
AcDb2dPolyline
 66
     1
 10
0.0
 20
0.0
 30
0.0
  0
VERTEX
  5
878
100
AcDbEntity
  8
レイヤー_2
 62
     7
100
AcDbVertex
100
AcDb2dVertex
 10
166.653394
 20
167.219423
 30
0.0
  0
VERTEX
  5
879
100
AcDbEntity
  8
レイヤー_2
 62
     7
100
AcDbVertex
100
AcDb2dVertex
 10
166.822892
 20
167.784591
 30
0.0
  0
VERTEX
  5
87A
100
AcDbEntity
  8
レイヤー_2
 62
     7
100
AcDbVertex
100
AcDb2dVertex
 10
167.219078
 20
168.238654
 30
0.0
  0
VERTEX
  5
87B
100
AcDbEntity
  8
レイヤー_2
 62
     7
100
AcDbVertex
100
AcDb2dVertex
 10
167.841951
 20
168.407464
 30
0.0
  0
VERTEX
  5
87C
100
AcDbEntity
  8
レイヤー_2
 62
     7
100
AcDbVertex
100
AcDb2dVertex
 10
168.407636
 20
168.238654
 30
0.0
  0
VERTEX
  5
87D
100
AcDbEntity
  8
レイヤー_2
 62
     7
100
AcDbVertex
100
AcDb2dVertex
 10
168.804167
 20
167.784591
 30
0.0
  0
VERTEX
  5
87E
100
AcDbEntity
  8
レイヤー_2
 62
     7
100
AcDbVertex
100
AcDb2dVertex
 10
168.974354
 20
167.219423
 30
0.0
  0
VERTEX
  5
87F
100
AcDbEntity
  8
レイヤー_2
 62
     7
100
AcDbVertex
100
AcDb2dVertex
 10
168.804167
 20
166.653566
 30
0.0
  0
VERTEX
  5
880
100
AcDbEntity
  8
レイヤー_2
 62
     7
100
AcDbVertex
100
AcDb2dVertex
 10
168.407636
 20
166.200363
 30
0.0
  0
VERTEX
  5
881
100
AcDbEntity
  8
レイヤー_2
 62
     7
100
AcDbVertex
100
AcDb2dVertex
 10
167.841951
 20
166.030176
 30
0.0
  0
VERTEX
  5
882
100
AcDbEntity
  8
レイヤー_2
 62
     7
100
AcDbVertex
100
AcDb2dVertex
 10
167.219078
 20
166.200363
 30
0.0
  0
VERTEX
  5
883
100
AcDbEntity
  8
レイヤー_2
 62
     7
100
AcDbVertex
100
AcDb2dVertex
 10
166.822892
 20
166.653566
 30
0.0
  0
VERTEX
  5
884
100
AcDbEntity
  8
レイヤー_2
 62
     7
100
AcDbVertex
100
AcDb2dVertex
 10
166.653394
 20
167.219423
 30
0.0
  0
SEQEND
  5
885
100
AcDbEntity
  8
レイヤー_2
 62
     7
  0
LINE
  5
876
100
AcDbEntity
  8
レイヤー_2
 62
     7
100
AcDbLine
 10
171.578502
 20
164.502276
 30
0.0
 11
164.049246
 21
164.502276
 31
0.0
  0
LINE
  5
875
100
AcDbEntity
  8
レイヤー_2
 62
     7
100
AcDbLine
 10
172.427029
 20
155.443914
 30
0.0
 11
163.199685
 21
155.443914
 31
0.0
  0
LINE
  5
874
100
AcDbEntity
  8
レイヤー_2
 62
     7
100
AcDbLine
 10
172.427029
 20
157.086536
 30
0.0
 11
163.199685
 21
157.086536
 31
0.0
  0
LINE
  5
873
100
AcDbEntity
  8
レイヤー_2
 62
     7
100
AcDbLine
 10
81.959166
 20
155.388448
 30
0.0
 11
81.959166
 21
157.086536
 31
0.0
  0
LINE
  5
872
100
AcDbEntity
  8
レイヤー_2
 62
     7
100
AcDbLine
 10
89.488078
 20
165.859644
 30
0.0
 11
89.488078
 21
165.803488
 31
0.0
  0
LINE
  5
871
100
AcDbEntity
  8
レイヤー_2
 62
     7
100
AcDbLine
 10
90.336949
 20
164.105229
 30
0.0
 11
90.336949
 21
157.086536
 31
0.0
  0
LINE
  5
870
100
AcDbEntity
  8
レイヤー_2
 62
     7
100
AcDbLine
 10
82.86402
 20
157.086536
 30
0.0
 11
82.86402
 21
164.105229
 31
0.0
  0
LINE
  5
86F
100
AcDbEntity
  8
レイヤー_2
 62
     7
100
AcDbLine
 10
89.714076
 20
164.557742
 30
0.0
 11
89.714076
 21
164.105229
 31
0.0
  0
POLYLINE
  5
86A
100
AcDbEntity
  8
レイヤー_2
 62
     7
100
AcDb2dPolyline
 66
     1
 10
0.0
 20
0.0
 30
0.0
  0
VERTEX
  5
86B
100
AcDbEntity
  8
レイヤー_2
 62
     7
100
AcDbVertex
100
AcDb2dVertex
 10
89.431061
 20
165.803488
 30
0.0
  0
VERTEX
  5
86C
100
AcDbEntity
  8
レイヤー_2
 62
     7
100
AcDbVertex
100
AcDb2dVertex
 10
89.60056
 20
165.350975
 30
0.0
  0
VERTEX
  5
86D
100
AcDbEntity
  8
レイヤー_2
 62
     7
100
AcDbVertex
100
AcDb2dVertex
 10
89.714076
 20
164.557742
 30
0.0
  0
SEQEND
  5
86E
100
AcDbEntity
  8
レイヤー_2
 62
     7
  0
LINE
  5
869
100
AcDbEntity
  8
レイヤー_2
 62
     7
100
AcDbLine
 10
83.487755
 20
164.105229
 30
0.0
 11
83.487755
 21
164.502276
 31
0.0
  0
LINE
  5
868
100
AcDbEntity
  8
レイヤー_2
 62
     7
100
AcDbLine
 10
81.166622
 20
168.011967
 30
0.0
 11
82.86402
 21
168.011967
 31
0.0
  0
LINE
  5
867
100
AcDbEntity
  8
レイヤー_2
 62
     7
100
AcDbLine
 10
82.86402
 20
166.370034
 30
0.0
 11
81.166622
 21
166.370034
 31
0.0
  0
LINE
  5
866
100
AcDbEntity
  8
レイヤー_2
 62
     7
100
AcDbLine
 10
71.938589
 20
168.351137
 30
0.0
 11
81.166622
 21
168.351137
 31
0.0
  0
LINE
  5
865
100
AcDbEntity
  8
レイヤー_2
 62
     7
100
AcDbLine
 10
81.166622
 20
166.030176
 30
0.0
 11
71.938589
 21
166.030176
 31
0.0
  0
LINE
  5
864
100
AcDbEntity
  8
レイヤー_2
 62
     7
100
AcDbLine
 10
82.86402
 20
168.068122
 30
0.0
 11
82.86402
 21
169.426523
 31
0.0
  0
LINE
  5
863
100
AcDbEntity
  8
レイヤー_2
 62
     7
100
AcDbLine
 10
82.86402
 20
164.502276
 30
0.0
 11
82.86402
 21
166.370034
 31
0.0
  0
LINE
  5
862
100
AcDbEntity
  8
レイヤー_2
 62
     7
100
AcDbLine
 10
90.336949
 20
166.76622
 30
0.0
 11
90.336949
 21
166.256691
 31
0.0
  0
LINE
  5
861
100
AcDbEntity
  8
レイヤー_2
 62
     7
100
AcDbLine
 10
90.336949
 20
169.426523
 30
0.0
 11
90.336949
 21
167.61492
 31
0.0
  0
POLYLINE
  5
85C
100
AcDbEntity
  8
レイヤー_2
 62
     7
100
AcDb2dPolyline
 66
     1
 10
0.0
 20
0.0
 30
0.0
  0
VERTEX
  5
85D
100
AcDbEntity
  8
レイヤー_2
 62
     7
100
AcDbVertex
100
AcDb2dVertex
 10
82.86402
 20
169.426523
 30
0.0
  0
VERTEX
  5
85E
100
AcDbEntity
  8
レイヤー_2
 62
     7
100
AcDbVertex
100
AcDb2dVertex
 10
86.600399
 20
169.484401
 30
0.0
  0
VERTEX
  5
85F
100
AcDbEntity
  8
レイヤー_2
 62
     7
100
AcDbVertex
100
AcDb2dVertex
 10
90.336949
 20
169.426523
 30
0.0
  0
SEQEND
  5
860
100
AcDbEntity
  8
レイヤー_2
 62
     7
  0
LINE
  5
85B
100
AcDbEntity
  8
レイヤー_2
 62
     7
100
AcDbLine
 10
91.185649
 20
157.086536
 30
0.0
 11
91.185649
 21
155.388448
 31
0.0
  0
LINE
  5
85A
100
AcDbEntity
  8
レイヤー_2
 62
     7
100
AcDbLine
 10
81.959166
 20
157.086536
 30
0.0
 11
82.015321
 21
157.086536
 31
0.0
  0
LINE
  5
859
100
AcDbEntity
  8
レイヤー_2
 62
     7
100
AcDbLine
 10
90.336949
 20
164.105229
 30
0.0
 11
82.86402
 21
164.105229
 31
0.0
  0
LINE
  5
858
100
AcDbEntity
  8
レイヤー_2
 62
     7
100
AcDbLine
 10
87.902473
 20
164.557742
 30
0.0
 11
87.902473
 21
164.105229
 31
0.0
  0
LINE
  5
857
100
AcDbEntity
  8
レイヤー_2
 62
     7
100
AcDbLine
 10
87.789129
 20
165.067444
 30
0.0
 11
87.902473
 21
164.557742
 31
0.0
  0
LINE
  5
856
100
AcDbEntity
  8
レイヤー_2
 62
     7
100
AcDbLine
 10
85.299186
 20
164.105229
 30
0.0
 11
85.299186
 21
164.502276
 31
0.0
  0
LINE
  5
855
100
AcDbEntity
  8
レイヤー_2
 62
     7
100
AcDbLine
 10
81.166622
 20
168.351137
 30
0.0
 11
81.166622
 21
166.030176
 31
0.0
  0
LINE
  5
854
100
AcDbEntity
  8
レイヤー_2
 62
     7
100
AcDbLine
 10
90.336949
 20
167.61492
 30
0.0
 11
90.336949
 21
166.76622
 31
0.0
  0
LINE
  5
853
100
AcDbEntity
  8
レイヤー_2
 62
     7
100
AcDbLine
 10
90.336949
 20
167.10539
 30
0.0
 11
90.336949
 21
167.219423
 31
0.0
  0
LINE
  5
852
100
AcDbEntity
  8
レイヤー_2
 62
     7
100
AcDbLine
 10
86.600399
 20
164.502276
 30
0.0
 11
82.86402
 21
164.502276
 31
0.0
  0
LINE
  5
851
100
AcDbEntity
  8
レイヤー_2
 62
     7
100
AcDbLine
 10
90.336949
 20
166.256691
 30
0.0
 11
86.600399
 21
164.502276
 31
0.0
  0
POLYLINE
  5
849
100
AcDbEntity
  8
レイヤー_2
 62
     7
100
AcDb2dPolyline
 66
     1
 10
0.0
 20
0.0
 30
0.0
  0
VERTEX
  5
84A
100
AcDbEntity
  8
レイヤー_2
 62
     7
100
AcDbVertex
100
AcDb2dVertex
 10
82.86402
 20
166.370034
 30
0.0
  0
VERTEX
  5
84B
100
AcDbEntity
  8
レイヤー_2
 62
     7
100
AcDbVertex
100
AcDb2dVertex
 10
82.86402
 20
166.596033
 30
0.0
  0
VERTEX
  5
84C
100
AcDbEntity
  8
レイヤー_2
 62
     7
100
AcDbVertex
100
AcDb2dVertex
 10
82.92052
 20
166.822548
 30
0.0
  0
VERTEX
  5
84D
100
AcDbEntity
  8
レイヤー_2
 62
     7
100
AcDbVertex
100
AcDb2dVertex
 10
82.92052
 20
167.61492
 30
0.0
  0
VERTEX
  5
84E
100
AcDbEntity
  8
レイヤー_2
 62
     7
100
AcDbVertex
100
AcDb2dVertex
 10
82.86402
 20
167.841607
 30
0.0
  0
VERTEX
  5
84F
100
AcDbEntity
  8
レイヤー_2
 62
     7
100
AcDbVertex
100
AcDb2dVertex
 10
82.86402
 20
168.068122
 30
0.0
  0
SEQEND
  5
850
100
AcDbEntity
  8
レイヤー_2
 62
     7
  0
LINE
  5
848
100
AcDbEntity
  8
レイヤー_2
 62
     7
100
AcDbLine
 10
87.506287
 20
157.086536
 30
0.0
 11
82.015321
 21
157.086536
 31
0.0
  0
LINE
  5
847
100
AcDbEntity
  8
レイヤー_2
 62
     7
100
AcDbLine
 10
91.185649
 20
157.086536
 30
0.0
 11
87.506287
 21
157.086536
 31
0.0
  0
LINE
  5
846
100
AcDbEntity
  8
レイヤー_2
 62
     7
100
AcDbLine
 10
71.938589
 20
168.351137
 30
0.0
 11
71.938589
 21
166.030176
 31
0.0
  0
LINE
  5
845
100
AcDbEntity
  8
レイヤー_2
 62
     7
100
AcDbLine
 10
170.332756
 20
145.538748
 30
0.0
 11
170.162223
 21
145.369249
 31
0.0
  0
LINE
  5
844
100
AcDbEntity
  8
レイヤー_2
 62
     7
100
AcDbLine
 10
165.463802
 20
145.369249
 30
0.0
 11
165.351147
 21
145.538748
 31
0.0
  0
LINE
  5
843
100
AcDbEntity
  8
レイヤー_2
 62
     7
100
AcDbLine
 10
170.332756
 20
155.274932
 30
0.0
 11
170.332756
 21
148.08674
 31
0.0
  0
LINE
  5
842
100
AcDbEntity
  8
レイヤー_2
 62
     7
100
AcDbLine
 10
170.332756
 20
146.218121
 30
0.0
 11
170.332756
 21
145.538748
 31
0.0
  0
LINE
  5
841
100
AcDbEntity
  8
レイヤー_2
 62
     7
100
AcDbLine
 10
165.351147
 20
145.538748
 30
0.0
 11
165.351147
 21
146.218121
 31
0.0
  0
LINE
  5
840
100
AcDbEntity
  8
レイヤー_2
 62
     7
100
AcDbLine
 10
165.351147
 20
148.029552
 30
0.0
 11
165.351147
 21
155.274932
 31
0.0
  0
LINE
  5
83F
100
AcDbEntity
  8
レイヤー_2
 62
     7
100
AcDbLine
 10
167.841951
 20
145.538748
 30
0.0
 11
165.351147
 21
145.538748
 31
0.0
  0
LINE
  5
83E
100
AcDbEntity
  8
レイヤー_2
 62
     7
100
AcDbLine
 10
170.332756
 20
145.538748
 30
0.0
 11
167.841951
 21
145.538748
 31
0.0
  0
LINE
  5
83D
100
AcDbEntity
  8
レイヤー_2
 62
     7
100
AcDbLine
 10
167.841951
 20
145.369249
 30
0.0
 11
170.162223
 21
145.369249
 31
0.0
  0
LINE
  5
83C
100
AcDbEntity
  8
レイヤー_2
 62
     7
100
AcDbLine
 10
165.463802
 20
145.369249
 30
0.0
 11
167.841951
 21
145.369249
 31
0.0
  0
LINE
  5
83B
100
AcDbEntity
  8
レイヤー_2
 62
     7
100
AcDbLine
 10
172.427029
 20
155.388448
 30
0.0
 11
163.199685
 21
155.388448
 31
0.0
  0
LINE
  5
83A
100
AcDbEntity
  8
レイヤー_2
 62
     7
100
AcDbLine
 10
171.578502
 20
147.520367
 30
0.0
 11
171.578502
 21
147.23718
 31
0.0
  0
LINE
  5
839
100
AcDbEntity
  8
レイヤー_2
 62
     7
100
AcDbLine
 10
164.049246
 20
147.23718
 30
0.0
 11
164.049246
 21
147.520367
 31
0.0
  0
LINE
  5
838
100
AcDbEntity
  8
レイヤー_2
 62
     7
100
AcDbLine
 10
163.822903
 20
147.576177
 30
0.0
 11
163.822903
 21
148.029552
 31
0.0
  0
LINE
  5
837
100
AcDbEntity
  8
レイヤー_2
 62
     7
100
AcDbLine
 10
171.803467
 20
148.029552
 30
0.0
 11
171.803467
 21
147.576177
 31
0.0
  0
LINE
  5
836
100
AcDbEntity
  8
レイヤー_2
 62
     7
100
AcDbLine
 10
171.578502
 20
147.23718
 30
0.0
 11
164.049246
 21
147.23718
 31
0.0
  0
LINE
  5
835
100
AcDbEntity
  8
レイヤー_2
 62
     7
100
AcDbLine
 10
171.803467
 20
147.576177
 30
0.0
 11
163.822903
 21
147.576177
 31
0.0
  0
LINE
  5
834
100
AcDbEntity
  8
レイヤー_2
 62
     7
100
AcDbLine
 10
169.369851
 20
146.218121
 30
0.0
 11
169.369851
 21
147.23718
 31
0.0
  0
LINE
  5
833
100
AcDbEntity
  8
レイヤー_2
 62
     7
100
AcDbLine
 10
166.256174
 20
146.218121
 30
0.0
 11
166.256174
 21
147.23718
 31
0.0
  0
LINE
  5
832
100
AcDbEntity
  8
レイヤー_2
 62
     7
100
AcDbLine
 10
165.974021
 20
146.218121
 30
0.0
 11
168.804167
 21
146.218121
 31
0.0
  0
LINE
  5
831
100
AcDbEntity
  8
レイヤー_2
 62
     7
100
AcDbLine
 10
169.257197
 20
146.218121
 30
0.0
 11
168.804167
 21
146.218121
 31
0.0
  0
LINE
  5
830
100
AcDbEntity
  8
レイヤー_2
 62
     7
100
AcDbLine
 10
171.011784
 20
146.218121
 30
0.0
 11
169.257197
 21
146.218121
 31
0.0
  0
LINE
  5
82F
100
AcDbEntity
  8
レイヤー_2
 62
     7
100
AcDbLine
 10
165.974021
 20
146.218121
 30
0.0
 11
165.634334
 21
146.218121
 31
0.0
  0
LINE
  5
82E
100
AcDbEntity
  8
レイヤー_2
 62
     7
100
AcDbLine
 10
164.558775
 20
146.218121
 30
0.0
 11
164.558775
 21
147.23718
 31
0.0
  0
LINE
  5
82D
100
AcDbEntity
  8
レイヤー_2
 62
     7
100
AcDbLine
 10
164.558775
 20
146.218121
 30
0.0
 11
165.634334
 21
146.218121
 31
0.0
  0
LINE
  5
82C
100
AcDbEntity
  8
レイヤー_2
 62
     7
100
AcDbLine
 10
171.068972
 20
146.218121
 30
0.0
 11
171.068972
 21
147.23718
 31
0.0
  0
LINE
  5
82B
100
AcDbEntity
  8
レイヤー_2
 62
     7
100
AcDbLine
 10
171.068972
 20
146.218121
 30
0.0
 11
171.011784
 21
146.218121
 31
0.0
  0
LINE
  5
82A
100
AcDbEntity
  8
レイヤー_2
 62
     7
100
AcDbLine
 10
167.841951
 20
148.029552
 30
0.0
 11
163.822903
 21
148.029552
 31
0.0
  0
LINE
  5
829
100
AcDbEntity
  8
レイヤー_2
 62
     7
100
AcDbLine
 10
171.803467
 20
148.029552
 30
0.0
 11
167.841951
 21
148.029552
 31
0.0
  0
LINE
  5
828
100
AcDbEntity
  8
レイヤー_2
 62
     7
100
AcDbLine
 10
169.993414
 20
155.274932
 30
0.0
 11
169.993414
 21
148.029552
 31
0.0
  0
LINE
  5
827
100
AcDbEntity
  8
レイヤー_2
 62
     7
100
AcDbLine
 10
169.993414
 20
146.218121
 30
0.0
 11
169.993414
 21
145.538748
 31
0.0
  0
LINE
  5
826
100
AcDbEntity
  8
レイヤー_2
 62
     7
100
AcDbLine
 10
165.634334
 20
145.538748
 30
0.0
 11
165.634334
 21
146.218121
 31
0.0
  0
LINE
  5
825
100
AcDbEntity
  8
レイヤー_2
 62
     7
100
AcDbLine
 10
165.634334
 20
148.029552
 30
0.0
 11
165.634334
 21
155.274932
 31
0.0
  0
POLYLINE
  5
820
100
AcDbEntity
  8
レイヤー_2
 62
     7
100
AcDb2dPolyline
 66
     1
 10
0.0
 20
0.0
 30
0.0
  0
VERTEX
  5
821
100
AcDbEntity
  8
レイヤー_2
 62
     7
100
AcDbVertex
100
AcDb2dVertex
 10
145.177013
 20
154.312028
 30
0.0
  0
VERTEX
  5
822
100
AcDbEntity
  8
レイヤー_2
 62
     7
100
AcDbVertex
100
AcDb2dVertex
 10
145.120858
 20
154.085857
 30
0.0
  0
VERTEX
  5
823
100
AcDbEntity
  8
レイヤー_2
 62
     7
100
AcDbVertex
100
AcDb2dVertex
 10
145.177013
 20
153.803187
 30
0.0
  0
SEQEND
  5
824
100
AcDbEntity
  8
レイヤー_2
 62
     7
  0
LINE
  5
81F
100
AcDbEntity
  8
レイヤー_2
 62
     7
100
AcDbLine
 10
145.177013
 20
152.274771
 30
0.0
 11
145.120858
 21
151.991928
 31
0.0
  0
LINE
  5
81E
100
AcDbEntity
  8
レイヤー_2
 62
     7
100
AcDbLine
 10
145.120858
 20
151.991928
 30
0.0
 11
145.120858
 21
151.199556
 31
0.0
  0
POLYLINE
  5
819
100
AcDbEntity
  8
レイヤー_2
 62
     7
100
AcDb2dPolyline
 66
     1
 10
0.0
 20
0.0
 30
0.0
  0
VERTEX
  5
81A
100
AcDbEntity
  8
レイヤー_2
 62
     7
100
AcDbVertex
100
AcDb2dVertex
 10
145.233512
 20
154.369217
 30
0.0
  0
VERTEX
  5
81B
100
AcDbEntity
  8
レイヤー_2
 62
     7
100
AcDbVertex
100
AcDb2dVertex
 10
145.177013
 20
154.369217
 30
0.0
  0
VERTEX
  5
81C
100
AcDbEntity
  8
レイヤー_2
 62
     7
100
AcDbVertex
100
AcDb2dVertex
 10
145.177013
 20
154.312028
 30
0.0
  0
SEQEND
  5
81D
100
AcDbEntity
  8
レイヤー_2
 62
     7
  0
LINE
  5
818
100
AcDbEntity
  8
レイヤー_2
 62
     7
100
AcDbLine
 10
145.177013
 20
155.274932
 30
0.0
 11
145.177013
 21
154.369217
 31
0.0
  0
LINE
  5
817
100
AcDbEntity
  8
レイヤー_2
 62
     7
100
AcDbLine
 10
146.932289
 20
123.065701
 30
0.0
 11
146.932289
 21
140.387641
 31
0.0
  0
LINE
  5
816
100
AcDbEntity
  8
レイヤー_2
 62
     7
100
AcDbLine
 10
145.289667
 20
151.199556
 30
0.0
 11
145.289667
 21
148.42591
 31
0.0
  0
LINE
  5
815
100
AcDbEntity
  8
レイヤー_2
 62
     7
100
AcDbLine
 10
145.289667
 20
147.067681
 30
0.0
 11
145.289667
 21
122.839014
 31
0.0
  0
LINE
  5
814
100
AcDbEntity
  8
レイヤー_2
 62
     7
100
AcDbLine
 10
151.120492
 20
148.199912
 30
0.0
 11
151.120492
 21
148.42591
 31
0.0
  0
LINE
  5
813
100
AcDbEntity
  8
レイヤー_2
 62
     7
100
AcDbLine
 10
143.139239
 20
148.42591
 30
0.0
 11
143.139239
 21
148.199912
 31
0.0
  0
LINE
  5
812
100
AcDbEntity
  8
レイヤー_2
 62
     7
100
AcDbLine
 10
149.082373
 20
155.048245
 30
0.0
 11
149.082373
 21
155.274932
 31
0.0
  0
LINE
  5
811
100
AcDbEntity
  8
レイヤー_2
 62
     7
100
AcDbLine
 10
147.44113
 20
123.009201
 30
0.0
 11
147.44113
 21
140.387641
 31
0.0
  0
LINE
  5
810
100
AcDbEntity
  8
レイヤー_2
 62
     7
100
AcDbLine
 10
146.479259
 20
155.274932
 30
0.0
 11
146.479259
 21
148.42591
 31
0.0
  0
LINE
  5
80F
100
AcDbEntity
  8
レイヤー_2
 62
     7
100
AcDbLine
 10
147.78116
 20
148.42591
 30
0.0
 11
147.78116
 21
155.274932
 31
0.0
  0
POLYLINE
  5
80A
100
AcDbEntity
  8
レイヤー_2
 62
     7
100
AcDb2dPolyline
 66
     1
 10
0.0
 20
0.0
 30
0.0
  0
VERTEX
  5
80B
100
AcDbEntity
  8
レイヤー_2
 62
     7
100
AcDbVertex
100
AcDb2dVertex
 10
142.798863
 20
147.12487
 30
0.0
  0
VERTEX
  5
80C
100
AcDbEntity
  8
レイヤー_2
 62
     7
100
AcDbVertex
100
AcDb2dVertex
 10
142.798863
 20
147.067681
 30
0.0
  0
VERTEX
  5
80D
100
AcDbEntity
  8
レイヤー_2
 62
     7
100
AcDbVertex
100
AcDb2dVertex
 10
142.856396
 20
147.010493
 30
0.0
  0
SEQEND
  5
80E
100
AcDbEntity
  8
レイヤー_2
 62
     7
  0
POLYLINE
  5
805
100
AcDbEntity
  8
レイヤー_2
 62
     7
100
AcDb2dPolyline
 66
     1
 10
0.0
 20
0.0
 30
0.0
  0
VERTEX
  5
806
100
AcDbEntity
  8
レイヤー_2
 62
     7
100
AcDbVertex
100
AcDb2dVertex
 10
151.404367
 20
147.010493
 30
0.0
  0
VERTEX
  5
807
100
AcDbEntity
  8
レイヤー_2
 62
     7
100
AcDbVertex
100
AcDb2dVertex
 10
151.460522
 20
147.067681
 30
0.0
  0
VERTEX
  5
808
100
AcDbEntity
  8
レイヤー_2
 62
     7
100
AcDbVertex
100
AcDb2dVertex
 10
151.460522
 20
147.12487
 30
0.0
  0
SEQEND
  5
809
100
AcDbEntity
  8
レイヤー_2
 62
     7
  0
LINE
  5
804
100
AcDbEntity
  8
レイヤー_2
 62
     7
100
AcDbLine
 10
151.460522
 20
147.12487
 30
0.0
 11
151.460522
 21
148.08674
 31
0.0
  0
LINE
  5
803
100
AcDbEntity
  8
レイヤー_2
 62
     7
100
AcDbLine
 10
142.798863
 20
148.08674
 30
0.0
 11
142.798863
 21
147.12487
 31
0.0
  0
POLYLINE
  5
7FE
100
AcDbEntity
  8
レイヤー_2
 62
     7
100
AcDb2dPolyline
 66
     1
 10
0.0
 20
0.0
 30
0.0
  0
VERTEX
  5
7FF
100
AcDbEntity
  8
レイヤー_2
 62
     7
100
AcDbVertex
100
AcDb2dVertex
 10
142.856396
 20
148.199912
 30
0.0
  0
VERTEX
  5
800
100
AcDbEntity
  8
レイヤー_2
 62
     7
100
AcDbVertex
100
AcDb2dVertex
 10
142.798863
 20
148.143929
 30
0.0
  0
VERTEX
  5
801
100
AcDbEntity
  8
レイヤー_2
 62
     7
100
AcDbVertex
100
AcDb2dVertex
 10
142.798863
 20
148.08674
 30
0.0
  0
SEQEND
  5
802
100
AcDbEntity
  8
レイヤー_2
 62
     7
  0
POLYLINE
  5
7F9
100
AcDbEntity
  8
レイヤー_2
 62
     7
100
AcDb2dPolyline
 66
     1
 10
0.0
 20
0.0
 30
0.0
  0
VERTEX
  5
7FA
100
AcDbEntity
  8
レイヤー_2
 62
     7
100
AcDbVertex
100
AcDb2dVertex
 10
151.460522
 20
148.08674
 30
0.0
  0
VERTEX
  5
7FB
100
AcDbEntity
  8
レイヤー_2
 62
     7
100
AcDbVertex
100
AcDb2dVertex
 10
151.460522
 20
148.143929
 30
0.0
  0
VERTEX
  5
7FC
100
AcDbEntity
  8
レイヤー_2
 62
     7
100
AcDbVertex
100
AcDb2dVertex
 10
151.404367
 20
148.199912
 30
0.0
  0
SEQEND
  5
7FD
100
AcDbEntity
  8
レイヤー_2
 62
     7
  0
LINE
  5
7F8
100
AcDbEntity
  8
レイヤー_2
 62
     7
100
AcDbLine
 10
148.234535
 20
146.727995
 30
0.0
 11
148.234535
 21
146.954682
 31
0.0
  0
LINE
  5
7F7
100
AcDbEntity
  8
レイヤー_2
 62
     7
100
AcDbLine
 10
146.025884
 20
146.954682
 30
0.0
 11
146.025884
 21
146.727995
 31
0.0
  0
LINE
  5
7F6
100
AcDbEntity
  8
レイヤー_2
 62
     7
100
AcDbLine
 10
148.234535
 20
146.954682
 30
0.0
 11
147.893815
 21
147.010493
 31
0.0
  0
LINE
  5
7F5
100
AcDbEntity
  8
レイヤー_2
 62
     7
100
AcDbLine
 10
146.364882
 20
147.010493
 30
0.0
 11
146.025884
 21
146.954682
 31
0.0
  0
LINE
  5
7F4
100
AcDbEntity
  8
レイヤー_2
 62
     7
100
AcDbLine
 10
146.025884
 20
146.727995
 30
0.0
 11
146.308727
 21
146.27462
 31
0.0
  0
LINE
  5
7F3
100
AcDbEntity
  8
レイヤー_2
 62
     7
100
AcDbLine
 10
147.951348
 20
146.27462
 30
0.0
 11
148.234535
 21
146.727995
 31
0.0
  0
LINE
  5
7F2
100
AcDbEntity
  8
レイヤー_2
 62
     7
100
AcDbLine
 10
147.951348
 20
142.36926
 30
0.0
 11
147.951348
 21
146.27462
 31
0.0
  0
LINE
  5
7F1
100
AcDbEntity
  8
レイヤー_2
 62
     7
100
AcDbLine
 10
146.308727
 20
146.27462
 30
0.0
 11
146.308727
 21
142.36926
 31
0.0
  0
LINE
  5
7F0
100
AcDbEntity
  8
レイヤー_2
 62
     7
100
AcDbLine
 10
146.479259
 20
153.803187
 30
0.0
 11
146.42207
 21
153.803187
 31
0.0
  0
LINE
  5
7EF
100
AcDbEntity
  8
レイヤー_2
 62
     7
100
AcDbLine
 10
146.42207
 20
153.803187
 30
0.0
 11
145.856041
 21
153.803187
 31
0.0
  0
LINE
  5
7EE
100
AcDbEntity
  8
レイヤー_2
 62
     7
100
AcDbLine
 10
145.856041
 20
153.803187
 30
0.0
 11
145.686887
 21
153.803187
 31
0.0
  0
LINE
  5
7ED
100
AcDbEntity
  8
レイヤー_2
 62
     7
100
AcDbLine
 10
145.686887
 20
153.803187
 30
0.0
 11
145.289667
 21
153.803187
 31
0.0
  0
LINE
  5
7EC
100
AcDbEntity
  8
レイヤー_2
 62
     7
100
AcDbLine
 10
145.289667
 20
153.803187
 30
0.0
 11
145.233512
 21
153.803187
 31
0.0
  0
LINE
  5
7EB
100
AcDbEntity
  8
レイヤー_2
 62
     7
100
AcDbLine
 10
145.233512
 20
153.803187
 30
0.0
 11
145.177013
 21
153.803187
 31
0.0
  0
LINE
  5
7EA
100
AcDbEntity
  8
レイヤー_2
 62
     7
100
AcDbLine
 10
145.233512
 20
152.274771
 30
0.0
 11
145.177013
 21
152.274771
 31
0.0
  0
LINE
  5
7E9
100
AcDbEntity
  8
レイヤー_2
 62
     7
100
AcDbLine
 10
145.289667
 20
152.274771
 30
0.0
 11
145.233512
 21
152.274771
 31
0.0
  0
LINE
  5
7E8
100
AcDbEntity
  8
レイヤー_2
 62
     7
100
AcDbLine
 10
145.686887
 20
152.274771
 30
0.0
 11
145.289667
 21
152.274771
 31
0.0
  0
LINE
  5
7E7
100
AcDbEntity
  8
レイヤー_2
 62
     7
100
AcDbLine
 10
145.856041
 20
152.274771
 30
0.0
 11
145.686887
 21
152.274771
 31
0.0
  0
LINE
  5
7E6
100
AcDbEntity
  8
レイヤー_2
 62
     7
100
AcDbLine
 10
146.42207
 20
152.274771
 30
0.0
 11
145.856041
 21
152.274771
 31
0.0
  0
LINE
  5
7E5
100
AcDbEntity
  8
レイヤー_2
 62
     7
100
AcDbLine
 10
146.479259
 20
152.274771
 30
0.0
 11
146.42207
 21
152.274771
 31
0.0
  0
LINE
  5
7E4
100
AcDbEntity
  8
レイヤー_2
 62
     7
100
AcDbLine
 10
146.479259
 20
151.199556
 30
0.0
 11
145.120858
 21
151.199556
 31
0.0
  0
LINE
  5
7E3
100
AcDbEntity
  8
レイヤー_2
 62
     7
100
AcDbLine
 10
145.743042
 20
155.274932
 30
0.0
 11
145.743042
 21
154.538715
 31
0.0
  0
LINE
  5
7E2
100
AcDbEntity
  8
レイヤー_2
 62
     7
100
AcDbLine
 10
145.573199
 20
154.538715
 30
0.0
 11
145.233512
 21
154.538715
 31
0.0
  0
LINE
  5
7E1
100
AcDbEntity
  8
レイヤー_2
 62
     7
100
AcDbLine
 10
145.573199
 20
154.538715
 30
0.0
 11
145.573199
 21
155.274932
 31
0.0
  0
LINE
  5
7E0
100
AcDbEntity
  8
レイヤー_2
 62
     7
100
AcDbLine
 10
146.479259
 20
154.538715
 30
0.0
 11
145.743042
 21
154.538715
 31
0.0
  0
LINE
  5
7DF
100
AcDbEntity
  8
レイヤー_2
 62
     7
100
AcDbLine
 10
146.479259
 20
154.369217
 30
0.0
 11
145.177013
 21
154.369217
 31
0.0
  0
LINE
  5
7DE
100
AcDbEntity
  8
レイヤー_2
 62
     7
100
AcDbLine
 10
145.686887
 20
152.274771
 30
0.0
 11
145.686887
 21
153.803187
 31
0.0
  0
LINE
  5
7DD
100
AcDbEntity
  8
レイヤー_2
 62
     7
100
AcDbLine
 10
145.856041
 20
153.803187
 30
0.0
 11
145.856041
 21
152.274771
 31
0.0
  0
LINE
  5
7DC
100
AcDbEntity
  8
レイヤー_2
 62
     7
100
AcDbLine
 10
145.233512
 20
152.274771
 30
0.0
 11
145.233512
 21
153.803187
 31
0.0
  0
LINE
  5
7DB
100
AcDbEntity
  8
レイヤー_2
 62
     7
100
AcDbLine
 10
148.176657
 20
148.42591
 30
0.0
 11
151.120492
 21
148.42591
 31
0.0
  0
LINE
  5
7DA
100
AcDbEntity
  8
レイヤー_2
 62
     7
100
AcDbLine
 10
143.139239
 20
148.42591
 30
0.0
 11
148.176657
 21
148.42591
 31
0.0
  0
LINE
  5
7D9
100
AcDbEntity
  8
レイヤー_2
 62
     7
100
AcDbLine
 10
149.082373
 20
154.765403
 30
0.0
 11
149.082373
 21
155.048245
 31
0.0
  0
LINE
  5
7D8
100
AcDbEntity
  8
レイヤー_2
 62
     7
100
AcDbLine
 10
149.082373
 20
154.765403
 30
0.0
 11
147.78116
 21
154.765403
 31
0.0
  0
LINE
  5
7D7
100
AcDbEntity
  8
レイヤー_2
 62
     7
100
AcDbLine
 10
151.404367
 20
147.010493
 30
0.0
 11
142.856396
 21
147.010493
 31
0.0
  0
LINE
  5
7D6
100
AcDbEntity
  8
レイヤー_2
 62
     7
100
AcDbLine
 10
142.856396
 20
148.199912
 30
0.0
 11
151.404367
 21
148.199912
 31
0.0
  0
LINE
  5
7D5
100
AcDbEntity
  8
レイヤー_2
 62
     7
100
AcDbLine
 10
151.120492
 20
148.199912
 30
0.0
 11
151.233835
 21
148.199912
 31
0.0
  0
LINE
  5
7D4
100
AcDbEntity
  8
レイヤー_2
 62
     7
100
AcDbLine
 10
143.02624
 20
148.199912
 30
0.0
 11
143.082739
 21
148.199912
 31
0.0
  0
LINE
  5
7D3
100
AcDbEntity
  8
レイヤー_2
 62
     7
100
AcDbLine
 10
150.385308
 20
147.010493
 30
0.0
 11
147.893815
 21
147.010493
 31
0.0
  0
LINE
  5
7D2
100
AcDbEntity
  8
レイヤー_2
 62
     7
100
AcDbLine
 10
145.289667
 20
147.010493
 30
0.0
 11
144.781171
 21
147.010493
 31
0.0
  0
LINE
  5
7D1
100
AcDbEntity
  8
レイヤー_2
 62
     7
100
AcDbLine
 10
148.234535
 20
146.727995
 30
0.0
 11
146.025884
 21
146.727995
 31
0.0
  0
LINE
  5
7D0
100
AcDbEntity
  8
レイヤー_2
 62
     7
100
AcDbLine
 10
147.951348
 20
146.27462
 30
0.0
 11
146.308727
 21
146.27462
 31
0.0
  0
LINE
  5
7CF
100
AcDbEntity
  8
レイヤー_2
 62
     7
100
AcDbLine
 10
146.479259
 20
151.991928
 30
0.0
 11
145.120858
 21
151.991928
 31
0.0
  0
LINE
  5
7CE
100
AcDbEntity
  8
レイヤー_2
 62
     7
100
AcDbLine
 10
167.898796
 20
143.897504
 30
0.0
 11
167.955295
 21
144.124192
 31
0.0
  0
LINE
  5
7CD
100
AcDbEntity
  8
レイヤー_2
 62
     7
100
AcDbLine
 10
167.955295
 20
143.614317
 30
0.0
 11
167.898796
 21
143.897504
 31
0.0
  0
POLYLINE
  5
7C8
100
AcDbEntity
  8
レイヤー_2
 62
     7
100
AcDb2dPolyline
 66
     1
 10
0.0
 20
0.0
 30
0.0
  0
VERTEX
  5
7C9
100
AcDbEntity
  8
レイヤー_2
 62
     7
100
AcDbVertex
100
AcDb2dVertex
 10
169.879381
 20
144.124192
 30
0.0
  0
VERTEX
  5
7CA
100
AcDbEntity
  8
レイヤー_2
 62
     7
100
AcDbVertex
100
AcDb2dVertex
 10
169.879381
 20
143.897504
 30
0.0
  0
VERTEX
  5
7CB
100
AcDbEntity
  8
レイヤー_2
 62
     7
100
AcDbVertex
100
AcDb2dVertex
 10
169.822881
 20
143.614317
 30
0.0
  0
SEQEND
  5
7CC
100
AcDbEntity
  8
レイヤー_2
 62
     7
  0
LINE
  5
7C7
100
AcDbEntity
  8
レイヤー_2
 62
     7
100
AcDbLine
 10
167.898796
 20
141.009825
 30
0.0
 11
167.898796
 21
141.802886
 31
0.0
  0
LINE
  5
7C6
100
AcDbEntity
  8
レイヤー_2
 62
     7
100
AcDbLine
 10
169.879381
 20
141.802886
 30
0.0
 11
169.879381
 21
141.009825
 31
0.0
  0
LINE
  5
7C5
100
AcDbEntity
  8
レイヤー_2
 62
     7
100
AcDbLine
 10
167.898796
 20
141.802886
 30
0.0
 11
167.955295
 21
142.085384
 31
0.0
  0
LINE
  5
7C4
100
AcDbEntity
  8
レイヤー_2
 62
     7
100
AcDbLine
 10
169.822881
 20
142.085384
 30
0.0
 11
169.879381
 21
141.802886
 31
0.0
  0
POLYLINE
  5
7BF
100
AcDbEntity
  8
レイヤー_2
 62
     7
100
AcDb2dPolyline
 66
     1
 10
0.0
 20
0.0
 30
0.0
  0
VERTEX
  5
7C0
100
AcDbEntity
  8
レイヤー_2
 62
     7
100
AcDbVertex
100
AcDb2dVertex
 10
167.955295
 20
144.124192
 30
0.0
  0
VERTEX
  5
7C1
100
AcDbEntity
  8
レイヤー_2
 62
     7
100
AcDbVertex
100
AcDb2dVertex
 10
167.955295
 20
144.180002
 30
0.0
  0
VERTEX
  5
7C2
100
AcDbEntity
  8
レイヤー_2
 62
     7
100
AcDbVertex
100
AcDb2dVertex
 10
168.011795
 20
144.180002
 30
0.0
  0
SEQEND
  5
7C3
100
AcDbEntity
  8
レイヤー_2
 62
     7
  0
POLYLINE
  5
7BA
100
AcDbEntity
  8
レイヤー_2
 62
     7
100
AcDb2dPolyline
 66
     1
 10
0.0
 20
0.0
 30
0.0
  0
VERTEX
  5
7BB
100
AcDbEntity
  8
レイヤー_2
 62
     7
100
AcDbVertex
100
AcDb2dVertex
 10
169.766726
 20
144.180002
 30
0.0
  0
VERTEX
  5
7BC
100
AcDbEntity
  8
レイヤー_2
 62
     7
100
AcDbVertex
100
AcDb2dVertex
 10
169.822881
 20
144.180002
 30
0.0
  0
VERTEX
  5
7BD
100
AcDbEntity
  8
レイヤー_2
 62
     7
100
AcDbVertex
100
AcDb2dVertex
 10
169.879381
 20
144.124192
 30
0.0
  0
SEQEND
  5
7BE
100
AcDbEntity
  8
レイヤー_2
 62
     7
  0
LINE
  5
7B9
100
AcDbEntity
  8
レイヤー_2
 62
     7
100
AcDbLine
 10
167.955295
 20
144.180002
 30
0.0
 11
167.955295
 21
145.369249
 31
0.0
  0
LINE
  5
7B8
100
AcDbEntity
  8
レイヤー_2
 62
     7
100
AcDbLine
 10
169.822881
 20
145.369249
 30
0.0
 11
169.822881
 21
144.180002
 31
0.0
  0
LINE
  5
7B7
100
AcDbEntity
  8
レイヤー_2
 62
     7
100
AcDbLine
 10
168.06795
 20
123.688574
 30
0.0
 11
168.06795
 21
141.009825
 31
0.0
  0
LINE
  5
7B6
100
AcDbEntity
  8
レイヤー_2
 62
     7
100
AcDbLine
 10
169.710571
 20
141.009825
 30
0.0
 11
169.710571
 21
123.688574
 31
0.0
  0
LINE
  5
7B5
100
AcDbEntity
  8
レイヤー_2
 62
     7
100
AcDbLine
 10
165.747678
 20
143.897504
 30
0.0
 11
165.747678
 21
144.124192
 31
0.0
  0
LINE
  5
7B4
100
AcDbEntity
  8
レイヤー_2
 62
     7
100
AcDbLine
 10
165.803833
 20
143.614317
 30
0.0
 11
165.747678
 21
143.897504
 31
0.0
  0
POLYLINE
  5
7AF
100
AcDbEntity
  8
レイヤー_2
 62
     7
100
AcDb2dPolyline
 66
     1
 10
0.0
 20
0.0
 30
0.0
  0
VERTEX
  5
7B0
100
AcDbEntity
  8
レイヤー_2
 62
     7
100
AcDbVertex
100
AcDb2dVertex
 10
167.672108
 20
144.124192
 30
0.0
  0
VERTEX
  5
7B1
100
AcDbEntity
  8
レイヤー_2
 62
     7
100
AcDbVertex
100
AcDb2dVertex
 10
167.728608
 20
143.897504
 30
0.0
  0
VERTEX
  5
7B2
100
AcDbEntity
  8
レイヤー_2
 62
     7
100
AcDbVertex
100
AcDb2dVertex
 10
167.672108
 20
143.614317
 30
0.0
  0
SEQEND
  5
7B3
100
AcDbEntity
  8
レイヤー_2
 62
     7
  0
LINE
  5
7AE
100
AcDbEntity
  8
レイヤー_2
 62
     7
100
AcDbLine
 10
165.747678
 20
141.009825
 30
0.0
 11
165.747678
 21
141.802886
 31
0.0
  0
LINE
  5
7AD
100
AcDbEntity
  8
レイヤー_2
 62
     7
100
AcDbLine
 10
167.728608
 20
141.802886
 30
0.0
 11
167.728608
 21
141.009825
 31
0.0
  0
LINE
  5
7AC
100
AcDbEntity
  8
レイヤー_2
 62
     7
100
AcDbLine
 10
165.747678
 20
141.802886
 30
0.0
 11
165.803833
 21
142.085384
 31
0.0
  0
LINE
  5
7AB
100
AcDbEntity
  8
レイヤー_2
 62
     7
100
AcDbLine
 10
167.672108
 20
142.085384
 30
0.0
 11
167.728608
 21
141.802886
 31
0.0
  0
POLYLINE
  5
7A6
100
AcDbEntity
  8
レイヤー_2
 62
     7
100
AcDb2dPolyline
 66
     1
 10
0.0
 20
0.0
 30
0.0
  0
VERTEX
  5
7A7
100
AcDbEntity
  8
レイヤー_2
 62
     7
100
AcDbVertex
100
AcDb2dVertex
 10
165.747678
 20
144.124192
 30
0.0
  0
VERTEX
  5
7A8
100
AcDbEntity
  8
レイヤー_2
 62
     7
100
AcDbVertex
100
AcDb2dVertex
 10
165.803833
 20
144.180002
 30
0.0
  0
VERTEX
  5
7A9
100
AcDbEntity
  8
レイヤー_2
 62
     7
100
AcDbVertex
100
AcDb2dVertex
 10
165.861022
 20
144.180002
 30
0.0
  0
SEQEND
  5
7AA
100
AcDbEntity
  8
レイヤー_2
 62
     7
  0
POLYLINE
  5
7A1
100
AcDbEntity
  8
レイヤー_2
 62
     7
100
AcDb2dPolyline
 66
     1
 10
0.0
 20
0.0
 30
0.0
  0
VERTEX
  5
7A2
100
AcDbEntity
  8
レイヤー_2
 62
     7
100
AcDbVertex
100
AcDb2dVertex
 10
167.615264
 20
144.180002
 30
0.0
  0
VERTEX
  5
7A3
100
AcDbEntity
  8
レイヤー_2
 62
     7
100
AcDbVertex
100
AcDb2dVertex
 10
167.672108
 20
144.180002
 30
0.0
  0
VERTEX
  5
7A4
100
AcDbEntity
  8
レイヤー_2
 62
     7
100
AcDbVertex
100
AcDb2dVertex
 10
167.672108
 20
144.124192
 30
0.0
  0
SEQEND
  5
7A5
100
AcDbEntity
  8
レイヤー_2
 62
     7
  0
LINE
  5
7A0
100
AcDbEntity
  8
レイヤー_2
 62
     7
100
AcDbLine
 10
165.803833
 20
144.180002
 30
0.0
 11
165.803833
 21
145.369249
 31
0.0
  0
LINE
  5
79F
100
AcDbEntity
  8
レイヤー_2
 62
     7
100
AcDbLine
 10
167.672108
 20
145.369249
 30
0.0
 11
167.672108
 21
144.180002
 31
0.0
  0
LINE
  5
79E
100
AcDbEntity
  8
レイヤー_2
 62
     7
100
AcDbLine
 10
165.917177
 20
124.028261
 30
0.0
 11
165.917177
 21
140.954015
 31
0.0
  0
LINE
  5
79D
100
AcDbEntity
  8
レイヤー_2
 62
     7
100
AcDbLine
 10
167.55842
 20
141.009825
 30
0.0
 11
167.55842
 21
123.688574
 31
0.0
  0
LINE
  5
79C
100
AcDbEntity
  8
レイヤー_2
 62
     7
100
AcDbLine
 10
167.955295
 20
143.614317
 30
0.0
 11
168.011795
 21
143.614317
 31
0.0
  0
LINE
  5
79B
100
AcDbEntity
  8
レイヤー_2
 62
     7
100
AcDbLine
 10
168.011795
 20
143.614317
 30
0.0
 11
168.06795
 21
143.614317
 31
0.0
  0
LINE
  5
79A
100
AcDbEntity
  8
レイヤー_2
 62
     7
100
AcDbLine
 10
168.06795
 20
143.614317
 30
0.0
 11
168.464825
 21
143.614317
 31
0.0
  0
LINE
  5
799
100
AcDbEntity
  8
レイヤー_2
 62
     7
100
AcDbLine
 10
168.464825
 20
143.614317
 30
0.0
 11
168.634323
 21
143.614317
 31
0.0
  0
LINE
  5
798
100
AcDbEntity
  8
レイヤー_2
 62
     7
100
AcDbLine
 10
168.634323
 20
143.614317
 30
0.0
 11
169.200353
 21
143.614317
 31
0.0
  0
LINE
  5
797
100
AcDbEntity
  8
レイヤー_2
 62
     7
100
AcDbLine
 10
169.200353
 20
143.614317
 30
0.0
 11
169.313352
 21
143.614317
 31
0.0
  0
LINE
  5
796
100
AcDbEntity
  8
レイヤー_2
 62
     7
100
AcDbLine
 10
169.313352
 20
143.614317
 30
0.0
 11
169.710571
 21
143.614317
 31
0.0
  0
LINE
  5
795
100
AcDbEntity
  8
レイヤー_2
 62
     7
100
AcDbLine
 10
169.710571
 20
143.614317
 30
0.0
 11
169.766726
 21
143.614317
 31
0.0
  0
LINE
  5
794
100
AcDbEntity
  8
レイヤー_2
 62
     7
100
AcDbLine
 10
169.766726
 20
143.614317
 30
0.0
 11
169.822881
 21
143.614317
 31
0.0
  0
LINE
  5
793
100
AcDbEntity
  8
レイヤー_2
 62
     7
100
AcDbLine
 10
167.898796
 20
141.009825
 30
0.0
 11
169.879381
 21
141.009825
 31
0.0
  0
LINE
  5
792
100
AcDbEntity
  8
レイヤー_2
 62
     7
100
AcDbLine
 10
169.766726
 20
142.085384
 30
0.0
 11
169.822881
 21
142.085384
 31
0.0
  0
LINE
  5
791
100
AcDbEntity
  8
レイヤー_2
 62
     7
100
AcDbLine
 10
169.710571
 20
142.085384
 30
0.0
 11
169.766726
 21
142.085384
 31
0.0
  0
LINE
  5
790
100
AcDbEntity
  8
レイヤー_2
 62
     7
100
AcDbLine
 10
169.313352
 20
142.085384
 30
0.0
 11
169.710571
 21
142.085384
 31
0.0
  0
LINE
  5
78F
100
AcDbEntity
  8
レイヤー_2
 62
     7
100
AcDbLine
 10
169.200353
 20
142.085384
 30
0.0
 11
169.313352
 21
142.085384
 31
0.0
  0
LINE
  5
78E
100
AcDbEntity
  8
レイヤー_2
 62
     7
100
AcDbLine
 10
168.634323
 20
142.085384
 30
0.0
 11
169.200353
 21
142.085384
 31
0.0
  0
LINE
  5
78D
100
AcDbEntity
  8
レイヤー_2
 62
     7
100
AcDbLine
 10
168.464825
 20
142.085384
 30
0.0
 11
168.634323
 21
142.085384
 31
0.0
  0
LINE
  5
78C
100
AcDbEntity
  8
レイヤー_2
 62
     7
100
AcDbLine
 10
168.06795
 20
142.085384
 30
0.0
 11
168.464825
 21
142.085384
 31
0.0
  0
LINE
  5
78B
100
AcDbEntity
  8
レイヤー_2
 62
     7
100
AcDbLine
 10
168.011795
 20
142.085384
 30
0.0
 11
168.06795
 21
142.085384
 31
0.0
  0
LINE
  5
78A
100
AcDbEntity
  8
レイヤー_2
 62
     7
100
AcDbLine
 10
167.955295
 20
142.085384
 30
0.0
 11
168.011795
 21
142.085384
 31
0.0
  0
LINE
  5
789
100
AcDbEntity
  8
レイヤー_2
 62
     7
100
AcDbLine
 10
168.011795
 20
144.35019
 30
0.0
 11
168.350792
 21
144.35019
 31
0.0
  0
LINE
  5
788
100
AcDbEntity
  8
レイヤー_2
 62
     7
100
AcDbLine
 10
168.407636
 20
145.369249
 30
0.0
 11
168.407636
 21
144.35019
 31
0.0
  0
LINE
  5
787
100
AcDbEntity
  8
レイヤー_2
 62
     7
100
AcDbLine
 10
169.369851
 20
145.369249
 30
0.0
 11
169.369851
 21
144.35019
 31
0.0
  0
LINE
  5
786
100
AcDbEntity
  8
レイヤー_2
 62
     7
100
AcDbLine
 10
169.42704
 20
144.35019
 30
0.0
 11
169.822881
 21
144.35019
 31
0.0
  0
LINE
  5
785
100
AcDbEntity
  8
レイヤー_2
 62
     7
100
AcDbLine
 10
168.521324
 20
144.35019
 30
0.0
 11
169.313352
 21
144.35019
 31
0.0
  0
LINE
  5
784
100
AcDbEntity
  8
レイヤー_2
 62
     7
100
AcDbLine
 10
167.955295
 20
144.180002
 30
0.0
 11
169.822881
 21
144.180002
 31
0.0
  0
LINE
  5
783
100
AcDbEntity
  8
レイヤー_2
 62
     7
100
AcDbLine
 10
169.257197
 20
143.614317
 30
0.0
 11
169.257197
 21
142.085384
 31
0.0
  0
LINE
  5
782
100
AcDbEntity
  8
レイヤー_2
 62
     7
100
AcDbLine
 10
168.577479
 20
143.614317
 30
0.0
 11
168.577479
 21
142.085384
 31
0.0
  0
LINE
  5
781
100
AcDbEntity
  8
レイヤー_2
 62
     7
100
AcDbLine
 10
168.011795
 20
143.614317
 30
0.0
 11
168.011795
 21
142.085384
 31
0.0
  0
LINE
  5
780
100
AcDbEntity
  8
レイヤー_2
 62
     7
100
AcDbLine
 10
169.766726
 20
142.085384
 30
0.0
 11
169.766726
 21
143.614317
 31
0.0
  0
LINE
  5
77F
100
AcDbEntity
  8
レイヤー_2
 62
     7
100
AcDbLine
 10
165.803833
 20
143.614317
 30
0.0
 11
165.861022
 21
143.614317
 31
0.0
  0
LINE
  5
77E
100
AcDbEntity
  8
レイヤー_2
 62
     7
100
AcDbLine
 10
165.861022
 20
143.614317
 30
0.0
 11
165.917177
 21
143.614317
 31
0.0
  0
LINE
  5
77D
100
AcDbEntity
  8
レイヤー_2
 62
     7
100
AcDbLine
 10
165.917177
 20
143.614317
 30
0.0
 11
166.312674
 21
143.614317
 31
0.0
  0
LINE
  5
77C
100
AcDbEntity
  8
レイヤー_2
 62
     7
100
AcDbLine
 10
166.312674
 20
143.614317
 30
0.0
 11
166.482861
 21
143.614317
 31
0.0
  0
LINE
  5
77B
100
AcDbEntity
  8
レイヤー_2
 62
     7
100
AcDbLine
 10
166.482861
 20
143.614317
 30
0.0
 11
166.992391
 21
143.614317
 31
0.0
  0
LINE
  5
77A
100
AcDbEntity
  8
レイヤー_2
 62
     7
100
AcDbLine
 10
166.992391
 20
143.614317
 30
0.0
 11
167.162923
 21
143.614317
 31
0.0
  0
LINE
  5
779
100
AcDbEntity
  8
レイヤー_2
 62
     7
100
AcDbLine
 10
167.162923
 20
143.614317
 30
0.0
 11
167.55842
 21
143.614317
 31
0.0
  0
LINE
  5
778
100
AcDbEntity
  8
レイヤー_2
 62
     7
100
AcDbLine
 10
167.55842
 20
143.614317
 30
0.0
 11
167.615264
 21
143.614317
 31
0.0
  0
LINE
  5
777
100
AcDbEntity
  8
レイヤー_2
 62
     7
100
AcDbLine
 10
167.615264
 20
143.614317
 30
0.0
 11
167.672108
 21
143.614317
 31
0.0
  0
LINE
  5
776
100
AcDbEntity
  8
レイヤー_2
 62
     7
100
AcDbLine
 10
165.747678
 20
141.009825
 30
0.0
 11
167.728608
 21
141.009825
 31
0.0
  0
LINE
  5
775
100
AcDbEntity
  8
レイヤー_2
 62
     7
100
AcDbLine
 10
167.615264
 20
142.085384
 30
0.0
 11
167.672108
 21
142.085384
 31
0.0
  0
LINE
  5
774
100
AcDbEntity
  8
レイヤー_2
 62
     7
100
AcDbLine
 10
167.55842
 20
142.085384
 30
0.0
 11
167.615264
 21
142.085384
 31
0.0
  0
LINE
  5
773
100
AcDbEntity
  8
レイヤー_2
 62
     7
100
AcDbLine
 10
167.162923
 20
142.085384
 30
0.0
 11
167.55842
 21
142.085384
 31
0.0
  0
LINE
  5
772
100
AcDbEntity
  8
レイヤー_2
 62
     7
100
AcDbLine
 10
166.992391
 20
142.085384
 30
0.0
 11
167.162923
 21
142.085384
 31
0.0
  0
LINE
  5
771
100
AcDbEntity
  8
レイヤー_2
 62
     7
100
AcDbLine
 10
166.482861
 20
142.085384
 30
0.0
 11
166.992391
 21
142.085384
 31
0.0
  0
LINE
  5
770
100
AcDbEntity
  8
レイヤー_2
 62
     7
100
AcDbLine
 10
166.312674
 20
142.085384
 30
0.0
 11
166.482861
 21
142.085384
 31
0.0
  0
LINE
  5
76F
100
AcDbEntity
  8
レイヤー_2
 62
     7
100
AcDbLine
 10
165.917177
 20
142.085384
 30
0.0
 11
166.312674
 21
142.085384
 31
0.0
  0
LINE
  5
76E
100
AcDbEntity
  8
レイヤー_2
 62
     7
100
AcDbLine
 10
165.861022
 20
142.085384
 30
0.0
 11
165.917177
 21
142.085384
 31
0.0
  0
LINE
  5
76D
100
AcDbEntity
  8
レイヤー_2
 62
     7
100
AcDbLine
 10
165.803833
 20
142.085384
 30
0.0
 11
165.861022
 21
142.085384
 31
0.0
  0
LINE
  5
76C
100
AcDbEntity
  8
レイヤー_2
 62
     7
100
AcDbLine
 10
165.803833
 20
144.35019
 30
0.0
 11
166.200019
 21
144.35019
 31
0.0
  0
LINE
  5
76B
100
AcDbEntity
  8
レイヤー_2
 62
     7
100
AcDbLine
 10
166.256174
 20
144.35019
 30
0.0
 11
166.256174
 21
145.369249
 31
0.0
  0
LINE
  5
76A
100
AcDbEntity
  8
レイヤー_2
 62
     7
100
AcDbLine
 10
167.275233
 20
144.35019
 30
0.0
 11
167.672108
 21
144.35019
 31
0.0
  0
LINE
  5
769
100
AcDbEntity
  8
レイヤー_2
 62
     7
100
AcDbLine
 10
167.162923
 20
144.35019
 30
0.0
 11
167.162923
 21
145.369249
 31
0.0
  0
LINE
  5
768
100
AcDbEntity
  8
レイヤー_2
 62
     7
100
AcDbLine
 10
166.370551
 20
144.35019
 30
0.0
 11
167.106424
 21
144.35019
 31
0.0
  0
LINE
  5
767
100
AcDbEntity
  8
レイヤー_2
 62
     7
100
AcDbLine
 10
165.803833
 20
144.180002
 30
0.0
 11
167.672108
 21
144.180002
 31
0.0
  0
LINE
  5
766
100
AcDbEntity
  8
レイヤー_2
 62
     7
100
AcDbLine
 10
167.106424
 20
143.614317
 30
0.0
 11
167.106424
 21
142.085384
 31
0.0
  0
LINE
  5
765
100
AcDbEntity
  8
レイヤー_2
 62
     7
100
AcDbLine
 10
166.370551
 20
143.614317
 30
0.0
 11
166.370551
 21
142.085384
 31
0.0
  0
LINE
  5
764
100
AcDbEntity
  8
レイヤー_2
 62
     7
100
AcDbLine
 10
165.861022
 20
143.614317
 30
0.0
 11
165.861022
 21
142.085384
 31
0.0
  0
LINE
  5
763
100
AcDbEntity
  8
レイヤー_2
 62
     7
100
AcDbLine
 10
167.615264
 20
142.085384
 30
0.0
 11
167.615264
 21
143.614317
 31
0.0
  0
LINE
  5
762
100
AcDbEntity
  8
レイヤー_2
 62
     7
100
AcDbLine
 10
167.615264
 20
143.501318
 30
0.0
 11
168.011795
 21
143.501318
 31
0.0
  0
LINE
  5
761
100
AcDbEntity
  8
レイヤー_2
 62
     7
100
AcDbLine
 10
167.672108
 20
142.029574
 30
0.0
 11
167.955295
 21
142.029574
 31
0.0
  0
LINE
  5
760
100
AcDbEntity
  8
レイヤー_2
 62
     7
100
AcDbLine
 10
167.728608
 20
141.009825
 30
0.0
 11
167.898796
 21
141.009825
 31
0.0
  0
LINE
  5
75F
100
AcDbEntity
  8
レイヤー_2
 62
     7
100
AcDbLine
 10
167.955295
 20
144.35019
 30
0.0
 11
167.672108
 21
144.35019
 31
0.0
  0
LINE
  5
75E
100
AcDbEntity
  8
レイヤー_2
 62
     7
100
AcDbLine
 10
167.672108
 20
144.180002
 30
0.0
 11
167.955295
 21
144.180002
 31
0.0
  0
LINE
  5
75D
100
AcDbEntity
  8
レイヤー_2
 62
     7
100
AcDbLine
 10
167.898796
 20
141.802886
 30
0.0
 11
169.879381
 21
141.802886
 31
0.0
  0
LINE
  5
75C
100
AcDbEntity
  8
レイヤー_2
 62
     7
100
AcDbLine
 10
165.747678
 20
141.802886
 30
0.0
 11
167.728608
 21
141.802886
 31
0.0
  0
LINE
  5
75B
100
AcDbEntity
  8
レイヤー_2
 62
     7
100
AcDbLine
 10
167.728608
 20
141.746387
 30
0.0
 11
167.898796
 21
141.746387
 31
0.0
  0
POLYLINE
  5
74F
100
AcDbEntity
  8
レイヤー_2
 62
     7
100
AcDb2dPolyline
 66
     1
 10
0.0
 20
0.0
 30
0.0
  0
VERTEX
  5
750
100
AcDbEntity
  8
レイヤー_2
 62
     7
100
AcDbVertex
100
AcDb2dVertex
 10
145.233512
 20
122.782514
 30
0.0
  0
VERTEX
  5
751
100
AcDbEntity
  8
レイヤー_2
 62
     7
100
AcDbVertex
100
AcDb2dVertex
 10
145.4602
 20
122.782514
 30
0.0
  0
VERTEX
  5
752
100
AcDbEntity
  8
レイヤー_2
 62
     7
100
AcDbVertex
100
AcDb2dVertex
 10
145.516355
 20
122.839014
 30
0.0
  0
VERTEX
  5
753
100
AcDbEntity
  8
レイヤー_2
 62
     7
100
AcDbVertex
100
AcDb2dVertex
 10
145.743042
 20
122.839014
 30
0.0
  0
VERTEX
  5
754
100
AcDbEntity
  8
レイヤー_2
 62
     7
100
AcDbVertex
100
AcDb2dVertex
 10
145.913574
 20
122.895513
 30
0.0
  0
VERTEX
  5
755
100
AcDbEntity
  8
レイヤー_2
 62
     7
100
AcDbVertex
100
AcDb2dVertex
 10
146.196417
 20
122.895513
 30
0.0
  0
VERTEX
  5
756
100
AcDbEntity
  8
レイヤー_2
 62
     7
100
AcDbVertex
100
AcDb2dVertex
 10
146.308727
 20
122.952702
 30
0.0
  0
VERTEX
  5
757
100
AcDbEntity
  8
レイヤー_2
 62
     7
100
AcDbVertex
100
AcDb2dVertex
 10
146.648758
 20
122.952702
 30
0.0
  0
VERTEX
  5
758
100
AcDbEntity
  8
レイヤー_2
 62
     7
100
AcDbVertex
100
AcDb2dVertex
 10
146.762101
 20
123.009201
 30
0.0
  0
VERTEX
  5
759
100
AcDbEntity
  8
レイヤー_2
 62
     7
100
AcDbVertex
100
AcDb2dVertex
 10
147.44113
 20
123.009201
 30
0.0
  0
SEQEND
  5
75A
100
AcDbEntity
  8
レイヤー_2
 62
     7
  0
POLYLINE
  5
740
100
AcDbEntity
  8
レイヤー_2
 62
     7
100
AcDb2dPolyline
 66
     1
 10
0.0
 20
0.0
 30
0.0
  0
VERTEX
  5
741
100
AcDbEntity
  8
レイヤー_2
 62
     7
100
AcDbVertex
100
AcDb2dVertex
 10
169.710571
 20
123.630697
 30
0.0
  0
VERTEX
  5
742
100
AcDbEntity
  8
レイヤー_2
 62
     7
100
AcDbVertex
100
AcDb2dVertex
 10
169.710571
 20
123.574886
 30
0.0
  0
VERTEX
  5
743
100
AcDbEntity
  8
レイヤー_2
 62
     7
100
AcDbVertex
100
AcDb2dVertex
 10
169.653038
 20
123.574886
 30
0.0
  0
VERTEX
  5
744
100
AcDbEntity
  8
レイヤー_2
 62
     7
100
AcDbVertex
100
AcDb2dVertex
 10
169.653038
 20
123.518387
 30
0.0
  0
VERTEX
  5
745
100
AcDbEntity
  8
レイヤー_2
 62
     7
100
AcDbVertex
100
AcDb2dVertex
 10
169.596194
 20
123.518387
 30
0.0
  0
VERTEX
  5
746
100
AcDbEntity
  8
レイヤー_2
 62
     7
100
AcDbVertex
100
AcDb2dVertex
 10
169.540039
 20
123.462576
 30
0.0
  0
VERTEX
  5
747
100
AcDbEntity
  8
レイヤー_2
 62
     7
100
AcDbVertex
100
AcDb2dVertex
 10
169.483195
 20
123.462576
 30
0.0
  0
VERTEX
  5
748
100
AcDbEntity
  8
レイヤー_2
 62
     7
100
AcDbVertex
100
AcDb2dVertex
 10
169.42704
 20
123.404698
 30
0.0
  0
VERTEX
  5
749
100
AcDbEntity
  8
レイヤー_2
 62
     7
100
AcDbVertex
100
AcDb2dVertex
 10
168.804167
 20
123.404698
 30
0.0
  0
VERTEX
  5
74A
100
AcDbEntity
  8
レイヤー_2
 62
     7
100
AcDbVertex
100
AcDb2dVertex
 10
168.634323
 20
123.462576
 30
0.0
  0
VERTEX
  5
74B
100
AcDbEntity
  8
レイヤー_2
 62
     7
100
AcDbVertex
100
AcDb2dVertex
 10
168.464825
 20
123.462576
 30
0.0
  0
VERTEX
  5
74C
100
AcDbEntity
  8
レイヤー_2
 62
     7
100
AcDbVertex
100
AcDb2dVertex
 10
168.294637
 20
123.518387
 30
0.0
  0
VERTEX
  5
74D
100
AcDbEntity
  8
レイヤー_2
 62
     7
100
AcDbVertex
100
AcDb2dVertex
 10
168.06795
 20
123.630697
 30
0.0
  0
SEQEND
  5
74E
100
AcDbEntity
  8
レイヤー_2
 62
     7
  0
POLYLINE
  5
72E
100
AcDbEntity
  8
レイヤー_2
 62
     7
100
AcDb2dPolyline
 66
     1
 10
0.0
 20
0.0
 30
0.0
  0
VERTEX
  5
72F
100
AcDbEntity
  8
レイヤー_2
 62
     7
100
AcDbVertex
100
AcDb2dVertex
 10
167.55842
 20
123.630697
 30
0.0
  0
VERTEX
  5
730
100
AcDbEntity
  8
レイヤー_2
 62
     7
100
AcDbVertex
100
AcDb2dVertex
 10
167.501921
 20
123.630697
 30
0.0
  0
VERTEX
  5
731
100
AcDbEntity
  8
レイヤー_2
 62
     7
100
AcDbVertex
100
AcDb2dVertex
 10
167.445766
 20
123.688574
 30
0.0
  0
VERTEX
  5
732
100
AcDbEntity
  8
レイヤー_2
 62
     7
100
AcDbVertex
100
AcDb2dVertex
 10
167.333111
 20
123.688574
 30
0.0
  0
VERTEX
  5
733
100
AcDbEntity
  8
レイヤー_2
 62
     7
100
AcDbVertex
100
AcDb2dVertex
 10
167.275233
 20
123.744385
 30
0.0
  0
VERTEX
  5
734
100
AcDbEntity
  8
レイヤー_2
 62
     7
100
AcDbVertex
100
AcDb2dVertex
 10
167.162923
 20
123.744385
 30
0.0
  0
VERTEX
  5
735
100
AcDbEntity
  8
レイヤー_2
 62
     7
100
AcDbVertex
100
AcDb2dVertex
 10
167.106424
 20
123.801573
 30
0.0
  0
VERTEX
  5
736
100
AcDbEntity
  8
レイヤー_2
 62
     7
100
AcDbVertex
100
AcDb2dVertex
 10
166.992391
 20
123.857384
 30
0.0
  0
VERTEX
  5
737
100
AcDbEntity
  8
レイヤー_2
 62
     7
100
AcDbVertex
100
AcDb2dVertex
 10
166.880081
 20
123.857384
 30
0.0
  0
VERTEX
  5
738
100
AcDbEntity
  8
レイヤー_2
 62
     7
100
AcDbVertex
100
AcDb2dVertex
 10
166.766393
 20
123.914572
 30
0.0
  0
VERTEX
  5
739
100
AcDbEntity
  8
レイヤー_2
 62
     7
100
AcDbVertex
100
AcDb2dVertex
 10
166.653394
 20
123.914572
 30
0.0
  0
VERTEX
  5
73A
100
AcDbEntity
  8
レイヤー_2
 62
     7
100
AcDbVertex
100
AcDb2dVertex
 10
166.540739
 20
123.971761
 30
0.0
  0
VERTEX
  5
73B
100
AcDbEntity
  8
レイヤー_2
 62
     7
100
AcDbVertex
100
AcDb2dVertex
 10
166.426706
 20
123.971761
 30
0.0
  0
VERTEX
  5
73C
100
AcDbEntity
  8
レイヤー_2
 62
     7
100
AcDbVertex
100
AcDb2dVertex
 10
166.312674
 20
124.028261
 30
0.0
  0
VERTEX
  5
73D
100
AcDbEntity
  8
レイヤー_2
 62
     7
100
AcDbVertex
100
AcDb2dVertex
 10
165.974021
 20
124.028261
 30
0.0
  0
VERTEX
  5
73E
100
AcDbEntity
  8
レイヤー_2
 62
     7
100
AcDbVertex
100
AcDb2dVertex
 10
165.917177
 20
123.971761
 30
0.0
  0
SEQEND
  5
73F
100
AcDbEntity
  8
レイヤー_2
 62
     7
  0
LINE
  5
72D
100
AcDbEntity
  8
レイヤー_2
 62
     7
100
AcDbLine
 10
88.978548
 20
155.331087
 30
0.0
 11
88.978548
 21
148.708752
 31
0.0
  0
LINE
  5
72C
100
AcDbEntity
  8
レイヤー_2
 62
     7
100
AcDbLine
 10
88.978548
 20
146.897493
 30
0.0
 11
88.978548
 21
145.538748
 31
0.0
  0
LINE
  5
72B
100
AcDbEntity
  8
レイヤー_2
 62
     7
100
AcDbLine
 10
83.997285
 20
145.538748
 30
0.0
 11
83.997285
 21
146.897493
 31
0.0
  0
LINE
  5
72A
100
AcDbEntity
  8
レイヤー_2
 62
     7
100
AcDbLine
 10
83.997285
 20
148.708752
 30
0.0
 11
83.997285
 21
155.388448
 31
0.0
  0
LINE
  5
729
100
AcDbEntity
  8
レイヤー_2
 62
     7
100
AcDbLine
 10
88.978548
 20
145.538748
 30
0.0
 11
88.808188
 21
145.369249
 31
0.0
  0
LINE
  5
728
100
AcDbEntity
  8
レイヤー_2
 62
     7
100
AcDbLine
 10
84.166783
 20
145.369249
 30
0.0
 11
83.997285
 21
145.538748
 31
0.0
  0
LINE
  5
727
100
AcDbEntity
  8
レイヤー_2
 62
     7
100
AcDbLine
 10
84.845295
 20
141.802886
 30
0.0
 11
84.902311
 21
142.085384
 31
0.0
  0
LINE
  5
726
100
AcDbEntity
  8
レイヤー_2
 62
     7
100
AcDbLine
 10
86.77007
 20
142.085384
 30
0.0
 11
86.827086
 21
141.802886
 31
0.0
  0
LINE
  5
725
100
AcDbEntity
  8
レイヤー_2
 62
     7
100
AcDbLine
 10
84.845295
 20
141.009825
 30
0.0
 11
84.845295
 21
141.802886
 31
0.0
  0
LINE
  5
724
100
AcDbEntity
  8
レイヤー_2
 62
     7
100
AcDbLine
 10
86.827086
 20
141.802886
 30
0.0
 11
86.827086
 21
141.009825
 31
0.0
  0
LINE
  5
723
100
AcDbEntity
  8
レイヤー_2
 62
     7
100
AcDbLine
 10
84.845295
 20
143.897504
 30
0.0
 11
84.902311
 21
144.124192
 31
0.0
  0
LINE
  5
722
100
AcDbEntity
  8
レイヤー_2
 62
     7
100
AcDbLine
 10
84.902311
 20
143.614317
 30
0.0
 11
84.845295
 21
143.897504
 31
0.0
  0
POLYLINE
  5
71D
100
AcDbEntity
  8
レイヤー_2
 62
     7
100
AcDb2dPolyline
 66
     1
 10
0.0
 20
0.0
 30
0.0
  0
VERTEX
  5
71E
100
AcDbEntity
  8
レイヤー_2
 62
     7
100
AcDbVertex
100
AcDb2dVertex
 10
86.77007
 20
144.124192
 30
0.0
  0
VERTEX
  5
71F
100
AcDbEntity
  8
レイヤー_2
 62
     7
100
AcDbVertex
100
AcDb2dVertex
 10
86.827086
 20
143.897504
 30
0.0
  0
VERTEX
  5
720
100
AcDbEntity
  8
レイヤー_2
 62
     7
100
AcDbVertex
100
AcDb2dVertex
 10
86.77007
 20
143.614317
 30
0.0
  0
SEQEND
  5
721
100
AcDbEntity
  8
レイヤー_2
 62
     7
  0
POLYLINE
  5
718
100
AcDbEntity
  8
レイヤー_2
 62
     7
100
AcDb2dPolyline
 66
     1
 10
0.0
 20
0.0
 30
0.0
  0
VERTEX
  5
719
100
AcDbEntity
  8
レイヤー_2
 62
     7
100
AcDbVertex
100
AcDb2dVertex
 10
84.902311
 20
144.124192
 30
0.0
  0
VERTEX
  5
71A
100
AcDbEntity
  8
レイヤー_2
 62
     7
100
AcDbVertex
100
AcDb2dVertex
 10
84.902311
 20
144.180002
 30
0.0
  0
VERTEX
  5
71B
100
AcDbEntity
  8
レイヤー_2
 62
     7
100
AcDbVertex
100
AcDb2dVertex
 10
84.958639
 20
144.180002
 30
0.0
  0
SEQEND
  5
71C
100
AcDbEntity
  8
レイヤー_2
 62
     7
  0
POLYLINE
  5
713
100
AcDbEntity
  8
レイヤー_2
 62
     7
100
AcDb2dPolyline
 66
     1
 10
0.0
 20
0.0
 30
0.0
  0
VERTEX
  5
714
100
AcDbEntity
  8
レイヤー_2
 62
     7
100
AcDbVertex
100
AcDb2dVertex
 10
86.713742
 20
144.180002
 30
0.0
  0
VERTEX
  5
715
100
AcDbEntity
  8
レイヤー_2
 62
     7
100
AcDbVertex
100
AcDb2dVertex
 10
86.77007
 20
144.180002
 30
0.0
  0
VERTEX
  5
716
100
AcDbEntity
  8
レイヤー_2
 62
     7
100
AcDbVertex
100
AcDb2dVertex
 10
86.77007
 20
144.124192
 30
0.0
  0
SEQEND
  5
717
100
AcDbEntity
  8
レイヤー_2
 62
     7
  0
LINE
  5
712
100
AcDbEntity
  8
レイヤー_2
 62
     7
100
AcDbLine
 10
84.902311
 20
144.180002
 30
0.0
 11
84.902311
 21
144.35019
 31
0.0
  0
LINE
  5
711
100
AcDbEntity
  8
レイヤー_2
 62
     7
100
AcDbLine
 10
86.77007
 20
144.35019
 30
0.0
 11
86.77007
 21
144.180002
 31
0.0
  0
LINE
  5
710
100
AcDbEntity
  8
レイヤー_2
 62
     7
100
AcDbLine
 10
85.015655
 20
122.895513
 30
0.0
 11
85.015655
 21
141.009825
 31
0.0
  0
LINE
  5
70F
100
AcDbEntity
  8
レイヤー_2
 62
     7
100
AcDbLine
 10
86.657587
 20
141.009825
 30
0.0
 11
86.657587
 21
123.462576
 31
0.0
  0
POLYLINE
  5
70A
100
AcDbEntity
  8
レイヤー_2
 62
     7
100
AcDb2dPolyline
 66
     1
 10
0.0
 20
0.0
 30
0.0
  0
VERTEX
  5
70B
100
AcDbEntity
  8
レイヤー_2
 62
     7
100
AcDbVertex
100
AcDb2dVertex
 10
86.827086
 20
143.501318
 30
0.0
  0
VERTEX
  5
70C
100
AcDbEntity
  8
レイヤー_2
 62
     7
100
AcDbVertex
100
AcDb2dVertex
 10
86.827086
 20
143.557818
 30
0.0
  0
VERTEX
  5
70D
100
AcDbEntity
  8
レイヤー_2
 62
     7
100
AcDbVertex
100
AcDb2dVertex
 10
86.77007
 20
143.670817
 30
0.0
  0
SEQEND
  5
70E
100
AcDbEntity
  8
レイヤー_2
 62
     7
  0
POLYLINE
  5
705
100
AcDbEntity
  8
レイヤー_2
 62
     7
100
AcDb2dPolyline
 66
     1
 10
0.0
 20
0.0
 30
0.0
  0
VERTEX
  5
706
100
AcDbEntity
  8
レイヤー_2
 62
     7
100
AcDbVertex
100
AcDb2dVertex
 10
86.827086
 20
144.067692
 30
0.0
  0
VERTEX
  5
707
100
AcDbEntity
  8
レイヤー_2
 62
     7
100
AcDbVertex
100
AcDb2dVertex
 10
86.827086
 20
144.124192
 30
0.0
  0
VERTEX
  5
708
100
AcDbEntity
  8
レイヤー_2
 62
     7
100
AcDbVertex
100
AcDb2dVertex
 10
86.883241
 20
144.180002
 30
0.0
  0
SEQEND
  5
709
100
AcDbEntity
  8
レイヤー_2
 62
     7
  0
POLYLINE
  5
6FE
100
AcDbEntity
  8
レイヤー_2
 62
     7
100
AcDb2dPolyline
 66
     1
 10
0.0
 20
0.0
 30
0.0
  0
VERTEX
  5
6FF
100
AcDbEntity
  8
レイヤー_2
 62
     7
100
AcDbVertex
100
AcDb2dVertex
 10
88.638517
 20
144.180002
 30
0.0
  0
VERTEX
  5
700
100
AcDbEntity
  8
レイヤー_2
 62
     7
100
AcDbVertex
100
AcDb2dVertex
 10
88.695017
 20
144.124192
 30
0.0
  0
VERTEX
  5
701
100
AcDbEntity
  8
レイヤー_2
 62
     7
100
AcDbVertex
100
AcDb2dVertex
 10
88.751861
 20
143.841005
 30
0.0
  0
VERTEX
  5
702
100
AcDbEntity
  8
レイヤー_2
 62
     7
100
AcDbVertex
100
AcDb2dVertex
 10
88.695017
 20
143.557818
 30
0.0
  0
VERTEX
  5
703
100
AcDbEntity
  8
レイヤー_2
 62
     7
100
AcDbVertex
100
AcDb2dVertex
 10
88.695017
 20
143.501318
 30
0.0
  0
SEQEND
  5
704
100
AcDbEntity
  8
レイヤー_2
 62
     7
  0
LINE
  5
6FD
100
AcDbEntity
  8
レイヤー_2
 62
     7
100
AcDbLine
 10
86.827086
 20
141.973074
 30
0.0
 11
86.827086
 21
142.029574
 31
0.0
  0
LINE
  5
6FC
100
AcDbEntity
  8
レイヤー_2
 62
     7
100
AcDbLine
 10
88.695017
 20
142.029574
 30
0.0
 11
88.751861
 21
141.689887
 31
0.0
  0
LINE
  5
6FB
100
AcDbEntity
  8
レイヤー_2
 62
     7
100
AcDbLine
 10
88.751861
 20
141.689887
 30
0.0
 11
88.751861
 21
141.009825
 31
0.0
  0
LINE
  5
6FA
100
AcDbEntity
  8
レイヤー_2
 62
     7
100
AcDbLine
 10
86.827086
 20
144.180002
 30
0.0
 11
86.827086
 21
144.35019
 31
0.0
  0
LINE
  5
6F9
100
AcDbEntity
  8
レイヤー_2
 62
     7
100
AcDbLine
 10
88.695017
 20
144.35019
 30
0.0
 11
88.695017
 21
144.180002
 31
0.0
  0
LINE
  5
6F8
100
AcDbEntity
  8
レイヤー_2
 62
     7
100
AcDbLine
 10
86.883241
 20
144.180002
 30
0.0
 11
86.94043
 21
144.180002
 31
0.0
  0
LINE
  5
6F7
100
AcDbEntity
  8
レイヤー_2
 62
     7
100
AcDbLine
 10
88.581673
 20
144.180002
 30
0.0
 11
88.638517
 21
144.180002
 31
0.0
  0
LINE
  5
6F6
100
AcDbEntity
  8
レイヤー_2
 62
     7
100
AcDbLine
 10
86.94043
 20
123.518387
 30
0.0
 11
86.94043
 21
141.009825
 31
0.0
  0
LINE
  5
6F5
100
AcDbEntity
  8
レイヤー_2
 62
     7
100
AcDbLine
 10
88.581673
 20
141.009825
 30
0.0
 11
88.581673
 21
123.630697
 31
0.0
  0
LINE
  5
6F4
100
AcDbEntity
  8
レイヤー_2
 62
     7
100
AcDbLine
 10
90.279761
 20
148.199912
 30
0.0
 11
90.279761
 21
147.916553
 31
0.0
  0
LINE
  5
6F3
100
AcDbEntity
  8
レイヤー_2
 62
     7
100
AcDbLine
 10
82.751538
 20
147.916553
 30
0.0
 11
82.751538
 21
148.199912
 31
0.0
  0
LINE
  5
6F2
100
AcDbEntity
  8
レイヤー_2
 62
     7
100
AcDbLine
 10
90.506448
 20
148.708752
 30
0.0
 11
90.506448
 21
148.199912
 31
0.0
  0
LINE
  5
6F1
100
AcDbEntity
  8
レイヤー_2
 62
     7
100
AcDbLine
 10
82.468696
 20
148.199912
 30
0.0
 11
82.468696
 21
148.708752
 31
0.0
  0
LINE
  5
6F0
100
AcDbEntity
  8
レイヤー_2
 62
     7
100
AcDbLine
 10
88.978548
 20
145.538748
 30
0.0
 11
83.997285
 21
145.538748
 31
0.0
  0
LINE
  5
6EF
100
AcDbEntity
  8
レイヤー_2
 62
     7
100
AcDbLine
 10
84.166783
 20
145.369249
 30
0.0
 11
88.808188
 21
145.369249
 31
0.0
  0
LINE
  5
6EE
100
AcDbEntity
  8
レイヤー_2
 62
     7
100
AcDbLine
 10
86.713742
 20
142.085384
 30
0.0
 11
86.77007
 21
142.085384
 31
0.0
  0
LINE
  5
6ED
100
AcDbEntity
  8
レイヤー_2
 62
     7
100
AcDbLine
 10
86.657587
 20
142.085384
 30
0.0
 11
86.713742
 21
142.085384
 31
0.0
  0
LINE
  5
6EC
100
AcDbEntity
  8
レイヤー_2
 62
     7
100
AcDbLine
 10
86.261229
 20
142.085384
 30
0.0
 11
86.657587
 21
142.085384
 31
0.0
  0
LINE
  5
6EB
100
AcDbEntity
  8
レイヤー_2
 62
     7
100
AcDbLine
 10
86.09173
 20
142.085384
 30
0.0
 11
86.261229
 21
142.085384
 31
0.0
  0
LINE
  5
6EA
100
AcDbEntity
  8
レイヤー_2
 62
     7
100
AcDbLine
 10
85.582029
 20
142.085384
 30
0.0
 11
86.09173
 21
142.085384
 31
0.0
  0
LINE
  5
6E9
100
AcDbEntity
  8
レイヤー_2
 62
     7
100
AcDbLine
 10
85.411841
 20
142.085384
 30
0.0
 11
85.582029
 21
142.085384
 31
0.0
  0
LINE
  5
6E8
100
AcDbEntity
  8
レイヤー_2
 62
     7
100
AcDbLine
 10
85.015655
 20
142.085384
 30
0.0
 11
85.411841
 21
142.085384
 31
0.0
  0
LINE
  5
6E7
100
AcDbEntity
  8
レイヤー_2
 62
     7
100
AcDbLine
 10
84.958639
 20
142.085384
 30
0.0
 11
85.015655
 21
142.085384
 31
0.0
  0
LINE
  5
6E6
100
AcDbEntity
  8
レイヤー_2
 62
     7
100
AcDbLine
 10
84.902311
 20
142.085384
 30
0.0
 11
84.958639
 21
142.085384
 31
0.0
  0
LINE
  5
6E5
100
AcDbEntity
  8
レイヤー_2
 62
     7
100
AcDbLine
 10
84.845295
 20
141.009825
 30
0.0
 11
86.827086
 21
141.009825
 31
0.0
  0
LINE
  5
6E4
100
AcDbEntity
  8
レイヤー_2
 62
     7
100
AcDbLine
 10
84.902311
 20
143.614317
 30
0.0
 11
84.958639
 21
143.614317
 31
0.0
  0
LINE
  5
6E3
100
AcDbEntity
  8
レイヤー_2
 62
     7
100
AcDbLine
 10
84.958639
 20
143.614317
 30
0.0
 11
85.015655
 21
143.614317
 31
0.0
  0
LINE
  5
6E2
100
AcDbEntity
  8
レイヤー_2
 62
     7
100
AcDbLine
 10
85.015655
 20
143.614317
 30
0.0
 11
85.411841
 21
143.614317
 31
0.0
  0
LINE
  5
6E1
100
AcDbEntity
  8
レイヤー_2
 62
     7
100
AcDbLine
 10
85.411841
 20
143.614317
 30
0.0
 11
85.582029
 21
143.614317
 31
0.0
  0
LINE
  5
6E0
100
AcDbEntity
  8
レイヤー_2
 62
     7
100
AcDbLine
 10
85.582029
 20
143.614317
 30
0.0
 11
86.09173
 21
143.614317
 31
0.0
  0
LINE
  5
6DF
100
AcDbEntity
  8
レイヤー_2
 62
     7
100
AcDbLine
 10
86.09173
 20
143.614317
 30
0.0
 11
86.261229
 21
143.614317
 31
0.0
  0
LINE
  5
6DE
100
AcDbEntity
  8
レイヤー_2
 62
     7
100
AcDbLine
 10
86.261229
 20
143.614317
 30
0.0
 11
86.657587
 21
143.614317
 31
0.0
  0
LINE
  5
6DD
100
AcDbEntity
  8
レイヤー_2
 62
     7
100
AcDbLine
 10
86.657587
 20
143.614317
 30
0.0
 11
86.713742
 21
143.614317
 31
0.0
  0
LINE
  5
6DC
100
AcDbEntity
  8
レイヤー_2
 62
     7
100
AcDbLine
 10
86.713742
 20
143.614317
 30
0.0
 11
86.77007
 21
143.614317
 31
0.0
  0
LINE
  5
6DB
100
AcDbEntity
  8
レイヤー_2
 62
     7
100
AcDbLine
 10
85.92137
 20
144.35019
 30
0.0
 11
86.600399
 21
144.35019
 31
0.0
  0
LINE
  5
6DA
100
AcDbEntity
  8
レイヤー_2
 62
     7
100
AcDbLine
 10
86.657587
 20
144.35019
 30
0.0
 11
86.77007
 21
144.35019
 31
0.0
  0
LINE
  5
6D9
100
AcDbEntity
  8
レイヤー_2
 62
     7
100
AcDbLine
 10
86.657587
 20
144.35019
 30
0.0
 11
86.657587
 21
145.369249
 31
0.0
  0
LINE
  5
6D8
100
AcDbEntity
  8
レイヤー_2
 62
     7
100
AcDbLine
 10
84.902311
 20
144.35019
 30
0.0
 11
85.015655
 21
144.35019
 31
0.0
  0
LINE
  5
6D7
100
AcDbEntity
  8
レイヤー_2
 62
     7
100
AcDbLine
 10
85.015655
 20
145.369249
 30
0.0
 11
85.015655
 21
144.35019
 31
0.0
  0
LINE
  5
6D6
100
AcDbEntity
  8
レイヤー_2
 62
     7
100
AcDbLine
 10
85.072499
 20
144.35019
 30
0.0
 11
85.75101
 21
144.35019
 31
0.0
  0
LINE
  5
6D5
100
AcDbEntity
  8
レイヤー_2
 62
     7
100
AcDbLine
 10
85.808027
 20
145.369249
 30
0.0
 11
85.808027
 21
144.35019
 31
0.0
  0
LINE
  5
6D4
100
AcDbEntity
  8
レイヤー_2
 62
     7
100
AcDbLine
 10
84.902311
 20
144.180002
 30
0.0
 11
86.77007
 21
144.180002
 31
0.0
  0
LINE
  5
6D3
100
AcDbEntity
  8
レイヤー_2
 62
     7
100
AcDbLine
 10
86.204385
 20
143.614317
 30
0.0
 11
86.204385
 21
142.085384
 31
0.0
  0
LINE
  5
6D2
100
AcDbEntity
  8
レイヤー_2
 62
     7
100
AcDbLine
 10
85.468857
 20
143.614317
 30
0.0
 11
85.468857
 21
142.085384
 31
0.0
  0
LINE
  5
6D1
100
AcDbEntity
  8
レイヤー_2
 62
     7
100
AcDbLine
 10
84.958639
 20
143.614317
 30
0.0
 11
84.958639
 21
142.085384
 31
0.0
  0
LINE
  5
6D0
100
AcDbEntity
  8
レイヤー_2
 62
     7
100
AcDbLine
 10
86.713742
 20
142.085384
 30
0.0
 11
86.713742
 21
143.614317
 31
0.0
  0
LINE
  5
6CF
100
AcDbEntity
  8
レイヤー_2
 62
     7
100
AcDbLine
 10
86.827086
 20
143.501318
 30
0.0
 11
86.883241
 21
143.501318
 31
0.0
  0
LINE
  5
6CE
100
AcDbEntity
  8
レイヤー_2
 62
     7
100
AcDbLine
 10
86.883241
 20
143.501318
 30
0.0
 11
86.94043
 21
143.501318
 31
0.0
  0
LINE
  5
6CD
100
AcDbEntity
  8
レイヤー_2
 62
     7
100
AcDbLine
 10
86.94043
 20
143.501318
 30
0.0
 11
87.337477
 21
143.501318
 31
0.0
  0
LINE
  5
6CC
100
AcDbEntity
  8
レイヤー_2
 62
     7
100
AcDbLine
 10
87.337477
 20
143.501318
 30
0.0
 11
87.506287
 21
143.501318
 31
0.0
  0
LINE
  5
6CB
100
AcDbEntity
  8
レイヤー_2
 62
     7
100
AcDbLine
 10
87.506287
 20
143.501318
 30
0.0
 11
88.015816
 21
143.501318
 31
0.0
  0
LINE
  5
6CA
100
AcDbEntity
  8
レイヤー_2
 62
     7
100
AcDbLine
 10
88.015816
 20
143.501318
 30
0.0
 11
88.186176
 21
143.501318
 31
0.0
  0
LINE
  5
6C9
100
AcDbEntity
  8
レイヤー_2
 62
     7
100
AcDbLine
 10
88.186176
 20
143.501318
 30
0.0
 11
88.581673
 21
143.501318
 31
0.0
  0
LINE
  5
6C8
100
AcDbEntity
  8
レイヤー_2
 62
     7
100
AcDbLine
 10
88.581673
 20
143.501318
 30
0.0
 11
88.638517
 21
143.501318
 31
0.0
  0
LINE
  5
6C7
100
AcDbEntity
  8
レイヤー_2
 62
     7
100
AcDbLine
 10
88.638517
 20
143.501318
 30
0.0
 11
88.695017
 21
143.501318
 31
0.0
  0
LINE
  5
6C6
100
AcDbEntity
  8
レイヤー_2
 62
     7
100
AcDbLine
 10
88.638517
 20
142.029574
 30
0.0
 11
88.695017
 21
142.029574
 31
0.0
  0
LINE
  5
6C5
100
AcDbEntity
  8
レイヤー_2
 62
     7
100
AcDbLine
 10
88.581673
 20
142.029574
 30
0.0
 11
88.638517
 21
142.029574
 31
0.0
  0
LINE
  5
6C4
100
AcDbEntity
  8
レイヤー_2
 62
     7
100
AcDbLine
 10
88.186176
 20
142.029574
 30
0.0
 11
88.581673
 21
142.029574
 31
0.0
  0
LINE
  5
6C3
100
AcDbEntity
  8
レイヤー_2
 62
     7
100
AcDbLine
 10
88.015816
 20
142.029574
 30
0.0
 11
88.186176
 21
142.029574
 31
0.0
  0
LINE
  5
6C2
100
AcDbEntity
  8
レイヤー_2
 62
     7
100
AcDbLine
 10
87.506287
 20
142.029574
 30
0.0
 11
88.015816
 21
142.029574
 31
0.0
  0
LINE
  5
6C1
100
AcDbEntity
  8
レイヤー_2
 62
     7
100
AcDbLine
 10
87.337477
 20
142.029574
 30
0.0
 11
87.506287
 21
142.029574
 31
0.0
  0
LINE
  5
6C0
100
AcDbEntity
  8
レイヤー_2
 62
     7
100
AcDbLine
 10
86.94043
 20
142.029574
 30
0.0
 11
87.337477
 21
142.029574
 31
0.0
  0
LINE
  5
6BF
100
AcDbEntity
  8
レイヤー_2
 62
     7
100
AcDbLine
 10
86.883241
 20
142.029574
 30
0.0
 11
86.94043
 21
142.029574
 31
0.0
  0
LINE
  5
6BE
100
AcDbEntity
  8
レイヤー_2
 62
     7
100
AcDbLine
 10
86.827086
 20
142.029574
 30
0.0
 11
86.883241
 21
142.029574
 31
0.0
  0
LINE
  5
6BD
100
AcDbEntity
  8
レイヤー_2
 62
     7
100
AcDbLine
 10
86.827086
 20
141.009825
 30
0.0
 11
88.751861
 21
141.009825
 31
0.0
  0
LINE
  5
6BC
100
AcDbEntity
  8
レイヤー_2
 62
     7
100
AcDbLine
 10
88.695017
 20
144.35019
 30
0.0
 11
88.581673
 21
144.35019
 31
0.0
  0
LINE
  5
6BB
100
AcDbEntity
  8
レイヤー_2
 62
     7
100
AcDbLine
 10
88.581673
 20
144.35019
 30
0.0
 11
88.581673
 21
145.369249
 31
0.0
  0
LINE
  5
6BA
100
AcDbEntity
  8
レイヤー_2
 62
     7
100
AcDbLine
 10
87.675785
 20
144.35019
 30
0.0
 11
86.996585
 21
144.35019
 31
0.0
  0
LINE
  5
6B9
100
AcDbEntity
  8
レイヤー_2
 62
     7
100
AcDbLine
 10
87.732974
 20
145.369249
 30
0.0
 11
87.732974
 21
144.35019
 31
0.0
  0
LINE
  5
6B8
100
AcDbEntity
  8
レイヤー_2
 62
     7
100
AcDbLine
 10
86.827086
 20
144.180002
 30
0.0
 11
88.695017
 21
144.180002
 31
0.0
  0
LINE
  5
6B7
100
AcDbEntity
  8
レイヤー_2
 62
     7
100
AcDbLine
 10
86.94043
 20
144.35019
 30
0.0
 11
86.827086
 21
144.35019
 31
0.0
  0
LINE
  5
6B6
100
AcDbEntity
  8
レイヤー_2
 62
     7
100
AcDbLine
 10
86.94043
 20
145.369249
 30
0.0
 11
86.94043
 21
144.35019
 31
0.0
  0
LINE
  5
6B5
100
AcDbEntity
  8
レイヤー_2
 62
     7
100
AcDbLine
 10
88.525174
 20
144.35019
 30
0.0
 11
87.846145
 21
144.35019
 31
0.0
  0
LINE
  5
6B4
100
AcDbEntity
  8
レイヤー_2
 62
     7
100
AcDbLine
 10
88.129849
 20
143.501318
 30
0.0
 11
88.129849
 21
142.029574
 31
0.0
  0
LINE
  5
6B3
100
AcDbEntity
  8
レイヤー_2
 62
     7
100
AcDbLine
 10
87.392943
 20
143.501318
 30
0.0
 11
87.392943
 21
142.029574
 31
0.0
  0
LINE
  5
6B2
100
AcDbEntity
  8
レイヤー_2
 62
     7
100
AcDbLine
 10
88.638517
 20
142.029574
 30
0.0
 11
88.638517
 21
143.501318
 31
0.0
  0
LINE
  5
6B1
100
AcDbEntity
  8
レイヤー_2
 62
     7
100
AcDbLine
 10
86.883241
 20
143.501318
 30
0.0
 11
86.883241
 21
142.029574
 31
0.0
  0
LINE
  5
6B0
100
AcDbEntity
  8
レイヤー_2
 62
     7
100
AcDbLine
 10
86.600399
 20
146.897493
 30
0.0
 11
86.600399
 21
147.916553
 31
0.0
  0
LINE
  5
6AF
100
AcDbEntity
  8
レイヤー_2
 62
     7
100
AcDbLine
 10
83.770597
 20
146.897493
 30
0.0
 11
83.770597
 21
147.916553
 31
0.0
  0
LINE
  5
6AE
100
AcDbEntity
  8
レイヤー_2
 62
     7
100
AcDbLine
 10
86.204385
 20
146.897493
 30
0.0
 11
83.770597
 21
146.897493
 31
0.0
  0
LINE
  5
6AD
100
AcDbEntity
  8
レイヤー_2
 62
     7
100
AcDbLine
 10
86.657587
 20
146.897493
 30
0.0
 11
86.204385
 21
146.897493
 31
0.0
  0
LINE
  5
6AC
100
AcDbEntity
  8
レイヤー_2
 62
     7
100
AcDbLine
 10
89.14753
 20
146.897493
 30
0.0
 11
89.14753
 21
147.916553
 31
0.0
  0
LINE
  5
6AB
100
AcDbEntity
  8
レイヤー_2
 62
     7
100
AcDbLine
 10
86.657587
 20
146.897493
 30
0.0
 11
89.14753
 21
146.897493
 31
0.0
  0
LINE
  5
6AA
100
AcDbEntity
  8
レイヤー_2
 62
     7
100
AcDbLine
 10
89.374045
 20
146.897493
 30
0.0
 11
89.14753
 21
146.897493
 31
0.0
  0
LINE
  5
6A9
100
AcDbEntity
  8
レイヤー_2
 62
     7
100
AcDbLine
 10
83.54391
 20
146.897493
 30
0.0
 11
83.54391
 21
147.916553
 31
0.0
  0
LINE
  5
6A8
100
AcDbEntity
  8
レイヤー_2
 62
     7
100
AcDbLine
 10
83.770597
 20
146.897493
 30
0.0
 11
83.54391
 21
146.897493
 31
0.0
  0
LINE
  5
6A7
100
AcDbEntity
  8
レイヤー_2
 62
     7
100
AcDbLine
 10
89.488078
 20
146.897493
 30
0.0
 11
89.488078
 21
147.916553
 31
0.0
  0
LINE
  5
6A6
100
AcDbEntity
  8
レイヤー_2
 62
     7
100
AcDbLine
 10
89.374045
 20
146.897493
 30
0.0
 11
89.488078
 21
146.897493
 31
0.0
  0
LINE
  5
6A5
100
AcDbEntity
  8
レイヤー_2
 62
     7
100
AcDbLine
 10
90.279761
 20
147.916553
 30
0.0
 11
82.751538
 21
147.916553
 31
0.0
  0
LINE
  5
6A4
100
AcDbEntity
  8
レイヤー_2
 62
     7
100
AcDbLine
 10
82.468696
 20
148.708752
 30
0.0
 11
90.506448
 21
148.708752
 31
0.0
  0
LINE
  5
6A3
100
AcDbEntity
  8
レイヤー_2
 62
     7
100
AcDbLine
 10
82.468696
 20
148.199912
 30
0.0
 11
90.506448
 21
148.199912
 31
0.0
  0
LINE
  5
6A2
100
AcDbEntity
  8
レイヤー_2
 62
     7
100
AcDbLine
 10
84.845295
 20
141.802886
 30
0.0
 11
86.827086
 21
141.802886
 31
0.0
  0
LINE
  5
6A1
100
AcDbEntity
  8
レイヤー_2
 62
     7
100
AcDbLine
 10
86.827086
 20
141.689887
 30
0.0
 11
88.751861
 21
141.689887
 31
0.0
  0
LINE
  5
6A0
100
AcDbEntity
  8
レイヤー_2
 62
     7
100
AcDbLine
 10
88.581673
 20
123.630697
 30
0.0
 11
88.46833
 21
123.688574
 31
0.0
  0
LINE
  5
69F
100
AcDbEntity
  8
レイヤー_2
 62
     7
100
AcDbLine
 10
88.46833
 20
123.688574
 30
0.0
 11
88.354986
 21
123.688574
 31
0.0
  0
LINE
  5
69E
100
AcDbEntity
  8
レイヤー_2
 62
     7
100
AcDbLine
 10
88.354986
 20
123.688574
 30
0.0
 11
88.242331
 21
123.630697
 31
0.0
  0
LINE
  5
69D
100
AcDbEntity
  8
レイヤー_2
 62
     7
100
AcDbLine
 10
88.242331
 20
123.630697
 30
0.0
 11
88.071971
 21
123.630697
 31
0.0
  0
LINE
  5
69C
100
AcDbEntity
  8
レイヤー_2
 62
     7
100
AcDbLine
 10
88.071971
 20
123.630697
 30
0.0
 11
87.959489
 21
123.630697
 31
0.0
  0
LINE
  5
69B
100
AcDbEntity
  8
レイヤー_2
 62
     7
100
AcDbLine
 10
87.959489
 20
123.630697
 30
0.0
 11
87.789129
 21
123.630697
 31
0.0
  0
LINE
  5
69A
100
AcDbEntity
  8
レイヤー_2
 62
     7
100
AcDbLine
 10
87.789129
 20
123.630697
 30
0.0
 11
87.61963
 21
123.630697
 31
0.0
  0
LINE
  5
699
100
AcDbEntity
  8
レイヤー_2
 62
     7
100
AcDbLine
 10
87.61963
 20
123.630697
 30
0.0
 11
87.449959
 21
123.574886
 31
0.0
  0
LINE
  5
698
100
AcDbEntity
  8
レイヤー_2
 62
     7
100
AcDbLine
 10
87.449959
 20
123.574886
 30
0.0
 11
87.279599
 21
123.574886
 31
0.0
  0
LINE
  5
697
100
AcDbEntity
  8
レイヤー_2
 62
     7
100
AcDbLine
 10
87.279599
 20
123.574886
 30
0.0
 11
87.11079
 21
123.518387
 31
0.0
  0
LINE
  5
696
100
AcDbEntity
  8
レイヤー_2
 62
     7
100
AcDbLine
 10
87.11079
 20
123.518387
 30
0.0
 11
86.94043
 21
123.518387
 31
0.0
  0
LINE
  5
695
100
AcDbEntity
  8
レイヤー_2
 62
     7
100
AcDbLine
 10
86.94043
 20
123.518387
 30
0.0
 11
86.77007
 21
123.462576
 31
0.0
  0
LINE
  5
694
100
AcDbEntity
  8
レイヤー_2
 62
     7
100
AcDbLine
 10
86.77007
 20
123.462576
 30
0.0
 11
86.544933
 21
123.404698
 31
0.0
  0
LINE
  5
693
100
AcDbEntity
  8
レイヤー_2
 62
     7
100
AcDbLine
 10
86.544933
 20
123.404698
 30
0.0
 11
86.374573
 21
123.348199
 31
0.0
  0
LINE
  5
692
100
AcDbEntity
  8
レイヤー_2
 62
     7
100
AcDbLine
 10
86.374573
 20
123.348199
 30
0.0
 11
86.147885
 21
123.291699
 31
0.0
  0
LINE
  5
691
100
AcDbEntity
  8
レイヤー_2
 62
     7
100
AcDbLine
 10
86.147885
 20
123.291699
 30
0.0
 11
85.92137
 21
123.235889
 31
0.0
  0
LINE
  5
690
100
AcDbEntity
  8
レイヤー_2
 62
     7
100
AcDbLine
 10
85.92137
 20
123.235889
 30
0.0
 11
85.694683
 21
123.179389
 31
0.0
  0
LINE
  5
68F
100
AcDbEntity
  8
レイヤー_2
 62
     7
100
AcDbLine
 10
85.694683
 20
123.179389
 30
0.0
 11
85.468857
 21
123.065701
 31
0.0
  0
LINE
  5
68E
100
AcDbEntity
  8
レイヤー_2
 62
     7
100
AcDbLine
 10
85.468857
 20
123.065701
 30
0.0
 11
85.355341
 21
123.009201
 31
0.0
  0
LINE
  5
68D
100
AcDbEntity
  8
レイヤー_2
 62
     7
100
AcDbLine
 10
85.015655
 20
122.895513
 30
0.0
 11
85.242342
 21
123.009201
 31
0.0
  0
LINE
  5
68C
100
AcDbEntity
  8
レイヤー_2
 62
     7
100
AcDbLine
 10
85.242342
 20
123.009201
 30
0.0
 11
85.468857
 21
123.065701
 31
0.0
  0
LINE
  5
68B
100
AcDbEntity
  8
レイヤー_2
 62
     7
100
AcDbLine
 10
85.468857
 20
123.065701
 30
0.0
 11
85.638528
 21
123.121512
 31
0.0
  0
LINE
  5
68A
100
AcDbEntity
  8
レイヤー_2
 62
     7
100
AcDbLine
 10
146.535414
 20
140.444141
 30
0.0
 11
146.535414
 21
142.256261
 31
0.0
  0
LINE
  5
689
100
AcDbEntity
  8
レイヤー_2
 62
     7
100
AcDbLine
 10
147.724661
 20
140.444141
 30
0.0
 11
147.724661
 21
142.256261
 31
0.0
  0
LINE
  5
688
100
AcDbEntity
  8
レイヤー_2
 62
     7
100
AcDbLine
 10
147.44113
 20
140.387641
 30
0.0
 11
146.364882
 21
140.387641
 31
0.0
  0
LINE
  5
687
100
AcDbEntity
  8
レイヤー_2
 62
     7
100
AcDbLine
 10
147.44113
 20
142.36926
 30
0.0
 11
146.364882
 21
142.36926
 31
0.0
  0
LINE
  5
686
100
AcDbEntity
  8
レイヤー_2
 62
     7
100
AcDbLine
 10
148.176657
 20
142.36926
 30
0.0
 11
147.724661
 21
142.256261
 31
0.0
  0
LINE
  5
685
100
AcDbEntity
  8
レイヤー_2
 62
     7
100
AcDbLine
 10
148.176657
 20
142.36926
 30
0.0
 11
147.44113
 21
142.36926
 31
0.0
  0
LINE
  5
684
100
AcDbEntity
  8
レイヤー_2
 62
     7
100
AcDbLine
 10
148.176657
 20
140.387641
 30
0.0
 11
147.724661
 21
140.444141
 31
0.0
  0
LINE
  5
683
100
AcDbEntity
  8
レイヤー_2
 62
     7
100
AcDbLine
 10
148.176657
 20
140.387641
 30
0.0
 11
147.44113
 21
140.387641
 31
0.0
  0
LINE
  5
682
100
AcDbEntity
  8
レイヤー_2
 62
     7
100
AcDbLine
 10
148.290001
 20
140.444141
 30
0.0
 11
148.176657
 21
140.387641
 31
0.0
  0
LINE
  5
681
100
AcDbEntity
  8
レイヤー_2
 62
     7
100
AcDbLine
 10
148.290001
 20
142.256261
 30
0.0
 11
148.176657
 21
142.36926
 31
0.0
  0
LINE
  5
680
100
AcDbEntity
  8
レイヤー_2
 62
     7
100
AcDbLine
 10
148.290001
 20
140.444141
 30
0.0
 11
148.290001
 21
142.256261
 31
0.0
  0
LINE
  5
67F
100
AcDbEntity
  8
レイヤー_2
 62
     7
100
AcDbLine
 10
146.364882
 20
142.36926
 30
0.0
 11
146.083417
 21
142.36926
 31
0.0
  0
LINE
  5
67E
100
AcDbEntity
  8
レイヤー_2
 62
     7
100
AcDbLine
 10
146.364882
 20
140.387641
 30
0.0
 11
146.083417
 21
140.387641
 31
0.0
  0
LINE
  5
67D
100
AcDbEntity
  8
レイヤー_2
 62
     7
100
AcDbLine
 10
146.083417
 20
142.36926
 30
0.0
 11
146.535414
 21
142.256261
 31
0.0
  0
LINE
  5
67C
100
AcDbEntity
  8
レイヤー_2
 62
     7
100
AcDbLine
 10
146.083417
 20
140.387641
 30
0.0
 11
146.535414
 21
140.444141
 31
0.0
  0
LINE
  5
67B
100
AcDbEntity
  8
レイヤー_2
 62
     7
100
AcDbLine
 10
145.913574
 20
140.444141
 30
0.0
 11
146.083417
 21
140.387641
 31
0.0
  0
LINE
  5
67A
100
AcDbEntity
  8
レイヤー_2
 62
     7
100
AcDbLine
 10
145.913574
 20
142.256261
 30
0.0
 11
146.083417
 21
142.36926
 31
0.0
  0
LINE
  5
679
100
AcDbEntity
  8
レイヤー_2
 62
     7
100
AcDbLine
 10
145.913574
 20
140.444141
 30
0.0
 11
145.913574
 21
142.256261
 31
0.0
  0
POLYLINE
  5
671
100
AcDbEntity
  8
レイヤー_2
 62
     7
100
AcDb2dPolyline
 66
     1
 10
0.0
 20
0.0
 30
0.0
  0
VERTEX
  5
672
100
AcDbEntity
  8
レイヤー_2
 62
     7
100
AcDbVertex
100
AcDb2dVertex
 10
146.535414
 20
142.256261
 30
0.0
  0
VERTEX
  5
673
100
AcDbEntity
  8
レイヤー_2
 62
     7
100
AcDbVertex
100
AcDb2dVertex
 10
146.592603
 20
142.312071
 30
0.0
  0
VERTEX
  5
674
100
AcDbEntity
  8
レイヤー_2
 62
     7
100
AcDbVertex
100
AcDb2dVertex
 10
146.705946
 20
142.312071
 30
0.0
  0
VERTEX
  5
675
100
AcDbEntity
  8
レイヤー_2
 62
     7
100
AcDbVertex
100
AcDb2dVertex
 10
146.818256
 20
142.36926
 30
0.0
  0
VERTEX
  5
676
100
AcDbEntity
  8
レイヤー_2
 62
     7
100
AcDbVertex
100
AcDb2dVertex
 10
147.384285
 20
142.36926
 30
0.0
  0
VERTEX
  5
677
100
AcDbEntity
  8
レイヤー_2
 62
     7
100
AcDbVertex
100
AcDb2dVertex
 10
147.724661
 20
142.256261
 30
0.0
  0
SEQEND
  5
678
100
AcDbEntity
  8
レイヤー_2
 62
     7
  0
POLYLINE
  5
66A
100
AcDbEntity
  8
レイヤー_2
 62
     7
100
AcDb2dPolyline
 66
     1
 10
0.0
 20
0.0
 30
0.0
  0
VERTEX
  5
66B
100
AcDbEntity
  8
レイヤー_2
 62
     7
100
AcDbVertex
100
AcDb2dVertex
 10
146.535414
 20
140.444141
 30
0.0
  0
VERTEX
  5
66C
100
AcDbEntity
  8
レイヤー_2
 62
     7
100
AcDbVertex
100
AcDb2dVertex
 10
146.705946
 20
140.444141
 30
0.0
  0
VERTEX
  5
66D
100
AcDbEntity
  8
レイヤー_2
 62
     7
100
AcDbVertex
100
AcDb2dVertex
 10
146.875445
 20
140.387641
 30
0.0
  0
VERTEX
  5
66E
100
AcDbEntity
  8
レイヤー_2
 62
     7
100
AcDbVertex
100
AcDb2dVertex
 10
147.554818
 20
140.387641
 30
0.0
  0
VERTEX
  5
66F
100
AcDbEntity
  8
レイヤー_2
 62
     7
100
AcDbVertex
100
AcDb2dVertex
 10
147.724661
 20
140.444141
 30
0.0
  0
SEQEND
  5
670
100
AcDbEntity
  8
レイヤー_2
 62
     7
  0
LINE
  5
669
100
AcDbEntity
  8
レイヤー_2
 62
     7
100
AcDbLine
 10
90.902806
 20
148.42591
 30
0.0
 11
90.902806
 21
148.199912
 31
0.0
  0
LINE
  5
668
100
AcDbEntity
  8
レイヤー_2
 62
     7
100
AcDbLine
 10
82.524851
 20
147.12487
 30
0.0
 11
82.524851
 21
148.08674
 31
0.0
  0
LINE
  5
667
100
AcDbEntity
  8
レイヤー_2
 62
     7
100
AcDbLine
 10
91.241804
 20
148.08674
 30
0.0
 11
91.241804
 21
147.12487
 31
0.0
  0
POLYLINE
  5
662
100
AcDbEntity
  8
レイヤー_2
 62
     7
100
AcDb2dPolyline
 66
     1
 10
0.0
 20
0.0
 30
0.0
  0
VERTEX
  5
663
100
AcDbEntity
  8
レイヤー_2
 62
     7
100
AcDbVertex
100
AcDb2dVertex
 10
91.129321
 20
148.199912
 30
0.0
  0
VERTEX
  5
664
100
AcDbEntity
  8
レイヤー_2
 62
     7
100
AcDbVertex
100
AcDb2dVertex
 10
91.185649
 20
148.143929
 30
0.0
  0
VERTEX
  5
665
100
AcDbEntity
  8
レイヤー_2
 62
     7
100
AcDbVertex
100
AcDb2dVertex
 10
91.241804
 20
148.08674
 30
0.0
  0
SEQEND
  5
666
100
AcDbEntity
  8
レイヤー_2
 62
     7
  0
POLYLINE
  5
65D
100
AcDbEntity
  8
レイヤー_2
 62
     7
100
AcDb2dPolyline
 66
     1
 10
0.0
 20
0.0
 30
0.0
  0
VERTEX
  5
65E
100
AcDbEntity
  8
レイヤー_2
 62
     7
100
AcDbVertex
100
AcDb2dVertex
 10
82.524851
 20
148.08674
 30
0.0
  0
VERTEX
  5
65F
100
AcDbEntity
  8
レイヤー_2
 62
     7
100
AcDbVertex
100
AcDb2dVertex
 10
82.582039
 20
148.143929
 30
0.0
  0
VERTEX
  5
660
100
AcDbEntity
  8
レイヤー_2
 62
     7
100
AcDbVertex
100
AcDb2dVertex
 10
82.638194
 20
148.199912
 30
0.0
  0
SEQEND
  5
661
100
AcDbEntity
  8
レイヤー_2
 62
     7
  0
POLYLINE
  5
658
100
AcDbEntity
  8
レイヤー_2
 62
     7
100
AcDb2dPolyline
 66
     1
 10
0.0
 20
0.0
 30
0.0
  0
VERTEX
  5
659
100
AcDbEntity
  8
レイヤー_2
 62
     7
100
AcDbVertex
100
AcDb2dVertex
 10
91.241804
 20
147.12487
 30
0.0
  0
VERTEX
  5
65A
100
AcDbEntity
  8
レイヤー_2
 62
     7
100
AcDbVertex
100
AcDb2dVertex
 10
91.185649
 20
147.067681
 30
0.0
  0
VERTEX
  5
65B
100
AcDbEntity
  8
レイヤー_2
 62
     7
100
AcDbVertex
100
AcDb2dVertex
 10
91.129321
 20
147.010493
 30
0.0
  0
SEQEND
  5
65C
100
AcDbEntity
  8
レイヤー_2
 62
     7
  0
POLYLINE
  5
653
100
AcDbEntity
  8
レイヤー_2
 62
     7
100
AcDb2dPolyline
 66
     1
 10
0.0
 20
0.0
 30
0.0
  0
VERTEX
  5
654
100
AcDbEntity
  8
レイヤー_2
 62
     7
100
AcDbVertex
100
AcDb2dVertex
 10
82.638194
 20
147.010493
 30
0.0
  0
VERTEX
  5
655
100
AcDbEntity
  8
レイヤー_2
 62
     7
100
AcDbVertex
100
AcDb2dVertex
 10
82.582039
 20
147.067681
 30
0.0
  0
VERTEX
  5
656
100
AcDbEntity
  8
レイヤー_2
 62
     7
100
AcDbVertex
100
AcDb2dVertex
 10
82.524851
 20
147.12487
 30
0.0
  0
SEQEND
  5
657
100
AcDbEntity
  8
レイヤー_2
 62
     7
  0
POLYLINE
  5
64E
100
AcDbEntity
  8
レイヤー_2
 62
     7
100
AcDb2dPolyline
 66
     1
 10
0.0
 20
0.0
 30
0.0
  0
VERTEX
  5
64F
100
AcDbEntity
  8
レイヤー_2
 62
     7
100
AcDbVertex
100
AcDb2dVertex
 10
90.279761
 20
148.08674
 30
0.0
  0
VERTEX
  5
650
100
AcDbEntity
  8
レイヤー_2
 62
     7
100
AcDbVertex
100
AcDb2dVertex
 10
90.336949
 20
148.143929
 30
0.0
  0
VERTEX
  5
651
100
AcDbEntity
  8
レイヤー_2
 62
     7
100
AcDbVertex
100
AcDb2dVertex
 10
90.393104
 20
148.199912
 30
0.0
  0
SEQEND
  5
652
100
AcDbEntity
  8
レイヤー_2
 62
     7
  0
LINE
  5
64D
100
AcDbEntity
  8
レイヤー_2
 62
     7
100
AcDbLine
 10
90.279761
 20
147.916553
 30
0.0
 11
90.279761
 21
148.08674
 31
0.0
  0
LINE
  5
64C
100
AcDbEntity
  8
レイヤー_2
 62
     7
100
AcDbLine
 10
84.280127
 20
142.36926
 30
0.0
 11
84.280127
 21
145.369249
 31
0.0
  0
LINE
  5
64B
100
AcDbEntity
  8
レイヤー_2
 62
     7
100
AcDbLine
 10
83.997285
 20
140.387641
 30
0.0
 11
83.883252
 21
140.444141
 31
0.0
  0
LINE
  5
64A
100
AcDbEntity
  8
レイヤー_2
 62
     7
100
AcDbLine
 10
90.902806
 20
148.42591
 30
0.0
 11
90.506448
 21
148.42591
 31
0.0
  0
LINE
  5
649
100
AcDbEntity
  8
レイヤー_2
 62
     7
100
AcDbLine
 10
90.450121
 20
147.12487
 30
0.0
 11
90.450121
 21
148.08674
 31
0.0
  0
LINE
  5
648
100
AcDbEntity
  8
レイヤー_2
 62
     7
100
AcDbLine
 10
82.751538
 20
148.199912
 30
0.0
 11
82.638194
 21
148.199912
 31
0.0
  0
LINE
  5
647
100
AcDbEntity
  8
レイヤー_2
 62
     7
100
AcDbLine
 10
91.129321
 20
148.199912
 30
0.0
 11
90.450121
 21
148.199912
 31
0.0
  0
LINE
  5
646
100
AcDbEntity
  8
レイヤー_2
 62
     7
100
AcDbLine
 10
89.488078
 20
147.010493
 30
0.0
 11
91.129321
 21
147.010493
 31
0.0
  0
LINE
  5
645
100
AcDbEntity
  8
レイヤー_2
 62
     7
100
AcDbLine
 10
82.638194
 20
147.010493
 30
0.0
 11
83.54391
 21
147.010493
 31
0.0
  0
LINE
  5
644
100
AcDbEntity
  8
レイヤー_2
 62
     7
100
AcDbLine
 10
90.958961
 20
148.199912
 30
0.0
 11
90.902806
 21
148.199912
 31
0.0
  0
LINE
  5
643
100
AcDbEntity
  8
レイヤー_2
 62
     7
100
AcDbLine
 10
90.450121
 20
148.199912
 30
0.0
 11
90.393104
 21
148.199912
 31
0.0
  0
POLYLINE
  5
63E
100
AcDbEntity
  8
レイヤー_2
 62
     7
100
AcDb2dPolyline
 66
     1
 10
0.0
 20
0.0
 30
0.0
  0
VERTEX
  5
63F
100
AcDbEntity
  8
レイヤー_2
 62
     7
100
AcDbVertex
100
AcDb2dVertex
 10
84.563142
 20
140.387641
 30
0.0
  0
VERTEX
  5
640
100
AcDbEntity
  8
レイヤー_2
 62
     7
100
AcDbVertex
100
AcDb2dVertex
 10
84.902311
 20
140.444141
 30
0.0
  0
VERTEX
  5
641
100
AcDbEntity
  8
レイヤー_2
 62
     7
100
AcDbVertex
100
AcDb2dVertex
 10
85.015655
 20
140.444141
 30
0.0
  0
SEQEND
  5
642
100
AcDbEntity
  8
レイヤー_2
 62
     7
  0
LINE
  5
63D
100
AcDbEntity
  8
レイヤー_2
 62
     7
100
AcDbLine
 10
84.280127
 20
140.387641
 30
0.0
 11
85.015655
 21
140.387641
 31
0.0
  0
POLYLINE
  5
638
100
AcDbEntity
  8
レイヤー_2
 62
     7
100
AcDb2dPolyline
 66
     1
 10
0.0
 20
0.0
 30
0.0
  0
VERTEX
  5
639
100
AcDbEntity
  8
レイヤー_2
 62
     7
100
AcDbVertex
100
AcDb2dVertex
 10
84.506642
 20
142.36926
 30
0.0
  0
VERTEX
  5
63A
100
AcDbEntity
  8
レイヤー_2
 62
     7
100
AcDbVertex
100
AcDb2dVertex
 10
84.845295
 20
142.312071
 30
0.0
  0
VERTEX
  5
63B
100
AcDbEntity
  8
レイヤー_2
 62
     7
100
AcDbVertex
100
AcDb2dVertex
 10
84.958639
 20
142.256261
 30
0.0
  0
SEQEND
  5
63C
100
AcDbEntity
  8
レイヤー_2
 62
     7
  0
LINE
  5
637
100
AcDbEntity
  8
レイヤー_2
 62
     7
100
AcDbLine
 10
84.280127
 20
142.36926
 30
0.0
 11
84.958639
 21
142.36926
 31
0.0
  0
POLYLINE
  5
632
100
AcDbEntity
  8
レイヤー_2
 62
     7
100
AcDb2dPolyline
 66
     1
 10
0.0
 20
0.0
 30
0.0
  0
VERTEX
  5
633
100
AcDbEntity
  8
レイヤー_2
 62
     7
100
AcDbVertex
100
AcDb2dVertex
 10
83.883252
 20
140.444141
 30
0.0
  0
VERTEX
  5
634
100
AcDbEntity
  8
レイヤー_2
 62
     7
100
AcDbVertex
100
AcDb2dVertex
 10
84.166783
 20
140.387641
 30
0.0
  0
VERTEX
  5
635
100
AcDbEntity
  8
レイヤー_2
 62
     7
100
AcDbVertex
100
AcDb2dVertex
 10
84.280127
 20
140.387641
 30
0.0
  0
SEQEND
  5
636
100
AcDbEntity
  8
レイヤー_2
 62
     7
  0
POLYLINE
  5
62D
100
AcDbEntity
  8
レイヤー_2
 62
     7
100
AcDb2dPolyline
 66
     1
 10
0.0
 20
0.0
 30
0.0
  0
VERTEX
  5
62E
100
AcDbEntity
  8
レイヤー_2
 62
     7
100
AcDbVertex
100
AcDb2dVertex
 10
83.883252
 20
142.256261
 30
0.0
  0
VERTEX
  5
62F
100
AcDbEntity
  8
レイヤー_2
 62
     7
100
AcDbVertex
100
AcDb2dVertex
 10
84.166783
 20
142.36926
 30
0.0
  0
VERTEX
  5
630
100
AcDbEntity
  8
レイヤー_2
 62
     7
100
AcDbVertex
100
AcDb2dVertex
 10
84.280127
 20
142.36926
 30
0.0
  0
SEQEND
  5
631
100
AcDbEntity
  8
レイヤー_2
 62
     7
  0
LINE
  5
62C
100
AcDbEntity
  8
レイヤー_2
 62
     7
100
AcDbLine
 10
83.883252
 20
140.444141
 30
0.0
 11
83.883252
 21
142.256261
 31
0.0
  0
LINE
  5
62B
100
AcDbEntity
  8
レイヤー_2
 62
     7
100
AcDbLine
 10
83.997285
 20
142.36926
 30
0.0
 11
83.883252
 21
142.256261
 31
0.0
  0
LINE
  5
62A
100
AcDbEntity
  8
レイヤー_2
 62
     7
100
AcDbLine
 10
83.997285
 20
142.36926
 30
0.0
 11
84.280127
 21
142.36926
 31
0.0
  0
LINE
  5
629
100
AcDbEntity
  8
レイヤー_2
 62
     7
100
AcDbLine
 10
83.997285
 20
140.387641
 30
0.0
 11
84.280127
 21
140.387641
 31
0.0
  0
LINE
  5
628
100
AcDbEntity
  8
レイヤー_2
 62
     7
100
AcDbLine
 10
88.695017
 20
145.369249
 30
0.0
 11
88.695017
 21
146.897493
 31
0.0
  0
LINE
  5
627
100
AcDbEntity
  8
レイヤー_2
 62
     7
100
AcDbLine
 10
88.695017
 20
148.708752
 30
0.0
 11
88.695017
 21
155.331087
 31
0.0
  0
LINE
  5
626
100
AcDbEntity
  8
レイヤー_2
 62
     7
100
AcDbLine
 10
84.280127
 20
145.369249
 30
0.0
 11
84.280127
 21
146.897493
 31
0.0
  0
LINE
  5
625
100
AcDbEntity
  8
レイヤー_2
 62
     7
100
AcDbLine
 10
84.280127
 20
148.708752
 30
0.0
 11
84.280127
 21
155.388448
 31
0.0
  0
POLYLINE
  5
60A
100
AcDbEntity
  8
レイヤー_2
 62
     7
100
AcDb2dPolyline
 66
     1
 10
0.0
 20
0.0
 30
0.0
  0
VERTEX
  5
60B
100
AcDbEntity
  8
レイヤー_2
 62
     7
100
AcDbVertex
100
AcDb2dVertex
 10
149.705935
 20
99.588064
 30
0.0
  0
VERTEX
  5
60C
100
AcDbEntity
  8
レイヤー_2
 62
     7
100
AcDbVertex
100
AcDb2dVertex
 10
149.592592
 20
100.211627
 30
0.0
  0
VERTEX
  5
60D
100
AcDbEntity
  8
レイヤー_2
 62
     7
100
AcDbVertex
100
AcDb2dVertex
 10
149.365904
 20
100.8345
 30
0.0
  0
VERTEX
  5
60E
100
AcDbEntity
  8
レイヤー_2
 62
     7
100
AcDbVertex
100
AcDb2dVertex
 10
148.969029
 20
101.343685
 30
0.0
  0
VERTEX
  5
60F
100
AcDbEntity
  8
レイヤー_2
 62
     7
100
AcDbVertex
100
AcDb2dVertex
 10
148.460189
 20
101.74056
 30
0.0
  0
VERTEX
  5
610
100
AcDbEntity
  8
レイヤー_2
 62
     7
100
AcDbVertex
100
AcDb2dVertex
 10
147.838349
 20
102.023058
 30
0.0
  0
VERTEX
  5
611
100
AcDbEntity
  8
レイヤー_2
 62
     7
100
AcDbVertex
100
AcDb2dVertex
 10
147.215131
 20
102.079557
 30
0.0
  0
VERTEX
  5
612
100
AcDbEntity
  8
レイヤー_2
 62
     7
100
AcDbVertex
100
AcDb2dVertex
 10
146.535414
 20
102.023058
 30
0.0
  0
VERTEX
  5
613
100
AcDbEntity
  8
レイヤー_2
 62
     7
100
AcDbVertex
100
AcDb2dVertex
 10
145.913574
 20
101.74056
 30
0.0
  0
VERTEX
  5
614
100
AcDbEntity
  8
レイヤー_2
 62
     7
100
AcDbVertex
100
AcDb2dVertex
 10
145.4037
 20
101.343685
 30
0.0
  0
VERTEX
  5
615
100
AcDbEntity
  8
レイヤー_2
 62
     7
100
AcDbVertex
100
AcDb2dVertex
 10
145.006825
 20
100.8345
 30
0.0
  0
VERTEX
  5
616
100
AcDbEntity
  8
レイヤー_2
 62
     7
100
AcDbVertex
100
AcDb2dVertex
 10
144.781171
 20
100.211627
 30
0.0
  0
VERTEX
  5
617
100
AcDbEntity
  8
レイヤー_2
 62
     7
100
AcDbVertex
100
AcDb2dVertex
 10
144.667483
 20
99.588064
 30
0.0
  0
VERTEX
  5
618
100
AcDbEntity
  8
レイヤー_2
 62
     7
100
AcDbVertex
100
AcDb2dVertex
 10
144.781171
 20
98.96588
 30
0.0
  0
VERTEX
  5
619
100
AcDbEntity
  8
レイヤー_2
 62
     7
100
AcDbVertex
100
AcDb2dVertex
 10
145.006825
 20
98.343696
 30
0.0
  0
VERTEX
  5
61A
100
AcDbEntity
  8
レイヤー_2
 62
     7
100
AcDbVertex
100
AcDb2dVertex
 10
145.4037
 20
97.833822
 30
0.0
  0
VERTEX
  5
61B
100
AcDbEntity
  8
レイヤー_2
 62
     7
100
AcDbVertex
100
AcDb2dVertex
 10
145.913574
 20
97.437636
 30
0.0
  0
VERTEX
  5
61C
100
AcDbEntity
  8
レイヤー_2
 62
     7
100
AcDbVertex
100
AcDb2dVertex
 10
146.535414
 20
97.154449
 30
0.0
  0
VERTEX
  5
61D
100
AcDbEntity
  8
レイヤー_2
 62
     7
100
AcDbVertex
100
AcDb2dVertex
 10
147.215131
 20
97.097949
 30
0.0
  0
VERTEX
  5
61E
100
AcDbEntity
  8
レイヤー_2
 62
     7
100
AcDbVertex
100
AcDb2dVertex
 10
147.838349
 20
97.154449
 30
0.0
  0
VERTEX
  5
61F
100
AcDbEntity
  8
レイヤー_2
 62
     7
100
AcDbVertex
100
AcDb2dVertex
 10
148.460189
 20
97.437636
 30
0.0
  0
VERTEX
  5
620
100
AcDbEntity
  8
レイヤー_2
 62
     7
100
AcDbVertex
100
AcDb2dVertex
 10
148.969029
 20
97.833822
 30
0.0
  0
VERTEX
  5
621
100
AcDbEntity
  8
レイヤー_2
 62
     7
100
AcDbVertex
100
AcDb2dVertex
 10
149.365904
 20
98.343696
 30
0.0
  0
VERTEX
  5
622
100
AcDbEntity
  8
レイヤー_2
 62
     7
100
AcDbVertex
100
AcDb2dVertex
 10
149.592592
 20
98.96588
 30
0.0
  0
VERTEX
  5
623
100
AcDbEntity
  8
レイヤー_2
 62
     7
100
AcDbVertex
100
AcDb2dVertex
 10
149.705935
 20
99.588064
 30
0.0
  0
SEQEND
  5
624
100
AcDbEntity
  8
レイヤー_2
 62
     7
  0
POLYLINE
  5
5EF
100
AcDbEntity
  8
レイヤー_2
 62
     7
100
AcDb2dPolyline
 66
     1
 10
0.0
 20
0.0
 30
0.0
  0
VERTEX
  5
5F0
100
AcDbEntity
  8
レイヤー_2
 62
     7
100
AcDbVertex
100
AcDb2dVertex
 10
165.056247
 20
99.588064
 30
0.0
  0
VERTEX
  5
5F1
100
AcDbEntity
  8
レイヤー_2
 62
     7
100
AcDbVertex
100
AcDb2dVertex
 10
165.169935
 20
100.211627
 30
0.0
  0
VERTEX
  5
5F2
100
AcDbEntity
  8
レイヤー_2
 62
     7
100
AcDbVertex
100
AcDb2dVertex
 10
165.395934
 20
100.8345
 30
0.0
  0
VERTEX
  5
5F3
100
AcDbEntity
  8
レイヤー_2
 62
     7
100
AcDbVertex
100
AcDb2dVertex
 10
165.79212
 20
101.343685
 30
0.0
  0
VERTEX
  5
5F4
100
AcDbEntity
  8
レイヤー_2
 62
     7
100
AcDbVertex
100
AcDb2dVertex
 10
166.302338
 20
101.74056
 30
0.0
  0
VERTEX
  5
5F5
100
AcDbEntity
  8
レイヤー_2
 62
     7
100
AcDbVertex
100
AcDb2dVertex
 10
166.924178
 20
102.023058
 30
0.0
  0
VERTEX
  5
5F6
100
AcDbEntity
  8
レイヤー_2
 62
     7
100
AcDbVertex
100
AcDb2dVertex
 10
167.60424
 20
102.079557
 30
0.0
  0
VERTEX
  5
5F7
100
AcDbEntity
  8
レイヤー_2
 62
     7
100
AcDbVertex
100
AcDb2dVertex
 10
168.226424
 20
102.023058
 30
0.0
  0
VERTEX
  5
5F8
100
AcDbEntity
  8
レイヤー_2
 62
     7
100
AcDbVertex
100
AcDb2dVertex
 10
168.849297
 20
101.74056
 30
0.0
  0
VERTEX
  5
5F9
100
AcDbEntity
  8
レイヤー_2
 62
     7
100
AcDbVertex
100
AcDb2dVertex
 10
169.358138
 20
101.343685
 30
0.0
  0
VERTEX
  5
5FA
100
AcDbEntity
  8
レイヤー_2
 62
     7
100
AcDbVertex
100
AcDb2dVertex
 10
169.754669
 20
100.8345
 30
0.0
  0
VERTEX
  5
5FB
100
AcDbEntity
  8
レイヤー_2
 62
     7
100
AcDbVertex
100
AcDb2dVertex
 10
169.981356
 20
100.211627
 30
0.0
  0
VERTEX
  5
5FC
100
AcDbEntity
  8
レイヤー_2
 62
     7
100
AcDbVertex
100
AcDb2dVertex
 10
170.094355
 20
99.588064
 30
0.0
  0
VERTEX
  5
5FD
100
AcDbEntity
  8
レイヤー_2
 62
     7
100
AcDbVertex
100
AcDb2dVertex
 10
169.981356
 20
98.96588
 30
0.0
  0
VERTEX
  5
5FE
100
AcDbEntity
  8
レイヤー_2
 62
     7
100
AcDbVertex
100
AcDb2dVertex
 10
169.754669
 20
98.343696
 30
0.0
  0
VERTEX
  5
5FF
100
AcDbEntity
  8
レイヤー_2
 62
     7
100
AcDbVertex
100
AcDb2dVertex
 10
169.358138
 20
97.833822
 30
0.0
  0
VERTEX
  5
600
100
AcDbEntity
  8
レイヤー_2
 62
     7
100
AcDbVertex
100
AcDb2dVertex
 10
168.849297
 20
97.437636
 30
0.0
  0
VERTEX
  5
601
100
AcDbEntity
  8
レイヤー_2
 62
     7
100
AcDbVertex
100
AcDb2dVertex
 10
168.226424
 20
97.154449
 30
0.0
  0
VERTEX
  5
602
100
AcDbEntity
  8
レイヤー_2
 62
     7
100
AcDbVertex
100
AcDb2dVertex
 10
167.60424
 20
97.097949
 30
0.0
  0
VERTEX
  5
603
100
AcDbEntity
  8
レイヤー_2
 62
     7
100
AcDbVertex
100
AcDb2dVertex
 10
166.924178
 20
97.154449
 30
0.0
  0
VERTEX
  5
604
100
AcDbEntity
  8
レイヤー_2
 62
     7
100
AcDbVertex
100
AcDb2dVertex
 10
166.302338
 20
97.437636
 30
0.0
  0
VERTEX
  5
605
100
AcDbEntity
  8
レイヤー_2
 62
     7
100
AcDbVertex
100
AcDb2dVertex
 10
165.79212
 20
97.833822
 30
0.0
  0
VERTEX
  5
606
100
AcDbEntity
  8
レイヤー_2
 62
     7
100
AcDbVertex
100
AcDb2dVertex
 10
165.395934
 20
98.343696
 30
0.0
  0
VERTEX
  5
607
100
AcDbEntity
  8
レイヤー_2
 62
     7
100
AcDbVertex
100
AcDb2dVertex
 10
165.169935
 20
98.96588
 30
0.0
  0
VERTEX
  5
608
100
AcDbEntity
  8
レイヤー_2
 62
     7
100
AcDbVertex
100
AcDb2dVertex
 10
165.056247
 20
99.588064
 30
0.0
  0
SEQEND
  5
609
100
AcDbEntity
  8
レイヤー_2
 62
     7
  0
LINE
  5
5EE
100
AcDbEntity
  8
レイヤー_2
 62
     7
100
AcDbLine
 10
167.841951
 20
125.726004
 30
0.0
 11
167.841951
 21
126.348188
 31
0.0
  0
LINE
  5
5ED
100
AcDbEntity
  8
レイヤー_2
 62
     7
100
AcDbLine
 10
167.841951
 20
127.027561
 30
0.0
 11
167.841951
 21
130.367925
 31
0.0
  0
LINE
  5
5EC
100
AcDbEntity
  8
レイヤー_2
 62
     7
100
AcDbLine
 10
167.841951
 20
131.046609
 30
0.0
 11
167.841951
 21
131.725982
 31
0.0
  0
LINE
  5
5EB
100
AcDbEntity
  8
レイヤー_2
 62
     7
100
AcDbLine
 10
167.841951
 20
132.406044
 30
0.0
 11
167.841951
 21
135.745719
 31
0.0
  0
LINE
  5
5EA
100
AcDbEntity
  8
レイヤー_2
 62
     7
100
AcDbLine
 10
167.841951
 20
136.424403
 30
0.0
 11
167.841951
 21
137.047965
 31
0.0
  0
LINE
  5
5E9
100
AcDbEntity
  8
レイヤー_2
 62
     7
100
AcDbLine
 10
167.841951
 20
137.72596
 30
0.0
 11
167.841951
 21
141.067014
 31
0.0
  0
LINE
  5
5E8
100
AcDbEntity
  8
レイヤー_2
 62
     7
100
AcDbLine
 10
167.841951
 20
141.746387
 30
0.0
 11
167.841951
 21
142.425071
 31
0.0
  0
LINE
  5
5E7
100
AcDbEntity
  8
レイヤー_2
 62
     7
100
AcDbLine
 10
167.841951
 20
143.104443
 30
0.0
 11
167.841951
 21
146.444808
 31
0.0
  0
LINE
  5
5E6
100
AcDbEntity
  8
レイヤー_2
 62
     7
100
AcDbLine
 10
167.841951
 20
147.067681
 30
0.0
 11
167.841951
 21
147.747054
 31
0.0
  0
LINE
  5
5E5
100
AcDbEntity
  8
レイヤー_2
 62
     7
100
AcDbLine
 10
167.841951
 20
148.42591
 30
0.0
 11
167.841951
 21
151.76593
 31
0.0
  0
LINE
  5
5E4
100
AcDbEntity
  8
レイヤー_2
 62
     7
100
AcDbLine
 10
167.841951
 20
152.445303
 30
0.0
 11
167.841951
 21
153.123987
 31
0.0
  0
LINE
  5
5E3
100
AcDbEntity
  8
レイヤー_2
 62
     7
100
AcDbLine
 10
167.841951
 20
153.803187
 30
0.0
 11
167.841951
 21
157.142691
 31
0.0
  0
LINE
  5
5E2
100
AcDbEntity
  8
レイヤー_2
 62
     7
100
AcDbLine
 10
167.841951
 20
157.765736
 30
0.0
 11
167.841951
 21
158.444765
 31
0.0
  0
LINE
  5
5E1
100
AcDbEntity
  8
レイヤー_2
 62
     7
100
AcDbLine
 10
167.841951
 20
159.124654
 30
0.0
 11
167.841951
 21
162.464157
 31
0.0
  0
LINE
  5
5E0
100
AcDbEntity
  8
レイヤー_2
 62
     7
100
AcDbLine
 10
167.841951
 20
163.143186
 30
0.0
 11
167.841951
 21
163.823075
 31
0.0
  0
LINE
  5
5DF
100
AcDbEntity
  8
レイヤー_2
 62
     7
100
AcDbLine
 10
167.841951
 20
164.502276
 30
0.0
 11
167.841951
 21
167.841607
 31
0.0
  0
LINE
  5
5DE
100
AcDbEntity
  8
レイヤー_2
 62
     7
100
AcDbLine
 10
167.841951
 20
168.463619
 30
0.0
 11
167.841951
 21
169.143509
 31
0.0
  0
LINE
  5
5DD
100
AcDbEntity
  8
レイヤー_2
 62
     7
100
AcDbLine
 10
167.841951
 20
169.822709
 30
0.0
 11
167.841951
 21
170.3331
 31
0.0
  0
LINE
  5
5DC
100
AcDbEntity
  8
レイヤー_2
 62
     7
100
AcDbLine
 10
167.841951
 20
170.3331
 30
0.0
 11
167.841951
 21
169.65321
 31
0.0
  0
LINE
  5
5DB
100
AcDbEntity
  8
レイヤー_2
 62
     7
100
AcDbLine
 10
147.215131
 20
166.313707
 30
0.0
 11
147.215131
 21
165.634679
 31
0.0
  0
LINE
  5
5DA
100
AcDbEntity
  8
レイヤー_2
 62
     7
100
AcDbLine
 10
147.215131
 20
164.954789
 30
0.0
 11
147.215131
 21
161.614597
 31
0.0
  0
LINE
  5
5D9
100
AcDbEntity
  8
レイヤー_2
 62
     7
100
AcDbLine
 10
147.215131
 20
160.936258
 30
0.0
 11
147.215131
 21
160.256368
 31
0.0
  0
LINE
  5
5D8
100
AcDbEntity
  8
レイヤー_2
 62
     7
100
AcDbLine
 10
147.215131
 20
159.633322
 30
0.0
 11
147.215131
 21
156.236975
 31
0.0
  0
LINE
  5
5D7
100
AcDbEntity
  8
レイヤー_2
 62
     7
100
AcDbLine
 10
147.215131
 20
155.614274
 30
0.0
 11
147.215131
 21
154.935074
 31
0.0
  0
LINE
  5
5D6
100
AcDbEntity
  8
レイヤー_2
 62
     7
100
AcDbLine
 10
147.215131
 20
154.255873
 30
0.0
 11
147.215131
 21
150.916714
 31
0.0
  0
LINE
  5
5D5
100
AcDbEntity
  8
レイヤー_2
 62
     7
100
AcDbLine
 10
147.215131
 20
150.236997
 30
0.0
 11
147.215131
 21
149.558313
 31
0.0
  0
LINE
  5
5D4
100
AcDbEntity
  8
レイヤー_2
 62
     7
100
AcDbLine
 10
147.215131
 20
148.93544
 30
0.0
 11
147.215131
 21
145.595936
 31
0.0
  0
LINE
  5
5D3
100
AcDbEntity
  8
レイヤー_2
 62
     7
100
AcDbLine
 10
147.215131
 20
144.915875
 30
0.0
 11
147.215131
 21
144.237191
 31
0.0
  0
LINE
  5
5D2
100
AcDbEntity
  8
レイヤー_2
 62
     7
100
AcDbLine
 10
147.215131
 20
143.557818
 30
0.0
 11
147.215131
 21
140.217453
 31
0.0
  0
LINE
  5
5D1
100
AcDbEntity
  8
レイヤー_2
 62
     7
100
AcDbLine
 10
147.215131
 20
139.53877
 30
0.0
 11
147.215131
 21
138.859397
 31
0.0
  0
LINE
  5
5D0
100
AcDbEntity
  8
レイヤー_2
 62
     7
100
AcDbLine
 10
147.215131
 20
138.235834
 30
0.0
 11
147.215131
 21
134.896159
 31
0.0
  0
LINE
  5
5CF
100
AcDbEntity
  8
レイヤー_2
 62
     7
100
AcDbLine
 10
147.215131
 20
134.217475
 30
0.0
 11
147.215131
 21
133.537413
 31
0.0
  0
LINE
  5
5CE
100
AcDbEntity
  8
レイヤー_2
 62
     7
100
AcDbLine
 10
147.215131
 20
132.859418
 30
0.0
 11
147.215131
 21
129.519054
 31
0.0
  0
LINE
  5
5CD
100
AcDbEntity
  8
レイヤー_2
 62
     7
100
AcDbLine
 10
147.215131
 20
128.838992
 30
0.0
 11
147.215131
 21
128.160997
 31
0.0
  0
LINE
  5
5CC
100
AcDbEntity
  8
レイヤー_2
 62
     7
100
AcDbLine
 10
147.215131
 20
127.538124
 30
0.0
 11
147.215131
 21
124.198448
 31
0.0
  0
LINE
  5
5CB
100
AcDbEntity
  8
レイヤー_2
 62
     7
100
AcDbLine
 10
147.215131
 20
123.518387
 30
0.0
 11
147.215131
 21
122.839014
 31
0.0
  0
LINE
  5
5CA
100
AcDbEntity
  8
レイヤー_2
 62
     7
100
AcDbLine
 10
147.215131
 20
122.16033
 30
0.0
 11
147.215131
 21
118.819965
 31
0.0
  0
LINE
  5
5C9
100
AcDbEntity
  8
レイヤー_2
 62
     7
100
AcDbLine
 10
147.215131
 20
118.140592
 30
0.0
 11
147.215131
 21
117.46122
 31
0.0
  0
LINE
  5
5C8
100
AcDbEntity
  8
レイヤー_2
 62
     7
100
AcDbLine
 10
147.215131
 20
97.594732
 30
0.0
 11
147.215131
 21
96.916048
 31
0.0
  0
LINE
  5
5C7
100
AcDbEntity
  8
レイヤー_2
 62
     7
100
AcDbLine
 10
147.215131
 20
102.191867
 30
0.0
 11
147.215131
 21
98.852881
 31
0.0
  0
LINE
  5
5C6
100
AcDbEntity
  8
レイヤー_2
 62
     7
100
AcDbLine
 10
147.215131
 20
98.173508
 30
0.0
 11
147.215131
 21
97.493446
 31
0.0
  0
LINE
  5
5C5
100
AcDbEntity
  8
レイヤー_2
 62
     7
100
AcDbLine
 10
147.215131
 20
96.871262
 30
0.0
 11
147.215131
 21
95.569705
 31
0.0
  0
LINE
  5
5C4
100
AcDbEntity
  8
レイヤー_2
 62
     7
100
AcDbLine
 10
147.215131
 20
95.569705
 30
0.0
 11
147.215131
 21
96.248389
 31
0.0
  0
LINE
  5
5C3
100
AcDbEntity
  8
レイヤー_2
 62
     7
100
AcDbLine
 10
86.600399
 20
121.933643
 30
0.0
 11
86.600399
 21
125.27194
 31
0.0
  0
LINE
  5
5C2
100
AcDbEntity
  8
レイヤー_2
 62
     7
100
AcDbLine
 10
86.600399
 20
125.952002
 30
0.0
 11
86.600399
 21
126.632064
 31
0.0
  0
LINE
  5
5C1
100
AcDbEntity
  8
レイヤー_2
 62
     7
100
AcDbLine
 10
86.600399
 20
127.310748
 30
0.0
 11
86.600399
 21
130.650423
 31
0.0
  0
LINE
  5
5C0
100
AcDbEntity
  8
レイヤー_2
 62
     7
100
AcDbLine
 10
86.600399
 20
131.330485
 30
0.0
 11
86.600399
 21
132.009858
 31
0.0
  0
LINE
  5
5BF
100
AcDbEntity
  8
レイヤー_2
 62
     7
100
AcDbLine
 10
86.600399
 20
132.632731
 30
0.0
 11
86.600399
 21
135.972407
 31
0.0
  0
LINE
  5
5BE
100
AcDbEntity
  8
レイヤー_2
 62
     7
100
AcDbLine
 10
86.600399
 20
136.65109
 30
0.0
 11
86.600399
 21
137.331152
 31
0.0
  0
LINE
  5
5BD
100
AcDbEntity
  8
レイヤー_2
 62
     7
100
AcDbLine
 10
86.600399
 20
138.009147
 30
0.0
 11
86.600399
 21
141.350201
 31
0.0
  0
LINE
  5
5BC
100
AcDbEntity
  8
レイヤー_2
 62
     7
100
AcDbLine
 10
86.600399
 20
142.029574
 30
0.0
 11
86.600399
 21
142.651758
 31
0.0
  0
LINE
  5
5BB
100
AcDbEntity
  8
レイヤー_2
 62
     7
100
AcDbLine
 10
86.600399
 20
143.331131
 30
0.0
 11
86.600399
 21
146.671495
 31
0.0
  0
LINE
  5
5BA
100
AcDbEntity
  8
レイヤー_2
 62
     7
100
AcDbLine
 10
86.600399
 20
147.351557
 30
0.0
 11
86.600399
 21
148.029552
 31
0.0
  0
LINE
  5
5B9
100
AcDbEntity
  8
レイヤー_2
 62
     7
100
AcDbLine
 10
86.600399
 20
148.708752
 30
0.0
 11
86.600399
 21
152.049806
 31
0.0
  0
LINE
  5
5B8
100
AcDbEntity
  8
レイヤー_2
 62
     7
100
AcDbLine
 10
86.600399
 20
152.728145
 30
0.0
 11
86.600399
 21
153.350674
 31
0.0
  0
LINE
  5
5B7
100
AcDbEntity
  8
レイヤー_2
 62
     7
100
AcDbLine
 10
86.600399
 20
154.029358
 30
0.0
 11
86.600399
 21
157.369378
 31
0.0
  0
LINE
  5
5B6
100
AcDbEntity
  8
レイヤー_2
 62
     7
100
AcDbLine
 10
86.600399
 20
158.048579
 30
0.0
 11
86.600399
 21
158.727779
 31
0.0
  0
LINE
  5
5B5
100
AcDbEntity
  8
レイヤー_2
 62
     7
100
AcDbLine
 10
86.600399
 20
159.407669
 30
0.0
 11
86.600399
 21
162.747689
 31
0.0
  0
LINE
  5
5B4
100
AcDbEntity
  8
レイヤー_2
 62
     7
100
AcDbLine
 10
86.600399
 20
163.4262
 30
0.0
 11
86.600399
 21
164.048212
 31
0.0
  0
LINE
  5
5B3
100
AcDbEntity
  8
レイヤー_2
 62
     7
100
AcDbLine
 10
86.600399
 20
164.728102
 30
0.0
 11
86.600399
 21
168.068122
 31
0.0
  0
LINE
  5
5B2
100
AcDbEntity
  8
レイヤー_2
 62
     7
100
AcDbLine
 10
86.600399
 20
168.747323
 30
0.0
 11
86.600399
 21
169.426523
 31
0.0
  0
LINE
  5
5B1
100
AcDbEntity
  8
レイヤー_2
 62
     7
100
AcDbLine
 10
86.600399
 20
170.106413
 30
0.0
 11
86.600399
 21
173.445744
 31
0.0
  0
LINE
  5
5B0
100
AcDbEntity
  8
レイヤー_2
 62
     7
100
AcDbLine
 10
86.600399
 20
174.124944
 30
0.0
 11
86.600399
 21
174.748507
 31
0.0
  0
LINE
  5
5AF
100
AcDbEntity
  8
レイヤー_2
 62
     7
100
AcDbLine
 10
86.600399
 20
175.427018
 30
0.0
 11
86.600399
 21
178.767038
 31
0.0
  0
LINE
  5
5AE
100
AcDbEntity
  8
レイヤー_2
 62
     7
100
AcDbLine
 10
86.600399
 20
179.446928
 30
0.0
 11
86.600399
 21
180.125439
 31
0.0
  0
LINE
  5
5AD
100
AcDbEntity
  8
レイヤー_2
  6
AI9-LType1
 62
     7
100
AcDbLine
 10
143.165077
 20
99.588064
 30
0.0
 11
151.503242
 21
99.588064
 31
0.0
  0
LINE
  5
5AC
100
AcDbEntity
  8
レイヤー_2
 62
     7
100
AcDbLine
 10
76.127653
 20
155.388448
 30
0.0
 11
33.633606
 21
155.388448
 31
0.0
  0
LINE
  5
5AB
100
AcDbEntity
  8
レイヤー_2
 62
     7
100
AcDbLine
 10
182.617277
 20
169.596883
 30
0.0
 11
171.973655
 21
169.596883
 31
0.0
  0
LINE
  5
5AA
100
AcDbEntity
  8
レイヤー_2
 62
     7
100
AcDbLine
 10
181.767372
 20
169.539867
 30
0.0
 11
180.975345
 21
168.80365
 31
0.0
  0
LINE
  5
5A9
100
AcDbEntity
  8
レイヤー_2
 62
     7
100
AcDbLine
 10
182.617277
 20
170.218895
 30
0.0
 11
181.767372
 21
169.539867
 31
0.0
  0
LINE
  5
5A8
100
AcDbEntity
  8
レイヤー_2
 62
     7
100
AcDbLine
 10
85.865043
 20
177.182122
 30
0.0
 11
86.600399
 21
176.332562
 31
0.0
  0
LINE
  5
5A7
100
AcDbEntity
  8
レイヤー_2
 62
     7
100
AcDbLine
 10
72.051933
 20
176.276407
 30
0.0
 11
72.731133
 21
175.483862
 31
0.0
  0
LINE
  5
5A6
100
AcDbEntity
  8
レイヤー_2
 62
     7
100
AcDbLine
 10
87.337477
 20
176.276407
 30
0.0
 11
70.91953
 21
176.276407
 31
0.0
  0
LINE
  5
5A5
100
AcDbEntity
  8
レイヤー_2
 62
     7
100
AcDbLine
 10
181.0315
 20
154.426405
 30
0.0
 11
182.786776
 21
156.406646
 31
0.0
  0
LINE
  5
5A4
100
AcDbEntity
  8
レイヤー_2
 62
     7
100
AcDbLine
 10
151.913553
 20
163.01365
 30
0.0
 11
151.913553
 21
157.652393
 31
0.0
  0
LINE
  5
5A3
100
AcDbEntity
  8
レイヤー_2
 62
     7
100
AcDbLine
 10
142.685864
 20
162.164779
 30
0.0
 11
141.950336
 21
161.372407
 31
0.0
  0
LINE
  5
5A2
100
AcDbEntity
  8
レイヤー_2
 62
     7
100
AcDbLine
 10
143.422081
 20
163.01365
 30
0.0
 11
142.685864
 21
162.164779
 31
0.0
  0
LINE
  5
5A1
100
AcDbEntity
  8
レイヤー_2
 62
     7
100
AcDbLine
 10
151.913553
 20
162.164779
 30
0.0
 11
151.17768
 21
161.31539
 31
0.0
  0
LINE
  5
5A0
100
AcDbEntity
  8
レイヤー_2
 62
     7
100
AcDbLine
 10
152.649769
 20
162.956634
 30
0.0
 11
151.913553
 21
162.164779
 31
0.0
  0
LINE
  5
59F
100
AcDbEntity
  8
レイヤー_2
 62
     7
100
AcDbLine
 10
142.685864
 20
163.01365
 30
0.0
 11
142.685864
 21
157.87908
 31
0.0
  0
LINE
  5
59E
100
AcDbEntity
  8
レイヤー_2
 62
     7
100
AcDbLine
 10
34.709854
 20
219.522518
 30
0.0
 11
35.558553
 21
220.201718
 31
0.0
  0
LINE
  5
59D
100
AcDbEntity
  8
レイヤー_2
 62
     7
100
AcDbLine
 10
33.91731
 20
218.786473
 30
0.0
 11
34.709854
 21
219.522518
 31
0.0
  0
LINE
  5
59C
100
AcDbEntity
  8
レイヤー_2
 62
     7
100
AcDbLine
 10
34.653526
 20
155.443914
 30
0.0
 11
35.501537
 21
156.180648
 31
0.0
  0
LINE
  5
59B
100
AcDbEntity
  8
レイヤー_2
 62
     7
100
AcDbLine
 10
33.860293
 20
154.709248
 30
0.0
 11
34.653526
 21
155.443914
 31
0.0
  0
LINE
  5
59A
100
AcDbEntity
  8
レイヤー_2
 62
     7
100
AcDbLine
 10
34.653526
 20
219.962457
 30
0.0
 11
34.653526
 21
154.651198
 31
0.0
  0
LINE
  5
599
100
AcDbEntity
  8
レイヤー_2
 62
     7
100
AcDbLine
 10
182.89943
 20
155.388448
 30
0.0
 11
174.517169
 21
155.388448
 31
0.0
  0
LINE
  5
598
100
AcDbEntity
  8
レイヤー_2
 62
     7
100
AcDbLine
 10
141.893148
 20
162.164779
 30
0.0
 11
163.416382
 21
162.164779
 31
0.0
  0
LINE
  5
597
100
AcDbEntity
  8
レイヤー_2
 62
     7
100
AcDbLine
 10
71.316577
 20
177.125795
 30
0.0
 11
72.051933
 21
176.276407
 31
0.0
  0
LINE
  5
596
100
AcDbEntity
  8
レイヤー_2
 62
     7
100
AcDbLine
 10
86.600399
 20
176.332562
 30
0.0
 11
87.337477
 21
175.541051
 31
0.0
  0
LINE
  5
595
100
AcDbEntity
  8
レイヤー_2
 62
     7
100
AcDbLine
 10
71.938589
 20
169.087354
 30
0.0
 11
71.938589
 21
177.238449
 31
0.0
  0
LINE
  5
594
100
AcDbEntity
  8
レイヤー_2
 62
     7
100
AcDbLine
 10
170.388911
 20
134.103787
 30
0.0
 11
171.068972
 21
133.254226
 31
0.0
  0
LINE
  5
593
100
AcDbEntity
  8
レイヤー_2
 62
     7
100
AcDbLine
 10
165.294992
 20
134.103787
 30
0.0
 11
166.03052
 21
133.312793
 31
0.0
  0
LINE
  5
592
100
AcDbEntity
  8
レイヤー_2
 62
     7
100
AcDbLine
 10
164.558775
 20
134.953347
 30
0.0
 11
165.294992
 21
134.103787
 31
0.0
  0
LINE
  5
591
100
AcDbEntity
  8
レイヤー_2
 62
     7
100
AcDbLine
 10
195.11815
 20
134.103787
 30
0.0
 11
163.709904
 21
134.103787
 31
0.0
  0
LINE
  5
590
100
AcDbEntity
  8
レイヤー_2
 62
     7
100
AcDbLine
 10
169.653038
 20
134.896159
 30
0.0
 11
170.388911
 21
134.103787
 31
0.0
  0
LINE
  5
58F
100
AcDbEntity
  8
レイヤー_2
 62
     7
100
AcDbLine
 10
170.276256
 20
144.745687
 30
0.0
 11
170.276256
 21
133.085417
 31
0.0
  0
LINE
  5
58E
100
AcDbEntity
  8
レイヤー_2
 62
     7
100
AcDbLine
 10
165.351147
 20
144.802875
 30
0.0
 11
165.351147
 21
133.198416
 31
0.0
  0
LINE
  5
58D
100
AcDbEntity
  8
レイヤー_2
 62
     7
100
AcDbLine
 10
181.880371
 20
154.417103
 30
0.0
 11
181.880371
 21
170.672097
 31
0.0
  0
LINE
  5
58C
100
AcDbEntity
  8
レイヤー_2
 62
     7
100
AcDbLine
 10
41.521841
 20
155.443914
 30
0.0
 11
42.312835
 21
156.123804
 31
0.0
  0
LINE
  5
58B
100
AcDbEntity
  8
レイヤー_2
 62
     7
100
AcDbLine
 10
40.671764
 20
154.709248
 30
0.0
 11
41.521841
 21
155.443914
 31
0.0
  0
LINE
  5
58A
100
AcDbEntity
  8
レイヤー_2
 62
     7
100
AcDbLine
 10
41.521841
 20
205.000751
 30
0.0
 11
42.312835
 21
205.679952
 31
0.0
  0
POLYLINE
  5
585
100
AcDbEntity
  8
レイヤー_2
 62
     7
100
AcDb2dPolyline
 66
     1
 10
0.0
 20
0.0
 30
0.0
  0
VERTEX
  5
586
100
AcDbEntity
  8
レイヤー_2
 62
     7
100
AcDbVertex
100
AcDb2dVertex
 10
149.761746
 20
102.191867
 30
0.0
  0
VERTEX
  5
587
100
AcDbEntity
  8
レイヤー_2
 62
     7
100
AcDbVertex
100
AcDb2dVertex
 10
141.893148
 20
94.323958
 30
0.0
  0
VERTEX
  5
588
100
AcDbEntity
  8
レイヤー_2
 62
     7
100
AcDbVertex
100
AcDb2dVertex
 10
131.847594
 20
94.323958
 30
0.0
  0
SEQEND
  5
589
100
AcDbEntity
  8
レイヤー_2
 62
     7
  0
LINE
  5
584
100
AcDbEntity
  8
レイヤー_2
 62
     7
100
AcDbLine
 10
182.909421
 20
94.323958
 30
0.0
 11
173.569078
 21
94.323958
 31
0.0
  0
LINE
  5
583
100
AcDbEntity
  8
レイヤー_2
 62
     7
100
AcDbLine
 10
148.015427
 20
101.399495
 30
0.0
 11
150.165856
 21
101.399495
 31
0.0
  0
LINE
  5
582
100
AcDbEntity
  8
レイヤー_2
 62
     7
100
AcDbLine
 10
144.433561
 20
97.833822
 30
0.0
 11
146.585023
 21
97.833822
 31
0.0
  0
LINE
  5
581
100
AcDbEntity
  8
レイヤー_2
 62
     7
100
AcDbLine
 10
172.755002
 20
94.323958
 30
0.0
 11
164.943937
 21
102.191867
 31
0.0
  0
LINE
  5
580
100
AcDbEntity
  8
レイヤー_2
 62
     7
100
AcDbLine
 10
172.755002
 20
94.323958
 30
0.0
 11
182.09569
 21
94.323958
 31
0.0
  0
LINE
  5
57F
100
AcDbEntity
  8
レイヤー_2
 62
     7
100
AcDbLine
 10
166.916943
 20
101.399495
 30
0.0
 11
164.765481
 21
101.399495
 31
0.0
  0
LINE
  5
57E
100
AcDbEntity
  8
レイヤー_2
 62
     7
100
AcDbLine
 10
170.316219
 20
97.833822
 30
0.0
 11
168.108602
 21
97.833822
 31
0.0
  0
LINE
  5
57D
100
AcDbEntity
  8
レイヤー_2
 62
     7
100
AcDbLine
 10
108.382359
 20
155.388448
 30
0.0
 11
173.683111
 21
155.388448
 31
0.0
  0
LINE
  5
57C
100
AcDbEntity
  8
レイヤー_2
 62
     7
100
AcDbLine
 10
95.771415
 20
155.388448
 30
0.0
 11
76.97773
 21
155.388448
 31
0.0
  0
LINE
  5
57B
100
AcDbEntity
  8
レイヤー_2
 62
     7
100
AcDbLine
 10
124.940866
 20
142.301736
 30
0.0
 11
124.940866
 21
142.055067
 31
0.0
  0
LINE
  5
57A
100
AcDbEntity
  8
レイヤー_2
 62
     7
100
AcDbLine
 10
126.804319
 20
142.309315
 30
0.0
 11
124.808919
 21
142.037153
 31
0.0
  0
LINE
  5
579
100
AcDbEntity
  8
レイヤー_2
 62
     7
100
AcDbLine
 10
126.709234
 20
142.540137
 30
0.0
 11
126.709234
 21
142.294157
 31
0.0
  0
LINE
  5
578
100
AcDbEntity
  8
レイヤー_2
 62
     7
100
AcDbLine
 10
124.808919
 20
142.037153
 30
0.0
 11
124.808919
 21
141.565864
 31
0.0
  0
LINE
  5
577
100
AcDbEntity
  8
レイヤー_2
 62
     7
100
AcDbLine
 10
126.804319
 20
141.836648
 30
0.0
 11
126.804319
 21
142.309315
 31
0.0
  0
LINE
  5
576
100
AcDbEntity
  8
レイヤー_2
 62
     7
100
AcDbLine
 10
126.804319
 20
141.836648
 30
0.0
 11
124.808919
 21
141.565864
 31
0.0
  0
LINE
  5
575
100
AcDbEntity
  8
レイヤー_2
 62
     7
100
AcDbLine
 10
124.940866
 20
141.578955
 30
0.0
 11
124.940866
 21
141.335042
 31
0.0
  0
LINE
  5
574
100
AcDbEntity
  8
レイヤー_2
 62
     7
100
AcDbLine
 10
126.804319
 20
141.587912
 30
0.0
 11
124.808919
 21
141.316439
 31
0.0
  0
LINE
  5
573
100
AcDbEntity
  8
レイヤー_2
 62
     7
100
AcDbLine
 10
126.709234
 20
141.820112
 30
0.0
 11
126.709234
 21
141.572754
 31
0.0
  0
LINE
  5
572
100
AcDbEntity
  8
レイヤー_2
 62
     7
100
AcDbLine
 10
124.808919
 20
141.316439
 30
0.0
 11
124.808919
 21
140.844461
 31
0.0
  0
LINE
  5
571
100
AcDbEntity
  8
レイヤー_2
 62
     7
100
AcDbLine
 10
126.804319
 20
141.114556
 30
0.0
 11
126.804319
 21
141.587912
 31
0.0
  0
LINE
  5
570
100
AcDbEntity
  8
レイヤー_2
 62
     7
100
AcDbLine
 10
126.804319
 20
141.114556
 30
0.0
 11
124.808919
 21
140.844461
 31
0.0
  0
LINE
  5
56F
100
AcDbEntity
  8
レイヤー_2
 62
     7
100
AcDbLine
 10
124.940866
 20
140.85893
 30
0.0
 11
124.940866
 21
140.613639
 31
0.0
  0
LINE
  5
56E
100
AcDbEntity
  8
レイヤー_2
 62
     7
100
AcDbLine
 10
126.804319
 20
140.866509
 30
0.0
 11
124.808919
 21
140.595036
 31
0.0
  0
LINE
  5
56D
100
AcDbEntity
  8
レイヤー_2
 62
     7
100
AcDbLine
 10
126.709234
 20
141.097331
 30
0.0
 11
126.709234
 21
140.851351
 31
0.0
  0
LINE
  5
56C
100
AcDbEntity
  8
レイヤー_2
 62
     7
100
AcDbLine
 10
124.808919
 20
140.595036
 30
0.0
 11
124.808919
 21
140.123058
 31
0.0
  0
LINE
  5
56B
100
AcDbEntity
  8
レイヤー_2
 62
     7
100
AcDbLine
 10
126.804319
 20
140.393842
 30
0.0
 11
126.804319
 21
140.866509
 31
0.0
  0
LINE
  5
56A
100
AcDbEntity
  8
レイヤー_2
 62
     7
100
AcDbLine
 10
126.804319
 20
140.393842
 30
0.0
 11
124.808919
 21
140.122369
 31
0.0
  0
LINE
  5
569
100
AcDbEntity
  8
レイヤー_2
 62
     7
100
AcDbLine
 10
124.940866
 20
140.136838
 30
0.0
 11
124.940866
 21
139.892236
 31
0.0
  0
LINE
  5
568
100
AcDbEntity
  8
レイヤー_2
 62
     7
100
AcDbLine
 10
126.804319
 20
140.145106
 30
0.0
 11
124.808919
 21
139.874322
 31
0.0
  0
LINE
  5
567
100
AcDbEntity
  8
レイヤー_2
 62
     7
100
AcDbLine
 10
126.709234
 20
140.376617
 30
0.0
 11
126.709234
 21
140.130637
 31
0.0
  0
LINE
  5
566
100
AcDbEntity
  8
レイヤー_2
 62
     7
100
AcDbLine
 10
124.808919
 20
139.874322
 30
0.0
 11
124.808919
 21
139.400966
 31
0.0
  0
LINE
  5
565
100
AcDbEntity
  8
レイヤー_2
 62
     7
100
AcDbLine
 10
126.804319
 20
139.673128
 30
0.0
 11
126.804319
 21
140.145106
 31
0.0
  0
LINE
  5
564
100
AcDbEntity
  8
レイヤー_2
 62
     7
100
AcDbLine
 10
126.804319
 20
139.673128
 30
0.0
 11
124.808919
 21
139.400966
 31
0.0
  0
LINE
  5
563
100
AcDbEntity
  8
レイヤー_2
 62
     7
100
AcDbLine
 10
124.940866
 20
146.622575
 30
0.0
 11
124.940866
 21
146.376595
 31
0.0
  0
LINE
  5
562
100
AcDbEntity
  8
レイヤー_2
 62
     7
100
AcDbLine
 10
126.84566
 20
146.880957
 30
0.0
 11
124.814776
 21
146.60466
 31
0.0
  0
LINE
  5
561
100
AcDbEntity
  8
レイヤー_2
 62
     7
100
AcDbLine
 10
126.804319
 20
146.630154
 30
0.0
 11
124.808919
 21
146.358681
 31
0.0
  0
LINE
  5
560
100
AcDbEntity
  8
レイヤー_2
 62
     7
100
AcDbLine
 10
126.804319
 20
146.19056
 30
0.0
 11
126.804319
 21
146.630154
 31
0.0
  0
LINE
  5
55F
100
AcDbEntity
  8
レイヤー_2
 62
     7
100
AcDbLine
 10
126.709234
 20
146.862354
 30
0.0
 11
126.709234
 21
146.614996
 31
0.0
  0
LINE
  5
55E
100
AcDbEntity
  8
レイヤー_2
 62
     7
100
AcDbLine
 10
124.808919
 20
146.358681
 30
0.0
 11
124.808919
 21
145.886013
 31
0.0
  0
LINE
  5
55D
100
AcDbEntity
  8
レイヤー_2
 62
     7
100
AcDbLine
 10
126.804319
 20
146.157487
 30
0.0
 11
126.804319
 21
146.630154
 31
0.0
  0
LINE
  5
55C
100
AcDbEntity
  8
レイヤー_2
 62
     7
100
AcDbLine
 10
126.804319
 20
146.157487
 30
0.0
 11
124.808919
 21
145.886013
 31
0.0
  0
LINE
  5
55B
100
AcDbEntity
  8
レイヤー_2
 62
     7
100
AcDbLine
 10
124.940866
 20
145.907373
 30
0.0
 11
124.940866
 21
145.662771
 31
0.0
  0
LINE
  5
55A
100
AcDbEntity
  8
レイヤー_2
 62
     7
100
AcDbLine
 10
126.804319
 20
145.914263
 30
0.0
 11
124.808919
 21
145.643479
 31
0.0
  0
LINE
  5
559
100
AcDbEntity
  8
レイヤー_2
 62
     7
100
AcDbLine
 10
126.709234
 20
146.147152
 30
0.0
 11
126.709234
 21
145.900483
 31
0.0
  0
LINE
  5
558
100
AcDbEntity
  8
レイヤー_2
 62
     7
100
AcDbLine
 10
124.808919
 20
145.643479
 30
0.0
 11
124.808919
 21
145.171501
 31
0.0
  0
LINE
  5
557
100
AcDbEntity
  8
レイヤー_2
 62
     7
100
AcDbLine
 10
126.804319
 20
145.443663
 30
0.0
 11
126.804319
 21
145.914263
 31
0.0
  0
LINE
  5
556
100
AcDbEntity
  8
レイヤー_2
 62
     7
100
AcDbLine
 10
126.804319
 20
145.443663
 30
0.0
 11
124.808919
 21
145.171501
 31
0.0
  0
LINE
  5
555
100
AcDbEntity
  8
レイヤー_2
 62
     7
100
AcDbLine
 10
124.940866
 20
145.907373
 30
0.0
 11
124.940866
 21
145.662771
 31
0.0
  0
LINE
  5
554
100
AcDbEntity
  8
レイヤー_2
 62
     7
100
AcDbLine
 10
126.804319
 20
145.914263
 30
0.0
 11
124.808919
 21
145.643479
 31
0.0
  0
LINE
  5
553
100
AcDbEntity
  8
レイヤー_2
 62
     7
100
AcDbLine
 10
126.709234
 20
146.147152
 30
0.0
 11
126.709234
 21
145.900483
 31
0.0
  0
LINE
  5
552
100
AcDbEntity
  8
レイヤー_2
 62
     7
100
AcDbLine
 10
124.808919
 20
145.643479
 30
0.0
 11
124.808919
 21
145.171501
 31
0.0
  0
LINE
  5
551
100
AcDbEntity
  8
レイヤー_2
 62
     7
100
AcDbLine
 10
126.804319
 20
145.443663
 30
0.0
 11
126.804319
 21
145.914263
 31
0.0
  0
LINE
  5
550
100
AcDbEntity
  8
レイヤー_2
 62
     7
100
AcDbLine
 10
126.804319
 20
145.443663
 30
0.0
 11
124.808919
 21
145.171501
 31
0.0
  0
LINE
  5
54F
100
AcDbEntity
  8
レイヤー_2
 62
     7
100
AcDbLine
 10
124.940866
 20
145.186659
 30
0.0
 11
124.940866
 21
144.93999
 31
0.0
  0
LINE
  5
54E
100
AcDbEntity
  8
レイヤー_2
 62
     7
100
AcDbLine
 10
126.804319
 20
145.194927
 30
0.0
 11
124.808919
 21
144.923454
 31
0.0
  0
LINE
  5
54D
100
AcDbEntity
  8
レイヤー_2
 62
     7
100
AcDbLine
 10
126.709234
 20
145.425749
 30
0.0
 11
126.709234
 21
145.17908
 31
0.0
  0
LINE
  5
54C
100
AcDbEntity
  8
レイヤー_2
 62
     7
100
AcDbLine
 10
124.808919
 20
144.923454
 30
0.0
 11
124.808919
 21
144.450098
 31
0.0
  0
LINE
  5
54B
100
AcDbEntity
  8
レイヤー_2
 62
     7
100
AcDbLine
 10
126.804319
 20
144.720882
 30
0.0
 11
126.804319
 21
145.194927
 31
0.0
  0
LINE
  5
54A
100
AcDbEntity
  8
レイヤー_2
 62
     7
100
AcDbLine
 10
126.804319
 20
144.720882
 30
0.0
 11
124.808919
 21
144.450098
 31
0.0
  0
LINE
  5
549
100
AcDbEntity
  8
レイヤー_2
 62
     7
100
AcDbLine
 10
124.940866
 20
144.464567
 30
0.0
 11
124.940866
 21
144.219965
 31
0.0
  0
LINE
  5
548
100
AcDbEntity
  8
レイヤー_2
 62
     7
100
AcDbLine
 10
126.804319
 20
144.472146
 30
0.0
 11
124.808919
 21
144.200673
 31
0.0
  0
LINE
  5
547
100
AcDbEntity
  8
レイヤー_2
 62
     7
100
AcDbLine
 10
126.709234
 20
144.705035
 30
0.0
 11
126.709234
 21
144.457677
 31
0.0
  0
LINE
  5
546
100
AcDbEntity
  8
レイヤー_2
 62
     7
100
AcDbLine
 10
124.808919
 20
144.200673
 30
0.0
 11
124.808919
 21
143.729384
 31
0.0
  0
LINE
  5
545
100
AcDbEntity
  8
レイヤー_2
 62
     7
100
AcDbLine
 10
126.804319
 20
144.000857
 30
0.0
 11
126.804319
 21
144.472146
 31
0.0
  0
LINE
  5
544
100
AcDbEntity
  8
レイヤー_2
 62
     7
100
AcDbLine
 10
126.804319
 20
144.000857
 30
0.0
 11
124.808919
 21
143.729384
 31
0.0
  0
LINE
  5
543
100
AcDbEntity
  8
レイヤー_2
 62
     7
100
AcDbLine
 10
124.940866
 20
143.743853
 30
0.0
 11
124.940866
 21
143.498562
 31
0.0
  0
LINE
  5
542
100
AcDbEntity
  8
レイヤー_2
 62
     7
100
AcDbLine
 10
126.804319
 20
143.752121
 30
0.0
 11
124.808919
 21
143.480648
 31
0.0
  0
LINE
  5
541
100
AcDbEntity
  8
レイヤー_2
 62
     7
100
AcDbLine
 10
126.709234
 20
143.982943
 30
0.0
 11
126.709234
 21
143.736274
 31
0.0
  0
LINE
  5
540
100
AcDbEntity
  8
レイヤー_2
 62
     7
100
AcDbLine
 10
124.808919
 20
143.480648
 30
0.0
 11
124.808919
 21
143.006603
 31
0.0
  0
LINE
  5
53F
100
AcDbEntity
  8
レイヤー_2
 62
     7
100
AcDbLine
 10
126.804319
 20
143.279454
 30
0.0
 11
126.804319
 21
143.752121
 31
0.0
  0
LINE
  5
53E
100
AcDbEntity
  8
レイヤー_2
 62
     7
100
AcDbLine
 10
126.804319
 20
143.279454
 30
0.0
 11
124.808919
 21
143.006603
 31
0.0
  0
LINE
  5
53D
100
AcDbEntity
  8
レイヤー_2
 62
     7
100
AcDbLine
 10
124.940866
 20
143.02245
 30
0.0
 11
124.940866
 21
142.777159
 31
0.0
  0
LINE
  5
53C
100
AcDbEntity
  8
レイヤー_2
 62
     7
100
AcDbLine
 10
126.804319
 20
143.030029
 30
0.0
 11
124.808919
 21
142.759245
 31
0.0
  0
LINE
  5
53B
100
AcDbEntity
  8
レイヤー_2
 62
     7
100
AcDbLine
 10
126.709234
 20
143.262229
 30
0.0
 11
126.709234
 21
143.01556
 31
0.0
  0
LINE
  5
53A
100
AcDbEntity
  8
レイヤー_2
 62
     7
100
AcDbLine
 10
124.808919
 20
142.759245
 30
0.0
 11
124.808919
 21
142.287267
 31
0.0
  0
LINE
  5
539
100
AcDbEntity
  8
レイヤー_2
 62
     7
100
AcDbLine
 10
126.804319
 20
142.558051
 30
0.0
 11
126.804319
 21
143.030029
 31
0.0
  0
LINE
  5
538
100
AcDbEntity
  8
レイヤー_2
 62
     7
100
AcDbLine
 10
126.804319
 20
142.558051
 30
0.0
 11
124.808919
 21
142.287267
 31
0.0
  0
SPLINE
  5
537
100
AcDbEntity
  8
レイヤー_2
 62
     7
100
AcDbSpline
210
0.0
220
0.0
230
1.0
 70
     8
 71
     3
 72
    11
 73
     7
 74
     0
 42
0.00000001
 43
0.00000001
 40
0.0
 40
0.0
 40
0.0
 40
0.0
 40
1.0
 40
1.0
 40
1.0
 40
2.0
 40
2.0
 40
2.0
 40
2.0
 10
124.81787651909721
 20
146.60534939236109
 30
0.0
 10
124.81787651909721
 20
146.64117838541665
 30
0.0
 10
124.81787651909721
 20
146.78036024305555
 30
0.0
 10
124.81787651909721
 20
146.78036024305555
 30
0.0
 10
124.81787651909721
 20
146.78036024305555
 30
0.0
 10
124.81615397135415
 20
146.998779296875
 30
0.0
 10
124.81615397135415
 20
146.998779296875
 30
0.0
  0
LINE
  5
536
100
AcDbEntity
  8
レイヤー_2
 62
     7
100
AcDbLine
 10
126.844282
 20
147.00498
 30
0.0
 11
126.844282
 21
146.880957
 31
0.0
  0
LINE
  5
535
100
AcDbEntity
  8
レイヤー_2
 62
     7
100
AcDbLine
 10
124.940866
 20
139.408545
 30
0.0
 11
124.940866
 21
139.163254
 31
0.0
  0
LINE
  5
534
100
AcDbEntity
  8
レイヤー_2
 62
     7
100
AcDbLine
 10
126.804319
 20
139.415435
 30
0.0
 11
124.808919
 21
139.143962
 31
0.0
  0
LINE
  5
533
100
AcDbEntity
  8
レイヤー_2
 62
     7
100
AcDbLine
 10
126.709234
 20
139.647635
 30
0.0
 11
126.709234
 21
139.400966
 31
0.0
  0
LINE
  5
532
100
AcDbEntity
  8
レイヤー_2
 62
     7
100
AcDbLine
 10
124.808919
 20
139.143962
 30
0.0
 11
124.808919
 21
138.672673
 31
0.0
  0
LINE
  5
531
100
AcDbEntity
  8
レイヤー_2
 62
     7
100
AcDbLine
 10
126.804319
 20
138.942079
 30
0.0
 11
126.804319
 21
139.415435
 31
0.0
  0
LINE
  5
530
100
AcDbEntity
  8
レイヤー_2
 62
     7
100
AcDbLine
 10
126.804319
 20
138.942079
 30
0.0
 11
124.808919
 21
138.672673
 31
0.0
  0
LINE
  5
52F
100
AcDbEntity
  8
レイヤー_2
 62
     7
100
AcDbLine
 10
124.951202
 20
138.691965
 30
0.0
 11
124.974628
 21
138.413601
 31
0.0
  0
LINE
  5
52E
100
AcDbEntity
  8
レイヤー_2
 62
     7
100
AcDbLine
 10
126.810175
 20
138.828391
 30
0.0
 11
124.845437
 21
138.383974
 31
0.0
  0
LINE
  5
52D
100
AcDbEntity
  8
レイヤー_2
 62
     7
100
AcDbLine
 10
126.706478
 20
138.930366
 30
0.0
 11
126.716813
 21
138.804964
 31
0.0
  0
LINE
  5
52C
100
AcDbEntity
  8
レイヤー_2
 62
     7
100
AcDbLine
 10
124.845437
 20
138.383974
 30
0.0
 11
124.886778
 21
137.914063
 31
0.0
  0
LINE
  5
52B
100
AcDbEntity
  8
レイヤー_2
 62
     7
100
AcDbLine
 10
126.851861
 20
138.357791
 30
0.0
 11
126.810175
 21
138.828391
 31
0.0
  0
LINE
  5
52A
100
AcDbEntity
  8
レイヤー_2
 62
     7
100
AcDbLine
 10
126.851861
 20
138.357791
 30
0.0
 11
124.886778
 21
137.914063
 31
0.0
  0
LINE
  5
529
100
AcDbEntity
  8
レイヤー_2
 62
     7
100
AcDbLine
 10
125.040774
 20
137.949202
 30
0.0
 11
125.089006
 21
137.677729
 31
0.0
  0
LINE
  5
528
100
AcDbEntity
  8
レイヤー_2
 62
     7
100
AcDbLine
 10
126.879766
 20
138.250993
 30
0.0
 11
124.961882
 21
137.637077
 31
0.0
  0
LINE
  5
527
100
AcDbEntity
  8
レイヤー_2
 62
     7
100
AcDbLine
 10
126.767112
 20
138.339876
 30
0.0
 11
126.787782
 21
138.219298
 31
0.0
  0
LINE
  5
526
100
AcDbEntity
  8
レイヤー_2
 62
     7
100
AcDbLine
 10
124.961882
 20
137.637077
 30
0.0
 11
125.042841
 21
137.172678
 31
0.0
  0
LINE
  5
525
100
AcDbEntity
  8
レイヤー_2
 62
     7
100
AcDbLine
 10
126.961415
 20
137.786594
 30
0.0
 11
126.879766
 21
138.250993
 31
0.0
  0
LINE
  5
524
100
AcDbEntity
  8
レイヤー_2
 62
     7
100
AcDbLine
 10
126.961415
 20
137.786594
 30
0.0
 11
125.042841
 21
137.172678
 31
0.0
  0
LINE
  5
523
100
AcDbEntity
  8
レイヤー_2
 62
     7
100
AcDbLine
 10
125.177889
 20
137.215397
 30
0.0
 11
125.256093
 21
136.923942
 31
0.0
  0
LINE
  5
522
100
AcDbEntity
  8
レイヤー_2
 62
     7
100
AcDbLine
 10
126.990009
 20
137.650168
 30
0.0
 11
125.133447
 21
136.871577
 31
0.0
  0
LINE
  5
521
100
AcDbEntity
  8
レイヤー_2
 62
     7
100
AcDbLine
 10
126.86323
 20
137.75421
 30
0.0
 11
126.901815
 21
137.610894
 31
0.0
  0
LINE
  5
520
100
AcDbEntity
  8
レイヤー_2
 62
     7
100
AcDbLine
 10
125.133447
 20
136.871577
 30
0.0
 11
125.254715
 21
136.415446
 31
0.0
  0
LINE
  5
51F
100
AcDbEntity
  8
レイヤー_2
 62
     7
100
AcDbLine
 10
127.11231
 20
137.193349
 30
0.0
 11
126.990009
 21
137.650168
 31
0.0
  0
LINE
  5
51E
100
AcDbEntity
  8
レイヤー_2
 62
     7
100
AcDbLine
 10
127.11231
 20
137.193349
 30
0.0
 11
125.254715
 21
136.415446
 31
0.0
  0
LINE
  5
51D
100
AcDbEntity
  8
レイヤー_2
 62
     7
100
AcDbLine
 10
125.380805
 20
136.4685
 30
0.0
 11
125.49346
 21
136.161887
 31
0.0
  0
LINE
  5
51C
100
AcDbEntity
  8
レイヤー_2
 62
     7
100
AcDbLine
 10
127.157441
 20
137.036252
 30
0.0
 11
125.374948
 21
136.099186
 31
0.0
  0
LINE
  5
51B
100
AcDbEntity
  8
レイヤー_2
 62
     7
100
AcDbLine
 10
127.01378
 20
137.152007
 30
0.0
 11
127.073036
 21
136.98871
 31
0.0
  0
LINE
  5
51A
100
AcDbEntity
  8
レイヤー_2
 62
     7
100
AcDbLine
 10
125.374948
 20
136.099186
 30
0.0
 11
125.536179
 21
135.654769
 31
0.0
  0
LINE
  5
519
100
AcDbEntity
  8
レイヤー_2
 62
     7
100
AcDbLine
 10
127.319016
 20
136.592524
 30
0.0
 11
127.157441
 21
137.036252
 31
0.0
  0
LINE
  5
518
100
AcDbEntity
  8
レイヤー_2
 62
     7
100
AcDbLine
 10
127.319016
 20
136.592524
 30
0.0
 11
125.536179
 21
135.654769
 31
0.0
  0
LINE
  5
517
100
AcDbEntity
  8
レイヤー_2
 62
     7
100
AcDbLine
 10
125.653312
 20
135.716781
 30
0.0
 11
125.856228
 21
135.337131
 31
0.0
  0
LINE
  5
516
100
AcDbEntity
  8
レイヤー_2
 62
     7
100
AcDbLine
 10
127.382061
 20
136.434738
 30
0.0
 11
125.747363
 21
135.258583
 31
0.0
  0
LINE
  5
515
100
AcDbEntity
  8
レイヤー_2
 62
     7
100
AcDbLine
 10
127.218764
 20
136.539469
 30
0.0
 11
127.30558
 21
136.376861
 31
0.0
  0
LINE
  5
514
100
AcDbEntity
  8
レイヤー_2
 62
     7
100
AcDbLine
 10
125.747363
 20
135.258583
 30
0.0
 11
125.970261
 21
134.841037
 31
0.0
  0
LINE
  5
513
100
AcDbEntity
  8
レイヤー_2
 62
     7
100
AcDbLine
 10
127.603925
 20
136.018571
 30
0.0
 11
127.382061
 21
136.434738
 31
0.0
  0
LINE
  5
512
100
AcDbEntity
  8
レイヤー_2
 62
     7
100
AcDbLine
 10
127.603925
 20
136.018571
 30
0.0
 11
125.970261
 21
134.841037
 31
0.0
  0
LINE
  5
511
100
AcDbEntity
  8
レイヤー_2
 62
     7
100
AcDbLine
 10
129.064646
 20
150.01031
 30
0.0
 11
129.064646
 21
149.749516
 31
0.0
  0
LINE
  5
510
100
AcDbEntity
  8
レイヤー_2
 62
     7
100
AcDbLine
 10
122.549281
 20
149.749516
 30
0.0
 11
122.549281
 21
150.01031
 31
0.0
  0
LINE
  5
50F
100
AcDbEntity
  8
レイヤー_2
 62
     7
100
AcDbLine
 10
122.332585
 20
150.025123
 30
0.0
 11
122.332585
 21
150.457483
 31
0.0
  0
LINE
  5
50E
100
AcDbEntity
  8
レイヤー_2
 62
     7
100
AcDbLine
 10
129.280653
 20
150.457483
 30
0.0
 11
129.280653
 21
150.025123
 31
0.0
  0
LINE
  5
50D
100
AcDbEntity
  8
レイヤー_2
 62
     7
100
AcDbLine
 10
122.187202
 20
155.388448
 30
0.0
 11
122.187202
 21
156.83556
 31
0.0
  0
LINE
  5
50C
100
AcDbEntity
  8
レイヤー_2
 62
     7
100
AcDbLine
 10
129.425692
 20
156.83556
 30
0.0
 11
129.425692
 21
155.388448
 31
0.0
  0
LINE
  5
50B
100
AcDbEntity
  8
レイヤー_2
 62
     7
100
AcDbLine
 10
123.635864
 20
147.108333
 30
0.0
 11
123.635864
 21
148.881352
 31
0.0
  0
LINE
  5
50A
100
AcDbEntity
  8
レイヤー_2
 62
     7
100
AcDbLine
 10
123.635864
 20
150.457483
 30
0.0
 11
123.635864
 21
155.388448
 31
0.0
  0
LINE
  5
509
100
AcDbEntity
  8
レイヤー_2
 62
     7
100
AcDbLine
 10
127.977374
 20
155.388448
 30
0.0
 11
127.977374
 21
150.457483
 31
0.0
  0
LINE
  5
508
100
AcDbEntity
  8
レイヤー_2
 62
     7
100
AcDbLine
 10
127.977374
 20
148.881352
 30
0.0
 11
127.977374
 21
147.108333
 31
0.0
  0
LINE
  5
507
100
AcDbEntity
  8
レイヤー_2
 62
     7
100
AcDbLine
 10
127.977374
 20
147.108333
 30
0.0
 11
127.876777
 21
147.007737
 31
0.0
  0
LINE
  5
506
100
AcDbEntity
  8
レイヤー_2
 62
     7
100
AcDbLine
 10
123.736461
 20
147.007737
 30
0.0
 11
123.635864
 21
147.108333
 31
0.0
  0
LINE
  5
505
100
AcDbEntity
  8
レイヤー_2
 62
     7
100
AcDbLine
 10
129.064646
 20
149.749516
 30
0.0
 11
122.549281
 21
149.749516
 31
0.0
  0
LINE
  5
504
100
AcDbEntity
  8
レイヤー_2
 62
     7
100
AcDbLine
 10
129.280653
 20
150.025123
 30
0.0
 11
122.332585
 21
150.025123
 31
0.0
  0
LINE
  5
503
100
AcDbEntity
  8
レイヤー_2
 62
     7
100
AcDbLine
 10
129.280653
 20
150.457483
 30
0.0
 11
122.332585
 21
150.457483
 31
0.0
  0
LINE
  5
502
100
AcDbEntity
  8
レイヤー_2
 62
     7
100
AcDbLine
 10
122.187202
 20
156.83556
 30
0.0
 11
129.425692
 21
156.83556
 31
0.0
  0
LINE
  5
501
100
AcDbEntity
  8
レイヤー_2
 62
     7
100
AcDbLine
 10
127.977374
 20
147.108333
 30
0.0
 11
123.635864
 21
147.108333
 31
0.0
  0
LINE
  5
500
100
AcDbEntity
  8
レイヤー_2
 62
     7
100
AcDbLine
 10
123.736461
 20
147.007737
 30
0.0
 11
127.876777
 21
147.007737
 31
0.0
  0
LINE
  5
4FF
100
AcDbEntity
  8
レイヤー_2
 62
     7
100
AcDbLine
 10
124.219119
 20
148.881352
 30
0.0
 11
126.685807
 21
148.881352
 31
0.0
  0
LINE
  5
4FE
100
AcDbEntity
  8
レイヤー_2
 62
     7
100
AcDbLine
 10
127.330729
 20
148.881352
 30
0.0
 11
127.330729
 21
149.749516
 31
0.0
  0
LINE
  5
4FD
100
AcDbEntity
  8
レイヤー_2
 62
     7
100
AcDbLine
 10
127.033762
 20
148.881352
 30
0.0
 11
126.685807
 21
148.881352
 31
0.0
  0
LINE
  5
4FC
100
AcDbEntity
  8
レイヤー_2
 62
     7
100
AcDbLine
 10
128.56993
 20
148.881352
 30
0.0
 11
127.033762
 21
148.881352
 31
0.0
  0
LINE
  5
4FB
100
AcDbEntity
  8
レイヤー_2
 62
     7
100
AcDbLine
 10
124.219119
 20
148.881352
 30
0.0
 11
124.219119
 21
149.749516
 31
0.0
  0
LINE
  5
4FA
100
AcDbEntity
  8
レイヤー_2
 62
     7
100
AcDbLine
 10
124.219119
 20
148.881352
 30
0.0
 11
123.923185
 21
148.881352
 31
0.0
  0
LINE
  5
4F9
100
AcDbEntity
  8
レイヤー_2
 62
     7
100
AcDbLine
 10
122.991631
 20
148.881352
 30
0.0
 11
122.991631
 21
149.749516
 31
0.0
  0
LINE
  5
4F8
100
AcDbEntity
  8
レイヤー_2
 62
     7
100
AcDbLine
 10
122.991631
 20
148.881352
 30
0.0
 11
123.923185
 21
148.881352
 31
0.0
  0
LINE
  5
4F7
100
AcDbEntity
  8
レイヤー_2
 62
     7
100
AcDbLine
 10
128.621606
 20
148.881352
 30
0.0
 11
128.621606
 21
149.749516
 31
0.0
  0
LINE
  5
4F6
100
AcDbEntity
  8
レイヤー_2
 62
     7
100
AcDbLine
 10
128.621606
 20
148.881352
 30
0.0
 11
128.56993
 21
148.881352
 31
0.0
  0
LINE
  5
4F5
100
AcDbEntity
  8
レイヤー_2
 62
     7
100
AcDbLine
 10
125.806619
 20
155.388448
 30
0.0
 11
129.425692
 21
155.388448
 31
0.0
  0
LINE
  5
4F4
100
AcDbEntity
  8
レイヤー_2
 62
     7
100
AcDbLine
 10
122.187202
 20
155.388448
 30
0.0
 11
125.806619
 21
155.388448
 31
0.0
  0
LINE
  5
4F3
100
AcDbEntity
  8
レイヤー_2
 62
     7
100
AcDbLine
 10
127.688675
 20
155.388448
 30
0.0
 11
127.688675
 21
150.457483
 31
0.0
  0
LINE
  5
4F2
100
AcDbEntity
  8
レイヤー_2
 62
     7
100
AcDbLine
 10
127.688675
 20
148.881352
 30
0.0
 11
127.688675
 21
147.108333
 31
0.0
  0
LINE
  5
4F1
100
AcDbEntity
  8
レイヤー_2
 62
     7
100
AcDbLine
 10
123.924908
 20
147.108333
 30
0.0
 11
123.924908
 21
148.881352
 31
0.0
  0
LINE
  5
4F0
100
AcDbEntity
  8
レイヤー_2
 62
     7
100
AcDbLine
 10
123.924908
 20
150.457483
 30
0.0
 11
123.924908
 21
155.388448
 31
0.0
  0
LINE
  5
4EF
100
AcDbEntity
  8
レイヤー_2
 62
     7
100
AcDbLine
 10
129.991721
 20
176.585259
 30
0.0
 11
130.044086
 21
176.580781
 31
0.0
  0
LINE
  5
4EE
100
AcDbEntity
  8
レイヤー_2
 62
     7
100
AcDbLine
 10
130.044086
 20
176.201476
 30
0.0
 11
129.991721
 21
176.198547
 31
0.0
  0
POLYLINE
  5
4E3
100
AcDbEntity
  8
レイヤー_2
 62
     7
100
AcDb2dPolyline
 66
     1
 10
0.0
 20
0.0
 30
0.0
  0
VERTEX
  5
4E4
100
AcDbEntity
  8
レイヤー_2
 62
     7
100
AcDbVertex
100
AcDb2dVertex
 10
130.044086
 20
176.580781
 30
0.0
  0
VERTEX
  5
4E5
100
AcDbEntity
  8
レイヤー_2
 62
     7
100
AcDbVertex
100
AcDb2dVertex
 10
130.054077
 20
176.57923
 30
0.0
  0
VERTEX
  5
4E6
100
AcDbEntity
  8
レイヤー_2
 62
     7
100
AcDbVertex
100
AcDb2dVertex
 10
130.061312
 20
176.574924
 30
0.0
  0
VERTEX
  5
4E7
100
AcDbEntity
  8
レイヤー_2
 62
     7
100
AcDbVertex
100
AcDb2dVertex
 10
130.066824
 20
176.568895
 30
0.0
  0
VERTEX
  5
4E8
100
AcDbEntity
  8
レイヤー_2
 62
     7
100
AcDbVertex
100
AcDb2dVertex
 10
130.070269
 20
176.564417
 30
0.0
  0
VERTEX
  5
4E9
100
AcDbEntity
  8
レイヤー_2
 62
     7
100
AcDbVertex
100
AcDb2dVertex
 10
130.071647
 20
176.56011
 30
0.0
  0
VERTEX
  5
4EA
100
AcDbEntity
  8
レイヤー_2
 62
     7
100
AcDbVertex
100
AcDb2dVertex
 10
130.07337
 20
176.553392
 30
0.0
  0
VERTEX
  5
4EB
100
AcDbEntity
  8
レイヤー_2
 62
     7
100
AcDbVertex
100
AcDb2dVertex
 10
130.076126
 20
176.533411
 30
0.0
  0
VERTEX
  5
4EC
100
AcDbEntity
  8
レイヤー_2
 62
     7
100
AcDbVertex
100
AcDb2dVertex
 10
130.078193
 20
176.494998
 30
0.0
  0
SEQEND
  5
4ED
100
AcDbEntity
  8
レイヤー_2
 62
     7
  0
POLYLINE
  5
4D8
100
AcDbEntity
  8
レイヤー_2
 62
     7
100
AcDb2dPolyline
 66
     1
 10
0.0
 20
0.0
 30
0.0
  0
VERTEX
  5
4D9
100
AcDbEntity
  8
レイヤー_2
 62
     7
100
AcDbVertex
100
AcDb2dVertex
 10
130.080604
 20
176.391128
 30
0.0
  0
VERTEX
  5
4DA
100
AcDbEntity
  8
レイヤー_2
 62
     7
100
AcDbVertex
100
AcDb2dVertex
 10
130.080604
 20
176.348237
 30
0.0
  0
VERTEX
  5
4DB
100
AcDbEntity
  8
レイヤー_2
 62
     7
100
AcDbVertex
100
AcDb2dVertex
 10
130.078193
 20
176.29346
 30
0.0
  0
VERTEX
  5
4DC
100
AcDbEntity
  8
レイヤー_2
 62
     7
100
AcDbVertex
100
AcDb2dVertex
 10
130.076126
 20
176.251257
 30
0.0
  0
VERTEX
  5
4DD
100
AcDbEntity
  8
レイヤー_2
 62
     7
100
AcDbVertex
100
AcDb2dVertex
 10
130.071647
 20
176.222319
 30
0.0
  0
VERTEX
  5
4DE
100
AcDbEntity
  8
レイヤー_2
 62
     7
100
AcDbVertex
100
AcDb2dVertex
 10
130.068891
 20
176.216462
 30
0.0
  0
VERTEX
  5
4DF
100
AcDbEntity
  8
レイヤー_2
 62
     7
100
AcDbVertex
100
AcDb2dVertex
 10
130.063379
 20
176.209744
 30
0.0
  0
VERTEX
  5
4E0
100
AcDbEntity
  8
レイヤー_2
 62
     7
100
AcDbVertex
100
AcDb2dVertex
 10
130.055455
 20
176.203887
 30
0.0
  0
VERTEX
  5
4E1
100
AcDbEntity
  8
レイヤー_2
 62
     7
100
AcDbVertex
100
AcDb2dVertex
 10
130.049599
 20
176.203198
 30
0.0
  0
SEQEND
  5
4E2
100
AcDbEntity
  8
レイヤー_2
 62
     7
  0
LINE
  5
4D7
100
AcDbEntity
  8
レイヤー_2
 62
     7
100
AcDbLine
 10
129.991721
 20
177.285819
 30
0.0
 11
130.040641
 21
177.284441
 31
0.0
  0
LINE
  5
4D6
100
AcDbEntity
  8
レイヤー_2
 62
     7
100
AcDbLine
 10
130.049599
 20
176.904447
 30
0.0
 11
129.99241
 21
176.899969
 31
0.0
  0
LINE
  5
4D5
100
AcDbEntity
  8
レイヤー_2
 62
     7
100
AcDbLine
 10
129.99241
 20
175.883149
 30
0.0
 11
130.049599
 21
175.87867
 31
0.0
  0
LINE
  5
4D4
100
AcDbEntity
  8
レイヤー_2
 62
     7
100
AcDbLine
 10
130.040641
 20
175.498848
 30
0.0
 11
129.991721
 21
175.497298
 31
0.0
  0
POLYLINE
  5
4C8
100
AcDbEntity
  8
レイヤー_2
 62
     7
100
AcDb2dPolyline
 66
     1
 10
0.0
 20
0.0
 30
0.0
  0
VERTEX
  5
4C9
100
AcDbEntity
  8
レイヤー_2
 62
     7
100
AcDbVertex
100
AcDb2dVertex
 10
130.047876
 20
175.87867
 30
0.0
  0
VERTEX
  5
4CA
100
AcDbEntity
  8
レイヤー_2
 62
     7
100
AcDbVertex
100
AcDb2dVertex
 10
130.049599
 20
175.87867
 30
0.0
  0
VERTEX
  5
4CB
100
AcDbEntity
  8
レイヤー_2
 62
     7
100
AcDbVertex
100
AcDb2dVertex
 10
130.059934
 20
175.87557
 30
0.0
  0
VERTEX
  5
4CC
100
AcDbEntity
  8
レイヤー_2
 62
     7
100
AcDbVertex
100
AcDb2dVertex
 10
130.066824
 20
175.871263
 30
0.0
  0
VERTEX
  5
4CD
100
AcDbEntity
  8
レイヤー_2
 62
     7
100
AcDbVertex
100
AcDb2dVertex
 10
130.071647
 20
175.865234
 30
0.0
  0
VERTEX
  5
4CE
100
AcDbEntity
  8
レイヤー_2
 62
     7
100
AcDbVertex
100
AcDb2dVertex
 10
130.07337
 20
175.860928
 30
0.0
  0
VERTEX
  5
4CF
100
AcDbEntity
  8
レイヤー_2
 62
     7
100
AcDbVertex
100
AcDb2dVertex
 10
130.074748
 20
175.856449
 30
0.0
  0
VERTEX
  5
4D0
100
AcDbEntity
  8
レイヤー_2
 62
     7
100
AcDbVertex
100
AcDb2dVertex
 10
130.076815
 20
175.85042
 30
0.0
  0
VERTEX
  5
4D1
100
AcDbEntity
  8
レイヤー_2
 62
     7
100
AcDbVertex
100
AcDb2dVertex
 10
130.078193
 20
175.82975
 30
0.0
  0
VERTEX
  5
4D2
100
AcDbEntity
  8
レイヤー_2
 62
     7
100
AcDbVertex
100
AcDb2dVertex
 10
130.080604
 20
175.792715
 30
0.0
  0
SEQEND
  5
4D3
100
AcDbEntity
  8
レイヤー_2
 62
     7
  0
POLYLINE
  5
4BE
100
AcDbEntity
  8
レイヤー_2
 62
     7
100
AcDb2dPolyline
 66
     1
 10
0.0
 20
0.0
 30
0.0
  0
VERTEX
  5
4BF
100
AcDbEntity
  8
レイヤー_2
 62
     7
100
AcDbVertex
100
AcDb2dVertex
 10
130.078193
 20
175.631312
 30
0.0
  0
VERTEX
  5
4C0
100
AcDbEntity
  8
レイヤー_2
 62
     7
100
AcDbVertex
100
AcDb2dVertex
 10
130.076126
 20
175.589799
 30
0.0
  0
VERTEX
  5
4C1
100
AcDbEntity
  8
レイヤー_2
 62
     7
100
AcDbVertex
100
AcDb2dVertex
 10
130.07337
 20
175.547597
 30
0.0
  0
VERTEX
  5
4C2
100
AcDbEntity
  8
レイヤー_2
 62
     7
100
AcDbVertex
100
AcDb2dVertex
 10
130.068891
 20
175.520208
 30
0.0
  0
VERTEX
  5
4C3
100
AcDbEntity
  8
レイヤー_2
 62
     7
100
AcDbVertex
100
AcDb2dVertex
 10
130.06579
 20
175.514179
 30
0.0
  0
VERTEX
  5
4C4
100
AcDbEntity
  8
レイヤー_2
 62
     7
100
AcDbVertex
100
AcDb2dVertex
 10
130.061312
 20
175.508495
 30
0.0
  0
VERTEX
  5
4C5
100
AcDbEntity
  8
レイヤー_2
 62
     7
100
AcDbVertex
100
AcDb2dVertex
 10
130.053388
 20
175.502466
 30
0.0
  0
VERTEX
  5
4C6
100
AcDbEntity
  8
レイヤー_2
 62
     7
100
AcDbVertex
100
AcDb2dVertex
 10
130.043397
 20
175.498848
 30
0.0
  0
SEQEND
  5
4C7
100
AcDbEntity
  8
レイヤー_2
 62
     7
  0
POLYLINE
  5
4B2
100
AcDbEntity
  8
レイヤー_2
 62
     7
100
AcDb2dPolyline
 66
     1
 10
0.0
 20
0.0
 30
0.0
  0
VERTEX
  5
4B3
100
AcDbEntity
  8
レイヤー_2
 62
     7
100
AcDbVertex
100
AcDb2dVertex
 10
130.040641
 20
177.284441
 30
0.0
  0
VERTEX
  5
4B4
100
AcDbEntity
  8
レイヤー_2
 62
     7
100
AcDbVertex
100
AcDb2dVertex
 10
130.042019
 20
177.284441
 30
0.0
  0
VERTEX
  5
4B5
100
AcDbEntity
  8
レイヤー_2
 62
     7
100
AcDbVertex
100
AcDb2dVertex
 10
130.05201
 20
177.281513
 30
0.0
  0
VERTEX
  5
4B6
100
AcDbEntity
  8
レイヤー_2
 62
     7
100
AcDbVertex
100
AcDb2dVertex
 10
130.059934
 20
177.276862
 30
0.0
  0
VERTEX
  5
4B7
100
AcDbEntity
  8
レイヤー_2
 62
     7
100
AcDbVertex
100
AcDb2dVertex
 10
130.063379
 20
177.272556
 30
0.0
  0
VERTEX
  5
4B8
100
AcDbEntity
  8
レイヤー_2
 62
     7
100
AcDbVertex
100
AcDb2dVertex
 10
130.066824
 20
177.266527
 30
0.0
  0
VERTEX
  5
4B9
100
AcDbEntity
  8
レイヤー_2
 62
     7
100
AcDbVertex
100
AcDb2dVertex
 10
130.068891
 20
177.26291
 30
0.0
  0
VERTEX
  5
4BA
100
AcDbEntity
  8
レイヤー_2
 62
     7
100
AcDbVertex
100
AcDb2dVertex
 10
130.070269
 20
177.257053
 30
0.0
  0
VERTEX
  5
4BB
100
AcDbEntity
  8
レイヤー_2
 62
     7
100
AcDbVertex
100
AcDb2dVertex
 10
130.07337
 20
177.236382
 30
0.0
  0
VERTEX
  5
4BC
100
AcDbEntity
  8
レイヤー_2
 62
     7
100
AcDbVertex
100
AcDb2dVertex
 10
130.076126
 20
177.199864
 30
0.0
  0
SEQEND
  5
4BD
100
AcDbEntity
  8
レイヤー_2
 62
     7
  0
POLYLINE
  5
4A8
100
AcDbEntity
  8
レイヤー_2
 62
     7
100
AcDb2dPolyline
 66
     1
 10
0.0
 20
0.0
 30
0.0
  0
VERTEX
  5
4A9
100
AcDbEntity
  8
レイヤー_2
 62
     7
100
AcDbVertex
100
AcDb2dVertex
 10
130.080604
 20
177.038462
 30
0.0
  0
VERTEX
  5
4AA
100
AcDbEntity
  8
レイヤー_2
 62
     7
100
AcDbVertex
100
AcDb2dVertex
 10
130.080604
 20
176.996948
 30
0.0
  0
VERTEX
  5
4AB
100
AcDbEntity
  8
レイヤー_2
 62
     7
100
AcDbVertex
100
AcDb2dVertex
 10
130.078193
 20
176.953885
 30
0.0
  0
VERTEX
  5
4AC
100
AcDbEntity
  8
レイヤー_2
 62
     7
100
AcDbVertex
100
AcDb2dVertex
 10
130.074748
 20
176.925807
 30
0.0
  0
VERTEX
  5
4AD
100
AcDbEntity
  8
レイヤー_2
 62
     7
100
AcDbVertex
100
AcDb2dVertex
 10
130.072681
 20
176.91995
 30
0.0
  0
VERTEX
  5
4AE
100
AcDbEntity
  8
レイヤー_2
 62
     7
100
AcDbVertex
100
AcDb2dVertex
 10
130.068891
 20
176.914094
 30
0.0
  0
VERTEX
  5
4AF
100
AcDbEntity
  8
レイヤー_2
 62
     7
100
AcDbVertex
100
AcDb2dVertex
 10
130.061312
 20
176.908065
 30
0.0
  0
VERTEX
  5
4B0
100
AcDbEntity
  8
レイヤー_2
 62
     7
100
AcDbVertex
100
AcDb2dVertex
 10
130.050977
 20
176.904447
 30
0.0
  0
SEQEND
  5
4B1
100
AcDbEntity
  8
レイヤー_2
 62
     7
  0
LINE
  5
4A7
100
AcDbEntity
  8
レイヤー_2
 62
     7
100
AcDbLine
 10
130.078193
 20
177.155423
 30
0.0
 11
130.079915
 21
177.119077
 31
0.0
  0
LINE
  5
4A6
100
AcDbEntity
  8
レイヤー_2
 62
     7
100
AcDbLine
 10
130.080604
 20
177.071018
 30
0.0
 11
130.080604
 21
177.034844
 31
0.0
  0
LINE
  5
4A5
100
AcDbEntity
  8
レイヤー_2
 62
     7
100
AcDbLine
 10
130.080604
 20
175.748273
 30
0.0
 11
130.080604
 21
175.712789
 31
0.0
  0
LINE
  5
4A4
100
AcDbEntity
  8
レイヤー_2
 62
     7
100
AcDbLine
 10
130.079915
 20
175.663869
 30
0.0
 11
130.078193
 21
175.627523
 31
0.0
  0
LINE
  5
4A3
100
AcDbEntity
  8
レイヤー_2
 62
     7
100
AcDbLine
 10
129.991721
 20
177.880443
 30
0.0
 11
130.037885
 21
177.879754
 31
0.0
  0
LINE
  5
4A2
100
AcDbEntity
  8
レイヤー_2
 62
     7
100
AcDbLine
 10
130.05201
 20
177.500621
 30
0.0
 11
129.993099
 21
177.494765
 31
0.0
  0
LINE
  5
4A1
100
AcDbEntity
  8
レイヤー_2
 62
     7
100
AcDbLine
 10
129.993099
 20
175.287664
 30
0.0
 11
130.05201
 21
175.282496
 31
0.0
  0
LINE
  5
4A0
100
AcDbEntity
  8
レイヤー_2
 62
     7
100
AcDbLine
 10
130.037885
 20
174.904053
 30
0.0
 11
129.991721
 21
174.902502
 31
0.0
  0
POLYLINE
  5
494
100
AcDbEntity
  8
レイヤー_2
 62
     7
100
AcDb2dPolyline
 66
     1
 10
0.0
 20
0.0
 30
0.0
  0
VERTEX
  5
495
100
AcDbEntity
  8
レイヤー_2
 62
     7
100
AcDbVertex
100
AcDb2dVertex
 10
130.037885
 20
177.879065
 30
0.0
  0
VERTEX
  5
496
100
AcDbEntity
  8
レイヤー_2
 62
     7
100
AcDbVertex
100
AcDb2dVertex
 10
130.039952
 20
177.879754
 30
0.0
  0
VERTEX
  5
497
100
AcDbEntity
  8
レイヤー_2
 62
     7
100
AcDbVertex
100
AcDb2dVertex
 10
130.049599
 20
177.876826
 30
0.0
  0
VERTEX
  5
498
100
AcDbEntity
  8
レイヤー_2
 62
     7
100
AcDbVertex
100
AcDb2dVertex
 10
130.056833
 20
177.872347
 30
0.0
  0
VERTEX
  5
499
100
AcDbEntity
  8
レイヤー_2
 62
     7
100
AcDbVertex
100
AcDb2dVertex
 10
130.061312
 20
177.867179
 30
0.0
  0
VERTEX
  5
49A
100
AcDbEntity
  8
レイヤー_2
 62
     7
100
AcDbVertex
100
AcDb2dVertex
 10
130.063379
 20
177.86339
 30
0.0
  0
VERTEX
  5
49B
100
AcDbEntity
  8
レイヤー_2
 62
     7
100
AcDbVertex
100
AcDb2dVertex
 10
130.06579
 20
177.859083
 30
0.0
  0
VERTEX
  5
49C
100
AcDbEntity
  8
レイヤー_2
 62
     7
100
AcDbVertex
100
AcDb2dVertex
 10
130.06579
 20
177.854777
 30
0.0
  0
VERTEX
  5
49D
100
AcDbEntity
  8
レイヤー_2
 62
     7
100
AcDbVertex
100
AcDb2dVertex
 10
130.067513
 20
177.847198
 30
0.0
  0
VERTEX
  5
49E
100
AcDbEntity
  8
レイヤー_2
 62
     7
100
AcDbVertex
100
AcDb2dVertex
 10
130.068891
 20
177.83669
 30
0.0
  0
SEQEND
  5
49F
100
AcDbEntity
  8
レイヤー_2
 62
     7
  0
POLYLINE
  5
48A
100
AcDbEntity
  8
レイヤー_2
 62
     7
100
AcDb2dPolyline
 66
     1
 10
0.0
 20
0.0
 30
0.0
  0
VERTEX
  5
48B
100
AcDbEntity
  8
レイヤー_2
 62
     7
100
AcDbVertex
100
AcDb2dVertex
 10
130.080604
 20
177.585026
 30
0.0
  0
VERTEX
  5
48C
100
AcDbEntity
  8
レイヤー_2
 62
     7
100
AcDbVertex
100
AcDb2dVertex
 10
130.080604
 20
177.55092
 30
0.0
  0
VERTEX
  5
48D
100
AcDbEntity
  8
レイヤー_2
 62
     7
100
AcDbVertex
100
AcDb2dVertex
 10
130.078193
 20
177.52422
 30
0.0
  0
VERTEX
  5
48E
100
AcDbEntity
  8
レイヤー_2
 62
     7
100
AcDbVertex
100
AcDb2dVertex
 10
130.076815
 20
177.519914
 30
0.0
  0
VERTEX
  5
48F
100
AcDbEntity
  8
レイヤー_2
 62
     7
100
AcDbVertex
100
AcDb2dVertex
 10
130.07337
 20
177.513885
 30
0.0
  0
VERTEX
  5
490
100
AcDbEntity
  8
レイヤー_2
 62
     7
100
AcDbVertex
100
AcDb2dVertex
 10
130.068891
 20
177.506478
 30
0.0
  0
VERTEX
  5
491
100
AcDbEntity
  8
レイヤー_2
 62
     7
100
AcDbVertex
100
AcDb2dVertex
 10
130.059934
 20
177.501999
 30
0.0
  0
VERTEX
  5
492
100
AcDbEntity
  8
レイヤー_2
 62
     7
100
AcDbVertex
100
AcDb2dVertex
 10
130.050977
 20
177.500621
 30
0.0
  0
SEQEND
  5
493
100
AcDbEntity
  8
レイヤー_2
 62
     7
  0
LINE
  5
489
100
AcDbEntity
  8
レイヤー_2
 62
     7
100
AcDbLine
 10
130.080604
 20
175.20636
 30
0.0
 11
130.080604
 21
175.138147
 31
0.0
  0
LINE
  5
488
100
AcDbEntity
  8
レイヤー_2
 62
     7
100
AcDbLine
 10
130.076815
 20
175.046335
 30
0.0
 11
130.071647
 21
174.977433
 31
0.0
  0
LINE
  5
487
100
AcDbEntity
  8
レイヤー_2
 62
     7
100
AcDbLine
 10
130.071647
 20
177.805684
 30
0.0
 11
130.076815
 21
177.737472
 31
0.0
  0
LINE
  5
486
100
AcDbEntity
  8
レイヤー_2
 62
     7
100
AcDbLine
 10
130.080604
 20
177.645143
 30
0.0
 11
130.080604
 21
177.576241
 31
0.0
  0
POLYLINE
  5
47B
100
AcDbEntity
  8
レイヤー_2
 62
     7
100
AcDb2dPolyline
 66
     1
 10
0.0
 20
0.0
 30
0.0
  0
VERTEX
  5
47C
100
AcDbEntity
  8
レイヤー_2
 62
     7
100
AcDbVertex
100
AcDb2dVertex
 10
130.043397
 20
176.203198
 30
0.0
  0
VERTEX
  5
47D
100
AcDbEntity
  8
レイヤー_2
 62
     7
100
AcDbVertex
100
AcDb2dVertex
 10
130.05201
 20
176.201476
 30
0.0
  0
VERTEX
  5
47E
100
AcDbEntity
  8
レイヤー_2
 62
     7
100
AcDbVertex
100
AcDb2dVertex
 10
130.059934
 20
176.197169
 30
0.0
  0
VERTEX
  5
47F
100
AcDbEntity
  8
レイヤー_2
 62
     7
100
AcDbVertex
100
AcDb2dVertex
 10
130.064068
 20
176.191829
 30
0.0
  0
VERTEX
  5
480
100
AcDbEntity
  8
レイヤー_2
 62
     7
100
AcDbVertex
100
AcDb2dVertex
 10
130.067513
 20
176.186834
 30
0.0
  0
VERTEX
  5
481
100
AcDbEntity
  8
レイヤー_2
 62
     7
100
AcDbVertex
100
AcDb2dVertex
 10
130.068891
 20
176.183733
 30
0.0
  0
VERTEX
  5
482
100
AcDbEntity
  8
レイヤー_2
 62
     7
100
AcDbVertex
100
AcDb2dVertex
 10
130.070269
 20
176.180116
 30
0.0
  0
VERTEX
  5
483
100
AcDbEntity
  8
レイヤー_2
 62
     7
100
AcDbVertex
100
AcDb2dVertex
 10
130.071647
 20
176.174948
 30
0.0
  0
VERTEX
  5
484
100
AcDbEntity
  8
レイヤー_2
 62
     7
100
AcDbVertex
100
AcDb2dVertex
 10
130.072681
 20
176.159446
 30
0.0
  0
SEQEND
  5
485
100
AcDbEntity
  8
レイヤー_2
 62
     7
  0
LINE
  5
47A
100
AcDbEntity
  8
レイヤー_2
 62
     7
100
AcDbLine
 10
130.068891
 20
176.921501
 30
0.0
 11
130.076815
 21
176.829517
 31
0.0
  0
LINE
  5
479
100
AcDbEntity
  8
レイヤー_2
 62
     7
100
AcDbLine
 10
130.078193
 20
176.709627
 30
0.0
 11
130.071647
 21
176.617643
 31
0.0
  0
LINE
  5
478
100
AcDbEntity
  8
レイヤー_2
 62
     7
100
AcDbLine
 10
130.071647
 20
176.164441
 30
0.0
 11
130.078193
 21
176.072801
 31
0.0
  0
LINE
  5
477
100
AcDbEntity
  8
レイヤー_2
 62
     7
100
AcDbLine
 10
130.076815
 20
175.95274
 30
0.0
 11
130.068891
 21
175.862478
 31
0.0
  0
LINE
  5
476
100
AcDbEntity
  8
レイヤー_2
 62
     7
100
AcDbLine
 10
129.990343
 20
178.276801
 30
0.0
 11
130.034785
 21
178.276801
 31
0.0
  0
LINE
  5
475
100
AcDbEntity
  8
レイヤー_2
 62
     7
100
AcDbLine
 10
130.054077
 20
177.898185
 30
0.0
 11
129.994477
 21
177.89164
 31
0.0
  0
LINE
  5
474
100
AcDbEntity
  8
レイヤー_2
 62
     7
100
AcDbLine
 10
129.994477
 20
174.890789
 30
0.0
 11
130.054077
 21
174.88476
 31
0.0
  0
LINE
  5
473
100
AcDbEntity
  8
レイヤー_2
 62
     7
100
AcDbLine
 10
130.034785
 20
174.505627
 30
0.0
 11
129.990343
 21
174.505627
 31
0.0
  0
LINE
  5
472
100
AcDbEntity
  8
レイヤー_2
 62
     7
100
AcDbLine
 10
130.068891
 20
177.508028
 30
0.0
 11
130.076126
 21
177.444983
 31
0.0
  0
LINE
  5
471
100
AcDbEntity
  8
レイヤー_2
 62
     7
100
AcDbLine
 10
130.079226
 20
177.319926
 30
0.0
 11
130.07337
 21
177.222947
 31
0.0
  0
LINE
  5
470
100
AcDbEntity
  8
レイヤー_2
 62
     7
100
AcDbLine
 10
130.07337
 20
175.560343
 30
0.0
 11
130.079226
 21
175.464053
 31
0.0
  0
LINE
  5
46F
100
AcDbEntity
  8
レイヤー_2
 62
     7
100
AcDbLine
 10
130.076126
 20
175.338135
 30
0.0
 11
130.064757
 21
175.242533
 31
0.0
  0
LINE
  5
46E
100
AcDbEntity
  8
レイヤー_2
 62
     7
100
AcDbLine
 10
130.06579
 20
178.239766
 30
0.0
 11
130.074748
 21
178.149333
 31
0.0
  0
LINE
  5
46D
100
AcDbEntity
  8
レイヤー_2
 62
     7
100
AcDbLine
 10
130.080604
 20
178.029443
 30
0.0
 11
130.080604
 21
177.93901
 31
0.0
  0
LINE
  5
46C
100
AcDbEntity
  8
レイヤー_2
 62
     7
100
AcDbLine
 10
130.080604
 20
174.843419
 30
0.0
 11
130.080604
 21
174.754363
 31
0.0
  0
LINE
  5
46B
100
AcDbEntity
  8
レイヤー_2
 62
     7
100
AcDbLine
 10
130.074748
 20
174.633096
 30
0.0
 11
130.06579
 21
174.544213
 31
0.0
  0
LINE
  5
46A
100
AcDbEntity
  8
レイヤー_2
 62
     7
100
AcDbLine
 10
130.078193
 20
176.634007
 30
0.0
 11
130.071647
 21
176.537717
 31
0.0
  0
LINE
  5
469
100
AcDbEntity
  8
レイヤー_2
 62
     7
100
AcDbLine
 10
130.071647
 20
176.244539
 30
0.0
 11
130.078193
 21
176.149627
 31
0.0
  0
LINE
  5
468
100
AcDbEntity
  8
レイヤー_2
 62
     7
100
AcDbLine
 10
129.990343
 20
178.417361
 30
0.0
 11
130.034785
 21
178.417361
 31
0.0
  0
LINE
  5
467
100
AcDbEntity
  8
レイヤー_2
 62
     7
100
AcDbLine
 10
130.034785
 20
174.366273
 30
0.0
 11
129.990343
 21
174.366273
 31
0.0
  0
SPLINE
  5
466
100
AcDbEntity
  8
レイヤー_2
 62
     7
100
AcDbSpline
210
0.0
220
0.0
230
1.0
 70
     8
 71
     3
 72
     8
 73
     4
 74
     0
 42
0.00000001
 43
0.00000001
 40
0.0
 40
0.0
 40
0.0
 40
0.0
 40
1.0
 40
1.0
 40
1.0
 40
1.0
 10
130.03478461371526
 20
178.41736111111109
 30
0.0
 10
130.04959852430554
 20
178.41736111111109
 30
0.0
 10
130.06131184895833
 20
178.4056477864583
 30
0.0
 10
130.06337890624999
 20
178.39152289496525
 30
0.0
  0
SPLINE
  5
465
100
AcDbEntity
  8
レイヤー_2
 62
     7
100
AcDbSpline
210
0.0
220
0.0
230
1.0
 70
     8
 71
     3
 72
     8
 73
     4
 74
     0
 42
0.00000001
 43
0.00000001
 40
0.0
 40
0.0
 40
0.0
 40
0.0
 40
1.0
 40
1.0
 40
1.0
 40
1.0
 10
130.06337890624999
 20
174.39142252604165
 30
0.0
 10
130.06131184895833
 20
174.37678087022567
 30
0.0
 10
130.04959852430554
 20
174.36627332899303
 30
0.0
 10
130.03478461371526
 20
174.36627332899303
 30
0.0
  0
LINE
  5
464
100
AcDbEntity
  8
レイヤー_2
 62
     7
100
AcDbLine
 10
130.078193
 20
177.523531
 30
0.0
 11
130.074748
 21
177.456179
 31
0.0
  0
LINE
  5
463
100
AcDbEntity
  8
レイヤー_2
 62
     7
100
AcDbLine
 10
130.074748
 20
175.327627
 30
0.0
 11
130.079226
 21
175.231337
 31
0.0
  0
LINE
  5
462
100
AcDbEntity
  8
レイヤー_2
 62
     7
100
AcDbLine
 10
130.07337
 20
175.920011
 30
0.0
 11
130.078193
 21
175.844564
 31
0.0
  0
LINE
  5
461
100
AcDbEntity
  8
レイヤー_2
 62
     7
100
AcDbLine
 10
130.078193
 20
176.938554
 30
0.0
 11
130.07337
 21
176.862245
 31
0.0
  0
LINE
  5
460
100
AcDbEntity
  8
レイヤー_2
 62
     7
100
AcDbLine
 10
130.063379
 20
178.391523
 30
0.0
 11
130.07337
 21
178.294543
 31
0.0
  0
LINE
  5
45F
100
AcDbEntity
  8
レイヤー_2
 62
     7
100
AcDbLine
 10
130.080604
 20
178.164147
 30
0.0
 11
130.080604
 21
178.066306
 31
0.0
  0
LINE
  5
45E
100
AcDbEntity
  8
レイヤー_2
 62
     7
100
AcDbLine
 10
130.080604
 20
174.715951
 30
0.0
 11
130.080604
 21
174.61966
 31
0.0
  0
LINE
  5
45D
100
AcDbEntity
  8
レイヤー_2
 62
     7
100
AcDbLine
 10
130.07337
 20
174.489263
 30
0.0
 11
130.063379
 21
174.391423
 31
0.0
  0
LINE
  5
45C
100
AcDbEntity
  8
レイヤー_2
 62
     7
100
AcDbLine
 10
129.953136
 20
173.858294
 30
0.0
 11
128.701533
 21
173.858294
 31
0.0
  0
LINE
  5
45B
100
AcDbEntity
  8
レイヤー_2
 62
     7
100
AcDbLine
 10
128.701533
 20
178.924824
 30
0.0
 11
129.953136
 21
178.924824
 31
0.0
  0
LINE
  5
45A
100
AcDbEntity
  8
レイヤー_2
 62
     7
100
AcDbLine
 10
129.990343
 20
174.335267
 30
0.0
 11
129.983108
 21
173.887922
 31
0.0
  0
LINE
  5
459
100
AcDbEntity
  8
レイヤー_2
 62
     7
100
AcDbLine
 10
129.983108
 20
178.895885
 30
0.0
 11
129.990343
 21
178.446989
 31
0.0
  0
LINE
  5
458
100
AcDbEntity
  8
レイヤー_2
 62
     7
100
AcDbLine
 10
123.924908
 20
156.850202
 30
0.0
 11
123.924908
 21
157.212282
 31
0.0
  0
LINE
  5
457
100
AcDbEntity
  8
レイヤー_2
 62
     7
100
AcDbLine
 10
127.688675
 20
157.212282
 30
0.0
 11
127.688675
 21
156.850202
 31
0.0
  0
LINE
  5
456
100
AcDbEntity
  8
レイヤー_2
 62
     7
100
AcDbLine
 10
122.91205
 20
178.924824
 30
0.0
 11
128.701533
 21
178.924824
 31
0.0
  0
LINE
  5
455
100
AcDbEntity
  8
レイヤー_2
 62
     7
100
AcDbLine
 10
123.669626
 20
173.858294
 30
0.0
 11
122.91205
 21
173.858294
 31
0.0
  0
LINE
  5
454
100
AcDbEntity
  8
レイヤー_2
 62
     7
100
AcDbLine
 10
128.701533
 20
173.858294
 30
0.0
 11
127.943956
 21
173.858294
 31
0.0
  0
SPLINE
  5
453
100
AcDbEntity
  8
レイヤー_2
 62
     7
100
AcDbSpline
210
0.0
220
0.0
230
1.0
 70
     8
 71
     3
 72
     8
 73
     4
 74
     0
 42
0.00000001
 43
0.00000001
 40
0.0
 40
0.0
 40
0.0
 40
0.0
 40
1.0
 40
1.0
 40
1.0
 40
1.0
 10
127.69074164496527
 20
173.60490722656249
 30
0.0
 10
127.69143066406249
 20
173.74426133897569
 30
0.0
 10
127.80374077690971
 20
173.8569159613715
 30
0.0
 10
127.94326714409721
 20
173.8569159613715
 30
0.0
  0
SPLINE
  5
452
100
AcDbEntity
  8
レイヤー_2
 62
     7
100
AcDbSpline
210
0.0
220
0.0
230
1.0
 70
     8
 71
     3
 72
     8
 73
     4
 74
     0
 42
0.00000001
 43
0.00000001
 40
0.0
 40
0.0
 40
0.0
 40
0.0
 40
1.0
 40
1.0
 40
1.0
 40
1.0
 10
123.66824815538193
 20
173.8569159613715
 30
0.0
 10
123.80915256076388
 20
173.8569159613715
 30
0.0
 10
123.92318522135416
 20
173.74271104600692
 30
0.0
 10
123.92318522135416
 20
173.6019788953993
 30
0.0
  0
LINE
  5
451
100
AcDbEntity
  8
レイヤー_2
 62
     7
100
AcDbLine
 10
127.688675
 20
173.604907
 30
0.0
 11
127.688675
 21
172.845091
 31
0.0
  0
LINE
  5
450
100
AcDbEntity
  8
レイヤー_2
 62
     7
100
AcDbLine
 10
123.924908
 20
172.845091
 30
0.0
 11
123.924908
 21
173.60129
 31
0.0
  0
LINE
  5
44F
100
AcDbEntity
  8
レイヤー_2
 62
     7
100
AcDbLine
 10
127.688675
 20
172.845091
 30
0.0
 11
127.688675
 21
157.212282
 31
0.0
  0
LINE
  5
44E
100
AcDbEntity
  8
レイヤー_2
 62
     7
100
AcDbLine
 10
123.924908
 20
157.212282
 30
0.0
 11
123.924908
 21
172.845091
 31
0.0
  0
POLYLINE
  5
441
100
AcDbEntity
  8
レイヤー_2
 62
     7
100
AcDb2dPolyline
 66
     1
 10
0.0
 20
0.0
 30
0.0
  0
VERTEX
  5
442
100
AcDbEntity
  8
レイヤー_2
 62
     7
100
AcDbVertex
100
AcDb2dVertex
 10
130.044086
 20
176.580781
 30
0.0
  0
VERTEX
  5
443
100
AcDbEntity
  8
レイヤー_2
 62
     7
100
AcDbVertex
100
AcDb2dVertex
 10
130.044086
 20
176.580781
 30
0.0
  0
VERTEX
  5
444
100
AcDbEntity
  8
レイヤー_2
 62
     7
100
AcDbVertex
100
AcDb2dVertex
 10
130.040641
 20
176.566828
 30
0.0
  0
VERTEX
  5
445
100
AcDbEntity
  8
レイヤー_2
 62
     7
100
AcDbVertex
100
AcDb2dVertex
 10
130.037885
 20
176.526004
 30
0.0
  0
VERTEX
  5
446
100
AcDbEntity
  8
レイヤー_2
 62
     7
100
AcDbVertex
100
AcDb2dVertex
 10
130.034785
 20
176.46382
 30
0.0
  0
VERTEX
  5
447
100
AcDbEntity
  8
レイヤー_2
 62
     7
100
AcDbVertex
100
AcDb2dVertex
 10
130.034785
 20
176.391128
 30
0.0
  0
VERTEX
  5
448
100
AcDbEntity
  8
レイヤー_2
 62
     7
100
AcDbVertex
100
AcDb2dVertex
 10
130.034785
 20
176.318609
 30
0.0
  0
VERTEX
  5
449
100
AcDbEntity
  8
レイヤー_2
 62
     7
100
AcDbVertex
100
AcDb2dVertex
 10
130.037885
 20
176.257975
 30
0.0
  0
VERTEX
  5
44A
100
AcDbEntity
  8
レイヤー_2
 62
     7
100
AcDbVertex
100
AcDb2dVertex
 10
130.040641
 20
176.216462
 30
0.0
  0
VERTEX
  5
44B
100
AcDbEntity
  8
レイヤー_2
 62
     7
100
AcDbVertex
100
AcDb2dVertex
 10
130.044086
 20
176.201476
 30
0.0
  0
VERTEX
  5
44C
100
AcDbEntity
  8
レイヤー_2
 62
     7
100
AcDbVertex
100
AcDb2dVertex
 10
130.044086
 20
176.201476
 30
0.0
  0
SEQEND
  5
44D
100
AcDbEntity
  8
レイヤー_2
 62
     7
  0
POLYLINE
  5
43C
100
AcDbEntity
  8
レイヤー_2
 62
     7
100
AcDb2dPolyline
 66
     1
 10
0.0
 20
0.0
 30
0.0
  0
VERTEX
  5
43D
100
AcDbEntity
  8
レイヤー_2
 62
     7
100
AcDbVertex
100
AcDb2dVertex
 10
130.078193
 20
176.495687
 30
0.0
  0
VERTEX
  5
43E
100
AcDbEntity
  8
レイヤー_2
 62
     7
100
AcDbVertex
100
AcDb2dVertex
 10
130.080604
 20
176.453484
 30
0.0
  0
VERTEX
  5
43F
100
AcDbEntity
  8
レイヤー_2
 62
     7
100
AcDbVertex
100
AcDb2dVertex
 10
130.080604
 20
176.391128
 30
0.0
  0
SEQEND
  5
440
100
AcDbEntity
  8
レイヤー_2
 62
     7
  0
POLYLINE
  5
429
100
AcDbEntity
  8
レイヤー_2
 62
     7
100
AcDb2dPolyline
 66
     1
 10
0.0
 20
0.0
 30
0.0
  0
VERTEX
  5
42A
100
AcDbEntity
  8
レイヤー_2
 62
     7
100
AcDbVertex
100
AcDb2dVertex
 10
130.07337
 20
176.391128
 30
0.0
  0
VERTEX
  5
42B
100
AcDbEntity
  8
レイヤー_2
 62
     7
100
AcDbVertex
100
AcDb2dVertex
 10
130.07337
 20
176.41645
 30
0.0
  0
VERTEX
  5
42C
100
AcDbEntity
  8
レイヤー_2
 62
     7
100
AcDbVertex
100
AcDb2dVertex
 10
130.074748
 20
176.437809
 30
0.0
  0
VERTEX
  5
42D
100
AcDbEntity
  8
レイヤー_2
 62
     7
100
AcDbVertex
100
AcDb2dVertex
 10
130.076126
 20
176.451934
 30
0.0
  0
VERTEX
  5
42E
100
AcDbEntity
  8
レイヤー_2
 62
     7
100
AcDbVertex
100
AcDb2dVertex
 10
130.076815
 20
176.456413
 30
0.0
  0
VERTEX
  5
42F
100
AcDbEntity
  8
レイヤー_2
 62
     7
100
AcDbVertex
100
AcDb2dVertex
 10
130.078193
 20
176.451934
 30
0.0
  0
VERTEX
  5
430
100
AcDbEntity
  8
レイヤー_2
 62
     7
100
AcDbVertex
100
AcDb2dVertex
 10
130.079915
 20
176.437809
 30
0.0
  0
VERTEX
  5
431
100
AcDbEntity
  8
レイヤー_2
 62
     7
100
AcDbVertex
100
AcDb2dVertex
 10
130.080604
 20
176.41645
 30
0.0
  0
VERTEX
  5
432
100
AcDbEntity
  8
レイヤー_2
 62
     7
100
AcDbVertex
100
AcDb2dVertex
 10
130.080604
 20
176.391128
 30
0.0
  0
VERTEX
  5
433
100
AcDbEntity
  8
レイヤー_2
 62
     7
100
AcDbVertex
100
AcDb2dVertex
 10
130.080604
 20
176.366668
 30
0.0
  0
VERTEX
  5
434
100
AcDbEntity
  8
レイヤー_2
 62
     7
100
AcDbVertex
100
AcDb2dVertex
 10
130.079915
 20
176.345136
 30
0.0
  0
VERTEX
  5
435
100
AcDbEntity
  8
レイヤー_2
 62
     7
100
AcDbVertex
100
AcDb2dVertex
 10
130.078193
 20
176.331873
 30
0.0
  0
VERTEX
  5
436
100
AcDbEntity
  8
レイヤー_2
 62
     7
100
AcDbVertex
100
AcDb2dVertex
 10
130.076815
 20
176.326016
 30
0.0
  0
VERTEX
  5
437
100
AcDbEntity
  8
レイヤー_2
 62
     7
100
AcDbVertex
100
AcDb2dVertex
 10
130.076126
 20
176.331873
 30
0.0
  0
VERTEX
  5
438
100
AcDbEntity
  8
レイヤー_2
 62
     7
100
AcDbVertex
100
AcDb2dVertex
 10
130.074748
 20
176.345136
 30
0.0
  0
VERTEX
  5
439
100
AcDbEntity
  8
レイヤー_2
 62
     7
100
AcDbVertex
100
AcDb2dVertex
 10
130.07337
 20
176.366668
 30
0.0
  0
VERTEX
  5
43A
100
AcDbEntity
  8
レイヤー_2
 62
     7
100
AcDbVertex
100
AcDb2dVertex
 10
130.07337
 20
176.391128
 30
0.0
  0
SEQEND
  5
43B
100
AcDbEntity
  8
レイヤー_2
 62
     7
  0
POLYLINE
  5
41D
100
AcDbEntity
  8
レイヤー_2
 62
     7
100
AcDb2dPolyline
 66
     1
 10
0.0
 20
0.0
 30
0.0
  0
VERTEX
  5
41E
100
AcDbEntity
  8
レイヤー_2
 62
     7
100
AcDbVertex
100
AcDb2dVertex
 10
130.040641
 20
177.284441
 30
0.0
  0
VERTEX
  5
41F
100
AcDbEntity
  8
レイヤー_2
 62
     7
100
AcDbVertex
100
AcDb2dVertex
 10
130.037885
 20
177.269455
 30
0.0
  0
VERTEX
  5
420
100
AcDbEntity
  8
レイヤー_2
 62
     7
100
AcDbVertex
100
AcDb2dVertex
 10
130.034785
 20
177.228114
 30
0.0
  0
VERTEX
  5
421
100
AcDbEntity
  8
レイヤー_2
 62
     7
100
AcDbVertex
100
AcDb2dVertex
 10
130.034785
 20
177.167308
 30
0.0
  0
VERTEX
  5
422
100
AcDbEntity
  8
レイヤー_2
 62
     7
100
AcDbVertex
100
AcDb2dVertex
 10
130.034785
 20
177.093928
 30
0.0
  0
VERTEX
  5
423
100
AcDbEntity
  8
レイヤー_2
 62
     7
100
AcDbVertex
100
AcDb2dVertex
 10
130.037885
 20
177.021408
 30
0.0
  0
VERTEX
  5
424
100
AcDbEntity
  8
レイヤー_2
 62
     7
100
AcDbVertex
100
AcDb2dVertex
 10
130.040641
 20
176.959913
 30
0.0
  0
VERTEX
  5
425
100
AcDbEntity
  8
レイヤー_2
 62
     7
100
AcDbVertex
100
AcDb2dVertex
 10
130.044086
 20
176.9184
 30
0.0
  0
VERTEX
  5
426
100
AcDbEntity
  8
レイヤー_2
 62
     7
100
AcDbVertex
100
AcDb2dVertex
 10
130.049599
 20
176.904447
 30
0.0
  0
VERTEX
  5
427
100
AcDbEntity
  8
レイヤー_2
 62
     7
100
AcDbVertex
100
AcDb2dVertex
 10
130.049599
 20
176.904447
 30
0.0
  0
SEQEND
  5
428
100
AcDbEntity
  8
レイヤー_2
 62
     7
  0
POLYLINE
  5
411
100
AcDbEntity
  8
レイヤー_2
 62
     7
100
AcDb2dPolyline
 66
     1
 10
0.0
 20
0.0
 30
0.0
  0
VERTEX
  5
412
100
AcDbEntity
  8
レイヤー_2
 62
     7
100
AcDbVertex
100
AcDb2dVertex
 10
130.049599
 20
175.87867
 30
0.0
  0
VERTEX
  5
413
100
AcDbEntity
  8
レイヤー_2
 62
     7
100
AcDbVertex
100
AcDb2dVertex
 10
130.049599
 20
175.87867
 30
0.0
  0
VERTEX
  5
414
100
AcDbEntity
  8
レイヤー_2
 62
     7
100
AcDbVertex
100
AcDb2dVertex
 10
130.044086
 20
175.863856
 30
0.0
  0
VERTEX
  5
415
100
AcDbEntity
  8
レイヤー_2
 62
     7
100
AcDbVertex
100
AcDb2dVertex
 10
130.040641
 20
175.823032
 30
0.0
  0
VERTEX
  5
416
100
AcDbEntity
  8
レイヤー_2
 62
     7
100
AcDbVertex
100
AcDb2dVertex
 10
130.037885
 20
175.761537
 30
0.0
  0
VERTEX
  5
417
100
AcDbEntity
  8
レイヤー_2
 62
     7
100
AcDbVertex
100
AcDb2dVertex
 10
130.034785
 20
175.689018
 30
0.0
  0
VERTEX
  5
418
100
AcDbEntity
  8
レイヤー_2
 62
     7
100
AcDbVertex
100
AcDb2dVertex
 10
130.034785
 20
175.616498
 30
0.0
  0
VERTEX
  5
419
100
AcDbEntity
  8
レイヤー_2
 62
     7
100
AcDbVertex
100
AcDb2dVertex
 10
130.034785
 20
175.554315
 30
0.0
  0
VERTEX
  5
41A
100
AcDbEntity
  8
レイヤー_2
 62
     7
100
AcDbVertex
100
AcDb2dVertex
 10
130.037885
 20
175.512801
 30
0.0
  0
VERTEX
  5
41B
100
AcDbEntity
  8
レイヤー_2
 62
     7
100
AcDbVertex
100
AcDb2dVertex
 10
130.040641
 20
175.498848
 30
0.0
  0
SEQEND
  5
41C
100
AcDbEntity
  8
レイヤー_2
 62
     7
  0
POLYLINE
  5
40C
100
AcDbEntity
  8
レイヤー_2
 62
     7
100
AcDb2dPolyline
 66
     1
 10
0.0
 20
0.0
 30
0.0
  0
VERTEX
  5
40D
100
AcDbEntity
  8
レイヤー_2
 62
     7
100
AcDbVertex
100
AcDb2dVertex
 10
130.080604
 20
175.794265
 30
0.0
  0
VERTEX
  5
40E
100
AcDbEntity
  8
レイヤー_2
 62
     7
100
AcDbVertex
100
AcDb2dVertex
 10
130.080604
 20
175.750513
 30
0.0
  0
VERTEX
  5
40F
100
AcDbEntity
  8
レイヤー_2
 62
     7
100
AcDbVertex
100
AcDb2dVertex
 10
130.080604
 20
175.748273
 30
0.0
  0
SEQEND
  5
410
100
AcDbEntity
  8
レイヤー_2
 62
     7
  0
POLYLINE
  5
407
100
AcDbEntity
  8
レイヤー_2
 62
     7
100
AcDb2dPolyline
 66
     1
 10
0.0
 20
0.0
 30
0.0
  0
VERTEX
  5
408
100
AcDbEntity
  8
レイヤー_2
 62
     7
100
AcDbVertex
100
AcDb2dVertex
 10
130.076126
 20
177.201242
 30
0.0
  0
VERTEX
  5
409
100
AcDbEntity
  8
レイヤー_2
 62
     7
100
AcDbVertex
100
AcDb2dVertex
 10
130.078193
 20
177.156801
 30
0.0
  0
VERTEX
  5
40A
100
AcDbEntity
  8
レイヤー_2
 62
     7
100
AcDbVertex
100
AcDb2dVertex
 10
130.078193
 20
177.155423
 30
0.0
  0
SEQEND
  5
40B
100
AcDbEntity
  8
レイヤー_2
 62
     7
  0
POLYLINE
  5
3F4
100
AcDbEntity
  8
レイヤー_2
 62
     7
100
AcDb2dPolyline
 66
     1
 10
0.0
 20
0.0
 30
0.0
  0
VERTEX
  5
3F5
100
AcDbEntity
  8
レイヤー_2
 62
     7
100
AcDbVertex
100
AcDb2dVertex
 10
130.07337
 20
177.119077
 30
0.0
  0
VERTEX
  5
3F6
100
AcDbEntity
  8
レイヤー_2
 62
     7
100
AcDbVertex
100
AcDb2dVertex
 10
130.07337
 20
177.140781
 30
0.0
  0
VERTEX
  5
3F7
100
AcDbEntity
  8
レイヤー_2
 62
     7
100
AcDbVertex
100
AcDb2dVertex
 10
130.074748
 20
177.154045
 30
0.0
  0
VERTEX
  5
3F8
100
AcDbEntity
  8
レイヤー_2
 62
     7
100
AcDbVertex
100
AcDb2dVertex
 10
130.076126
 20
177.159901
 30
0.0
  0
VERTEX
  5
3F9
100
AcDbEntity
  8
レイヤー_2
 62
     7
100
AcDbVertex
100
AcDb2dVertex
 10
130.076815
 20
177.154045
 30
0.0
  0
VERTEX
  5
3FA
100
AcDbEntity
  8
レイヤー_2
 62
     7
100
AcDbVertex
100
AcDb2dVertex
 10
130.078193
 20
177.140781
 30
0.0
  0
VERTEX
  5
3FB
100
AcDbEntity
  8
レイヤー_2
 62
     7
100
AcDbVertex
100
AcDb2dVertex
 10
130.079915
 20
177.119938
 30
0.0
  0
VERTEX
  5
3FC
100
AcDbEntity
  8
レイヤー_2
 62
     7
100
AcDbVertex
100
AcDb2dVertex
 10
130.080604
 20
177.095478
 30
0.0
  0
VERTEX
  5
3FD
100
AcDbEntity
  8
レイヤー_2
 62
     7
100
AcDbVertex
100
AcDb2dVertex
 10
130.080604
 20
177.06964
 30
0.0
  0
VERTEX
  5
3FE
100
AcDbEntity
  8
レイヤー_2
 62
     7
100
AcDbVertex
100
AcDb2dVertex
 10
130.080604
 20
177.048797
 30
0.0
  0
VERTEX
  5
3FF
100
AcDbEntity
  8
レイヤー_2
 62
     7
100
AcDbVertex
100
AcDb2dVertex
 10
130.079915
 20
177.034844
 30
0.0
  0
VERTEX
  5
400
100
AcDbEntity
  8
レイヤー_2
 62
     7
100
AcDbVertex
100
AcDb2dVertex
 10
130.078193
 20
177.030366
 30
0.0
  0
VERTEX
  5
401
100
AcDbEntity
  8
レイヤー_2
 62
     7
100
AcDbVertex
100
AcDb2dVertex
 10
130.076815
 20
177.034844
 30
0.0
  0
VERTEX
  5
402
100
AcDbEntity
  8
レイヤー_2
 62
     7
100
AcDbVertex
100
AcDb2dVertex
 10
130.076126
 20
177.048797
 30
0.0
  0
VERTEX
  5
403
100
AcDbEntity
  8
レイヤー_2
 62
     7
100
AcDbVertex
100
AcDb2dVertex
 10
130.074748
 20
177.06964
 30
0.0
  0
VERTEX
  5
404
100
AcDbEntity
  8
レイヤー_2
 62
     7
100
AcDbVertex
100
AcDb2dVertex
 10
130.07337
 20
177.094617
 30
0.0
  0
VERTEX
  5
405
100
AcDbEntity
  8
レイヤー_2
 62
     7
100
AcDbVertex
100
AcDb2dVertex
 10
130.07337
 20
177.119077
 30
0.0
  0
SEQEND
  5
406
100
AcDbEntity
  8
レイヤー_2
 62
     7
  0
POLYLINE
  5
3E1
100
AcDbEntity
  8
レイヤー_2
 62
     7
100
AcDb2dPolyline
 66
     1
 10
0.0
 20
0.0
 30
0.0
  0
VERTEX
  5
3E2
100
AcDbEntity
  8
レイヤー_2
 62
     7
100
AcDbVertex
100
AcDb2dVertex
 10
130.07337
 20
175.663869
 30
0.0
  0
VERTEX
  5
3E3
100
AcDbEntity
  8
レイヤー_2
 62
     7
100
AcDbVertex
100
AcDb2dVertex
 10
130.07337
 20
175.689018
 30
0.0
  0
VERTEX
  5
3E4
100
AcDbEntity
  8
レイヤー_2
 62
     7
100
AcDbVertex
100
AcDb2dVertex
 10
130.074748
 20
175.712789
 30
0.0
  0
VERTEX
  5
3E5
100
AcDbEntity
  8
レイヤー_2
 62
     7
100
AcDbVertex
100
AcDb2dVertex
 10
130.076126
 20
175.733459
 30
0.0
  0
VERTEX
  5
3E6
100
AcDbEntity
  8
レイヤー_2
 62
     7
100
AcDbVertex
100
AcDb2dVertex
 10
130.076815
 20
175.748273
 30
0.0
  0
VERTEX
  5
3E7
100
AcDbEntity
  8
レイヤー_2
 62
     7
100
AcDbVertex
100
AcDb2dVertex
 10
130.078193
 20
175.752924
 30
0.0
  0
VERTEX
  5
3E8
100
AcDbEntity
  8
レイヤー_2
 62
     7
100
AcDbVertex
100
AcDb2dVertex
 10
130.079915
 20
175.748273
 30
0.0
  0
VERTEX
  5
3E9
100
AcDbEntity
  8
レイヤー_2
 62
     7
100
AcDbVertex
100
AcDb2dVertex
 10
130.080604
 20
175.733459
 30
0.0
  0
VERTEX
  5
3EA
100
AcDbEntity
  8
レイヤー_2
 62
     7
100
AcDbVertex
100
AcDb2dVertex
 10
130.080604
 20
175.712789
 30
0.0
  0
VERTEX
  5
3EB
100
AcDbEntity
  8
レイヤー_2
 62
     7
100
AcDbVertex
100
AcDb2dVertex
 10
130.080604
 20
175.689018
 30
0.0
  0
VERTEX
  5
3EC
100
AcDbEntity
  8
レイヤー_2
 62
     7
100
AcDbVertex
100
AcDb2dVertex
 10
130.079915
 20
175.663869
 30
0.0
  0
VERTEX
  5
3ED
100
AcDbEntity
  8
レイヤー_2
 62
     7
100
AcDbVertex
100
AcDb2dVertex
 10
130.078193
 20
175.641648
 30
0.0
  0
VERTEX
  5
3EE
100
AcDbEntity
  8
レイヤー_2
 62
     7
100
AcDbVertex
100
AcDb2dVertex
 10
130.076815
 20
175.628212
 30
0.0
  0
VERTEX
  5
3EF
100
AcDbEntity
  8
レイヤー_2
 62
     7
100
AcDbVertex
100
AcDb2dVertex
 10
130.076126
 20
175.622527
 30
0.0
  0
VERTEX
  5
3F0
100
AcDbEntity
  8
レイヤー_2
 62
     7
100
AcDbVertex
100
AcDb2dVertex
 10
130.074748
 20
175.628212
 30
0.0
  0
VERTEX
  5
3F1
100
AcDbEntity
  8
レイヤー_2
 62
     7
100
AcDbVertex
100
AcDb2dVertex
 10
130.07337
 20
175.641648
 30
0.0
  0
VERTEX
  5
3F2
100
AcDbEntity
  8
レイヤー_2
 62
     7
100
AcDbVertex
100
AcDb2dVertex
 10
130.07337
 20
175.663869
 30
0.0
  0
SEQEND
  5
3F3
100
AcDbEntity
  8
レイヤー_2
 62
     7
  0
POLYLINE
  5
3D5
100
AcDbEntity
  8
レイヤー_2
 62
     7
100
AcDb2dPolyline
 66
     1
 10
0.0
 20
0.0
 30
0.0
  0
VERTEX
  5
3D6
100
AcDbEntity
  8
レイヤー_2
 62
     7
100
AcDbVertex
100
AcDb2dVertex
 10
130.037885
 20
177.879754
 30
0.0
  0
VERTEX
  5
3D7
100
AcDbEntity
  8
レイヤー_2
 62
     7
100
AcDbVertex
100
AcDb2dVertex
 10
130.034785
 20
177.865112
 30
0.0
  0
VERTEX
  5
3D8
100
AcDbEntity
  8
レイヤー_2
 62
     7
100
AcDbVertex
100
AcDb2dVertex
 10
130.034785
 20
177.823599
 30
0.0
  0
VERTEX
  5
3D9
100
AcDbEntity
  8
レイヤー_2
 62
     7
100
AcDbVertex
100
AcDb2dVertex
 10
130.034785
 20
177.762104
 30
0.0
  0
VERTEX
  5
3DA
100
AcDbEntity
  8
レイヤー_2
 62
     7
100
AcDbVertex
100
AcDb2dVertex
 10
130.037885
 20
177.689412
 30
0.0
  0
VERTEX
  5
3DB
100
AcDbEntity
  8
レイヤー_2
 62
     7
100
AcDbVertex
100
AcDb2dVertex
 10
130.040641
 20
177.617754
 30
0.0
  0
VERTEX
  5
3DC
100
AcDbEntity
  8
レイヤー_2
 62
     7
100
AcDbVertex
100
AcDb2dVertex
 10
130.044086
 20
177.556259
 30
0.0
  0
VERTEX
  5
3DD
100
AcDbEntity
  8
レイヤー_2
 62
     7
100
AcDbVertex
100
AcDb2dVertex
 10
130.049599
 20
177.513885
 30
0.0
  0
VERTEX
  5
3DE
100
AcDbEntity
  8
レイヤー_2
 62
     7
100
AcDbVertex
100
AcDb2dVertex
 10
130.05201
 20
177.500621
 30
0.0
  0
VERTEX
  5
3DF
100
AcDbEntity
  8
レイヤー_2
 62
     7
100
AcDbVertex
100
AcDb2dVertex
 10
130.05201
 20
177.500621
 30
0.0
  0
SEQEND
  5
3E0
100
AcDbEntity
  8
レイヤー_2
 62
     7
  0
POLYLINE
  5
3CA
100
AcDbEntity
  8
レイヤー_2
 62
     7
100
AcDb2dPolyline
 66
     1
 10
0.0
 20
0.0
 30
0.0
  0
VERTEX
  5
3CB
100
AcDbEntity
  8
レイヤー_2
 62
     7
100
AcDbVertex
100
AcDb2dVertex
 10
130.05201
 20
175.282496
 30
0.0
  0
VERTEX
  5
3CC
100
AcDbEntity
  8
レイヤー_2
 62
     7
100
AcDbVertex
100
AcDb2dVertex
 10
130.049599
 20
175.268544
 30
0.0
  0
VERTEX
  5
3CD
100
AcDbEntity
  8
レイヤー_2
 62
     7
100
AcDbVertex
100
AcDb2dVertex
 10
130.044086
 20
175.22703
 30
0.0
  0
VERTEX
  5
3CE
100
AcDbEntity
  8
レイヤー_2
 62
     7
100
AcDbVertex
100
AcDb2dVertex
 10
130.040641
 20
175.166225
 30
0.0
  0
VERTEX
  5
3CF
100
AcDbEntity
  8
レイヤー_2
 62
     7
100
AcDbVertex
100
AcDb2dVertex
 10
130.037885
 20
175.093705
 30
0.0
  0
VERTEX
  5
3D0
100
AcDbEntity
  8
レイヤー_2
 62
     7
100
AcDbVertex
100
AcDb2dVertex
 10
130.034785
 20
175.021186
 30
0.0
  0
VERTEX
  5
3D1
100
AcDbEntity
  8
レイヤー_2
 62
     7
100
AcDbVertex
100
AcDb2dVertex
 10
130.034785
 20
174.959002
 30
0.0
  0
VERTEX
  5
3D2
100
AcDbEntity
  8
レイヤー_2
 62
     7
100
AcDbVertex
100
AcDb2dVertex
 10
130.034785
 20
174.917316
 30
0.0
  0
VERTEX
  5
3D3
100
AcDbEntity
  8
レイヤー_2
 62
     7
100
AcDbVertex
100
AcDb2dVertex
 10
130.037885
 20
174.904053
 30
0.0
  0
SEQEND
  5
3D4
100
AcDbEntity
  8
レイヤー_2
 62
     7
  0
POLYLINE
  5
3C5
100
AcDbEntity
  8
レイヤー_2
 62
     7
100
AcDb2dPolyline
 66
     1
 10
0.0
 20
0.0
 30
0.0
  0
VERTEX
  5
3C6
100
AcDbEntity
  8
レイヤー_2
 62
     7
100
AcDbVertex
100
AcDb2dVertex
 10
130.068891
 20
177.83669
 30
0.0
  0
VERTEX
  5
3C7
100
AcDbEntity
  8
レイヤー_2
 62
     7
100
AcDbVertex
100
AcDb2dVertex
 10
130.071647
 20
177.805684
 30
0.0
  0
VERTEX
  5
3C8
100
AcDbEntity
  8
レイヤー_2
 62
     7
100
AcDbVertex
100
AcDb2dVertex
 10
130.071647
 20
177.805684
 30
0.0
  0
SEQEND
  5
3C9
100
AcDbEntity
  8
レイヤー_2
 62
     7
  0
POLYLINE
  5
3B2
100
AcDbEntity
  8
レイヤー_2
 62
     7
100
AcDb2dPolyline
 66
     1
 10
0.0
 20
0.0
 30
0.0
  0
VERTEX
  5
3B3
100
AcDbEntity
  8
レイヤー_2
 62
     7
100
AcDbVertex
100
AcDb2dVertex
 10
130.07337
 20
175.046335
 30
0.0
  0
VERTEX
  5
3B4
100
AcDbEntity
  8
レイヤー_2
 62
     7
100
AcDbVertex
100
AcDb2dVertex
 10
130.07337
 20
175.067006
 30
0.0
  0
VERTEX
  5
3B5
100
AcDbEntity
  8
レイヤー_2
 62
     7
100
AcDbVertex
100
AcDb2dVertex
 10
130.074748
 20
175.092155
 30
0.0
  0
VERTEX
  5
3B6
100
AcDbEntity
  8
レイヤー_2
 62
     7
100
AcDbVertex
100
AcDb2dVertex
 10
130.076126
 20
175.117304
 30
0.0
  0
VERTEX
  5
3B7
100
AcDbEntity
  8
レイヤー_2
 62
     7
100
AcDbVertex
100
AcDb2dVertex
 10
130.076815
 20
175.138147
 30
0.0
  0
VERTEX
  5
3B8
100
AcDbEntity
  8
レイヤー_2
 62
     7
100
AcDbVertex
100
AcDb2dVertex
 10
130.078193
 20
175.1521
 30
0.0
  0
VERTEX
  5
3B9
100
AcDbEntity
  8
レイヤー_2
 62
     7
100
AcDbVertex
100
AcDb2dVertex
 10
130.079915
 20
175.157267
 30
0.0
  0
VERTEX
  5
3BA
100
AcDbEntity
  8
レイヤー_2
 62
     7
100
AcDbVertex
100
AcDb2dVertex
 10
130.080604
 20
175.1521
 30
0.0
  0
VERTEX
  5
3BB
100
AcDbEntity
  8
レイヤー_2
 62
     7
100
AcDbVertex
100
AcDb2dVertex
 10
130.080604
 20
175.138147
 30
0.0
  0
VERTEX
  5
3BC
100
AcDbEntity
  8
レイヤー_2
 62
     7
100
AcDbVertex
100
AcDb2dVertex
 10
130.080604
 20
175.117304
 30
0.0
  0
VERTEX
  5
3BD
100
AcDbEntity
  8
レイヤー_2
 62
     7
100
AcDbVertex
100
AcDb2dVertex
 10
130.079915
 20
175.092155
 30
0.0
  0
VERTEX
  5
3BE
100
AcDbEntity
  8
レイヤー_2
 62
     7
100
AcDbVertex
100
AcDb2dVertex
 10
130.078193
 20
175.067006
 30
0.0
  0
VERTEX
  5
3BF
100
AcDbEntity
  8
レイヤー_2
 62
     7
100
AcDbVertex
100
AcDb2dVertex
 10
130.076815
 20
175.046335
 30
0.0
  0
VERTEX
  5
3C0
100
AcDbEntity
  8
レイヤー_2
 62
     7
100
AcDbVertex
100
AcDb2dVertex
 10
130.076126
 20
175.031521
 30
0.0
  0
VERTEX
  5
3C1
100
AcDbEntity
  8
レイヤー_2
 62
     7
100
AcDbVertex
100
AcDb2dVertex
 10
130.074748
 20
175.02687
 30
0.0
  0
VERTEX
  5
3C2
100
AcDbEntity
  8
レイヤー_2
 62
     7
100
AcDbVertex
100
AcDb2dVertex
 10
130.07337
 20
175.031521
 30
0.0
  0
VERTEX
  5
3C3
100
AcDbEntity
  8
レイヤー_2
 62
     7
100
AcDbVertex
100
AcDb2dVertex
 10
130.07337
 20
175.046335
 30
0.0
  0
SEQEND
  5
3C4
100
AcDbEntity
  8
レイヤー_2
 62
     7
  0
POLYLINE
  5
39F
100
AcDbEntity
  8
レイヤー_2
 62
     7
100
AcDb2dPolyline
 66
     1
 10
0.0
 20
0.0
 30
0.0
  0
VERTEX
  5
3A0
100
AcDbEntity
  8
レイヤー_2
 62
     7
100
AcDbVertex
100
AcDb2dVertex
 10
130.07337
 20
177.737472
 30
0.0
  0
VERTEX
  5
3A1
100
AcDbEntity
  8
レイヤー_2
 62
     7
100
AcDbVertex
100
AcDb2dVertex
 10
130.07337
 20
177.750907
 30
0.0
  0
VERTEX
  5
3A2
100
AcDbEntity
  8
レイヤー_2
 62
     7
100
AcDbVertex
100
AcDb2dVertex
 10
130.074748
 20
177.756075
 30
0.0
  0
VERTEX
  5
3A3
100
AcDbEntity
  8
レイヤー_2
 62
     7
100
AcDbVertex
100
AcDb2dVertex
 10
130.076126
 20
177.750907
 30
0.0
  0
VERTEX
  5
3A4
100
AcDbEntity
  8
レイヤー_2
 62
     7
100
AcDbVertex
100
AcDb2dVertex
 10
130.076815
 20
177.737472
 30
0.0
  0
VERTEX
  5
3A5
100
AcDbEntity
  8
レイヤー_2
 62
     7
100
AcDbVertex
100
AcDb2dVertex
 10
130.078193
 20
177.716112
 30
0.0
  0
VERTEX
  5
3A6
100
AcDbEntity
  8
レイヤー_2
 62
     7
100
AcDbVertex
100
AcDb2dVertex
 10
130.079915
 20
177.690963
 30
0.0
  0
VERTEX
  5
3A7
100
AcDbEntity
  8
レイヤー_2
 62
     7
100
AcDbVertex
100
AcDb2dVertex
 10
130.080604
 20
177.665814
 30
0.0
  0
VERTEX
  5
3A8
100
AcDbEntity
  8
レイヤー_2
 62
     7
100
AcDbVertex
100
AcDb2dVertex
 10
130.080604
 20
177.645143
 30
0.0
  0
VERTEX
  5
3A9
100
AcDbEntity
  8
レイヤー_2
 62
     7
100
AcDbVertex
100
AcDb2dVertex
 10
130.080604
 20
177.631018
 30
0.0
  0
VERTEX
  5
3AA
100
AcDbEntity
  8
レイヤー_2
 62
     7
100
AcDbVertex
100
AcDb2dVertex
 10
130.079915
 20
177.625678
 30
0.0
  0
VERTEX
  5
3AB
100
AcDbEntity
  8
レイヤー_2
 62
     7
100
AcDbVertex
100
AcDb2dVertex
 10
130.078193
 20
177.631018
 30
0.0
  0
VERTEX
  5
3AC
100
AcDbEntity
  8
レイヤー_2
 62
     7
100
AcDbVertex
100
AcDb2dVertex
 10
130.076815
 20
177.645143
 30
0.0
  0
VERTEX
  5
3AD
100
AcDbEntity
  8
レイヤー_2
 62
     7
100
AcDbVertex
100
AcDb2dVertex
 10
130.076126
 20
177.665814
 30
0.0
  0
VERTEX
  5
3AE
100
AcDbEntity
  8
レイヤー_2
 62
     7
100
AcDbVertex
100
AcDb2dVertex
 10
130.074748
 20
177.690963
 30
0.0
  0
VERTEX
  5
3AF
100
AcDbEntity
  8
レイヤー_2
 62
     7
100
AcDbVertex
100
AcDb2dVertex
 10
130.07337
 20
177.715423
 30
0.0
  0
VERTEX
  5
3B0
100
AcDbEntity
  8
レイヤー_2
 62
     7
100
AcDbVertex
100
AcDb2dVertex
 10
130.07337
 20
177.737472
 30
0.0
  0
SEQEND
  5
3B1
100
AcDbEntity
  8
レイヤー_2
 62
     7
  0
POLYLINE
  5
398
100
AcDbEntity
  8
レイヤー_2
 62
     7
100
AcDb2dPolyline
 66
     1
 10
0.0
 20
0.0
 30
0.0
  0
VERTEX
  5
399
100
AcDbEntity
  8
レイヤー_2
 62
     7
100
AcDbVertex
100
AcDb2dVertex
 10
130.034785
 20
176.769744
 30
0.0
  0
VERTEX
  5
39A
100
AcDbEntity
  8
レイヤー_2
 62
     7
100
AcDbVertex
100
AcDb2dVertex
 10
130.036163
 20
176.696191
 30
0.0
  0
VERTEX
  5
39B
100
AcDbEntity
  8
レイヤー_2
 62
     7
100
AcDbVertex
100
AcDb2dVertex
 10
130.037885
 20
176.635558
 30
0.0
  0
VERTEX
  5
39C
100
AcDbEntity
  8
レイヤー_2
 62
     7
100
AcDbVertex
100
AcDb2dVertex
 10
130.040641
 20
176.594217
 30
0.0
  0
VERTEX
  5
39D
100
AcDbEntity
  8
レイヤー_2
 62
     7
100
AcDbVertex
100
AcDb2dVertex
 10
130.042019
 20
176.580781
 30
0.0
  0
SEQEND
  5
39E
100
AcDbEntity
  8
レイヤー_2
 62
     7
  0
POLYLINE
  5
393
100
AcDbEntity
  8
レイヤー_2
 62
     7
100
AcDb2dPolyline
 66
     1
 10
0.0
 20
0.0
 30
0.0
  0
VERTEX
  5
394
100
AcDbEntity
  8
レイヤー_2
 62
     7
100
AcDbVertex
100
AcDb2dVertex
 10
130.034785
 20
176.903758
 30
0.0
  0
VERTEX
  5
395
100
AcDbEntity
  8
レイヤー_2
 62
     7
100
AcDbVertex
100
AcDb2dVertex
 10
130.034785
 20
176.842263
 30
0.0
  0
VERTEX
  5
396
100
AcDbEntity
  8
レイヤー_2
 62
     7
100
AcDbVertex
100
AcDb2dVertex
 10
130.034785
 20
176.769744
 30
0.0
  0
SEQEND
  5
397
100
AcDbEntity
  8
レイヤー_2
 62
     7
  0
POLYLINE
  5
38E
100
AcDbEntity
  8
レイヤー_2
 62
     7
100
AcDb2dPolyline
 66
     1
 10
0.0
 20
0.0
 30
0.0
  0
VERTEX
  5
38F
100
AcDbEntity
  8
レイヤー_2
 62
     7
100
AcDbVertex
100
AcDb2dVertex
 10
130.071647
 20
176.164441
 30
0.0
  0
VERTEX
  5
390
100
AcDbEntity
  8
レイヤー_2
 62
     7
100
AcDbVertex
100
AcDb2dVertex
 10
130.071647
 20
176.164441
 30
0.0
  0
VERTEX
  5
391
100
AcDbEntity
  8
レイヤー_2
 62
     7
100
AcDbVertex
100
AcDb2dVertex
 10
130.072681
 20
176.160135
 30
0.0
  0
SEQEND
  5
392
100
AcDbEntity
  8
レイヤー_2
 62
     7
  0
POLYLINE
  5
37B
100
AcDbEntity
  8
レイヤー_2
 62
     7
100
AcDb2dPolyline
 66
     1
 10
0.0
 20
0.0
 30
0.0
  0
VERTEX
  5
37C
100
AcDbEntity
  8
レイヤー_2
 62
     7
100
AcDbVertex
100
AcDb2dVertex
 10
130.079226
 20
176.74959
 30
0.0
  0
VERTEX
  5
37D
100
AcDbEntity
  8
レイヤー_2
 62
     7
100
AcDbVertex
100
AcDb2dVertex
 10
130.079226
 20
176.77474
 30
0.0
  0
VERTEX
  5
37E
100
AcDbEntity
  8
レイヤー_2
 62
     7
100
AcDbVertex
100
AcDb2dVertex
 10
130.078193
 20
176.800061
 30
0.0
  0
VERTEX
  5
37F
100
AcDbEntity
  8
レイヤー_2
 62
     7
100
AcDbVertex
100
AcDb2dVertex
 10
130.078193
 20
176.819181
 30
0.0
  0
VERTEX
  5
380
100
AcDbEntity
  8
レイヤー_2
 62
     7
100
AcDbVertex
100
AcDb2dVertex
 10
130.076815
 20
176.831239
 30
0.0
  0
VERTEX
  5
381
100
AcDbEntity
  8
レイヤー_2
 62
     7
100
AcDbVertex
100
AcDb2dVertex
 10
130.076126
 20
176.834856
 30
0.0
  0
VERTEX
  5
382
100
AcDbEntity
  8
レイヤー_2
 62
     7
100
AcDbVertex
100
AcDb2dVertex
 10
130.076126
 20
176.828139
 30
0.0
  0
VERTEX
  5
383
100
AcDbEntity
  8
レイヤー_2
 62
     7
100
AcDbVertex
100
AcDb2dVertex
 10
130.074748
 20
176.811774
 30
0.0
  0
VERTEX
  5
384
100
AcDbEntity
  8
レイヤー_2
 62
     7
100
AcDbVertex
100
AcDb2dVertex
 10
130.074748
 20
176.789553
 30
0.0
  0
VERTEX
  5
385
100
AcDbEntity
  8
レイヤー_2
 62
     7
100
AcDbVertex
100
AcDb2dVertex
 10
130.074748
 20
176.764404
 30
0.0
  0
VERTEX
  5
386
100
AcDbEntity
  8
レイヤー_2
 62
     7
100
AcDbVertex
100
AcDb2dVertex
 10
130.076126
 20
176.740633
 30
0.0
  0
VERTEX
  5
387
100
AcDbEntity
  8
レイヤー_2
 62
     7
100
AcDbVertex
100
AcDb2dVertex
 10
130.076126
 20
176.719963
 30
0.0
  0
VERTEX
  5
388
100
AcDbEntity
  8
レイヤー_2
 62
     7
100
AcDbVertex
100
AcDb2dVertex
 10
130.076815
 20
176.708249
 30
0.0
  0
VERTEX
  5
389
100
AcDbEntity
  8
レイヤー_2
 62
     7
100
AcDbVertex
100
AcDb2dVertex
 10
130.078193
 20
176.705149
 30
0.0
  0
VERTEX
  5
38A
100
AcDbEntity
  8
レイヤー_2
 62
     7
100
AcDbVertex
100
AcDb2dVertex
 10
130.078193
 20
176.711178
 30
0.0
  0
VERTEX
  5
38B
100
AcDbEntity
  8
レイヤー_2
 62
     7
100
AcDbVertex
100
AcDb2dVertex
 10
130.079226
 20
176.72737
 30
0.0
  0
VERTEX
  5
38C
100
AcDbEntity
  8
レイヤー_2
 62
     7
100
AcDbVertex
100
AcDb2dVertex
 10
130.079226
 20
176.74959
 30
0.0
  0
SEQEND
  5
38D
100
AcDbEntity
  8
レイヤー_2
 62
     7
  0
POLYLINE
  5
368
100
AcDbEntity
  8
レイヤー_2
 62
     7
100
AcDb2dPolyline
 66
     1
 10
0.0
 20
0.0
 30
0.0
  0
VERTEX
  5
369
100
AcDbEntity
  8
レイヤー_2
 62
     7
100
AcDbVertex
100
AcDb2dVertex
 10
130.079226
 20
176.034216
 30
0.0
  0
VERTEX
  5
36A
100
AcDbEntity
  8
レイヤー_2
 62
     7
100
AcDbVertex
100
AcDb2dVertex
 10
130.079226
 20
176.055748
 30
0.0
  0
VERTEX
  5
36B
100
AcDbEntity
  8
レイヤー_2
 62
     7
100
AcDbVertex
100
AcDb2dVertex
 10
130.078193
 20
176.071251
 30
0.0
  0
VERTEX
  5
36C
100
AcDbEntity
  8
レイヤー_2
 62
     7
100
AcDbVertex
100
AcDb2dVertex
 10
130.078193
 20
176.078658
 30
0.0
  0
VERTEX
  5
36D
100
AcDbEntity
  8
レイヤー_2
 62
     7
100
AcDbVertex
100
AcDb2dVertex
 10
130.076815
 20
176.074868
 30
0.0
  0
VERTEX
  5
36E
100
AcDbEntity
  8
レイヤー_2
 62
     7
100
AcDbVertex
100
AcDb2dVertex
 10
130.076126
 20
176.062294
 30
0.0
  0
VERTEX
  5
36F
100
AcDbEntity
  8
レイヤー_2
 62
     7
100
AcDbVertex
100
AcDb2dVertex
 10
130.076126
 20
176.043001
 30
0.0
  0
VERTEX
  5
370
100
AcDbEntity
  8
レイヤー_2
 62
     7
100
AcDbVertex
100
AcDb2dVertex
 10
130.074748
 20
176.017852
 30
0.0
  0
VERTEX
  5
371
100
AcDbEntity
  8
レイヤー_2
 62
     7
100
AcDbVertex
100
AcDb2dVertex
 10
130.074748
 20
175.992703
 30
0.0
  0
VERTEX
  5
372
100
AcDbEntity
  8
レイヤー_2
 62
     7
100
AcDbVertex
100
AcDb2dVertex
 10
130.074748
 20
175.971171
 30
0.0
  0
VERTEX
  5
373
100
AcDbEntity
  8
レイヤー_2
 62
     7
100
AcDbVertex
100
AcDb2dVertex
 10
130.076126
 20
175.95584
 30
0.0
  0
VERTEX
  5
374
100
AcDbEntity
  8
レイヤー_2
 62
     7
100
AcDbVertex
100
AcDb2dVertex
 10
130.076126
 20
175.948433
 30
0.0
  0
VERTEX
  5
375
100
AcDbEntity
  8
レイヤー_2
 62
     7
100
AcDbVertex
100
AcDb2dVertex
 10
130.076815
 20
175.95119
 30
0.0
  0
VERTEX
  5
376
100
AcDbEntity
  8
レイヤー_2
 62
     7
100
AcDbVertex
100
AcDb2dVertex
 10
130.078193
 20
175.963764
 30
0.0
  0
VERTEX
  5
377
100
AcDbEntity
  8
レイヤー_2
 62
     7
100
AcDbVertex
100
AcDb2dVertex
 10
130.078193
 20
175.983918
 30
0.0
  0
VERTEX
  5
378
100
AcDbEntity
  8
レイヤー_2
 62
     7
100
AcDbVertex
100
AcDb2dVertex
 10
130.079226
 20
176.007517
 30
0.0
  0
VERTEX
  5
379
100
AcDbEntity
  8
レイヤー_2
 62
     7
100
AcDbVertex
100
AcDb2dVertex
 10
130.079226
 20
176.034216
 30
0.0
  0
SEQEND
  5
37A
100
AcDbEntity
  8
レイヤー_2
 62
     7
  0
POLYLINE
  5
361
100
AcDbEntity
  8
レイヤー_2
 62
     7
100
AcDb2dPolyline
 66
     1
 10
0.0
 20
0.0
 30
0.0
  0
VERTEX
  5
362
100
AcDbEntity
  8
レイヤー_2
 62
     7
100
AcDbVertex
100
AcDb2dVertex
 10
130.034785
 20
177.497693
 30
0.0
  0
VERTEX
  5
363
100
AcDbEntity
  8
レイヤー_2
 62
     7
100
AcDbVertex
100
AcDb2dVertex
 10
130.034785
 20
177.453251
 30
0.0
  0
VERTEX
  5
364
100
AcDbEntity
  8
レイヤー_2
 62
     7
100
AcDbVertex
100
AcDb2dVertex
 10
130.037885
 20
177.380732
 30
0.0
  0
VERTEX
  5
365
100
AcDbEntity
  8
レイヤー_2
 62
     7
100
AcDbVertex
100
AcDb2dVertex
 10
130.039952
 20
177.307351
 30
0.0
  0
VERTEX
  5
366
100
AcDbEntity
  8
レイヤー_2
 62
     7
100
AcDbVertex
100
AcDb2dVertex
 10
130.040641
 20
177.282891
 30
0.0
  0
SEQEND
  5
367
100
AcDbEntity
  8
レイヤー_2
 62
     7
  0
POLYLINE
  5
35A
100
AcDbEntity
  8
レイヤー_2
 62
     7
100
AcDb2dPolyline
 66
     1
 10
0.0
 20
0.0
 30
0.0
  0
VERTEX
  5
35B
100
AcDbEntity
  8
レイヤー_2
 62
     7
100
AcDbVertex
100
AcDb2dVertex
 10
130.040641
 20
175.500916
 30
0.0
  0
VERTEX
  5
35C
100
AcDbEntity
  8
レイヤー_2
 62
     7
100
AcDbVertex
100
AcDb2dVertex
 10
130.039952
 20
175.475766
 30
0.0
  0
VERTEX
  5
35D
100
AcDbEntity
  8
レイヤー_2
 62
     7
100
AcDbVertex
100
AcDb2dVertex
 10
130.037885
 20
175.401697
 30
0.0
  0
VERTEX
  5
35E
100
AcDbEntity
  8
レイヤー_2
 62
     7
100
AcDbVertex
100
AcDb2dVertex
 10
130.034785
 20
175.330039
 30
0.0
  0
VERTEX
  5
35F
100
AcDbEntity
  8
レイヤー_2
 62
     7
100
AcDbVertex
100
AcDb2dVertex
 10
130.034785
 20
175.284736
 30
0.0
  0
SEQEND
  5
360
100
AcDbEntity
  8
レイヤー_2
 62
     7
  0
POLYLINE
  5
34F
100
AcDbEntity
  8
レイヤー_2
 62
     7
100
AcDb2dPolyline
 66
     1
 10
0.0
 20
0.0
 30
0.0
  0
VERTEX
  5
350
100
AcDbEntity
  8
レイヤー_2
 62
     7
100
AcDbVertex
100
AcDb2dVertex
 10
130.034785
 20
178.276801
 30
0.0
  0
VERTEX
  5
351
100
AcDbEntity
  8
レイヤー_2
 62
     7
100
AcDbVertex
100
AcDb2dVertex
 10
130.034785
 20
178.263538
 30
0.0
  0
VERTEX
  5
352
100
AcDbEntity
  8
レイヤー_2
 62
     7
100
AcDbVertex
100
AcDb2dVertex
 10
130.034785
 20
178.222024
 30
0.0
  0
VERTEX
  5
353
100
AcDbEntity
  8
レイヤー_2
 62
     7
100
AcDbVertex
100
AcDb2dVertex
 10
130.037885
 20
178.159668
 30
0.0
  0
VERTEX
  5
354
100
AcDbEntity
  8
レイヤー_2
 62
     7
100
AcDbVertex
100
AcDb2dVertex
 10
130.040641
 20
178.087149
 30
0.0
  0
VERTEX
  5
355
100
AcDbEntity
  8
レイヤー_2
 62
     7
100
AcDbVertex
100
AcDb2dVertex
 10
130.044086
 20
178.015318
 30
0.0
  0
VERTEX
  5
356
100
AcDbEntity
  8
レイヤー_2
 62
     7
100
AcDbVertex
100
AcDb2dVertex
 10
130.049599
 20
177.953996
 30
0.0
  0
VERTEX
  5
357
100
AcDbEntity
  8
レイヤー_2
 62
     7
100
AcDbVertex
100
AcDb2dVertex
 10
130.05201
 20
177.91231
 30
0.0
  0
VERTEX
  5
358
100
AcDbEntity
  8
レイヤー_2
 62
     7
100
AcDbVertex
100
AcDb2dVertex
 10
130.054077
 20
177.898185
 30
0.0
  0
SEQEND
  5
359
100
AcDbEntity
  8
レイヤー_2
 62
     7
  0
POLYLINE
  5
344
100
AcDbEntity
  8
レイヤー_2
 62
     7
100
AcDb2dPolyline
 66
     1
 10
0.0
 20
0.0
 30
0.0
  0
VERTEX
  5
345
100
AcDbEntity
  8
レイヤー_2
 62
     7
100
AcDbVertex
100
AcDb2dVertex
 10
130.054077
 20
174.88476
 30
0.0
  0
VERTEX
  5
346
100
AcDbEntity
  8
レイヤー_2
 62
     7
100
AcDbVertex
100
AcDb2dVertex
 10
130.05201
 20
174.871497
 30
0.0
  0
VERTEX
  5
347
100
AcDbEntity
  8
レイヤー_2
 62
     7
100
AcDbVertex
100
AcDb2dVertex
 10
130.049599
 20
174.829983
 30
0.0
  0
VERTEX
  5
348
100
AcDbEntity
  8
レイヤー_2
 62
     7
100
AcDbVertex
100
AcDb2dVertex
 10
130.044086
 20
174.767799
 30
0.0
  0
VERTEX
  5
349
100
AcDbEntity
  8
レイヤー_2
 62
     7
100
AcDbVertex
100
AcDb2dVertex
 10
130.040641
 20
174.69528
 30
0.0
  0
VERTEX
  5
34A
100
AcDbEntity
  8
レイヤー_2
 62
     7
100
AcDbVertex
100
AcDb2dVertex
 10
130.037885
 20
174.622588
 30
0.0
  0
VERTEX
  5
34B
100
AcDbEntity
  8
レイヤー_2
 62
     7
100
AcDbVertex
100
AcDb2dVertex
 10
130.034785
 20
174.561266
 30
0.0
  0
VERTEX
  5
34C
100
AcDbEntity
  8
レイヤー_2
 62
     7
100
AcDbVertex
100
AcDb2dVertex
 10
130.034785
 20
174.520441
 30
0.0
  0
VERTEX
  5
34D
100
AcDbEntity
  8
レイヤー_2
 62
     7
100
AcDbVertex
100
AcDb2dVertex
 10
130.034785
 20
174.505627
 30
0.0
  0
SEQEND
  5
34E
100
AcDbEntity
  8
レイヤー_2
 62
     7
  0
POLYLINE
  5
331
100
AcDbEntity
  8
レイヤー_2
 62
     7
100
AcDb2dPolyline
 66
     1
 10
0.0
 20
0.0
 30
0.0
  0
VERTEX
  5
332
100
AcDbEntity
  8
レイヤー_2
 62
     7
100
AcDbVertex
100
AcDb2dVertex
 10
130.079226
 20
177.328883
 30
0.0
  0
VERTEX
  5
333
100
AcDbEntity
  8
レイヤー_2
 62
     7
100
AcDbVertex
100
AcDb2dVertex
 10
130.079226
 20
177.348003
 30
0.0
  0
VERTEX
  5
334
100
AcDbEntity
  8
レイヤー_2
 62
     7
100
AcDbVertex
100
AcDb2dVertex
 10
130.078193
 20
177.371775
 30
0.0
  0
VERTEX
  5
335
100
AcDbEntity
  8
レイヤー_2
 62
     7
100
AcDbVertex
100
AcDb2dVertex
 10
130.078193
 20
177.396924
 30
0.0
  0
VERTEX
  5
336
100
AcDbEntity
  8
レイヤー_2
 62
     7
100
AcDbVertex
100
AcDb2dVertex
 10
130.076815
 20
177.420523
 30
0.0
  0
VERTEX
  5
337
100
AcDbEntity
  8
レイヤー_2
 62
     7
100
AcDbVertex
100
AcDb2dVertex
 10
130.076126
 20
177.436887
 30
0.0
  0
VERTEX
  5
338
100
AcDbEntity
  8
レイヤー_2
 62
     7
100
AcDbVertex
100
AcDb2dVertex
 10
130.076126
 20
177.445844
 30
0.0
  0
VERTEX
  5
339
100
AcDbEntity
  8
レイヤー_2
 62
     7
100
AcDbVertex
100
AcDb2dVertex
 10
130.074748
 20
177.444983
 30
0.0
  0
VERTEX
  5
33A
100
AcDbEntity
  8
レイヤー_2
 62
     7
100
AcDbVertex
100
AcDb2dVertex
 10
130.074748
 20
177.433959
 30
0.0
  0
VERTEX
  5
33B
100
AcDbEntity
  8
レイヤー_2
 62
     7
100
AcDbVertex
100
AcDb2dVertex
 10
130.074748
 20
177.416216
 30
0.0
  0
VERTEX
  5
33C
100
AcDbEntity
  8
レイヤー_2
 62
     7
100
AcDbVertex
100
AcDb2dVertex
 10
130.076126
 20
177.392445
 30
0.0
  0
VERTEX
  5
33D
100
AcDbEntity
  8
レイヤー_2
 62
     7
100
AcDbVertex
100
AcDb2dVertex
 10
130.076126
 20
177.366435
 30
0.0
  0
VERTEX
  5
33E
100
AcDbEntity
  8
レイヤー_2
 62
     7
100
AcDbVertex
100
AcDb2dVertex
 10
130.076815
 20
177.343697
 30
0.0
  0
VERTEX
  5
33F
100
AcDbEntity
  8
レイヤー_2
 62
     7
100
AcDbVertex
100
AcDb2dVertex
 10
130.078193
 20
177.326644
 30
0.0
  0
VERTEX
  5
340
100
AcDbEntity
  8
レイヤー_2
 62
     7
100
AcDbVertex
100
AcDb2dVertex
 10
130.078193
 20
177.316998
 30
0.0
  0
VERTEX
  5
341
100
AcDbEntity
  8
レイヤー_2
 62
     7
100
AcDbVertex
100
AcDb2dVertex
 10
130.079226
 20
177.318376
 30
0.0
  0
VERTEX
  5
342
100
AcDbEntity
  8
レイヤー_2
 62
     7
100
AcDbVertex
100
AcDb2dVertex
 10
130.079226
 20
177.328883
 30
0.0
  0
SEQEND
  5
343
100
AcDbEntity
  8
レイヤー_2
 62
     7
  0
POLYLINE
  5
31E
100
AcDbEntity
  8
レイヤー_2
 62
     7
100
AcDb2dPolyline
 66
     1
 10
0.0
 20
0.0
 30
0.0
  0
VERTEX
  5
31F
100
AcDbEntity
  8
レイヤー_2
 62
     7
100
AcDbVertex
100
AcDb2dVertex
 10
130.079226
 20
175.453718
 30
0.0
  0
VERTEX
  5
320
100
AcDbEntity
  8
レイヤー_2
 62
     7
100
AcDbVertex
100
AcDb2dVertex
 10
130.079226
 20
175.464053
 30
0.0
  0
VERTEX
  5
321
100
AcDbEntity
  8
レイヤー_2
 62
     7
100
AcDbVertex
100
AcDb2dVertex
 10
130.078193
 20
175.465431
 30
0.0
  0
VERTEX
  5
322
100
AcDbEntity
  8
レイヤー_2
 62
     7
100
AcDbVertex
100
AcDb2dVertex
 10
130.078193
 20
175.456474
 30
0.0
  0
VERTEX
  5
323
100
AcDbEntity
  8
レイヤー_2
 62
     7
100
AcDbVertex
100
AcDb2dVertex
 10
130.076815
 20
175.439421
 30
0.0
  0
VERTEX
  5
324
100
AcDbEntity
  8
レイヤー_2
 62
     7
100
AcDbVertex
100
AcDb2dVertex
 10
130.076126
 20
175.416511
 30
0.0
  0
VERTEX
  5
325
100
AcDbEntity
  8
レイヤー_2
 62
     7
100
AcDbVertex
100
AcDb2dVertex
 10
130.076126
 20
175.391189
 30
0.0
  0
VERTEX
  5
326
100
AcDbEntity
  8
レイヤー_2
 62
     7
100
AcDbVertex
100
AcDb2dVertex
 10
130.074748
 20
175.366901
 30
0.0
  0
VERTEX
  5
327
100
AcDbEntity
  8
レイヤー_2
 62
     7
100
AcDbVertex
100
AcDb2dVertex
 10
130.074748
 20
175.34847
 30
0.0
  0
VERTEX
  5
328
100
AcDbEntity
  8
レイヤー_2
 62
     7
100
AcDbVertex
100
AcDb2dVertex
 10
130.074748
 20
175.338135
 30
0.0
  0
VERTEX
  5
329
100
AcDbEntity
  8
レイヤー_2
 62
     7
100
AcDbVertex
100
AcDb2dVertex
 10
130.076126
 20
175.336412
 30
0.0
  0
VERTEX
  5
32A
100
AcDbEntity
  8
レイヤー_2
 62
     7
100
AcDbVertex
100
AcDb2dVertex
 10
130.076126
 20
175.345369
 30
0.0
  0
VERTEX
  5
32B
100
AcDbEntity
  8
レイヤー_2
 62
     7
100
AcDbVertex
100
AcDb2dVertex
 10
130.076815
 20
175.363112
 30
0.0
  0
VERTEX
  5
32C
100
AcDbEntity
  8
レイヤー_2
 62
     7
100
AcDbVertex
100
AcDb2dVertex
 10
130.078193
 20
175.385505
 30
0.0
  0
VERTEX
  5
32D
100
AcDbEntity
  8
レイヤー_2
 62
     7
100
AcDbVertex
100
AcDb2dVertex
 10
130.078193
 20
175.411343
 30
0.0
  0
VERTEX
  5
32E
100
AcDbEntity
  8
レイヤー_2
 62
     7
100
AcDbVertex
100
AcDb2dVertex
 10
130.079226
 20
175.434253
 30
0.0
  0
VERTEX
  5
32F
100
AcDbEntity
  8
レイヤー_2
 62
     7
100
AcDbVertex
100
AcDb2dVertex
 10
130.079226
 20
175.453718
 30
0.0
  0
SEQEND
  5
330
100
AcDbEntity
  8
レイヤー_2
 62
     7
  0
POLYLINE
  5
30B
100
AcDbEntity
  8
レイヤー_2
 62
     7
100
AcDb2dPolyline
 66
     1
 10
0.0
 20
0.0
 30
0.0
  0
VERTEX
  5
30C
100
AcDbEntity
  8
レイヤー_2
 62
     7
100
AcDbVertex
100
AcDb2dVertex
 10
130.07337
 20
178.149333
 30
0.0
  0
VERTEX
  5
30D
100
AcDbEntity
  8
レイヤー_2
 62
     7
100
AcDbVertex
100
AcDb2dVertex
 10
130.07337
 20
178.153811
 30
0.0
  0
VERTEX
  5
30E
100
AcDbEntity
  8
レイヤー_2
 62
     7
100
AcDbVertex
100
AcDb2dVertex
 10
130.074748
 20
178.149333
 30
0.0
  0
VERTEX
  5
30F
100
AcDbEntity
  8
レイヤー_2
 62
     7
100
AcDbVertex
100
AcDb2dVertex
 10
130.076126
 20
178.134519
 30
0.0
  0
VERTEX
  5
310
100
AcDbEntity
  8
レイヤー_2
 62
     7
100
AcDbVertex
100
AcDb2dVertex
 10
130.076815
 20
178.114537
 30
0.0
  0
VERTEX
  5
311
100
AcDbEntity
  8
レイヤー_2
 62
     7
100
AcDbVertex
100
AcDb2dVertex
 10
130.078193
 20
178.088699
 30
0.0
  0
VERTEX
  5
312
100
AcDbEntity
  8
レイヤー_2
 62
     7
100
AcDbVertex
100
AcDb2dVertex
 10
130.079915
 20
178.064928
 30
0.0
  0
VERTEX
  5
313
100
AcDbEntity
  8
レイヤー_2
 62
     7
100
AcDbVertex
100
AcDb2dVertex
 10
130.080604
 20
178.042707
 30
0.0
  0
VERTEX
  5
314
100
AcDbEntity
  8
レイヤー_2
 62
     7
100
AcDbVertex
100
AcDb2dVertex
 10
130.080604
 20
178.029443
 30
0.0
  0
VERTEX
  5
315
100
AcDbEntity
  8
レイヤー_2
 62
     7
100
AcDbVertex
100
AcDb2dVertex
 10
130.080604
 20
178.024965
 30
0.0
  0
VERTEX
  5
316
100
AcDbEntity
  8
レイヤー_2
 62
     7
100
AcDbVertex
100
AcDb2dVertex
 10
130.079915
 20
178.029443
 30
0.0
  0
VERTEX
  5
317
100
AcDbEntity
  8
レイヤー_2
 62
     7
100
AcDbVertex
100
AcDb2dVertex
 10
130.078193
 20
178.042707
 30
0.0
  0
VERTEX
  5
318
100
AcDbEntity
  8
レイヤー_2
 62
     7
100
AcDbVertex
100
AcDb2dVertex
 10
130.076815
 20
178.064928
 30
0.0
  0
VERTEX
  5
319
100
AcDbEntity
  8
レイヤー_2
 62
     7
100
AcDbVertex
100
AcDb2dVertex
 10
130.076126
 20
178.088699
 30
0.0
  0
VERTEX
  5
31A
100
AcDbEntity
  8
レイヤー_2
 62
     7
100
AcDbVertex
100
AcDb2dVertex
 10
130.074748
 20
178.114537
 30
0.0
  0
VERTEX
  5
31B
100
AcDbEntity
  8
レイヤー_2
 62
     7
100
AcDbVertex
100
AcDb2dVertex
 10
130.07337
 20
178.134519
 30
0.0
  0
VERTEX
  5
31C
100
AcDbEntity
  8
レイヤー_2
 62
     7
100
AcDbVertex
100
AcDb2dVertex
 10
130.07337
 20
178.149333
 30
0.0
  0
SEQEND
  5
31D
100
AcDbEntity
  8
レイヤー_2
 62
     7
  0
POLYLINE
  5
2F8
100
AcDbEntity
  8
レイヤー_2
 62
     7
100
AcDb2dPolyline
 66
     1
 10
0.0
 20
0.0
 30
0.0
  0
VERTEX
  5
2F9
100
AcDbEntity
  8
レイヤー_2
 62
     7
100
AcDbVertex
100
AcDb2dVertex
 10
130.07337
 20
174.633096
 30
0.0
  0
VERTEX
  5
2FA
100
AcDbEntity
  8
レイヤー_2
 62
     7
100
AcDbVertex
100
AcDb2dVertex
 10
130.07337
 20
174.647738
 30
0.0
  0
VERTEX
  5
2FB
100
AcDbEntity
  8
レイヤー_2
 62
     7
100
AcDbVertex
100
AcDb2dVertex
 10
130.074748
 20
174.66858
 30
0.0
  0
VERTEX
  5
2FC
100
AcDbEntity
  8
レイヤー_2
 62
     7
100
AcDbVertex
100
AcDb2dVertex
 10
130.076126
 20
174.693557
 30
0.0
  0
VERTEX
  5
2FD
100
AcDbEntity
  8
レイヤー_2
 62
     7
100
AcDbVertex
100
AcDb2dVertex
 10
130.076815
 20
174.718018
 30
0.0
  0
VERTEX
  5
2FE
100
AcDbEntity
  8
レイヤー_2
 62
     7
100
AcDbVertex
100
AcDb2dVertex
 10
130.078193
 20
174.739722
 30
0.0
  0
VERTEX
  5
2FF
100
AcDbEntity
  8
レイヤー_2
 62
     7
100
AcDbVertex
100
AcDb2dVertex
 10
130.079915
 20
174.754363
 30
0.0
  0
VERTEX
  5
300
100
AcDbEntity
  8
レイヤー_2
 62
     7
100
AcDbVertex
100
AcDb2dVertex
 10
130.080604
 20
174.758842
 30
0.0
  0
VERTEX
  5
301
100
AcDbEntity
  8
レイヤー_2
 62
     7
100
AcDbVertex
100
AcDb2dVertex
 10
130.080604
 20
174.754363
 30
0.0
  0
VERTEX
  5
302
100
AcDbEntity
  8
レイヤー_2
 62
     7
100
AcDbVertex
100
AcDb2dVertex
 10
130.080604
 20
174.739722
 30
0.0
  0
VERTEX
  5
303
100
AcDbEntity
  8
レイヤー_2
 62
     7
100
AcDbVertex
100
AcDb2dVertex
 10
130.079915
 20
174.718018
 30
0.0
  0
VERTEX
  5
304
100
AcDbEntity
  8
レイヤー_2
 62
     7
100
AcDbVertex
100
AcDb2dVertex
 10
130.078193
 20
174.693557
 30
0.0
  0
VERTEX
  5
305
100
AcDbEntity
  8
レイヤー_2
 62
     7
100
AcDbVertex
100
AcDb2dVertex
 10
130.076815
 20
174.66858
 30
0.0
  0
VERTEX
  5
306
100
AcDbEntity
  8
レイヤー_2
 62
     7
100
AcDbVertex
100
AcDb2dVertex
 10
130.076126
 20
174.647738
 30
0.0
  0
VERTEX
  5
307
100
AcDbEntity
  8
レイヤー_2
 62
     7
100
AcDbVertex
100
AcDb2dVertex
 10
130.074748
 20
174.633096
 30
0.0
  0
VERTEX
  5
308
100
AcDbEntity
  8
レイヤー_2
 62
     7
100
AcDbVertex
100
AcDb2dVertex
 10
130.07337
 20
174.628445
 30
0.0
  0
VERTEX
  5
309
100
AcDbEntity
  8
レイヤー_2
 62
     7
100
AcDbVertex
100
AcDb2dVertex
 10
130.07337
 20
174.633096
 30
0.0
  0
SEQEND
  5
30A
100
AcDbEntity
  8
レイヤー_2
 62
     7
  0
LINE
  5
2F7
100
AcDbEntity
  8
レイヤー_2
 62
     7
100
AcDbLine
 10
130.078193
 20
176.664497
 30
0.0
 11
130.078193
 21
176.70222
 31
0.0
  0
POLYLINE
  5
2EE
100
AcDbEntity
  8
レイヤー_2
 62
     7
100
AcDb2dPolyline
 66
     1
 10
0.0
 20
0.0
 30
0.0
  0
VERTEX
  5
2EF
100
AcDbEntity
  8
レイヤー_2
 62
     7
100
AcDbVertex
100
AcDb2dVertex
 10
130.076126
 20
176.67776
 30
0.0
  0
VERTEX
  5
2F0
100
AcDbEntity
  8
レイヤー_2
 62
     7
100
AcDbVertex
100
AcDb2dVertex
 10
130.076815
 20
176.657779
 30
0.0
  0
VERTEX
  5
2F1
100
AcDbEntity
  8
レイヤー_2
 62
     7
100
AcDbVertex
100
AcDb2dVertex
 10
130.076815
 20
176.640725
 30
0.0
  0
VERTEX
  5
2F2
100
AcDbEntity
  8
レイヤー_2
 62
     7
100
AcDbVertex
100
AcDb2dVertex
 10
130.077504
 20
176.633318
 30
0.0
  0
VERTEX
  5
2F3
100
AcDbEntity
  8
レイヤー_2
 62
     7
100
AcDbVertex
100
AcDb2dVertex
 10
130.078193
 20
176.634007
 30
0.0
  0
VERTEX
  5
2F4
100
AcDbEntity
  8
レイヤー_2
 62
     7
100
AcDbVertex
100
AcDb2dVertex
 10
130.078193
 20
176.645204
 30
0.0
  0
VERTEX
  5
2F5
100
AcDbEntity
  8
レイヤー_2
 62
     7
100
AcDbVertex
100
AcDb2dVertex
 10
130.078193
 20
176.664497
 30
0.0
  0
SEQEND
  5
2F6
100
AcDbEntity
  8
レイヤー_2
 62
     7
  0
POLYLINE
  5
2E5
100
AcDbEntity
  8
レイヤー_2
 62
     7
100
AcDb2dPolyline
 66
     1
 10
0.0
 20
0.0
 30
0.0
  0
VERTEX
  5
2E6
100
AcDbEntity
  8
レイヤー_2
 62
     7
100
AcDbVertex
100
AcDb2dVertex
 10
130.078193
 20
176.118621
 30
0.0
  0
VERTEX
  5
2E7
100
AcDbEntity
  8
レイヤー_2
 62
     7
100
AcDbVertex
100
AcDb2dVertex
 10
130.078193
 20
176.137914
 30
0.0
  0
VERTEX
  5
2E8
100
AcDbEntity
  8
レイヤー_2
 62
     7
100
AcDbVertex
100
AcDb2dVertex
 10
130.078193
 20
176.148249
 30
0.0
  0
VERTEX
  5
2E9
100
AcDbEntity
  8
レイヤー_2
 62
     7
100
AcDbVertex
100
AcDb2dVertex
 10
130.077504
 20
176.149627
 30
0.0
  0
VERTEX
  5
2EA
100
AcDbEntity
  8
レイヤー_2
 62
     7
100
AcDbVertex
100
AcDb2dVertex
 10
130.076815
 20
176.142392
 30
0.0
  0
VERTEX
  5
2EB
100
AcDbEntity
  8
レイヤー_2
 62
     7
100
AcDbVertex
100
AcDb2dVertex
 10
130.076815
 20
176.125339
 30
0.0
  0
VERTEX
  5
2EC
100
AcDbEntity
  8
レイヤー_2
 62
     7
100
AcDbVertex
100
AcDb2dVertex
 10
130.076126
 20
176.105185
 30
0.0
  0
SEQEND
  5
2ED
100
AcDbEntity
  8
レイヤー_2
 62
     7
  0
LINE
  5
2E4
100
AcDbEntity
  8
レイヤー_2
 62
     7
100
AcDbLine
 10
130.078193
 20
176.080897
 30
0.0
 11
130.078193
 21
176.118621
 31
0.0
  0
LINE
  5
2E3
100
AcDbEntity
  8
レイヤー_2
 62
     7
100
AcDbLine
 10
130.080604
 20
178.164147
 30
0.0
 11
130.07337
 21
178.294543
 31
0.0
  0
LINE
  5
2E2
100
AcDbEntity
  8
レイヤー_2
 62
     7
100
AcDbLine
 10
130.07337
 20
174.489263
 30
0.0
 11
130.080604
 21
174.61966
 31
0.0
  0
LINE
  5
2E1
100
AcDbEntity
  8
レイヤー_2
 62
     7
100
AcDbLine
 10
129.953136
 20
178.924824
 30
0.0
 11
129.953136
 21
173.858294
 31
0.0
  0
LINE
  5
2E0
100
AcDbEntity
  8
レイヤー_2
 62
     7
100
AcDbLine
 10
128.701533
 20
173.858294
 30
0.0
 11
128.701533
 21
178.924824
 31
0.0
  0
LINE
  5
2DF
100
AcDbEntity
  8
レイヤー_2
 62
     7
100
AcDbLine
 10
129.983108
 20
173.887922
 30
0.0
 11
129.983108
 21
178.895885
 31
0.0
  0
POLYLINE
  5
2D8
100
AcDbEntity
  8
レイヤー_2
 62
     7
100
AcDb2dPolyline
 66
     1
 10
0.0
 20
0.0
 30
0.0
  0
VERTEX
  5
2D9
100
AcDbEntity
  8
レイヤー_2
 62
     7
100
AcDbVertex
100
AcDb2dVertex
 10
129.99241
 20
174.505627
 30
0.0
  0
VERTEX
  5
2DA
100
AcDbEntity
  8
レイヤー_2
 62
     7
100
AcDbVertex
100
AcDb2dVertex
 10
129.991721
 20
174.480306
 30
0.0
  0
VERTEX
  5
2DB
100
AcDbEntity
  8
レイヤー_2
 62
     7
100
AcDbVertex
100
AcDb2dVertex
 10
129.990343
 20
174.40348
 30
0.0
  0
VERTEX
  5
2DC
100
AcDbEntity
  8
レイヤー_2
 62
     7
100
AcDbVertex
100
AcDb2dVertex
 10
129.990343
 20
174.35301
 30
0.0
  0
VERTEX
  5
2DD
100
AcDbEntity
  8
レイヤー_2
 62
     7
100
AcDbVertex
100
AcDb2dVertex
 10
129.990343
 20
174.335267
 30
0.0
  0
SEQEND
  5
2DE
100
AcDbEntity
  8
レイヤー_2
 62
     7
  0
POLYLINE
  5
2CD
100
AcDbEntity
  8
レイヤー_2
 62
     7
100
AcDb2dPolyline
 66
     1
 10
0.0
 20
0.0
 30
0.0
  0
VERTEX
  5
2CE
100
AcDbEntity
  8
レイヤー_2
 62
     7
100
AcDbVertex
100
AcDb2dVertex
 10
129.994477
 20
174.904053
 30
0.0
  0
VERTEX
  5
2CF
100
AcDbEntity
  8
レイヤー_2
 62
     7
100
AcDbVertex
100
AcDb2dVertex
 10
129.993788
 20
174.869946
 30
0.0
  0
VERTEX
  5
2D0
100
AcDbEntity
  8
レイヤー_2
 62
     7
100
AcDbVertex
100
AcDb2dVertex
 10
129.99241
 20
174.794499
 30
0.0
  0
VERTEX
  5
2D1
100
AcDbEntity
  8
レイヤー_2
 62
     7
100
AcDbVertex
100
AcDb2dVertex
 10
129.991721
 20
174.705615
 30
0.0
  0
VERTEX
  5
2D2
100
AcDbEntity
  8
レイヤー_2
 62
     7
100
AcDbVertex
100
AcDb2dVertex
 10
129.990343
 20
174.616732
 30
0.0
  0
VERTEX
  5
2D3
100
AcDbEntity
  8
レイヤー_2
 62
     7
100
AcDbVertex
100
AcDb2dVertex
 10
129.990343
 20
174.541801
 30
0.0
  0
VERTEX
  5
2D4
100
AcDbEntity
  8
レイヤー_2
 62
     7
100
AcDbVertex
100
AcDb2dVertex
 10
129.990343
 20
174.474449
 30
0.0
  0
VERTEX
  5
2D5
100
AcDbEntity
  8
レイヤー_2
 62
     7
100
AcDbVertex
100
AcDb2dVertex
 10
129.990343
 20
174.492364
 30
0.0
  0
VERTEX
  5
2D6
100
AcDbEntity
  8
レイヤー_2
 62
     7
100
AcDbVertex
100
AcDb2dVertex
 10
129.991721
 20
174.505627
 30
0.0
  0
SEQEND
  5
2D7
100
AcDbEntity
  8
レイヤー_2
 62
     7
  0
POLYLINE
  5
2BF
100
AcDbEntity
  8
レイヤー_2
 62
     7
100
AcDb2dPolyline
 66
     1
 10
0.0
 20
0.0
 30
0.0
  0
VERTEX
  5
2C0
100
AcDbEntity
  8
レイヤー_2
 62
     7
100
AcDbVertex
100
AcDb2dVertex
 10
129.995166
 20
175.287664
 30
0.0
  0
VERTEX
  5
2C1
100
AcDbEntity
  8
レイヤー_2
 62
     7
100
AcDbVertex
100
AcDb2dVertex
 10
129.995166
 20
175.315053
 30
0.0
  0
VERTEX
  5
2C2
100
AcDbEntity
  8
レイヤー_2
 62
     7
100
AcDbVertex
100
AcDb2dVertex
 10
129.994477
 20
175.333656
 30
0.0
  0
VERTEX
  5
2C3
100
AcDbEntity
  8
レイヤー_2
 62
     7
100
AcDbVertex
100
AcDb2dVertex
 10
129.993788
 20
175.315053
 30
0.0
  0
VERTEX
  5
2C4
100
AcDbEntity
  8
レイヤー_2
 62
     7
100
AcDbVertex
100
AcDb2dVertex
 10
129.99241
 20
175.265443
 30
0.0
  0
VERTEX
  5
2C5
100
AcDbEntity
  8
レイヤー_2
 62
     7
100
AcDbVertex
100
AcDb2dVertex
 10
129.991721
 20
175.191374
 30
0.0
  0
VERTEX
  5
2C6
100
AcDbEntity
  8
レイヤー_2
 62
     7
100
AcDbVertex
100
AcDb2dVertex
 10
129.990343
 20
175.101112
 30
0.0
  0
VERTEX
  5
2C7
100
AcDbEntity
  8
レイヤー_2
 62
     7
100
AcDbVertex
100
AcDb2dVertex
 10
129.990343
 20
175.012229
 30
0.0
  0
VERTEX
  5
2C8
100
AcDbEntity
  8
レイヤー_2
 62
     7
100
AcDbVertex
100
AcDb2dVertex
 10
129.990343
 20
174.887172
 30
0.0
  0
VERTEX
  5
2C9
100
AcDbEntity
  8
レイヤー_2
 62
     7
100
AcDbVertex
100
AcDb2dVertex
 10
129.990343
 20
174.869946
 30
0.0
  0
VERTEX
  5
2CA
100
AcDbEntity
  8
レイヤー_2
 62
     7
100
AcDbVertex
100
AcDb2dVertex
 10
129.991721
 20
174.887861
 30
0.0
  0
VERTEX
  5
2CB
100
AcDbEntity
  8
レイヤー_2
 62
     7
100
AcDbVertex
100
AcDb2dVertex
 10
129.99241
 20
174.902502
 30
0.0
  0
SEQEND
  5
2CC
100
AcDbEntity
  8
レイヤー_2
 62
     7
  0
POLYLINE
  5
2B1
100
AcDbEntity
  8
レイヤー_2
 62
     7
100
AcDb2dPolyline
 66
     1
 10
0.0
 20
0.0
 30
0.0
  0
VERTEX
  5
2B2
100
AcDbEntity
  8
レイヤー_2
 62
     7
100
AcDbVertex
100
AcDb2dVertex
 10
129.994477
 20
175.883149
 30
0.0
  0
VERTEX
  5
2B3
100
AcDbEntity
  8
レイヤー_2
 62
     7
100
AcDbVertex
100
AcDb2dVertex
 10
129.994477
 20
175.907609
 30
0.0
  0
VERTEX
  5
2B4
100
AcDbEntity
  8
レイヤー_2
 62
     7
100
AcDbVertex
100
AcDb2dVertex
 10
129.993788
 20
175.925351
 30
0.0
  0
VERTEX
  5
2B5
100
AcDbEntity
  8
レイヤー_2
 62
     7
100
AcDbVertex
100
AcDb2dVertex
 10
129.99241
 20
175.90692
 30
0.0
  0
VERTEX
  5
2B6
100
AcDbEntity
  8
レイヤー_2
 62
     7
100
AcDbVertex
100
AcDb2dVertex
 10
129.991721
 20
175.856449
 30
0.0
  0
VERTEX
  5
2B7
100
AcDbEntity
  8
レイヤー_2
 62
     7
100
AcDbVertex
100
AcDb2dVertex
 10
129.990343
 20
175.78238
 30
0.0
  0
VERTEX
  5
2B8
100
AcDbEntity
  8
レイヤー_2
 62
     7
100
AcDbVertex
100
AcDb2dVertex
 10
129.990343
 20
175.692807
 30
0.0
  0
VERTEX
  5
2B9
100
AcDbEntity
  8
レイヤー_2
 62
     7
100
AcDbVertex
100
AcDb2dVertex
 10
129.990343
 20
175.529165
 30
0.0
  0
VERTEX
  5
2BA
100
AcDbEntity
  8
レイヤー_2
 62
     7
100
AcDbVertex
100
AcDb2dVertex
 10
129.990343
 20
175.478695
 30
0.0
  0
VERTEX
  5
2BB
100
AcDbEntity
  8
レイヤー_2
 62
     7
100
AcDbVertex
100
AcDb2dVertex
 10
129.991721
 20
175.462503
 30
0.0
  0
VERTEX
  5
2BC
100
AcDbEntity
  8
レイヤー_2
 62
     7
100
AcDbVertex
100
AcDb2dVertex
 10
129.99241
 20
175.480245
 30
0.0
  0
VERTEX
  5
2BD
100
AcDbEntity
  8
レイヤー_2
 62
     7
100
AcDbVertex
100
AcDb2dVertex
 10
129.993099
 20
175.497987
 30
0.0
  0
SEQEND
  5
2BE
100
AcDbEntity
  8
レイヤー_2
 62
     7
  0
POLYLINE
  5
2A3
100
AcDbEntity
  8
レイヤー_2
 62
     7
100
AcDb2dPolyline
 66
     1
 10
0.0
 20
0.0
 30
0.0
  0
VERTEX
  5
2A4
100
AcDbEntity
  8
レイヤー_2
 62
     7
100
AcDbVertex
100
AcDb2dVertex
 10
129.994477
 20
176.57923
 30
0.0
  0
VERTEX
  5
2A5
100
AcDbEntity
  8
レイヤー_2
 62
     7
100
AcDbVertex
100
AcDb2dVertex
 10
129.993788
 20
176.604552
 30
0.0
  0
VERTEX
  5
2A6
100
AcDbEntity
  8
レイヤー_2
 62
     7
100
AcDbVertex
100
AcDb2dVertex
 10
129.99241
 20
176.622294
 30
0.0
  0
VERTEX
  5
2A7
100
AcDbEntity
  8
レイヤー_2
 62
     7
100
AcDbVertex
100
AcDb2dVertex
 10
129.991721
 20
176.60593
 30
0.0
  0
VERTEX
  5
2A8
100
AcDbEntity
  8
レイヤー_2
 62
     7
100
AcDbVertex
100
AcDb2dVertex
 10
129.990343
 20
176.555459
 30
0.0
  0
VERTEX
  5
2A9
100
AcDbEntity
  8
レイヤー_2
 62
     7
100
AcDbVertex
100
AcDb2dVertex
 10
129.990343
 20
176.480012
 30
0.0
  0
VERTEX
  5
2AA
100
AcDbEntity
  8
レイヤー_2
 62
     7
100
AcDbVertex
100
AcDb2dVertex
 10
129.990343
 20
176.302417
 30
0.0
  0
VERTEX
  5
2AB
100
AcDbEntity
  8
レイヤー_2
 62
     7
100
AcDbVertex
100
AcDb2dVertex
 10
129.990343
 20
176.226797
 30
0.0
  0
VERTEX
  5
2AC
100
AcDbEntity
  8
レイヤー_2
 62
     7
100
AcDbVertex
100
AcDb2dVertex
 10
129.991721
 20
176.176326
 30
0.0
  0
VERTEX
  5
2AD
100
AcDbEntity
  8
レイヤー_2
 62
     7
100
AcDbVertex
100
AcDb2dVertex
 10
129.99241
 20
176.160135
 30
0.0
  0
VERTEX
  5
2AE
100
AcDbEntity
  8
レイヤー_2
 62
     7
100
AcDbVertex
100
AcDb2dVertex
 10
129.993788
 20
176.177877
 30
0.0
  0
VERTEX
  5
2AF
100
AcDbEntity
  8
レイヤー_2
 62
     7
100
AcDbVertex
100
AcDb2dVertex
 10
129.994477
 20
176.198547
 30
0.0
  0
SEQEND
  5
2B0
100
AcDbEntity
  8
レイヤー_2
 62
     7
  0
POLYLINE
  5
295
100
AcDbEntity
  8
レイヤー_2
 62
     7
100
AcDb2dPolyline
 66
     1
 10
0.0
 20
0.0
 30
0.0
  0
VERTEX
  5
296
100
AcDbEntity
  8
レイヤー_2
 62
     7
100
AcDbVertex
100
AcDb2dVertex
 10
129.993099
 20
177.285819
 30
0.0
  0
VERTEX
  5
297
100
AcDbEntity
  8
レイヤー_2
 62
     7
100
AcDbVertex
100
AcDb2dVertex
 10
129.99241
 20
177.303562
 30
0.0
  0
VERTEX
  5
298
100
AcDbEntity
  8
レイヤー_2
 62
     7
100
AcDbVertex
100
AcDb2dVertex
 10
129.991721
 20
177.320615
 30
0.0
  0
VERTEX
  5
299
100
AcDbEntity
  8
レイヤー_2
 62
     7
100
AcDbVertex
100
AcDb2dVertex
 10
129.990343
 20
177.303562
 30
0.0
  0
VERTEX
  5
29A
100
AcDbEntity
  8
レイヤー_2
 62
     7
100
AcDbVertex
100
AcDb2dVertex
 10
129.990343
 20
177.253263
 30
0.0
  0
VERTEX
  5
29B
100
AcDbEntity
  8
レイヤー_2
 62
     7
100
AcDbVertex
100
AcDb2dVertex
 10
129.990343
 20
177.088932
 30
0.0
  0
VERTEX
  5
29C
100
AcDbEntity
  8
レイヤー_2
 62
     7
100
AcDbVertex
100
AcDb2dVertex
 10
129.990343
 20
177.000049
 30
0.0
  0
VERTEX
  5
29D
100
AcDbEntity
  8
レイヤー_2
 62
     7
100
AcDbVertex
100
AcDb2dVertex
 10
129.991721
 20
176.925807
 30
0.0
  0
VERTEX
  5
29E
100
AcDbEntity
  8
レイヤー_2
 62
     7
100
AcDbVertex
100
AcDb2dVertex
 10
129.99241
 20
176.875681
 30
0.0
  0
VERTEX
  5
29F
100
AcDbEntity
  8
レイヤー_2
 62
     7
100
AcDbVertex
100
AcDb2dVertex
 10
129.993788
 20
176.858628
 30
0.0
  0
VERTEX
  5
2A0
100
AcDbEntity
  8
レイヤー_2
 62
     7
100
AcDbVertex
100
AcDb2dVertex
 10
129.994477
 20
176.875681
 30
0.0
  0
VERTEX
  5
2A1
100
AcDbEntity
  8
レイヤー_2
 62
     7
100
AcDbVertex
100
AcDb2dVertex
 10
129.994477
 20
176.887394
 30
0.0
  0
SEQEND
  5
2A2
100
AcDbEntity
  8
レイヤー_2
 62
     7
  0
POLYLINE
  5
287
100
AcDbEntity
  8
レイヤー_2
 62
     7
100
AcDb2dPolyline
 66
     1
 10
0.0
 20
0.0
 30
0.0
  0
VERTEX
  5
288
100
AcDbEntity
  8
レイヤー_2
 62
     7
100
AcDbVertex
100
AcDb2dVertex
 10
129.99241
 20
177.880443
 30
0.0
  0
VERTEX
  5
289
100
AcDbEntity
  8
レイヤー_2
 62
     7
100
AcDbVertex
100
AcDb2dVertex
 10
129.991721
 20
177.896118
 30
0.0
  0
VERTEX
  5
28A
100
AcDbEntity
  8
レイヤー_2
 62
     7
100
AcDbVertex
100
AcDb2dVertex
 10
129.990343
 20
177.91231
 30
0.0
  0
VERTEX
  5
28B
100
AcDbEntity
  8
レイヤー_2
 62
     7
100
AcDbVertex
100
AcDb2dVertex
 10
129.990343
 20
177.896118
 30
0.0
  0
VERTEX
  5
28C
100
AcDbEntity
  8
レイヤー_2
 62
     7
100
AcDbVertex
100
AcDb2dVertex
 10
129.990343
 20
177.7702
 30
0.0
  0
VERTEX
  5
28D
100
AcDbEntity
  8
レイヤー_2
 62
     7
100
AcDbVertex
100
AcDb2dVertex
 10
129.990343
 20
177.681316
 30
0.0
  0
VERTEX
  5
28E
100
AcDbEntity
  8
レイヤー_2
 62
     7
100
AcDbVertex
100
AcDb2dVertex
 10
129.991721
 20
177.591055
 30
0.0
  0
VERTEX
  5
28F
100
AcDbEntity
  8
レイヤー_2
 62
     7
100
AcDbVertex
100
AcDb2dVertex
 10
129.99241
 20
177.516813
 30
0.0
  0
VERTEX
  5
290
100
AcDbEntity
  8
レイヤー_2
 62
     7
100
AcDbVertex
100
AcDb2dVertex
 10
129.993788
 20
177.468065
 30
0.0
  0
VERTEX
  5
291
100
AcDbEntity
  8
レイヤー_2
 62
     7
100
AcDbVertex
100
AcDb2dVertex
 10
129.994477
 20
177.450323
 30
0.0
  0
VERTEX
  5
292
100
AcDbEntity
  8
レイヤー_2
 62
     7
100
AcDbVertex
100
AcDb2dVertex
 10
129.995166
 20
177.468065
 30
0.0
  0
VERTEX
  5
293
100
AcDbEntity
  8
レイヤー_2
 62
     7
100
AcDbVertex
100
AcDb2dVertex
 10
129.995166
 20
177.516813
 30
0.0
  0
SEQEND
  5
294
100
AcDbEntity
  8
レイヤー_2
 62
     7
  0
POLYLINE
  5
27C
100
AcDbEntity
  8
レイヤー_2
 62
     7
100
AcDb2dPolyline
 66
     1
 10
0.0
 20
0.0
 30
0.0
  0
VERTEX
  5
27D
100
AcDbEntity
  8
レイヤー_2
 62
     7
100
AcDbVertex
100
AcDb2dVertex
 10
129.991721
 20
178.276801
 30
0.0
  0
VERTEX
  5
27E
100
AcDbEntity
  8
レイヤー_2
 62
     7
100
AcDbVertex
100
AcDb2dVertex
 10
129.990343
 20
178.290065
 30
0.0
  0
VERTEX
  5
27F
100
AcDbEntity
  8
レイヤー_2
 62
     7
100
AcDbVertex
100
AcDb2dVertex
 10
129.990343
 20
178.307979
 30
0.0
  0
VERTEX
  5
280
100
AcDbEntity
  8
レイヤー_2
 62
     7
100
AcDbVertex
100
AcDb2dVertex
 10
129.990343
 20
178.241144
 30
0.0
  0
VERTEX
  5
281
100
AcDbEntity
  8
レイヤー_2
 62
     7
100
AcDbVertex
100
AcDb2dVertex
 10
129.990343
 20
178.165697
 30
0.0
  0
VERTEX
  5
282
100
AcDbEntity
  8
レイヤー_2
 62
     7
100
AcDbVertex
100
AcDb2dVertex
 10
129.991721
 20
178.076813
 30
0.0
  0
VERTEX
  5
283
100
AcDbEntity
  8
レイヤー_2
 62
     7
100
AcDbVertex
100
AcDb2dVertex
 10
129.99241
 20
177.987758
 30
0.0
  0
VERTEX
  5
284
100
AcDbEntity
  8
レイヤー_2
 62
     7
100
AcDbVertex
100
AcDb2dVertex
 10
129.993788
 20
177.91386
 30
0.0
  0
VERTEX
  5
285
100
AcDbEntity
  8
レイヤー_2
 62
     7
100
AcDbVertex
100
AcDb2dVertex
 10
129.994477
 20
177.880443
 30
0.0
  0
SEQEND
  5
286
100
AcDbEntity
  8
レイヤー_2
 62
     7
  0
POLYLINE
  5
275
100
AcDbEntity
  8
レイヤー_2
 62
     7
100
AcDb2dPolyline
 66
     1
 10
0.0
 20
0.0
 30
0.0
  0
VERTEX
  5
276
100
AcDbEntity
  8
レイヤー_2
 62
     7
100
AcDbVertex
100
AcDb2dVertex
 10
129.990343
 20
178.446989
 30
0.0
  0
VERTEX
  5
277
100
AcDbEntity
  8
レイヤー_2
 62
     7
100
AcDbVertex
100
AcDb2dVertex
 10
129.990343
 20
178.430108
 30
0.0
  0
VERTEX
  5
278
100
AcDbEntity
  8
レイヤー_2
 62
     7
100
AcDbVertex
100
AcDb2dVertex
 10
129.990343
 20
178.37981
 30
0.0
  0
VERTEX
  5
279
100
AcDbEntity
  8
レイヤー_2
 62
     7
100
AcDbVertex
100
AcDb2dVertex
 10
129.991721
 20
178.303328
 30
0.0
  0
VERTEX
  5
27A
100
AcDbEntity
  8
レイヤー_2
 62
     7
100
AcDbVertex
100
AcDb2dVertex
 10
129.99241
 20
178.276801
 30
0.0
  0
SEQEND
  5
27B
100
AcDbEntity
  8
レイヤー_2
 62
     7
  0
LINE
  5
274
100
AcDbEntity
  8
レイヤー_2
 62
     7
100
AcDbLine
 10
129.997922
 20
175.278879
 30
0.0
 11
129.9993
 21
175.497987
 31
0.0
  0
LINE
  5
273
100
AcDbEntity
  8
レイヤー_2
 62
     7
100
AcDbLine
 10
129.997922
 20
175.894173
 30
0.0
 11
129.9993
 21
176.199409
 31
0.0
  0
LINE
  5
272
100
AcDbEntity
  8
レイヤー_2
 62
     7
100
AcDbLine
 10
129.9993
 20
176.583881
 30
0.0
 11
129.997922
 21
176.891701
 31
0.0
  0
LINE
  5
271
100
AcDbEntity
  8
レイヤー_2
 62
     7
100
AcDbLine
 10
129.9993
 20
177.285819
 30
0.0
 11
129.997922
 21
177.495454
 31
0.0
  0
LINE
  5
270
100
AcDbEntity
  8
レイヤー_2
 62
     7
100
AcDbLine
 10
126.929376
 20
157.212282
 30
0.0
 11
127.688675
 21
157.212282
 31
0.0
  0
LINE
  5
26F
100
AcDbEntity
  8
レイヤー_2
 62
     7
100
AcDbLine
 10
123.924908
 20
157.212282
 30
0.0
 11
126.929376
 21
157.212282
 31
0.0
  0
LINE
  5
26E
100
AcDbEntity
  8
レイヤー_2
 62
     7
100
AcDbLine
 10
128.701533
 20
178.924824
 30
0.0
 11
128.701533
 21
173.858294
 31
0.0
  0
LINE
  5
26D
100
AcDbEntity
  8
レイヤー_2
 62
     7
100
AcDbLine
 10
122.91205
 20
178.924824
 30
0.0
 11
122.91205
 21
173.858294
 31
0.0
  0
LINE
  5
26C
100
AcDbEntity
  8
レイヤー_2
 62
     7
100
AcDbLine
 10
127.688675
 20
172.845091
 30
0.0
 11
123.924908
 21
172.845091
 31
0.0
  0
LINE
  5
26B
100
AcDbEntity
  8
レイヤー_2
 62
     7
100
AcDbLine
 10
124.874376
 20
172.845091
 30
0.0
 11
123.924908
 21
172.845091
 31
0.0
  0
LINE
  5
26A
100
AcDbEntity
  8
レイヤー_2
 62
     7
100
AcDbLine
 10
127.688675
 20
172.845091
 30
0.0
 11
124.874376
 21
172.845091
 31
0.0
  0
LINE
  5
269
100
AcDbEntity
  8
レイヤー_2
 62
     7
100
AcDbLine
 10
124.874376
 20
157.212282
 30
0.0
 11
123.924908
 21
157.212282
 31
0.0
  0
LINE
  5
268
100
AcDbEntity
  8
レイヤー_2
 62
     7
100
AcDbLine
 10
127.688675
 20
157.212282
 30
0.0
 11
124.874376
 21
157.212282
 31
0.0
  0
LINE
  5
267
100
AcDbEntity
  8
レイヤー_2
 62
     7
100
AcDbLine
 10
122.187202
 20
156.83556
 30
0.0
 11
125.806619
 21
156.83556
 31
0.0
  0
LINE
  5
266
100
AcDbEntity
  8
レイヤー_2
 62
     7
100
AcDbLine
 10
125.806619
 20
155.388448
 30
0.0
 11
129.425692
 21
155.388448
 31
0.0
  0
LINE
  5
265
100
AcDbEntity
  8
レイヤー_2
 62
     7
100
AcDbLine
 10
122.187202
 20
155.388448
 30
0.0
 11
125.806619
 21
155.388448
 31
0.0
  0
POLYLINE
  5
253
100
AcDbEntity
  8
レイヤー_2
 62
     7
100
AcDb2dPolyline
 66
     1
 10
0.0
 20
0.0
 30
0.0
  0
VERTEX
  5
254
100
AcDbEntity
  8
レイヤー_2
 62
     7
100
AcDbVertex
100
AcDb2dVertex
 10
130.080604
 20
176.391128
 30
0.0
  0
VERTEX
  5
255
100
AcDbEntity
  8
レイヤー_2
 62
     7
100
AcDbVertex
100
AcDb2dVertex
 10
130.080604
 20
176.329806
 30
0.0
  0
VERTEX
  5
256
100
AcDbEntity
  8
レイヤー_2
 62
     7
100
AcDbVertex
100
AcDb2dVertex
 10
130.078193
 20
176.276407
 30
0.0
  0
VERTEX
  5
257
100
AcDbEntity
  8
レイヤー_2
 62
     7
100
AcDbVertex
100
AcDb2dVertex
 10
130.074748
 20
176.241611
 30
0.0
  0
VERTEX
  5
258
100
AcDbEntity
  8
レイヤー_2
 62
     7
100
AcDbVertex
100
AcDb2dVertex
 10
130.071647
 20
176.228864
 30
0.0
  0
VERTEX
  5
259
100
AcDbEntity
  8
レイヤー_2
 62
     7
100
AcDbVertex
100
AcDb2dVertex
 10
130.068891
 20
176.241611
 30
0.0
  0
VERTEX
  5
25A
100
AcDbEntity
  8
レイヤー_2
 62
     7
100
AcDbVertex
100
AcDb2dVertex
 10
130.06579
 20
176.276407
 30
0.0
  0
VERTEX
  5
25B
100
AcDbEntity
  8
レイヤー_2
 62
     7
100
AcDbVertex
100
AcDb2dVertex
 10
130.063379
 20
176.329806
 30
0.0
  0
VERTEX
  5
25C
100
AcDbEntity
  8
レイヤー_2
 62
     7
100
AcDbVertex
100
AcDb2dVertex
 10
130.063379
 20
176.391128
 30
0.0
  0
VERTEX
  5
25D
100
AcDbEntity
  8
レイヤー_2
 62
     7
100
AcDbVertex
100
AcDb2dVertex
 10
130.063379
 20
176.453484
 30
0.0
  0
VERTEX
  5
25E
100
AcDbEntity
  8
レイヤー_2
 62
     7
100
AcDbVertex
100
AcDb2dVertex
 10
130.06579
 20
176.506711
 30
0.0
  0
VERTEX
  5
25F
100
AcDbEntity
  8
レイヤー_2
 62
     7
100
AcDbVertex
100
AcDb2dVertex
 10
130.068891
 20
176.541507
 30
0.0
  0
VERTEX
  5
260
100
AcDbEntity
  8
レイヤー_2
 62
     7
100
AcDbVertex
100
AcDb2dVertex
 10
130.071647
 20
176.553392
 30
0.0
  0
VERTEX
  5
261
100
AcDbEntity
  8
レイヤー_2
 62
     7
100
AcDbVertex
100
AcDb2dVertex
 10
130.074748
 20
176.541507
 30
0.0
  0
VERTEX
  5
262
100
AcDbEntity
  8
レイヤー_2
 62
     7
100
AcDbVertex
100
AcDb2dVertex
 10
130.078193
 20
176.506711
 30
0.0
  0
VERTEX
  5
263
100
AcDbEntity
  8
レイヤー_2
 62
     7
100
AcDbVertex
100
AcDb2dVertex
 10
130.078193
 20
176.495687
 30
0.0
  0
SEQEND
  5
264
100
AcDbEntity
  8
レイヤー_2
 62
     7
  0
POLYLINE
  5
241
100
AcDbEntity
  8
レイヤー_2
 62
     7
100
AcDb2dPolyline
 66
     1
 10
0.0
 20
0.0
 30
0.0
  0
VERTEX
  5
242
100
AcDbEntity
  8
レイヤー_2
 62
     7
100
AcDbVertex
100
AcDb2dVertex
 10
130.078193
 20
175.627523
 30
0.0
  0
VERTEX
  5
243
100
AcDbEntity
  8
レイヤー_2
 62
     7
100
AcDbVertex
100
AcDb2dVertex
 10
130.078193
 20
175.626145
 30
0.0
  0
VERTEX
  5
244
100
AcDbEntity
  8
レイヤー_2
 62
     7
100
AcDbVertex
100
AcDb2dVertex
 10
130.074748
 20
175.573435
 30
0.0
  0
VERTEX
  5
245
100
AcDbEntity
  8
レイヤー_2
 62
     7
100
AcDbVertex
100
AcDb2dVertex
 10
130.071647
 20
175.53795
 30
0.0
  0
VERTEX
  5
246
100
AcDbEntity
  8
レイヤー_2
 62
     7
100
AcDbVertex
100
AcDb2dVertex
 10
130.068891
 20
175.526237
 30
0.0
  0
VERTEX
  5
247
100
AcDbEntity
  8
レイヤー_2
 62
     7
100
AcDbVertex
100
AcDb2dVertex
 10
130.06579
 20
175.53795
 30
0.0
  0
VERTEX
  5
248
100
AcDbEntity
  8
レイヤー_2
 62
     7
100
AcDbVertex
100
AcDb2dVertex
 10
130.063379
 20
175.573435
 30
0.0
  0
VERTEX
  5
249
100
AcDbEntity
  8
レイヤー_2
 62
     7
100
AcDbVertex
100
AcDb2dVertex
 10
130.063379
 20
175.626145
 30
0.0
  0
VERTEX
  5
24A
100
AcDbEntity
  8
レイヤー_2
 62
     7
100
AcDbVertex
100
AcDb2dVertex
 10
130.063379
 20
175.689018
 30
0.0
  0
VERTEX
  5
24B
100
AcDbEntity
  8
レイヤー_2
 62
     7
100
AcDbVertex
100
AcDb2dVertex
 10
130.06579
 20
175.750513
 30
0.0
  0
VERTEX
  5
24C
100
AcDbEntity
  8
レイヤー_2
 62
     7
100
AcDbVertex
100
AcDb2dVertex
 10
130.068891
 20
175.80305
 30
0.0
  0
VERTEX
  5
24D
100
AcDbEntity
  8
レイヤー_2
 62
     7
100
AcDbVertex
100
AcDb2dVertex
 10
130.071647
 20
175.838707
 30
0.0
  0
VERTEX
  5
24E
100
AcDbEntity
  8
レイヤー_2
 62
     7
100
AcDbVertex
100
AcDb2dVertex
 10
130.074748
 20
175.85042
 30
0.0
  0
VERTEX
  5
24F
100
AcDbEntity
  8
レイヤー_2
 62
     7
100
AcDbVertex
100
AcDb2dVertex
 10
130.078193
 20
175.838707
 30
0.0
  0
VERTEX
  5
250
100
AcDbEntity
  8
レイヤー_2
 62
     7
100
AcDbVertex
100
AcDb2dVertex
 10
130.080604
 20
175.80305
 30
0.0
  0
VERTEX
  5
251
100
AcDbEntity
  8
レイヤー_2
 62
     7
100
AcDbVertex
100
AcDb2dVertex
 10
130.080604
 20
175.794265
 30
0.0
  0
SEQEND
  5
252
100
AcDbEntity
  8
レイヤー_2
 62
     7
  0
POLYLINE
  5
22F
100
AcDbEntity
  8
レイヤー_2
 62
     7
100
AcDb2dPolyline
 66
     1
 10
0.0
 20
0.0
 30
0.0
  0
VERTEX
  5
230
100
AcDbEntity
  8
レイヤー_2
 62
     7
100
AcDbVertex
100
AcDb2dVertex
 10
130.080604
 20
177.034844
 30
0.0
  0
VERTEX
  5
231
100
AcDbEntity
  8
レイヤー_2
 62
     7
100
AcDbVertex
100
AcDb2dVertex
 10
130.080604
 20
177.032433
 30
0.0
  0
VERTEX
  5
232
100
AcDbEntity
  8
レイヤー_2
 62
     7
100
AcDbVertex
100
AcDb2dVertex
 10
130.080604
 20
176.979206
 30
0.0
  0
VERTEX
  5
233
100
AcDbEntity
  8
レイヤー_2
 62
     7
100
AcDbVertex
100
AcDb2dVertex
 10
130.078193
 20
176.944411
 30
0.0
  0
VERTEX
  5
234
100
AcDbEntity
  8
レイヤー_2
 62
     7
100
AcDbVertex
100
AcDb2dVertex
 10
130.074748
 20
176.932525
 30
0.0
  0
VERTEX
  5
235
100
AcDbEntity
  8
レイヤー_2
 62
     7
100
AcDbVertex
100
AcDb2dVertex
 10
130.071647
 20
176.944411
 30
0.0
  0
VERTEX
  5
236
100
AcDbEntity
  8
レイヤー_2
 62
     7
100
AcDbVertex
100
AcDb2dVertex
 10
130.068891
 20
176.979206
 30
0.0
  0
VERTEX
  5
237
100
AcDbEntity
  8
レイヤー_2
 62
     7
100
AcDbVertex
100
AcDb2dVertex
 10
130.06579
 20
177.032433
 30
0.0
  0
VERTEX
  5
238
100
AcDbEntity
  8
レイヤー_2
 62
     7
100
AcDbVertex
100
AcDb2dVertex
 10
130.063379
 20
177.094617
 30
0.0
  0
VERTEX
  5
239
100
AcDbEntity
  8
レイヤー_2
 62
     7
100
AcDbVertex
100
AcDb2dVertex
 10
130.063379
 20
177.156801
 30
0.0
  0
VERTEX
  5
23A
100
AcDbEntity
  8
レイヤー_2
 62
     7
100
AcDbVertex
100
AcDb2dVertex
 10
130.063379
 20
177.209511
 30
0.0
  0
VERTEX
  5
23B
100
AcDbEntity
  8
レイヤー_2
 62
     7
100
AcDbVertex
100
AcDb2dVertex
 10
130.06579
 20
177.244306
 30
0.0
  0
VERTEX
  5
23C
100
AcDbEntity
  8
レイヤー_2
 62
     7
100
AcDbVertex
100
AcDb2dVertex
 10
130.068891
 20
177.257053
 30
0.0
  0
VERTEX
  5
23D
100
AcDbEntity
  8
レイヤー_2
 62
     7
100
AcDbVertex
100
AcDb2dVertex
 10
130.071647
 20
177.244306
 30
0.0
  0
VERTEX
  5
23E
100
AcDbEntity
  8
レイヤー_2
 62
     7
100
AcDbVertex
100
AcDb2dVertex
 10
130.074748
 20
177.209511
 30
0.0
  0
VERTEX
  5
23F
100
AcDbEntity
  8
レイヤー_2
 62
     7
100
AcDbVertex
100
AcDb2dVertex
 10
130.076126
 20
177.201242
 30
0.0
  0
SEQEND
  5
240
100
AcDbEntity
  8
レイヤー_2
 62
     7
  0
POLYLINE
  5
21F
100
AcDbEntity
  8
レイヤー_2
 62
     7
100
AcDb2dPolyline
 66
     1
 10
0.0
 20
0.0
 30
0.0
  0
VERTEX
  5
220
100
AcDbEntity
  8
レイヤー_2
 62
     7
100
AcDbVertex
100
AcDb2dVertex
 10
130.080604
 20
177.576241
 30
0.0
  0
VERTEX
  5
221
100
AcDbEntity
  8
レイヤー_2
 62
     7
100
AcDbVertex
100
AcDb2dVertex
 10
130.080604
 20
177.57538
 30
0.0
  0
VERTEX
  5
222
100
AcDbEntity
  8
レイヤー_2
 62
     7
100
AcDbVertex
100
AcDb2dVertex
 10
130.080604
 20
177.540584
 30
0.0
  0
VERTEX
  5
223
100
AcDbEntity
  8
レイヤー_2
 62
     7
100
AcDbVertex
100
AcDb2dVertex
 10
130.078193
 20
177.528871
 30
0.0
  0
VERTEX
  5
224
100
AcDbEntity
  8
レイヤー_2
 62
     7
100
AcDbVertex
100
AcDb2dVertex
 10
130.074748
 20
177.540584
 30
0.0
  0
VERTEX
  5
225
100
AcDbEntity
  8
レイヤー_2
 62
     7
100
AcDbVertex
100
AcDb2dVertex
 10
130.071647
 20
177.57538
 30
0.0
  0
VERTEX
  5
226
100
AcDbEntity
  8
レイヤー_2
 62
     7
100
AcDbVertex
100
AcDb2dVertex
 10
130.068891
 20
177.629468
 30
0.0
  0
VERTEX
  5
227
100
AcDbEntity
  8
レイヤー_2
 62
     7
100
AcDbVertex
100
AcDb2dVertex
 10
130.06579
 20
177.690963
 30
0.0
  0
VERTEX
  5
228
100
AcDbEntity
  8
レイヤー_2
 62
     7
100
AcDbVertex
100
AcDb2dVertex
 10
130.063379
 20
177.753836
 30
0.0
  0
VERTEX
  5
229
100
AcDbEntity
  8
レイヤー_2
 62
     7
100
AcDbVertex
100
AcDb2dVertex
 10
130.063379
 20
177.805684
 30
0.0
  0
VERTEX
  5
22A
100
AcDbEntity
  8
レイヤー_2
 62
     7
100
AcDbVertex
100
AcDb2dVertex
 10
130.063379
 20
177.841341
 30
0.0
  0
VERTEX
  5
22B
100
AcDbEntity
  8
レイヤー_2
 62
     7
100
AcDbVertex
100
AcDb2dVertex
 10
130.06579
 20
177.853054
 30
0.0
  0
VERTEX
  5
22C
100
AcDbEntity
  8
レイヤー_2
 62
     7
100
AcDbVertex
100
AcDb2dVertex
 10
130.068891
 20
177.841341
 30
0.0
  0
VERTEX
  5
22D
100
AcDbEntity
  8
レイヤー_2
 62
     7
100
AcDbVertex
100
AcDb2dVertex
 10
130.068891
 20
177.83669
 30
0.0
  0
SEQEND
  5
22E
100
AcDbEntity
  8
レイヤー_2
 62
     7
  0
POLYLINE
  5
219
100
AcDbEntity
  8
レイヤー_2
 62
     7
100
AcDb2dPolyline
 66
     1
 10
0.0
 20
0.0
 30
0.0
  0
VERTEX
  5
21A
100
AcDbEntity
  8
レイヤー_2
 62
     7
100
AcDbVertex
100
AcDb2dVertex
 10
130.078193
 20
175.255108
 30
0.0
  0
VERTEX
  5
21B
100
AcDbEntity
  8
レイヤー_2
 62
     7
100
AcDbVertex
100
AcDb2dVertex
 10
130.080604
 20
175.241844
 30
0.0
  0
VERTEX
  5
21C
100
AcDbEntity
  8
レイヤー_2
 62
     7
100
AcDbVertex
100
AcDb2dVertex
 10
130.080604
 20
175.20636
 30
0.0
  0
VERTEX
  5
21D
100
AcDbEntity
  8
レイヤー_2
 62
     7
100
AcDbVertex
100
AcDb2dVertex
 10
130.080604
 20
175.20636
 30
0.0
  0
SEQEND
  5
21E
100
AcDbEntity
  8
レイヤー_2
 62
     7
  0
POLYLINE
  5
20B
100
AcDbEntity
  8
レイヤー_2
 62
     7
100
AcDb2dPolyline
 66
     1
 10
0.0
 20
0.0
 30
0.0
  0
VERTEX
  5
20C
100
AcDbEntity
  8
レイヤー_2
 62
     7
100
AcDbVertex
100
AcDb2dVertex
 10
130.071647
 20
174.977433
 30
0.0
  0
VERTEX
  5
20D
100
AcDbEntity
  8
レイヤー_2
 62
     7
100
AcDbVertex
100
AcDb2dVertex
 10
130.071647
 20
174.976744
 30
0.0
  0
VERTEX
  5
20E
100
AcDbEntity
  8
レイヤー_2
 62
     7
100
AcDbVertex
100
AcDb2dVertex
 10
130.068891
 20
174.940915
 30
0.0
  0
VERTEX
  5
20F
100
AcDbEntity
  8
レイヤー_2
 62
     7
100
AcDbVertex
100
AcDb2dVertex
 10
130.06579
 20
174.929202
 30
0.0
  0
VERTEX
  5
210
100
AcDbEntity
  8
レイヤー_2
 62
     7
100
AcDbVertex
100
AcDb2dVertex
 10
130.063379
 20
174.942638
 30
0.0
  0
VERTEX
  5
211
100
AcDbEntity
  8
レイヤー_2
 62
     7
100
AcDbVertex
100
AcDb2dVertex
 10
130.063379
 20
174.977433
 30
0.0
  0
VERTEX
  5
212
100
AcDbEntity
  8
レイヤー_2
 62
     7
100
AcDbVertex
100
AcDb2dVertex
 10
130.063379
 20
175.03066
 30
0.0
  0
VERTEX
  5
213
100
AcDbEntity
  8
レイヤー_2
 62
     7
100
AcDbVertex
100
AcDb2dVertex
 10
130.06579
 20
175.092155
 30
0.0
  0
VERTEX
  5
214
100
AcDbEntity
  8
レイヤー_2
 62
     7
100
AcDbVertex
100
AcDb2dVertex
 10
130.068891
 20
175.154339
 30
0.0
  0
VERTEX
  5
215
100
AcDbEntity
  8
レイヤー_2
 62
     7
100
AcDbVertex
100
AcDb2dVertex
 10
130.071647
 20
175.207738
 30
0.0
  0
VERTEX
  5
216
100
AcDbEntity
  8
レイヤー_2
 62
     7
100
AcDbVertex
100
AcDb2dVertex
 10
130.074748
 20
175.242533
 30
0.0
  0
VERTEX
  5
217
100
AcDbEntity
  8
レイヤー_2
 62
     7
100
AcDbVertex
100
AcDb2dVertex
 10
130.078193
 20
175.255108
 30
0.0
  0
SEQEND
  5
218
100
AcDbEntity
  8
レイヤー_2
 62
     7
  0
POLYLINE
  5
206
100
AcDbEntity
  8
レイヤー_2
 62
     7
100
AcDb2dPolyline
 66
     1
 10
0.0
 20
0.0
 30
0.0
  0
VERTEX
  5
207
100
AcDbEntity
  8
レイヤー_2
 62
     7
100
AcDbVertex
100
AcDb2dVertex
 10
130.034785
 20
176.013373
 30
0.0
  0
VERTEX
  5
208
100
AcDbEntity
  8
レイヤー_2
 62
     7
100
AcDbVertex
100
AcDb2dVertex
 10
130.034785
 20
175.940854
 30
0.0
  0
VERTEX
  5
209
100
AcDbEntity
  8
レイヤー_2
 62
     7
100
AcDbVertex
100
AcDb2dVertex
 10
130.034785
 20
175.879532
 30
0.0
  0
SEQEND
  5
20A
100
AcDbEntity
  8
レイヤー_2
 62
     7
  0
POLYLINE
  5
1FF
100
AcDbEntity
  8
レイヤー_2
 62
     7
100
AcDb2dPolyline
 66
     1
 10
0.0
 20
0.0
 30
0.0
  0
VERTEX
  5
200
100
AcDbEntity
  8
レイヤー_2
 62
     7
100
AcDbVertex
100
AcDb2dVertex
 10
130.042019
 20
176.201476
 30
0.0
  0
VERTEX
  5
201
100
AcDbEntity
  8
レイヤー_2
 62
     7
100
AcDbVertex
100
AcDb2dVertex
 10
130.040641
 20
176.189762
 30
0.0
  0
VERTEX
  5
202
100
AcDbEntity
  8
レイヤー_2
 62
     7
100
AcDbVertex
100
AcDb2dVertex
 10
130.037885
 20
176.148249
 30
0.0
  0
VERTEX
  5
203
100
AcDbEntity
  8
レイヤー_2
 62
     7
100
AcDbVertex
100
AcDb2dVertex
 10
130.036163
 20
176.086065
 30
0.0
  0
VERTEX
  5
204
100
AcDbEntity
  8
レイヤー_2
 62
     7
100
AcDbVertex
100
AcDb2dVertex
 10
130.034785
 20
176.013373
 30
0.0
  0
SEQEND
  5
205
100
AcDbEntity
  8
レイヤー_2
 62
     7
  0
POLYLINE
  5
1F7
100
AcDbEntity
  8
レイヤー_2
 62
     7
100
AcDb2dPolyline
 66
     1
 10
0.0
 20
0.0
 30
0.0
  0
VERTEX
  5
1F8
100
AcDbEntity
  8
レイヤー_2
 62
     7
100
AcDbVertex
100
AcDb2dVertex
 10
130.06269
 20
176.013373
 30
0.0
  0
VERTEX
  5
1F9
100
AcDbEntity
  8
レイヤー_2
 62
     7
100
AcDbVertex
100
AcDb2dVertex
 10
130.063379
 20
176.07573
 30
0.0
  0
VERTEX
  5
1FA
100
AcDbEntity
  8
レイヤー_2
 62
     7
100
AcDbVertex
100
AcDb2dVertex
 10
130.06579
 20
176.128956
 30
0.0
  0
VERTEX
  5
1FB
100
AcDbEntity
  8
レイヤー_2
 62
     7
100
AcDbVertex
100
AcDb2dVertex
 10
130.068891
 20
176.164441
 30
0.0
  0
VERTEX
  5
1FC
100
AcDbEntity
  8
レイヤー_2
 62
     7
100
AcDbVertex
100
AcDb2dVertex
 10
130.070269
 20
176.177016
 30
0.0
  0
VERTEX
  5
1FD
100
AcDbEntity
  8
レイヤー_2
 62
     7
100
AcDbVertex
100
AcDb2dVertex
 10
130.071647
 20
176.164441
 30
0.0
  0
SEQEND
  5
1FE
100
AcDbEntity
  8
レイヤー_2
 62
     7
  0
POLYLINE
  5
1EF
100
AcDbEntity
  8
レイヤー_2
 62
     7
100
AcDb2dPolyline
 66
     1
 10
0.0
 20
0.0
 30
0.0
  0
VERTEX
  5
1F0
100
AcDbEntity
  8
レイヤー_2
 62
     7
100
AcDbVertex
100
AcDb2dVertex
 10
130.068891
 20
175.862478
 30
0.0
  0
VERTEX
  5
1F1
100
AcDbEntity
  8
レイヤー_2
 62
     7
100
AcDbVertex
100
AcDb2dVertex
 10
130.066824
 20
175.849042
 30
0.0
  0
VERTEX
  5
1F2
100
AcDbEntity
  8
レイヤー_2
 62
     7
100
AcDbVertex
100
AcDb2dVertex
 10
130.064757
 20
175.862478
 30
0.0
  0
VERTEX
  5
1F3
100
AcDbEntity
  8
レイヤー_2
 62
     7
100
AcDbVertex
100
AcDb2dVertex
 10
130.063379
 20
175.897963
 30
0.0
  0
VERTEX
  5
1F4
100
AcDbEntity
  8
レイヤー_2
 62
     7
100
AcDbVertex
100
AcDb2dVertex
 10
130.06269
 20
175.9505
 30
0.0
  0
VERTEX
  5
1F5
100
AcDbEntity
  8
レイヤー_2
 62
     7
100
AcDbVertex
100
AcDb2dVertex
 10
130.06269
 20
176.013373
 30
0.0
  0
SEQEND
  5
1F6
100
AcDbEntity
  8
レイヤー_2
 62
     7
  0
POLYLINE
  5
1E7
100
AcDbEntity
  8
レイヤー_2
 62
     7
100
AcDb2dPolyline
 66
     1
 10
0.0
 20
0.0
 30
0.0
  0
VERTEX
  5
1E8
100
AcDbEntity
  8
レイヤー_2
 62
     7
100
AcDbVertex
100
AcDb2dVertex
 10
130.06269
 20
176.769744
 30
0.0
  0
VERTEX
  5
1E9
100
AcDbEntity
  8
レイヤー_2
 62
     7
100
AcDbVertex
100
AcDb2dVertex
 10
130.06269
 20
176.832617
 30
0.0
  0
VERTEX
  5
1EA
100
AcDbEntity
  8
レイヤー_2
 62
     7
100
AcDbVertex
100
AcDb2dVertex
 10
130.063379
 20
176.885155
 30
0.0
  0
VERTEX
  5
1EB
100
AcDbEntity
  8
レイヤー_2
 62
     7
100
AcDbVertex
100
AcDb2dVertex
 10
130.064757
 20
176.91995
 30
0.0
  0
VERTEX
  5
1EC
100
AcDbEntity
  8
レイヤー_2
 62
     7
100
AcDbVertex
100
AcDb2dVertex
 10
130.066824
 20
176.933214
 30
0.0
  0
VERTEX
  5
1ED
100
AcDbEntity
  8
レイヤー_2
 62
     7
100
AcDbVertex
100
AcDb2dVertex
 10
130.068891
 20
176.921501
 30
0.0
  0
SEQEND
  5
1EE
100
AcDbEntity
  8
レイヤー_2
 62
     7
  0
POLYLINE
  5
1DF
100
AcDbEntity
  8
レイヤー_2
 62
     7
100
AcDb2dPolyline
 66
     1
 10
0.0
 20
0.0
 30
0.0
  0
VERTEX
  5
1E0
100
AcDbEntity
  8
レイヤー_2
 62
     7
100
AcDbVertex
100
AcDb2dVertex
 10
130.071647
 20
176.617643
 30
0.0
  0
VERTEX
  5
1E1
100
AcDbEntity
  8
レイヤー_2
 62
     7
100
AcDbVertex
100
AcDb2dVertex
 10
130.070269
 20
176.60593
 30
0.0
  0
VERTEX
  5
1E2
100
AcDbEntity
  8
レイヤー_2
 62
     7
100
AcDbVertex
100
AcDb2dVertex
 10
130.068891
 20
176.618677
 30
0.0
  0
VERTEX
  5
1E3
100
AcDbEntity
  8
レイヤー_2
 62
     7
100
AcDbVertex
100
AcDb2dVertex
 10
130.06579
 20
176.654161
 30
0.0
  0
VERTEX
  5
1E4
100
AcDbEntity
  8
レイヤー_2
 62
     7
100
AcDbVertex
100
AcDb2dVertex
 10
130.063379
 20
176.706527
 30
0.0
  0
VERTEX
  5
1E5
100
AcDbEntity
  8
レイヤー_2
 62
     7
100
AcDbVertex
100
AcDb2dVertex
 10
130.06269
 20
176.769744
 30
0.0
  0
SEQEND
  5
1E6
100
AcDbEntity
  8
レイヤー_2
 62
     7
  0
POLYLINE
  5
1D6
100
AcDbEntity
  8
レイヤー_2
 62
     7
100
AcDb2dPolyline
 66
     1
 10
0.0
 20
0.0
 30
0.0
  0
VERTEX
  5
1D7
100
AcDbEntity
  8
レイヤー_2
 62
     7
100
AcDbVertex
100
AcDb2dVertex
 10
130.070269
 20
177.254641
 30
0.0
  0
VERTEX
  5
1D8
100
AcDbEntity
  8
レイヤー_2
 62
     7
100
AcDbVertex
100
AcDb2dVertex
 10
130.068891
 20
177.265149
 30
0.0
  0
VERTEX
  5
1D9
100
AcDbEntity
  8
レイヤー_2
 62
     7
100
AcDbVertex
100
AcDb2dVertex
 10
130.067513
 20
177.319926
 30
0.0
  0
VERTEX
  5
1DA
100
AcDbEntity
  8
レイヤー_2
 62
     7
100
AcDbVertex
100
AcDb2dVertex
 10
130.06579
 20
177.380732
 30
0.0
  0
VERTEX
  5
1DB
100
AcDbEntity
  8
レイヤー_2
 62
     7
100
AcDbVertex
100
AcDb2dVertex
 10
130.063379
 20
177.443605
 30
0.0
  0
VERTEX
  5
1DC
100
AcDbEntity
  8
レイヤー_2
 62
     7
100
AcDbVertex
100
AcDb2dVertex
 10
130.06269
 20
177.496832
 30
0.0
  0
VERTEX
  5
1DD
100
AcDbEntity
  8
レイヤー_2
 62
     7
100
AcDbVertex
100
AcDb2dVertex
 10
130.06269
 20
177.504411
 30
0.0
  0
SEQEND
  5
1DE
100
AcDbEntity
  8
レイヤー_2
 62
     7
  0
POLYLINE
  5
1D1
100
AcDbEntity
  8
レイヤー_2
 62
     7
100
AcDb2dPolyline
 66
     1
 10
0.0
 20
0.0
 30
0.0
  0
VERTEX
  5
1D2
100
AcDbEntity
  8
レイヤー_2
 62
     7
100
AcDbVertex
100
AcDb2dVertex
 10
130.063379
 20
178.25148
 30
0.0
  0
VERTEX
  5
1D3
100
AcDbEntity
  8
レイヤー_2
 62
     7
100
AcDbVertex
100
AcDb2dVertex
 10
130.06579
 20
178.239766
 30
0.0
  0
VERTEX
  5
1D4
100
AcDbEntity
  8
レイヤー_2
 62
     7
100
AcDbVertex
100
AcDb2dVertex
 10
130.06579
 20
178.239766
 30
0.0
  0
SEQEND
  5
1D5
100
AcDbEntity
  8
レイヤー_2
 62
     7
  0
POLYLINE
  5
1C4
100
AcDbEntity
  8
レイヤー_2
 62
     7
100
AcDb2dPolyline
 66
     1
 10
0.0
 20
0.0
 30
0.0
  0
VERTEX
  5
1C5
100
AcDbEntity
  8
レイヤー_2
 62
     7
100
AcDbVertex
100
AcDb2dVertex
 10
130.080604
 20
177.93901
 30
0.0
  0
VERTEX
  5
1C6
100
AcDbEntity
  8
レイヤー_2
 62
     7
100
AcDbVertex
100
AcDb2dVertex
 10
130.080604
 20
177.93901
 30
0.0
  0
VERTEX
  5
1C7
100
AcDbEntity
  8
レイヤー_2
 62
     7
100
AcDbVertex
100
AcDb2dVertex
 10
130.080604
 20
177.927296
 30
0.0
  0
VERTEX
  5
1C8
100
AcDbEntity
  8
レイヤー_2
 62
     7
100
AcDbVertex
100
AcDb2dVertex
 10
130.078193
 20
177.93901
 30
0.0
  0
VERTEX
  5
1C9
100
AcDbEntity
  8
レイヤー_2
 62
     7
100
AcDbVertex
100
AcDb2dVertex
 10
130.074748
 20
177.974666
 30
0.0
  0
VERTEX
  5
1CA
100
AcDbEntity
  8
レイヤー_2
 62
     7
100
AcDbVertex
100
AcDb2dVertex
 10
130.071647
 20
178.026515
 30
0.0
  0
VERTEX
  5
1CB
100
AcDbEntity
  8
レイヤー_2
 62
     7
100
AcDbVertex
100
AcDb2dVertex
 10
130.068891
 20
178.088699
 30
0.0
  0
VERTEX
  5
1CC
100
AcDbEntity
  8
レイヤー_2
 62
     7
100
AcDbVertex
100
AcDb2dVertex
 10
130.06579
 20
178.150883
 30
0.0
  0
VERTEX
  5
1CD
100
AcDbEntity
  8
レイヤー_2
 62
     7
100
AcDbVertex
100
AcDb2dVertex
 10
130.063379
 20
178.20411
 30
0.0
  0
VERTEX
  5
1CE
100
AcDbEntity
  8
レイヤー_2
 62
     7
100
AcDbVertex
100
AcDb2dVertex
 10
130.063379
 20
178.239766
 30
0.0
  0
VERTEX
  5
1CF
100
AcDbEntity
  8
レイヤー_2
 62
     7
100
AcDbVertex
100
AcDb2dVertex
 10
130.063379
 20
178.25148
 30
0.0
  0
SEQEND
  5
1D0
100
AcDbEntity
  8
レイヤー_2
 62
     7
  0
POLYLINE
  5
1BF
100
AcDbEntity
  8
レイヤー_2
 62
     7
100
AcDb2dPolyline
 66
     1
 10
0.0
 20
0.0
 30
0.0
  0
VERTEX
  5
1C0
100
AcDbEntity
  8
レイヤー_2
 62
     7
100
AcDbVertex
100
AcDb2dVertex
 10
130.080604
 20
174.855994
 30
0.0
  0
VERTEX
  5
1C1
100
AcDbEntity
  8
レイヤー_2
 62
     7
100
AcDbVertex
100
AcDb2dVertex
 10
130.080604
 20
174.843419
 30
0.0
  0
VERTEX
  5
1C2
100
AcDbEntity
  8
レイヤー_2
 62
     7
100
AcDbVertex
100
AcDb2dVertex
 10
130.080604
 20
174.843419
 30
0.0
  0
SEQEND
  5
1C3
100
AcDbEntity
  8
レイヤー_2
 62
     7
  0
POLYLINE
  5
1B2
100
AcDbEntity
  8
レイヤー_2
 62
     7
100
AcDb2dPolyline
 66
     1
 10
0.0
 20
0.0
 30
0.0
  0
VERTEX
  5
1B3
100
AcDbEntity
  8
レイヤー_2
 62
     7
100
AcDbVertex
100
AcDb2dVertex
 10
130.06579
 20
174.544213
 30
0.0
  0
VERTEX
  5
1B4
100
AcDbEntity
  8
レイヤー_2
 62
     7
100
AcDbVertex
100
AcDb2dVertex
 10
130.06579
 20
174.544213
 30
0.0
  0
VERTEX
  5
1B5
100
AcDbEntity
  8
レイヤー_2
 62
     7
100
AcDbVertex
100
AcDb2dVertex
 10
130.063379
 20
174.531466
 30
0.0
  0
VERTEX
  5
1B6
100
AcDbEntity
  8
レイヤー_2
 62
     7
100
AcDbVertex
100
AcDb2dVertex
 10
130.063379
 20
174.544213
 30
0.0
  0
VERTEX
  5
1B7
100
AcDbEntity
  8
レイヤー_2
 62
     7
100
AcDbVertex
100
AcDb2dVertex
 10
130.063379
 20
174.579697
 30
0.0
  0
VERTEX
  5
1B8
100
AcDbEntity
  8
レイヤー_2
 62
     7
100
AcDbVertex
100
AcDb2dVertex
 10
130.06579
 20
174.631546
 30
0.0
  0
VERTEX
  5
1B9
100
AcDbEntity
  8
レイヤー_2
 62
     7
100
AcDbVertex
100
AcDb2dVertex
 10
130.068891
 20
174.693557
 30
0.0
  0
VERTEX
  5
1BA
100
AcDbEntity
  8
レイヤー_2
 62
     7
100
AcDbVertex
100
AcDb2dVertex
 10
130.071647
 20
174.755914
 30
0.0
  0
VERTEX
  5
1BB
100
AcDbEntity
  8
レイヤー_2
 62
     7
100
AcDbVertex
100
AcDb2dVertex
 10
130.074748
 20
174.808624
 30
0.0
  0
VERTEX
  5
1BC
100
AcDbEntity
  8
レイヤー_2
 62
     7
100
AcDbVertex
100
AcDb2dVertex
 10
130.078193
 20
174.843419
 30
0.0
  0
VERTEX
  5
1BD
100
AcDbEntity
  8
レイヤー_2
 62
     7
100
AcDbVertex
100
AcDb2dVertex
 10
130.080604
 20
174.855994
 30
0.0
  0
SEQEND
  5
1BE
100
AcDbEntity
  8
レイヤー_2
 62
     7
  0
LINE
  5
1B1
100
AcDbEntity
  8
レイヤー_2
 62
     7
100
AcDbLine
 10
130.070269
 20
176.576302
 30
0.0
 11
130.068891
 21
176.580781
 31
0.0
  0
LINE
  5
1B0
100
AcDbEntity
  8
レイヤー_2
 62
     7
100
AcDbLine
 10
130.07337
 20
177.460658
 30
0.0
 11
130.071647
 21
177.510267
 31
0.0
  0
LINE
  5
1AF
100
AcDbEntity
  8
レイヤー_2
 62
     7
100
AcDbLine
 10
130.071647
 20
175.865234
 30
0.0
 11
130.071647
 21
175.899341
 31
0.0
  0
LINE
  5
1AE
100
AcDbEntity
  8
レイヤー_2
 62
     7
100
AcDbLine
 10
130.071647
 20
176.884466
 30
0.0
 11
130.071647
 21
176.917022
 31
0.0
  0
LINE
  5
1AD
100
AcDbEntity
  8
レイヤー_2
 62
     7
100
AcDbLine
 10
130.080604
 20
178.066306
 30
0.0
 11
130.063379
 21
178.391523
 31
0.0
  0
LINE
  5
1AC
100
AcDbEntity
  8
レイヤー_2
 62
     7
100
AcDbLine
 10
130.063379
 20
174.391423
 30
0.0
 11
130.080604
 21
174.715951
 31
0.0
  0
POLYLINE
  5
1A7
100
AcDbEntity
  8
レイヤー_2
 62
     7
100
AcDb2dPolyline
 66
     1
 10
0.0
 20
0.0
 30
0.0
  0
VERTEX
  5
1A8
100
AcDbEntity
  8
レイヤー_2
 62
     7
100
AcDbVertex
100
AcDb2dVertex
 10
127.943956
 20
173.861911
 30
0.0
  0
VERTEX
  5
1A9
100
AcDbEntity
  8
レイヤー_2
 62
     7
100
AcDbVertex
100
AcDb2dVertex
 10
127.940167
 20
173.864323
 30
0.0
  0
VERTEX
  5
1AA
100
AcDbEntity
  8
レイヤー_2
 62
     7
100
AcDbVertex
100
AcDb2dVertex
 10
127.931554
 20
173.870007
 30
0.0
  0
SEQEND
  5
1AB
100
AcDbEntity
  8
レイヤー_2
 62
     7
  0
SPLINE
  5
1A6
100
AcDbEntity
  8
レイヤー_2
 62
     7
100
AcDbSpline
210
0.0
220
0.0
230
1.0
 70
     8
 71
     3
 72
    11
 73
     7
 74
     0
 42
0.00000001
 43
0.00000001
 40
0.0
 40
0.0
 40
0.0
 40
0.0
 40
1.0
 40
1.0
 40
1.0
 40
2.0
 40
2.0
 40
2.0
 40
2.0
 10
127.76550021701388
 20
173.78267415364581
 30
0.0
 10
127.76550021701388
 20
173.78267415364581
 30
0.0
 10
126.73886176215277
 20
174.6625515407986
 30
0.0
 10
125.8066189236111
 20
174.6625515407986
 30
0.0
 10
124.87575412326387
 20
174.6625515407986
 30
0.0
 10
123.84946017795137
 20
173.78198513454859
 30
0.0
 10
123.84946017795137
 20
173.78198513454859
 30
0.0
  0
SPLINE
  5
1A5
100
AcDbEntity
  8
レイヤー_2
  6
AI9-LType3
 62
     7
100
AcDbSpline
210
0.0
220
0.0
230
1.0
 70
     8
 71
     3
 72
     8
 73
     4
 74
     0
 42
0.00000001
 43
0.00000001
 40
0.0
 40
0.0
 40
0.0
 40
0.0
 40
1.0
 40
1.0
 40
1.0
 40
1.0
 10
125.82487792968749
 20
138.71883680555555
 30
0.0
 10
125.82487792968749
 20
138.71883680555555
 30
0.0
 10
125.89619140624998
 20
136.66969401041666
 30
0.0
 10
127.04650878906249
 20
135.01742621527777
 30
0.0
  0
SPLINE
  5
1A3
100
AcDbEntity
  8
レイヤー_2
 62
     7
100
AcDbSpline
210
0.0
220
0.0
230
1.0
 70
     8
 71
     3
 72
     8
 73
     4
 74
     0
 42
0.00000001
 43
0.00000001
 40
0.0
 40
0.0
 40
0.0
 40
0.0
 40
1.0
 40
1.0
 40
1.0
 40
1.0
 10
127.04650878906249
 20
135.01742621527777
 30
0.0
 10
127.1553738064236
 20
134.86170789930554
 30
0.0
 10
127.27216254340277
 20
134.71012369791666
 30
0.0
 10
127.40135362413193
 20
134.56405164930555
 30
0.0
  0
LINE
  5
1A2
100
AcDbEntity
  8
レイヤー_2
  6
AI9-LType1
 62
     7
100
AcDbLine
 10
125.806619
 20
96.098183
 30
0.0
 11
125.806619
 21
184.534128
 31
0.0
  0
LINE
  5
1A1
100
AcDbEntity
  8
レイヤー_2
 62
     7
100
AcDbLine
 10
125.806619
 20
178.661963
 30
0.0
 11
125.806619
 21
179.239533
 31
0.0
  0
LINE
  5
1A0
100
AcDbEntity
  8
レイヤー_2
 62
     7
100
AcDbLine
 10
127.956703
 20
146.579856
 30
0.0
 11
127.956703
 21
123.692019
 31
0.0
  0
LINE
  5
19F
100
AcDbEntity
  8
レイヤー_2
 62
     7
100
AcDbLine
 10
123.668248
 20
146.668739
 30
0.0
 11
123.668248
 21
123.692019
 31
0.0
  0
LINE
  5
19E
100
AcDbEntity
  8
レイヤー_2
 62
     7
100
AcDbLine
 10
103.329955
 20
150.447148
 30
0.0
 11
121.403787
 21
150.447148
 31
0.0
  0
LINE
  5
19D
100
AcDbEntity
  8
レイヤー_2
 62
     7
100
AcDbLine
 10
104.84373
 20
151.060375
 30
0.0
 11
103.426934
 21
149.801192
 31
0.0
  0
LINE
  5
19C
100
AcDbEntity
  8
レイヤー_2
 62
     7
100
AcDbLine
 10
103.362339
 20
155.388448
 30
0.0
 11
119.367735
 21
155.388448
 31
0.0
  0
LINE
  5
19B
100
AcDbEntity
  8
レイヤー_2
 62
     7
100
AcDbLine
 10
104.829777
 20
156.075572
 30
0.0
 11
103.413498
 21
154.817424
 31
0.0
  0
LINE
  5
19A
100
AcDbEntity
  8
レイヤー_2
 62
     7
100
AcDbLine
 10
129.405021
 20
157.219861
 30
0.0
 11
129.405021
 21
162.724607
 31
0.0
  0
LINE
  5
199
100
AcDbEntity
  8
レイヤー_2
 62
     7
100
AcDbLine
 10
130.175689
 20
162.164779
 30
0.0
 11
111.708944
 21
162.164779
 31
0.0
  0
LINE
  5
198
100
AcDbEntity
  8
レイヤー_2
 62
     7
100
AcDbLine
 10
103.34029
 20
178.924824
 30
0.0
 11
122.230265
 21
178.924824
 31
0.0
  0
LINE
  5
197
100
AcDbEntity
  8
レイヤー_2
 62
     7
100
AcDbLine
 10
104.073406
 20
179.722363
 30
0.0
 11
104.073406
 21
132.016748
 31
0.0
  0
LINE
  5
196
100
AcDbEntity
  8
レイヤー_2
 62
     7
100
AcDbLine
 10
128.791105
 20
162.84553
 30
0.0
 11
130.050977
 21
161.429423
 31
0.0
  0
LINE
  5
195
100
AcDbEntity
  8
レイヤー_2
 62
     7
100
AcDbLine
 10
121.56295
 20
162.826926
 30
0.0
 11
122.821788
 21
161.410303
 31
0.0
  0
LINE
  5
194
100
AcDbEntity
  8
レイヤー_2
 62
     7
100
AcDbLine
 10
104.794809
 20
179.600235
 30
0.0
 11
103.378703
 21
178.341225
 31
0.0
  0
LINE
  5
193
100
AcDbEntity
  8
レイヤー_2
 62
     7
100
AcDbLine
 10
122.204083
 20
157.165084
 30
0.0
 11
122.204083
 21
162.718233
 31
0.0
  0
MTEXT
  5
192
100
AcDbEntity
  8
レイヤー_2
 62
     7
100
AcDbMText
 10
110.560693
 20
166.795733
 30
0.0
 40
3.674768
 41
0.0
 71
     1
 72
     2
  1
\fGothicBBB Medium|b0|i0|c128;\H3.6748;\C7;\U+03C6\U+0035\U+0030
  7
STD
210
0.0
220
0.0
230
1.0
 73
     1
 44
1.0
  0
MTEXT
  5
191
100
AcDbEntity
  8
レイヤー_2
 62
     7
100
AcDbMText
 10
99.712892
 20
163.529725
 30
0.0
 40
3.674768
 41
0.0
 71
     1
 72
     2
  1
\fGothicBBB Medium|b0|i0|c128;\H3.6748;\C7;\U+0031\U+0036\U+0032
  7
STD
210
0.0
220
0.0
230
1.0
 11
0.0
 21
1.0
 31
0.0
 73
     1
 44
1.0
  0
MTEXT
  5
190
100
AcDbEntity
  8
レイヤー_2
 62
     7
100
AcDbMText
 10
99.463984
 20
131.668449
 30
0.0
 40
3.674768
 41
0.0
 71
     1
 72
     2
  1
\fGothicBBB Medium|b0|i0|c128;\H3.6748;\C7;\U+006D\U+0061\U+0078\U+002E\U+0033\U+0035
  7
STD
210
0.0
220
0.0
230
1.0
 11
0.0
 21
1.0
 31
0.0
 73
     1
 44
1.0
  0
LINE
  5
18F
100
AcDbEntity
  8
レイヤー_2
 62
     7
100
AcDbLine
 10
167.642136
 20
124.814431
 30
0.0
 11
167.642136
 21
121.981185
 31
0.0
  0
LINE
  5
18E
100
AcDbEntity
  8
レイヤー_2
 62
     7
100
AcDbLine
 10
167.642136
 20
121.404476
 30
0.0
 11
167.642136
 21
120.828456
 31
0.0
  0
LINE
  5
18D
100
AcDbEntity
  8
レイヤー_2
 62
     7
100
AcDbLine
 10
167.642136
 20
123.864963
 30
0.0
 11
167.642136
 21
121.031028
 31
0.0
  0
MTEXT
  5
18C
100
AcDbEntity
  8
レイヤー_2
  6
AI9-LType2
 62
     7
100
AcDbMText
 10
146.290468
 20
108.386379
 30
0.0
 40
3.674768
 41
0.0
 71
     1
 72
     2
  1
\fGothicBBB Medium|b0|i0|c128;\H3.6748;\C7;\U+0047\U+0031\U+002F\U+0032
  7
STD
210
0.0
220
0.0
230
1.0
 73
     1
 44
1.0
  0
MTEXT
  5
18B
100
AcDbEntity
  8
レイヤー_2
  6
AI9-LType2
 62
     7
100
AcDbMText
 10
179.850176
 20
108.386379
 30
0.0
 40
3.674768
 41
0.0
 71
     1
 72
     2
  1
\fGothicBBB Medium|b0|i0|c128;\H3.6748;\C7;\U+0047\U+0031\U+002F\U+0032
  7
STD
210
0.0
220
0.0
230
1.0
 73
     1
 44
1.0
  0
LINE
  5
18A
100
AcDbEntity
  8
レイヤー_2
  6
AI9-LType2
 62
     7
100
AcDbLine
 10
168.918199
 20
115.600868
 30
0.0
 11
168.918199
 21
149.90799
 31
0.0
  0
LINE
  5
189
100
AcDbEntity
  8
レイヤー_2
  6
AI9-LType2
 62
     7
100
AcDbLine
 10
169.001226
 20
115.654612
 30
0.0
 11
178.510379
 21
123.596246
 31
0.0
  0
SPLINE
  5
188
100
AcDbEntity
  8
レイヤー_2
 62
     7
100
AcDbSpline
210
0.0
220
0.0
230
1.0
 70
     8
 71
     3
 72
    95
 73
    91
 74
     0
 42
0.00000001
 43
0.00000001
 40
0.0
 40
0.0
 40
0.0
 40
0.0
 40
1.0
 40
1.0
 40
1.0
 40
2.0
 40
2.0
 40
2.0
 40
3.0
 40
3.0
 40
3.0
 40
4.0
 40
4.0
 40
4.0
 40
5.0
 40
5.0
 40
5.0
 40
6.0
 40
6.0
 40
6.0
 40
7.0
 40
7.0
 40
7.0
 40
8.0
 40
8.0
 40
8.0
 40
9.0
 40
9.0
 40
9.0
 40
10.0
 40
10.0
 40
10.0
 40
11.0
 40
11.0
 40
11.0
 40
12.0
 40
12.0
 40
12.0
 40
13.0
 40
13.0
 40
13.0
 40
14.0
 40
14.0
 40
14.0
 40
15.0
 40
15.0
 40
15.0
 40
16.0
 40
16.0
 40
16.0
 40
17.0
 40
17.0
 40
17.0
 40
18.0
 40
18.0
 40
18.0
 40
19.0
 40
19.0
 40
19.0
 40
20.0
 40
20.0
 40
20.0
 40
21.0
 40
21.0
 40
21.0
 40
22.0
 40
22.0
 40
22.0
 40
23.0
 40
23.0
 40
23.0
 40
24.0
 40
24.0
 40
24.0
 40
25.0
 40
25.0
 40
25.0
 40
26.0
 40
26.0
 40
26.0
 40
27.0
 40
27.0
 40
27.0
 40
28.0
 40
28.0
 40
28.0
 40
29.0
 40
29.0
 40
29.0
 40
30.0
 40
30.0
 40
30.0
 40
30.0
 10
177.80034450954861
 20
118.37692599826387
 30
0.0
 10
177.80826822916666
 20
118.37416992187499
 30
0.0
 10
177.81722547743053
 20
118.37210286458333
 30
0.0
 10
177.8251491970486
 20
118.37003580729166
 30
0.0
 10
177.83376193576387
 20
118.36659071180554
 30
0.0
 10
177.84237467447915
 20
118.3652126736111
 30
0.0
 10
177.8499538845486
 20
118.36314561631943
 30
0.0
 10
177.85856662326387
 20
118.36245659722221
 30
0.0
 10
177.86614583333332
 20
118.35970052083333
 30
0.0
 10
177.87510308159722
 20
118.35832248263888
 30
0.0
 10
177.88406032986109
 20
118.35694444444444
 30
0.0
 10
177.89198404947916
 20
118.35694444444444
 30
0.0
 10
177.90163031684025
 20
118.35487738715277
 30
0.0
 10
177.90886501736111
 20
118.35349934895832
 30
0.0
 10
177.9181667751736
 20
118.35349934895832
 30
0.0
 10
177.92677951388887
 20
118.35349934895832
 30
0.0
 10
177.94607204861109
 20
118.35487738715277
 30
0.0
 10
177.96536458333333
 20
118.35694444444444
 30
0.0
 10
177.98293457031249
 20
118.36245659722221
 30
0.0
 10
178.00222710503471
 20
118.36590169270832
 30
0.0
 10
178.02151963975692
 20
118.3714138454861
 30
0.0
 10
178.04115668402775
 20
118.37692599826387
 30
0.0
 10
178.05941569010415
 20
118.38312717013888
 30
0.0
 10
178.07870822482639
 20
118.38795030381944
 30
0.0
 10
178.09731174045137
 20
118.39346245659721
 30
0.0
 10
178.11488172743054
 20
118.39828559027777
 30
0.0
 10
178.13417426215275
 20
118.4024197048611
 30
0.0
 10
178.15208875868055
 20
118.40379774305555
 30
0.0
 10
178.16965874565972
 20
118.40586480034722
 30
0.0
 10
178.18826226128471
 20
118.40586480034722
 30
0.0
 10
178.20548773871525
 20
118.4024197048611
 30
0.0
 10
178.23029242621527
 20
118.39552951388887
 30
0.0
 10
178.25578613281249
 20
118.38450520833332
 30
0.0
 10
178.27783474392359
 20
118.36796874999999
 30
0.0
 10
178.30160590277777
 20
118.35143229166665
 30
0.0
 10
178.32399902343749
 20
118.33213975694443
 30
0.0
 10
178.34535861545137
 20
118.31146918402777
 30
0.0
 10
178.36671820746525
 20
118.29010959201388
 30
0.0
 10
178.38876681857639
 20
118.26874999999998
 30
0.0
 10
178.41115993923609
 20
118.2473904079861
 30
0.0
 10
178.43217502170137
 20
118.22603081597221
 30
0.0
 10
178.45422363281247
 20
118.20811631944443
 30
0.0
 10
178.47937282986109
 20
118.19226888020832
 30
0.0
 10
178.49900987413193
 20
118.17848849826387
 30
0.0
 10
178.52519259982637
 20
118.16884223090277
 30
0.0
 10
178.55034179687499
 20
118.16539713541665
 30
0.0
 10
178.57411295572916
 20
118.16264105902776
 30
0.0
 10
178.59926215277775
 20
118.16539713541665
 30
0.0
 10
178.62199978298611
 20
118.17573242187498
 30
0.0
 10
178.64818250868055
 20
118.18744574652777
 30
0.0
 10
178.67333170572914
 20
118.19847005208332
 30
0.0
 10
178.69848090277776
 20
118.21087239583332
 30
0.0
 10
178.72500813802083
 20
118.22327473958332
 30
0.0
 10
178.75187988281249
 20
118.23636610243055
 30
0.0
 10
178.77702907986111
 20
118.25290256076387
 30
0.0
 10
178.80080023871525
 20
118.26599392361111
 30
0.0
 10
178.8266384548611
 20
118.27632921006943
 30
0.0
 10
178.85247667100694
 20
118.28528645833332
 30
0.0
 10
178.87555881076386
 20
118.29355468749999
 30
0.0
 10
178.90001898871526
 20
118.29699978298611
 30
0.0
 10
178.92516818576388
 20
118.29355468749999
 30
0.0
 10
178.94239366319442
 20
118.29148763020832
 30
0.0
 10
178.95893012152777
 20
118.28528645833332
 30
0.0
 10
178.97477756076387
 20
118.27495117187499
 30
0.0
 10
178.99165852864581
 20
118.26599392361111
 30
0.0
 10
179.00785047743054
 20
118.25496961805554
 30
0.0
 10
179.02300889756944
 20
118.24325629340277
 30
0.0
 10
179.03920084635416
 20
118.23016493055555
 30
0.0
 10
179.05539279513889
 20
118.2163845486111
 30
0.0
 10
179.07124023437498
 20
118.20329318576388
 30
0.0
 10
179.08674316406248
 20
118.18882378472222
 30
0.0
 10
179.10293511284721
 20
118.17642144097221
 30
0.0
 10
179.12084960937497
 20
118.16401909722221
 30
0.0
 10
179.13704155815969
 20
118.15230577256943
 30
0.0
 10
179.15495605468749
 20
118.14265950520833
 30
0.0
 10
179.1742485894097
 20
118.13439127604165
 30
0.0
 10
179.1807942708333
 20
118.13094618055554
 30
0.0
 10
179.18906249999998
 20
118.12819010416666
 30
0.0
 10
179.19767523871525
 20
118.12612304687499
 30
0.0
 10
179.2049099392361
 20
118.12405598958333
 30
0.0
 10
179.21386718749997
 20
118.12267795138888
 30
0.0
 10
179.22282443576387
 20
118.11923285590277
 30
0.0
 10
179.23040364583332
 20
118.11854383680554
 30
0.0
 10
179.23901638454859
 20
118.1171657986111
 30
0.0
 10
179.24797363281249
 20
118.11647677951387
 30
0.0
 10
179.25693088107639
 20
118.11509874131943
 30
0.0
 10
179.26451009114581
 20
118.11509874131943
 30
0.0
 10
179.27312282986111
 20
118.11372070312498
 30
0.0
 10
179.28208007812498
 20
118.11372070312498
 30
0.0
 10
179.29103732638887
 20
118.11303168402776
 30
0.0
 10
179.29930555555555
 20
118.11234266493055
 30
0.0
  0
LINE
  5
187
100
AcDbEntity
  8
レイヤー_2
 62
     7
100
AcDbLine
 10
179.890828
 20
113.756364
 30
0.0
 11
179.812625
 21
113.756364
 31
0.0
  0
LINE
  5
186
100
AcDbEntity
  8
レイヤー_2
 62
     7
100
AcDbLine
 10
179.812625
 20
114.477078
 30
0.0
 11
179.812625
 21
113.756364
 31
0.0
  0
LINE
  5
185
100
AcDbEntity
  8
レイヤー_2
 62
     7
100
AcDbLine
 10
179.812625
 20
113.756364
 30
0.0
 11
179.890828
 21
113.620627
 31
0.0
  0
LINE
  5
184
100
AcDbEntity
  8
レイヤー_2
 62
     7
100
AcDbLine
 10
177.287025
 20
113.756364
 30
0.0
 11
177.207444
 21
113.756364
 31
0.0
  0
LINE
  5
183
100
AcDbEntity
  8
レイヤー_2
 62
     7
100
AcDbLine
 10
177.287025
 20
113.756364
 30
0.0
 11
177.287025
 21
114.477078
 31
0.0
  0
LINE
  5
182
100
AcDbEntity
  8
レイヤー_2
 62
     7
100
AcDbLine
 10
177.207444
 20
113.620627
 30
0.0
 11
177.287025
 21
113.756364
 31
0.0
  0
LINE
  5
181
100
AcDbEntity
  8
レイヤー_2
  6
AI9-LType2
 62
     7
100
AcDbLine
 10
178.550342
 20
123.517008
 30
0.0
 11
178.550342
 21
109.367312
 31
0.0
  0
LINE
  5
180
100
AcDbEntity
  8
レイヤー_2
 62
     7
100
AcDbLine
 10
177.809646
 20
114.551492
 30
0.0
 11
177.485463
 21
114.551492
 31
0.0
  0
LINE
  5
17F
100
AcDbEntity
  8
レイヤー_2
 62
     7
100
AcDbLine
 10
177.809646
 20
116.207205
 30
0.0
 11
177.809646
 21
114.551492
 31
0.0
  0
LINE
  5
17E
100
AcDbEntity
  8
レイヤー_2
 62
     7
100
AcDbLine
 10
177.485463
 20
116.207205
 30
0.0
 11
177.809646
 21
116.207205
 31
0.0
  0
LINE
  5
17D
100
AcDbEntity
  8
レイヤー_2
 62
     7
100
AcDbLine
 10
177.485463
 20
116.207205
 30
0.0
 11
177.485463
 21
114.551492
 31
0.0
  0
LINE
  5
17C
100
AcDbEntity
  8
レイヤー_2
 62
     7
100
AcDbLine
 10
177.366262
 20
117.301367
 30
0.0
 11
178.550342
 21
117.301367
 31
0.0
  0
LINE
  5
17B
100
AcDbEntity
  8
レイヤー_2
 62
     7
100
AcDbLine
 10
176.893251
 20
114.459163
 30
0.0
 11
178.550342
 21
114.459163
 31
0.0
  0
LINE
  5
17A
100
AcDbEntity
  8
レイヤー_2
 62
     7
100
AcDbLine
 10
176.735465
 20
114.551492
 30
0.0
 11
176.893251
 21
114.459163
 31
0.0
  0
LINE
  5
179
100
AcDbEntity
  8
レイヤー_2
 62
     7
100
AcDbLine
 10
177.366262
 20
117.301367
 30
0.0
 11
176.820904
 21
116.356722
 31
0.0
  0
LINE
  5
178
100
AcDbEntity
  8
レイヤー_2
 62
     7
100
AcDbLine
 10
176.735465
 20
116.207205
 30
0.0
 11
176.735465
 21
114.551492
 31
0.0
  0
LINE
  5
177
100
AcDbEntity
  8
レイヤー_2
 62
     7
100
AcDbLine
 10
179.345814
 20
117.301367
 30
0.0
 11
178.550342
 21
117.301367
 31
0.0
  0
LINE
  5
176
100
AcDbEntity
  8
レイヤー_2
 62
     7
100
AcDbLine
 10
179.931136
 20
114.459163
 30
0.0
 11
178.550342
 21
114.459163
 31
0.0
  0
LINE
  5
175
100
AcDbEntity
  8
レイヤー_2
 62
     7
100
AcDbLine
 10
179.615565
 20
114.551492
 30
0.0
 11
179.289659
 21
114.551492
 31
0.0
  0
LINE
  5
174
100
AcDbEntity
  8
レイヤー_2
 62
     7
100
AcDbLine
 10
179.289659
 20
114.551492
 30
0.0
 11
179.289659
 21
116.207205
 31
0.0
  0
LINE
  5
173
100
AcDbEntity
  8
レイヤー_2
 62
     7
100
AcDbLine
 10
179.289659
 20
116.207205
 30
0.0
 11
179.615565
 21
116.207205
 31
0.0
  0
LINE
  5
172
100
AcDbEntity
  8
レイヤー_2
 62
     7
100
AcDbLine
 10
179.615565
 20
114.551492
 30
0.0
 11
179.615565
 21
116.207205
 31
0.0
  0
LINE
  5
171
100
AcDbEntity
  8
レイヤー_2
 62
     7
100
AcDbLine
 10
178.550342
 20
117.301367
 30
0.0
 11
179.733043
 21
117.301367
 31
0.0
  0
LINE
  5
170
100
AcDbEntity
  8
レイヤー_2
 62
     7
100
AcDbLine
 10
178.550342
 20
114.459163
 30
0.0
 11
180.207088
 21
114.459163
 31
0.0
  0
LINE
  5
16F
100
AcDbEntity
  8
レイヤー_2
 62
     7
100
AcDbLine
 10
180.207088
 20
114.459163
 30
0.0
 11
180.364874
 21
114.551492
 31
0.0
  0
LINE
  5
16E
100
AcDbEntity
  8
レイヤー_2
 62
     7
100
AcDbLine
 10
180.364874
 20
116.207205
 30
0.0
 11
179.733043
 21
117.301367
 31
0.0
  0
LINE
  5
16D
100
AcDbEntity
  8
レイヤー_2
 62
     7
100
AcDbLine
 10
180.364874
 20
114.551492
 30
0.0
 11
180.364874
 21
116.207205
 31
0.0
  0
LINE
  5
16C
100
AcDbEntity
  8
レイヤー_2
 62
     7
100
AcDbLine
 10
176.820904
 20
116.356722
 30
0.0
 11
176.735465
 21
116.207205
 31
0.0
  0
SPLINE
  5
16B
100
AcDbEntity
  8
レイヤー_2
 62
     7
100
AcDbSpline
210
0.0
220
0.0
230
1.0
 70
     8
 71
     3
 72
     8
 73
     4
 74
     0
 42
0.00000001
 43
0.00000001
 40
0.0
 40
0.0
 40
0.0
 40
0.0
 40
1.0
 40
1.0
 40
1.0
 40
1.0
 10
177.8096462673611
 20
114.5514919704861
 30
0.0
 10
178.05114746093747
 20
114.49154730902777
 30
0.0
 10
178.29988335503469
 20
114.45916341145832
 30
0.0
 10
178.55034179687499
 20
114.45916341145832
 30
0.0
  0
SPLINE
  5
16A
100
AcDbEntity
  8
レイヤー_2
 62
     7
100
AcDbSpline
210
0.0
220
0.0
230
1.0
 70
     8
 71
     3
 72
     8
 73
     4
 74
     0
 42
0.00000001
 43
0.00000001
 40
0.0
 40
0.0
 40
0.0
 40
0.0
 40
1.0
 40
1.0
 40
1.0
 40
1.0
 10
176.73546549479164
 20
114.5514919704861
 30
0.0
 10
176.97007649739581
 20
114.43022460937499
 30
0.0
 10
177.25016276041666
 20
114.43022460937499
 30
0.0
 10
177.48546278211805
 20
114.5514919704861
 30
0.0
  0
SPLINE
  5
169
100
AcDbEntity
  8
レイヤー_2
 62
     7
100
AcDbSpline
210
0.0
220
0.0
230
1.0
 70
     8
 71
     3
 72
     8
 73
     4
 74
     0
 42
0.00000001
 43
0.00000001
 40
0.0
 40
0.0
 40
0.0
 40
0.0
 40
1.0
 40
1.0
 40
1.0
 40
1.0
 10
178.55034179687499
 20
116.48143446180555
 30
0.0
 10
178.27783474392359
 20
116.48143446180555
 30
0.0
 10
178.01566297743054
 20
116.38428276909721
 30
0.0
 10
177.8096462673611
 20
116.20720486111109
 30
0.0
  0
SPLINE
  5
168
100
AcDbEntity
  8
レイヤー_2
 62
     7
100
AcDbSpline
210
0.0
220
0.0
230
1.0
 70
     8
 71
     3
 72
    11
 73
     7
 74
     0
 42
0.00000001
 43
0.00000001
 40
0.0
 40
0.0
 40
0.0
 40
0.0
 40
1.0
 40
1.0
 40
1.0
 40
2.0
 40
2.0
 40
2.0
 40
2.0
 10
177.48546278211805
 20
116.20720486111109
 30
0.0
 10
177.42000596788193
 20
116.41459960937499
 30
0.0
 10
177.19951985677082
 20
116.53035481770833
 30
0.0
 10
176.99212510850694
 20
116.46489800347221
 30
0.0
 10
176.92701280381942
 20
116.44491644965277
 30
0.0
 10
176.86775716145831
 20
116.40702039930555
 30
0.0
 10
176.82090386284722
 20
116.35672200520833
 30
0.0
  0
SPLINE
  5
167
100
AcDbEntity
  8
レイヤー_2
 62
     7
100
AcDbSpline
210
0.0
220
0.0
230
1.0
 70
     8
 71
     3
 72
     8
 73
     4
 74
     0
 42
0.00000001
 43
0.00000001
 40
0.0
 40
0.0
 40
0.0
 40
0.0
 40
1.0
 40
1.0
 40
1.0
 40
1.0
 10
178.55034179687499
 20
114.45916341145832
 30
0.0
 10
178.79907769097221
 20
114.45916341145832
 30
0.0
 10
179.04815809461803
 20
114.49154730902777
 30
0.0
 10
179.28965928819443
 20
114.5514919704861
 30
0.0
  0
SPLINE
  5
166
100
AcDbEntity
  8
レイヤー_2
 62
     7
100
AcDbSpline
210
0.0
220
0.0
230
1.0
 70
     8
 71
     3
 72
     8
 73
     4
 74
     0
 42
0.00000001
 43
0.00000001
 40
0.0
 40
0.0
 40
0.0
 40
0.0
 40
1.0
 40
1.0
 40
1.0
 40
1.0
 10
179.61556532118053
 20
114.5514919704861
 30
0.0
 10
179.85017632378469
 20
114.43022460937499
 30
0.0
 10
180.12957356770832
 20
114.43022460937499
 30
0.0
 10
180.36487358940971
 20
114.5514919704861
 30
0.0
  0
SPLINE
  5
165
100
AcDbEntity
  8
レイヤー_2
 62
     7
100
AcDbSpline
210
0.0
220
0.0
230
1.0
 70
     8
 71
     3
 72
     8
 73
     4
 74
     0
 42
0.00000001
 43
0.00000001
 40
0.0
 40
0.0
 40
0.0
 40
0.0
 40
1.0
 40
1.0
 40
1.0
 40
1.0
 10
179.28965928819443
 20
116.20720486111109
 30
0.0
 10
179.08398708767359
 20
116.38428276909721
 30
0.0
 10
178.82147081163194
 20
116.48143446180555
 30
0.0
 10
178.55034179687499
 20
116.48143446180555
 30
0.0
  0
SPLINE
  5
164
100
AcDbEntity
  8
レイヤー_2
 62
     7
100
AcDbSpline
210
0.0
220
0.0
230
1.0
 70
     8
 71
     3
 72
    11
 73
     7
 74
     0
 42
0.00000001
 43
0.00000001
 40
0.0
 40
0.0
 40
0.0
 40
0.0
 40
1.0
 40
1.0
 40
1.0
 40
2.0
 40
2.0
 40
2.0
 40
2.0
 10
180.36487358940971
 20
116.20720486111109
 30
0.0
 10
180.2994167751736
 20
116.41459960937499
 30
0.0
 10
180.07893066406248
 20
116.53035481770833
 30
0.0
 10
179.87291395399305
 20
116.46489800347221
 30
0.0
 10
179.74992404513887
 20
116.42837999131943
 30
0.0
 10
179.65380588107638
 20
116.33053927951387
 30
0.0
 10
179.61556532118053
 20
116.20720486111109
 30
0.0
  0
LINE
  5
163
100
AcDbEntity
  8
レイヤー_2
 62
     7
100
AcDbLine
 10
176.675176
 20
109.981917
 30
0.0
 11
176.497409
 21
110.076313
 31
0.0
  0
LINE
  5
162
100
AcDbEntity
  8
レイヤー_2
 62
     7
100
AcDbLine
 10
180.601552
 20
110.076313
 30
0.0
 11
180.424129
 21
109.981917
 31
0.0
  0
LINE
  5
161
100
AcDbEntity
  8
レイヤー_2
 62
     7
100
AcDbLine
 10
176.497409
 20
113.233398
 30
0.0
 11
176.675176
 21
113.328483
 31
0.0
  0
LINE
  5
160
100
AcDbEntity
  8
レイヤー_2
 62
     7
100
AcDbLine
 10
180.424129
 20
113.328483
 30
0.0
 11
180.601552
 21
113.233398
 31
0.0
  0
LINE
  5
15F
100
AcDbEntity
  8
レイヤー_2
 62
     7
100
AcDbLine
 10
176.735465
 20
109.839979
 30
0.0
 11
180.364874
 21
109.839979
 31
0.0
  0
LINE
  5
15E
100
AcDbEntity
  8
レイヤー_2
 62
     7
100
AcDbLine
 10
177.304595
 20
110.076313
 30
0.0
 11
177.760381
 21
110.076313
 31
0.0
  0
LINE
  5
15D
100
AcDbEntity
  8
レイヤー_2
 62
     7
100
AcDbLine
 10
179.33858
 20
110.076313
 30
0.0
 11
179.79471
 21
110.076313
 31
0.0
  0
LINE
  5
15C
100
AcDbEntity
  8
レイヤー_2
 62
     7
100
AcDbLine
 10
180.601552
 20
110.076313
 30
0.0
 11
180.364874
 21
109.839979
 31
0.0
  0
LINE
  5
15B
100
AcDbEntity
  8
レイヤー_2
 62
     7
100
AcDbLine
 10
176.497409
 20
110.076313
 30
0.0
 11
176.735465
 21
109.839979
 31
0.0
  0
LINE
  5
15A
100
AcDbEntity
  8
レイヤー_2
 62
     7
100
AcDbLine
 10
180.364874
 20
113.469732
 30
0.0
 11
176.735465
 21
113.469732
 31
0.0
  0
LINE
  5
159
100
AcDbEntity
  8
レイヤー_2
 62
     7
100
AcDbLine
 10
180.364874
 20
113.469732
 30
0.0
 11
180.601552
 21
113.233398
 31
0.0
  0
LINE
  5
158
100
AcDbEntity
  8
レイヤー_2
 62
     7
100
AcDbLine
 10
179.79471
 20
113.233398
 30
0.0
 11
179.33858
 21
113.233398
 31
0.0
  0
LINE
  5
157
100
AcDbEntity
  8
レイヤー_2
 62
     7
100
AcDbLine
 10
177.760381
 20
113.233398
 30
0.0
 11
177.304595
 21
113.233398
 31
0.0
  0
LINE
  5
156
100
AcDbEntity
  8
レイヤー_2
 62
     7
100
AcDbLine
 10
176.735465
 20
113.469732
 30
0.0
 11
176.497409
 21
113.233398
 31
0.0
  0
LINE
  5
155
100
AcDbEntity
  8
レイヤー_2
 62
     7
100
AcDbLine
 10
176.497409
 20
110.076313
 30
0.0
 11
176.497409
 21
113.233398
 31
0.0
  0
LINE
  5
154
100
AcDbEntity
  8
レイヤー_2
 62
     7
100
AcDbLine
 10
177.304595
 20
110.076313
 30
0.0
 11
177.304595
 21
113.233398
 31
0.0
  0
LINE
  5
153
100
AcDbEntity
  8
レイヤー_2
 62
     7
100
AcDbLine
 10
177.760381
 20
110.076313
 30
0.0
 11
177.760381
 21
113.233398
 31
0.0
  0
LINE
  5
152
100
AcDbEntity
  8
レイヤー_2
 62
     7
100
AcDbLine
 10
179.33858
 20
110.076313
 30
0.0
 11
179.33858
 21
113.233398
 31
0.0
  0
LINE
  5
151
100
AcDbEntity
  8
レイヤー_2
 62
     7
100
AcDbLine
 10
179.79471
 20
110.076313
 30
0.0
 11
179.79471
 21
113.233398
 31
0.0
  0
LINE
  5
150
100
AcDbEntity
  8
レイヤー_2
 62
     7
100
AcDbLine
 10
180.601552
 20
110.076313
 30
0.0
 11
180.601552
 21
113.233398
 31
0.0
  0
SPLINE
  5
14F
100
AcDbEntity
  8
レイヤー_2
 62
     7
100
AcDbSpline
210
0.0
220
0.0
230
1.0
 70
     8
 71
     3
 72
     8
 73
     4
 74
     0
 42
0.00000001
 43
0.00000001
 40
0.0
 40
0.0
 40
0.0
 40
0.0
 40
1.0
 40
1.0
 40
1.0
 40
1.0
 10
176.67517632378471
 20
109.98191731770832
 30
0.0
 10
176.88257107204859
 20
109.87029622395832
 30
0.0
 10
177.13854166666664
 20
109.90957031249999
 30
0.0
 10
177.30459526909721
 20
110.07631293402777
 30
0.0
  0
SPLINE
  5
14E
100
AcDbEntity
  8
レイヤー_2
 62
     7
100
AcDbSpline
210
0.0
220
0.0
230
1.0
 70
     8
 71
     3
 72
     8
 73
     4
 74
     0
 42
0.00000001
 43
0.00000001
 40
0.0
 40
0.0
 40
0.0
 40
0.0
 40
1.0
 40
1.0
 40
1.0
 40
1.0
 10
179.79471028645833
 20
110.07631293402777
 30
0.0
 10
179.96041937934027
 20
109.90957031249999
 30
0.0
 10
180.21673448350694
 20
109.87029622395832
 30
0.0
 10
180.42412923177082
 20
109.98191731770832
 30
0.0
  0
SPLINE
  5
14D
100
AcDbEntity
  8
レイヤー_2
 62
     7
100
AcDbSpline
210
0.0
220
0.0
230
1.0
 70
     8
 71
     3
 72
     8
 73
     4
 74
     0
 42
0.00000001
 43
0.00000001
 40
0.0
 40
0.0
 40
0.0
 40
0.0
 40
1.0
 40
1.0
 40
1.0
 40
1.0
 10
177.76038140190971
 20
110.07631293402777
 30
0.0
 10
178.26508789062498
 20
109.86616210937498
 30
0.0
 10
178.8331841362847
 20
109.86616210937498
 30
0.0
 10
179.33857964409719
 20
110.07631293402777
 30
0.0
  0
SPLINE
  5
14C
100
AcDbEntity
  8
レイヤー_2
 62
     7
100
AcDbSpline
210
0.0
220
0.0
230
1.0
 70
     8
 71
     3
 72
     8
 73
     4
 74
     0
 42
0.00000001
 43
0.00000001
 40
0.0
 40
0.0
 40
0.0
 40
0.0
 40
1.0
 40
1.0
 40
1.0
 40
1.0
 10
177.30459526909721
 20
113.23339843749999
 30
0.0
 10
177.13854166666664
 20
113.40014105902777
 30
0.0
 10
176.88257107204859
 20
113.43872612847221
 30
0.0
 10
176.67517632378471
 20
113.32848307291665
 30
0.0
  0
SPLINE
  5
14B
100
AcDbEntity
  8
レイヤー_2
 62
     7
100
AcDbSpline
210
0.0
220
0.0
230
1.0
 70
     8
 71
     3
 72
     8
 73
     4
 74
     0
 42
0.00000001
 43
0.00000001
 40
0.0
 40
0.0
 40
0.0
 40
0.0
 40
1.0
 40
1.0
 40
1.0
 40
1.0
 10
180.42412923177082
 20
113.32848307291665
 30
0.0
 10
180.21673448350694
 20
113.43872612847221
 30
0.0
 10
179.96041937934027
 20
113.40014105902777
 30
0.0
 10
179.79471028645833
 20
113.23339843749999
 30
0.0
  0
SPLINE
  5
14A
100
AcDbEntity
  8
レイヤー_2
 62
     7
100
AcDbSpline
210
0.0
220
0.0
230
1.0
 70
     8
 71
     3
 72
     8
 73
     4
 74
     0
 42
0.00000001
 43
0.00000001
 40
0.0
 40
0.0
 40
0.0
 40
0.0
 40
1.0
 40
1.0
 40
1.0
 40
1.0
 10
179.33857964409719
 20
113.23339843749999
 30
0.0
 10
178.8331841362847
 20
113.44354926215277
 30
0.0
 10
178.26508789062498
 20
113.44354926215277
 30
0.0
 10
177.76038140190971
 20
113.23339843749999
 30
0.0
  0
LINE
  5
149
100
AcDbEntity
  8
レイヤー_2
 62
     7
100
AcDbLine
 10
177.800345
 20
117.301367
 30
0.0
 11
177.800345
 21
118.381749
 31
0.0
  0
LINE
  5
148
100
AcDbEntity
  8
レイヤー_2
 62
     7
100
AcDbLine
 10
179.299306
 20
117.301367
 30
0.0
 11
179.299306
 21
118.112343
 31
0.0
  0
LINE
  5
147
100
AcDbEntity
  8
レイヤー_2
 62
     7
100
AcDbLine
 10
179.890828
 20
113.620627
 30
0.0
 11
179.890828
 21
114.459163
 31
0.0
  0
LINE
  5
146
100
AcDbEntity
  8
レイヤー_2
 62
     7
100
AcDbLine
 10
177.207444
 20
114.459163
 30
0.0
 11
177.207444
 21
113.620627
 31
0.0
  0
LINE
  5
145
100
AcDbEntity
  8
レイヤー_2
 62
     7
100
AcDbLine
 10
177.287025
 20
113.756364
 30
0.0
 11
179.812625
 21
113.756364
 31
0.0
  0
LINE
  5
144
100
AcDbEntity
  8
レイヤー_2
  6
AI9-LType2
 62
     7
100
AcDbLine
 10
166.297171
 20
115.520942
 30
0.0
 11
166.297171
 21
149.788445
 31
0.0
  0
SPLINE
  5
143
100
AcDbEntity
  8
レイヤー_2
 62
     7
100
AcDbSpline
210
0.0
220
0.0
230
1.0
 70
     8
 71
     3
 72
    95
 73
    91
 74
     0
 42
0.00000001
 43
0.00000001
 40
0.0
 40
0.0
 40
0.0
 40
0.0
 40
1.0
 40
1.0
 40
1.0
 40
2.0
 40
2.0
 40
2.0
 40
3.0
 40
3.0
 40
3.0
 40
4.0
 40
4.0
 40
4.0
 40
5.0
 40
5.0
 40
5.0
 40
6.0
 40
6.0
 40
6.0
 40
7.0
 40
7.0
 40
7.0
 40
8.0
 40
8.0
 40
8.0
 40
9.0
 40
9.0
 40
9.0
 40
10.0
 40
10.0
 40
10.0
 40
11.0
 40
11.0
 40
11.0
 40
12.0
 40
12.0
 40
12.0
 40
13.0
 40
13.0
 40
13.0
 40
14.0
 40
14.0
 40
14.0
 40
15.0
 40
15.0
 40
15.0
 40
16.0
 40
16.0
 40
16.0
 40
17.0
 40
17.0
 40
17.0
 40
18.0
 40
18.0
 40
18.0
 40
19.0
 40
19.0
 40
19.0
 40
20.0
 40
20.0
 40
20.0
 40
21.0
 40
21.0
 40
21.0
 40
22.0
 40
22.0
 40
22.0
 40
23.0
 40
23.0
 40
23.0
 40
24.0
 40
24.0
 40
24.0
 40
25.0
 40
25.0
 40
25.0
 40
26.0
 40
26.0
 40
26.0
 40
27.0
 40
27.0
 40
27.0
 40
28.0
 40
28.0
 40
28.0
 40
29.0
 40
29.0
 40
29.0
 40
30.0
 40
30.0
 40
30.0
 40
30.0
 10
156.91273057725692
 20
118.21707356770833
 30
0.0
 10
156.92168782552082
 20
118.21569552951388
 30
0.0
 10
156.93030056423609
 20
118.21293945312499
 30
0.0
 10
156.93891330295136
 20
118.21087239583332
 30
0.0
 10
156.94683702256944
 20
118.20811631944443
 30
0.0
 10
156.95579427083331
 20
118.20673828124998
 30
0.0
 10
156.96371799045139
 20
118.20536024305555
 30
0.0
 10
156.97233072916666
 20
118.20260416666666
 30
0.0
 10
156.98094346788193
 20
118.20122612847221
 30
0.0
 10
156.9892116970486
 20
118.19984809027777
 30
0.0
 10
156.99713541666665
 20
118.19847005208332
 30
0.0
 10
157.00643717447915
 20
118.19709201388888
 30
0.0
 10
157.01436089409719
 20
118.19640299479165
 30
0.0
 10
157.02331814236109
 20
118.19571397569443
 30
0.0
 10
157.03124186197914
 20
118.19571397569443
 30
0.0
 10
157.04019911024304
 20
118.19571397569443
 30
0.0
 10
157.05949164496528
 20
118.19571397569443
 30
0.0
 10
157.07878417968749
 20
118.19847005208332
 30
0.0
 10
157.09669867621525
 20
118.20329318576388
 30
0.0
 10
157.11564670138887
 20
118.20742730034721
 30
0.0
 10
157.13493923611111
 20
118.21293945312499
 30
0.0
 10
157.15423177083332
 20
118.21707356770833
 30
0.0
 10
157.17352430555553
 20
118.22327473958332
 30
0.0
 10
157.19212782118055
 20
118.22947591145832
 30
0.0
 10
157.21107584635416
 20
118.23429904513888
 30
0.0
 10
157.22899034288193
 20
118.23981119791665
 30
0.0
 10
157.24759385850692
 20
118.24325629340277
 30
0.0
 10
157.26654188368053
 20
118.24532335069443
 30
0.0
 10
157.28307834201388
 20
118.2473904079861
 30
0.0
 10
157.30064832899305
 20
118.2473904079861
 30
0.0
 10
157.31856282552081
 20
118.24325629340277
 30
0.0
 10
157.34543457031248
 20
118.23636610243055
 30
0.0
 10
157.36886121961805
 20
118.22603081597221
 30
0.0
 10
157.39022081163193
 20
118.2101833767361
 30
0.0
 10
157.41502549913193
 20
118.19226888020832
 30
0.0
 10
157.43776312934025
 20
118.17297634548611
 30
0.0
 10
157.45843370225694
 20
118.15230577256943
 30
0.0
 10
157.48186035156249
 20
118.13094618055554
 30
0.0
 10
157.50253092447915
 20
118.10958658854166
 30
0.0
 10
157.52457953559028
 20
118.08891601562499
 30
0.0
 10
157.54525010850693
 20
118.06755642361109
 30
0.0
 10
157.56798773871526
 20
118.04964192708333
 30
0.0
 10
157.59210340711803
 20
118.03379448784722
 30
0.0
 10
157.61346299913194
 20
118.01863606770833
 30
0.0
 10
157.63757866753471
 20
118.00967881944443
 30
0.0
 10
157.66307237413193
 20
118.00623372395832
 30
0.0
 10
157.68753255208333
 20
118.00278862847222
 30
0.0
 10
157.71268174913192
 20
118.00692274305554
 30
0.0
 10
157.73645290798609
 20
118.01725802951388
 30
0.0
 10
157.76125759548609
 20
118.02828233506943
 30
0.0
 10
157.78675130208333
 20
118.04068467881943
 30
0.0
 10
157.81190049913192
 20
118.05170898437498
 30
0.0
 10
157.83877224392359
 20
118.06480034722222
 30
0.0
 10
157.86529947916665
 20
118.07789171006944
 30
0.0
 10
157.89044867621527
 20
118.09373914930555
 30
0.0
 10
157.91421983506942
 20
118.10683051215277
 30
0.0
 10
157.93902452256944
 20
118.11785481770832
 30
0.0
 10
157.9658962673611
 20
118.12681206597222
 30
0.0
 10
157.98897840711805
 20
118.13439127604165
 30
0.0
 10
158.01412760416665
 20
118.13783637152777
 30
0.0
 10
158.03858778211804
 20
118.13439127604165
 30
0.0
 10
158.05615776909721
 20
118.13232421874999
 30
0.0
 10
158.07269422743053
 20
118.12543402777777
 30
0.0
 10
158.08888617621525
 20
118.11647677951387
 30
0.0
 10
158.1054226345486
 20
118.10751953124999
 30
0.0
 10
158.12161458333333
 20
118.09580620659722
 30
0.0
 10
158.1364284939236
 20
118.08409288194443
 30
0.0
 10
158.15262044270833
 20
118.07100151909721
 30
0.0
 10
158.16915690104165
 20
118.05722113715277
 30
0.0
 10
158.18431532118055
 20
118.04412977430555
 30
0.0
 10
158.19981825086805
 20
118.0303493923611
 30
0.0
 10
158.21704372829859
 20
118.01725802951388
 30
0.0
 10
158.23392469618054
 20
118.00554470486109
 30
0.0
 10
158.25046115451389
 20
117.99383138020832
 30
0.0
 10
158.26803114149305
 20
117.98349609374999
 30
0.0
 10
158.28663465711804
 20
117.97522786458332
 30
0.0
 10
158.29490288628472
 20
117.97316080729166
 30
0.0
 10
158.30213758680554
 20
117.96902669270833
 30
0.0
 10
158.31109483506944
 20
117.96695963541666
 30
0.0
 10
158.31936306423609
 20
117.96558159722221
 30
0.0
 10
158.32728678385416
 20
117.96351453993054
 30
0.0
 10
158.33624403211803
 20
117.96144748263887
 30
0.0
 10
158.34347873263889
 20
117.95938042534721
 30
0.0
 10
158.35278049045138
 20
117.95800238715276
 30
0.0
 10
158.36139322916665
 20
117.95800238715276
 30
0.0
 10
158.3689724392361
 20
117.95662434895833
 30
0.0
 10
158.3782741970486
 20
117.95593532986111
 30
0.0
 10
158.38654242621527
 20
117.95524631076388
 30
0.0
 10
158.39549967447914
 20
117.95455729166666
 30
0.0
 10
158.40445692274304
 20
117.95386827256944
 30
0.0
 10
158.41306966145831
 20
117.95386827256944
 30
0.0
  0
LINE
  5
142
100
AcDbEntity
  8
レイヤー_2
 62
     7
100
AcDbLine
 10
159.004248
 20
113.598579
 30
0.0
 11
158.9257
 21
113.598579
 31
0.0
  0
LINE
  5
141
100
AcDbEntity
  8
レイヤー_2
 62
     7
100
AcDbLine
 10
158.9257
 20
114.318604
 30
0.0
 11
158.9257
 21
113.598579
 31
0.0
  0
LINE
  5
140
100
AcDbEntity
  8
レイヤー_2
 62
     7
100
AcDbLine
 10
158.9257
 20
113.598579
 30
0.0
 11
159.004248
 21
113.461464
 31
0.0
  0
LINE
  5
13F
100
AcDbEntity
  8
レイヤー_2
 62
     7
100
AcDbLine
 10
156.4001
 20
113.598579
 30
0.0
 11
156.321897
 21
113.598579
 31
0.0
  0
LINE
  5
13E
100
AcDbEntity
  8
レイヤー_2
 62
     7
100
AcDbLine
 10
156.4001
 20
113.598579
 30
0.0
 11
156.4001
 21
114.318604
 31
0.0
  0
LINE
  5
13D
100
AcDbEntity
  8
レイヤー_2
 62
     7
100
AcDbLine
 10
156.321897
 20
113.461464
 30
0.0
 11
156.4001
 21
113.598579
 31
0.0
  0
LINE
  5
13C
100
AcDbEntity
  8
レイヤー_2
  6
AI9-LType2
 62
     7
100
AcDbLine
 10
157.574878
 20
123.416412
 30
0.0
 11
157.574878
 21
109.265337
 31
0.0
  0
LINE
  5
13B
100
AcDbEntity
  8
レイヤー_2
 62
     7
100
AcDbLine
 10
156.923066
 20
114.39164
 30
0.0
 11
156.598882
 21
114.39164
 31
0.0
  0
LINE
  5
13A
100
AcDbEntity
  8
レイヤー_2
 62
     7
100
AcDbLine
 10
156.923066
 20
116.04873
 30
0.0
 11
156.923066
 21
114.39164
 31
0.0
  0
LINE
  5
139
100
AcDbEntity
  8
レイヤー_2
 62
     7
100
AcDbLine
 10
156.598882
 20
116.04873
 30
0.0
 11
156.923066
 21
116.04873
 31
0.0
  0
LINE
  5
138
100
AcDbEntity
  8
レイヤー_2
 62
     7
100
AcDbLine
 10
156.598882
 20
116.04873
 30
0.0
 11
156.598882
 21
114.39164
 31
0.0
  0
LINE
  5
137
100
AcDbEntity
  8
レイヤー_2
 62
     7
100
AcDbLine
 10
156.478993
 20
117.143582
 30
0.0
 11
157.663072
 21
117.143582
 31
0.0
  0
LINE
  5
136
100
AcDbEntity
  8
レイヤー_2
 62
     7
100
AcDbLine
 10
156.006326
 20
114.301378
 30
0.0
 11
157.663072
 21
114.301378
 31
0.0
  0
LINE
  5
135
100
AcDbEntity
  8
レイヤー_2
 62
     7
100
AcDbLine
 10
155.848541
 20
114.39164
 30
0.0
 11
156.006326
 21
114.301378
 31
0.0
  0
LINE
  5
134
100
AcDbEntity
  8
レイヤー_2
 62
     7
100
AcDbLine
 10
156.478993
 20
117.143582
 30
0.0
 11
155.933634
 21
116.197559
 31
0.0
  0
LINE
  5
133
100
AcDbEntity
  8
レイヤー_2
 62
     7
100
AcDbLine
 10
155.848541
 20
116.04873
 30
0.0
 11
155.848541
 21
114.39164
 31
0.0
  0
LINE
  5
132
100
AcDbEntity
  8
レイヤー_2
 62
     7
100
AcDbLine
 10
158.460612
 20
117.143582
 30
0.0
 11
157.663072
 21
117.143582
 31
0.0
  0
LINE
  5
131
100
AcDbEntity
  8
レイヤー_2
 62
     7
100
AcDbLine
 10
159.044211
 20
114.301378
 30
0.0
 11
157.663072
 21
114.301378
 31
0.0
  0
LINE
  5
130
100
AcDbEntity
  8
レイヤー_2
 62
     7
100
AcDbLine
 10
158.727951
 20
114.39164
 30
0.0
 11
158.403768
 21
114.39164
 31
0.0
  0
LINE
  5
12F
100
AcDbEntity
  8
レイヤー_2
 62
     7
100
AcDbLine
 10
158.403768
 20
114.39164
 30
0.0
 11
158.403768
 21
116.04873
 31
0.0
  0
LINE
  5
12E
100
AcDbEntity
  8
レイヤー_2
 62
     7
100
AcDbLine
 10
158.403768
 20
116.04873
 30
0.0
 11
158.727951
 21
116.04873
 31
0.0
  0
LINE
  5
12D
100
AcDbEntity
  8
レイヤー_2
 62
     7
100
AcDbLine
 10
158.727951
 20
114.39164
 30
0.0
 11
158.727951
 21
116.04873
 31
0.0
  0
LINE
  5
12C
100
AcDbEntity
  8
レイヤー_2
 62
     7
100
AcDbLine
 10
157.663072
 20
117.143582
 30
0.0
 11
158.847496
 21
117.143582
 31
0.0
  0
LINE
  5
12B
100
AcDbEntity
  8
レイヤー_2
 62
     7
100
AcDbLine
 10
157.663072
 20
114.301378
 30
0.0
 11
159.319819
 21
114.301378
 31
0.0
  0
LINE
  5
12A
100
AcDbEntity
  8
レイヤー_2
 62
     7
100
AcDbLine
 10
159.319819
 20
114.301378
 30
0.0
 11
159.478293
 21
114.39164
 31
0.0
  0
LINE
  5
129
100
AcDbEntity
  8
レイヤー_2
 62
     7
100
AcDbLine
 10
159.478293
 20
116.04873
 30
0.0
 11
158.847496
 21
117.143582
 31
0.0
  0
LINE
  5
128
100
AcDbEntity
  8
レイヤー_2
 62
     7
100
AcDbLine
 10
159.478293
 20
114.39164
 30
0.0
 11
159.478293
 21
116.04873
 31
0.0
  0
LINE
  5
127
100
AcDbEntity
  8
レイヤー_2
 62
     7
100
AcDbLine
 10
155.933634
 20
116.197559
 30
0.0
 11
155.848541
 21
116.04873
 31
0.0
  0
SPLINE
  5
126
100
AcDbEntity
  8
レイヤー_2
 62
     7
100
AcDbSpline
210
0.0
220
0.0
230
1.0
 70
     8
 71
     3
 72
     8
 73
     4
 74
     0
 42
0.00000001
 43
0.00000001
 40
0.0
 40
0.0
 40
0.0
 40
0.0
 40
1.0
 40
1.0
 40
1.0
 40
1.0
 10
156.92306586371527
 20
114.39163953993055
 30
0.0
 10
157.16491156684026
 20
114.33238389756943
 30
0.0
 10
157.41364746093748
 20
114.30137803819443
 30
0.0
 10
157.66307237413193
 20
114.30137803819443
 30
0.0
  0
SPLINE
  5
125
100
AcDbEntity
  8
レイヤー_2
 62
     7
100
AcDbSpline
210
0.0
220
0.0
230
1.0
 70
     8
 71
     3
 72
     8
 73
     4
 74
     0
 42
0.00000001
 43
0.00000001
 40
0.0
 40
0.0
 40
0.0
 40
0.0
 40
1.0
 40
1.0
 40
1.0
 40
1.0
 10
155.84854058159721
 20
114.39163953993055
 30
0.0
 10
156.08315158420137
 20
114.27175021701387
 30
0.0
 10
156.36323784722219
 20
114.27175021701387
 30
0.0
 10
156.59888237847221
 20
114.39163953993055
 30
0.0
  0
SPLINE
  5
124
100
AcDbEntity
  8
レイヤー_2
 62
     7
100
AcDbSpline
210
0.0
220
0.0
230
1.0
 70
     8
 71
     3
 72
     8
 73
     4
 74
     0
 42
0.00000001
 43
0.00000001
 40
0.0
 40
0.0
 40
0.0
 40
0.0
 40
1.0
 40
1.0
 40
1.0
 40
1.0
 10
157.66307237413193
 20
116.32158203124999
 30
0.0
 10
157.39194335937498
 20
116.32158203124999
 30
0.0
 10
157.1290825737847
 20
116.22511935763887
 30
0.0
 10
156.92306586371527
 20
116.04873046874999
 30
0.0
  0
SPLINE
  5
123
100
AcDbEntity
  8
レイヤー_2
 62
     7
100
AcDbSpline
210
0.0
220
0.0
230
1.0
 70
     8
 71
     3
 72
    11
 73
     7
 74
     0
 42
0.00000001
 43
0.00000001
 40
0.0
 40
0.0
 40
0.0
 40
0.0
 40
1.0
 40
1.0
 40
1.0
 40
2.0
 40
2.0
 40
2.0
 40
2.0
 10
156.59888237847221
 20
116.04873046874999
 30
0.0
 10
156.53377007378469
 20
116.25612521701387
 30
0.0
 10
156.31293945312498
 20
116.37188042534721
 30
0.0
 10
156.10623372395833
 20
116.3064236111111
 30
0.0
 10
156.04043240017359
 20
116.28644205729165
 30
0.0
 10
155.98117675781248
 20
116.24854600694444
 30
0.0
 10
155.93363444010416
 20
116.19755859374999
 30
0.0
  0
SPLINE
  5
122
100
AcDbEntity
  8
レイヤー_2
 62
     7
100
AcDbSpline
210
0.0
220
0.0
230
1.0
 70
     8
 71
     3
 72
     8
 73
     4
 74
     0
 42
0.00000001
 43
0.00000001
 40
0.0
 40
0.0
 40
0.0
 40
0.0
 40
1.0
 40
1.0
 40
1.0
 40
1.0
 10
157.66307237413193
 20
114.30137803819443
 30
0.0
 10
157.91249728732637
 20
114.30137803819443
 30
0.0
 10
158.16157769097219
 20
114.33238389756943
 30
0.0
 10
158.40376790364581
 20
114.39163953993055
 30
0.0
  0
SPLINE
  5
121
100
AcDbEntity
  8
レイヤー_2
 62
     7
100
AcDbSpline
210
0.0
220
0.0
230
1.0
 70
     8
 71
     3
 72
     8
 73
     4
 74
     0
 42
0.00000001
 43
0.00000001
 40
0.0
 40
0.0
 40
0.0
 40
0.0
 40
1.0
 40
1.0
 40
1.0
 40
1.0
 10
158.72795138888887
 20
114.39163953993055
 30
0.0
 10
158.96325141059026
 20
114.27175021701387
 30
0.0
 10
159.24264865451389
 20
114.27175021701387
 30
0.0
 10
159.47829318576387
 20
114.39163953993055
 30
0.0
  0
SPLINE
  5
120
100
AcDbEntity
  8
レイヤー_2
 62
     7
100
AcDbSpline
210
0.0
220
0.0
230
1.0
 70
     8
 71
     3
 72
     8
 73
     4
 74
     0
 42
0.00000001
 43
0.00000001
 40
0.0
 40
0.0
 40
0.0
 40
0.0
 40
1.0
 40
1.0
 40
1.0
 40
1.0
 10
158.40376790364581
 20
116.04873046874999
 30
0.0
 10
158.19775119357638
 20
116.22511935763887
 30
0.0
 10
157.9348904079861
 20
116.32158203124999
 30
0.0
 10
157.66307237413193
 20
116.32158203124999
 30
0.0
  0
SPLINE
  5
11F
100
AcDbEntity
  8
レイヤー_2
 62
     7
100
AcDbSpline
210
0.0
220
0.0
230
1.0
 70
     8
 71
     3
 72
    11
 73
     7
 74
     0
 42
0.00000001
 43
0.00000001
 40
0.0
 40
0.0
 40
0.0
 40
0.0
 40
1.0
 40
1.0
 40
1.0
 40
2.0
 40
2.0
 40
2.0
 40
2.0
 10
159.47829318576387
 20
116.04873046874999
 30
0.0
 10
159.41318088107639
 20
116.25612521701387
 30
0.0
 10
159.19372829861109
 20
116.37188042534721
 30
0.0
 10
158.98667805989581
 20
116.3064236111111
 30
0.0
 10
158.86368815104166
 20
116.26852756076387
 30
0.0
 10
158.76653645833332
 20
116.17206488715277
 30
0.0
 10
158.72795138888887
 20
116.04873046874999
 30
0.0
  0
LINE
  5
11E
100
AcDbEntity
  8
レイヤー_2
 62
     7
100
AcDbLine
 10
155.788596
 20
109.822754
 30
0.0
 11
155.612552
 21
109.917839
 31
0.0
  0
LINE
  5
11D
100
AcDbEntity
  8
レイヤー_2
 62
     7
100
AcDbLine
 10
159.714627
 20
109.917839
 30
0.0
 11
159.537549
 21
109.822754
 31
0.0
  0
LINE
  5
11C
100
AcDbEntity
  8
レイヤー_2
 62
     7
100
AcDbLine
 10
155.612552
 20
113.074235
 30
0.0
 11
155.788596
 21
113.16932
 31
0.0
  0
LINE
  5
11B
100
AcDbEntity
  8
レイヤー_2
 62
     7
100
AcDbLine
 10
159.537549
 20
113.16932
 30
0.0
 11
159.714627
 21
113.074235
 31
0.0
  0
LINE
  5
11A
100
AcDbEntity
  8
レイヤー_2
 62
     7
100
AcDbLine
 10
155.848541
 20
109.681505
 30
0.0
 11
159.478293
 21
109.681505
 31
0.0
  0
LINE
  5
119
100
AcDbEntity
  8
レイヤー_2
 62
     7
100
AcDbLine
 10
156.417326
 20
109.917839
 30
0.0
 11
156.874146
 21
109.917839
 31
0.0
  0
LINE
  5
118
100
AcDbEntity
  8
レイヤー_2
 62
     7
100
AcDbLine
 10
158.451655
 20
109.917839
 30
0.0
 11
158.909508
 21
109.917839
 31
0.0
  0
LINE
  5
117
100
AcDbEntity
  8
レイヤー_2
 62
     7
100
AcDbLine
 10
159.714627
 20
109.917839
 30
0.0
 11
159.478293
 21
109.681505
 31
0.0
  0
LINE
  5
116
100
AcDbEntity
  8
レイヤー_2
 62
     7
100
AcDbLine
 10
155.612552
 20
109.917839
 30
0.0
 11
155.848541
 21
109.681505
 31
0.0
  0
LINE
  5
115
100
AcDbEntity
  8
レイヤー_2
 62
     7
100
AcDbLine
 10
159.478293
 20
113.311258
 30
0.0
 11
155.848541
 21
113.311258
 31
0.0
  0
LINE
  5
114
100
AcDbEntity
  8
レイヤー_2
 62
     7
100
AcDbLine
 10
159.478293
 20
113.311258
 30
0.0
 11
159.714627
 21
113.074235
 31
0.0
  0
LINE
  5
113
100
AcDbEntity
  8
レイヤー_2
 62
     7
100
AcDbLine
 10
158.671107
 20
113.074235
 30
0.0
 11
158.214632
 21
113.074235
 31
0.0
  0
LINE
  5
112
100
AcDbEntity
  8
レイヤー_2
 62
     7
100
AcDbLine
 10
156.636089
 20
113.074235
 30
0.0
 11
156.179614
 21
113.074235
 31
0.0
  0
LINE
  5
111
100
AcDbEntity
  8
レイヤー_2
 62
     7
100
AcDbLine
 10
155.848541
 20
113.311258
 30
0.0
 11
155.612552
 21
113.074235
 31
0.0
  0
LINE
  5
110
100
AcDbEntity
  8
レイヤー_2
 62
     7
100
AcDbLine
 10
155.612552
 20
109.917839
 30
0.0
 11
155.612552
 21
113.074235
 31
0.0
  0
LINE
  5
10F
100
AcDbEntity
  8
レイヤー_2
 62
     7
100
AcDbLine
 10
156.417326
 20
109.917839
 30
0.0
 11
156.417326
 21
113.074235
 31
0.0
  0
LINE
  5
10E
100
AcDbEntity
  8
レイヤー_2
 62
     7
100
AcDbLine
 10
156.874146
 20
109.917839
 30
0.0
 11
156.874146
 21
113.074235
 31
0.0
  0
LINE
  5
10D
100
AcDbEntity
  8
レイヤー_2
 62
     7
100
AcDbLine
 10
158.451655
 20
109.917839
 30
0.0
 11
158.451655
 21
113.074235
 31
0.0
  0
LINE
  5
10C
100
AcDbEntity
  8
レイヤー_2
 62
     7
100
AcDbLine
 10
158.909508
 20
109.917839
 30
0.0
 11
158.909508
 21
113.074235
 31
0.0
  0
LINE
  5
10B
100
AcDbEntity
  8
レイヤー_2
 62
     7
100
AcDbLine
 10
159.714627
 20
109.917839
 30
0.0
 11
159.714627
 21
113.074235
 31
0.0
  0
SPLINE
  5
10A
100
AcDbEntity
  8
レイヤー_2
 62
     7
100
AcDbSpline
210
0.0
220
0.0
230
1.0
 70
     8
 71
     3
 72
     8
 73
     4
 74
     0
 42
0.00000001
 43
0.00000001
 40
0.0
 40
0.0
 40
0.0
 40
0.0
 40
1.0
 40
1.0
 40
1.0
 40
1.0
 10
155.78859592013887
 20
109.82275390624999
 30
0.0
 10
155.99564615885416
 20
109.71113281249998
 30
0.0
 10
156.25230577256943
 20
109.75040690104166
 30
0.0
 10
156.41732584635415
 20
109.91783854166665
 30
0.0
  0
SPLINE
  5
109
100
AcDbEntity
  8
レイヤー_2
 62
     7
100
AcDbSpline
210
0.0
220
0.0
230
1.0
 70
     8
 71
     3
 72
     8
 73
     4
 74
     0
 42
0.00000001
 43
0.00000001
 40
0.0
 40
0.0
 40
0.0
 40
0.0
 40
1.0
 40
1.0
 40
1.0
 40
1.0
 10
158.90950792100693
 20
109.91783854166665
 30
0.0
 10
159.07418348524305
 20
109.75040690104166
 30
0.0
 10
159.3301540798611
 20
109.71113281249998
 30
0.0
 10
159.53754882812498
 20
109.82275390624999
 30
0.0
  0
SPLINE
  5
108
100
AcDbEntity
  8
レイヤー_2
 62
     7
100
AcDbSpline
210
0.0
220
0.0
230
1.0
 70
     8
 71
     3
 72
     8
 73
     4
 74
     0
 42
0.00000001
 43
0.00000001
 40
0.0
 40
0.0
 40
0.0
 40
0.0
 40
1.0
 40
1.0
 40
1.0
 40
1.0
 10
156.87414550781247
 20
109.91783854166665
 30
0.0
 10
157.37954101562499
 20
109.70699869791666
 30
0.0
 10
157.94832628038193
 20
109.70699869791666
 30
0.0
 10
158.45165473090276
 20
109.91783854166665
 30
0.0
  0
SPLINE
  5
107
100
AcDbEntity
  8
レイヤー_2
 62
     7
100
AcDbSpline
210
0.0
220
0.0
230
1.0
 70
     8
 71
     3
 72
     8
 73
     4
 74
     0
 42
0.00000001
 43
0.00000001
 40
0.0
 40
0.0
 40
0.0
 40
0.0
 40
1.0
 40
1.0
 40
1.0
 40
1.0
 10
156.41732584635415
 20
113.07423502604166
 30
0.0
 10
156.25230577256943
 20
113.24166666666666
 30
0.0
 10
155.99564615885416
 20
113.2802517361111
 30
0.0
 10
155.78859592013887
 20
113.16931966145832
 30
0.0
  0
SPLINE
  5
106
100
AcDbEntity
  8
レイヤー_2
 62
     7
100
AcDbSpline
210
0.0
220
0.0
230
1.0
 70
     8
 71
     3
 72
     8
 73
     4
 74
     0
 42
0.00000001
 43
0.00000001
 40
0.0
 40
0.0
 40
0.0
 40
0.0
 40
1.0
 40
1.0
 40
1.0
 40
1.0
 10
159.53754882812498
 20
113.16931966145832
 30
0.0
 10
159.3301540798611
 20
113.2802517361111
 30
0.0
 10
159.07418348524305
 20
113.24166666666666
 30
0.0
 10
158.90950792100693
 20
113.07423502604166
 30
0.0
  0
SPLINE
  5
105
100
AcDbEntity
  8
レイヤー_2
 62
     7
100
AcDbSpline
210
0.0
220
0.0
230
1.0
 70
     8
 71
     3
 72
     8
 73
     4
 74
     0
 42
0.00000001
 43
0.00000001
 40
0.0
 40
0.0
 40
0.0
 40
0.0
 40
1.0
 40
1.0
 40
1.0
 40
1.0
 10
158.45165473090276
 20
113.07423502604166
 30
0.0
 10
157.94832628038193
 20
113.28507486979166
 30
0.0
 10
157.37954101562499
 20
113.28507486979166
 30
0.0
 10
156.87414550781247
 20
113.07423502604166
 30
0.0
  0
LINE
  5
104
100
AcDbEntity
  8
レイヤー_2
 62
     7
100
AcDbLine
 10
156.912731
 20
117.143582
 30
0.0
 11
156.912731
 21
118.222586
 31
0.0
  0
LINE
  5
103
100
AcDbEntity
  8
レイヤー_2
 62
     7
100
AcDbLine
 10
158.41307
 20
117.143582
 30
0.0
 11
158.41307
 21
117.953868
 31
0.0
  0
LINE
  5
102
100
AcDbEntity
  8
レイヤー_2
 62
     7
100
AcDbLine
 10
159.004248
 20
113.461464
 30
0.0
 11
159.004248
 21
114.301378
 31
0.0
  0
LINE
  5
101
100
AcDbEntity
  8
レイヤー_2
 62
     7
100
AcDbLine
 10
156.321897
 20
114.301378
 30
0.0
 11
156.321897
 21
113.461464
 31
0.0
  0
LINE
  5
100
100
AcDbEntity
  8
レイヤー_2
 62
     7
100
AcDbLine
 10
156.4001
 20
113.598579
 30
0.0
 11
158.9257
 21
113.598579
 31
0.0
  0
LINE
  5
FF
100
AcDbEntity
  8
レイヤー_2
  6
AI9-LType2
 62
     7
100
AcDbLine
 10
166.297171
 20
115.520942
 30
0.0
 11
157.574878
 21
123.416412
 31
0.0
  0
MTEXT
  5
FD
100
AcDbEntity
  8
レイヤー_2
 62
     7
100
AcDbMText
 10
158.192239
 20
109.138919
 30
0.0
 40
2.624835
 41
0.0
 71
     1
 72
     2
  1
\fGothicBBB Medium|b0|i0|c128;\H2.6248;\C7;\U+63A5\U+7D9A\U+30BD\U+30B1\U+30C3\U+30C8
  7
STD
210
0.0
220
0.0
230
1.0
 73
     1
 44
1.0
  0
MTEXT
  5
FC
100
AcDbEntity
  8
レイヤー_2
 62
     7
100
AcDbMText
 10
159.251606
 20
105.406847
 30
0.0
 40
2.624835
 41
0.0
 71
     1
 72
     2
  1
\fGothicBBB Medium|b0|i0|c128;\H2.6248;\C7;\U+FF08\U+9006\U+6B62\U+5F01\U+4ED8\U+FF09
  7
STD
210
0.0
220
0.0
230
1.0
 73
     1
 44
1.0
  0
SPLINE
  5
FB
100
AcDbEntity
  8
レイヤー_2
 62
     7
100
AcDbSpline
210
0.0
220
0.0
230
1.0
 70
     8
 71
     3
 72
    11
 73
     7
 74
     0
 42
0.00000001
 43
0.00000001
 40
0.0
 40
0.0
 40
0.0
 40
0.0
 40
1.0
 40
1.0
 40
1.0
 40
2.0
 40
2.0
 40
2.0
 40
2.0
 10
84.90231119791666
 20
174.24776204427081
 30
0.0
 10
84.298041449652771
 20
174.74109971788192
 30
0.0
 10
83.91064046223957
 20
175.49213053385415
 30
0.0
 10
83.91064046223957
 20
176.33256157769097
 30
0.0
 10
83.91064046223957
 20
177.17471516927083
 30
0.0
 10
84.298041449652771
 20
177.9248847113715
 30
0.0
 10
84.90231119791666
 20
178.41822238498261
 30
0.0
  0
SPLINE
  5
FA
100
AcDbEntity
  8
レイヤー_2
 62
     7
100
AcDbSpline
210
0.0
220
0.0
230
1.0
 70
     8
 71
     3
 72
    11
 73
     7
 74
     0
 42
0.00000001
 43
0.00000001
 40
0.0
 40
0.0
 40
0.0
 40
0.0
 40
1.0
 40
1.0
 40
1.0
 40
2.0
 40
2.0
 40
2.0
 40
2.0
 10
88.371350097656247
 20
178.35810546874998
 30
0.0
 10
88.934967719184016
 20
177.86511230468747
 30
0.0
 10
89.291018337673606
 20
177.14078097873264
 30
0.0
 10
89.291018337673606
 20
176.33256157769097
 30
0.0
 10
89.291018337673606
 20
175.46680908203123
 30
0.0
 10
88.880879720052079
 20
174.69527994791665
 30
0.0
 10
88.244053819444431
 20
174.20349256727428
 30
0.0
  0
SPLINE
  5
F9
100
AcDbEntity
  8
レイヤー_2
 62
     7
100
AcDbSpline
210
0.0
220
0.0
230
1.0
 70
     8
 71
     3
 72
    17
 73
    13
 74
     0
 42
0.00000001
 43
0.00000001
 40
0.0
 40
0.0
 40
0.0
 40
0.0
 40
1.0
 40
1.0
 40
1.0
 40
2.0
 40
2.0
 40
2.0
 40
3.0
 40
3.0
 40
3.0
 40
4.0
 40
4.0
 40
4.0
 40
4.0
 10
123.66687011718749
 20
99.57290581597222
 30
0.0
 10
123.66687011718749
 20
100.77317708333332
 30
0.0
 10
124.63942057291665
 20
101.74469401041665
 30
0.0
 10
125.83831380208332
 20
101.74469401041665
 30
0.0
 10
127.03824055989583
 20
101.74469401041665
 30
0.0
 10
128.00975748697917
 20
100.77317708333332
 30
0.0
 10
128.00975748697917
 20
99.57290581597222
 30
0.0
 10
128.00975748697917
 20
98.375390624999994
 30
0.0
 10
127.03824055989583
 20
97.401806640624997
 30
0.0
 10
125.83831380208332
 20
97.401806640624997
 30
0.0
 10
124.63942057291665
 20
97.401806640624997
 30
0.0
 10
123.66687011718749
 20
98.375390624999994
 30
0.0
 10
123.66687011718749
 20
99.57290581597222
 30
0.0
  0
LINE
  5
F8
100
AcDbEntity
  8
レイヤー_2
 62
     7
100
AcDbLine
 10
119.802162
 20
94.061442
 30
0.0
 11
128.030428
 21
101.812907
 31
0.0
  0
LINE
  5
F7
100
AcDbEntity
  8
レイヤー_2
 62
     7
100
AcDbLine
 10
119.802162
 20
94.061442
 30
0.0
 11
110.05013
 21
94.061442
 31
0.0
  0
LINE
  5
F6
100
AcDbEntity
  8
レイヤー_2
 62
     7
100
AcDbLine
 10
128.230588
 20
101.117687
 30
0.0
 11
126.33613
 21
101.117687
 31
0.0
  0
LINE
  5
F5
100
AcDbEntity
  8
レイヤー_2
 62
     7
100
AcDbLine
 10
125.151017
 20
98.065332
 30
0.0
 11
123.257248
 21
98.065332
 31
0.0
  0
MTEXT
  5
F4
100
AcDbEntity
  8
レイヤー_2
 62
     7
100
AcDbMText
 10
109.539567
 20
98.844153
 30
0.0
 40
3.674768
 41
0.0
 71
     1
 72
     2
  1
\fGothicBBB Medium|b0|i0|c128;\H3.6748;\C7;\U+03C6\U+0033\U+0032
  7
STD
210
0.0
220
0.0
230
1.0
 73
     1
 44
1.0
  0
MTEXT
  5
F3
100
AcDbEntity
  8
レイヤー_2
 62
     7
100
AcDbMText
 10
36.893126
 20
174.773828
 30
0.0
 40
3.674768
 41
0.0
 71
     1
 72
     2
  1
\fGothicBBB Medium|b0|i0|c128;\H3.6748;\C7;\U+0032\U+0039\U+0035
  7
STD
210
0.0
220
0.0
230
1.0
 11
0.0
 21
1.0
 31
0.0
 73
     1
 44
1.0
  0
MTEXT
  5
F2
100
AcDbEntity
  8
レイヤー_2
 62
     7
100
AcDbMText
 10
30.197411
 20
182.398341
 30
0.0
 40
3.674768
 41
0.0
 71
     1
 72
     2
  1
\fGothicBBB Medium|b0|i0|c128;\H3.6748;\C7;\U+0033\U+0038\U+0030
  7
STD
210
0.0
220
0.0
230
1.0
 11
0.0
 21
1.0
 31
0.0
 73
     1
 44
1.0
  0
MTEXT
  5
F1
100
AcDbEntity
  8
レイヤー_2
 62
     7
100
AcDbMText
 10
74.901888
 20
181.413618
 30
0.0
 40
3.674768
 41
0.0
 71
     1
 72
     2
  1
\fGothicBBB Medium|b0|i0|c128;\H3.6748;\C7;\U+0039\U+0030
  7
STD
210
0.0
220
0.0
230
1.0
 73
     1
 44
1.0
  0
MTEXT
  5
F0
100
AcDbEntity
  8
レイヤー_2
 62
     7
100
AcDbMText
 10
151.524946
 20
166.985386
 30
0.0
 40
3.674768
 41
0.0
 71
     1
 72
     2
  1
\fGothicBBB Medium|b0|i0|c128;\H3.6748;\C7;\U+03C6\U+0035\U+0035
  7
STD
210
0.0
220
0.0
230
1.0
 73
     1
 44
1.0
  0
POLYLINE
  5
EB
100
AcDbEntity
  8
レイヤー_2
 62
     7
100
AcDb2dPolyline
 66
     1
 10
0.0
 20
0.0
 30
0.0
  0
VERTEX
  5
EC
100
AcDbEntity
  8
レイヤー_2
 62
     7
100
AcDbVertex
100
AcDb2dVertex
 10
125.806619
 20
182.966265
 30
0.0
  0
VERTEX
  5
ED
100
AcDbEntity
  8
レイヤー_2
 62
     7
100
AcDbVertex
100
AcDb2dVertex
 10
125.806619
 20
223.11024
 30
0.0
  0
VERTEX
  5
EE
100
AcDbEntity
  8
レイヤー_2
 62
     7
100
AcDbVertex
100
AcDb2dVertex
 10
125.806619
 20
192.019459
 30
0.0
  0
SEQEND
  5
EF
100
AcDbEntity
  8
レイヤー_2
 62
     7
  0
LINE
  5
EA
100
AcDbEntity
  8
レイヤー_2
 62
     7
100
AcDbLine
 10
147.215131
 20
203.575171
 30
0.0
 11
147.215131
 21
210.127398
 31
0.0
  0
LINE
  5
E9
100
AcDbEntity
  8
レイヤー_2
 62
     7
100
AcDbLine
 10
167.841951
 20
171.649816
 30
0.0
 11
167.841951
 21
223.11024
 31
0.0
  0
LINE
  5
E8
100
AcDbEntity
  8
レイヤー_2
 62
     7
100
AcDbLine
 10
124.777913
 20
222.080674
 30
0.0
 11
169.60963
 21
222.080674
 31
0.0
  0
LINE
  5
E7
100
AcDbEntity
  8
レイヤー_2
 62
     7
100
AcDbLine
 10
168.259153
 20
222.496841
 30
0.0
 11
167.42475
 21
221.663128
 31
0.0
  0
LINE
  5
E6
100
AcDbEntity
  8
レイヤー_2
 62
     7
100
AcDbLine
 10
147.601671
 20
222.437758
 30
0.0
 11
146.767958
 21
221.6037
 31
0.0
  0
LINE
  5
E5
100
AcDbEntity
  8
レイヤー_2
 62
     7
100
AcDbLine
 10
126.164564
 20
222.437758
 30
0.0
 11
125.330162
 21
221.6037
 31
0.0
  0
MTEXT
  5
E4
100
AcDbEntity
  8
レイヤー_2
  6
AI9-LType1
 62
     7
100
AcDbMText
 10
123.618294
 20
226.824972
 30
0.0
 40
3.674768
 41
0.0
 71
     1
 72
     2
  1
\fGothicBBB Medium|b0|i0|c128;\H3.6748;\C7;\U+0031\U+0035\U+0030\U+FF5E\U+0035\U+0030\U+0030
  7
STD
210
0.0
220
0.0
230
1.0
 73
     1
 44
1.0
  0
MTEXT
  5
E3
100
AcDbEntity
  8
レイヤー_2
  6
AI9-LType1
 62
     7
100
AcDbMText
 10
152.703513
 20
226.824972
 30
0.0
 40
3.674768
 41
0.0
 71
     1
 72
     2
  1
\fGothicBBB Medium|b0|i0|c128;\H3.6748;\C7;\U+0031\U+0030\U+0030
  7
STD
210
0.0
220
0.0
230
1.0
 73
     1
 44
1.0
  0
LINE
  5
E2
100
AcDbEntity
  8
レイヤー_2
  6
AI9-LType1
 62
     7
100
AcDbLine
 10
163.813946
 20
99.588064
 30
0.0
 11
172.15211
 21
99.588064
 31
0.0
  0
LINE
  5
E1
100
AcDbEntity
  8
レイヤー_2
  6
AI9-LType1
 62
     7
100
AcDbLine
 10
122.336719
 20
99.572906
 30
0.0
 11
130.199116
 21
99.572906
 31
0.0
  0
MTEXT
  5
E0
100
AcDbEntity
  8
レイヤー_2
 62
     7
100
AcDbMText
 10
171.19024
 20
98.844153
 30
0.0
 40
3.674768
 41
0.0
 71
     1
 72
     2
  1
\fGothicBBB Medium|b0|i0|c128;\H3.6748;\C7;\U+03C6\U+0033\U+0032
  7
STD
210
0.0
220
0.0
230
1.0
 73
     1
 44
1.0
  0
MTEXT
  5
DF
100
AcDbEntity
  8
レイヤー_2
 62
     7
100
AcDbMText
 10
131.034551
 20
98.844153
 30
0.0
 40
3.674768
 41
0.0
 71
     1
 72
     2
  1
\fGothicBBB Medium|b0|i0|c128;\H3.6748;\C7;\U+03C6\U+0033\U+0035
  7
STD
210
0.0
220
0.0
230
1.0
 73
     1
 44
1.0
  0
LINE
  5
DE
100
AcDbEntity
  8
レイヤー_2
 62
     7
100
AcDbLine
 10
127.319705
 20
125.54617
 30
0.0
 11
128.577854
 21
124.130235
 31
0.0
  0
LINE
  5
DD
100
AcDbEntity
  8
レイヤー_2
 62
     7
100
AcDbLine
 10
123.034351
 20
125.54617
 30
0.0
 11
124.293533
 21
124.130235
 31
0.0
  0
MTEXT
  5
DC
100
AcDbEntity
  8
レイヤー_2
 62
     7
100
AcDbMText
 10
99.863844
 20
129.178908
 30
0.0
 40
3.674768
 41
0.0
 71
     1
 72
     2
  1
\fGothicBBB Medium|b0|i0|c128;\H3.6748;\C7;\U+004D\U+0033\U+0030\U+00D7\U+0031\U+002E\U+0035
  7
STD
210
0.0
220
0.0
230
1.0
 73
     1
 44
1.0
  0
LINE
  5
DB
100
AcDbEntity
  8
レイヤー_2
 62
     7
100
AcDbLine
 10
129.882167
 20
124.893669
 30
0.0
 11
99.863155
 21
124.893669
 31
0.0
  0
MTEXT
  5
DA
100
AcDbEntity
  8
レイヤー_2
  6
AI9-LType1
 62
     7
100
AcDbMText
 10
171.852387
 20
139.1311
 30
0.0
 40
3.674768
 41
0.0
 71
     1
 72
     2
  1
\fGothicBBB Medium|b0|i0|c128;\H3.6748;\C7;\U+004D\U+0033\U+0030\U+00D7\U+0031\U+002E\U+0035
  7
STD
210
0.0
220
0.0
230
1.0
 73
     1
 44
1.0
  0
MTEXT
  5
D9
100
AcDbEntity
  8
レイヤー_2
  6
AI9-LType1
 62
     7
100
AcDbMText
 10
177.744994
 20
159.472953
 30
0.0
 40
3.674768
 41
0.0
 71
     1
 72
     2
  1
\fGothicBBB Medium|b0|i0|c128;\H3.6748;\C7;\U+0038\U+0034
  7
STD
210
0.0
220
0.0
230
1.0
 11
0.0
 21
1.0
 31
0.0
 73
     1
 44
1.0
  0
LINE
  5
D8
100
AcDbEntity
  8
レイヤー_2
  6
AI9-LType1
 62
     7
100
AcDbLine
 10
147.215131
 20
116.298844
 30
0.0
 11
147.215131
 21
98.44636
 31
0.0
  0
LINE
  5
D7
100
AcDbEntity
  8
レイヤー_2
  6
AI9-LType1
 62
     7
100
AcDbLine
 10
167.642136
 20
119.912061
 30
0.0
 11
167.642136
 21
113.597201
 31
0.0
  0
LINE
  5
D6
100
AcDbEntity
  8
レイヤー_2
  6
AI9-LType1
 62
     7
100
AcDbLine
 10
167.642136
 20
107.402919
 30
0.0
 11
167.642136
 21
98.365744
 31
0.0
  0
LINE
  5
D4
100
AcDbEntity
  8
レイヤー_2
 62
     7
100
AcDbLine
 10
145.516355
 20
208.345422
 30
0.0
 11
145.516355
 21
205.174901
 31
0.0
  0
LINE
  5
D3
100
AcDbEntity
  8
レイヤー_2
 62
     7
100
AcDbLine
 10
148.856375
 20
205.174901
 30
0.0
 11
148.856375
 21
208.345422
 31
0.0
  0
LINE
  5
D2
100
AcDbEntity
  8
レイヤー_2
 62
     7
100
AcDbLine
 10
148.856375
 20
208.345422
 30
0.0
 11
148.856375
 21
210.835365
 31
0.0
  0
LINE
  5
D1
100
AcDbEntity
  8
レイヤー_2
 62
     7
100
AcDbLine
 10
145.516355
 20
210.835365
 30
0.0
 11
145.516355
 21
208.345422
 31
0.0
  0
LINE
  5
D0
100
AcDbEntity
  8
レイヤー_2
 62
     7
100
AcDbLine
 10
145.516355
 20
217.79842
 30
0.0
 11
145.516355
 21
210.835365
 31
0.0
  0
LINE
  5
CF
100
AcDbEntity
  8
レイヤー_2
 62
     7
100
AcDbLine
 10
148.856375
 20
210.835365
 30
0.0
 11
148.856375
 21
217.79842
 31
0.0
  0
LINE
  5
CE
100
AcDbEntity
  8
レイヤー_2
 62
     7
100
AcDbLine
 10
148.856375
 20
169.568633
 30
0.0
 11
148.856375
 21
205.174901
 31
0.0
  0
LINE
  5
CD
100
AcDbEntity
  8
レイヤー_2
 62
     7
100
AcDbLine
 10
145.516355
 20
205.174901
 30
0.0
 11
145.516355
 21
169.568633
 31
0.0
  0
POLYLINE
  5
C0
100
AcDbEntity
  8
レイヤー_2
 62
     7
100
AcDb2dPolyline
 66
     1
 10
0.0
 20
0.0
 30
0.0
  0
VERTEX
  5
C1
100
AcDbEntity
  8
レイヤー_2
 62
     7
100
AcDbVertex
100
AcDb2dVertex
 10
147.667817
 20
205.119435
 30
0.0
  0
VERTEX
  5
C2
100
AcDbEntity
  8
レイヤー_2
 62
     7
100
AcDbVertex
100
AcDb2dVertex
 10
145.629698
 20
205.119435
 30
0.0
  0
VERTEX
  5
C3
100
AcDbEntity
  8
レイヤー_2
 62
     7
100
AcDbVertex
100
AcDb2dVertex
 10
145.516355
 20
205.174901
 30
0.0
  0
VERTEX
  5
C4
100
AcDbEntity
  8
レイヤー_2
 62
     7
100
AcDbVertex
100
AcDb2dVertex
 10
145.799886
 20
205.174901
 30
0.0
  0
VERTEX
  5
C5
100
AcDbEntity
  8
レイヤー_2
 62
     7
100
AcDbVertex
100
AcDb2dVertex
 10
145.969729
 20
205.231917
 30
0.0
  0
VERTEX
  5
C6
100
AcDbEntity
  8
レイヤー_2
 62
     7
100
AcDbVertex
100
AcDb2dVertex
 10
148.29069
 20
205.231917
 30
0.0
  0
VERTEX
  5
C7
100
AcDbEntity
  8
レイヤー_2
 62
     7
100
AcDbVertex
100
AcDb2dVertex
 10
148.517377
 20
205.174901
 30
0.0
  0
VERTEX
  5
C8
100
AcDbEntity
  8
レイヤー_2
 62
     7
100
AcDbVertex
100
AcDb2dVertex
 10
148.856375
 20
205.174901
 30
0.0
  0
VERTEX
  5
C9
100
AcDbEntity
  8
レイヤー_2
 62
     7
100
AcDbVertex
100
AcDb2dVertex
 10
148.744065
 20
205.174901
 30
0.0
  0
VERTEX
  5
CA
100
AcDbEntity
  8
レイヤー_2
 62
     7
100
AcDbVertex
100
AcDb2dVertex
 10
148.630377
 20
205.119435
 30
0.0
  0
VERTEX
  5
CB
100
AcDbEntity
  8
レイヤー_2
 62
     7
100
AcDbVertex
100
AcDb2dVertex
 10
147.667817
 20
205.119435
 30
0.0
  0
SEQEND
  5
CC
100
AcDbEntity
  8
レイヤー_2
 62
     7
  0
POLYLINE
  5
B8
100
AcDbEntity
  8
レイヤー_2
 62
     7
100
AcDb2dPolyline
 66
     1
 10
0.0
 20
0.0
 30
0.0
  0
VERTEX
  5
B9
100
AcDbEntity
  8
レイヤー_2
 62
     7
100
AcDbVertex
100
AcDb2dVertex
 10
145.516355
 20
208.345422
 30
0.0
  0
VERTEX
  5
BA
100
AcDbEntity
  8
レイヤー_2
 62
     7
100
AcDbVertex
100
AcDb2dVertex
 10
145.629698
 20
208.345422
 30
0.0
  0
VERTEX
  5
BB
100
AcDbEntity
  8
レイヤー_2
 62
     7
100
AcDbVertex
100
AcDb2dVertex
 10
145.799886
 20
208.401577
 30
0.0
  0
VERTEX
  5
BC
100
AcDbEntity
  8
レイヤー_2
 62
     7
100
AcDbVertex
100
AcDb2dVertex
 10
148.517377
 20
208.401577
 30
0.0
  0
VERTEX
  5
BD
100
AcDbEntity
  8
レイヤー_2
 62
     7
100
AcDbVertex
100
AcDb2dVertex
 10
148.686876
 20
208.345422
 30
0.0
  0
VERTEX
  5
BE
100
AcDbEntity
  8
レイヤー_2
 62
     7
100
AcDbVertex
100
AcDb2dVertex
 10
148.856375
 20
208.345422
 30
0.0
  0
SEQEND
  5
BF
100
AcDbEntity
  8
レイヤー_2
 62
     7
  0
POLYLINE
  5
B0
100
AcDbEntity
  8
レイヤー_2
 62
     7
100
AcDb2dPolyline
 66
     1
 10
0.0
 20
0.0
 30
0.0
  0
VERTEX
  5
B1
100
AcDbEntity
  8
レイヤー_2
 62
     7
100
AcDbVertex
100
AcDb2dVertex
 10
148.856375
 20
208.345422
 30
0.0
  0
VERTEX
  5
B2
100
AcDbEntity
  8
レイヤー_2
 62
     7
100
AcDbVertex
100
AcDb2dVertex
 10
148.80022
 20
208.345422
 30
0.0
  0
VERTEX
  5
B3
100
AcDbEntity
  8
レイヤー_2
 62
     7
100
AcDbVertex
100
AcDb2dVertex
 10
148.630377
 20
208.401577
 30
0.0
  0
VERTEX
  5
B4
100
AcDbEntity
  8
レイヤー_2
 62
     7
100
AcDbVertex
100
AcDb2dVertex
 10
145.743042
 20
208.401577
 30
0.0
  0
VERTEX
  5
B5
100
AcDbEntity
  8
レイヤー_2
 62
     7
100
AcDbVertex
100
AcDb2dVertex
 10
145.629698
 20
208.345422
 30
0.0
  0
VERTEX
  5
B6
100
AcDbEntity
  8
レイヤー_2
 62
     7
100
AcDbVertex
100
AcDb2dVertex
 10
145.516355
 20
208.345422
 30
0.0
  0
SEQEND
  5
B7
100
AcDbEntity
  8
レイヤー_2
 62
     7
  0
POLYLINE
  5
AA
100
AcDbEntity
  8
レイヤー_2
 62
     7
100
AcDb2dPolyline
 66
     1
 10
0.0
 20
0.0
 30
0.0
  0
VERTEX
  5
AB
100
AcDbEntity
  8
レイヤー_2
 62
     7
100
AcDbVertex
100
AcDb2dVertex
 10
147.158976
 20
208.401577
 30
0.0
  0
VERTEX
  5
AC
100
AcDbEntity
  8
レイヤー_2
 62
     7
100
AcDbVertex
100
AcDb2dVertex
 10
148.517377
 20
208.401577
 30
0.0
  0
VERTEX
  5
AD
100
AcDbEntity
  8
レイヤー_2
 62
     7
100
AcDbVertex
100
AcDb2dVertex
 10
148.630377
 20
208.345422
 30
0.0
  0
VERTEX
  5
AE
100
AcDbEntity
  8
レイヤー_2
 62
     7
100
AcDbVertex
100
AcDb2dVertex
 10
148.686876
 20
208.345422
 30
0.0
  0
SEQEND
  5
AF
100
AcDbEntity
  8
レイヤー_2
 62
     7
  0
POLYLINE
  5
A4
100
AcDbEntity
  8
レイヤー_2
 62
     7
100
AcDb2dPolyline
 66
     1
 10
0.0
 20
0.0
 30
0.0
  0
VERTEX
  5
A5
100
AcDbEntity
  8
レイヤー_2
 62
     7
100
AcDbVertex
100
AcDb2dVertex
 10
145.629698
 20
208.345422
 30
0.0
  0
VERTEX
  5
A6
100
AcDbEntity
  8
レイヤー_2
 62
     7
100
AcDbVertex
100
AcDb2dVertex
 10
145.686887
 20
208.345422
 30
0.0
  0
VERTEX
  5
A7
100
AcDbEntity
  8
レイヤー_2
 62
     7
100
AcDbVertex
100
AcDb2dVertex
 10
145.856041
 20
208.401577
 30
0.0
  0
VERTEX
  5
A8
100
AcDbEntity
  8
レイヤー_2
 62
     7
100
AcDbVertex
100
AcDb2dVertex
 10
147.158976
 20
208.401577
 30
0.0
  0
SEQEND
  5
A9
100
AcDbEntity
  8
レイヤー_2
 62
     7
  0
POLYLINE
  5
9B
100
AcDbEntity
  8
レイヤー_2
 62
     7
100
AcDb2dPolyline
 66
     1
 10
0.0
 20
0.0
 30
0.0
  0
VERTEX
  5
9C
100
AcDbEntity
  8
レイヤー_2
 62
     7
100
AcDbVertex
100
AcDb2dVertex
 10
148.856375
 20
217.79842
 30
0.0
  0
VERTEX
  5
9D
100
AcDbEntity
  8
レイヤー_2
 62
     7
100
AcDbVertex
100
AcDb2dVertex
 10
148.630377
 20
218.64798
 30
0.0
  0
VERTEX
  5
9E
100
AcDbEntity
  8
レイヤー_2
 62
     7
100
AcDbVertex
100
AcDb2dVertex
 10
148.007848
 20
219.213837
 30
0.0
  0
VERTEX
  5
9F
100
AcDbEntity
  8
レイヤー_2
 62
     7
100
AcDbVertex
100
AcDb2dVertex
 10
147.158976
 20
219.440352
 30
0.0
  0
VERTEX
  5
A0
100
AcDbEntity
  8
レイヤー_2
 62
     7
100
AcDbVertex
100
AcDb2dVertex
 10
146.308727
 20
219.213837
 30
0.0
  0
VERTEX
  5
A1
100
AcDbEntity
  8
レイヤー_2
 62
     7
100
AcDbVertex
100
AcDb2dVertex
 10
145.743042
 20
218.64798
 30
0.0
  0
VERTEX
  5
A2
100
AcDbEntity
  8
レイヤー_2
 62
     7
100
AcDbVertex
100
AcDb2dVertex
 10
145.516355
 20
217.79842
 30
0.0
  0
SEQEND
  5
A3
100
AcDbEntity
  8
レイヤー_2
 62
     7
  0
LINE
  5
9A
100
AcDbEntity
  8
レイヤー_2
 62
     7
100
AcDbLine
 10
147.215131
 20
219.914398
 30
0.0
 11
147.215131
 21
217.289062
 31
0.0
  0
LINE
  5
99
100
AcDbEntity
  8
レイヤー_2
 62
     7
100
AcDbLine
 10
147.215131
 20
216.609862
 30
0.0
 11
147.215131
 21
215.987678
 31
0.0
  0
LINE
  5
98
100
AcDbEntity
  8
レイヤー_2
 62
     7
100
AcDbLine
 10
147.215131
 20
215.308649
 30
0.0
 11
147.215131
 21
211.968457
 31
0.0
  0
LINE
  5
97
100
AcDbEntity
  8
レイヤー_2
 62
     7
100
AcDbLine
 10
147.215131
 20
211.289256
 30
0.0
 11
147.215131
 21
210.610228
 31
0.0
  0
LINE
  5
96
100
AcDbEntity
  8
レイヤー_2
 62
     7
100
AcDbLine
 10
147.215131
 20
209.930339
 30
0.0
 11
147.215131
 21
206.590146
 31
0.0
  0
LINE
  5
95
100
AcDbEntity
  8
レイヤー_2
 62
     7
100
AcDbLine
 10
147.215131
 20
205.911807
 30
0.0
 11
147.215131
 21
205.288245
 31
0.0
  0
LINE
  5
94
100
AcDbEntity
  8
レイヤー_2
 62
     7
100
AcDbLine
 10
147.215131
 20
204.609044
 30
0.0
 11
147.215131
 21
201.269713
 31
0.0
  0
LINE
  5
93
100
AcDbEntity
  8
レイヤー_2
 62
     7
100
AcDbLine
 10
147.215131
 20
200.589823
 30
0.0
 11
147.215131
 21
199.911312
 31
0.0
  0
LINE
  5
92
100
AcDbEntity
  8
レイヤー_2
 62
     7
100
AcDbLine
 10
147.215131
 20
199.231422
 30
0.0
 11
147.215131
 21
195.891402
 31
0.0
  0
LINE
  5
91
100
AcDbEntity
  8
レイヤー_2
 62
     7
100
AcDbLine
 10
147.215131
 20
195.211513
 30
0.0
 11
147.215131
 21
194.589328
 31
0.0
  0
LINE
  5
90
100
AcDbEntity
  8
レイヤー_2
 62
     7
100
AcDbLine
 10
147.215131
 20
193.909439
 30
0.0
 11
147.215131
 21
190.570108
 31
0.0
  0
LINE
  5
8F
100
AcDbEntity
  8
レイヤー_2
 62
     7
100
AcDbLine
 10
147.215131
 20
189.890907
 30
0.0
 11
147.215131
 21
189.211707
 31
0.0
  0
LINE
  5
8E
100
AcDbEntity
  8
レイヤー_2
 62
     7
100
AcDbLine
 10
147.215131
 20
188.53285
 30
0.0
 11
147.215131
 21
185.192486
 31
0.0
  0
LINE
  5
8D
100
AcDbEntity
  8
レイヤー_2
 62
     7
100
AcDbLine
 10
147.215131
 20
184.513285
 30
0.0
 11
147.215131
 21
183.890584
 31
0.0
  0
LINE
  5
8C
100
AcDbEntity
  8
レイヤー_2
 62
     7
100
AcDbLine
 10
147.215131
 20
183.210695
 30
0.0
 11
147.215131
 21
179.871364
 31
0.0
  0
LINE
  5
8B
100
AcDbEntity
  8
レイヤー_2
 62
     7
100
AcDbLine
 10
147.215131
 20
179.192163
 30
0.0
 11
147.215131
 21
178.512273
 31
0.0
  0
LINE
  5
8A
100
AcDbEntity
  8
レイヤー_2
 62
     7
100
AcDbLine
 10
147.215131
 20
177.833934
 30
0.0
 11
147.215131
 21
174.493742
 31
0.0
  0
LINE
  5
89
100
AcDbEntity
  8
レイヤー_2
 62
     7
100
AcDbLine
 10
147.215131
 20
173.813852
 30
0.0
 11
147.215131
 21
173.19184
 31
0.0
  0
LINE
  5
88
100
AcDbEntity
  8
レイヤー_2
 62
     7
100
AcDbLine
 10
147.215131
 20
172.51264
 30
0.0
 11
147.215131
 21
169.173136
 31
0.0
  0
LINE
  5
87
100
AcDbEntity
  8
レイヤー_2
 62
     7
100
AcDbLine
 10
48.904336
 20
208.146124
 30
0.0
 11
48.960664
 21
208.146124
 31
0.0
  0
LINE
  5
86
100
AcDbEntity
  8
レイヤー_2
 62
     7
100
AcDbLine
 10
49.01768
 20
208.146124
 30
0.0
 11
48.904336
 21
204.977325
 31
0.0
  0
LINE
  5
85
100
AcDbEntity
  8
レイヤー_2
 62
     7
100
AcDbLine
 10
45.564833
 20
205.089635
 30
0.0
 11
45.678177
 21
208.259467
 31
0.0
  0
POLYLINE
  5
79
100
AcDbEntity
  8
レイヤー_2
 62
     7
100
AcDb2dPolyline
 66
     1
 10
0.0
 20
0.0
 30
0.0
  0
VERTEX
  5
7A
100
AcDbEntity
  8
レイヤー_2
 62
     7
100
AcDbVertex
100
AcDb2dVertex
 10
49.131023
 20
210.636755
 30
0.0
  0
VERTEX
  5
7B
100
AcDbEntity
  8
レイヤー_2
 62
     7
100
AcDbVertex
100
AcDb2dVertex
 10
49.187179
 20
211.429989
 30
0.0
  0
VERTEX
  5
7C
100
AcDbEntity
  8
レイヤー_2
 62
     7
100
AcDbVertex
100
AcDb2dVertex
 10
49.47071
 20
212.335876
 30
0.0
  0
VERTEX
  5
7D
100
AcDbEntity
  8
レイヤー_2
 62
     7
100
AcDbVertex
100
AcDb2dVertex
 10
49.867068
 20
213.240903
 30
0.0
  0
VERTEX
  5
7E
100
AcDbEntity
  8
レイヤー_2
 62
     7
100
AcDbVertex
100
AcDb2dVertex
 10
50.432925
 20
214.033964
 30
0.0
  0
VERTEX
  5
7F
100
AcDbEntity
  8
レイヤー_2
 62
     7
100
AcDbVertex
100
AcDb2dVertex
 10
51.111953
 20
214.713165
 30
0.0
  0
VERTEX
  5
80
100
AcDbEntity
  8
レイヤー_2
 62
     7
100
AcDbVertex
100
AcDb2dVertex
 10
51.848343
 20
215.222694
 30
0.0
  0
VERTEX
  5
81
100
AcDbEntity
  8
レイヤー_2
 62
     7
100
AcDbVertex
100
AcDb2dVertex
 10
52.753886
 20
215.61888
 30
0.0
  0
VERTEX
  5
82
100
AcDbEntity
  8
レイヤー_2
 62
     7
100
AcDbVertex
100
AcDb2dVertex
 10
53.659085
 20
215.901723
 30
0.0
  0
VERTEX
  5
83
100
AcDbEntity
  8
レイヤー_2
 62
     7
100
AcDbVertex
100
AcDb2dVertex
 10
54.621817
 20
215.958911
 30
0.0
  0
SEQEND
  5
84
100
AcDbEntity
  8
レイヤー_2
 62
     7
  0
POLYLINE
  5
6D
100
AcDbEntity
  8
レイヤー_2
 62
     7
100
AcDb2dPolyline
 66
     1
 10
0.0
 20
0.0
 30
0.0
  0
VERTEX
  5
6E
100
AcDbEntity
  8
レイヤー_2
 62
     7
100
AcDbVertex
100
AcDb2dVertex
 10
45.790831
 20
210.750788
 30
0.0
  0
VERTEX
  5
6F
100
AcDbEntity
  8
レイヤー_2
 62
     7
100
AcDbVertex
100
AcDb2dVertex
 10
45.904864
 20
211.995846
 30
0.0
  0
VERTEX
  5
70
100
AcDbEntity
  8
レイヤー_2
 62
     7
100
AcDbVertex
100
AcDb2dVertex
 10
46.300189
 20
213.46759
 30
0.0
  0
VERTEX
  5
71
100
AcDbEntity
  8
レイヤー_2
 62
     7
100
AcDbVertex
100
AcDb2dVertex
 10
46.979389
 20
214.882836
 30
0.0
  0
VERTEX
  5
72
100
AcDbEntity
  8
レイヤー_2
 62
     7
100
AcDbVertex
100
AcDb2dVertex
 10
47.82895
 20
216.129099
 30
0.0
  0
VERTEX
  5
73
100
AcDbEntity
  8
レイヤー_2
 62
     7
100
AcDbVertex
100
AcDb2dVertex
 10
48.960664
 20
217.260124
 30
0.0
  0
VERTEX
  5
74
100
AcDbEntity
  8
レイヤー_2
 62
     7
100
AcDbVertex
100
AcDb2dVertex
 10
50.20641
 20
218.109512
 30
0.0
  0
VERTEX
  5
75
100
AcDbEntity
  8
レイヤー_2
 62
     7
100
AcDbVertex
100
AcDb2dVertex
 10
51.622344
 20
218.789402
 30
0.0
  0
VERTEX
  5
76
100
AcDbEntity
  8
レイヤー_2
 62
     7
100
AcDbVertex
100
AcDb2dVertex
 10
53.093917
 20
219.184899
 30
0.0
  0
VERTEX
  5
77
100
AcDbEntity
  8
レイヤー_2
 62
     7
100
AcDbVertex
100
AcDb2dVertex
 10
54.621817
 20
219.298242
 30
0.0
  0
SEQEND
  5
78
100
AcDbEntity
  8
レイヤー_2
 62
     7
  0
LINE
  5
6C
100
AcDbEntity
  8
レイヤー_2
 62
     7
100
AcDbLine
 10
54.621817
 20
219.298242
 30
0.0
 11
79.472841
 21
219.298242
 31
0.0
  0
LINE
  5
6B
100
AcDbEntity
  8
レイヤー_2
 62
     7
100
AcDbLine
 10
79.472841
 20
215.958911
 30
0.0
 11
54.621817
 21
215.958911
 31
0.0
  0
POLYLINE
  5
5F
100
AcDbEntity
  8
レイヤー_2
 62
     7
100
AcDb2dPolyline
 66
     1
 10
0.0
 20
0.0
 30
0.0
  0
VERTEX
  5
60
100
AcDbEntity
  8
レイヤー_2
 62
     7
100
AcDbVertex
100
AcDb2dVertex
 10
79.472841
 20
215.958911
 30
0.0
  0
VERTEX
  5
61
100
AcDbEntity
  8
レイヤー_2
 62
     7
100
AcDbVertex
100
AcDb2dVertex
 10
80.434884
 20
215.901723
 30
0.0
  0
VERTEX
  5
62
100
AcDbEntity
  8
レイヤー_2
 62
     7
100
AcDbVertex
100
AcDb2dVertex
 10
81.340771
 20
215.61888
 30
0.0
  0
VERTEX
  5
63
100
AcDbEntity
  8
レイヤー_2
 62
     7
100
AcDbVertex
100
AcDb2dVertex
 10
82.19016
 20
215.222694
 30
0.0
  0
VERTEX
  5
64
100
AcDbEntity
  8
レイヤー_2
 62
     7
100
AcDbVertex
100
AcDb2dVertex
 10
82.982704
 20
214.713165
 30
0.0
  0
VERTEX
  5
65
100
AcDbEntity
  8
レイヤー_2
 62
     7
100
AcDbVertex
100
AcDb2dVertex
 10
83.662594
 20
214.033964
 30
0.0
  0
VERTEX
  5
66
100
AcDbEntity
  8
レイヤー_2
 62
     7
100
AcDbVertex
100
AcDb2dVertex
 10
84.228278
 20
213.240903
 30
0.0
  0
VERTEX
  5
67
100
AcDbEntity
  8
レイヤー_2
 62
     7
100
AcDbVertex
100
AcDb2dVertex
 10
84.624637
 20
212.335876
 30
0.0
  0
VERTEX
  5
68
100
AcDbEntity
  8
レイヤー_2
 62
     7
100
AcDbVertex
100
AcDb2dVertex
 10
84.90679
 20
211.429989
 30
0.0
  0
VERTEX
  5
69
100
AcDbEntity
  8
レイヤー_2
 62
     7
100
AcDbVertex
100
AcDb2dVertex
 10
84.963634
 20
210.467946
 30
0.0
  0
SEQEND
  5
6A
100
AcDbEntity
  8
レイヤー_2
 62
     7
  0
POLYLINE
  5
53
100
AcDbEntity
  8
レイヤー_2
 62
     7
100
AcDb2dPolyline
 66
     1
 10
0.0
 20
0.0
 30
0.0
  0
VERTEX
  5
54
100
AcDbEntity
  8
レイヤー_2
 62
     7
100
AcDbVertex
100
AcDb2dVertex
 10
79.472841
 20
219.298242
 30
0.0
  0
VERTEX
  5
55
100
AcDbEntity
  8
レイヤー_2
 62
     7
100
AcDbVertex
100
AcDb2dVertex
 10
81.000741
 20
219.184899
 30
0.0
  0
VERTEX
  5
56
100
AcDbEntity
  8
レイヤー_2
 62
     7
100
AcDbVertex
100
AcDb2dVertex
 10
82.473002
 20
218.789402
 30
0.0
  0
VERTEX
  5
57
100
AcDbEntity
  8
レイヤー_2
 62
     7
100
AcDbVertex
100
AcDb2dVertex
 10
83.887558
 20
218.109512
 30
0.0
  0
VERTEX
  5
58
100
AcDbEntity
  8
レイヤー_2
 62
     7
100
AcDbVertex
100
AcDb2dVertex
 10
85.133994
 20
217.260124
 30
0.0
  0
VERTEX
  5
59
100
AcDbEntity
  8
レイヤー_2
 62
     7
100
AcDbVertex
100
AcDb2dVertex
 10
86.266569
 20
216.129099
 30
0.0
  0
VERTEX
  5
5A
100
AcDbEntity
  8
レイヤー_2
 62
     7
100
AcDbVertex
100
AcDb2dVertex
 10
87.115268
 20
214.882836
 30
0.0
  0
VERTEX
  5
5B
100
AcDbEntity
  8
レイヤー_2
 62
     7
100
AcDbVertex
100
AcDb2dVertex
 10
87.794469
 20
213.46759
 30
0.0
  0
VERTEX
  5
5C
100
AcDbEntity
  8
レイヤー_2
 62
     7
100
AcDbVertex
100
AcDb2dVertex
 10
88.190655
 20
211.995846
 30
0.0
  0
VERTEX
  5
5D
100
AcDbEntity
  8
レイヤー_2
 62
     7
100
AcDbVertex
100
AcDb2dVertex
 10
88.303137
 20
210.467946
 30
0.0
  0
SEQEND
  5
5E
100
AcDbEntity
  8
レイヤー_2
 62
     7
  0
LINE
  5
52
100
AcDbEntity
  8
レイヤー_2
 62
     7
100
AcDbLine
 10
45.678177
 20
208.259467
 30
0.0
 11
45.790831
 21
210.750788
 31
0.0
  0
LINE
  5
51
100
AcDbEntity
  8
レイヤー_2
 62
     7
100
AcDbLine
 10
49.131023
 20
210.636755
 30
0.0
 11
49.01768
 21
208.146124
 31
0.0
  0
LINE
  5
50
100
AcDbEntity
  8
レイヤー_2
 62
     7
100
AcDbLine
 10
84.963634
 20
169.426523
 30
0.0
 11
84.963634
 21
210.467946
 31
0.0
  0
LINE
  5
4F
100
AcDbEntity
  8
レイヤー_2
 62
     7
100
AcDbLine
 10
88.303137
 20
210.467946
 30
0.0
 11
88.303137
 21
169.426523
 31
0.0
  0
LINE
  5
4E
100
AcDbEntity
  8
レイヤー_2
 62
     7
100
AcDbLine
 10
49.01768
 20
208.146124
 30
0.0
 11
45.678177
 21
208.259467
 31
0.0
  0
LINE
  5
4D
100
AcDbEntity
  8
レイヤー_2
 62
     7
100
AcDbLine
 10
48.904336
 20
204.977325
 30
0.0
 11
45.564833
 21
205.089635
 31
0.0
  0
LINE
  5
4C
100
AcDbEntity
  8
レイヤー_2
 62
     7
100
AcDbLine
 10
86.605566
 20
168.747323
 30
0.0
 11
86.605566
 21
169.426523
 31
0.0
  0
LINE
  5
4B
100
AcDbEntity
  8
レイヤー_2
 62
     7
100
AcDbLine
 10
86.605566
 20
170.050085
 30
0.0
 11
86.605566
 21
173.445744
 31
0.0
  0
LINE
  5
4A
100
AcDbEntity
  8
レイヤー_2
 62
     7
100
AcDbLine
 10
86.605566
 20
174.067928
 30
0.0
 11
86.605566
 21
174.747129
 31
0.0
  0
LINE
  5
49
100
AcDbEntity
  8
レイヤー_2
 62
     7
100
AcDbLine
 10
86.605566
 20
175.427018
 30
0.0
 11
86.605566
 21
178.767038
 31
0.0
  0
LINE
  5
48
100
AcDbEntity
  8
レイヤー_2
 62
     7
100
AcDbLine
 10
86.605566
 20
179.44555
 30
0.0
 11
86.605566
 21
180.125439
 31
0.0
  0
LINE
  5
47
100
AcDbEntity
  8
レイヤー_2
 62
     7
100
AcDbLine
 10
86.605566
 20
180.74814
 30
0.0
 11
86.605566
 21
184.087472
 31
0.0
  0
LINE
  5
46
100
AcDbEntity
  8
レイヤー_2
 62
     7
100
AcDbLine
 10
86.605566
 20
184.767361
 30
0.0
 11
86.605566
 21
185.446562
 31
0.0
  0
LINE
  5
45
100
AcDbEntity
  8
レイヤー_2
 62
     7
100
AcDbLine
 10
86.605566
 20
186.125762
 30
0.0
 11
86.605566
 21
189.465782
 31
0.0
  0
LINE
  5
44
100
AcDbEntity
  8
レイヤー_2
 62
     7
100
AcDbLine
 10
86.605566
 20
190.145672
 30
0.0
 11
86.605566
 21
190.824183
 31
0.0
  0
LINE
  5
43
100
AcDbEntity
  8
レイヤー_2
 62
     7
100
AcDbLine
 10
86.605566
 20
191.447746
 30
0.0
 11
86.605566
 21
194.787077
 31
0.0
  0
LINE
  5
42
100
AcDbEntity
  8
レイヤー_2
 62
     7
100
AcDbLine
 10
86.605566
 20
195.466277
 30
0.0
 11
86.605566
 21
196.146167
 31
0.0
  0
LINE
  5
41
100
AcDbEntity
  8
レイヤー_2
 62
     7
100
AcDbLine
 10
86.605566
 20
196.825195
 30
0.0
 11
86.605566
 21
200.164699
 31
0.0
  0
LINE
  5
40
100
AcDbEntity
  8
レイヤー_2
 62
     7
100
AcDbLine
 10
86.605566
 20
200.843899
 30
0.0
 11
86.605566
 21
201.522928
 31
0.0
  0
LINE
  5
3F
100
AcDbEntity
  8
レイヤー_2
 62
     7
100
AcDbLine
 10
86.605566
 20
202.14649
 30
0.0
 11
86.605566
 21
205.485993
 31
0.0
  0
LINE
  5
3E
100
AcDbEntity
  8
レイヤー_2
 62
     7
100
AcDbLine
 10
86.605566
 20
206.165021
 30
0.0
 11
86.605566
 21
206.844911
 31
0.0
  0
LINE
  5
3D
100
AcDbEntity
  8
レイヤー_2
 62
     7
100
AcDbLine
 10
86.605566
 20
207.524112
 30
0.0
 11
86.605566
 21
210.297586
 31
0.0
  0
LINE
  5
3C
100
AcDbEntity
  8
レイヤー_2
 62
     7
100
AcDbLine
 10
86.605566
 20
210.297586
 30
0.0
 11
86.605566
 21
209.675746
 31
0.0
  0
LINE
  5
3B
100
AcDbEntity
  8
レイヤー_2
 62
     7
100
AcDbLine
 10
47.206076
 20
204.126903
 30
0.0
 11
47.31942
 21
207.466923
 31
0.0
  0
LINE
  5
3A
100
AcDbEntity
  8
レイヤー_2
 62
     7
100
AcDbLine
 10
47.376436
 20
208.146124
 30
0.0
 11
47.376436
 21
208.825324
 31
0.0
  0
LINE
  5
39
100
AcDbEntity
  8
レイヤー_2
 62
     7
100
AcDbLine
 10
47.376436
 20
209.39187
 30
0.0
 11
47.376436
 21
208.769169
 31
0.0
  0
LINE
  5
38
100
AcDbEntity
  8
レイヤー_2
 62
     7
100
AcDbLine
 10
85.869522
 20
177.182122
 30
0.0
 11
86.549411
 21
176.332562
 31
0.0
  0
LINE
  5
37
100
AcDbEntity
  8
レイヤー_2
 62
     7
100
AcDbLine
 10
72.000084
 20
176.276407
 30
0.0
 11
72.737162
 21
175.427018
 31
0.0
  0
LINE
  5
36
100
AcDbEntity
  8
レイヤー_2
 62
     7
100
AcDbLine
 10
87.341783
 20
176.276407
 30
0.0
 11
70.925559
 21
176.276407
 31
0.0
  0
LINE
  5
35
100
AcDbEntity
  8
レイヤー_2
 62
     7
100
AcDbLine
 10
47.263093
 20
223.458195
 30
0.0
 11
47.263093
 21
217.260124
 31
0.0
  0
LINE
  5
34
100
AcDbEntity
  8
レイヤー_2
 62
     7
100
AcDbLine
 10
86.661894
 20
223.458195
 30
0.0
 11
86.661894
 21
216.637939
 31
0.0
  0
LINE
  5
33
100
AcDbEntity
  8
レイヤー_2
 62
     7
100
AcDbLine
 10
39.821514
 20
205.03348
 30
0.0
 11
44.828788
 21
205.03348
 31
0.0
  0
LINE
  5
32
100
AcDbEntity
  8
レイヤー_2
 62
     7
100
AcDbLine
 10
51.622344
 20
219.411586
 30
0.0
 11
33.781056
 21
219.411586
 31
0.0
  0
LINE
  5
31
100
AcDbEntity
  8
レイヤー_2
 62
     7
100
AcDbLine
 10
71.264728
 20
177.068951
 30
0.0
 11
72.000084
 21
176.276407
 31
0.0
  0
LINE
  5
30
100
AcDbEntity
  8
レイヤー_2
 62
     7
100
AcDbLine
 10
86.549411
 20
176.332562
 30
0.0
 11
87.285456
 21
175.541051
 31
0.0
  0
LINE
  5
2F
100
AcDbEntity
  8
レイヤー_2
 62
     7
100
AcDbLine
 10
41.521841
 20
206.621324
 30
0.0
 11
41.521841
 21
154.175947
 31
0.0
  0
LINE
  5
2E
100
AcDbEntity
  8
レイヤー_2
 62
     7
100
AcDbLine
 10
40.671764
 20
204.264707
 30
0.0
 11
41.521841
 21
205.000751
 31
0.0
  0
LINE
  5
2D
100
AcDbEntity
  8
レイヤー_2
 62
     7
100
AcDbLine
 10
46.367023
 20
222.584347
 30
0.0
 11
87.464773
 21
222.584347
 31
0.0
  0
MTEXT
  5
2C
100
AcDbEntity
  8
レイヤー_2
 62
     7
100
AcDbMText
 10
63.997816
 20
226.973111
 30
0.0
 40
3.674768
 41
0.0
 71
     1
 72
     2
  1
\fGothicBBB Medium|b0|i0|c128;\H3.6748;\C7;\U+0032\U+0033\U+0035
  7
STD
210
0.0
220
0.0
230
1.0
 73
     1
 44
1.0
  0
LINE
  5
2B
100
AcDbEntity
  8
レイヤー_2
 62
     7
100
AcDbLine
 10
147.215131
 20
220.532103
 30
0.0
 11
147.215131
 21
222.824297
 31
0.0
  0
LINE
  5
2A
100
AcDbEntity
  8
レイヤー_2
 62
     7
100
AcDbLine
 10
46.519469
 20
221.840895
 30
0.0
 11
48.028937
 21
223.350191
 31
0.0
  0
LINE
  5
29
100
AcDbEntity
  8
レイヤー_2
 62
     7
100
AcDbLine
 10
85.887264
 20
221.809545
 30
0.0
 11
87.396733
 21
223.319013
 31
0.0
  0
ENDSEC
  0
SECTION
  2
OBJECTS
  0
DICTIONARY
  5
19
100
AcDbDictionary
280
     0
281
     1
  3
ACAD_GROUP
350
1A
  3
ACAD_MLINESTYLE
350
1B
  3
ACAD_LAYOUT
350
1E
  3
ACAD_PLOTSETTINGS
350
22
  3
ACAD_PLOTSTYLENAME
350
1F
  3
ACAD_WIPEOUT_VARS
350
23
  0
DICTIONARY
  5
1A
102
{ACAD_REACTORS
330
19
102
}
100
AcDbDictionary
280
     0
281
     1
  0
DICTIONARY
  5
1B
102
{ACAD_REACTORS
330
19
102
}
100
AcDbDictionary
280
     0
281
     1
  3
Standard
350
1C
  0
MLINESTYLE
  5
1C
102
{ACAD_REACTORS
330
1B
102
}
100
AcDbMlineStyle
  2
Standard
 70
     0
  3

 62
     0
 51
90.0
 52
90.0
 71
     2
 49
0.5
 62
   256
  6
ByLayer
 49
-0.5
 62
   256
  6
ByLayer
  0
ACDBDICTIONARYWDFLT
  5
1F
102
{ACAD_REACTORS
330
19
102
}
100
AcDbDictionary
281
     1
  3
Normal
350
1D
100
AcDbDictionaryWithDefault
340
1D
  0
ACDBPLACEHOLDER
  5
1D
102
{ACAD_REACTORS
330
1F
102
}
  0
LAYOUT
  5
20
102
{ACAD_REACTORS
330
1E
102
}
100
AcDbPlotSettings
  1

  2

  4

  6

 40
0.0
 41
0.0
 42
0.0
 43
0.0
 44
0.0
 45
0.0
 46
0.0
 47
0.0
 48
0.0
 49
0.0
140
0.0
141
0.0
142
1.0
143
1.0
 70
  1024
 72
     0
 73
     0
 74
     0
  7

 75
     0
147
1.0
148
0.0
149
0.0
100
AcDbLayout
  1
Model
 70
     0
 71
     0
 10
0.0
 20
0.0
 11
0.0
 21
0.0
 12
0.0
 22
0.0
 32
0.0
 14
0.0
 24
0.0
 34
0.0
 15
0.0
 25
0.0
 35
0.0
146
0.0
 13
0.0
 23
0.0
 33
0.0
 16
0.0
 26
0.0
 36
0.0
 17
0.0
 27
0.0
 37
0.0
 76
     0
330
A
331
0
345
0
346
0
  0
LAYOUT
  5
21
102
{ACAD_REACTORS
330
1E
102
}
100
AcDbPlotSettings
  1

  2

  4

  6

 40
0.0
 41
0.0
 42
0.0
 43
0.0
 44
0.0
 45
0.0
 46
0.0
 47
0.0
 48
0.0
 49
0.0
140
0.0
141
0.0
142
1.0
143
1.0
 70
     0
 72
     0
 73
     0
 74
     0
  7

 75
     0
147
1.0
148
0.0
149
0.0
100
AcDbLayout
  1
Layout1
 70
     0
 71
     0
 10
0.0
 20
0.0
 11
0.0
 21
0.0
 12
0.0
 22
0.0
 32
0.0
 14
0.0
 24
0.0
 34
0.0
 15
0.0
 25
0.0
 35
0.0
146
0.0
 13
0.0
 23
0.0
 33
0.0
 16
0.0
 26
0.0
 36
0.0
 17
0.0
 27
0.0
 37
0.0
 76
     0
330
B
331
0
345
0
346
0
  0
DICTIONARY
  5
1E
102
{ACAD_REACTORS
330
19
102
}
100
AcDbDictionary
280
     0
281
     1
  3
Layout1
350
21
  3
Model
350
20
  0
DICTIONARY
  5
22
102
{ACAD_REACTORS
330
19
102
}
100
AcDbDictionary
280
     0
281
     1
  0
WIPEOUTVARIABLES
  5
23
100
AcDbWipeoutVariables
 70
     1
  0
IMAGEDEF_REACTOR
  5
89F
100
AcDbRasterImageDefReactor
 90
        2
330
89E
  0
IMAGEDEF
  5
8A0
100
AcDbRasterImageDef
 90
        0
  1
\\192.168.6.2\free(2012_03\一過性\WEB_DXF\32815625+27719970_1.bmp
 10
70.0
 20
9.0
 11
0.352778
 21
0.352778
280
     1
281
     0
  0
IMAGEDEF_REACTOR
  5
8A2
100
AcDbRasterImageDefReactor
 90
        2
330
8A1
  0
IMAGEDEF
  5
8A3
100
AcDbRasterImageDef
 90
        0
  1
\\192.168.6.2\free(2012_03\一過性\WEB_DXF\32815625+27719970_2.bmp
 10
70.0
 20
9.0
 11
0.352778
 21
0.352778
280
     1
281
     0
  0
ENDSEC
  0
EOF
