  0
SECTION
  2
HEADER
  9
$ACADVER
  1
AC1015
  9
$ACADMAINTVER
 70
     6
  9
$DWGCODEPAGE
  3
ANSI_932
  9
$INSBASE
 10
0.0
 20
0.0
 30
0.0
  9
$EXTMIN
 10
23.283333
 20
26.811111
 30
1.000000E+20
  9
$EXTMAX
 10
198.966667
 20
276.930556
 30
-1.000000E+20
  9
$LIMMIN
 10
23.283333
 20
26.811111
  9
$LIMMAX
 10
198.966667
 20
276.930556
  9
$ORTHOMODE
 70
     0
  9
$REGENMODE
 70
     1
  9
$FILLMODE
 70
     1
  9
$QTEXTMODE
 70
     0
  9
$MIRRTEXT
 70
     1
  9
$LTSCALE
 40
1.0
  9
$ATTMODE
 70
     1
  9
$TEXTSIZE
 40
0.2
  9
$TRACEWID
 40
0.05
  9
$TEXTSTYLE
  7
Standard
  9
$CLAYER
  8
0
  9
$CELTYPE
  6
Continuous
  9
$CECOLOR
 62
   256
  9
$CELTSCALE
 40
1.0
  9
$DISPSILH
 70
     0
  9
$DIMSCALE
 40
1.0
  9
$DIMASZ
 40
0.18
  9
$DIMEXO
 40
0.0625
  9
$DIMDLI
 40
0.38
  9
$DIMRND
 40
0.0
  9
$DIMDLE
 40
0.0
  9
$DIMEXE
 40
0.18
  9
$DIMTP
 40
0.0
  9
$DIMTM
 40
0.0
  9
$DIMTXT
 40
0.18
  9
$DIMCEN
 40
0.09
  9
$DIMTSZ
 40
0.0
  9
$DIMTOL
 70
     0
  9
$DIMLIM
 70
     0
  9
$DIMTIH
 70
     1
  9
$DIMTOH
 70
     1
  9
$DIMSE1
 70
     0
  9
$DIMSE2
 70
     0
  9
$DIMTAD
 70
     0
  9
$DIMZIN
 70
     0
  9
$DIMBLK
  1

  9
$DIMASO
 70
     1
  9
$DIMSHO
 70
     1
  9
$DIMPOST
  1

  9
$DIMAPOST
  1

  9
$DIMALT
 70
     0
  9
$DIMALTD
 70
     2
  9
$DIMALTF
 40
25.4
  9
$DIMLFAC
 40
1.0
  9
$DIMTOFL
 70
     0
  9
$DIMTVP
 40
0.0
  9
$DIMTIX
 70
     0
  9
$DIMSOXD
 70
     0
  9
$DIMSAH
 70
     0
  9
$DIMBLK1
  1

  9
$DIMBLK2
  1

  9
$DIMSTYLE
  2
Standard
  9
$DIMCLRD
 70
     0
  9
$DIMCLRE
 70
     0
  9
$DIMCLRT
 70
     0
  9
$DIMTFAC
 40
1.0
  9
$DIMGAP
 40
0.09
  9
$DIMJUST
 70
     0
  9
$DIMSD1
 70
     0
  9
$DIMSD2
 70
     0
  9
$DIMTOLJ
 70
     1
  9
$DIMTZIN
 70
     0
  9
$DIMALTZ
 70
     0
  9
$DIMALTTZ
 70
     0
  9
$DIMUPT
 70
     0
  9
$DIMDEC
 70
     4
  9
$DIMTDEC
 70
     4
  9
$DIMALTU
 70
     2
  9
$DIMALTTD
 70
     2
  9
$DIMTXSTY
  7
Standard
  9
$DIMAUNIT
 70
     0
  9
$DIMADEC
 70
     0
  9
$DIMALTRND
 40
0.0
  9
$DIMAZIN
 70
     0
  9
$DIMDSEP
 70
     0
  9
$DIMATFIT
 70
     3
  9
$DIMFRAC
 70
     0
  9
$DIMLDRBLK
  1

  9
$DIMLUNIT
 70
     2
  9
$DIMLWD
 70
     0
  9
$DIMLWE
 70
     0
  9
$DIMTMOVE
 70
     0
  9
$LUNITS
 70
     2
  9
$LUPREC
 70
     4
  9
$SKETCHINC
 40
0.1
  9
$FILLETRAD
 40
0.0
  9
$AUNITS
 70
     0
  9
$AUPREC
 70
     0
  9
$MENU
  1
acad
  9
$ELEVATION
 40
0.0
  9
$PELEVATION
 40
0.0
  9
$THICKNESS
 40
0.0
  9
$LIMCHECK
 70
     0
  9
$CHAMFERA
 40
0.0
  9
$CHAMFERB
 40
0.0
  9
$CHAMFERC
 40
0.0
  9
$CHAMFERD
 40
0.0
  9
$SKPOLY
 70
     0
  9
$TDCREATE
 40
0.000000000
  9
$TDUCREATE
 40
0.000000000
  9
$TDUPDATE
 40
0.000000000
  9
$TDUUPDATE
 40
0.000000000
  9
$TDINDWG
 40
0.0000000000
  9
$TDUSRTIMER
 40
0.0000000000
  9
$USRTIMER
 70
     1
  9
$ANGBASE
 50
0.0
  9
$ANGDIR
 70
     0
  9
$PDMODE
 70
     0
  9
$PDSIZE
 40
0.0
  9
$PLINEWID
 40
0.0
  9
$SPLFRAME
 70
     0
  9
$SPLINETYPE
 70
     6
  9
$SPLINESEGS
 70
     8
  9
$HANDSEED
  5
54F
  9
$SURFTAB1
 70
     6
  9
$SURFTAB2
 70
     6
  9
$SURFTYPE
 70
     6
  9
$SURFU
 70
     6
  9
$SURFV
 70
     6
  9
$UCSBASE
  2

  9
$UCSNAME
  2

  9
$UCSORG
 10
0.0
 20
0.0
 30
0.0
  9
$UCSXDIR
 10
1.0
 20
0.0
 30
0.0
  9
$UCSYDIR
 10
0.0
 20
1.0
 30
0.0
  9
$UCSORTHOREF
  2

  9
$UCSORTHOVIEW
 70
     0
  9
$UCSORGTOP
 10
0.0
 20
0.0
 30
0.0
  9
$UCSORGBOTTOM
 10
0.0
 20
0.0
 30
0.0
  9
$UCSORGLEFT
 10
0.0
 20
0.0
 30
0.0
  9
$UCSORGRIGHT
 10
0.0
 20
0.0
 30
0.0
  9
$UCSORGFRONT
 10
0.0
 20
0.0
 30
0.0
  9
$UCSORGBACK
 10
0.0
 20
0.0
 30
0.0
  9
$PUCSBASE
  2

  9
$PUCSNAME
  2

  9
$PUCSORG
 10
0.0
 20
0.0
 30
0.0
  9
$PUCSXDIR
 10
1.0
 20
0.0
 30
0.0
  9
$PUCSYDIR
 10
0.0
 20
1.0
 30
0.0
  9
$PUCSORTHOREF
  2

  9
$PUCSORTHOVIEW
 70
     0
  9
$PUCSORGTOP
 10
0.0
 20
0.0
 30
0.0
  9
$PUCSORGBOTTOM
 10
0.0
 20
0.0
 30
0.0
  9
$PUCSORGLEFT
 10
0.0
 20
0.0
 30
0.0
  9
$PUCSORGRIGHT
 10
0.0
 20
0.0
 30
0.0
  9
$PUCSORGFRONT
 10
0.0
 20
0.0
 30
0.0
  9
$PUCSORGBACK
 10
0.0
 20
0.0
 30
0.0
  9
$USERI1
 70
     0
  9
$USERI2
 70
     0
  9
$USERI3
 70
     0
  9
$USERI4
 70
     0
  9
$USERI5
 70
     0
  9
$USERR1
 40
0.0
  9
$USERR2
 40
0.0
  9
$USERR3
 40
0.0
  9
$USERR4
 40
0.0
  9
$USERR5
 40
0.0
  9
$WORLDVIEW
 70
     1
  9
$SHADEDGE
 70
     3
  9
$SHADEDIF
 70
    70
  9
$TILEMODE
 70
     1
  9
$MAXACTVP
 70
    16
  9
$PINSBASE
 10
0.0
 20
0.0
 30
0.0
  9
$PLIMCHECK
 70
     0
  9
$PEXTMIN
 10
1.000000E+20
 20
1.000000E+20
 30
1.000000E+20
  9
$PEXTMAX
 10
-1.000000E+20
 20
-1.000000E+20
 30
-1.000000E+20
  9
$PLIMMIN
 10
0.0
 20
0.0
  9
$PLIMMAX
 10
12.0
 20
9.0
  9
$UNITMODE
 70
     0
  9
$VISRETAIN
 70
     0
  9
$PLINEGEN
 70
     1
  9
$PSLTSCALE
 70
     0
  9
$TREEDEPTH
 70
  3020
  9
$CMLSTYLE
  2
Standard
  9
$CMLJUST
 70
     0
  9
$CMLSCALE
 40
1.0
  9
$PROXYGRAPHICS
 70
     0
  9
$MEASUREMENT
 70
     1
  9
$CELWEIGHT
370
     0
  9
$ENDCAPS
280
     0
  9
$JOINSTYLE
280
     0
  9
$LWDISPLAY
290
     0
  9
$INSUNITS
 70
     0
  9
$HYPERLINKBASE
  1

  9
$STYLESHEET
  1

  9
$XEDIT
290
     1
  9
$CEPSNTYPE
380
     0
  9
$PSTYLEMODE
290
     1
  9
$FINGERPRINTGUID
  2

  9
$VERSIONGUID
  2

  9
$EXTNAMES
290
     1
  9
$PSVPSCALE
 40
0.0
  0
ENDSEC
  0
SECTION
  2
CLASSES
  0
CLASS
  1
LWPOLYLINE
  2
AcDbPolyline
  3
AutoCAD 2000
 90
    32768
280
     0
281
     1
  0
CLASS
  1
IMAGE
  2
AcDbRasterImage
  3
ISM
 90
      127
280
     0
281
     1
  0
CLASS
  1
OLE2FRAME
  2
AcDbOle2Frame
  3
AutoCAD 2000
 90
    32768
280
     0
281
     1
  0
CLASS
  1
HATCH
  2
AcDbHatch
  3
AutoCAD 2000
 90
    32768
280
     0
281
     1
  0
CLASS
  1
DICTIONARYVAR
  2
AcDbDictionaryVar
  3
AutoCAD 2000
 90
    32768
280
     0
281
     0
  0
CLASS
  1
RASTERVARIABLES
  2
AcDbRasterVariables
  3
ISM
 90
    32768
280
     0
281
     0
  0
CLASS
  1
IMAGEDEF
  2
AcDbRasterImageDef
  3
ISM
 90
        0
280
     0
281
     0
  0
CLASS
  1
IMAGEDEF_REACTOR
  2
AcDbRasterImageDefReactor
  3
ISM
 90
        1
280
     0
281
     0
  0
CLASS
  1
IDBUFFER
  2
AcDbIdBuffer
  3
AutoCAD 2000
 90
    32768
280
     0
281
     0
  0
CLASS
  1
SPATIAL_FILTER
  2
AcDbSpatialFilter
  3
AutoCAD 2000
 90
    32768
280
     0
281
     0
  0
CLASS
  1
XRECORD
  2
AcDbXrecord
  3
AutoCAD 2000
 90
    32768
280
     0
281
     0
  0
CLASS
  1
SORTENTSTABLE
  2
AcDbSortentsTable
  3
AutoCAD 2000
 90
    32768
280
     0
281
     0
  0
CLASS
  1
LAYER_INDEX
  2
AcDbLayerIndex
  3
AutoCAD 2000
 90
    32768
280
     0
281
     0
  0
CLASS
  1
SPATIAL_INDEX
  2
AcDbSpatialIndex
  3
AutoCAD 2000
 90
    32768
280
     0
281
     0
  0
CLASS
  1
OBJECT_PTR
  2
CAseDLPNTableRecord
  3
"ASE-LPNTableRecord"
 90
    32769
280
     0
281
     0
  0
CLASS
  1
LAYOUT
  2
AcDbLayout
  3
AutoCAD 2000
 90
        0
280
     0
281
     0
  0
CLASS
  1
PLOTSETTINGS
  2
AcDbPlotSettings
  3
AutoCAD 2000
 90
    32768
280
     0
281
     0
  0
CLASS
  1
ACDBDICTIONARYWDFLT
  2
AcDbDictionaryWithDefault
  3
AutoCAD 2000
 90
        0
280
     0
281
     0
  0
CLASS
  1
ACDBPLACEHOLDER
  2
AcDbPlaceHolder
  3
AutoCAD 2000
 90
        0
280
     0
281
     0
  0
CLASS
  1
VBA_PROJECT
  2
AcDbVbaProject
  3
acadvba
 90
    32768
280
     0
281
     0
  0
CLASS
  1
WIPEOUT
  2
AcDbWipeout
  3
WipeOut|AutoCAD Express Tool|expresstools@autodesk.com
 90
    32895
280
     0
281
     1
  0
CLASS
  1
WIPEOUTVARIABLES
  2
AcDbWipeoutVariables
  3
WipeOut|AutoCAD Express Tool|expresstools@autodesk.com
 90
        0
280
     0
281
     0
  0
CLASS
  1
RTEXT
  2
RText
  3
RText|AutoCAD Express Tool|expresstools@autodesk.com
 90
    32768
280
     0
281
     1
  0
CLASS
  1
ARCALIGNEDTEXT
  2
AcDbArcAlignedText
  3
ATEXT|AutoCAD Express Tool|expresstools@autodesk.com
 90
    32768
280
     0
281
     1
  0
ENDSEC
  0
SECTION
  2
TABLES
  0
TABLE
  2
VPORT
  5
7
100
AcDbSymbolTable
 70
     1
  0
VPORT
  5
15
100
AcDbSymbolTableRecord
100
AcDbViewportTableRecord
  2
*ACTIVE
 70
     0
 10
0.0
 20
0.0
 11
1.0
 21
1.0
 12
6.591288
 22
4.579184
 13
0.0
 23
0.0
 14
1.0
 24
1.0
 15
0.0
 25
0.0
 16
0.0
 26
0.0
 36
1.0
 17
0.0
 27
0.0
 37
0.0
 40
9.158369
 41
0.688564
 42
50.0
 43
0.0
 44
0.0
 50
0.0
 51
0.0
 71
     0
 72
   100
 73
     1
 74
     1
 75
     0
 76
     0
 77
     0
 78
     0
281
     0
 65
     0
110
0.0
120
0.0
130
0.0
111
1.0
121
0.0
131
0.0
112
0.0
122
1.0
132
0.0
345
0
346
0
 79
     0
146
0.0
  0
ENDTAB
  0
TABLE
  2
LTYPE
  5
4
100
AcDbSymbolTable
 70
     5
  0
LTYPE
  5
11
100
AcDbSymbolTableRecord
100
AcDbLinetypeTableRecord
  2
ByBlock
 70
    64
  3

 72
    65
 73
     0
 40
0.0
  0
LTYPE
  5
12
100
AcDbSymbolTableRecord
100
AcDbLinetypeTableRecord
  2
ByLayer
 70
    64
  3

 72
    65
 73
     0
 40
0.0
  0
LTYPE
  5
13
100
AcDbSymbolTableRecord
100
AcDbLinetypeTableRecord
  2
Continuous
 70
    64
  3
Solid line
 72
    65
 73
     0
 40
0.0
  0
LTYPE
  5
4C
100
AcDbSymbolTableRecord
100
AcDbLinetypeTableRecord
  2
AI9-LType1
 70
    64
  3
Illustrator Dash Style No.1
 72
    65
 73
     4
 40
8.000295
 49
4.99992
 74
     0
 49
-1.000125
 74
     0
 49
1.000125
 74
     0
 49
-1.000125
 74
     0
  0
LTYPE
  5
4D4
100
AcDbSymbolTableRecord
100
AcDbLinetypeTableRecord
  2
AI9-LType2
 70
    64
  3
Illustrator Dash Style No.2
 72
    65
 73
     4
 40
14.795182
 49
9.246975
 74
     0
 49
-1.849402
 74
     0
 49
1.849402
 74
     0
 49
-1.849402
 74
     0
  0
ENDTAB
  0
TABLE
  2
LAYER
  5
2
100
AcDbSymbolTable
 70
     3
  0
LAYER
  5
14
100
AcDbSymbolTableRecord
100
AcDbLayerTableRecord
  2
0
 70
     0
 62
     7
  6
Continuous
290
     1
370
    -3
390
1D
  0
LAYER
  5
28
100
AcDbSymbolTableRecord
100
AcDbLayerTableRecord
  2
レイヤー_2
 70
     0
 62
     1
  6
Continuous
290
     1
370
    -3
390
1D
  0
LAYER
  5
534
100
AcDbSymbolTableRecord
100
AcDbLayerTableRecord
  2
レイヤー_1
 70
     0
 62
   160
  6
Continuous
290
     1
370
    -3
390
1D
  0
ENDTAB
  0
TABLE
  2
STYLE
  5
3
100
AcDbSymbolTable
 70
     5
  0
STYLE
  5
17
100
AcDbSymbolTableRecord
100
AcDbTextStyleTableRecord
  2
Standard
 70
     0
 40
0.0
 41
1.0
 50
0.0
 71
     0
 42
0.0
  3
txt
  4

  0
STYLE
  5
24
100
AcDbSymbolTableRecord
100
AcDbTextStyleTableRecord
  2
STD
 70
     0
 40
0.0
 41
1.0
 50
0.0
 71
     0
 42
0.0
  3
txt
  4

  0
STYLE
  5
25
100
AcDbSymbolTableRecord
100
AcDbTextStyleTableRecord
  2
TATESTD
 70
     4
 40
0.0
 41
1.0
 50
0.0
 71
     0
 42
0.0
  3
txt
  4

  0
STYLE
  5
26
100
AcDbSymbolTableRecord
100
AcDbTextStyleTableRecord
  2
KANJISTD
 70
     0
 40
0.0
 41
1.0
 50
0.0
 71
     0
 42
0.0
  3
txt
  4
extfont
  0
STYLE
  5
27
100
AcDbSymbolTableRecord
100
AcDbTextStyleTableRecord
  2
KANJITATE
 70
     4
 40
0.0
 41
1.0
 50
0.0
 71
     0
 42
0.0
  3
txt
  4
extfont
  0
ENDTAB
  0
TABLE
  2
VIEW
  5
5
100
AcDbSymbolTable
 70
     0
  0
ENDTAB
  0
TABLE
  2
UCS
  5
6
100
AcDbSymbolTable
 70
     0
  0
ENDTAB
  0
TABLE
  2
APPID
  5
8
100
AcDbSymbolTable
 70
     1
  0
APPID
  5
16
100
AcDbSymbolTableRecord
100
AcDbRegAppTableRecord
  2
ACAD
 70
     0
  0
ENDTAB
  0
TABLE
  2
DIMSTYLE
  5
9
100
AcDbSymbolTable
 70
     1
100
AcDbDimStyleTable
 71
     0
  0
DIMSTYLE
105
18
100
AcDbSymbolTableRecord
100
AcDbDimStyleTableRecord
  2
Standard
 70
     0
  3

  4

 40
1.0
 41
0.18
 42
0.0625
 43
0.38
 44
0.18
 45
0.0
 46
0.0
 47
0.0
 48
0.0
 71
     0
 72
     0
 73
     1
 74
     1
 75
     0
 76
     0
 77
     0
 78
     0
 79
     0
140
0.18
141
0.09
142
0.0
143
25.4
144
1.0
145
0.0
146
1.0
147
0.09
148
0.0
170
     0
171
     2
172
     0
173
     0
174
     0
175
     0
176
     0
177
     0
178
     0
179
     0
271
     4
272
     4
273
     2
274
     2
275
     0
276
     0
277
     2
278
    46
279
     0
280
     0
281
     0
282
     0
283
     1
284
     0
285
     0
286
     0
288
     0
340
17
341
0
342
0
343
0
344
0
371
    -2
372
    -2
  0
ENDTAB
  0
TABLE
  2
BLOCK_RECORD
  5
1
100
AcDbSymbolTable
 70
     8
  0
BLOCK_RECORD
  5
A
100
AcDbSymbolTableRecord
100
AcDbBlockTableRecord
  2
*MODEL_SPACE
340
20
  0
BLOCK_RECORD
  5
B
100
AcDbSymbolTableRecord
100
AcDbBlockTableRecord
  2
*PAPER_SPACE
340
21
  0
BLOCK_RECORD
  5
473
100
AcDbSymbolTableRecord
100
AcDbBlockTableRecord
  2
AI9-BLK1
340
0
102
{BLKREFS
331
474
102
}
  0
BLOCK_RECORD
  5
481
100
AcDbSymbolTableRecord
100
AcDbBlockTableRecord
  2
AI9-BLK2
340
0
102
{BLKREFS
331
482
102
}
  0
BLOCK_RECORD
  5
487
100
AcDbSymbolTableRecord
100
AcDbBlockTableRecord
  2
AI9-BLK3
340
0
102
{BLKREFS
331
488
102
}
  0
BLOCK_RECORD
  5
48A
100
AcDbSymbolTableRecord
100
AcDbBlockTableRecord
  2
AI9-BLK4
340
0
102
{BLKREFS
331
48B
102
}
  0
BLOCK_RECORD
  5
48D
100
AcDbSymbolTableRecord
100
AcDbBlockTableRecord
  2
AI9-BLK5
340
0
102
{BLKREFS
331
48E
102
}
  0
BLOCK_RECORD
  5
4DB
100
AcDbSymbolTableRecord
100
AcDbBlockTableRecord
  2
AI9-BLK6
340
0
102
{BLKREFS
331
4DC
102
}
  0
BLOCK_RECORD
  5
4DE
100
AcDbSymbolTableRecord
100
AcDbBlockTableRecord
  2
AI9-BLK7
340
0
102
{BLKREFS
331
4DF
102
}
  0
BLOCK_RECORD
  5
4E1
100
AcDbSymbolTableRecord
100
AcDbBlockTableRecord
  2
AI9-BLK8
340
0
102
{BLKREFS
331
4E2
102
}
  0
ENDTAB
  0
ENDSEC
  0
SECTION
  2
BLOCKS
  0
BLOCK
  5
D
100
AcDbEntity
  8
0
100
AcDbBlockBegin
  2
*MODEL_SPACE
 70
     0
 10
0.0
 20
0.0
 30
0.0
  3
*MODEL_SPACE
  1

  0
ENDBLK
  5
E
100
AcDbEntity
  8
0
100
AcDbBlockEnd
  0
BLOCK
  5
F
100
AcDbEntity
 67
     1
  8
0
100
AcDbBlockBegin
  2
*PAPER_SPACE
 70
     0
 10
0.0
 20
0.0
 30
0.0
  3
*PAPER_SPACE
  1

  0
ENDBLK
  5
10
100
AcDbEntity
 67
     1
  8
0
100
AcDbBlockEnd
  0
BLOCK
  5
475
100
AcDbEntity
  8
レイヤー_2
 62
     7
100
AcDbBlockBegin
  2
AI9-BLK1
 70
     0
 10
0.0
 20
0.0
 30
0.0
  3
AI9-BLK1
  1

  0
MTEXT
  5
476
100
AcDbEntity
  8
レイヤー_2
 62
     7
100
AcDbMText
 10
-7.408333
 20
2.835313
 30
0.0
 40
5.512152
 41
0.0
 71
     1
 72
     2
  1
\fMS Gothic|b0|i0|c128;\H5.5122;\C7;\U+03C6\U+0033\U+0035
  7
STD
210
0.0
220
0.0
230
1.0
 73
     1
 44
1.0
  0
ENDBLK
  5
477
100
AcDbEntity
  8
レイヤー_2
100
AcDbBlockEnd
  0
BLOCK
  5
483
100
AcDbEntity
  8
レイヤー_2
 62
     7
100
AcDbBlockBegin
  2
AI9-BLK2
 70
     0
 10
0.0
 20
0.0
 30
0.0
  3
AI9-BLK2
  1

  0
MTEXT
  5
485
100
AcDbEntity
  8
レイヤー_2
 62
     7
100
AcDbMText
 10
-9.928765
 20
3.954609
 30
0.0
 40
2.887318
 41
0.0
 71
     1
 72
     2
  1
\fMS PGothic|b0|i0|c128;\H2.8873;\C7;\U+63A5\U+7D9A\U+30BD\U+30B1\U+30C3\U+30C8
  7
STD
210
0.0
220
0.0
230
1.0
 73
     1
 44
1.0
  0
MTEXT
  5
484
100
AcDbEntity
  8
レイヤー_2
 62
     7
100
AcDbMText
 10
-9.928765
 20
-0.98428
 30
0.0
 40
2.887318
 41
0.0
 71
     1
 72
     2
  1
\fMS PGothic|b0|i0|c128;\H2.8873;\C7;\U+FF08\U+9006\U+6B62\U+5F01\U+4ED8\U+FF09
  7
STD
210
0.0
220
0.0
230
1.0
 73
     1
 44
1.0
  0
ENDBLK
  5
486
100
AcDbEntity
  8
レイヤー_2
100
AcDbBlockEnd
  0
BLOCK
  5
489
100
AcDbEntity
  8
レイヤー_2
 62
     7
100
AcDbBlockBegin
  2
AI9-BLK3
 70
     0
 10
0.0
 20
0.0
 30
0.0
  3
AI9-BLK3
  1

  0
MTEXT
  5
4D9
100
AcDbEntity
  8
レイヤー_2
  6
AI9-LType2
 62
     7
100
AcDbMText
 10
-10.952648
 20
-29.569427
 30
0.0
 40
5.512152
 41
0.0
 71
     1
 72
     2
  1
\fMS PGothic|b0|i0|c128;\H5.5122;\C7;\U+0047\U+0031\U+002F\U+0032
  7
STD
210
0.0
220
0.0
230
1.0
 73
     1
 44
1.0
  0
INSERT
  5
48B
100
AcDbEntity
  8
レイヤー_2
 62
     7
100
AcDbBlockReference
  2
AI9-BLK4
 10
2.170066
 20
4.084505
 30
0.0
  0
ENDBLK
  5
4DA
100
AcDbEntity
  8
レイヤー_2
100
AcDbBlockEnd
  0
BLOCK
  5
48C
100
AcDbEntity
  8
レイヤー_2
 62
     7
100
AcDbBlockBegin
  2
AI9-BLK4
 70
     0
 10
0.0
 20
0.0
 30
0.0
  3
AI9-BLK4
  1

  0
LINE
  5
4D7
100
AcDbEntity
  8
レイヤー_2
  6
AI9-LType2
 62
     7
100
AcDbLine
 10
8.694387
 20
-22.690949
 30
0.0
 11
8.694387
 21
31.921738
 31
0.0
  0
LINE
  5
4D6
100
AcDbEntity
  8
レイヤー_2
  6
AI9-LType2
 62
     7
100
AcDbLine
 10
8.570364
 20
-22.609645
 30
0.0
 11
-5.567619
 21
-10.969356
 31
0.0
  0
LINE
  5
4D5
100
AcDbEntity
  8
レイヤー_2
  6
AI9-LType2
 62
     7
100
AcDbLine
 10
-5.567619
 20
-10.969356
 30
0.0
 11
-5.567619
 21
-31.921738
 31
0.0
  0
INSERT
  5
48E
100
AcDbEntity
  8
レイヤー_2
 62
     7
100
AcDbBlockReference
  2
AI9-BLK5
 10
-5.567963
 20
-24.879446
 30
0.0
  0
ENDBLK
  5
4D8
100
AcDbEntity
  8
レイヤー_2
100
AcDbBlockEnd
  0
BLOCK
  5
48F
100
AcDbEntity
  8
レイヤー_2
 62
     7
100
AcDbBlockBegin
  2
AI9-BLK5
 70
     0
 10
0.0
 20
0.0
 30
0.0
  3
AI9-BLK5
  1

  0
SPLINE
  5
4D2
100
AcDbEntity
  8
レイヤー_2
 62
     7
100
AcDbSpline
210
0.0
220
0.0
230
1.0
 70
     8
 71
     3
 72
    95
 73
    91
 74
     0
 42
0.00000001
 43
0.00000001
 40
0.0
 40
0.0
 40
0.0
 40
0.0
 40
1.0
 40
1.0
 40
1.0
 40
2.0
 40
2.0
 40
2.0
 40
3.0
 40
3.0
 40
3.0
 40
4.0
 40
4.0
 40
4.0
 40
5.0
 40
5.0
 40
5.0
 40
6.0
 40
6.0
 40
6.0
 40
7.0
 40
7.0
 40
7.0
 40
8.0
 40
8.0
 40
8.0
 40
9.0
 40
9.0
 40
9.0
 40
10.0
 40
10.0
 40
10.0
 40
11.0
 40
11.0
 40
11.0
 40
12.0
 40
12.0
 40
12.0
 40
13.0
 40
13.0
 40
13.0
 40
14.0
 40
14.0
 40
14.0
 40
15.0
 40
15.0
 40
15.0
 40
16.0
 40
16.0
 40
16.0
 40
17.0
 40
17.0
 40
17.0
 40
18.0
 40
18.0
 40
18.0
 40
19.0
 40
19.0
 40
19.0
 40
20.0
 40
20.0
 40
20.0
 40
21.0
 40
21.0
 40
21.0
 40
22.0
 40
22.0
 40
22.0
 40
23.0
 40
23.0
 40
23.0
 40
24.0
 40
24.0
 40
24.0
 40
25.0
 40
25.0
 40
25.0
 40
26.0
 40
26.0
 40
26.0
 40
27.0
 40
27.0
 40
27.0
 40
28.0
 40
28.0
 40
28.0
 40
29.0
 40
29.0
 40
29.0
 40
30.0
 40
30.0
 40
30.0
 40
30.0
 10
1.1103542751736111
 20
6.2991848415798604
 30
0.0
 10
1.097951931423611
 20
6.2957397460937496
 30
0.0
 10
1.085549587673611
 20
6.292294650607638
 30
0.0
 10
1.0731472439236109
 20
6.2888495551215273
 30
0.0
 10
1.0607449001736111
 20
6.2854044596354157
 30
0.0
 10
1.0483425564236111
 20
6.282648383246527
 30
0.0
 10
1.035940212673611
 20
6.2798923068576382
 30
0.0
 10
1.023537868923611
 20
6.2771362304687495
 30
0.0
 10
1.0111355251736109
 20
6.2743801540798607
 30
0.0
 10
0.998733181423611
 20
6.2723130967881939
 30
0.0
 10
0.9863308376736111
 20
6.2702460394965271
 30
0.0
 10
0.973928493923611
 20
6.2688680013020823
 30
0.0
 10
0.9608371310763888
 20
6.2674899631076384
 30
0.0
 10
0.9484347873263888
 20
6.2661119249131936
 30
0.0
 10
0.9360324435763888
 20
6.2661119249131936
 30
0.0
 10
0.9229410807291666
 20
6.2661119249131936
 30
0.0
 10
0.8946912977430555
 20
6.2668009440104164
 30
0.0
 10
0.8664415147569444
 20
6.2702460394965271
 30
0.0
 10
0.8388807508680555
 20
6.2771362304687495
 30
0.0
 10
0.8099419487847221
 20
6.2840264214409718
 30
0.0
 10
0.781692165798611
 20
6.2916056315104161
 30
0.0
 10
0.7541314019097222
 20
6.2998738606770823
 30
0.0
 10
0.725881618923611
 20
6.3081420898437495
 30
0.0
 10
0.6976318359374999
 20
6.3164103190104157
 30
0.0
 10
0.6700710720486111
 20
6.3239895290798609
 30
0.0
 10
0.6431993272569444
 20
6.3308797200520823
 30
0.0
 10
0.6156385633680555
 20
6.3363918728298607
 30
0.0
 10
0.5880777994791666
 20
6.3398369683159714
 30
0.0
 10
0.5625840928819444
 20
6.3425930447048602
 30
0.0
 10
0.5357123480902777
 20
6.3419040256076382
 30
0.0
 10
0.5102186414930555
 20
6.3370808919270827
 30
0.0
 10
0.4716335720486111
 20
6.3281236436631936
 30
0.0
 10
0.4351155598958333
 20
6.3115871853298602
 30
0.0
 10
0.4034206814236111
 20
6.2881605360243054
 30
0.0
 10
0.3675916883680555
 20
6.2619778103298609
 30
0.0
 10
0.3338297526041666
 20
6.2337280273437496
 30
0.0
 10
0.3028238932291666
 20
6.2027221679687496
 30
0.0
 10
0.2704399956597222
 20
6.1703382703993048
 30
0.0
 10
0.2373670789930555
 20
6.1386433919270829
 30
0.0
 10
0.2049831814236111
 20
6.1069485134548609
 30
0.0
 10
0.1739773220486111
 20
6.0773206922743048
 30
0.0
 10
0.1409044053819444
 20
6.0504489474826384
 30
0.0
 10
0.1050754123263889
 20
6.0263332790798607
 30
0.0
 10
0.0740695529513889
 20
6.0049736870659718
 30
0.0
 10
0.0375515407986111
 20
5.9918823242187491
 30
0.0
 10
0.0003445095486111
 20
5.9863701714409716
 30
0.0
 10
-0.0368625217013889
 20
5.982236056857638
 30
0.0
 10
-0.0740695529513889
 20
5.9870591905381936
 30
0.0
 10
-0.1078314887152778
 20
6.002217610677083
 30
0.0
 10
-0.1457275390625
 20
6.0187540690104164
 30
0.0
 10
-0.1829345703125
 20
6.0359795464409718
 30
0.0
 10
-0.2208306206597222
 20
6.0532050238715271
 30
0.0
 10
-0.2601047092013888
 20
6.0718085394965273
 30
0.0
 10
-0.2986897786458333
 20
6.0924791124131943
 30
0.0
 10
-0.3358968098958333
 20
6.1152167426215271
 30
0.0
 10
-0.3717258029513889
 20
6.1351982964409713
 30
0.0
 10
-0.4096218532986111
 20
6.1517347547743046
 30
0.0
 10
-0.4482069227430555
 20
6.1648261176215273
 30
0.0
 10
-0.4826578776041666
 20
6.1765394422743052
 30
0.0
 10
-0.5191758897569444
 20
6.1806735568576388
 30
0.0
 10
-0.5550048828124999
 20
6.1765394422743052
 30
0.0
 10
-0.5811876085069444
 20
6.1724053276909716
 30
0.0
 10
-0.6066813151041666
 20
6.1634480794270825
 30
0.0
 10
-0.6294189453125
 20
6.1503567165798607
 30
0.0
 10
-0.6542236328125
 20
6.1358873155381941
 30
0.0
 10
-0.6783393012152778
 20
6.1193508572048607
 30
0.0
 10
-0.7010769314236111
 20
6.1014363606770825
 30
0.0
 10
-0.7245035807291667
 20
6.0821438259548604
 30
0.0
 10
-0.7486192491319443
 20
6.0621622721354163
 30
0.0
 10
-0.7720458984374999
 20
6.0421807183159713
 30
0.0
 10
-0.7954725477430555
 20
6.0221991644965271
 30
0.0
 10
-0.8195882161458332
 20
6.002906629774305
 30
0.0
 10
-0.8450819227430555
 20
5.9849921332465268
 30
0.0
 10
-0.8691975911458333
 20
5.9670776367187495
 30
0.0
 10
-0.8953803168402778
 20
5.9526082356770829
 30
0.0
 10
-0.9229410807291666
 20
5.940894911024305
 30
0.0
 10
-0.9346544053819443
 20
5.9353827582465275
 30
0.0
 10
-0.9463677300347222
 20
5.9312486436631939
 30
0.0
 10
-0.9587700737847221
 20
5.9284925672743052
 30
0.0
 10
-0.9711724175347222
 20
5.9250474717881936
 30
0.0
 10
-0.9835747612847221
 20
5.9222913953993048
 30
0.0
 10
-0.9959771050347221
 20
5.9195353190104161
 30
0.0
 10
-1.0083794487847222
 20
5.9174682617187493
 30
0.0
 10
-1.0207817925347222
 20
5.9154012044270825
 30
0.0
 10
-1.0331841362847221
 20
5.9140231662326386
 30
0.0
 10
-1.0462754991319443
 20
5.9126451280381938
 30
0.0
 10
-1.0586778428819443
 20
5.9119561089409718
 30
0.0
 10
-1.0717692057291666
 20
5.910578070746527
 30
0.0
 10
-1.0841715494791666
 20
5.909200032552083
 30
0.0
 10
-1.0972629123263888
 20
5.9085110134548602
 30
0.0
 10
-1.1096652560763889
 20
5.9078219943576382
 30
0.0
  0
LINE
  5
4D1
100
AcDbEntity
  8
レイヤー_2
 62
     7
100
AcDbLine
 10
-1.986098
 20
-0.541397
 30
0.0
 11
-1.869653
 21
-0.541397
 31
0.0
  0
LINE
  5
4D0
100
AcDbEntity
  8
レイヤー_2
 62
     7
100
AcDbLine
 10
-1.869653
 20
0.525894
 30
0.0
 11
-1.869653
 21
-0.541397
 31
0.0
  0
LINE
  5
4CF
100
AcDbEntity
  8
レイヤー_2
 62
     7
100
AcDbLine
 10
-1.869653
 20
-0.541397
 30
0.0
 11
-1.986098
 21
-0.743279
 31
0.0
  0
LINE
  5
4CE
100
AcDbEntity
  8
レイヤー_2
 62
     7
100
AcDbLine
 10
1.869653
 20
-0.541397
 30
0.0
 11
1.986787
 21
-0.541397
 31
0.0
  0
LINE
  5
4CD
100
AcDbEntity
  8
レイヤー_2
 62
     7
100
AcDbLine
 10
1.869653
 20
-0.541397
 30
0.0
 11
1.869653
 21
0.525894
 31
0.0
  0
LINE
  5
4CC
100
AcDbEntity
  8
レイヤー_2
 62
     7
100
AcDbLine
 10
1.986787
 20
-0.743279
 30
0.0
 11
1.869653
 21
-0.541397
 31
0.0
  0
LINE
  5
4CB
100
AcDbEntity
  8
レイヤー_2
 62
     7
100
AcDbLine
 10
1.096574
 20
0.635448
 30
0.0
 11
1.57682
 21
0.635448
 31
0.0
  0
LINE
  5
4CA
100
AcDbEntity
  8
レイヤー_2
 62
     7
100
AcDbLine
 10
1.096574
 20
3.087667
 30
0.0
 11
1.096574
 21
0.635448
 31
0.0
  0
LINE
  5
4C9
100
AcDbEntity
  8
レイヤー_2
 62
     7
100
AcDbLine
 10
1.57682
 20
3.087667
 30
0.0
 11
1.096574
 21
3.087667
 31
0.0
  0
LINE
  5
4C8
100
AcDbEntity
  8
レイヤー_2
 62
     7
100
AcDbLine
 10
1.57682
 20
3.087667
 30
0.0
 11
1.57682
 21
0.635448
 31
0.0
  0
LINE
  5
4C7
100
AcDbEntity
  8
レイヤー_2
 62
     7
100
AcDbLine
 10
1.75252
 20
4.706862
 30
0.0
 11
0.000345
 21
4.706862
 31
0.0
  0
LINE
  5
4C6
100
AcDbEntity
  8
レイヤー_2
 62
     7
100
AcDbLine
 10
2.453942
 20
0.5004
 30
0.0
 11
0.000345
 21
0.5004
 31
0.0
  0
LINE
  5
4C5
100
AcDbEntity
  8
レイヤー_2
 62
     7
100
AcDbLine
 10
2.687519
 20
0.635448
 30
0.0
 11
2.453942
 21
0.5004
 31
0.0
  0
LINE
  5
4C4
100
AcDbEntity
  8
レイヤー_2
 62
     7
100
AcDbLine
 10
1.75252
 20
4.706862
 30
0.0
 11
2.56005
 21
3.308842
 31
0.0
  0
LINE
  5
4C3
100
AcDbEntity
  8
レイヤー_2
 62
     7
100
AcDbLine
 10
2.687519
 20
3.087667
 30
0.0
 11
2.687519
 21
0.635448
 31
0.0
  0
LINE
  5
4C2
100
AcDbEntity
  8
レイヤー_2
 62
     7
100
AcDbLine
 10
-1.179945
 20
4.706862
 30
0.0
 11
0.000345
 21
4.706862
 31
0.0
  0
LINE
  5
4C1
100
AcDbEntity
  8
レイヤー_2
 62
     7
100
AcDbLine
 10
-2.044664
 20
0.5004
 30
0.0
 11
0.000345
 21
0.5004
 31
0.0
  0
LINE
  5
4C0
100
AcDbEntity
  8
レイヤー_2
 62
     7
100
AcDbLine
 10
-1.57682
 20
0.635448
 30
0.0
 11
-1.095885
 21
0.635448
 31
0.0
  0
LINE
  5
4BF
100
AcDbEntity
  8
レイヤー_2
 62
     7
100
AcDbLine
 10
-1.095885
 20
0.635448
 30
0.0
 11
-1.095885
 21
3.087667
 31
0.0
  0
LINE
  5
4BE
100
AcDbEntity
  8
レイヤー_2
 62
     7
100
AcDbLine
 10
-1.095885
 20
3.087667
 30
0.0
 11
-1.57682
 21
3.087667
 31
0.0
  0
LINE
  5
4BD
100
AcDbEntity
  8
レイヤー_2
 62
     7
100
AcDbLine
 10
-1.57682
 20
0.635448
 30
0.0
 11
-1.57682
 21
3.087667
 31
0.0
  0
LINE
  5
4BC
100
AcDbEntity
  8
レイヤー_2
 62
     7
100
AcDbLine
 10
0.000345
 20
4.706862
 30
0.0
 11
-1.75252
 21
4.706862
 31
0.0
  0
LINE
  5
4BB
100
AcDbEntity
  8
レイヤー_2
 62
     7
100
AcDbLine
 10
0.000345
 20
0.5004
 30
0.0
 11
-2.453942
 21
0.5004
 31
0.0
  0
LINE
  5
4BA
100
AcDbEntity
  8
レイヤー_2
 62
     7
100
AcDbLine
 10
-2.453942
 20
0.5004
 30
0.0
 11
-2.687519
 21
0.635448
 31
0.0
  0
LINE
  5
4B9
100
AcDbEntity
  8
レイヤー_2
 62
     7
100
AcDbLine
 10
-2.687519
 20
3.087667
 30
0.0
 11
-1.75252
 21
4.706862
 31
0.0
  0
LINE
  5
4B8
100
AcDbEntity
  8
レイヤー_2
 62
     7
100
AcDbLine
 10
-2.687519
 20
0.635448
 30
0.0
 11
-2.687519
 21
3.087667
 31
0.0
  0
LINE
  5
4B7
100
AcDbEntity
  8
レイヤー_2
 62
     7
100
AcDbLine
 10
2.56005
 20
3.308842
 30
0.0
 11
2.687519
 21
3.087667
 31
0.0
  0
SPLINE
  5
4B6
100
AcDbEntity
  8
レイヤー_2
 62
     7
100
AcDbSpline
210
0.0
220
0.0
230
1.0
 70
     8
 71
     3
 72
     8
 73
     4
 74
     0
 42
0.00000001
 43
0.00000001
 40
0.0
 40
0.0
 40
0.0
 40
0.0
 40
1.0
 40
1.0
 40
1.0
 40
1.0
 10
1.0965738932291667
 20
0.6354478624131944
 30
0.0
 10
0.7375949435763888
 20
0.5458753797743056
 30
0.0
 10
0.3696587456597222
 20
0.5004001193576388
 30
0.0
 10
0.0003445095486111
 20
0.5004001193576388
 30
0.0
  0
SPLINE
  5
4B5
100
AcDbEntity
  8
レイヤー_2
 62
     7
100
AcDbSpline
210
0.0
220
0.0
230
1.0
 70
     8
 71
     3
 72
     8
 73
     4
 74
     0
 42
0.00000001
 43
0.00000001
 40
0.0
 40
0.0
 40
0.0
 40
0.0
 40
1.0
 40
1.0
 40
1.0
 40
1.0
 10
2.6875189887152775
 20
0.6354478624131944
 30
0.0
 10
2.3395643446180552
 20
0.4549248589409722
 30
0.0
 10
1.9254638671874997
 20
0.4549248589409722
 30
0.0
 10
1.5768202039930554
 20
0.6354478624131944
 30
0.0
  0
SPLINE
  5
4B4
100
AcDbEntity
  8
レイヤー_2
 62
     7
100
AcDbSpline
210
0.0
220
0.0
230
1.0
 70
     8
 71
     3
 72
     8
 73
     4
 74
     0
 42
0.00000001
 43
0.00000001
 40
0.0
 40
0.0
 40
0.0
 40
0.0
 40
1.0
 40
1.0
 40
1.0
 40
1.0
 10
0.0003445095486111
 20
3.4928100585937498
 30
0.0
 10
0.4020426432291666
 20
3.4928100585937498
 30
0.0
 10
0.7906494140624999
 20
3.3494940863715277
 30
0.0
 10
1.0965738932291667
 20
3.087666829427083
 30
0.0
  0
SPLINE
  5
4B3
100
AcDbEntity
  8
レイヤー_2
 62
     7
100
AcDbSpline
210
0.0
220
0.0
230
1.0
 70
     8
 71
     3
 72
    11
 73
     7
 74
     0
 42
0.00000001
 43
0.00000001
 40
0.0
 40
0.0
 40
0.0
 40
0.0
 40
1.0
 40
1.0
 40
1.0
 40
2.0
 40
2.0
 40
2.0
 40
2.0
 10
1.5768202039930554
 20
3.087666829427083
 30
0.0
 10
1.6725938585069442
 20
3.3949693467881943
 30
0.0
 10
1.9991889105902776
 20
3.5658460828993053
 30
0.0
 10
2.3058024088541664
 20
3.4693834092881941
 30
0.0
 10
2.403643120659722
 20
3.4390665690104165
 30
0.0
 10
2.491148546006944
 20
3.3839450412326384
 30
0.0
 10
2.5600504557291663
 20
3.3088419596354162
 30
0.0
  0
SPLINE
  5
4B2
100
AcDbEntity
  8
レイヤー_2
 62
     7
100
AcDbSpline
210
0.0
220
0.0
230
1.0
 70
     8
 71
     3
 72
     8
 73
     4
 74
     0
 42
0.00000001
 43
0.00000001
 40
0.0
 40
0.0
 40
0.0
 40
0.0
 40
1.0
 40
1.0
 40
1.0
 40
1.0
 10
0.0003445095486111
 20
0.5004001193576388
 30
0.0
 10
-0.3696587456597222
 20
0.5004001193576388
 30
0.0
 10
-0.7375949435763888
 20
0.5458753797743056
 30
0.0
 10
-1.0958848741319442
 20
0.6354478624131944
 30
0.0
  0
SPLINE
  5
4B1
100
AcDbEntity
  8
レイヤー_2
 62
     7
100
AcDbSpline
210
0.0
220
0.0
230
1.0
 70
     8
 71
     3
 72
     8
 73
     4
 74
     0
 42
0.00000001
 43
0.00000001
 40
0.0
 40
0.0
 40
0.0
 40
0.0
 40
1.0
 40
1.0
 40
1.0
 40
1.0
 10
-1.5768202039930554
 20
0.6354478624131944
 30
0.0
 10
-1.9254638671874997
 20
0.4549248589409722
 30
0.0
 10
-2.3395643446180552
 20
0.4549248589409722
 30
0.0
 10
-2.6875189887152775
 20
0.6354478624131944
 30
0.0
  0
SPLINE
  5
4B0
100
AcDbEntity
  8
レイヤー_2
 62
     7
100
AcDbSpline
210
0.0
220
0.0
230
1.0
 70
     8
 71
     3
 72
     8
 73
     4
 74
     0
 42
0.00000001
 43
0.00000001
 40
0.0
 40
0.0
 40
0.0
 40
0.0
 40
1.0
 40
1.0
 40
1.0
 40
1.0
 10
-1.0958848741319442
 20
3.087666829427083
 30
0.0
 10
-0.7906494140624999
 20
3.3494940863715277
 30
0.0
 10
-0.4020426432291666
 20
3.4928100585937498
 30
0.0
 10
0.0003445095486111
 20
3.4928100585937498
 30
0.0
  0
SPLINE
  5
4AF
100
AcDbEntity
  8
レイヤー_2
 62
     7
100
AcDbSpline
210
0.0
220
0.0
230
1.0
 70
     8
 71
     3
 72
    11
 73
     7
 74
     0
 42
0.00000001
 43
0.00000001
 40
0.0
 40
0.0
 40
0.0
 40
0.0
 40
1.0
 40
1.0
 40
1.0
 40
2.0
 40
2.0
 40
2.0
 40
2.0
 10
-2.6875189887152775
 20
3.087666829427083
 30
0.0
 10
-2.5917453342013888
 20
3.3949693467881943
 30
0.0
 10
-2.2651502821180554
 20
3.5658460828993053
 30
0.0
 10
-1.9585367838541665
 20
3.4693834092881941
 30
0.0
 10
-1.7766357421874999
 20
3.4128838433159721
 30
0.0
 10
-1.6340087890624999
 20
3.2702568901909719
 30
0.0
 10
-1.5768202039930554
 20
3.087666829427083
 30
0.0
  0
LINE
  5
4AE
100
AcDbEntity
  8
レイヤー_2
 62
     7
100
AcDbLine
 10
2.775024
 20
-6.131409
 30
0.0
 11
3.03823
 21
-5.990849
 31
0.0
  0
LINE
  5
4AD
100
AcDbEntity
  8
レイヤー_2
 62
     7
100
AcDbLine
 10
-3.03823
 20
-5.990849
 30
0.0
 11
-2.775024
 21
-6.131409
 31
0.0
  0
LINE
  5
4AC
100
AcDbEntity
  8
レイヤー_2
 62
     7
100
AcDbLine
 10
3.03823
 20
-1.316543
 30
0.0
 11
2.775024
 21
-1.175983
 31
0.0
  0
LINE
  5
4AB
100
AcDbEntity
  8
レイヤー_2
 62
     7
100
AcDbLine
 10
-2.775024
 20
-1.175983
 30
0.0
 11
-3.03823
 21
-1.316543
 31
0.0
  0
LINE
  5
4AA
100
AcDbEntity
  8
レイヤー_2
 62
     7
100
AcDbLine
 10
2.687519
 20
-6.34156
 30
0.0
 11
-2.687519
 21
-6.34156
 31
0.0
  0
LINE
  5
4A9
100
AcDbEntity
  8
レイヤー_2
 62
     7
100
AcDbLine
 10
1.844849
 20
-5.990849
 30
0.0
 11
1.168921
 21
-5.990849
 31
0.0
  0
LINE
  5
4A8
100
AcDbEntity
  8
レイヤー_2
 62
     7
100
AcDbLine
 10
-1.168232
 20
-5.990849
 30
0.0
 11
-1.84416
 21
-5.990849
 31
0.0
  0
LINE
  5
4A7
100
AcDbEntity
  8
レイヤー_2
 62
     7
100
AcDbLine
 10
-3.03823
 20
-5.990849
 30
0.0
 11
-2.687519
 21
-6.34156
 31
0.0
  0
LINE
  5
4A6
100
AcDbEntity
  8
レイヤー_2
 62
     7
100
AcDbLine
 10
3.03823
 20
-5.990849
 30
0.0
 11
2.687519
 21
-6.34156
 31
0.0
  0
LINE
  5
4A5
100
AcDbEntity
  8
レイヤー_2
 62
     7
100
AcDbLine
 10
-2.687519
 20
-0.965833
 30
0.0
 11
2.687519
 21
-0.965833
 31
0.0
  0
LINE
  5
4A4
100
AcDbEntity
  8
レイヤー_2
 62
     7
100
AcDbLine
 10
-2.687519
 20
-0.965833
 30
0.0
 11
-3.03823
 21
-1.316543
 31
0.0
  0
LINE
  5
4A3
100
AcDbEntity
  8
レイヤー_2
 62
     7
100
AcDbLine
 10
-1.84416
 20
-1.316543
 30
0.0
 11
-1.168232
 21
-1.316543
 31
0.0
  0
LINE
  5
4A2
100
AcDbEntity
  8
レイヤー_2
 62
     7
100
AcDbLine
 10
1.168921
 20
-1.316543
 30
0.0
 11
1.844849
 21
-1.316543
 31
0.0
  0
LINE
  5
4A1
100
AcDbEntity
  8
レイヤー_2
 62
     7
100
AcDbLine
 10
2.687519
 20
-0.965833
 30
0.0
 11
3.03823
 21
-1.316543
 31
0.0
  0
LINE
  5
4A0
100
AcDbEntity
  8
レイヤー_2
 62
     7
100
AcDbLine
 10
3.03823
 20
-5.990849
 30
0.0
 11
3.03823
 21
-1.316543
 31
0.0
  0
LINE
  5
49F
100
AcDbEntity
  8
レイヤー_2
 62
     7
100
AcDbLine
 10
1.844849
 20
-5.990849
 30
0.0
 11
1.844849
 21
-1.316543
 31
0.0
  0
LINE
  5
49E
100
AcDbEntity
  8
レイヤー_2
 62
     7
100
AcDbLine
 10
1.168921
 20
-5.990849
 30
0.0
 11
1.168921
 21
-1.316543
 31
0.0
  0
LINE
  5
49D
100
AcDbEntity
  8
レイヤー_2
 62
     7
100
AcDbLine
 10
-1.168232
 20
-5.990849
 30
0.0
 11
-1.168232
 21
-1.316543
 31
0.0
  0
LINE
  5
49C
100
AcDbEntity
  8
レイヤー_2
 62
     7
100
AcDbLine
 10
-1.84416
 20
-5.990849
 30
0.0
 11
-1.84416
 21
-1.316543
 31
0.0
  0
LINE
  5
49B
100
AcDbEntity
  8
レイヤー_2
 62
     7
100
AcDbLine
 10
-3.03823
 20
-5.990849
 30
0.0
 11
-3.03823
 21
-1.316543
 31
0.0
  0
SPLINE
  5
49A
100
AcDbEntity
  8
レイヤー_2
 62
     7
100
AcDbSpline
210
0.0
220
0.0
230
1.0
 70
     8
 71
     3
 72
     8
 73
     4
 74
     0
 42
0.00000001
 43
0.00000001
 40
0.0
 40
0.0
 40
0.0
 40
0.0
 40
1.0
 40
1.0
 40
1.0
 40
1.0
 10
2.7750244140624996
 20
-6.1314086914062491
 30
0.0
 10
2.4684109157986107
 20
-6.2960842556423602
 30
0.0
 10
2.0894504123263888
 20
-6.2388956705729157
 30
0.0
 10
1.8448486328124998
 20
-5.9908487955729157
 30
0.0
  0
SPLINE
  5
499
100
AcDbEntity
  8
レイヤー_2
 62
     7
100
AcDbSpline
210
0.0
220
0.0
230
1.0
 70
     8
 71
     3
 72
     8
 73
     4
 74
     0
 42
0.00000001
 43
0.00000001
 40
0.0
 40
0.0
 40
0.0
 40
0.0
 40
1.0
 40
1.0
 40
1.0
 40
1.0
 10
-1.8441596137152776
 20
-5.9908487955729157
 30
0.0
 10
-2.0894504123263888
 20
-6.2388956705729157
 30
0.0
 10
-2.4677218967013888
 20
-6.2960842556423602
 30
0.0
 10
-2.7750244140624996
 20
-6.1314086914062491
 30
0.0
  0
SPLINE
  5
498
100
AcDbEntity
  8
レイヤー_2
 62
     7
100
AcDbSpline
210
0.0
220
0.0
230
1.0
 70
     8
 71
     3
 72
     8
 73
     4
 74
     0
 42
0.00000001
 43
0.00000001
 40
0.0
 40
0.0
 40
0.0
 40
0.0
 40
1.0
 40
1.0
 40
1.0
 40
1.0
 10
1.1689208984374999
 20
-5.9908487955729157
 30
0.0
 10
0.4206461588541666
 20
-6.3022854275173605
 30
0.0
 10
-0.4206461588541666
 20
-6.3022854275173605
 30
0.0
 10
-1.1682318793402777
 20
-5.9908487955729157
 30
0.0
  0
SPLINE
  5
497
100
AcDbEntity
  8
レイヤー_2
 62
     7
100
AcDbSpline
210
0.0
220
0.0
230
1.0
 70
     8
 71
     3
 72
     8
 73
     4
 74
     0
 42
0.00000001
 43
0.00000001
 40
0.0
 40
0.0
 40
0.0
 40
0.0
 40
1.0
 40
1.0
 40
1.0
 40
1.0
 10
1.8448486328124998
 20
-1.3165432400173609
 30
0.0
 10
2.0894504123263888
 20
-1.0691853841145833
 30
0.0
 10
2.4684109157986107
 20
-1.0119967990451388
 30
0.0
 10
2.7750244140624996
 20
-1.1759833441840277
 30
0.0
  0
SPLINE
  5
496
100
AcDbEntity
  8
レイヤー_2
 62
     7
100
AcDbSpline
210
0.0
220
0.0
230
1.0
 70
     8
 71
     3
 72
     8
 73
     4
 74
     0
 42
0.00000001
 43
0.00000001
 40
0.0
 40
0.0
 40
0.0
 40
0.0
 40
1.0
 40
1.0
 40
1.0
 40
1.0
 10
-2.7750244140624996
 20
-1.1759833441840277
 30
0.0
 10
-2.4677218967013888
 20
-1.0119967990451388
 30
0.0
 10
-2.0894504123263888
 20
-1.0691853841145833
 30
0.0
 10
-1.8441596137152776
 20
-1.3165432400173609
 30
0.0
  0
SPLINE
  5
495
100
AcDbEntity
  8
レイヤー_2
 62
     7
100
AcDbSpline
210
0.0
220
0.0
230
1.0
 70
     8
 71
     3
 72
     8
 73
     4
 74
     0
 42
0.00000001
 43
0.00000001
 40
0.0
 40
0.0
 40
0.0
 40
0.0
 40
1.0
 40
1.0
 40
1.0
 40
1.0
 10
-1.1682318793402777
 20
-1.3165432400173609
 30
0.0
 10
-0.4206461588541666
 20
-1.0051066080729165
 30
0.0
 10
0.4206461588541666
 20
-1.0051066080729165
 30
0.0
 10
1.1689208984374999
 20
-1.3165432400173609
 30
0.0
  0
LINE
  5
494
100
AcDbEntity
  8
レイヤー_2
 62
     7
100
AcDbLine
 10
1.110354
 20
4.706862
 30
0.0
 11
1.110354
 21
6.306764
 31
0.0
  0
LINE
  5
493
100
AcDbEntity
  8
レイヤー_2
 62
     7
100
AcDbLine
 10
-1.109665
 20
4.706862
 30
0.0
 11
-1.109665
 21
5.907822
 31
0.0
  0
LINE
  5
492
100
AcDbEntity
  8
レイヤー_2
 62
     7
100
AcDbLine
 10
-1.986098
 20
-0.743279
 30
0.0
 11
-1.986098
 21
0.5004
 31
0.0
  0
LINE
  5
491
100
AcDbEntity
  8
レイヤー_2
 62
     7
100
AcDbLine
 10
1.986787
 20
0.5004
 30
0.0
 11
1.986787
 21
-0.743279
 31
0.0
  0
LINE
  5
490
100
AcDbEntity
  8
レイヤー_2
 62
     7
100
AcDbLine
 10
1.869653
 20
-0.541397
 30
0.0
 11
-1.869653
 21
-0.541397
 31
0.0
  0
ENDBLK
  5
4D3
100
AcDbEntity
  8
レイヤー_2
100
AcDbBlockEnd
  0
BLOCK
  5
4DD
100
AcDbEntity
  8
レイヤー_2
  6
AI9-LType2
 62
     7
100
AcDbBlockBegin
  2
AI9-BLK6
 70
     0
 10
0.0
 20
0.0
 30
0.0
  3
AI9-BLK6
  1

  0
MTEXT
  5
52C
100
AcDbEntity
  8
レイヤー_2
  6
AI9-LType2
 62
     7
100
AcDbMText
 10
-4.051002
 20
-29.569427
 30
0.0
 40
5.512152
 41
0.0
 71
     1
 72
     2
  1
\fMS PGothic|b0|i0|c128;\H5.5122;\C7;\U+0047\U+0031\U+002F\U+0032
  7
STD
210
0.0
220
0.0
230
1.0
 73
     1
 44
1.0
  0
INSERT
  5
4DF
100
AcDbEntity
  8
レイヤー_2
  6
AI9-LType2
 62
     7
100
AcDbBlockReference
  2
AI9-BLK7
 10
-2.128983
 20
4.084505
 30
0.0
  0
ENDBLK
  5
52D
100
AcDbEntity
  8
レイヤー_2
100
AcDbBlockEnd
  0
BLOCK
  5
4E0
100
AcDbEntity
  8
レイヤー_2
  6
AI9-LType2
 62
     7
100
AcDbBlockBegin
  2
AI9-BLK7
 70
     0
 10
0.0
 20
0.0
 30
0.0
  3
AI9-BLK7
  1

  0
LINE
  5
52A
100
AcDbEntity
  8
レイヤー_2
  6
AI9-LType2
 62
     7
100
AcDbLine
 10
-8.694387
 20
-22.690949
 30
0.0
 11
-8.694387
 21
31.921738
 31
0.0
  0
LINE
  5
529
100
AcDbEntity
  8
レイヤー_2
  6
AI9-LType2
 62
     7
100
AcDbLine
 10
-8.570364
 20
-22.609645
 30
0.0
 11
5.567619
 21
-10.969356
 31
0.0
  0
LINE
  5
528
100
AcDbEntity
  8
レイヤー_2
  6
AI9-LType2
 62
     7
100
AcDbLine
 10
5.567619
 20
-10.969356
 30
0.0
 11
5.567619
 21
-31.921738
 31
0.0
  0
INSERT
  5
4E2
100
AcDbEntity
  8
レイヤー_2
  6
AI9-LType2
 62
     7
100
AcDbBlockReference
  2
AI9-BLK8
 10
5.567963
 20
-24.879446
 30
0.0
  0
ENDBLK
  5
52B
100
AcDbEntity
  8
レイヤー_2
100
AcDbBlockEnd
  0
BLOCK
  5
4E3
100
AcDbEntity
  8
レイヤー_2
  6
AI9-LType2
 62
     7
100
AcDbBlockBegin
  2
AI9-BLK8
 70
     0
 10
0.0
 20
0.0
 30
0.0
  3
AI9-BLK8
  1

  0
SPLINE
  5
526
100
AcDbEntity
  8
レイヤー_2
 62
     7
100
AcDbSpline
210
0.0
220
0.0
230
1.0
 70
     8
 71
     3
 72
    95
 73
    91
 74
     0
 42
0.00000001
 43
0.00000001
 40
0.0
 40
0.0
 40
0.0
 40
0.0
 40
1.0
 40
1.0
 40
1.0
 40
2.0
 40
2.0
 40
2.0
 40
3.0
 40
3.0
 40
3.0
 40
4.0
 40
4.0
 40
4.0
 40
5.0
 40
5.0
 40
5.0
 40
6.0
 40
6.0
 40
6.0
 40
7.0
 40
7.0
 40
7.0
 40
8.0
 40
8.0
 40
8.0
 40
9.0
 40
9.0
 40
9.0
 40
10.0
 40
10.0
 40
10.0
 40
11.0
 40
11.0
 40
11.0
 40
12.0
 40
12.0
 40
12.0
 40
13.0
 40
13.0
 40
13.0
 40
14.0
 40
14.0
 40
14.0
 40
15.0
 40
15.0
 40
15.0
 40
16.0
 40
16.0
 40
16.0
 40
17.0
 40
17.0
 40
17.0
 40
18.0
 40
18.0
 40
18.0
 40
19.0
 40
19.0
 40
19.0
 40
20.0
 40
20.0
 40
20.0
 40
21.0
 40
21.0
 40
21.0
 40
22.0
 40
22.0
 40
22.0
 40
23.0
 40
23.0
 40
23.0
 40
24.0
 40
24.0
 40
24.0
 40
25.0
 40
25.0
 40
25.0
 40
26.0
 40
26.0
 40
26.0
 40
27.0
 40
27.0
 40
27.0
 40
28.0
 40
28.0
 40
28.0
 40
29.0
 40
29.0
 40
29.0
 40
30.0
 40
30.0
 40
30.0
 40
30.0
 10
-1.1103542751736111
 20
6.2991848415798604
 30
0.0
 10
-1.097951931423611
 20
6.2957397460937496
 30
0.0
 10
-1.085549587673611
 20
6.292294650607638
 30
0.0
 10
-1.0731472439236109
 20
6.2888495551215273
 30
0.0
 10
-1.0607449001736111
 20
6.2854044596354157
 30
0.0
 10
-1.0483425564236111
 20
6.282648383246527
 30
0.0
 10
-1.035940212673611
 20
6.2798923068576382
 30
0.0
 10
-1.023537868923611
 20
6.2771362304687495
 30
0.0
 10
-1.0111355251736109
 20
6.2743801540798607
 30
0.0
 10
-0.998733181423611
 20
6.2723130967881939
 30
0.0
 10
-0.9863308376736111
 20
6.2702460394965271
 30
0.0
 10
-0.973928493923611
 20
6.2688680013020823
 30
0.0
 10
-0.9608371310763888
 20
6.2674899631076384
 30
0.0
 10
-0.9484347873263888
 20
6.2661119249131936
 30
0.0
 10
-0.9360324435763888
 20
6.2661119249131936
 30
0.0
 10
-0.9229410807291666
 20
6.2661119249131936
 30
0.0
 10
-0.8946912977430555
 20
6.2668009440104164
 30
0.0
 10
-0.8664415147569444
 20
6.2702460394965271
 30
0.0
 10
-0.8388807508680555
 20
6.2771362304687495
 30
0.0
 10
-0.8099419487847221
 20
6.2840264214409718
 30
0.0
 10
-0.781692165798611
 20
6.2916056315104161
 30
0.0
 10
-0.7541314019097222
 20
6.2998738606770823
 30
0.0
 10
-0.725881618923611
 20
6.3081420898437495
 30
0.0
 10
-0.6976318359374999
 20
6.3164103190104157
 30
0.0
 10
-0.6700710720486111
 20
6.3239895290798609
 30
0.0
 10
-0.6431993272569444
 20
6.3308797200520823
 30
0.0
 10
-0.6156385633680555
 20
6.3363918728298607
 30
0.0
 10
-0.5880777994791666
 20
6.3398369683159714
 30
0.0
 10
-0.5625840928819444
 20
6.3425930447048602
 30
0.0
 10
-0.5357123480902777
 20
6.3419040256076382
 30
0.0
 10
-0.5102186414930555
 20
6.3370808919270827
 30
0.0
 10
-0.4716335720486111
 20
6.3281236436631936
 30
0.0
 10
-0.4351155598958333
 20
6.3115871853298602
 30
0.0
 10
-0.4034206814236111
 20
6.2881605360243054
 30
0.0
 10
-0.3675916883680555
 20
6.2619778103298609
 30
0.0
 10
-0.3338297526041666
 20
6.2337280273437496
 30
0.0
 10
-0.3028238932291666
 20
6.2027221679687496
 30
0.0
 10
-0.2704399956597222
 20
6.1703382703993048
 30
0.0
 10
-0.2373670789930555
 20
6.1386433919270829
 30
0.0
 10
-0.2049831814236111
 20
6.1069485134548609
 30
0.0
 10
-0.1739773220486111
 20
6.0773206922743048
 30
0.0
 10
-0.1409044053819444
 20
6.0504489474826384
 30
0.0
 10
-0.1050754123263889
 20
6.0263332790798607
 30
0.0
 10
-0.0740695529513889
 20
6.0049736870659718
 30
0.0
 10
-0.0375515407986111
 20
5.9918823242187491
 30
0.0
 10
-0.0003445095486111
 20
5.9863701714409716
 30
0.0
 10
0.0368625217013889
 20
5.982236056857638
 30
0.0
 10
0.0740695529513889
 20
5.9870591905381936
 30
0.0
 10
0.1078314887152778
 20
6.002217610677083
 30
0.0
 10
0.1457275390625
 20
6.0187540690104164
 30
0.0
 10
0.1829345703125
 20
6.0359795464409718
 30
0.0
 10
0.2208306206597222
 20
6.0532050238715271
 30
0.0
 10
0.2601047092013888
 20
6.0718085394965273
 30
0.0
 10
0.2986897786458333
 20
6.0924791124131943
 30
0.0
 10
0.3358968098958333
 20
6.1152167426215271
 30
0.0
 10
0.3717258029513889
 20
6.1351982964409713
 30
0.0
 10
0.4096218532986111
 20
6.1517347547743046
 30
0.0
 10
0.4482069227430555
 20
6.1648261176215273
 30
0.0
 10
0.4826578776041666
 20
6.1765394422743052
 30
0.0
 10
0.5191758897569444
 20
6.1806735568576388
 30
0.0
 10
0.5550048828124999
 20
6.1765394422743052
 30
0.0
 10
0.5811876085069444
 20
6.1724053276909716
 30
0.0
 10
0.6066813151041666
 20
6.1634480794270825
 30
0.0
 10
0.6294189453125
 20
6.1503567165798607
 30
0.0
 10
0.6542236328125
 20
6.1358873155381941
 30
0.0
 10
0.6783393012152778
 20
6.1193508572048607
 30
0.0
 10
0.7010769314236111
 20
6.1014363606770825
 30
0.0
 10
0.7245035807291667
 20
6.0821438259548604
 30
0.0
 10
0.7486192491319443
 20
6.0621622721354163
 30
0.0
 10
0.7720458984374999
 20
6.0421807183159713
 30
0.0
 10
0.7954725477430555
 20
6.0221991644965271
 30
0.0
 10
0.8195882161458332
 20
6.002906629774305
 30
0.0
 10
0.8450819227430555
 20
5.9849921332465268
 30
0.0
 10
0.8691975911458333
 20
5.9670776367187495
 30
0.0
 10
0.8953803168402778
 20
5.9526082356770829
 30
0.0
 10
0.9229410807291666
 20
5.940894911024305
 30
0.0
 10
0.9346544053819443
 20
5.9353827582465275
 30
0.0
 10
0.9463677300347222
 20
5.9312486436631939
 30
0.0
 10
0.9587700737847221
 20
5.9284925672743052
 30
0.0
 10
0.9711724175347222
 20
5.9250474717881936
 30
0.0
 10
0.9835747612847221
 20
5.9222913953993048
 30
0.0
 10
0.9959771050347221
 20
5.9195353190104161
 30
0.0
 10
1.0083794487847222
 20
5.9174682617187493
 30
0.0
 10
1.0207817925347222
 20
5.9154012044270825
 30
0.0
 10
1.0331841362847221
 20
5.9140231662326386
 30
0.0
 10
1.0462754991319443
 20
5.9126451280381938
 30
0.0
 10
1.0586778428819443
 20
5.9119561089409718
 30
0.0
 10
1.0717692057291666
 20
5.910578070746527
 30
0.0
 10
1.0841715494791666
 20
5.909200032552083
 30
0.0
 10
1.0972629123263888
 20
5.9085110134548602
 30
0.0
 10
1.1096652560763889
 20
5.9078219943576382
 30
0.0
  0
LINE
  5
525
100
AcDbEntity
  8
レイヤー_2
 62
     7
100
AcDbLine
 10
1.986098
 20
-0.541397
 30
0.0
 11
1.869653
 21
-0.541397
 31
0.0
  0
LINE
  5
524
100
AcDbEntity
  8
レイヤー_2
 62
     7
100
AcDbLine
 10
1.869653
 20
0.525894
 30
0.0
 11
1.869653
 21
-0.541397
 31
0.0
  0
LINE
  5
523
100
AcDbEntity
  8
レイヤー_2
 62
     7
100
AcDbLine
 10
1.869653
 20
-0.541397
 30
0.0
 11
1.986098
 21
-0.743279
 31
0.0
  0
LINE
  5
522
100
AcDbEntity
  8
レイヤー_2
 62
     7
100
AcDbLine
 10
-1.869653
 20
-0.541397
 30
0.0
 11
-1.986787
 21
-0.541397
 31
0.0
  0
LINE
  5
521
100
AcDbEntity
  8
レイヤー_2
 62
     7
100
AcDbLine
 10
-1.869653
 20
-0.541397
 30
0.0
 11
-1.869653
 21
0.525894
 31
0.0
  0
LINE
  5
520
100
AcDbEntity
  8
レイヤー_2
 62
     7
100
AcDbLine
 10
-1.986787
 20
-0.743279
 30
0.0
 11
-1.869653
 21
-0.541397
 31
0.0
  0
LINE
  5
51F
100
AcDbEntity
  8
レイヤー_2
 62
     7
100
AcDbLine
 10
-1.096574
 20
0.635448
 30
0.0
 11
-1.57682
 21
0.635448
 31
0.0
  0
LINE
  5
51E
100
AcDbEntity
  8
レイヤー_2
 62
     7
100
AcDbLine
 10
-1.096574
 20
3.087667
 30
0.0
 11
-1.096574
 21
0.635448
 31
0.0
  0
LINE
  5
51D
100
AcDbEntity
  8
レイヤー_2
 62
     7
100
AcDbLine
 10
-1.57682
 20
3.087667
 30
0.0
 11
-1.096574
 21
3.087667
 31
0.0
  0
LINE
  5
51C
100
AcDbEntity
  8
レイヤー_2
 62
     7
100
AcDbLine
 10
-1.57682
 20
3.087667
 30
0.0
 11
-1.57682
 21
0.635448
 31
0.0
  0
LINE
  5
51B
100
AcDbEntity
  8
レイヤー_2
 62
     7
100
AcDbLine
 10
-1.75252
 20
4.706862
 30
0.0
 11
-0.000345
 21
4.706862
 31
0.0
  0
LINE
  5
51A
100
AcDbEntity
  8
レイヤー_2
 62
     7
100
AcDbLine
 10
-2.453942
 20
0.5004
 30
0.0
 11
-0.000345
 21
0.5004
 31
0.0
  0
LINE
  5
519
100
AcDbEntity
  8
レイヤー_2
 62
     7
100
AcDbLine
 10
-2.687519
 20
0.635448
 30
0.0
 11
-2.453942
 21
0.5004
 31
0.0
  0
LINE
  5
518
100
AcDbEntity
  8
レイヤー_2
 62
     7
100
AcDbLine
 10
-1.75252
 20
4.706862
 30
0.0
 11
-2.56005
 21
3.308842
 31
0.0
  0
LINE
  5
517
100
AcDbEntity
  8
レイヤー_2
 62
     7
100
AcDbLine
 10
-2.687519
 20
3.087667
 30
0.0
 11
-2.687519
 21
0.635448
 31
0.0
  0
LINE
  5
516
100
AcDbEntity
  8
レイヤー_2
 62
     7
100
AcDbLine
 10
1.179945
 20
4.706862
 30
0.0
 11
-0.000345
 21
4.706862
 31
0.0
  0
LINE
  5
515
100
AcDbEntity
  8
レイヤー_2
 62
     7
100
AcDbLine
 10
2.044664
 20
0.5004
 30
0.0
 11
-0.000345
 21
0.5004
 31
0.0
  0
LINE
  5
514
100
AcDbEntity
  8
レイヤー_2
 62
     7
100
AcDbLine
 10
1.57682
 20
0.635448
 30
0.0
 11
1.095885
 21
0.635448
 31
0.0
  0
LINE
  5
513
100
AcDbEntity
  8
レイヤー_2
 62
     7
100
AcDbLine
 10
1.095885
 20
0.635448
 30
0.0
 11
1.095885
 21
3.087667
 31
0.0
  0
LINE
  5
512
100
AcDbEntity
  8
レイヤー_2
 62
     7
100
AcDbLine
 10
1.095885
 20
3.087667
 30
0.0
 11
1.57682
 21
3.087667
 31
0.0
  0
LINE
  5
511
100
AcDbEntity
  8
レイヤー_2
 62
     7
100
AcDbLine
 10
1.57682
 20
0.635448
 30
0.0
 11
1.57682
 21
3.087667
 31
0.0
  0
LINE
  5
510
100
AcDbEntity
  8
レイヤー_2
 62
     7
100
AcDbLine
 10
-0.000345
 20
4.706862
 30
0.0
 11
1.75252
 21
4.706862
 31
0.0
  0
LINE
  5
50F
100
AcDbEntity
  8
レイヤー_2
 62
     7
100
AcDbLine
 10
-0.000345
 20
0.5004
 30
0.0
 11
2.453942
 21
0.5004
 31
0.0
  0
LINE
  5
50E
100
AcDbEntity
  8
レイヤー_2
 62
     7
100
AcDbLine
 10
2.453942
 20
0.5004
 30
0.0
 11
2.687519
 21
0.635448
 31
0.0
  0
LINE
  5
50D
100
AcDbEntity
  8
レイヤー_2
 62
     7
100
AcDbLine
 10
2.687519
 20
3.087667
 30
0.0
 11
1.75252
 21
4.706862
 31
0.0
  0
LINE
  5
50C
100
AcDbEntity
  8
レイヤー_2
 62
     7
100
AcDbLine
 10
2.687519
 20
0.635448
 30
0.0
 11
2.687519
 21
3.087667
 31
0.0
  0
LINE
  5
50B
100
AcDbEntity
  8
レイヤー_2
 62
     7
100
AcDbLine
 10
-2.56005
 20
3.308842
 30
0.0
 11
-2.687519
 21
3.087667
 31
0.0
  0
SPLINE
  5
50A
100
AcDbEntity
  8
レイヤー_2
 62
     7
100
AcDbSpline
210
0.0
220
0.0
230
1.0
 70
     8
 71
     3
 72
     8
 73
     4
 74
     0
 42
0.00000001
 43
0.00000001
 40
0.0
 40
0.0
 40
0.0
 40
0.0
 40
1.0
 40
1.0
 40
1.0
 40
1.0
 10
-1.0965738932291667
 20
0.6354478624131944
 30
0.0
 10
-0.7375949435763888
 20
0.5458753797743056
 30
0.0
 10
-0.3696587456597222
 20
0.5004001193576388
 30
0.0
 10
-0.0003445095486111
 20
0.5004001193576388
 30
0.0
  0
SPLINE
  5
509
100
AcDbEntity
  8
レイヤー_2
 62
     7
100
AcDbSpline
210
0.0
220
0.0
230
1.0
 70
     8
 71
     3
 72
     8
 73
     4
 74
     0
 42
0.00000001
 43
0.00000001
 40
0.0
 40
0.0
 40
0.0
 40
0.0
 40
1.0
 40
1.0
 40
1.0
 40
1.0
 10
-2.6875189887152775
 20
0.6354478624131944
 30
0.0
 10
-2.3395643446180552
 20
0.4549248589409722
 30
0.0
 10
-1.9254638671874997
 20
0.4549248589409722
 30
0.0
 10
-1.5768202039930554
 20
0.6354478624131944
 30
0.0
  0
SPLINE
  5
508
100
AcDbEntity
  8
レイヤー_2
 62
     7
100
AcDbSpline
210
0.0
220
0.0
230
1.0
 70
     8
 71
     3
 72
     8
 73
     4
 74
     0
 42
0.00000001
 43
0.00000001
 40
0.0
 40
0.0
 40
0.0
 40
0.0
 40
1.0
 40
1.0
 40
1.0
 40
1.0
 10
-0.0003445095486111
 20
3.4928100585937498
 30
0.0
 10
-0.4020426432291666
 20
3.4928100585937498
 30
0.0
 10
-0.7906494140624999
 20
3.3494940863715277
 30
0.0
 10
-1.0965738932291667
 20
3.087666829427083
 30
0.0
  0
SPLINE
  5
507
100
AcDbEntity
  8
レイヤー_2
 62
     7
100
AcDbSpline
210
0.0
220
0.0
230
1.0
 70
     8
 71
     3
 72
    11
 73
     7
 74
     0
 42
0.00000001
 43
0.00000001
 40
0.0
 40
0.0
 40
0.0
 40
0.0
 40
1.0
 40
1.0
 40
1.0
 40
2.0
 40
2.0
 40
2.0
 40
2.0
 10
-1.5768202039930554
 20
3.087666829427083
 30
0.0
 10
-1.6725938585069442
 20
3.3949693467881943
 30
0.0
 10
-1.9991889105902776
 20
3.5658460828993053
 30
0.0
 10
-2.3058024088541664
 20
3.4693834092881941
 30
0.0
 10
-2.403643120659722
 20
3.4390665690104165
 30
0.0
 10
-2.491148546006944
 20
3.3839450412326384
 30
0.0
 10
-2.5600504557291663
 20
3.3088419596354162
 30
0.0
  0
SPLINE
  5
506
100
AcDbEntity
  8
レイヤー_2
 62
     7
100
AcDbSpline
210
0.0
220
0.0
230
1.0
 70
     8
 71
     3
 72
     8
 73
     4
 74
     0
 42
0.00000001
 43
0.00000001
 40
0.0
 40
0.0
 40
0.0
 40
0.0
 40
1.0
 40
1.0
 40
1.0
 40
1.0
 10
-0.0003445095486111
 20
0.5004001193576388
 30
0.0
 10
0.3696587456597222
 20
0.5004001193576388
 30
0.0
 10
0.7375949435763888
 20
0.5458753797743056
 30
0.0
 10
1.0958848741319442
 20
0.6354478624131944
 30
0.0
  0
SPLINE
  5
505
100
AcDbEntity
  8
レイヤー_2
 62
     7
100
AcDbSpline
210
0.0
220
0.0
230
1.0
 70
     8
 71
     3
 72
     8
 73
     4
 74
     0
 42
0.00000001
 43
0.00000001
 40
0.0
 40
0.0
 40
0.0
 40
0.0
 40
1.0
 40
1.0
 40
1.0
 40
1.0
 10
1.5768202039930554
 20
0.6354478624131944
 30
0.0
 10
1.9254638671874997
 20
0.4549248589409722
 30
0.0
 10
2.3395643446180552
 20
0.4549248589409722
 30
0.0
 10
2.6875189887152775
 20
0.6354478624131944
 30
0.0
  0
SPLINE
  5
504
100
AcDbEntity
  8
レイヤー_2
 62
     7
100
AcDbSpline
210
0.0
220
0.0
230
1.0
 70
     8
 71
     3
 72
     8
 73
     4
 74
     0
 42
0.00000001
 43
0.00000001
 40
0.0
 40
0.0
 40
0.0
 40
0.0
 40
1.0
 40
1.0
 40
1.0
 40
1.0
 10
1.0958848741319442
 20
3.087666829427083
 30
0.0
 10
0.7906494140624999
 20
3.3494940863715277
 30
0.0
 10
0.4020426432291666
 20
3.4928100585937498
 30
0.0
 10
-0.0003445095486111
 20
3.4928100585937498
 30
0.0
  0
SPLINE
  5
503
100
AcDbEntity
  8
レイヤー_2
 62
     7
100
AcDbSpline
210
0.0
220
0.0
230
1.0
 70
     8
 71
     3
 72
    11
 73
     7
 74
     0
 42
0.00000001
 43
0.00000001
 40
0.0
 40
0.0
 40
0.0
 40
0.0
 40
1.0
 40
1.0
 40
1.0
 40
2.0
 40
2.0
 40
2.0
 40
2.0
 10
2.6875189887152775
 20
3.087666829427083
 30
0.0
 10
2.5917453342013888
 20
3.3949693467881943
 30
0.0
 10
2.2651502821180554
 20
3.5658460828993053
 30
0.0
 10
1.9585367838541665
 20
3.4693834092881941
 30
0.0
 10
1.7766357421874999
 20
3.4128838433159721
 30
0.0
 10
1.6340087890624999
 20
3.2702568901909719
 30
0.0
 10
1.5768202039930554
 20
3.087666829427083
 30
0.0
  0
LINE
  5
502
100
AcDbEntity
  8
レイヤー_2
 62
     7
100
AcDbLine
 10
-2.775024
 20
-6.131409
 30
0.0
 11
-3.03823
 21
-5.990849
 31
0.0
  0
LINE
  5
501
100
AcDbEntity
  8
レイヤー_2
 62
     7
100
AcDbLine
 10
3.03823
 20
-5.990849
 30
0.0
 11
2.775024
 21
-6.131409
 31
0.0
  0
LINE
  5
500
100
AcDbEntity
  8
レイヤー_2
 62
     7
100
AcDbLine
 10
-3.03823
 20
-1.316543
 30
0.0
 11
-2.775024
 21
-1.175983
 31
0.0
  0
LINE
  5
4FF
100
AcDbEntity
  8
レイヤー_2
 62
     7
100
AcDbLine
 10
2.775024
 20
-1.175983
 30
0.0
 11
3.03823
 21
-1.316543
 31
0.0
  0
LINE
  5
4FE
100
AcDbEntity
  8
レイヤー_2
 62
     7
100
AcDbLine
 10
-2.687519
 20
-6.34156
 30
0.0
 11
2.687519
 21
-6.34156
 31
0.0
  0
LINE
  5
4FD
100
AcDbEntity
  8
レイヤー_2
 62
     7
100
AcDbLine
 10
-1.844849
 20
-5.990849
 30
0.0
 11
-1.168921
 21
-5.990849
 31
0.0
  0
LINE
  5
4FC
100
AcDbEntity
  8
レイヤー_2
 62
     7
100
AcDbLine
 10
1.168232
 20
-5.990849
 30
0.0
 11
1.84416
 21
-5.990849
 31
0.0
  0
LINE
  5
4FB
100
AcDbEntity
  8
レイヤー_2
 62
     7
100
AcDbLine
 10
3.03823
 20
-5.990849
 30
0.0
 11
2.687519
 21
-6.34156
 31
0.0
  0
LINE
  5
4FA
100
AcDbEntity
  8
レイヤー_2
 62
     7
100
AcDbLine
 10
-3.03823
 20
-5.990849
 30
0.0
 11
-2.687519
 21
-6.34156
 31
0.0
  0
LINE
  5
4F9
100
AcDbEntity
  8
レイヤー_2
 62
     7
100
AcDbLine
 10
2.687519
 20
-0.965833
 30
0.0
 11
-2.687519
 21
-0.965833
 31
0.0
  0
LINE
  5
4F8
100
AcDbEntity
  8
レイヤー_2
 62
     7
100
AcDbLine
 10
2.687519
 20
-0.965833
 30
0.0
 11
3.03823
 21
-1.316543
 31
0.0
  0
LINE
  5
4F7
100
AcDbEntity
  8
レイヤー_2
 62
     7
100
AcDbLine
 10
1.84416
 20
-1.316543
 30
0.0
 11
1.168232
 21
-1.316543
 31
0.0
  0
LINE
  5
4F6
100
AcDbEntity
  8
レイヤー_2
 62
     7
100
AcDbLine
 10
-1.168921
 20
-1.316543
 30
0.0
 11
-1.844849
 21
-1.316543
 31
0.0
  0
LINE
  5
4F5
100
AcDbEntity
  8
レイヤー_2
 62
     7
100
AcDbLine
 10
-2.687519
 20
-0.965833
 30
0.0
 11
-3.03823
 21
-1.316543
 31
0.0
  0
LINE
  5
4F4
100
AcDbEntity
  8
レイヤー_2
 62
     7
100
AcDbLine
 10
-3.03823
 20
-5.990849
 30
0.0
 11
-3.03823
 21
-1.316543
 31
0.0
  0
LINE
  5
4F3
100
AcDbEntity
  8
レイヤー_2
 62
     7
100
AcDbLine
 10
-1.844849
 20
-5.990849
 30
0.0
 11
-1.844849
 21
-1.316543
 31
0.0
  0
LINE
  5
4F2
100
AcDbEntity
  8
レイヤー_2
 62
     7
100
AcDbLine
 10
-1.168921
 20
-5.990849
 30
0.0
 11
-1.168921
 21
-1.316543
 31
0.0
  0
LINE
  5
4F1
100
AcDbEntity
  8
レイヤー_2
 62
     7
100
AcDbLine
 10
1.168232
 20
-5.990849
 30
0.0
 11
1.168232
 21
-1.316543
 31
0.0
  0
LINE
  5
4F0
100
AcDbEntity
  8
レイヤー_2
 62
     7
100
AcDbLine
 10
1.84416
 20
-5.990849
 30
0.0
 11
1.84416
 21
-1.316543
 31
0.0
  0
LINE
  5
4EF
100
AcDbEntity
  8
レイヤー_2
 62
     7
100
AcDbLine
 10
3.03823
 20
-5.990849
 30
0.0
 11
3.03823
 21
-1.316543
 31
0.0
  0
SPLINE
  5
4EE
100
AcDbEntity
  8
レイヤー_2
 62
     7
100
AcDbSpline
210
0.0
220
0.0
230
1.0
 70
     8
 71
     3
 72
     8
 73
     4
 74
     0
 42
0.00000001
 43
0.00000001
 40
0.0
 40
0.0
 40
0.0
 40
0.0
 40
1.0
 40
1.0
 40
1.0
 40
1.0
 10
-2.7750244140624996
 20
-6.1314086914062491
 30
0.0
 10
-2.4684109157986107
 20
-6.2960842556423602
 30
0.0
 10
-2.0894504123263888
 20
-6.2388956705729157
 30
0.0
 10
-1.8448486328124998
 20
-5.9908487955729157
 30
0.0
  0
SPLINE
  5
4ED
100
AcDbEntity
  8
レイヤー_2
 62
     7
100
AcDbSpline
210
0.0
220
0.0
230
1.0
 70
     8
 71
     3
 72
     8
 73
     4
 74
     0
 42
0.00000001
 43
0.00000001
 40
0.0
 40
0.0
 40
0.0
 40
0.0
 40
1.0
 40
1.0
 40
1.0
 40
1.0
 10
1.8441596137152776
 20
-5.9908487955729157
 30
0.0
 10
2.0894504123263888
 20
-6.2388956705729157
 30
0.0
 10
2.4677218967013888
 20
-6.2960842556423602
 30
0.0
 10
2.7750244140624996
 20
-6.1314086914062491
 30
0.0
  0
SPLINE
  5
4EC
100
AcDbEntity
  8
レイヤー_2
 62
     7
100
AcDbSpline
210
0.0
220
0.0
230
1.0
 70
     8
 71
     3
 72
     8
 73
     4
 74
     0
 42
0.00000001
 43
0.00000001
 40
0.0
 40
0.0
 40
0.0
 40
0.0
 40
1.0
 40
1.0
 40
1.0
 40
1.0
 10
-1.1689208984374999
 20
-5.9908487955729157
 30
0.0
 10
-0.4206461588541666
 20
-6.3022854275173605
 30
0.0
 10
0.4206461588541666
 20
-6.3022854275173605
 30
0.0
 10
1.1682318793402777
 20
-5.9908487955729157
 30
0.0
  0
SPLINE
  5
4EB
100
AcDbEntity
  8
レイヤー_2
 62
     7
100
AcDbSpline
210
0.0
220
0.0
230
1.0
 70
     8
 71
     3
 72
     8
 73
     4
 74
     0
 42
0.00000001
 43
0.00000001
 40
0.0
 40
0.0
 40
0.0
 40
0.0
 40
1.0
 40
1.0
 40
1.0
 40
1.0
 10
-1.8448486328124998
 20
-1.3165432400173609
 30
0.0
 10
-2.0894504123263888
 20
-1.0691853841145833
 30
0.0
 10
-2.4684109157986107
 20
-1.0119967990451388
 30
0.0
 10
-2.7750244140624996
 20
-1.1759833441840277
 30
0.0
  0
SPLINE
  5
4EA
100
AcDbEntity
  8
レイヤー_2
 62
     7
100
AcDbSpline
210
0.0
220
0.0
230
1.0
 70
     8
 71
     3
 72
     8
 73
     4
 74
     0
 42
0.00000001
 43
0.00000001
 40
0.0
 40
0.0
 40
0.0
 40
0.0
 40
1.0
 40
1.0
 40
1.0
 40
1.0
 10
2.7750244140624996
 20
-1.1759833441840277
 30
0.0
 10
2.4677218967013888
 20
-1.0119967990451388
 30
0.0
 10
2.0894504123263888
 20
-1.0691853841145833
 30
0.0
 10
1.8441596137152776
 20
-1.3165432400173609
 30
0.0
  0
SPLINE
  5
4E9
100
AcDbEntity
  8
レイヤー_2
 62
     7
100
AcDbSpline
210
0.0
220
0.0
230
1.0
 70
     8
 71
     3
 72
     8
 73
     4
 74
     0
 42
0.00000001
 43
0.00000001
 40
0.0
 40
0.0
 40
0.0
 40
0.0
 40
1.0
 40
1.0
 40
1.0
 40
1.0
 10
1.1682318793402777
 20
-1.3165432400173609
 30
0.0
 10
0.4206461588541666
 20
-1.0051066080729165
 30
0.0
 10
-0.4206461588541666
 20
-1.0051066080729165
 30
0.0
 10
-1.1689208984374999
 20
-1.3165432400173609
 30
0.0
  0
LINE
  5
4E8
100
AcDbEntity
  8
レイヤー_2
 62
     7
100
AcDbLine
 10
-1.110354
 20
4.706862
 30
0.0
 11
-1.110354
 21
6.306764
 31
0.0
  0
LINE
  5
4E7
100
AcDbEntity
  8
レイヤー_2
 62
     7
100
AcDbLine
 10
1.109665
 20
4.706862
 30
0.0
 11
1.109665
 21
5.907822
 31
0.0
  0
LINE
  5
4E6
100
AcDbEntity
  8
レイヤー_2
 62
     7
100
AcDbLine
 10
1.986098
 20
-0.743279
 30
0.0
 11
1.986098
 21
0.5004
 31
0.0
  0
LINE
  5
4E5
100
AcDbEntity
  8
レイヤー_2
 62
     7
100
AcDbLine
 10
-1.986787
 20
0.5004
 30
0.0
 11
-1.986787
 21
-0.743279
 31
0.0
  0
LINE
  5
4E4
100
AcDbEntity
  8
レイヤー_2
 62
     7
100
AcDbLine
 10
-1.869653
 20
-0.541397
 30
0.0
 11
1.869653
 21
-0.541397
 31
0.0
  0
ENDBLK
  5
527
100
AcDbEntity
  8
レイヤー_2
100
AcDbBlockEnd
  0
ENDSEC
  0
SECTION
  2
ENTITIES
  0
MTEXT
  5
54E
100
AcDbEntity
  8
レイヤー_1
 62
     7
100
AcDbMText
 10
47.801389
 20
55.180324
 30
0.0
 40
3.674768
 41
0.0
 71
     1
 72
     2
  1
\fMS Gothic|b0|i0|c128;\H3.6748;\C7;\U+0033\U+0033\U+002E\U+0035\U+0030\U+0030\U+002E\U+0039\U+0035\U+0035\U+002E\U+0058\U+0058
  7
STD
210
0.0
220
0.0
230
1.0
 73
     1
 44
1.0
  0
MTEXT
  5
54D
100
AcDbEntity
  8
レイヤー_1
 62
     7
100
AcDbMText
 10
39.6875
 20
57.666567
 30
0.0
 40
1.574901
 41
0.0
 71
     1
 72
     2
  1
\fOsaka|b0|i0|c128;\H1.5749;\C7;\U+54C1\U+756A
  7
STD
210
0.0
220
0.0
230
1.0
 73
     1
 44
1.0
  0
MTEXT
  5
54C
100
AcDbEntity
  8
レイヤー_1
 62
     7
100
AcDbMText
 10
47.801389
 20
34.017542
 30
0.0
 40
3.149486
 41
0.0
 71
     1
 72
     2
  1
\fOsaka|b0|i0|c128;\H3.1495;\C7;\U+FF11\U+7A74\U+578B\U+30B7\U+30F3\U+30B0\U+30EB\U+30EC\U+30D0\U+30FC\U+6D17\U+9762\U+7528\U+6DF7\U+5408\U+6813
  7
STD
210
0.0
220
0.0
230
1.0
 73
     1
 44
1.0
  0
MTEXT
  5
54B
100
AcDbEntity
  8
レイヤー_1
 62
     7
100
AcDbMText
 10
39.6875
 20
36.499901
 30
0.0
 40
1.574901
 41
0.0
 71
     1
 72
     2
  1
\fOsaka|b0|i0|c128;\H1.5749;\C7;\U+54C1
  7
STD
210
0.0
220
0.0
230
1.0
 73
     1
 44
1.0
  0
MTEXT
  5
54A
100
AcDbEntity
  8
レイヤー_1
 62
     7
100
AcDbMText
 10
47.801389
 20
44.013142
 30
0.0
 40
3.149486
 41
0.0
 71
     1
 72
     2
  1
\fMS Gothic|b0|i0|c128;\H3.1495;\C7;\U+004C\U+0061\U+0020\U+0046\U+006C\U+0065\U+0075\U+0072
  7
STD
210
0.0
220
0.0
230
1.0
 73
     1
 44
1.0
  0
POLYLINE
  5
544
100
AcDbEntity
  8
レイヤー_1
 62
     7
100
AcDb2dPolyline
 66
     1
 10
0.0
 20
0.0
 30
0.0
 70
     1
  0
VERTEX
  5
545
100
AcDbEntity
  8
レイヤー_1
 62
     7
100
AcDbVertex
100
AcDb2dVertex
 10
23.636111
 20
27.163889
 30
0.0
  0
VERTEX
  5
546
100
AcDbEntity
  8
レイヤー_1
 62
     7
100
AcDbVertex
100
AcDb2dVertex
 10
198.613889
 20
27.163889
 30
0.0
  0
VERTEX
  5
547
100
AcDbEntity
  8
レイヤー_1
 62
     7
100
AcDbVertex
100
AcDb2dVertex
 10
198.613889
 20
276.577778
 30
0.0
  0
VERTEX
  5
548
100
AcDbEntity
  8
レイヤー_1
 62
     7
100
AcDbVertex
100
AcDb2dVertex
 10
23.636111
 20
276.577778
 30
0.0
  0
SEQEND
  5
549
100
AcDbEntity
  8
レイヤー_1
 62
     7
  0
LINE
  5
543
100
AcDbEntity
  8
レイヤー_1
 62
     7
100
AcDbLine
 10
170.568056
 20
37.570833
 30
0.0
 11
27.693056
 21
37.570833
 31
0.0
  0
LINE
  5
542
100
AcDbEntity
  8
レイヤー_1
 62
     7
100
AcDbLine
 10
170.568056
 20
48.154167
 30
0.0
 11
27.693056
 21
48.154167
 31
0.0
  0
LINE
  5
541
100
AcDbEntity
  8
レイヤー_1
 62
     7
100
AcDbLine
 10
23.636111
 20
58.913889
 30
0.0
 11
198.261111
 21
58.913889
 31
0.0
  0
LINE
  5
540
100
AcDbEntity
  8
レイヤー_1
 62
     7
100
AcDbLine
 10
170.744444
 20
58.913889
 30
0.0
 11
170.744444
 21
27.516667
 31
0.0
  0
MTEXT
  5
53F
100
AcDbEntity
  8
レイヤー_1
 62
     7
100
AcDbMText
 10
29.104167
 20
47.083234
 30
0.0
 40
1.574901
 41
0.0
 71
     1
 72
     2
  1
\fOsaka|b0|i0|c128;\H1.5749;\C7;\U+30BB\U+30EC\U+30AF\U+30B7\U+30E7\U+30F3
  7
STD
210
0.0
220
0.0
230
1.0
 73
     1
 44
1.0
  0
MTEXT
  5
53E
100
AcDbEntity
  8
レイヤー_1
 62
     7
100
AcDbMText
 10
174.095833
 20
55.713375
 30
0.0
 40
3.149801
 41
0.0
 71
     1
 72
     2
  1
\fHeiseiKakuGothicCAN W9|b0|i0|c128;\H3.1498;\C253;\U+5BF8\U+6CD5\U+53C2\U+8003\U+56F3
  7
STD
210
0.0
220
0.0
230
1.0
 11
0.9999
 21
0.0
 31
0.0
 73
     1
 44
1.0
  0
LINE
  5
53D
100
AcDbEntity
  8
レイヤー_1
 62
     7
100
AcDbLine
 10
27.516667
 20
58.913889
 30
0.0
 11
27.516667
 21
27.516667
 31
0.0
  0
IMAGE
  5
53A
100
AcDbEntity
  8
レイヤー_1
  6
AI9-LType2
 62
     7
 92
        0
100
AcDbRasterImage
 90
        0
 10
172.155556
 20
29.633016
 30
0.0
 11
0.352531
 21
0.0
 31
0.0
 12
0.0
 22
0.352813
 32
0.0
 13
70.0
 23
9.0
340
53C
 70
     7
280
     0
281
    50
282
    50
283
     0
360
53B
 71
     1
 91
        2
 14
-0.5
 24
-0.5
 14
69.5
 24
8.5
  0
IMAGE
  5
537
100
AcDbEntity
  8
レイヤー_1
  6
AI9-LType2
 62
     7
 92
        0
100
AcDbRasterImage
 90
        0
 10
172.155556
 20
29.633016
 30
0.0
 11
0.352531
 21
0.0
 31
0.0
 12
0.0
 22
0.352813
 32
0.0
 13
70.0
 23
9.0
340
539
 70
     7
280
     0
281
    50
282
    50
283
     0
360
538
 71
     1
 91
        2
 14
-0.5
 24
-0.5
 14
69.5
 24
8.5
  0
MTEXT
  5
536
100
AcDbEntity
  8
レイヤー_1
  6
AI9-LType2
 62
     7
100
AcDbMText
 10
113.418056
 20
47.083234
 30
0.0
 40
1.574901
 41
0.0
 71
     1
 72
     2
  1
\fOsaka|b0|i0|c128;\H1.5749;\C7;\U+4ED5\U+4E0A
  7
STD
210
0.0
220
0.0
230
1.0
 73
     1
 44
1.0
  0
MTEXT
  5
535
100
AcDbEntity
  8
レイヤー_1
  6
AI9-LType2
 62
     7
100
AcDbMText
 10
124.765511
 20
42.026497
 30
0.0
 40
1.162842
 41
0.0
 71
     1
 72
     2
  1
\fOsaka|b0|i0|c128;\H1.1628;\W2.71;\C7;
  7
STD
210
0.0
220
0.0
230
1.0
 73
     1
 44
1.0
  0
MTEXT
  5
533
100
AcDbEntity
  8
レイヤー_2
  6
AI9-LType2
 62
     7
100
AcDbMText
 10
129.519054
 20
263.919537
 30
0.0
 40
6.299603
 41
0.0
 71
     1
 72
     2
  1
\fMS Gothic|b0|i0|c128;\H6.2996;\C7;\U+0031\U+0037\U+0030
  7
STD
210
0.0
220
0.0
230
1.0
 73
     1
 44
1.0
  0
MTEXT
  5
532
100
AcDbEntity
  8
レイヤー_2
  6
AI9-LType2
 62
     7
100
AcDbMText
 10
66.050921
 20
263.919537
 30
0.0
 40
6.299603
 41
0.0
 71
     1
 72
     2
  1
\fMS Gothic|b0|i0|c128;\H6.2996;\C7;\U+0037\U+0035
  7
STD
210
0.0
220
0.0
230
1.0
 73
     1
 44
1.0
  0
MTEXT
  5
531
100
AcDbEntity
  8
レイヤー_2
  6
AI9-LType2
 62
     7
100
AcDbMText
 10
34.824748
 20
252.272702
 30
0.0
 40
6.299603
 41
0.0
 71
     1
 72
     2
  1
\fMS Gothic|b0|i0|c128;\H6.2996;\C7;\U+03C6\U+0035\U+0038
  7
STD
210
0.0
220
0.0
230
1.0
 73
     1
 44
1.0
  0
MTEXT
  5
530
100
AcDbEntity
  8
レイヤー_2
  6
AI9-LType2
 62
     7
100
AcDbMText
 10
105.668658
 20
263.919881
 30
0.0
 40
6.299603
 41
0.0
 71
     1
 72
     2
  1
\fMS Gothic|b0|i0|c128;\H6.2996;\C7;\U+0033\U+0038
  7
STD
210
0.0
220
0.0
230
1.0
 73
     1
 44
1.0
  0
MTEXT
  5
52F
100
AcDbEntity
  8
レイヤー_2
  6
AI9-LType2
 62
     7
100
AcDbMText
 10
181.532515
 20
186.833385
 30
0.0
 40
6.299603
 41
0.0
 71
     1
 72
     2
  1
\fMS Gothic|b0|i0|c128;\H6.2996;\C7;\U+0032\U+0035\U+0035
  7
STD
210
0.0
220
0.0
230
1.0
 11
0.0
 21
1.0
 31
0.0
 73
     1
 44
1.0
  0
MTEXT
  5
52E
100
AcDbEntity
  8
レイヤー_2
  6
AI9-LType2
 62
     7
100
AcDbMText
 10
167.188171
 20
177.484774
 30
0.0
 40
6.299603
 41
0.0
 71
     1
 72
     2
  1
\fMS Gothic|b0|i0|c128;\H6.2996;\C7;\U+0031\U+0037\U+0034
  7
STD
210
0.0
220
0.0
230
1.0
 11
0.0
 21
1.0
 31
0.0
 73
     1
 44
1.0
  0
INSERT
  5
4DC
100
AcDbEntity
  8
レイヤー_2
  6
AI9-LType2
 62
     7
100
AcDbBlockReference
  2
AI9-BLK6
 10
72.956356
 20
125.722731
 30
0.0
  0
INSERT
  5
488
100
AcDbEntity
  8
レイヤー_2
 62
     7
100
AcDbBlockReference
  2
AI9-BLK3
 10
48.049436
 20
125.722731
 30
0.0
  0
INSERT
  5
482
100
AcDbEntity
  8
レイヤー_2
 62
     7
100
AcDbBlockReference
  2
AI9-BLK2
 10
93.488867
 20
104.87353
 30
0.0
  0
SPLINE
  5
480
100
AcDbEntity
  8
レイヤー_2
 62
     7
100
AcDbSpline
210
0.0
220
0.0
230
1.0
 70
     8
 71
     3
 72
    17
 73
    13
 74
     0
 42
0.00000001
 43
0.00000001
 40
0.0
 40
0.0
 40
0.0
 40
0.0
 40
1.0
 40
1.0
 40
1.0
 40
2.0
 40
2.0
 40
2.0
 40
3.0
 40
3.0
 40
3.0
 40
4.0
 40
4.0
 40
4.0
 40
4.0
 10
64.232255045572913
 20
78.25982259114582
 30
0.0
 10
64.232255045572913
 20
80.313788519965271
 30
0.0
 10
62.56741265190972
 20
81.978458658854166
 30
0.0
 10
60.51379123263888
 20
81.978458658854166
 30
0.0
 10
58.459825303819436
 20
81.978458658854166
 30
0.0
 10
56.794466145833326
 20
80.313788519965271
 30
0.0
 10
56.794466145833326
 20
78.25982259114582
 30
0.0
 10
56.794466145833326
 20
76.205856662326383
 30
0.0
 10
58.459825303819436
 20
74.541875542534711
 30
0.0
 10
60.51379123263888
 20
74.541875542534711
 30
0.0
 10
62.56741265190972
 20
74.541875542534711
 30
0.0
 10
64.232255045572913
 20
76.205856662326383
 30
0.0
 10
64.232255045572913
 20
78.25982259114582
 30
0.0
  0
LINE
  5
47F
100
AcDbEntity
  8
レイヤー_2
  6
AI9-LType1
 62
     7
100
AcDbLine
 10
60.513791
 20
73.713675
 30
0.0
 11
60.513791
 21
228.262725
 31
0.0
  0
LINE
  5
47E
100
AcDbEntity
  8
レイヤー_2
  6
AI9-LType1
 62
     7
100
AcDbLine
 10
55.560605
 20
78.259823
 30
0.0
 11
65.129702
 21
78.259823
 31
0.0
  0
LINE
  5
47D
100
AcDbEntity
  8
レイヤー_2
 62
     7
100
AcDbLine
 10
65.129702
 20
78.259823
 30
0.0
 11
65.980469
 21
78.259823
 31
0.0
  0
LINE
  5
47C
100
AcDbEntity
  8
レイヤー_2
 62
     7
100
AcDbLine
 10
67.275652
 20
71.566691
 30
0.0
 11
56.730732
 21
82.11075
 31
0.0
  0
LINE
  5
47B
100
AcDbEntity
  8
レイヤー_2
 62
     7
100
AcDbLine
 10
67.275652
 20
71.566691
 30
0.0
 11
81.260845
 21
71.566691
 31
0.0
  0
LINE
  5
47A
100
AcDbEntity
  8
レイヤー_2
 62
     7
100
AcDbLine
 10
56.604125
 20
80.838821
 30
0.0
 11
59.386039
 21
80.838821
 31
0.0
  0
LINE
  5
479
100
AcDbEntity
  8
レイヤー_2
 62
     7
100
AcDbLine
 10
61.777108
 20
75.590563
 30
0.0
 11
64.558333
 21
75.590563
 31
0.0
  0
MTEXT
  5
478
100
AcDbEntity
  8
レイヤー_2
 62
     7
100
AcDbMText
 10
33.894154
 20
125.692931
 30
0.0
 40
6.299603
 41
0.0
 71
     1
 72
     2
  1
\fMS Gothic|b0|i0|c128;\H6.2996;\C7;\U+006D\U+0061\U+0078\U+002E\U+0034\U+0030
  7
STD
210
0.0
220
0.0
230
1.0
 11
0.0
 21
1.0
 31
0.0
 73
     1
 44
1.0
  0
INSERT
  5
474
100
AcDbEntity
  8
レイヤー_2
 62
     7
100
AcDbBlockReference
  2
AI9-BLK1
 10
73.467867
 20
75.534408
 30
0.0
  0
LINE
  5
472
100
AcDbEntity
  8
レイヤー_2
 62
     7
100
AcDbLine
 10
63.62609
 20
159.879302
 30
0.0
 11
63.62609
 21
161.053046
 31
0.0
  0
LINE
  5
471
100
AcDbEntity
  8
レイヤー_2
 62
     7
100
AcDbLine
 10
60.626446
 20
161.053046
 30
0.0
 11
60.626446
 21
159.879302
 31
0.0
  0
SPLINE
  5
470
100
AcDbEntity
  8
レイヤー_2
 62
     7
100
AcDbSpline
210
0.0
220
0.0
230
1.0
 70
     8
 71
     3
 72
     8
 73
     4
 74
     0
 42
0.00000001
 43
0.00000001
 40
0.0
 40
0.0
 40
0.0
 40
0.0
 40
1.0
 40
1.0
 40
1.0
 40
1.0
 10
63.626090494791661
 20
161.05304633246527
 30
0.0
 10
63.626090494791661
 20
161.11574707031249
 30
0.0
 10
63.619889322916663
 20
161.17672526041665
 30
0.0
 10
63.60783148871527
 20
161.22909071180555
 30
0.0
  0
SPLINE
  5
46F
100
AcDbEntity
  8
レイヤー_2
 62
     7
100
AcDbSpline
210
0.0
220
0.0
230
1.0
 70
     8
 71
     3
 72
     8
 73
     4
 74
     0
 42
0.00000001
 43
0.00000001
 40
0.0
 40
0.0
 40
0.0
 40
0.0
 40
1.0
 40
1.0
 40
1.0
 40
1.0
 10
60.644015842013886
 20
161.22909071180555
 30
0.0
 10
60.63126898871527
 20
161.16811252170137
 30
0.0
 10
60.625412326388883
 20
161.10782335069442
 30
0.0
 10
60.626445855034717
 20
161.05304633246527
 30
0.0
  0
LINE
  5
46E
100
AcDbEntity
  8
レイヤー_2
 62
     7
100
AcDbLine
 10
63.375977
 20
128.934077
 30
0.0
 11
63.375977
 21
151.103955
 31
0.0
  0
LINE
  5
46D
100
AcDbEntity
  8
レイヤー_2
 62
     7
100
AcDbLine
 10
63.375977
 20
153.22889
 30
0.0
 11
63.375977
 21
159.879302
 31
0.0
  0
LINE
  5
46C
100
AcDbEntity
  8
レイヤー_2
 62
     7
100
AcDbLine
 10
60.87656
 20
159.879302
 30
0.0
 11
60.87656
 21
153.22889
 31
0.0
  0
LINE
  5
46B
100
AcDbEntity
  8
レイヤー_2
 62
     7
100
AcDbLine
 10
60.87656
 20
152.478893
 30
0.0
 11
60.87656
 21
128.784559
 31
0.0
  0
LINE
  5
46A
100
AcDbEntity
  8
レイヤー_2
 62
     7
100
AcDbLine
 10
60.375987
 20
159.879302
 30
0.0
 11
60.375987
 21
161.053046
 31
0.0
  0
LINE
  5
469
100
AcDbEntity
  8
レイヤー_2
 62
     7
100
AcDbLine
 10
57.375654
 20
161.053046
 30
0.0
 11
57.375654
 21
159.879302
 31
0.0
  0
SPLINE
  5
468
100
AcDbEntity
  8
レイヤー_2
 62
     7
100
AcDbSpline
210
0.0
220
0.0
230
1.0
 70
     8
 71
     3
 72
     8
 73
     4
 74
     0
 42
0.00000001
 43
0.00000001
 40
0.0
 40
0.0
 40
0.0
 40
0.0
 40
1.0
 40
1.0
 40
1.0
 40
1.0
 10
60.375987413194437
 20
161.05304633246527
 30
0.0
 10
60.375987413194437
 20
161.11574707031249
 30
0.0
 10
60.369441731770827
 20
161.17672526041665
 30
0.0
 10
60.358417426215276
 20
161.22909071180555
 30
0.0
  0
SPLINE
  5
467
100
AcDbEntity
  8
レイヤー_2
 62
     7
100
AcDbSpline
210
0.0
220
0.0
230
1.0
 70
     8
 71
     3
 72
     8
 73
     4
 74
     0
 42
0.00000001
 43
0.00000001
 40
0.0
 40
0.0
 40
0.0
 40
0.0
 40
1.0
 40
1.0
 40
1.0
 40
1.0
 10
57.393912760416661
 20
161.22909071180555
 30
0.0
 10
57.381510416666664
 20
161.16811252170137
 30
0.0
 10
57.375309244791659
 20
161.10782335069442
 30
0.0
 10
57.37565375434027
 20
161.05304633246527
 30
0.0
  0
LINE
  5
466
100
AcDbEntity
  8
レイヤー_2
 62
     7
100
AcDbLine
 10
60.125873
 20
129.381939
 30
0.0
 11
60.125873
 21
152.478893
 31
0.0
  0
LINE
  5
465
100
AcDbEntity
  8
レイヤー_2
 62
     7
100
AcDbLine
 10
60.125873
 20
153.22889
 30
0.0
 11
60.125873
 21
159.879302
 31
0.0
  0
LINE
  5
464
100
AcDbEntity
  8
レイヤー_2
 62
     7
100
AcDbLine
 10
57.626112
 20
159.879302
 30
0.0
 11
57.626112
 21
153.22889
 31
0.0
  0
LINE
  5
463
100
AcDbEntity
  8
レイヤー_2
 62
     7
100
AcDbLine
 10
57.626112
 20
151.103955
 30
0.0
 11
57.626112
 21
128.784559
 31
0.0
  0
LINE
  5
462
100
AcDbEntity
  8
レイヤー_2
 62
     7
100
AcDbLine
 10
56.413439
 20
161.728974
 30
0.0
 11
56.413439
 21
161.229091
 31
0.0
  0
LINE
  5
461
100
AcDbEntity
  8
レイヤー_2
 62
     7
100
AcDbLine
 10
64.83842
 20
161.229091
 30
0.0
 11
64.83842
 21
161.728974
 31
0.0
  0
LINE
  5
460
100
AcDbEntity
  8
レイヤー_2
 62
     7
100
AcDbLine
 10
64.501145
 20
151.01955
 30
0.0
 11
64.022276
 21
151.103955
 31
0.0
  0
LINE
  5
45F
100
AcDbEntity
  8
レイヤー_2
 62
     7
100
AcDbLine
 10
64.501145
 20
150.65437
 30
0.0
 11
64.501145
 21
151.01955
 31
0.0
  0
LINE
  5
45E
100
AcDbEntity
  8
レイヤー_2
 62
     7
100
AcDbLine
 10
64.125974
 20
150.00497
 30
0.0
 11
64.501145
 21
150.65437
 31
0.0
  0
LINE
  5
45D
100
AcDbEntity
  8
レイヤー_2
 62
     7
100
AcDbLine
 10
64.125974
 20
144.154508
 30
0.0
 11
64.125974
 21
150.00497
 31
0.0
  0
LINE
  5
45C
100
AcDbEntity
  8
レイヤー_2
 62
     7
100
AcDbLine
 10
64.659275
 20
144.062524
 30
0.0
 11
64.501145
 21
144.154508
 31
0.0
  0
LINE
  5
45B
100
AcDbEntity
  8
レイヤー_2
 62
     7
100
AcDbLine
 10
64.501145
 20
141.154175
 30
0.0
 11
64.659275
 21
141.24547
 31
0.0
  0
SPLINE
  5
45A
100
AcDbEntity
  8
レイヤー_2
 62
     7
100
AcDbSpline
210
0.0
220
0.0
230
1.0
 70
     8
 71
     3
 72
     8
 73
     4
 74
     0
 42
0.00000001
 43
0.00000001
 40
0.0
 40
0.0
 40
0.0
 40
0.0
 40
1.0
 40
1.0
 40
1.0
 40
1.0
 10
54.265077039930553
 20
152.85440809461804
 30
0.0
 10
54.19583062065972
 20
152.85440809461804
 30
0.0
 10
54.14036458333333
 20
152.79790852864582
 30
0.0
 10
54.14036458333333
 20
152.72900661892359
 30
0.0
  0
SPLINE
  5
459
100
AcDbEntity
  8
レイヤー_2
 62
     7
100
AcDbSpline
210
0.0
220
0.0
230
1.0
 70
     8
 71
     3
 72
     8
 73
     4
 74
     0
 42
0.00000001
 43
0.00000001
 40
0.0
 40
0.0
 40
0.0
 40
0.0
 40
1.0
 40
1.0
 40
1.0
 40
1.0
 10
67.139743381076386
 20
152.72900661892359
 30
0.0
 10
67.139743381076386
 20
152.79790852864582
 30
0.0
 10
67.084277343749989
 20
152.85440809461804
 30
0.0
 10
67.015375434027774
 20
152.85440809461804
 30
0.0
  0
LINE
  5
458
100
AcDbEntity
  8
レイヤー_2
 62
     7
100
AcDbLine
 10
67.139743
 20
151.229357
 30
0.0
 11
67.139743
 21
152.729007
 31
0.0
  0
LINE
  5
457
100
AcDbEntity
  8
レイヤー_2
 62
     7
100
AcDbLine
 10
54.140365
 20
152.729007
 30
0.0
 11
54.140365
 21
151.229357
 31
0.0
  0
SPLINE
  5
456
100
AcDbEntity
  8
レイヤー_2
 62
     7
100
AcDbSpline
210
0.0
220
0.0
230
1.0
 70
     8
 71
     3
 72
     8
 73
     4
 74
     0
 42
0.00000001
 43
0.00000001
 40
0.0
 40
0.0
 40
0.0
 40
0.0
 40
1.0
 40
1.0
 40
1.0
 40
1.0
 10
54.14036458333333
 20
151.22935655381943
 30
0.0
 10
54.14036458333333
 20
151.1601101345486
 30
0.0
 10
54.19583062065972
 20
151.10395507812498
 30
0.0
 10
54.265077039930553
 20
151.10395507812498
 30
0.0
  0
SPLINE
  5
455
100
AcDbEntity
  8
レイヤー_2
 62
     7
100
AcDbSpline
210
0.0
220
0.0
230
1.0
 70
     8
 71
     3
 72
     8
 73
     4
 74
     0
 42
0.00000001
 43
0.00000001
 40
0.0
 40
0.0
 40
0.0
 40
0.0
 40
1.0
 40
1.0
 40
1.0
 40
1.0
 10
67.015375434027774
 20
151.10395507812498
 30
0.0
 10
67.084277343749989
 20
151.10395507812498
 30
0.0
 10
67.139743381076386
 20
151.1601101345486
 30
0.0
 10
67.139743381076386
 20
151.22935655381943
 30
0.0
  0
LINE
  5
454
100
AcDbEntity
  8
レイヤー_2
 62
     7
100
AcDbLine
 10
58.31582
 20
151.229357
 30
0.0
 11
58.31582
 21
152.729007
 31
0.0
  0
SPLINE
  5
453
100
AcDbEntity
  8
レイヤー_2
 62
     7
100
AcDbSpline
210
0.0
220
0.0
230
1.0
 70
     8
 71
     3
 72
     8
 73
     4
 74
     0
 42
0.00000001
 43
0.00000001
 40
0.0
 40
0.0
 40
0.0
 40
0.0
 40
1.0
 40
1.0
 40
1.0
 40
1.0
 10
58.315820312499994
 20
152.72900661892359
 30
0.0
 10
58.315820312499994
 20
152.79790852864582
 30
0.0
 10
58.260009765624993
 20
152.85440809461804
 30
0.0
 10
58.19076334635416
 20
152.85440809461804
 30
0.0
  0
LINE
  5
452
100
AcDbEntity
  8
レイヤー_2
 62
     7
100
AcDbLine
 10
63.338081
 20
152.729007
 30
0.0
 11
63.338081
 21
152.406201
 31
0.0
  0
SPLINE
  5
451
100
AcDbEntity
  8
レイヤー_2
 62
     7
100
AcDbSpline
210
0.0
220
0.0
230
1.0
 70
     8
 71
     3
 72
     8
 73
     4
 74
     0
 42
0.00000001
 43
0.00000001
 40
0.0
 40
0.0
 40
0.0
 40
0.0
 40
1.0
 40
1.0
 40
1.0
 40
1.0
 10
63.463137478298606
 20
152.85440809461804
 30
0.0
 10
63.394235568576384
 20
152.85440809461804
 30
0.0
 10
63.338080512152771
 20
152.79790852864582
 30
0.0
 10
63.338080512152771
 20
152.72900661892359
 30
0.0
  0
LINE
  5
450
100
AcDbEntity
  8
レイヤー_2
 62
     7
100
AcDbLine
 10
63.064195
 20
152.354525
 30
0.0
 11
63.064195
 21
151.229357
 31
0.0
  0
SPLINE
  5
44F
100
AcDbEntity
  8
レイヤー_2
 62
     7
100
AcDbSpline
210
0.0
220
0.0
230
1.0
 70
     8
 71
     3
 72
     8
 73
     4
 74
     0
 42
0.00000001
 43
0.00000001
 40
0.0
 40
0.0
 40
0.0
 40
0.0
 40
1.0
 40
1.0
 40
1.0
 40
1.0
 10
63.189941406249993
 20
152.47889268663192
 30
0.0
 10
63.12069498697916
 20
152.47889268663192
 30
0.0
 10
63.064195421006936
 20
152.42273763020833
 30
0.0
 10
63.064195421006936
 20
152.35452473958333
 30
0.0
  0
SPLINE
  5
44E
100
AcDbEntity
  8
レイヤー_2
 62
     7
100
AcDbSpline
210
0.0
220
0.0
230
1.0
 70
     8
 71
     3
 72
     8
 73
     4
 74
     0
 42
0.00000001
 43
0.00000001
 40
0.0
 40
0.0
 40
0.0
 40
0.0
 40
1.0
 40
1.0
 40
1.0
 40
1.0
 10
63.064195421006936
 20
151.22935655381943
 30
0.0
 10
63.064195421006936
 20
151.1601101345486
 30
0.0
 10
63.12069498697916
 20
151.10395507812498
 30
0.0
 10
63.189941406249993
 20
151.10395507812498
 30
0.0
  0
LINE
  5
44D
100
AcDbEntity
  8
レイヤー_2
 62
     7
100
AcDbLine
 10
66.640205
 20
152.854408
 30
0.0
 11
66.640205
 21
153.22889
 31
0.0
  0
LINE
  5
44C
100
AcDbEntity
  8
レイヤー_2
 62
     7
100
AcDbLine
 10
54.640248
 20
153.22889
 30
0.0
 11
54.640248
 21
152.854408
 31
0.0
  0
SPLINE
  5
44B
100
AcDbEntity
  8
レイヤー_2
 62
     7
100
AcDbSpline
210
0.0
220
0.0
230
1.0
 70
     8
 71
     3
 72
     8
 73
     4
 74
     0
 42
0.00000001
 43
0.00000001
 40
0.0
 40
0.0
 40
0.0
 40
0.0
 40
1.0
 40
1.0
 40
1.0
 40
1.0
 10
55.442955186631941
 20
161.97874348958331
 30
0.0
 10
55.535283745659719
 20
161.81923556857637
 30
0.0
 10
55.701681857638881
 20
161.73000759548609
 30
0.0
 10
55.875659179687496
 20
161.72897406684027
 30
0.0
  0
SPLINE
  5
44A
100
AcDbEntity
  8
レイヤー_2
 62
     7
100
AcDbSpline
210
0.0
220
0.0
230
1.0
 70
     8
 71
     3
 72
     8
 73
     4
 74
     0
 42
0.00000001
 43
0.00000001
 40
0.0
 40
0.0
 40
0.0
 40
0.0
 40
1.0
 40
1.0
 40
1.0
 40
1.0
 10
65.376199001736111
 20
161.72897406684027
 30
0.0
 10
65.560167100694443
 20
161.72897406684027
 30
0.0
 10
65.721053059895823
 20
161.82888183593749
 30
0.0
 10
65.809247504340277
 20
161.97874348958331
 30
0.0
  0
LINE
  5
449
100
AcDbEntity
  8
レイヤー_2
 62
     7
100
AcDbLine
 10
55.875659
 20
161.728974
 30
0.0
 11
65.376199
 21
161.728974
 31
0.0
  0
LINE
  5
448
100
AcDbEntity
  8
レイヤー_2
 62
     7
100
AcDbLine
 10
63.854845
 20
153.22889
 30
0.0
 11
63.854845
 21
161.229091
 31
0.0
  0
LINE
  5
447
100
AcDbEntity
  8
レイヤー_2
 62
     7
100
AcDbLine
 10
61.189374
 20
159.879302
 30
0.0
 11
60.626446
 21
159.879302
 31
0.0
  0
LINE
  5
446
100
AcDbEntity
  8
レイヤー_2
 62
     7
100
AcDbLine
 10
63.62609
 20
159.879302
 30
0.0
 11
61.189374
 21
159.879302
 31
0.0
  0
LINE
  5
445
100
AcDbEntity
  8
レイヤー_2
 62
     7
100
AcDbLine
 10
60.375987
 20
159.879302
 30
0.0
 11
57.375654
 21
159.879302
 31
0.0
  0
LINE
  5
444
100
AcDbEntity
  8
レイヤー_2
 62
     7
100
AcDbLine
 10
60.692247
 20
161.229091
 30
0.0
 11
64.83842
 21
161.229091
 31
0.0
  0
LINE
  5
443
100
AcDbEntity
  8
レイヤー_2
 62
     7
100
AcDbLine
 10
56.413439
 20
161.229091
 30
0.0
 11
60.692247
 21
161.229091
 31
0.0
  0
LINE
  5
442
100
AcDbEntity
  8
レイヤー_2
 62
     7
100
AcDbLine
 10
64.501145
 20
151.01955
 30
0.0
 11
63.375977
 21
151.01955
 31
0.0
  0
LINE
  5
441
100
AcDbEntity
  8
レイヤー_2
 62
     7
100
AcDbLine
 10
64.501145
 20
150.65437
 30
0.0
 11
63.375977
 21
150.65437
 31
0.0
  0
LINE
  5
440
100
AcDbEntity
  8
レイヤー_2
 62
     7
100
AcDbLine
 10
64.125974
 20
150.00497
 30
0.0
 11
63.375977
 21
150.00497
 31
0.0
  0
POLYLINE
  5
43B
100
AcDbEntity
  8
レイヤー_2
 62
     7
100
AcDb2dPolyline
 66
     1
 10
0.0
 20
0.0
 30
0.0
  0
VERTEX
  5
43C
100
AcDbEntity
  8
レイヤー_2
 62
     7
100
AcDbVertex
100
AcDb2dVertex
 10
63.992304
 20
141.299558
 30
0.0
  0
VERTEX
  5
43D
100
AcDbEntity
  8
レイヤー_2
 62
     7
100
AcDbVertex
100
AcDb2dVertex
 10
63.756315
 20
141.238235
 30
0.0
  0
VERTEX
  5
43E
100
AcDbEntity
  8
レイヤー_2
 62
     7
100
AcDbVertex
100
AcDb2dVertex
 10
63.375977
 20
141.192415
 30
0.0
  0
SEQEND
  5
43F
100
AcDbEntity
  8
レイヤー_2
 62
     7
  0
POLYLINE
  5
436
100
AcDbEntity
  8
レイヤー_2
 62
     7
100
AcDb2dPolyline
 66
     1
 10
0.0
 20
0.0
 30
0.0
  0
VERTEX
  5
437
100
AcDbEntity
  8
レイヤー_2
 62
     7
100
AcDbVertex
100
AcDb2dVertex
 10
63.992304
 20
144.008781
 30
0.0
  0
VERTEX
  5
438
100
AcDbEntity
  8
レイヤー_2
 62
     7
100
AcDbVertex
100
AcDb2dVertex
 10
63.756315
 20
144.071137
 30
0.0
  0
VERTEX
  5
439
100
AcDbEntity
  8
レイヤー_2
 62
     7
100
AcDbVertex
100
AcDb2dVertex
 10
63.375977
 20
144.115923
 30
0.0
  0
SEQEND
  5
43A
100
AcDbEntity
  8
レイヤー_2
 62
     7
  0
LINE
  5
435
100
AcDbEntity
  8
レイヤー_2
 62
     7
100
AcDbLine
 10
63.992304
 20
141.299558
 30
0.0
 11
63.992304
 21
144.008781
 31
0.0
  0
POLYLINE
  5
430
100
AcDbEntity
  8
レイヤー_2
 62
     7
100
AcDb2dPolyline
 66
     1
 10
0.0
 20
0.0
 30
0.0
  0
VERTEX
  5
431
100
AcDbEntity
  8
レイヤー_2
 62
     7
100
AcDbVertex
100
AcDb2dVertex
 10
64.366097
 20
144.154508
 30
0.0
  0
VERTEX
  5
432
100
AcDbEntity
  8
レイヤー_2
 62
     7
100
AcDbVertex
100
AcDb2dVertex
 10
64.338881
 20
144.15313
 30
0.0
  0
VERTEX
  5
433
100
AcDbEntity
  8
レイヤー_2
 62
     7
100
AcDbVertex
100
AcDb2dVertex
 10
63.992304
 20
144.008781
 30
0.0
  0
SEQEND
  5
434
100
AcDbEntity
  8
レイヤー_2
 62
     7
  0
LINE
  5
42F
100
AcDbEntity
  8
レイヤー_2
 62
     7
100
AcDbLine
 10
64.366097
 20
144.154508
 30
0.0
 11
63.375977
 21
144.154508
 31
0.0
  0
POLYLINE
  5
42A
100
AcDbEntity
  8
レイヤー_2
 62
     7
100
AcDb2dPolyline
 66
     1
 10
0.0
 20
0.0
 30
0.0
  0
VERTEX
  5
42B
100
AcDbEntity
  8
レイヤー_2
 62
     7
100
AcDbVertex
100
AcDb2dVertex
 10
64.366097
 20
141.154175
 30
0.0
  0
VERTEX
  5
42C
100
AcDbEntity
  8
レイヤー_2
 62
     7
100
AcDbVertex
100
AcDb2dVertex
 10
64.338881
 20
141.154519
 30
0.0
  0
VERTEX
  5
42D
100
AcDbEntity
  8
レイヤー_2
 62
     7
100
AcDbVertex
100
AcDb2dVertex
 10
63.992304
 20
141.299558
 30
0.0
  0
SEQEND
  5
42E
100
AcDbEntity
  8
レイヤー_2
 62
     7
  0
LINE
  5
429
100
AcDbEntity
  8
レイヤー_2
 62
     7
100
AcDbLine
 10
64.366097
 20
141.154175
 30
0.0
 11
63.375977
 21
141.154175
 31
0.0
  0
LINE
  5
428
100
AcDbEntity
  8
レイヤー_2
 62
     7
100
AcDbLine
 10
64.740234
 20
141.299558
 30
0.0
 11
64.366097
 21
141.154175
 31
0.0
  0
LINE
  5
427
100
AcDbEntity
  8
レイヤー_2
 62
     7
100
AcDbLine
 10
64.740234
 20
144.008781
 30
0.0
 11
64.366097
 21
144.154508
 31
0.0
  0
LINE
  5
426
100
AcDbEntity
  8
レイヤー_2
 62
     7
100
AcDbLine
 10
64.740234
 20
141.299558
 30
0.0
 11
64.740234
 21
144.008781
 31
0.0
  0
LINE
  5
425
100
AcDbEntity
  8
レイヤー_2
 62
     7
100
AcDbLine
 10
64.501145
 20
144.154508
 30
0.0
 11
64.366097
 21
144.154508
 31
0.0
  0
LINE
  5
424
100
AcDbEntity
  8
レイヤー_2
 62
     7
100
AcDbLine
 10
64.501145
 20
141.154175
 30
0.0
 11
64.366097
 21
141.154175
 31
0.0
  0
LINE
  5
423
100
AcDbEntity
  8
レイヤー_2
 62
     7
100
AcDbLine
 10
63.517225
 20
152.854408
 30
0.0
 11
67.015375
 21
152.854408
 31
0.0
  0
LINE
  5
422
100
AcDbEntity
  8
レイヤー_2
 62
     7
100
AcDbLine
 10
54.265077
 20
152.854408
 30
0.0
 11
58.190763
 21
152.854408
 31
0.0
  0
LINE
  5
421
100
AcDbEntity
  8
レイヤー_2
 62
     7
100
AcDbLine
 10
58.190763
 20
151.103955
 30
0.0
 11
54.265077
 21
151.103955
 31
0.0
  0
LINE
  5
420
100
AcDbEntity
  8
レイヤー_2
 62
     7
100
AcDbLine
 10
67.015375
 20
151.103955
 30
0.0
 11
63.517225
 21
151.103955
 31
0.0
  0
LINE
  5
41F
100
AcDbEntity
  8
レイヤー_2
 62
     7
100
AcDbLine
 10
54.515191
 20
152.854408
 30
0.0
 11
54.640248
 21
152.854408
 31
0.0
  0
LINE
  5
41E
100
AcDbEntity
  8
レイヤー_2
 62
     7
100
AcDbLine
 10
66.640205
 20
152.854408
 30
0.0
 11
66.765262
 21
152.854408
 31
0.0
  0
LINE
  5
41D
100
AcDbEntity
  8
レイヤー_2
 62
     7
100
AcDbLine
 10
58.313409
 20
151.229357
 30
0.0
 11
58.31582
 21
151.229357
 31
0.0
  0
POLYLINE
  5
412
100
AcDbEntity
  8
レイヤー_2
 62
     7
100
AcDb2dPolyline
 66
     1
 10
0.0
 20
0.0
 30
0.0
  0
VERTEX
  5
413
100
AcDbEntity
  8
レイヤー_2
 62
     7
100
AcDbVertex
100
AcDb2dVertex
 10
58.313409
 20
151.229357
 30
0.0
  0
VERTEX
  5
414
100
AcDbEntity
  8
レイヤー_2
 62
     7
100
AcDbVertex
100
AcDb2dVertex
 10
58.310997
 20
151.204552
 30
0.0
  0
VERTEX
  5
415
100
AcDbEntity
  8
レイヤー_2
 62
     7
100
AcDbVertex
100
AcDb2dVertex
 10
58.303418
 20
151.18147
 30
0.0
  0
VERTEX
  5
416
100
AcDbEntity
  8
レイヤー_2
 62
     7
100
AcDbVertex
100
AcDb2dVertex
 10
58.292394
 20
151.159766
 30
0.0
  0
VERTEX
  5
417
100
AcDbEntity
  8
レイヤー_2
 62
     7
100
AcDbVertex
100
AcDb2dVertex
 10
58.277235
 20
151.140818
 30
0.0
  0
VERTEX
  5
418
100
AcDbEntity
  8
レイヤー_2
 62
     7
100
AcDbVertex
100
AcDb2dVertex
 10
58.258632
 20
151.12497
 30
0.0
  0
VERTEX
  5
419
100
AcDbEntity
  8
レイヤー_2
 62
     7
100
AcDbVertex
100
AcDb2dVertex
 10
58.237961
 20
151.113601
 30
0.0
  0
VERTEX
  5
41A
100
AcDbEntity
  8
レイヤー_2
 62
     7
100
AcDbVertex
100
AcDb2dVertex
 10
58.214879
 20
151.106367
 30
0.0
  0
VERTEX
  5
41B
100
AcDbEntity
  8
レイヤー_2
 62
     7
100
AcDbVertex
100
AcDb2dVertex
 10
58.190763
 20
151.103955
 30
0.0
  0
SEQEND
  5
41C
100
AcDbEntity
  8
レイヤー_2
 62
     7
  0
POLYLINE
  5
407
100
AcDbEntity
  8
レイヤー_2
 62
     7
100
AcDb2dPolyline
 66
     1
 10
0.0
 20
0.0
 30
0.0
  0
VERTEX
  5
408
100
AcDbEntity
  8
レイヤー_2
 62
     7
100
AcDbVertex
100
AcDb2dVertex
 10
63.463137
 20
152.854408
 30
0.0
  0
VERTEX
  5
409
100
AcDbEntity
  8
レイヤー_2
 62
     7
100
AcDbVertex
100
AcDb2dVertex
 10
63.439366
 20
152.851308
 30
0.0
  0
VERTEX
  5
40A
100
AcDbEntity
  8
レイヤー_2
 62
     7
100
AcDbVertex
100
AcDb2dVertex
 10
63.416629
 20
152.844762
 30
0.0
  0
VERTEX
  5
40B
100
AcDbEntity
  8
レイヤー_2
 62
     7
100
AcDbVertex
100
AcDb2dVertex
 10
63.395269
 20
152.833049
 30
0.0
  0
VERTEX
  5
40C
100
AcDbEntity
  8
レイヤー_2
 62
     7
100
AcDbVertex
100
AcDb2dVertex
 10
63.376321
 20
152.817201
 30
0.0
  0
VERTEX
  5
40D
100
AcDbEntity
  8
レイヤー_2
 62
     7
100
AcDbVertex
100
AcDb2dVertex
 10
63.361507
 20
152.798598
 30
0.0
  0
VERTEX
  5
40E
100
AcDbEntity
  8
レイヤー_2
 62
     7
100
AcDbVertex
100
AcDb2dVertex
 10
63.350483
 20
152.776893
 30
0.0
  0
VERTEX
  5
40F
100
AcDbEntity
  8
レイヤー_2
 62
     7
100
AcDbVertex
100
AcDb2dVertex
 10
63.343248
 20
152.753467
 30
0.0
  0
VERTEX
  5
410
100
AcDbEntity
  8
レイヤー_2
 62
     7
100
AcDbVertex
100
AcDb2dVertex
 10
63.340837
 20
152.729007
 30
0.0
  0
SEQEND
  5
411
100
AcDbEntity
  8
レイヤー_2
 62
     7
  0
LINE
  5
406
100
AcDbEntity
  8
レイヤー_2
 62
     7
100
AcDbLine
 10
63.463137
 20
152.854408
 30
0.0
 11
63.517225
 21
152.854408
 31
0.0
  0
LINE
  5
405
100
AcDbEntity
  8
レイヤー_2
 62
     7
100
AcDbLine
 10
63.340837
 20
152.729007
 30
0.0
 11
63.340837
 21
152.354525
 31
0.0
  0
LINE
  5
404
100
AcDbEntity
  8
レイヤー_2
 62
     7
100
AcDbLine
 10
63.067296
 20
152.354525
 30
0.0
 11
63.067296
 21
151.229357
 31
0.0
  0
POLYLINE
  5
3F9
100
AcDbEntity
  8
レイヤー_2
 62
     7
100
AcDb2dPolyline
 66
     1
 10
0.0
 20
0.0
 30
0.0
  0
VERTEX
  5
3FA
100
AcDbEntity
  8
レイヤー_2
 62
     7
100
AcDbVertex
100
AcDb2dVertex
 10
63.067296
 20
151.229357
 30
0.0
  0
VERTEX
  5
3FB
100
AcDbEntity
  8
レイヤー_2
 62
     7
100
AcDbVertex
100
AcDb2dVertex
 10
63.069363
 20
151.204552
 30
0.0
  0
VERTEX
  5
3FC
100
AcDbEntity
  8
レイヤー_2
 62
     7
100
AcDbVertex
100
AcDb2dVertex
 10
63.076942
 20
151.18147
 30
0.0
  0
VERTEX
  5
3FD
100
AcDbEntity
  8
レイヤー_2
 62
     7
100
AcDbVertex
100
AcDb2dVertex
 10
63.088311
 20
151.159766
 30
0.0
  0
VERTEX
  5
3FE
100
AcDbEntity
  8
レイヤー_2
 62
     7
100
AcDbVertex
100
AcDb2dVertex
 10
63.103125
 20
151.140818
 30
0.0
  0
VERTEX
  5
3FF
100
AcDbEntity
  8
レイヤー_2
 62
     7
100
AcDbVertex
100
AcDb2dVertex
 10
63.121384
 20
151.12497
 30
0.0
  0
VERTEX
  5
400
100
AcDbEntity
  8
レイヤー_2
 62
     7
100
AcDbVertex
100
AcDb2dVertex
 10
63.142744
 20
151.113601
 30
0.0
  0
VERTEX
  5
401
100
AcDbEntity
  8
レイヤー_2
 62
     7
100
AcDbVertex
100
AcDb2dVertex
 10
63.165481
 20
151.106367
 30
0.0
  0
VERTEX
  5
402
100
AcDbEntity
  8
レイヤー_2
 62
     7
100
AcDbVertex
100
AcDb2dVertex
 10
63.189941
 20
151.103955
 30
0.0
  0
SEQEND
  5
403
100
AcDbEntity
  8
レイヤー_2
 62
     7
  0
LINE
  5
3F8
100
AcDbEntity
  8
レイヤー_2
 62
     7
100
AcDbLine
 10
63.517225
 20
151.103955
 30
0.0
 11
63.189941
 21
151.103955
 31
0.0
  0
SPLINE
  5
3F7
100
AcDbEntity
  8
レイヤー_2
 62
     7
100
AcDbSpline
210
0.0
220
0.0
230
1.0
 70
     8
 71
     3
 72
     8
 73
     4
 74
     0
 42
0.00000001
 43
0.00000001
 40
0.0
 40
0.0
 40
0.0
 40
0.0
 40
1.0
 40
1.0
 40
1.0
 40
1.0
 10
63.338080512152771
 20
152.43961859809028
 30
0.0
 10
63.324989149305551
 20
152.41102430555554
 30
0.0
 10
63.327745225694436
 20
152.38036295572914
 30
0.0
 10
63.340836588541663
 20
152.35452473958333
 30
0.0
  0
POLYLINE
  5
3EC
100
AcDbEntity
  8
レイヤー_2
 62
     7
100
AcDb2dPolyline
 66
     1
 10
0.0
 20
0.0
 30
0.0
  0
VERTEX
  5
3ED
100
AcDbEntity
  8
レイヤー_2
 62
     7
100
AcDbVertex
100
AcDb2dVertex
 10
63.189941
 20
152.478893
 30
0.0
  0
VERTEX
  5
3EE
100
AcDbEntity
  8
レイヤー_2
 62
     7
100
AcDbVertex
100
AcDb2dVertex
 10
63.165481
 20
152.476826
 30
0.0
  0
VERTEX
  5
3EF
100
AcDbEntity
  8
レイヤー_2
 62
     7
100
AcDbVertex
100
AcDb2dVertex
 10
63.142744
 20
152.469591
 30
0.0
  0
VERTEX
  5
3F0
100
AcDbEntity
  8
レイヤー_2
 62
     7
100
AcDbVertex
100
AcDb2dVertex
 10
63.121384
 20
152.458222
 30
0.0
  0
VERTEX
  5
3F1
100
AcDbEntity
  8
レイヤー_2
 62
     7
100
AcDbVertex
100
AcDb2dVertex
 10
63.103125
 20
152.442375
 30
0.0
  0
VERTEX
  5
3F2
100
AcDbEntity
  8
レイヤー_2
 62
     7
100
AcDbVertex
100
AcDb2dVertex
 10
63.088311
 20
152.423771
 30
0.0
  0
VERTEX
  5
3F3
100
AcDbEntity
  8
レイヤー_2
 62
     7
100
AcDbVertex
100
AcDb2dVertex
 10
63.076942
 20
152.401378
 30
0.0
  0
VERTEX
  5
3F4
100
AcDbEntity
  8
レイヤー_2
 62
     7
100
AcDbVertex
100
AcDb2dVertex
 10
63.069363
 20
152.37864
 30
0.0
  0
VERTEX
  5
3F5
100
AcDbEntity
  8
レイヤー_2
 62
     7
100
AcDbVertex
100
AcDb2dVertex
 10
63.067296
 20
152.354525
 30
0.0
  0
SEQEND
  5
3F6
100
AcDbEntity
  8
レイヤー_2
 62
     7
  0
POLYLINE
  5
3E7
100
AcDbEntity
  8
レイヤー_2
 62
     7
100
AcDb2dPolyline
 66
     1
 10
0.0
 20
0.0
 30
0.0
  0
VERTEX
  5
3E8
100
AcDbEntity
  8
レイヤー_2
 62
     7
100
AcDbVertex
100
AcDb2dVertex
 10
63.338081
 20
152.406201
 30
0.0
  0
VERTEX
  5
3E9
100
AcDbEntity
  8
レイヤー_2
 62
     7
100
AcDbVertex
100
AcDb2dVertex
 10
63.338081
 20
152.400689
 30
0.0
  0
VERTEX
  5
3EA
100
AcDbEntity
  8
レイヤー_2
 62
     7
100
AcDbVertex
100
AcDb2dVertex
 10
63.340837
 20
152.354525
 30
0.0
  0
SEQEND
  5
3EB
100
AcDbEntity
  8
レイヤー_2
 62
     7
  0
LINE
  5
3E6
100
AcDbEntity
  8
レイヤー_2
 62
     7
100
AcDbLine
 10
57.626112
 20
151.103955
 30
0.0
 11
55.765072
 21
151.103955
 31
0.0
  0
LINE
  5
3E5
100
AcDbEntity
  8
レイヤー_2
 62
     7
100
AcDbLine
 10
64.411228
 20
151.103955
 30
0.0
 11
63.375977
 21
151.103955
 31
0.0
  0
LINE
  5
3E4
100
AcDbEntity
  8
レイヤー_2
 62
     7
100
AcDbLine
 10
58.31582
 20
152.478893
 30
0.0
 11
63.338081
 21
152.478893
 31
0.0
  0
LINE
  5
3E3
100
AcDbEntity
  8
レイヤー_2
 62
     7
100
AcDbLine
 10
65.531917
 20
153.22889
 30
0.0
 11
66.640205
 21
153.22889
 31
0.0
  0
LINE
  5
3E2
100
AcDbEntity
  8
レイヤー_2
 62
     7
100
AcDbLine
 10
54.640248
 20
153.22889
 30
0.0
 11
65.531917
 21
153.22889
 31
0.0
  0
LINE
  5
3E1
100
AcDbEntity
  8
レイヤー_2
 62
     7
100
AcDbLine
 10
63.340837
 20
152.729007
 30
0.0
 11
63.338081
 21
152.729007
 31
0.0
  0
LINE
  5
3E0
100
AcDbEntity
  8
レイヤー_2
 62
     7
100
AcDbLine
 10
63.067296
 20
151.229357
 30
0.0
 11
63.064195
 21
151.229357
 31
0.0
  0
LINE
  5
3DF
100
AcDbEntity
  8
レイヤー_2
 62
     7
100
AcDbLine
 10
63.067296
 20
152.354525
 30
0.0
 11
63.064195
 21
152.354525
 31
0.0
  0
SPLINE
  5
3DE
100
AcDbEntity
  8
レイヤー_2
 62
     7
100
AcDbSpline
210
0.0
220
0.0
230
1.0
 70
     8
 71
     3
 72
     8
 73
     4
 74
     0
 42
0.00000001
 43
0.00000001
 40
0.0
 40
0.0
 40
0.0
 40
0.0
 40
1.0
 40
1.0
 40
1.0
 40
1.0
 10
57.62611219618055
 20
128.78455946180554
 30
0.0
 10
58.196275499131936
 20
128.78455946180554
 30
0.0
 10
58.626223415798606
 20
128.1851128472222
 30
0.0
 10
60.125873480902776
 20
129.38193901909722
 30
0.0
  0
SPLINE
  5
3DD
100
AcDbEntity
  8
レイヤー_2
 62
     7
100
AcDbSpline
210
0.0
220
0.0
230
1.0
 70
     8
 71
     3
 72
     8
 73
     4
 74
     0
 42
0.00000001
 43
0.00000001
 40
0.0
 40
0.0
 40
0.0
 40
0.0
 40
1.0
 40
1.0
 40
1.0
 40
1.0
 10
60.876559787326386
 20
128.78455946180554
 30
0.0
 10
60.876559787326386
 20
128.78455946180554
 30
0.0
 10
62.618400065104161
 20
127.55018174913194
 30
0.0
 10
63.375976562499993
 20
128.93407660590276
 30
0.0
  0
SPLINE
  5
3DC
100
AcDbEntity
  8
レイヤー_2
 62
     7
100
AcDbSpline
210
0.0
220
0.0
230
1.0
 70
     8
 71
     3
 72
     8
 73
     4
 74
     0
 42
0.00000001
 43
0.00000001
 40
0.0
 40
0.0
 40
0.0
 40
0.0
 40
1.0
 40
1.0
 40
1.0
 40
1.0
 10
64.310975477430546
 20
183.76449381510415
 30
0.0
 10
61.839119466145824
 20
181.79355468749998
 30
0.0
 10
62.385856119791661
 20
176.76578233506942
 30
0.0
 10
64.408816189236106
 20
175.00154893663193
 30
0.0
  0
SPLINE
  5
3DB
100
AcDbEntity
  8
レイヤー_2
 62
     7
100
AcDbSpline
210
0.0
220
0.0
230
1.0
 70
     8
 71
     3
 72
     8
 73
     4
 74
     0
 42
0.00000001
 43
0.00000001
 40
0.0
 40
0.0
 40
0.0
 40
0.0
 40
1.0
 40
1.0
 40
1.0
 40
1.0
 10
77.806448025173609
 20
187.46073676215275
 30
0.0
 10
77.353417968749994
 20
187.04698079427081
 30
0.0
 10
75.722854275173603
 20
186.34211425781248
 30
0.0
 10
74.810937499999994
 20
186.52883843315971
 30
0.0
  0
LINE
  5
3DA
100
AcDbEntity
  8
レイヤー_2
 62
     7
100
AcDbLine
 10
56.73211
 20
205.663588
 30
0.0
 11
57.150345
 21
205.663588
 31
0.0
  0
LINE
  5
3D9
100
AcDbEntity
  8
レイヤー_2
 62
     7
100
AcDbLine
 10
57.632658
 20
205.663588
 30
0.0
 11
58.078798
 21
205.663588
 31
0.0
  0
LINE
  5
3D8
100
AcDbEntity
  8
レイヤー_2
 62
     7
100
AcDbLine
 10
59.953619
 20
205.663588
 30
0.0
 11
60.400448
 21
205.663588
 31
0.0
  0
LINE
  5
3D7
100
AcDbEntity
  8
レイヤー_2
 62
     7
100
AcDbLine
 10
60.882416
 20
205.663588
 30
0.0
 11
61.32959
 21
205.663588
 31
0.0
  0
LINE
  5
3D6
100
AcDbEntity
  8
レイヤー_2
 62
     7
100
AcDbLine
 10
58.097057
 20
205.663588
 30
0.0
 11
58.543197
 21
205.663588
 31
0.0
  0
LINE
  5
3D5
100
AcDbEntity
  8
レイヤー_2
 62
     7
100
AcDbLine
 10
60.417673
 20
205.663588
 30
0.0
 11
60.864846
 21
205.663588
 31
0.0
  0
LINE
  5
3D4
100
AcDbEntity
  8
レイヤー_2
 62
     7
100
AcDbLine
 10
62.275269
 20
205.663588
 30
0.0
 11
62.721753
 21
205.663588
 31
0.0
  0
LINE
  5
3D3
100
AcDbEntity
  8
レイヤー_2
 62
     7
100
AcDbLine
 10
63.203722
 20
205.663588
 30
0.0
 11
63.650551
 21
205.663588
 31
0.0
  0
LINE
  5
3D2
100
AcDbEntity
  8
レイヤー_2
 62
     7
100
AcDbLine
 10
58.560767
 20
205.663588
 30
0.0
 11
59.007595
 21
205.663588
 31
0.0
  0
LINE
  5
3D1
100
AcDbEntity
  8
レイヤー_2
 62
     7
100
AcDbLine
 10
62.739667
 20
205.663588
 30
0.0
 11
63.186152
 21
205.663588
 31
0.0
  0
LINE
  5
3D0
100
AcDbEntity
  8
レイヤー_2
 62
     7
100
AcDbLine
 10
61.811214
 20
205.663588
 30
0.0
 11
62.257699
 21
205.663588
 31
0.0
  0
LINE
  5
3CF
100
AcDbEntity
  8
レイヤー_2
 62
     7
100
AcDbLine
 10
57.168259
 20
205.663588
 30
0.0
 11
57.614743
 21
205.663588
 31
0.0
  0
LINE
  5
3CE
100
AcDbEntity
  8
レイヤー_2
 62
     7
100
AcDbLine
 10
61.346815
 20
205.663588
 30
0.0
 11
61.792955
 21
205.663588
 31
0.0
  0
LINE
  5
3CD
100
AcDbEntity
  8
レイヤー_2
 62
     7
100
AcDbLine
 10
59.489564
 20
205.663588
 30
0.0
 11
59.936393
 21
205.663588
 31
0.0
  0
LINE
  5
3CC
100
AcDbEntity
  8
レイヤー_2
 62
     7
100
AcDbLine
 10
59.025165
 20
205.663588
 30
0.0
 11
59.471994
 21
205.663588
 31
0.0
  0
SPLINE
  5
3CB
100
AcDbEntity
  8
レイヤー_2
 62
     7
100
AcDbSpline
210
0.0
220
0.0
230
1.0
 70
     8
 71
     3
 72
    26
 73
    22
 74
     0
 42
0.00000001
 43
0.00000001
 40
0.0
 40
0.0
 40
0.0
 40
0.0
 40
1.0
 40
1.0
 40
1.0
 40
2.0
 40
2.0
 40
2.0
 40
3.0
 40
3.0
 40
3.0
 40
4.0
 40
4.0
 40
4.0
 40
5.0
 40
5.0
 40
5.0
 40
6.0
 40
6.0
 40
6.0
 40
7.0
 40
7.0
 40
7.0
 40
7.0
 10
63.789388020833329
 20
187.01563042534721
 30
0.0
 10
63.801445855034714
 20
188.25173068576387
 30
0.0
 10
63.813159179687496
 20
189.48851996527776
 30
0.0
 10
63.82969563802083
 20
190.72462022569442
 30
0.0
 10
63.847954644097214
 20
192.16156955295136
 30
0.0
 10
63.872070312499993
 20
193.59817437065971
 30
0.0
 10
63.896874999999994
 20
195.03546820746527
 30
0.0
 10
63.922368706597219
 20
196.41006130642359
 30
0.0
 10
63.949240451388881
 20
197.78465440538193
 30
0.0
 10
63.977834743923609
 20
199.15993652343749
 30
0.0
 10
63.990581597222217
 20
199.81553819444443
 30
0.0
 10
64.005050998263883
 20
200.47182888454859
 30
0.0
 10
64.018486870659714
 20
201.12743055555555
 30
0.0
 10
64.03295627170138
 20
201.76270616319442
 30
0.0
 10
64.045703124999989
 20
202.3972927517361
 30
0.0
 10
64.060172526041654
 20
203.03119032118053
 30
0.0
 10
64.073263888888889
 20
203.65096299913193
 30
0.0
 10
64.086355251736109
 20
204.27073567708331
 30
0.0
 10
64.09979112413194
 20
204.87982855902777
 30
0.0
 10
64.101513671874997
 20
204.9552761501736
 30
0.0
 10
64.103236219618054
 20
205.03106825086803
 30
0.0
 10
64.1046142578125
 20
205.10651584201386
 30
0.0
  0
SPLINE
  5
3CA
100
AcDbEntity
  8
レイヤー_2
 62
     7
100
AcDbSpline
210
0.0
220
0.0
230
1.0
 70
     8
 71
     3
 72
    44
 73
    40
 74
     0
 42
0.00000001
 43
0.00000001
 40
0.0
 40
0.0
 40
0.0
 40
0.0
 40
1.0
 40
1.0
 40
1.0
 40
2.0
 40
2.0
 40
2.0
 40
3.0
 40
3.0
 40
3.0
 40
4.0
 40
4.0
 40
4.0
 40
5.0
 40
5.0
 40
5.0
 40
6.0
 40
6.0
 40
6.0
 40
7.0
 40
7.0
 40
7.0
 40
8.0
 40
8.0
 40
8.0
 40
9.0
 40
9.0
 40
9.0
 40
10.0
 40
10.0
 40
10.0
 40
11.0
 40
11.0
 40
11.0
 40
12.0
 40
12.0
 40
12.0
 40
13.0
 40
13.0
 40
13.0
 40
13.0
 10
64.902842881944437
 20
205.61363389756943
 30
0.0
 10
64.899397786458323
 20
206.1183403862847
 30
0.0
 10
64.895263671875
 20
206.62270236545137
 30
0.0
 10
64.891474066840274
 20
207.12671983506942
 30
0.0
 10
64.885961914062491
 20
207.82607421874999
 30
0.0
 10
64.880794270833334
 20
208.52232801649305
 30
0.0
 10
64.87493760850694
 20
209.20549045138887
 30
0.0
 10
64.869769965277769
 20
209.9010552300347
 30
0.0
 10
64.863913302951389
 20
210.5828396267361
 30
0.0
 10
64.858056640624994
 20
211.24774305555553
 30
0.0
 10
64.8521999782986
 20
211.92677137586804
 30
0.0
 10
64.845998806423609
 20
212.58891872829858
 30
0.0
 10
64.840142144097214
 20
213.22970648871527
 30
0.0
 10
64.833596462673611
 20
213.88599717881942
 30
0.0
 10
64.827395290798606
 20
214.51955023871525
 30
0.0
 10
64.820849609374989
 20
215.12692057291665
 30
0.0
 10
64.813959418402774
 20
215.75082736545136
 30
0.0
 10
64.807069227430546
 20
216.34682888454859
 30
0.0
 10
64.800523546006943
 20
216.91148003472219
 30
0.0
 10
64.793633355034714
 20
217.49266764322914
 30
0.0
 10
64.786054144965277
 20
218.04043782552083
 30
0.0
 10
64.778474934895826
 20
218.55203450520833
 30
0.0
 10
64.771584743923611
 20
219.07637803819443
 30
0.0
 10
64.763316514756937
 20
219.56282552083331
 30
0.0
 10
64.755392795138889
 20
220.00689832899303
 30
0.0
 10
64.747124565972214
 20
220.46302897135413
 30
0.0
 10
64.738511827256943
 20
220.87437337239581
 30
0.0
 10
64.729554578993046
 20
221.23851996527776
 30
0.0
 10
64.723008897569443
 20
221.51826171874998
 30
0.0
 10
64.715774197048603
 20
221.76940917968747
 30
0.0
 10
64.708884006076389
 20
221.99196234809025
 30
0.0
 10
64.701649305555549
 20
222.21761610243053
 30
0.0
 10
64.694414605034723
 20
222.41364203559027
 30
0.0
 10
64.686835394965271
 20
222.58004014756943
 30
0.0
 10
64.678911675347223
 20
222.75057237413193
 30
0.0
 10
64.67098795572916
 20
222.89113226996525
 30
0.0
 10
64.663408745659723
 20
222.98966200086804
 30
0.0
 10
64.654796006944437
 20
223.09129231770831
 30
0.0
 10
64.645838758680554
 20
223.14813639322915
 30
0.0
 10
64.637915039062491
 20
223.20498046874997
 30
0.0
  0
SPLINE
  5
3C9
100
AcDbEntity
  8
レイヤー_2
 62
     7
100
AcDbSpline
210
0.0
220
0.0
230
1.0
 70
     8
 71
     3
 72
    59
 73
    55
 74
     0
 42
0.00000001
 43
0.00000001
 40
0.0
 40
0.0
 40
0.0
 40
0.0
 40
1.0
 40
1.0
 40
1.0
 40
2.0
 40
2.0
 40
2.0
 40
3.0
 40
3.0
 40
3.0
 40
4.0
 40
4.0
 40
4.0
 40
5.0
 40
5.0
 40
5.0
 40
6.0
 40
6.0
 40
6.0
 40
7.0
 40
7.0
 40
7.0
 40
8.0
 40
8.0
 40
8.0
 40
9.0
 40
9.0
 40
9.0
 40
10.0
 40
10.0
 40
10.0
 40
11.0
 40
11.0
 40
11.0
 40
12.0
 40
12.0
 40
12.0
 40
13.0
 40
13.0
 40
13.0
 40
14.0
 40
14.0
 40
14.0
 40
15.0
 40
15.0
 40
15.0
 40
16.0
 40
16.0
 40
16.0
 40
17.0
 40
17.0
 40
17.0
 40
18.0
 40
18.0
 40
18.0
 40
18.0
 10
64.654796006944437
 20
223.00792100694443
 30
0.0
 10
64.63998209635416
 20
223.17259657118055
 30
0.0
 10
64.625512695312494
 20
223.33761664496527
 30
0.0
 10
64.584171549479166
 20
223.49815809461805
 30
0.0
 10
64.545241970486103
 20
223.64733072916664
 30
0.0
 10
64.483230251736103
 20
223.79202473958333
 30
0.0
 10
64.406404622395826
 20
223.92982855902775
 30
0.0
 10
64.335435655381943
 20
224.05798611111109
 30
0.0
 10
64.253097873263883
 20
224.18028700086805
 30
0.0
 10
64.158357747395826
 20
224.29535319010415
 30
0.0
 10
64.071885850694443
 20
224.40146213107636
 30
0.0
 10
63.975423177083329
 20
224.50205891927081
 30
0.0
 10
63.870003255208324
 20
224.59679904513888
 30
0.0
 10
63.689480251736107
 20
224.76009657118053
 30
0.0
 10
63.483463541666659
 20
224.9078911675347
 30
0.0
 10
63.251953124999993
 20
225.03949381510415
 30
0.0
 10
63.064195421006936
 20
225.14629177517358
 30
0.0
 10
62.860590277777774
 20
225.24275444878469
 30
0.0
 10
62.645616319444436
 20
225.32578124999998
 30
0.0
 10
62.457514105902774
 20
225.39950629340277
 30
0.0
 10
62.261143663194439
 20
225.46255154079859
 30
0.0
 10
62.063050672743053
 20
225.51491699218747
 30
0.0
 10
61.864613172743049
 20
225.56831597222219
 30
0.0
 10
61.66341959635416
 20
225.60965711805554
 30
0.0
 10
61.460847981770826
 20
225.64238552517358
 30
0.0
 10
61.05225965711805
 20
225.7074978298611
 30
0.0
 10
60.635747612847219
 20
225.73333604600691
 30
0.0
 10
60.221302625868049
 20
225.72196723090275
 30
0.0
 10
59.80789116753472
 20
225.71094292534721
 30
0.0
 10
59.396546766493053
 20
225.66133355034719
 30
0.0
 10
58.993470594618053
 20
225.57245008680553
 30
0.0
 10
58.628979492187497
 20
225.49217936197914
 30
0.0
 10
58.272067599826386
 20
225.3795247395833
 30
0.0
 10
57.931347656249997
 20
225.22483995225693
 30
0.0
 10
57.775973849826386
 20
225.15456000434025
 30
0.0
 10
57.625078667534716
 20
225.07635633680553
 30
0.0
 10
57.481418185763886
 20
224.99057345920136
 30
0.0
 10
57.401491970486106
 20
224.94234212239581
 30
0.0
 10
57.323977322048606
 20
224.89135470920138
 30
0.0
 10
57.25163031684027
 20
224.84140082465277
 30
0.0
 10
57.156545681423609
 20
224.7749104817708
 30
0.0
 10
57.072140842013887
 20
224.70842013888887
 30
0.0
 10
56.99290364583333
 20
224.63986273871527
 30
0.0
 10
56.892651367187497
 20
224.55407986111109
 30
0.0
 10
56.802389865451381
 20
224.46416286892358
 30
0.0
 10
56.720741102430551
 20
224.37286783854165
 30
0.0
 10
56.621177842881941
 20
224.25986870659719
 30
0.0
 10
56.534705946180551
 20
224.14204644097219
 30
0.0
 10
56.459602864583331
 20
224.01905653211804
 30
0.0
 10
56.371408420138884
 20
223.87401801215276
 30
0.0
 10
56.29940592447916
 20
223.72208930121525
 30
0.0
 10
56.253241644965271
 20
223.56430392795136
 30
0.0
 10
56.200531684027773
 20
223.38378092447914
 30
0.0
 10
56.182272677951381
 20
223.19567871093747
 30
0.0
 10
56.163669162326386
 20
223.00792100694443
 30
0.0
  0
SPLINE
  5
3C8
100
AcDbEntity
  8
レイヤー_2
 62
     7
100
AcDbSpline
210
0.0
220
0.0
230
1.0
 70
     8
 71
     3
 72
    26
 73
    22
 74
     0
 42
0.00000001
 43
0.00000001
 40
0.0
 40
0.0
 40
0.0
 40
0.0
 40
1.0
 40
1.0
 40
1.0
 40
2.0
 40
2.0
 40
2.0
 40
3.0
 40
3.0
 40
3.0
 40
4.0
 40
4.0
 40
4.0
 40
5.0
 40
5.0
 40
5.0
 40
6.0
 40
6.0
 40
6.0
 40
7.0
 40
7.0
 40
7.0
 40
7.0
 10
56.71385091145833
 20
205.10513780381942
 30
0.0
 10
56.715573459201387
 20
205.03037923177081
 30
0.0
 10
56.717640516493049
 20
204.9552761501736
 30
0.0
 10
56.719018554687494
 20
204.87982855902777
 30
0.0
 10
56.732109917534714
 20
204.27073567708331
 30
0.0
 10
56.745201280381941
 20
203.65096299913193
 30
0.0
 10
56.759326171874996
 20
203.03119032118053
 30
0.0
 10
56.772762044270827
 20
202.3972927517361
 30
0.0
 10
56.786197916666659
 20
201.76270616319442
 30
0.0
 10
56.799978298611109
 20
201.12743055555555
 30
0.0
 10
56.813758680555551
 20
200.47182888454859
 30
0.0
 10
56.827194552951383
 20
199.81553819444443
 30
0.0
 10
56.841319444444437
 20
199.15993652343749
 30
0.0
 10
56.869569227430553
 20
197.78465440538193
 30
0.0
 10
56.896440972222216
 20
196.41006130642359
 30
0.0
 10
56.921245659722217
 20
195.03546820746527
 30
0.0
 10
56.946739366319441
 20
193.59817437065971
 30
0.0
 10
56.971199544270831
 20
192.16156955295136
 30
0.0
 10
56.989114040798604
 20
190.72462022569442
 30
0.0
 10
57.005305989583327
 20
189.48851996527776
 30
0.0
 10
57.01736382378472
 20
188.25173068576387
 30
0.0
 10
57.028732638888883
 20
187.01563042534721
 30
0.0
  0
SPLINE
  5
3C7
100
AcDbEntity
  8
レイヤー_2
 62
     7
100
AcDbSpline
210
0.0
220
0.0
230
1.0
 70
     8
 71
     3
 72
    44
 73
    40
 74
     0
 42
0.00000001
 43
0.00000001
 40
0.0
 40
0.0
 40
0.0
 40
0.0
 40
1.0
 40
1.0
 40
1.0
 40
2.0
 40
2.0
 40
2.0
 40
3.0
 40
3.0
 40
3.0
 40
4.0
 40
4.0
 40
4.0
 40
5.0
 40
5.0
 40
5.0
 40
6.0
 40
6.0
 40
6.0
 40
7.0
 40
7.0
 40
7.0
 40
8.0
 40
8.0
 40
8.0
 40
9.0
 40
9.0
 40
9.0
 40
10.0
 40
10.0
 40
10.0
 40
11.0
 40
11.0
 40
11.0
 40
12.0
 40
12.0
 40
12.0
 40
13.0
 40
13.0
 40
13.0
 40
13.0
 10
56.180894639756943
 20
223.20498046874997
 30
0.0
 10
56.172281901041664
 20
223.14882541232637
 30
0.0
 10
56.164013671874997
 20
223.09232584635416
 30
0.0
 10
56.156434461805553
 20
222.99414062499997
 30
0.0
 10
56.147477213541663
 20
222.89319932725692
 30
0.0
 10
56.139553493923607
 20
222.74884982638886
 30
0.0
 10
56.13128526475694
 20
222.57314995659721
 30
0.0
 10
56.123361545138884
 20
222.39159342447914
 30
0.0
 10
56.114748806423606
 20
222.17730848524303
 30
0.0
 10
56.107169596354161
 20
221.92719455295136
 30
0.0
 10
56.099590386284717
 20
221.66950141059027
 30
0.0
 10
56.092011176215273
 20
221.37391221788192
 30
0.0
 10
56.084087456597217
 20
221.04387207031249
 30
0.0
 10
56.076508246527773
 20
220.70246310763886
 30
0.0
 10
56.068584526909717
 20
220.32488064236108
 30
0.0
 10
56.061694335937496
 20
219.91112467447914
 30
0.0
 10
56.054459635416663
 20
219.48634440104163
 30
0.0
 10
56.046191406249996
 20
219.02366807725693
 30
0.0
 10
56.039645724826386
 20
218.52585177951386
 30
0.0
 10
56.031377495659719
 20
218.01425509982636
 30
0.0
 10
56.024831814236109
 20
217.46579589843748
 30
0.0
 10
56.017252604166664
 20
216.88460828993053
 30
0.0
 10
56.010017903645831
 20
216.28722873263888
 30
0.0
 10
56.003472222222214
 20
215.65505371093749
 30
0.0
 10
55.99589301215277
 20
214.99187282986108
 30
0.0
 10
55.988658311631937
 20
214.31008843315971
 30
0.0
 10
55.982112630208327
 20
213.59592013888886
 30
0.0
 10
55.974877929687494
 20
212.85384657118053
 30
0.0
 10
55.970054796006941
 20
212.2819607204861
 30
0.0
 10
55.964198133680547
 20
211.69388292100692
 30
0.0
 10
55.959374999999994
 20
211.09202473958331
 30
0.0
 10
55.953518337673607
 20
210.47363009982638
 30
0.0
 10
55.949039713541659
 20
209.84179958767359
 30
0.0
 10
55.94283854166666
 20
209.19722222222219
 30
0.0
 10
55.938359917534719
 20
208.53266330295136
 30
0.0
 10
55.932503255208331
 20
207.8546685112847
 30
0.0
 10
55.927680121527771
 20
207.17495117187499
 30
0.0
 10
55.923890516493053
 20
206.65508626302082
 30
0.0
 10
55.919411892361104
 20
206.13418782552083
 30
0.0
 10
55.915622287326386
 20
205.61363389756943
 30
0.0
  0
SPLINE
  5
3C6
100
AcDbEntity
  8
レイヤー_2
 62
     7
100
AcDbSpline
210
0.0
220
0.0
230
1.0
 70
     8
 71
     3
 72
    20
 73
    16
 74
     0
 42
0.00000001
 43
0.00000001
 40
0.0
 40
0.0
 40
0.0
 40
0.0
 40
1.0
 40
1.0
 40
1.0
 40
2.0
 40
2.0
 40
2.0
 40
3.0
 40
3.0
 40
3.0
 40
4.0
 40
4.0
 40
4.0
 40
5.0
 40
5.0
 40
5.0
 40
5.0
 10
64.564534505208329
 20
205.23811848958331
 30
0.0
 10
64.564534505208329
 20
205.23811848958331
 30
0.0
 10
64.592439778645826
 20
205.24879828559025
 30
0.0
 10
64.592439778645826
 20
205.24879828559025
 30
0.0
 10
64.664786783854154
 20
205.27704806857636
 30
0.0
 10
64.718874782986106
 20
205.31356608072915
 30
0.0
 10
64.769173177083331
 20
205.35662977430553
 30
0.0
 10
64.799490017361109
 20
205.38453504774304
 30
0.0
 10
64.82842881944444
 20
205.41519639756942
 30
0.0
 10
64.855300564236103
 20
205.45447048611109
 30
0.0
 10
64.880105251736111
 20
205.49133300781247
 30
0.0
 10
64.902842881944437
 20
205.53646375868053
 30
0.0
 10
64.900431315104157
 20
205.58262803819443
 30
0.0
 10
64.899742296006934
 20
205.59640842013886
 30
0.0
 10
64.897675238715266
 20
205.60949978298609
 30
0.0
 10
64.894230143229166
 20
205.62293565538192
 30
0.0
  0
SPLINE
  5
3C5
100
AcDbEntity
  8
レイヤー_2
 62
     7
100
AcDbSpline
210
0.0
220
0.0
230
1.0
 70
     8
 71
     3
 72
    23
 73
    19
 74
     0
 42
0.00000001
 43
0.00000001
 40
0.0
 40
0.0
 40
0.0
 40
0.0
 40
1.0
 40
1.0
 40
1.0
 40
2.0
 40
2.0
 40
2.0
 40
3.0
 40
3.0
 40
3.0
 40
4.0
 40
4.0
 40
4.0
 40
5.0
 40
5.0
 40
5.0
 40
6.0
 40
6.0
 40
6.0
 40
6.0
 10
55.923890516493053
 20
205.60398763020831
 30
0.0
 10
55.925268554687491
 20
205.56988118489582
 30
0.0
 10
55.925957573784714
 20
205.53646375868053
 30
0.0
 10
55.934914822048604
 20
205.50580240885415
 30
0.0
 10
55.946972656249997
 20
205.46342773437499
 30
0.0
 10
55.974188910590271
 20
205.42828776041665
 30
0.0
 10
56.002438693576387
 20
205.39831542968747
 30
0.0
 10
56.033100043402776
 20
205.36593153211803
 30
0.0
 10
56.064450412326387
 20
205.34043782552081
 30
0.0
 10
56.098901367187494
 20
205.31701117621526
 30
0.0
 10
56.14919976128472
 20
205.28359374999999
 30
0.0
 10
56.206732855902771
 20
205.25534396701386
 30
0.0
 10
56.267022026909714
 20
205.22881673177082
 30
0.0
 10
56.346948242187494
 20
205.19436577690971
 30
0.0
 10
56.432042100694439
 20
205.16163736979163
 30
0.0
 10
56.537806532118047
 20
205.13648817274304
 30
0.0
 10
56.537806532118047
 20
205.13648817274304
 30
0.0
 10
56.54331868489583
 20
205.1351101345486
 30
0.0
 10
56.54331868489583
 20
205.1351101345486
 30
0.0
  0
SPLINE
  5
3C4
100
AcDbEntity
  8
レイヤー_2
 62
     7
100
AcDbSpline
210
0.0
220
0.0
230
1.0
 70
     8
 71
     3
 72
     8
 73
     4
 74
     0
 42
0.00000001
 43
0.00000001
 40
0.0
 40
0.0
 40
0.0
 40
0.0
 40
1.0
 40
1.0
 40
1.0
 40
1.0
 10
57.037345377604161
 20
186.17123752170139
 30
0.0
 10
57.039067925347219
 20
186.06133897569444
 30
0.0
 10
57.128295898437493
 20
185.97383355034719
 30
0.0
 10
57.237160915798604
 20
185.97383355034719
 30
0.0
  0
SPLINE
  5
3C3
100
AcDbEntity
  8
レイヤー_2
 62
     7
100
AcDbSpline
210
0.0
220
0.0
230
1.0
 70
     8
 71
     3
 72
     8
 73
     4
 74
     0
 42
0.00000001
 43
0.00000001
 40
0.0
 40
0.0
 40
0.0
 40
0.0
 40
1.0
 40
1.0
 40
1.0
 40
1.0
 10
63.581304253472219
 20
185.97383355034719
 30
0.0
 10
63.690513780381941
 20
185.97383355034719
 30
0.0
 10
63.779397243923604
 20
186.06237250434026
 30
0.0
 10
63.781119791666661
 20
186.17158203124998
 30
0.0
  0
SPLINE
  5
3C2
100
AcDbEntity
  8
レイヤー_2
 62
     7
100
AcDbSpline
210
0.0
220
0.0
230
1.0
 70
     8
 71
     3
 72
    11
 73
     7
 74
     0
 42
0.00000001
 43
0.00000001
 40
0.0
 40
0.0
 40
0.0
 40
0.0
 40
1.0
 40
1.0
 40
1.0
 40
2.0
 40
2.0
 40
2.0
 40
2.0
 10
63.781119791666661
 20
186.16744791666665
 30
0.0
 10
63.782842339409719
 20
186.31007486979166
 30
0.0
 10
63.782842339409719
 20
186.45270182291665
 30
0.0
 10
63.784564887152769
 20
186.59498426649304
 30
0.0
 10
63.785253906249991
 20
186.73761121961803
 30
0.0
 10
63.786976453993049
 20
186.88023817274305
 30
0.0
 10
63.787665473090271
 20
187.02320963541666
 30
0.0
  0
SPLINE
  5
3C1
100
AcDbEntity
  8
レイヤー_2
 62
     7
100
AcDbSpline
210
0.0
220
0.0
230
1.0
 70
     8
 71
     3
 72
    11
 73
     7
 74
     0
 42
0.00000001
 43
0.00000001
 40
0.0
 40
0.0
 40
0.0
 40
0.0
 40
1.0
 40
1.0
 40
1.0
 40
2.0
 40
2.0
 40
2.0
 40
2.0
 10
57.03045518663194
 20
187.02320963541666
 30
0.0
 10
57.032177734374997
 20
186.88023817274305
 30
0.0
 10
57.032522243923609
 20
186.73761121961803
 30
0.0
 10
57.034244791666659
 20
186.59498426649304
 30
0.0
 10
57.035278320312493
 20
186.45270182291665
 30
0.0
 10
57.036311848958327
 20
186.31007486979166
 30
0.0
 10
57.037345377604161
 20
186.16744791666665
 30
0.0
  0
SPLINE
  5
3C0
100
AcDbEntity
  8
レイヤー_2
 62
     7
100
AcDbSpline
210
0.0
220
0.0
230
1.0
 70
     8
 71
     3
 72
     8
 73
     4
 74
     0
 42
0.00000001
 43
0.00000001
 40
0.0
 40
0.0
 40
0.0
 40
0.0
 40
1.0
 40
1.0
 40
1.0
 40
1.0
 10
78.718020290798606
 20
176.74304470486109
 30
0.0
 10
78.718020290798606
 20
176.75269097222221
 30
0.0
 10
78.717331271701383
 20
176.76164822048611
 30
0.0
 10
78.715953233506937
 20
176.76922743055553
 30
0.0
  0
SPLINE
  5
3BF
100
AcDbEntity
  8
レイヤー_2
 62
     7
100
AcDbSpline
210
0.0
220
0.0
230
1.0
 70
     8
 71
     3
 72
     8
 73
     4
 74
     0
 42
0.00000001
 43
0.00000001
 40
0.0
 40
0.0
 40
0.0
 40
0.0
 40
1.0
 40
1.0
 40
1.0
 40
1.0
 10
78.612255859374997
 20
176.60007324218748
 30
0.0
 10
78.676334635416666
 20
176.61936577690972
 30
0.0
 10
78.717331271701383
 20
176.6782769097222
 30
0.0
 10
78.718020290798606
 20
176.74304470486109
 30
0.0
  0
SPLINE
  5
3BE
100
AcDbEntity
  8
レイヤー_2
 62
     7
100
AcDbSpline
210
0.0
220
0.0
230
1.0
 70
     8
 71
     3
 72
     8
 73
     4
 74
     0
 42
0.00000001
 43
0.00000001
 40
0.0
 40
0.0
 40
0.0
 40
0.0
 40
1.0
 40
1.0
 40
1.0
 40
1.0
 10
77.238351779513877
 20
176.50912272135415
 30
0.0
 10
77.251787651909709
 20
176.43401963975694
 30
0.0
 10
77.31896701388888
 20
176.38199869791666
 30
0.0
 10
77.393381076388877
 20
176.38544379340277
 30
0.0
  0
SPLINE
  5
3BD
100
AcDbEntity
  8
レイヤー_2
 62
     7
100
AcDbSpline
210
0.0
220
0.0
230
1.0
 70
     8
 71
     3
 72
     8
 73
     4
 74
     0
 42
0.00000001
 43
0.00000001
 40
0.0
 40
0.0
 40
0.0
 40
0.0
 40
1.0
 40
1.0
 40
1.0
 40
1.0
 10
78.696660698784711
 20
176.80436740451387
 30
0.0
 10
78.693215603298597
 20
176.82469346788193
 30
0.0
 10
78.684947374131937
 20
176.84329698350692
 30
0.0
 10
78.673578559027774
 20
176.85811089409719
 30
0.0
  0
SPLINE
  5
3BC
100
AcDbEntity
  8
レイヤー_2
 62
     7
100
AcDbSpline
210
0.0
220
0.0
230
1.0
 70
     8
 71
     3
 72
     8
 73
     4
 74
     0
 42
0.00000001
 43
0.00000001
 40
0.0
 40
0.0
 40
0.0
 40
0.0
 40
1.0
 40
1.0
 40
1.0
 40
1.0
 10
77.322067599826383
 20
176.68620062934025
 30
0.0
 10
77.265912543402777
 20
176.66518554687499
 30
0.0
 10
77.234217664930554
 20
176.60627441406248
 30
0.0
 10
77.244208441840271
 20
176.54839680989582
 30
0.0
  0
LINE
  5
3BB
100
AcDbEntity
  8
レイヤー_2
 62
     7
100
AcDbLine
 10
78.703206
 20
176.76716
 30
0.0
 11
78.696661
 21
176.804367
 31
0.0
  0
LINE
  5
3BA
100
AcDbEntity
  8
レイヤー_2
 62
     7
100
AcDbLine
 10
77.244208
 20
176.548397
 30
0.0
 11
77.250754
 21
176.51119
 31
0.0
  0
SPLINE
  5
3B9
100
AcDbEntity
  8
レイヤー_2
 62
     7
100
AcDbSpline
210
0.0
220
0.0
230
1.0
 70
     8
 71
     3
 72
     8
 73
     4
 74
     0
 42
0.00000001
 43
0.00000001
 40
0.0
 40
0.0
 40
0.0
 40
0.0
 40
1.0
 40
1.0
 40
1.0
 40
1.0
 10
77.322067599826383
 20
176.68620062934025
 30
0.0
 10
77.339982096354163
 20
176.69309082031248
 30
0.0
 10
77.356174045138886
 20
176.7027370876736
 30
0.0
 10
77.36788736979166
 20
176.71410590277776
 30
0.0
  0
LINE
  5
3B8
100
AcDbEntity
  8
レイヤー_2
 62
     7
100
AcDbLine
 10
77.30622
 20
176.681377
 30
0.0
 11
78.237429
 21
176.84502
 31
0.0
  0
SPLINE
  5
3B7
100
AcDbEntity
  8
レイヤー_2
 62
     7
100
AcDbSpline
210
0.0
220
0.0
230
1.0
 70
     8
 71
     3
 72
     8
 73
     4
 74
     0
 42
0.00000001
 43
0.00000001
 40
0.0
 40
0.0
 40
0.0
 40
0.0
 40
1.0
 40
1.0
 40
1.0
 40
1.0
 10
77.393381076388877
 20
176.38544379340277
 30
0.0
 10
77.829185655381934
 20
176.40680338541665
 30
0.0
 10
78.24914279513888
 20
176.48431803385415
 30
0.0
 10
78.612255859374997
 20
176.60007324218748
 30
0.0
  0
LINE
  5
3B6
100
AcDbEntity
  8
レイヤー_2
 62
     7
100
AcDbLine
 10
73.687836
 20
185.809502
 30
0.0
 11
72.659131
 21
185.562834
 31
0.0
  0
LINE
  5
3B5
100
AcDbEntity
  8
レイヤー_2
 62
     7
100
AcDbLine
 10
78.673579
 20
176.858111
 30
0.0
 11
78.951253
 21
176.889806
 31
0.0
  0
LINE
  5
3B4
100
AcDbEntity
  8
レイヤー_2
 62
     7
100
AcDbLine
 10
76.437712
 20
176.603863
 30
0.0
 11
77.313799
 21
176.702737
 31
0.0
  0
SPLINE
  5
3B3
100
AcDbEntity
  8
レイヤー_2
 62
     7
100
AcDbSpline
210
0.0
220
0.0
230
1.0
 70
     8
 71
     3
 72
     8
 73
     4
 74
     0
 42
0.00000001
 43
0.00000001
 40
0.0
 40
0.0
 40
0.0
 40
0.0
 40
1.0
 40
1.0
 40
1.0
 40
1.0
 10
78.951942274305551
 20
176.88980577256942
 30
0.0
 10
79.052194552951377
 20
176.90220811631943
 30
0.0
 10
79.125919596354166
 20
176.9883355034722
 30
0.0
 10
79.126953124999986
 20
177.08755425347221
 30
0.0
  0
SPLINE
  5
3B2
100
AcDbEntity
  8
レイヤー_2
 62
     7
100
AcDbSpline
210
0.0
220
0.0
230
1.0
 70
     8
 71
     3
 72
     8
 73
     4
 74
     0
 42
0.00000001
 43
0.00000001
 40
0.0
 40
0.0
 40
0.0
 40
0.0
 40
1.0
 40
1.0
 40
1.0
 40
1.0
 10
79.263723415798609
 20
183.32455512152777
 30
0.0
 10
79.263723415798609
 20
184.56995713975692
 30
0.0
 10
79.214114040798606
 20
185.80467936197914
 30
0.0
 10
79.127642144097209
 20
186.86439073350692
 30
0.0
  0
LINE
  5
3B1
100
AcDbEntity
  8
レイヤー_2
 62
     7
100
AcDbLine
 10
79.263723
 20
180.457891
 30
0.0
 11
79.263723
 21
180.631868
 31
0.0
  0
LINE
  5
3B0
100
AcDbEntity
  8
レイヤー_2
 62
     7
100
AcDbLine
 10
79.258211
 20
179.93527
 30
0.0
 11
79.260967
 21
180.127162
 31
0.0
  0
LINE
  5
3AF
100
AcDbEntity
  8
レイヤー_2
 62
     7
100
AcDbLine
 10
79.253733
 20
179.689979
 30
0.0
 11
79.258211
 21
179.914255
 31
0.0
  0
SPLINE
  5
3AE
100
AcDbEntity
  8
レイヤー_2
 62
     7
100
AcDbSpline
210
0.0
220
0.0
230
1.0
 70
     8
 71
     3
 72
     8
 73
     4
 74
     0
 42
0.00000001
 43
0.00000001
 40
0.0
 40
0.0
 40
0.0
 40
0.0
 40
1.0
 40
1.0
 40
1.0
 40
1.0
 10
79.126953124999986
 20
177.08583170572916
 30
0.0
 10
79.191031901041654
 20
177.91713324652775
 30
0.0
 10
79.232717556423609
 20
178.74464518229166
 30
0.0
 10
79.249254014756943
 20
179.45364583333333
 30
0.0
  0
LINE
  5
3AD
100
AcDbEntity
  8
レイヤー_2
 62
     7
100
AcDbLine
 10
79.263723
 20
180.987058
 30
0.0
 11
79.263723
 21
183.324555
 31
0.0
  0
LINE
  5
3AC
100
AcDbEntity
  8
レイヤー_2
 62
     7
100
AcDbLine
 10
79.263723
 20
180.960186
 30
0.0
 11
79.263723
 21
180.960875
 31
0.0
  0
LINE
  5
3AB
100
AcDbEntity
  8
レイヤー_2
 62
     7
100
AcDbLine
 10
79.263723
 20
180.944683
 30
0.0
 11
79.263723
 21
180.960186
 31
0.0
  0
LINE
  5
3AA
100
AcDbEntity
  8
レイヤー_2
 62
     7
100
AcDbLine
 10
79.263723
 20
180.631868
 30
0.0
 11
79.263723
 21
180.944683
 31
0.0
  0
LINE
  5
3A9
100
AcDbEntity
  8
レイヤー_2
 62
     7
100
AcDbLine
 10
79.263723
 20
180.935037
 30
0.0
 11
79.263723
 21
180.948817
 31
0.0
  0
SPLINE
  5
3A8
100
AcDbEntity
  8
レイヤー_2
 62
     7
100
AcDbSpline
210
0.0
220
0.0
230
1.0
 70
     8
 71
     3
 72
     8
 73
     4
 74
     0
 42
0.00000001
 43
0.00000001
 40
0.0
 40
0.0
 40
0.0
 40
0.0
 40
1.0
 40
1.0
 40
1.0
 40
1.0
 10
76.254432508680551
 20
176.68792317708332
 30
0.0
 10
76.296807183159714
 20
176.62694498697914
 30
0.0
 10
76.367431640625
 20
176.59697265624999
 30
0.0
 10
76.437022569444437
 20
176.60386284722222
 30
0.0
  0
SPLINE
  5
3A7
100
AcDbEntity
  8
レイヤー_2
 62
     7
100
AcDbSpline
210
0.0
220
0.0
230
1.0
 70
     8
 71
     3
 72
     8
 73
     4
 74
     0
 42
0.00000001
 43
0.00000001
 40
0.0
 40
0.0
 40
0.0
 40
0.0
 40
1.0
 40
1.0
 40
1.0
 40
1.0
 10
72.659130859374997
 20
185.56283365885415
 30
0.0
 10
72.556467013888877
 20
185.53768446180553
 30
0.0
 10
72.491010199652777
 20
185.4370876736111
 30
0.0
 10
72.508924696180543
 20
185.33304578993054
 30
0.0
  0
SPLINE
  5
3A6
100
AcDbEntity
  8
レイヤー_2
 62
     7
100
AcDbSpline
210
0.0
220
0.0
230
1.0
 70
     8
 71
     3
 72
    20
 73
    16
 74
     0
 42
0.00000001
 43
0.00000001
 40
0.0
 40
0.0
 40
0.0
 40
0.0
 40
1.0
 40
1.0
 40
1.0
 40
2.0
 40
2.0
 40
2.0
 40
3.0
 40
3.0
 40
3.0
 40
4.0
 40
4.0
 40
4.0
 40
5.0
 40
5.0
 40
5.0
 40
5.0
 10
74.995250108506937
 20
187.47279459635416
 30
0.0
 10
74.996283637152771
 20
187.31742078993054
 30
0.0
 10
74.997661675347217
 20
187.16308051215276
 30
0.0
 10
74.9756130642361
 20
187.01011827256943
 30
0.0
 10
74.959421115451377
 20
186.89264051649303
 30
0.0
 10
74.9291042751736
 20
186.7772298177083
 30
0.0
 10
74.8825954861111
 20
186.66802029079858
 30
0.0
 10
74.827129448784717
 20
186.54192979600694
 30
0.0
 10
74.751337348090274
 20
186.42548556857636
 30
0.0
 10
74.657630750868051
 20
186.32316623263887
 30
0.0
 10
74.542220052083323
 20
186.1970757378472
 30
0.0
 10
74.400626627604154
 20
186.09372287326389
 30
0.0
 10
74.249042426215269
 20
186.01586371527776
 30
0.0
 10
74.048537868923603
 20
185.91216634114582
 30
0.0
 10
73.829429796006934
 20
185.85153266059027
 30
0.0
 10
73.609977213541654
 20
185.79193250868053
 30
0.0
  0
SPLINE
  5
3A5
100
AcDbEntity
  8
レイヤー_2
 62
     7
100
AcDbSpline
210
0.0
220
0.0
230
1.0
 70
     8
 71
     3
 72
    23
 73
    19
 74
     0
 42
0.00000001
 43
0.00000001
 40
0.0
 40
0.0
 40
0.0
 40
0.0
 40
1.0
 40
1.0
 40
1.0
 40
2.0
 40
2.0
 40
2.0
 40
3.0
 40
3.0
 40
3.0
 40
4.0
 40
4.0
 40
4.0
 40
5.0
 40
5.0
 40
5.0
 40
6.0
 40
6.0
 40
6.0
 40
6.0
 10
78.8978542751736
 20
187.07902018229166
 30
0.0
 10
78.749715169270829
 20
187.06420627170138
 30
0.0
 10
78.601231553819431
 20
187.05008138020833
 30
0.0
 10
78.455848524305551
 20
187.07144097222221
 30
0.0
 10
78.318044704861109
 20
187.09280056423609
 30
0.0
 10
78.181963433159709
 20
187.14688856336804
 30
0.0
 10
78.063452148437491
 20
187.22440321180554
 30
0.0
 10
77.964922417534709
 20
187.2888264973958
 30
0.0
 10
77.877761501736103
 20
187.36840820312497
 30
0.0
 10
77.806448025173609
 20
187.46073676215275
 30
0.0
 10
77.745469835069443
 20
187.53962944878469
 30
0.0
 10
77.69586046006944
 20
187.62747938368054
 30
0.0
 10
77.660375976562491
 20
187.72015245225694
 30
0.0
 10
77.603531901041663
 20
187.86519097222219
 30
0.0
 10
77.580794270833323
 20
188.02228732638886
 30
0.0
 10
77.572870551215274
 20
188.17800564236109
 30
0.0
 10
77.568047417534714
 20
188.27550184461805
 30
0.0
 10
77.569080946180549
 20
188.37196451822916
 30
0.0
 10
77.570803493923606
 20
188.46911621093747
 30
0.0
  0
LINE
  5
3A4
100
AcDbEntity
  8
レイヤー_2
 62
     7
100
AcDbLine
 10
74.99904
 20
198.027189
 30
0.0
 11
74.99904
 21
187.439033
 31
0.0
  0
LINE
  5
3A3
100
AcDbEntity
  8
レイヤー_2
 62
     7
100
AcDbLine
 10
77.573215
 20
188.469116
 30
0.0
 11
77.573215
 21
198.027189
 31
0.0
  0
SPLINE
  5
3A2
100
AcDbEntity
  8
レイヤー_2
 62
     7
100
AcDbSpline
210
0.0
220
0.0
230
1.0
 70
     8
 71
     3
 72
     8
 73
     4
 74
     0
 42
0.00000001
 43
0.00000001
 40
0.0
 40
0.0
 40
0.0
 40
0.0
 40
1.0
 40
1.0
 40
1.0
 40
1.0
 10
77.573215060763886
 20
198.02718912760415
 30
0.0
 10
77.573215060763886
 20
198.11159396701387
 30
0.0
 10
77.520849609374991
 20
198.18428548177081
 30
0.0
 10
77.444368489583326
 20
198.21391330295137
 30
0.0
  0
SPLINE
  5
3A1
100
AcDbEntity
  8
レイヤー_2
 62
     7
100
AcDbSpline
210
0.0
220
0.0
230
1.0
 70
     8
 71
     3
 72
     8
 73
     4
 74
     0
 42
0.00000001
 43
0.00000001
 40
0.0
 40
0.0
 40
0.0
 40
0.0
 40
1.0
 40
1.0
 40
1.0
 40
1.0
 10
75.127541775173597
 20
198.21391330295137
 30
0.0
 10
75.047960069444443
 20
198.18359646267359
 30
0.0
 10
74.999039713541663
 20
198.10883789062498
 30
0.0
 10
74.999039713541663
 20
198.02718912760415
 30
0.0
  0
SPLINE
  5
3A0
100
AcDbEntity
  8
レイヤー_2
 62
     7
100
AcDbSpline
210
0.0
220
0.0
230
1.0
 70
     8
 71
     3
 72
    29
 73
    25
 74
     0
 42
0.00000001
 43
0.00000001
 40
0.0
 40
0.0
 40
0.0
 40
0.0
 40
1.0
 40
1.0
 40
1.0
 40
2.0
 40
2.0
 40
2.0
 40
3.0
 40
3.0
 40
3.0
 40
4.0
 40
4.0
 40
4.0
 40
5.0
 40
5.0
 40
5.0
 40
6.0
 40
6.0
 40
6.0
 40
7.0
 40
7.0
 40
7.0
 40
8.0
 40
8.0
 40
8.0
 40
8.0
 10
79.127642144097209
 20
186.86439073350692
 30
0.0
 10
79.127642144097209
 20
186.86439073350692
 30
0.0
 10
79.127642144097209
 20
186.86955837673608
 30
0.0
 10
79.127642144097209
 20
186.86955837673608
 30
0.0
 10
79.127642144097209
 20
186.86955837673608
 30
0.0
 10
79.125230577256943
 20
186.88230523003472
 30
0.0
 10
79.125230577256943
 20
186.88230523003472
 30
0.0
 10
79.125230577256943
 20
186.88230523003472
 30
0.0
 10
79.121785481770829
 20
186.89849717881944
 30
0.0
 10
79.121785481770829
 20
186.89849717881944
 30
0.0
 10
79.121785481770829
 20
186.89849717881944
 30
0.0
 10
79.115928819444434
 20
186.91951226128469
 30
0.0
 10
79.110761176215277
 20
186.93053656684026
 30
0.0
 10
79.103870985243049
 20
186.94500596788194
 30
0.0
 10
79.096291775173597
 20
186.95844184027777
 30
0.0
 10
79.08630099826388
 20
186.97118869357638
 30
0.0
 10
79.071487087673603
 20
186.98910319010415
 30
0.0
 10
79.054606119791657
 20
187.00495062934027
 30
0.0
 10
79.034624565972209
 20
187.01735297309025
 30
0.0
 10
79.014643012152774
 20
187.03009982638886
 30
0.0
 10
78.992938910590269
 20
187.03940158420139
 30
0.0
 10
78.969856770833331
 20
187.0431911892361
 30
0.0
 10
78.94677463107638
 20
187.04732530381943
 30
0.0
 10
78.922314453124997
 20
187.08005371093748
 30
0.0
 10
78.8978542751736
 20
187.07902018229166
 30
0.0
  0
SPLINE
  5
39F
100
AcDbEntity
  8
レイヤー_2
 62
     7
100
AcDbSpline
210
0.0
220
0.0
230
1.0
 70
     8
 71
     3
 72
     8
 73
     4
 74
     0
 42
0.00000001
 43
0.00000001
 40
0.0
 40
0.0
 40
0.0
 40
0.0
 40
1.0
 40
1.0
 40
1.0
 40
1.0
 10
77.444368489583326
 20
198.21391330295137
 30
0.0
 10
76.666810438368046
 20
198.51122504340276
 30
0.0
 10
75.844466145833323
 20
198.48952094184025
 30
0.0
 10
75.127541775173597
 20
198.21391330295137
 30
0.0
  0
LINE
  5
39E
100
AcDbEntity
  8
レイヤー_2
 62
     7
100
AcDbLine
 10
72.285683
 20
184.94375
 30
0.0
 11
71.991471
 21
184.892074
 31
0.0
  0
LINE
  5
39D
100
AcDbEntity
  8
レイヤー_2
 62
     7
100
AcDbLine
 10
73.402927
 20
176.889806
 30
0.0
 11
73.696449
 21
176.942516
 31
0.0
  0
POLYLINE
  5
398
100
AcDbEntity
  8
レイヤー_2
 62
     7
100
AcDb2dPolyline
 66
     1
 10
0.0
 20
0.0
 30
0.0
  0
VERTEX
  5
399
100
AcDbEntity
  8
レイヤー_2
 62
     7
100
AcDbVertex
100
AcDb2dVertex
 10
72.571625
 20
184.977167
 30
0.0
  0
VERTEX
  5
39A
100
AcDbEntity
  8
レイヤー_2
 62
     7
100
AcDbVertex
100
AcDb2dVertex
 10
72.458971
 20
184.967521
 30
0.0
  0
VERTEX
  5
39B
100
AcDbEntity
  8
レイヤー_2
 62
     7
100
AcDbVertex
100
AcDb2dVertex
 10
72.285683
 20
184.94375
 30
0.0
  0
SEQEND
  5
39C
100
AcDbEntity
  8
レイヤー_2
 62
     7
  0
SPLINE
  5
397
100
AcDbEntity
  8
レイヤー_2
 62
     7
100
AcDbSpline
210
0.0
220
0.0
230
1.0
 70
     8
 71
     3
 72
     8
 73
     4
 74
     0
 42
0.00000001
 43
0.00000001
 40
0.0
 40
0.0
 40
0.0
 40
0.0
 40
1.0
 40
1.0
 40
1.0
 40
1.0
 10
75.272235785590269
 20
177.91713324652775
 30
0.0
 10
75.293939887152774
 20
177.94710557725693
 30
0.0
 10
75.315988498263877
 20
177.97742241753471
 30
0.0
 10
75.333902994791657
 20
178.00326063368053
 30
0.0
  0
SPLINE
  5
396
100
AcDbEntity
  8
レイヤー_2
 62
     7
100
AcDbSpline
210
0.0
220
0.0
230
1.0
 70
     8
 71
     3
 72
     8
 73
     4
 74
     0
 42
0.00000001
 43
0.00000001
 40
0.0
 40
0.0
 40
0.0
 40
0.0
 40
1.0
 40
1.0
 40
1.0
 40
1.0
 10
73.696449110243051
 20
176.94251573350692
 30
0.0
 10
74.181174045138889
 20
177.02760959201387
 30
0.0
 10
74.607676866319437
 20
177.24740668402777
 30
0.0
 10
74.936683485243051
 20
177.54747450086805
 30
0.0
  0
LINE
  5
395
100
AcDbEntity
  8
レイヤー_2
 62
     7
100
AcDbLine
 10
67.684413
 20
161.974609
 30
0.0
 11
67.684413
 21
163.522491
 31
0.0
  0
LINE
  5
394
100
AcDbEntity
  8
レイヤー_2
 62
     7
100
AcDbLine
 10
53.133708
 20
163.522491
 30
0.0
 11
53.133708
 21
161.974609
 31
0.0
  0
SPLINE
  5
393
100
AcDbEntity
  8
レイヤー_2
 62
     7
100
AcDbSpline
210
0.0
220
0.0
230
1.0
 70
     8
 71
     3
 72
     8
 73
     4
 74
     0
 42
0.00000001
 43
0.00000001
 40
0.0
 40
0.0
 40
0.0
 40
0.0
 40
1.0
 40
1.0
 40
1.0
 40
1.0
 10
67.684412977430554
 20
163.52249077690971
 30
0.0
 10
67.684412977430554
 20
163.63273383246525
 30
0.0
 10
67.594840494791654
 20
163.72230631510416
 30
0.0
 10
67.4842529296875
 20
163.72230631510416
 30
0.0
  0
SPLINE
  5
392
100
AcDbEntity
  8
レイヤー_2
 62
     7
100
AcDbSpline
210
0.0
220
0.0
230
1.0
 70
     8
 71
     3
 72
     8
 73
     4
 74
     0
 42
0.00000001
 43
0.00000001
 40
0.0
 40
0.0
 40
0.0
 40
0.0
 40
1.0
 40
1.0
 40
1.0
 40
1.0
 10
53.334556749131941
 20
163.72230631510416
 30
0.0
 10
53.223624674479161
 20
163.72230631510416
 30
0.0
 10
53.133707682291664
 20
163.63273383246525
 30
0.0
 10
53.133707682291664
 20
163.52249077690971
 30
0.0
  0
SPLINE
  5
391
100
AcDbEntity
  8
レイヤー_2
 62
     7
100
AcDbSpline
210
0.0
220
0.0
230
1.0
 70
     8
 71
     3
 72
     8
 73
     4
 74
     0
 42
0.00000001
 43
0.00000001
 40
0.0
 40
0.0
 40
0.0
 40
0.0
 40
1.0
 40
1.0
 40
1.0
 40
1.0
 10
66.513080512152769
 20
163.82944878472222
 30
0.0
 10
66.693259006076389
 20
163.76537000868055
 30
0.0
 10
66.87722710503472
 20
163.72988552517359
 30
0.0
 10
67.044658745659717
 20
163.72161729600694
 30
0.0
  0
SPLINE
  5
390
100
AcDbEntity
  8
レイヤー_2
 62
     7
100
AcDbSpline
210
0.0
220
0.0
230
1.0
 70
     8
 71
     3
 72
     8
 73
     4
 74
     0
 42
0.00000001
 43
0.00000001
 40
0.0
 40
0.0
 40
0.0
 40
0.0
 40
1.0
 40
1.0
 40
1.0
 40
1.0
 10
53.773806423611106
 20
163.72161729600694
 30
0.0
 10
53.964664713541659
 20
163.73229709201388
 30
0.0
 10
54.147254774305551
 20
163.77122667100693
 30
0.0
 10
54.305040147569443
 20
163.82944878472222
 30
0.0
  0
SPLINE
  5
38F
100
AcDbEntity
  8
レイヤー_2
 62
     7
100
AcDbSpline
210
0.0
220
0.0
230
1.0
 70
     8
 71
     3
 72
     8
 73
     4
 74
     0
 42
0.00000001
 43
0.00000001
 40
0.0
 40
0.0
 40
0.0
 40
0.0
 40
1.0
 40
1.0
 40
1.0
 40
1.0
 10
64.261021592881931
 20
166.45564507378469
 30
0.0
 10
64.500111219618049
 20
165.20507541232638
 30
0.0
 10
65.380333116319434
 20
164.24044867621527
 30
0.0
 10
66.513080512152769
 20
163.82944878472222
 30
0.0
  0
SPLINE
  5
38E
100
AcDbEntity
  8
レイヤー_2
 62
     7
100
AcDbSpline
210
0.0
220
0.0
230
1.0
 70
     8
 71
     3
 72
     8
 73
     4
 74
     0
 42
0.00000001
 43
0.00000001
 40
0.0
 40
0.0
 40
0.0
 40
0.0
 40
1.0
 40
1.0
 40
1.0
 40
1.0
 10
54.305040147569443
 20
163.82944878472222
 30
0.0
 10
55.504277886284719
 20
164.25629611545136
 30
0.0
 10
56.324555121527773
 20
165.27328830295139
 30
0.0
 10
56.557788085937496
 20
166.45564507378469
 30
0.0
  0
SPLINE
  5
38D
100
AcDbEntity
  8
レイヤー_2
 62
     7
100
AcDbSpline
210
0.0
220
0.0
230
1.0
 70
     8
 71
     3
 72
    11
 73
     7
 74
     0
 42
0.00000001
 43
0.00000001
 40
0.0
 40
0.0
 40
0.0
 40
0.0
 40
1.0
 40
1.0
 40
1.0
 40
2.0
 40
2.0
 40
2.0
 40
2.0
 10
71.939105902777769
 20
185.18869628906248
 30
0.0
 10
71.922224934895823
 20
185.28550347222222
 30
0.0
 10
71.83816460503472
 20
185.3533718532986
 30
0.0
 10
71.742390950520829
 20
185.35371636284719
 30
0.0
 10
71.722753906249991
 20
185.35371636284719
 30
0.0
 10
71.704150390624989
 20
185.35061577690971
 30
0.0
 10
71.687269422743043
 20
185.34613715277777
 30
0.0
  0
SPLINE
  5
38C
100
AcDbEntity
  8
レイヤー_2
 62
     7
100
AcDbSpline
210
0.0
220
0.0
230
1.0
 70
     8
 71
     3
 72
     8
 73
     4
 74
     0
 42
0.00000001
 43
0.00000001
 40
0.0
 40
0.0
 40
0.0
 40
0.0
 40
1.0
 40
1.0
 40
1.0
 40
1.0
 10
73.458048502604157
 20
176.55907660590276
 30
0.0
 10
73.458048502604157
 20
176.57078993055555
 30
0.0
 10
73.457014973958323
 20
176.58319227430553
 30
0.0
 10
73.454603407118043
 20
176.59352756076387
 30
0.0
  0
SPLINE
  5
38B
100
AcDbEntity
  8
レイヤー_2
 62
     7
100
AcDbSpline
210
0.0
220
0.0
230
1.0
 70
     8
 71
     3
 72
     8
 73
     4
 74
     0
 42
0.00000001
 43
0.00000001
 40
0.0
 40
0.0
 40
0.0
 40
0.0
 40
1.0
 40
1.0
 40
1.0
 40
1.0
 10
73.272013346354157
 20
176.35926106770833
 30
0.0
 10
73.377088758680543
 20
176.36684027777775
 30
0.0
 10
73.458048502604157
 20
176.45434570312497
 30
0.0
 10
73.458048502604157
 20
176.55907660590276
 30
0.0
  0
LINE
  5
38A
100
AcDbEntity
  8
レイヤー_2
 62
     7
100
AcDbLine
 10
71.687269
 20
185.346137
 30
0.0
 11
65.885729
 21
183.682845
 31
0.0
  0
LINE
  5
389
100
AcDbEntity
  8
レイヤー_2
 62
     7
100
AcDbLine
 10
66.525827
 20
175.887972
 30
0.0
 11
73.272013
 21
176.359261
 31
0.0
  0
SPLINE
  5
388
100
AcDbEntity
  8
レイヤー_2
 62
     7
100
AcDbSpline
210
0.0
220
0.0
230
1.0
 70
     8
 71
     3
 72
    26
 73
    22
 74
     0
 42
0.00000001
 43
0.00000001
 40
0.0
 40
0.0
 40
0.0
 40
0.0
 40
1.0
 40
1.0
 40
1.0
 40
2.0
 40
2.0
 40
2.0
 40
3.0
 40
3.0
 40
3.0
 40
4.0
 40
4.0
 40
4.0
 40
5.0
 40
5.0
 40
5.0
 40
6.0
 40
6.0
 40
6.0
 40
7.0
 40
7.0
 40
7.0
 40
7.0
 10
63.809025065104159
 20
172.82907172309027
 30
0.0
 10
63.822460937499997
 20
173.18563910590277
 30
0.0
 10
63.835552300347217
 20
173.54255099826386
 30
0.0
 10
63.906865776909719
 20
173.89016113281249
 30
0.0
 10
63.941316731770826
 20
174.05862630208333
 30
0.0
 10
63.989892578124994
 20
174.22467990451386
 30
0.0
 10
64.052248806423606
 20
174.38522135416665
 30
0.0
 10
64.11529405381944
 20
174.54369574652776
 30
0.0
 10
64.192464192708329
 20
174.69700249565972
 30
0.0
 10
64.287204318576386
 20
174.83790690104166
 30
0.0
 10
64.385389539930543
 20
174.98328993055554
 30
0.0
 10
64.501144748263883
 20
175.11695963541666
 30
0.0
 10
64.632402886284723
 20
175.23271484374999
 30
0.0
 10
64.775374348958323
 20
175.35846082899303
 30
0.0
 10
64.936604817708329
 20
175.4625027126736
 30
0.0
 10
65.10748155381944
 20
175.54794108072915
 30
0.0
 10
65.304885525173603
 20
175.64715983072915
 30
0.0
 10
65.516414388020834
 20
175.71985134548609
 30
0.0
 10
65.730354817708331
 20
175.77014973958333
 30
0.0
 10
65.992182074652774
 20
175.83147243923611
 30
0.0
 10
66.259521484375
 20
175.85903320312499
 30
0.0
 10
66.527205403645823
 20
175.88797200520833
 30
0.0
  0
SPLINE
  5
387
100
AcDbEntity
  8
レイヤー_2
 62
     7
100
AcDbSpline
210
0.0
220
0.0
230
1.0
 70
     8
 71
     3
 72
    29
 73
    25
 74
     0
 42
0.00000001
 43
0.00000001
 40
0.0
 40
0.0
 40
0.0
 40
0.0
 40
1.0
 40
1.0
 40
1.0
 40
2.0
 40
2.0
 40
2.0
 40
3.0
 40
3.0
 40
3.0
 40
4.0
 40
4.0
 40
4.0
 40
5.0
 40
5.0
 40
5.0
 40
6.0
 40
6.0
 40
6.0
 40
7.0
 40
7.0
 40
7.0
 40
8.0
 40
8.0
 40
8.0
 40
8.0
 10
65.886762152777777
 20
183.68284505208331
 30
0.0
 10
65.618044704861106
 20
183.62427842881942
 30
0.0
 10
65.3482937282986
 20
183.56640082465276
 30
0.0
 10
65.074408637152771
 20
183.56915690104165
 30
0.0
 10
64.919379340277771
 20
183.57087944878469
 30
0.0
 10
64.763316514756937
 20
183.5925835503472
 30
0.0
 10
64.61379937065972
 20
183.63633626302081
 30
0.0
 10
64.545241970486103
 20
183.65562879774305
 30
0.0
 10
64.478407118055543
 20
183.68008897569442
 30
0.0
 10
64.413639322916666
 20
183.71075032552082
 30
0.0
 10
64.323033311631931
 20
183.75209147135416
 30
0.0
 10
64.237939453124994
 20
183.80480143229164
 30
0.0
 10
64.161458333333329
 20
183.86819118923609
 30
0.0
 10
64.115983072916663
 20
183.90677625868054
 30
0.0
 10
64.073263888888889
 20
183.94983995225692
 30
0.0
 10
64.034678819444437
 20
183.9956597222222
 30
0.0
 10
63.99127061631944
 20
184.04802517361111
 30
0.0
 10
63.954063585069441
 20
184.10555826822915
 30
0.0
 10
63.922368706597219
 20
184.1661919487847
 30
0.0
 10
63.886539713541659
 20
184.23612738715275
 30
0.0
 10
63.857945421006939
 20
184.31019694010416
 30
0.0
 10
63.841064453124993
 20
184.38702256944444
 30
0.0
 10
63.820049370659717
 20
184.47728407118055
 30
0.0
 10
63.814537217881941
 20
184.57099066840277
 30
0.0
 10
63.809025065104159
 20
184.66400824652777
 30
0.0
  0
SPLINE
  5
386
100
AcDbEntity
  8
レイヤー_2
 62
     7
100
AcDbSpline
210
0.0
220
0.0
230
1.0
 70
     8
 71
     3
 72
     8
 73
     4
 74
     0
 42
0.00000001
 43
0.00000001
 40
0.0
 40
0.0
 40
0.0
 40
0.0
 40
1.0
 40
1.0
 40
1.0
 40
1.0
 10
63.809025065104159
 20
171.22434624565972
 30
0.0
 10
63.809025065104159
 20
169.53797200520833
 30
0.0
 10
63.97335611979166
 20
167.88949381510415
 30
0.0
 10
64.261021592881931
 20
166.45564507378469
 30
0.0
  0
SPLINE
  5
385
100
AcDbEntity
  8
レイヤー_2
 62
     7
100
AcDbSpline
210
0.0
220
0.0
230
1.0
 70
     8
 71
     3
 72
     8
 73
     4
 74
     0
 42
0.00000001
 43
0.00000001
 40
0.0
 40
0.0
 40
0.0
 40
0.0
 40
1.0
 40
1.0
 40
1.0
 40
1.0
 10
56.557788085937496
 20
166.45564507378469
 30
0.0
 10
56.874392361111106
 20
168.11204698350693
 30
0.0
 10
57.022186957465273
 20
169.76224772135416
 30
0.0
 10
57.009440104166664
 20
171.22434624565972
 30
0.0
  0
LINE
  5
384
100
AcDbEntity
  8
レイヤー_2
 62
     7
100
AcDbLine
 10
63.809025
 20
184.663319
 30
0.0
 11
63.809025
 21
185.524593
 31
0.0
  0
LINE
  5
383
100
AcDbEntity
  8
レイヤー_2
 62
     7
100
AcDbLine
 10
63.809025
 20
171.224346
 30
0.0
 11
63.809025
 21
172.829416
 31
0.0
  0
LINE
  5
382
100
AcDbEntity
  8
レイヤー_2
 62
     7
100
AcDbLine
 10
57.00944
 20
185.524593
 30
0.0
 11
57.00944
 21
171.224346
 31
0.0
  0
SPLINE
  5
381
100
AcDbEntity
  8
レイヤー_2
 62
     7
100
AcDbSpline
210
0.0
220
0.0
230
1.0
 70
     8
 71
     3
 72
     8
 73
     4
 74
     0
 42
0.00000001
 43
0.00000001
 40
0.0
 40
0.0
 40
0.0
 40
0.0
 40
1.0
 40
1.0
 40
1.0
 40
1.0
 10
57.209255642361107
 20
185.72440863715275
 30
0.0
 10
57.098668077256939
 20
185.72440863715275
 30
0.0
 10
57.009440104166664
 20
185.63518066406249
 30
0.0
 10
57.009440104166664
 20
185.52459309895832
 30
0.0
  0
SPLINE
  5
380
100
AcDbEntity
  8
レイヤー_2
 62
     7
100
AcDbSpline
210
0.0
220
0.0
230
1.0
 70
     8
 71
     3
 72
     8
 73
     4
 74
     0
 42
0.00000001
 43
0.00000001
 40
0.0
 40
0.0
 40
0.0
 40
0.0
 40
1.0
 40
1.0
 40
1.0
 40
1.0
 10
63.809025065104159
 20
185.52459309895832
 30
0.0
 10
63.809025065104159
 20
185.63518066406249
 30
0.0
 10
63.719797092013884
 20
185.72440863715275
 30
0.0
 10
63.608865017361104
 20
185.72440863715275
 30
0.0
  0
SPLINE
  5
37F
100
AcDbEntity
  8
レイヤー_2
 62
     7
100
AcDbSpline
210
0.0
220
0.0
230
1.0
 70
     8
 71
     3
 72
     8
 73
     4
 74
     0
 42
0.00000001
 43
0.00000001
 40
0.0
 40
0.0
 40
0.0
 40
0.0
 40
1.0
 40
1.0
 40
1.0
 40
1.0
 10
57.334657118055553
 20
185.72440863715275
 30
0.0
 10
57.444555664062491
 20
185.72440863715275
 30
0.0
 10
57.534472656249996
 20
185.81398111979166
 30
0.0
 10
57.534472656249996
 20
185.92387966579858
 30
0.0
  0
SPLINE
  5
37E
100
AcDbEntity
  8
レイヤー_2
 62
     7
100
AcDbSpline
210
0.0
220
0.0
230
1.0
 70
     8
 71
     3
 72
     8
 73
     4
 74
     0
 42
0.00000001
 43
0.00000001
 40
0.0
 40
0.0
 40
0.0
 40
0.0
 40
1.0
 40
1.0
 40
1.0
 40
1.0
 10
63.283992513020827
 20
185.92387966579858
 30
0.0
 10
63.283992513020827
 20
185.81398111979166
 30
0.0
 10
63.374254014756936
 20
185.72440863715275
 30
0.0
 10
63.484152560763881
 20
185.72440863715275
 30
0.0
  0
LINE
  5
37D
100
AcDbEntity
  8
レイヤー_2
 62
     7
100
AcDbLine
 10
57.534473
 20
185.973834
 30
0.0
 11
57.534473
 21
185.92388
 31
0.0
  0
LINE
  5
37C
100
AcDbEntity
  8
レイヤー_2
 62
     7
100
AcDbLine
 10
63.283993
 20
185.92388
 30
0.0
 11
63.283993
 21
185.973834
 31
0.0
  0
LINE
  5
37B
100
AcDbEntity
  8
レイヤー_2
 62
     7
100
AcDbLine
 10
63.608865
 20
205.50029
 30
0.0
 11
57.209256
 21
205.50029
 31
0.0
  0
LINE
  5
37A
100
AcDbEntity
  8
レイヤー_2
 62
     7
100
AcDbLine
 10
63.472095
 20
205.461705
 30
0.0
 11
63.472095
 21
205.399693
 31
0.0
  0
LINE
  5
379
100
AcDbEntity
  8
レイヤー_2
 62
     7
100
AcDbLine
 10
63.472095
 20
205.461705
 30
0.0
 11
62.421685
 21
205.461705
 31
0.0
  0
LINE
  5
378
100
AcDbEntity
  8
レイヤー_2
 62
     7
100
AcDbLine
 10
62.421685
 20
205.399693
 30
0.0
 11
62.421685
 21
205.461705
 31
0.0
  0
LINE
  5
377
100
AcDbEntity
  8
レイヤー_2
 62
     7
100
AcDbLine
 10
62.421685
 20
205.399693
 30
0.0
 11
62.296973
 21
205.399693
 31
0.0
  0
LINE
  5
376
100
AcDbEntity
  8
レイヤー_2
 62
     7
100
AcDbLine
 10
62.296973
 20
205.461705
 30
0.0
 11
62.296973
 21
205.399693
 31
0.0
  0
LINE
  5
375
100
AcDbEntity
  8
レイヤー_2
 62
     7
100
AcDbLine
 10
62.296973
 20
205.461705
 30
0.0
 11
60.771484
 21
205.461705
 31
0.0
  0
LINE
  5
374
100
AcDbEntity
  8
レイヤー_2
 62
     7
100
AcDbLine
 10
60.771484
 20
205.399693
 30
0.0
 11
60.771484
 21
205.461705
 31
0.0
  0
LINE
  5
373
100
AcDbEntity
  8
レイヤー_2
 62
     7
100
AcDbLine
 10
60.771484
 20
205.399693
 30
0.0
 11
60.646772
 21
205.399693
 31
0.0
  0
LINE
  5
372
100
AcDbEntity
  8
レイヤー_2
 62
     7
100
AcDbLine
 10
60.646772
 20
205.461705
 30
0.0
 11
60.646772
 21
205.399693
 31
0.0
  0
LINE
  5
371
100
AcDbEntity
  8
レイヤー_2
 62
     7
100
AcDbLine
 10
60.646772
 20
205.461705
 30
0.0
 11
60.171693
 21
205.461705
 31
0.0
  0
LINE
  5
370
100
AcDbEntity
  8
レイヤー_2
 62
     7
100
AcDbLine
 10
60.171693
 20
205.399693
 30
0.0
 11
60.171693
 21
205.461705
 31
0.0
  0
LINE
  5
36F
100
AcDbEntity
  8
レイヤー_2
 62
     7
100
AcDbLine
 10
60.171693
 20
205.399693
 30
0.0
 11
60.046636
 21
205.399693
 31
0.0
  0
LINE
  5
36E
100
AcDbEntity
  8
レイヤー_2
 62
     7
100
AcDbLine
 10
60.046636
 20
205.461705
 30
0.0
 11
60.046636
 21
205.399693
 31
0.0
  0
LINE
  5
36D
100
AcDbEntity
  8
レイヤー_2
 62
     7
100
AcDbLine
 10
60.046636
 20
205.461705
 30
0.0
 11
58.521493
 21
205.461705
 31
0.0
  0
LINE
  5
36C
100
AcDbEntity
  8
レイヤー_2
 62
     7
100
AcDbLine
 10
58.521493
 20
205.399693
 30
0.0
 11
58.521493
 21
205.461705
 31
0.0
  0
LINE
  5
36B
100
AcDbEntity
  8
レイヤー_2
 62
     7
100
AcDbLine
 10
58.521493
 20
205.399693
 30
0.0
 11
58.397125
 21
205.399693
 31
0.0
  0
LINE
  5
36A
100
AcDbEntity
  8
レイヤー_2
 62
     7
100
AcDbLine
 10
58.397125
 20
205.461705
 30
0.0
 11
58.397125
 21
205.399693
 31
0.0
  0
LINE
  5
369
100
AcDbEntity
  8
レイヤー_2
 62
     7
100
AcDbLine
 10
58.397125
 20
205.461705
 30
0.0
 11
57.346715
 21
205.461705
 31
0.0
  0
LINE
  5
368
100
AcDbEntity
  8
レイヤー_2
 62
     7
100
AcDbLine
 10
63.647106
 20
205.399693
 30
0.0
 11
63.472095
 21
205.399693
 31
0.0
  0
LINE
  5
367
100
AcDbEntity
  8
レイヤー_2
 62
     7
100
AcDbLine
 10
63.195109
 20
205.66531
 30
0.0
 11
63.16307
 21
205.695283
 31
0.0
  0
LINE
  5
366
100
AcDbEntity
  8
レイヤー_2
 62
     7
100
AcDbLine
 10
63.227148
 20
205.695283
 30
0.0
 11
63.195109
 21
205.66531
 31
0.0
  0
LINE
  5
365
100
AcDbEntity
  8
レイヤー_2
 62
     7
100
AcDbLine
 10
59.94535
 20
205.66531
 30
0.0
 11
59.913311
 21
205.695283
 31
0.0
  0
LINE
  5
364
100
AcDbEntity
  8
レイヤー_2
 62
     7
100
AcDbLine
 10
59.977045
 20
205.695283
 30
0.0
 11
59.94535
 21
205.66531
 31
0.0
  0
LINE
  5
363
100
AcDbEntity
  8
レイヤー_2
 62
     7
100
AcDbLine
 10
57.159302
 20
205.66531
 30
0.0
 11
57.126918
 21
205.694938
 31
0.0
  0
LINE
  5
362
100
AcDbEntity
  8
レイヤー_2
 62
     7
100
AcDbLine
 10
57.191341
 20
205.695283
 30
0.0
 11
57.159302
 21
205.66531
 31
0.0
  0
LINE
  5
361
100
AcDbEntity
  8
レイヤー_2
 62
     7
100
AcDbLine
 10
60.40906
 20
205.66531
 30
0.0
 11
60.377021
 21
205.695283
 31
0.0
  0
LINE
  5
360
100
AcDbEntity
  8
レイヤー_2
 62
     7
100
AcDbLine
 10
60.441444
 20
205.695283
 30
0.0
 11
60.40906
 21
205.66531
 31
0.0
  0
LINE
  5
35F
100
AcDbEntity
  8
レイヤー_2
 62
     7
100
AcDbLine
 10
59.480952
 20
205.66531
 30
0.0
 11
59.448912
 21
205.695283
 31
0.0
  0
LINE
  5
35E
100
AcDbEntity
  8
レイヤー_2
 62
     7
100
AcDbLine
 10
59.512646
 20
205.695283
 30
0.0
 11
59.480952
 21
205.66531
 31
0.0
  0
LINE
  5
35D
100
AcDbEntity
  8
レイヤー_2
 62
     7
100
AcDbLine
 10
62.266311
 20
205.66531
 30
0.0
 11
62.234272
 21
205.695283
 31
0.0
  0
LINE
  5
35C
100
AcDbEntity
  8
レイヤー_2
 62
     7
100
AcDbLine
 10
62.29904
 20
205.695283
 30
0.0
 11
62.266311
 21
205.66531
 31
0.0
  0
LINE
  5
35B
100
AcDbEntity
  8
レイヤー_2
 62
     7
100
AcDbLine
 10
62.730366
 20
205.66531
 30
0.0
 11
62.698671
 21
205.695283
 31
0.0
  0
LINE
  5
35A
100
AcDbEntity
  8
レイヤー_2
 62
     7
100
AcDbLine
 10
62.762405
 20
205.695283
 30
0.0
 11
62.730366
 21
205.66531
 31
0.0
  0
LINE
  5
359
100
AcDbEntity
  8
レイヤー_2
 62
     7
100
AcDbLine
 10
58.552498
 20
205.66531
 30
0.0
 11
58.51977
 21
205.695283
 31
0.0
  0
LINE
  5
358
100
AcDbEntity
  8
レイヤー_2
 62
     7
100
AcDbLine
 10
58.584193
 20
205.695283
 30
0.0
 11
58.552498
 21
205.66531
 31
0.0
  0
LINE
  5
357
100
AcDbEntity
  8
レイヤー_2
 62
     7
100
AcDbLine
 10
61.337858
 20
205.66531
 30
0.0
 11
61.305819
 21
205.695283
 31
0.0
  0
LINE
  5
356
100
AcDbEntity
  8
レイヤー_2
 62
     7
100
AcDbLine
 10
61.369553
 20
205.695283
 30
0.0
 11
61.337858
 21
205.66531
 31
0.0
  0
LINE
  5
355
100
AcDbEntity
  8
レイヤー_2
 62
     7
100
AcDbLine
 10
57.623356
 20
205.66531
 30
0.0
 11
57.591317
 21
205.695283
 31
0.0
  0
LINE
  5
354
100
AcDbEntity
  8
レイヤー_2
 62
     7
100
AcDbLine
 10
57.65574
 20
205.695283
 30
0.0
 11
57.623356
 21
205.66531
 31
0.0
  0
LINE
  5
353
100
AcDbEntity
  8
レイヤー_2
 62
     7
100
AcDbLine
 10
60.874148
 20
205.66531
 30
0.0
 11
60.841764
 21
205.695283
 31
0.0
  0
LINE
  5
352
100
AcDbEntity
  8
レイヤー_2
 62
     7
100
AcDbLine
 10
60.905154
 20
205.695283
 30
0.0
 11
60.874148
 21
205.66531
 31
0.0
  0
LINE
  5
351
100
AcDbEntity
  8
レイヤー_2
 62
     7
100
AcDbLine
 10
61.802257
 20
205.66531
 30
0.0
 11
61.770218
 21
205.695283
 31
0.0
  0
LINE
  5
350
100
AcDbEntity
  8
レイヤー_2
 62
     7
100
AcDbLine
 10
61.833607
 20
205.695283
 30
0.0
 11
61.802257
 21
205.66531
 31
0.0
  0
LINE
  5
34F
100
AcDbEntity
  8
レイヤー_2
 62
     7
100
AcDbLine
 10
59.016553
 20
205.66531
 30
0.0
 11
58.983824
 21
205.695283
 31
0.0
  0
LINE
  5
34E
100
AcDbEntity
  8
レイヤー_2
 62
     7
100
AcDbLine
 10
59.048592
 20
205.695283
 30
0.0
 11
59.016553
 21
205.66531
 31
0.0
  0
LINE
  5
34D
100
AcDbEntity
  8
レイヤー_2
 62
     7
100
AcDbLine
 10
58.087755
 20
205.66531
 30
0.0
 11
58.055371
 21
205.695283
 31
0.0
  0
LINE
  5
34C
100
AcDbEntity
  8
レイヤー_2
 62
     7
100
AcDbLine
 10
58.120139
 20
205.695283
 30
0.0
 11
58.087755
 21
205.66531
 31
0.0
  0
LINE
  5
34B
100
AcDbEntity
  8
レイヤー_2
 62
     7
100
AcDbLine
 10
57.150345
 20
205.663588
 30
0.0
 11
57.159302
 21
205.66531
 31
0.0
  0
LINE
  5
34A
100
AcDbEntity
  8
レイヤー_2
 62
     7
100
AcDbLine
 10
57.623356
 20
205.66531
 30
0.0
 11
57.632658
 21
205.663588
 31
0.0
  0
LINE
  5
349
100
AcDbEntity
  8
レイヤー_2
 62
     7
100
AcDbLine
 10
58.078798
 20
205.663588
 30
0.0
 11
58.087755
 21
205.66531
 31
0.0
  0
LINE
  5
348
100
AcDbEntity
  8
レイヤー_2
 62
     7
100
AcDbLine
 10
59.94535
 20
205.66531
 30
0.0
 11
59.953619
 21
205.663588
 31
0.0
  0
LINE
  5
347
100
AcDbEntity
  8
レイヤー_2
 62
     7
100
AcDbLine
 10
60.400448
 20
205.663588
 30
0.0
 11
60.40906
 21
205.66531
 31
0.0
  0
LINE
  5
346
100
AcDbEntity
  8
レイヤー_2
 62
     7
100
AcDbLine
 10
60.874148
 20
205.66531
 30
0.0
 11
60.882416
 21
205.663588
 31
0.0
  0
LINE
  5
345
100
AcDbEntity
  8
レイヤー_2
 62
     7
100
AcDbLine
 10
61.32959
 20
205.663588
 30
0.0
 11
61.337858
 21
205.66531
 31
0.0
  0
LINE
  5
344
100
AcDbEntity
  8
レイヤー_2
 62
     7
100
AcDbLine
 10
58.087755
 20
205.66531
 30
0.0
 11
58.097057
 21
205.663588
 31
0.0
  0
LINE
  5
343
100
AcDbEntity
  8
レイヤー_2
 62
     7
100
AcDbLine
 10
58.543197
 20
205.663588
 30
0.0
 11
58.552498
 21
205.66531
 31
0.0
  0
LINE
  5
342
100
AcDbEntity
  8
レイヤー_2
 62
     7
100
AcDbLine
 10
60.40906
 20
205.66531
 30
0.0
 11
60.417673
 21
205.663588
 31
0.0
  0
LINE
  5
341
100
AcDbEntity
  8
レイヤー_2
 62
     7
100
AcDbLine
 10
60.864846
 20
205.663588
 30
0.0
 11
60.874148
 21
205.66531
 31
0.0
  0
LINE
  5
340
100
AcDbEntity
  8
レイヤー_2
 62
     7
100
AcDbLine
 10
62.266311
 20
205.66531
 30
0.0
 11
62.275269
 21
205.663588
 31
0.0
  0
LINE
  5
33F
100
AcDbEntity
  8
レイヤー_2
 62
     7
100
AcDbLine
 10
62.721753
 20
205.663588
 30
0.0
 11
62.730366
 21
205.66531
 31
0.0
  0
LINE
  5
33E
100
AcDbEntity
  8
レイヤー_2
 62
     7
100
AcDbLine
 10
63.195109
 20
205.66531
 30
0.0
 11
63.203722
 21
205.663588
 31
0.0
  0
LINE
  5
33D
100
AcDbEntity
  8
レイヤー_2
 62
     7
100
AcDbLine
 10
58.552498
 20
205.66531
 30
0.0
 11
58.560767
 21
205.663588
 31
0.0
  0
LINE
  5
33C
100
AcDbEntity
  8
レイヤー_2
 62
     7
100
AcDbLine
 10
59.007595
 20
205.663588
 30
0.0
 11
59.016553
 21
205.66531
 31
0.0
  0
LINE
  5
33B
100
AcDbEntity
  8
レイヤー_2
 62
     7
100
AcDbLine
 10
62.730366
 20
205.66531
 30
0.0
 11
62.739667
 21
205.663588
 31
0.0
  0
LINE
  5
33A
100
AcDbEntity
  8
レイヤー_2
 62
     7
100
AcDbLine
 10
63.186152
 20
205.663588
 30
0.0
 11
63.195109
 21
205.66531
 31
0.0
  0
LINE
  5
339
100
AcDbEntity
  8
レイヤー_2
 62
     7
100
AcDbLine
 10
61.802257
 20
205.66531
 30
0.0
 11
61.811214
 21
205.663588
 31
0.0
  0
LINE
  5
338
100
AcDbEntity
  8
レイヤー_2
 62
     7
100
AcDbLine
 10
62.257699
 20
205.663588
 30
0.0
 11
62.266311
 21
205.66531
 31
0.0
  0
LINE
  5
337
100
AcDbEntity
  8
レイヤー_2
 62
     7
100
AcDbLine
 10
57.614743
 20
205.663588
 30
0.0
 11
57.623356
 21
205.66531
 31
0.0
  0
LINE
  5
336
100
AcDbEntity
  8
レイヤー_2
 62
     7
100
AcDbLine
 10
57.159302
 20
205.66531
 30
0.0
 11
57.168259
 21
205.663588
 31
0.0
  0
LINE
  5
335
100
AcDbEntity
  8
レイヤー_2
 62
     7
100
AcDbLine
 10
61.337858
 20
205.66531
 30
0.0
 11
61.346815
 21
205.663588
 31
0.0
  0
LINE
  5
334
100
AcDbEntity
  8
レイヤー_2
 62
     7
100
AcDbLine
 10
61.792955
 20
205.663588
 30
0.0
 11
61.802257
 21
205.66531
 31
0.0
  0
LINE
  5
333
100
AcDbEntity
  8
レイヤー_2
 62
     7
100
AcDbLine
 10
59.480952
 20
205.66531
 30
0.0
 11
59.489564
 21
205.663588
 31
0.0
  0
LINE
  5
332
100
AcDbEntity
  8
レイヤー_2
 62
     7
100
AcDbLine
 10
59.936393
 20
205.663588
 30
0.0
 11
59.94535
 21
205.66531
 31
0.0
  0
LINE
  5
331
100
AcDbEntity
  8
レイヤー_2
 62
     7
100
AcDbLine
 10
59.016553
 20
205.66531
 30
0.0
 11
59.025165
 21
205.663588
 31
0.0
  0
LINE
  5
330
100
AcDbEntity
  8
レイヤー_2
 62
     7
100
AcDbLine
 10
59.471994
 20
205.663588
 30
0.0
 11
59.480952
 21
205.66531
 31
0.0
  0
LINE
  5
32F
100
AcDbEntity
  8
レイヤー_2
 62
     7
100
AcDbLine
 10
57.124162
 20
205.663588
 30
0.0
 11
57.124851
 21
205.554034
 31
0.0
  0
POLYLINE
  5
327
100
AcDbEntity
  8
レイヤー_2
 62
     7
100
AcDb2dPolyline
 66
     1
 10
0.0
 20
0.0
 30
0.0
  0
VERTEX
  5
328
100
AcDbEntity
  8
レイヤー_2
 62
     7
100
AcDbVertex
100
AcDb2dVertex
 10
57.124851
 20
205.554034
 30
0.0
  0
VERTEX
  5
329
100
AcDbEntity
  8
レイヤー_2
 62
     7
100
AcDbVertex
100
AcDb2dVertex
 10
57.126918
 20
205.543009
 30
0.0
  0
VERTEX
  5
32A
100
AcDbEntity
  8
レイヤー_2
 62
     7
100
AcDbVertex
100
AcDb2dVertex
 10
57.13243
 20
205.534052
 30
0.0
  0
VERTEX
  5
32B
100
AcDbEntity
  8
レイヤー_2
 62
     7
100
AcDbVertex
100
AcDb2dVertex
 10
57.141387
 20
205.526128
 30
0.0
  0
VERTEX
  5
32C
100
AcDbEntity
  8
レイヤー_2
 62
     7
100
AcDbVertex
100
AcDb2dVertex
 10
57.152067
 20
205.52165
 30
0.0
  0
VERTEX
  5
32D
100
AcDbEntity
  8
レイヤー_2
 62
     7
100
AcDbVertex
100
AcDb2dVertex
 10
57.159302
 20
205.521305
 30
0.0
  0
SEQEND
  5
32E
100
AcDbEntity
  8
レイヤー_2
 62
     7
  0
LINE
  5
326
100
AcDbEntity
  8
レイヤー_2
 62
     7
100
AcDbLine
 10
57.159302
 20
205.448958
 30
0.0
 11
57.159302
 21
205.521305
 31
0.0
  0
LINE
  5
325
100
AcDbEntity
  8
レイヤー_2
 62
     7
100
AcDbLine
 10
59.514714
 20
205.606055
 30
0.0
 11
59.514714
 21
205.663588
 31
0.0
  0
SPLINE
  5
324
100
AcDbEntity
  8
レイヤー_2
 62
     7
100
AcDbSpline
210
0.0
220
0.0
230
1.0
 70
     8
 71
     3
 72
    11
 73
     7
 74
     0
 42
0.00000001
 43
0.00000001
 40
0.0
 40
0.0
 40
0.0
 40
0.0
 40
1.0
 40
1.0
 40
1.0
 40
2.0
 40
2.0
 40
2.0
 40
2.0
 10
59.446845160590271
 20
205.60605468749998
 30
0.0
 10
59.447189670138883
 20
205.58745117187499
 30
0.0
 10
59.462348090277771
 20
205.57263726128471
 30
0.0
 10
59.480951605902774
 20
205.57263726128471
 30
0.0
 10
59.49955512152777
 20
205.57263726128471
 30
0.0
 10
59.514369032118047
 20
205.58745117187499
 30
0.0
 10
59.514713541666659
 20
205.60605468749998
 30
0.0
  0
LINE
  5
323
100
AcDbEntity
  8
レイヤー_2
 62
     7
100
AcDbLine
 10
59.446845
 20
205.606055
 30
0.0
 11
59.446845
 21
205.663588
 31
0.0
  0
LINE
  5
322
100
AcDbEntity
  8
レイヤー_2
 62
     7
100
AcDbLine
 10
60.90791
 20
205.606055
 30
0.0
 11
60.90791
 21
205.663588
 31
0.0
  0
SPLINE
  5
321
100
AcDbEntity
  8
レイヤー_2
 62
     7
100
AcDbSpline
210
0.0
220
0.0
230
1.0
 70
     8
 71
     3
 72
    11
 73
     7
 74
     0
 42
0.00000001
 43
0.00000001
 40
0.0
 40
0.0
 40
0.0
 40
0.0
 40
1.0
 40
1.0
 40
1.0
 40
2.0
 40
2.0
 40
2.0
 40
2.0
 10
60.83935275607638
 20
205.60605468749998
 30
0.0
 10
60.840041775173603
 20
205.58745117187499
 30
0.0
 10
60.855544704861103
 20
205.57263726128471
 30
0.0
 10
60.874148220486106
 20
205.57263726128471
 30
0.0
 10
60.891718207465274
 20
205.57263726128471
 30
0.0
 10
60.906876627604163
 20
205.58745117187499
 30
0.0
 10
60.907910156249997
 20
205.60605468749998
 30
0.0
  0
LINE
  5
320
100
AcDbEntity
  8
レイヤー_2
 62
     7
100
AcDbLine
 10
60.839353
 20
205.606055
 30
0.0
 11
60.839353
 21
205.663588
 31
0.0
  0
LINE
  5
31F
100
AcDbEntity
  8
レイヤー_2
 62
     7
100
AcDbLine
 10
57.159302
 20
205.521305
 30
0.0
 11
57.159302
 21
205.572637
 31
0.0
  0
LINE
  5
31E
100
AcDbEntity
  8
レイヤー_2
 62
     7
100
AcDbLine
 10
57.124851
 20
205.554034
 30
0.0
 11
57.124851
 21
205.663588
 31
0.0
  0
LINE
  5
31D
100
AcDbEntity
  8
レイヤー_2
 62
     7
100
AcDbLine
 10
57.194097
 20
205.606055
 30
0.0
 11
57.194097
 21
205.663588
 31
0.0
  0
SPLINE
  5
31C
100
AcDbEntity
  8
レイヤー_2
 62
     7
100
AcDbSpline
210
0.0
220
0.0
230
1.0
 70
     8
 71
     3
 72
     8
 73
     4
 74
     0
 42
0.00000001
 43
0.00000001
 40
0.0
 40
0.0
 40
0.0
 40
0.0
 40
1.0
 40
1.0
 40
1.0
 40
1.0
 10
57.159301757812493
 20
205.57263726128471
 30
0.0
 10
57.177560763888884
 20
205.57263726128471
 30
0.0
 10
57.193063693576384
 20
205.58745117187499
 30
0.0
 10
57.193063693576384
 20
205.60605468749998
 30
0.0
  0
LINE
  5
31B
100
AcDbEntity
  8
レイヤー_2
 62
     7
100
AcDbLine
 10
59.978768
 20
205.606055
 30
0.0
 11
59.978768
 21
205.663588
 31
0.0
  0
SPLINE
  5
31A
100
AcDbEntity
  8
レイヤー_2
 62
     7
100
AcDbSpline
210
0.0
220
0.0
230
1.0
 70
     8
 71
     3
 72
    11
 73
     7
 74
     0
 42
0.00000001
 43
0.00000001
 40
0.0
 40
0.0
 40
0.0
 40
0.0
 40
1.0
 40
1.0
 40
1.0
 40
2.0
 40
2.0
 40
2.0
 40
2.0
 10
59.911244032118049
 20
205.60605468749998
 30
0.0
 10
59.911244032118049
 20
205.58745117187499
 30
0.0
 10
59.926057942708326
 20
205.57263726128471
 30
0.0
 10
59.945350477430551
 20
205.57263726128471
 30
0.0
 10
59.963953993055547
 20
205.57263726128471
 30
0.0
 10
59.978767903645824
 20
205.58745117187499
 30
0.0
 10
59.978767903645824
 20
205.60605468749998
 30
0.0
  0
LINE
  5
319
100
AcDbEntity
  8
レイヤー_2
 62
     7
100
AcDbLine
 10
59.911244
 20
205.606055
 30
0.0
 11
59.911244
 21
205.663588
 31
0.0
  0
LINE
  5
318
100
AcDbEntity
  8
レイヤー_2
 62
     7
100
AcDbLine
 10
58.122206
 20
205.606055
 30
0.0
 11
58.122206
 21
205.663588
 31
0.0
  0
SPLINE
  5
317
100
AcDbEntity
  8
レイヤー_2
 62
     7
100
AcDbSpline
210
0.0
220
0.0
230
1.0
 70
     8
 71
     3
 72
    11
 73
     7
 74
     0
 42
0.00000001
 43
0.00000001
 40
0.0
 40
0.0
 40
0.0
 40
0.0
 40
1.0
 40
1.0
 40
1.0
 40
2.0
 40
2.0
 40
2.0
 40
2.0
 10
58.053304036458329
 20
205.60605468749998
 30
0.0
 10
58.054682074652774
 20
205.58745117187499
 30
0.0
 10
58.069840494791663
 20
205.57263726128471
 30
0.0
 10
58.087754991319436
 20
205.57263726128471
 30
0.0
 10
58.106358506944439
 20
205.57263726128471
 30
0.0
 10
58.121172417534716
 20
205.58745117187499
 30
0.0
 10
58.12220594618055
 20
205.60605468749998
 30
0.0
  0
LINE
  5
316
100
AcDbEntity
  8
レイヤー_2
 62
     7
100
AcDbLine
 10
58.053304
 20
205.606055
 30
0.0
 11
58.053304
 21
205.663588
 31
0.0
  0
LINE
  5
315
100
AcDbEntity
  8
レイヤー_2
 62
     7
100
AcDbLine
 10
62.765161
 20
205.606055
 30
0.0
 11
62.765161
 21
205.663588
 31
0.0
  0
SPLINE
  5
314
100
AcDbEntity
  8
レイヤー_2
 62
     7
100
AcDbSpline
210
0.0
220
0.0
230
1.0
 70
     8
 71
     3
 72
    11
 73
     7
 74
     0
 42
0.00000001
 43
0.00000001
 40
0.0
 40
0.0
 40
0.0
 40
0.0
 40
1.0
 40
1.0
 40
1.0
 40
2.0
 40
2.0
 40
2.0
 40
2.0
 10
62.696603732638884
 20
205.60605468749998
 30
0.0
 10
62.697292751736107
 20
205.58745117187499
 30
0.0
 10
62.712451171874996
 20
205.57263726128471
 30
0.0
 10
62.730365668402769
 20
205.57263726128471
 30
0.0
 10
62.748969184027771
 20
205.57263726128471
 30
0.0
 10
62.76412760416666
 20
205.58745117187499
 30
0.0
 10
62.765161132812494
 20
205.60605468749998
 30
0.0
  0
LINE
  5
313
100
AcDbEntity
  8
レイヤー_2
 62
     7
100
AcDbLine
 10
62.696604
 20
205.606055
 30
0.0
 11
62.696604
 21
205.663588
 31
0.0
  0
LINE
  5
312
100
AcDbEntity
  8
レイヤー_2
 62
     7
100
AcDbLine
 10
61.371965
 20
205.606055
 30
0.0
 11
61.371965
 21
205.663588
 31
0.0
  0
SPLINE
  5
311
100
AcDbEntity
  8
レイヤー_2
 62
     7
100
AcDbSpline
210
0.0
220
0.0
230
1.0
 70
     8
 71
     3
 72
    11
 73
     7
 74
     0
 42
0.00000001
 43
0.00000001
 40
0.0
 40
0.0
 40
0.0
 40
0.0
 40
1.0
 40
1.0
 40
1.0
 40
2.0
 40
2.0
 40
2.0
 40
2.0
 10
61.304096137152776
 20
205.60605468749998
 30
0.0
 10
61.304096137152776
 20
205.58745117187499
 30
0.0
 10
61.318910047743053
 20
205.57263726128471
 30
0.0
 10
61.33785807291666
 20
205.57263726128471
 30
0.0
 10
61.356461588541663
 20
205.57263726128471
 30
0.0
 10
61.371964518229163
 20
205.58745117187499
 30
0.0
 10
61.371964518229163
 20
205.60605468749998
 30
0.0
  0
LINE
  5
310
100
AcDbEntity
  8
レイヤー_2
 62
     7
100
AcDbLine
 10
61.304096
 20
205.606055
 30
0.0
 11
61.304096
 21
205.663588
 31
0.0
  0
LINE
  5
30F
100
AcDbEntity
  8
レイヤー_2
 62
     7
100
AcDbLine
 10
57.657807
 20
205.606055
 30
0.0
 11
57.657807
 21
205.663588
 31
0.0
  0
SPLINE
  5
30E
100
AcDbEntity
  8
レイヤー_2
 62
     7
100
AcDbSpline
210
0.0
220
0.0
230
1.0
 70
     8
 71
     3
 72
    11
 73
     7
 74
     0
 42
0.00000001
 43
0.00000001
 40
0.0
 40
0.0
 40
0.0
 40
0.0
 40
1.0
 40
1.0
 40
1.0
 40
2.0
 40
2.0
 40
2.0
 40
2.0
 10
57.589249674479163
 20
205.60605468749998
 30
0.0
 10
57.589938693576386
 20
205.58745117187499
 30
0.0
 10
57.605441623263886
 20
205.57263726128471
 30
0.0
 10
57.623356119791659
 20
205.57263726128471
 30
0.0
 10
57.641959635416661
 20
205.57263726128471
 30
0.0
 10
57.65711805555555
 20
205.58745117187499
 30
0.0
 10
57.657807074652773
 20
205.60605468749998
 30
0.0
  0
LINE
  5
30D
100
AcDbEntity
  8
レイヤー_2
 62
     7
100
AcDbLine
 10
57.58925
 20
205.606055
 30
0.0
 11
57.58925
 21
205.663588
 31
0.0
  0
LINE
  5
30C
100
AcDbEntity
  8
レイヤー_2
 62
     7
100
AcDbLine
 10
61.836363
 20
205.606055
 30
0.0
 11
61.836363
 21
205.663588
 31
0.0
  0
SPLINE
  5
30B
100
AcDbEntity
  8
レイヤー_2
 62
     7
100
AcDbSpline
210
0.0
220
0.0
230
1.0
 70
     8
 71
     3
 72
    11
 73
     7
 74
     0
 42
0.00000001
 43
0.00000001
 40
0.0
 40
0.0
 40
0.0
 40
0.0
 40
1.0
 40
1.0
 40
1.0
 40
2.0
 40
2.0
 40
2.0
 40
2.0
 10
61.76780598958333
 20
205.60605468749998
 30
0.0
 10
61.768495008680553
 20
205.58745117187499
 30
0.0
 10
61.783653428819441
 20
205.57263726128471
 30
0.0
 10
61.802256944444437
 20
205.57263726128471
 30
0.0
 10
61.820171440972217
 20
205.57263726128471
 30
0.0
 10
61.835329861111106
 20
205.58745117187499
 30
0.0
 10
61.83636338975694
 20
205.60605468749998
 30
0.0
  0
LINE
  5
30A
100
AcDbEntity
  8
レイヤー_2
 62
     7
100
AcDbLine
 10
61.767806
 20
205.606055
 30
0.0
 11
61.767806
 21
205.663588
 31
0.0
  0
LINE
  5
309
100
AcDbEntity
  8
レイヤー_2
 62
     7
100
AcDbLine
 10
60.443167
 20
205.606055
 30
0.0
 11
60.443167
 21
205.663588
 31
0.0
  0
SPLINE
  5
308
100
AcDbEntity
  8
レイヤー_2
 62
     7
100
AcDbSpline
210
0.0
220
0.0
230
1.0
 70
     8
 71
     3
 72
    11
 73
     7
 74
     0
 42
0.00000001
 43
0.00000001
 40
0.0
 40
0.0
 40
0.0
 40
0.0
 40
1.0
 40
1.0
 40
1.0
 40
2.0
 40
2.0
 40
2.0
 40
2.0
 10
60.375298394097214
 20
205.60605468749998
 30
0.0
 10
60.375298394097214
 20
205.58745117187499
 30
0.0
 10
60.390456814236103
 20
205.57263726128471
 30
0.0
 10
60.409060329861106
 20
205.57263726128471
 30
0.0
 10
60.427663845486109
 20
205.57263726128471
 30
0.0
 10
60.443166775173609
 20
205.58745117187499
 30
0.0
 10
60.443166775173609
 20
205.60605468749998
 30
0.0
  0
LINE
  5
307
100
AcDbEntity
  8
レイヤー_2
 62
     7
100
AcDbLine
 10
60.375298
 20
205.606055
 30
0.0
 11
60.375298
 21
205.663588
 31
0.0
  0
LINE
  5
306
100
AcDbEntity
  8
レイヤー_2
 62
     7
100
AcDbLine
 10
58.58626
 20
205.606055
 30
0.0
 11
58.58626
 21
205.663588
 31
0.0
  0
SPLINE
  5
305
100
AcDbEntity
  8
レイヤー_2
 62
     7
100
AcDbSpline
210
0.0
220
0.0
230
1.0
 70
     8
 71
     3
 72
    11
 73
     7
 74
     0
 42
0.00000001
 43
0.00000001
 40
0.0
 40
0.0
 40
0.0
 40
0.0
 40
1.0
 40
1.0
 40
1.0
 40
2.0
 40
2.0
 40
2.0
 40
2.0
 10
58.517702907986106
 20
205.60605468749998
 30
0.0
 10
58.518391927083329
 20
205.58745117187499
 30
0.0
 10
58.533894856770829
 20
205.57263726128471
 30
0.0
 10
58.552498372395831
 20
205.57263726128471
 30
0.0
 10
58.570757378472216
 20
205.57263726128471
 30
0.0
 10
58.585915798611104
 20
205.58745117187499
 30
0.0
 10
58.586260308159716
 20
205.60605468749998
 30
0.0
  0
LINE
  5
304
100
AcDbEntity
  8
レイヤー_2
 62
     7
100
AcDbLine
 10
58.517703
 20
205.606055
 30
0.0
 11
58.517703
 21
205.663588
 31
0.0
  0
LINE
  5
303
100
AcDbEntity
  8
レイヤー_2
 62
     7
100
AcDbLine
 10
59.050659
 20
205.606055
 30
0.0
 11
59.050659
 21
205.663588
 31
0.0
  0
SPLINE
  5
302
100
AcDbEntity
  8
レイヤー_2
 62
     7
100
AcDbSpline
210
0.0
220
0.0
230
1.0
 70
     8
 71
     3
 72
    11
 73
     7
 74
     0
 42
0.00000001
 43
0.00000001
 40
0.0
 40
0.0
 40
0.0
 40
0.0
 40
1.0
 40
1.0
 40
1.0
 40
2.0
 40
2.0
 40
2.0
 40
2.0
 10
58.982446289062494
 20
205.60605468749998
 30
0.0
 10
58.983135308159717
 20
205.58745117187499
 30
0.0
 10
58.998293728298606
 20
205.57263726128471
 30
0.0
 10
59.016552734374997
 20
205.57263726128471
 30
0.0
 10
59.035500759548604
 20
205.57263726128471
 30
0.0
 10
59.04997016059027
 20
205.58745117187499
 30
0.0
 10
59.050659179687493
 20
205.60605468749998
 30
0.0
  0
LINE
  5
301
100
AcDbEntity
  8
レイヤー_2
 62
     7
100
AcDbLine
 10
58.982446
 20
205.606055
 30
0.0
 11
58.982446
 21
205.663588
 31
0.0
  0
LINE
  5
300
100
AcDbEntity
  8
レイヤー_2
 62
     7
100
AcDbLine
 10
63.228871
 20
205.606055
 30
0.0
 11
63.228871
 21
205.663588
 31
0.0
  0
SPLINE
  5
2FF
100
AcDbEntity
  8
レイヤー_2
 62
     7
100
AcDbSpline
210
0.0
220
0.0
230
1.0
 70
     8
 71
     3
 72
    11
 73
     7
 74
     0
 42
0.00000001
 43
0.00000001
 40
0.0
 40
0.0
 40
0.0
 40
0.0
 40
1.0
 40
1.0
 40
1.0
 40
2.0
 40
2.0
 40
2.0
 40
2.0
 10
63.161002604166661
 20
205.60605468749998
 30
0.0
 10
63.161347113715273
 20
205.58745117187499
 30
0.0
 10
63.176505533854161
 20
205.57263726128471
 30
0.0
 10
63.195109049479164
 20
205.57263726128471
 30
0.0
 10
63.213368055555549
 20
205.57263726128471
 30
0.0
 10
63.228526475694437
 20
205.58745117187499
 30
0.0
 10
63.228870985243049
 20
205.60605468749998
 30
0.0
  0
LINE
  5
2FE
100
AcDbEntity
  8
レイヤー_2
 62
     7
100
AcDbLine
 10
63.161003
 20
205.606055
 30
0.0
 11
63.161003
 21
205.663588
 31
0.0
  0
LINE
  5
2FD
100
AcDbEntity
  8
レイヤー_2
 62
     7
100
AcDbLine
 10
62.300762
 20
205.606055
 30
0.0
 11
62.300762
 21
205.663588
 31
0.0
  0
SPLINE
  5
2FC
100
AcDbEntity
  8
レイヤー_2
 62
     7
100
AcDbSpline
210
0.0
220
0.0
230
1.0
 70
     8
 71
     3
 72
    11
 73
     7
 74
     0
 42
0.00000001
 43
0.00000001
 40
0.0
 40
0.0
 40
0.0
 40
0.0
 40
1.0
 40
1.0
 40
1.0
 40
2.0
 40
2.0
 40
2.0
 40
2.0
 10
62.232549370659719
 20
205.60605468749998
 30
0.0
 10
62.23289388020833
 20
205.58745117187499
 30
0.0
 10
62.248052300347219
 20
205.57263726128471
 30
0.0
 10
62.266311306423603
 20
205.57263726128471
 30
0.0
 10
62.284914822048606
 20
205.57263726128471
 30
0.0
 10
62.300073242187494
 20
205.58745117187499
 30
0.0
 10
62.300762261284717
 20
205.60605468749998
 30
0.0
  0
LINE
  5
2FB
100
AcDbEntity
  8
レイヤー_2
 62
     7
100
AcDbLine
 10
62.232549
 20
205.606055
 30
0.0
 11
62.232549
 21
205.663588
 31
0.0
  0
LINE
  5
2FA
100
AcDbEntity
  8
レイヤー_2
 62
     7
100
AcDbLine
 10
59.445812
 20
205.663588
 30
0.0
 11
59.446845
 21
205.606055
 31
0.0
  0
LINE
  5
2F9
100
AcDbEntity
  8
レイヤー_2
 62
     7
100
AcDbLine
 10
63.160314
 20
205.663588
 30
0.0
 11
63.161003
 21
205.606055
 31
0.0
  0
LINE
  5
2F8
100
AcDbEntity
  8
レイヤー_2
 62
     7
100
AcDbLine
 10
60.374609
 20
205.663588
 30
0.0
 11
60.375298
 21
205.606055
 31
0.0
  0
LINE
  5
2F7
100
AcDbEntity
  8
レイヤー_2
 62
     7
100
AcDbLine
 10
61.303407
 20
205.663588
 30
0.0
 11
61.304096
 21
205.606055
 31
0.0
  0
LINE
  5
2F6
100
AcDbEntity
  8
レイヤー_2
 62
     7
100
AcDbLine
 10
59.910211
 20
205.663588
 30
0.0
 11
59.911244
 21
205.606055
 31
0.0
  0
LINE
  5
2F5
100
AcDbEntity
  8
レイヤー_2
 62
     7
100
AcDbLine
 10
60.838319
 20
205.663588
 30
0.0
 11
60.839353
 21
205.606055
 31
0.0
  0
LINE
  5
2F4
100
AcDbEntity
  8
レイヤー_2
 62
     7
100
AcDbLine
 10
57.58925
 20
205.663588
 30
0.0
 11
57.58925
 21
205.606055
 31
0.0
  0
LINE
  5
2F3
100
AcDbEntity
  8
レイヤー_2
 62
     7
100
AcDbLine
 10
58.517358
 20
205.663588
 30
0.0
 11
58.517703
 21
205.606055
 31
0.0
  0
LINE
  5
2F2
100
AcDbEntity
  8
レイヤー_2
 62
     7
100
AcDbLine
 10
58.05296
 20
205.663588
 30
0.0
 11
58.053304
 21
205.606055
 31
0.0
  0
LINE
  5
2F1
100
AcDbEntity
  8
レイヤー_2
 62
     7
100
AcDbLine
 10
61.767806
 20
205.663588
 30
0.0
 11
61.767806
 21
205.606055
 31
0.0
  0
LINE
  5
2F0
100
AcDbEntity
  8
レイヤー_2
 62
     7
100
AcDbLine
 10
62.696604
 20
205.663588
 30
0.0
 11
62.696604
 21
205.606055
 31
0.0
  0
LINE
  5
2EF
100
AcDbEntity
  8
レイヤー_2
 62
     7
100
AcDbLine
 10
58.981757
 20
205.663588
 30
0.0
 11
58.982446
 21
205.606055
 31
0.0
  0
LINE
  5
2EE
100
AcDbEntity
  8
レイヤー_2
 62
     7
100
AcDbLine
 10
62.231516
 20
205.663588
 30
0.0
 11
62.232549
 21
205.606055
 31
0.0
  0
LINE
  5
2ED
100
AcDbEntity
  8
レイヤー_2
 62
     7
100
AcDbLine
 10
59.514714
 20
205.606055
 30
0.0
 11
59.515058
 21
205.663588
 31
0.0
  0
LINE
  5
2EC
100
AcDbEntity
  8
レイヤー_2
 62
     7
100
AcDbLine
 10
60.443167
 20
205.606055
 30
0.0
 11
60.4442
 21
205.663588
 31
0.0
  0
LINE
  5
2EB
100
AcDbEntity
  8
レイヤー_2
 62
     7
100
AcDbLine
 10
59.050659
 20
205.606055
 30
0.0
 11
59.050659
 21
205.663588
 31
0.0
  0
LINE
  5
2EA
100
AcDbEntity
  8
レイヤー_2
 62
     7
100
AcDbLine
 10
62.300762
 20
205.606055
 30
0.0
 11
62.301107
 21
205.663588
 31
0.0
  0
LINE
  5
2E9
100
AcDbEntity
  8
レイヤー_2
 62
     7
100
AcDbLine
 10
61.836363
 20
205.606055
 30
0.0
 11
61.836708
 21
205.663588
 31
0.0
  0
LINE
  5
2E8
100
AcDbEntity
  8
レイヤー_2
 62
     7
100
AcDbLine
 10
58.122206
 20
205.606055
 30
0.0
 11
58.122895
 21
205.663588
 31
0.0
  0
LINE
  5
2E7
100
AcDbEntity
  8
レイヤー_2
 62
     7
100
AcDbLine
 10
62.765161
 20
205.606055
 30
0.0
 11
62.765161
 21
205.663588
 31
0.0
  0
LINE
  5
2E6
100
AcDbEntity
  8
レイヤー_2
 62
     7
100
AcDbLine
 10
61.371965
 20
205.606055
 30
0.0
 11
61.372654
 21
205.663588
 31
0.0
  0
LINE
  5
2E5
100
AcDbEntity
  8
レイヤー_2
 62
     7
100
AcDbLine
 10
59.978768
 20
205.606055
 30
0.0
 11
59.979457
 21
205.663588
 31
0.0
  0
LINE
  5
2E4
100
AcDbEntity
  8
レイヤー_2
 62
     7
100
AcDbLine
 10
57.657807
 20
205.606055
 30
0.0
 11
57.658496
 21
205.663588
 31
0.0
  0
LINE
  5
2E3
100
AcDbEntity
  8
レイヤー_2
 62
     7
100
AcDbLine
 10
60.90791
 20
205.606055
 30
0.0
 11
60.908255
 21
205.663588
 31
0.0
  0
LINE
  5
2E2
100
AcDbEntity
  8
レイヤー_2
 62
     7
100
AcDbLine
 10
57.194097
 20
205.663588
 30
0.0
 11
57.194097
 21
205.606055
 31
0.0
  0
LINE
  5
2E1
100
AcDbEntity
  8
レイヤー_2
 62
     7
100
AcDbLine
 10
58.58626
 20
205.606055
 30
0.0
 11
58.58626
 21
205.663588
 31
0.0
  0
LINE
  5
2E0
100
AcDbEntity
  8
レイヤー_2
 62
     7
100
AcDbLine
 10
63.228871
 20
205.606055
 30
0.0
 11
63.229905
 21
205.663588
 31
0.0
  0
LINE
  5
2DF
100
AcDbEntity
  8
レイヤー_2
 62
     7
100
AcDbLine
 10
63.608865
 20
205.572637
 30
0.0
 11
63.608865
 21
205.50029
 31
0.0
  0
LINE
  5
2DE
100
AcDbEntity
  8
レイヤー_2
 62
     7
100
AcDbLine
 10
57.209256
 20
205.50029
 30
0.0
 11
57.209256
 21
205.572637
 31
0.0
  0
LINE
  5
2DD
100
AcDbEntity
  8
レイヤー_2
 62
     7
100
AcDbLine
 10
57.159302
 20
205.572637
 30
0.0
 11
57.209256
 21
205.572637
 31
0.0
  0
LINE
  5
2DC
100
AcDbEntity
  8
レイヤー_2
 62
     7
100
AcDbLine
 10
57.159302
 20
205.521305
 30
0.0
 11
57.209256
 21
205.521305
 31
0.0
  0
LINE
  5
2DB
100
AcDbEntity
  8
レイヤー_2
 62
     7
100
AcDbLine
 10
58.397125
 20
205.399693
 30
0.0
 11
58.384378
 21
205.415541
 31
0.0
  0
LINE
  5
2DA
100
AcDbEntity
  8
レイヤー_2
 62
     7
100
AcDbLine
 10
58.384378
 20
205.415541
 30
0.0
 11
58.384378
 21
205.461705
 31
0.0
  0
LINE
  5
2D9
100
AcDbEntity
  8
レイヤー_2
 62
     7
100
AcDbLine
 10
60.046636
 20
205.399693
 30
0.0
 11
60.034234
 21
205.415541
 31
0.0
  0
LINE
  5
2D8
100
AcDbEntity
  8
レイヤー_2
 62
     7
100
AcDbLine
 10
60.034234
 20
205.415541
 30
0.0
 11
60.034234
 21
205.461705
 31
0.0
  0
LINE
  5
2D7
100
AcDbEntity
  8
レイヤー_2
 62
     7
100
AcDbLine
 10
58.534239
 20
205.461705
 30
0.0
 11
58.534239
 21
205.415541
 31
0.0
  0
LINE
  5
2D6
100
AcDbEntity
  8
レイヤー_2
 62
     7
100
AcDbLine
 10
58.534239
 20
205.415541
 30
0.0
 11
58.521493
 21
205.399693
 31
0.0
  0
LINE
  5
2D5
100
AcDbEntity
  8
レイヤー_2
 62
     7
100
AcDbLine
 10
63.472095
 20
205.399693
 30
0.0
 11
63.459348
 21
205.415541
 31
0.0
  0
LINE
  5
2D4
100
AcDbEntity
  8
レイヤー_2
 62
     7
100
AcDbLine
 10
63.459348
 20
205.415541
 30
0.0
 11
63.459348
 21
205.461705
 31
0.0
  0
LINE
  5
2D3
100
AcDbEntity
  8
レイヤー_2
 62
     7
100
AcDbLine
 10
62.296973
 20
205.399693
 30
0.0
 11
62.28457
 21
205.415541
 31
0.0
  0
LINE
  5
2D2
100
AcDbEntity
  8
レイヤー_2
 62
     7
100
AcDbLine
 10
62.28457
 20
205.415541
 30
0.0
 11
62.28457
 21
205.461705
 31
0.0
  0
LINE
  5
2D1
100
AcDbEntity
  8
レイヤー_2
 62
     7
100
AcDbLine
 10
62.434087
 20
205.461705
 30
0.0
 11
62.434087
 21
205.415541
 31
0.0
  0
LINE
  5
2D0
100
AcDbEntity
  8
レイヤー_2
 62
     7
100
AcDbLine
 10
62.434087
 20
205.415541
 30
0.0
 11
62.421685
 21
205.399693
 31
0.0
  0
LINE
  5
2CF
100
AcDbEntity
  8
レイヤー_2
 62
     7
100
AcDbLine
 10
60.784231
 20
205.461705
 30
0.0
 11
60.784231
 21
205.415541
 31
0.0
  0
LINE
  5
2CE
100
AcDbEntity
  8
レイヤー_2
 62
     7
100
AcDbLine
 10
60.784231
 20
205.415541
 30
0.0
 11
60.771484
 21
205.399693
 31
0.0
  0
LINE
  5
2CD
100
AcDbEntity
  8
レイヤー_2
 62
     7
100
AcDbLine
 10
60.646772
 20
205.399693
 30
0.0
 11
60.634025
 21
205.415541
 31
0.0
  0
LINE
  5
2CC
100
AcDbEntity
  8
レイヤー_2
 62
     7
100
AcDbLine
 10
60.634025
 20
205.415541
 30
0.0
 11
60.634025
 21
205.461705
 31
0.0
  0
LINE
  5
2CB
100
AcDbEntity
  8
レイヤー_2
 62
     7
100
AcDbLine
 10
60.18444
 20
205.461705
 30
0.0
 11
60.18444
 21
205.415541
 31
0.0
  0
LINE
  5
2CA
100
AcDbEntity
  8
レイヤー_2
 62
     7
100
AcDbLine
 10
60.18444
 20
205.415541
 30
0.0
 11
60.171693
 21
205.399693
 31
0.0
  0
SPLINE
  5
2C9
100
AcDbEntity
  8
レイヤー_2
 62
     7
100
AcDbSpline
210
0.0
220
0.0
230
1.0
 70
     8
 71
     3
 72
    20
 73
    16
 74
     0
 42
0.00000001
 43
0.00000001
 40
0.0
 40
0.0
 40
0.0
 40
0.0
 40
1.0
 40
1.0
 40
1.0
 40
2.0
 40
2.0
 40
2.0
 40
3.0
 40
3.0
 40
3.0
 40
4.0
 40
4.0
 40
4.0
 40
5.0
 40
5.0
 40
5.0
 40
5.0
 10
60.409060329861106
 20
206.04495985243054
 30
0.0
 10
59.990481228298606
 20
206.03979220920138
 30
0.0
 10
59.571557617187494
 20
206.03496907552082
 30
0.0
 10
59.159179687499993
 20
206.01705457899303
 30
0.0
 10
58.887361653645826
 20
206.00534125434027
 30
0.0
 10
58.617955186631939
 20
205.98811577690969
 30
0.0
 10
58.356472439236107
 20
205.96641167534722
 30
0.0
 10
58.08878851996527
 20
205.94436306423609
 30
0.0
 10
57.829028320312496
 20
205.91714680989583
 30
0.0
 10
57.575124782986109
 20
205.88510742187498
 30
0.0
 10
57.28504774305555
 20
205.8482449001736
 30
0.0
 10
57.00358344184027
 20
205.80449218749999
 30
0.0
 10
56.77586263020833
 20
205.74661458333333
 30
0.0
 10
56.63392469618055
 20
205.71009657118054
 30
0.0
 10
56.513346354166664
 20
205.66944444444442
 30
0.0
 10
56.392078993055549
 20
205.62810329861108
 30
0.0
  0
SPLINE
  5
2C8
100
AcDbEntity
  8
レイヤー_2
 62
     7
100
AcDbSpline
210
0.0
220
0.0
230
1.0
 70
     8
 71
     3
 72
    41
 73
    37
 74
     0
 42
0.00000001
 43
0.00000001
 40
0.0
 40
0.0
 40
0.0
 40
0.0
 40
1.0
 40
1.0
 40
1.0
 40
2.0
 40
2.0
 40
2.0
 40
3.0
 40
3.0
 40
3.0
 40
4.0
 40
4.0
 40
4.0
 40
5.0
 40
5.0
 40
5.0
 40
6.0
 40
6.0
 40
6.0
 40
7.0
 40
7.0
 40
7.0
 40
8.0
 40
8.0
 40
8.0
 40
9.0
 40
9.0
 40
9.0
 40
10.0
 40
10.0
 40
10.0
 40
11.0
 40
11.0
 40
11.0
 40
12.0
 40
12.0
 40
12.0
 40
12.0
 10
56.612220594618051
 20
205.1351101345486
 30
0.0
 10
56.632202148437493
 20
205.12753092447915
 30
0.0
 10
56.652183702256941
 20
205.12098524305554
 30
0.0
 10
56.673198784722217
 20
205.11409505208331
 30
0.0
 10
56.784130859374997
 20
205.07861056857638
 30
0.0
 10
56.932614474826387
 20
205.05139431423609
 30
0.0
 10
57.082476128472216
 20
205.02590060763887
 30
0.0
 10
57.23612738715277
 20
204.99971788194443
 30
0.0
 10
57.38943413628472
 20
204.97525770399304
 30
0.0
 10
57.549975585937496
 20
204.95355360243053
 30
0.0
 10
57.813180881076384
 20
204.9180691189236
 30
0.0
 10
58.09361165364583
 20
204.88947482638886
 30
0.0
 10
58.378865559895829
 20
204.86742621527776
 30
0.0
 10
58.672387695312494
 20
204.84365505642359
 30
0.0
 10
58.971077473958331
 20
204.82574055989582
 30
0.0
 10
59.272867838541664
 20
204.81299370659721
 30
0.0
 10
59.57534722222222
 20
204.79990234374998
 30
0.0
 10
59.880927191840271
 20
204.79266764322915
 30
0.0
 10
60.186851671006941
 20
204.79094509548608
 30
0.0
 10
60.498632812499991
 20
204.78853352864581
 30
0.0
 10
60.810413953993049
 20
204.79094509548608
 30
0.0
 10
61.12081705729166
 20
204.79886881510416
 30
0.0
 10
61.482896592881936
 20
204.80817057291665
 30
0.0
 10
61.842564561631939
 20
204.82401801215275
 30
0.0
 10
62.19534233940972
 20
204.84882269965277
 30
0.0
 10
62.558110894097219
 20
204.87362738715277
 30
0.0
 10
62.913644748263884
 20
204.90704481336803
 30
0.0
 10
63.248852539062497
 20
204.95114203559027
 30
0.0
 10
63.496210394965274
 20
204.98387044270831
 30
0.0
 10
63.73185492621527
 20
205.02176649305554
 30
0.0
 10
63.946484374999997
 20
205.06758626302081
 30
0.0
 10
64.053971354166663
 20
205.08997938368054
 30
0.0
 10
64.155601671006934
 20
205.11409505208331
 30
0.0
 10
64.245863172743043
 20
205.1413113064236
 30
0.0
 10
64.338191731770834
 20
205.16921657986109
 30
0.0
 10
64.417773437499989
 20
205.19987792968749
 30
0.0
 10
64.497699652777769
 20
205.23019476996527
 30
0.0
  0
LINE
  5
2C7
100
AcDbEntity
  8
レイヤー_2
 62
     7
100
AcDbLine
 10
64.481163
 20
205.482031
 30
0.0
 11
64.481163
 21
205.352496
 31
0.0
  0
POLYLINE
  5
2BC
100
AcDbEntity
  8
レイヤー_2
 62
     7
100
AcDb2dPolyline
 66
     1
 10
0.0
 20
0.0
 30
0.0
  0
VERTEX
  5
2BD
100
AcDbEntity
  8
レイヤー_2
 62
     7
100
AcDbVertex
100
AcDb2dVertex
 10
63.659163
 20
205.695283
 30
0.0
  0
VERTEX
  5
2BE
100
AcDbEntity
  8
レイヤー_2
 62
     7
100
AcDbVertex
100
AcDb2dVertex
 10
63.820049
 20
205.690804
 30
0.0
  0
VERTEX
  5
2BF
100
AcDbEntity
  8
レイヤー_2
 62
     7
100
AcDbVertex
100
AcDb2dVertex
 10
63.973701
 20
205.678746
 30
0.0
  0
VERTEX
  5
2C0
100
AcDbEntity
  8
レイヤー_2
 62
     7
100
AcDbVertex
100
AcDb2dVertex
 10
64.115983
 20
205.658765
 30
0.0
  0
VERTEX
  5
2C1
100
AcDbEntity
  8
レイヤー_2
 62
     7
100
AcDbVertex
100
AcDb2dVertex
 10
64.240696
 20
205.632237
 30
0.0
  0
VERTEX
  5
2C2
100
AcDbEntity
  8
レイヤー_2
 62
     7
100
AcDbVertex
100
AcDb2dVertex
 10
64.343359
 20
205.600543
 30
0.0
  0
VERTEX
  5
2C3
100
AcDbEntity
  8
レイヤー_2
 62
     7
100
AcDbVertex
100
AcDb2dVertex
 10
64.418462
 20
205.56368
 30
0.0
  0
VERTEX
  5
2C4
100
AcDbEntity
  8
レイヤー_2
 62
     7
100
AcDbVertex
100
AcDb2dVertex
 10
64.46566
 20
205.523717
 30
0.0
  0
VERTEX
  5
2C5
100
AcDbEntity
  8
レイヤー_2
 62
     7
100
AcDbVertex
100
AcDb2dVertex
 10
64.481163
 20
205.482031
 30
0.0
  0
SEQEND
  5
2C6
100
AcDbEntity
  8
レイヤー_2
 62
     7
  0
LINE
  5
2BB
100
AcDbEntity
  8
レイヤー_2
 62
     7
100
AcDbLine
 10
57.159302
 20
205.695283
 30
0.0
 11
63.659163
 21
205.695283
 31
0.0
  0
POLYLINE
  5
2B0
100
AcDbEntity
  8
レイヤー_2
 62
     7
100
AcDb2dPolyline
 66
     1
 10
0.0
 20
0.0
 30
0.0
  0
VERTEX
  5
2B1
100
AcDbEntity
  8
レイヤー_2
 62
     7
100
AcDbVertex
100
AcDb2dVertex
 10
56.336957
 20
205.482031
 30
0.0
  0
VERTEX
  5
2B2
100
AcDbEntity
  8
レイヤー_2
 62
     7
100
AcDbVertex
100
AcDb2dVertex
 10
56.352805
 20
205.523717
 30
0.0
  0
VERTEX
  5
2B3
100
AcDbEntity
  8
レイヤー_2
 62
     7
100
AcDbVertex
100
AcDb2dVertex
 10
56.400347
 20
205.56368
 30
0.0
  0
VERTEX
  5
2B4
100
AcDbEntity
  8
レイヤー_2
 62
     7
100
AcDbVertex
100
AcDb2dVertex
 10
56.47545
 20
205.600543
 30
0.0
  0
VERTEX
  5
2B5
100
AcDbEntity
  8
レイヤー_2
 62
     7
100
AcDbVertex
100
AcDb2dVertex
 10
56.577425
 20
205.632237
 30
0.0
  0
VERTEX
  5
2B6
100
AcDbEntity
  8
レイヤー_2
 62
     7
100
AcDbVertex
100
AcDb2dVertex
 10
56.702482
 20
205.658765
 30
0.0
  0
VERTEX
  5
2B7
100
AcDbEntity
  8
レイヤー_2
 62
     7
100
AcDbVertex
100
AcDb2dVertex
 10
56.844765
 20
205.678746
 30
0.0
  0
VERTEX
  5
2B8
100
AcDbEntity
  8
レイヤー_2
 62
     7
100
AcDbVertex
100
AcDb2dVertex
 10
56.99876
 20
205.690804
 30
0.0
  0
VERTEX
  5
2B9
100
AcDbEntity
  8
レイヤー_2
 62
     7
100
AcDbVertex
100
AcDb2dVertex
 10
57.159302
 20
205.695283
 30
0.0
  0
SEQEND
  5
2BA
100
AcDbEntity
  8
レイヤー_2
 62
     7
  0
LINE
  5
2AF
100
AcDbEntity
  8
レイヤー_2
 62
     7
100
AcDbLine
 10
56.336957
 20
205.352496
 30
0.0
 11
56.336957
 21
205.482031
 31
0.0
  0
POLYLINE
  5
2A4
100
AcDbEntity
  8
レイヤー_2
 62
     7
100
AcDb2dPolyline
 66
     1
 10
0.0
 20
0.0
 30
0.0
  0
VERTEX
  5
2A5
100
AcDbEntity
  8
レイヤー_2
 62
     7
100
AcDbVertex
100
AcDb2dVertex
 10
57.159302
 20
205.140278
 30
0.0
  0
VERTEX
  5
2A6
100
AcDbEntity
  8
レイヤー_2
 62
     7
100
AcDbVertex
100
AcDb2dVertex
 10
56.99876
 20
205.143723
 30
0.0
  0
VERTEX
  5
2A7
100
AcDbEntity
  8
レイヤー_2
 62
     7
100
AcDbVertex
100
AcDb2dVertex
 10
56.844765
 20
205.15647
 30
0.0
  0
VERTEX
  5
2A8
100
AcDbEntity
  8
レイヤー_2
 62
     7
100
AcDbVertex
100
AcDb2dVertex
 10
56.702482
 20
205.175762
 30
0.0
  0
VERTEX
  5
2A9
100
AcDbEntity
  8
レイヤー_2
 62
     7
100
AcDbVertex
100
AcDb2dVertex
 10
56.577425
 20
205.202289
 30
0.0
  0
VERTEX
  5
2AA
100
AcDbEntity
  8
レイヤー_2
 62
     7
100
AcDbVertex
100
AcDb2dVertex
 10
56.47545
 20
205.234329
 30
0.0
  0
VERTEX
  5
2AB
100
AcDbEntity
  8
レイヤー_2
 62
     7
100
AcDbVertex
100
AcDb2dVertex
 10
56.400347
 20
205.271191
 30
0.0
  0
VERTEX
  5
2AC
100
AcDbEntity
  8
レイヤー_2
 62
     7
100
AcDbVertex
100
AcDb2dVertex
 10
56.352805
 20
205.31081
 30
0.0
  0
VERTEX
  5
2AD
100
AcDbEntity
  8
レイヤー_2
 62
     7
100
AcDbVertex
100
AcDb2dVertex
 10
56.336957
 20
205.352496
 30
0.0
  0
SEQEND
  5
2AE
100
AcDbEntity
  8
レイヤー_2
 62
     7
  0
LINE
  5
2A3
100
AcDbEntity
  8
レイヤー_2
 62
     7
100
AcDbLine
 10
63.659163
 20
205.140278
 30
0.0
 11
57.159302
 21
205.140278
 31
0.0
  0
POLYLINE
  5
298
100
AcDbEntity
  8
レイヤー_2
 62
     7
100
AcDb2dPolyline
 66
     1
 10
0.0
 20
0.0
 30
0.0
  0
VERTEX
  5
299
100
AcDbEntity
  8
レイヤー_2
 62
     7
100
AcDbVertex
100
AcDb2dVertex
 10
64.481163
 20
205.352496
 30
0.0
  0
VERTEX
  5
29A
100
AcDbEntity
  8
レイヤー_2
 62
     7
100
AcDbVertex
100
AcDb2dVertex
 10
64.46566
 20
205.31081
 30
0.0
  0
VERTEX
  5
29B
100
AcDbEntity
  8
レイヤー_2
 62
     7
100
AcDbVertex
100
AcDb2dVertex
 10
64.418462
 20
205.271191
 30
0.0
  0
VERTEX
  5
29C
100
AcDbEntity
  8
レイヤー_2
 62
     7
100
AcDbVertex
100
AcDb2dVertex
 10
64.343359
 20
205.234329
 30
0.0
  0
VERTEX
  5
29D
100
AcDbEntity
  8
レイヤー_2
 62
     7
100
AcDbVertex
100
AcDb2dVertex
 10
64.240696
 20
205.202289
 30
0.0
  0
VERTEX
  5
29E
100
AcDbEntity
  8
レイヤー_2
 62
     7
100
AcDbVertex
100
AcDb2dVertex
 10
64.115983
 20
205.175762
 30
0.0
  0
VERTEX
  5
29F
100
AcDbEntity
  8
レイヤー_2
 62
     7
100
AcDbVertex
100
AcDb2dVertex
 10
63.973701
 20
205.15647
 30
0.0
  0
VERTEX
  5
2A0
100
AcDbEntity
  8
レイヤー_2
 62
     7
100
AcDbVertex
100
AcDb2dVertex
 10
63.820049
 20
205.143723
 30
0.0
  0
VERTEX
  5
2A1
100
AcDbEntity
  8
レイヤー_2
 62
     7
100
AcDbVertex
100
AcDb2dVertex
 10
63.659163
 20
205.140278
 30
0.0
  0
SEQEND
  5
2A2
100
AcDbEntity
  8
レイヤー_2
 62
     7
  0
SPLINE
  5
297
100
AcDbEntity
  8
レイヤー_2
 62
     7
100
AcDbSpline
210
0.0
220
0.0
230
1.0
 70
     8
 71
     3
 72
    59
 73
    55
 74
     0
 42
0.00000001
 43
0.00000001
 40
0.0
 40
0.0
 40
0.0
 40
0.0
 40
1.0
 40
1.0
 40
1.0
 40
2.0
 40
2.0
 40
2.0
 40
3.0
 40
3.0
 40
3.0
 40
4.0
 40
4.0
 40
4.0
 40
5.0
 40
5.0
 40
5.0
 40
6.0
 40
6.0
 40
6.0
 40
7.0
 40
7.0
 40
7.0
 40
8.0
 40
8.0
 40
8.0
 40
9.0
 40
9.0
 40
9.0
 40
10.0
 40
10.0
 40
10.0
 40
11.0
 40
11.0
 40
11.0
 40
12.0
 40
12.0
 40
12.0
 40
13.0
 40
13.0
 40
13.0
 40
14.0
 40
14.0
 40
14.0
 40
15.0
 40
15.0
 40
15.0
 40
16.0
 40
16.0
 40
16.0
 40
17.0
 40
17.0
 40
17.0
 40
18.0
 40
18.0
 40
18.0
 40
18.0
 10
63.572347005208329
 20
185.97383355034719
 30
0.0
 10
63.572347005208329
 20
185.97383355034719
 30
0.0
 10
63.569935438368049
 20
185.97383355034719
 30
0.0
 10
63.556155056423606
 20
185.97383355034719
 30
0.0
 10
63.538585069444437
 20
185.97383355034719
 30
0.0
 10
63.498621961805547
 20
185.97383355034719
 30
0.0
 10
63.446945529513883
 20
185.97383355034719
 30
0.0
 10
63.394235568576384
 20
185.97383355034719
 30
0.0
 10
63.328089735243047
 20
185.97383355034719
 30
0.0
 10
63.247474500868051
 20
185.97383355034719
 30
0.0
 10
63.169270833333329
 20
185.97383355034719
 30
0.0
 10
63.077286783854163
 20
185.97383355034719
 30
0.0
 10
62.973589409722216
 20
185.97383355034719
 30
0.0
 10
62.867135959201384
 20
185.97383355034719
 30
0.0
 10
62.747935655381937
 20
185.97383355034719
 30
0.0
 10
62.618400065104161
 20
185.97383355034719
 30
0.0
 10
62.491965060763881
 20
185.97383355034719
 30
0.0
 10
62.354850260416661
 20
185.97383355034719
 30
0.0
 10
62.210156249999997
 20
185.97383355034719
 30
0.0
 10
62.060983615451384
 20
185.97383355034719
 30
0.0
 10
61.903542751736104
 20
185.97383355034719
 30
0.0
 10
61.738178168402769
 20
185.97383355034719
 30
0.0
 10
61.579014756944439
 20
185.97383355034719
 30
0.0
 10
61.412616644965276
 20
185.97383355034719
 30
0.0
 10
61.242773437499991
 20
185.97383355034719
 30
0.0
 10
61.067418077256939
 20
185.97383355034719
 30
0.0
 10
60.888962131076383
 20
185.97383355034719
 30
0.0
 10
60.708439127604159
 20
185.97383355034719
 30
0.0
 10
60.533772786458329
 20
185.97383355034719
 30
0.0
 10
60.357383897569441
 20
185.97383355034719
 30
0.0
 10
60.182373046874993
 20
185.97383355034719
 30
0.0
 10
60.001850043402776
 20
185.97383355034719
 30
0.0
 10
59.822360568576386
 20
185.97383355034719
 30
0.0
 10
59.646660698784714
 20
185.97383355034719
 30
0.0
 10
59.476472981770826
 20
185.97383355034719
 30
0.0
 10
59.30938585069444
 20
185.97383355034719
 30
0.0
 10
59.148155381944441
 20
185.97383355034719
 30
0.0
 10
58.982446289062494
 20
185.97383355034719
 30
0.0
 10
58.823282877604164
 20
185.97383355034719
 30
0.0
 10
58.671698676215271
 20
185.97383355034719
 30
0.0
 10
58.52528211805555
 20
185.97383355034719
 30
0.0
 10
58.386444769965273
 20
185.97383355034719
 30
0.0
 10
58.257253689236109
 20
185.97383355034719
 30
0.0
 10
58.124962022569441
 20
185.97383355034719
 30
0.0
 10
58.003005642361103
 20
185.97383355034719
 30
0.0
 10
57.893451605902776
 20
185.97383355034719
 30
0.0
 10
57.786653645833326
 20
185.97383355034719
 30
0.0
 10
57.691913519965276
 20
185.97383355034719
 30
0.0
 10
57.608542209201381
 20
185.97383355034719
 30
0.0
 10
57.523448350694437
 20
185.97383355034719
 30
0.0
 10
57.450067816840274
 20
185.97383355034719
 30
0.0
 10
57.396324327256941
 20
185.97383355034719
 30
0.0
 10
57.32914496527777
 20
185.97383355034719
 30
0.0
 10
57.292626953124994
 20
185.97383355034719
 30
0.0
 10
57.255075412326384
 20
185.97383355034719
 30
0.0
  0
LINE
  5
296
100
AcDbEntity
  8
レイヤー_2
 62
     7
100
AcDbLine
 10
78.715953
 20
176.769227
 30
0.0
 11
77.238352
 21
176.509123
 31
0.0
  0
POLYLINE
  5
28E
100
AcDbEntity
  8
レイヤー_2
 62
     7
100
AcDb2dPolyline
 66
     1
 10
0.0
 20
0.0
 30
0.0
  0
VERTEX
  5
28F
100
AcDbEntity
  8
レイヤー_2
 62
     7
100
AcDbVertex
100
AcDb2dVertex
 10
77.343427
 20
176.692746
 30
0.0
  0
VERTEX
  5
290
100
AcDbEntity
  8
レイヤー_2
 62
     7
100
AcDbVertex
100
AcDb2dVertex
 10
77.342394
 20
176.692402
 30
0.0
  0
VERTEX
  5
291
100
AcDbEntity
  8
レイヤー_2
 62
     7
100
AcDbVertex
100
AcDb2dVertex
 10
77.34515
 20
176.692746
 30
0.0
  0
VERTEX
  5
292
100
AcDbEntity
  8
レイヤー_2
 62
     7
100
AcDbVertex
100
AcDb2dVertex
 10
77.351006
 20
176.694813
 30
0.0
  0
VERTEX
  5
293
100
AcDbEntity
  8
レイヤー_2
 62
     7
100
AcDbVertex
100
AcDb2dVertex
 10
77.371677
 20
176.705493
 30
0.0
  0
VERTEX
  5
294
100
AcDbEntity
  8
レイヤー_2
 62
     7
100
AcDbVertex
100
AcDb2dVertex
 10
77.395104
 20
176.724097
 30
0.0
  0
SEQEND
  5
295
100
AcDbEntity
  8
レイヤー_2
 62
     7
  0
SPLINE
  5
28D
100
AcDbEntity
  8
レイヤー_2
 62
     7
100
AcDbSpline
210
0.0
220
0.0
230
1.0
 70
     8
 71
     3
 72
    26
 73
    22
 74
     0
 42
0.00000001
 43
0.00000001
 40
0.0
 40
0.0
 40
0.0
 40
0.0
 40
1.0
 40
1.0
 40
1.0
 40
2.0
 40
2.0
 40
2.0
 40
3.0
 40
3.0
 40
3.0
 40
4.0
 40
4.0
 40
4.0
 40
5.0
 40
5.0
 40
5.0
 40
6.0
 40
6.0
 40
6.0
 40
7.0
 40
7.0
 40
7.0
 40
7.0
 10
77.313799370659709
 20
176.70445963541664
 30
0.0
 10
77.313799370659709
 20
176.70445963541664
 30
0.0
 10
77.322067599826383
 20
176.70652669270831
 30
0.0
 10
77.322067599826383
 20
176.70652669270831
 30
0.0
 10
77.334125434027769
 20
176.70962727864583
 30
0.0
 10
77.364786783854157
 20
176.71651746961803
 30
0.0
 10
77.403371853298609
 20
176.72616373697915
 30
0.0
 10
77.44299045138888
 20
176.73477647569442
 30
0.0
 10
77.490188259548603
 20
176.74511176215276
 30
0.0
 10
77.545998806423597
 20
176.75613606770833
 30
0.0
 10
77.602498372395829
 20
176.76750488281249
 30
0.0
 10
77.666232638888886
 20
176.77887369791665
 30
0.0
 10
77.734445529513877
 20
176.78989800347222
 30
0.0
 10
77.802313910590271
 20
176.80057779947916
 30
0.0
 10
77.874316406249989
 20
176.81022406684025
 30
0.0
 10
77.946663411458331
 20
176.81849229600692
 30
0.0
 10
78.019354926215271
 20
176.8267605251736
 30
0.0
 10
78.092390950520823
 20
176.83365071614583
 30
0.0
 10
78.159570312499994
 20
176.83778483072916
 30
0.0
 10
78.222271050347217
 20
176.8422634548611
 30
0.0
 10
78.279804144965269
 20
176.84467502170136
 30
0.0
 10
78.33733723958332
 20
176.84777560763888
 30
0.0
  0
SPLINE
  5
28C
100
AcDbEntity
  8
レイヤー_2
 62
     7
100
AcDbSpline
210
0.0
220
0.0
230
1.0
 70
     8
 71
     3
 72
    59
 73
    55
 74
     0
 42
0.00000001
 43
0.00000001
 40
0.0
 40
0.0
 40
0.0
 40
0.0
 40
1.0
 40
1.0
 40
1.0
 40
2.0
 40
2.0
 40
2.0
 40
3.0
 40
3.0
 40
3.0
 40
4.0
 40
4.0
 40
4.0
 40
5.0
 40
5.0
 40
5.0
 40
6.0
 40
6.0
 40
6.0
 40
7.0
 40
7.0
 40
7.0
 40
8.0
 40
8.0
 40
8.0
 40
9.0
 40
9.0
 40
9.0
 40
10.0
 40
10.0
 40
10.0
 40
11.0
 40
11.0
 40
11.0
 40
12.0
 40
12.0
 40
12.0
 40
13.0
 40
13.0
 40
13.0
 40
14.0
 40
14.0
 40
14.0
 40
15.0
 40
15.0
 40
15.0
 40
16.0
 40
16.0
 40
16.0
 40
17.0
 40
17.0
 40
17.0
 40
18.0
 40
18.0
 40
18.0
 40
18.0
 10
79.126953124999986
 20
186.69006890190971
 30
0.0
 10
79.126953124999986
 20
186.63460286458331
 30
0.0
 10
79.127642144097209
 20
186.57948133680554
 30
0.0
 10
79.127642144097209
 20
186.51264648437498
 30
0.0
 10
79.127642144097209
 20
186.41446126302083
 30
0.0
 10
79.127642144097209
 20
186.29043782552083
 30
0.0
 10
79.128675672743043
 20
186.14987792968748
 30
0.0
 10
79.128675672743043
 20
186.00552842881942
 30
0.0
 10
79.128675672743043
 20
185.84257541232637
 30
0.0
 10
79.129364691840266
 20
185.66170789930553
 30
0.0
 10
79.129364691840266
 20
185.48497450086805
 30
0.0
 10
79.129364691840266
 20
185.29067111545137
 30
0.0
 10
79.1303982204861
 20
185.08258734809027
 30
0.0
 10
79.1303982204861
 20
184.86933593749998
 30
0.0
 10
79.130742730034711
 20
184.64092610677082
 30
0.0
 10
79.131087239583323
 20
184.40149197048609
 30
0.0
 10
79.131087239583323
 20
184.16550292968748
 30
0.0
 10
79.131087239583323
 20
183.91848958333333
 30
0.0
 10
79.131776258680546
 20
183.66424153645832
 30
0.0
 10
79.131776258680546
 20
183.40206976996527
 30
0.0
 10
79.131776258680546
 20
183.13231879340276
 30
0.0
 10
79.131776258680546
 20
182.85843370225692
 30
0.0
 10
79.131776258680546
 20
182.58799370659722
 30
0.0
 10
79.131776258680546
 20
182.31445312499997
 30
0.0
 10
79.131776258680546
 20
182.04022352430553
 30
0.0
 10
79.131776258680546
 20
181.75841471354164
 30
0.0
 10
79.131776258680546
 20
181.47591688368053
 30
0.0
 10
79.131776258680546
 20
181.19755316840275
 30
0.0
 10
79.131776258680546
 20
180.92504611545138
 30
0.0
 10
79.131776258680546
 20
180.65632866753469
 30
0.0
 10
79.131776258680546
 20
180.39484592013886
 30
0.0
 10
79.131087239583323
 20
180.12578396267361
 30
0.0
 10
79.131087239583323
 20
179.86430121527775
 30
0.0
 10
79.130742730034711
 20
179.6148763020833
 30
0.0
 10
79.130742730034711
 20
179.37337510850693
 30
0.0
 10
79.1303982204861
 20
179.14255371093748
 30
0.0
 10
79.1303982204861
 20
178.9262017144097
 30
0.0
 10
79.129364691840266
 20
178.70399305555554
 30
0.0
 10
79.129364691840266
 20
178.49590928819444
 30
0.0
 10
79.128675672743043
 20
178.30711805555555
 30
0.0
 10
79.128675672743043
 20
178.12556152343748
 30
0.0
 10
79.128675672743043
 20
177.96088595920136
 30
0.0
 10
79.127642144097209
 20
177.81619194878471
 30
0.0
 10
79.127642144097209
 20
177.66598578559027
 30
0.0
 10
79.127642144097209
 20
177.53645019531248
 30
0.0
 10
79.126953124999986
 20
177.4313747829861
 30
0.0
 10
79.126953124999986
 20
177.33112250434027
 30
0.0
 10
79.126953124999986
 20
177.25326334635415
 30
0.0
 10
79.126264105902777
 20
177.19021809895833
 30
0.0
 10
79.126264105902777
 20
177.12476128472221
 30
0.0
 10
79.126264105902777
 20
177.07859700520831
 30
0.0
 10
79.126264105902777
 20
177.07859700520831
 30
0.0
 10
79.126264105902777
 20
177.07859700520831
 30
0.0
 10
79.126264105902777
 20
177.08307562934027
 30
0.0
 10
79.126264105902777
 20
177.08307562934027
 30
0.0
  0
LINE
  5
28B
100
AcDbEntity
  8
レイヤー_2
 62
     7
100
AcDbLine
 10
79.207224
 20
185.193519
 30
0.0
 11
79.194477
 21
185.415384
 31
0.0
  0
LINE
  5
28A
100
AcDbEntity
  8
レイヤー_2
 62
     7
100
AcDbLine
 10
79.207224
 20
185.193519
 30
0.0
 11
79.207224
 21
185.602452
 31
0.0
  0
SPLINE
  5
289
100
AcDbEntity
  8
レイヤー_2
 62
     7
100
AcDbSpline
210
0.0
220
0.0
230
1.0
 70
     8
 71
     3
 72
    11
 73
     7
 74
     0
 42
0.00000001
 43
0.00000001
 40
0.0
 40
0.0
 40
0.0
 40
0.0
 40
1.0
 40
1.0
 40
1.0
 40
2.0
 40
2.0
 40
2.0
 40
2.0
 10
79.207223849826377
 20
185.60245225694442
 30
0.0
 10
79.207223849826377
 20
185.60245225694442
 30
0.0
 10
79.206879340277766
 20
185.61416558159721
 30
0.0
 10
79.206879340277766
 20
185.61416558159721
 30
0.0
 10
79.203089735243054
 20
185.69305826822915
 30
0.0
 10
79.198955620659717
 20
185.77263997395832
 30
0.0
 10
79.194476996527769
 20
185.85291069878471
 30
0.0
  0
LINE
  5
288
100
AcDbEntity
  8
レイヤー_2
 62
     7
100
AcDbLine
 10
79.194477
 20
185.852911
 30
0.0
 11
79.194477
 21
185.415384
 31
0.0
  0
LINE
  5
287
100
AcDbEntity
  8
レイヤー_2
 62
     7
100
AcDbLine
 10
79.126953
 20
186.745879
 30
0.0
 11
79.126953
 21
186.690069
 31
0.0
  0
LINE
  5
286
100
AcDbEntity
  8
レイヤー_2
 62
     7
100
AcDbLine
 10
79.263723
 20
181.035978
 30
0.0
 11
79.263723
 21
181.014963
 31
0.0
  0
LINE
  5
285
100
AcDbEntity
  8
レイヤー_2
 62
     7
100
AcDbLine
 10
79.263723
 20
181.014963
 30
0.0
 11
79.263723
 21
180.987402
 31
0.0
  0
LINE
  5
284
100
AcDbEntity
  8
レイヤー_2
 62
     7
100
AcDbLine
 10
79.263723
 20
180.987402
 30
0.0
 11
79.263723
 21
180.963287
 31
0.0
  0
POLYLINE
  5
27F
100
AcDbEntity
  8
レイヤー_2
 62
     7
100
AcDb2dPolyline
 66
     1
 10
0.0
 20
0.0
 30
0.0
  0
VERTEX
  5
280
100
AcDbEntity
  8
レイヤー_2
 62
     7
100
AcDbVertex
100
AcDb2dVertex
 10
79.251321
 20
179.557688
 30
0.0
  0
VERTEX
  5
281
100
AcDbEntity
  8
レイヤー_2
 62
     7
100
AcDbVertex
100
AcDb2dVertex
 10
79.251321
 20
179.556654
 30
0.0
  0
VERTEX
  5
282
100
AcDbEntity
  8
レイヤー_2
 62
     7
100
AcDbVertex
100
AcDb2dVertex
 10
79.250977
 20
179.54184
 30
0.0
  0
SEQEND
  5
283
100
AcDbEntity
  8
レイヤー_2
 62
     7
  0
LINE
  5
27E
100
AcDbEntity
  8
レイヤー_2
 62
     7
100
AcDbLine
 10
79.24822
 20
179.478106
 30
0.0
 11
79.249254
 21
179.484307
 31
0.0
  0
LINE
  5
27D
100
AcDbEntity
  8
レイヤー_2
 62
     7
100
AcDbLine
 10
79.249254
 20
179.484307
 30
0.0
 11
79.249254
 21
179.484307
 31
0.0
  0
LINE
  5
27C
100
AcDbEntity
  8
レイヤー_2
 62
     7
100
AcDbLine
 10
79.249254
 20
179.484307
 30
0.0
 11
79.249254
 21
179.485685
 31
0.0
  0
LINE
  5
27B
100
AcDbEntity
  8
レイヤー_2
 62
     7
100
AcDbLine
 10
79.249254
 20
179.485685
 30
0.0
 11
79.249254
 21
179.487408
 31
0.0
  0
LINE
  5
27A
100
AcDbEntity
  8
レイヤー_2
 62
     7
100
AcDbLine
 10
79.249254
 20
179.487408
 30
0.0
 11
79.249254
 21
179.492575
 31
0.0
  0
LINE
  5
279
100
AcDbEntity
  8
レイヤー_2
 62
     7
100
AcDbLine
 10
79.249254
 20
179.492575
 30
0.0
 11
79.249254
 21
179.501533
 31
0.0
  0
SPLINE
  5
278
100
AcDbEntity
  8
レイヤー_2
 62
     7
100
AcDbSpline
210
0.0
220
0.0
230
1.0
 70
     8
 71
     3
 72
    11
 73
     7
 74
     0
 42
0.00000001
 43
0.00000001
 40
0.0
 40
0.0
 40
0.0
 40
0.0
 40
1.0
 40
1.0
 40
1.0
 40
2.0
 40
2.0
 40
2.0
 40
2.0
 10
79.249254014756943
 20
179.50153266059027
 30
0.0
 10
79.249598524305554
 20
179.53563910590276
 30
0.0
 10
79.250976562499986
 20
179.5707790798611
 30
0.0
 10
79.251321072048597
 20
179.60591905381943
 30
0.0
 10
79.25201009114582
 20
179.63864746093748
 30
0.0
 10
79.253388129340266
 20
179.67068684895833
 30
0.0
 10
79.253732638888877
 20
179.70307074652777
 30
0.0
  0
LINE
  5
277
100
AcDbEntity
  8
レイヤー_2
 62
     7
100
AcDbLine
 10
79.253733
 20
179.703071
 30
0.0
 11
79.253733
 21
179.703071
 31
0.0
  0
LINE
  5
276
100
AcDbEntity
  8
レイヤー_2
 62
     7
100
AcDbLine
 10
79.253733
 20
179.703071
 30
0.0
 11
79.253388
 21
179.695492
 31
0.0
  0
LINE
  5
275
100
AcDbEntity
  8
レイヤー_2
 62
     7
100
AcDbLine
 10
79.253388
 20
179.695492
 30
0.0
 11
79.253388
 21
179.685501
 31
0.0
  0
LINE
  5
274
100
AcDbEntity
  8
レイヤー_2
 62
     7
100
AcDbLine
 10
79.253388
 20
179.685501
 30
0.0
 11
79.253388
 21
179.681022
 31
0.0
  0
LINE
  5
273
100
AcDbEntity
  8
レイヤー_2
 62
     7
100
AcDbLine
 10
79.253388
 20
179.681022
 30
0.0
 11
79.253388
 21
179.675854
 31
0.0
  0
LINE
  5
272
100
AcDbEntity
  8
レイヤー_2
 62
     7
100
AcDbLine
 10
79.253388
 20
179.675854
 30
0.0
 11
79.252699
 21
179.672409
 31
0.0
  0
LINE
  5
271
100
AcDbEntity
  8
レイヤー_2
 62
     7
100
AcDbLine
 10
79.252699
 20
179.672409
 30
0.0
 11
79.252699
 21
179.66862
 31
0.0
  0
LINE
  5
270
100
AcDbEntity
  8
レイヤー_2
 62
     7
100
AcDbLine
 10
79.252699
 20
179.66862
 30
0.0
 11
79.252699
 21
179.662074
 31
0.0
  0
LINE
  5
26F
100
AcDbEntity
  8
レイヤー_2
 62
     7
100
AcDbLine
 10
79.252699
 20
179.662074
 30
0.0
 11
79.252699
 21
179.659663
 31
0.0
  0
LINE
  5
26E
100
AcDbEntity
  8
レイヤー_2
 62
     7
100
AcDbLine
 10
79.252699
 20
179.659663
 30
0.0
 11
79.252699
 21
179.658629
 31
0.0
  0
LINE
  5
26D
100
AcDbEntity
  8
レイヤー_2
 62
     7
100
AcDbLine
 10
79.252699
 20
179.658629
 30
0.0
 11
79.252699
 21
179.654839
 31
0.0
  0
LINE
  5
26C
100
AcDbEntity
  8
レイヤー_2
 62
     7
100
AcDbLine
 10
79.252699
 20
179.654839
 30
0.0
 11
79.25201
 21
179.64726
 31
0.0
  0
LINE
  5
26B
100
AcDbEntity
  8
レイヤー_2
 62
     7
100
AcDbLine
 10
79.25201
 20
179.64726
 30
0.0
 11
79.25201
 21
179.634513
 31
0.0
  0
SPLINE
  5
26A
100
AcDbEntity
  8
レイヤー_2
 62
     7
100
AcDbSpline
210
0.0
220
0.0
230
1.0
 70
     8
 71
     3
 72
    11
 73
     7
 74
     0
 42
0.00000001
 43
0.00000001
 40
0.0
 40
0.0
 40
0.0
 40
0.0
 40
1.0
 40
1.0
 40
1.0
 40
2.0
 40
2.0
 40
2.0
 40
2.0
 10
79.25201009114582
 20
179.63451334635414
 30
0.0
 10
79.251321072048597
 20
179.61384277343748
 30
0.0
 10
79.251321072048597
 20
179.59386121961805
 30
0.0
 10
79.250976562499986
 20
179.57353515624999
 30
0.0
 10
79.250287543402777
 20
179.54941948784722
 30
0.0
 10
79.249598524305554
 20
179.52530381944442
 30
0.0
 10
79.249254014756943
 20
179.50153266059027
 30
0.0
  0
LINE
  5
269
100
AcDbEntity
  8
レイヤー_2
 62
     7
100
AcDbLine
 10
79.249254
 20
179.501533
 30
0.0
 11
79.249254
 21
179.492575
 31
0.0
  0
LINE
  5
268
100
AcDbEntity
  8
レイヤー_2
 62
     7
100
AcDbLine
 10
79.249254
 20
179.492575
 30
0.0
 11
79.249254
 21
179.48913
 31
0.0
  0
LINE
  5
267
100
AcDbEntity
  8
レイヤー_2
 62
     7
100
AcDbLine
 10
79.249254
 20
179.48913
 30
0.0
 11
79.24822
 21
179.487408
 31
0.0
  0
LINE
  5
266
100
AcDbEntity
  8
レイヤー_2
 62
     7
100
AcDbLine
 10
79.24822
 20
179.487408
 30
0.0
 11
79.24822
 21
179.484307
 31
0.0
  0
LINE
  5
265
100
AcDbEntity
  8
レイヤー_2
 62
     7
100
AcDbLine
 10
79.24822
 20
179.484307
 30
0.0
 11
79.24822
 21
179.484307
 31
0.0
  0
LINE
  5
264
100
AcDbEntity
  8
レイヤー_2
 62
     7
100
AcDbLine
 10
79.24822
 20
179.484307
 30
0.0
 11
79.247876
 21
179.478106
 31
0.0
  0
LINE
  5
263
100
AcDbEntity
  8
レイヤー_2
 62
     7
100
AcDbLine
 10
79.247876
 20
179.478106
 30
0.0
 11
79.24822
 21
179.478106
 31
0.0
  0
LINE
  5
262
100
AcDbEntity
  8
レイヤー_2
 62
     7
100
AcDbLine
 10
79.253733
 20
179.700315
 30
0.0
 11
79.253733
 21
179.701348
 31
0.0
  0
LINE
  5
261
100
AcDbEntity
  8
レイヤー_2
 62
     7
100
AcDbLine
 10
79.253733
 20
179.701348
 30
0.0
 11
79.253733
 21
179.702726
 31
0.0
  0
LINE
  5
260
100
AcDbEntity
  8
レイヤー_2
 62
     7
100
AcDbLine
 10
79.253733
 20
179.702726
 30
0.0
 11
79.253733
 21
179.705482
 31
0.0
  0
LINE
  5
25F
100
AcDbEntity
  8
レイヤー_2
 62
     7
100
AcDbLine
 10
79.253733
 20
179.705482
 30
0.0
 11
79.254766
 21
179.71065
 31
0.0
  0
LINE
  5
25E
100
AcDbEntity
  8
レイヤー_2
 62
     7
100
AcDbLine
 10
79.254766
 20
179.71065
 30
0.0
 11
79.254766
 21
179.71065
 31
0.0
  0
LINE
  5
25D
100
AcDbEntity
  8
レイヤー_2
 62
     7
100
AcDbLine
 10
79.249599
 20
179.492575
 30
0.0
 11
79.249254
 21
179.478106
 31
0.0
  0
LINE
  5
25C
100
AcDbEntity
  8
レイヤー_2
 62
     7
100
AcDbLine
 10
79.249254
 20
179.478106
 30
0.0
 11
79.249254
 21
179.475694
 31
0.0
  0
LINE
  5
25B
100
AcDbEntity
  8
レイヤー_2
 62
     7
100
AcDbLine
 10
79.249254
 20
179.475694
 30
0.0
 11
79.249254
 21
179.473972
 31
0.0
  0
LINE
  5
25A
100
AcDbEntity
  8
レイヤー_2
 62
     7
100
AcDbLine
 10
79.249254
 20
179.473972
 30
0.0
 11
79.249254
 21
179.472249
 31
0.0
  0
LINE
  5
259
100
AcDbEntity
  8
レイヤー_2
 62
     7
100
AcDbLine
 10
79.249254
 20
179.472249
 30
0.0
 11
79.249254
 21
179.471905
 31
0.0
  0
LINE
  5
258
100
AcDbEntity
  8
レイヤー_2
 62
     7
100
AcDbLine
 10
79.249254
 20
179.471905
 30
0.0
 11
79.249254
 21
179.471905
 31
0.0
  0
LINE
  5
257
100
AcDbEntity
  8
レイヤー_2
 62
     7
100
AcDbLine
 10
79.249254
 20
179.471905
 30
0.0
 11
79.249254
 21
179.473283
 31
0.0
  0
LINE
  5
256
100
AcDbEntity
  8
レイヤー_2
 62
     7
100
AcDbLine
 10
79.249254
 20
179.473283
 30
0.0
 11
79.249254
 21
179.475694
 31
0.0
  0
LINE
  5
255
100
AcDbEntity
  8
レイヤー_2
 62
     7
100
AcDbLine
 10
79.249254
 20
179.480862
 30
0.0
 11
79.249599
 21
179.487408
 31
0.0
  0
LINE
  5
254
100
AcDbEntity
  8
レイヤー_2
 62
     7
100
AcDbLine
 10
79.225827
 20
179.914255
 30
0.0
 11
79.258211
 21
179.914255
 31
0.0
  0
LINE
  5
253
100
AcDbEntity
  8
レイヤー_2
 62
     7
100
AcDbLine
 10
79.258211
 20
179.914255
 30
0.0
 11
79.258211
 21
179.93527
 31
0.0
  0
LINE
  5
252
100
AcDbEntity
  8
レイヤー_2
 62
     7
100
AcDbLine
 10
79.258211
 20
179.93527
 30
0.0
 11
79.226861
 21
179.93527
 31
0.0
  0
POLYLINE
  5
24D
100
AcDbEntity
  8
レイヤー_2
 62
     7
100
AcDb2dPolyline
 66
     1
 10
0.0
 20
0.0
 30
0.0
  0
VERTEX
  5
24E
100
AcDbEntity
  8
レイヤー_2
 62
     7
100
AcDbVertex
100
AcDb2dVertex
 10
79.226861
 20
179.93527
 30
0.0
  0
VERTEX
  5
24F
100
AcDbEntity
  8
レイヤー_2
 62
     7
100
AcDbVertex
100
AcDb2dVertex
 10
79.225827
 20
179.927346
 30
0.0
  0
VERTEX
  5
250
100
AcDbEntity
  8
レイヤー_2
 62
     7
100
AcDbVertex
100
AcDb2dVertex
 10
79.225827
 20
179.914255
 30
0.0
  0
SEQEND
  5
251
100
AcDbEntity
  8
レイヤー_2
 62
     7
  0
LINE
  5
24C
100
AcDbEntity
  8
レイヤー_2
 62
     7
100
AcDbLine
 10
79.260278
 20
180.125784
 30
0.0
 11
79.260278
 21
180.114071
 31
0.0
  0
LINE
  5
24B
100
AcDbEntity
  8
レイヤー_2
 62
     7
100
AcDbLine
 10
79.260278
 20
180.114071
 30
0.0
 11
79.259245
 21
180.102702
 31
0.0
  0
LINE
  5
24A
100
AcDbEntity
  8
レイヤー_2
 62
     7
100
AcDbLine
 10
79.259245
 20
180.102702
 30
0.0
 11
79.259245
 21
180.092022
 31
0.0
  0
LINE
  5
249
100
AcDbEntity
  8
レイヤー_2
 62
     7
100
AcDbLine
 10
79.259245
 20
180.092022
 30
0.0
 11
79.259245
 21
180.083409
 31
0.0
  0
LINE
  5
248
100
AcDbEntity
  8
レイヤー_2
 62
     7
100
AcDbLine
 10
79.259245
 20
180.083409
 30
0.0
 11
79.259245
 21
180.07583
 31
0.0
  0
LINE
  5
247
100
AcDbEntity
  8
レイヤー_2
 62
     7
100
AcDbLine
 10
79.259245
 20
180.064461
 30
0.0
 11
79.259245
 21
180.060327
 31
0.0
  0
LINE
  5
246
100
AcDbEntity
  8
レイヤー_2
 62
     7
100
AcDbLine
 10
79.259245
 20
180.060327
 30
0.0
 11
79.259245
 21
180.057916
 31
0.0
  0
LINE
  5
245
100
AcDbEntity
  8
レイヤー_2
 62
     7
100
AcDbLine
 10
79.259245
 20
180.057916
 30
0.0
 11
79.259245
 21
180.057227
 31
0.0
  0
LINE
  5
244
100
AcDbEntity
  8
レイヤー_2
 62
     7
100
AcDbLine
 10
79.259245
 20
180.057227
 30
0.0
 11
79.259245
 21
180.057916
 31
0.0
  0
LINE
  5
243
100
AcDbEntity
  8
レイヤー_2
 62
     7
100
AcDbLine
 10
79.259245
 20
180.057916
 30
0.0
 11
79.259245
 21
180.060327
 31
0.0
  0
LINE
  5
242
100
AcDbEntity
  8
レイヤー_2
 62
     7
100
AcDbLine
 10
79.259245
 20
180.060327
 30
0.0
 11
79.260278
 21
180.064461
 31
0.0
  0
LINE
  5
241
100
AcDbEntity
  8
レイヤー_2
 62
     7
100
AcDbLine
 10
79.260278
 20
180.069284
 30
0.0
 11
79.260278
 21
180.07583
 31
0.0
  0
LINE
  5
240
100
AcDbEntity
  8
レイヤー_2
 62
     7
100
AcDbLine
 10
79.260278
 20
180.07583
 30
0.0
 11
79.260278
 21
180.083409
 31
0.0
  0
LINE
  5
23F
100
AcDbEntity
  8
レイヤー_2
 62
     7
100
AcDbLine
 10
79.260278
 20
180.083409
 30
0.0
 11
79.260278
 21
180.093056
 31
0.0
  0
LINE
  5
23E
100
AcDbEntity
  8
レイヤー_2
 62
     7
100
AcDbLine
 10
79.260278
 20
180.093056
 30
0.0
 11
79.260623
 21
180.103046
 31
0.0
  0
LINE
  5
23D
100
AcDbEntity
  8
レイヤー_2
 62
     7
100
AcDbLine
 10
79.260623
 20
180.103046
 30
0.0
 11
79.260623
 21
180.114415
 31
0.0
  0
LINE
  5
23C
100
AcDbEntity
  8
レイヤー_2
 62
     7
100
AcDbLine
 10
79.23823
 20
180.539195
 30
0.0
 11
79.23823
 21
180.538162
 31
0.0
  0
LINE
  5
23B
100
AcDbEntity
  8
レイヤー_2
 62
     7
100
AcDbLine
 10
79.23823
 20
180.538162
 30
0.0
 11
79.238919
 21
180.534717
 31
0.0
  0
LINE
  5
23A
100
AcDbEntity
  8
レイヤー_2
 62
     7
100
AcDbLine
 10
79.238919
 20
180.534717
 30
0.0
 11
79.238919
 21
180.52886
 31
0.0
  0
LINE
  5
239
100
AcDbEntity
  8
レイヤー_2
 62
     7
100
AcDbLine
 10
79.238919
 20
180.52886
 30
0.0
 11
79.238919
 21
180.520592
 31
0.0
  0
LINE
  5
238
100
AcDbEntity
  8
レイヤー_2
 62
     7
100
AcDbLine
 10
79.238919
 20
180.520592
 30
0.0
 11
79.238919
 21
180.508534
 31
0.0
  0
LINE
  5
237
100
AcDbEntity
  8
レイヤー_2
 62
     7
100
AcDbLine
 10
79.238919
 20
180.508534
 30
0.0
 11
79.238919
 21
180.490964
 31
0.0
  0
LINE
  5
236
100
AcDbEntity
  8
レイヤー_2
 62
     7
100
AcDbLine
 10
79.238919
 20
180.490964
 30
0.0
 11
79.238919
 21
180.441355
 31
0.0
  0
LINE
  5
235
100
AcDbEntity
  8
レイヤー_2
 62
     7
100
AcDbLine
 10
79.238919
 20
180.441355
 30
0.0
 11
79.235129
 21
180.054815
 31
0.0
  0
LINE
  5
234
100
AcDbEntity
  8
レイヤー_2
 62
     7
100
AcDbLine
 10
79.235129
 20
180.054815
 30
0.0
 11
79.235818
 21
180.054815
 31
0.0
  0
LINE
  5
233
100
AcDbEntity
  8
レイヤー_2
 62
     7
100
AcDbLine
 10
79.235818
 20
180.054815
 30
0.0
 11
79.247187
 21
180.446867
 31
0.0
  0
LINE
  5
232
100
AcDbEntity
  8
レイヤー_2
 62
     7
100
AcDbLine
 10
79.247187
 20
180.446867
 30
0.0
 11
79.247876
 21
180.480629
 31
0.0
  0
LINE
  5
231
100
AcDbEntity
  8
レイヤー_2
 62
     7
100
AcDbLine
 10
79.247876
 20
180.480629
 30
0.0
 11
79.24822
 21
180.496476
 31
0.0
  0
LINE
  5
230
100
AcDbEntity
  8
レイヤー_2
 62
     7
100
AcDbLine
 10
79.24822
 20
180.496476
 30
0.0
 11
79.249254
 21
180.510257
 31
0.0
  0
LINE
  5
22F
100
AcDbEntity
  8
レイヤー_2
 62
     7
100
AcDbLine
 10
79.249254
 20
180.510257
 30
0.0
 11
79.249254
 21
180.522314
 31
0.0
  0
LINE
  5
22E
100
AcDbEntity
  8
レイヤー_2
 62
     7
100
AcDbLine
 10
79.249254
 20
180.522314
 30
0.0
 11
79.249599
 21
180.530583
 31
0.0
  0
LINE
  5
22D
100
AcDbEntity
  8
レイヤー_2
 62
     7
100
AcDbLine
 10
79.249599
 20
180.530583
 30
0.0
 11
79.249599
 21
180.536439
 31
0.0
  0
LINE
  5
22C
100
AcDbEntity
  8
レイヤー_2
 62
     7
100
AcDbLine
 10
79.249599
 20
180.536439
 30
0.0
 11
79.250288
 21
180.539195
 31
0.0
  0
LINE
  5
22B
100
AcDbEntity
  8
レイヤー_2
 62
     7
100
AcDbLine
 10
79.250288
 20
180.539195
 30
0.0
 11
79.250977
 21
180.55332
 31
0.0
  0
LINE
  5
22A
100
AcDbEntity
  8
レイヤー_2
 62
     7
100
AcDbLine
 10
79.250977
 20
180.55332
 30
0.0
 11
79.247187
 21
180.55332
 31
0.0
  0
LINE
  5
229
100
AcDbEntity
  8
レイヤー_2
 62
     7
100
AcDbLine
 10
79.247187
 20
180.55332
 30
0.0
 11
79.246498
 21
180.539195
 31
0.0
  0
LINE
  5
228
100
AcDbEntity
  8
レイヤー_2
 62
     7
100
AcDbLine
 10
79.246498
 20
180.539195
 30
0.0
 11
79.247187
 21
180.539195
 31
0.0
  0
LINE
  5
227
100
AcDbEntity
  8
レイヤー_2
 62
     7
100
AcDbLine
 10
79.247187
 20
180.539195
 30
0.0
 11
79.247187
 21
180.536439
 31
0.0
  0
LINE
  5
226
100
AcDbEntity
  8
レイヤー_2
 62
     7
100
AcDbLine
 10
79.247187
 20
180.536439
 30
0.0
 11
79.247187
 21
180.534028
 31
0.0
  0
LINE
  5
225
100
AcDbEntity
  8
レイヤー_2
 62
     7
100
AcDbLine
 10
79.247187
 20
180.534028
 30
0.0
 11
79.247876
 21
180.530238
 31
0.0
  0
LINE
  5
224
100
AcDbEntity
  8
レイヤー_2
 62
     7
100
AcDbLine
 10
79.247876
 20
180.530238
 30
0.0
 11
79.247876
 21
180.524726
 31
0.0
  0
LINE
  5
223
100
AcDbEntity
  8
レイヤー_2
 62
     7
100
AcDbLine
 10
79.247876
 20
180.524726
 30
0.0
 11
79.247876
 21
180.517147
 31
0.0
  0
LINE
  5
222
100
AcDbEntity
  8
レイヤー_2
 62
     7
100
AcDbLine
 10
79.247876
 20
180.517147
 30
0.0
 11
79.247876
 21
180.51129
 31
0.0
  0
LINE
  5
221
100
AcDbEntity
  8
レイヤー_2
 62
     7
100
AcDbLine
 10
79.247876
 20
180.51129
 30
0.0
 11
79.247187
 21
180.5044
 31
0.0
  0
LINE
  5
220
100
AcDbEntity
  8
レイヤー_2
 62
     7
100
AcDbLine
 10
79.247187
 20
180.5044
 30
0.0
 11
79.247187
 21
180.485796
 31
0.0
  0
LINE
  5
21F
100
AcDbEntity
  8
レイヤー_2
 62
     7
100
AcDbLine
 10
79.247187
 20
180.485796
 30
0.0
 11
79.246498
 21
180.459958
 31
0.0
  0
LINE
  5
21E
100
AcDbEntity
  8
レイヤー_2
 62
     7
100
AcDbLine
 10
79.246498
 20
180.459958
 30
0.0
 11
79.246153
 21
180.426196
 31
0.0
  0
LINE
  5
21D
100
AcDbEntity
  8
レイヤー_2
 62
     7
100
AcDbLine
 10
79.246153
 20
180.426196
 30
0.0
 11
79.238919
 21
180.160235
 31
0.0
  0
LINE
  5
21C
100
AcDbEntity
  8
レイヤー_2
 62
     7
100
AcDbLine
 10
79.238919
 20
180.160235
 30
0.0
 11
79.238919
 21
180.160235
 31
0.0
  0
LINE
  5
21B
100
AcDbEntity
  8
レイヤー_2
 62
     7
100
AcDbLine
 10
79.240986
 20
180.47305
 30
0.0
 11
79.240986
 21
180.484763
 31
0.0
  0
LINE
  5
21A
100
AcDbEntity
  8
レイヤー_2
 62
     7
100
AcDbLine
 10
79.240986
 20
180.49751
 30
0.0
 11
79.242019
 21
180.509568
 31
0.0
  0
LINE
  5
219
100
AcDbEntity
  8
レイヤー_2
 62
     7
100
AcDbLine
 10
79.242019
 20
180.509568
 30
0.0
 11
79.242364
 21
180.517491
 31
0.0
  0
LINE
  5
218
100
AcDbEntity
  8
レイヤー_2
 62
     7
100
AcDbLine
 10
79.242364
 20
180.517491
 30
0.0
 11
79.242364
 21
180.523692
 31
0.0
  0
LINE
  5
217
100
AcDbEntity
  8
レイヤー_2
 62
     7
100
AcDbLine
 10
79.242364
 20
180.523692
 30
0.0
 11
79.242364
 21
180.52886
 31
0.0
  0
LINE
  5
216
100
AcDbEntity
  8
レイヤー_2
 62
     7
100
AcDbLine
 10
79.242364
 20
180.52886
 30
0.0
 11
79.242708
 21
180.532305
 31
0.0
  0
LINE
  5
215
100
AcDbEntity
  8
レイヤー_2
 62
     7
100
AcDbLine
 10
79.242708
 20
180.532305
 30
0.0
 11
79.242708
 21
180.53575
 31
0.0
  0
LINE
  5
214
100
AcDbEntity
  8
レイヤー_2
 62
     7
100
AcDbLine
 10
79.242708
 20
180.53575
 30
0.0
 11
79.242708
 21
180.537473
 31
0.0
  0
LINE
  5
213
100
AcDbEntity
  8
レイヤー_2
 62
     7
100
AcDbLine
 10
79.242708
 20
180.537473
 30
0.0
 11
79.243742
 21
180.539195
 31
0.0
  0
LINE
  5
212
100
AcDbEntity
  8
レイヤー_2
 62
     7
100
AcDbLine
 10
79.243742
 20
180.539195
 30
0.0
 11
79.243742
 21
180.55332
 31
0.0
  0
LINE
  5
211
100
AcDbEntity
  8
レイヤー_2
 62
     7
100
AcDbLine
 10
79.243742
 20
180.55332
 30
0.0
 11
79.23823
 21
180.55332
 31
0.0
  0
LINE
  5
210
100
AcDbEntity
  8
レイヤー_2
 62
     7
100
AcDbLine
 10
79.23823
 20
180.55332
 30
0.0
 11
79.23823
 21
180.539195
 31
0.0
  0
LINE
  5
20F
100
AcDbEntity
  8
レイヤー_2
 62
     7
100
AcDbLine
 10
79.256489
 20
180.559866
 30
0.0
 11
79.255111
 21
180.542641
 31
0.0
  0
LINE
  5
20E
100
AcDbEntity
  8
レイヤー_2
 62
     7
100
AcDbLine
 10
79.255111
 20
180.542641
 30
0.0
 11
79.253733
 21
180.527138
 31
0.0
  0
LINE
  5
20D
100
AcDbEntity
  8
レイヤー_2
 62
     7
100
AcDbLine
 10
79.253733
 20
180.527138
 30
0.0
 11
79.253733
 21
180.518869
 31
0.0
  0
LINE
  5
20C
100
AcDbEntity
  8
レイヤー_2
 62
     7
100
AcDbLine
 10
79.253733
 20
180.518869
 30
0.0
 11
79.253733
 21
180.517836
 31
0.0
  0
LINE
  5
20B
100
AcDbEntity
  8
レイヤー_2
 62
     7
100
AcDbLine
 10
79.253733
 20
180.517836
 30
0.0
 11
79.254766
 21
180.515424
 31
0.0
  0
LINE
  5
20A
100
AcDbEntity
  8
レイヤー_2
 62
     7
100
AcDbLine
 10
79.254766
 20
180.515424
 30
0.0
 11
79.254766
 21
180.508534
 31
0.0
  0
LINE
  5
209
100
AcDbEntity
  8
レイヤー_2
 62
     7
100
AcDbLine
 10
79.254766
 20
180.508534
 30
0.0
 11
79.254766
 21
180.499232
 31
0.0
  0
LINE
  5
208
100
AcDbEntity
  8
レイヤー_2
 62
     7
100
AcDbLine
 10
79.254766
 20
180.499232
 30
0.0
 11
79.254766
 21
180.489242
 31
0.0
  0
LINE
  5
207
100
AcDbEntity
  8
レイヤー_2
 62
     7
100
AcDbLine
 10
79.254766
 20
180.489242
 30
0.0
 11
79.253733
 21
180.463059
 31
0.0
  0
LINE
  5
206
100
AcDbEntity
  8
レイヤー_2
 62
     7
100
AcDbLine
 10
79.253733
 20
180.463059
 30
0.0
 11
79.253388
 21
180.390367
 31
0.0
  0
LINE
  5
205
100
AcDbEntity
  8
レイヤー_2
 62
     7
100
AcDbLine
 10
79.24822
 20
180.11786
 30
0.0
 11
79.247876
 21
180.105458
 31
0.0
  0
LINE
  5
204
100
AcDbEntity
  8
レイヤー_2
 62
     7
100
AcDbLine
 10
79.247876
 20
180.105458
 30
0.0
 11
79.247876
 21
180.096845
 31
0.0
  0
LINE
  5
203
100
AcDbEntity
  8
レイヤー_2
 62
     7
100
AcDbLine
 10
79.247876
 20
180.096845
 30
0.0
 11
79.247876
 21
180.08961
 31
0.0
  0
LINE
  5
202
100
AcDbEntity
  8
レイヤー_2
 62
     7
100
AcDbLine
 10
79.247876
 20
180.08961
 30
0.0
 11
79.247876
 21
180.085821
 31
0.0
  0
LINE
  5
201
100
AcDbEntity
  8
レイヤー_2
 62
     7
100
AcDbLine
 10
79.247876
 20
180.085821
 30
0.0
 11
79.247187
 21
180.08272
 31
0.0
  0
LINE
  5
200
100
AcDbEntity
  8
レイヤー_2
 62
     7
100
AcDbLine
 10
79.247187
 20
180.08272
 30
0.0
 11
79.247187
 21
180.080653
 31
0.0
  0
LINE
  5
1FF
100
AcDbEntity
  8
レイヤー_2
 62
     7
100
AcDbLine
 10
79.247187
 20
180.080653
 30
0.0
 11
79.247187
 21
180.078931
 31
0.0
  0
POLYLINE
  5
1FA
100
AcDbEntity
  8
レイヤー_2
 62
     7
100
AcDb2dPolyline
 66
     1
 10
0.0
 20
0.0
 30
0.0
  0
VERTEX
  5
1FB
100
AcDbEntity
  8
レイヤー_2
 62
     7
100
AcDbVertex
100
AcDb2dVertex
 10
79.247187
 20
180.078931
 30
0.0
  0
VERTEX
  5
1FC
100
AcDbEntity
  8
レイヤー_2
 62
     7
100
AcDbVertex
100
AcDb2dVertex
 10
79.246498
 20
180.067562
 30
0.0
  0
VERTEX
  5
1FD
100
AcDbEntity
  8
レイヤー_2
 62
     7
100
AcDbVertex
100
AcDb2dVertex
 10
79.246498
 20
180.064806
 30
0.0
  0
SEQEND
  5
1FE
100
AcDbEntity
  8
レイヤー_2
 62
     7
  0
LINE
  5
1F9
100
AcDbEntity
  8
レイヤー_2
 62
     7
100
AcDbLine
 10
79.246498
 20
180.064806
 30
0.0
 11
79.249254
 21
180.064806
 31
0.0
  0
POLYLINE
  5
1F4
100
AcDbEntity
  8
レイヤー_2
 62
     7
100
AcDb2dPolyline
 66
     1
 10
0.0
 20
0.0
 30
0.0
  0
VERTEX
  5
1F5
100
AcDbEntity
  8
レイヤー_2
 62
     7
100
AcDbVertex
100
AcDb2dVertex
 10
79.249254
 20
180.064806
 30
0.0
  0
VERTEX
  5
1F6
100
AcDbEntity
  8
レイヤー_2
 62
     7
100
AcDbVertex
100
AcDb2dVertex
 10
79.249599
 20
180.066528
 30
0.0
  0
VERTEX
  5
1F7
100
AcDbEntity
  8
レイヤー_2
 62
     7
100
AcDbVertex
100
AcDb2dVertex
 10
79.249599
 20
180.078931
 30
0.0
  0
SEQEND
  5
1F8
100
AcDbEntity
  8
レイヤー_2
 62
     7
  0
LINE
  5
1F3
100
AcDbEntity
  8
レイヤー_2
 62
     7
100
AcDbLine
 10
79.249599
 20
180.078931
 30
0.0
 11
79.249254
 21
180.080653
 31
0.0
  0
LINE
  5
1F2
100
AcDbEntity
  8
レイヤー_2
 62
     7
100
AcDbLine
 10
79.249254
 20
180.080653
 30
0.0
 11
79.249254
 21
180.08272
 31
0.0
  0
LINE
  5
1F1
100
AcDbEntity
  8
レイヤー_2
 62
     7
100
AcDbLine
 10
79.249254
 20
180.08272
 30
0.0
 11
79.249254
 21
180.085821
 31
0.0
  0
LINE
  5
1F0
100
AcDbEntity
  8
レイヤー_2
 62
     7
100
AcDbLine
 10
79.249254
 20
180.085821
 30
0.0
 11
79.249254
 21
180.08961
 31
0.0
  0
LINE
  5
1EF
100
AcDbEntity
  8
レイヤー_2
 62
     7
100
AcDbLine
 10
79.249254
 20
180.08961
 30
0.0
 11
79.249254
 21
180.096845
 31
0.0
  0
LINE
  5
1EE
100
AcDbEntity
  8
レイヤー_2
 62
     7
100
AcDbLine
 10
79.249254
 20
180.096845
 30
0.0
 11
79.249599
 21
180.105458
 31
0.0
  0
LINE
  5
1ED
100
AcDbEntity
  8
レイヤー_2
 62
     7
100
AcDbLine
 10
79.249599
 20
180.105458
 30
0.0
 11
79.249599
 21
180.11786
 31
0.0
  0
LINE
  5
1EC
100
AcDbEntity
  8
レイヤー_2
 62
     7
100
AcDbLine
 10
79.253733
 20
180.37452
 30
0.0
 11
79.256489
 21
180.559866
 31
0.0
  0
LINE
  5
1EB
100
AcDbEntity
  8
レイヤー_2
 62
     7
100
AcDbLine
 10
79.259245
 20
180.559866
 30
0.0
 11
79.258211
 21
180.542641
 31
0.0
  0
LINE
  5
1EA
100
AcDbEntity
  8
レイヤー_2
 62
     7
100
AcDbLine
 10
79.257522
 20
180.527138
 30
0.0
 11
79.257522
 21
180.518869
 31
0.0
  0
LINE
  5
1E9
100
AcDbEntity
  8
レイヤー_2
 62
     7
100
AcDbLine
 10
79.257522
 20
180.518869
 30
0.0
 11
79.257522
 21
180.517836
 31
0.0
  0
LINE
  5
1E8
100
AcDbEntity
  8
レイヤー_2
 62
     7
100
AcDbLine
 10
79.25201
 20
180.11786
 30
0.0
 11
79.251321
 21
180.105458
 31
0.0
  0
LINE
  5
1E7
100
AcDbEntity
  8
レイヤー_2
 62
     7
100
AcDbLine
 10
79.251321
 20
180.105458
 30
0.0
 11
79.251321
 21
180.096845
 31
0.0
  0
LINE
  5
1E6
100
AcDbEntity
  8
レイヤー_2
 62
     7
100
AcDbLine
 10
79.251321
 20
180.096845
 30
0.0
 11
79.251321
 21
180.08961
 31
0.0
  0
LINE
  5
1E5
100
AcDbEntity
  8
レイヤー_2
 62
     7
100
AcDbLine
 10
79.251321
 20
180.08961
 30
0.0
 11
79.251321
 21
180.085821
 31
0.0
  0
LINE
  5
1E4
100
AcDbEntity
  8
レイヤー_2
 62
     7
100
AcDbLine
 10
79.251321
 20
180.085821
 30
0.0
 11
79.251321
 21
180.08272
 31
0.0
  0
LINE
  5
1E3
100
AcDbEntity
  8
レイヤー_2
 62
     7
100
AcDbLine
 10
79.251321
 20
180.08272
 30
0.0
 11
79.250977
 21
180.080653
 31
0.0
  0
LINE
  5
1E2
100
AcDbEntity
  8
レイヤー_2
 62
     7
100
AcDbLine
 10
79.250977
 20
180.080653
 30
0.0
 11
79.250977
 21
180.078931
 31
0.0
  0
POLYLINE
  5
1DD
100
AcDbEntity
  8
レイヤー_2
 62
     7
100
AcDb2dPolyline
 66
     1
 10
0.0
 20
0.0
 30
0.0
  0
VERTEX
  5
1DE
100
AcDbEntity
  8
レイヤー_2
 62
     7
100
AcDbVertex
100
AcDb2dVertex
 10
79.250977
 20
180.078931
 30
0.0
  0
VERTEX
  5
1DF
100
AcDbEntity
  8
レイヤー_2
 62
     7
100
AcDbVertex
100
AcDb2dVertex
 10
79.250977
 20
180.066528
 30
0.0
  0
VERTEX
  5
1E0
100
AcDbEntity
  8
レイヤー_2
 62
     7
100
AcDbVertex
100
AcDb2dVertex
 10
79.250288
 20
180.064806
 30
0.0
  0
SEQEND
  5
1E1
100
AcDbEntity
  8
レイヤー_2
 62
     7
  0
LINE
  5
1DC
100
AcDbEntity
  8
レイヤー_2
 62
     7
100
AcDbLine
 10
79.250288
 20
180.064806
 30
0.0
 11
79.252699
 21
180.064806
 31
0.0
  0
LINE
  5
1DB
100
AcDbEntity
  8
レイヤー_2
 62
     7
100
AcDbLine
 10
79.252699
 20
180.064806
 30
0.0
 11
79.252699
 21
180.078931
 31
0.0
  0
LINE
  5
1DA
100
AcDbEntity
  8
レイヤー_2
 62
     7
100
AcDbLine
 10
79.252699
 20
180.078931
 30
0.0
 11
79.252699
 21
180.080653
 31
0.0
  0
LINE
  5
1D9
100
AcDbEntity
  8
レイヤー_2
 62
     7
100
AcDbLine
 10
79.252699
 20
180.080653
 30
0.0
 11
79.252699
 21
180.08272
 31
0.0
  0
LINE
  5
1D8
100
AcDbEntity
  8
レイヤー_2
 62
     7
100
AcDbLine
 10
79.252699
 20
180.08272
 30
0.0
 11
79.25201
 21
180.085821
 31
0.0
  0
LINE
  5
1D7
100
AcDbEntity
  8
レイヤー_2
 62
     7
100
AcDbLine
 10
79.25201
 20
180.085821
 30
0.0
 11
79.252699
 21
180.08961
 31
0.0
  0
LINE
  5
1D6
100
AcDbEntity
  8
レイヤー_2
 62
     7
100
AcDbLine
 10
79.252699
 20
180.08961
 30
0.0
 11
79.252699
 21
180.096845
 31
0.0
  0
LINE
  5
1D5
100
AcDbEntity
  8
レイヤー_2
 62
     7
100
AcDbLine
 10
79.252699
 20
180.096845
 30
0.0
 11
79.252699
 21
180.105458
 31
0.0
  0
LINE
  5
1D4
100
AcDbEntity
  8
レイヤー_2
 62
     7
100
AcDbLine
 10
79.252699
 20
180.105458
 30
0.0
 11
79.253388
 21
180.11786
 31
0.0
  0
LINE
  5
1D3
100
AcDbEntity
  8
レイヤー_2
 62
     7
100
AcDbLine
 10
79.258211
 20
180.064806
 30
0.0
 11
79.258211
 21
180.078931
 31
0.0
  0
LINE
  5
1D2
100
AcDbEntity
  8
レイヤー_2
 62
     7
100
AcDbLine
 10
79.258211
 20
180.078931
 30
0.0
 11
79.258211
 21
180.080653
 31
0.0
  0
LINE
  5
1D1
100
AcDbEntity
  8
レイヤー_2
 62
     7
100
AcDbLine
 10
79.258211
 20
180.080653
 30
0.0
 11
79.258211
 21
180.08272
 31
0.0
  0
LINE
  5
1D0
100
AcDbEntity
  8
レイヤー_2
 62
     7
100
AcDbLine
 10
79.258211
 20
180.08272
 30
0.0
 11
79.258211
 21
180.085821
 31
0.0
  0
LINE
  5
1CF
100
AcDbEntity
  8
レイヤー_2
 62
     7
100
AcDbLine
 10
79.258211
 20
180.085821
 30
0.0
 11
79.258211
 21
180.08961
 31
0.0
  0
LINE
  5
1CE
100
AcDbEntity
  8
レイヤー_2
 62
     7
100
AcDbLine
 10
79.258211
 20
180.08961
 30
0.0
 11
79.258211
 21
180.096845
 31
0.0
  0
LINE
  5
1CD
100
AcDbEntity
  8
レイヤー_2
 62
     7
100
AcDbLine
 10
79.258211
 20
180.096845
 30
0.0
 11
79.258211
 21
180.105458
 31
0.0
  0
LINE
  5
1CC
100
AcDbEntity
  8
レイヤー_2
 62
     7
100
AcDbLine
 10
79.258211
 20
180.105458
 30
0.0
 11
79.2589
 21
180.11786
 31
0.0
  0
LINE
  5
1CB
100
AcDbEntity
  8
レイヤー_2
 62
     7
100
AcDbLine
 10
79.258211
 20
180.11786
 30
0.0
 11
79.258211
 21
180.105458
 31
0.0
  0
LINE
  5
1CA
100
AcDbEntity
  8
レイヤー_2
 62
     7
100
AcDbLine
 10
79.258211
 20
180.105458
 30
0.0
 11
79.258211
 21
180.096845
 31
0.0
  0
LINE
  5
1C9
100
AcDbEntity
  8
レイヤー_2
 62
     7
100
AcDbLine
 10
79.258211
 20
180.096845
 30
0.0
 11
79.257522
 21
180.08961
 31
0.0
  0
LINE
  5
1C8
100
AcDbEntity
  8
レイヤー_2
 62
     7
100
AcDbLine
 10
79.257522
 20
180.08961
 30
0.0
 11
79.257522
 21
180.085821
 31
0.0
  0
LINE
  5
1C7
100
AcDbEntity
  8
レイヤー_2
 62
     7
100
AcDbLine
 10
79.257522
 20
180.085821
 30
0.0
 11
79.257522
 21
180.08272
 31
0.0
  0
LINE
  5
1C6
100
AcDbEntity
  8
レイヤー_2
 62
     7
100
AcDbLine
 10
79.257522
 20
180.08272
 30
0.0
 11
79.257522
 21
180.080653
 31
0.0
  0
LINE
  5
1C5
100
AcDbEntity
  8
レイヤー_2
 62
     7
100
AcDbLine
 10
79.257522
 20
180.080653
 30
0.0
 11
79.257522
 21
180.078931
 31
0.0
  0
LINE
  5
1C4
100
AcDbEntity
  8
レイヤー_2
 62
     7
100
AcDbLine
 10
79.257522
 20
180.078931
 30
0.0
 11
79.256833
 21
180.064806
 31
0.0
  0
LINE
  5
1C3
100
AcDbEntity
  8
レイヤー_2
 62
     7
100
AcDbLine
 10
79.256833
 20
180.064806
 30
0.0
 11
79.258211
 21
180.064806
 31
0.0
  0
LINE
  5
1C2
100
AcDbEntity
  8
レイヤー_2
 62
     7
100
AcDbLine
 10
79.245464
 20
180.064806
 30
0.0
 11
79.245464
 21
180.078931
 31
0.0
  0
LINE
  5
1C1
100
AcDbEntity
  8
レイヤー_2
 62
     7
100
AcDbLine
 10
79.245464
 20
180.078931
 30
0.0
 11
79.24512
 21
180.080653
 31
0.0
  0
LINE
  5
1C0
100
AcDbEntity
  8
レイヤー_2
 62
     7
100
AcDbLine
 10
79.24512
 20
180.080653
 30
0.0
 11
79.24512
 21
180.08272
 31
0.0
  0
LINE
  5
1BF
100
AcDbEntity
  8
レイヤー_2
 62
     7
100
AcDbLine
 10
79.24512
 20
180.08272
 30
0.0
 11
79.24512
 21
180.085821
 31
0.0
  0
LINE
  5
1BE
100
AcDbEntity
  8
レイヤー_2
 62
     7
100
AcDbLine
 10
79.24512
 20
180.085821
 30
0.0
 11
79.24512
 21
180.08961
 31
0.0
  0
LINE
  5
1BD
100
AcDbEntity
  8
レイヤー_2
 62
     7
100
AcDbLine
 10
79.24512
 20
180.08961
 30
0.0
 11
79.24512
 21
180.096845
 31
0.0
  0
LINE
  5
1BC
100
AcDbEntity
  8
レイヤー_2
 62
     7
100
AcDbLine
 10
79.24512
 20
180.096845
 30
0.0
 11
79.245464
 21
180.105458
 31
0.0
  0
LINE
  5
1BB
100
AcDbEntity
  8
レイヤー_2
 62
     7
100
AcDbLine
 10
79.245464
 20
180.105458
 30
0.0
 11
79.245464
 21
180.11786
 31
0.0
  0
SPLINE
  5
1BA
100
AcDbEntity
  8
レイヤー_2
 62
     7
100
AcDbSpline
210
0.0
220
0.0
230
1.0
 70
     8
 71
     3
 72
    11
 73
     7
 74
     0
 42
0.00000001
 43
0.00000001
 40
0.0
 40
0.0
 40
0.0
 40
0.0
 40
1.0
 40
1.0
 40
1.0
 40
2.0
 40
2.0
 40
2.0
 40
2.0
 10
79.245464409722217
 20
180.11786024305553
 30
0.0
 10
79.246497938368051
 20
180.15851236979165
 30
0.0
 10
79.247186957465274
 20
180.19847547743055
 30
0.0
 10
79.247875976562497
 20
180.23878309461804
 30
0.0
 10
79.248220486111109
 20
180.28666992187499
 30
0.0
 10
79.249254014756943
 20
180.33455674913193
 30
0.0
 10
79.250287543402777
 20
180.38244357638888
 30
0.0
  0
LINE
  5
1B9
100
AcDbEntity
  8
レイヤー_2
 62
     7
100
AcDbLine
 10
79.250288
 20
180.382444
 30
0.0
 11
79.249254
 21
180.363496
 31
0.0
  0
LINE
  5
1B8
100
AcDbEntity
  8
レイヤー_2
 62
     7
100
AcDbLine
 10
79.249254
 20
180.363496
 30
0.0
 11
79.247187
 21
180.343859
 31
0.0
  0
LINE
  5
1B7
100
AcDbEntity
  8
レイヤー_2
 62
     7
100
AcDbLine
 10
79.247187
 20
180.343859
 30
0.0
 11
79.247187
 21
180.337657
 31
0.0
  0
LINE
  5
1B6
100
AcDbEntity
  8
レイヤー_2
 62
     7
100
AcDbLine
 10
79.247187
 20
180.337657
 30
0.0
 11
79.247187
 21
180.334901
 31
0.0
  0
LINE
  5
1B5
100
AcDbEntity
  8
レイヤー_2
 62
     7
100
AcDbLine
 10
79.247187
 20
180.334901
 30
0.0
 11
79.247876
 21
180.330423
 31
0.0
  0
LINE
  5
1B4
100
AcDbEntity
  8
レイヤー_2
 62
     7
100
AcDbLine
 10
79.247876
 20
180.330423
 30
0.0
 11
79.247876
 21
180.32181
 31
0.0
  0
LINE
  5
1B3
100
AcDbEntity
  8
レイヤー_2
 62
     7
100
AcDbLine
 10
79.247876
 20
180.32181
 30
0.0
 11
79.247187
 21
180.310786
 31
0.0
  0
LINE
  5
1B2
100
AcDbEntity
  8
レイヤー_2
 62
     7
100
AcDbLine
 10
79.247187
 20
180.310786
 30
0.0
 11
79.247187
 21
180.299072
 31
0.0
  0
LINE
  5
1B1
100
AcDbEntity
  8
レイヤー_2
 62
     7
100
AcDbLine
 10
79.247187
 20
180.299072
 30
0.0
 11
79.247187
 21
180.288048
 31
0.0
  0
SPLINE
  5
1B0
100
AcDbEntity
  8
レイヤー_2
 62
     7
100
AcDbSpline
210
0.0
220
0.0
230
1.0
 70
     8
 71
     3
 72
    11
 73
     7
 74
     0
 42
0.00000001
 43
0.00000001
 40
0.0
 40
0.0
 40
0.0
 40
0.0
 40
1.0
 40
1.0
 40
1.0
 40
2.0
 40
2.0
 40
2.0
 40
2.0
 10
79.247186957465274
 20
180.28804796006943
 30
0.0
 10
79.246497938368051
 20
180.25669759114581
 30
0.0
 10
79.24615342881944
 20
180.22500271267359
 30
0.0
 10
79.245464409722217
 20
180.19399685329859
 30
0.0
 10
79.245119900173606
 20
180.16884765624999
 30
0.0
 10
79.245119900173606
 20
180.14300944010415
 30
0.0
 10
79.24374186197916
 20
180.11786024305553
 30
0.0
  0
LINE
  5
1AF
100
AcDbEntity
  8
レイヤー_2
 62
     7
100
AcDbLine
 10
79.243742
 20
180.11786
 30
0.0
 11
79.243742
 21
180.105458
 31
0.0
  0
LINE
  5
1AE
100
AcDbEntity
  8
レイヤー_2
 62
     7
100
AcDbLine
 10
79.243742
 20
180.105458
 30
0.0
 11
79.243742
 21
180.096845
 31
0.0
  0
LINE
  5
1AD
100
AcDbEntity
  8
レイヤー_2
 62
     7
100
AcDbLine
 10
79.243742
 20
180.096845
 30
0.0
 11
79.242708
 21
180.08961
 31
0.0
  0
LINE
  5
1AC
100
AcDbEntity
  8
レイヤー_2
 62
     7
100
AcDbLine
 10
79.242708
 20
180.08961
 30
0.0
 11
79.242708
 21
180.085821
 31
0.0
  0
LINE
  5
1AB
100
AcDbEntity
  8
レイヤー_2
 62
     7
100
AcDbLine
 10
79.242708
 20
180.085821
 30
0.0
 11
79.242708
 21
180.08272
 31
0.0
  0
LINE
  5
1AA
100
AcDbEntity
  8
レイヤー_2
 62
     7
100
AcDbLine
 10
79.242708
 20
180.08272
 30
0.0
 11
79.242708
 21
180.080653
 31
0.0
  0
LINE
  5
1A9
100
AcDbEntity
  8
レイヤー_2
 62
     7
100
AcDbLine
 10
79.242708
 20
180.080653
 30
0.0
 11
79.242364
 21
180.078931
 31
0.0
  0
POLYLINE
  5
1A4
100
AcDbEntity
  8
レイヤー_2
 62
     7
100
AcDb2dPolyline
 66
     1
 10
0.0
 20
0.0
 30
0.0
  0
VERTEX
  5
1A5
100
AcDbEntity
  8
レイヤー_2
 62
     7
100
AcDbVertex
100
AcDb2dVertex
 10
79.242364
 20
180.078931
 30
0.0
  0
VERTEX
  5
1A6
100
AcDbEntity
  8
レイヤー_2
 62
     7
100
AcDbVertex
100
AcDb2dVertex
 10
79.242364
 20
180.068251
 30
0.0
  0
VERTEX
  5
1A7
100
AcDbEntity
  8
レイヤー_2
 62
     7
100
AcDbVertex
100
AcDb2dVertex
 10
79.242019
 20
180.064806
 30
0.0
  0
SEQEND
  5
1A8
100
AcDbEntity
  8
レイヤー_2
 62
     7
  0
LINE
  5
1A3
100
AcDbEntity
  8
レイヤー_2
 62
     7
100
AcDbLine
 10
79.242019
 20
180.064806
 30
0.0
 11
79.245464
 21
180.064806
 31
0.0
  0
LINE
  5
1A2
100
AcDbEntity
  8
レイヤー_2
 62
     7
100
AcDbLine
 10
79.249599
 20
180.467193
 30
0.0
 11
79.249599
 21
180.45858
 31
0.0
  0
LINE
  5
1A1
100
AcDbEntity
  8
レイヤー_2
 62
     7
100
AcDbLine
 10
79.249599
 20
180.45858
 30
0.0
 11
79.249599
 21
180.452379
 31
0.0
  0
LINE
  5
1A0
100
AcDbEntity
  8
レイヤー_2
 62
     7
100
AcDbLine
 10
79.249599
 20
180.452379
 30
0.0
 11
79.249599
 21
180.445833
 31
0.0
  0
LINE
  5
19F
100
AcDbEntity
  8
レイヤー_2
 62
     7
100
AcDbLine
 10
79.249599
 20
180.445833
 30
0.0
 11
79.249599
 21
180.441355
 31
0.0
  0
LINE
  5
19E
100
AcDbEntity
  8
レイヤー_2
 62
     7
100
AcDbLine
 10
79.249599
 20
180.441355
 30
0.0
 11
79.249599
 21
180.437221
 31
0.0
  0
LINE
  5
19D
100
AcDbEntity
  8
レイヤー_2
 62
     7
100
AcDbLine
 10
79.249599
 20
180.437221
 30
0.0
 11
79.249599
 21
180.434809
 31
0.0
  0
LINE
  5
19C
100
AcDbEntity
  8
レイヤー_2
 62
     7
100
AcDbLine
 10
79.249599
 20
180.434809
 30
0.0
 11
79.250288
 21
180.43412
 31
0.0
  0
LINE
  5
19B
100
AcDbEntity
  8
レイヤー_2
 62
     7
100
AcDbLine
 10
79.251321
 20
180.496821
 30
0.0
 11
79.251321
 21
180.502677
 31
0.0
  0
LINE
  5
19A
100
AcDbEntity
  8
レイヤー_2
 62
     7
100
AcDbLine
 10
79.251321
 20
180.502677
 30
0.0
 11
79.251321
 21
180.507845
 31
0.0
  0
LINE
  5
199
100
AcDbEntity
  8
レイヤー_2
 62
     7
100
AcDbLine
 10
79.251321
 20
180.507845
 30
0.0
 11
79.251321
 21
180.51129
 31
0.0
  0
LINE
  5
198
100
AcDbEntity
  8
レイヤー_2
 62
     7
100
AcDbLine
 10
79.251321
 20
180.51129
 30
0.0
 11
79.251321
 21
180.513702
 31
0.0
  0
LINE
  5
197
100
AcDbEntity
  8
レイヤー_2
 62
     7
100
AcDbLine
 10
79.251321
 20
180.513702
 30
0.0
 11
79.251321
 21
180.514391
 31
0.0
  0
LINE
  5
196
100
AcDbEntity
  8
レイヤー_2
 62
     7
100
AcDbLine
 10
79.251321
 20
180.514391
 30
0.0
 11
79.251321
 21
180.513702
 31
0.0
  0
LINE
  5
195
100
AcDbEntity
  8
レイヤー_2
 62
     7
100
AcDbLine
 10
79.251321
 20
180.513702
 30
0.0
 11
79.250977
 21
180.51129
 31
0.0
  0
LINE
  5
194
100
AcDbEntity
  8
レイヤー_2
 62
     7
100
AcDbLine
 10
79.250977
 20
180.51129
 30
0.0
 11
79.250977
 21
180.507845
 31
0.0
  0
LINE
  5
193
100
AcDbEntity
  8
レイヤー_2
 62
     7
100
AcDbLine
 10
79.250977
 20
180.507845
 30
0.0
 11
79.250977
 21
180.502677
 31
0.0
  0
LINE
  5
192
100
AcDbEntity
  8
レイヤー_2
 62
     7
100
AcDbLine
 10
79.250977
 20
180.502677
 30
0.0
 11
79.250977
 21
180.496821
 31
0.0
  0
LINE
  5
191
100
AcDbEntity
  8
レイヤー_2
 62
     7
100
AcDbLine
 10
79.250977
 20
180.496821
 30
0.0
 11
79.250288
 21
180.489931
 31
0.0
  0
LINE
  5
190
100
AcDbEntity
  8
レイヤー_2
 62
     7
100
AcDbLine
 10
79.250288
 20
180.489931
 30
0.0
 11
79.250288
 21
180.48304
 31
0.0
  0
LINE
  5
18F
100
AcDbEntity
  8
レイヤー_2
 62
     7
100
AcDbLine
 10
79.250288
 20
180.48304
 30
0.0
 11
79.249599
 21
180.474772
 31
0.0
  0
LINE
  5
18E
100
AcDbEntity
  8
レイヤー_2
 62
     7
100
AcDbLine
 10
79.249599
 20
180.474772
 30
0.0
 11
79.249599
 21
180.467193
 31
0.0
  0
LINE
  5
18D
100
AcDbEntity
  8
レイヤー_2
 62
     7
100
AcDbLine
 10
79.255111
 20
180.123028
 30
0.0
 11
79.255111
 21
180.110626
 31
0.0
  0
LINE
  5
18C
100
AcDbEntity
  8
レイヤー_2
 62
     7
100
AcDbLine
 10
79.255111
 20
180.110626
 30
0.0
 11
79.255111
 21
180.099946
 31
0.0
  0
LINE
  5
18B
100
AcDbEntity
  8
レイヤー_2
 62
     7
100
AcDbLine
 10
79.255111
 20
180.099946
 30
0.0
 11
79.254766
 21
180.090299
 31
0.0
  0
LINE
  5
18A
100
AcDbEntity
  8
レイヤー_2
 62
     7
100
AcDbLine
 10
79.254766
 20
180.090299
 30
0.0
 11
79.254766
 21
180.082031
 31
0.0
  0
LINE
  5
189
100
AcDbEntity
  8
レイヤー_2
 62
     7
100
AcDbLine
 10
79.254766
 20
180.082031
 30
0.0
 11
79.255111
 21
180.074797
 31
0.0
  0
LINE
  5
188
100
AcDbEntity
  8
レイヤー_2
 62
     7
100
AcDbLine
 10
79.255111
 20
180.074797
 30
0.0
 11
79.255111
 21
180.068251
 31
0.0
  0
LINE
  5
187
100
AcDbEntity
  8
レイヤー_2
 62
     7
100
AcDbLine
 10
79.255111
 20
180.063428
 30
0.0
 11
79.255111
 21
180.060327
 31
0.0
  0
LINE
  5
186
100
AcDbEntity
  8
レイヤー_2
 62
     7
100
AcDbLine
 10
79.255111
 20
180.060327
 30
0.0
 11
79.255111
 21
180.057916
 31
0.0
  0
LINE
  5
185
100
AcDbEntity
  8
レイヤー_2
 62
     7
100
AcDbLine
 10
79.255111
 20
180.057916
 30
0.0
 11
79.255111
 21
180.057227
 31
0.0
  0
LINE
  5
184
100
AcDbEntity
  8
レイヤー_2
 62
     7
100
AcDbLine
 10
79.255111
 20
180.057227
 30
0.0
 11
79.255111
 21
180.057916
 31
0.0
  0
LINE
  5
183
100
AcDbEntity
  8
レイヤー_2
 62
     7
100
AcDbLine
 10
79.255111
 20
180.057916
 30
0.0
 11
79.255455
 21
180.059983
 31
0.0
  0
LINE
  5
182
100
AcDbEntity
  8
レイヤー_2
 62
     7
100
AcDbLine
 10
79.255455
 20
180.059983
 30
0.0
 11
79.255455
 21
180.06205
 31
0.0
  0
LINE
  5
181
100
AcDbEntity
  8
レイヤー_2
 62
     7
100
AcDbLine
 10
79.255455
 20
180.06205
 30
0.0
 11
79.255455
 21
180.065839
 31
0.0
  0
LINE
  5
180
100
AcDbEntity
  8
レイヤー_2
 62
     7
100
AcDbLine
 10
79.255455
 20
180.065839
 30
0.0
 11
79.256489
 21
180.075486
 31
0.0
  0
LINE
  5
17F
100
AcDbEntity
  8
レイヤー_2
 62
     7
100
AcDbLine
 10
79.256489
 20
180.075486
 30
0.0
 11
79.256489
 21
180.087543
 31
0.0
  0
LINE
  5
17E
100
AcDbEntity
  8
レイヤー_2
 62
     7
100
AcDbLine
 10
79.256489
 20
180.087543
 30
0.0
 11
79.256833
 21
180.100635
 31
0.0
  0
LINE
  5
17D
100
AcDbEntity
  8
レイヤー_2
 62
     7
100
AcDbLine
 10
79.256833
 20
180.100635
 30
0.0
 11
79.257522
 21
180.115793
 31
0.0
  0
LINE
  5
17C
100
AcDbEntity
  8
レイヤー_2
 62
     7
100
AcDbLine
 10
79.257522
 20
180.123028
 30
0.0
 11
79.256833
 21
180.111659
 31
0.0
  0
LINE
  5
17B
100
AcDbEntity
  8
レイヤー_2
 62
     7
100
AcDbLine
 10
79.256833
 20
180.111659
 30
0.0
 11
79.256489
 21
180.101668
 31
0.0
  0
LINE
  5
17A
100
AcDbEntity
  8
レイヤー_2
 62
     7
100
AcDbLine
 10
79.256489
 20
180.101668
 30
0.0
 11
79.256489
 21
180.094089
 31
0.0
  0
LINE
  5
179
100
AcDbEntity
  8
レイヤー_2
 62
     7
100
AcDbLine
 10
79.256489
 20
180.094089
 30
0.0
 11
79.256489
 21
180.088577
 31
0.0
  0
LINE
  5
178
100
AcDbEntity
  8
レイヤー_2
 62
     7
100
AcDbLine
 10
79.256489
 20
180.088577
 30
0.0
 11
79.255455
 21
180.085821
 31
0.0
  0
LINE
  5
177
100
AcDbEntity
  8
レイヤー_2
 62
     7
100
AcDbLine
 10
79.255455
 20
180.085821
 30
0.0
 11
79.255455
 21
180.083409
 31
0.0
  0
LINE
  5
176
100
AcDbEntity
  8
レイヤー_2
 62
     7
100
AcDbLine
 10
79.255455
 20
180.083409
 30
0.0
 11
79.255455
 21
180.084443
 31
0.0
  0
LINE
  5
175
100
AcDbEntity
  8
レイヤー_2
 62
     7
100
AcDbLine
 10
79.255455
 20
180.084443
 30
0.0
 11
79.255455
 21
180.087543
 31
0.0
  0
LINE
  5
174
100
AcDbEntity
  8
レイヤー_2
 62
     7
100
AcDbLine
 10
79.255455
 20
180.087543
 30
0.0
 11
79.255455
 21
180.090299
 31
0.0
  0
LINE
  5
173
100
AcDbEntity
  8
レイヤー_2
 62
     7
100
AcDbLine
 10
79.255455
 20
180.090299
 30
0.0
 11
79.255455
 21
180.095467
 31
0.0
  0
LINE
  5
172
100
AcDbEntity
  8
レイヤー_2
 62
     7
100
AcDbLine
 10
79.255455
 20
180.095467
 30
0.0
 11
79.255455
 21
180.101324
 31
0.0
  0
LINE
  5
171
100
AcDbEntity
  8
レイヤー_2
 62
     7
100
AcDbLine
 10
79.255455
 20
180.101324
 30
0.0
 11
79.255455
 21
180.108558
 31
0.0
  0
LINE
  5
170
100
AcDbEntity
  8
レイヤー_2
 62
     7
100
AcDbLine
 10
79.255455
 20
180.108558
 30
0.0
 11
79.255455
 21
180.116138
 31
0.0
  0
LINE
  5
16F
100
AcDbEntity
  8
レイヤー_2
 62
     7
100
AcDbLine
 10
79.259245
 20
179.988325
 30
0.0
 11
79.259245
 21
179.976956
 31
0.0
  0
LINE
  5
16E
100
AcDbEntity
  8
レイヤー_2
 62
     7
100
AcDbLine
 10
79.259245
 20
179.976956
 30
0.0
 11
79.259245
 21
179.971788
 31
0.0
  0
LINE
  5
16D
100
AcDbEntity
  8
レイヤー_2
 62
     7
100
AcDbLine
 10
79.259245
 20
179.971788
 30
0.0
 11
79.259245
 21
179.968343
 31
0.0
  0
LINE
  5
16C
100
AcDbEntity
  8
レイヤー_2
 62
     7
100
AcDbLine
 10
79.259245
 20
179.968343
 30
0.0
 11
79.2589
 21
179.966621
 31
0.0
  0
LINE
  5
16B
100
AcDbEntity
  8
レイヤー_2
 62
     7
100
AcDbLine
 10
79.2589
 20
179.966621
 30
0.0
 11
79.2589
 21
179.965932
 31
0.0
  0
LINE
  5
16A
100
AcDbEntity
  8
レイヤー_2
 62
     7
100
AcDbLine
 10
79.2589
 20
179.965932
 30
0.0
 11
79.2589
 21
179.968343
 31
0.0
  0
LINE
  5
169
100
AcDbEntity
  8
レイヤー_2
 62
     7
100
AcDbLine
 10
79.2589
 20
179.968343
 30
0.0
 11
79.2589
 21
179.970066
 31
0.0
  0
LINE
  5
168
100
AcDbEntity
  8
レイヤー_2
 62
     7
100
AcDbLine
 10
79.2589
 20
179.970066
 30
0.0
 11
79.2589
 21
179.967654
 31
0.0
  0
LINE
  5
167
100
AcDbEntity
  8
レイヤー_2
 62
     7
100
AcDbLine
 10
79.2589
 20
179.967654
 30
0.0
 11
79.2589
 21
179.961797
 31
0.0
  0
LINE
  5
166
100
AcDbEntity
  8
レイヤー_2
 62
     7
100
AcDbLine
 10
79.2589
 20
179.961797
 30
0.0
 11
79.2589
 21
179.958352
 31
0.0
  0
LINE
  5
165
100
AcDbEntity
  8
レイヤー_2
 62
     7
100
AcDbLine
 10
79.2589
 20
179.958352
 30
0.0
 11
79.2589
 21
179.952496
 31
0.0
  0
LINE
  5
164
100
AcDbEntity
  8
レイヤー_2
 62
     7
100
AcDbLine
 10
79.2589
 20
179.952496
 30
0.0
 11
79.258211
 21
179.940438
 31
0.0
  0
LINE
  5
163
100
AcDbEntity
  8
レイヤー_2
 62
     7
100
AcDbLine
 10
79.258211
 20
179.940438
 30
0.0
 11
79.258211
 21
179.93527
 31
0.0
  0
LINE
  5
162
100
AcDbEntity
  8
レイヤー_2
 62
     7
100
AcDbLine
 10
79.258211
 20
179.93527
 30
0.0
 11
79.258211
 21
179.930447
 31
0.0
  0
LINE
  5
161
100
AcDbEntity
  8
レイヤー_2
 62
     7
100
AcDbLine
 10
79.258211
 20
179.930447
 30
0.0
 11
79.258211
 21
179.920456
 31
0.0
  0
LINE
  5
160
100
AcDbEntity
  8
レイヤー_2
 62
     7
100
AcDbLine
 10
79.258211
 20
179.920456
 30
0.0
 11
79.258211
 21
179.9177
 31
0.0
  0
LINE
  5
15F
100
AcDbEntity
  8
レイヤー_2
 62
     7
100
AcDbLine
 10
79.258211
 20
179.9177
 30
0.0
 11
79.258211
 21
179.914944
 31
0.0
  0
LINE
  5
15E
100
AcDbEntity
  8
レイヤー_2
 62
     7
100
AcDbLine
 10
79.258211
 20
179.914944
 30
0.0
 11
79.258211
 21
179.913566
 31
0.0
  0
LINE
  5
15D
100
AcDbEntity
  8
レイヤー_2
 62
     7
100
AcDbLine
 10
79.258211
 20
179.913566
 30
0.0
 11
79.258211
 21
179.912188
 31
0.0
  0
LINE
  5
15C
100
AcDbEntity
  8
レイヤー_2
 62
     7
100
AcDbLine
 10
79.258211
 20
179.912188
 30
0.0
 11
79.258211
 21
179.914255
 31
0.0
  0
LINE
  5
15B
100
AcDbEntity
  8
レイヤー_2
 62
     7
100
AcDbLine
 10
79.258211
 20
179.938026
 30
0.0
 11
79.2589
 21
179.94974
 31
0.0
  0
LINE
  5
15A
100
AcDbEntity
  8
レイヤー_2
 62
     7
100
AcDbLine
 10
79.2589
 20
179.94974
 30
0.0
 11
79.2589
 21
179.961797
 31
0.0
  0
LINE
  5
159
100
AcDbEntity
  8
レイヤー_2
 62
     7
100
AcDbLine
 10
79.2589
 20
179.961797
 30
0.0
 11
79.259245
 21
179.98798
 31
0.0
  0
LINE
  5
158
100
AcDbEntity
  8
レイヤー_2
 62
     7
100
AcDbLine
 10
79.259245
 20
179.98798
 30
0.0
 11
79.260623
 21
180.119927
 31
0.0
  0
LINE
  5
157
100
AcDbEntity
  8
レイヤー_2
 62
     7
100
AcDbLine
 10
79.262345
 20
180.322843
 30
0.0
 11
79.262345
 21
180.311819
 31
0.0
  0
LINE
  5
156
100
AcDbEntity
  8
レイヤー_2
 62
     7
100
AcDbLine
 10
79.262345
 20
180.311819
 30
0.0
 11
79.262345
 21
180.299761
 31
0.0
  0
LINE
  5
155
100
AcDbEntity
  8
レイヤー_2
 62
     7
100
AcDbLine
 10
79.260967
 20
180.112348
 30
0.0
 11
79.260278
 21
180.057227
 31
0.0
  0
LINE
  5
154
100
AcDbEntity
  8
レイヤー_2
 62
     7
100
AcDbLine
 10
79.260278
 20
180.057227
 30
0.0
 11
79.259245
 21
179.999693
 31
0.0
  0
LINE
  5
153
100
AcDbEntity
  8
レイヤー_2
 62
     7
100
AcDbLine
 10
79.259245
 20
179.999693
 30
0.0
 11
79.259245
 21
179.988325
 31
0.0
  0
LINE
  5
152
100
AcDbEntity
  8
レイヤー_2
 62
     7
100
AcDbLine
 10
73.286483
 20
180.927802
 30
0.0
 11
76.254433
 21
176.687923
 31
0.0
  0
LINE
  5
151
100
AcDbEntity
  8
レイヤー_2
 62
     7
100
AcDbLine
 10
73.286483
 20
180.927802
 30
0.0
 11
72.508925
 21
185.333046
 31
0.0
  0
LINE
  5
150
100
AcDbEntity
  8
レイヤー_2
 62
     7
100
AcDbLine
 10
79.238919
 20
180.47305
 30
0.0
 11
79.240986
 21
180.47305
 31
0.0
  0
LINE
  5
14F
100
AcDbEntity
  8
レイヤー_2
 62
     7
100
AcDbLine
 10
79.236507
 20
180.160235
 30
0.0
 11
79.238919
 21
180.160235
 31
0.0
  0
LINE
  5
14E
100
AcDbEntity
  8
レイヤー_2
 62
     7
100
AcDbLine
 10
79.246498
 20
180.446867
 30
0.0
 11
79.247187
 21
180.446867
 31
0.0
  0
LINE
  5
14D
100
AcDbEntity
  8
レイヤー_2
 62
     7
100
AcDbLine
 10
79.247187
 20
180.480629
 30
0.0
 11
79.247876
 21
180.480629
 31
0.0
  0
LINE
  5
14C
100
AcDbEntity
  8
レイヤー_2
 62
     7
100
AcDbLine
 10
79.243742
 20
180.11786
 30
0.0
 11
79.245464
 21
180.11786
 31
0.0
  0
LINE
  5
14B
100
AcDbEntity
  8
レイヤー_2
 62
     7
100
AcDbLine
 10
79.243742
 20
180.105458
 30
0.0
 11
79.245464
 21
180.105458
 31
0.0
  0
LINE
  5
14A
100
AcDbEntity
  8
レイヤー_2
 62
     7
100
AcDbLine
 10
79.194477
 20
185.602452
 30
0.0
 11
79.207224
 21
185.602452
 31
0.0
  0
LINE
  5
149
100
AcDbEntity
  8
レイヤー_2
 62
     7
100
AcDbLine
 10
79.247876
 20
180.105458
 30
0.0
 11
79.249599
 21
180.105458
 31
0.0
  0
LINE
  5
148
100
AcDbEntity
  8
レイヤー_2
 62
     7
100
AcDbLine
 10
79.251321
 20
180.105458
 30
0.0
 11
79.252699
 21
180.105458
 31
0.0
  0
LINE
  5
147
100
AcDbEntity
  8
レイヤー_2
 62
     7
100
AcDbLine
 10
79.258211
 20
180.105458
 30
0.0
 11
79.258211
 21
180.105458
 31
0.0
  0
LINE
  5
146
100
AcDbEntity
  8
レイヤー_2
 62
     7
100
AcDbLine
 10
79.260278
 20
180.10718
 30
0.0
 11
79.260623
 21
180.117171
 31
0.0
  0
LINE
  5
145
100
AcDbEntity
  8
レイヤー_2
 62
     7
100
AcDbLine
 10
79.260278
 20
180.099601
 30
0.0
 11
79.260278
 21
180.10718
 31
0.0
  0
LINE
  5
144
100
AcDbEntity
  8
レイヤー_2
 62
     7
100
AcDbLine
 10
79.260278
 20
180.092022
 30
0.0
 11
79.260278
 21
180.099601
 31
0.0
  0
LINE
  5
143
100
AcDbEntity
  8
レイヤー_2
 62
     7
100
AcDbLine
 10
79.260278
 20
180.086165
 30
0.0
 11
79.260278
 21
180.092022
 31
0.0
  0
LINE
  5
142
100
AcDbEntity
  8
レイヤー_2
 62
     7
100
AcDbLine
 10
79.260278
 20
180.081342
 30
0.0
 11
79.260278
 21
180.086165
 31
0.0
  0
LINE
  5
141
100
AcDbEntity
  8
レイヤー_2
 62
     7
100
AcDbLine
 10
79.260278
 20
180.077553
 30
0.0
 11
79.260278
 21
180.081342
 31
0.0
  0
LINE
  5
140
100
AcDbEntity
  8
レイヤー_2
 62
     7
100
AcDbLine
 10
79.260278
 20
180.075486
 30
0.0
 11
79.260278
 21
180.077553
 31
0.0
  0
LINE
  5
13F
100
AcDbEntity
  8
レイヤー_2
 62
     7
100
AcDbLine
 10
79.260278
 20
180.074797
 30
0.0
 11
79.260278
 21
180.075486
 31
0.0
  0
LINE
  5
13E
100
AcDbEntity
  8
レイヤー_2
 62
     7
100
AcDbLine
 10
79.259245
 20
180.075486
 30
0.0
 11
79.260278
 21
180.074797
 31
0.0
  0
LINE
  5
13D
100
AcDbEntity
  8
レイヤー_2
 62
     7
100
AcDbLine
 10
79.259245
 20
180.077553
 30
0.0
 11
79.259245
 21
180.075486
 31
0.0
  0
LINE
  5
13C
100
AcDbEntity
  8
レイヤー_2
 62
     7
100
AcDbLine
 10
79.259245
 20
180.081342
 30
0.0
 11
79.259245
 21
180.077553
 31
0.0
  0
LINE
  5
13B
100
AcDbEntity
  8
レイヤー_2
 62
     7
100
AcDbLine
 10
79.260278
 20
180.086165
 30
0.0
 11
79.259245
 21
180.081342
 31
0.0
  0
LINE
  5
13A
100
AcDbEntity
  8
レイヤー_2
 62
     7
100
AcDbLine
 10
79.260278
 20
180.092022
 30
0.0
 11
79.260278
 21
180.086165
 31
0.0
  0
LINE
  5
139
100
AcDbEntity
  8
レイヤー_2
 62
     7
100
AcDbLine
 10
79.260278
 20
180.098912
 30
0.0
 11
79.260278
 21
180.092022
 31
0.0
  0
LINE
  5
138
100
AcDbEntity
  8
レイヤー_2
 62
     7
100
AcDbLine
 10
79.260278
 20
180.10718
 30
0.0
 11
79.260278
 21
180.098912
 31
0.0
  0
LINE
  5
137
100
AcDbEntity
  8
レイヤー_2
 62
     7
100
AcDbLine
 10
79.260278
 20
180.117171
 30
0.0
 11
79.260278
 21
180.10718
 31
0.0
  0
LINE
  5
136
100
AcDbEntity
  8
レイヤー_2
 62
     7
100
AcDbLine
 10
79.260278
 20
180.117171
 30
0.0
 11
79.260278
 21
180.117171
 31
0.0
  0
LINE
  5
135
100
AcDbEntity
  8
レイヤー_2
 62
     7
100
AcDbLine
 10
79.259245
 20
180.10718
 30
0.0
 11
79.260278
 21
180.10718
 31
0.0
  0
LINE
  5
134
100
AcDbEntity
  8
レイヤー_2
 62
     7
100
AcDbLine
 10
79.259245
 20
180.098912
 30
0.0
 11
79.260278
 21
180.098912
 31
0.0
  0
LINE
  5
133
100
AcDbEntity
  8
レイヤー_2
 62
     7
100
AcDbLine
 10
79.259245
 20
180.092022
 30
0.0
 11
79.260278
 21
180.092022
 31
0.0
  0
LINE
  5
132
100
AcDbEntity
  8
レイヤー_2
 62
     7
100
AcDbLine
 10
79.259245
 20
180.086165
 30
0.0
 11
79.260278
 21
180.086165
 31
0.0
  0
LINE
  5
131
100
AcDbEntity
  8
レイヤー_2
 62
     7
100
AcDbLine
 10
79.259245
 20
180.081342
 30
0.0
 11
79.259245
 21
180.081342
 31
0.0
  0
LINE
  5
130
100
AcDbEntity
  8
レイヤー_2
 62
     7
100
AcDbLine
 10
79.259245
 20
180.057916
 30
0.0
 11
79.259245
 21
180.057916
 31
0.0
  0
LINE
  5
12F
100
AcDbEntity
  8
レイヤー_2
 62
     7
100
AcDbLine
 10
79.249254
 20
179.473283
 30
0.0
 11
79.249254
 21
179.473283
 31
0.0
  0
LINE
  5
12E
100
AcDbEntity
  8
レイヤー_2
 62
     7
100
AcDbLine
 10
79.249254
 20
179.475694
 30
0.0
 11
79.249254
 21
179.475694
 31
0.0
  0
SPLINE
  5
12D
100
AcDbEntity
  8
レイヤー_2
 62
     7
100
AcDbSpline
210
0.0
220
0.0
230
1.0
 70
     8
 71
     3
 72
    14
 73
    10
 74
     0
 42
0.00000001
 43
0.00000001
 40
0.0
 40
0.0
 40
0.0
 40
0.0
 40
1.0
 40
1.0
 40
1.0
 40
2.0
 40
2.0
 40
2.0
 40
3.0
 40
3.0
 40
3.0
 40
3.0
 10
74.883284505208323
 20
177.84960937499997
 30
0.0
 10
74.965622287326383
 20
177.86407877604165
 30
0.0
 10
75.04727105034722
 20
177.8785481770833
 30
0.0
 10
75.108249240451386
 20
177.88888346354165
 30
0.0
 10
75.167504882812494
 20
177.89956325954859
 30
0.0
 10
75.207123480902766
 20
177.90645345052081
 30
0.0
 10
75.231239149305551
 20
177.91058756510415
 30
0.0
 10
75.256732855902769
 20
177.91472167968749
 30
0.0
 10
75.272235785590269
 20
177.9181667751736
 30
0.0
 10
75.272235785590269
 20
177.9181667751736
 30
0.0
  0
LINE
  5
12C
100
AcDbEntity
  8
レイヤー_2
 62
     7
100
AcDbLine
 10
74.936683
 20
177.547475
 30
0.0
 11
74.883285
 21
177.849609
 31
0.0
  0
LINE
  5
12B
100
AcDbEntity
  8
レイヤー_2
 62
     7
100
AcDbLine
 10
60.40906
 20
161.974609
 30
0.0
 11
67.684413
 21
161.974609
 31
0.0
  0
LINE
  5
12A
100
AcDbEntity
  8
レイヤー_2
 62
     7
100
AcDbLine
 10
53.133708
 20
161.974609
 30
0.0
 11
60.40906
 21
161.974609
 31
0.0
  0
LINE
  5
129
100
AcDbEntity
  8
レイヤー_2
 62
     7
100
AcDbLine
 10
67.484253
 20
163.722306
 30
0.0
 11
53.334557
 21
163.722306
 31
0.0
  0
LINE
  5
128
100
AcDbEntity
  8
レイヤー_2
 62
     7
100
AcDbLine
 10
71.939106
 20
185.188696
 30
0.0
 11
73.454603
 21
176.593528
 31
0.0
  0
LINE
  5
127
100
AcDbEntity
  8
レイヤー_2
 62
     7
100
AcDbLine
 10
60.40906
 20
185.724409
 30
0.0
 11
63.608865
 21
185.724409
 31
0.0
  0
LINE
  5
126
100
AcDbEntity
  8
レイヤー_2
 62
     7
100
AcDbLine
 10
57.209256
 20
185.724409
 30
0.0
 11
60.40906
 21
185.724409
 31
0.0
  0
SPLINE
  5
125
100
AcDbEntity
  8
レイヤー_2
 62
     7
100
AcDbSpline
210
0.0
220
0.0
230
1.0
 70
     8
 71
     3
 72
    20
 73
    16
 74
     0
 42
0.00000001
 43
0.00000001
 40
0.0
 40
0.0
 40
0.0
 40
0.0
 40
1.0
 40
1.0
 40
1.0
 40
2.0
 40
2.0
 40
2.0
 40
3.0
 40
3.0
 40
3.0
 40
4.0
 40
4.0
 40
4.0
 40
5.0
 40
5.0
 40
5.0
 40
5.0
 10
56.392078993055549
 20
205.62810329861108
 30
0.0
 10
56.371408420138884
 20
205.6222466362847
 30
0.0
 10
56.35073784722222
 20
205.61604546440969
 30
0.0
 10
56.331789822048606
 20
205.60949978298609
 30
0.0
 10
56.23084852430555
 20
205.5753933376736
 30
0.0
 10
56.175726996527771
 20
205.53267415364581
 30
0.0
 10
56.146099175347217
 20
205.48961046006943
 30
0.0
 10
56.114748806423606
 20
205.44654676649304
 30
0.0
 10
56.108547634548607
 20
205.40279405381943
 30
0.0
 10
56.134385850694443
 20
205.36007486979165
 30
0.0
 10
56.157123480902776
 20
205.32286783854164
 30
0.0
 10
56.205354817708326
 20
205.28497178819441
 30
0.0
 10
56.27494574652777
 20
205.25155436197915
 30
0.0
 10
56.364518229166663
 20
205.20883517795136
 30
0.0
 10
56.488541666666663
 20
205.17197265624998
 30
0.0
 10
56.612220594618051
 20
205.1351101345486
 30
0.0
  0
SPLINE
  5
124
100
AcDbEntity
  8
レイヤー_2
 62
     7
100
AcDbSpline
210
0.0
220
0.0
230
1.0
 70
     8
 71
     3
 72
    32
 73
    28
 74
     0
 42
0.00000001
 43
0.00000001
 40
0.0
 40
0.0
 40
0.0
 40
0.0
 40
1.0
 40
1.0
 40
1.0
 40
2.0
 40
2.0
 40
2.0
 40
3.0
 40
3.0
 40
3.0
 40
4.0
 40
4.0
 40
4.0
 40
5.0
 40
5.0
 40
5.0
 40
6.0
 40
6.0
 40
6.0
 40
7.0
 40
7.0
 40
7.0
 40
8.0
 40
8.0
 40
8.0
 40
9.0
 40
9.0
 40
9.0
 40
9.0
 10
64.497699652777769
 20
205.23019476996527
 30
0.0
 10
64.567979600694443
 20
205.26809082031249
 30
0.0
 10
64.638259548611103
 20
205.30633138020832
 30
0.0
 10
64.673744032118051
 20
205.34663899739581
 30
0.0
 10
64.710262044270834
 20
205.38798014322916
 30
0.0
 10
64.7126736111111
 20
205.43104383680554
 30
0.0
 10
64.685801866319437
 20
205.47307400173608
 30
0.0
 10
64.660652669270831
 20
205.51062554253471
 30
0.0
 10
64.612421332465274
 20
205.54714355468749
 30
0.0
 10
64.54696451822916
 20
205.58159450954858
 30
0.0
 10
64.448779296874989
 20
205.63223741319442
 30
0.0
 10
64.310286458333323
 20
205.67805718315969
 30
0.0
 10
64.153879123263877
 20
205.71905381944441
 30
0.0
 10
64.0305447048611
 20
205.75178222656248
 30
0.0
 10
63.893774414062491
 20
205.78037651909722
 30
0.0
 10
63.750458441840273
 20
205.80621473524303
 30
0.0
 10
63.60369737413194
 20
205.83308648003469
 30
0.0
 10
63.44866807725694
 20
205.85789116753472
 30
0.0
 10
63.288126627604164
 20
205.87890624999997
 30
0.0
 10
63.026299370659714
 20
205.91370171440971
 30
0.0
 10
62.750691731770829
 20
205.94264051649304
 30
0.0
 10
62.468193901909714
 20
205.96572265624999
 30
0.0
 10
62.179150390624997
 20
205.98983832465277
 30
0.0
 10
61.883216688368051
 20
206.00809733072916
 30
0.0
 10
61.58349338107638
 20
206.02049967447914
 30
0.0
 10
61.195575629340276
 20
206.03565809461804
 30
0.0
 10
60.802834743923604
 20
206.03979220920138
 30
0.0
 10
60.409060329861106
 20
206.04495985243054
 30
0.0
  0
LINE
  5
123
100
AcDbEntity
  8
レイヤー_2
 62
     7
100
AcDbLine
 10
56.375198
 20
205.546799
 30
0.0
 11
56.336957
 21
205.482031
 31
0.0
  0
SPLINE
  5
122
100
AcDbEntity
  8
レイヤー_2
 62
     7
100
AcDbSpline
210
0.0
220
0.0
230
1.0
 70
     8
 71
     3
 72
    11
 73
     7
 74
     0
 42
0.00000001
 43
0.00000001
 40
0.0
 40
0.0
 40
0.0
 40
0.0
 40
1.0
 40
1.0
 40
1.0
 40
2.0
 40
2.0
 40
2.0
 40
2.0
 10
79.126264105902777
 20
186.86439073350692
 30
0.0
 10
79.126264105902777
 20
186.86439073350692
 30
0.0
 10
79.126264105902777
 20
186.86197916666666
 30
0.0
 10
79.126264105902777
 20
186.86197916666666
 30
0.0
 10
79.126953124999986
 20
186.84682074652775
 30
0.0
 10
79.126953124999986
 20
186.79583333333332
 30
0.0
 10
79.126953124999986
 20
186.74587944878471
 30
0.0
  0
LINE
  5
121
100
AcDbEntity
  8
レイヤー_2
 62
     7
100
AcDbLine
 10
77.573215
 20
198.027189
 30
0.0
 11
74.99904
 21
198.027189
 31
0.0
  0
LINE
  5
120
100
AcDbEntity
  8
レイヤー_2
 62
     7
100
AcDbLine
 10
111.646243
 20
132.938656
 30
0.0
 11
111.646243
 21
151.103955
 31
0.0
  0
LINE
  5
11F
100
AcDbEntity
  8
レイヤー_2
 62
     7
100
AcDbLine
 10
111.646243
 20
153.22889
 30
0.0
 11
111.646243
 21
161.229091
 31
0.0
  0
LINE
  5
11E
100
AcDbEntity
  8
レイヤー_2
 62
     7
100
AcDbLine
 10
110.645443
 20
161.229091
 30
0.0
 11
110.645443
 21
153.264719
 31
0.0
  0
LINE
  5
11D
100
AcDbEntity
  8
レイヤー_2
 62
     7
100
AcDbLine
 10
110.645443
 20
153.264719
 30
0.0
 11
110.645443
 21
153.22889
 31
0.0
  0
LINE
  5
11C
100
AcDbEntity
  8
レイヤー_2
 62
     7
100
AcDbLine
 10
110.645443
 20
151.103955
 30
0.0
 11
110.645443
 21
132.938656
 31
0.0
  0
SPLINE
  5
11B
100
AcDbEntity
  8
レイヤー_2
 62
     7
100
AcDbSpline
210
0.0
220
0.0
230
1.0
 70
     8
 71
     3
 72
     8
 73
     4
 74
     0
 42
0.00000001
 43
0.00000001
 40
0.0
 40
0.0
 40
0.0
 40
0.0
 40
1.0
 40
1.0
 40
1.0
 40
1.0
 10
117.69617513020832
 20
161.05304633246527
 30
0.0
 10
117.69617513020832
 20
161.11574707031249
 30
0.0
 10
117.6892849392361
 20
161.17672526041665
 30
0.0
 10
117.67826063368055
 20
161.22909071180555
 30
0.0
  0
LINE
  5
11A
100
AcDbEntity
  8
レイヤー_2
 62
     7
100
AcDbLine
 10
117.696175
 20
159.879302
 30
0.0
 11
117.696175
 21
161.053046
 31
0.0
  0
LINE
  5
119
100
AcDbEntity
  8
レイヤー_2
 62
     7
100
AcDbLine
 10
117.446061
 20
131.059356
 30
0.0
 11
117.446061
 21
151.103955
 31
0.0
  0
LINE
  5
118
100
AcDbEntity
  8
レイヤー_2
 62
     7
100
AcDbLine
 10
117.446061
 20
153.22889
 30
0.0
 11
117.446061
 21
159.879302
 31
0.0
  0
LINE
  5
117
100
AcDbEntity
  8
レイヤー_2
 62
     7
100
AcDbLine
 10
117.446061
 20
159.879302
 30
0.0
 11
117.446061
 21
161.053046
 31
0.0
  0
LINE
  5
116
100
AcDbEntity
  8
レイヤー_2
 62
     7
100
AcDbLine
 10
114.445728
 20
161.053046
 30
0.0
 11
114.445728
 21
159.879302
 31
0.0
  0
SPLINE
  5
115
100
AcDbEntity
  8
レイヤー_2
 62
     7
100
AcDbSpline
210
0.0
220
0.0
230
1.0
 70
     8
 71
     3
 72
     8
 73
     4
 74
     0
 42
0.00000001
 43
0.00000001
 40
0.0
 40
0.0
 40
0.0
 40
0.0
 40
1.0
 40
1.0
 40
1.0
 40
1.0
 10
117.44606119791666
 20
161.05304633246527
 30
0.0
 10
117.44606119791666
 20
161.11574707031249
 30
0.0
 10
117.43917100694443
 20
161.17672526041665
 30
0.0
 10
117.42814670138888
 20
161.22909071180555
 30
0.0
  0
SPLINE
  5
114
100
AcDbEntity
  8
レイヤー_2
 62
     7
100
AcDbSpline
210
0.0
220
0.0
230
1.0
 70
     8
 71
     3
 72
     8
 73
     4
 74
     0
 42
0.00000001
 43
0.00000001
 40
0.0
 40
0.0
 40
0.0
 40
0.0
 40
1.0
 40
1.0
 40
1.0
 40
1.0
 10
114.46364203559027
 20
161.22909071180555
 30
0.0
 10
114.45123969184027
 20
161.16811252170137
 30
0.0
 10
114.44538302951388
 20
161.10782335069442
 30
0.0
 10
114.44572753906249
 20
161.05304633246527
 30
0.0
  0
LINE
  5
113
100
AcDbEntity
  8
レイヤー_2
 62
     7
100
AcDbLine
 10
117.195603
 20
131.059356
 30
0.0
 11
117.195603
 21
151.103955
 31
0.0
  0
LINE
  5
112
100
AcDbEntity
  8
レイヤー_2
 62
     7
100
AcDbLine
 10
117.195603
 20
153.22889
 30
0.0
 11
117.195603
 21
159.879302
 31
0.0
  0
LINE
  5
111
100
AcDbEntity
  8
レイヤー_2
 62
     7
100
AcDbLine
 10
114.695841
 20
159.879302
 30
0.0
 11
114.695841
 21
153.264719
 31
0.0
  0
LINE
  5
110
100
AcDbEntity
  8
レイヤー_2
 62
     7
100
AcDbLine
 10
114.695841
 20
153.264719
 30
0.0
 11
114.695841
 21
153.22889
 31
0.0
  0
LINE
  5
10F
100
AcDbEntity
  8
レイヤー_2
 62
     7
100
AcDbLine
 10
114.695841
 20
151.103955
 30
0.0
 11
114.695841
 21
132.255493
 31
0.0
  0
LINE
  5
10E
100
AcDbEntity
  8
レイヤー_2
 62
     7
100
AcDbLine
 10
110.233754
 20
161.728974
 30
0.0
 11
110.233754
 21
161.229091
 31
0.0
  0
LINE
  5
10D
100
AcDbEntity
  8
レイヤー_2
 62
     7
100
AcDbLine
 10
118.658735
 20
161.229091
 30
0.0
 11
118.658735
 21
161.728974
 31
0.0
  0
LINE
  5
10C
100
AcDbEntity
  8
レイヤー_2
 62
     7
100
AcDbLine
 10
114.120511
 20
150.00497
 30
0.0
 11
114.496026
 21
150.65437
 31
0.0
  0
LINE
  5
10B
100
AcDbEntity
  8
レイヤー_2
 62
     7
100
AcDbLine
 10
114.496026
 20
150.65437
 30
0.0
 11
114.496026
 21
151.01955
 31
0.0
  0
LINE
  5
10A
100
AcDbEntity
  8
レイヤー_2
 62
     7
100
AcDbLine
 10
114.496026
 20
151.01955
 30
0.0
 11
114.016813
 21
151.103955
 31
0.0
  0
LINE
  5
109
100
AcDbEntity
  8
レイヤー_2
 62
     7
100
AcDbLine
 10
111.725136
 20
151.103955
 30
0.0
 11
111.646243
 21
151.090175
 31
0.0
  0
LINE
  5
108
100
AcDbEntity
  8
レイヤー_2
 62
     7
100
AcDbLine
 10
114.120511
 20
144.154508
 30
0.0
 11
114.120511
 21
150.00497
 31
0.0
  0
LINE
  5
107
100
AcDbEntity
  8
レイヤー_2
 62
     7
100
AcDbLine
 10
114.506361
 20
144.148652
 30
0.0
 11
114.496026
 21
144.154508
 31
0.0
  0
LINE
  5
106
100
AcDbEntity
  8
レイヤー_2
 62
     7
100
AcDbLine
 10
107.871107
 20
152.729007
 30
0.0
 11
107.871107
 21
151.229357
 31
0.0
  0
SPLINE
  5
105
100
AcDbEntity
  8
レイヤー_2
 62
     7
100
AcDbSpline
210
0.0
220
0.0
230
1.0
 70
     8
 71
     3
 72
     8
 73
     4
 74
     0
 42
0.00000001
 43
0.00000001
 40
0.0
 40
0.0
 40
0.0
 40
0.0
 40
1.0
 40
1.0
 40
1.0
 40
1.0
 10
107.99616427951388
 20
152.85440809461804
 30
0.0
 10
107.92691786024305
 20
152.85440809461804
 30
0.0
 10
107.87110731336804
 20
152.79790852864582
 30
0.0
 10
107.87110731336804
 20
152.72900661892359
 30
0.0
  0
SPLINE
  5
104
100
AcDbEntity
  8
レイヤー_2
 62
     7
100
AcDbSpline
210
0.0
220
0.0
230
1.0
 70
     8
 71
     3
 72
     8
 73
     4
 74
     0
 42
0.00000001
 43
0.00000001
 40
0.0
 40
0.0
 40
0.0
 40
0.0
 40
1.0
 40
1.0
 40
1.0
 40
1.0
 10
107.87110731336804
 20
151.22935655381943
 30
0.0
 10
107.87110731336804
 20
151.1601101345486
 30
0.0
 10
107.92691786024305
 20
151.10395507812498
 30
0.0
 10
107.99616427951388
 20
151.10395507812498
 30
0.0
  0
SPLINE
  5
103
100
AcDbEntity
  8
レイヤー_2
 62
     7
100
AcDbSpline
210
0.0
220
0.0
230
1.0
 70
     8
 71
     3
 72
     8
 73
     4
 74
     0
 42
0.00000001
 43
0.00000001
 40
0.0
 40
0.0
 40
0.0
 40
0.0
 40
1.0
 40
1.0
 40
1.0
 40
1.0
 10
120.38197157118054
 20
152.72900661892359
 30
0.0
 10
120.38197157118054
 20
152.79790852864582
 30
0.0
 10
120.32616102430555
 20
152.85440809461804
 30
0.0
 10
120.25760362413193
 20
152.85440809461804
 30
0.0
  0
LINE
  5
102
100
AcDbEntity
  8
レイヤー_2
 62
     7
100
AcDbLine
 10
120.381972
 20
151.229357
 30
0.0
 11
120.381972
 21
152.729007
 31
0.0
  0
SPLINE
  5
101
100
AcDbEntity
  8
レイヤー_2
 62
     7
100
AcDbSpline
210
0.0
220
0.0
230
1.0
 70
     8
 71
     3
 72
     8
 73
     4
 74
     0
 42
0.00000001
 43
0.00000001
 40
0.0
 40
0.0
 40
0.0
 40
0.0
 40
1.0
 40
1.0
 40
1.0
 40
1.0
 10
120.25760362413193
 20
151.10395507812498
 30
0.0
 10
120.32616102430555
 20
151.10395507812498
 30
0.0
 10
120.38197157118054
 20
151.1601101345486
 30
0.0
 10
120.38197157118054
 20
151.22935655381943
 30
0.0
  0
LINE
  5
100
100
AcDbEntity
  8
レイヤー_2
 62
     7
100
AcDbLine
 10
120.371292
 20
152.779305
 30
0.0
 11
120.371292
 21
153.22889
 31
0.0
  0
LINE
  5
FF
100
AcDbEntity
  8
レイヤー_2
 62
     7
100
AcDbLine
 10
108.371335
 20
153.22889
 30
0.0
 11
108.371335
 21
152.854408
 31
0.0
  0
SPLINE
  5
FE
100
AcDbEntity
  8
レイヤー_2
 62
     7
100
AcDbSpline
210
0.0
220
0.0
230
1.0
 70
     8
 71
     3
 72
     8
 73
     4
 74
     0
 42
0.00000001
 43
0.00000001
 40
0.0
 40
0.0
 40
0.0
 40
0.0
 40
1.0
 40
1.0
 40
1.0
 40
1.0
 10
109.26292588975693
 20
161.97874348958331
 30
0.0
 10
109.35490993923609
 20
161.81923556857637
 30
0.0
 10
109.52130805121527
 20
161.73000759548609
 30
0.0
 10
109.69597439236109
 20
161.72897406684027
 30
0.0
  0
SPLINE
  5
FD
100
AcDbEntity
  8
レイヤー_2
 62
     7
100
AcDbSpline
210
0.0
220
0.0
230
1.0
 70
     8
 71
     3
 72
     8
 73
     4
 74
     0
 42
0.00000001
 43
0.00000001
 40
0.0
 40
0.0
 40
0.0
 40
0.0
 40
1.0
 40
1.0
 40
1.0
 40
1.0
 10
119.19548068576388
 20
161.72897406684027
 30
0.0
 10
119.38013780381944
 20
161.72897406684027
 30
0.0
 10
119.54067925347221
 20
161.82888183593749
 30
0.0
 10
119.62887369791666
 20
161.97874348958331
 30
0.0
  0
LINE
  5
FC
100
AcDbEntity
  8
レイヤー_2
 62
     7
100
AcDbLine
 10
109.695974
 20
161.728974
 30
0.0
 11
119.195481
 21
161.728974
 31
0.0
  0
LINE
  5
FB
100
AcDbEntity
  8
レイヤー_2
 62
     7
100
AcDbLine
 10
111.891878
 20
161.229091
 30
0.0
 11
111.891878
 21
153.264719
 31
0.0
  0
LINE
  5
FA
100
AcDbEntity
  8
レイヤー_2
 62
     7
100
AcDbLine
 10
111.891878
 20
153.264719
 30
0.0
 11
111.891878
 21
153.22889
 31
0.0
  0
LINE
  5
F9
100
AcDbEntity
  8
レイヤー_2
 62
     7
100
AcDbLine
 10
113.849726
 20
153.22889
 30
0.0
 11
113.849726
 21
161.229091
 31
0.0
  0
LINE
  5
F8
100
AcDbEntity
  8
レイヤー_2
 62
     7
100
AcDbLine
 10
117.696175
 20
159.879302
 30
0.0
 11
117.446061
 21
159.879302
 31
0.0
  0
LINE
  5
F7
100
AcDbEntity
  8
レイヤー_2
 62
     7
100
AcDbLine
 10
114.913916
 20
159.879302
 30
0.0
 11
114.445728
 21
159.879302
 31
0.0
  0
LINE
  5
F6
100
AcDbEntity
  8
レイヤー_2
 62
     7
100
AcDbLine
 10
117.446061
 20
159.879302
 30
0.0
 11
114.913916
 21
159.879302
 31
0.0
  0
LINE
  5
F5
100
AcDbEntity
  8
レイヤー_2
 62
     7
100
AcDbLine
 10
110.233754
 20
161.229091
 30
0.0
 11
118.658735
 21
161.229091
 31
0.0
  0
LINE
  5
F4
100
AcDbEntity
  8
レイヤー_2
 62
     7
100
AcDbLine
 10
113.082503
 20
141.299558
 30
0.0
 11
112.222952
 21
141.154175
 31
0.0
  0
POLYLINE
  5
EF
100
AcDbEntity
  8
レイヤー_2
 62
     7
100
AcDb2dPolyline
 66
     1
 10
0.0
 20
0.0
 30
0.0
  0
VERTEX
  5
F0
100
AcDbEntity
  8
レイヤー_2
 62
     7
100
AcDbVertex
100
AcDb2dVertex
 10
112.222952
 20
141.154175
 30
0.0
  0
VERTEX
  5
F1
100
AcDbEntity
  8
レイヤー_2
 62
     7
100
AcDbVertex
100
AcDb2dVertex
 10
112.16094
 20
141.154519
 30
0.0
  0
VERTEX
  5
F2
100
AcDbEntity
  8
レイヤー_2
 62
     7
100
AcDbVertex
100
AcDb2dVertex
 10
111.646243
 20
141.248226
 30
0.0
  0
SEQEND
  5
F3
100
AcDbEntity
  8
レイヤー_2
 62
     7
  0
POLYLINE
  5
EA
100
AcDbEntity
  8
レイヤー_2
 62
     7
100
AcDb2dPolyline
 66
     1
 10
0.0
 20
0.0
 30
0.0
  0
VERTEX
  5
EB
100
AcDbEntity
  8
レイヤー_2
 62
     7
100
AcDbVertex
100
AcDb2dVertex
 10
112.222952
 20
144.154508
 30
0.0
  0
VERTEX
  5
EC
100
AcDbEntity
  8
レイヤー_2
 62
     7
100
AcDbVertex
100
AcDb2dVertex
 10
112.16094
 20
144.15313
 30
0.0
  0
VERTEX
  5
ED
100
AcDbEntity
  8
レイヤー_2
 62
     7
100
AcDbVertex
100
AcDb2dVertex
 10
111.646243
 20
144.060457
 30
0.0
  0
SEQEND
  5
EE
100
AcDbEntity
  8
レイヤー_2
 62
     7
  0
LINE
  5
E9
100
AcDbEntity
  8
レイヤー_2
 62
     7
100
AcDbLine
 10
113.082503
 20
144.008781
 30
0.0
 11
112.222952
 21
144.154508
 31
0.0
  0
LINE
  5
E8
100
AcDbEntity
  8
レイヤー_2
 62
     7
100
AcDbLine
 10
113.082503
 20
141.299558
 30
0.0
 11
113.082503
 21
144.008781
 31
0.0
  0
POLYLINE
  5
E3
100
AcDbEntity
  8
レイヤー_2
 62
     7
100
AcDb2dPolyline
 66
     1
 10
0.0
 20
0.0
 30
0.0
  0
VERTEX
  5
E4
100
AcDbEntity
  8
レイヤー_2
 62
     7
100
AcDbVertex
100
AcDb2dVertex
 10
113.836979
 20
144.154508
 30
0.0
  0
VERTEX
  5
E5
100
AcDbEntity
  8
レイヤー_2
 62
     7
100
AcDbVertex
100
AcDb2dVertex
 10
113.783236
 20
144.15313
 30
0.0
  0
VERTEX
  5
E6
100
AcDbEntity
  8
レイヤー_2
 62
     7
100
AcDbVertex
100
AcDb2dVertex
 10
113.082503
 20
144.008781
 30
0.0
  0
SEQEND
  5
E7
100
AcDbEntity
  8
レイヤー_2
 62
     7
  0
LINE
  5
E2
100
AcDbEntity
  8
レイヤー_2
 62
     7
100
AcDbLine
 10
113.836979
 20
144.154508
 30
0.0
 11
112.222952
 21
144.154508
 31
0.0
  0
LINE
  5
E1
100
AcDbEntity
  8
レイヤー_2
 62
     7
100
AcDbLine
 10
113.836979
 20
141.154175
 30
0.0
 11
112.222952
 21
141.154175
 31
0.0
  0
POLYLINE
  5
DC
100
AcDbEntity
  8
レイヤー_2
 62
     7
100
AcDb2dPolyline
 66
     1
 10
0.0
 20
0.0
 30
0.0
  0
VERTEX
  5
DD
100
AcDbEntity
  8
レイヤー_2
 62
     7
100
AcDbVertex
100
AcDb2dVertex
 10
113.836979
 20
141.154175
 30
0.0
  0
VERTEX
  5
DE
100
AcDbEntity
  8
レイヤー_2
 62
     7
100
AcDbVertex
100
AcDb2dVertex
 10
113.783236
 20
141.154519
 30
0.0
  0
VERTEX
  5
DF
100
AcDbEntity
  8
レイヤー_2
 62
     7
100
AcDbVertex
100
AcDb2dVertex
 10
113.082503
 20
141.299558
 30
0.0
  0
SEQEND
  5
E0
100
AcDbEntity
  8
レイヤー_2
 62
     7
  0
LINE
  5
DB
100
AcDbEntity
  8
レイヤー_2
 62
     7
100
AcDbLine
 10
114.591455
 20
141.299558
 30
0.0
 11
113.836979
 21
141.154175
 31
0.0
  0
LINE
  5
DA
100
AcDbEntity
  8
レイヤー_2
 62
     7
100
AcDbLine
 10
114.591455
 20
144.008781
 30
0.0
 11
113.836979
 21
144.154508
 31
0.0
  0
LINE
  5
D9
100
AcDbEntity
  8
レイヤー_2
 62
     7
100
AcDbLine
 10
114.591455
 20
141.299558
 30
0.0
 11
114.591455
 21
144.008781
 31
0.0
  0
LINE
  5
D8
100
AcDbEntity
  8
レイヤー_2
 62
     7
100
AcDbLine
 10
114.496026
 20
150.65437
 30
0.0
 11
111.646243
 21
150.65437
 31
0.0
  0
LINE
  5
D7
100
AcDbEntity
  8
レイヤー_2
 62
     7
100
AcDbLine
 10
114.120511
 20
150.00497
 30
0.0
 11
111.646243
 21
150.00497
 31
0.0
  0
LINE
  5
D6
100
AcDbEntity
  8
レイヤー_2
 62
     7
100
AcDbLine
 10
114.496026
 20
151.01955
 30
0.0
 11
111.646243
 21
151.01955
 31
0.0
  0
LINE
  5
D5
100
AcDbEntity
  8
レイヤー_2
 62
     7
100
AcDbLine
 10
112.222952
 20
144.154508
 30
0.0
 11
111.646243
 21
144.154508
 31
0.0
  0
LINE
  5
D4
100
AcDbEntity
  8
レイヤー_2
 62
     7
100
AcDbLine
 10
112.222952
 20
141.154175
 30
0.0
 11
111.646243
 21
141.154175
 31
0.0
  0
POLYLINE
  5
CF
100
AcDbEntity
  8
レイヤー_2
 62
     7
100
AcDb2dPolyline
 66
     1
 10
0.0
 20
0.0
 30
0.0
  0
VERTEX
  5
D0
100
AcDbEntity
  8
レイヤー_2
 62
     7
100
AcDbVertex
100
AcDb2dVertex
 10
114.485002
 20
144.154508
 30
0.0
  0
VERTEX
  5
D1
100
AcDbEntity
  8
レイヤー_2
 62
     7
100
AcDbVertex
100
AcDb2dVertex
 10
114.514285
 20
144.142451
 30
0.0
  0
VERTEX
  5
D2
100
AcDbEntity
  8
レイヤー_2
 62
     7
100
AcDbVertex
100
AcDb2dVertex
 10
114.591455
 20
144.008781
 30
0.0
  0
SEQEND
  5
D3
100
AcDbEntity
  8
レイヤー_2
 62
     7
  0
LINE
  5
CE
100
AcDbEntity
  8
レイヤー_2
 62
     7
100
AcDbLine
 10
113.836979
 20
144.154508
 30
0.0
 11
114.495337
 21
144.154508
 31
0.0
  0
POLYLINE
  5
C9
100
AcDbEntity
  8
レイヤー_2
 62
     7
100
AcDb2dPolyline
 66
     1
 10
0.0
 20
0.0
 30
0.0
  0
VERTEX
  5
CA
100
AcDbEntity
  8
レイヤー_2
 62
     7
100
AcDbVertex
100
AcDb2dVertex
 10
114.506361
 20
141.162788
 30
0.0
  0
VERTEX
  5
CB
100
AcDbEntity
  8
レイヤー_2
 62
     7
100
AcDbVertex
100
AcDb2dVertex
 10
114.514285
 20
141.165199
 30
0.0
  0
VERTEX
  5
CC
100
AcDbEntity
  8
レイヤー_2
 62
     7
100
AcDbVertex
100
AcDb2dVertex
 10
114.591455
 20
141.299558
 30
0.0
  0
SEQEND
  5
CD
100
AcDbEntity
  8
レイヤー_2
 62
     7
  0
LINE
  5
C8
100
AcDbEntity
  8
レイヤー_2
 62
     7
100
AcDbLine
 10
114.496026
 20
141.154175
 30
0.0
 11
113.836979
 21
141.154175
 31
0.0
  0
LINE
  5
C7
100
AcDbEntity
  8
レイヤー_2
 62
     7
100
AcDbLine
 10
120.37267
 20
151.229357
 30
0.0
 11
120.37267
 21
152.729007
 31
0.0
  0
LINE
  5
C6
100
AcDbEntity
  8
レイヤー_2
 62
     7
100
AcDbLine
 10
107.996164
 20
152.854408
 30
0.0
 11
120.257604
 21
152.854408
 31
0.0
  0
POLYLINE
  5
BB
100
AcDbEntity
  8
レイヤー_2
 62
     7
100
AcDb2dPolyline
 66
     1
 10
0.0
 20
0.0
 30
0.0
  0
VERTEX
  5
BC
100
AcDbEntity
  8
レイヤー_2
 62
     7
100
AcDbVertex
100
AcDb2dVertex
 10
120.37267
 20
152.729007
 30
0.0
  0
VERTEX
  5
BD
100
AcDbEntity
  8
レイヤー_2
 62
     7
100
AcDbVertex
100
AcDb2dVertex
 10
120.369914
 20
152.753467
 30
0.0
  0
VERTEX
  5
BE
100
AcDbEntity
  8
レイヤー_2
 62
     7
100
AcDbVertex
100
AcDb2dVertex
 10
120.363368
 20
152.776893
 30
0.0
  0
VERTEX
  5
BF
100
AcDbEntity
  8
レイヤー_2
 62
     7
100
AcDbVertex
100
AcDb2dVertex
 10
120.353033
 20
152.798598
 30
0.0
  0
VERTEX
  5
C0
100
AcDbEntity
  8
レイヤー_2
 62
     7
100
AcDbVertex
100
AcDb2dVertex
 10
120.338908
 20
152.817201
 30
0.0
  0
VERTEX
  5
C1
100
AcDbEntity
  8
レイヤー_2
 62
     7
100
AcDbVertex
100
AcDb2dVertex
 10
120.320993
 20
152.833049
 30
0.0
  0
VERTEX
  5
C2
100
AcDbEntity
  8
レイヤー_2
 62
     7
100
AcDbVertex
100
AcDb2dVertex
 10
120.301012
 20
152.844762
 30
0.0
  0
VERTEX
  5
C3
100
AcDbEntity
  8
レイヤー_2
 62
     7
100
AcDbVertex
100
AcDb2dVertex
 10
120.279308
 20
152.851308
 30
0.0
  0
VERTEX
  5
C4
100
AcDbEntity
  8
レイヤー_2
 62
     7
100
AcDbVertex
100
AcDb2dVertex
 10
120.257604
 20
152.854408
 30
0.0
  0
SEQEND
  5
C5
100
AcDbEntity
  8
レイヤー_2
 62
     7
  0
POLYLINE
  5
B0
100
AcDbEntity
  8
レイヤー_2
 62
     7
100
AcDb2dPolyline
 66
     1
 10
0.0
 20
0.0
 30
0.0
  0
VERTEX
  5
B1
100
AcDbEntity
  8
レイヤー_2
 62
     7
100
AcDbVertex
100
AcDb2dVertex
 10
120.257604
 20
151.103955
 30
0.0
  0
VERTEX
  5
B2
100
AcDbEntity
  8
レイヤー_2
 62
     7
100
AcDbVertex
100
AcDb2dVertex
 10
120.279308
 20
151.106367
 30
0.0
  0
VERTEX
  5
B3
100
AcDbEntity
  8
レイヤー_2
 62
     7
100
AcDbVertex
100
AcDb2dVertex
 10
120.301012
 20
151.113601
 30
0.0
  0
VERTEX
  5
B4
100
AcDbEntity
  8
レイヤー_2
 62
     7
100
AcDbVertex
100
AcDb2dVertex
 10
120.320993
 20
151.12497
 30
0.0
  0
VERTEX
  5
B5
100
AcDbEntity
  8
レイヤー_2
 62
     7
100
AcDbVertex
100
AcDb2dVertex
 10
120.338908
 20
151.140818
 30
0.0
  0
VERTEX
  5
B6
100
AcDbEntity
  8
レイヤー_2
 62
     7
100
AcDbVertex
100
AcDb2dVertex
 10
120.353033
 20
151.159766
 30
0.0
  0
VERTEX
  5
B7
100
AcDbEntity
  8
レイヤー_2
 62
     7
100
AcDbVertex
100
AcDb2dVertex
 10
120.363368
 20
151.18147
 30
0.0
  0
VERTEX
  5
B8
100
AcDbEntity
  8
レイヤー_2
 62
     7
100
AcDbVertex
100
AcDb2dVertex
 10
120.369914
 20
151.204552
 30
0.0
  0
VERTEX
  5
B9
100
AcDbEntity
  8
レイヤー_2
 62
     7
100
AcDbVertex
100
AcDb2dVertex
 10
120.37267
 20
151.229357
 30
0.0
  0
SEQEND
  5
BA
100
AcDbEntity
  8
レイヤー_2
 62
     7
  0
LINE
  5
AF
100
AcDbEntity
  8
レイヤー_2
 62
     7
100
AcDbLine
 10
120.257604
 20
151.103955
 30
0.0
 11
107.996164
 21
151.103955
 31
0.0
  0
LINE
  5
AE
100
AcDbEntity
  8
レイヤー_2
 62
     7
100
AcDbLine
 10
108.246623
 20
152.854408
 30
0.0
 11
108.371335
 21
152.854408
 31
0.0
  0
LINE
  5
AD
100
AcDbEntity
  8
レイヤー_2
 62
     7
100
AcDbLine
 10
112.499249
 20
151.103955
 30
0.0
 11
111.646243
 21
151.103955
 31
0.0
  0
LINE
  5
AC
100
AcDbEntity
  8
レイヤー_2
 62
     7
100
AcDbLine
 10
110.645443
 20
151.103955
 30
0.0
 11
109.888211
 21
151.103955
 31
0.0
  0
LINE
  5
AB
100
AcDbEntity
  8
レイヤー_2
 62
     7
100
AcDbLine
 10
114.475355
 20
151.103955
 30
0.0
 11
112.499249
 21
151.103955
 31
0.0
  0
LINE
  5
AA
100
AcDbEntity
  8
レイヤー_2
 62
     7
100
AcDbLine
 10
118.275985
 20
151.103955
 30
0.0
 11
117.446061
 21
151.103955
 31
0.0
  0
LINE
  5
A9
100
AcDbEntity
  8
レイヤー_2
 62
     7
100
AcDbLine
 10
114.695841
 20
151.103955
 30
0.0
 11
114.475355
 21
151.103955
 31
0.0
  0
LINE
  5
A8
100
AcDbEntity
  8
レイヤー_2
 62
     7
100
AcDbLine
 10
120.0602
 20
151.103955
 30
0.0
 11
118.526443
 21
151.103955
 31
0.0
  0
LINE
  5
A7
100
AcDbEntity
  8
レイヤー_2
 62
     7
100
AcDbLine
 10
118.526443
 20
151.103955
 30
0.0
 11
118.275985
 21
151.103955
 31
0.0
  0
LINE
  5
A6
100
AcDbEntity
  8
レイヤー_2
 62
     7
100
AcDbLine
 10
108.371335
 20
153.22889
 30
0.0
 11
120.371292
 21
153.22889
 31
0.0
  0
LINE
  5
A5
100
AcDbEntity
  8
レイヤー_2
 62
     7
100
AcDbLine
 10
120.195936
 20
161.978743
 30
0.0
 11
108.695519
 21
161.978743
 31
0.0
  0
LINE
  5
A4
100
AcDbEntity
  8
レイヤー_2
 62
     7
100
AcDbLine
 10
117.696175
 20
161.053046
 30
0.0
 11
117.446061
 21
161.053046
 31
0.0
  0
LINE
  5
A3
100
AcDbEntity
  8
レイヤー_2
 62
     7
100
AcDbLine
 10
114.913916
 20
161.053046
 30
0.0
 11
114.445728
 21
161.053046
 31
0.0
  0
LINE
  5
A2
100
AcDbEntity
  8
レイヤー_2
 62
     7
100
AcDbLine
 10
120.381972
 20
152.729007
 30
0.0
 11
120.37267
 21
152.729007
 31
0.0
  0
LINE
  5
A1
100
AcDbEntity
  8
レイヤー_2
 62
     7
100
AcDbLine
 10
120.381972
 20
151.229357
 30
0.0
 11
120.37267
 21
151.229357
 31
0.0
  0
SPLINE
  5
A0
100
AcDbEntity
  8
レイヤー_2
 62
     7
100
AcDbSpline
210
0.0
220
0.0
230
1.0
 70
     8
 71
     3
 72
     8
 73
     4
 74
     0
 42
0.00000001
 43
0.00000001
 40
0.0
 40
0.0
 40
0.0
 40
0.0
 40
1.0
 40
1.0
 40
1.0
 40
1.0
 10
110.64544270833332
 20
132.93865559895832
 30
0.0
 10
110.64544270833332
 20
132.93865559895832
 30
0.0
 10
110.8524929470486
 20
132.54625922309026
 30
0.0
 10
111.64624294704861
 20
132.93865559895832
 30
0.0
  0
SPLINE
  5
9F
100
AcDbEntity
  8
レイヤー_2
 62
     7
100
AcDbSpline
210
0.0
220
0.0
230
1.0
 70
     8
 71
     3
 72
     8
 73
     4
 74
     0
 42
0.00000001
 43
0.00000001
 40
0.0
 40
0.0
 40
0.0
 40
0.0
 40
1.0
 40
1.0
 40
1.0
 40
1.0
 10
117.44606119791666
 20
131.05935601128471
 30
0.0
 10
117.44606119791666
 20
131.05935601128471
 30
0.0
 10
116.1637966579861
 20
130.79305013020831
 30
0.0
 10
114.69584147135416
 20
132.2554931640625
 30
0.0
  0
SPLINE
  5
9E
100
AcDbEntity
  8
レイヤー_2
 62
     7
100
AcDbSpline
210
0.0
220
0.0
230
1.0
 70
     8
 71
     3
 72
    14
 73
    10
 74
     0
 42
0.00000001
 43
0.00000001
 40
0.0
 40
0.0
 40
0.0
 40
0.0
 40
1.0
 40
1.0
 40
1.0
 40
2.0
 40
2.0
 40
2.0
 40
3.0
 40
3.0
 40
3.0
 40
3.0
 10
110.34537489149305
 20
165.62606608072915
 30
0.0
 10
110.25649142795137
 20
165.60126139322915
 30
0.0
 10
110.19792480468749
 20
165.52133517795139
 30
0.0
 10
110.19758029513888
 20
165.43245171440969
 30
0.0
 10
110.19758029513888
 20
165.32186414930555
 30
0.0
 10
110.28680826822915
 20
165.23298068576386
 30
0.0
 10
110.39739583333332
 20
165.23298068576386
 30
0.0
 10
110.41565483940971
 20
165.23298068576386
 30
0.0
 10
110.43356933593749
 20
165.23504774305553
 30
0.0
 10
110.44872775607638
 20
165.23952636718749
 30
0.0
  0
SPLINE
  5
9D
100
AcDbEntity
  8
レイヤー_2
 62
     7
100
AcDbSpline
210
0.0
220
0.0
230
1.0
 70
     8
 71
     3
 72
     8
 73
     4
 74
     0
 42
0.00000001
 43
0.00000001
 40
0.0
 40
0.0
 40
0.0
 40
0.0
 40
1.0
 40
1.0
 40
1.0
 40
1.0
 10
104.95759006076388
 20
168.54302842881944
 30
0.0
 10
104.95759006076388
 20
168.33597819010416
 30
0.0
 10
105.1257107204861
 20
168.16854654947915
 30
0.0
 10
105.33276095920138
 20
168.16854654947915
 30
0.0
  0
SPLINE
  5
9C
100
AcDbEntity
  8
レイヤー_2
 62
     7
100
AcDbSpline
210
0.0
220
0.0
230
1.0
 70
     8
 71
     3
 72
     8
 73
     4
 74
     0
 42
0.00000001
 43
0.00000001
 40
0.0
 40
0.0
 40
0.0
 40
0.0
 40
1.0
 40
1.0
 40
1.0
 40
1.0
 10
105.33276095920138
 20
170.16842447916665
 30
0.0
 10
105.1257107204861
 20
170.16842447916665
 30
0.0
 10
104.95759006076388
 20
170.00030381944444
 30
0.0
 10
104.95759006076388
 20
169.79290907118053
 30
0.0
  0
LINE
  5
9B
100
AcDbEntity
  8
レイヤー_2
 62
     7
100
AcDbLine
 10
105.332761
 20
168.168547
 30
0.0
 11
108.407853
 21
168.168547
 31
0.0
  0
LINE
  5
9A
100
AcDbEntity
  8
レイヤー_2
 62
     7
100
AcDbLine
 10
108.407853
 20
170.168424
 30
0.0
 11
105.332761
 21
170.168424
 31
0.0
  0
SPLINE
  5
99
100
AcDbEntity
  8
レイヤー_2
 62
     7
100
AcDbSpline
210
0.0
220
0.0
230
1.0
 70
     8
 71
     3
 72
     8
 73
     4
 74
     0
 42
0.00000001
 43
0.00000001
 40
0.0
 40
0.0
 40
0.0
 40
0.0
 40
1.0
 40
1.0
 40
1.0
 40
1.0
 10
109.61501464843749
 20
167.24147135416666
 30
0.0
 10
109.46618652343749
 20
167.79750976562499
 30
0.0
 10
108.96492513020833
 20
168.16475694444443
 30
0.0
 10
108.40785319010416
 20
168.16854654947915
 30
0.0
  0
SPLINE
  5
98
100
AcDbEntity
  8
レイヤー_2
 62
     7
100
AcDbSpline
210
0.0
220
0.0
230
1.0
 70
     8
 71
     3
 72
     8
 73
     4
 74
     0
 42
0.00000001
 43
0.00000001
 40
0.0
 40
0.0
 40
0.0
 40
0.0
 40
1.0
 40
1.0
 40
1.0
 40
1.0
 10
111.14601508246527
 20
168.66842990451389
 30
0.0
 10
110.52899848090277
 20
169.63305664062497
 30
0.0
 10
109.4882351345486
 20
170.16222330729164
 30
0.0
 10
108.40785319010416
 20
170.16842447916665
 30
0.0
  0
LINE
  5
97
100
AcDbEntity
  8
レイヤー_2
 62
     7
100
AcDbLine
 10
109.615015
 20
167.241471
 30
0.0
 11
110.068045
 21
165.550963
 31
0.0
  0
LINE
  5
96
100
AcDbEntity
  8
レイヤー_2
 62
     7
100
AcDbLine
 10
153.716715
 20
207.292429
 30
0.0
 11
153.76598
 21
207.264179
 31
0.0
  0
SPLINE
  5
95
100
AcDbEntity
  8
レイヤー_2
 62
     7
100
AcDbSpline
210
0.0
220
0.0
230
1.0
 70
     8
 71
     3
 72
    11
 73
     7
 74
     0
 42
0.00000001
 43
0.00000001
 40
0.0
 40
0.0
 40
0.0
 40
0.0
 40
1.0
 40
1.0
 40
1.0
 40
2.0
 40
2.0
 40
2.0
 40
2.0
 10
153.76115722656249
 20
207.17391764322915
 30
0.0
 10
153.83763834635414
 20
206.93138292100693
 30
0.0
 10
153.91377495659719
 20
206.68815917968749
 30
0.0
 10
153.98612196180554
 20
206.44459092881942
 30
0.0
 10
154.13253851996527
 20
205.94505208333331
 30
0.0
 10
154.2606960720486
 20
205.44034559461804
 30
0.0
 10
154.38954264322916
 20
204.93598361545136
 30
0.0
  0
SPLINE
  5
94
100
AcDbEntity
  8
レイヤー_2
 62
     7
100
AcDbSpline
210
0.0
220
0.0
230
1.0
 70
     8
 71
     3
 72
   122
 73
   118
 74
     0
 42
0.00000001
 43
0.00000001
 40
0.0
 40
0.0
 40
0.0
 40
0.0
 40
1.0
 40
1.0
 40
1.0
 40
2.0
 40
2.0
 40
2.0
 40
3.0
 40
3.0
 40
3.0
 40
4.0
 40
4.0
 40
4.0
 40
5.0
 40
5.0
 40
5.0
 40
6.0
 40
6.0
 40
6.0
 40
7.0
 40
7.0
 40
7.0
 40
8.0
 40
8.0
 40
8.0
 40
9.0
 40
9.0
 40
9.0
 40
10.0
 40
10.0
 40
10.0
 40
11.0
 40
11.0
 40
11.0
 40
12.0
 40
12.0
 40
12.0
 40
13.0
 40
13.0
 40
13.0
 40
14.0
 40
14.0
 40
14.0
 40
15.0
 40
15.0
 40
15.0
 40
16.0
 40
16.0
 40
16.0
 40
17.0
 40
17.0
 40
17.0
 40
18.0
 40
18.0
 40
18.0
 40
19.0
 40
19.0
 40
19.0
 40
20.0
 40
20.0
 40
20.0
 40
21.0
 40
21.0
 40
21.0
 40
22.0
 40
22.0
 40
22.0
 40
23.0
 40
23.0
 40
23.0
 40
24.0
 40
24.0
 40
24.0
 40
25.0
 40
25.0
 40
25.0
 40
26.0
 40
26.0
 40
26.0
 40
27.0
 40
27.0
 40
27.0
 40
28.0
 40
28.0
 40
28.0
 40
29.0
 40
29.0
 40
29.0
 40
30.0
 40
30.0
 40
30.0
 40
31.0
 40
31.0
 40
31.0
 40
32.0
 40
32.0
 40
32.0
 40
33.0
 40
33.0
 40
33.0
 40
34.0
 40
34.0
 40
34.0
 40
35.0
 40
35.0
 40
35.0
 40
36.0
 40
36.0
 40
36.0
 40
37.0
 40
37.0
 40
37.0
 40
38.0
 40
38.0
 40
38.0
 40
39.0
 40
39.0
 40
39.0
 40
39.0
 10
118.04929741753472
 20
186.9098659939236
 30
0.0
 10
118.03344997829861
 20
187.72738715277777
 30
0.0
 10
118.01760253906249
 20
188.54353027343748
 30
0.0
 10
118.00141059027777
 20
189.36105143229165
 30
0.0
 10
117.98177354600693
 20
190.34049207899304
 30
0.0
 10
117.96144748263887
 20
191.32096625434025
 30
0.0
 10
117.94077690972222
 20
192.30040690104164
 30
0.0
 10
117.92217339409721
 20
193.22817111545137
 30
0.0
 10
117.90356987847221
 20
194.15696885850693
 30
0.0
 10
117.88393283420137
 20
195.08438856336804
 30
0.0
 10
117.86636284722221
 20
195.93326009114583
 30
0.0
 10
117.84810384114583
 20
196.78178710937499
 30
0.0
 10
117.83260091145833
 20
197.63031412760415
 30
0.0
 10
117.81847601996526
 20
198.38651258680554
 30
0.0
 10
117.80572916666665
 20
199.14408908420137
 30
0.0
 10
117.78678114149305
 20
199.90028754340275
 30
0.0
 10
117.77024468315972
 20
200.5682915581597
 30
0.0
 10
117.74785156249999
 20
201.23595106336805
 30
0.0
 10
117.74440646701387
 20
201.90361056857637
 30
0.0
 10
117.74199490017359
 20
202.50305718315971
 30
0.0
 10
117.75508626302083
 20
203.10215928819443
 30
0.0
 10
117.80021701388888
 20
203.69884982638888
 30
0.0
 10
117.84844835069444
 20
204.32723524305553
 30
0.0
 10
117.93285319010415
 20
204.95252007378471
 30
0.0
 10
118.04791937934027
 20
205.57125922309027
 30
0.0
 10
118.15265028211805
 20
206.1272976345486
 30
0.0
 10
118.28115234374999
 20
206.67885742187499
 30
0.0
 10
118.43583713107638
 20
207.22318250868054
 30
0.0
 10
118.57536349826388
 20
207.71307508680553
 30
0.0
 10
118.73452690972221
 20
208.19676649305555
 30
0.0
 10
118.91539442274305
 20
208.67322319878471
 30
0.0
 10
119.07662489149304
 20
209.1014485677083
 30
0.0
 10
119.2550808376736
 20
209.52381727430554
 30
0.0
 10
119.44903971354165
 20
209.93826226128471
 30
0.0
 10
119.62232801649304
 20
210.30964355468748
 30
0.0
 10
119.80836317274304
 20
210.67551269531248
 30
0.0
 10
120.00611165364582
 20
211.03414713541665
 30
0.0
 10
120.18250054253471
 20
211.35350748697914
 30
0.0
 10
120.36750217013888
 20
211.66701117621525
 30
0.0
 10
120.56215006510415
 20
211.97500271267359
 30
0.0
 10
120.76541069878471
 20
212.29608561197915
 30
0.0
 10
120.97797309027777
 20
212.60993381076386
 30
0.0
 10
121.20018174913193
 20
212.91723632812497
 30
0.0
 10
121.38690592447915
 20
213.17561848958331
 30
0.0
 10
121.57948676215277
 20
213.4291775173611
 30
0.0
 10
121.77930230034721
 20
213.67687988281247
 30
0.0
 10
121.97016059027777
 20
213.91493598090275
 30
0.0
 10
122.16790907118055
 20
214.14713541666666
 30
0.0
 10
122.37082519531249
 20
214.37623426649304
 30
0.0
 10
122.58752170138888
 20
214.61876898871526
 30
0.0
 10
122.81041937934026
 20
214.85579155815969
 30
0.0
 10
123.03951822916666
 20
215.08730197482637
 30
0.0
 10
123.28308648003471
 20
215.33328179253471
 30
0.0
 10
123.53354492187499
 20
215.57202690972221
 30
0.0
 10
123.79089355468749
 20
215.80353732638886
 30
0.0
 10
124.25494791666665
 20
216.22108289930554
 30
0.0
 10
124.7400173611111
 20
216.61554633246527
 30
0.0
 10
125.24334581163194
 20
216.98382703993053
 30
0.0
 10
125.79835069444444
 20
217.3889702690972
 30
0.0
 10
126.37505967881944
 20
217.76207411024305
 30
0.0
 10
126.97209472656249
 20
218.10244954427083
 30
0.0
 10
127.59290093315971
 20
218.45660536024303
 30
0.0
 10
128.23506673177081
 20
218.77424316406248
 30
0.0
 10
128.89342447916667
 20
219.05226236979163
 30
0.0
 10
129.56280653211803
 20
219.33510470920137
 30
0.0
 10
130.24872504340277
 20
219.57867296006941
 30
0.0
 10
130.94739040798609
 20
219.77917751736109
 30
0.0
 10
131.66259223090276
 20
219.9845052083333
 30
0.0
 10
132.39157443576389
 20
220.14573567708331
 30
0.0
 10
133.12675781249999
 20
220.26321343315971
 30
0.0
 10
133.87227647569443
 20
220.38206922743055
 30
0.0
 10
134.62502983940971
 20
220.45476074218749
 30
0.0
 10
135.37881673177083
 20
220.48232150607637
 30
0.0
 10
136.09643012152776
 20
220.50815972222219
 30
0.0
 10
136.81438802083332
 20
220.49196777343747
 30
0.0
 10
137.52993435329859
 20
220.43340115017358
 30
0.0
 10
138.20586208767361
 20
220.37896864149303
 30
0.0
 10
138.87937825520831
 20
220.28732910156248
 30
0.0
 10
139.54497070312499
 20
220.15813802083332
 30
0.0
 10
140.17576768663193
 20
220.03583713107636
 30
0.0
 10
140.80001898871527
 20
219.88080783420136
 30
0.0
 10
141.41496853298611
 20
219.69339463975692
 30
0.0
 10
141.70986870659721
 20
219.60347764756943
 30
0.0
 10
142.00235731336804
 20
219.5063259548611
 30
0.0
 10
142.2924343532986
 20
219.40159505208331
 30
0.0
 10
142.59422471788193
 20
219.29273003472221
 30
0.0
 10
142.89256998697914
 20
219.17697482638886
 30
0.0
 10
143.18815917968749
 20
219.05226236979163
 30
0.0
 10
143.53404676649305
 20
218.90722384982638
 30
0.0
 10
143.87614474826387
 20
218.75081651475693
 30
0.0
 10
144.21204155815971
 20
218.58510742187499
 30
0.0
 10
144.59927029079859
 20
218.39390462239581
 30
0.0
 10
144.97926432291666
 20
218.18926595052082
 30
0.0
 10
145.35167914496526
 20
217.97188042534719
 30
0.0
 10
145.77370334201387
 20
217.72521158854164
 30
0.0
 10
146.18539225260415
 20
217.46303982204859
 30
0.0
 10
146.58640136718748
 20
217.18433159722221
 30
0.0
 10
147.03460828993053
 20
216.87289496527777
 30
0.0
 10
147.46834581163193
 20
216.54113226996526
 30
0.0
 10
147.88761393229166
 20
216.19179958767359
 30
0.0
 10
148.35166829427081
 20
215.80491536458331
 30
0.0
 10
148.79643012152778
 20
215.39460449218748
 30
0.0
 10
149.22052137586803
 20
214.96431206597219
 30
0.0
 10
149.68698730468748
 20
214.49061143663192
 30
0.0
 10
150.12692599826389
 20
213.99141710069443
 30
0.0
 10
150.5403374565972
 20
213.47017415364581
 30
0.0
 10
150.99267849392359
 20
212.8996663411458
 30
0.0
 10
151.41229112413194
 20
212.30194227430553
 30
0.0
 10
151.79159613715277
 20
211.68079155815971
 30
0.0
 10
152.09889865451387
 20
211.17746310763886
 30
0.0
 10
152.37898491753469
 20
210.65759819878471
 30
0.0
 10
152.64494628906249
 20
210.12843153211804
 30
0.0
 10
152.92951117621527
 20
209.56274685329859
 30
0.0
 10
153.19753960503471
 20
208.98672688802083
 30
0.0
 10
153.38908691406249
 20
208.38521321614581
 30
0.0
 10
153.41010199652777
 20
208.3194118923611
 30
0.0
 10
153.42939453124998
 20
208.25429958767359
 30
0.0
 10
153.44937608506942
 20
208.18849826388887
 30
0.0
  0
LINE
  5
93
100
AcDbEntity
  8
レイヤー_2
 62
     7
100
AcDbLine
 10
111.356855
 20
188.95143
 30
0.0
 11
111.318614
 21
186.918134
 31
0.0
  0
SPLINE
  5
92
100
AcDbEntity
  8
レイヤー_2
 62
     7
100
AcDbSpline
210
0.0
220
0.0
230
1.0
 70
     8
 71
     3
 72
   131
 73
   127
 74
     0
 42
0.00000001
 43
0.00000001
 40
0.0
 40
0.0
 40
0.0
 40
0.0
 40
1.0
 40
1.0
 40
1.0
 40
2.0
 40
2.0
 40
2.0
 40
3.0
 40
3.0
 40
3.0
 40
4.0
 40
4.0
 40
4.0
 40
5.0
 40
5.0
 40
5.0
 40
6.0
 40
6.0
 40
6.0
 40
7.0
 40
7.0
 40
7.0
 40
8.0
 40
8.0
 40
8.0
 40
9.0
 40
9.0
 40
9.0
 40
10.0
 40
10.0
 40
10.0
 40
11.0
 40
11.0
 40
11.0
 40
12.0
 40
12.0
 40
12.0
 40
13.0
 40
13.0
 40
13.0
 40
14.0
 40
14.0
 40
14.0
 40
15.0
 40
15.0
 40
15.0
 40
16.0
 40
16.0
 40
16.0
 40
17.0
 40
17.0
 40
17.0
 40
18.0
 40
18.0
 40
18.0
 40
19.0
 40
19.0
 40
19.0
 40
20.0
 40
20.0
 40
20.0
 40
21.0
 40
21.0
 40
21.0
 40
22.0
 40
22.0
 40
22.0
 40
23.0
 40
23.0
 40
23.0
 40
24.0
 40
24.0
 40
24.0
 40
25.0
 40
25.0
 40
25.0
 40
26.0
 40
26.0
 40
26.0
 40
27.0
 40
27.0
 40
27.0
 40
28.0
 40
28.0
 40
28.0
 40
29.0
 40
29.0
 40
29.0
 40
30.0
 40
30.0
 40
30.0
 40
31.0
 40
31.0
 40
31.0
 40
32.0
 40
32.0
 40
32.0
 40
33.0
 40
33.0
 40
33.0
 40
34.0
 40
34.0
 40
34.0
 40
35.0
 40
35.0
 40
35.0
 40
36.0
 40
36.0
 40
36.0
 40
37.0
 40
37.0
 40
37.0
 40
38.0
 40
38.0
 40
38.0
 40
39.0
 40
39.0
 40
39.0
 40
40.0
 40
40.0
 40
40.0
 40
41.0
 40
41.0
 40
41.0
 40
42.0
 40
42.0
 40
42.0
 40
42.0
 10
159.45968967013889
 20
206.29507378472221
 30
0.0
 10
159.31534016927083
 20
206.8466335720486
 30
0.0
 10
159.17099066840277
 20
207.39750434027775
 30
0.0
 10
159.01733940972221
 20
207.9473415798611
 30
0.0
 10
158.82889268663192
 20
208.62223578559025
 30
0.0
 10
158.62769911024304
 20
209.29506293402775
 30
0.0
 10
158.39308810763887
 20
209.95548773871525
 30
0.0
 10
158.17122395833331
 20
210.57732747395832
 30
0.0
 10
157.92007649739583
 20
211.18952094184027
 30
0.0
 10
157.64481336805554
 20
211.78965657552081
 30
0.0
 10
157.38539767795137
 20
212.35534125434026
 30
0.0
 10
157.10565592447915
 20
212.91137966579859
 30
0.0
 10
156.8035210503472
 20
213.45536024305554
 30
0.0
 10
156.42869466145831
 20
214.13025444878471
 30
0.0
 10
156.01976182725693
 20
214.78757866753469
 30
0.0
 10
155.58085666232637
 20
215.42285427517359
 30
0.0
 10
155.17778049045137
 20
216.00610894097221
 30
0.0
 10
154.74852159288193
 20
216.57144911024304
 30
0.0
 10
154.29514702690972
 20
217.1164632161458
 30
0.0
 10
153.88104654947915
 20
217.61393500434025
 30
0.0
 10
153.44662000868055
 20
218.09487033420137
 30
0.0
 10
152.99393446180554
 20
218.55720214843748
 30
0.0
 10
152.58396809895831
 20
218.97543674045136
 30
0.0
 10
152.15953233506943
 20
219.37782389322913
 30
0.0
 10
151.72028266059027
 20
219.76539713541663
 30
0.0
 10
151.32857530381943
 20
220.11025119357637
 30
0.0
 10
150.92549913194443
 20
220.4430474175347
 30
0.0
 10
150.51174316406249
 20
220.76137424045137
 30
0.0
 10
150.14863009982636
 20
221.0411159939236
 30
0.0
 10
149.77828233506943
 20
221.31052246093748
 30
0.0
 10
149.39932183159721
 20
221.5682156032986
 30
0.0
 10
149.04585503472222
 20
221.80902777777777
 30
0.0
 10
148.68653157552083
 20
222.04053819444442
 30
0.0
 10
148.32135145399303
 20
222.26205783420136
 30
0.0
 10
147.95307074652777
 20
222.48564453124999
 30
0.0
 10
147.5789333767361
 20
222.69855143229165
 30
0.0
 10
147.19928385416665
 20
222.90181206597219
 30
0.0
 10
146.81722276475693
 20
223.10645073784721
 30
0.0
 10
146.42999403211803
 20
223.30006510416663
 30
0.0
 10
146.03725314670137
 20
223.48368869357637
 30
0.0
 10
145.24591471354165
 20
223.85438096788192
 30
0.0
 10
144.43390570746527
 20
224.18097601996527
 30
0.0
 10
143.60673828124999
 20
224.46244032118054
 30
0.0
 10
142.76992458767359
 20
224.74700520833332
 30
0.0
 10
141.91726345486109
 20
224.9850613064236
 30
0.0
 10
141.05426703559027
 20
225.17454155815969
 30
0.0
 10
140.17921278211804
 20
225.36677788628469
 30
0.0
 10
139.2938232421875
 20
225.50940483940971
 30
0.0
 10
138.40326605902777
 20
225.60173339843749
 30
0.0
 10
137.50823025173611
 20
225.69475097656249
 30
0.0
 10
136.60768229166666
 20
225.73712565104165
 30
0.0
 10
135.70747884114581
 20
225.72782389322916
 30
0.0
 10
134.80072970920136
 20
225.71955566406248
 30
0.0
 10
133.89466959635416
 20
225.65926649305553
 30
0.0
 10
132.99481065538194
 20
225.54764539930554
 30
0.0
 10
132.09460720486109
 20
225.43636881510415
 30
0.0
 10
131.20094943576387
 20
225.27444932725692
 30
0.0
 10
130.31969401041667
 20
225.0629204644097
 30
0.0
 10
129.66443684895833
 20
224.90582411024303
 30
0.0
 10
129.0157253689236
 20
224.72220052083333
 30
0.0
 10
128.37528211805554
 20
224.51067165798608
 30
0.0
 10
127.76584472656249
 20
224.31085611979165
 30
0.0
 10
127.16398654513888
 20
224.08520236545138
 30
0.0
 10
126.5724636501736
 20
223.8378445095486
 30
0.0
 10
126.01608072916666
 20
223.60495605468748
 30
0.0
 10
125.46899956597221
 20
223.35070800781247
 30
0.0
 10
124.93259819878472
 20
223.07785644531248
 30
0.0
 10
124.43030327690971
 20
222.8215413411458
 30
0.0
 10
123.93593207465277
 20
222.54868977864581
 30
0.0
 10
123.45292968749999
 20
222.25826822916665
 30
0.0
 10
123.08912760416665
 20
222.04019368489583
 30
0.0
 10
122.73083767361111
 20
221.81247287326386
 30
0.0
 10
122.38012695312499
 20
221.57579481336805
 30
0.0
 10
122.04733072916666
 20
221.35186360677082
 30
0.0
 10
121.72176920572916
 20
221.12035319010414
 30
0.0
 10
121.40137532552082
 20
220.88023003472219
 30
0.0
 10
121.08752712673611
 20
220.64665256076387
 30
0.0
 10
120.78022460937498
 20
220.40446234809025
 30
0.0
 10
120.47877875434027
 20
220.15572645399303
 30
0.0
 10
120.11394314236109
 20
219.8535915798611
 30
0.0
 10
119.75737575954859
 20
219.54146592881943
 30
0.0
 10
119.41045464409721
 20
219.21866048177083
 30
0.0
 10
118.9915310329861
 20
218.83005371093748
 30
0.0
 10
118.58638780381943
 20
218.42628851996525
 30
0.0
 10
118.19536946614582
 20
218.0090874565972
 30
0.0
 10
117.81882052951387
 20
217.60704481336805
 30
0.0
 10
117.45605197482638
 20
217.19259982638886
 30
0.0
 10
117.10740831163193
 20
216.76575249565971
 30
0.0
 10
116.71638997395833
 20
216.28757324218748
 30
0.0
 10
116.34397515190972
 20
215.79423556857637
 30
0.0
 10
115.99050835503471
 20
215.2871175130208
 30
0.0
 10
115.59983452690972
 20
214.72625596788191
 30
0.0
 10
115.23224283854165
 20
214.1488579644097
 30
0.0
 10
114.88980034722221
 20
213.55664605034721
 30
0.0
 10
114.61178114149304
 20
213.07571072048609
 30
0.0
 10
114.34960937499999
 20
212.58512912326387
 30
0.0
 10
114.10535210503471
 20
212.0869683159722
 30
0.0
 10
113.84421386718749
 20
211.55607910156249
 30
0.0
 10
113.60340169270832
 20
211.01519911024303
 30
0.0
 10
113.38188205295138
 20
210.46673990885415
 30
0.0
 10
113.1469265407986
 20
209.88348524305553
 30
0.0
 10
112.93505316840277
 20
209.29161783854164
 30
0.0
 10
112.74626193576388
 20
208.69217122395833
 30
0.0
 10
112.54541286892361
 20
208.05551757812498
 30
0.0
 10
112.37109103732638
 20
207.41059570312498
 30
0.0
 10
112.22295193142359
 20
206.76016167534721
 30
0.0
 10
112.06585557725694
 20
206.07045355902775
 30
0.0
 10
111.93873155381944
 20
205.37316623263888
 30
0.0
 10
111.84261338975693
 20
204.67243381076386
 30
0.0
 10
111.74167209201389
 20
203.93036024305553
 30
0.0
 10
111.67518174913194
 20
203.18277452256942
 30
0.0
 10
111.63935275607638
 20
202.43449978298608
 30
0.0
 10
111.60145670572916
 20
201.64074978298609
 30
0.0
 10
111.59732259114583
 20
200.84596625434025
 30
0.0
 10
111.58492024739583
 20
200.05049370659719
 30
0.0
 10
111.57217339409721
 20
199.21678059895831
 30
0.0
 10
111.55115831163194
 20
198.3823784722222
 30
0.0
 10
111.53255479600693
 20
197.54866536458331
 30
0.0
 10
111.5129177517361
 20
196.67636718749998
 30
0.0
 10
111.49603678385415
 20
195.80372450086804
 30
0.0
 10
111.47812228732639
 20
194.93108181423608
 30
0.0
 10
111.45986328124999
 20
194.01985405815969
 30
0.0
 10
111.44125976562499
 20
193.10862630208331
 30
0.0
 10
111.42231174045138
 20
192.19774305555555
 30
0.0
 10
111.40715332031249
 20
191.46462673611109
 30
0.0
 10
111.39233940972221
 20
190.73116590711803
 30
0.0
 10
111.37718098958332
 20
189.99804958767359
 30
0.0
  0
SPLINE
  5
91
100
AcDbEntity
  8
レイヤー_2
 62
     7
100
AcDbSpline
210
0.0
220
0.0
230
1.0
 70
     8
 71
     3
 72
     8
 73
     4
 74
     0
 42
0.00000001
 43
0.00000001
 40
0.0
 40
0.0
 40
0.0
 40
0.0
 40
1.0
 40
1.0
 40
1.0
 40
1.0
 10
154.38988715277776
 20
204.93426106770832
 30
0.0
 10
154.41917046440972
 20
204.82918565538193
 30
0.0
 10
154.52769097222222
 20
204.76648491753471
 30
0.0
 10
154.6331108940972
 20
204.79439019097219
 30
0.0
  0
SPLINE
  5
90
100
AcDbEntity
  8
レイヤー_2
 62
     7
100
AcDbSpline
210
0.0
220
0.0
230
1.0
 70
     8
 71
     3
 72
     8
 73
     4
 74
     0
 42
0.00000001
 43
0.00000001
 40
0.0
 40
0.0
 40
0.0
 40
0.0
 40
1.0
 40
1.0
 40
1.0
 40
1.0
 10
159.46657986111109
 20
206.24270833333333
 30
0.0
 10
159.46657986111109
 20
206.26131184895831
 30
0.0
 10
159.46451280381942
 20
206.27922634548608
 30
0.0
 10
159.45968967013889
 20
206.29438476562498
 30
0.0
  0
SPLINE
  5
8F
100
AcDbEntity
  8
レイヤー_2
 62
     7
100
AcDbSpline
210
0.0
220
0.0
230
1.0
 70
     8
 71
     3
 72
     8
 73
     4
 74
     0
 42
0.00000001
 43
0.00000001
 40
0.0
 40
0.0
 40
0.0
 40
0.0
 40
1.0
 40
1.0
 40
1.0
 40
1.0
 10
159.32050781249998
 20
206.05047200520832
 30
0.0
 10
159.40904676649305
 20
206.07458767361109
 30
0.0
 10
159.46623535156249
 20
206.15416937934026
 30
0.0
 10
159.46657986111109
 20
206.24270833333333
 30
0.0
  0
SPLINE
  5
8E
100
AcDbEntity
  8
レイヤー_2
 62
     7
100
AcDbSpline
210
0.0
220
0.0
230
1.0
 70
     8
 71
     3
 72
     8
 73
     4
 74
     0
 42
0.00000001
 43
0.00000001
 40
0.0
 40
0.0
 40
0.0
 40
0.0
 40
1.0
 40
1.0
 40
1.0
 40
1.0
 10
111.30896809895832
 20
186.17881673177081
 30
0.0
 10
111.30896809895832
 20
186.06822916666664
 30
0.0
 10
111.39819607204861
 20
185.97934570312498
 30
0.0
 10
111.50878363715277
 20
185.97934570312498
 30
0.0
  0
SPLINE
  5
8D
100
AcDbEntity
  8
レイヤー_2
 62
     7
100
AcDbSpline
210
0.0
220
0.0
230
1.0
 70
     8
 71
     3
 72
     8
 73
     4
 74
     0
 42
0.00000001
 43
0.00000001
 40
0.0
 40
0.0
 40
0.0
 40
0.0
 40
1.0
 40
1.0
 40
1.0
 40
1.0
 10
117.85947265624999
 20
185.97934570312498
 30
0.0
 10
117.96868218315971
 20
185.97934570312498
 30
0.0
 10
118.05791015624999
 20
186.06754014756942
 30
0.0
 10
118.05963270399305
 20
186.17709418402777
 30
0.0
  0
SPLINE
  5
8C
100
AcDbEntity
  8
レイヤー_2
 62
     7
100
AcDbSpline
210
0.0
220
0.0
230
1.0
 70
     8
 71
     3
 72
    11
 73
     7
 74
     0
 42
0.00000001
 43
0.00000001
 40
0.0
 40
0.0
 40
0.0
 40
0.0
 40
1.0
 40
1.0
 40
1.0
 40
2.0
 40
2.0
 40
2.0
 40
2.0
 10
118.05963270399305
 20
186.17158203124998
 30
0.0
 10
118.05963270399305
 20
186.31283094618053
 30
0.0
 10
118.06066623263888
 20
186.45476888020832
 30
0.0
 10
118.05894368489582
 20
186.59601779513886
 30
0.0
 10
118.05722113715277
 20
186.70074869791665
 30
0.0
 10
118.05480957031249
 20
186.80513509114581
 30
0.0
 10
118.05205349392359
 20
186.9102105034722
 30
0.0
  0
SPLINE
  5
8B
100
AcDbEntity
  8
レイヤー_2
 62
     7
100
AcDbSpline
210
0.0
220
0.0
230
1.0
 70
     8
 71
     3
 72
    11
 73
     7
 74
     0
 42
0.00000001
 43
0.00000001
 40
0.0
 40
0.0
 40
0.0
 40
0.0
 40
1.0
 40
1.0
 40
1.0
 40
2.0
 40
2.0
 40
2.0
 40
2.0
 10
111.31344672309027
 20
186.91813422309025
 30
0.0
 10
111.3113796657986
 20
186.81202528211804
 30
0.0
 10
111.30965711805554
 20
186.70591634114581
 30
0.0
 10
111.30896809895832
 20
186.59911838107638
 30
0.0
 10
111.30759006076389
 20
186.45683593749999
 30
0.0
 10
111.30862358940971
 20
186.31420898437497
 30
0.0
 10
111.30896809895832
 20
186.17158203124998
 30
0.0
  0
LINE
  5
8A
100
AcDbEntity
  8
レイヤー_2
 62
     7
100
AcDbLine
 10
110.011201
 20
180.168848
 30
0.0
 11
110.269238
 21
179.483274
 31
0.0
  0
LINE
  5
89
100
AcDbEntity
  8
レイヤー_2
 62
     7
100
AcDbLine
 10
119.121411
 20
179.483274
 30
0.0
 11
119.379449
 21
180.168848
 31
0.0
  0
LINE
  5
88
100
AcDbEntity
  8
レイヤー_2
 62
     7
100
AcDbLine
 10
121.958447
 20
161.978743
 30
0.0
 11
121.958447
 21
163.526969
 31
0.0
  0
LINE
  5
87
100
AcDbEntity
  8
レイヤー_2
 62
     7
100
AcDbLine
 10
107.407742
 20
163.526969
 30
0.0
 11
107.407742
 21
161.978743
 31
0.0
  0
SPLINE
  5
86
100
AcDbEntity
  8
レイヤー_2
 62
     7
100
AcDbSpline
210
0.0
220
0.0
230
1.0
 70
     8
 71
     3
 72
     8
 73
     4
 74
     0
 42
0.00000001
 43
0.00000001
 40
0.0
 40
0.0
 40
0.0
 40
0.0
 40
1.0
 40
1.0
 40
1.0
 40
1.0
 10
121.95844726562498
 20
163.52696940104164
 30
0.0
 10
121.95844726562498
 20
163.63755696614581
 30
0.0
 10
121.86818576388887
 20
163.72781846788192
 30
0.0
 10
121.75828721788193
 20
163.72781846788192
 30
0.0
  0
SPLINE
  5
85
100
AcDbEntity
  8
レイヤー_2
 62
     7
100
AcDbSpline
210
0.0
220
0.0
230
1.0
 70
     8
 71
     3
 72
     8
 73
     4
 74
     0
 42
0.00000001
 43
0.00000001
 40
0.0
 40
0.0
 40
0.0
 40
0.0
 40
1.0
 40
1.0
 40
1.0
 40
1.0
 10
107.60755750868054
 20
163.72781846788192
 30
0.0
 10
107.49731445312499
 20
163.72781846788192
 30
0.0
 10
107.4077419704861
 20
163.63755696614581
 30
0.0
 10
107.4077419704861
 20
163.52696940104164
 30
0.0
  0
SPLINE
  5
84
100
AcDbEntity
  8
レイヤー_2
 62
     7
100
AcDbSpline
210
0.0
220
0.0
230
1.0
 70
     8
 71
     3
 72
     8
 73
     4
 74
     0
 42
0.00000001
 43
0.00000001
 40
0.0
 40
0.0
 40
0.0
 40
0.0
 40
1.0
 40
1.0
 40
1.0
 40
1.0
 10
120.78711480034721
 20
163.83358289930555
 30
0.0
 10
120.96694878472221
 20
163.77019314236111
 30
0.0
 10
121.15057237413194
 20
163.73436414930555
 30
0.0
 10
121.31800401475694
 20
163.72644042968747
 30
0.0
  0
SPLINE
  5
83
100
AcDbEntity
  8
レイヤー_2
 62
     7
100
AcDbSpline
210
0.0
220
0.0
230
1.0
 70
     8
 71
     3
 72
     8
 73
     4
 74
     0
 42
0.00000001
 43
0.00000001
 40
0.0
 40
0.0
 40
0.0
 40
0.0
 40
1.0
 40
1.0
 40
1.0
 40
1.0
 10
108.04749620225694
 20
163.72644042968747
 30
0.0
 10
108.2383544921875
 20
163.73780924479166
 30
0.0
 10
108.42128906249999
 20
163.77639431423609
 30
0.0
 10
108.57907443576389
 20
163.83358289930555
 30
0.0
  0
SPLINE
  5
82
100
AcDbEntity
  8
レイヤー_2
 62
     7
100
AcDbSpline
210
0.0
220
0.0
230
1.0
 70
     8
 71
     3
 72
     8
 73
     4
 74
     0
 42
0.00000001
 43
0.00000001
 40
0.0
 40
0.0
 40
0.0
 40
0.0
 40
1.0
 40
1.0
 40
1.0
 40
1.0
 10
118.53471137152776
 20
166.46012369791666
 30
0.0
 10
118.77380099826388
 20
165.21024305555554
 30
0.0
 10
119.65436740451388
 20
164.24423828124998
 30
0.0
 10
120.78711480034721
 20
163.83358289930555
 30
0.0
  0
SPLINE
  5
81
100
AcDbEntity
  8
レイヤー_2
 62
     7
100
AcDbSpline
210
0.0
220
0.0
230
1.0
 70
     8
 71
     3
 72
     8
 73
     4
 74
     0
 42
0.00000001
 43
0.00000001
 40
0.0
 40
0.0
 40
0.0
 40
0.0
 40
1.0
 40
1.0
 40
1.0
 40
1.0
 10
108.57907443576389
 20
163.83358289930555
 30
0.0
 10
109.28773057725694
 20
164.08679741753471
 30
0.0
 10
109.86409505208333
 20
164.54499511718748
 30
0.0
 10
110.25649142795137
 20
165.10757921006942
 30
0.0
  0
SPLINE
  5
80
100
AcDbEntity
  8
レイヤー_2
 62
     7
100
AcDbSpline
210
0.0
220
0.0
230
1.0
 70
     8
 71
     3
 72
     8
 73
     4
 74
     0
 42
0.00000001
 43
0.00000001
 40
0.0
 40
0.0
 40
0.0
 40
0.0
 40
1.0
 40
1.0
 40
1.0
 40
1.0
 10
118.08305935329859
 20
171.22916937934025
 30
0.0
 10
118.08305935329859
 20
169.54245062934027
 30
0.0
 10
118.2473904079861
 20
167.89397243923611
 30
0.0
 10
118.53471137152776
 20
166.46012369791666
 30
0.0
  0
SPLINE
  5
7F
100
AcDbEntity
  8
レイヤー_2
 62
     7
100
AcDbSpline
210
0.0
220
0.0
230
1.0
 70
     8
 71
     3
 72
     8
 73
     4
 74
     0
 42
0.00000001
 43
0.00000001
 40
0.0
 40
0.0
 40
0.0
 40
0.0
 40
1.0
 40
1.0
 40
1.0
 40
1.0
 10
111.24420030381944
 20
169.83218315972221
 30
0.0
 10
111.27176106770833
 20
170.32310926649305
 30
0.0
 10
111.28381890190971
 20
170.81093478732637
 30
0.0
 10
111.28312988281249
 20
171.22916937934025
 30
0.0
  0
LINE
  5
7E
100
AcDbEntity
  8
レイヤー_2
 62
     7
100
AcDbLine
 10
118.083059
 20
171.229169
 30
0.0
 11
118.083059
 21
185.529072
 31
0.0
  0
LINE
  5
7D
100
AcDbEntity
  8
レイヤー_2
 62
     7
100
AcDbLine
 10
111.28313
 20
185.529072
 30
0.0
 11
111.28313
 21
171.229169
 31
0.0
  0
SPLINE
  5
7C
100
AcDbEntity
  8
レイヤー_2
 62
     7
100
AcDbSpline
210
0.0
220
0.0
230
1.0
 70
     8
 71
     3
 72
     8
 73
     4
 74
     0
 42
0.00000001
 43
0.00000001
 40
0.0
 40
0.0
 40
0.0
 40
0.0
 40
1.0
 40
1.0
 40
1.0
 40
1.0
 10
111.48294542100693
 20
185.72888726128471
 30
0.0
 10
111.37235785590276
 20
185.72888726128471
 30
0.0
 10
111.28312988281249
 20
185.63931477864583
 30
0.0
 10
111.28312988281249
 20
185.52907172309025
 30
0.0
  0
SPLINE
  5
7B
100
AcDbEntity
  8
レイヤー_2
 62
     7
100
AcDbSpline
210
0.0
220
0.0
230
1.0
 70
     8
 71
     3
 72
     8
 73
     4
 74
     0
 42
0.00000001
 43
0.00000001
 40
0.0
 40
0.0
 40
0.0
 40
0.0
 40
1.0
 40
1.0
 40
1.0
 40
1.0
 10
118.08305935329859
 20
185.52907172309025
 30
0.0
 10
118.08305935329859
 20
185.63931477864583
 30
0.0
 10
117.99383138020832
 20
185.72888726128471
 30
0.0
 10
117.88255479600693
 20
185.72888726128471
 30
0.0
  0
SPLINE
  5
7A
100
AcDbEntity
  8
レイヤー_2
 62
     7
100
AcDbSpline
210
0.0
220
0.0
230
1.0
 70
     8
 71
     3
 72
     8
 73
     4
 74
     0
 42
0.00000001
 43
0.00000001
 40
0.0
 40
0.0
 40
0.0
 40
0.0
 40
1.0
 40
1.0
 40
1.0
 40
1.0
 10
111.60834689670138
 20
185.72888726128471
 30
0.0
 10
111.71824544270832
 20
185.72888726128471
 30
0.0
 10
111.80781792534721
 20
185.81880425347219
 30
0.0
 10
111.80781792534721
 20
185.92939181857636
 30
0.0
  0
SPLINE
  5
79
100
AcDbEntity
  8
レイヤー_2
 62
     7
100
AcDbSpline
210
0.0
220
0.0
230
1.0
 70
     8
 71
     3
 72
     8
 73
     4
 74
     0
 42
0.00000001
 43
0.00000001
 40
0.0
 40
0.0
 40
0.0
 40
0.0
 40
1.0
 40
1.0
 40
1.0
 40
1.0
 10
117.55802680121526
 20
185.92939181857636
 30
0.0
 10
117.55802680121526
 20
185.81880425347219
 30
0.0
 10
117.64759928385416
 20
185.72888726128471
 30
0.0
 10
117.75784233940971
 20
185.72888726128471
 30
0.0
  0
LINE
  5
78
100
AcDbEntity
  8
レイヤー_2
 62
     7
100
AcDbLine
 10
111.807818
 20
185.979346
 30
0.0
 11
111.807818
 21
185.929392
 31
0.0
  0
LINE
  5
77
100
AcDbEntity
  8
レイヤー_2
 62
     7
100
AcDbLine
 10
117.558027
 20
185.929392
 30
0.0
 11
117.558027
 21
185.979346
 31
0.0
  0
SPLINE
  5
76
100
AcDbEntity
  8
レイヤー_2
 62
     7
100
AcDbSpline
210
0.0
220
0.0
230
1.0
 70
     8
 71
     3
 72
    11
 73
     7
 74
     0
 42
0.00000001
 43
0.00000001
 40
0.0
 40
0.0
 40
0.0
 40
0.0
 40
1.0
 40
1.0
 40
1.0
 40
2.0
 40
2.0
 40
2.0
 40
2.0
 10
110.17553168402777
 20
165.16614583333333
 30
0.0
 10
110.18931206597222
 20
165.15649956597221
 30
0.0
 10
110.20309244791666
 20
165.14719780815972
 30
0.0
 10
110.21618381076388
 20
165.13686252170137
 30
0.0
 10
110.23030870225693
 20
165.12756076388888
 30
0.0
 10
110.24340006510415
 20
165.11825900607639
 30
0.0
 10
110.2571804470486
 20
165.10826822916664
 30
0.0
  0
LINE
  5
75
100
AcDbEntity
  8
レイヤー_2
 62
     7
100
AcDbLine
 10
110.887977
 20
178.403236
 30
0.0
 11
111.28313
 21
177.829628
 31
0.0
  0
LINE
  5
74
100
AcDbEntity
  8
レイヤー_2
 62
     7
100
AcDbLine
 10
118.083059
 20
177.829628
 30
0.0
 11
118.346265
 21
178.178961
 31
0.0
  0
LINE
  5
73
100
AcDbEntity
  8
レイヤー_2
 62
     7
100
AcDbLine
 10
104.95759
 20
168.543028
 30
0.0
 11
104.95759
 21
169.792909
 31
0.0
  0
LINE
  5
72
100
AcDbEntity
  8
レイヤー_2
 62
     7
100
AcDbLine
 10
110.068045
 20
165.550963
 30
0.0
 11
110.738805
 21
165.731141
 31
0.0
  0
LINE
  5
71
100
AcDbEntity
  8
レイヤー_2
 62
     7
100
AcDbLine
 10
153.636789
 20
207.592841
 30
0.0
 11
153.526546
 21
208.004186
 31
0.0
  0
LINE
  5
70
100
AcDbEntity
  8
レイヤー_2
 62
     7
100
AcDbLine
 10
153.716715
 20
207.292429
 30
0.0
 11
153.636789
 21
207.592841
 31
0.0
  0
SPLINE
  5
6F
100
AcDbEntity
  8
レイヤー_2
 62
     7
100
AcDbSpline
210
0.0
220
0.0
230
1.0
 70
     8
 71
     3
 72
    32
 73
    28
 74
     0
 42
0.00000001
 43
0.00000001
 40
0.0
 40
0.0
 40
0.0
 40
0.0
 40
1.0
 40
1.0
 40
1.0
 40
2.0
 40
2.0
 40
2.0
 40
3.0
 40
3.0
 40
3.0
 40
4.0
 40
4.0
 40
4.0
 40
5.0
 40
5.0
 40
5.0
 40
6.0
 40
6.0
 40
6.0
 40
7.0
 40
7.0
 40
7.0
 40
8.0
 40
8.0
 40
8.0
 40
9.0
 40
9.0
 40
9.0
 40
9.0
 10
153.53412543402777
 20
208.00831976996525
 30
0.0
 10
153.53412543402777
 20
208.00831976996525
 30
0.0
 10
153.53860405815971
 20
207.99798448350691
 30
0.0
 10
153.53860405815971
 20
207.99798448350691
 30
0.0
 10
153.55548502604165
 20
207.95560980902775
 30
0.0
 10
153.57408854166664
 20
207.90565592447913
 30
0.0
 10
153.59269205729166
 20
207.85294596354166
 30
0.0
 10
153.61198459201387
 20
207.80058051215275
 30
0.0
 10
153.63127712673611
 20
207.74373643663193
 30
0.0
 10
153.64919162326387
 20
207.68758138020831
 30
0.0
 10
153.66779513888886
 20
207.6310818142361
 30
0.0
 10
153.68467610677081
 20
207.57458224826388
 30
0.0
 10
153.69983452690971
 20
207.52083875868053
 30
0.0
 10
153.71533745659721
 20
207.46743977864583
 30
0.0
 10
153.72877332899304
 20
207.41748589409721
 30
0.0
 10
153.74014214409721
 20
207.37269965277775
 30
0.0
 10
153.75116644965277
 20
207.32825792100692
 30
0.0
 10
153.76046820746527
 20
207.28932834201387
 30
0.0
 10
153.76770290798609
 20
207.25970052083332
 30
0.0
 10
153.7739040798611
 20
207.22903917100692
 30
0.0
 10
153.77907172309025
 20
207.20699055989581
 30
0.0
 10
153.78148328993055
 20
207.19355468749998
 30
0.0
 10
153.78148328993055
 20
207.19355468749998
 30
0.0
 10
153.78458387586804
 20
207.18080783420137
 30
0.0
 10
153.78458387586804
 20
207.18080783420137
 30
0.0
 10
153.78458387586804
 20
207.18080783420137
 30
0.0
 10
153.78113878038192
 20
207.1969997829861
 30
0.0
 10
153.78113878038192
 20
207.1969997829861
 30
0.0
  0
SPLINE
  5
6E
100
AcDbEntity
  8
レイヤー_2
 62
     7
100
AcDbSpline
210
0.0
220
0.0
230
1.0
 70
     8
 71
     3
 72
    32
 73
    28
 74
     0
 42
0.00000001
 43
0.00000001
 40
0.0
 40
0.0
 40
0.0
 40
0.0
 40
1.0
 40
1.0
 40
1.0
 40
2.0
 40
2.0
 40
2.0
 40
3.0
 40
3.0
 40
3.0
 40
4.0
 40
4.0
 40
4.0
 40
5.0
 40
5.0
 40
5.0
 40
6.0
 40
6.0
 40
6.0
 40
7.0
 40
7.0
 40
7.0
 40
8.0
 40
8.0
 40
8.0
 40
9.0
 40
9.0
 40
9.0
 40
9.0
 10
111.36133355034721
 20
188.98794759114583
 30
0.0
 10
111.36512315538194
 20
189.01068522135415
 30
0.0
 10
111.36856825086805
 20
189.03273383246525
 30
0.0
 10
111.3733913845486
 20
189.06408420138888
 30
0.0
 10
111.37787000868055
 20
189.09887966579859
 30
0.0
 10
111.38372667100694
 20
189.14366590711805
 30
0.0
 10
111.38854980468749
 20
189.19327528211804
 30
0.0
 10
111.39440646701388
 20
189.24322916666665
 30
0.0
 10
111.39819607204861
 20
189.29835069444442
 30
0.0
 10
111.40198567708332
 20
189.35622829861109
 30
0.0
 10
111.40370822482637
 20
189.39619140624998
 30
0.0
 10
111.40543077256943
 20
189.4371880425347
 30
0.0
 10
111.40611979166665
 20
189.47887369791664
 30
0.0
 10
111.40715332031249
 20
189.53744032118053
 30
0.0
 10
111.40715332031249
 20
189.59600694444444
 30
0.0
 10
111.40543077256943
 20
189.65181749131943
 30
0.0
 10
111.40370822482637
 20
189.7072835286458
 30
0.0
 10
111.40129665798609
 20
189.75930447048609
 30
0.0
 10
111.39785156249999
 20
189.80443522135414
 30
0.0
 10
111.39440646701388
 20
189.85025499131942
 30
0.0
 10
111.39027235243054
 20
189.89021809895831
 30
0.0
 10
111.38682725694443
 20
189.92225748697916
 30
0.0
 10
111.38338216145833
 20
189.95498589409721
 30
0.0
 10
111.37993706597221
 20
189.98013509114583
 30
0.0
 10
111.37924804687499
 20
189.99047037760414
 30
0.0
 10
111.37924804687499
 20
189.99047037760414
 30
0.0
 10
111.37821451822916
 20
189.99804958767359
 30
0.0
 10
111.37821451822916
 20
189.99804958767359
 30
0.0
  0
LINE
  5
6D
100
AcDbEntity
  8
レイヤー_2
 62
     7
100
AcDbLine
 10
111.373391
 20
189.06684
 30
0.0
 11
111.361334
 21
188.987948
 31
0.0
  0
SPLINE
  5
6C
100
AcDbEntity
  8
レイヤー_2
 62
     7
100
AcDbSpline
210
0.0
220
0.0
230
1.0
 70
     8
 71
     3
 72
    50
 73
    46
 74
     0
 42
0.00000001
 43
0.00000001
 40
0.0
 40
0.0
 40
0.0
 40
0.0
 40
1.0
 40
1.0
 40
1.0
 40
2.0
 40
2.0
 40
2.0
 40
3.0
 40
3.0
 40
3.0
 40
4.0
 40
4.0
 40
4.0
 40
5.0
 40
5.0
 40
5.0
 40
6.0
 40
6.0
 40
6.0
 40
7.0
 40
7.0
 40
7.0
 40
8.0
 40
8.0
 40
8.0
 40
9.0
 40
9.0
 40
9.0
 40
10.0
 40
10.0
 40
10.0
 40
11.0
 40
11.0
 40
11.0
 40
12.0
 40
12.0
 40
12.0
 40
13.0
 40
13.0
 40
13.0
 40
14.0
 40
14.0
 40
14.0
 40
15.0
 40
15.0
 40
15.0
 40
15.0
 10
159.31878526475694
 20
206.0497829861111
 30
0.0
 10
159.29983723958333
 20
206.04461534288191
 30
0.0
 10
159.27985568576386
 20
206.03944769965275
 30
0.0
 10
159.21370985243055
 20
206.02118869357636
 30
0.0
 10
159.16995713975692
 20
206.0098198784722
 30
0.0
 10
159.10587836371528
 20
205.99259440104166
 30
0.0
 10
159.02560763888889
 20
205.97123480902775
 30
0.0
 10
158.9425808376736
 20
205.94918619791665
 30
0.0
 10
158.8433620876736
 20
205.92231445312498
 30
0.0
 10
158.72106119791664
 20
205.88958604600691
 30
0.0
 10
158.58084581163192
 20
205.85237901475693
 30
0.0
 10
158.41238064236109
 20
205.80724826388888
 30
0.0
 10
158.20464138454861
 20
205.75074869791663
 30
0.0
 10
158.05512424045136
 20
205.71113009982636
 30
0.0
 10
157.88528103298609
 20
205.66565483940971
 30
0.0
 10
157.69373372395833
 20
205.61432291666665
 30
0.0
 10
157.55489637586805
 20
205.57677137586805
 30
0.0
 10
157.40469021267359
 20
205.53715277777775
 30
0.0
 10
157.24759385850692
 20
205.49477810329859
 30
0.0
 10
157.08877495659721
 20
205.45240342881942
 30
0.0
 10
156.92237684461804
 20
205.40761718749999
 30
0.0
 10
156.76321343315971
 20
205.3652425130208
 30
0.0
 10
156.62230902777776
 20
205.3273464626736
 30
0.0
 10
156.48622775607637
 20
205.29048394097219
 30
0.0
 10
156.35875922309026
 20
205.2567220052083
 30
0.0
 10
156.16721191406248
 20
205.20539008246527
 30
0.0
 10
155.99495713975693
 20
205.15888129340277
 30
0.0
 10
155.84337293836805
 20
205.11822916666665
 30
0.0
 10
155.72210557725694
 20
205.0861897786458
 30
0.0
 10
155.61392957899304
 20
205.05725097656247
 30
0.0
 10
155.51608886718748
 20
205.03106825086803
 30
0.0
 10
155.41514756944443
 20
205.00350748697915
 30
0.0
 10
155.32591959635414
 20
204.97973632812497
 30
0.0
 10
155.24495985243055
 20
204.95837673611109
 30
0.0
 10
155.11404622395833
 20
204.92323676215275
 30
0.0
 10
155.00690375434027
 20
204.89429796006942
 30
0.0
 10
154.92180989583332
 20
204.8715603298611
 30
0.0
 10
154.8346489800347
 20
204.84882269965277
 30
0.0
 10
154.77091471354166
 20
204.8312527126736
 30
0.0
 10
154.72061631944442
 20
204.81816134982637
 30
0.0
 10
154.67031792534721
 20
204.80438096788194
 30
0.0
 10
154.63758951822916
 20
204.79542371961804
 30
0.0
 10
154.63758951822916
 20
204.79542371961804
 30
0.0
 10
154.63758951822916
 20
204.79542371961804
 30
0.0
 10
154.64447970920136
 20
204.79749077690971
 30
0.0
 10
154.64447970920136
 20
204.79749077690971
 30
0.0
  0
SPLINE
  5
6B
100
AcDbEntity
  8
レイヤー_2
 62
     7
100
AcDbSpline
210
0.0
220
0.0
230
1.0
 70
     8
 71
     3
 72
    35
 73
    31
 74
     0
 42
0.00000001
 43
0.00000001
 40
0.0
 40
0.0
 40
0.0
 40
0.0
 40
1.0
 40
1.0
 40
1.0
 40
2.0
 40
2.0
 40
2.0
 40
3.0
 40
3.0
 40
3.0
 40
4.0
 40
4.0
 40
4.0
 40
5.0
 40
5.0
 40
5.0
 40
6.0
 40
6.0
 40
6.0
 40
7.0
 40
7.0
 40
7.0
 40
8.0
 40
8.0
 40
8.0
 40
9.0
 40
9.0
 40
9.0
 40
10.0
 40
10.0
 40
10.0
 40
10.0
 10
115.01864691840277
 20
185.97934570312498
 30
0.0
 10
114.84260253906248
 20
185.97934570312498
 30
0.0
 10
114.66690266927083
 20
185.97934570312498
 30
0.0
 10
114.49189181857638
 20
185.97934570312498
 30
0.0
 10
114.31102430555555
 20
185.97934570312498
 30
0.0
 10
114.13084581163193
 20
185.97934570312498
 30
0.0
 10
113.95549045138888
 20
185.97934570312498
 30
0.0
 10
113.78426920572916
 20
185.97934570312498
 30
0.0
 10
113.61614854600694
 20
185.97934570312498
 30
0.0
 10
113.4538845486111
 20
185.97934570312498
 30
0.0
 10
113.28714192708333
 20
185.97934570312498
 30
0.0
 10
113.12591145833332
 20
185.97934570312498
 30
0.0
 10
112.9732937282986
 20
185.97934570312498
 30
0.0
 10
112.82515462239583
 20
185.97934570312498
 30
0.0
 10
112.68528374565972
 20
185.97934570312498
 30
0.0
 10
112.55437011718749
 20
185.97934570312498
 30
0.0
 10
112.41966688368055
 20
185.97934570312498
 30
0.0
 10
112.29598795572916
 20
185.97934570312498
 30
0.0
 10
112.18471137152777
 20
185.97934570312498
 30
0.0
 10
112.07653537326388
 20
185.97934570312498
 30
0.0
 10
111.97869466145832
 20
185.97934570312498
 30
0.0
 10
111.89463433159722
 20
185.97934570312498
 30
0.0
 10
111.80919596354165
 20
185.97934570312498
 30
0.0
 10
111.7361599392361
 20
185.97934570312498
 30
0.0
 10
111.67759331597222
 20
185.97934570312498
 30
0.0
 10
111.62040473090276
 20
185.97934570312498
 30
0.0
 10
111.57596299913193
 20
185.97934570312498
 30
0.0
 10
111.55046929253471
 20
185.97934570312498
 30
0.0
 10
111.52359754774305
 20
185.97934570312498
 30
0.0
 10
111.50878363715277
 20
185.97934570312498
 30
0.0
 10
111.50878363715277
 20
185.97934570312498
 30
0.0
  0
SPLINE
  5
6A
100
AcDbEntity
  8
レイヤー_2
 62
     7
100
AcDbSpline
210
0.0
220
0.0
230
1.0
 70
     8
 71
     3
 72
    32
 73
    28
 74
     0
 42
0.00000001
 43
0.00000001
 40
0.0
 40
0.0
 40
0.0
 40
0.0
 40
1.0
 40
1.0
 40
1.0
 40
2.0
 40
2.0
 40
2.0
 40
3.0
 40
3.0
 40
3.0
 40
4.0
 40
4.0
 40
4.0
 40
5.0
 40
5.0
 40
5.0
 40
6.0
 40
6.0
 40
6.0
 40
7.0
 40
7.0
 40
7.0
 40
8.0
 40
8.0
 40
8.0
 40
9.0
 40
9.0
 40
9.0
 40
9.0
 10
117.84844835069444
 20
185.97934570312498
 30
0.0
 10
117.84844835069444
 20
185.97934570312498
 30
0.0
 10
117.85120442708332
 20
185.97934570312498
 30
0.0
 10
117.85120442708332
 20
185.97934570312498
 30
0.0
 10
117.85120442708332
 20
185.97934570312498
 30
0.0
 10
117.81124131944443
 20
185.97934570312498
 30
0.0
 10
117.76645507812499
 20
185.97934570312498
 30
0.0
 10
117.72235785590277
 20
185.97934570312498
 30
0.0
 10
117.66723632812499
 20
185.97934570312498
 30
0.0
 10
117.59798990885416
 20
185.97934570312498
 30
0.0
 10
117.52667643229165
 20
185.97934570312498
 30
0.0
 10
117.43951551649305
 20
185.97934570312498
 30
0.0
 10
117.34064127604165
 20
185.97934570312498
 30
0.0
 10
117.24417860243055
 20
185.97934570312498
 30
0.0
 10
117.13634711371526
 20
185.97934570312498
 30
0.0
 10
117.01749131944443
 20
185.97934570312498
 30
0.0
 10
116.89484592013888
 20
185.97934570312498
 30
0.0
 10
116.76048719618055
 20
185.97934570312498
 30
0.0
 10
116.61751573350693
 20
185.97934570312498
 30
0.0
 10
116.47833387586805
 20
185.97934570312498
 30
0.0
 10
116.33019476996527
 20
185.97934570312498
 30
0.0
 10
116.17482096354166
 20
185.97934570312498
 30
0.0
 10
116.0149685329861
 20
185.97934570312498
 30
0.0
 10
115.84822591145833
 20
185.97934570312498
 30
0.0
 10
115.67666015624999
 20
185.97934570312498
 30
0.0
 10
115.46306423611109
 20
185.97934570312498
 30
0.0
 10
115.24085557725694
 20
185.97934570312498
 30
0.0
 10
115.01864691840277
 20
185.97934570312498
 30
0.0
  0
SPLINE
  5
69
100
AcDbEntity
  8
レイヤー_2
 62
     7
100
AcDbSpline
210
0.0
220
0.0
230
1.0
 70
     8
 71
     3
 72
    14
 73
    10
 74
     0
 42
0.00000001
 43
0.00000001
 40
0.0
 40
0.0
 40
0.0
 40
0.0
 40
1.0
 40
1.0
 40
1.0
 40
2.0
 40
2.0
 40
2.0
 40
3.0
 40
3.0
 40
3.0
 40
3.0
 10
153.46453450520832
 20
208.17575141059027
 30
0.0
 10
153.46453450520832
 20
208.17575141059027
 30
0.0
 10
153.46694607204859
 20
208.16886121961804
 30
0.0
 10
153.46694607204859
 20
208.16886121961804
 30
0.0
 10
153.46694607204859
 20
208.16886121961804
 30
0.0
 10
153.48107096354164
 20
208.13751085069441
 30
0.0
 10
153.49416232638887
 20
208.10650499131941
 30
0.0
 10
153.50587565104166
 20
208.07928873697915
 30
0.0
 10
153.52000054253472
 20
208.04414876302081
 30
0.0
 10
153.53412543402777
 20
208.00831976996525
 30
0.0
  0
SPLINE
  5
68
100
AcDbEntity
  8
レイヤー_2
 62
     7
100
AcDbSpline
210
0.0
220
0.0
230
1.0
 70
     8
 71
     3
 72
    11
 73
     7
 74
     0
 42
0.00000001
 43
0.00000001
 40
0.0
 40
0.0
 40
0.0
 40
0.0
 40
1.0
 40
1.0
 40
1.0
 40
2.0
 40
2.0
 40
2.0
 40
2.0
 10
111.35582139756943
 20
188.95763075086805
 30
0.0
 10
111.35582139756943
 20
188.95763075086805
 30
0.0
 10
111.35719943576387
 20
188.96176486545139
 30
0.0
 10
111.35961100260415
 20
188.97623426649304
 30
0.0
 10
111.35961100260415
 20
188.97623426649304
 30
0.0
 10
111.36133355034721
 20
188.98794759114583
 30
0.0
 10
111.36133355034721
 20
188.98794759114583
 30
0.0
  0
SPLINE
  5
67
100
AcDbEntity
  8
レイヤー_2
 62
     7
100
AcDbSpline
210
0.0
220
0.0
230
1.0
 70
     8
 71
     3
 72
    29
 73
    25
 74
     0
 42
0.00000001
 43
0.00000001
 40
0.0
 40
0.0
 40
0.0
 40
0.0
 40
1.0
 40
1.0
 40
1.0
 40
2.0
 40
2.0
 40
2.0
 40
3.0
 40
3.0
 40
3.0
 40
4.0
 40
4.0
 40
4.0
 40
5.0
 40
5.0
 40
5.0
 40
6.0
 40
6.0
 40
6.0
 40
7.0
 40
7.0
 40
7.0
 40
8.0
 40
8.0
 40
8.0
 40
8.0
 10
111.60731336805554
 20
185.97934570312498
 30
0.0
 10
111.39440646701388
 20
185.7939995659722
 30
0.0
 10
111.18218858506944
 20
185.60934244791665
 30
0.0
 10
110.99167480468749
 20
185.40229220920136
 30
0.0
 10
110.79840494791665
 20
185.19420844184026
 30
0.0
 10
110.62683919270832
 20
184.9633870442708
 30
0.0
 10
110.47525499131943
 20
184.72154134114581
 30
0.0
 10
110.31884765624999
 20
184.47142740885414
 30
0.0
 10
110.18311089409721
 20
184.21028917100693
 30
0.0
 10
110.07148980034721
 20
183.93881564670139
 30
0.0
 10
109.96193576388887
 20
183.67526584201389
 30
0.0
 10
109.87546386718749
 20
183.40206976996527
 30
0.0
 10
109.81207411024305
 20
183.12301703559027
 30
0.0
 10
109.74661729600693
 20
182.83569607204859
 30
0.0
 10
109.7052761501736
 20
182.54355197482639
 30
0.0
 10
109.69046223958333
 20
182.24968532986111
 30
0.0
 10
109.67599283854166
 20
181.96753200954859
 30
0.0
 10
109.68632812499999
 20
181.68331163194443
 30
0.0
 10
109.71630045572915
 20
181.40046929253469
 30
0.0
 10
109.7455837673611
 20
181.11004774305553
 30
0.0
 10
109.79588216145832
 20
180.81962619357637
 30
0.0
 10
109.88683268229165
 20
180.54332953559026
 30
0.0
 10
109.92782931857639
 20
180.41827256944444
 30
0.0
 10
109.97847222222221
 20
180.2970052083333
 30
0.0
 10
110.02704806857638
 20
180.17504882812497
 30
0.0
  0
SPLINE
  5
66
100
AcDbEntity
  8
レイヤー_2
 62
     7
100
AcDbSpline
210
0.0
220
0.0
230
1.0
 70
     8
 71
     3
 72
    32
 73
    28
 74
     0
 42
0.00000001
 43
0.00000001
 40
0.0
 40
0.0
 40
0.0
 40
0.0
 40
1.0
 40
1.0
 40
1.0
 40
2.0
 40
2.0
 40
2.0
 40
3.0
 40
3.0
 40
3.0
 40
4.0
 40
4.0
 40
4.0
 40
5.0
 40
5.0
 40
5.0
 40
6.0
 40
6.0
 40
6.0
 40
7.0
 40
7.0
 40
7.0
 40
8.0
 40
8.0
 40
8.0
 40
9.0
 40
9.0
 40
9.0
 40
9.0
 10
119.36945800781248
 20
180.1729817708333
 30
0.0
 10
119.39081759982638
 20
180.22121310763887
 30
0.0
 10
119.41252170138888
 20
180.26875542534719
 30
0.0
 10
119.43181423611109
 20
180.31698676215277
 30
0.0
 10
119.54377983940971
 20
180.58914930555554
 30
0.0
 10
119.60269097222221
 20
180.88129340277777
 30
0.0
 10
119.64403211805555
 20
181.1737820095486
 30
0.0
 10
119.68468424479165
 20
181.45559082031249
 30
0.0
 10
119.70845540364583
 20
181.7387776692708
 30
0.0
 10
119.70742187499999
 20
182.02334255642359
 30
0.0
 10
119.70638834635416
 20
182.31445312499997
 30
0.0
 10
119.67779405381944
 20
182.60763075086803
 30
0.0
 10
119.62542860243055
 20
182.89564073350692
 30
0.0
 10
119.57547471788193
 20
183.17228190104166
 30
0.0
 10
119.50278320312499
 20
183.44375542534721
 30
0.0
 10
119.40838758680555
 20
183.70833875868053
 30
0.0
 10
119.31158040364582
 20
183.98084581163192
 30
0.0
 10
119.19203559027777
 20
184.24542914496527
 30
0.0
 10
119.04940863715277
 20
184.49588758680554
 30
0.0
 10
118.91332736545138
 20
184.73601074218749
 30
0.0
 10
118.7558865017361
 20
184.96407606336803
 30
0.0
 10
118.58569878472221
 20
185.18352864583332
 30
0.0
 10
118.40999891493054
 20
185.40883789062499
 30
0.0
 10
118.22017415364583
 20
185.62450086805555
 30
0.0
 10
117.99796549479166
 20
185.80192328559025
 30
0.0
 10
117.94043240017361
 20
185.84774305555553
 30
0.0
 10
117.87979871961805
 20
185.89115125868054
 30
0.0
 10
117.82019856770832
 20
185.93524848090277
 30
0.0
  0
SPLINE
  5
65
100
AcDbEntity
  8
レイヤー_2
 62
     7
100
AcDbSpline
210
0.0
220
0.0
230
1.0
 70
     8
 71
     3
 72
    20
 73
    16
 74
     0
 42
0.00000001
 43
0.00000001
 40
0.0
 40
0.0
 40
0.0
 40
0.0
 40
1.0
 40
1.0
 40
1.0
 40
2.0
 40
2.0
 40
2.0
 40
3.0
 40
3.0
 40
3.0
 40
4.0
 40
4.0
 40
4.0
 40
5.0
 40
5.0
 40
5.0
 40
5.0
 10
119.36842447916666
 20
181.0101399739583
 30
0.0
 10
119.37014702690971
 20
180.89989691840276
 30
0.0
 10
119.37186957465276
 20
180.78930935329859
 30
0.0
 10
119.36773546006944
 20
180.67872178819442
 30
0.0
 10
119.36015624999999
 20
180.45789116753471
 30
0.0
 10
119.3294949001736
 20
180.23637152777775
 30
0.0
 10
119.28057454427082
 20
180.01829698350693
 30
0.0
 10
119.23096516927082
 20
179.79574381510415
 30
0.0
 10
119.16137424045138
 20
179.57629123263888
 30
0.0
 10
119.07352430555555
 20
179.36166178385415
 30
0.0
 10
118.98774142795138
 20
179.15185546874997
 30
0.0
 10
118.88473307291666
 20
178.94583875868054
 30
0.0
 10
118.75795355902777
 20
178.75050184461804
 30
0.0
 10
118.63048502604165
 20
178.55309787326388
 30
0.0
 10
118.47924533420138
 20
178.3677517361111
 30
0.0
 10
118.32869466145833
 20
178.18102756076388
 30
0.0
  0
SPLINE
  5
64
100
AcDbEntity
  8
レイヤー_2
 62
     7
100
AcDbSpline
210
0.0
220
0.0
230
1.0
 70
     8
 71
     3
 72
    17
 73
    13
 74
     0
 42
0.00000001
 43
0.00000001
 40
0.0
 40
0.0
 40
0.0
 40
0.0
 40
1.0
 40
1.0
 40
1.0
 40
2.0
 40
2.0
 40
2.0
 40
3.0
 40
3.0
 40
3.0
 40
4.0
 40
4.0
 40
4.0
 40
4.0
 10
110.9269070095486
 20
178.3525933159722
 30
0.0
 10
110.80805121527777
 20
178.50658908420138
 30
0.0
 10
110.69022894965276
 20
178.66092936197916
 30
0.0
 10
110.5889431423611
 20
178.82215983072916
 30
0.0
 10
110.4587185329861
 20
179.02921006944442
 30
0.0
 10
110.35708821614583
 20
179.24831814236109
 30
0.0
 10
110.27337239583332
 20
179.47156032986109
 30
0.0
 10
110.18690049913194
 20
179.70031467013888
 30
0.0
 10
110.11903211805554
 20
179.93458116319442
 30
0.0
 10
110.08010253906249
 20
180.17125922309026
 30
0.0
 10
110.03393825954861
 20
180.44858940972222
 30
0.0
 10
110.02842610677082
 20
180.72970920138889
 30
0.0
 10
110.02222493489582
 20
181.0101399739583
 30
0.0
  0
SPLINE
  5
63
100
AcDbEntity
  8
レイヤー_2
 62
     7
100
AcDbSpline
210
0.0
220
0.0
230
1.0
 70
     8
 71
     3
 72
     8
 73
     4
 74
     0
 42
0.00000001
 43
0.00000001
 40
0.0
 40
0.0
 40
0.0
 40
0.0
 40
1.0
 40
1.0
 40
1.0
 40
1.0
 10
111.28312988281249
 20
184.10900336371526
 30
0.0
 10
110.45251736111111
 20
183.23739420572915
 30
0.0
 10
110.03393825954861
 20
182.12325032552081
 30
0.0
 10
110.02222493489582
 20
181.0101399739583
 30
0.0
  0
SPLINE
  5
62
100
AcDbEntity
  8
レイヤー_2
 62
     7
100
AcDbSpline
210
0.0
220
0.0
230
1.0
 70
     8
 71
     3
 72
     8
 73
     4
 74
     0
 42
0.00000001
 43
0.00000001
 40
0.0
 40
0.0
 40
0.0
 40
0.0
 40
1.0
 40
1.0
 40
1.0
 40
1.0
 10
119.36842447916666
 20
181.0101399739583
 30
0.0
 10
119.35498860677082
 20
182.22729220920138
 30
0.0
 10
118.86612955729166
 20
183.32765570746525
 30
0.0
 10
118.08305935329859
 20
184.13587510850692
 30
0.0
  0
LINE
  5
61
100
AcDbEntity
  8
レイヤー_2
 62
     7
100
AcDbLine
 10
107.407742
 20
161.978743
 30
0.0
 11
121.958447
 21
161.978743
 31
0.0
  0
LINE
  5
60
100
AcDbEntity
  8
レイヤー_2
 62
     7
100
AcDbLine
 10
107.607558
 20
163.727818
 30
0.0
 11
121.758287
 21
163.727818
 31
0.0
  0
SPLINE
  5
5F
100
AcDbEntity
  8
レイヤー_2
 62
     7
100
AcDbSpline
210
0.0
220
0.0
230
1.0
 70
     8
 71
     3
 72
    11
 73
     7
 74
     0
 42
0.00000001
 43
0.00000001
 40
0.0
 40
0.0
 40
0.0
 40
0.0
 40
1.0
 40
1.0
 40
1.0
 40
2.0
 40
2.0
 40
2.0
 40
2.0
 10
110.2571804470486
 20
165.10826822916664
 30
0.0
 10
110.2571804470486
 20
165.10826822916664
 30
0.0
 10
110.27302788628471
 20
165.11240234374998
 30
0.0
 10
110.30403374565971
 20
165.12135959201387
 30
0.0
 10
110.33400607638887
 20
165.12962782118055
 30
0.0
 10
110.38671603732638
 20
165.14444173177083
 30
0.0
 10
110.44011501736109
 20
165.1592556423611
 30
0.0
  0
SPLINE
  5
5E
100
AcDbEntity
  8
レイヤー_2
 62
     7
100
AcDbSpline
210
0.0
220
0.0
230
1.0
 70
     8
 71
     3
 72
    11
 73
     7
 74
     0
 42
0.00000001
 43
0.00000001
 40
0.0
 40
0.0
 40
0.0
 40
0.0
 40
1.0
 40
1.0
 40
1.0
 40
2.0
 40
2.0
 40
2.0
 40
2.0
 10
110.50384928385415
 20
165.25434027777777
 30
0.0
 10
110.49385850694443
 20
165.23814832899305
 30
0.0
 10
110.48352322048611
 20
165.22230088975692
 30
0.0
 10
110.47249891493054
 20
165.20679796006942
 30
0.0
 10
110.46216362847221
 20
165.19129503038192
 30
0.0
 10
110.45113932291666
 20
165.1751030815972
 30
0.0
 10
110.44011501736109
 20
165.1592556423611
 30
0.0
  0
LINE
  5
5D
100
AcDbEntity
  8
レイヤー_2
 62
     7
100
AcDbLine
 10
110.511428
 20
165.256407
 30
0.0
 11
110.503849
 21
165.25434
 31
0.0
  0
SPLINE
  5
5C
100
AcDbEntity
  8
レイヤー_2
 62
     7
100
AcDbSpline
210
0.0
220
0.0
230
1.0
 70
     8
 71
     3
 72
    14
 73
    10
 74
     0
 42
0.00000001
 43
0.00000001
 40
0.0
 40
0.0
 40
0.0
 40
0.0
 40
1.0
 40
1.0
 40
1.0
 40
2.0
 40
2.0
 40
2.0
 40
3.0
 40
3.0
 40
3.0
 40
3.0
 10
110.5114284939236
 20
165.25640733506944
 30
0.0
 10
110.55828179253471
 20
165.32737630208331
 30
0.0
 10
110.60237901475693
 20
165.40075683593747
 30
0.0
 10
110.64303114149304
 20
165.47482638888889
 30
0.0
 10
110.68437228732638
 20
165.54889594184027
 30
0.0
 10
110.72295735677082
 20
165.6243435329861
 30
0.0
 10
110.75844184027777
 20
165.70082465277775
 30
0.0
 10
110.82906629774304
 20
165.85378689236109
 30
0.0
 10
110.88866644965277
 20
166.01157226562498
 30
0.0
 10
110.93620876736109
 20
166.17418077256943
 30
0.0
  0
SPLINE
  5
5B
100
AcDbEntity
  8
レイヤー_2
 62
     7
100
AcDbSpline
210
0.0
220
0.0
230
1.0
 70
     8
 71
     3
 72
     8
 73
     4
 74
     0
 42
0.00000001
 43
0.00000001
 40
0.0
 40
0.0
 40
0.0
 40
0.0
 40
1.0
 40
1.0
 40
1.0
 40
1.0
 10
111.0044216579861
 20
166.46012369791666
 30
0.0
 10
110.98616265190971
 20
166.36297200520832
 30
0.0
 10
110.96342502170138
 20
166.26754286024305
 30
0.0
 10
110.93620876736109
 20
166.17418077256943
 30
0.0
  0
SPLINE
  5
5A
100
AcDbEntity
  8
レイヤー_2
 62
     7
100
AcDbSpline
210
0.0
220
0.0
230
1.0
 70
     8
 71
     3
 72
     8
 73
     4
 74
     0
 42
0.00000001
 43
0.00000001
 40
0.0
 40
0.0
 40
0.0
 40
0.0
 40
1.0
 40
1.0
 40
1.0
 40
1.0
 10
111.10364040798611
 20
167.09781087239583
 30
0.0
 10
111.07573513454859
 20
166.88628200954861
 30
0.0
 10
111.04300672743055
 20
166.67371961805554
 30
0.0
 10
111.0044216579861
 20
166.46012369791666
 30
0.0
  0
SPLINE
  5
59
100
AcDbEntity
  8
レイヤー_2
 62
     7
100
AcDbSpline
210
0.0
220
0.0
230
1.0
 70
     8
 71
     3
 72
    29
 73
    25
 74
     0
 42
0.00000001
 43
0.00000001
 40
0.0
 40
0.0
 40
0.0
 40
0.0
 40
1.0
 40
1.0
 40
1.0
 40
2.0
 40
2.0
 40
2.0
 40
3.0
 40
3.0
 40
3.0
 40
4.0
 40
4.0
 40
4.0
 40
5.0
 40
5.0
 40
5.0
 40
6.0
 40
6.0
 40
6.0
 40
7.0
 40
7.0
 40
7.0
 40
8.0
 40
8.0
 40
8.0
 40
8.0
 10
111.10364040798611
 20
167.09781087239583
 30
0.0
 10
111.14842664930555
 20
167.49192979600693
 30
0.0
 10
111.19321289062499
 20
167.88570421006943
 30
0.0
 10
111.21698404947915
 20
168.27396647135416
 30
0.0
 10
111.22663031684027
 20
168.42382812499997
 30
0.0
 10
111.23352050781249
 20
168.57265624999999
 30
0.0
 10
111.23765462239582
 20
168.72010633680554
 30
0.0
 10
111.24247775607638
 20
168.86686740451387
 30
0.0
 10
111.24626736111109
 20
169.01156141493055
 30
0.0
 10
111.24798990885415
 20
169.15384385850692
 30
0.0
 10
111.24902343749999
 20
169.29612630208331
 30
0.0
 10
111.24902343749999
 20
169.43427463107636
 30
0.0
 10
111.24833441840276
 20
169.56174316406248
 30
0.0
 10
111.24798990885415
 20
169.62651095920137
 30
0.0
 10
111.24661187065971
 20
169.68817816840277
 30
0.0
 10
111.24626736111109
 20
169.73847656249998
 30
0.0
 10
111.24626736111109
 20
169.76465928819442
 30
0.0
 10
111.24523383246527
 20
169.7884304470486
 30
0.0
 10
111.24488932291666
 20
169.80703396267359
 30
0.0
 10
111.24488932291666
 20
169.82184787326386
 30
0.0
 10
111.24420030381944
 20
169.83390570746525
 30
0.0
 10
111.24420030381944
 20
169.83390570746525
 30
0.0
 10
111.24420030381944
 20
169.83390570746525
 30
0.0
 10
111.24420030381944
 20
169.83252766927083
 30
0.0
 10
111.24420030381944
 20
169.83252766927083
 30
0.0
  0
LINE
  5
58
100
AcDbEntity
  8
レイヤー_2
 62
     7
100
AcDbLine
 10
111.482945
 20
185.728887
 30
0.0
 11
117.882555
 21
185.728887
 31
0.0
  0
SPLINE
  5
57
100
AcDbEntity
  8
レイヤー_2
 62
     7
100
AcDbSpline
210
0.0
220
0.0
230
1.0
 70
     8
 71
     3
 72
     8
 73
     4
 74
     0
 42
0.00000001
 43
0.00000001
 40
0.0
 40
0.0
 40
0.0
 40
0.0
 40
1.0
 40
1.0
 40
1.0
 40
1.0
 10
110.35984429253472
 20
165.21541069878469
 30
0.0
 10
110.38671603732638
 20
165.19680718315971
 30
0.0
 10
110.41324327256943
 20
165.17785915798609
 30
0.0
 10
110.44011501736109
 20
165.1592556423611
 30
0.0
  0
SPLINE
  5
56
100
AcDbEntity
  8
レイヤー_2
 62
     7
100
AcDbSpline
210
0.0
220
0.0
230
1.0
 70
     8
 71
     3
 72
    20
 73
    16
 74
     0
 42
0.00000001
 43
0.00000001
 40
0.0
 40
0.0
 40
0.0
 40
0.0
 40
1.0
 40
1.0
 40
1.0
 40
2.0
 40
2.0
 40
2.0
 40
3.0
 40
3.0
 40
3.0
 40
4.0
 40
4.0
 40
4.0
 40
5.0
 40
5.0
 40
5.0
 40
5.0
 10
110.23616536458333
 20
165.18233778211805
 30
0.0
 10
110.23616536458333
 20
165.18233778211805
 30
0.0
 10
110.25235731336805
 20
165.18647189670136
 30
0.0
 10
110.25235731336805
 20
165.18647189670136
 30
0.0
 10
110.25235731336805
 20
165.18647189670136
 30
0.0
 10
110.26992730034721
 20
165.19163953993055
 30
0.0
 10
110.26992730034721
 20
165.19163953993055
 30
0.0
 10
110.26992730034721
 20
165.19163953993055
 30
0.0
 10
110.28990885416665
 20
165.19680718315971
 30
0.0
 10
110.28990885416665
 20
165.19680718315971
 30
0.0
 10
110.29989963107639
 20
165.1995632595486
 30
0.0
 10
110.31092393663194
 20
165.20197482638886
 30
0.0
 10
110.32332628038193
 20
165.2061089409722
 30
0.0
 10
110.33435058593749
 20
165.20852050781249
 30
0.0
 10
110.34709743923609
 20
165.21231011284721
 30
0.0
 10
110.35984429253472
 20
165.21541069878469
 30
0.0
  0
SPLINE
  5
55
100
AcDbEntity
  8
レイヤー_2
 62
     7
100
AcDbSpline
210
0.0
220
0.0
230
1.0
 70
     8
 71
     3
 72
     8
 73
     4
 74
     0
 42
0.00000001
 43
0.00000001
 40
0.0
 40
0.0
 40
0.0
 40
0.0
 40
1.0
 40
1.0
 40
1.0
 40
1.0
 10
110.35984429253472
 20
165.21541069878469
 30
0.0
 10
110.40807562934027
 20
165.22850206163193
 30
0.0
 10
110.45596245659721
 20
165.24124891493054
 30
0.0
 10
110.50384928385415
 20
165.25434027777777
 30
0.0
  0
SPLINE
  5
54
100
AcDbEntity
  8
レイヤー_2
 62
     7
100
AcDbSpline
210
0.0
220
0.0
230
1.0
 70
     8
 71
     3
 72
    17
 73
    13
 74
     0
 42
0.00000001
 43
0.00000001
 40
0.0
 40
0.0
 40
0.0
 40
0.0
 40
1.0
 40
1.0
 40
1.0
 40
2.0
 40
2.0
 40
2.0
 40
3.0
 40
3.0
 40
3.0
 40
4.0
 40
4.0
 40
4.0
 40
4.0
 10
153.53412543402777
 20
208.00831976996525
 30
0.0
 10
153.52895779079859
 20
208.02141113281249
 30
0.0
 10
153.52379014756943
 20
208.03450249565969
 30
0.0
 10
153.51862250434027
 20
208.04690483940971
 30
0.0
 10
153.5010525173611
 20
208.09238009982636
 30
0.0
 10
153.48486056857638
 20
208.12958713107636
 30
0.0
 10
153.47486979166666
 20
208.15335828993054
 30
0.0
 10
153.46935763888888
 20
208.16507161458333
 30
0.0
 10
153.46281195746528
 20
208.18160807291665
 30
0.0
 10
153.46281195746528
 20
208.18160807291665
 30
0.0
 10
153.46281195746528
 20
208.18160807291665
 30
0.0
 10
153.45867784288194
 20
208.19090983072914
 30
0.0
 10
153.45867784288194
 20
208.19090983072914
 30
0.0
  0
SPLINE
  5
53
100
AcDbEntity
  8
レイヤー_2
 62
     7
100
AcDbSpline
210
0.0
220
0.0
230
1.0
 70
     8
 71
     3
 72
    11
 73
     7
 74
     0
 42
0.00000001
 43
0.00000001
 40
0.0
 40
0.0
 40
0.0
 40
0.0
 40
1.0
 40
1.0
 40
1.0
 40
2.0
 40
2.0
 40
2.0
 40
2.0
 10
111.36133355034721
 20
188.98794759114583
 30
0.0
 10
111.35961100260415
 20
188.97795681423608
 30
0.0
 10
111.35719943576387
 20
188.96176486545139
 30
0.0
 10
111.35719943576387
 20
188.96176486545139
 30
0.0
 10
111.35719943576387
 20
188.96176486545139
 30
0.0
 10
111.35547688802082
 20
188.95142957899304
 30
0.0
 10
111.35547688802082
 20
188.95142957899304
 30
0.0
  0
LINE
  5
52
100
AcDbEntity
  8
レイヤー_2
 62
     7
100
AcDbLine
 10
118.083059
 20
171.229169
 30
0.0
 11
111.28313
 21
171.229169
 31
0.0
  0
SPLINE
  5
51
100
AcDbEntity
  8
レイヤー_2
 62
     7
100
AcDbSpline
210
0.0
220
0.0
230
1.0
 70
     8
 71
     3
 72
    23
 73
    19
 74
     0
 42
0.00000001
 43
0.00000001
 40
0.0
 40
0.0
 40
0.0
 40
0.0
 40
1.0
 40
1.0
 40
1.0
 40
2.0
 40
2.0
 40
2.0
 40
3.0
 40
3.0
 40
3.0
 40
4.0
 40
4.0
 40
4.0
 40
5.0
 40
5.0
 40
5.0
 40
6.0
 40
6.0
 40
6.0
 40
6.0
 10
118.08305935329859
 20
178.00636121961804
 30
0.0
 10
118.09442816840277
 20
178.03185492621526
 30
0.0
 10
118.10648600260416
 20
178.05700412326388
 30
0.0
 10
118.11819932725693
 20
178.08284233940969
 30
0.0
 10
118.1667751736111
 20
178.19480794270831
 30
0.0
 10
118.20398220486111
 20
178.31538628472219
 30
0.0
 10
118.23498806423611
 20
178.43803168402775
 30
0.0
 10
118.29631076388888
 20
178.67264268663192
 30
0.0
 10
118.33971896701388
 20
178.91689995659721
 30
0.0
 10
118.35625542534721
 20
179.16666937934025
 30
0.0
 10
118.37313639322916
 20
179.42057291666666
 30
0.0
 10
118.36280110677082
 20
179.68102213541664
 30
0.0
 10
118.33110622829859
 20
179.93940429687498
 30
0.0
 10
118.29837782118055
 20
180.20777723524304
 30
0.0
 10
118.24394531249999
 20
180.47373860677081
 30
0.0
 10
118.15540635850694
 20
180.7241970486111
 30
0.0
 10
118.1326687282986
 20
180.78793131510415
 30
0.0
 10
118.10820855034721
 20
180.85097656249999
 30
0.0
 10
118.08305935329859
 20
180.91402180989581
 30
0.0
  0
SPLINE
  5
50
100
AcDbEntity
  8
レイヤー_2
 62
     7
100
AcDbSpline
210
0.0
220
0.0
230
1.0
 70
     8
 71
     3
 72
    29
 73
    25
 74
     0
 42
0.00000001
 43
0.00000001
 40
0.0
 40
0.0
 40
0.0
 40
0.0
 40
1.0
 40
1.0
 40
1.0
 40
2.0
 40
2.0
 40
2.0
 40
3.0
 40
3.0
 40
3.0
 40
4.0
 40
4.0
 40
4.0
 40
5.0
 40
5.0
 40
5.0
 40
6.0
 40
6.0
 40
6.0
 40
7.0
 40
7.0
 40
7.0
 40
8.0
 40
8.0
 40
8.0
 40
8.0
 10
111.28312988281249
 20
180.93055826822916
 30
0.0
 10
111.28312988281249
 20
180.93055826822916
 30
0.0
 10
111.27796223958332
 20
180.9195339626736
 30
0.0
 10
111.27796223958332
 20
180.9195339626736
 30
0.0
 10
111.24523383246527
 20
180.83891872829861
 30
0.0
 10
111.21905110677082
 20
180.75451388888888
 30
0.0
 10
111.19321289062499
 20
180.66942003038193
 30
0.0
 10
111.12121039496527
 20
180.42826334635416
 30
0.0
 10
111.06471082899304
 20
180.17918294270831
 30
0.0
 10
111.03301595052082
 20
179.9273464626736
 30
0.0
 10
111.0168240017361
 20
179.79746636284722
 30
0.0
 10
111.00717773437499
 20
179.66689724392359
 30
0.0
 10
111.00269911024304
 20
179.53667263454861
 30
0.0
 10
110.99890950520832
 20
179.40713704427083
 30
0.0
 10
111.00166558159721
 20
179.27725694444442
 30
0.0
 10
111.01027832031249
 20
179.14841037326389
 30
0.0
 10
111.02922634548609
 20
178.88899468315969
 30
0.0
 10
111.07642415364582
 20
178.63543565538194
 30
0.0
 10
111.14256998697915
 20
178.39290093315969
 30
0.0
 10
111.17288682725693
 20
178.28231336805553
 30
0.0
 10
111.20768229166666
 20
178.17379286024303
 30
0.0
 10
111.25177951388888
 20
178.07285156249998
 30
0.0
 10
111.26177029079859
 20
178.04942491319443
 30
0.0
 10
111.27210557725694
 20
178.0266872829861
 30
0.0
 10
111.28312988281249
 20
178.00463867187497
 30
0.0
  0
LINE
  5
4F
100
AcDbEntity
  8
レイヤー_2
  6
AI9-LType1
 62
     7
100
AcDbLine
 10
114.506017
 20
130.293511
 30
0.0
 11
114.506017
 21
201.525339
 31
0.0
  0
LINE
  5
4E
100
AcDbEntity
  8
レイヤー_2
 62
     7
100
AcDbLine
 10
114.506017
 20
201.525339
 30
0.0
 11
114.506017
 21
202.525106
 31
0.0
  0
LINE
  5
4D
100
AcDbEntity
  8
レイヤー_2
  6
AI9-LType1
 62
     7
100
AcDbLine
 10
156.445231
 20
207.878784
 30
0.0
 11
157.020218
 21
205.568503
 31
0.0
  0
LINE
  5
4B
100
AcDbEntity
  8
レイヤー_2
 62
     7
100
AcDbLine
 10
157.020218
 20
205.568503
 30
0.0
 11
157.261374
 21
204.598364
 31
0.0
  0
LINE
  5
4A
100
AcDbEntity
  8
レイヤー_2
 62
     7
100
AcDbLine
 10
176.02991
 20
205.426221
 30
0.0
 11
158.735531
 21
205.426221
 31
0.0
  0
LINE
  5
49
100
AcDbEntity
  8
レイヤー_2
 62
     7
100
AcDbLine
 10
174.546107
 20
206.397738
 30
0.0
 11
174.546107
 21
160.898017
 31
0.0
  0
LINE
  5
48
100
AcDbEntity
  8
レイヤー_2
 62
     7
100
AcDbLine
 10
157.12047
 20
216.032292
 30
0.0
 11
157.12047
 21
257.456809
 31
0.0
  0
LINE
  5
47
100
AcDbEntity
  8
レイヤー_2
 62
     7
100
AcDbLine
 10
114.506017
 20
215.333626
 30
0.0
 11
114.506017
 21
257.678673
 31
0.0
  0
LINE
  5
46
100
AcDbEntity
  8
レイヤー_2
 62
     7
100
AcDbLine
 10
104.119743
 20
256.474612
 30
0.0
 11
158.808222
 21
256.474612
 31
0.0
  0
LINE
  5
45
100
AcDbEntity
  8
レイヤー_2
 62
     7
100
AcDbLine
 10
35.883081
 20
244.884277
 30
0.0
 11
69.240218
 21
244.884277
 31
0.0
  0
LINE
  5
44
100
AcDbEntity
  8
レイヤー_2
 62
     7
100
AcDbLine
 10
60.488298
 20
229.673836
 30
0.0
 11
60.488298
 21
257.678673
 31
0.0
  0
LINE
  5
43
100
AcDbEntity
  8
レイヤー_2
 62
     7
100
AcDbLine
 10
79.110761
 20
188.250008
 30
0.0
 11
79.110761
 21
257.39962
 31
0.0
  0
LINE
  5
42
100
AcDbEntity
  8
レイヤー_2
 62
     7
100
AcDbLine
 10
80.030602
 20
256.474612
 30
0.0
 11
59.644594
 21
256.474612
 31
0.0
  0
LINE
  5
41
100
AcDbEntity
  8
レイヤー_2
 62
     7
100
AcDbLine
 10
189.92398
 20
225.672702
 30
0.0
 11
144.135216
 21
225.672702
 31
0.0
  0
LINE
  5
40
100
AcDbEntity
  8
レイヤー_2
 62
     7
100
AcDbLine
 10
41.366295
 20
163.598627
 30
0.0
 11
41.366295
 21
125.36668
 31
0.0
  0
LINE
  5
3F
100
AcDbEntity
  8
レイヤー_2
 62
     7
100
AcDbLine
 10
46.661062
 20
161.978743
 30
0.0
 11
40.116414
 21
161.978743
 31
0.0
  0
LINE
  5
3E
100
AcDbEntity
  8
レイヤー_2
 62
     7
100
AcDbLine
 10
53.263243
 20
153.382541
 30
0.0
 11
40.116414
 21
153.382541
 31
0.0
  0
LINE
  5
3D
100
AcDbEntity
  8
レイヤー_2
 62
     7
100
AcDbLine
 10
42.250307
 20
152.499219
 30
0.0
 11
40.482973
 21
154.266553
 31
0.0
  0
LINE
  5
3C
100
AcDbEntity
  8
レイヤー_2
 62
     7
100
AcDbLine
 10
42.250307
 20
161.241493
 30
0.0
 11
40.482973
 21
163.009172
 31
0.0
  0
LINE
  5
3B
100
AcDbEntity
  8
レイヤー_2
 62
     7
100
AcDbLine
 10
189.812014
 20
224.731502
 30
0.0
 11
188.04468
 21
226.499525
 31
0.0
  0
LINE
  5
3A
100
AcDbEntity
  8
レイヤー_2
 62
     7
100
AcDbLine
 10
59.63667
 20
255.622295
 30
0.0
 11
61.339925
 21
257.325895
 31
0.0
  0
LINE
  5
39
100
AcDbEntity
  8
レイヤー_2
 62
     7
100
AcDbLine
 10
78.316322
 20
255.654335
 30
0.0
 11
80.019577
 21
257.357246
 31
0.0
  0
LINE
  5
38
100
AcDbEntity
  8
レイヤー_2
 62
     7
100
AcDbLine
 10
115.3573
 20
257.325895
 30
0.0
 11
113.654734
 21
255.622984
 31
0.0
  0
LINE
  5
37
100
AcDbEntity
  8
レイヤー_2
 62
     7
100
AcDbLine
 10
157.920076
 20
257.310737
 30
0.0
 11
156.217166
 21
255.607137
 31
0.0
  0
LINE
  5
36
100
AcDbEntity
  8
レイヤー_2
 62
     7
100
AcDbLine
 10
54.055271
 20
245.775868
 30
0.0
 11
52.35236
 21
244.072957
 31
0.0
  0
LINE
  5
35
100
AcDbEntity
  8
レイヤー_2
 62
     7
100
AcDbLine
 10
68.464727
 20
245.74624
 30
0.0
 11
66.761816
 21
244.042985
 31
0.0
  0
LINE
  5
34
100
AcDbEntity
  8
レイヤー_2
 62
     7
100
AcDbLine
 10
175.411171
 20
204.496734
 30
0.0
 11
173.643492
 21
206.264412
 31
0.0
  0
LINE
  5
33
100
AcDbEntity
  8
レイヤー_2
 62
     7
100
AcDbLine
 10
175.388433
 20
161.128494
 30
0.0
 11
173.62041
 21
162.896172
 31
0.0
  0
LINE
  5
32
100
AcDbEntity
  8
レイヤー_2
 62
     7
100
AcDbLine
 10
127.629763
 20
161.978743
 30
0.0
 11
189.936382
 21
161.978743
 31
0.0
  0
LINE
  5
31
100
AcDbEntity
  8
レイヤー_2
 62
     7
100
AcDbLine
 10
104.979983
 20
170.555998
 30
0.0
 11
104.979983
 21
257.553961
 31
0.0
  0
LINE
  5
30
100
AcDbEntity
  8
レイヤー_2
 62
     7
100
AcDbLine
 10
105.834711
 20
257.313148
 30
0.0
 11
104.131456
 21
255.610582
 31
0.0
  0
LINE
  5
2F
100
AcDbEntity
  8
レイヤー_2
 62
     7
100
AcDbLine
 10
53.162991
 20
164.465413
 30
0.0
 11
53.162991
 21
245.847871
 31
0.0
  0
LINE
  5
2E
100
AcDbEntity
  8
レイヤー_2
 62
     7
100
AcDbLine
 10
67.613789
 20
164.500209
 30
0.0
 11
67.613789
 21
174.949873
 31
0.0
  0
LINE
  5
2D
100
AcDbEntity
  8
レイヤー_2
 62
     7
100
AcDbLine
 10
67.613789
 20
185.284814
 30
0.0
 11
67.613789
 21
245.886111
 31
0.0
  0
LINE
  5
2C
100
AcDbEntity
  8
レイヤー_2
 62
     7
100
AcDbLine
 10
188.890451
 20
226.813373
 30
0.0
 11
188.890451
 21
160.898017
 31
0.0
  0
LINE
  5
2B
100
AcDbEntity
  8
レイヤー_2
 62
     7
100
AcDbLine
 10
189.704183
 20
161.128494
 30
0.0
 11
187.936504
 21
162.896172
 31
0.0
  0
LINE
  5
2A
100
AcDbEntity
  8
レイヤー_2
 62
     7
100
AcDbLine
 10
48.221346
 20
161.978743
 30
0.0
 11
72.925092
 21
161.978743
 31
0.0
  0
LINE
  5
29
100
AcDbEntity
  8
レイヤー_2
 62
     7
100
AcDbLine
 10
103.155116
 20
161.978743
 30
0.0
 11
126.395041
 21
161.978743
 31
0.0
  0
ENDSEC
  0
SECTION
  2
OBJECTS
  0
DICTIONARY
  5
19
100
AcDbDictionary
280
     0
281
     1
  3
ACAD_GROUP
350
1A
  3
ACAD_MLINESTYLE
350
1B
  3
ACAD_LAYOUT
350
1E
  3
ACAD_PLOTSETTINGS
350
22
  3
ACAD_PLOTSTYLENAME
350
1F
  3
ACAD_WIPEOUT_VARS
350
23
  0
DICTIONARY
  5
1A
102
{ACAD_REACTORS
330
19
102
}
100
AcDbDictionary
280
     0
281
     1
  0
DICTIONARY
  5
1B
102
{ACAD_REACTORS
330
19
102
}
100
AcDbDictionary
280
     0
281
     1
  3
Standard
350
1C
  0
MLINESTYLE
  5
1C
102
{ACAD_REACTORS
330
1B
102
}
100
AcDbMlineStyle
  2
Standard
 70
     0
  3

 62
     0
 51
90.0
 52
90.0
 71
     2
 49
0.5
 62
   256
  6
ByLayer
 49
-0.5
 62
   256
  6
ByLayer
  0
ACDBDICTIONARYWDFLT
  5
1F
102
{ACAD_REACTORS
330
19
102
}
100
AcDbDictionary
281
     1
  3
Normal
350
1D
100
AcDbDictionaryWithDefault
340
1D
  0
ACDBPLACEHOLDER
  5
1D
102
{ACAD_REACTORS
330
1F
102
}
  0
LAYOUT
  5
20
102
{ACAD_REACTORS
330
1E
102
}
100
AcDbPlotSettings
  1

  2

  4

  6

 40
0.0
 41
0.0
 42
0.0
 43
0.0
 44
0.0
 45
0.0
 46
0.0
 47
0.0
 48
0.0
 49
0.0
140
0.0
141
0.0
142
1.0
143
1.0
 70
  1024
 72
     0
 73
     0
 74
     0
  7

 75
     0
147
1.0
148
0.0
149
0.0
100
AcDbLayout
  1
Model
 70
     0
 71
     0
 10
0.0
 20
0.0
 11
0.0
 21
0.0
 12
0.0
 22
0.0
 32
0.0
 14
0.0
 24
0.0
 34
0.0
 15
0.0
 25
0.0
 35
0.0
146
0.0
 13
0.0
 23
0.0
 33
0.0
 16
0.0
 26
0.0
 36
0.0
 17
0.0
 27
0.0
 37
0.0
 76
     0
330
A
331
0
345
0
346
0
  0
LAYOUT
  5
21
102
{ACAD_REACTORS
330
1E
102
}
100
AcDbPlotSettings
  1

  2

  4

  6

 40
0.0
 41
0.0
 42
0.0
 43
0.0
 44
0.0
 45
0.0
 46
0.0
 47
0.0
 48
0.0
 49
0.0
140
0.0
141
0.0
142
1.0
143
1.0
 70
     0
 72
     0
 73
     0
 74
     0
  7

 75
     0
147
1.0
148
0.0
149
0.0
100
AcDbLayout
  1
Layout1
 70
     0
 71
     0
 10
0.0
 20
0.0
 11
0.0
 21
0.0
 12
0.0
 22
0.0
 32
0.0
 14
0.0
 24
0.0
 34
0.0
 15
0.0
 25
0.0
 35
0.0
146
0.0
 13
0.0
 23
0.0
 33
0.0
 16
0.0
 26
0.0
 36
0.0
 17
0.0
 27
0.0
 37
0.0
 76
     0
330
B
331
0
345
0
346
0
  0
DICTIONARY
  5
1E
102
{ACAD_REACTORS
330
19
102
}
100
AcDbDictionary
280
     0
281
     1
  3
Layout1
350
21
  3
Model
350
20
  0
DICTIONARY
  5
22
102
{ACAD_REACTORS
330
19
102
}
100
AcDbDictionary
280
     0
281
     1
  0
WIPEOUTVARIABLES
  5
23
100
AcDbWipeoutVariables
 70
     1
  0
IMAGEDEF_REACTOR
  5
538
100
AcDbRasterImageDefReactor
 90
        2
330
537
  0
IMAGEDEF
  5
539
100
AcDbRasterImageDef
 90
        0
  1
\\192.168.6.3\free(2009_04\一過性\DB_WEB用DXF_丸茂\La Fleur\33500955_1.bmp
 10
70.0
 20
9.0
 11
0.352778
 21
0.352778
280
     1
281
     0
  0
IMAGEDEF_REACTOR
  5
53B
100
AcDbRasterImageDefReactor
 90
        2
330
53A
  0
IMAGEDEF
  5
53C
100
AcDbRasterImageDef
 90
        0
  1
\\192.168.6.3\free(2009_04\一過性\DB_WEB用DXF_丸茂\La Fleur\33500955_2.bmp
 10
70.0
 20
9.0
 11
0.352778
 21
0.352778
280
     1
281
     0
  0
ENDSEC
  0
EOF
