  0
SECTION
  2
HEADER
  9
$ACADVER
  1
AC1015
  9
$ACADMAINTVER
 70
     6
  9
$DWGCODEPAGE
  3
ANSI_932
  9
$INSBASE
 10
0.0
 20
0.0
 30
0.0
  9
$EXTMIN
 10
23.283333
 20
25.752778
 30
1.000000E+20
  9
$EXTMAX
 10
198.966667
 20
276.930556
 30
-1.000000E+20
  9
$LIMMIN
 10
23.283333
 20
25.752778
  9
$LIMMAX
 10
198.966667
 20
276.930556
  9
$ORTHOMODE
 70
     0
  9
$REGENMODE
 70
     1
  9
$FILLMODE
 70
     1
  9
$QTEXTMODE
 70
     0
  9
$MIRRTEXT
 70
     1
  9
$LTSCALE
 40
1.0
  9
$ATTMODE
 70
     1
  9
$TEXTSIZE
 40
0.2
  9
$TRACEWID
 40
0.05
  9
$TEXTSTYLE
  7
Standard
  9
$CLAYER
  8
0
  9
$CELTYPE
  6
Continuous
  9
$CECOLOR
 62
   256
  9
$CELTSCALE
 40
1.0
  9
$DISPSILH
 70
     0
  9
$DIMSCALE
 40
1.0
  9
$DIMASZ
 40
0.18
  9
$DIMEXO
 40
0.0625
  9
$DIMDLI
 40
0.38
  9
$DIMRND
 40
0.0
  9
$DIMDLE
 40
0.0
  9
$DIMEXE
 40
0.18
  9
$DIMTP
 40
0.0
  9
$DIMTM
 40
0.0
  9
$DIMTXT
 40
0.18
  9
$DIMCEN
 40
0.09
  9
$DIMTSZ
 40
0.0
  9
$DIMTOL
 70
     0
  9
$DIMLIM
 70
     0
  9
$DIMTIH
 70
     1
  9
$DIMTOH
 70
     1
  9
$DIMSE1
 70
     0
  9
$DIMSE2
 70
     0
  9
$DIMTAD
 70
     0
  9
$DIMZIN
 70
     0
  9
$DIMBLK
  1

  9
$DIMASO
 70
     1
  9
$DIMSHO
 70
     1
  9
$DIMPOST
  1

  9
$DIMAPOST
  1

  9
$DIMALT
 70
     0
  9
$DIMALTD
 70
     2
  9
$DIMALTF
 40
25.4
  9
$DIMLFAC
 40
1.0
  9
$DIMTOFL
 70
     0
  9
$DIMTVP
 40
0.0
  9
$DIMTIX
 70
     0
  9
$DIMSOXD
 70
     0
  9
$DIMSAH
 70
     0
  9
$DIMBLK1
  1

  9
$DIMBLK2
  1

  9
$DIMSTYLE
  2
Standard
  9
$DIMCLRD
 70
     0
  9
$DIMCLRE
 70
     0
  9
$DIMCLRT
 70
     0
  9
$DIMTFAC
 40
1.0
  9
$DIMGAP
 40
0.09
  9
$DIMJUST
 70
     0
  9
$DIMSD1
 70
     0
  9
$DIMSD2
 70
     0
  9
$DIMTOLJ
 70
     1
  9
$DIMTZIN
 70
     0
  9
$DIMALTZ
 70
     0
  9
$DIMALTTZ
 70
     0
  9
$DIMUPT
 70
     0
  9
$DIMDEC
 70
     4
  9
$DIMTDEC
 70
     4
  9
$DIMALTU
 70
     2
  9
$DIMALTTD
 70
     2
  9
$DIMTXSTY
  7
Standard
  9
$DIMAUNIT
 70
     0
  9
$DIMADEC
 70
     0
  9
$DIMALTRND
 40
0.0
  9
$DIMAZIN
 70
     0
  9
$DIMDSEP
 70
     0
  9
$DIMATFIT
 70
     3
  9
$DIMFRAC
 70
     0
  9
$DIMLDRBLK
  1

  9
$DIMLUNIT
 70
     2
  9
$DIMLWD
 70
     0
  9
$DIMLWE
 70
     0
  9
$DIMTMOVE
 70
     0
  9
$LUNITS
 70
     2
  9
$LUPREC
 70
     4
  9
$SKETCHINC
 40
0.1
  9
$FILLETRAD
 40
0.0
  9
$AUNITS
 70
     0
  9
$AUPREC
 70
     0
  9
$MENU
  1
acad
  9
$ELEVATION
 40
0.0
  9
$PELEVATION
 40
0.0
  9
$THICKNESS
 40
0.0
  9
$LIMCHECK
 70
     0
  9
$CHAMFERA
 40
0.0
  9
$CHAMFERB
 40
0.0
  9
$CHAMFERC
 40
0.0
  9
$CHAMFERD
 40
0.0
  9
$SKPOLY
 70
     0
  9
$TDCREATE
 40
0.000000000
  9
$TDUCREATE
 40
0.000000000
  9
$TDUPDATE
 40
0.000000000
  9
$TDUUPDATE
 40
0.000000000
  9
$TDINDWG
 40
0.0000000000
  9
$TDUSRTIMER
 40
0.0000000000
  9
$USRTIMER
 70
     1
  9
$ANGBASE
 50
0.0
  9
$ANGDIR
 70
     0
  9
$PDMODE
 70
     0
  9
$PDSIZE
 40
0.0
  9
$PLINEWID
 40
0.0
  9
$SPLFRAME
 70
     0
  9
$SPLINETYPE
 70
     6
  9
$SPLINESEGS
 70
     8
  9
$HANDSEED
  5
841
  9
$SURFTAB1
 70
     6
  9
$SURFTAB2
 70
     6
  9
$SURFTYPE
 70
     6
  9
$SURFU
 70
     6
  9
$SURFV
 70
     6
  9
$UCSBASE
  2

  9
$UCSNAME
  2

  9
$UCSORG
 10
0.0
 20
0.0
 30
0.0
  9
$UCSXDIR
 10
1.0
 20
0.0
 30
0.0
  9
$UCSYDIR
 10
0.0
 20
1.0
 30
0.0
  9
$UCSORTHOREF
  2

  9
$UCSORTHOVIEW
 70
     0
  9
$UCSORGTOP
 10
0.0
 20
0.0
 30
0.0
  9
$UCSORGBOTTOM
 10
0.0
 20
0.0
 30
0.0
  9
$UCSORGLEFT
 10
0.0
 20
0.0
 30
0.0
  9
$UCSORGRIGHT
 10
0.0
 20
0.0
 30
0.0
  9
$UCSORGFRONT
 10
0.0
 20
0.0
 30
0.0
  9
$UCSORGBACK
 10
0.0
 20
0.0
 30
0.0
  9
$PUCSBASE
  2

  9
$PUCSNAME
  2

  9
$PUCSORG
 10
0.0
 20
0.0
 30
0.0
  9
$PUCSXDIR
 10
1.0
 20
0.0
 30
0.0
  9
$PUCSYDIR
 10
0.0
 20
1.0
 30
0.0
  9
$PUCSORTHOREF
  2

  9
$PUCSORTHOVIEW
 70
     0
  9
$PUCSORGTOP
 10
0.0
 20
0.0
 30
0.0
  9
$PUCSORGBOTTOM
 10
0.0
 20
0.0
 30
0.0
  9
$PUCSORGLEFT
 10
0.0
 20
0.0
 30
0.0
  9
$PUCSORGRIGHT
 10
0.0
 20
0.0
 30
0.0
  9
$PUCSORGFRONT
 10
0.0
 20
0.0
 30
0.0
  9
$PUCSORGBACK
 10
0.0
 20
0.0
 30
0.0
  9
$USERI1
 70
     0
  9
$USERI2
 70
     0
  9
$USERI3
 70
     0
  9
$USERI4
 70
     0
  9
$USERI5
 70
     0
  9
$USERR1
 40
0.0
  9
$USERR2
 40
0.0
  9
$USERR3
 40
0.0
  9
$USERR4
 40
0.0
  9
$USERR5
 40
0.0
  9
$WORLDVIEW
 70
     1
  9
$SHADEDGE
 70
     3
  9
$SHADEDIF
 70
    70
  9
$TILEMODE
 70
     1
  9
$MAXACTVP
 70
    16
  9
$PINSBASE
 10
0.0
 20
0.0
 30
0.0
  9
$PLIMCHECK
 70
     0
  9
$PEXTMIN
 10
1.000000E+20
 20
1.000000E+20
 30
1.000000E+20
  9
$PEXTMAX
 10
-1.000000E+20
 20
-1.000000E+20
 30
-1.000000E+20
  9
$PLIMMIN
 10
0.0
 20
0.0
  9
$PLIMMAX
 10
12.0
 20
9.0
  9
$UNITMODE
 70
     0
  9
$VISRETAIN
 70
     0
  9
$PLINEGEN
 70
     1
  9
$PSLTSCALE
 70
     0
  9
$TREEDEPTH
 70
  3020
  9
$CMLSTYLE
  2
Standard
  9
$CMLJUST
 70
     0
  9
$CMLSCALE
 40
1.0
  9
$PROXYGRAPHICS
 70
     0
  9
$MEASUREMENT
 70
     1
  9
$CELWEIGHT
370
     0
  9
$ENDCAPS
280
     0
  9
$JOINSTYLE
280
     0
  9
$LWDISPLAY
290
     0
  9
$INSUNITS
 70
     0
  9
$HYPERLINKBASE
  1

  9
$STYLESHEET
  1

  9
$XEDIT
290
     1
  9
$CEPSNTYPE
380
     0
  9
$PSTYLEMODE
290
     1
  9
$FINGERPRINTGUID
  2

  9
$VERSIONGUID
  2

  9
$EXTNAMES
290
     1
  9
$PSVPSCALE
 40
0.0
  0
ENDSEC
  0
SECTION
  2
CLASSES
  0
CLASS
  1
LWPOLYLINE
  2
AcDbPolyline
  3
AutoCAD 2000
 90
    32768
280
     0
281
     1
  0
CLASS
  1
IMAGE
  2
AcDbRasterImage
  3
ISM
 90
      127
280
     0
281
     1
  0
CLASS
  1
OLE2FRAME
  2
AcDbOle2Frame
  3
AutoCAD 2000
 90
    32768
280
     0
281
     1
  0
CLASS
  1
HATCH
  2
AcDbHatch
  3
AutoCAD 2000
 90
    32768
280
     0
281
     1
  0
CLASS
  1
DICTIONARYVAR
  2
AcDbDictionaryVar
  3
AutoCAD 2000
 90
    32768
280
     0
281
     0
  0
CLASS
  1
RASTERVARIABLES
  2
AcDbRasterVariables
  3
ISM
 90
    32768
280
     0
281
     0
  0
CLASS
  1
IMAGEDEF
  2
AcDbRasterImageDef
  3
ISM
 90
        0
280
     0
281
     0
  0
CLASS
  1
IMAGEDEF_REACTOR
  2
AcDbRasterImageDefReactor
  3
ISM
 90
        1
280
     0
281
     0
  0
CLASS
  1
IDBUFFER
  2
AcDbIdBuffer
  3
AutoCAD 2000
 90
    32768
280
     0
281
     0
  0
CLASS
  1
SPATIAL_FILTER
  2
AcDbSpatialFilter
  3
AutoCAD 2000
 90
    32768
280
     0
281
     0
  0
CLASS
  1
XRECORD
  2
AcDbXrecord
  3
AutoCAD 2000
 90
    32768
280
     0
281
     0
  0
CLASS
  1
SORTENTSTABLE
  2
AcDbSortentsTable
  3
AutoCAD 2000
 90
    32768
280
     0
281
     0
  0
CLASS
  1
LAYER_INDEX
  2
AcDbLayerIndex
  3
AutoCAD 2000
 90
    32768
280
     0
281
     0
  0
CLASS
  1
SPATIAL_INDEX
  2
AcDbSpatialIndex
  3
AutoCAD 2000
 90
    32768
280
     0
281
     0
  0
CLASS
  1
OBJECT_PTR
  2
CAseDLPNTableRecord
  3
"ASE-LPNTableRecord"
 90
    32769
280
     0
281
     0
  0
CLASS
  1
LAYOUT
  2
AcDbLayout
  3
AutoCAD 2000
 90
        0
280
     0
281
     0
  0
CLASS
  1
PLOTSETTINGS
  2
AcDbPlotSettings
  3
AutoCAD 2000
 90
    32768
280
     0
281
     0
  0
CLASS
  1
ACDBDICTIONARYWDFLT
  2
AcDbDictionaryWithDefault
  3
AutoCAD 2000
 90
        0
280
     0
281
     0
  0
CLASS
  1
ACDBPLACEHOLDER
  2
AcDbPlaceHolder
  3
AutoCAD 2000
 90
        0
280
     0
281
     0
  0
CLASS
  1
VBA_PROJECT
  2
AcDbVbaProject
  3
acadvba
 90
    32768
280
     0
281
     0
  0
CLASS
  1
WIPEOUT
  2
AcDbWipeout
  3
WipeOut|AutoCAD Express Tool|expresstools@autodesk.com
 90
    32895
280
     0
281
     1
  0
CLASS
  1
WIPEOUTVARIABLES
  2
AcDbWipeoutVariables
  3
WipeOut|AutoCAD Express Tool|expresstools@autodesk.com
 90
        0
280
     0
281
     0
  0
CLASS
  1
RTEXT
  2
RText
  3
RText|AutoCAD Express Tool|expresstools@autodesk.com
 90
    32768
280
     0
281
     1
  0
CLASS
  1
ARCALIGNEDTEXT
  2
AcDbArcAlignedText
  3
ATEXT|AutoCAD Express Tool|expresstools@autodesk.com
 90
    32768
280
     0
281
     1
  0
ENDSEC
  0
SECTION
  2
TABLES
  0
TABLE
  2
VPORT
  5
7
100
AcDbSymbolTable
 70
     1
  0
VPORT
  5
15
100
AcDbSymbolTableRecord
100
AcDbViewportTableRecord
  2
*ACTIVE
 70
     0
 10
0.0
 20
0.0
 11
1.0
 21
1.0
 12
6.591288
 22
4.579184
 13
0.0
 23
0.0
 14
1.0
 24
1.0
 15
0.0
 25
0.0
 16
0.0
 26
0.0
 36
1.0
 17
0.0
 27
0.0
 37
0.0
 40
9.158369
 41
0.688564
 42
50.0
 43
0.0
 44
0.0
 50
0.0
 51
0.0
 71
     0
 72
   100
 73
     1
 74
     1
 75
     0
 76
     0
 77
     0
 78
     0
281
     0
 65
     0
110
0.0
120
0.0
130
0.0
111
1.0
121
0.0
131
0.0
112
0.0
122
1.0
132
0.0
345
0
346
0
 79
     0
146
0.0
  0
ENDTAB
  0
TABLE
  2
LTYPE
  5
4
100
AcDbSymbolTable
 70
     4
  0
LTYPE
  5
11
100
AcDbSymbolTableRecord
100
AcDbLinetypeTableRecord
  2
ByBlock
 70
    64
  3

 72
    65
 73
     0
 40
0.0
  0
LTYPE
  5
12
100
AcDbSymbolTableRecord
100
AcDbLinetypeTableRecord
  2
ByLayer
 70
    64
  3

 72
    65
 73
     0
 40
0.0
  0
LTYPE
  5
13
100
AcDbSymbolTableRecord
100
AcDbLinetypeTableRecord
  2
Continuous
 70
    64
  3
Solid line
 72
    65
 73
     0
 40
0.0
  0
LTYPE
  5
245
100
AcDbSymbolTableRecord
100
AcDbLinetypeTableRecord
  2
AI9-LType1
 70
    64
  3
Illustrator Dash Style No.1
 72
    65
 73
     4
 40
14.795182
 49
9.246975
 74
     0
 49
-1.849402
 74
     0
 49
1.849402
 74
     0
 49
-1.849402
 74
     0
  0
ENDTAB
  0
TABLE
  2
LAYER
  5
2
100
AcDbSymbolTable
 70
     3
  0
LAYER
  5
14
100
AcDbSymbolTableRecord
100
AcDbLayerTableRecord
  2
0
 70
     0
 62
     7
  6
Continuous
290
     1
370
    -3
390
1D
  0
LAYER
  5
28
100
AcDbSymbolTableRecord
100
AcDbLayerTableRecord
  2
レイヤー_2
 70
     0
 62
     1
  6
Continuous
290
     1
370
    -3
390
1D
  0
LAYER
  5
826
100
AcDbSymbolTableRecord
100
AcDbLayerTableRecord
  2
レイヤー_1
 70
     0
 62
   160
  6
Continuous
290
     1
370
    -3
390
1D
  0
ENDTAB
  0
TABLE
  2
STYLE
  5
3
100
AcDbSymbolTable
 70
     5
  0
STYLE
  5
17
100
AcDbSymbolTableRecord
100
AcDbTextStyleTableRecord
  2
Standard
 70
     0
 40
0.0
 41
1.0
 50
0.0
 71
     0
 42
0.0
  3
txt
  4

  0
STYLE
  5
24
100
AcDbSymbolTableRecord
100
AcDbTextStyleTableRecord
  2
STD
 70
     0
 40
0.0
 41
1.0
 50
0.0
 71
     0
 42
0.0
  3
txt
  4

  0
STYLE
  5
25
100
AcDbSymbolTableRecord
100
AcDbTextStyleTableRecord
  2
TATESTD
 70
     4
 40
0.0
 41
1.0
 50
0.0
 71
     0
 42
0.0
  3
txt
  4

  0
STYLE
  5
26
100
AcDbSymbolTableRecord
100
AcDbTextStyleTableRecord
  2
KANJISTD
 70
     0
 40
0.0
 41
1.0
 50
0.0
 71
     0
 42
0.0
  3
txt
  4
extfont
  0
STYLE
  5
27
100
AcDbSymbolTableRecord
100
AcDbTextStyleTableRecord
  2
KANJITATE
 70
     4
 40
0.0
 41
1.0
 50
0.0
 71
     0
 42
0.0
  3
txt
  4
extfont
  0
ENDTAB
  0
TABLE
  2
VIEW
  5
5
100
AcDbSymbolTable
 70
     0
  0
ENDTAB
  0
TABLE
  2
UCS
  5
6
100
AcDbSymbolTable
 70
     0
  0
ENDTAB
  0
TABLE
  2
APPID
  5
8
100
AcDbSymbolTable
 70
     1
  0
APPID
  5
16
100
AcDbSymbolTableRecord
100
AcDbRegAppTableRecord
  2
ACAD
 70
     0
  0
ENDTAB
  0
TABLE
  2
DIMSTYLE
  5
9
100
AcDbSymbolTable
 70
     1
100
AcDbDimStyleTable
 71
     0
  0
DIMSTYLE
105
18
100
AcDbSymbolTableRecord
100
AcDbDimStyleTableRecord
  2
Standard
 70
     0
  3

  4

 40
1.0
 41
0.18
 42
0.0625
 43
0.38
 44
0.18
 45
0.0
 46
0.0
 47
0.0
 48
0.0
 71
     0
 72
     0
 73
     1
 74
     1
 75
     0
 76
     0
 77
     0
 78
     0
 79
     0
140
0.18
141
0.09
142
0.0
143
25.4
144
1.0
145
0.0
146
1.0
147
0.09
148
0.0
170
     0
171
     2
172
     0
173
     0
174
     0
175
     0
176
     0
177
     0
178
     0
179
     0
271
     4
272
     4
273
     2
274
     2
275
     0
276
     0
277
     2
278
    46
279
     0
280
     0
281
     0
282
     0
283
     1
284
     0
285
     0
286
     0
288
     0
340
17
341
0
342
0
343
0
344
0
371
    -2
372
    -2
  0
ENDTAB
  0
TABLE
  2
BLOCK_RECORD
  5
1
100
AcDbSymbolTable
 70
    12
  0
BLOCK_RECORD
  5
A
100
AcDbSymbolTableRecord
100
AcDbBlockTableRecord
  2
*MODEL_SPACE
340
20
  0
BLOCK_RECORD
  5
B
100
AcDbSymbolTableRecord
100
AcDbBlockTableRecord
  2
*PAPER_SPACE
340
21
  0
BLOCK_RECORD
  5
29
100
AcDbSymbolTableRecord
100
AcDbBlockTableRecord
  2
AI9-BLK1
340
0
102
{BLKREFS
331
2A
102
}
  0
BLOCK_RECORD
  5
2C
100
AcDbSymbolTableRecord
100
AcDbBlockTableRecord
  2
AI9-BLK2
340
0
102
{BLKREFS
331
2D
102
}
  0
BLOCK_RECORD
  5
30
100
AcDbSymbolTableRecord
100
AcDbBlockTableRecord
  2
AI9-BLK3
340
0
102
{BLKREFS
331
31
102
}
  0
BLOCK_RECORD
  5
45
100
AcDbSymbolTableRecord
100
AcDbBlockTableRecord
  2
AI9-BLK4
340
0
102
{BLKREFS
331
46
102
}
  0
BLOCK_RECORD
  5
238
100
AcDbSymbolTableRecord
100
AcDbBlockTableRecord
  2
AI9-BLK5
340
0
102
{BLKREFS
331
239
102
}
  0
BLOCK_RECORD
  5
23B
100
AcDbSymbolTableRecord
100
AcDbBlockTableRecord
  2
AI9-BLK6
340
0
102
{BLKREFS
331
23C
102
}
  0
BLOCK_RECORD
  5
247
100
AcDbSymbolTableRecord
100
AcDbBlockTableRecord
  2
AI9-BLK7
340
0
102
{BLKREFS
331
248
102
}
  0
BLOCK_RECORD
  5
24A
100
AcDbSymbolTableRecord
100
AcDbBlockTableRecord
  2
AI9-BLK8
340
0
102
{BLKREFS
331
24B
102
}
  0
BLOCK_RECORD
  5
299
100
AcDbSymbolTableRecord
100
AcDbBlockTableRecord
  2
AI9-BLK9
340
0
102
{BLKREFS
331
29A
102
}
  0
BLOCK_RECORD
  5
29C
100
AcDbSymbolTableRecord
100
AcDbBlockTableRecord
  2
AI9-BLK10
340
0
102
{BLKREFS
331
29D
102
}
  0
BLOCK_RECORD
  5
2E8
100
AcDbSymbolTableRecord
100
AcDbBlockTableRecord
  2
AI9-BLK11
340
0
102
{BLKREFS
331
2E9
102
}
  0
BLOCK_RECORD
  5
2F0
100
AcDbSymbolTableRecord
100
AcDbBlockTableRecord
  2
AI9-BLK12
340
0
102
{BLKREFS
331
2F1
102
}
  0
ENDTAB
  0
ENDSEC
  0
SECTION
  2
BLOCKS
  0
BLOCK
  5
D
100
AcDbEntity
  8
0
100
AcDbBlockBegin
  2
*MODEL_SPACE
 70
     0
 10
0.0
 20
0.0
 30
0.0
  3
*MODEL_SPACE
  1

  0
ENDBLK
  5
E
100
AcDbEntity
  8
0
100
AcDbBlockEnd
  0
BLOCK
  5
F
100
AcDbEntity
 67
     1
  8
0
100
AcDbBlockBegin
  2
*PAPER_SPACE
 70
     0
 10
0.0
 20
0.0
 30
0.0
  3
*PAPER_SPACE
  1

  0
ENDBLK
  5
10
100
AcDbEntity
 67
     1
  8
0
100
AcDbBlockEnd
  0
BLOCK
  5
2B
100
AcDbEntity
  8
レイヤー_2
 62
     7
100
AcDbBlockBegin
  2
AI9-BLK1
 70
     0
 10
0.0
 20
0.0
 30
0.0
  3
AI9-BLK1
  1

  0
LINE
  5
236
100
AcDbEntity
  8
レイヤー_2
 62
    18
100
AcDbLine
 10
-26.415959
 20
-6.096096
 30
0.0
 11
-26.500708
 21
-5.757444
 31
0.0
  0
LINE
  5
235
100
AcDbEntity
  8
レイヤー_2
 62
    18
100
AcDbLine
 10
-26.585113
 20
-6.603904
 30
0.0
 11
-26.415959
 21
-6.096096
 31
0.0
  0
POLYLINE
  5
230
100
AcDbEntity
  8
レイヤー_2
 62
    18
100
AcDb2dPolyline
 66
     1
 10
0.0
 20
0.0
 30
0.0
  0
VERTEX
  5
231
100
AcDbEntity
  8
レイヤー_2
 62
    18
100
AcDbVertex
100
AcDb2dVertex
 10
-29.37943
 20
-5.757444
 30
0.0
  0
VERTEX
  5
232
100
AcDbEntity
  8
レイヤー_2
 62
    18
100
AcDbVertex
100
AcDb2dVertex
 10
-29.463835
 20
-6.096096
 30
0.0
  0
VERTEX
  5
233
100
AcDbEntity
  8
レイヤー_2
 62
    18
100
AcDbVertex
100
AcDb2dVertex
 10
-29.29468
 20
-6.603904
 30
0.0
  0
SEQEND
  5
234
100
AcDbEntity
  8
レイヤー_2
 62
    18
  0
LINE
  5
22F
100
AcDbEntity
  8
レイヤー_2
 62
    18
100
AcDbLine
 10
-26.415959
 20
-10.498584
 30
0.0
 11
-26.415959
 21
-9.313471
 31
0.0
  0
LINE
  5
22E
100
AcDbEntity
  8
レイヤー_2
 62
    18
100
AcDbLine
 10
-29.463835
 20
-9.313471
 30
0.0
 11
-29.463835
 21
-10.498584
 31
0.0
  0
POLYLINE
  5
229
100
AcDbEntity
  8
レイヤー_2
 62
    18
100
AcDb2dPolyline
 66
     1
 10
0.0
 20
0.0
 30
0.0
  0
VERTEX
  5
22A
100
AcDbEntity
  8
レイヤー_2
 62
    18
100
AcDbVertex
100
AcDb2dVertex
 10
-26.415959
 20
-9.313471
 30
0.0
  0
VERTEX
  5
22B
100
AcDbEntity
  8
レイヤー_2
 62
    18
100
AcDbVertex
100
AcDb2dVertex
 10
-26.585113
 20
-8.890069
 30
0.0
  0
VERTEX
  5
22C
100
AcDbEntity
  8
レイヤー_2
 62
    18
100
AcDbVertex
100
AcDb2dVertex
 10
-26.585113
 20
-8.80532
 30
0.0
  0
SEQEND
  5
22D
100
AcDbEntity
  8
レイヤー_2
 62
    18
  0
POLYLINE
  5
224
100
AcDbEntity
  8
レイヤー_2
 62
    18
100
AcDb2dPolyline
 66
     1
 10
0.0
 20
0.0
 30
0.0
  0
VERTEX
  5
225
100
AcDbEntity
  8
レイヤー_2
 62
    18
100
AcDbVertex
100
AcDb2dVertex
 10
-29.29468
 20
-8.80532
 30
0.0
  0
VERTEX
  5
226
100
AcDbEntity
  8
レイヤー_2
 62
    18
100
AcDbVertex
100
AcDb2dVertex
 10
-29.29468
 20
-8.890069
 30
0.0
  0
VERTEX
  5
227
100
AcDbEntity
  8
レイヤー_2
 62
    18
100
AcDbVertex
100
AcDb2dVertex
 10
-29.463835
 20
-9.313471
 30
0.0
  0
SEQEND
  5
228
100
AcDbEntity
  8
レイヤー_2
 62
    18
  0
LINE
  5
223
100
AcDbEntity
  8
レイヤー_2
 62
    18
100
AcDbLine
 10
-26.500708
 20
-5.757444
 30
0.0
 11
-26.585113
 21
-5.672694
 31
0.0
  0
POLYLINE
  5
21E
100
AcDbEntity
  8
レイヤー_2
 62
    18
100
AcDb2dPolyline
 66
     1
 10
0.0
 20
0.0
 30
0.0
  0
VERTEX
  5
21F
100
AcDbEntity
  8
レイヤー_2
 62
    18
100
AcDbVertex
100
AcDb2dVertex
 10
-29.209931
 20
-5.672694
 30
0.0
  0
VERTEX
  5
220
100
AcDbEntity
  8
レイヤー_2
 62
    18
100
AcDbVertex
100
AcDb2dVertex
 10
-29.29468
 20
-5.757444
 30
0.0
  0
VERTEX
  5
221
100
AcDbEntity
  8
レイヤー_2
 62
    18
100
AcDbVertex
100
AcDb2dVertex
 10
-29.37943
 20
-5.757444
 30
0.0
  0
SEQEND
  5
222
100
AcDbEntity
  8
レイヤー_2
 62
    18
  0
LINE
  5
21D
100
AcDbEntity
  8
レイヤー_2
 62
    18
100
AcDbLine
 10
-26.585113
 20
-5.672694
 30
0.0
 11
-26.585113
 21
-5.503196
 31
0.0
  0
LINE
  5
21C
100
AcDbEntity
  8
レイヤー_2
 62
    18
100
AcDbLine
 10
-29.29468
 20
-5.503196
 30
0.0
 11
-29.29468
 21
-5.672694
 31
0.0
  0
LINE
  5
21B
100
AcDbEntity
  8
レイヤー_2
 62
    18
100
AcDbLine
 10
-26.669862
 20
-34.120398
 30
0.0
 11
-26.669862
 21
-15.578722
 31
0.0
  0
LINE
  5
21A
100
AcDbEntity
  8
レイヤー_2
 62
    18
100
AcDbLine
 10
-26.669862
 20
-13.462055
 30
0.0
 11
-26.669862
 21
-10.498584
 31
0.0
  0
LINE
  5
219
100
AcDbEntity
  8
レイヤー_2
 62
    18
100
AcDbLine
 10
-29.209931
 20
-10.498584
 30
0.0
 11
-29.209931
 21
-13.462055
 31
0.0
  0
LINE
  5
218
100
AcDbEntity
  8
レイヤー_2
 62
    18
100
AcDbLine
 10
-29.209931
 20
-15.578722
 30
0.0
 11
-29.209931
 21
-33.69734
 31
0.0
  0
LINE
  5
217
100
AcDbEntity
  8
レイヤー_2
 62
    18
100
AcDbLine
 10
-32.681209
 20
-33.104784
 30
0.0
 11
-32.681209
 21
-15.578722
 31
0.0
  0
LINE
  5
216
100
AcDbEntity
  8
レイヤー_2
 62
    18
100
AcDbLine
 10
-32.681209
 20
-13.462055
 30
0.0
 11
-32.681209
 21
-4.910639
 31
0.0
  0
LINE
  5
215
100
AcDbEntity
  8
レイヤー_2
 62
    18
100
AcDbLine
 10
-33.697168
 20
-4.910639
 30
0.0
 11
-33.697168
 21
-13.462055
 31
0.0
  0
LINE
  5
214
100
AcDbEntity
  8
レイヤー_2
 62
    18
100
AcDbLine
 10
-33.697168
 20
-15.578722
 30
0.0
 11
-33.697168
 21
-33.104784
 31
0.0
  0
LINE
  5
213
100
AcDbEntity
  8
レイヤー_2
 62
    18
100
AcDbLine
 10
-35.475182
 20
1.608687
 30
0.0
 11
-38.269154
 21
1.608687
 31
0.0
  0
LINE
  5
212
100
AcDbEntity
  8
レイヤー_2
 62
    18
100
AcDbLine
 10
-38.269154
 20
-0.169499
 30
0.0
 11
-35.475182
 21
-0.169499
 31
0.0
  0
LINE
  5
211
100
AcDbEntity
  8
レイヤー_2
 62
    18
100
AcDbLine
 10
-29.718083
 20
-16.002124
 30
0.0
 11
-29.718083
 21
-15.663471
 31
0.0
  0
LINE
  5
210
100
AcDbEntity
  8
レイヤー_2
 62
    18
100
AcDbLine
 10
-29.718083
 20
-15.663471
 30
0.0
 11
-30.14114
 21
-15.578722
 31
0.0
  0
LINE
  5
20F
100
AcDbEntity
  8
レイヤー_2
 62
    18
100
AcDbLine
 10
-32.427306
 20
-15.578722
 30
0.0
 11
-32.681209
 21
-15.663471
 31
0.0
  0
LINE
  5
20E
100
AcDbEntity
  8
レイヤー_2
 62
    18
100
AcDbLine
 10
-32.681209
 20
-16.509931
 30
0.0
 11
-32.59646
 21
-16.67943
 31
0.0
  0
LINE
  5
20D
100
AcDbEntity
  8
レイヤー_2
 62
    18
100
AcDbLine
 10
-30.056736
 20
-16.67943
 30
0.0
 11
-29.718083
 21
-16.002124
 31
0.0
  0
LINE
  5
20C
100
AcDbEntity
  8
レイヤー_2
 62
    18
100
AcDbLine
 10
-30.056736
 20
-22.521106
 30
0.0
 11
-30.056736
 21
-16.67943
 31
0.0
  0
LINE
  5
20B
100
AcDbEntity
  8
レイヤー_2
 62
    18
100
AcDbLine
 10
-32.59646
 20
-16.67943
 30
0.0
 11
-32.59646
 21
-22.521106
 31
0.0
  0
LINE
  5
20A
100
AcDbEntity
  8
レイヤー_2
 62
    18
100
AcDbLine
 10
-29.463835
 20
-22.690605
 30
0.0
 11
-29.718083
 21
-22.521106
 31
0.0
  0
LINE
  5
209
100
AcDbEntity
  8
レイヤー_2
 62
    18
100
AcDbLine
 10
-29.718083
 20
-25.569326
 30
0.0
 11
-29.463835
 21
-25.399828
 31
0.0
  0
POLYLINE
  5
204
100
AcDbEntity
  8
レイヤー_2
 62
    18
100
AcDb2dPolyline
 66
     1
 10
0.0
 20
0.0
 30
0.0
  0
VERTEX
  5
205
100
AcDbEntity
  8
レイヤー_2
 62
    18
100
AcDbVertex
100
AcDb2dVertex
 10
-35.559931
 20
-13.800708
 30
0.0
  0
VERTEX
  5
206
100
AcDbEntity
  8
レイヤー_2
 62
    18
100
AcDbVertex
100
AcDb2dVertex
 10
-35.64468
 20
-13.885457
 30
0.0
  0
VERTEX
  5
207
100
AcDbEntity
  8
レイヤー_2
 62
    18
100
AcDbVertex
100
AcDb2dVertex
 10
-35.64468
 20
-13.969862
 30
0.0
  0
SEQEND
  5
208
100
AcDbEntity
  8
レイヤー_2
 62
    18
  0
POLYLINE
  5
1FF
100
AcDbEntity
  8
レイヤー_2
 62
    18
100
AcDb2dPolyline
 66
     1
 10
0.0
 20
0.0
 30
0.0
  0
VERTEX
  5
200
100
AcDbEntity
  8
レイヤー_2
 62
    18
100
AcDbVertex
100
AcDb2dVertex
 10
-35.64468
 20
-15.493972
 30
0.0
  0
VERTEX
  5
201
100
AcDbEntity
  8
レイヤー_2
 62
    18
100
AcDbVertex
100
AcDb2dVertex
 10
-35.64468
 20
-15.578722
 30
0.0
  0
VERTEX
  5
202
100
AcDbEntity
  8
レイヤー_2
 62
    18
100
AcDbVertex
100
AcDb2dVertex
 10
-35.559931
 20
-15.578722
 30
0.0
  0
SEQEND
  5
203
100
AcDbEntity
  8
レイヤー_2
 62
    18
  0
LINE
  5
1FE
100
AcDbEntity
  8
レイヤー_2
 62
    18
100
AcDbLine
 10
-35.64468
 20
-13.969862
 30
0.0
 11
-35.64468
 21
-15.493972
 31
0.0
  0
POLYLINE
  5
1F9
100
AcDbEntity
  8
レイヤー_2
 62
    18
100
AcDb2dPolyline
 66
     1
 10
0.0
 20
0.0
 30
0.0
  0
VERTEX
  5
1FA
100
AcDbEntity
  8
レイヤー_2
 62
    18
100
AcDbVertex
100
AcDb2dVertex
 10
-22.690432
 20
-13.969862
 30
0.0
  0
VERTEX
  5
1FB
100
AcDbEntity
  8
レイヤー_2
 62
    18
100
AcDbVertex
100
AcDb2dVertex
 10
-22.690432
 20
-13.885457
 30
0.0
  0
VERTEX
  5
1FC
100
AcDbEntity
  8
レイヤー_2
 62
    18
100
AcDbVertex
100
AcDb2dVertex
 10
-22.775182
 20
-13.800708
 30
0.0
  0
SEQEND
  5
1FD
100
AcDbEntity
  8
レイヤー_2
 62
    18
  0
LINE
  5
1F8
100
AcDbEntity
  8
レイヤー_2
 62
    18
100
AcDbLine
 10
-22.690432
 20
-15.493972
 30
0.0
 11
-22.690432
 21
-13.969862
 31
0.0
  0
POLYLINE
  5
1F3
100
AcDbEntity
  8
レイヤー_2
 62
    18
100
AcDb2dPolyline
 66
     1
 10
0.0
 20
0.0
 30
0.0
  0
VERTEX
  5
1F4
100
AcDbEntity
  8
レイヤー_2
 62
    18
100
AcDbVertex
100
AcDb2dVertex
 10
-22.775182
 20
-15.578722
 30
0.0
  0
VERTEX
  5
1F5
100
AcDbEntity
  8
レイヤー_2
 62
    18
100
AcDbVertex
100
AcDb2dVertex
 10
-22.690432
 20
-15.578722
 30
0.0
  0
VERTEX
  5
1F6
100
AcDbEntity
  8
レイヤー_2
 62
    18
100
AcDbVertex
100
AcDb2dVertex
 10
-22.690432
 20
-15.493972
 30
0.0
  0
SEQEND
  5
1F7
100
AcDbEntity
  8
レイヤー_2
 62
    18
  0
LINE
  5
1F2
100
AcDbEntity
  8
レイヤー_2
 62
    18
100
AcDbLine
 10
-23.113835
 20
-13.800708
 30
0.0
 11
-23.113835
 21
-13.462055
 31
0.0
  0
LINE
  5
1F1
100
AcDbEntity
  8
レイヤー_2
 62
    18
100
AcDbLine
 10
-35.136529
 20
-13.462055
 30
0.0
 11
-35.136529
 21
-13.800708
 31
0.0
  0
LINE
  5
1F0
100
AcDbEntity
  8
レイヤー_2
 62
    18
100
AcDbLine
 10
5.672694
 20
9.906028
 30
0.0
 11
5.080138
 21
10.837237
 31
0.0
  0
LINE
  5
1EF
100
AcDbEntity
  8
レイヤー_2
 62
    18
100
AcDbLine
 10
-0.084749
 20
7.873938
 30
0.0
 11
0.508152
 21
6.857979
 31
0.0
  0
LINE
  5
1EE
100
AcDbEntity
  8
レイヤー_2
 62
    18
100
AcDbLine
 10
0.508152
 20
6.857979
 30
0.0
 11
0.762055
 21
6.857979
 31
0.0
  0
LINE
  5
1ED
100
AcDbEntity
  8
レイヤー_2
 62
    18
100
AcDbLine
 10
5.50354
 20
9.651952
 30
0.0
 11
5.672694
 21
9.906028
 31
0.0
  0
POLYLINE
  5
1E7
100
AcDbEntity
  8
レイヤー_2
 62
    18
100
AcDb2dPolyline
 66
     1
 10
0.0
 20
0.0
 30
0.0
  0
VERTEX
  5
1E8
100
AcDbEntity
  8
レイヤー_2
 62
    18
100
AcDbVertex
100
AcDb2dVertex
 10
-33.781917
 20
25.4
 30
0.0
  0
VERTEX
  5
1E9
100
AcDbEntity
  8
レイヤー_2
 62
    18
100
AcDbVertex
100
AcDb2dVertex
 10
-33.951416
 20
25.230674
 30
0.0
  0
VERTEX
  5
1EA
100
AcDbEntity
  8
レイヤー_2
 62
    18
100
AcDbVertex
100
AcDb2dVertex
 10
-34.459223
 20
23.876062
 30
0.0
  0
VERTEX
  5
1EB
100
AcDbEntity
  8
レイヤー_2
 62
    18
100
AcDbVertex
100
AcDb2dVertex
 10
-34.713127
 20
22.775354
 30
0.0
  0
SEQEND
  5
1EC
100
AcDbEntity
  8
レイヤー_2
 62
    18
  0
LINE
  5
1E6
100
AcDbEntity
  8
レイヤー_2
 62
    18
100
AcDbLine
 10
-23.960639
 20
22.775354
 30
0.0
 11
-23.960639
 21
23.283333
 31
0.0
  0
LINE
  5
1E5
100
AcDbEntity
  8
レイヤー_2
 62
    18
100
AcDbLine
 10
-35.475182
 20
-0.677306
 30
0.0
 11
-35.475182
 21
-4.741485
 31
0.0
  0
LINE
  5
1E4
100
AcDbEntity
  8
レイヤー_2
 62
    18
100
AcDbLine
 10
-35.475182
 20
22.775354
 30
0.0
 11
-35.475182
 21
8.551244
 31
0.0
  0
LINE
  5
1E3
100
AcDbEntity
  8
レイヤー_2
 62
    18
100
AcDbLine
 10
-23.113835
 20
17.949292
 30
0.0
 11
-23.113835
 21
22.775354
 31
0.0
  0
LINE
  5
1E2
100
AcDbEntity
  8
レイヤー_2
 62
    18
100
AcDbLine
 10
-23.113835
 20
-4.741485
 30
0.0
 11
-23.113835
 21
11.091313
 31
0.0
  0
LINE
  5
1E1
100
AcDbEntity
  8
レイヤー_2
 62
    18
100
AcDbLine
 10
-20.404612
 20
11.091313
 30
0.0
 11
-5.841848
 21
11.091313
 31
0.0
  0
LINE
  5
1E0
100
AcDbEntity
  8
レイヤー_2
 62
    18
100
AcDbLine
 10
-23.113835
 20
11.091313
 30
0.0
 11
-21.42057
 21
11.091313
 31
0.0
  0
LINE
  5
1DF
100
AcDbEntity
  8
レイヤー_2
 62
    18
100
AcDbLine
 10
-5.841848
 20
17.949292
 30
0.0
 11
-23.113835
 21
17.949292
 31
0.0
  0
POLYLINE
  5
1D8
100
AcDbEntity
  8
レイヤー_2
 62
    18
100
AcDb2dPolyline
 66
     1
 10
0.0
 20
0.0
 30
0.0
  0
VERTEX
  5
1D9
100
AcDbEntity
  8
レイヤー_2
 62
    18
100
AcDbVertex
100
AcDb2dVertex
 10
-0.762055
 20
8.212591
 30
0.0
  0
VERTEX
  5
1DA
100
AcDbEntity
  8
レイヤー_2
 62
    18
100
AcDbVertex
100
AcDb2dVertex
 10
-1.693264
 20
9.398048
 30
0.0
  0
VERTEX
  5
1DB
100
AcDbEntity
  8
レイヤー_2
 62
    18
100
AcDbVertex
100
AcDb2dVertex
 10
-2.878722
 20
10.329258
 30
0.0
  0
VERTEX
  5
1DC
100
AcDbEntity
  8
レイヤー_2
 62
    18
100
AcDbVertex
100
AcDb2dVertex
 10
-4.318083
 20
10.921986
 30
0.0
  0
VERTEX
  5
1DD
100
AcDbEntity
  8
レイヤー_2
 62
    18
100
AcDbVertex
100
AcDb2dVertex
 10
-5.841848
 20
11.091313
 30
0.0
  0
SEQEND
  5
1DE
100
AcDbEntity
  8
レイヤー_2
 62
    18
  0
POLYLINE
  5
1CF
100
AcDbEntity
  8
レイヤー_2
 62
    18
100
AcDb2dPolyline
 66
     1
 10
0.0
 20
0.0
 30
0.0
  0
VERTEX
  5
1D0
100
AcDbEntity
  8
レイヤー_2
 62
    18
100
AcDbVertex
100
AcDb2dVertex
 10
5.164887
 20
11.599292
 30
0.0
  0
VERTEX
  5
1D1
100
AcDbEntity
  8
レイヤー_2
 62
    18
100
AcDbVertex
100
AcDb2dVertex
 10
3.89468
 20
13.462055
 30
0.0
  0
VERTEX
  5
1D2
100
AcDbEntity
  8
レイヤー_2
 62
    18
100
AcDbVertex
100
AcDb2dVertex
 10
2.37057
 20
14.985993
 30
0.0
  0
VERTEX
  5
1D3
100
AcDbEntity
  8
レイヤー_2
 62
    18
100
AcDbVertex
100
AcDb2dVertex
 10
0.508152
 20
16.256028
 30
0.0
  0
VERTEX
  5
1D4
100
AcDbEntity
  8
レイヤー_2
 62
    18
100
AcDbVertex
100
AcDb2dVertex
 10
-1.439361
 20
17.187237
 30
0.0
  0
VERTEX
  5
1D5
100
AcDbEntity
  8
レイヤー_2
 62
    18
100
AcDbVertex
100
AcDb2dVertex
 10
-3.640432
 20
17.779966
 30
0.0
  0
VERTEX
  5
1D6
100
AcDbEntity
  8
レイヤー_2
 62
    18
100
AcDbVertex
100
AcDb2dVertex
 10
-5.841848
 20
17.949292
 30
0.0
  0
SEQEND
  5
1D7
100
AcDbEntity
  8
レイヤー_2
 62
    18
  0
LINE
  5
1CE
100
AcDbEntity
  8
レイヤー_2
 62
    18
100
AcDbLine
 10
5.50354
 20
11.091313
 30
0.0
 11
5.164887
 21
11.599292
 31
0.0
  0
LINE
  5
1CD
100
AcDbEntity
  8
レイヤー_2
 62
    18
100
AcDbLine
 10
-0.762055
 20
8.212591
 30
0.0
 11
-0.423402
 21
7.704612
 31
0.0
  0
POLYLINE
  5
1C8
100
AcDbEntity
  8
レイヤー_2
 62
    18
100
AcDb2dPolyline
 66
     1
 10
0.0
 20
0.0
 30
0.0
  0
VERTEX
  5
1C9
100
AcDbEntity
  8
レイヤー_2
 62
    18
100
AcDbVertex
100
AcDb2dVertex
 10
-35.221278
 20
-4.741485
 30
0.0
  0
VERTEX
  5
1CA
100
AcDbEntity
  8
レイヤー_2
 62
    18
100
AcDbVertex
100
AcDb2dVertex
 10
-35.136529
 20
-4.82589
 30
0.0
  0
VERTEX
  5
1CB
100
AcDbEntity
  8
レイヤー_2
 62
    18
100
AcDbVertex
100
AcDb2dVertex
 10
-34.797876
 20
-4.910639
 30
0.0
  0
SEQEND
  5
1CC
100
AcDbEntity
  8
レイヤー_2
 62
    18
  0
POLYLINE
  5
1C3
100
AcDbEntity
  8
レイヤー_2
 62
    18
100
AcDb2dPolyline
 66
     1
 10
0.0
 20
0.0
 30
0.0
  0
VERTEX
  5
1C4
100
AcDbEntity
  8
レイヤー_2
 62
    18
100
AcDbVertex
100
AcDb2dVertex
 10
-23.79114
 20
-4.910639
 30
0.0
  0
VERTEX
  5
1C5
100
AcDbEntity
  8
レイヤー_2
 62
    18
100
AcDbVertex
100
AcDb2dVertex
 10
-23.452488
 20
-4.82589
 30
0.0
  0
VERTEX
  5
1C6
100
AcDbEntity
  8
レイヤー_2
 62
    18
100
AcDbVertex
100
AcDb2dVertex
 10
-23.368083
 20
-4.741485
 30
0.0
  0
SEQEND
  5
1C7
100
AcDbEntity
  8
レイヤー_2
 62
    18
  0
LINE
  5
1C2
100
AcDbEntity
  8
レイヤー_2
 62
    18
100
AcDbLine
 10
-34.797876
 20
-4.910639
 30
0.0
 11
-23.79114
 21
-4.910639
 31
0.0
  0
LINE
  5
1C1
100
AcDbEntity
  8
レイヤー_2
 62
    18
100
AcDbLine
 10
-30.310639
 20
-28.1938
 30
0.0
 11
-30.310639
 21
-25.569326
 31
0.0
  0
LINE
  5
1C0
100
AcDbEntity
  8
レイヤー_2
 62
    18
100
AcDbLine
 10
-30.310639
 20
-13.462055
 30
0.0
 11
-30.310639
 21
-4.910639
 31
0.0
  0
LINE
  5
1BF
100
AcDbEntity
  8
レイヤー_2
 62
    18
100
AcDbLine
 10
-32.257807
 20
-4.910639
 30
0.0
 11
-32.257807
 21
-13.462055
 31
0.0
  0
LINE
  5
1BE
100
AcDbEntity
  8
レイヤー_2
 62
    18
100
AcDbLine
 10
-32.257807
 20
-25.569326
 30
0.0
 11
-32.257807
 21
-28.1938
 31
0.0
  0
LINE
  5
1BD
100
AcDbEntity
  8
レイヤー_2
 62
    18
100
AcDbLine
 10
-32.257807
 20
-28.1938
 30
0.0
 11
-32.003904
 21
-28.448048
 31
0.0
  0
LINE
  5
1BC
100
AcDbEntity
  8
レイヤー_2
 62
    18
100
AcDbLine
 10
-30.564543
 20
-28.448048
 30
0.0
 11
-30.310639
 21
-28.1938
 31
0.0
  0
LINE
  5
1BB
100
AcDbEntity
  8
レイヤー_2
 62
    18
100
AcDbLine
 10
-26.585113
 20
-6.603904
 30
0.0
 11
-26.754612
 21
-6.603904
 31
0.0
  0
LINE
  5
1BA
100
AcDbEntity
  8
レイヤー_2
 62
    18
100
AcDbLine
 10
-26.754612
 20
-6.603904
 30
0.0
 11
-27.262763
 21
-6.603904
 31
0.0
  0
LINE
  5
1B9
100
AcDbEntity
  8
レイヤー_2
 62
    18
100
AcDbLine
 10
-27.262763
 20
-6.603904
 30
0.0
 11
-27.516667
 21
-6.603904
 31
0.0
  0
LINE
  5
1B8
100
AcDbEntity
  8
レイヤー_2
 62
    18
100
AcDbLine
 10
-27.516667
 20
-6.603904
 30
0.0
 11
-28.363127
 21
-6.603904
 31
0.0
  0
LINE
  5
1B7
100
AcDbEntity
  8
レイヤー_2
 62
    18
100
AcDbLine
 10
-28.363127
 20
-6.603904
 30
0.0
 11
-28.532625
 21
-6.603904
 31
0.0
  0
LINE
  5
1B6
100
AcDbEntity
  8
レイヤー_2
 62
    18
100
AcDbLine
 10
-28.532625
 20
-6.603904
 30
0.0
 11
-29.125182
 21
-6.603904
 31
0.0
  0
LINE
  5
1B5
100
AcDbEntity
  8
レイヤー_2
 62
    18
100
AcDbLine
 10
-29.125182
 20
-6.603904
 30
0.0
 11
-29.209931
 21
-6.603904
 31
0.0
  0
LINE
  5
1B4
100
AcDbEntity
  8
レイヤー_2
 62
    18
100
AcDbLine
 10
-29.209931
 20
-6.603904
 30
0.0
 11
-29.29468
 21
-6.603904
 31
0.0
  0
LINE
  5
1B3
100
AcDbEntity
  8
レイヤー_2
 62
    18
100
AcDbLine
 10
-26.415959
 20
-10.498584
 30
0.0
 11
-29.463835
 21
-10.498584
 31
0.0
  0
LINE
  5
1B2
100
AcDbEntity
  8
レイヤー_2
 62
    18
100
AcDbLine
 10
-29.209931
 20
-8.80532
 30
0.0
 11
-29.29468
 21
-8.80532
 31
0.0
  0
LINE
  5
1B1
100
AcDbEntity
  8
レイヤー_2
 62
    18
100
AcDbLine
 10
-29.125182
 20
-8.80532
 30
0.0
 11
-29.209931
 21
-8.80532
 31
0.0
  0
LINE
  5
1B0
100
AcDbEntity
  8
レイヤー_2
 62
    18
100
AcDbLine
 10
-28.532625
 20
-8.80532
 30
0.0
 11
-29.125182
 21
-8.80532
 31
0.0
  0
LINE
  5
1AF
100
AcDbEntity
  8
レイヤー_2
 62
    18
100
AcDbLine
 10
-28.363127
 20
-8.80532
 30
0.0
 11
-28.532625
 21
-8.80532
 31
0.0
  0
LINE
  5
1AE
100
AcDbEntity
  8
レイヤー_2
 62
    18
100
AcDbLine
 10
-27.516667
 20
-8.80532
 30
0.0
 11
-28.363127
 21
-8.80532
 31
0.0
  0
LINE
  5
1AD
100
AcDbEntity
  8
レイヤー_2
 62
    18
100
AcDbLine
 10
-27.262763
 20
-8.80532
 30
0.0
 11
-27.516667
 21
-8.80532
 31
0.0
  0
LINE
  5
1AC
100
AcDbEntity
  8
レイヤー_2
 62
    18
100
AcDbLine
 10
-26.754612
 20
-8.80532
 30
0.0
 11
-27.262763
 21
-8.80532
 31
0.0
  0
LINE
  5
1AB
100
AcDbEntity
  8
レイヤー_2
 62
    18
100
AcDbLine
 10
-26.585113
 20
-8.80532
 30
0.0
 11
-26.754612
 21
-8.80532
 31
0.0
  0
LINE
  5
1AA
100
AcDbEntity
  8
レイヤー_2
 62
    18
100
AcDbLine
 10
-29.040432
 20
-4.910639
 30
0.0
 11
-29.040432
 21
-5.503196
 31
0.0
  0
LINE
  5
1A9
100
AcDbEntity
  8
レイヤー_2
 62
    18
100
AcDbLine
 10
-28.024474
 20
-5.503196
 30
0.0
 11
-29.040432
 21
-5.503196
 31
0.0
  0
LINE
  5
1A8
100
AcDbEntity
  8
レイヤー_2
 62
    18
100
AcDbLine
 10
-28.024474
 20
-5.503196
 30
0.0
 11
-28.024474
 21
-4.910639
 31
0.0
  0
LINE
  5
1A7
100
AcDbEntity
  8
レイヤー_2
 62
    18
100
AcDbLine
 10
-26.585113
 20
-5.672694
 30
0.0
 11
-29.29468
 21
-5.672694
 31
0.0
  0
LINE
  5
1A6
100
AcDbEntity
  8
レイヤー_2
 62
    18
100
AcDbLine
 10
-29.209931
 20
-5.503196
 30
0.0
 11
-29.29468
 21
-5.503196
 31
0.0
  0
LINE
  5
1A5
100
AcDbEntity
  8
レイヤー_2
 62
    18
100
AcDbLine
 10
-29.209931
 20
-5.503196
 30
0.0
 11
-29.209931
 21
-4.910639
 31
0.0
  0
LINE
  5
1A4
100
AcDbEntity
  8
レイヤー_2
 62
    18
100
AcDbLine
 10
-26.585113
 20
-5.503196
 30
0.0
 11
-26.669862
 21
-5.503196
 31
0.0
  0
LINE
  5
1A3
100
AcDbEntity
  8
レイヤー_2
 62
    18
100
AcDbLine
 10
-26.669862
 20
-4.910639
 30
0.0
 11
-26.669862
 21
-5.503196
 31
0.0
  0
LINE
  5
1A2
100
AcDbEntity
  8
レイヤー_2
 62
    18
100
AcDbLine
 10
-26.839361
 20
-5.503196
 30
0.0
 11
-27.77057
 21
-5.503196
 31
0.0
  0
LINE
  5
1A1
100
AcDbEntity
  8
レイヤー_2
 62
    18
100
AcDbLine
 10
-26.839361
 20
-5.503196
 30
0.0
 11
-26.839361
 21
-4.910639
 31
0.0
  0
LINE
  5
1A0
100
AcDbEntity
  8
レイヤー_2
 62
    18
100
AcDbLine
 10
-27.77057
 20
-4.910639
 30
0.0
 11
-27.77057
 21
-5.503196
 31
0.0
  0
LINE
  5
19F
100
AcDbEntity
  8
レイヤー_2
 62
    18
100
AcDbLine
 10
-28.363127
 20
-6.603904
 30
0.0
 11
-28.363127
 21
-8.80532
 31
0.0
  0
LINE
  5
19E
100
AcDbEntity
  8
レイヤー_2
 62
    18
100
AcDbLine
 10
-28.532625
 20
-8.80532
 30
0.0
 11
-28.532625
 21
-6.603904
 31
0.0
  0
LINE
  5
19D
100
AcDbEntity
  8
レイヤー_2
 62
    18
100
AcDbLine
 10
-27.516667
 20
-8.80532
 30
0.0
 11
-27.516667
 21
-6.603904
 31
0.0
  0
LINE
  5
19C
100
AcDbEntity
  8
レイヤー_2
 62
    18
100
AcDbLine
 10
-27.262763
 20
-6.603904
 30
0.0
 11
-27.262763
 21
-8.80532
 31
0.0
  0
LINE
  5
19B
100
AcDbEntity
  8
レイヤー_2
 62
    18
100
AcDbLine
 10
-29.125182
 20
-6.603904
 30
0.0
 11
-29.125182
 21
-8.80532
 31
0.0
  0
LINE
  5
19A
100
AcDbEntity
  8
レイヤー_2
 62
    18
100
AcDbLine
 10
-26.754612
 20
-8.80532
 30
0.0
 11
-26.754612
 21
-6.603904
 31
0.0
  0
LINE
  5
199
100
AcDbEntity
  8
レイヤー_2
 62
    18
100
AcDbLine
 10
-26.585113
 20
-6.603904
 30
0.0
 11
-26.585113
 21
-8.80532
 31
0.0
  0
LINE
  5
198
100
AcDbEntity
  8
レイヤー_2
 62
    18
100
AcDbLine
 10
-29.209931
 20
-8.80532
 30
0.0
 11
-29.209931
 21
-6.603904
 31
0.0
  0
LINE
  5
197
100
AcDbEntity
  8
レイヤー_2
 62
    18
100
AcDbLine
 10
-38.269154
 20
1.608687
 30
0.0
 11
-38.269154
 21
-0.169499
 31
0.0
  0
LINE
  5
196
100
AcDbEntity
  8
レイヤー_2
 62
    18
100
AcDbLine
 10
-30.310639
 20
-25.399828
 30
0.0
 11
-31.326598
 21
-25.569326
 31
0.0
  0
LINE
  5
195
100
AcDbEntity
  8
レイヤー_2
 62
    18
100
AcDbLine
 10
-31.326598
 20
-25.569326
 30
0.0
 11
-32.257807
 21
-25.399828
 31
0.0
  0
LINE
  5
194
100
AcDbEntity
  8
レイヤー_2
 62
    18
100
AcDbLine
 10
-32.257807
 20
-25.399828
 30
0.0
 11
-32.257807
 21
-22.690605
 31
0.0
  0
LINE
  5
193
100
AcDbEntity
  8
レイヤー_2
 62
    18
100
AcDbLine
 10
-31.326598
 20
-22.521106
 30
0.0
 11
-32.257807
 21
-22.690605
 31
0.0
  0
LINE
  5
192
100
AcDbEntity
  8
レイヤー_2
 62
    18
100
AcDbLine
 10
-30.310639
 20
-22.690605
 30
0.0
 11
-31.326598
 21
-22.521106
 31
0.0
  0
LINE
  5
191
100
AcDbEntity
  8
レイヤー_2
 62
    18
100
AcDbLine
 10
-30.310639
 20
-25.399828
 30
0.0
 11
-30.310639
 21
-22.690605
 31
0.0
  0
LINE
  5
190
100
AcDbEntity
  8
レイヤー_2
 62
    18
100
AcDbLine
 10
-29.887237
 20
-15.663471
 30
0.0
 11
-32.681209
 21
-15.663471
 31
0.0
  0
LINE
  5
18F
100
AcDbEntity
  8
レイヤー_2
 62
    18
100
AcDbLine
 10
-29.718083
 20
-15.663471
 30
0.0
 11
-29.887237
 21
-15.663471
 31
0.0
  0
LINE
  5
18E
100
AcDbEntity
  8
レイヤー_2
 62
    18
100
AcDbLine
 10
-29.887237
 20
-16.002124
 30
0.0
 11
-32.681209
 21
-16.002124
 31
0.0
  0
LINE
  5
18D
100
AcDbEntity
  8
レイヤー_2
 62
    18
100
AcDbLine
 10
-29.718083
 20
-16.002124
 30
0.0
 11
-29.887237
 21
-16.002124
 31
0.0
  0
LINE
  5
18C
100
AcDbEntity
  8
レイヤー_2
 62
    18
100
AcDbLine
 10
-30.22589
 20
-16.67943
 30
0.0
 11
-32.59646
 21
-16.67943
 31
0.0
  0
LINE
  5
18B
100
AcDbEntity
  8
レイヤー_2
 62
    18
100
AcDbLine
 10
-30.056736
 20
-16.67943
 30
0.0
 11
-30.22589
 21
-16.67943
 31
0.0
  0
LINE
  5
18A
100
AcDbEntity
  8
レイヤー_2
 62
    18
100
AcDbLine
 10
-32.257807
 20
-22.690605
 30
0.0
 11
-32.681209
 21
-22.521106
 31
0.0
  0
LINE
  5
189
100
AcDbEntity
  8
レイヤー_2
 62
    18
100
AcDbLine
 10
-31.326598
 20
-22.521106
 30
0.0
 11
-32.681209
 21
-22.521106
 31
0.0
  0
LINE
  5
188
100
AcDbEntity
  8
レイヤー_2
 62
    18
100
AcDbLine
 10
-32.257807
 20
-25.399828
 30
0.0
 11
-32.681209
 21
-25.569326
 31
0.0
  0
LINE
  5
187
100
AcDbEntity
  8
レイヤー_2
 62
    18
100
AcDbLine
 10
-31.326598
 20
-25.569326
 30
0.0
 11
-32.681209
 21
-25.569326
 31
0.0
  0
POLYLINE
  5
182
100
AcDbEntity
  8
レイヤー_2
 62
    18
100
AcDb2dPolyline
 66
     1
 10
0.0
 20
0.0
 30
0.0
  0
VERTEX
  5
183
100
AcDbEntity
  8
レイヤー_2
 62
    18
100
AcDbVertex
100
AcDb2dVertex
 10
-29.887237
 20
-22.521106
 30
0.0
  0
VERTEX
  5
184
100
AcDbEntity
  8
レイヤー_2
 62
    18
100
AcDbVertex
100
AcDb2dVertex
 10
-30.056736
 20
-22.521106
 30
0.0
  0
VERTEX
  5
185
100
AcDbEntity
  8
レイヤー_2
 62
    18
100
AcDbVertex
100
AcDb2dVertex
 10
-30.310639
 20
-22.690605
 30
0.0
  0
SEQEND
  5
186
100
AcDbEntity
  8
レイヤー_2
 62
    18
  0
LINE
  5
181
100
AcDbEntity
  8
レイヤー_2
 62
    18
100
AcDbLine
 10
-29.887237
 20
-22.521106
 30
0.0
 11
-31.326598
 21
-22.521106
 31
0.0
  0
POLYLINE
  5
17C
100
AcDbEntity
  8
レイヤー_2
 62
    18
100
AcDb2dPolyline
 66
     1
 10
0.0
 20
0.0
 30
0.0
  0
VERTEX
  5
17D
100
AcDbEntity
  8
レイヤー_2
 62
    18
100
AcDbVertex
100
AcDb2dVertex
 10
-29.887237
 20
-25.569326
 30
0.0
  0
VERTEX
  5
17E
100
AcDbEntity
  8
レイヤー_2
 62
    18
100
AcDbVertex
100
AcDb2dVertex
 10
-30.056736
 20
-25.484577
 30
0.0
  0
VERTEX
  5
17F
100
AcDbEntity
  8
レイヤー_2
 62
    18
100
AcDbVertex
100
AcDb2dVertex
 10
-30.310639
 20
-25.399828
 30
0.0
  0
SEQEND
  5
180
100
AcDbEntity
  8
レイヤー_2
 62
    18
  0
LINE
  5
17B
100
AcDbEntity
  8
レイヤー_2
 62
    18
100
AcDbLine
 10
-29.887237
 20
-25.569326
 30
0.0
 11
-31.326598
 21
-25.569326
 31
0.0
  0
POLYLINE
  5
176
100
AcDbEntity
  8
レイヤー_2
 62
    18
100
AcDb2dPolyline
 66
     1
 10
0.0
 20
0.0
 30
0.0
  0
VERTEX
  5
177
100
AcDbEntity
  8
レイヤー_2
 62
    18
100
AcDbVertex
100
AcDb2dVertex
 10
-29.463835
 20
-25.399828
 30
0.0
  0
VERTEX
  5
178
100
AcDbEntity
  8
レイヤー_2
 62
    18
100
AcDbVertex
100
AcDb2dVertex
 10
-29.548584
 20
-25.484577
 30
0.0
  0
VERTEX
  5
179
100
AcDbEntity
  8
レイヤー_2
 62
    18
100
AcDbVertex
100
AcDb2dVertex
 10
-29.887237
 20
-25.569326
 30
0.0
  0
SEQEND
  5
17A
100
AcDbEntity
  8
レイヤー_2
 62
    18
  0
POLYLINE
  5
171
100
AcDbEntity
  8
レイヤー_2
 62
    18
100
AcDb2dPolyline
 66
     1
 10
0.0
 20
0.0
 30
0.0
  0
VERTEX
  5
172
100
AcDbEntity
  8
レイヤー_2
 62
    18
100
AcDbVertex
100
AcDb2dVertex
 10
-29.463835
 20
-22.690605
 30
0.0
  0
VERTEX
  5
173
100
AcDbEntity
  8
レイヤー_2
 62
    18
100
AcDbVertex
100
AcDb2dVertex
 10
-29.548584
 20
-22.605855
 30
0.0
  0
VERTEX
  5
174
100
AcDbEntity
  8
レイヤー_2
 62
    18
100
AcDbVertex
100
AcDb2dVertex
 10
-29.887237
 20
-22.521106
 30
0.0
  0
SEQEND
  5
175
100
AcDbEntity
  8
レイヤー_2
 62
    18
  0
LINE
  5
170
100
AcDbEntity
  8
レイヤー_2
 62
    18
100
AcDbLine
 10
-29.463835
 20
-25.399828
 30
0.0
 11
-29.463835
 21
-22.690605
 31
0.0
  0
LINE
  5
16F
100
AcDbEntity
  8
レイヤー_2
 62
    18
100
AcDbLine
 10
-29.718083
 20
-22.521106
 30
0.0
 11
-29.887237
 21
-22.521106
 31
0.0
  0
LINE
  5
16E
100
AcDbEntity
  8
レイヤー_2
 62
    18
100
AcDbLine
 10
-29.718083
 20
-25.569326
 30
0.0
 11
-29.887237
 21
-25.569326
 31
0.0
  0
LINE
  5
16D
100
AcDbEntity
  8
レイヤー_2
 62
    18
100
AcDbLine
 10
-35.559931
 20
-13.800708
 30
0.0
 11
-22.775182
 21
-13.800708
 31
0.0
  0
POLYLINE
  5
168
100
AcDbEntity
  8
レイヤー_2
 62
    18
100
AcDb2dPolyline
 66
     1
 10
0.0
 20
0.0
 30
0.0
  0
VERTEX
  5
169
100
AcDbEntity
  8
レイヤー_2
 62
    18
100
AcDbVertex
100
AcDb2dVertex
 10
-22.690432
 20
-13.969862
 30
0.0
  0
VERTEX
  5
16A
100
AcDbEntity
  8
レイヤー_2
 62
    18
100
AcDbVertex
100
AcDb2dVertex
 10
-22.690432
 20
-13.885457
 30
0.0
  0
VERTEX
  5
16B
100
AcDbEntity
  8
レイヤー_2
 62
    18
100
AcDbVertex
100
AcDb2dVertex
 10
-22.775182
 20
-13.800708
 30
0.0
  0
SEQEND
  5
16C
100
AcDbEntity
  8
レイヤー_2
 62
    18
  0
POLYLINE
  5
163
100
AcDbEntity
  8
レイヤー_2
 62
    18
100
AcDb2dPolyline
 66
     1
 10
0.0
 20
0.0
 30
0.0
  0
VERTEX
  5
164
100
AcDbEntity
  8
レイヤー_2
 62
    18
100
AcDbVertex
100
AcDb2dVertex
 10
-22.775182
 20
-15.578722
 30
0.0
  0
VERTEX
  5
165
100
AcDbEntity
  8
レイヤー_2
 62
    18
100
AcDbVertex
100
AcDb2dVertex
 10
-22.690432
 20
-15.578722
 30
0.0
  0
VERTEX
  5
166
100
AcDbEntity
  8
レイヤー_2
 62
    18
100
AcDbVertex
100
AcDb2dVertex
 10
-22.690432
 20
-15.493972
 30
0.0
  0
SEQEND
  5
167
100
AcDbEntity
  8
レイヤー_2
 62
    18
  0
LINE
  5
162
100
AcDbEntity
  8
レイヤー_2
 62
    18
100
AcDbLine
 10
-22.775182
 20
-15.578722
 30
0.0
 11
-35.559931
 21
-15.578722
 31
0.0
  0
LINE
  5
161
100
AcDbEntity
  8
レイヤー_2
 62
    18
100
AcDbLine
 10
-22.690432
 20
-15.493972
 30
0.0
 11
-22.690432
 21
-13.969862
 31
0.0
  0
LINE
  5
160
100
AcDbEntity
  8
レイヤー_2
 62
    18
100
AcDbLine
 10
-35.305683
 20
-13.800708
 30
0.0
 11
-35.136529
 21
-13.800708
 31
0.0
  0
LINE
  5
15F
100
AcDbEntity
  8
レイヤー_2
 62
    18
100
AcDbLine
 10
-31.157099
 20
-15.578722
 30
0.0
 11
-33.019862
 21
-15.578722
 31
0.0
  0
LINE
  5
15E
100
AcDbEntity
  8
レイヤー_2
 62
    18
100
AcDbLine
 10
-29.718083
 20
-15.578722
 30
0.0
 11
-31.157099
 21
-15.578722
 31
0.0
  0
LINE
  5
15D
100
AcDbEntity
  8
レイヤー_2
 62
    18
100
AcDbLine
 10
-26.415959
 20
-15.578722
 30
0.0
 11
-26.669862
 21
-15.578722
 31
0.0
  0
LINE
  5
15C
100
AcDbEntity
  8
レイヤー_2
 62
    18
100
AcDbLine
 10
-29.209931
 20
-15.578722
 30
0.0
 11
-29.718083
 21
-15.578722
 31
0.0
  0
LINE
  5
15B
100
AcDbEntity
  8
レイヤー_2
 62
    18
100
AcDbLine
 10
-26.077306
 20
-15.578722
 30
0.0
 11
-26.415959
 21
-15.578722
 31
0.0
  0
LINE
  5
15A
100
AcDbEntity
  8
レイヤー_2
 62
    18
100
AcDbLine
 10
-24.722694
 20
-15.578722
 30
0.0
 11
-26.077306
 21
-15.578722
 31
0.0
  0
LINE
  5
159
100
AcDbEntity
  8
レイヤー_2
 62
    18
100
AcDbLine
 10
-35.136529
 20
-13.462055
 30
0.0
 11
-23.113835
 21
-13.462055
 31
0.0
  0
LINE
  5
158
100
AcDbEntity
  8
レイヤー_2
 62
    18
100
AcDbLine
 10
2.031917
 20
7.789361
 30
0.0
 11
1.60886
 21
8.551244
 31
0.0
  0
LINE
  5
157
100
AcDbEntity
  8
レイヤー_2
 62
    18
100
AcDbLine
 10
2.031917
 20
7.789361
 30
0.0
 11
0.508152
 21
6.857979
 31
0.0
  0
LINE
  5
156
100
AcDbEntity
  8
レイヤー_2
 62
    18
100
AcDbLine
 10
5.672694
 20
9.906028
 30
0.0
 11
4.148584
 21
8.974646
 31
0.0
  0
LINE
  5
155
100
AcDbEntity
  8
レイヤー_2
 62
    18
100
AcDbLine
 10
3.725526
 20
9.736701
 30
0.0
 11
4.148584
 21
8.974646
 31
0.0
  0
LINE
  5
154
100
AcDbEntity
  8
レイヤー_2
 62
    18
100
AcDbLine
 10
1.60886
 20
8.551244
 30
0.0
 11
3.725526
 21
9.736701
 31
0.0
  0
POLYLINE
  5
14F
100
AcDbEntity
  8
レイヤー_2
 62
    18
100
AcDb2dPolyline
 66
     1
 10
0.0
 20
0.0
 30
0.0
  0
VERTEX
  5
150
100
AcDbEntity
  8
レイヤー_2
 62
    18
100
AcDbVertex
100
AcDb2dVertex
 10
3.132625
 20
8.29734
 30
0.0
  0
VERTEX
  5
151
100
AcDbEntity
  8
レイヤー_2
 62
    18
100
AcDbVertex
100
AcDb2dVertex
 10
2.878722
 20
8.128014
 30
0.0
  0
VERTEX
  5
152
100
AcDbEntity
  8
レイヤー_2
 62
    18
100
AcDbVertex
100
AcDb2dVertex
 10
2.031917
 20
7.789361
 30
0.0
  0
SEQEND
  5
153
100
AcDbEntity
  8
レイヤー_2
 62
    18
  0
LINE
  5
14E
100
AcDbEntity
  8
レイヤー_2
 62
    18
100
AcDbLine
 10
3.132625
 20
8.29734
 30
0.0
 11
0.762055
 21
6.857979
 31
0.0
  0
LINE
  5
14D
100
AcDbEntity
  8
レイヤー_2
 62
    18
100
AcDbLine
 10
4.148584
 20
8.974646
 30
0.0
 11
3.132625
 21
8.29734
 31
0.0
  0
LINE
  5
14C
100
AcDbEntity
  8
レイヤー_2
 62
    18
100
AcDbLine
 10
5.50354
 20
9.651952
 30
0.0
 11
3.132625
 21
8.29734
 31
0.0
  0
LINE
  5
14B
100
AcDbEntity
  8
レイヤー_2
 62
    18
100
AcDbLine
 10
-35.475182
 20
-4.741485
 30
0.0
 11
-23.113835
 21
-4.741485
 31
0.0
  0
LINE
  5
14A
100
AcDbEntity
  8
レイヤー_2
 62
    18
100
AcDbLine
 10
-35.475182
 20
22.775354
 30
0.0
 11
-23.113835
 21
22.775354
 31
0.0
  0
LINE
  5
149
100
AcDbEntity
  8
レイヤー_2
 62
    18
100
AcDbLine
 10
-35.475182
 20
8.551244
 30
0.0
 11
-35.475182
 21
7.620034
 31
0.0
  0
LINE
  5
148
100
AcDbEntity
  8
レイヤー_2
 62
    18
100
AcDbLine
 10
-35.475182
 20
-0.677306
 30
0.0
 11
-35.475182
 21
0.253904
 31
0.0
  0
LINE
  5
147
100
AcDbEntity
  8
レイヤー_2
 62
    18
100
AcDbLine
 10
-35.475182
 20
7.620034
 30
0.0
 11
-35.475182
 21
0.253904
 31
0.0
  0
POLYLINE
  5
134
100
AcDbEntity
  8
レイヤー_2
 62
    18
100
AcDb2dPolyline
 66
     1
 10
0.0
 20
0.0
 30
0.0
  0
VERTEX
  5
135
100
AcDbEntity
  8
レイヤー_2
 62
    18
100
AcDbVertex
100
AcDb2dVertex
 10
-23.113835
 20
11.091313
 30
0.0
  0
VERTEX
  5
136
100
AcDbEntity
  8
レイヤー_2
 62
    18
100
AcDbVertex
100
AcDb2dVertex
 10
-23.113835
 20
11.176062
 30
0.0
  0
VERTEX
  5
137
100
AcDbEntity
  8
レイヤー_2
 62
    18
100
AcDbVertex
100
AcDb2dVertex
 10
-23.198584
 20
11.260639
 30
0.0
  0
VERTEX
  5
138
100
AcDbEntity
  8
レイヤー_2
 62
    18
100
AcDbVertex
100
AcDb2dVertex
 10
-23.283333
 20
11.514715
 30
0.0
  0
VERTEX
  5
139
100
AcDbEntity
  8
レイヤー_2
 62
    18
100
AcDbVertex
100
AcDb2dVertex
 10
-23.452488
 20
11.768618
 30
0.0
  0
VERTEX
  5
13A
100
AcDbEntity
  8
レイヤー_2
 62
    18
100
AcDbVertex
100
AcDb2dVertex
 10
-23.621986
 20
12.107271
 30
0.0
  0
VERTEX
  5
13B
100
AcDbEntity
  8
レイヤー_2
 62
    18
100
AcDbVertex
100
AcDb2dVertex
 10
-23.706736
 20
12.530674
 30
0.0
  0
VERTEX
  5
13C
100
AcDbEntity
  8
レイヤー_2
 62
    18
100
AcDbVertex
100
AcDb2dVertex
 10
-24.045388
 20
13.546632
 30
0.0
  0
VERTEX
  5
13D
100
AcDbEntity
  8
レイヤー_2
 62
    18
100
AcDbVertex
100
AcDb2dVertex
 10
-24.129793
 20
14.139361
 30
0.0
  0
VERTEX
  5
13E
100
AcDbEntity
  8
レイヤー_2
 62
    18
100
AcDbVertex
100
AcDb2dVertex
 10
-24.129793
 20
14.731917
 30
0.0
  0
VERTEX
  5
13F
100
AcDbEntity
  8
レイヤー_2
 62
    18
100
AcDbVertex
100
AcDb2dVertex
 10
-24.045388
 20
15.240069
 30
0.0
  0
VERTEX
  5
140
100
AcDbEntity
  8
レイヤー_2
 62
    18
100
AcDbVertex
100
AcDb2dVertex
 10
-24.045388
 20
15.663299
 30
0.0
  0
VERTEX
  5
141
100
AcDbEntity
  8
レイヤー_2
 62
    18
100
AcDbVertex
100
AcDb2dVertex
 10
-23.79114
 20
16.509931
 30
0.0
  0
VERTEX
  5
142
100
AcDbEntity
  8
レイヤー_2
 62
    18
100
AcDbVertex
100
AcDb2dVertex
 10
-23.452488
 20
17.356736
 30
0.0
  0
VERTEX
  5
143
100
AcDbEntity
  8
レイヤー_2
 62
    18
100
AcDbVertex
100
AcDb2dVertex
 10
-23.283333
 20
17.610639
 30
0.0
  0
VERTEX
  5
144
100
AcDbEntity
  8
レイヤー_2
 62
    18
100
AcDbVertex
100
AcDb2dVertex
 10
-23.198584
 20
17.864715
 30
0.0
  0
VERTEX
  5
145
100
AcDbEntity
  8
レイヤー_2
 62
    18
100
AcDbVertex
100
AcDb2dVertex
 10
-23.113835
 20
17.949292
 30
0.0
  0
SEQEND
  5
146
100
AcDbEntity
  8
レイヤー_2
 62
    18
  0
LINE
  5
133
100
AcDbEntity
  8
レイヤー_2
 62
    18
100
AcDbLine
 10
-20.404612
 20
11.091313
 30
0.0
 11
-20.912763
 21
11.176062
 31
0.0
  0
LINE
  5
132
100
AcDbEntity
  8
レイヤー_2
 62
    18
100
AcDbLine
 10
-20.912763
 20
11.176062
 30
0.0
 11
-20.997168
 21
11.176062
 31
0.0
  0
LINE
  5
131
100
AcDbEntity
  8
レイヤー_2
 62
    18
100
AcDbLine
 10
-20.912763
 20
11.176062
 30
0.0
 11
-21.42057
 21
11.091313
 31
0.0
  0
LINE
  5
130
100
AcDbEntity
  8
レイヤー_2
 62
    18
100
AcDbLine
 10
-0.423402
 20
7.704612
 30
0.0
 11
5.50354
 21
11.091313
 31
0.0
  0
LINE
  5
12F
100
AcDbEntity
  8
レイヤー_2
 62
    18
100
AcDbLine
 10
-31.241848
 20
-28.1938
 30
0.0
 11
-30.310639
 21
-28.1938
 31
0.0
  0
LINE
  5
12E
100
AcDbEntity
  8
レイヤー_2
 62
    18
100
AcDbLine
 10
-32.257807
 20
-28.1938
 30
0.0
 11
-31.241848
 21
-28.1938
 31
0.0
  0
LINE
  5
12D
100
AcDbEntity
  8
レイヤー_2
 62
    18
100
AcDbLine
 10
-31.241848
 20
-28.448048
 30
0.0
 11
-32.003904
 21
-28.448048
 31
0.0
  0
LINE
  5
12C
100
AcDbEntity
  8
レイヤー_2
 62
    18
100
AcDbLine
 10
-30.564543
 20
-28.448048
 30
0.0
 11
-31.241848
 21
-28.448048
 31
0.0
  0
POLYLINE
  5
125
100
AcDbEntity
  8
レイヤー_2
 62
    18
100
AcDb2dPolyline
 66
     1
 10
0.0
 20
0.0
 30
0.0
  0
VERTEX
  5
126
100
AcDbEntity
  8
レイヤー_2
 62
    18
100
AcDbVertex
100
AcDb2dVertex
 10
-33.697168
 20
-33.104784
 30
0.0
  0
VERTEX
  5
127
100
AcDbEntity
  8
レイヤー_2
 62
    18
100
AcDbVertex
100
AcDb2dVertex
 10
-33.612763
 20
-33.189533
 30
0.0
  0
VERTEX
  5
128
100
AcDbEntity
  8
レイヤー_2
 62
    18
100
AcDbVertex
100
AcDb2dVertex
 10
-33.443264
 20
-33.358343
 30
0.0
  0
VERTEX
  5
129
100
AcDbEntity
  8
レイヤー_2
 62
    18
100
AcDbVertex
100
AcDb2dVertex
 10
-33.104612
 20
-33.443092
 30
0.0
  0
VERTEX
  5
12A
100
AcDbEntity
  8
レイヤー_2
 62
    18
100
AcDbVertex
100
AcDb2dVertex
 10
-32.681209
 20
-33.104784
 30
0.0
  0
SEQEND
  5
12B
100
AcDbEntity
  8
レイヤー_2
 62
    18
  0
POLYLINE
  5
114
100
AcDbEntity
  8
レイヤー_2
 62
    18
100
AcDb2dPolyline
 66
     1
 10
0.0
 20
0.0
 30
0.0
  0
VERTEX
  5
115
100
AcDbEntity
  8
レイヤー_2
 62
    18
100
AcDbVertex
100
AcDb2dVertex
 10
-29.29468
 20
-33.69734
 30
0.0
  0
VERTEX
  5
116
100
AcDbEntity
  8
レイヤー_2
 62
    18
100
AcDbVertex
100
AcDb2dVertex
 10
-29.29468
 20
-33.78209
 30
0.0
  0
VERTEX
  5
117
100
AcDbEntity
  8
レイヤー_2
 62
    18
100
AcDbVertex
100
AcDb2dVertex
 10
-29.209931
 20
-33.78209
 30
0.0
  0
VERTEX
  5
118
100
AcDbEntity
  8
レイヤー_2
 62
    18
100
AcDbVertex
100
AcDb2dVertex
 10
-28.871278
 20
-34.120398
 30
0.0
  0
VERTEX
  5
119
100
AcDbEntity
  8
レイヤー_2
 62
    18
100
AcDbVertex
100
AcDb2dVertex
 10
-28.70178
 20
-34.205147
 30
0.0
  0
VERTEX
  5
11A
100
AcDbEntity
  8
レイヤー_2
 62
    18
100
AcDbVertex
100
AcDb2dVertex
 10
-28.532625
 20
-34.205147
 30
0.0
  0
VERTEX
  5
11B
100
AcDbEntity
  8
レイヤー_2
 62
    18
100
AcDbVertex
100
AcDb2dVertex
 10
-28.447876
 20
-34.289897
 30
0.0
  0
VERTEX
  5
11C
100
AcDbEntity
  8
レイヤー_2
 62
    18
100
AcDbVertex
100
AcDb2dVertex
 10
-28.109223
 20
-34.459395
 30
0.0
  0
VERTEX
  5
11D
100
AcDbEntity
  8
レイヤー_2
 62
    18
100
AcDbVertex
100
AcDb2dVertex
 10
-27.940069
 20
-34.459395
 30
0.0
  0
VERTEX
  5
11E
100
AcDbEntity
  8
レイヤー_2
 62
    18
100
AcDbVertex
100
AcDb2dVertex
 10
-27.77057
 20
-34.544145
 30
0.0
  0
VERTEX
  5
11F
100
AcDbEntity
  8
レイヤー_2
 62
    18
100
AcDbVertex
100
AcDb2dVertex
 10
-27.601416
 20
-34.544145
 30
0.0
  0
VERTEX
  5
120
100
AcDbEntity
  8
レイヤー_2
 62
    18
100
AcDbVertex
100
AcDb2dVertex
 10
-27.347168
 20
-34.459395
 30
0.0
  0
VERTEX
  5
121
100
AcDbEntity
  8
レイヤー_2
 62
    18
100
AcDbVertex
100
AcDb2dVertex
 10
-27.178014
 20
-34.459395
 30
0.0
  0
VERTEX
  5
122
100
AcDbEntity
  8
レイヤー_2
 62
    18
100
AcDbVertex
100
AcDb2dVertex
 10
-26.839361
 20
-34.289897
 30
0.0
  0
VERTEX
  5
123
100
AcDbEntity
  8
レイヤー_2
 62
    18
100
AcDbVertex
100
AcDb2dVertex
 10
-26.669862
 20
-34.120398
 30
0.0
  0
SEQEND
  5
124
100
AcDbEntity
  8
レイヤー_2
 62
    18
  0
LINE
  5
113
100
AcDbEntity
  8
レイヤー_2
 62
    18
100
AcDbLine
 10
-20.404612
 20
28.701952
 30
0.0
 11
-23.02943
 21
28.701952
 31
0.0
  0
LINE
  5
112
100
AcDbEntity
  8
レイヤー_2
 62
    18
100
AcDbLine
 10
-23.02943
 20
26.162055
 30
0.0
 11
-20.404612
 21
26.162055
 31
0.0
  0
LINE
  5
111
100
AcDbEntity
  8
レイヤー_2
 62
    18
100
AcDbLine
 10
-5.164543
 20
29.29468
 30
0.0
 11
-20.404612
 21
29.29468
 31
0.0
  0
LINE
  5
110
100
AcDbEntity
  8
レイヤー_2
 62
    18
100
AcDbLine
 10
-20.404612
 20
25.569326
 30
0.0
 11
-5.164543
 21
25.569326
 31
0.0
  0
LINE
  5
10F
100
AcDbEntity
  8
レイヤー_2
 62
    18
100
AcDbLine
 10
-5.164543
 20
28.363299
 30
0.0
 11
-5.164543
 21
29.29468
 31
0.0
  0
LINE
  5
10E
100
AcDbEntity
  8
レイヤー_2
 62
    18
100
AcDbLine
 10
-5.164543
 20
25.569326
 30
0.0
 11
-5.164543
 21
26.500708
 31
0.0
  0
LINE
  5
10D
100
AcDbEntity
  8
レイヤー_2
 62
    18
100
AcDbLine
 10
-5.164543
 20
26.500708
 30
0.0
 11
-5.164543
 21
28.363299
 31
0.0
  0
LINE
  5
10C
100
AcDbEntity
  8
レイヤー_2
 62
    18
100
AcDbLine
 10
-23.02943
 20
28.701952
 30
0.0
 11
-23.02943
 21
30.734041
 31
0.0
  0
LINE
  5
10B
100
AcDbEntity
  8
レイヤー_2
 62
    18
100
AcDbLine
 10
-23.02943
 20
23.283333
 30
0.0
 11
-23.02943
 21
26.162055
 31
0.0
  0
LINE
  5
10A
100
AcDbEntity
  8
レイヤー_2
 62
    18
100
AcDbLine
 10
-35.559931
 20
27.77057
 30
0.0
 11
-35.559931
 21
26.246632
 31
0.0
  0
LINE
  5
109
100
AcDbEntity
  8
レイヤー_2
 62
    18
100
AcDbLine
 10
-35.559931
 20
30.734041
 30
0.0
 11
-35.559931
 21
29.379258
 31
0.0
  0
POLYLINE
  5
104
100
AcDbEntity
  8
レイヤー_2
 62
    18
100
AcDb2dPolyline
 66
     1
 10
0.0
 20
0.0
 30
0.0
  0
VERTEX
  5
105
100
AcDbEntity
  8
レイヤー_2
 62
    18
100
AcDbVertex
100
AcDb2dVertex
 10
-23.02943
 20
30.734041
 30
0.0
  0
VERTEX
  5
106
100
AcDbEntity
  8
レイヤー_2
 62
    18
100
AcDbVertex
100
AcDb2dVertex
 10
-29.29468
 20
30.818618
 30
0.0
  0
VERTEX
  5
107
100
AcDbEntity
  8
レイヤー_2
 62
    18
100
AcDbVertex
100
AcDb2dVertex
 10
-35.559931
 20
30.734041
 30
0.0
  0
SEQEND
  5
108
100
AcDbEntity
  8
レイヤー_2
 62
    18
  0
POLYLINE
  5
FF
100
AcDbEntity
  8
レイヤー_2
 62
    18
100
AcDb2dPolyline
 66
     1
 10
0.0
 20
0.0
 30
0.0
  0
VERTEX
  5
100
100
AcDbEntity
  8
レイヤー_2
 62
    18
100
AcDbVertex
100
AcDb2dVertex
 10
-35.72943
 20
27.940069
 30
0.0
  0
VERTEX
  5
101
100
AcDbEntity
  8
レイヤー_2
 62
    18
100
AcDbVertex
100
AcDb2dVertex
 10
-35.72943
 20
27.85532
 30
0.0
  0
VERTEX
  5
102
100
AcDbEntity
  8
レイヤー_2
 62
    18
100
AcDbVertex
100
AcDb2dVertex
 10
-35.559931
 20
27.85532
 30
0.0
  0
SEQEND
  5
103
100
AcDbEntity
  8
レイヤー_2
 62
    18
  0
POLYLINE
  5
FA
100
AcDbEntity
  8
レイヤー_2
 62
    18
100
AcDb2dPolyline
 66
     1
 10
0.0
 20
0.0
 30
0.0
  0
VERTEX
  5
FB
100
AcDbEntity
  8
レイヤー_2
 62
    18
100
AcDbVertex
100
AcDb2dVertex
 10
-35.559931
 20
29.29468
 30
0.0
  0
VERTEX
  5
FC
100
AcDbEntity
  8
レイヤー_2
 62
    18
100
AcDbVertex
100
AcDb2dVertex
 10
-35.72943
 20
29.29468
 30
0.0
  0
VERTEX
  5
FD
100
AcDbEntity
  8
レイヤー_2
 62
    18
100
AcDbVertex
100
AcDb2dVertex
 10
-35.72943
 20
29.209931
 30
0.0
  0
SEQEND
  5
FE
100
AcDbEntity
  8
レイヤー_2
 62
    18
  0
POLYLINE
  5
F5
100
AcDbEntity
  8
レイヤー_2
 62
    18
100
AcDb2dPolyline
 66
     1
 10
0.0
 20
0.0
 30
0.0
  0
VERTEX
  5
F6
100
AcDbEntity
  8
レイヤー_2
 62
    18
100
AcDbVertex
100
AcDb2dVertex
 10
-35.72943
 20
29.209931
 30
0.0
  0
VERTEX
  5
F7
100
AcDbEntity
  8
レイヤー_2
 62
    18
100
AcDbVertex
100
AcDb2dVertex
 10
-35.814179
 20
28.617375
 30
0.0
  0
VERTEX
  5
F8
100
AcDbEntity
  8
レイヤー_2
 62
    18
100
AcDbVertex
100
AcDb2dVertex
 10
-35.72943
 20
27.940069
 30
0.0
  0
SEQEND
  5
F9
100
AcDbEntity
  8
レイヤー_2
 62
    18
  0
LINE
  5
F4
100
AcDbEntity
  8
レイヤー_2
 62
    18
100
AcDbLine
 10
-20.404612
 20
29.29468
 30
0.0
 11
-20.404612
 21
25.569326
 31
0.0
  0
LINE
  5
F3
100
AcDbEntity
  8
レイヤー_2
 62
    18
100
AcDbLine
 10
-5.164543
 20
29.29468
 30
0.0
 11
-5.164543
 21
25.569326
 31
0.0
  0
LINE
  5
F2
100
AcDbEntity
  8
レイヤー_2
 62
    18
100
AcDbLine
 10
-35.475182
 20
28.617375
 30
0.0
 11
-35.559931
 21
29.379258
 31
0.0
  0
LINE
  5
F1
100
AcDbEntity
  8
レイヤー_2
 62
    18
100
AcDbLine
 10
-35.559931
 20
27.77057
 30
0.0
 11
-35.475182
 21
28.617375
 31
0.0
  0
POLYLINE
  5
E7
100
AcDbEntity
  8
レイヤー_2
 62
    18
100
AcDb2dPolyline
 66
     1
 10
0.0
 20
0.0
 30
0.0
  0
VERTEX
  5
E8
100
AcDbEntity
  8
レイヤー_2
 62
    18
100
AcDbVertex
100
AcDb2dVertex
 10
-23.02943
 20
26.162055
 30
0.0
  0
VERTEX
  5
E9
100
AcDbEntity
  8
レイヤー_2
 62
    18
100
AcDbVertex
100
AcDb2dVertex
 10
-23.113835
 20
26.331382
 30
0.0
  0
VERTEX
  5
EA
100
AcDbEntity
  8
レイヤー_2
 62
    18
100
AcDbVertex
100
AcDb2dVertex
 10
-23.113835
 20
26.585285
 30
0.0
  0
VERTEX
  5
EB
100
AcDbEntity
  8
レイヤー_2
 62
    18
100
AcDbVertex
100
AcDb2dVertex
 10
-23.198584
 20
26.923938
 30
0.0
  0
VERTEX
  5
EC
100
AcDbEntity
  8
レイヤー_2
 62
    18
100
AcDbVertex
100
AcDb2dVertex
 10
-23.198584
 20
27.685993
 30
0.0
  0
VERTEX
  5
ED
100
AcDbEntity
  8
レイヤー_2
 62
    18
100
AcDbVertex
100
AcDb2dVertex
 10
-23.113835
 20
28.109395
 30
0.0
  0
VERTEX
  5
EE
100
AcDbEntity
  8
レイヤー_2
 62
    18
100
AcDbVertex
100
AcDb2dVertex
 10
-23.113835
 20
28.617375
 30
0.0
  0
VERTEX
  5
EF
100
AcDbEntity
  8
レイヤー_2
 62
    18
100
AcDbVertex
100
AcDb2dVertex
 10
-23.02943
 20
28.701952
 30
0.0
  0
SEQEND
  5
F0
100
AcDbEntity
  8
レイヤー_2
 62
    18
  0
LINE
  5
E6
100
AcDbEntity
  8
レイヤー_2
 62
    18
100
AcDbLine
 10
-23.02943
 20
23.283333
 30
0.0
 11
-29.29468
 21
23.283333
 31
0.0
  0
LINE
  5
E5
100
AcDbEntity
  8
レイヤー_2
 62
    18
100
AcDbLine
 10
-35.559931
 20
26.246632
 30
0.0
 11
-29.29468
 21
23.283333
 31
0.0
  0
LINE
  5
E4
100
AcDbEntity
  8
レイヤー_2
 62
    18
100
AcDbLine
 10
-35.559931
 20
27.85532
 30
0.0
 11
-35.559931
 21
29.29468
 31
0.0
  0
LINE
  5
E3
100
AcDbEntity
  8
レイヤー_2
 62
    18
100
AcDbLine
 10
-23.537237
 20
31.919326
 30
0.0
 11
-25.907807
 21
30.818618
 31
0.0
  0
LINE
  5
E2
100
AcDbEntity
  8
レイヤー_2
 62
    18
100
AcDbLine
 10
-25.907807
 20
30.818618
 30
0.0
 11
-24.976598
 21
31.242021
 31
0.0
  0
LINE
  5
E1
100
AcDbEntity
  8
レイヤー_2
 62
    18
100
AcDbLine
 10
-24.891848
 20
28.532625
 30
0.0
 11
-22.521278
 21
29.71791
 31
0.0
  0
LINE
  5
E0
100
AcDbEntity
  8
レイヤー_2
 62
    18
100
AcDbLine
 10
-22.521278
 20
29.71791
 30
0.0
 11
-23.368083
 21
29.29468
 31
0.0
  0
LINE
  5
DF
100
AcDbEntity
  8
レイヤー_2
 62
    18
100
AcDbLine
 10
-9.990432
 20
38.946632
 30
0.0
 11
-12.7
 21
37.676598
 31
0.0
  0
LINE
  5
DE
100
AcDbEntity
  8
レイヤー_2
 62
    18
100
AcDbLine
 10
-15.409223
 20
36.406736
 30
0.0
 11
-18.118446
 21
35.136701
 31
0.0
  0
LINE
  5
DD
100
AcDbEntity
  8
レイヤー_2
 62
    18
100
AcDbLine
 10
-20.828014
 20
33.866667
 30
0.0
 11
-23.537237
 21
32.596632
 31
0.0
  0
LINE
  5
DC
100
AcDbEntity
  8
レイヤー_2
 62
    18
100
AcDbLine
 10
-23.79114
 20
32.512055
 30
0.0
 11
-22.859931
 21
32.935285
 31
0.0
  0
LINE
  5
DB
100
AcDbEntity
  8
レイヤー_2
 62
    18
100
AcDbLine
 10
-22.182625
 20
29.125354
 30
0.0
 11
-19.473402
 21
30.395388
 31
0.0
  0
LINE
  5
DA
100
AcDbEntity
  8
レイヤー_2
 62
    18
100
AcDbLine
 10
-16.763835
 20
31.665251
 30
0.0
 11
-14.054612
 21
32.935285
 31
0.0
  0
LINE
  5
D9
100
AcDbEntity
  8
レイヤー_2
 62
    18
100
AcDbLine
 10
-11.345388
 20
34.20532
 30
0.0
 11
-8.635821
 21
35.475354
 31
0.0
  0
LINE
  5
D8
100
AcDbEntity
  8
レイヤー_2
 62
    18
100
AcDbLine
 10
-8.381917
 20
35.559931
 30
0.0
 11
-9.313127
 21
35.136701
 31
0.0
  0
LINE
  5
D7
100
AcDbEntity
  8
レイヤー_2
 62
    18
100
AcDbLine
 10
-9.567375
 20
38.1
 30
0.0
 11
-9.990432
 21
38.946632
 31
0.0
  0
LINE
  5
D6
100
AcDbEntity
  8
レイヤー_2
 62
    18
100
AcDbLine
 10
-9.990432
 20
38.946632
 30
0.0
 11
-9.567375
 21
38.1
 31
0.0
  0
LINE
  5
D5
100
AcDbEntity
  8
レイヤー_2
 62
    18
100
AcDbLine
 10
-8.381917
 20
35.559931
 30
0.0
 11
-8.80532
 21
36.406736
 31
0.0
  0
LINE
  5
D4
100
AcDbEntity
  8
レイヤー_2
 62
    18
100
AcDbLine
 10
-8.80532
 20
36.406736
 30
0.0
 11
-8.381917
 21
35.559931
 31
0.0
  0
LINE
  5
D3
100
AcDbEntity
  8
レイヤー_2
 62
    18
100
AcDbLine
 10
-8.80532
 20
36.406736
 30
0.0
 11
-9.567375
 21
38.1
 31
0.0
  0
LINE
  5
D2
100
AcDbEntity
  8
レイヤー_2
 62
    18
100
AcDbLine
 10
-9.567375
 20
38.1
 30
0.0
 11
-9.143972
 21
37.168618
 31
0.0
  0
LINE
  5
D1
100
AcDbEntity
  8
レイヤー_2
 62
    18
100
AcDbLine
 10
-25.907807
 20
30.818618
 30
0.0
 11
-26.754612
 21
32.681382
 31
0.0
  0
LINE
  5
D0
100
AcDbEntity
  8
レイヤー_2
 62
    18
100
AcDbLine
 10
-26.754612
 20
32.681382
 30
0.0
 11
-26.331209
 21
31.75
 31
0.0
  0
LINE
  5
CF
100
AcDbEntity
  8
レイヤー_2
 62
    18
100
AcDbLine
 10
-23.621986
 20
25.992729
 30
0.0
 11
-24.891848
 21
28.532625
 31
0.0
  0
LINE
  5
CE
100
AcDbEntity
  8
レイヤー_2
 62
    18
100
AcDbLine
 10
-24.891848
 20
28.532625
 30
0.0
 11
-24.468446
 21
27.685993
 31
0.0
  0
LINE
  5
CD
100
AcDbEntity
  8
レイヤー_2
 62
    18
100
AcDbLine
 10
-36.829793
 20
24.722694
 30
0.0
 11
-36.237237
 21
23.283333
 31
0.0
  0
LINE
  5
CC
100
AcDbEntity
  8
レイヤー_2
 62
    18
100
AcDbLine
 10
-36.237237
 20
23.283333
 30
0.0
 11
-36.660639
 21
24.214715
 31
0.0
  0
LINE
  5
CB
100
AcDbEntity
  8
レイヤー_2
 62
    18
100
AcDbLine
 10
-38.1
 20
27.34734
 30
0.0
 11
-37.507099
 21
26.162055
 31
0.0
  0
LINE
  5
CA
100
AcDbEntity
  8
レイヤー_2
 62
    18
100
AcDbLine
 10
-37.507099
 20
26.162055
 30
0.0
 11
-37.930846
 21
27.008687
 31
0.0
  0
LINE
  5
C9
100
AcDbEntity
  8
レイヤー_2
 62
    18
100
AcDbLine
 10
-26.754612
 20
32.681382
 30
0.0
 11
-29.548584
 21
31.411347
 31
0.0
  0
LINE
  5
C8
100
AcDbEntity
  8
レイヤー_2
 62
    18
100
AcDbLine
 10
-32.257807
 20
30.226062
 30
0.0
 11
-32.512055
 21
30.141313
 31
0.0
  0
LINE
  5
C7
100
AcDbEntity
  8
レイヤー_2
 62
    18
100
AcDbLine
 10
-32.512055
 20
30.141313
 30
0.0
 11
-34.967375
 21
28.956028
 31
0.0
  0
LINE
  5
C6
100
AcDbEntity
  8
レイヤー_2
 62
    18
100
AcDbLine
 10
-37.676598
 20
27.601244
 30
0.0
 11
-38.1
 21
27.34734
 31
0.0
  0
LINE
  5
C5
100
AcDbEntity
  8
レイヤー_2
 62
    18
100
AcDbLine
 10
-38.1
 20
27.34734
 30
0.0
 11
-37.253196
 21
27.77057
 31
0.0
  0
LINE
  5
C4
100
AcDbEntity
  8
レイヤー_2
 62
    18
100
AcDbLine
 10
-37.084041
 20
24.807271
 30
0.0
 11
-36.999292
 21
24.722694
 31
0.0
  0
LINE
  5
C3
100
AcDbEntity
  8
レイヤー_2
 62
    18
100
AcDbLine
 10
-36.999292
 20
24.722694
 30
0.0
 11
-36.914543
 21
24.722694
 31
0.0
  0
LINE
  5
C2
100
AcDbEntity
  8
レイヤー_2
 62
    18
100
AcDbLine
 10
-36.914543
 20
24.722694
 30
0.0
 11
-36.999292
 21
24.722694
 31
0.0
  0
LINE
  5
C1
100
AcDbEntity
  8
レイヤー_2
 62
    18
100
AcDbLine
 10
-36.999292
 20
24.722694
 30
0.0
 11
-37.084041
 21
24.807271
 31
0.0
  0
LINE
  5
C0
100
AcDbEntity
  8
レイヤー_2
 62
    18
100
AcDbLine
 10
-37.507099
 20
26.077306
 30
0.0
 11
-37.591848
 21
26.077306
 31
0.0
  0
LINE
  5
BF
100
AcDbEntity
  8
レイヤー_2
 62
    18
100
AcDbLine
 10
-37.591848
 20
26.077306
 30
0.0
 11
-37.591848
 21
25.992729
 31
0.0
  0
LINE
  5
BE
100
AcDbEntity
  8
レイヤー_2
 62
    18
100
AcDbLine
 10
-37.591848
 20
25.992729
 30
0.0
 11
-37.591848
 21
25.907979
 31
0.0
  0
LINE
  5
BD
100
AcDbEntity
  8
レイヤー_2
 62
    18
100
AcDbLine
 10
-37.591848
 20
25.907979
 30
0.0
 11
-37.591848
 21
25.992729
 31
0.0
  0
LINE
  5
BC
100
AcDbEntity
  8
レイヤー_2
 62
    18
100
AcDbLine
 10
-37.591848
 20
25.992729
 30
0.0
 11
-37.591848
 21
26.077306
 31
0.0
  0
LINE
  5
BB
100
AcDbEntity
  8
レイヤー_2
 62
    18
100
AcDbLine
 10
-37.591848
 20
26.077306
 30
0.0
 11
-37.507099
 21
26.077306
 31
0.0
  0
LINE
  5
BA
100
AcDbEntity
  8
レイヤー_2
 62
    18
100
AcDbLine
 10
-36.914543
 20
24.722694
 30
0.0
 11
-36.914543
 21
24.807271
 31
0.0
  0
LINE
  5
B9
100
AcDbEntity
  8
レイヤー_2
 62
    18
100
AcDbLine
 10
-36.914543
 20
24.807271
 30
0.0
 11
-36.914543
 21
24.722694
 31
0.0
  0
LINE
  5
B8
100
AcDbEntity
  8
レイヤー_2
 62
    18
100
AcDbLine
 10
-37.591848
 20
25.907979
 30
0.0
 11
-37.168791
 21
24.976598
 31
0.0
  0
LINE
  5
B7
100
AcDbEntity
  8
レイヤー_2
 62
    18
100
AcDbLine
 10
-37.168791
 20
24.976598
 30
0.0
 11
-37.084041
 21
24.807271
 31
0.0
  0
LINE
  5
B6
100
AcDbEntity
  8
レイヤー_2
 62
    18
100
AcDbLine
 10
-37.084041
 20
24.807271
 30
0.0
 11
-37.168791
 21
24.976598
 31
0.0
  0
LINE
  5
B5
100
AcDbEntity
  8
レイヤー_2
 62
    18
100
AcDbLine
 10
-37.168791
 20
24.976598
 30
0.0
 11
-37.507099
 21
25.738653
 31
0.0
  0
LINE
  5
B4
100
AcDbEntity
  8
レイヤー_2
 62
    18
100
AcDbLine
 10
-23.79114
 20
32.512055
 30
0.0
 11
-22.521278
 21
29.80266
 31
0.0
  0
LINE
  5
B3
100
AcDbEntity
  8
レイヤー_2
 62
    18
100
AcDbLine
 10
-22.182625
 20
29.125354
 30
0.0
 11
-22.606028
 21
30.056736
 31
0.0
  0
LINE
  5
B2
100
AcDbEntity
  8
レイヤー_2
 62
    18
100
AcDbLine
 10
-9.990432
 20
38.946632
 30
0.0
 11
-8.72057
 21
36.237237
 31
0.0
  0
LINE
  5
B1
100
AcDbEntity
  8
レイヤー_2
 62
    18
100
AcDbLine
 10
-8.381917
 20
35.559931
 30
0.0
 11
-8.80532
 21
36.491313
 31
0.0
  0
LINE
  5
B0
100
AcDbEntity
  8
レイヤー_2
 62
    18
100
AcDbLine
 10
-37.168791
 20
25.484577
 30
0.0
 11
-37.42235
 21
25.907979
 31
0.0
  0
LINE
  5
AF
100
AcDbEntity
  8
レイヤー_2
 62
    18
100
AcDbLine
 10
-37.42235
 20
25.907979
 30
0.0
 11
-37.507099
 21
26.162055
 31
0.0
  0
LINE
  5
AE
100
AcDbEntity
  8
レイヤー_2
 62
    18
100
AcDbLine
 10
-37.507099
 20
26.162055
 30
0.0
 11
-37.42235
 21
25.907979
 31
0.0
  0
LINE
  5
AD
100
AcDbEntity
  8
レイヤー_2
 62
    18
100
AcDbLine
 10
-37.42235
 20
25.907979
 30
0.0
 11
-37.168791
 21
25.484577
 31
0.0
  0
LINE
  5
AC
100
AcDbEntity
  8
レイヤー_2
 62
    18
100
AcDbLine
 10
-36.829793
 20
24.722694
 30
0.0
 11
-37.168791
 21
25.484577
 31
0.0
  0
LINE
  5
AB
100
AcDbEntity
  8
レイヤー_2
 62
    18
100
AcDbLine
 10
-37.168791
 20
25.484577
 30
0.0
 11
-36.829793
 21
24.722694
 31
0.0
  0
LINE
  5
AA
100
AcDbEntity
  8
レイヤー_2
 62
    18
100
AcDbLine
 10
-24.891848
 20
28.532625
 30
0.0
 11
-24.891848
 21
28.617375
 31
0.0
  0
LINE
  5
A9
100
AcDbEntity
  8
レイヤー_2
 62
    18
100
AcDbLine
 10
-24.891848
 20
28.617375
 30
0.0
 11
-25.061347
 21
28.871278
 31
0.0
  0
LINE
  5
A8
100
AcDbEntity
  8
レイヤー_2
 62
    18
100
AcDbLine
 10
-25.061347
 20
28.871278
 30
0.0
 11
-25.230501
 21
29.125354
 31
0.0
  0
LINE
  5
A7
100
AcDbEntity
  8
レイヤー_2
 62
    18
100
AcDbLine
 10
-25.230501
 20
29.125354
 30
0.0
 11
-25.4
 21
29.548584
 31
0.0
  0
LINE
  5
A6
100
AcDbEntity
  8
レイヤー_2
 62
    18
100
AcDbLine
 10
-25.4
 20
29.548584
 30
0.0
 11
-25.569154
 21
29.887237
 31
0.0
  0
LINE
  5
A5
100
AcDbEntity
  8
レイヤー_2
 62
    18
100
AcDbLine
 10
-25.569154
 20
29.887237
 30
0.0
 11
-25.738653
 21
30.226062
 31
0.0
  0
LINE
  5
A4
100
AcDbEntity
  8
レイヤー_2
 62
    18
100
AcDbLine
 10
-25.738653
 20
30.226062
 30
0.0
 11
-25.823402
 21
30.564715
 31
0.0
  0
LINE
  5
A3
100
AcDbEntity
  8
レイヤー_2
 62
    18
100
AcDbLine
 10
-25.823402
 20
30.564715
 30
0.0
 11
-25.907807
 21
30.734041
 31
0.0
  0
LINE
  5
A2
100
AcDbEntity
  8
レイヤー_2
 62
    18
100
AcDbLine
 10
-25.907807
 20
30.734041
 30
0.0
 11
-25.907807
 21
30.818618
 31
0.0
  0
LINE
  5
A1
100
AcDbEntity
  8
レイヤー_2
 62
    18
100
AcDbLine
 10
-25.907807
 20
30.818618
 30
0.0
 11
-25.907807
 21
30.734041
 31
0.0
  0
LINE
  5
A0
100
AcDbEntity
  8
レイヤー_2
 62
    18
100
AcDbLine
 10
-25.907807
 20
30.734041
 30
0.0
 11
-25.823402
 21
30.564715
 31
0.0
  0
LINE
  5
9F
100
AcDbEntity
  8
レイヤー_2
 62
    18
100
AcDbLine
 10
-25.823402
 20
30.564715
 30
0.0
 11
-25.738653
 21
30.226062
 31
0.0
  0
LINE
  5
9E
100
AcDbEntity
  8
レイヤー_2
 62
    18
100
AcDbLine
 10
-25.738653
 20
30.226062
 30
0.0
 11
-25.653904
 21
29.887237
 31
0.0
  0
LINE
  5
9D
100
AcDbEntity
  8
レイヤー_2
 62
    18
100
AcDbLine
 10
-23.621986
 20
25.992729
 30
0.0
 11
-26.331209
 21
24.722694
 31
0.0
  0
LINE
  5
9C
100
AcDbEntity
  8
レイヤー_2
 62
    18
100
AcDbLine
 10
-29.040432
 20
23.45266
 30
0.0
 11
-29.29468
 21
23.283333
 31
0.0
  0
LINE
  5
9B
100
AcDbEntity
  8
レイヤー_2
 62
    18
100
AcDbLine
 10
-29.29468
 20
23.283333
 30
0.0
 11
-28.363127
 21
23.706736
 31
0.0
  0
LINE
  5
9A
100
AcDbEntity
  8
レイヤー_2
 62
    18
100
AcDbLine
 10
-36.237237
 20
23.283333
 30
0.0
 11
-33.189361
 21
23.283333
 31
0.0
  0
LINE
  5
99
100
AcDbEntity
  8
レイヤー_2
 62
    18
100
AcDbLine
 10
-30.22589
 20
23.283333
 30
0.0
 11
-29.29468
 21
23.283333
 31
0.0
  0
LINE
  5
98
100
AcDbEntity
  8
レイヤー_2
 62
    18
100
AcDbLine
 10
-29.29468
 20
23.283333
 30
0.0
 11
-30.310639
 21
23.283333
 31
0.0
  0
LINE
  5
97
100
AcDbEntity
  8
レイヤー_2
 62
    18
100
AcDbLine
 10
-36.914543
 20
24.722694
 30
0.0
 11
-37.507099
 21
26.077306
 31
0.0
  0
LINE
  5
96
100
AcDbEntity
  8
レイヤー_2
 62
    18
100
AcDbLine
 10
-37.507099
 20
26.077306
 30
0.0
 11
-37.084041
 21
25.230674
 31
0.0
  0
LINE
  5
95
100
AcDbEntity
  8
レイヤー_2
 62
    18
100
AcDbLine
 10
-29.29468
 20
32.681382
 30
0.0
 11
-29.29468
 21
27.685993
 31
0.0
  0
LINE
  5
94
100
AcDbEntity
  8
レイヤー_2
 62
    18
100
AcDbLine
 10
-29.29468
 20
26.754612
 30
0.0
 11
-29.29468
 21
25.738653
 31
0.0
  0
LINE
  5
93
100
AcDbEntity
  8
レイヤー_2
 62
    18
100
AcDbLine
 10
-29.29468
 20
24.722694
 30
0.0
 11
-29.29468
 21
19.727306
 31
0.0
  0
LINE
  5
92
100
AcDbEntity
  8
レイヤー_2
 62
    18
100
AcDbLine
 10
-29.29468
 20
18.711347
 30
0.0
 11
-29.29468
 21
17.695388
 31
0.0
  0
LINE
  5
91
100
AcDbEntity
  8
レイヤー_2
 62
    18
100
AcDbLine
 10
-29.29468
 20
16.764007
 30
0.0
 11
-29.29468
 21
11.684041
 31
0.0
  0
LINE
  5
90
100
AcDbEntity
  8
レイヤー_2
 62
    18
100
AcDbLine
 10
-29.29468
 20
10.75266
 30
0.0
 11
-29.29468
 21
9.736701
 31
0.0
  0
LINE
  5
8F
100
AcDbEntity
  8
レイヤー_2
 62
    18
100
AcDbLine
 10
-29.29468
 20
8.72057
 30
0.0
 11
-29.29468
 21
3.725354
 31
0.0
  0
LINE
  5
8E
100
AcDbEntity
  8
レイヤー_2
 62
    18
100
AcDbLine
 10
-29.29468
 20
2.709395
 30
0.0
 11
-29.29468
 21
1.693264
 31
0.0
  0
LINE
  5
8D
100
AcDbEntity
  8
レイヤー_2
 62
    18
100
AcDbLine
 10
-29.29468
 20
0.762055
 30
0.0
 11
-29.29468
 21
-4.318083
 31
0.0
  0
LINE
  5
8C
100
AcDbEntity
  8
レイヤー_2
 62
    18
100
AcDbLine
 10
-29.29468
 20
-5.249292
 30
0.0
 11
-29.29468
 21
-6.265251
 31
0.0
  0
LINE
  5
8B
100
AcDbEntity
  8
レイヤー_2
 62
    18
100
AcDbLine
 10
-29.29468
 20
-7.281209
 30
0.0
 11
-29.29468
 21
-12.276598
 31
0.0
  0
LINE
  5
8A
100
AcDbEntity
  8
レイヤー_2
 62
    18
100
AcDbLine
 10
-29.29468
 20
-13.292556
 30
0.0
 11
-29.29468
 21
-14.308515
 31
0.0
  0
LINE
  5
89
100
AcDbEntity
  8
レイヤー_2
 62
    18
100
AcDbLine
 10
-29.29468
 20
-15.240069
 30
0.0
 11
-29.29468
 21
-20.23563
 31
0.0
  0
LINE
  5
88
100
AcDbEntity
  8
レイヤー_2
 62
    18
100
AcDbLine
 10
-29.29468
 20
-21.251244
 30
0.0
 11
-29.29468
 21
-22.267547
 31
0.0
  0
LINE
  5
87
100
AcDbEntity
  8
レイヤー_2
 62
    18
100
AcDbLine
 10
-29.29468
 20
-23.283161
 30
0.0
 11
-29.29468
 21
-28.27855
 31
0.0
  0
LINE
  5
86
100
AcDbEntity
  8
レイヤー_2
 62
    18
100
AcDbLine
 10
-29.29468
 20
-29.294853
 30
0.0
 11
-29.29468
 21
-30.310811
 31
0.0
  0
LINE
  5
85
100
AcDbEntity
  8
レイヤー_2
 62
    18
100
AcDbLine
 10
-29.29468
 20
-31.241676
 30
0.0
 11
-29.29468
 21
-35.729258
 31
0.0
  0
LINE
  5
84
100
AcDbEntity
  8
レイヤー_2
 62
    18
100
AcDbLine
 10
-29.29468
 20
-35.729258
 30
0.0
 11
-29.29468
 21
-34.713643
 31
0.0
  0
LINE
  5
83
100
AcDbEntity
  8
レイヤー_2
 62
    18
100
AcDbLine
 10
3.89468
 20
6.942729
 30
0.0
 11
1.693264
 21
10.66791
 31
0.0
  0
LINE
  5
82
100
AcDbEntity
  8
レイヤー_2
 62
    18
100
AcDbLine
 10
1.693264
 20
10.66791
 30
0.0
 11
2.201416
 21
9.821278
 31
0.0
  0
LINE
  5
81
100
AcDbEntity
  8
レイヤー_2
 62
    18
100
AcDbLine
 10
3.132625
 20
15.493972
 30
0.0
 11
3.132625
 21
61.04468
 31
0.0
  0
LINE
  5
80
100
AcDbEntity
  8
レイヤー_2
 62
    18
100
AcDbLine
 10
22.465123
 20
-4.318083
 30
0.0
 11
21.279666
 21
-3.302124
 31
0.0
  0
LINE
  5
7F
100
AcDbEntity
  8
レイヤー_2
 62
    18
100
AcDbLine
 10
23.734985
 20
-5.418791
 30
0.0
 11
22.465123
 21
-4.318083
 31
0.0
  0
LINE
  5
7E
100
AcDbEntity
  8
レイヤー_2
 62
    18
100
AcDbLine
 10
23.819735
 20
8.128014
 30
0.0
 11
4.741485
 21
8.128014
 31
0.0
  0
LINE
  5
7D
100
AcDbEntity
  8
レイヤー_2
 62
    18
100
AcDbLine
 10
22.465123
 20
9.482625
 30
0.0
 11
22.465123
 21
-5.587945
 31
0.0
  0
LINE
  5
7C
100
AcDbEntity
  8
レイヤー_2
 62
    18
100
AcDbLine
 10
22.465123
 20
8.128014
 30
0.0
 11
21.194916
 21
9.228722
 31
0.0
  0
LINE
  5
7B
100
AcDbEntity
  8
レイヤー_2
 62
    18
100
AcDbLine
 10
23.650236
 20
7.112055
 30
0.0
 11
22.465123
 21
8.128014
 31
0.0
  0
LINE
  5
7A
100
AcDbEntity
  8
レイヤー_2
 62
    18
100
AcDbLine
 10
33.809823
 20
-4.233333
 30
0.0
 11
33.809823
 21
30.479966
 31
0.0
  0
LINE
  5
79
100
AcDbEntity
  8
レイヤー_2
 62
    18
100
AcDbLine
 10
-29.29468
 20
33.528014
 30
0.0
 11
-29.29468
 21
60.875354
 31
0.0
  0
LINE
  5
78
100
AcDbEntity
  8
レイヤー_2
 62
    18
100
AcDbLine
 10
-47.780374
 20
59.774646
 30
0.0
 11
4.487237
 21
59.774646
 31
0.0
  0
LINE
  5
77
100
AcDbEntity
  8
レイヤー_2
 62
    18
100
AcDbLine
 10
-38.269154
 20
3.132625
 30
0.0
 11
-38.269154
 21
61.04468
 31
0.0
  0
LINE
  5
76
100
AcDbEntity
  8
レイヤー_2
 62
    18
100
AcDbLine
 10
3.302124
 20
6.265251
 30
0.0
 11
3.302124
 21
-8.551416
 31
0.0
  0
LINE
  5
75
100
AcDbEntity
  8
レイヤー_2
 62
    18
100
AcDbLine
 10
-29.29468
 20
59.690069
 30
0.0
 11
-30.395388
 21
58.504612
 31
0.0
  0
LINE
  5
74
100
AcDbEntity
  8
レイヤー_2
 62
    18
100
AcDbLine
 10
-28.193972
 20
60.959931
 30
0.0
 11
-29.29468
 21
59.690069
 31
0.0
  0
LINE
  5
73
100
AcDbEntity
  8
レイヤー_2
 62
    18
100
AcDbLine
 10
3.132625
 20
59.774646
 30
0.0
 11
2.031917
 21
58.504612
 31
0.0
  0
LINE
  5
72
100
AcDbEntity
  8
レイヤー_2
 62
    18
100
AcDbLine
 10
4.233333
 20
60.959931
 30
0.0
 11
3.132625
 21
59.774646
 31
0.0
  0
LINE
  5
71
100
AcDbEntity
  8
レイヤー_2
 62
    18
100
AcDbLine
 10
33.809823
 20
-4.233333
 30
0.0
 11
35.080374
 21
-5.334041
 31
0.0
  0
LINE
  5
70
100
AcDbEntity
  8
レイヤー_2
 62
    18
100
AcDbLine
 10
32.62471
 20
-3.217375
 30
0.0
 11
33.809823
 21
-4.233333
 31
0.0
  0
LINE
  5
6F
100
AcDbEntity
  8
レイヤー_2
 62
    18
100
AcDbLine
 10
46.341013
 20
-5.672694
 30
0.0
 11
46.341013
 21
40.301244
 31
0.0
  0
LINE
  5
6E
100
AcDbEntity
  8
レイヤー_2
 62
    18
100
AcDbLine
 10
46.341013
 20
38.946632
 30
0.0
 11
47.526126
 21
37.845924
 31
0.0
  0
LINE
  5
6D
100
AcDbEntity
  8
レイヤー_2
 62
    18
100
AcDbLine
 10
45.070462
 20
40.04734
 30
0.0
 11
46.341013
 21
38.946632
 31
0.0
  0
LINE
  5
6C
100
AcDbEntity
  8
レイヤー_2
 62
    18
100
AcDbLine
 10
46.341013
 20
-4.318083
 30
0.0
 11
47.526126
 21
-5.334041
 31
0.0
  0
LINE
  5
6B
100
AcDbEntity
  8
レイヤー_2
 62
    18
100
AcDbLine
 10
45.070462
 20
-3.217375
 30
0.0
 11
46.341013
 21
-4.318083
 31
0.0
  0
LINE
  5
6A
100
AcDbEntity
  8
レイヤー_2
 62
    18
100
AcDbLine
 10
-38.269154
 20
59.690069
 30
0.0
 11
-39.369862
 21
58.420034
 31
0.0
  0
LINE
  5
69
100
AcDbEntity
  8
レイヤー_2
 62
    18
100
AcDbLine
 10
-37.253196
 20
60.875354
 30
0.0
 11
-38.269154
 21
59.690069
 31
0.0
  0
LINE
  5
68
100
AcDbEntity
  8
レイヤー_2
 62
    18
100
AcDbLine
 10
33.809823
 20
29.29468
 30
0.0
 11
35.080374
 21
28.278722
 31
0.0
  0
LINE
  5
67
100
AcDbEntity
  8
レイヤー_2
 62
    18
100
AcDbLine
 10
32.709459
 20
30.395388
 30
0.0
 11
33.894572
 21
29.29468
 31
0.0
  0
LINE
  5
66
100
AcDbEntity
  8
レイヤー_2
 62
    18
100
AcDbLine
 10
13.292901
 20
-4.318083
 30
0.0
 11
47.526126
 21
-4.318083
 31
0.0
  0
LINE
  5
65
100
AcDbEntity
  8
レイヤー_2
 62
    18
100
AcDbLine
 10
-16.848584
 20
-4.741485
 30
0.0
 11
-7.19646
 21
-4.741485
 31
0.0
  0
LINE
  5
64
100
AcDbEntity
  8
レイヤー_2
 62
    18
100
AcDbLine
 10
2.286165
 20
-8.466667
 30
0.0
 11
4.402832
 21
-6.011347
 31
0.0
  0
LINE
  5
63
100
AcDbEntity
  8
レイヤー_2
 62
    18
100
AcDbLine
 10
10.24468
 20
-6.688653
 30
0.0
 11
11.937945
 21
-3.89468
 31
0.0
  0
LINE
  5
62
100
AcDbEntity
  8
レイヤー_2
 62
    18
100
AcDbLine
 10
-8.890069
 20
38.946632
 30
0.0
 11
47.780374
 21
38.946632
 31
0.0
  0
LINE
  5
61
100
AcDbEntity
  8
レイヤー_2
 62
    18
100
AcDbLine
 10
-4.063835
 20
29.29468
 30
0.0
 11
35.418682
 21
29.29468
 31
0.0
  0
LINE
  5
60
100
AcDbEntity
  8
レイヤー_2
 62
    18
100
AcDbLine
 10
11.599292
 20
-6.35
 30
0.0
 11
4.148584
 21
6.434577
 31
0.0
  0
POLYLINE
  5
53
100
AcDbEntity
  8
レイヤー_2
 62
    18
100
AcDb2dPolyline
 66
     1
 10
0.0
 20
0.0
 30
0.0
  0
VERTEX
  5
54
100
AcDbEntity
  8
レイヤー_2
 62
    18
100
AcDbVertex
100
AcDb2dVertex
 10
-10.668083
 20
0.846804
 30
0.0
  0
VERTEX
  5
55
100
AcDbEntity
  8
レイヤー_2
 62
    18
100
AcDbVertex
100
AcDb2dVertex
 10
-9.143972
 20
-1.269862
 30
0.0
  0
VERTEX
  5
56
100
AcDbEntity
  8
レイヤー_2
 62
    18
100
AcDbVertex
100
AcDb2dVertex
 10
-7.027306
 20
-3.302124
 30
0.0
  0
VERTEX
  5
57
100
AcDbEntity
  8
レイヤー_2
 62
    18
100
AcDbVertex
100
AcDb2dVertex
 10
-4.656736
 20
-4.995388
 30
0.0
  0
VERTEX
  5
58
100
AcDbEntity
  8
レイヤー_2
 62
    18
100
AcDbVertex
100
AcDb2dVertex
 10
-1.947168
 20
-6.265251
 30
0.0
  0
VERTEX
  5
59
100
AcDbEntity
  8
レイヤー_2
 62
    18
100
AcDbVertex
100
AcDb2dVertex
 10
0.846804
 20
-7.027306
 30
0.0
  0
VERTEX
  5
5A
100
AcDbEntity
  8
レイヤー_2
 62
    18
100
AcDbVertex
100
AcDb2dVertex
 10
3.809931
 20
-7.281209
 30
0.0
  0
VERTEX
  5
5B
100
AcDbEntity
  8
レイヤー_2
 62
    18
100
AcDbVertex
100
AcDb2dVertex
 10
6.688653
 20
-7.027306
 30
0.0
  0
VERTEX
  5
5C
100
AcDbEntity
  8
レイヤー_2
 62
    18
100
AcDbVertex
100
AcDb2dVertex
 10
9.567375
 20
-6.265251
 30
0.0
  0
VERTEX
  5
5D
100
AcDbEntity
  8
レイヤー_2
 62
    18
100
AcDbVertex
100
AcDb2dVertex
 10
12.192193
 20
-4.995388
 30
0.0
  0
VERTEX
  5
5E
100
AcDbEntity
  8
レイヤー_2
 62
    18
100
AcDbVertex
100
AcDb2dVertex
 10
12.361347
 20
-4.910639
 30
0.0
  0
SEQEND
  5
5F
100
AcDbEntity
  8
レイヤー_2
 62
    18
  0
LINE
  5
52
100
AcDbEntity
  8
レイヤー_2
 62
    18
100
AcDbLine
 10
-39.623766
 20
-4.741485
 30
0.0
 11
-17.779793
 21
-4.741485
 31
0.0
  0
MTEXT
  5
51
100
AcDbEntity
  8
レイヤー_2
 62
     7
100
AcDbMText
 10
-47.166113
 20
66.025427
 30
0.0
 40
5.512152
 41
0.0
 71
     1
 72
     2
  1
\fMS PGothic|b0|i0|c128;\H5.5122;\C7;\U+0033\U+0036
  7
STD
210
0.0
220
0.0
230
1.0
 73
     1
 44
1.0
  0
MTEXT
  5
50
100
AcDbEntity
  8
レイヤー_2
 62
     7
100
AcDbMText
 10
-5.309705
 20
5.20197
 30
0.0
 40
5.512152
 41
0.0
 71
     1
 72
     2
  1
\fMS PGothic|b0|i0|c128;\H5.5122;\C7;\U+0033\U+0030\U+00B0
  7
STD
210
0.0
220
0.0
230
1.0
 11
0.76604
 21
-0.64279
 31
0.0
 73
     1
 44
1.0
  0
MTEXT
  5
4F
100
AcDbEntity
  8
レイヤー_2
 62
     7
100
AcDbMText
 10
-18.610406
 20
66.025427
 30
0.0
 40
5.512152
 41
0.0
 71
     1
 72
     2
  1
\fMS PGothic|b0|i0|c128;\H5.5122;\C7;\U+0031\U+0033\U+0030
  7
STD
210
0.0
220
0.0
230
1.0
 73
     1
 44
1.0
  0
MTEXT
  5
4E
100
AcDbEntity
  8
レイヤー_2
 62
     7
100
AcDbMText
 10
39.201397
 20
10.511675
 30
0.0
 40
5.512152
 41
0.0
 71
     1
 72
     2
  1
\fMS PGothic|b0|i0|c128;\H5.5122;\C7;\U+0031\U+0037\U+0033
  7
STD
210
0.0
220
0.0
230
1.0
 11
0.0
 21
1.0
 31
0.0
 73
     1
 44
1.0
  0
MTEXT
  5
4D
100
AcDbEntity
  8
レイヤー_2
 62
     7
100
AcDbMText
 10
16.002124
 20
-1.826762
 30
0.0
 40
5.512152
 41
0.0
 71
     1
 72
     2
  1
\fMS PGothic|b0|i0|c128;\H5.5122;\C7;\U+0035\U+0030
  7
STD
210
0.0
220
0.0
230
1.0
 11
0.0
 21
1.0
 31
0.0
 73
     1
 44
1.0
  0
MTEXT
  5
4C
100
AcDbEntity
  8
レイヤー_2
 62
     7
100
AcDbMText
 10
27.078795
 20
6.918785
 30
0.0
 40
5.512152
 41
0.0
 71
     1
 72
     2
  1
\fMS PGothic|b0|i0|c128;\H5.5122;\C7;\U+0031\U+0033\U+0035
  7
STD
210
0.0
220
0.0
230
1.0
 11
0.0
 21
1.0
 31
0.0
 73
     1
 44
1.0
  0
LINE
  5
4B
100
AcDbEntity
  8
レイヤー_2
 62
     7
100
AcDbLine
 10
-29.29468
 20
-37.765998
 30
0.0
 11
-29.29468
 21
-36.834444
 31
0.0
  0
INSERT
  5
46
100
AcDbEntity
  8
レイヤー_2
 62
     7
100
AcDbBlockReference
  2
AI9-BLK4
 10
-29.29468
 20
-42.083736
 30
0.0
  0
INSERT
  5
2D
100
AcDbEntity
  8
レイヤー_2
 62
     7
100
AcDbBlockReference
  2
AI9-BLK2
 10
-22.842103
 20
-56.593445
 30
0.0
  0
ENDBLK
  5
237
100
AcDbEntity
  8
レイヤー_2
100
AcDbBlockEnd
  0
BLOCK
  5
2E
100
AcDbEntity
  8
レイヤー_2
 62
     7
100
AcDbBlockBegin
  2
AI9-BLK2
 70
     0
 10
0.0
 20
0.0
 30
0.0
  3
AI9-BLK2
  1

  0
LINE
  5
43
100
AcDbEntity
  8
レイヤー_2
 62
     7
100
AcDbLine
 10
-0.456734
 20
-10.168544
 30
0.0
 11
-10.869707
 21
0.244257
 31
0.0
  0
LINE
  5
42
100
AcDbEntity
  8
レイヤー_2
 62
     7
100
AcDbLine
 10
-11.256074
 20
-0.940167
 30
0.0
 11
-7.870235
 21
-0.940167
 31
0.0
  0
LINE
  5
41
100
AcDbEntity
  8
レイヤー_2
 62
     7
100
AcDbLine
 10
-5.157394
 20
-7.339087
 30
0.0
 11
-1.772588
 21
-7.339087
 31
0.0
  0
MTEXT
  5
40
100
AcDbEntity
  8
レイヤー_2
 62
     7
100
AcDbMText
 10
0.066921
 20
-4.515044
 30
0.0
 40
4.724702
 41
0.0
 71
     1
 72
     2
  1
\fMS PGothic|b0|i0|c128;\H4.7247;\C7;\U+03C6\U+0033\U+0035
  7
STD
210
0.0
220
0.0
230
1.0
 73
     1
 44
1.0
  0
CIRCLE
  5
3F
100
AcDbEntity
  8
レイヤー_2
 62
     7
100
AcDbCircle
 10
-6.458348
 20
-4.047298
 30
0.0
 40
4.526253
  0
LINE
  5
3E
100
AcDbEntity
  8
レイヤー_2
 62
     7
100
AcDbLine
 10
-13.521225
 20
-4.059012
 30
0.0
 11
-9.125972
 21
-4.051432
 31
0.0
  0
LINE
  5
3D
100
AcDbEntity
  8
レイヤー_2
 62
     7
100
AcDbLine
 10
-8.254363
 20
-4.050054
 30
0.0
 11
-7.344168
 21
-4.048676
 31
0.0
  0
LINE
  5
3C
100
AcDbEntity
  8
レイヤー_2
 62
     7
100
AcDbLine
 10
-6.472559
 20
-4.047298
 30
0.0
 11
-2.077995
 21
-4.039719
 31
0.0
  0
LINE
  5
3B
100
AcDbEntity
  8
レイヤー_2
 62
     7
100
AcDbLine
 10
-1.206386
 20
-4.038341
 30
0.0
 11
-0.335466
 21
-4.036274
 31
0.0
  0
LINE
  5
3A
100
AcDbEntity
  8
レイヤー_2
 62
     7
100
AcDbLine
 10
0.258468
 20
-4.035585
 30
0.0
 11
-0.612452
 21
-4.036963
 31
0.0
  0
LINE
  5
39
100
AcDbEntity
  8
レイヤー_2
 62
     7
100
AcDbLine
 10
-6.447755
 20
2.51492
 30
0.0
 11
-6.462224
 21
-1.393886
 31
0.0
  0
LINE
  5
38
100
AcDbEntity
  8
レイヤー_2
 62
     7
100
AcDbLine
 10
-6.46498
 20
-2.265495
 30
0.0
 11
-6.469114
 21
-3.175689
 31
0.0
  0
LINE
  5
37
100
AcDbEntity
  8
レイヤー_2
 62
     7
100
AcDbLine
 10
-6.46498
 20
-9.263173
 30
0.0
 11
-6.469114
 21
-10.173367
 31
0.0
  0
LINE
  5
36
100
AcDbEntity
  8
レイヤー_2
 62
     7
100
AcDbLine
 10
-6.472559
 20
-4.047298
 30
0.0
 11
-6.488407
 21
-8.441862
 31
0.0
  0
INSERT
  5
31
100
AcDbEntity
  8
レイヤー_2
 62
     7
100
AcDbBlockReference
  2
AI9-BLK3
 10
-6.452578
 20
6.899837
 30
0.0
  0
LINE
  5
2F
100
AcDbEntity
  8
レイヤー_2
 62
     7
100
AcDbLine
 10
-0.498075
 20
-10.201617
 30
0.0
 11
13.436648
 21
-10.201617
 31
0.0
  0
ENDBLK
  5
44
100
AcDbEntity
  8
レイヤー_2
100
AcDbBlockEnd
  0
BLOCK
  5
32
100
AcDbEntity
  8
レイヤー_2
 62
     7
100
AcDbBlockBegin
  2
AI9-BLK3
 70
     0
 10
0.0
 20
0.0
 30
0.0
  3
AI9-BLK3
  1

  0
LINE
  5
34
100
AcDbEntity
  8
レイヤー_2
 62
     7
100
AcDbLine
 10
0.0
 20
-3.30178
 30
0.0
 11
0.0
 21
-2.370226
 31
0.0
  0
LINE
  5
33
100
AcDbEntity
  8
レイヤー_2
 62
     7
100
AcDbLine
 10
0.0
 20
-1.439361
 30
0.0
 11
0.0
 21
3.30178
 31
0.0
  0
ENDBLK
  5
35
100
AcDbEntity
  8
レイヤー_2
100
AcDbBlockEnd
  0
BLOCK
  5
47
100
AcDbEntity
  8
レイヤー_2
 62
     7
100
AcDbBlockBegin
  2
AI9-BLK4
 70
     0
 10
0.0
 20
0.0
 30
0.0
  3
AI9-BLK4
  1

  0
LINE
  5
49
100
AcDbEntity
  8
レイヤー_2
 62
     7
100
AcDbLine
 10
0.0
 20
-3.302124
 30
0.0
 11
0.0
 21
-2.37057
 31
0.0
  0
LINE
  5
48
100
AcDbEntity
  8
レイヤー_2
 62
     7
100
AcDbLine
 10
0.0
 20
-1.439016
 30
0.0
 11
0.0
 21
3.302124
 31
0.0
  0
ENDBLK
  5
4A
100
AcDbEntity
  8
レイヤー_2
100
AcDbBlockEnd
  0
BLOCK
  5
23A
100
AcDbEntity
  8
レイヤー_2
 62
     7
100
AcDbBlockBegin
  2
AI9-BLK5
 70
     0
 10
0.0
 20
0.0
 30
0.0
  3
AI9-BLK5
  1

  0
LINE
  5
824
100
AcDbEntity
  8
レイヤー_2
 62
    18
100
AcDbLine
 10
6.301941
 20
17.756711
 30
0.0
 11
6.301941
 21
18.095364
 31
0.0
  0
LINE
  5
823
100
AcDbEntity
  8
レイヤー_2
 62
    18
100
AcDbLine
 10
1.64555
 20
18.095364
 30
0.0
 11
1.64555
 21
17.756711
 31
0.0
  0
LINE
  5
822
100
AcDbEntity
  8
レイヤー_2
 62
    18
100
AcDbLine
 10
3.677467
 20
3.278697
 30
0.0
 11
3.592718
 21
3.61735
 31
0.0
  0
LINE
  5
821
100
AcDbEntity
  8
レイヤー_2
 62
    18
100
AcDbLine
 10
3.592718
 20
2.77089
 30
0.0
 11
3.677467
 21
3.278697
 31
0.0
  0
POLYLINE
  5
81C
100
AcDbEntity
  8
レイヤー_2
 62
    18
100
AcDb2dPolyline
 66
     1
 10
0.0
 20
0.0
 30
0.0
  0
VERTEX
  5
81D
100
AcDbEntity
  8
レイヤー_2
 62
    18
100
AcDbVertex
100
AcDb2dVertex
 10
0.798745
 20
3.61735
 30
0.0
  0
VERTEX
  5
81E
100
AcDbEntity
  8
レイヤー_2
 62
    18
100
AcDbVertex
100
AcDb2dVertex
 10
0.713996
 20
3.278697
 30
0.0
  0
VERTEX
  5
81F
100
AcDbEntity
  8
レイヤー_2
 62
    18
100
AcDbVertex
100
AcDb2dVertex
 10
0.798745
 20
2.77089
 30
0.0
  0
SEQEND
  5
820
100
AcDbEntity
  8
レイヤー_2
 62
    18
  0
LINE
  5
81B
100
AcDbEntity
  8
レイヤー_2
 62
    18
100
AcDbLine
 10
3.677467
 20
-1.12379
 30
0.0
 11
3.677467
 21
0.061323
 31
0.0
  0
LINE
  5
81A
100
AcDbEntity
  8
レイヤー_2
 62
    18
100
AcDbLine
 10
0.713996
 20
0.061323
 30
0.0
 11
0.713996
 21
-1.12379
 31
0.0
  0
POLYLINE
  5
815
100
AcDbEntity
  8
レイヤー_2
 62
    18
100
AcDb2dPolyline
 66
     1
 10
0.0
 20
0.0
 30
0.0
  0
VERTEX
  5
816
100
AcDbEntity
  8
レイヤー_2
 62
    18
100
AcDbVertex
100
AcDb2dVertex
 10
3.677467
 20
0.061323
 30
0.0
  0
VERTEX
  5
817
100
AcDbEntity
  8
レイヤー_2
 62
    18
100
AcDbVertex
100
AcDb2dVertex
 10
3.592718
 20
0.484725
 30
0.0
  0
VERTEX
  5
818
100
AcDbEntity
  8
レイヤー_2
 62
    18
100
AcDbVertex
100
AcDb2dVertex
 10
3.592718
 20
0.569474
 30
0.0
  0
SEQEND
  5
819
100
AcDbEntity
  8
レイヤー_2
 62
    18
  0
POLYLINE
  5
810
100
AcDbEntity
  8
レイヤー_2
 62
    18
100
AcDb2dPolyline
 66
     1
 10
0.0
 20
0.0
 30
0.0
  0
VERTEX
  5
811
100
AcDbEntity
  8
レイヤー_2
 62
    18
100
AcDbVertex
100
AcDb2dVertex
 10
0.798745
 20
0.569474
 30
0.0
  0
VERTEX
  5
812
100
AcDbEntity
  8
レイヤー_2
 62
    18
100
AcDbVertex
100
AcDb2dVertex
 10
0.798745
 20
0.484725
 30
0.0
  0
VERTEX
  5
813
100
AcDbEntity
  8
レイヤー_2
 62
    18
100
AcDbVertex
100
AcDb2dVertex
 10
0.713996
 20
0.061323
 30
0.0
  0
SEQEND
  5
814
100
AcDbEntity
  8
レイヤー_2
 62
    18
  0
LINE
  5
80F
100
AcDbEntity
  8
レイヤー_2
 62
    18
100
AcDbLine
 10
3.592718
 20
3.61735
 30
0.0
 11
3.507968
 21
3.7021
 31
0.0
  0
LINE
  5
80E
100
AcDbEntity
  8
レイヤー_2
 62
    18
100
AcDbLine
 10
0.883495
 20
3.7021
 30
0.0
 11
0.798745
 21
3.61735
 31
0.0
  0
LINE
  5
80D
100
AcDbEntity
  8
レイヤー_2
 62
    18
100
AcDbLine
 10
3.592718
 20
3.7021
 30
0.0
 11
3.592718
 21
4.464155
 31
0.0
  0
LINE
  5
80C
100
AcDbEntity
  8
レイヤー_2
 62
    18
100
AcDbLine
 10
0.798745
 20
4.464155
 30
0.0
 11
0.798745
 21
3.7021
 31
0.0
  0
LINE
  5
80B
100
AcDbEntity
  8
レイヤー_2
 62
    18
100
AcDbLine
 10
3.423219
 20
-24.068298
 30
0.0
 11
3.423219
 21
-6.203928
 31
0.0
  0
LINE
  5
80A
100
AcDbEntity
  8
レイヤー_2
 62
    18
100
AcDbLine
 10
3.423219
 20
-4.087261
 30
0.0
 11
3.423219
 21
-1.12379
 31
0.0
  0
LINE
  5
809
100
AcDbEntity
  8
レイヤー_2
 62
    18
100
AcDbLine
 10
0.968244
 20
-1.12379
 30
0.0
 11
0.968244
 21
-4.087261
 31
0.0
  0
LINE
  5
808
100
AcDbEntity
  8
レイヤー_2
 62
    18
100
AcDbLine
 10
0.968244
 20
-6.203928
 30
0.0
 11
0.968244
 21
-24.830353
 31
0.0
  0
LINE
  5
807
100
AcDbEntity
  8
レイヤー_2
 62
    18
100
AcDbLine
 10
7.318244
 20
3.278697
 30
0.0
 11
7.233495
 21
3.61735
 31
0.0
  0
POLYLINE
  5
802
100
AcDbEntity
  8
レイヤー_2
 62
    18
100
AcDb2dPolyline
 66
     1
 10
0.0
 20
0.0
 30
0.0
  0
VERTEX
  5
803
100
AcDbEntity
  8
レイヤー_2
 62
    18
100
AcDbVertex
100
AcDb2dVertex
 10
7.148745
 20
2.77089
 30
0.0
  0
VERTEX
  5
804
100
AcDbEntity
  8
レイヤー_2
 62
    18
100
AcDbVertex
100
AcDb2dVertex
 10
7.233495
 20
2.77089
 30
0.0
  0
VERTEX
  5
805
100
AcDbEntity
  8
レイヤー_2
 62
    18
100
AcDbVertex
100
AcDb2dVertex
 10
7.318244
 20
3.278697
 30
0.0
  0
SEQEND
  5
806
100
AcDbEntity
  8
レイヤー_2
 62
    18
  0
POLYLINE
  5
7FD
100
AcDbEntity
  8
レイヤー_2
 62
    18
100
AcDb2dPolyline
 66
     1
 10
0.0
 20
0.0
 30
0.0
  0
VERTEX
  5
7FE
100
AcDbEntity
  8
レイヤー_2
 62
    18
100
AcDbVertex
100
AcDb2dVertex
 10
4.354773
 20
3.61735
 30
0.0
  0
VERTEX
  5
7FF
100
AcDbEntity
  8
レイヤー_2
 62
    18
100
AcDbVertex
100
AcDb2dVertex
 10
4.270024
 20
3.278697
 30
0.0
  0
VERTEX
  5
800
100
AcDbEntity
  8
レイヤー_2
 62
    18
100
AcDbVertex
100
AcDb2dVertex
 10
4.439522
 20
2.77089
 30
0.0
  0
SEQEND
  5
801
100
AcDbEntity
  8
レイヤー_2
 62
    18
  0
POLYLINE
  5
7F8
100
AcDbEntity
  8
レイヤー_2
 62
    18
100
AcDb2dPolyline
 66
     1
 10
0.0
 20
0.0
 30
0.0
  0
VERTEX
  5
7F9
100
AcDbEntity
  8
レイヤー_2
 62
    18
100
AcDbVertex
100
AcDb2dVertex
 10
7.318244
 20
0.061323
 30
0.0
  0
VERTEX
  5
7FA
100
AcDbEntity
  8
レイヤー_2
 62
    18
100
AcDbVertex
100
AcDb2dVertex
 10
7.233495
 20
0.484725
 30
0.0
  0
VERTEX
  5
7FB
100
AcDbEntity
  8
レイヤー_2
 62
    18
100
AcDbVertex
100
AcDb2dVertex
 10
7.148745
 20
0.569474
 30
0.0
  0
SEQEND
  5
7FC
100
AcDbEntity
  8
レイヤー_2
 62
    18
  0
POLYLINE
  5
7F3
100
AcDbEntity
  8
レイヤー_2
 62
    18
100
AcDb2dPolyline
 66
     1
 10
0.0
 20
0.0
 30
0.0
  0
VERTEX
  5
7F4
100
AcDbEntity
  8
レイヤー_2
 62
    18
100
AcDbVertex
100
AcDb2dVertex
 10
4.439522
 20
0.569474
 30
0.0
  0
VERTEX
  5
7F5
100
AcDbEntity
  8
レイヤー_2
 62
    18
100
AcDbVertex
100
AcDb2dVertex
 10
4.439522
 20
0.484725
 30
0.0
  0
VERTEX
  5
7F6
100
AcDbEntity
  8
レイヤー_2
 62
    18
100
AcDbVertex
100
AcDb2dVertex
 10
4.270024
 20
0.061323
 30
0.0
  0
SEQEND
  5
7F7
100
AcDbEntity
  8
レイヤー_2
 62
    18
  0
LINE
  5
7F2
100
AcDbEntity
  8
レイヤー_2
 62
    18
100
AcDbLine
 10
7.318244
 20
-1.12379
 30
0.0
 11
7.318244
 21
0.061323
 31
0.0
  0
LINE
  5
7F1
100
AcDbEntity
  8
レイヤー_2
 62
    18
100
AcDbLine
 10
4.270024
 20
0.061323
 30
0.0
 11
4.270024
 21
-1.12379
 31
0.0
  0
LINE
  5
7F0
100
AcDbEntity
  8
レイヤー_2
 62
    18
100
AcDbLine
 10
7.233495
 20
3.61735
 30
0.0
 11
7.148745
 21
3.7021
 31
0.0
  0
POLYLINE
  5
7EB
100
AcDbEntity
  8
レイヤー_2
 62
    18
100
AcDb2dPolyline
 66
     1
 10
0.0
 20
0.0
 30
0.0
  0
VERTEX
  5
7EC
100
AcDbEntity
  8
レイヤー_2
 62
    18
100
AcDbVertex
100
AcDb2dVertex
 10
4.524272
 20
3.7021
 30
0.0
  0
VERTEX
  5
7ED
100
AcDbEntity
  8
レイヤー_2
 62
    18
100
AcDbVertex
100
AcDb2dVertex
 10
4.439522
 20
3.61735
 30
0.0
  0
VERTEX
  5
7EE
100
AcDbEntity
  8
レイヤー_2
 62
    18
100
AcDbVertex
100
AcDb2dVertex
 10
4.354773
 20
3.61735
 30
0.0
  0
SEQEND
  5
7EF
100
AcDbEntity
  8
レイヤー_2
 62
    18
  0
LINE
  5
7EA
100
AcDbEntity
  8
レイヤー_2
 62
    18
100
AcDbLine
 10
7.148745
 20
3.7021
 30
0.0
 11
7.148745
 21
4.464155
 31
0.0
  0
LINE
  5
7E9
100
AcDbEntity
  8
レイヤー_2
 62
    18
100
AcDbLine
 10
4.439522
 20
4.464155
 30
0.0
 11
4.439522
 21
3.7021
 31
0.0
  0
LINE
  5
7E8
100
AcDbEntity
  8
レイヤー_2
 62
    18
100
AcDbLine
 10
7.063996
 20
-24.999852
 30
0.0
 11
7.063996
 21
-4.849316
 31
0.0
  0
LINE
  5
7E7
100
AcDbEntity
  8
レイヤー_2
 62
    18
100
AcDbLine
 10
7.063996
 20
-4.087261
 30
0.0
 11
7.063996
 21
-1.12379
 31
0.0
  0
LINE
  5
7E6
100
AcDbEntity
  8
レイヤー_2
 62
    18
100
AcDbLine
 10
4.524272
 20
-1.12379
 30
0.0
 11
4.524272
 21
-4.087261
 31
0.0
  0
LINE
  5
7E5
100
AcDbEntity
  8
レイヤー_2
 62
    18
100
AcDbLine
 10
4.524272
 20
-6.119179
 30
0.0
 11
4.524272
 21
-25.2541
 31
0.0
  0
LINE
  5
7E4
100
AcDbEntity
  8
レイヤー_2
 62
    18
100
AcDbLine
 10
7.656552
 20
-7.304636
 30
0.0
 11
7.99555
 21
-6.62733
 31
0.0
  0
LINE
  5
7E3
100
AcDbEntity
  8
レイヤー_2
 62
    18
100
AcDbLine
 10
7.99555
 20
-6.62733
 30
0.0
 11
7.99555
 21
-6.288677
 31
0.0
  0
LINE
  5
7E2
100
AcDbEntity
  8
レイヤー_2
 62
    18
100
AcDbLine
 10
7.99555
 20
-6.288677
 30
0.0
 11
7.487743
 21
-6.203928
 31
0.0
  0
LINE
  5
7E1
100
AcDbEntity
  8
レイヤー_2
 62
    18
100
AcDbLine
 10
7.656552
 20
-13.146312
 30
0.0
 11
7.656552
 21
-7.304636
 31
0.0
  0
POLYLINE
  5
7DC
100
AcDbEntity
  8
レイヤー_2
 62
    18
100
AcDb2dPolyline
 66
     1
 10
0.0
 20
0.0
 30
0.0
  0
VERTEX
  5
7DD
100
AcDbEntity
  8
レイヤー_2
 62
    18
100
AcDbVertex
100
AcDb2dVertex
 10
-1.740979
 20
-6.119179
 30
0.0
  0
VERTEX
  5
7DE
100
AcDbEntity
  8
レイヤー_2
 62
    18
100
AcDbVertex
100
AcDb2dVertex
 10
-1.65623
 20
-6.203928
 30
0.0
  0
VERTEX
  5
7DF
100
AcDbEntity
  8
レイヤー_2
 62
    18
100
AcDbVertex
100
AcDb2dVertex
 10
-1.572169
 20
-6.203928
 30
0.0
  0
SEQEND
  5
7E0
100
AcDbEntity
  8
レイヤー_2
 62
    18
  0
POLYLINE
  5
7D7
100
AcDbEntity
  8
レイヤー_2
 62
    18
100
AcDb2dPolyline
 66
     1
 10
0.0
 20
0.0
 30
0.0
  0
VERTEX
  5
7D8
100
AcDbEntity
  8
レイヤー_2
 62
    18
100
AcDbVertex
100
AcDb2dVertex
 10
11.127831
 20
-6.203928
 30
0.0
  0
VERTEX
  5
7D9
100
AcDbEntity
  8
レイヤー_2
 62
    18
100
AcDbVertex
100
AcDb2dVertex
 10
11.21258
 20
-6.203928
 30
0.0
  0
VERTEX
  5
7DA
100
AcDbEntity
  8
レイヤー_2
 62
    18
100
AcDbVertex
100
AcDb2dVertex
 10
11.297329
 20
-6.119179
 30
0.0
  0
SEQEND
  5
7DB
100
AcDbEntity
  8
レイヤー_2
 62
    18
  0
POLYLINE
  5
7D2
100
AcDbEntity
  8
レイヤー_2
 62
    18
100
AcDb2dPolyline
 66
     1
 10
0.0
 20
0.0
 30
0.0
  0
VERTEX
  5
7D3
100
AcDbEntity
  8
レイヤー_2
 62
    18
100
AcDbVertex
100
AcDb2dVertex
 10
-1.572169
 20
-4.425914
 30
0.0
  0
VERTEX
  5
7D4
100
AcDbEntity
  8
レイヤー_2
 62
    18
100
AcDbVertex
100
AcDb2dVertex
 10
-1.65623
 20
-4.510664
 30
0.0
  0
VERTEX
  5
7D5
100
AcDbEntity
  8
レイヤー_2
 62
    18
100
AcDbVertex
100
AcDb2dVertex
 10
-1.740979
 20
-4.595068
 30
0.0
  0
SEQEND
  5
7D6
100
AcDbEntity
  8
レイヤー_2
 62
    18
  0
POLYLINE
  5
7CD
100
AcDbEntity
  8
レイヤー_2
 62
    18
100
AcDb2dPolyline
 66
     1
 10
0.0
 20
0.0
 30
0.0
  0
VERTEX
  5
7CE
100
AcDbEntity
  8
レイヤー_2
 62
    18
100
AcDbVertex
100
AcDb2dVertex
 10
11.297329
 20
-4.595068
 30
0.0
  0
VERTEX
  5
7CF
100
AcDbEntity
  8
レイヤー_2
 62
    18
100
AcDbVertex
100
AcDb2dVertex
 10
11.21258
 20
-4.510664
 30
0.0
  0
VERTEX
  5
7D0
100
AcDbEntity
  8
レイヤー_2
 62
    18
100
AcDbVertex
100
AcDb2dVertex
 10
11.127831
 20
-4.425914
 30
0.0
  0
SEQEND
  5
7D1
100
AcDbEntity
  8
レイヤー_2
 62
    18
  0
LINE
  5
7CC
100
AcDbEntity
  8
レイヤー_2
 62
    18
100
AcDbLine
 10
11.297329
 20
-6.119179
 30
0.0
 11
11.297329
 21
-4.595068
 31
0.0
  0
LINE
  5
7CB
100
AcDbEntity
  8
レイヤー_2
 62
    18
100
AcDbLine
 10
-1.740979
 20
-4.595068
 30
0.0
 11
-1.740979
 21
-6.119179
 31
0.0
  0
POLYLINE
  5
7C6
100
AcDbEntity
  8
レイヤー_2
 62
    18
100
AcDb2dPolyline
 66
     1
 10
0.0
 20
0.0
 30
0.0
  0
VERTEX
  5
7C7
100
AcDbEntity
  8
レイヤー_2
 62
    18
100
AcDbVertex
100
AcDb2dVertex
 10
4.439522
 20
-6.203928
 30
0.0
  0
VERTEX
  5
7C8
100
AcDbEntity
  8
レイヤー_2
 62
    18
100
AcDbVertex
100
AcDb2dVertex
 10
4.524272
 20
-6.203928
 30
0.0
  0
VERTEX
  5
7C9
100
AcDbEntity
  8
レイヤー_2
 62
    18
100
AcDbVertex
100
AcDb2dVertex
 10
4.524272
 20
-6.119179
 30
0.0
  0
SEQEND
  5
7CA
100
AcDbEntity
  8
レイヤー_2
 62
    18
  0
LINE
  5
7C5
100
AcDbEntity
  8
レイヤー_2
 62
    18
100
AcDbLine
 10
4.524272
 20
-6.119179
 30
0.0
 11
4.524272
 21
-4.595068
 31
0.0
  0
POLYLINE
  5
7C0
100
AcDbEntity
  8
レイヤー_2
 62
    18
100
AcDb2dPolyline
 66
     1
 10
0.0
 20
0.0
 30
0.0
  0
VERTEX
  5
7C1
100
AcDbEntity
  8
レイヤー_2
 62
    18
100
AcDbVertex
100
AcDb2dVertex
 10
4.524272
 20
-4.595068
 30
0.0
  0
VERTEX
  5
7C2
100
AcDbEntity
  8
レイヤー_2
 62
    18
100
AcDbVertex
100
AcDb2dVertex
 10
4.524272
 20
-4.510664
 30
0.0
  0
VERTEX
  5
7C3
100
AcDbEntity
  8
レイヤー_2
 62
    18
100
AcDbVertex
100
AcDb2dVertex
 10
4.439522
 20
-4.425914
 30
0.0
  0
SEQEND
  5
7C4
100
AcDbEntity
  8
レイヤー_2
 62
    18
  0
LINE
  5
7BF
100
AcDbEntity
  8
レイヤー_2
 62
    18
100
AcDbLine
 10
9.095913
 20
-4.595068
 30
0.0
 11
9.095913
 21
-4.849316
 31
0.0
  0
POLYLINE
  5
7BA
100
AcDbEntity
  8
レイヤー_2
 62
    18
100
AcDb2dPolyline
 66
     1
 10
0.0
 20
0.0
 30
0.0
  0
VERTEX
  5
7BB
100
AcDbEntity
  8
レイヤー_2
 62
    18
100
AcDbVertex
100
AcDb2dVertex
 10
9.265412
 20
-4.425914
 30
0.0
  0
VERTEX
  5
7BC
100
AcDbEntity
  8
レイヤー_2
 62
    18
100
AcDbVertex
100
AcDb2dVertex
 10
9.180663
 20
-4.510664
 30
0.0
  0
VERTEX
  5
7BD
100
AcDbEntity
  8
レイヤー_2
 62
    18
100
AcDbVertex
100
AcDb2dVertex
 10
9.095913
 20
-4.595068
 30
0.0
  0
SEQEND
  5
7BE
100
AcDbEntity
  8
レイヤー_2
 62
    18
  0
LINE
  5
7B9
100
AcDbEntity
  8
レイヤー_2
 62
    18
100
AcDbLine
 10
8.418608
 20
-4.933721
 30
0.0
 11
8.418608
 21
-6.119179
 31
0.0
  0
POLYLINE
  5
7B4
100
AcDbEntity
  8
レイヤー_2
 62
    18
100
AcDb2dPolyline
 66
     1
 10
0.0
 20
0.0
 30
0.0
  0
VERTEX
  5
7B5
100
AcDbEntity
  8
レイヤー_2
 62
    18
100
AcDbVertex
100
AcDb2dVertex
 10
8.588106
 20
-4.849316
 30
0.0
  0
VERTEX
  5
7B6
100
AcDbEntity
  8
レイヤー_2
 62
    18
100
AcDbVertex
100
AcDb2dVertex
 10
8.503357
 20
-4.849316
 30
0.0
  0
VERTEX
  5
7B7
100
AcDbEntity
  8
レイヤー_2
 62
    18
100
AcDbVertex
100
AcDb2dVertex
 10
8.418608
 20
-4.933721
 30
0.0
  0
SEQEND
  5
7B8
100
AcDbEntity
  8
レイヤー_2
 62
    18
  0
POLYLINE
  5
7AF
100
AcDbEntity
  8
レイヤー_2
 62
    18
100
AcDb2dPolyline
 66
     1
 10
0.0
 20
0.0
 30
0.0
  0
VERTEX
  5
7B0
100
AcDbEntity
  8
レイヤー_2
 62
    18
100
AcDbVertex
100
AcDb2dVertex
 10
8.418608
 20
-6.119179
 30
0.0
  0
VERTEX
  5
7B1
100
AcDbEntity
  8
レイヤー_2
 62
    18
100
AcDbVertex
100
AcDb2dVertex
 10
8.503357
 20
-6.203928
 30
0.0
  0
VERTEX
  5
7B2
100
AcDbEntity
  8
レイヤー_2
 62
    18
100
AcDbVertex
100
AcDb2dVertex
 10
8.588106
 20
-6.203928
 30
0.0
  0
SEQEND
  5
7B3
100
AcDbEntity
  8
レイヤー_2
 62
    18
  0
LINE
  5
7AE
100
AcDbEntity
  8
レイヤー_2
 62
    18
100
AcDbLine
 10
10.789522
 20
-4.425914
 30
0.0
 11
10.789522
 21
-4.087261
 31
0.0
  0
LINE
  5
7AD
100
AcDbEntity
  8
レイヤー_2
 62
    18
100
AcDbLine
 10
-1.233172
 20
-4.087261
 30
0.0
 11
-1.233172
 21
-4.425914
 31
0.0
  0
LINE
  5
7AC
100
AcDbEntity
  8
レイヤー_2
 62
    18
100
AcDbLine
 10
6.979247
 20
18.518766
 30
0.0
 11
6.979247
 21
19.026746
 31
0.0
  0
LINE
  5
7AB
100
AcDbEntity
  8
レイヤー_2
 62
    18
100
AcDbLine
 10
0.968244
 20
19.026746
 30
0.0
 11
0.968244
 21
18.518766
 31
0.0
  0
LINE
  5
7AA
100
AcDbEntity
  8
レイヤー_2
 62
    18
100
AcDbLine
 10
-1.317921
 20
32.658127
 30
0.0
 11
-1.402671
 21
32.150148
 31
0.0
  0
LINE
  5
7A9
100
AcDbEntity
  8
レイヤー_2
 62
    18
100
AcDbLine
 10
9.350161
 20
32.150148
 30
0.0
 11
9.350161
 21
32.658127
 31
0.0
  0
LINE
  5
7A8
100
AcDbEntity
  8
レイヤー_2
 62
    18
100
AcDbLine
 10
-2.164726
 20
32.150148
 30
0.0
 11
-2.164726
 21
4.633309
 31
0.0
  0
LINE
  5
7A7
100
AcDbEntity
  8
レイヤー_2
 62
    18
100
AcDbLine
 10
10.196966
 20
4.633309
 30
0.0
 11
10.196966
 21
32.150148
 31
0.0
  0
POLYLINE
  5
7A2
100
AcDbEntity
  8
レイヤー_2
 62
    18
100
AcDb2dPolyline
 66
     1
 10
0.0
 20
0.0
 30
0.0
  0
VERTEX
  5
7A3
100
AcDbEntity
  8
レイヤー_2
 62
    18
100
AcDbVertex
100
AcDb2dVertex
 10
10.281715
 20
40.108835
 30
0.0
  0
VERTEX
  5
7A4
100
AcDbEntity
  8
レイヤー_2
 62
    18
100
AcDbVertex
100
AcDb2dVertex
 10
4.015776
 20
40.193412
 30
0.0
  0
VERTEX
  5
7A5
100
AcDbEntity
  8
レイヤー_2
 62
    18
100
AcDbVertex
100
AcDb2dVertex
 10
-2.249475
 20
40.108835
 30
0.0
  0
SEQEND
  5
7A6
100
AcDbEntity
  8
レイヤー_2
 62
    18
  0
LINE
  5
7A1
100
AcDbEntity
  8
レイヤー_2
 62
    18
100
AcDbLine
 10
10.281715
 20
32.742704
 30
0.0
 11
10.281715
 21
40.108835
 31
0.0
  0
LINE
  5
7A0
100
AcDbEntity
  8
レイヤー_2
 62
    18
100
AcDbLine
 10
-2.249475
 20
40.108835
 30
0.0
 11
-2.249475
 21
32.742704
 31
0.0
  0
LINE
  5
79F
100
AcDbEntity
  8
レイヤー_2
 62
    18
100
AcDbLine
 10
7.402993
 20
18.772842
 30
0.0
 11
7.402993
 21
19.280821
 31
0.0
  0
LINE
  5
79E
100
AcDbEntity
  8
レイヤー_2
 62
    18
100
AcDbLine
 10
0.544497
 20
19.280821
 30
0.0
 11
0.544497
 21
18.772842
 31
0.0
  0
LINE
  5
79D
100
AcDbEntity
  8
レイヤー_2
 62
    18
100
AcDbLine
 10
0.544497
 20
23.937385
 30
0.0
 11
0.544497
 21
19.280821
 31
0.0
  0
LINE
  5
79C
100
AcDbEntity
  8
レイヤー_2
 62
    18
100
AcDbLine
 10
7.402993
 20
19.280821
 30
0.0
 11
7.402993
 21
23.937385
 31
0.0
  0
POLYLINE
  5
797
100
AcDbEntity
  8
レイヤー_2
 62
    18
100
AcDb2dPolyline
 66
     1
 10
0.0
 20
0.0
 30
0.0
  0
VERTEX
  5
798
100
AcDbEntity
  8
レイヤー_2
 62
    18
100
AcDbVertex
100
AcDb2dVertex
 10
-1.910478
 20
4.633309
 30
0.0
  0
VERTEX
  5
799
100
AcDbEntity
  8
レイヤー_2
 62
    18
100
AcDbVertex
100
AcDb2dVertex
 10
-1.825728
 20
4.548904
 30
0.0
  0
VERTEX
  5
79A
100
AcDbEntity
  8
レイヤー_2
 62
    18
100
AcDbVertex
100
AcDb2dVertex
 10
-1.48742
 20
4.464155
 30
0.0
  0
SEQEND
  5
79B
100
AcDbEntity
  8
レイヤー_2
 62
    18
  0
POLYLINE
  5
792
100
AcDbEntity
  8
レイヤー_2
 62
    18
100
AcDb2dPolyline
 66
     1
 10
0.0
 20
0.0
 30
0.0
  0
VERTEX
  5
793
100
AcDbEntity
  8
レイヤー_2
 62
    18
100
AcDbVertex
100
AcDb2dVertex
 10
9.51966
 20
4.464155
 30
0.0
  0
VERTEX
  5
794
100
AcDbEntity
  8
レイヤー_2
 62
    18
100
AcDbVertex
100
AcDb2dVertex
 10
9.857968
 20
4.548904
 30
0.0
  0
VERTEX
  5
795
100
AcDbEntity
  8
レイヤー_2
 62
    18
100
AcDbVertex
100
AcDb2dVertex
 10
9.942718
 20
4.633309
 30
0.0
  0
SEQEND
  5
796
100
AcDbEntity
  8
レイヤー_2
 62
    18
  0
LINE
  5
791
100
AcDbEntity
  8
レイヤー_2
 62
    18
100
AcDbLine
 10
-1.48742
 20
4.464155
 30
0.0
 11
9.51966
 21
4.464155
 31
0.0
  0
LINE
  5
790
100
AcDbEntity
  8
レイヤー_2
 62
    18
100
AcDbLine
 10
7.318244
 20
-18.819006
 30
0.0
 11
7.318244
 21
-16.194533
 31
0.0
  0
LINE
  5
78F
100
AcDbEntity
  8
レイヤー_2
 62
    18
100
AcDbLine
 10
7.318244
 20
-4.087261
 30
0.0
 11
7.318244
 21
4.464155
 31
0.0
  0
LINE
  5
78E
100
AcDbEntity
  8
レイヤー_2
 62
    18
100
AcDbLine
 10
7.063996
 20
-19.073254
 30
0.0
 11
7.318244
 21
-18.819006
 31
0.0
  0
LINE
  5
78D
100
AcDbEntity
  8
レイヤー_2
 62
    18
100
AcDbLine
 10
4.69377
 20
18.603516
 30
0.0
 11
4.609021
 21
18.603516
 31
0.0
  0
LINE
  5
78C
100
AcDbEntity
  8
レイヤー_2
 62
    18
100
AcDbLine
 10
4.439522
 20
18.603516
 30
0.0
 11
4.100525
 21
18.518766
 31
0.0
  0
LINE
  5
78B
100
AcDbEntity
  8
レイヤー_2
 62
    18
100
AcDbLine
 10
3.846966
 20
18.518766
 30
0.0
 11
3.592718
 21
18.603516
 31
0.0
  0
LINE
  5
78A
100
AcDbEntity
  8
レイヤー_2
 62
    18
100
AcDbLine
 10
3.423219
 20
18.603516
 30
0.0
 11
3.33847
 21
18.603516
 31
0.0
  0
LINE
  5
789
100
AcDbEntity
  8
レイヤー_2
 62
    18
100
AcDbLine
 10
4.86258
 20
16.825502
 30
0.0
 11
4.609021
 21
16.910079
 31
0.0
  0
LINE
  5
788
100
AcDbEntity
  8
レイヤー_2
 62
    18
100
AcDbLine
 10
4.609021
 20
16.910079
 30
0.0
 11
4.354773
 21
16.825502
 31
0.0
  0
LINE
  5
787
100
AcDbEntity
  8
レイヤー_2
 62
    18
100
AcDbLine
 10
4.354773
 20
16.825502
 30
0.0
 11
4.609021
 21
16.656175
 31
0.0
  0
LINE
  5
786
100
AcDbEntity
  8
レイヤー_2
 62
    18
100
AcDbLine
 10
4.609021
 20
16.656175
 30
0.0
 11
4.86258
 21
16.825502
 31
0.0
  0
LINE
  5
785
100
AcDbEntity
  8
レイヤー_2
 62
    18
100
AcDbLine
 10
6.132442
 20
17.418058
 30
0.0
 11
5.878883
 21
17.587385
 31
0.0
  0
LINE
  5
784
100
AcDbEntity
  8
レイヤー_2
 62
    18
100
AcDbLine
 10
5.878883
 20
17.587385
 30
0.0
 11
5.539886
 21
17.418058
 31
0.0
  0
LINE
  5
783
100
AcDbEntity
  8
レイヤー_2
 62
    18
100
AcDbLine
 10
5.539886
 20
17.418058
 30
0.0
 11
5.878883
 21
17.248732
 31
0.0
  0
LINE
  5
782
100
AcDbEntity
  8
レイヤー_2
 62
    18
100
AcDbLine
 10
5.878883
 20
17.248732
 30
0.0
 11
6.132442
 21
17.418058
 31
0.0
  0
LINE
  5
781
100
AcDbEntity
  8
レイヤー_2
 62
    18
100
AcDbLine
 10
5.455136
 20
17.079405
 30
0.0
 11
5.201577
 21
17.248732
 31
0.0
  0
LINE
  5
780
100
AcDbEntity
  8
レイヤー_2
 62
    18
100
AcDbLine
 10
5.201577
 20
17.248732
 30
0.0
 11
4.947329
 21
17.079405
 31
0.0
  0
LINE
  5
77F
100
AcDbEntity
  8
レイヤー_2
 62
    18
100
AcDbLine
 10
4.947329
 20
17.079405
 30
0.0
 11
5.201577
 21
16.994828
 31
0.0
  0
LINE
  5
77E
100
AcDbEntity
  8
レイヤー_2
 62
    18
100
AcDbLine
 10
5.201577
 20
16.994828
 30
0.0
 11
5.455136
 21
17.079405
 31
0.0
  0
LINE
  5
77D
100
AcDbEntity
  8
レイヤー_2
 62
    18
100
AcDbLine
 10
4.270024
 20
16.825502
 30
0.0
 11
4.015776
 21
16.910079
 31
0.0
  0
LINE
  5
77C
100
AcDbEntity
  8
レイヤー_2
 62
    18
100
AcDbLine
 10
4.015776
 20
16.910079
 30
0.0
 11
3.762217
 21
16.825502
 31
0.0
  0
LINE
  5
77B
100
AcDbEntity
  8
レイヤー_2
 62
    18
100
AcDbLine
 10
3.762217
 20
16.825502
 30
0.0
 11
4.015776
 21
16.656175
 31
0.0
  0
LINE
  5
77A
100
AcDbEntity
  8
レイヤー_2
 62
    18
100
AcDbLine
 10
4.015776
 20
16.656175
 30
0.0
 11
4.270024
 21
16.825502
 31
0.0
  0
LINE
  5
779
100
AcDbEntity
  8
レイヤー_2
 62
    18
100
AcDbLine
 10
4.86258
 20
17.079405
 30
0.0
 11
4.609021
 21
17.248732
 31
0.0
  0
LINE
  5
778
100
AcDbEntity
  8
レイヤー_2
 62
    18
100
AcDbLine
 10
4.609021
 20
17.248732
 30
0.0
 11
4.354773
 21
17.079405
 31
0.0
  0
LINE
  5
777
100
AcDbEntity
  8
レイヤー_2
 62
    18
100
AcDbLine
 10
4.354773
 20
17.079405
 30
0.0
 11
4.609021
 21
16.994828
 31
0.0
  0
LINE
  5
776
100
AcDbEntity
  8
レイヤー_2
 62
    18
100
AcDbLine
 10
4.609021
 20
16.994828
 30
0.0
 11
4.86258
 21
17.079405
 31
0.0
  0
LINE
  5
775
100
AcDbEntity
  8
レイヤー_2
 62
    18
100
AcDbLine
 10
6.132442
 20
17.756711
 30
0.0
 11
5.878883
 21
17.841461
 31
0.0
  0
LINE
  5
774
100
AcDbEntity
  8
レイヤー_2
 62
    18
100
AcDbLine
 10
5.878883
 20
17.841461
 30
0.0
 11
5.539886
 21
17.756711
 31
0.0
  0
LINE
  5
773
100
AcDbEntity
  8
レイヤー_2
 62
    18
100
AcDbLine
 10
5.539886
 20
17.756711
 30
0.0
 11
5.878883
 21
17.587385
 31
0.0
  0
LINE
  5
772
100
AcDbEntity
  8
レイヤー_2
 62
    18
100
AcDbLine
 10
5.878883
 20
17.587385
 30
0.0
 11
6.132442
 21
17.756711
 31
0.0
  0
LINE
  5
771
100
AcDbEntity
  8
レイヤー_2
 62
    18
100
AcDbLine
 10
5.455136
 20
17.418058
 30
0.0
 11
5.201577
 21
17.587385
 31
0.0
  0
LINE
  5
770
100
AcDbEntity
  8
レイヤー_2
 62
    18
100
AcDbLine
 10
5.201577
 20
17.587385
 30
0.0
 11
4.947329
 21
17.418058
 31
0.0
  0
LINE
  5
76F
100
AcDbEntity
  8
レイヤー_2
 62
    18
100
AcDbLine
 10
4.947329
 20
17.418058
 30
0.0
 11
5.201577
 21
17.248732
 31
0.0
  0
LINE
  5
76E
100
AcDbEntity
  8
レイヤー_2
 62
    18
100
AcDbLine
 10
5.201577
 20
17.248732
 30
0.0
 11
5.455136
 21
17.418058
 31
0.0
  0
LINE
  5
76D
100
AcDbEntity
  8
レイヤー_2
 62
    18
100
AcDbLine
 10
3.677467
 20
16.825502
 30
0.0
 11
3.423219
 21
16.910079
 31
0.0
  0
LINE
  5
76C
100
AcDbEntity
  8
レイヤー_2
 62
    18
100
AcDbLine
 10
3.423219
 20
16.910079
 30
0.0
 11
3.084911
 21
16.825502
 31
0.0
  0
LINE
  5
76B
100
AcDbEntity
  8
レイヤー_2
 62
    18
100
AcDbLine
 10
3.084911
 20
16.825502
 30
0.0
 11
3.33847
 21
16.656175
 31
0.0
  0
LINE
  5
76A
100
AcDbEntity
  8
レイヤー_2
 62
    18
100
AcDbLine
 10
3.423219
 20
16.656175
 30
0.0
 11
3.677467
 21
16.825502
 31
0.0
  0
LINE
  5
769
100
AcDbEntity
  8
レイヤー_2
 62
    18
100
AcDbLine
 10
4.270024
 20
17.079405
 30
0.0
 11
4.015776
 21
17.248732
 31
0.0
  0
LINE
  5
768
100
AcDbEntity
  8
レイヤー_2
 62
    18
100
AcDbLine
 10
4.015776
 20
17.248732
 30
0.0
 11
3.762217
 21
17.079405
 31
0.0
  0
LINE
  5
767
100
AcDbEntity
  8
レイヤー_2
 62
    18
100
AcDbLine
 10
3.762217
 20
17.079405
 30
0.0
 11
4.015776
 21
16.994828
 31
0.0
  0
LINE
  5
766
100
AcDbEntity
  8
レイヤー_2
 62
    18
100
AcDbLine
 10
4.015776
 20
16.994828
 30
0.0
 11
4.270024
 21
17.079405
 31
0.0
  0
LINE
  5
765
100
AcDbEntity
  8
レイヤー_2
 62
    18
100
AcDbLine
 10
6.048382
 20
18.095364
 30
0.0
 11
5.878883
 21
18.180113
 31
0.0
  0
LINE
  5
764
100
AcDbEntity
  8
レイヤー_2
 62
    18
100
AcDbLine
 10
5.878883
 20
18.180113
 30
0.0
 11
5.539886
 21
18.010787
 31
0.0
  0
LINE
  5
763
100
AcDbEntity
  8
レイヤー_2
 62
    18
100
AcDbLine
 10
5.539886
 20
18.010787
 30
0.0
 11
5.878883
 21
17.926038
 31
0.0
  0
LINE
  5
762
100
AcDbEntity
  8
レイヤー_2
 62
    18
100
AcDbLine
 10
5.878883
 20
17.926038
 30
0.0
 11
6.048382
 21
18.010787
 31
0.0
  0
LINE
  5
761
100
AcDbEntity
  8
レイヤー_2
 62
    18
100
AcDbLine
 10
5.455136
 20
17.756711
 30
0.0
 11
5.201577
 21
17.841461
 31
0.0
  0
LINE
  5
760
100
AcDbEntity
  8
レイヤー_2
 62
    18
100
AcDbLine
 10
5.201577
 20
17.841461
 30
0.0
 11
4.947329
 21
17.756711
 31
0.0
  0
LINE
  5
75F
100
AcDbEntity
  8
レイヤー_2
 62
    18
100
AcDbLine
 10
4.947329
 20
17.756711
 30
0.0
 11
5.201577
 21
17.587385
 31
0.0
  0
LINE
  5
75E
100
AcDbEntity
  8
レイヤー_2
 62
    18
100
AcDbLine
 10
5.201577
 20
17.587385
 30
0.0
 11
5.455136
 21
17.756711
 31
0.0
  0
LINE
  5
75D
100
AcDbEntity
  8
レイヤー_2
 62
    18
100
AcDbLine
 10
4.86258
 20
17.418058
 30
0.0
 11
4.609021
 21
17.587385
 31
0.0
  0
LINE
  5
75C
100
AcDbEntity
  8
レイヤー_2
 62
    18
100
AcDbLine
 10
4.609021
 20
17.587385
 30
0.0
 11
4.354773
 21
17.418058
 31
0.0
  0
LINE
  5
75B
100
AcDbEntity
  8
レイヤー_2
 62
    18
100
AcDbLine
 10
4.354773
 20
17.418058
 30
0.0
 11
4.609021
 21
17.248732
 31
0.0
  0
LINE
  5
75A
100
AcDbEntity
  8
レイヤー_2
 62
    18
100
AcDbLine
 10
4.609021
 20
17.248732
 30
0.0
 11
4.86258
 21
17.418058
 31
0.0
  0
LINE
  5
759
100
AcDbEntity
  8
レイヤー_2
 62
    18
100
AcDbLine
 10
3.677467
 20
17.079405
 30
0.0
 11
3.423219
 21
17.248732
 31
0.0
  0
LINE
  5
758
100
AcDbEntity
  8
レイヤー_2
 62
    18
100
AcDbLine
 10
3.423219
 20
17.248732
 30
0.0
 11
3.084911
 21
17.079405
 31
0.0
  0
LINE
  5
757
100
AcDbEntity
  8
レイヤー_2
 62
    18
100
AcDbLine
 10
3.084911
 20
17.079405
 30
0.0
 11
3.423219
 21
16.994828
 31
0.0
  0
LINE
  5
756
100
AcDbEntity
  8
レイヤー_2
 62
    18
100
AcDbLine
 10
3.423219
 20
16.994828
 30
0.0
 11
3.677467
 21
17.079405
 31
0.0
  0
LINE
  5
755
100
AcDbEntity
  8
レイヤー_2
 62
    18
100
AcDbLine
 10
4.270024
 20
17.418058
 30
0.0
 11
4.015776
 21
17.587385
 31
0.0
  0
LINE
  5
754
100
AcDbEntity
  8
レイヤー_2
 62
    18
100
AcDbLine
 10
4.015776
 20
17.587385
 30
0.0
 11
3.762217
 21
17.418058
 31
0.0
  0
LINE
  5
753
100
AcDbEntity
  8
レイヤー_2
 62
    18
100
AcDbLine
 10
3.762217
 20
17.418058
 30
0.0
 11
4.015776
 21
17.248732
 31
0.0
  0
LINE
  5
752
100
AcDbEntity
  8
レイヤー_2
 62
    18
100
AcDbLine
 10
4.015776
 20
17.248732
 30
0.0
 11
4.270024
 21
17.418058
 31
0.0
  0
LINE
  5
751
100
AcDbEntity
  8
レイヤー_2
 62
    18
100
AcDbLine
 10
5.455136
 20
18.010787
 30
0.0
 11
5.201577
 21
18.180113
 31
0.0
  0
LINE
  5
750
100
AcDbEntity
  8
レイヤー_2
 62
    18
100
AcDbLine
 10
5.201577
 20
18.180113
 30
0.0
 11
4.947329
 21
18.010787
 31
0.0
  0
LINE
  5
74F
100
AcDbEntity
  8
レイヤー_2
 62
    18
100
AcDbLine
 10
4.947329
 20
18.010787
 30
0.0
 11
5.201577
 21
17.926038
 31
0.0
  0
LINE
  5
74E
100
AcDbEntity
  8
レイヤー_2
 62
    18
100
AcDbLine
 10
5.201577
 20
17.926038
 30
0.0
 11
5.455136
 21
18.010787
 31
0.0
  0
LINE
  5
74D
100
AcDbEntity
  8
レイヤー_2
 62
    18
100
AcDbLine
 10
4.86258
 20
17.756711
 30
0.0
 11
4.609021
 21
17.841461
 31
0.0
  0
LINE
  5
74C
100
AcDbEntity
  8
レイヤー_2
 62
    18
100
AcDbLine
 10
4.609021
 20
17.841461
 30
0.0
 11
4.354773
 21
17.756711
 31
0.0
  0
LINE
  5
74B
100
AcDbEntity
  8
レイヤー_2
 62
    18
100
AcDbLine
 10
4.354773
 20
17.756711
 30
0.0
 11
4.609021
 21
17.587385
 31
0.0
  0
LINE
  5
74A
100
AcDbEntity
  8
レイヤー_2
 62
    18
100
AcDbLine
 10
4.609021
 20
17.587385
 30
0.0
 11
4.86258
 21
17.756711
 31
0.0
  0
LINE
  5
749
100
AcDbEntity
  8
レイヤー_2
 62
    18
100
AcDbLine
 10
2.407605
 20
18.010787
 30
0.0
 11
2.153357
 21
18.180113
 31
0.0
  0
LINE
  5
748
100
AcDbEntity
  8
レイヤー_2
 62
    18
100
AcDbLine
 10
2.153357
 20
18.180113
 30
0.0
 11
1.983858
 21
18.095364
 31
0.0
  0
LINE
  5
747
100
AcDbEntity
  8
レイヤー_2
 62
    18
100
AcDbLine
 10
1.899109
 20
18.010787
 30
0.0
 11
2.153357
 21
17.926038
 31
0.0
  0
LINE
  5
746
100
AcDbEntity
  8
レイヤー_2
 62
    18
100
AcDbLine
 10
2.153357
 20
17.926038
 30
0.0
 11
2.407605
 21
18.010787
 31
0.0
  0
LINE
  5
745
100
AcDbEntity
  8
レイヤー_2
 62
    18
100
AcDbLine
 10
3.677467
 20
18.688093
 30
0.0
 11
3.507968
 21
18.688093
 31
0.0
  0
LINE
  5
744
100
AcDbEntity
  8
レイヤー_2
 62
    18
100
AcDbLine
 10
3.16966
 20
18.688093
 30
0.0
 11
3.084911
 21
18.688093
 31
0.0
  0
LINE
  5
743
100
AcDbEntity
  8
レイヤー_2
 62
    18
100
AcDbLine
 10
3.084911
 20
18.688093
 30
0.0
 11
3.423219
 21
18.518766
 31
0.0
  0
LINE
  5
742
100
AcDbEntity
  8
レイヤー_2
 62
    18
100
AcDbLine
 10
3.423219
 20
18.518766
 30
0.0
 11
3.677467
 21
18.688093
 31
0.0
  0
LINE
  5
741
100
AcDbEntity
  8
レイヤー_2
 62
    18
100
AcDbLine
 10
3.000161
 20
18.34944
 30
0.0
 11
2.745913
 21
18.518766
 31
0.0
  0
LINE
  5
740
100
AcDbEntity
  8
レイヤー_2
 62
    18
100
AcDbLine
 10
2.745913
 20
18.518766
 30
0.0
 11
2.492354
 21
18.34944
 31
0.0
  0
LINE
  5
73F
100
AcDbEntity
  8
レイヤー_2
 62
    18
100
AcDbLine
 10
2.492354
 20
18.34944
 30
0.0
 11
2.745913
 21
18.180113
 31
0.0
  0
LINE
  5
73E
100
AcDbEntity
  8
レイヤー_2
 62
    18
100
AcDbLine
 10
2.745913
 20
18.180113
 30
0.0
 11
3.000161
 21
18.34944
 31
0.0
  0
LINE
  5
73D
100
AcDbEntity
  8
レイヤー_2
 62
    18
100
AcDbLine
 10
2.407605
 20
17.756711
 30
0.0
 11
2.153357
 21
17.841461
 31
0.0
  0
LINE
  5
73C
100
AcDbEntity
  8
レイヤー_2
 62
    18
100
AcDbLine
 10
2.153357
 20
17.841461
 30
0.0
 11
1.899109
 21
17.756711
 31
0.0
  0
LINE
  5
73B
100
AcDbEntity
  8
レイヤー_2
 62
    18
100
AcDbLine
 10
1.899109
 20
17.756711
 30
0.0
 11
2.153357
 21
17.587385
 31
0.0
  0
LINE
  5
73A
100
AcDbEntity
  8
レイヤー_2
 62
    18
100
AcDbLine
 10
2.153357
 20
17.587385
 30
0.0
 11
2.407605
 21
17.756711
 31
0.0
  0
LINE
  5
739
100
AcDbEntity
  8
レイヤー_2
 62
    18
100
AcDbLine
 10
3.000161
 20
18.010787
 30
0.0
 11
2.745913
 21
18.180113
 31
0.0
  0
LINE
  5
738
100
AcDbEntity
  8
レイヤー_2
 62
    18
100
AcDbLine
 10
2.745913
 20
18.180113
 30
0.0
 11
2.492354
 21
18.010787
 31
0.0
  0
LINE
  5
737
100
AcDbEntity
  8
レイヤー_2
 62
    18
100
AcDbLine
 10
2.492354
 20
18.010787
 30
0.0
 11
2.745913
 21
17.926038
 31
0.0
  0
LINE
  5
736
100
AcDbEntity
  8
レイヤー_2
 62
    18
100
AcDbLine
 10
2.745913
 20
17.926038
 30
0.0
 11
3.000161
 21
18.010787
 31
0.0
  0
LINE
  5
735
100
AcDbEntity
  8
レイヤー_2
 62
    18
100
AcDbLine
 10
4.270024
 20
18.688093
 30
0.0
 11
4.015776
 21
18.772842
 31
0.0
  0
LINE
  5
734
100
AcDbEntity
  8
レイヤー_2
 62
    18
100
AcDbLine
 10
3.931715
 20
18.772842
 30
0.0
 11
3.762217
 21
18.688093
 31
0.0
  0
LINE
  5
733
100
AcDbEntity
  8
レイヤー_2
 62
    18
100
AcDbLine
 10
3.762217
 20
18.688093
 30
0.0
 11
4.015776
 21
18.518766
 31
0.0
  0
LINE
  5
732
100
AcDbEntity
  8
レイヤー_2
 62
    18
100
AcDbLine
 10
4.015776
 20
18.518766
 30
0.0
 11
4.270024
 21
18.688093
 31
0.0
  0
LINE
  5
731
100
AcDbEntity
  8
レイヤー_2
 62
    18
100
AcDbLine
 10
3.677467
 20
18.34944
 30
0.0
 11
3.423219
 21
18.518766
 31
0.0
  0
LINE
  5
730
100
AcDbEntity
  8
レイヤー_2
 62
    18
100
AcDbLine
 10
3.423219
 20
18.518766
 30
0.0
 11
3.084911
 21
18.34944
 31
0.0
  0
LINE
  5
72F
100
AcDbEntity
  8
レイヤー_2
 62
    18
100
AcDbLine
 10
3.084911
 20
18.34944
 30
0.0
 11
3.423219
 21
18.180113
 31
0.0
  0
LINE
  5
72E
100
AcDbEntity
  8
レイヤー_2
 62
    18
100
AcDbLine
 10
3.423219
 20
18.180113
 30
0.0
 11
3.677467
 21
18.34944
 31
0.0
  0
LINE
  5
72D
100
AcDbEntity
  8
レイヤー_2
 62
    18
100
AcDbLine
 10
2.407605
 20
17.418058
 30
0.0
 11
2.153357
 21
17.587385
 31
0.0
  0
LINE
  5
72C
100
AcDbEntity
  8
レイヤー_2
 62
    18
100
AcDbLine
 10
2.153357
 20
17.587385
 30
0.0
 11
1.899109
 21
17.418058
 31
0.0
  0
LINE
  5
72B
100
AcDbEntity
  8
レイヤー_2
 62
    18
100
AcDbLine
 10
1.899109
 20
17.418058
 30
0.0
 11
2.153357
 21
17.248732
 31
0.0
  0
LINE
  5
72A
100
AcDbEntity
  8
レイヤー_2
 62
    18
100
AcDbLine
 10
2.153357
 20
17.248732
 30
0.0
 11
2.407605
 21
17.418058
 31
0.0
  0
LINE
  5
729
100
AcDbEntity
  8
レイヤー_2
 62
    18
100
AcDbLine
 10
3.000161
 20
17.756711
 30
0.0
 11
2.745913
 21
17.841461
 31
0.0
  0
LINE
  5
728
100
AcDbEntity
  8
レイヤー_2
 62
    18
100
AcDbLine
 10
2.745913
 20
17.841461
 30
0.0
 11
2.492354
 21
17.756711
 31
0.0
  0
LINE
  5
727
100
AcDbEntity
  8
レイヤー_2
 62
    18
100
AcDbLine
 10
2.492354
 20
17.756711
 30
0.0
 11
2.745913
 21
17.587385
 31
0.0
  0
LINE
  5
726
100
AcDbEntity
  8
レイヤー_2
 62
    18
100
AcDbLine
 10
2.745913
 20
17.587385
 30
0.0
 11
3.000161
 21
17.756711
 31
0.0
  0
LINE
  5
725
100
AcDbEntity
  8
レイヤー_2
 62
    18
100
AcDbLine
 10
4.524272
 20
18.688093
 30
0.0
 11
4.354773
 21
18.688093
 31
0.0
  0
LINE
  5
724
100
AcDbEntity
  8
レイヤー_2
 62
    18
100
AcDbLine
 10
4.354773
 20
18.688093
 30
0.0
 11
4.609021
 21
18.518766
 31
0.0
  0
LINE
  5
723
100
AcDbEntity
  8
レイヤー_2
 62
    18
100
AcDbLine
 10
4.609021
 20
18.518766
 30
0.0
 11
4.86258
 21
18.688093
 31
0.0
  0
LINE
  5
722
100
AcDbEntity
  8
レイヤー_2
 62
    18
100
AcDbLine
 10
4.270024
 20
18.34944
 30
0.0
 11
4.015776
 21
18.518766
 31
0.0
  0
LINE
  5
721
100
AcDbEntity
  8
レイヤー_2
 62
    18
100
AcDbLine
 10
4.015776
 20
18.518766
 30
0.0
 11
3.762217
 21
18.34944
 31
0.0
  0
LINE
  5
720
100
AcDbEntity
  8
レイヤー_2
 62
    18
100
AcDbLine
 10
3.762217
 20
18.34944
 30
0.0
 11
4.015776
 21
18.180113
 31
0.0
  0
LINE
  5
71F
100
AcDbEntity
  8
レイヤー_2
 62
    18
100
AcDbLine
 10
4.015776
 20
18.180113
 30
0.0
 11
4.270024
 21
18.34944
 31
0.0
  0
LINE
  5
71E
100
AcDbEntity
  8
レイヤー_2
 62
    18
100
AcDbLine
 10
3.677467
 20
18.010787
 30
0.0
 11
3.423219
 21
18.180113
 31
0.0
  0
LINE
  5
71D
100
AcDbEntity
  8
レイヤー_2
 62
    18
100
AcDbLine
 10
3.423219
 20
18.180113
 30
0.0
 11
3.084911
 21
18.010787
 31
0.0
  0
LINE
  5
71C
100
AcDbEntity
  8
レイヤー_2
 62
    18
100
AcDbLine
 10
3.084911
 20
18.010787
 30
0.0
 11
3.423219
 21
17.926038
 31
0.0
  0
LINE
  5
71B
100
AcDbEntity
  8
レイヤー_2
 62
    18
100
AcDbLine
 10
3.423219
 20
17.926038
 30
0.0
 11
3.677467
 21
18.010787
 31
0.0
  0
LINE
  5
71A
100
AcDbEntity
  8
レイヤー_2
 62
    18
100
AcDbLine
 10
3.000161
 20
17.418058
 30
0.0
 11
2.745913
 21
17.587385
 31
0.0
  0
LINE
  5
719
100
AcDbEntity
  8
レイヤー_2
 62
    18
100
AcDbLine
 10
2.745913
 20
17.587385
 30
0.0
 11
2.492354
 21
17.418058
 31
0.0
  0
LINE
  5
718
100
AcDbEntity
  8
レイヤー_2
 62
    18
100
AcDbLine
 10
2.492354
 20
17.418058
 30
0.0
 11
2.745913
 21
17.248732
 31
0.0
  0
LINE
  5
717
100
AcDbEntity
  8
レイヤー_2
 62
    18
100
AcDbLine
 10
2.745913
 20
17.248732
 30
0.0
 11
3.000161
 21
17.418058
 31
0.0
  0
LINE
  5
716
100
AcDbEntity
  8
レイヤー_2
 62
    18
100
AcDbLine
 10
3.677467
 20
17.756711
 30
0.0
 11
3.423219
 21
17.841461
 31
0.0
  0
LINE
  5
715
100
AcDbEntity
  8
レイヤー_2
 62
    18
100
AcDbLine
 10
3.423219
 20
17.841461
 30
0.0
 11
3.084911
 21
17.756711
 31
0.0
  0
LINE
  5
714
100
AcDbEntity
  8
レイヤー_2
 62
    18
100
AcDbLine
 10
3.084911
 20
17.756711
 30
0.0
 11
3.423219
 21
17.587385
 31
0.0
  0
LINE
  5
713
100
AcDbEntity
  8
レイヤー_2
 62
    18
100
AcDbLine
 10
3.423219
 20
17.587385
 30
0.0
 11
3.677467
 21
17.756711
 31
0.0
  0
LINE
  5
712
100
AcDbEntity
  8
レイヤー_2
 62
    18
100
AcDbLine
 10
4.86258
 20
18.34944
 30
0.0
 11
4.609021
 21
18.518766
 31
0.0
  0
LINE
  5
711
100
AcDbEntity
  8
レイヤー_2
 62
    18
100
AcDbLine
 10
4.609021
 20
18.518766
 30
0.0
 11
4.354773
 21
18.34944
 31
0.0
  0
LINE
  5
710
100
AcDbEntity
  8
レイヤー_2
 62
    18
100
AcDbLine
 10
4.354773
 20
18.34944
 30
0.0
 11
4.609021
 21
18.180113
 31
0.0
  0
LINE
  5
70F
100
AcDbEntity
  8
レイヤー_2
 62
    18
100
AcDbLine
 10
4.609021
 20
18.180113
 30
0.0
 11
4.86258
 21
18.34944
 31
0.0
  0
LINE
  5
70E
100
AcDbEntity
  8
レイヤー_2
 62
    18
100
AcDbLine
 10
4.270024
 20
18.010787
 30
0.0
 11
4.015776
 21
18.180113
 31
0.0
  0
LINE
  5
70D
100
AcDbEntity
  8
レイヤー_2
 62
    18
100
AcDbLine
 10
4.015776
 20
18.180113
 30
0.0
 11
3.762217
 21
18.010787
 31
0.0
  0
LINE
  5
70C
100
AcDbEntity
  8
レイヤー_2
 62
    18
100
AcDbLine
 10
3.762217
 20
18.010787
 30
0.0
 11
4.015776
 21
17.926038
 31
0.0
  0
LINE
  5
70B
100
AcDbEntity
  8
レイヤー_2
 62
    18
100
AcDbLine
 10
4.015776
 20
17.926038
 30
0.0
 11
4.270024
 21
18.010787
 31
0.0
  0
LINE
  5
70A
100
AcDbEntity
  8
レイヤー_2
 62
    18
100
AcDbLine
 10
3.000161
 20
17.079405
 30
0.0
 11
2.745913
 21
17.248732
 31
0.0
  0
LINE
  5
709
100
AcDbEntity
  8
レイヤー_2
 62
    18
100
AcDbLine
 10
2.745913
 20
17.248732
 30
0.0
 11
2.492354
 21
17.079405
 31
0.0
  0
LINE
  5
708
100
AcDbEntity
  8
レイヤー_2
 62
    18
100
AcDbLine
 10
2.492354
 20
17.079405
 30
0.0
 11
2.745913
 21
16.994828
 31
0.0
  0
LINE
  5
707
100
AcDbEntity
  8
レイヤー_2
 62
    18
100
AcDbLine
 10
2.745913
 20
16.994828
 30
0.0
 11
3.000161
 21
17.079405
 31
0.0
  0
LINE
  5
706
100
AcDbEntity
  8
レイヤー_2
 62
    18
100
AcDbLine
 10
3.677467
 20
17.418058
 30
0.0
 11
3.423219
 21
17.587385
 31
0.0
  0
LINE
  5
705
100
AcDbEntity
  8
レイヤー_2
 62
    18
100
AcDbLine
 10
3.423219
 20
17.587385
 30
0.0
 11
3.084911
 21
17.418058
 31
0.0
  0
LINE
  5
704
100
AcDbEntity
  8
レイヤー_2
 62
    18
100
AcDbLine
 10
3.084911
 20
17.418058
 30
0.0
 11
3.423219
 21
17.248732
 31
0.0
  0
LINE
  5
703
100
AcDbEntity
  8
レイヤー_2
 62
    18
100
AcDbLine
 10
3.423219
 20
17.248732
 30
0.0
 11
3.677467
 21
17.418058
 31
0.0
  0
LINE
  5
702
100
AcDbEntity
  8
レイヤー_2
 62
    18
100
AcDbLine
 10
5.455136
 20
18.34944
 30
0.0
 11
5.201577
 21
18.518766
 31
0.0
  0
LINE
  5
701
100
AcDbEntity
  8
レイヤー_2
 62
    18
100
AcDbLine
 10
5.201577
 20
18.518766
 30
0.0
 11
4.947329
 21
18.34944
 31
0.0
  0
LINE
  5
700
100
AcDbEntity
  8
レイヤー_2
 62
    18
100
AcDbLine
 10
4.947329
 20
18.34944
 30
0.0
 11
5.201577
 21
18.180113
 31
0.0
  0
LINE
  5
6FF
100
AcDbEntity
  8
レイヤー_2
 62
    18
100
AcDbLine
 10
5.201577
 20
18.180113
 30
0.0
 11
5.455136
 21
18.34944
 31
0.0
  0
LINE
  5
6FE
100
AcDbEntity
  8
レイヤー_2
 62
    18
100
AcDbLine
 10
4.86258
 20
18.010787
 30
0.0
 11
4.609021
 21
18.180113
 31
0.0
  0
LINE
  5
6FD
100
AcDbEntity
  8
レイヤー_2
 62
    18
100
AcDbLine
 10
4.609021
 20
18.180113
 30
0.0
 11
4.354773
 21
18.010787
 31
0.0
  0
LINE
  5
6FC
100
AcDbEntity
  8
レイヤー_2
 62
    18
100
AcDbLine
 10
4.354773
 20
18.010787
 30
0.0
 11
4.609021
 21
17.926038
 31
0.0
  0
LINE
  5
6FB
100
AcDbEntity
  8
レイヤー_2
 62
    18
100
AcDbLine
 10
4.609021
 20
17.926038
 30
0.0
 11
4.86258
 21
18.010787
 31
0.0
  0
LINE
  5
6FA
100
AcDbEntity
  8
レイヤー_2
 62
    18
100
AcDbLine
 10
4.270024
 20
17.756711
 30
0.0
 11
4.015776
 21
17.841461
 31
0.0
  0
LINE
  5
6F9
100
AcDbEntity
  8
レイヤー_2
 62
    18
100
AcDbLine
 10
4.015776
 20
17.841461
 30
0.0
 11
3.762217
 21
17.756711
 31
0.0
  0
LINE
  5
6F8
100
AcDbEntity
  8
レイヤー_2
 62
    18
100
AcDbLine
 10
3.762217
 20
17.756711
 30
0.0
 11
4.015776
 21
17.587385
 31
0.0
  0
LINE
  5
6F7
100
AcDbEntity
  8
レイヤー_2
 62
    18
100
AcDbLine
 10
4.015776
 20
17.587385
 30
0.0
 11
4.270024
 21
17.756711
 31
0.0
  0
LINE
  5
6F6
100
AcDbEntity
  8
レイヤー_2
 62
    18
100
AcDbLine
 10
4.609021
 20
17.841461
 30
0.0
 11
4.270024
 21
18.010787
 31
0.0
  0
LINE
  5
6F5
100
AcDbEntity
  8
レイヤー_2
 62
    18
100
AcDbLine
 10
4.270024
 20
18.010787
 30
0.0
 11
4.015776
 21
17.841461
 31
0.0
  0
LINE
  5
6F4
100
AcDbEntity
  8
レイヤー_2
 62
    18
100
AcDbLine
 10
4.015776
 20
17.841461
 30
0.0
 11
4.270024
 21
17.756711
 31
0.0
  0
LINE
  5
6F3
100
AcDbEntity
  8
レイヤー_2
 62
    18
100
AcDbLine
 10
4.270024
 20
17.756711
 30
0.0
 11
4.609021
 21
17.841461
 31
0.0
  0
LINE
  5
6F2
100
AcDbEntity
  8
レイヤー_2
 62
    18
100
AcDbLine
 10
5.201577
 20
18.180113
 30
0.0
 11
4.947329
 21
18.34944
 31
0.0
  0
LINE
  5
6F1
100
AcDbEntity
  8
レイヤー_2
 62
    18
100
AcDbLine
 10
4.947329
 20
18.34944
 30
0.0
 11
4.69377
 21
18.180113
 31
0.0
  0
LINE
  5
6F0
100
AcDbEntity
  8
レイヤー_2
 62
    18
100
AcDbLine
 10
4.69377
 20
18.180113
 30
0.0
 11
4.947329
 21
18.095364
 31
0.0
  0
LINE
  5
6EF
100
AcDbEntity
  8
レイヤー_2
 62
    18
100
AcDbLine
 10
4.947329
 20
18.095364
 30
0.0
 11
5.201577
 21
18.180113
 31
0.0
  0
LINE
  5
6EE
100
AcDbEntity
  8
レイヤー_2
 62
    18
100
AcDbLine
 10
3.931715
 20
17.587385
 30
0.0
 11
3.677467
 21
17.672134
 31
0.0
  0
LINE
  5
6ED
100
AcDbEntity
  8
レイヤー_2
 62
    18
100
AcDbLine
 10
3.677467
 20
17.672134
 30
0.0
 11
3.423219
 21
17.587385
 31
0.0
  0
LINE
  5
6EC
100
AcDbEntity
  8
レイヤー_2
 62
    18
100
AcDbLine
 10
3.423219
 20
17.587385
 30
0.0
 11
3.677467
 21
17.418058
 31
0.0
  0
LINE
  5
6EB
100
AcDbEntity
  8
レイヤー_2
 62
    18
100
AcDbLine
 10
3.677467
 20
17.418058
 30
0.0
 11
3.931715
 21
17.587385
 31
0.0
  0
LINE
  5
6EA
100
AcDbEntity
  8
レイヤー_2
 62
    18
100
AcDbLine
 10
3.33847
 20
17.248732
 30
0.0
 11
3.084911
 21
17.418058
 31
0.0
  0
LINE
  5
6E9
100
AcDbEntity
  8
レイヤー_2
 62
    18
100
AcDbLine
 10
3.084911
 20
17.418058
 30
0.0
 11
2.830663
 21
17.248732
 31
0.0
  0
LINE
  5
6E8
100
AcDbEntity
  8
レイヤー_2
 62
    18
100
AcDbLine
 10
2.830663
 20
17.248732
 30
0.0
 11
3.084911
 21
17.164155
 31
0.0
  0
LINE
  5
6E7
100
AcDbEntity
  8
レイヤー_2
 62
    18
100
AcDbLine
 10
3.084911
 20
17.164155
 30
0.0
 11
3.33847
 21
17.248732
 31
0.0
  0
LINE
  5
6E6
100
AcDbEntity
  8
レイヤー_2
 62
    18
100
AcDbLine
 10
3.931715
 20
17.841461
 30
0.0
 11
3.677467
 21
18.010787
 31
0.0
  0
LINE
  5
6E5
100
AcDbEntity
  8
レイヤー_2
 62
    18
100
AcDbLine
 10
3.677467
 20
18.010787
 30
0.0
 11
3.423219
 21
17.841461
 31
0.0
  0
LINE
  5
6E4
100
AcDbEntity
  8
レイヤー_2
 62
    18
100
AcDbLine
 10
3.423219
 20
17.841461
 30
0.0
 11
3.677467
 21
17.756711
 31
0.0
  0
LINE
  5
6E3
100
AcDbEntity
  8
レイヤー_2
 62
    18
100
AcDbLine
 10
3.677467
 20
17.756711
 30
0.0
 11
3.931715
 21
17.841461
 31
0.0
  0
LINE
  5
6E2
100
AcDbEntity
  8
レイヤー_2
 62
    18
100
AcDbLine
 10
4.609021
 20
18.180113
 30
0.0
 11
4.270024
 21
18.34944
 31
0.0
  0
LINE
  5
6E1
100
AcDbEntity
  8
レイヤー_2
 62
    18
100
AcDbLine
 10
4.270024
 20
18.34944
 30
0.0
 11
4.015776
 21
18.180113
 31
0.0
  0
LINE
  5
6E0
100
AcDbEntity
  8
レイヤー_2
 62
    18
100
AcDbLine
 10
4.015776
 20
18.180113
 30
0.0
 11
4.270024
 21
18.095364
 31
0.0
  0
LINE
  5
6DF
100
AcDbEntity
  8
レイヤー_2
 62
    18
100
AcDbLine
 10
4.270024
 20
18.095364
 30
0.0
 11
4.609021
 21
18.180113
 31
0.0
  0
LINE
  5
6DE
100
AcDbEntity
  8
レイヤー_2
 62
    18
100
AcDbLine
 10
5.201577
 20
18.518766
 30
0.0
 11
4.947329
 21
18.603516
 31
0.0
  0
LINE
  5
6DD
100
AcDbEntity
  8
レイヤー_2
 62
    18
100
AcDbLine
 10
4.947329
 20
18.603516
 30
0.0
 11
4.69377
 21
18.518766
 31
0.0
  0
LINE
  5
6DC
100
AcDbEntity
  8
レイヤー_2
 62
    18
100
AcDbLine
 10
4.69377
 20
18.518766
 30
0.0
 11
4.947329
 21
18.34944
 31
0.0
  0
LINE
  5
6DB
100
AcDbEntity
  8
レイヤー_2
 62
    18
100
AcDbLine
 10
4.947329
 20
18.34944
 30
0.0
 11
5.201577
 21
18.518766
 31
0.0
  0
LINE
  5
6DA
100
AcDbEntity
  8
レイヤー_2
 62
    18
100
AcDbLine
 10
3.33847
 20
17.587385
 30
0.0
 11
3.084911
 21
17.672134
 31
0.0
  0
LINE
  5
6D9
100
AcDbEntity
  8
レイヤー_2
 62
    18
100
AcDbLine
 10
3.084911
 20
17.672134
 30
0.0
 11
2.830663
 21
17.587385
 31
0.0
  0
LINE
  5
6D8
100
AcDbEntity
  8
レイヤー_2
 62
    18
100
AcDbLine
 10
2.830663
 20
17.587385
 30
0.0
 11
3.084911
 21
17.418058
 31
0.0
  0
LINE
  5
6D7
100
AcDbEntity
  8
レイヤー_2
 62
    18
100
AcDbLine
 10
3.084911
 20
17.418058
 30
0.0
 11
3.33847
 21
17.587385
 31
0.0
  0
LINE
  5
6D6
100
AcDbEntity
  8
レイヤー_2
 62
    18
100
AcDbLine
 10
2.745913
 20
17.248732
 30
0.0
 11
2.492354
 21
17.418058
 31
0.0
  0
LINE
  5
6D5
100
AcDbEntity
  8
レイヤー_2
 62
    18
100
AcDbLine
 10
2.492354
 20
17.418058
 30
0.0
 11
2.238106
 21
17.248732
 31
0.0
  0
LINE
  5
6D4
100
AcDbEntity
  8
レイヤー_2
 62
    18
100
AcDbLine
 10
2.238106
 20
17.248732
 30
0.0
 11
2.492354
 21
17.164155
 31
0.0
  0
LINE
  5
6D3
100
AcDbEntity
  8
レイヤー_2
 62
    18
100
AcDbLine
 10
2.492354
 20
17.164155
 30
0.0
 11
2.745913
 21
17.248732
 31
0.0
  0
LINE
  5
6D2
100
AcDbEntity
  8
レイヤー_2
 62
    18
100
AcDbLine
 10
3.931715
 20
18.180113
 30
0.0
 11
3.677467
 21
18.34944
 31
0.0
  0
LINE
  5
6D1
100
AcDbEntity
  8
レイヤー_2
 62
    18
100
AcDbLine
 10
3.677467
 20
18.34944
 30
0.0
 11
3.423219
 21
18.180113
 31
0.0
  0
LINE
  5
6D0
100
AcDbEntity
  8
レイヤー_2
 62
    18
100
AcDbLine
 10
3.423219
 20
18.180113
 30
0.0
 11
3.677467
 21
18.095364
 31
0.0
  0
LINE
  5
6CF
100
AcDbEntity
  8
レイヤー_2
 62
    18
100
AcDbLine
 10
3.677467
 20
18.095364
 30
0.0
 11
3.931715
 21
18.180113
 31
0.0
  0
LINE
  5
6CE
100
AcDbEntity
  8
レイヤー_2
 62
    18
100
AcDbLine
 10
4.609021
 20
18.518766
 30
0.0
 11
4.270024
 21
18.603516
 31
0.0
  0
LINE
  5
6CD
100
AcDbEntity
  8
レイヤー_2
 62
    18
100
AcDbLine
 10
4.270024
 20
18.603516
 30
0.0
 11
4.015776
 21
18.518766
 31
0.0
  0
LINE
  5
6CC
100
AcDbEntity
  8
レイヤー_2
 62
    18
100
AcDbLine
 10
4.015776
 20
18.518766
 30
0.0
 11
4.270024
 21
18.34944
 31
0.0
  0
LINE
  5
6CB
100
AcDbEntity
  8
レイヤー_2
 62
    18
100
AcDbLine
 10
4.270024
 20
18.34944
 30
0.0
 11
4.609021
 21
18.518766
 31
0.0
  0
LINE
  5
6CA
100
AcDbEntity
  8
レイヤー_2
 62
    18
100
AcDbLine
 10
3.33847
 20
17.841461
 30
0.0
 11
3.084911
 21
18.010787
 31
0.0
  0
LINE
  5
6C9
100
AcDbEntity
  8
レイヤー_2
 62
    18
100
AcDbLine
 10
3.084911
 20
18.010787
 30
0.0
 11
2.830663
 21
17.841461
 31
0.0
  0
LINE
  5
6C8
100
AcDbEntity
  8
レイヤー_2
 62
    18
100
AcDbLine
 10
2.830663
 20
17.841461
 30
0.0
 11
3.084911
 21
17.756711
 31
0.0
  0
LINE
  5
6C7
100
AcDbEntity
  8
レイヤー_2
 62
    18
100
AcDbLine
 10
3.084911
 20
17.756711
 30
0.0
 11
3.33847
 21
17.841461
 31
0.0
  0
LINE
  5
6C6
100
AcDbEntity
  8
レイヤー_2
 62
    18
100
AcDbLine
 10
2.745913
 20
17.587385
 30
0.0
 11
2.492354
 21
17.672134
 31
0.0
  0
LINE
  5
6C5
100
AcDbEntity
  8
レイヤー_2
 62
    18
100
AcDbLine
 10
2.492354
 20
17.672134
 30
0.0
 11
2.238106
 21
17.587385
 31
0.0
  0
LINE
  5
6C4
100
AcDbEntity
  8
レイヤー_2
 62
    18
100
AcDbLine
 10
2.238106
 20
17.587385
 30
0.0
 11
2.492354
 21
17.418058
 31
0.0
  0
LINE
  5
6C3
100
AcDbEntity
  8
レイヤー_2
 62
    18
100
AcDbLine
 10
2.492354
 20
17.418058
 30
0.0
 11
2.745913
 21
17.587385
 31
0.0
  0
LINE
  5
6C2
100
AcDbEntity
  8
レイヤー_2
 62
    18
100
AcDbLine
 10
3.33847
 20
18.180113
 30
0.0
 11
3.084911
 21
18.34944
 31
0.0
  0
LINE
  5
6C1
100
AcDbEntity
  8
レイヤー_2
 62
    18
100
AcDbLine
 10
3.084911
 20
18.34944
 30
0.0
 11
2.830663
 21
18.180113
 31
0.0
  0
LINE
  5
6C0
100
AcDbEntity
  8
レイヤー_2
 62
    18
100
AcDbLine
 10
2.830663
 20
18.180113
 30
0.0
 11
3.084911
 21
18.095364
 31
0.0
  0
LINE
  5
6BF
100
AcDbEntity
  8
レイヤー_2
 62
    18
100
AcDbLine
 10
3.084911
 20
18.095364
 30
0.0
 11
3.33847
 21
18.180113
 31
0.0
  0
LINE
  5
6BE
100
AcDbEntity
  8
レイヤー_2
 62
    18
100
AcDbLine
 10
3.931715
 20
18.518766
 30
0.0
 11
3.677467
 21
18.603516
 31
0.0
  0
LINE
  5
6BD
100
AcDbEntity
  8
レイヤー_2
 62
    18
100
AcDbLine
 10
3.677467
 20
18.603516
 30
0.0
 11
3.423219
 21
18.518766
 31
0.0
  0
LINE
  5
6BC
100
AcDbEntity
  8
レイヤー_2
 62
    18
100
AcDbLine
 10
3.423219
 20
18.518766
 30
0.0
 11
3.677467
 21
18.34944
 31
0.0
  0
LINE
  5
6BB
100
AcDbEntity
  8
レイヤー_2
 62
    18
100
AcDbLine
 10
3.677467
 20
18.34944
 30
0.0
 11
3.931715
 21
18.518766
 31
0.0
  0
LINE
  5
6BA
100
AcDbEntity
  8
レイヤー_2
 62
    18
100
AcDbLine
 10
2.745913
 20
17.841461
 30
0.0
 11
2.492354
 21
18.010787
 31
0.0
  0
LINE
  5
6B9
100
AcDbEntity
  8
レイヤー_2
 62
    18
100
AcDbLine
 10
2.492354
 20
18.010787
 30
0.0
 11
2.238106
 21
17.841461
 31
0.0
  0
LINE
  5
6B8
100
AcDbEntity
  8
レイヤー_2
 62
    18
100
AcDbLine
 10
2.238106
 20
17.841461
 30
0.0
 11
2.492354
 21
17.756711
 31
0.0
  0
LINE
  5
6B7
100
AcDbEntity
  8
レイヤー_2
 62
    18
100
AcDbLine
 10
2.492354
 20
17.756711
 30
0.0
 11
2.745913
 21
17.841461
 31
0.0
  0
LINE
  5
6B6
100
AcDbEntity
  8
レイヤー_2
 62
    18
100
AcDbLine
 10
3.33847
 20
18.518766
 30
0.0
 11
3.084911
 21
18.603516
 31
0.0
  0
LINE
  5
6B5
100
AcDbEntity
  8
レイヤー_2
 62
    18
100
AcDbLine
 10
3.084911
 20
18.603516
 30
0.0
 11
2.830663
 21
18.518766
 31
0.0
  0
LINE
  5
6B4
100
AcDbEntity
  8
レイヤー_2
 62
    18
100
AcDbLine
 10
2.830663
 20
18.518766
 30
0.0
 11
3.084911
 21
18.34944
 31
0.0
  0
LINE
  5
6B3
100
AcDbEntity
  8
レイヤー_2
 62
    18
100
AcDbLine
 10
3.084911
 20
18.34944
 30
0.0
 11
3.33847
 21
18.518766
 31
0.0
  0
LINE
  5
6B2
100
AcDbEntity
  8
レイヤー_2
 62
    18
100
AcDbLine
 10
2.745913
 20
18.180113
 30
0.0
 11
2.492354
 21
18.34944
 31
0.0
  0
LINE
  5
6B1
100
AcDbEntity
  8
レイヤー_2
 62
    18
100
AcDbLine
 10
2.492354
 20
18.34944
 30
0.0
 11
2.238106
 21
18.180113
 31
0.0
  0
LINE
  5
6B0
100
AcDbEntity
  8
レイヤー_2
 62
    18
100
AcDbLine
 10
2.238106
 20
18.180113
 30
0.0
 11
2.492354
 21
18.095364
 31
0.0
  0
LINE
  5
6AF
100
AcDbEntity
  8
レイヤー_2
 62
    18
100
AcDbLine
 10
2.492354
 20
18.095364
 30
0.0
 11
2.745913
 21
18.180113
 31
0.0
  0
LINE
  5
6AE
100
AcDbEntity
  8
レイヤー_2
 62
    18
100
AcDbLine
 10
4.609021
 20
17.587385
 30
0.0
 11
4.270024
 21
17.672134
 31
0.0
  0
LINE
  5
6AD
100
AcDbEntity
  8
レイヤー_2
 62
    18
100
AcDbLine
 10
4.270024
 20
17.672134
 30
0.0
 11
4.015776
 21
17.587385
 31
0.0
  0
LINE
  5
6AC
100
AcDbEntity
  8
レイヤー_2
 62
    18
100
AcDbLine
 10
4.015776
 20
17.587385
 30
0.0
 11
4.270024
 21
17.418058
 31
0.0
  0
LINE
  5
6AB
100
AcDbEntity
  8
レイヤー_2
 62
    18
100
AcDbLine
 10
4.270024
 20
17.418058
 30
0.0
 11
4.609021
 21
17.587385
 31
0.0
  0
LINE
  5
6AA
100
AcDbEntity
  8
レイヤー_2
 62
    18
100
AcDbLine
 10
5.201577
 20
17.841461
 30
0.0
 11
4.947329
 21
18.010787
 31
0.0
  0
LINE
  5
6A9
100
AcDbEntity
  8
レイヤー_2
 62
    18
100
AcDbLine
 10
4.947329
 20
18.010787
 30
0.0
 11
4.69377
 21
17.841461
 31
0.0
  0
LINE
  5
6A8
100
AcDbEntity
  8
レイヤー_2
 62
    18
100
AcDbLine
 10
4.69377
 20
17.841461
 30
0.0
 11
4.947329
 21
17.756711
 31
0.0
  0
LINE
  5
6A7
100
AcDbEntity
  8
レイヤー_2
 62
    18
100
AcDbLine
 10
4.947329
 20
17.756711
 30
0.0
 11
5.201577
 21
17.841461
 31
0.0
  0
LINE
  5
6A6
100
AcDbEntity
  8
レイヤー_2
 62
    18
100
AcDbLine
 10
5.794134
 20
18.180113
 30
0.0
 11
5.539886
 21
18.34944
 31
0.0
  0
LINE
  5
6A5
100
AcDbEntity
  8
レイヤー_2
 62
    18
100
AcDbLine
 10
5.539886
 20
18.34944
 30
0.0
 11
5.286327
 21
18.180113
 31
0.0
  0
LINE
  5
6A4
100
AcDbEntity
  8
レイヤー_2
 62
    18
100
AcDbLine
 10
5.286327
 20
18.180113
 30
0.0
 11
5.539886
 21
18.095364
 31
0.0
  0
LINE
  5
6A3
100
AcDbEntity
  8
レイヤー_2
 62
    18
100
AcDbLine
 10
5.539886
 20
18.095364
 30
0.0
 11
5.794134
 21
18.180113
 31
0.0
  0
LINE
  5
6A2
100
AcDbEntity
  8
レイヤー_2
 62
    18
100
AcDbLine
 10
3.931715
 20
17.248732
 30
0.0
 11
3.677467
 21
17.418058
 31
0.0
  0
LINE
  5
6A1
100
AcDbEntity
  8
レイヤー_2
 62
    18
100
AcDbLine
 10
3.677467
 20
17.418058
 30
0.0
 11
3.423219
 21
17.248732
 31
0.0
  0
LINE
  5
6A0
100
AcDbEntity
  8
レイヤー_2
 62
    18
100
AcDbLine
 10
3.423219
 20
17.248732
 30
0.0
 11
3.677467
 21
17.164155
 31
0.0
  0
LINE
  5
69F
100
AcDbEntity
  8
レイヤー_2
 62
    18
100
AcDbLine
 10
3.677467
 20
17.164155
 30
0.0
 11
3.931715
 21
17.248732
 31
0.0
  0
LINE
  5
69E
100
AcDbEntity
  8
レイヤー_2
 62
    18
100
AcDbLine
 10
3.33847
 20
16.994828
 30
0.0
 11
3.084911
 21
17.079405
 31
0.0
  0
LINE
  5
69D
100
AcDbEntity
  8
レイヤー_2
 62
    18
100
AcDbLine
 10
3.084911
 20
17.079405
 30
0.0
 11
2.830663
 21
16.994828
 31
0.0
  0
LINE
  5
69C
100
AcDbEntity
  8
レイヤー_2
 62
    18
100
AcDbLine
 10
2.830663
 20
16.994828
 30
0.0
 11
3.084911
 21
16.825502
 31
0.0
  0
LINE
  5
69B
100
AcDbEntity
  8
レイヤー_2
 62
    18
100
AcDbLine
 10
3.084911
 20
16.825502
 30
0.0
 11
3.33847
 21
16.994828
 31
0.0
  0
LINE
  5
69A
100
AcDbEntity
  8
レイヤー_2
 62
    18
100
AcDbLine
 10
5.201577
 20
17.587385
 30
0.0
 11
4.947329
 21
17.672134
 31
0.0
  0
LINE
  5
699
100
AcDbEntity
  8
レイヤー_2
 62
    18
100
AcDbLine
 10
4.947329
 20
17.672134
 30
0.0
 11
4.69377
 21
17.587385
 31
0.0
  0
LINE
  5
698
100
AcDbEntity
  8
レイヤー_2
 62
    18
100
AcDbLine
 10
4.69377
 20
17.587385
 30
0.0
 11
4.947329
 21
17.418058
 31
0.0
  0
LINE
  5
697
100
AcDbEntity
  8
レイヤー_2
 62
    18
100
AcDbLine
 10
4.947329
 20
17.418058
 30
0.0
 11
5.201577
 21
17.587385
 31
0.0
  0
LINE
  5
696
100
AcDbEntity
  8
レイヤー_2
 62
    18
100
AcDbLine
 10
5.794134
 20
17.841461
 30
0.0
 11
5.539886
 21
18.010787
 31
0.0
  0
LINE
  5
695
100
AcDbEntity
  8
レイヤー_2
 62
    18
100
AcDbLine
 10
5.539886
 20
18.010787
 30
0.0
 11
5.286327
 21
17.841461
 31
0.0
  0
LINE
  5
694
100
AcDbEntity
  8
レイヤー_2
 62
    18
100
AcDbLine
 10
5.286327
 20
17.841461
 30
0.0
 11
5.539886
 21
17.756711
 31
0.0
  0
LINE
  5
693
100
AcDbEntity
  8
レイヤー_2
 62
    18
100
AcDbLine
 10
5.539886
 20
17.756711
 30
0.0
 11
5.794134
 21
17.841461
 31
0.0
  0
LINE
  5
692
100
AcDbEntity
  8
レイヤー_2
 62
    18
100
AcDbLine
 10
4.609021
 20
17.248732
 30
0.0
 11
4.270024
 21
17.418058
 31
0.0
  0
LINE
  5
691
100
AcDbEntity
  8
レイヤー_2
 62
    18
100
AcDbLine
 10
4.270024
 20
17.418058
 30
0.0
 11
4.015776
 21
17.248732
 31
0.0
  0
LINE
  5
690
100
AcDbEntity
  8
レイヤー_2
 62
    18
100
AcDbLine
 10
4.015776
 20
17.248732
 30
0.0
 11
4.270024
 21
17.164155
 31
0.0
  0
LINE
  5
68F
100
AcDbEntity
  8
レイヤー_2
 62
    18
100
AcDbLine
 10
4.270024
 20
17.164155
 30
0.0
 11
4.609021
 21
17.248732
 31
0.0
  0
LINE
  5
68E
100
AcDbEntity
  8
レイヤー_2
 62
    18
100
AcDbLine
 10
3.931715
 20
16.994828
 30
0.0
 11
3.677467
 21
17.079405
 31
0.0
  0
LINE
  5
68D
100
AcDbEntity
  8
レイヤー_2
 62
    18
100
AcDbLine
 10
3.677467
 20
17.079405
 30
0.0
 11
3.423219
 21
16.994828
 31
0.0
  0
LINE
  5
68C
100
AcDbEntity
  8
レイヤー_2
 62
    18
100
AcDbLine
 10
3.423219
 20
16.994828
 30
0.0
 11
3.677467
 21
16.825502
 31
0.0
  0
LINE
  5
68B
100
AcDbEntity
  8
レイヤー_2
 62
    18
100
AcDbLine
 10
3.677467
 20
16.825502
 30
0.0
 11
3.931715
 21
16.994828
 31
0.0
  0
LINE
  5
68A
100
AcDbEntity
  8
レイヤー_2
 62
    18
100
AcDbLine
 10
5.201577
 20
17.248732
 30
0.0
 11
4.947329
 21
17.418058
 31
0.0
  0
LINE
  5
689
100
AcDbEntity
  8
レイヤー_2
 62
    18
100
AcDbLine
 10
4.947329
 20
17.418058
 30
0.0
 11
4.69377
 21
17.248732
 31
0.0
  0
LINE
  5
688
100
AcDbEntity
  8
レイヤー_2
 62
    18
100
AcDbLine
 10
4.69377
 20
17.248732
 30
0.0
 11
4.947329
 21
17.164155
 31
0.0
  0
LINE
  5
687
100
AcDbEntity
  8
レイヤー_2
 62
    18
100
AcDbLine
 10
4.947329
 20
17.164155
 30
0.0
 11
5.201577
 21
17.248732
 31
0.0
  0
LINE
  5
686
100
AcDbEntity
  8
レイヤー_2
 62
    18
100
AcDbLine
 10
5.794134
 20
17.587385
 30
0.0
 11
5.539886
 21
17.672134
 31
0.0
  0
LINE
  5
685
100
AcDbEntity
  8
レイヤー_2
 62
    18
100
AcDbLine
 10
5.539886
 20
17.672134
 30
0.0
 11
5.286327
 21
17.587385
 31
0.0
  0
LINE
  5
684
100
AcDbEntity
  8
レイヤー_2
 62
    18
100
AcDbLine
 10
5.286327
 20
17.587385
 30
0.0
 11
5.539886
 21
17.418058
 31
0.0
  0
LINE
  5
683
100
AcDbEntity
  8
レイヤー_2
 62
    18
100
AcDbLine
 10
5.539886
 20
17.418058
 30
0.0
 11
5.794134
 21
17.587385
 31
0.0
  0
LINE
  5
682
100
AcDbEntity
  8
レイヤー_2
 62
    18
100
AcDbLine
 10
4.609021
 20
16.994828
 30
0.0
 11
4.270024
 21
17.079405
 31
0.0
  0
LINE
  5
681
100
AcDbEntity
  8
レイヤー_2
 62
    18
100
AcDbLine
 10
4.270024
 20
17.079405
 30
0.0
 11
4.015776
 21
16.994828
 31
0.0
  0
LINE
  5
680
100
AcDbEntity
  8
レイヤー_2
 62
    18
100
AcDbLine
 10
4.015776
 20
16.994828
 30
0.0
 11
4.270024
 21
16.825502
 31
0.0
  0
LINE
  5
67F
100
AcDbEntity
  8
レイヤー_2
 62
    18
100
AcDbLine
 10
4.270024
 20
16.825502
 30
0.0
 11
4.609021
 21
16.994828
 31
0.0
  0
LINE
  5
67E
100
AcDbEntity
  8
レイヤー_2
 62
    18
100
AcDbLine
 10
5.794134
 20
17.248732
 30
0.0
 11
5.539886
 21
17.418058
 31
0.0
  0
LINE
  5
67D
100
AcDbEntity
  8
レイヤー_2
 62
    18
100
AcDbLine
 10
5.539886
 20
17.418058
 30
0.0
 11
5.286327
 21
17.248732
 31
0.0
  0
LINE
  5
67C
100
AcDbEntity
  8
レイヤー_2
 62
    18
100
AcDbLine
 10
5.286327
 20
17.248732
 30
0.0
 11
5.539886
 21
17.164155
 31
0.0
  0
LINE
  5
67B
100
AcDbEntity
  8
レイヤー_2
 62
    18
100
AcDbLine
 10
5.539886
 20
17.164155
 30
0.0
 11
5.794134
 21
17.248732
 31
0.0
  0
LINE
  5
67A
100
AcDbEntity
  8
レイヤー_2
 62
    18
100
AcDbLine
 10
5.201577
 20
16.994828
 30
0.0
 11
4.947329
 21
17.079405
 31
0.0
  0
LINE
  5
679
100
AcDbEntity
  8
レイヤー_2
 62
    18
100
AcDbLine
 10
4.947329
 20
17.079405
 30
0.0
 11
4.69377
 21
16.994828
 31
0.0
  0
LINE
  5
678
100
AcDbEntity
  8
レイヤー_2
 62
    18
100
AcDbLine
 10
4.69377
 20
16.994828
 30
0.0
 11
4.947329
 21
16.825502
 31
0.0
  0
LINE
  5
677
100
AcDbEntity
  8
レイヤー_2
 62
    18
100
AcDbLine
 10
4.947329
 20
16.825502
 30
0.0
 11
5.201577
 21
16.994828
 31
0.0
  0
LINE
  5
676
100
AcDbEntity
  8
レイヤー_2
 62
    18
100
AcDbLine
 10
5.624635
 20
18.34944
 30
0.0
 11
5.539886
 21
18.34944
 31
0.0
  0
LINE
  5
675
100
AcDbEntity
  8
レイヤー_2
 62
    18
100
AcDbLine
 10
5.539886
 20
18.34944
 30
0.0
 11
5.878883
 21
18.180113
 31
0.0
  0
LINE
  5
674
100
AcDbEntity
  8
レイヤー_2
 62
    18
100
AcDbLine
 10
5.878883
 20
18.180113
 30
0.0
 11
5.878883
 21
18.264863
 31
0.0
  0
LINE
  5
673
100
AcDbEntity
  8
レイヤー_2
 62
    18
100
AcDbLine
 10
5.878883
 20
18.180113
 30
0.0
 11
5.963633
 21
18.180113
 31
0.0
  0
LINE
  5
672
100
AcDbEntity
  8
レイヤー_2
 62
    18
100
AcDbLine
 10
6.132442
 20
18.010787
 30
0.0
 11
5.878883
 21
17.841461
 31
0.0
  0
LINE
  5
671
100
AcDbEntity
  8
レイヤー_2
 62
    18
100
AcDbLine
 10
5.878883
 20
17.841461
 30
0.0
 11
6.132442
 21
17.756711
 31
0.0
  0
LINE
  5
670
100
AcDbEntity
  8
レイヤー_2
 62
    18
100
AcDbLine
 10
6.132442
 20
17.756711
 30
0.0
 11
6.217192
 21
17.756711
 31
0.0
  0
LINE
  5
66F
100
AcDbEntity
  8
レイヤー_2
 62
    18
100
AcDbLine
 10
6.217192
 20
17.672134
 30
0.0
 11
6.132442
 21
17.672134
 31
0.0
  0
LINE
  5
66E
100
AcDbEntity
  8
レイヤー_2
 62
    18
100
AcDbLine
 10
6.132442
 20
17.672134
 30
0.0
 11
5.878883
 21
17.587385
 31
0.0
  0
LINE
  5
66D
100
AcDbEntity
  8
レイヤー_2
 62
    18
100
AcDbLine
 10
5.878883
 20
17.587385
 30
0.0
 11
6.132442
 21
17.418058
 31
0.0
  0
LINE
  5
66C
100
AcDbEntity
  8
レイヤー_2
 62
    18
100
AcDbLine
 10
6.048382
 20
17.333481
 30
0.0
 11
5.878883
 21
17.248732
 31
0.0
  0
LINE
  5
66B
100
AcDbEntity
  8
レイヤー_2
 62
    18
100
AcDbLine
 10
5.878883
 20
17.248732
 30
0.0
 11
5.963633
 21
17.248732
 31
0.0
  0
LINE
  5
66A
100
AcDbEntity
  8
レイヤー_2
 62
    18
100
AcDbLine
 10
5.963633
 20
17.248732
 30
0.0
 11
5.878883
 21
17.248732
 31
0.0
  0
LINE
  5
669
100
AcDbEntity
  8
レイヤー_2
 62
    18
100
AcDbLine
 10
5.878883
 20
17.248732
 30
0.0
 11
5.539886
 21
17.079405
 31
0.0
  0
LINE
  5
668
100
AcDbEntity
  8
レイヤー_2
 62
    18
100
AcDbLine
 10
5.539886
 20
17.079405
 30
0.0
 11
5.709384
 21
17.079405
 31
0.0
  0
LINE
  5
667
100
AcDbEntity
  8
レイヤー_2
 62
    18
100
AcDbLine
 10
5.709384
 20
16.994828
 30
0.0
 11
5.539886
 21
17.079405
 31
0.0
  0
LINE
  5
666
100
AcDbEntity
  8
レイヤー_2
 62
    18
100
AcDbLine
 10
5.539886
 20
17.079405
 30
0.0
 11
5.286327
 21
16.994828
 31
0.0
  0
LINE
  5
665
100
AcDbEntity
  8
レイヤー_2
 62
    18
100
AcDbLine
 10
5.286327
 20
16.994828
 30
0.0
 11
5.371076
 21
16.910079
 31
0.0
  0
LINE
  5
664
100
AcDbEntity
  8
レイヤー_2
 62
    18
100
AcDbLine
 10
5.371076
 20
16.910079
 30
0.0
 11
5.201577
 21
16.910079
 31
0.0
  0
LINE
  5
663
100
AcDbEntity
  8
レイヤー_2
 62
    18
100
AcDbLine
 10
5.201577
 20
16.910079
 30
0.0
 11
4.947329
 21
16.825502
 31
0.0
  0
LINE
  5
662
100
AcDbEntity
  8
レイヤー_2
 62
    18
100
AcDbLine
 10
4.947329
 20
16.825502
 30
0.0
 11
5.032079
 21
16.740752
 31
0.0
  0
LINE
  5
661
100
AcDbEntity
  8
レイヤー_2
 62
    18
100
AcDbLine
 10
4.947329
 20
16.740752
 30
0.0
 11
4.947329
 21
16.825502
 31
0.0
  0
LINE
  5
660
100
AcDbEntity
  8
レイヤー_2
 62
    18
100
AcDbLine
 10
4.947329
 20
16.825502
 30
0.0
 11
4.777831
 21
16.740752
 31
0.0
  0
LINE
  5
65F
100
AcDbEntity
  8
レイヤー_2
 62
    18
100
AcDbLine
 10
4.524272
 20
16.656175
 30
0.0
 11
4.270024
 21
16.825502
 31
0.0
  0
LINE
  5
65E
100
AcDbEntity
  8
レイヤー_2
 62
    18
100
AcDbLine
 10
4.270024
 20
16.825502
 30
0.0
 11
4.015776
 21
16.656175
 31
0.0
  0
LINE
  5
65D
100
AcDbEntity
  8
レイヤー_2
 62
    18
100
AcDbLine
 10
4.015776
 20
16.656175
 30
0.0
 11
4.100525
 21
16.656175
 31
0.0
  0
LINE
  5
65C
100
AcDbEntity
  8
レイヤー_2
 62
    18
100
AcDbLine
 10
3.931715
 20
16.656175
 30
0.0
 11
3.677467
 21
16.825502
 31
0.0
  0
LINE
  5
65B
100
AcDbEntity
  8
レイヤー_2
 62
    18
100
AcDbLine
 10
3.677467
 20
16.825502
 30
0.0
 11
3.423219
 21
16.656175
 31
0.0
  0
LINE
  5
65A
100
AcDbEntity
  8
レイヤー_2
 62
    18
100
AcDbLine
 10
3.254409
 20
16.740752
 30
0.0
 11
3.084911
 21
16.825502
 31
0.0
  0
LINE
  5
659
100
AcDbEntity
  8
レイヤー_2
 62
    18
100
AcDbLine
 10
3.084911
 20
16.825502
 30
0.0
 11
3.000161
 21
16.740752
 31
0.0
  0
LINE
  5
658
100
AcDbEntity
  8
レイヤー_2
 62
    18
100
AcDbLine
 10
2.915412
 20
16.740752
 30
0.0
 11
3.000161
 21
16.825502
 31
0.0
  0
LINE
  5
657
100
AcDbEntity
  8
レイヤー_2
 62
    18
100
AcDbLine
 10
3.000161
 20
16.825502
 30
0.0
 11
2.745913
 21
16.910079
 31
0.0
  0
LINE
  5
656
100
AcDbEntity
  8
レイヤー_2
 62
    18
100
AcDbLine
 10
2.745913
 20
16.910079
 30
0.0
 11
2.661164
 21
16.910079
 31
0.0
  0
LINE
  5
655
100
AcDbEntity
  8
レイヤー_2
 62
    18
100
AcDbLine
 10
2.577104
 20
16.910079
 30
0.0
 11
2.745913
 21
16.994828
 31
0.0
  0
LINE
  5
654
100
AcDbEntity
  8
レイヤー_2
 62
    18
100
AcDbLine
 10
2.745913
 20
16.994828
 30
0.0
 11
2.492354
 21
17.079405
 31
0.0
  0
LINE
  5
653
100
AcDbEntity
  8
レイヤー_2
 62
    18
100
AcDbLine
 10
2.492354
 20
17.079405
 30
0.0
 11
2.322856
 21
16.994828
 31
0.0
  0
LINE
  5
652
100
AcDbEntity
  8
レイヤー_2
 62
    18
100
AcDbLine
 10
2.322856
 20
17.079405
 30
0.0
 11
2.407605
 21
17.079405
 31
0.0
  0
LINE
  5
651
100
AcDbEntity
  8
レイヤー_2
 62
    18
100
AcDbLine
 10
2.407605
 20
17.079405
 30
0.0
 11
2.153357
 21
17.248732
 31
0.0
  0
LINE
  5
650
100
AcDbEntity
  8
レイヤー_2
 62
    18
100
AcDbLine
 10
2.153357
 20
17.248732
 30
0.0
 11
2.068608
 21
17.248732
 31
0.0
  0
LINE
  5
64F
100
AcDbEntity
  8
レイヤー_2
 62
    18
100
AcDbLine
 10
2.068608
 20
17.248732
 30
0.0
 11
1.983858
 21
17.333481
 31
0.0
  0
LINE
  5
64E
100
AcDbEntity
  8
レイヤー_2
 62
    18
100
AcDbLine
 10
1.899109
 20
17.418058
 30
0.0
 11
2.068608
 21
17.587385
 31
0.0
  0
LINE
  5
64D
100
AcDbEntity
  8
レイヤー_2
 62
    18
100
AcDbLine
 10
2.068608
 20
17.587385
 30
0.0
 11
1.815049
 21
17.672134
 31
0.0
  0
LINE
  5
64C
100
AcDbEntity
  8
レイヤー_2
 62
    18
100
AcDbLine
 10
1.815049
 20
17.756711
 30
0.0
 11
2.068608
 21
17.841461
 31
0.0
  0
LINE
  5
64B
100
AcDbEntity
  8
レイヤー_2
 62
    18
100
AcDbLine
 10
2.068608
 20
17.841461
 30
0.0
 11
1.899109
 21
18.010787
 31
0.0
  0
LINE
  5
64A
100
AcDbEntity
  8
レイヤー_2
 62
    18
100
AcDbLine
 10
2.153357
 20
18.264863
 30
0.0
 11
2.153357
 21
18.180113
 31
0.0
  0
LINE
  5
649
100
AcDbEntity
  8
レイヤー_2
 62
    18
100
AcDbLine
 10
2.153357
 20
18.180113
 30
0.0
 11
2.407605
 21
18.34944
 31
0.0
  0
LINE
  5
648
100
AcDbEntity
  8
レイヤー_2
 62
    18
100
AcDbLine
 10
2.407605
 20
18.34944
 30
0.0
 11
2.322856
 21
18.34944
 31
0.0
  0
LINE
  5
647
100
AcDbEntity
  8
レイヤー_2
 62
    18
100
AcDbLine
 10
2.407605
 20
18.434189
 30
0.0
 11
2.492354
 21
18.34944
 31
0.0
  0
LINE
  5
646
100
AcDbEntity
  8
レイヤー_2
 62
    18
100
AcDbLine
 10
2.492354
 20
18.34944
 30
0.0
 11
2.745913
 21
18.518766
 31
0.0
  0
LINE
  5
645
100
AcDbEntity
  8
レイヤー_2
 62
    18
100
AcDbLine
 10
2.745913
 20
18.518766
 30
0.0
 11
2.661164
 21
18.518766
 31
0.0
  0
LINE
  5
644
100
AcDbEntity
  8
レイヤー_2
 62
    18
100
AcDbLine
 10
2.745913
 20
18.518766
 30
0.0
 11
3.000161
 21
18.603516
 31
0.0
  0
LINE
  5
643
100
AcDbEntity
  8
レイヤー_2
 62
    18
100
AcDbLine
 10
3.592718
 20
18.772842
 30
0.0
 11
3.677467
 21
18.688093
 31
0.0
  0
LINE
  5
642
100
AcDbEntity
  8
レイヤー_2
 62
    18
100
AcDbLine
 10
3.677467
 20
18.688093
 30
0.0
 11
3.846966
 21
18.772842
 31
0.0
  0
LINE
  5
641
100
AcDbEntity
  8
レイヤー_2
 62
    18
100
AcDbLine
 10
4.100525
 20
18.772842
 30
0.0
 11
4.270024
 21
18.688093
 31
0.0
  0
LINE
  5
640
100
AcDbEntity
  8
レイヤー_2
 62
    18
100
AcDbLine
 10
4.270024
 20
18.688093
 30
0.0
 11
4.439522
 21
18.772842
 31
0.0
  0
LINE
  5
63F
100
AcDbEntity
  8
レイヤー_2
 62
    18
100
AcDbLine
 10
4.947329
 20
18.603516
 30
0.0
 11
5.201577
 21
18.518766
 31
0.0
  0
LINE
  5
63E
100
AcDbEntity
  8
レイヤー_2
 62
    18
100
AcDbLine
 10
5.201577
 20
18.518766
 30
0.0
 11
5.286327
 21
18.518766
 31
0.0
  0
LINE
  5
63D
100
AcDbEntity
  8
レイヤー_2
 62
    18
100
AcDbLine
 10
5.371076
 20
18.518766
 30
0.0
 11
5.286327
 21
18.518766
 31
0.0
  0
LINE
  5
63C
100
AcDbEntity
  8
レイヤー_2
 62
    18
100
AcDbLine
 10
5.286327
 20
18.518766
 30
0.0
 11
5.539886
 21
18.34944
 31
0.0
  0
LINE
  5
63B
100
AcDbEntity
  8
レイヤー_2
 62
    18
100
AcDbLine
 10
5.539886
 20
18.34944
 30
0.0
 11
5.624635
 21
18.434189
 31
0.0
  0
LINE
  5
63A
100
AcDbEntity
  8
レイヤー_2
 62
    18
100
AcDbLine
 10
3.677467
 20
18.772842
 30
0.0
 11
3.677467
 21
18.688093
 31
0.0
  0
LINE
  5
639
100
AcDbEntity
  8
レイヤー_2
 62
    18
100
AcDbLine
 10
3.677467
 20
18.688093
 30
0.0
 11
3.762217
 21
18.772842
 31
0.0
  0
LINE
  5
638
100
AcDbEntity
  8
レイヤー_2
 62
    18
100
AcDbLine
 10
4.270024
 20
18.772842
 30
0.0
 11
4.270024
 21
18.688093
 31
0.0
  0
LINE
  5
637
100
AcDbEntity
  8
レイヤー_2
 62
    18
100
AcDbLine
 10
4.270024
 20
18.688093
 30
0.0
 11
4.354773
 21
18.772842
 31
0.0
  0
LINE
  5
636
100
AcDbEntity
  8
レイヤー_2
 62
    18
100
AcDbLine
 10
2.745913
 20
18.518766
 30
0.0
 11
2.745913
 21
18.603516
 31
0.0
  0
LINE
  5
635
100
AcDbEntity
  8
レイヤー_2
 62
    18
100
AcDbLine
 10
4.015776
 20
18.518766
 30
0.0
 11
4.015776
 21
18.603516
 31
0.0
  0
LINE
  5
634
100
AcDbEntity
  8
レイヤー_2
 62
    18
100
AcDbLine
 10
3.762217
 20
18.688093
 30
0.0
 11
4.015776
 21
18.603516
 31
0.0
  0
LINE
  5
633
100
AcDbEntity
  8
レイヤー_2
 62
    18
100
AcDbLine
 10
3.423219
 20
18.518766
 30
0.0
 11
3.423219
 21
18.603516
 31
0.0
  0
LINE
  5
632
100
AcDbEntity
  8
レイヤー_2
 62
    18
100
AcDbLine
 10
3.16966
 20
18.688093
 30
0.0
 11
3.423219
 21
18.603516
 31
0.0
  0
LINE
  5
631
100
AcDbEntity
  8
レイヤー_2
 62
    18
100
AcDbLine
 10
5.201577
 20
18.518766
 30
0.0
 11
5.201577
 21
18.603516
 31
0.0
  0
LINE
  5
630
100
AcDbEntity
  8
レイヤー_2
 62
    18
100
AcDbLine
 10
4.609021
 20
18.518766
 30
0.0
 11
4.609021
 21
18.603516
 31
0.0
  0
LINE
  5
62F
100
AcDbEntity
  8
レイヤー_2
 62
    18
100
AcDbLine
 10
4.439522
 20
18.688093
 30
0.0
 11
4.609021
 21
18.603516
 31
0.0
  0
LINE
  5
62E
100
AcDbEntity
  8
レイヤー_2
 62
    18
100
AcDbLine
 10
4.015776
 20
18.603516
 30
0.0
 11
4.185274
 21
18.688093
 31
0.0
  0
LINE
  5
62D
100
AcDbEntity
  8
レイヤー_2
 62
    18
100
AcDbLine
 10
4.609021
 20
18.603516
 30
0.0
 11
4.86258
 21
18.688093
 31
0.0
  0
LINE
  5
62C
100
AcDbEntity
  8
レイヤー_2
 62
    18
100
AcDbLine
 10
3.423219
 20
18.603516
 30
0.0
 11
3.592718
 21
18.688093
 31
0.0
  0
LINE
  5
62B
100
AcDbEntity
  8
レイヤー_2
 62
    18
100
AcDbLine
 10
4.270024
 20
18.34944
 30
0.0
 11
4.270024
 21
18.434189
 31
0.0
  0
LINE
  5
62A
100
AcDbEntity
  8
レイヤー_2
 62
    18
100
AcDbLine
 10
4.100525
 20
18.518766
 30
0.0
 11
4.270024
 21
18.434189
 31
0.0
  0
LINE
  5
629
100
AcDbEntity
  8
レイヤー_2
 62
    18
100
AcDbLine
 10
3.677467
 20
18.34944
 30
0.0
 11
3.677467
 21
18.434189
 31
0.0
  0
LINE
  5
628
100
AcDbEntity
  8
レイヤー_2
 62
    18
100
AcDbLine
 10
3.677467
 20
18.434189
 30
0.0
 11
3.931715
 21
18.518766
 31
0.0
  0
LINE
  5
627
100
AcDbEntity
  8
レイヤー_2
 62
    18
100
AcDbLine
 10
3.507968
 20
18.518766
 30
0.0
 11
3.677467
 21
18.434189
 31
0.0
  0
LINE
  5
626
100
AcDbEntity
  8
レイヤー_2
 62
    18
100
AcDbLine
 10
3.084911
 20
18.34944
 30
0.0
 11
3.084911
 21
18.434189
 31
0.0
  0
LINE
  5
625
100
AcDbEntity
  8
レイヤー_2
 62
    18
100
AcDbLine
 10
2.830663
 20
18.518766
 30
0.0
 11
3.084911
 21
18.434189
 31
0.0
  0
LINE
  5
624
100
AcDbEntity
  8
レイヤー_2
 62
    18
100
AcDbLine
 10
4.947329
 20
18.34944
 30
0.0
 11
4.947329
 21
18.434189
 31
0.0
  0
LINE
  5
623
100
AcDbEntity
  8
レイヤー_2
 62
    18
100
AcDbLine
 10
4.69377
 20
18.518766
 30
0.0
 11
4.947329
 21
18.434189
 31
0.0
  0
LINE
  5
622
100
AcDbEntity
  8
レイヤー_2
 62
    18
100
AcDbLine
 10
2.492354
 20
18.34944
 30
0.0
 11
2.492354
 21
18.434189
 31
0.0
  0
LINE
  5
621
100
AcDbEntity
  8
レイヤー_2
 62
    18
100
AcDbLine
 10
2.492354
 20
18.434189
 30
0.0
 11
2.661164
 21
18.518766
 31
0.0
  0
LINE
  5
620
100
AcDbEntity
  8
レイヤー_2
 62
    18
100
AcDbLine
 10
3.084911
 20
18.434189
 30
0.0
 11
3.254409
 21
18.518766
 31
0.0
  0
LINE
  5
61F
100
AcDbEntity
  8
レイヤー_2
 62
    18
100
AcDbLine
 10
4.947329
 20
18.434189
 30
0.0
 11
5.116828
 21
18.518766
 31
0.0
  0
LINE
  5
61E
100
AcDbEntity
  8
レイヤー_2
 62
    18
100
AcDbLine
 10
5.539886
 20
18.34944
 30
0.0
 11
5.539886
 21
18.434189
 31
0.0
  0
LINE
  5
61D
100
AcDbEntity
  8
レイヤー_2
 62
    18
100
AcDbLine
 10
5.286327
 20
18.518766
 30
0.0
 11
5.539886
 21
18.434189
 31
0.0
  0
LINE
  5
61C
100
AcDbEntity
  8
レイヤー_2
 62
    18
100
AcDbLine
 10
4.270024
 20
18.434189
 30
0.0
 11
4.524272
 21
18.518766
 31
0.0
  0
LINE
  5
61B
100
AcDbEntity
  8
レイヤー_2
 62
    18
100
AcDbLine
 10
2.407605
 20
18.434189
 30
0.0
 11
2.492354
 21
18.434189
 31
0.0
  0
LINE
  5
61A
100
AcDbEntity
  8
レイヤー_2
 62
    18
100
AcDbLine
 10
2.745913
 20
18.180113
 30
0.0
 11
2.745913
 21
18.264863
 31
0.0
  0
LINE
  5
619
100
AcDbEntity
  8
レイヤー_2
 62
    18
100
AcDbLine
 10
2.577104
 20
18.34944
 30
0.0
 11
2.745913
 21
18.264863
 31
0.0
  0
LINE
  5
618
100
AcDbEntity
  8
レイヤー_2
 62
    18
100
AcDbLine
 10
3.423219
 20
18.180113
 30
0.0
 11
3.423219
 21
18.264863
 31
0.0
  0
LINE
  5
617
100
AcDbEntity
  8
レイヤー_2
 62
    18
100
AcDbLine
 10
3.16966
 20
18.34944
 30
0.0
 11
3.423219
 21
18.264863
 31
0.0
  0
LINE
  5
616
100
AcDbEntity
  8
レイヤー_2
 62
    18
100
AcDbLine
 10
2.745913
 20
18.264863
 30
0.0
 11
3.000161
 21
18.34944
 31
0.0
  0
LINE
  5
615
100
AcDbEntity
  8
レイヤー_2
 62
    18
100
AcDbLine
 10
4.015776
 20
18.180113
 30
0.0
 11
4.015776
 21
18.264863
 31
0.0
  0
LINE
  5
614
100
AcDbEntity
  8
レイヤー_2
 62
    18
100
AcDbLine
 10
4.015776
 20
18.264863
 30
0.0
 11
4.185274
 21
18.34944
 31
0.0
  0
LINE
  5
613
100
AcDbEntity
  8
レイヤー_2
 62
    18
100
AcDbLine
 10
4.609021
 20
18.180113
 30
0.0
 11
4.609021
 21
18.264863
 31
0.0
  0
LINE
  5
612
100
AcDbEntity
  8
レイヤー_2
 62
    18
100
AcDbLine
 10
4.439522
 20
18.34944
 30
0.0
 11
4.609021
 21
18.264863
 31
0.0
  0
LINE
  5
611
100
AcDbEntity
  8
レイヤー_2
 62
    18
100
AcDbLine
 10
3.423219
 20
18.264863
 30
0.0
 11
3.592718
 21
18.34944
 31
0.0
  0
LINE
  5
610
100
AcDbEntity
  8
レイヤー_2
 62
    18
100
AcDbLine
 10
5.201577
 20
18.180113
 30
0.0
 11
5.201577
 21
18.264863
 31
0.0
  0
LINE
  5
60F
100
AcDbEntity
  8
レイヤー_2
 62
    18
100
AcDbLine
 10
5.032079
 20
18.34944
 30
0.0
 11
5.201577
 21
18.264863
 31
0.0
  0
LINE
  5
60E
100
AcDbEntity
  8
レイヤー_2
 62
    18
100
AcDbLine
 10
3.762217
 20
18.34944
 30
0.0
 11
4.015776
 21
18.264863
 31
0.0
  0
LINE
  5
60D
100
AcDbEntity
  8
レイヤー_2
 62
    18
100
AcDbLine
 10
4.609021
 20
18.264863
 30
0.0
 11
4.86258
 21
18.34944
 31
0.0
  0
LINE
  5
60C
100
AcDbEntity
  8
レイヤー_2
 62
    18
100
AcDbLine
 10
2.153357
 20
18.180113
 30
0.0
 11
2.153357
 21
18.264863
 31
0.0
  0
LINE
  5
60B
100
AcDbEntity
  8
レイヤー_2
 62
    18
100
AcDbLine
 10
2.238106
 20
18.264863
 30
0.0
 11
2.407605
 21
18.34944
 31
0.0
  0
LINE
  5
60A
100
AcDbEntity
  8
レイヤー_2
 62
    18
100
AcDbLine
 10
5.878883
 20
18.180113
 30
0.0
 11
5.878883
 21
18.264863
 31
0.0
  0
LINE
  5
609
100
AcDbEntity
  8
レイヤー_2
 62
    18
100
AcDbLine
 10
5.624635
 20
18.34944
 30
0.0
 11
5.794134
 21
18.264863
 31
0.0
  0
LINE
  5
608
100
AcDbEntity
  8
レイヤー_2
 62
    18
100
AcDbLine
 10
5.201577
 20
18.264863
 30
0.0
 11
5.455136
 21
18.34944
 31
0.0
  0
LINE
  5
607
100
AcDbEntity
  8
レイヤー_2
 62
    18
100
AcDbLine
 10
2.492354
 20
18.095364
 30
0.0
 11
2.661164
 21
18.180113
 31
0.0
  0
LINE
  5
606
100
AcDbEntity
  8
レイヤー_2
 62
    18
100
AcDbLine
 10
4.100525
 20
18.180113
 30
0.0
 11
4.270024
 21
18.095364
 31
0.0
  0
LINE
  5
605
100
AcDbEntity
  8
レイヤー_2
 62
    18
100
AcDbLine
 10
2.238106
 20
18.180113
 30
0.0
 11
2.492354
 21
18.095364
 31
0.0
  0
LINE
  5
604
100
AcDbEntity
  8
レイヤー_2
 62
    18
100
AcDbLine
 10
3.507968
 20
18.180113
 30
0.0
 11
3.677467
 21
18.095364
 31
0.0
  0
LINE
  5
603
100
AcDbEntity
  8
レイヤー_2
 62
    18
100
AcDbLine
 10
2.830663
 20
18.180113
 30
0.0
 11
3.084911
 21
18.095364
 31
0.0
  0
LINE
  5
602
100
AcDbEntity
  8
レイヤー_2
 62
    18
100
AcDbLine
 10
3.084911
 20
18.095364
 30
0.0
 11
3.254409
 21
18.180113
 31
0.0
  0
LINE
  5
601
100
AcDbEntity
  8
レイヤー_2
 62
    18
100
AcDbLine
 10
5.539886
 20
18.095364
 30
0.0
 11
5.709384
 21
18.180113
 31
0.0
  0
LINE
  5
600
100
AcDbEntity
  8
レイヤー_2
 62
    18
100
AcDbLine
 10
4.69377
 20
18.180113
 30
0.0
 11
4.947329
 21
18.095364
 31
0.0
  0
LINE
  5
5FF
100
AcDbEntity
  8
レイヤー_2
 62
    18
100
AcDbLine
 10
5.286327
 20
18.180113
 30
0.0
 11
5.539886
 21
18.095364
 31
0.0
  0
LINE
  5
5FE
100
AcDbEntity
  8
レイヤー_2
 62
    18
100
AcDbLine
 10
4.947329
 20
18.095364
 30
0.0
 11
5.116828
 21
18.180113
 31
0.0
  0
LINE
  5
5FD
100
AcDbEntity
  8
レイヤー_2
 62
    18
100
AcDbLine
 10
4.270024
 20
18.095364
 30
0.0
 11
4.524272
 21
18.180113
 31
0.0
  0
LINE
  5
5FC
100
AcDbEntity
  8
レイヤー_2
 62
    18
100
AcDbLine
 10
3.677467
 20
18.095364
 30
0.0
 11
3.931715
 21
18.180113
 31
0.0
  0
LINE
  5
5FB
100
AcDbEntity
  8
レイヤー_2
 62
    18
100
AcDbLine
 10
2.745913
 20
17.926038
 30
0.0
 11
3.000161
 21
18.095364
 31
0.0
  0
LINE
  5
5FA
100
AcDbEntity
  8
レイヤー_2
 62
    18
100
AcDbLine
 10
3.423219
 20
17.926038
 30
0.0
 11
3.592718
 21
18.095364
 31
0.0
  0
LINE
  5
5F9
100
AcDbEntity
  8
レイヤー_2
 62
    18
100
AcDbLine
 10
2.577104
 20
18.095364
 30
0.0
 11
2.745913
 21
17.926038
 31
0.0
  0
LINE
  5
5F8
100
AcDbEntity
  8
レイヤー_2
 62
    18
100
AcDbLine
 10
2.153357
 20
17.926038
 30
0.0
 11
2.407605
 21
18.095364
 31
0.0
  0
LINE
  5
5F7
100
AcDbEntity
  8
レイヤー_2
 62
    18
100
AcDbLine
 10
5.201577
 20
17.926038
 30
0.0
 11
5.455136
 21
18.095364
 31
0.0
  0
LINE
  5
5F6
100
AcDbEntity
  8
レイヤー_2
 62
    18
100
AcDbLine
 10
4.439522
 20
18.095364
 30
0.0
 11
4.609021
 21
17.926038
 31
0.0
  0
LINE
  5
5F5
100
AcDbEntity
  8
レイヤー_2
 62
    18
100
AcDbLine
 10
1.983858
 20
18.095364
 30
0.0
 11
2.153357
 21
17.926038
 31
0.0
  0
LINE
  5
5F4
100
AcDbEntity
  8
レイヤー_2
 62
    18
100
AcDbLine
 10
4.609021
 20
17.926038
 30
0.0
 11
4.86258
 21
18.095364
 31
0.0
  0
LINE
  5
5F3
100
AcDbEntity
  8
レイヤー_2
 62
    18
100
AcDbLine
 10
5.624635
 20
18.095364
 30
0.0
 11
5.878883
 21
17.926038
 31
0.0
  0
LINE
  5
5F2
100
AcDbEntity
  8
レイヤー_2
 62
    18
100
AcDbLine
 10
3.16966
 20
18.095364
 30
0.0
 11
3.423219
 21
17.926038
 31
0.0
  0
LINE
  5
5F1
100
AcDbEntity
  8
レイヤー_2
 62
    18
100
AcDbLine
 10
5.878883
 20
17.926038
 30
0.0
 11
6.048382
 21
18.095364
 31
0.0
  0
LINE
  5
5F0
100
AcDbEntity
  8
レイヤー_2
 62
    18
100
AcDbLine
 10
5.032079
 20
18.095364
 30
0.0
 11
5.201577
 21
17.926038
 31
0.0
  0
LINE
  5
5EF
100
AcDbEntity
  8
レイヤー_2
 62
    18
100
AcDbLine
 10
3.762217
 20
18.095364
 30
0.0
 11
4.015776
 21
17.926038
 31
0.0
  0
LINE
  5
5EE
100
AcDbEntity
  8
レイヤー_2
 62
    18
100
AcDbLine
 10
4.015776
 20
17.926038
 30
0.0
 11
4.185274
 21
18.095364
 31
0.0
  0
LINE
  5
5ED
100
AcDbEntity
  8
レイヤー_2
 62
    18
100
AcDbLine
 10
3.084911
 20
17.756711
 30
0.0
 11
3.084911
 21
17.841461
 31
0.0
  0
LINE
  5
5EC
100
AcDbEntity
  8
レイヤー_2
 62
    18
100
AcDbLine
 10
2.830663
 20
17.926038
 30
0.0
 11
3.084911
 21
17.841461
 31
0.0
  0
LINE
  5
5EB
100
AcDbEntity
  8
レイヤー_2
 62
    18
100
AcDbLine
 10
3.677467
 20
17.756711
 30
0.0
 11
3.677467
 21
17.841461
 31
0.0
  0
LINE
  5
5EA
100
AcDbEntity
  8
レイヤー_2
 62
    18
100
AcDbLine
 10
3.507968
 20
17.926038
 30
0.0
 11
3.677467
 21
17.841461
 31
0.0
  0
LINE
  5
5E9
100
AcDbEntity
  8
レイヤー_2
 62
    18
100
AcDbLine
 10
4.270024
 20
17.756711
 30
0.0
 11
4.270024
 21
17.841461
 31
0.0
  0
LINE
  5
5E8
100
AcDbEntity
  8
レイヤー_2
 62
    18
100
AcDbLine
 10
4.270024
 20
17.841461
 30
0.0
 11
4.524272
 21
17.926038
 31
0.0
  0
LINE
  5
5E7
100
AcDbEntity
  8
レイヤー_2
 62
    18
100
AcDbLine
 10
4.947329
 20
17.756711
 30
0.0
 11
4.947329
 21
17.841461
 31
0.0
  0
LINE
  5
5E6
100
AcDbEntity
  8
レイヤー_2
 62
    18
100
AcDbLine
 10
4.69377
 20
17.926038
 30
0.0
 11
4.947329
 21
17.841461
 31
0.0
  0
LINE
  5
5E5
100
AcDbEntity
  8
レイヤー_2
 62
    18
100
AcDbLine
 10
5.539886
 20
17.756711
 30
0.0
 11
5.539886
 21
17.841461
 31
0.0
  0
LINE
  5
5E4
100
AcDbEntity
  8
レイヤー_2
 62
    18
100
AcDbLine
 10
5.286327
 20
17.926038
 30
0.0
 11
5.539886
 21
17.841461
 31
0.0
  0
LINE
  5
5E3
100
AcDbEntity
  8
レイヤー_2
 62
    18
100
AcDbLine
 10
5.539886
 20
17.841461
 30
0.0
 11
5.709384
 21
17.926038
 31
0.0
  0
LINE
  5
5E2
100
AcDbEntity
  8
レイヤー_2
 62
    18
100
AcDbLine
 10
3.677467
 20
17.841461
 30
0.0
 11
3.931715
 21
17.926038
 31
0.0
  0
LINE
  5
5E1
100
AcDbEntity
  8
レイヤー_2
 62
    18
100
AcDbLine
 10
4.100525
 20
17.926038
 30
0.0
 11
4.270024
 21
17.841461
 31
0.0
  0
LINE
  5
5E0
100
AcDbEntity
  8
レイヤー_2
 62
    18
100
AcDbLine
 10
2.492354
 20
17.756711
 30
0.0
 11
2.492354
 21
17.841461
 31
0.0
  0
LINE
  5
5DF
100
AcDbEntity
  8
レイヤー_2
 62
    18
100
AcDbLine
 10
2.238106
 20
17.926038
 30
0.0
 11
2.492354
 21
17.841461
 31
0.0
  0
LINE
  5
5DE
100
AcDbEntity
  8
レイヤー_2
 62
    18
100
AcDbLine
 10
4.947329
 20
17.841461
 30
0.0
 11
5.116828
 21
17.926038
 31
0.0
  0
LINE
  5
5DD
100
AcDbEntity
  8
レイヤー_2
 62
    18
100
AcDbLine
 10
3.084911
 20
17.841461
 30
0.0
 11
3.254409
 21
17.926038
 31
0.0
  0
LINE
  5
5DC
100
AcDbEntity
  8
レイヤー_2
 62
    18
100
AcDbLine
 10
1.815049
 20
17.756711
 30
0.0
 11
1.815049
 21
17.841461
 31
0.0
  0
LINE
  5
5DB
100
AcDbEntity
  8
レイヤー_2
 62
    18
100
AcDbLine
 10
1.815049
 20
17.841461
 30
0.0
 11
2.068608
 21
17.926038
 31
0.0
  0
LINE
  5
5DA
100
AcDbEntity
  8
レイヤー_2
 62
    18
100
AcDbLine
 10
6.132442
 20
17.756711
 30
0.0
 11
6.132442
 21
17.841461
 31
0.0
  0
LINE
  5
5D9
100
AcDbEntity
  8
レイヤー_2
 62
    18
100
AcDbLine
 10
5.963633
 20
17.926038
 30
0.0
 11
6.132442
 21
17.841461
 31
0.0
  0
LINE
  5
5D8
100
AcDbEntity
  8
レイヤー_2
 62
    18
100
AcDbLine
 10
2.492354
 20
17.841461
 30
0.0
 11
2.661164
 21
17.926038
 31
0.0
  0
LINE
  5
5D7
100
AcDbEntity
  8
レイヤー_2
 62
    18
100
AcDbLine
 10
2.153357
 20
17.587385
 30
0.0
 11
2.153357
 21
17.672134
 31
0.0
  0
LINE
  5
5D6
100
AcDbEntity
  8
レイヤー_2
 62
    18
100
AcDbLine
 10
1.899109
 20
17.756711
 30
0.0
 11
2.153357
 21
17.672134
 31
0.0
  0
LINE
  5
5D5
100
AcDbEntity
  8
レイヤー_2
 62
    18
100
AcDbLine
 10
4.609021
 20
17.587385
 30
0.0
 11
4.609021
 21
17.672134
 31
0.0
  0
LINE
  5
5D4
100
AcDbEntity
  8
レイヤー_2
 62
    18
100
AcDbLine
 10
4.609021
 20
17.672134
 30
0.0
 11
4.86258
 21
17.756711
 31
0.0
  0
LINE
  5
5D3
100
AcDbEntity
  8
レイヤー_2
 62
    18
100
AcDbLine
 10
5.201577
 20
17.587385
 30
0.0
 11
5.201577
 21
17.672134
 31
0.0
  0
LINE
  5
5D2
100
AcDbEntity
  8
レイヤー_2
 62
    18
100
AcDbLine
 10
5.201577
 20
17.672134
 30
0.0
 11
5.455136
 21
17.756711
 31
0.0
  0
LINE
  5
5D1
100
AcDbEntity
  8
レイヤー_2
 62
    18
100
AcDbLine
 10
4.015776
 20
17.587385
 30
0.0
 11
4.015776
 21
17.672134
 31
0.0
  0
LINE
  5
5D0
100
AcDbEntity
  8
レイヤー_2
 62
    18
100
AcDbLine
 10
3.762217
 20
17.756711
 30
0.0
 11
4.015776
 21
17.672134
 31
0.0
  0
LINE
  5
5CF
100
AcDbEntity
  8
レイヤー_2
 62
    18
100
AcDbLine
 10
3.423219
 20
17.587385
 30
0.0
 11
3.423219
 21
17.672134
 31
0.0
  0
LINE
  5
5CE
100
AcDbEntity
  8
レイヤー_2
 62
    18
100
AcDbLine
 10
3.16966
 20
17.756711
 30
0.0
 11
3.423219
 21
17.672134
 31
0.0
  0
LINE
  5
5CD
100
AcDbEntity
  8
レイヤー_2
 62
    18
100
AcDbLine
 10
5.878883
 20
17.587385
 30
0.0
 11
5.878883
 21
17.672134
 31
0.0
  0
LINE
  5
5CC
100
AcDbEntity
  8
レイヤー_2
 62
    18
100
AcDbLine
 10
5.624635
 20
17.756711
 30
0.0
 11
5.878883
 21
17.672134
 31
0.0
  0
LINE
  5
5CB
100
AcDbEntity
  8
レイヤー_2
 62
    18
100
AcDbLine
 10
5.878883
 20
17.672134
 30
0.0
 11
6.048382
 21
17.756711
 31
0.0
  0
LINE
  5
5CA
100
AcDbEntity
  8
レイヤー_2
 62
    18
100
AcDbLine
 10
4.015776
 20
17.672134
 30
0.0
 11
4.185274
 21
17.756711
 31
0.0
  0
LINE
  5
5C9
100
AcDbEntity
  8
レイヤー_2
 62
    18
100
AcDbLine
 10
4.439522
 20
17.756711
 30
0.0
 11
4.609021
 21
17.672134
 31
0.0
  0
LINE
  5
5C8
100
AcDbEntity
  8
レイヤー_2
 62
    18
100
AcDbLine
 10
2.745913
 20
17.587385
 30
0.0
 11
2.745913
 21
17.672134
 31
0.0
  0
LINE
  5
5C7
100
AcDbEntity
  8
レイヤー_2
 62
    18
100
AcDbLine
 10
2.577104
 20
17.756711
 30
0.0
 11
2.745913
 21
17.672134
 31
0.0
  0
LINE
  5
5C6
100
AcDbEntity
  8
レイヤー_2
 62
    18
100
AcDbLine
 10
5.032079
 20
17.756711
 30
0.0
 11
5.201577
 21
17.672134
 31
0.0
  0
LINE
  5
5C5
100
AcDbEntity
  8
レイヤー_2
 62
    18
100
AcDbLine
 10
2.153357
 20
17.672134
 30
0.0
 11
2.407605
 21
17.756711
 31
0.0
  0
LINE
  5
5C4
100
AcDbEntity
  8
レイヤー_2
 62
    18
100
AcDbLine
 10
2.745913
 20
17.672134
 30
0.0
 11
3.000161
 21
17.756711
 31
0.0
  0
LINE
  5
5C3
100
AcDbEntity
  8
レイヤー_2
 62
    18
100
AcDbLine
 10
3.423219
 20
17.672134
 30
0.0
 11
3.592718
 21
17.756711
 31
0.0
  0
LINE
  5
5C2
100
AcDbEntity
  8
レイヤー_2
 62
    18
100
AcDbLine
 10
5.963633
 20
17.587385
 30
0.0
 11
6.132442
 21
17.502808
 31
0.0
  0
LINE
  5
5C1
100
AcDbEntity
  8
レイヤー_2
 62
    18
100
AcDbLine
 10
1.899109
 20
17.502808
 30
0.0
 11
2.068608
 21
17.587385
 31
0.0
  0
LINE
  5
5C0
100
AcDbEntity
  8
レイヤー_2
 62
    18
100
AcDbLine
 10
5.539886
 20
17.418058
 30
0.0
 11
5.539886
 21
17.502808
 31
0.0
  0
LINE
  5
5BF
100
AcDbEntity
  8
レイヤー_2
 62
    18
100
AcDbLine
 10
5.539886
 20
17.502808
 30
0.0
 11
5.709384
 21
17.587385
 31
0.0
  0
LINE
  5
5BE
100
AcDbEntity
  8
レイヤー_2
 62
    18
100
AcDbLine
 10
3.084911
 20
17.418058
 30
0.0
 11
3.084911
 21
17.502808
 31
0.0
  0
LINE
  5
5BD
100
AcDbEntity
  8
レイヤー_2
 62
    18
100
AcDbLine
 10
2.830663
 20
17.587385
 30
0.0
 11
3.084911
 21
17.502808
 31
0.0
  0
LINE
  5
5BC
100
AcDbEntity
  8
レイヤー_2
 62
    18
100
AcDbLine
 10
4.947329
 20
17.418058
 30
0.0
 11
4.947329
 21
17.502808
 31
0.0
  0
LINE
  5
5BB
100
AcDbEntity
  8
レイヤー_2
 62
    18
100
AcDbLine
 10
4.69377
 20
17.587385
 30
0.0
 11
4.947329
 21
17.502808
 31
0.0
  0
LINE
  5
5BA
100
AcDbEntity
  8
レイヤー_2
 62
    18
100
AcDbLine
 10
4.270024
 20
17.418058
 30
0.0
 11
4.270024
 21
17.502808
 31
0.0
  0
LINE
  5
5B9
100
AcDbEntity
  8
レイヤー_2
 62
    18
100
AcDbLine
 10
4.100525
 20
17.587385
 30
0.0
 11
4.270024
 21
17.502808
 31
0.0
  0
LINE
  5
5B8
100
AcDbEntity
  8
レイヤー_2
 62
    18
100
AcDbLine
 10
3.084911
 20
17.502808
 30
0.0
 11
3.254409
 21
17.587385
 31
0.0
  0
LINE
  5
5B7
100
AcDbEntity
  8
レイヤー_2
 62
    18
100
AcDbLine
 10
3.677467
 20
17.418058
 30
0.0
 11
3.677467
 21
17.502808
 31
0.0
  0
LINE
  5
5B6
100
AcDbEntity
  8
レイヤー_2
 62
    18
100
AcDbLine
 10
3.507968
 20
17.587385
 30
0.0
 11
3.677467
 21
17.502808
 31
0.0
  0
LINE
  5
5B5
100
AcDbEntity
  8
レイヤー_2
 62
    18
100
AcDbLine
 10
4.947329
 20
17.502808
 30
0.0
 11
5.116828
 21
17.587385
 31
0.0
  0
LINE
  5
5B4
100
AcDbEntity
  8
レイヤー_2
 62
    18
100
AcDbLine
 10
2.492354
 20
17.418058
 30
0.0
 11
2.492354
 21
17.502808
 31
0.0
  0
LINE
  5
5B3
100
AcDbEntity
  8
レイヤー_2
 62
    18
100
AcDbLine
 10
2.238106
 20
17.587385
 30
0.0
 11
2.492354
 21
17.502808
 31
0.0
  0
LINE
  5
5B2
100
AcDbEntity
  8
レイヤー_2
 62
    18
100
AcDbLine
 10
4.270024
 20
17.502808
 30
0.0
 11
4.524272
 21
17.587385
 31
0.0
  0
LINE
  5
5B1
100
AcDbEntity
  8
レイヤー_2
 62
    18
100
AcDbLine
 10
2.492354
 20
17.502808
 30
0.0
 11
2.661164
 21
17.587385
 31
0.0
  0
LINE
  5
5B0
100
AcDbEntity
  8
レイヤー_2
 62
    18
100
AcDbLine
 10
5.286327
 20
17.587385
 30
0.0
 11
5.539886
 21
17.502808
 31
0.0
  0
LINE
  5
5AF
100
AcDbEntity
  8
レイヤー_2
 62
    18
100
AcDbLine
 10
3.677467
 20
17.502808
 30
0.0
 11
3.931715
 21
17.587385
 31
0.0
  0
LINE
  5
5AE
100
AcDbEntity
  8
レイヤー_2
 62
    18
100
AcDbLine
 10
4.609021
 20
17.248732
 30
0.0
 11
4.609021
 21
17.333481
 31
0.0
  0
LINE
  5
5AD
100
AcDbEntity
  8
レイヤー_2
 62
    18
100
AcDbLine
 10
4.609021
 20
17.333481
 30
0.0
 11
4.86258
 21
17.418058
 31
0.0
  0
LINE
  5
5AC
100
AcDbEntity
  8
レイヤー_2
 62
    18
100
AcDbLine
 10
4.439522
 20
17.418058
 30
0.0
 11
4.609021
 21
17.333481
 31
0.0
  0
LINE
  5
5AB
100
AcDbEntity
  8
レイヤー_2
 62
    18
100
AcDbLine
 10
5.878883
 20
17.248732
 30
0.0
 11
5.878883
 21
17.333481
 31
0.0
  0
LINE
  5
5AA
100
AcDbEntity
  8
レイヤー_2
 62
    18
100
AcDbLine
 10
5.878883
 20
17.333481
 30
0.0
 11
6.048382
 21
17.418058
 31
0.0
  0
LINE
  5
5A9
100
AcDbEntity
  8
レイヤー_2
 62
    18
100
AcDbLine
 10
5.624635
 20
17.418058
 30
0.0
 11
5.878883
 21
17.333481
 31
0.0
  0
LINE
  5
5A8
100
AcDbEntity
  8
レイヤー_2
 62
    18
100
AcDbLine
 10
4.015776
 20
17.248732
 30
0.0
 11
4.015776
 21
17.333481
 31
0.0
  0
LINE
  5
5A7
100
AcDbEntity
  8
レイヤー_2
 62
    18
100
AcDbLine
 10
3.762217
 20
17.418058
 30
0.0
 11
4.015776
 21
17.333481
 31
0.0
  0
LINE
  5
5A6
100
AcDbEntity
  8
レイヤー_2
 62
    18
100
AcDbLine
 10
5.201577
 20
17.248732
 30
0.0
 11
5.201577
 21
17.333481
 31
0.0
  0
LINE
  5
5A5
100
AcDbEntity
  8
レイヤー_2
 62
    18
100
AcDbLine
 10
5.201577
 20
17.333481
 30
0.0
 11
5.455136
 21
17.418058
 31
0.0
  0
LINE
  5
5A4
100
AcDbEntity
  8
レイヤー_2
 62
    18
100
AcDbLine
 10
5.032079
 20
17.418058
 30
0.0
 11
5.201577
 21
17.333481
 31
0.0
  0
LINE
  5
5A3
100
AcDbEntity
  8
レイヤー_2
 62
    18
100
AcDbLine
 10
2.745913
 20
17.248732
 30
0.0
 11
2.745913
 21
17.333481
 31
0.0
  0
LINE
  5
5A2
100
AcDbEntity
  8
レイヤー_2
 62
    18
100
AcDbLine
 10
2.745913
 20
17.333481
 30
0.0
 11
3.000161
 21
17.418058
 31
0.0
  0
LINE
  5
5A1
100
AcDbEntity
  8
レイヤー_2
 62
    18
100
AcDbLine
 10
3.423219
 20
17.248732
 30
0.0
 11
3.423219
 21
17.333481
 31
0.0
  0
LINE
  5
5A0
100
AcDbEntity
  8
レイヤー_2
 62
    18
100
AcDbLine
 10
3.423219
 20
17.333481
 30
0.0
 11
3.592718
 21
17.418058
 31
0.0
  0
LINE
  5
59F
100
AcDbEntity
  8
レイヤー_2
 62
    18
100
AcDbLine
 10
2.153357
 20
17.248732
 30
0.0
 11
2.153357
 21
17.333481
 31
0.0
  0
LINE
  5
59E
100
AcDbEntity
  8
レイヤー_2
 62
    18
100
AcDbLine
 10
1.899109
 20
17.418058
 30
0.0
 11
2.153357
 21
17.333481
 31
0.0
  0
LINE
  5
59D
100
AcDbEntity
  8
レイヤー_2
 62
    18
100
AcDbLine
 10
2.577104
 20
17.418058
 30
0.0
 11
2.745913
 21
17.333481
 31
0.0
  0
LINE
  5
59C
100
AcDbEntity
  8
レイヤー_2
 62
    18
100
AcDbLine
 10
2.153357
 20
17.333481
 30
0.0
 11
2.407605
 21
17.418058
 31
0.0
  0
LINE
  5
59B
100
AcDbEntity
  8
レイヤー_2
 62
    18
100
AcDbLine
 10
3.16966
 20
17.418058
 30
0.0
 11
3.423219
 21
17.333481
 31
0.0
  0
LINE
  5
59A
100
AcDbEntity
  8
レイヤー_2
 62
    18
100
AcDbLine
 10
4.015776
 20
17.333481
 30
0.0
 11
4.185274
 21
17.418058
 31
0.0
  0
LINE
  5
599
100
AcDbEntity
  8
レイヤー_2
 62
    18
100
AcDbLine
 10
5.963633
 20
17.333481
 30
0.0
 11
5.963633
 21
17.248732
 31
0.0
  0
LINE
  5
598
100
AcDbEntity
  8
レイヤー_2
 62
    18
100
AcDbLine
 10
5.286327
 20
17.333481
 30
0.0
 11
5.539886
 21
17.164155
 31
0.0
  0
LINE
  5
597
100
AcDbEntity
  8
レイヤー_2
 62
    18
100
AcDbLine
 10
5.539886
 20
17.164155
 30
0.0
 11
5.709384
 21
17.333481
 31
0.0
  0
LINE
  5
596
100
AcDbEntity
  8
レイヤー_2
 62
    18
100
AcDbLine
 10
4.947329
 20
17.164155
 30
0.0
 11
5.116828
 21
17.333481
 31
0.0
  0
LINE
  5
595
100
AcDbEntity
  8
レイヤー_2
 62
    18
100
AcDbLine
 10
4.69377
 20
17.333481
 30
0.0
 11
4.947329
 21
17.164155
 31
0.0
  0
LINE
  5
594
100
AcDbEntity
  8
レイヤー_2
 62
    18
100
AcDbLine
 10
4.270024
 20
17.164155
 30
0.0
 11
4.524272
 21
17.333481
 31
0.0
  0
LINE
  5
593
100
AcDbEntity
  8
レイヤー_2
 62
    18
100
AcDbLine
 10
3.677467
 20
17.164155
 30
0.0
 11
3.931715
 21
17.333481
 31
0.0
  0
LINE
  5
592
100
AcDbEntity
  8
レイヤー_2
 62
    18
100
AcDbLine
 10
2.830663
 20
17.333481
 30
0.0
 11
3.084911
 21
17.164155
 31
0.0
  0
LINE
  5
591
100
AcDbEntity
  8
レイヤー_2
 62
    18
100
AcDbLine
 10
3.507968
 20
17.333481
 30
0.0
 11
3.677467
 21
17.164155
 31
0.0
  0
LINE
  5
590
100
AcDbEntity
  8
レイヤー_2
 62
    18
100
AcDbLine
 10
4.100525
 20
17.333481
 30
0.0
 11
4.270024
 21
17.164155
 31
0.0
  0
LINE
  5
58F
100
AcDbEntity
  8
レイヤー_2
 62
    18
100
AcDbLine
 10
2.238106
 20
17.333481
 30
0.0
 11
2.492354
 21
17.164155
 31
0.0
  0
LINE
  5
58E
100
AcDbEntity
  8
レイヤー_2
 62
    18
100
AcDbLine
 10
2.492354
 20
17.164155
 30
0.0
 11
2.661164
 21
17.333481
 31
0.0
  0
LINE
  5
58D
100
AcDbEntity
  8
レイヤー_2
 62
    18
100
AcDbLine
 10
1.983858
 20
17.248732
 30
0.0
 11
2.068608
 21
17.333481
 31
0.0
  0
LINE
  5
58C
100
AcDbEntity
  8
レイヤー_2
 62
    18
100
AcDbLine
 10
3.084911
 20
17.164155
 30
0.0
 11
3.254409
 21
17.333481
 31
0.0
  0
LINE
  5
58B
100
AcDbEntity
  8
レイヤー_2
 62
    18
100
AcDbLine
 10
5.032079
 20
17.164155
 30
0.0
 11
5.201577
 21
16.994828
 31
0.0
  0
LINE
  5
58A
100
AcDbEntity
  8
レイヤー_2
 62
    18
100
AcDbLine
 10
4.439522
 20
17.164155
 30
0.0
 11
4.609021
 21
16.994828
 31
0.0
  0
LINE
  5
589
100
AcDbEntity
  8
レイヤー_2
 62
    18
100
AcDbLine
 10
5.624635
 20
17.164155
 30
0.0
 11
5.709384
 21
17.079405
 31
0.0
  0
LINE
  5
588
100
AcDbEntity
  8
レイヤー_2
 62
    18
100
AcDbLine
 10
5.201577
 20
16.994828
 30
0.0
 11
5.455136
 21
17.164155
 31
0.0
  0
LINE
  5
587
100
AcDbEntity
  8
レイヤー_2
 62
    18
100
AcDbLine
 10
4.609021
 20
16.994828
 30
0.0
 11
4.86258
 21
17.164155
 31
0.0
  0
LINE
  5
586
100
AcDbEntity
  8
レイヤー_2
 62
    18
100
AcDbLine
 10
3.762217
 20
17.164155
 30
0.0
 11
4.015776
 21
16.994828
 31
0.0
  0
LINE
  5
585
100
AcDbEntity
  8
レイヤー_2
 62
    18
100
AcDbLine
 10
3.16966
 20
17.164155
 30
0.0
 11
3.423219
 21
16.994828
 31
0.0
  0
LINE
  5
584
100
AcDbEntity
  8
レイヤー_2
 62
    18
100
AcDbLine
 10
2.577104
 20
17.164155
 30
0.0
 11
2.745913
 21
16.994828
 31
0.0
  0
LINE
  5
583
100
AcDbEntity
  8
レイヤー_2
 62
    18
100
AcDbLine
 10
3.423219
 20
16.994828
 30
0.0
 11
3.592718
 21
17.164155
 31
0.0
  0
LINE
  5
582
100
AcDbEntity
  8
レイヤー_2
 62
    18
100
AcDbLine
 10
4.015776
 20
16.994828
 30
0.0
 11
4.185274
 21
17.164155
 31
0.0
  0
LINE
  5
581
100
AcDbEntity
  8
レイヤー_2
 62
    18
100
AcDbLine
 10
2.745913
 20
16.994828
 30
0.0
 11
3.000161
 21
17.164155
 31
0.0
  0
LINE
  5
580
100
AcDbEntity
  8
レイヤー_2
 62
    18
100
AcDbLine
 10
2.238106
 20
17.079405
 30
0.0
 11
2.407605
 21
17.164155
 31
0.0
  0
LINE
  5
57F
100
AcDbEntity
  8
レイヤー_2
 62
    18
100
AcDbLine
 10
5.286327
 20
16.994828
 30
0.0
 11
5.455136
 21
16.910079
 31
0.0
  0
LINE
  5
57E
100
AcDbEntity
  8
レイヤー_2
 62
    18
100
AcDbLine
 10
4.947329
 20
16.825502
 30
0.0
 11
4.947329
 21
16.910079
 31
0.0
  0
LINE
  5
57D
100
AcDbEntity
  8
レイヤー_2
 62
    18
100
AcDbLine
 10
4.69377
 20
16.994828
 30
0.0
 11
4.947329
 21
16.910079
 31
0.0
  0
LINE
  5
57C
100
AcDbEntity
  8
レイヤー_2
 62
    18
100
AcDbLine
 10
4.270024
 20
16.825502
 30
0.0
 11
4.270024
 21
16.910079
 31
0.0
  0
LINE
  5
57B
100
AcDbEntity
  8
レイヤー_2
 62
    18
100
AcDbLine
 10
4.100525
 20
16.994828
 30
0.0
 11
4.270024
 21
16.910079
 31
0.0
  0
LINE
  5
57A
100
AcDbEntity
  8
レイヤー_2
 62
    18
100
AcDbLine
 10
4.947329
 20
16.910079
 30
0.0
 11
5.116828
 21
16.994828
 31
0.0
  0
LINE
  5
579
100
AcDbEntity
  8
レイヤー_2
 62
    18
100
AcDbLine
 10
3.084911
 20
16.825502
 30
0.0
 11
3.084911
 21
16.910079
 31
0.0
  0
LINE
  5
578
100
AcDbEntity
  8
レイヤー_2
 62
    18
100
AcDbLine
 10
2.830663
 20
16.994828
 30
0.0
 11
3.084911
 21
16.910079
 31
0.0
  0
LINE
  5
577
100
AcDbEntity
  8
レイヤー_2
 62
    18
100
AcDbLine
 10
3.677467
 20
16.825502
 30
0.0
 11
3.677467
 21
16.910079
 31
0.0
  0
LINE
  5
576
100
AcDbEntity
  8
レイヤー_2
 62
    18
100
AcDbLine
 10
3.677467
 20
16.910079
 30
0.0
 11
3.931715
 21
16.994828
 31
0.0
  0
LINE
  5
575
100
AcDbEntity
  8
レイヤー_2
 62
    18
100
AcDbLine
 10
3.507968
 20
16.994828
 30
0.0
 11
3.677467
 21
16.910079
 31
0.0
  0
LINE
  5
574
100
AcDbEntity
  8
レイヤー_2
 62
    18
100
AcDbLine
 10
4.270024
 20
16.910079
 30
0.0
 11
4.524272
 21
16.994828
 31
0.0
  0
LINE
  5
573
100
AcDbEntity
  8
レイヤー_2
 62
    18
100
AcDbLine
 10
2.577104
 20
16.910079
 30
0.0
 11
2.661164
 21
16.994828
 31
0.0
  0
LINE
  5
572
100
AcDbEntity
  8
レイヤー_2
 62
    18
100
AcDbLine
 10
3.084911
 20
16.910079
 30
0.0
 11
3.254409
 21
16.994828
 31
0.0
  0
LINE
  5
571
100
AcDbEntity
  8
レイヤー_2
 62
    18
100
AcDbLine
 10
5.032079
 20
16.825502
 30
0.0
 11
5.116828
 21
16.825502
 31
0.0
  0
LINE
  5
570
100
AcDbEntity
  8
レイヤー_2
 62
    18
100
AcDbLine
 10
4.609021
 20
16.656175
 30
0.0
 11
4.609021
 21
16.740752
 31
0.0
  0
LINE
  5
56F
100
AcDbEntity
  8
レイヤー_2
 62
    18
100
AcDbLine
 10
4.439522
 20
16.825502
 30
0.0
 11
4.609021
 21
16.740752
 31
0.0
  0
LINE
  5
56E
100
AcDbEntity
  8
レイヤー_2
 62
    18
100
AcDbLine
 10
4.015776
 20
16.656175
 30
0.0
 11
4.015776
 21
16.740752
 31
0.0
  0
LINE
  5
56D
100
AcDbEntity
  8
レイヤー_2
 62
    18
100
AcDbLine
 10
3.762217
 20
16.825502
 30
0.0
 11
4.015776
 21
16.740752
 31
0.0
  0
LINE
  5
56C
100
AcDbEntity
  8
レイヤー_2
 62
    18
100
AcDbLine
 10
3.423219
 20
16.656175
 30
0.0
 11
3.423219
 21
16.740752
 31
0.0
  0
LINE
  5
56B
100
AcDbEntity
  8
レイヤー_2
 62
    18
100
AcDbLine
 10
3.16966
 20
16.825502
 30
0.0
 11
3.423219
 21
16.740752
 31
0.0
  0
LINE
  5
56A
100
AcDbEntity
  8
レイヤー_2
 62
    18
100
AcDbLine
 10
4.015776
 20
16.740752
 30
0.0
 11
4.185274
 21
16.825502
 31
0.0
  0
LINE
  5
569
100
AcDbEntity
  8
レイヤー_2
 62
    18
100
AcDbLine
 10
4.609021
 20
16.740752
 30
0.0
 11
4.86258
 21
16.825502
 31
0.0
  0
LINE
  5
568
100
AcDbEntity
  8
レイヤー_2
 62
    18
100
AcDbLine
 10
3.423219
 20
16.740752
 30
0.0
 11
3.592718
 21
16.825502
 31
0.0
  0
LINE
  5
567
100
AcDbEntity
  8
レイヤー_2
 62
    18
100
AcDbLine
 10
2.915412
 20
16.825502
 30
0.0
 11
3.000161
 21
16.825502
 31
0.0
  0
LINE
  5
566
100
AcDbEntity
  8
レイヤー_2
 62
    18
100
AcDbLine
 10
3.846966
 20
16.656175
 30
0.0
 11
3.931715
 21
16.656175
 31
0.0
  0
POLYLINE
  5
55F
100
AcDbEntity
  8
レイヤー_2
 62
    18
100
AcDb2dPolyline
 66
     1
 10
0.0
 20
0.0
 30
0.0
  0
VERTEX
  5
560
100
AcDbEntity
  8
レイヤー_2
 62
    18
100
AcDbVertex
100
AcDb2dVertex
 10
4.015776
 20
18.772842
 30
0.0
  0
VERTEX
  5
561
100
AcDbEntity
  8
レイヤー_2
 62
    18
100
AcDbVertex
100
AcDb2dVertex
 10
3.507968
 20
18.772842
 30
0.0
  0
VERTEX
  5
562
100
AcDbEntity
  8
レイヤー_2
 62
    18
100
AcDbVertex
100
AcDb2dVertex
 10
3.084911
 20
18.688093
 30
0.0
  0
VERTEX
  5
563
100
AcDbEntity
  8
レイヤー_2
 62
    18
100
AcDbVertex
100
AcDb2dVertex
 10
2.745913
 20
18.603516
 30
0.0
  0
VERTEX
  5
564
100
AcDbEntity
  8
レイヤー_2
 62
    18
100
AcDbVertex
100
AcDb2dVertex
 10
2.661164
 20
18.518766
 30
0.0
  0
SEQEND
  5
565
100
AcDbEntity
  8
レイヤー_2
 62
    18
  0
POLYLINE
  5
553
100
AcDbEntity
  8
レイヤー_2
 62
    18
100
AcDb2dPolyline
 66
     1
 10
0.0
 20
0.0
 30
0.0
  0
VERTEX
  5
554
100
AcDbEntity
  8
レイヤー_2
 62
    18
100
AcDbVertex
100
AcDb2dVertex
 10
1.899109
 20
17.248732
 30
0.0
  0
VERTEX
  5
555
100
AcDbEntity
  8
レイヤー_2
 62
    18
100
AcDbVertex
100
AcDb2dVertex
 10
1.983858
 20
17.164155
 30
0.0
  0
VERTEX
  5
556
100
AcDbEntity
  8
レイヤー_2
 62
    18
100
AcDbVertex
100
AcDb2dVertex
 10
2.238106
 20
16.994828
 30
0.0
  0
VERTEX
  5
557
100
AcDbEntity
  8
レイヤー_2
 62
    18
100
AcDbVertex
100
AcDb2dVertex
 10
2.915412
 20
16.656175
 30
0.0
  0
VERTEX
  5
558
100
AcDbEntity
  8
レイヤー_2
 62
    18
100
AcDbVertex
100
AcDb2dVertex
 10
3.33847
 20
16.571426
 30
0.0
  0
VERTEX
  5
559
100
AcDbEntity
  8
レイヤー_2
 62
    18
100
AcDbVertex
100
AcDb2dVertex
 10
4.69377
 20
16.571426
 30
0.0
  0
VERTEX
  5
55A
100
AcDbEntity
  8
レイヤー_2
 62
    18
100
AcDbVertex
100
AcDb2dVertex
 10
5.116828
 20
16.656175
 30
0.0
  0
VERTEX
  5
55B
100
AcDbEntity
  8
レイヤー_2
 62
    18
100
AcDbVertex
100
AcDb2dVertex
 10
5.794134
 20
16.994828
 30
0.0
  0
VERTEX
  5
55C
100
AcDbEntity
  8
レイヤー_2
 62
    18
100
AcDbVertex
100
AcDb2dVertex
 10
6.048382
 20
17.164155
 30
0.0
  0
VERTEX
  5
55D
100
AcDbEntity
  8
レイヤー_2
 62
    18
100
AcDbVertex
100
AcDb2dVertex
 10
6.132442
 20
17.333481
 30
0.0
  0
SEQEND
  5
55E
100
AcDbEntity
  8
レイヤー_2
 62
    18
  0
POLYLINE
  5
54A
100
AcDbEntity
  8
レイヤー_2
 62
    18
100
AcDb2dPolyline
 66
     1
 10
0.0
 20
0.0
 30
0.0
  0
VERTEX
  5
54B
100
AcDbEntity
  8
レイヤー_2
 62
    18
100
AcDbVertex
100
AcDb2dVertex
 10
4.015776
 20
18.857419
 30
0.0
  0
VERTEX
  5
54C
100
AcDbEntity
  8
レイヤー_2
 62
    18
100
AcDbVertex
100
AcDb2dVertex
 10
4.439522
 20
18.857419
 30
0.0
  0
VERTEX
  5
54D
100
AcDbEntity
  8
レイヤー_2
 62
    18
100
AcDbVertex
100
AcDb2dVertex
 10
5.286327
 20
18.688093
 30
0.0
  0
VERTEX
  5
54E
100
AcDbEntity
  8
レイヤー_2
 62
    18
100
AcDbVertex
100
AcDb2dVertex
 10
5.963633
 20
18.34944
 30
0.0
  0
VERTEX
  5
54F
100
AcDbEntity
  8
レイヤー_2
 62
    18
100
AcDbVertex
100
AcDb2dVertex
 10
6.132442
 20
18.180113
 30
0.0
  0
VERTEX
  5
550
100
AcDbEntity
  8
レイヤー_2
 62
    18
100
AcDbVertex
100
AcDb2dVertex
 10
6.301941
 20
17.926038
 30
0.0
  0
VERTEX
  5
551
100
AcDbEntity
  8
レイヤー_2
 62
    18
100
AcDbVertex
100
AcDb2dVertex
 10
6.301941
 20
17.756711
 30
0.0
  0
SEQEND
  5
552
100
AcDbEntity
  8
レイヤー_2
 62
    18
  0
POLYLINE
  5
53F
100
AcDbEntity
  8
レイヤー_2
 62
    18
100
AcDb2dPolyline
 66
     1
 10
0.0
 20
0.0
 30
0.0
  0
VERTEX
  5
540
100
AcDbEntity
  8
レイヤー_2
 62
    18
100
AcDbVertex
100
AcDb2dVertex
 10
1.64555
 20
17.756711
 30
0.0
  0
VERTEX
  5
541
100
AcDbEntity
  8
レイヤー_2
 62
    18
100
AcDbVertex
100
AcDb2dVertex
 10
1.730299
 20
17.926038
 30
0.0
  0
VERTEX
  5
542
100
AcDbEntity
  8
レイヤー_2
 62
    18
100
AcDbVertex
100
AcDb2dVertex
 10
1.899109
 20
18.180113
 30
0.0
  0
VERTEX
  5
543
100
AcDbEntity
  8
レイヤー_2
 62
    18
100
AcDbVertex
100
AcDb2dVertex
 10
2.068608
 20
18.34944
 30
0.0
  0
VERTEX
  5
544
100
AcDbEntity
  8
レイヤー_2
 62
    18
100
AcDbVertex
100
AcDb2dVertex
 10
2.322856
 20
18.518766
 30
0.0
  0
VERTEX
  5
545
100
AcDbEntity
  8
レイヤー_2
 62
    18
100
AcDbVertex
100
AcDb2dVertex
 10
2.745913
 20
18.688093
 30
0.0
  0
VERTEX
  5
546
100
AcDbEntity
  8
レイヤー_2
 62
    18
100
AcDbVertex
100
AcDb2dVertex
 10
3.084911
 20
18.772842
 30
0.0
  0
VERTEX
  5
547
100
AcDbEntity
  8
レイヤー_2
 62
    18
100
AcDbVertex
100
AcDb2dVertex
 10
3.507968
 20
18.857419
 30
0.0
  0
VERTEX
  5
548
100
AcDbEntity
  8
レイヤー_2
 62
    18
100
AcDbVertex
100
AcDb2dVertex
 10
4.015776
 20
18.857419
 30
0.0
  0
SEQEND
  5
549
100
AcDbEntity
  8
レイヤー_2
 62
    18
  0
LINE
  5
53E
100
AcDbEntity
  8
レイヤー_2
 62
    18
100
AcDbLine
 10
2.407605
 20
18.180113
 30
0.0
 11
2.492354
 21
18.095364
 31
0.0
  0
POLYLINE
  5
539
100
AcDbEntity
  8
レイヤー_2
 62
    18
100
AcDb2dPolyline
 66
     1
 10
0.0
 20
0.0
 30
0.0
  0
VERTEX
  5
53A
100
AcDbEntity
  8
レイヤー_2
 62
    18
100
AcDbVertex
100
AcDb2dVertex
 10
2.577104
 20
18.095364
 30
0.0
  0
VERTEX
  5
53B
100
AcDbEntity
  8
レイヤー_2
 62
    18
100
AcDbVertex
100
AcDb2dVertex
 10
2.745913
 20
18.010787
 30
0.0
  0
VERTEX
  5
53C
100
AcDbEntity
  8
レイヤー_2
 62
    18
100
AcDbVertex
100
AcDb2dVertex
 10
2.830663
 20
18.010787
 30
0.0
  0
SEQEND
  5
53D
100
AcDbEntity
  8
レイヤー_2
 62
    18
  0
POLYLINE
  5
534
100
AcDbEntity
  8
レイヤー_2
 62
    18
100
AcDb2dPolyline
 66
     1
 10
0.0
 20
0.0
 30
0.0
  0
VERTEX
  5
535
100
AcDbEntity
  8
レイヤー_2
 62
    18
100
AcDbVertex
100
AcDb2dVertex
 10
3.000161
 20
17.926038
 30
0.0
  0
VERTEX
  5
536
100
AcDbEntity
  8
レイヤー_2
 62
    18
100
AcDbVertex
100
AcDb2dVertex
 10
3.084911
 20
17.926038
 30
0.0
  0
VERTEX
  5
537
100
AcDbEntity
  8
レイヤー_2
 62
    18
100
AcDbVertex
100
AcDb2dVertex
 10
3.33847
 20
17.926038
 30
0.0
  0
SEQEND
  5
538
100
AcDbEntity
  8
レイヤー_2
 62
    18
  0
LINE
  5
533
100
AcDbEntity
  8
レイヤー_2
 62
    18
100
AcDbLine
 10
3.592718
 20
17.841461
 30
0.0
 11
3.762217
 21
17.841461
 31
0.0
  0
LINE
  5
532
100
AcDbEntity
  8
レイヤー_2
 62
    18
100
AcDbLine
 10
3.931715
 20
17.841461
 30
0.0
 11
4.015776
 21
17.841461
 31
0.0
  0
LINE
  5
531
100
AcDbEntity
  8
レイヤー_2
 62
    18
100
AcDbLine
 10
4.185274
 20
17.841461
 30
0.0
 11
4.439522
 21
17.841461
 31
0.0
  0
POLYLINE
  5
52C
100
AcDbEntity
  8
レイヤー_2
 62
    18
100
AcDb2dPolyline
 66
     1
 10
0.0
 20
0.0
 30
0.0
  0
VERTEX
  5
52D
100
AcDbEntity
  8
レイヤー_2
 62
    18
100
AcDbVertex
100
AcDb2dVertex
 10
4.69377
 20
17.926038
 30
0.0
  0
VERTEX
  5
52E
100
AcDbEntity
  8
レイヤー_2
 62
    18
100
AcDbVertex
100
AcDb2dVertex
 10
4.86258
 20
17.926038
 30
0.0
  0
VERTEX
  5
52F
100
AcDbEntity
  8
レイヤー_2
 62
    18
100
AcDbVertex
100
AcDb2dVertex
 10
5.032079
 20
17.926038
 30
0.0
  0
SEQEND
  5
530
100
AcDbEntity
  8
レイヤー_2
 62
    18
  0
POLYLINE
  5
527
100
AcDbEntity
  8
レイヤー_2
 62
    18
100
AcDb2dPolyline
 66
     1
 10
0.0
 20
0.0
 30
0.0
  0
VERTEX
  5
528
100
AcDbEntity
  8
レイヤー_2
 62
    18
100
AcDbVertex
100
AcDb2dVertex
 10
5.116828
 20
18.010787
 30
0.0
  0
VERTEX
  5
529
100
AcDbEntity
  8
レイヤー_2
 62
    18
100
AcDbVertex
100
AcDb2dVertex
 10
5.286327
 20
18.010787
 30
0.0
  0
VERTEX
  5
52A
100
AcDbEntity
  8
レイヤー_2
 62
    18
100
AcDbVertex
100
AcDb2dVertex
 10
5.371076
 20
18.095364
 30
0.0
  0
SEQEND
  5
52B
100
AcDbEntity
  8
レイヤー_2
 62
    18
  0
LINE
  5
526
100
AcDbEntity
  8
レイヤー_2
 62
    18
100
AcDbLine
 10
5.539886
 20
18.095364
 30
0.0
 11
5.624635
 21
18.180113
 31
0.0
  0
POLYLINE
  5
507
100
AcDbEntity
  8
レイヤー_2
 62
    18
100
AcDb2dPolyline
 66
     1
 10
0.0
 20
0.0
 30
0.0
  0
VERTEX
  5
508
100
AcDbEntity
  8
レイヤー_2
 62
    18
100
AcDbVertex
100
AcDb2dVertex
 10
4.015776
 20
18.772842
 30
0.0
  0
VERTEX
  5
509
100
AcDbEntity
  8
レイヤー_2
 62
    18
100
AcDbVertex
100
AcDb2dVertex
 10
3.592718
 20
18.772842
 30
0.0
  0
VERTEX
  5
50A
100
AcDbEntity
  8
レイヤー_2
 62
    18
100
AcDbVertex
100
AcDb2dVertex
 10
2.745913
 20
18.603516
 30
0.0
  0
VERTEX
  5
50B
100
AcDbEntity
  8
レイヤー_2
 62
    18
100
AcDbVertex
100
AcDb2dVertex
 10
2.407605
 20
18.434189
 30
0.0
  0
VERTEX
  5
50C
100
AcDbEntity
  8
レイヤー_2
 62
    18
100
AcDbVertex
100
AcDb2dVertex
 10
2.153357
 20
18.264863
 30
0.0
  0
VERTEX
  5
50D
100
AcDbEntity
  8
レイヤー_2
 62
    18
100
AcDbVertex
100
AcDb2dVertex
 10
1.983858
 20
18.010787
 30
0.0
  0
VERTEX
  5
50E
100
AcDbEntity
  8
レイヤー_2
 62
    18
100
AcDbVertex
100
AcDb2dVertex
 10
1.815049
 20
17.841461
 30
0.0
  0
VERTEX
  5
50F
100
AcDbEntity
  8
レイヤー_2
 62
    18
100
AcDbVertex
100
AcDb2dVertex
 10
1.815049
 20
17.587385
 30
0.0
  0
VERTEX
  5
510
100
AcDbEntity
  8
レイヤー_2
 62
    18
100
AcDbVertex
100
AcDb2dVertex
 10
1.899109
 20
17.418058
 30
0.0
  0
VERTEX
  5
511
100
AcDbEntity
  8
レイヤー_2
 62
    18
100
AcDbVertex
100
AcDb2dVertex
 10
2.068608
 20
17.164155
 30
0.0
  0
VERTEX
  5
512
100
AcDbEntity
  8
レイヤー_2
 62
    18
100
AcDbVertex
100
AcDb2dVertex
 10
2.238106
 20
16.994828
 30
0.0
  0
VERTEX
  5
513
100
AcDbEntity
  8
レイヤー_2
 62
    18
100
AcDbVertex
100
AcDb2dVertex
 10
2.577104
 20
16.825502
 30
0.0
  0
VERTEX
  5
514
100
AcDbEntity
  8
レイヤー_2
 62
    18
100
AcDbVertex
100
AcDb2dVertex
 10
2.915412
 20
16.740752
 30
0.0
  0
VERTEX
  5
515
100
AcDbEntity
  8
レイヤー_2
 62
    18
100
AcDbVertex
100
AcDb2dVertex
 10
3.762217
 20
16.571426
 30
0.0
  0
VERTEX
  5
516
100
AcDbEntity
  8
レイヤー_2
 62
    18
100
AcDbVertex
100
AcDb2dVertex
 10
4.185274
 20
16.571426
 30
0.0
  0
VERTEX
  5
517
100
AcDbEntity
  8
レイヤー_2
 62
    18
100
AcDbVertex
100
AcDb2dVertex
 10
4.69377
 20
16.656175
 30
0.0
  0
VERTEX
  5
518
100
AcDbEntity
  8
レイヤー_2
 62
    18
100
AcDbVertex
100
AcDb2dVertex
 10
5.032079
 20
16.740752
 30
0.0
  0
VERTEX
  5
519
100
AcDbEntity
  8
レイヤー_2
 62
    18
100
AcDbVertex
100
AcDb2dVertex
 10
5.455136
 20
16.825502
 30
0.0
  0
VERTEX
  5
51A
100
AcDbEntity
  8
レイヤー_2
 62
    18
100
AcDbVertex
100
AcDb2dVertex
 10
5.963633
 20
17.164155
 30
0.0
  0
VERTEX
  5
51B
100
AcDbEntity
  8
レイヤー_2
 62
    18
100
AcDbVertex
100
AcDb2dVertex
 10
6.132442
 20
17.418058
 30
0.0
  0
VERTEX
  5
51C
100
AcDbEntity
  8
レイヤー_2
 62
    18
100
AcDbVertex
100
AcDb2dVertex
 10
6.217192
 20
17.587385
 30
0.0
  0
VERTEX
  5
51D
100
AcDbEntity
  8
レイヤー_2
 62
    18
100
AcDbVertex
100
AcDb2dVertex
 10
6.132442
 20
17.841461
 30
0.0
  0
VERTEX
  5
51E
100
AcDbEntity
  8
レイヤー_2
 62
    18
100
AcDbVertex
100
AcDb2dVertex
 10
6.048382
 20
18.010787
 30
0.0
  0
VERTEX
  5
51F
100
AcDbEntity
  8
レイヤー_2
 62
    18
100
AcDbVertex
100
AcDb2dVertex
 10
5.878883
 20
18.264863
 30
0.0
  0
VERTEX
  5
520
100
AcDbEntity
  8
レイヤー_2
 62
    18
100
AcDbVertex
100
AcDb2dVertex
 10
5.624635
 20
18.434189
 30
0.0
  0
VERTEX
  5
521
100
AcDbEntity
  8
レイヤー_2
 62
    18
100
AcDbVertex
100
AcDb2dVertex
 10
5.286327
 20
18.603516
 30
0.0
  0
VERTEX
  5
522
100
AcDbEntity
  8
レイヤー_2
 62
    18
100
AcDbVertex
100
AcDb2dVertex
 10
4.86258
 20
18.688093
 30
0.0
  0
VERTEX
  5
523
100
AcDbEntity
  8
レイヤー_2
 62
    18
100
AcDbVertex
100
AcDb2dVertex
 10
4.439522
 20
18.772842
 30
0.0
  0
VERTEX
  5
524
100
AcDbEntity
  8
レイヤー_2
 62
    18
100
AcDbVertex
100
AcDb2dVertex
 10
4.015776
 20
18.772842
 30
0.0
  0
SEQEND
  5
525
100
AcDbEntity
  8
レイヤー_2
 62
    18
  0
LINE
  5
506
100
AcDbEntity
  8
レイヤー_2
 62
    18
100
AcDbLine
 10
5.624635
 20
17.841461
 30
0.0
 11
5.624635
 21
18.010787
 31
0.0
  0
LINE
  5
505
100
AcDbEntity
  8
レイヤー_2
 62
    18
100
AcDbLine
 10
5.624635
 20
18.180113
 30
0.0
 11
5.624635
 21
18.264863
 31
0.0
  0
LINE
  5
504
100
AcDbEntity
  8
レイヤー_2
 62
    18
100
AcDbLine
 10
2.407605
 20
18.264863
 30
0.0
 11
2.577104
 21
18.180113
 31
0.0
  0
POLYLINE
  5
4FF
100
AcDbEntity
  8
レイヤー_2
 62
    18
100
AcDb2dPolyline
 66
     1
 10
0.0
 20
0.0
 30
0.0
  0
VERTEX
  5
500
100
AcDbEntity
  8
レイヤー_2
 62
    18
100
AcDbVertex
100
AcDb2dVertex
 10
2.661164
 20
18.095364
 30
0.0
  0
VERTEX
  5
501
100
AcDbEntity
  8
レイヤー_2
 62
    18
100
AcDbVertex
100
AcDb2dVertex
 10
2.745913
 20
18.095364
 30
0.0
  0
VERTEX
  5
502
100
AcDbEntity
  8
レイヤー_2
 62
    18
100
AcDbVertex
100
AcDb2dVertex
 10
2.915412
 20
18.010787
 30
0.0
  0
SEQEND
  5
503
100
AcDbEntity
  8
レイヤー_2
 62
    18
  0
POLYLINE
  5
4FA
100
AcDbEntity
  8
レイヤー_2
 62
    18
100
AcDb2dPolyline
 66
     1
 10
0.0
 20
0.0
 30
0.0
  0
VERTEX
  5
4FB
100
AcDbEntity
  8
レイヤー_2
 62
    18
100
AcDbVertex
100
AcDb2dVertex
 10
3.000161
 20
18.010787
 30
0.0
  0
VERTEX
  5
4FC
100
AcDbEntity
  8
レイヤー_2
 62
    18
100
AcDbVertex
100
AcDb2dVertex
 10
3.084911
 20
18.010787
 30
0.0
  0
VERTEX
  5
4FD
100
AcDbEntity
  8
レイヤー_2
 62
    18
100
AcDbVertex
100
AcDb2dVertex
 10
3.16966
 20
17.926038
 30
0.0
  0
SEQEND
  5
4FE
100
AcDbEntity
  8
レイヤー_2
 62
    18
  0
LINE
  5
4F9
100
AcDbEntity
  8
レイヤー_2
 62
    18
100
AcDbLine
 10
3.507968
 20
17.926038
 30
0.0
 11
3.846966
 21
17.926038
 31
0.0
  0
POLYLINE
  5
4F4
100
AcDbEntity
  8
レイヤー_2
 62
    18
100
AcDb2dPolyline
 66
     1
 10
0.0
 20
0.0
 30
0.0
  0
VERTEX
  5
4F5
100
AcDbEntity
  8
レイヤー_2
 62
    18
100
AcDbVertex
100
AcDb2dVertex
 10
4.185274
 20
17.926038
 30
0.0
  0
VERTEX
  5
4F6
100
AcDbEntity
  8
レイヤー_2
 62
    18
100
AcDbVertex
100
AcDb2dVertex
 10
4.439522
 20
17.926038
 30
0.0
  0
VERTEX
  5
4F7
100
AcDbEntity
  8
レイヤー_2
 62
    18
100
AcDbVertex
100
AcDb2dVertex
 10
4.524272
 20
17.926038
 30
0.0
  0
SEQEND
  5
4F8
100
AcDbEntity
  8
レイヤー_2
 62
    18
  0
POLYLINE
  5
4EF
100
AcDbEntity
  8
レイヤー_2
 62
    18
100
AcDb2dPolyline
 66
     1
 10
0.0
 20
0.0
 30
0.0
  0
VERTEX
  5
4F0
100
AcDbEntity
  8
レイヤー_2
 62
    18
100
AcDbVertex
100
AcDb2dVertex
 10
4.777831
 20
17.926038
 30
0.0
  0
VERTEX
  5
4F1
100
AcDbEntity
  8
レイヤー_2
 62
    18
100
AcDbVertex
100
AcDb2dVertex
 10
4.86258
 20
18.010787
 30
0.0
  0
VERTEX
  5
4F2
100
AcDbEntity
  8
レイヤー_2
 62
    18
100
AcDbVertex
100
AcDb2dVertex
 10
4.947329
 20
18.010787
 30
0.0
  0
SEQEND
  5
4F3
100
AcDbEntity
  8
レイヤー_2
 62
    18
  0
POLYLINE
  5
4EA
100
AcDbEntity
  8
レイヤー_2
 62
    18
100
AcDb2dPolyline
 66
     1
 10
0.0
 20
0.0
 30
0.0
  0
VERTEX
  5
4EB
100
AcDbEntity
  8
レイヤー_2
 62
    18
100
AcDbVertex
100
AcDb2dVertex
 10
5.116828
 20
18.010787
 30
0.0
  0
VERTEX
  5
4EC
100
AcDbEntity
  8
レイヤー_2
 62
    18
100
AcDbVertex
100
AcDb2dVertex
 10
5.286327
 20
18.095364
 30
0.0
  0
VERTEX
  5
4ED
100
AcDbEntity
  8
レイヤー_2
 62
    18
100
AcDbVertex
100
AcDb2dVertex
 10
5.371076
 20
18.095364
 30
0.0
  0
SEQEND
  5
4EE
100
AcDbEntity
  8
レイヤー_2
 62
    18
  0
LINE
  5
4E9
100
AcDbEntity
  8
レイヤー_2
 62
    18
100
AcDbLine
 10
5.455136
 20
18.180113
 30
0.0
 11
5.624635
 21
18.264863
 31
0.0
  0
LINE
  5
4E8
100
AcDbEntity
  8
レイヤー_2
 62
    18
100
AcDbLine
 10
2.407605
 20
17.841461
 30
0.0
 11
2.407605
 21
18.010787
 31
0.0
  0
LINE
  5
4E7
100
AcDbEntity
  8
レイヤー_2
 62
    18
100
AcDbLine
 10
2.407605
 20
18.180113
 30
0.0
 11
2.407605
 21
18.264863
 31
0.0
  0
LINE
  5
4E6
100
AcDbEntity
  8
レイヤー_2
 62
    18
100
AcDbLine
 10
2.407605
 20
17.841461
 30
0.0
 11
2.492354
 21
17.841461
 31
0.0
  0
POLYLINE
  5
4E1
100
AcDbEntity
  8
レイヤー_2
 62
    18
100
AcDb2dPolyline
 66
     1
 10
0.0
 20
0.0
 30
0.0
  0
VERTEX
  5
4E2
100
AcDbEntity
  8
レイヤー_2
 62
    18
100
AcDbVertex
100
AcDb2dVertex
 10
2.577104
 20
17.756711
 30
0.0
  0
VERTEX
  5
4E3
100
AcDbEntity
  8
レイヤー_2
 62
    18
100
AcDbVertex
100
AcDb2dVertex
 10
2.745913
 20
17.756711
 30
0.0
  0
VERTEX
  5
4E4
100
AcDbEntity
  8
レイヤー_2
 62
    18
100
AcDbVertex
100
AcDb2dVertex
 10
2.830663
 20
17.672134
 30
0.0
  0
SEQEND
  5
4E5
100
AcDbEntity
  8
レイヤー_2
 62
    18
  0
POLYLINE
  5
4DC
100
AcDbEntity
  8
レイヤー_2
 62
    18
100
AcDb2dPolyline
 66
     1
 10
0.0
 20
0.0
 30
0.0
  0
VERTEX
  5
4DD
100
AcDbEntity
  8
レイヤー_2
 62
    18
100
AcDbVertex
100
AcDb2dVertex
 10
2.915412
 20
17.672134
 30
0.0
  0
VERTEX
  5
4DE
100
AcDbEntity
  8
レイヤー_2
 62
    18
100
AcDbVertex
100
AcDb2dVertex
 10
3.084911
 20
17.587385
 30
0.0
  0
VERTEX
  5
4DF
100
AcDbEntity
  8
レイヤー_2
 62
    18
100
AcDbVertex
100
AcDb2dVertex
 10
3.254409
 20
17.587385
 30
0.0
  0
SEQEND
  5
4E0
100
AcDbEntity
  8
レイヤー_2
 62
    18
  0
LINE
  5
4DB
100
AcDbEntity
  8
レイヤー_2
 62
    18
100
AcDbLine
 10
3.592718
 20
17.502808
 30
0.0
 11
3.762217
 21
17.502808
 31
0.0
  0
POLYLINE
  5
4D6
100
AcDbEntity
  8
レイヤー_2
 62
    18
100
AcDb2dPolyline
 66
     1
 10
0.0
 20
0.0
 30
0.0
  0
VERTEX
  5
4D7
100
AcDbEntity
  8
レイヤー_2
 62
    18
100
AcDbVertex
100
AcDb2dVertex
 10
3.931715
 20
17.502808
 30
0.0
  0
VERTEX
  5
4D8
100
AcDbEntity
  8
レイヤー_2
 62
    18
100
AcDbVertex
100
AcDb2dVertex
 10
4.015776
 20
17.502808
 30
0.0
  0
VERTEX
  5
4D9
100
AcDbEntity
  8
レイヤー_2
 62
    18
100
AcDbVertex
100
AcDb2dVertex
 10
4.100525
 20
17.502808
 30
0.0
  0
SEQEND
  5
4DA
100
AcDbEntity
  8
レイヤー_2
 62
    18
  0
LINE
  5
4D5
100
AcDbEntity
  8
レイヤー_2
 62
    18
100
AcDbLine
 10
4.270024
 20
17.502808
 30
0.0
 11
4.354773
 21
17.502808
 31
0.0
  0
POLYLINE
  5
4D0
100
AcDbEntity
  8
レイヤー_2
 62
    18
100
AcDb2dPolyline
 66
     1
 10
0.0
 20
0.0
 30
0.0
  0
VERTEX
  5
4D1
100
AcDbEntity
  8
レイヤー_2
 62
    18
100
AcDbVertex
100
AcDb2dVertex
 10
4.777831
 20
17.587385
 30
0.0
  0
VERTEX
  5
4D2
100
AcDbEntity
  8
レイヤー_2
 62
    18
100
AcDbVertex
100
AcDb2dVertex
 10
4.86258
 20
17.587385
 30
0.0
  0
VERTEX
  5
4D3
100
AcDbEntity
  8
レイヤー_2
 62
    18
100
AcDbVertex
100
AcDb2dVertex
 10
5.032079
 20
17.672134
 30
0.0
  0
SEQEND
  5
4D4
100
AcDbEntity
  8
レイヤー_2
 62
    18
  0
POLYLINE
  5
4CB
100
AcDbEntity
  8
レイヤー_2
 62
    18
100
AcDb2dPolyline
 66
     1
 10
0.0
 20
0.0
 30
0.0
  0
VERTEX
  5
4CC
100
AcDbEntity
  8
レイヤー_2
 62
    18
100
AcDbVertex
100
AcDb2dVertex
 10
5.201577
 20
17.672134
 30
0.0
  0
VERTEX
  5
4CD
100
AcDbEntity
  8
レイヤー_2
 62
    18
100
AcDbVertex
100
AcDb2dVertex
 10
5.286327
 20
17.756711
 30
0.0
  0
VERTEX
  5
4CE
100
AcDbEntity
  8
レイヤー_2
 62
    18
100
AcDbVertex
100
AcDb2dVertex
 10
5.455136
 20
17.756711
 30
0.0
  0
SEQEND
  5
4CF
100
AcDbEntity
  8
レイヤー_2
 62
    18
  0
LINE
  5
4CA
100
AcDbEntity
  8
レイヤー_2
 62
    18
100
AcDbLine
 10
5.539886
 20
17.841461
 30
0.0
 11
5.624635
 21
17.841461
 31
0.0
  0
POLYLINE
  5
4C5
100
AcDbEntity
  8
レイヤー_2
 62
    18
100
AcDb2dPolyline
 66
     1
 10
0.0
 20
0.0
 30
0.0
  0
VERTEX
  5
4C6
100
AcDbEntity
  8
レイヤー_2
 62
    18
100
AcDbVertex
100
AcDb2dVertex
 10
3.254409
 20
18.095364
 30
0.0
  0
VERTEX
  5
4C7
100
AcDbEntity
  8
レイヤー_2
 62
    18
100
AcDbVertex
100
AcDb2dVertex
 10
3.33847
 20
18.095364
 30
0.0
  0
VERTEX
  5
4C8
100
AcDbEntity
  8
レイヤー_2
 62
    18
100
AcDbVertex
100
AcDb2dVertex
 10
3.592718
 20
18.010787
 30
0.0
  0
SEQEND
  5
4C9
100
AcDbEntity
  8
レイヤー_2
 62
    18
  0
LINE
  5
4C4
100
AcDbEntity
  8
レイヤー_2
 62
    18
100
AcDbLine
 10
3.846966
 20
18.010787
 30
0.0
 11
4.100525
 21
18.010787
 31
0.0
  0
POLYLINE
  5
4BF
100
AcDbEntity
  8
レイヤー_2
 62
    18
100
AcDb2dPolyline
 66
     1
 10
0.0
 20
0.0
 30
0.0
  0
VERTEX
  5
4C0
100
AcDbEntity
  8
レイヤー_2
 62
    18
100
AcDbVertex
100
AcDb2dVertex
 10
4.439522
 20
18.010787
 30
0.0
  0
VERTEX
  5
4C1
100
AcDbEntity
  8
レイヤー_2
 62
    18
100
AcDbVertex
100
AcDb2dVertex
 10
4.69377
 20
18.095364
 30
0.0
  0
VERTEX
  5
4C2
100
AcDbEntity
  8
レイヤー_2
 62
    18
100
AcDbVertex
100
AcDb2dVertex
 10
4.777831
 20
18.095364
 30
0.0
  0
SEQEND
  5
4C3
100
AcDbEntity
  8
レイヤー_2
 62
    18
  0
POLYLINE
  5
4B7
100
AcDbEntity
  8
レイヤー_2
 62
    18
100
AcDb2dPolyline
 66
     1
 10
0.0
 20
0.0
 30
0.0
  0
VERTEX
  5
4B8
100
AcDbEntity
  8
レイヤー_2
 62
    18
100
AcDbVertex
100
AcDb2dVertex
 10
4.015776
 20
16.656175
 30
0.0
  0
VERTEX
  5
4B9
100
AcDbEntity
  8
レイヤー_2
 62
    18
100
AcDbVertex
100
AcDb2dVertex
 10
3.592718
 20
16.656175
 30
0.0
  0
VERTEX
  5
4BA
100
AcDbEntity
  8
レイヤー_2
 62
    18
100
AcDbVertex
100
AcDb2dVertex
 10
2.745913
 20
16.825502
 30
0.0
  0
VERTEX
  5
4BB
100
AcDbEntity
  8
レイヤー_2
 62
    18
100
AcDbVertex
100
AcDb2dVertex
 10
2.407605
 20
16.994828
 30
0.0
  0
VERTEX
  5
4BC
100
AcDbEntity
  8
レイヤー_2
 62
    18
100
AcDbVertex
100
AcDb2dVertex
 10
2.153357
 20
17.164155
 30
0.0
  0
VERTEX
  5
4BD
100
AcDbEntity
  8
レイヤー_2
 62
    18
100
AcDbVertex
100
AcDb2dVertex
 10
1.983858
 20
17.333481
 30
0.0
  0
SEQEND
  5
4BE
100
AcDbEntity
  8
レイヤー_2
 62
    18
  0
POLYLINE
  5
4AF
100
AcDbEntity
  8
レイヤー_2
 62
    18
100
AcDb2dPolyline
 66
     1
 10
0.0
 20
0.0
 30
0.0
  0
VERTEX
  5
4B0
100
AcDbEntity
  8
レイヤー_2
 62
    18
100
AcDbVertex
100
AcDb2dVertex
 10
6.048382
 20
17.333481
 30
0.0
  0
VERTEX
  5
4B1
100
AcDbEntity
  8
レイヤー_2
 62
    18
100
AcDbVertex
100
AcDb2dVertex
 10
5.878883
 20
17.164155
 30
0.0
  0
VERTEX
  5
4B2
100
AcDbEntity
  8
レイヤー_2
 62
    18
100
AcDbVertex
100
AcDb2dVertex
 10
5.624635
 20
16.994828
 30
0.0
  0
VERTEX
  5
4B3
100
AcDbEntity
  8
レイヤー_2
 62
    18
100
AcDbVertex
100
AcDb2dVertex
 10
5.286327
 20
16.825502
 30
0.0
  0
VERTEX
  5
4B4
100
AcDbEntity
  8
レイヤー_2
 62
    18
100
AcDbVertex
100
AcDb2dVertex
 10
4.439522
 20
16.656175
 30
0.0
  0
VERTEX
  5
4B5
100
AcDbEntity
  8
レイヤー_2
 62
    18
100
AcDbVertex
100
AcDb2dVertex
 10
4.015776
 20
16.656175
 30
0.0
  0
SEQEND
  5
4B6
100
AcDbEntity
  8
レイヤー_2
 62
    18
  0
LINE
  5
4AE
100
AcDbEntity
  8
レイヤー_2
 62
    18
100
AcDbLine
 10
2.407605
 20
18.180113
 30
0.0
 11
2.492354
 21
18.095364
 31
0.0
  0
LINE
  5
4AD
100
AcDbEntity
  8
レイヤー_2
 62
    18
100
AcDbLine
 10
5.539886
 20
18.095364
 30
0.0
 11
5.624635
 21
18.180113
 31
0.0
  0
LINE
  5
4AC
100
AcDbEntity
  8
レイヤー_2
 62
    18
100
AcDbLine
 10
3.592718
 20
2.77089
 30
0.0
 11
3.507968
 21
2.77089
 31
0.0
  0
LINE
  5
4AB
100
AcDbEntity
  8
レイヤー_2
 62
    18
100
AcDbLine
 10
3.507968
 20
2.77089
 30
0.0
 11
3.423219
 21
2.77089
 31
0.0
  0
LINE
  5
4AA
100
AcDbEntity
  8
レイヤー_2
 62
    18
100
AcDbLine
 10
3.423219
 20
2.77089
 30
0.0
 11
2.830663
 21
2.77089
 31
0.0
  0
LINE
  5
4A9
100
AcDbEntity
  8
レイヤー_2
 62
    18
100
AcDbLine
 10
2.830663
 20
2.77089
 30
0.0
 11
2.577104
 21
2.77089
 31
0.0
  0
LINE
  5
4A8
100
AcDbEntity
  8
レイヤー_2
 62
    18
100
AcDbLine
 10
2.577104
 20
2.77089
 30
0.0
 11
1.815049
 21
2.77089
 31
0.0
  0
LINE
  5
4A7
100
AcDbEntity
  8
レイヤー_2
 62
    18
100
AcDbLine
 10
1.815049
 20
2.77089
 30
0.0
 11
1.560801
 21
2.77089
 31
0.0
  0
LINE
  5
4A6
100
AcDbEntity
  8
レイヤー_2
 62
    18
100
AcDbLine
 10
1.560801
 20
2.77089
 30
0.0
 11
0.968244
 21
2.77089
 31
0.0
  0
LINE
  5
4A5
100
AcDbEntity
  8
レイヤー_2
 62
    18
100
AcDbLine
 10
0.968244
 20
2.77089
 30
0.0
 11
0.883495
 21
2.77089
 31
0.0
  0
LINE
  5
4A4
100
AcDbEntity
  8
レイヤー_2
 62
    18
100
AcDbLine
 10
0.883495
 20
2.77089
 30
0.0
 11
0.798745
 21
2.77089
 31
0.0
  0
LINE
  5
4A3
100
AcDbEntity
  8
レイヤー_2
 62
    18
100
AcDbLine
 10
3.677467
 20
-1.12379
 30
0.0
 11
0.713996
 21
-1.12379
 31
0.0
  0
LINE
  5
4A2
100
AcDbEntity
  8
レイヤー_2
 62
    18
100
AcDbLine
 10
0.883495
 20
0.569474
 30
0.0
 11
0.798745
 21
0.569474
 31
0.0
  0
LINE
  5
4A1
100
AcDbEntity
  8
レイヤー_2
 62
    18
100
AcDbLine
 10
0.968244
 20
0.569474
 30
0.0
 11
0.883495
 21
0.569474
 31
0.0
  0
LINE
  5
4A0
100
AcDbEntity
  8
レイヤー_2
 62
    18
100
AcDbLine
 10
1.560801
 20
0.569474
 30
0.0
 11
0.968244
 21
0.569474
 31
0.0
  0
LINE
  5
49F
100
AcDbEntity
  8
レイヤー_2
 62
    18
100
AcDbLine
 10
1.815049
 20
0.569474
 30
0.0
 11
1.560801
 21
0.569474
 31
0.0
  0
LINE
  5
49E
100
AcDbEntity
  8
レイヤー_2
 62
    18
100
AcDbLine
 10
2.577104
 20
0.569474
 30
0.0
 11
1.815049
 21
0.569474
 31
0.0
  0
LINE
  5
49D
100
AcDbEntity
  8
レイヤー_2
 62
    18
100
AcDbLine
 10
2.830663
 20
0.569474
 30
0.0
 11
2.577104
 21
0.569474
 31
0.0
  0
LINE
  5
49C
100
AcDbEntity
  8
レイヤー_2
 62
    18
100
AcDbLine
 10
3.423219
 20
0.569474
 30
0.0
 11
2.830663
 21
0.569474
 31
0.0
  0
LINE
  5
49B
100
AcDbEntity
  8
レイヤー_2
 62
    18
100
AcDbLine
 10
3.507968
 20
0.569474
 30
0.0
 11
3.423219
 21
0.569474
 31
0.0
  0
LINE
  5
49A
100
AcDbEntity
  8
レイヤー_2
 62
    18
100
AcDbLine
 10
3.592718
 20
0.569474
 30
0.0
 11
3.507968
 21
0.569474
 31
0.0
  0
LINE
  5
499
100
AcDbEntity
  8
レイヤー_2
 62
    18
100
AcDbLine
 10
3.592718
 20
3.871598
 30
0.0
 11
3.000161
 21
3.871598
 31
0.0
  0
LINE
  5
498
100
AcDbEntity
  8
レイヤー_2
 62
    18
100
AcDbLine
 10
3.592718
 20
3.871598
 30
0.0
 11
3.592718
 21
4.464155
 31
0.0
  0
LINE
  5
497
100
AcDbEntity
  8
レイヤー_2
 62
    18
100
AcDbLine
 10
3.000161
 20
4.464155
 30
0.0
 11
3.000161
 21
3.871598
 31
0.0
  0
LINE
  5
496
100
AcDbEntity
  8
レイヤー_2
 62
    18
100
AcDbLine
 10
2.745913
 20
3.871598
 30
0.0
 11
1.64555
 21
3.871598
 31
0.0
  0
LINE
  5
495
100
AcDbEntity
  8
レイヤー_2
 62
    18
100
AcDbLine
 10
2.745913
 20
3.871598
 30
0.0
 11
2.745913
 21
4.464155
 31
0.0
  0
LINE
  5
494
100
AcDbEntity
  8
レイヤー_2
 62
    18
100
AcDbLine
 10
1.64555
 20
4.464155
 30
0.0
 11
1.64555
 21
3.871598
 31
0.0
  0
LINE
  5
493
100
AcDbEntity
  8
レイヤー_2
 62
    18
100
AcDbLine
 10
1.391302
 20
3.871598
 30
0.0
 11
0.798745
 21
3.871598
 31
0.0
  0
LINE
  5
492
100
AcDbEntity
  8
レイヤー_2
 62
    18
100
AcDbLine
 10
1.391302
 20
3.871598
 30
0.0
 11
1.391302
 21
4.464155
 31
0.0
  0
LINE
  5
491
100
AcDbEntity
  8
レイヤー_2
 62
    18
100
AcDbLine
 10
0.798745
 20
4.464155
 30
0.0
 11
0.798745
 21
3.871598
 31
0.0
  0
LINE
  5
490
100
AcDbEntity
  8
レイヤー_2
 62
    18
100
AcDbLine
 10
3.592718
 20
3.7021
 30
0.0
 11
0.798745
 21
3.7021
 31
0.0
  0
LINE
  5
48F
100
AcDbEntity
  8
レイヤー_2
 62
    18
100
AcDbLine
 10
1.815049
 20
2.77089
 30
0.0
 11
1.815049
 21
0.569474
 31
0.0
  0
LINE
  5
48E
100
AcDbEntity
  8
レイヤー_2
 62
    18
100
AcDbLine
 10
2.577104
 20
0.569474
 30
0.0
 11
2.577104
 21
2.77089
 31
0.0
  0
LINE
  5
48D
100
AcDbEntity
  8
レイヤー_2
 62
    18
100
AcDbLine
 10
1.560801
 20
0.569474
 30
0.0
 11
1.560801
 21
2.77089
 31
0.0
  0
LINE
  5
48C
100
AcDbEntity
  8
レイヤー_2
 62
    18
100
AcDbLine
 10
2.830663
 20
2.77089
 30
0.0
 11
2.830663
 21
0.569474
 31
0.0
  0
LINE
  5
48B
100
AcDbEntity
  8
レイヤー_2
 62
    18
100
AcDbLine
 10
0.968244
 20
2.77089
 30
0.0
 11
0.968244
 21
0.569474
 31
0.0
  0
LINE
  5
48A
100
AcDbEntity
  8
レイヤー_2
 62
    18
100
AcDbLine
 10
3.423219
 20
0.569474
 30
0.0
 11
3.423219
 21
2.77089
 31
0.0
  0
LINE
  5
489
100
AcDbEntity
  8
レイヤー_2
 62
    18
100
AcDbLine
 10
3.507968
 20
2.77089
 30
0.0
 11
3.507968
 21
0.569474
 31
0.0
  0
LINE
  5
488
100
AcDbEntity
  8
レイヤー_2
 62
    18
100
AcDbLine
 10
0.883495
 20
0.569474
 30
0.0
 11
0.883495
 21
2.77089
 31
0.0
  0
LINE
  5
487
100
AcDbEntity
  8
レイヤー_2
 62
    18
100
AcDbLine
 10
7.148745
 20
2.77089
 30
0.0
 11
7.063996
 21
2.77089
 31
0.0
  0
LINE
  5
486
100
AcDbEntity
  8
レイヤー_2
 62
    18
100
AcDbLine
 10
7.063996
 20
2.77089
 30
0.0
 11
6.47144
 21
2.77089
 31
0.0
  0
LINE
  5
485
100
AcDbEntity
  8
レイヤー_2
 62
    18
100
AcDbLine
 10
6.47144
 20
2.77089
 30
0.0
 11
6.217192
 21
2.77089
 31
0.0
  0
LINE
  5
484
100
AcDbEntity
  8
レイヤー_2
 62
    18
100
AcDbLine
 10
6.217192
 20
2.77089
 30
0.0
 11
5.371076
 21
2.77089
 31
0.0
  0
LINE
  5
483
100
AcDbEntity
  8
レイヤー_2
 62
    18
100
AcDbLine
 10
5.371076
 20
2.77089
 30
0.0
 11
5.201577
 21
2.77089
 31
0.0
  0
LINE
  5
482
100
AcDbEntity
  8
レイヤー_2
 62
    18
100
AcDbLine
 10
5.201577
 20
2.77089
 30
0.0
 11
4.609021
 21
2.77089
 31
0.0
  0
LINE
  5
481
100
AcDbEntity
  8
レイヤー_2
 62
    18
100
AcDbLine
 10
4.609021
 20
2.77089
 30
0.0
 11
4.524272
 21
2.77089
 31
0.0
  0
LINE
  5
480
100
AcDbEntity
  8
レイヤー_2
 62
    18
100
AcDbLine
 10
4.524272
 20
2.77089
 30
0.0
 11
4.439522
 21
2.77089
 31
0.0
  0
LINE
  5
47F
100
AcDbEntity
  8
レイヤー_2
 62
    18
100
AcDbLine
 10
4.524272
 20
0.569474
 30
0.0
 11
4.439522
 21
0.569474
 31
0.0
  0
LINE
  5
47E
100
AcDbEntity
  8
レイヤー_2
 62
    18
100
AcDbLine
 10
4.609021
 20
0.569474
 30
0.0
 11
4.524272
 21
0.569474
 31
0.0
  0
LINE
  5
47D
100
AcDbEntity
  8
レイヤー_2
 62
    18
100
AcDbLine
 10
5.201577
 20
0.569474
 30
0.0
 11
4.609021
 21
0.569474
 31
0.0
  0
LINE
  5
47C
100
AcDbEntity
  8
レイヤー_2
 62
    18
100
AcDbLine
 10
5.371076
 20
0.569474
 30
0.0
 11
5.201577
 21
0.569474
 31
0.0
  0
LINE
  5
47B
100
AcDbEntity
  8
レイヤー_2
 62
    18
100
AcDbLine
 10
6.217192
 20
0.569474
 30
0.0
 11
5.371076
 21
0.569474
 31
0.0
  0
LINE
  5
47A
100
AcDbEntity
  8
レイヤー_2
 62
    18
100
AcDbLine
 10
6.47144
 20
0.569474
 30
0.0
 11
6.217192
 21
0.569474
 31
0.0
  0
LINE
  5
479
100
AcDbEntity
  8
レイヤー_2
 62
    18
100
AcDbLine
 10
7.063996
 20
0.569474
 30
0.0
 11
6.47144
 21
0.569474
 31
0.0
  0
LINE
  5
478
100
AcDbEntity
  8
レイヤー_2
 62
    18
100
AcDbLine
 10
7.148745
 20
0.569474
 30
0.0
 11
7.063996
 21
0.569474
 31
0.0
  0
LINE
  5
477
100
AcDbEntity
  8
レイヤー_2
 62
    18
100
AcDbLine
 10
7.318244
 20
-1.12379
 30
0.0
 11
4.270024
 21
-1.12379
 31
0.0
  0
LINE
  5
476
100
AcDbEntity
  8
レイヤー_2
 62
    18
100
AcDbLine
 10
7.148745
 20
3.871598
 30
0.0
 11
6.640938
 21
3.871598
 31
0.0
  0
LINE
  5
475
100
AcDbEntity
  8
レイヤー_2
 62
    18
100
AcDbLine
 10
7.148745
 20
3.871598
 30
0.0
 11
7.148745
 21
4.464155
 31
0.0
  0
LINE
  5
474
100
AcDbEntity
  8
レイヤー_2
 62
    18
100
AcDbLine
 10
6.640938
 20
4.464155
 30
0.0
 11
6.640938
 21
3.871598
 31
0.0
  0
LINE
  5
473
100
AcDbEntity
  8
レイヤー_2
 62
    18
100
AcDbLine
 10
6.38669
 20
3.871598
 30
0.0
 11
5.201577
 21
3.871598
 31
0.0
  0
LINE
  5
472
100
AcDbEntity
  8
レイヤー_2
 62
    18
100
AcDbLine
 10
6.38669
 20
3.871598
 30
0.0
 11
6.38669
 21
4.464155
 31
0.0
  0
LINE
  5
471
100
AcDbEntity
  8
レイヤー_2
 62
    18
100
AcDbLine
 10
5.201577
 20
4.464155
 30
0.0
 11
5.201577
 21
3.871598
 31
0.0
  0
LINE
  5
470
100
AcDbEntity
  8
レイヤー_2
 62
    18
100
AcDbLine
 10
5.032079
 20
3.871598
 30
0.0
 11
4.439522
 21
3.871598
 31
0.0
  0
LINE
  5
46F
100
AcDbEntity
  8
レイヤー_2
 62
    18
100
AcDbLine
 10
5.032079
 20
3.871598
 30
0.0
 11
5.032079
 21
4.464155
 31
0.0
  0
LINE
  5
46E
100
AcDbEntity
  8
レイヤー_2
 62
    18
100
AcDbLine
 10
4.439522
 20
4.464155
 30
0.0
 11
4.439522
 21
3.871598
 31
0.0
  0
LINE
  5
46D
100
AcDbEntity
  8
レイヤー_2
 62
    18
100
AcDbLine
 10
7.148745
 20
3.7021
 30
0.0
 11
4.439522
 21
3.7021
 31
0.0
  0
LINE
  5
46C
100
AcDbEntity
  8
レイヤー_2
 62
    18
100
AcDbLine
 10
5.371076
 20
2.77089
 30
0.0
 11
5.371076
 21
0.569474
 31
0.0
  0
LINE
  5
46B
100
AcDbEntity
  8
レイヤー_2
 62
    18
100
AcDbLine
 10
6.217192
 20
0.569474
 30
0.0
 11
6.217192
 21
2.77089
 31
0.0
  0
LINE
  5
46A
100
AcDbEntity
  8
レイヤー_2
 62
    18
100
AcDbLine
 10
5.201577
 20
0.569474
 30
0.0
 11
5.201577
 21
2.77089
 31
0.0
  0
LINE
  5
469
100
AcDbEntity
  8
レイヤー_2
 62
    18
100
AcDbLine
 10
6.47144
 20
2.77089
 30
0.0
 11
6.47144
 21
0.569474
 31
0.0
  0
LINE
  5
468
100
AcDbEntity
  8
レイヤー_2
 62
    18
100
AcDbLine
 10
4.609021
 20
2.77089
 30
0.0
 11
4.609021
 21
0.569474
 31
0.0
  0
LINE
  5
467
100
AcDbEntity
  8
レイヤー_2
 62
    18
100
AcDbLine
 10
7.063996
 20
0.569474
 30
0.0
 11
7.063996
 21
2.77089
 31
0.0
  0
LINE
  5
466
100
AcDbEntity
  8
レイヤー_2
 62
    18
100
AcDbLine
 10
7.148745
 20
2.77089
 30
0.0
 11
7.148745
 21
0.569474
 31
0.0
  0
LINE
  5
465
100
AcDbEntity
  8
レイヤー_2
 62
    18
100
AcDbLine
 10
4.524272
 20
0.569474
 30
0.0
 11
4.524272
 21
2.77089
 31
0.0
  0
LINE
  5
464
100
AcDbEntity
  8
レイヤー_2
 62
    18
100
AcDbLine
 10
7.99555
 20
-16.025034
 30
0.0
 11
7.233495
 21
-16.194533
 31
0.0
  0
POLYLINE
  5
45F
100
AcDbEntity
  8
レイヤー_2
 62
    18
100
AcDb2dPolyline
 66
     1
 10
0.0
 20
0.0
 30
0.0
  0
VERTEX
  5
460
100
AcDbEntity
  8
レイヤー_2
 62
    18
100
AcDbVertex
100
AcDb2dVertex
 10
7.233495
 20
-16.194533
 30
0.0
  0
VERTEX
  5
461
100
AcDbEntity
  8
レイヤー_2
 62
    18
100
AcDbVertex
100
AcDb2dVertex
 10
7.148745
 20
-16.194533
 30
0.0
  0
VERTEX
  5
462
100
AcDbEntity
  8
レイヤー_2
 62
    18
100
AcDbVertex
100
AcDb2dVertex
 10
7.063996
 20
-16.109783
 30
0.0
  0
SEQEND
  5
463
100
AcDbEntity
  8
レイヤー_2
 62
    18
  0
POLYLINE
  5
45A
100
AcDbEntity
  8
レイヤー_2
 62
    18
100
AcDb2dPolyline
 66
     1
 10
0.0
 20
0.0
 30
0.0
  0
VERTEX
  5
45B
100
AcDbEntity
  8
レイヤー_2
 62
    18
100
AcDbVertex
100
AcDb2dVertex
 10
7.233495
 20
-13.146312
 30
0.0
  0
VERTEX
  5
45C
100
AcDbEntity
  8
レイヤー_2
 62
    18
100
AcDbVertex
100
AcDb2dVertex
 10
7.148745
 20
-13.146312
 30
0.0
  0
VERTEX
  5
45D
100
AcDbEntity
  8
レイヤー_2
 62
    18
100
AcDbVertex
100
AcDb2dVertex
 10
7.063996
 20
-13.146312
 30
0.0
  0
SEQEND
  5
45E
100
AcDbEntity
  8
レイヤー_2
 62
    18
  0
LINE
  5
459
100
AcDbEntity
  8
レイヤー_2
 62
    18
100
AcDbLine
 10
7.99555
 20
-13.315811
 30
0.0
 11
7.233495
 21
-13.146312
 31
0.0
  0
LINE
  5
458
100
AcDbEntity
  8
レイヤー_2
 62
    18
100
AcDbLine
 10
7.99555
 20
-16.025034
 30
0.0
 11
7.99555
 21
-13.315811
 31
0.0
  0
LINE
  5
457
100
AcDbEntity
  8
レイヤー_2
 62
    18
100
AcDbLine
 10
7.99555
 20
-6.62733
 30
0.0
 11
7.063996
 21
-6.62733
 31
0.0
  0
LINE
  5
456
100
AcDbEntity
  8
レイヤー_2
 62
    18
100
AcDbLine
 10
7.656552
 20
-7.304636
 30
0.0
 11
7.063996
 21
-7.304636
 31
0.0
  0
LINE
  5
455
100
AcDbEntity
  8
レイヤー_2
 62
    18
100
AcDbLine
 10
7.99555
 20
-6.288677
 30
0.0
 11
7.063996
 21
-6.288677
 31
0.0
  0
LINE
  5
454
100
AcDbEntity
  8
レイヤー_2
 62
    18
100
AcDbLine
 10
7.233495
 20
-16.194533
 30
0.0
 11
7.063996
 21
-16.194533
 31
0.0
  0
LINE
  5
453
100
AcDbEntity
  8
レイヤー_2
 62
    18
100
AcDbLine
 10
7.233495
 20
-13.146312
 30
0.0
 11
7.063996
 21
-13.146312
 31
0.0
  0
LINE
  5
452
100
AcDbEntity
  8
レイヤー_2
 62
    18
100
AcDbLine
 10
7.99555
 20
-16.194533
 30
0.0
 11
7.99555
 21
-16.025034
 31
0.0
  0
LINE
  5
451
100
AcDbEntity
  8
レイヤー_2
 62
    18
100
AcDbLine
 10
7.99555
 20
-16.194533
 30
0.0
 11
7.233495
 21
-16.194533
 31
0.0
  0
LINE
  5
450
100
AcDbEntity
  8
レイヤー_2
 62
    18
100
AcDbLine
 10
7.99555
 20
-13.146312
 30
0.0
 11
7.99555
 21
-13.315811
 31
0.0
  0
LINE
  5
44F
100
AcDbEntity
  8
レイヤー_2
 62
    18
100
AcDbLine
 10
7.99555
 20
-13.146312
 30
0.0
 11
7.233495
 21
-13.146312
 31
0.0
  0
LINE
  5
44E
100
AcDbEntity
  8
レイヤー_2
 62
    18
100
AcDbLine
 10
4.439522
 20
-6.203928
 30
0.0
 11
-1.572169
 21
-6.203928
 31
0.0
  0
LINE
  5
44D
100
AcDbEntity
  8
レイヤー_2
 62
    18
100
AcDbLine
 10
11.127831
 20
-6.203928
 30
0.0
 11
9.350161
 21
-6.203928
 31
0.0
  0
LINE
  5
44C
100
AcDbEntity
  8
レイヤー_2
 62
    18
100
AcDbLine
 10
9.350161
 20
-4.425914
 30
0.0
 11
11.127831
 21
-4.425914
 31
0.0
  0
LINE
  5
44B
100
AcDbEntity
  8
レイヤー_2
 62
    18
100
AcDbLine
 10
-1.572169
 20
-4.425914
 30
0.0
 11
4.439522
 21
-4.425914
 31
0.0
  0
LINE
  5
44A
100
AcDbEntity
  8
レイヤー_2
 62
    18
100
AcDbLine
 10
-1.317921
 20
-4.425914
 30
0.0
 11
-1.233172
 21
-4.425914
 31
0.0
  0
LINE
  5
449
100
AcDbEntity
  8
レイヤー_2
 62
    18
100
AcDbLine
 10
10.789522
 20
-4.425914
 30
0.0
 11
10.874272
 21
-4.425914
 31
0.0
  0
LINE
  5
448
100
AcDbEntity
  8
レイヤー_2
 62
    18
100
AcDbLine
 10
0.968244
 20
-6.203928
 30
0.0
 11
-0.132808
 21
-6.203928
 31
0.0
  0
LINE
  5
447
100
AcDbEntity
  8
レイヤー_2
 62
    18
100
AcDbLine
 10
9.350161
 20
-6.203928
 30
0.0
 11
9.265412
 21
-6.119179
 31
0.0
  0
POLYLINE
  5
441
100
AcDbEntity
  8
レイヤー_2
 62
    18
100
AcDb2dPolyline
 66
     1
 10
0.0
 20
0.0
 30
0.0
  0
VERTEX
  5
442
100
AcDbEntity
  8
レイヤー_2
 62
    18
100
AcDbVertex
100
AcDb2dVertex
 10
9.265412
 20
-4.595068
 30
0.0
  0
VERTEX
  5
443
100
AcDbEntity
  8
レイヤー_2
 62
    18
100
AcDbVertex
100
AcDb2dVertex
 10
9.265412
 20
-4.510664
 30
0.0
  0
VERTEX
  5
444
100
AcDbEntity
  8
レイヤー_2
 62
    18
100
AcDbVertex
100
AcDb2dVertex
 10
9.350161
 20
-4.510664
 30
0.0
  0
VERTEX
  5
445
100
AcDbEntity
  8
レイヤー_2
 62
    18
100
AcDbVertex
100
AcDb2dVertex
 10
9.350161
 20
-4.425914
 30
0.0
  0
SEQEND
  5
446
100
AcDbEntity
  8
レイヤー_2
 62
    18
  0
LINE
  5
440
100
AcDbEntity
  8
レイヤー_2
 62
    18
100
AcDbLine
 10
9.265412
 20
-6.119179
 30
0.0
 11
9.265412
 21
-4.595068
 31
0.0
  0
LINE
  5
43F
100
AcDbEntity
  8
レイヤー_2
 62
    18
100
AcDbLine
 10
9.350161
 20
-6.203928
 30
0.0
 11
8.588106
 21
-6.203928
 31
0.0
  0
LINE
  5
43E
100
AcDbEntity
  8
レイヤー_2
 62
    18
100
AcDbLine
 10
9.265412
 20
-4.425914
 30
0.0
 11
9.350161
 21
-4.425914
 31
0.0
  0
POLYLINE
  5
439
100
AcDbEntity
  8
レイヤー_2
 62
    18
100
AcDb2dPolyline
 66
     1
 10
0.0
 20
0.0
 30
0.0
  0
VERTEX
  5
43A
100
AcDbEntity
  8
レイヤー_2
 62
    18
100
AcDbVertex
100
AcDb2dVertex
 10
9.180663
 20
-4.933721
 30
0.0
  0
VERTEX
  5
43B
100
AcDbEntity
  8
レイヤー_2
 62
    18
100
AcDbVertex
100
AcDb2dVertex
 10
9.095913
 20
-4.933721
 30
0.0
  0
VERTEX
  5
43C
100
AcDbEntity
  8
レイヤー_2
 62
    18
100
AcDbVertex
100
AcDb2dVertex
 10
9.095913
 20
-4.849316
 30
0.0
  0
SEQEND
  5
43D
100
AcDbEntity
  8
レイヤー_2
 62
    18
  0
LINE
  5
438
100
AcDbEntity
  8
レイヤー_2
 62
    18
100
AcDbLine
 10
9.180663
 20
-6.203928
 30
0.0
 11
7.063996
 21
-6.203928
 31
0.0
  0
LINE
  5
437
100
AcDbEntity
  8
レイヤー_2
 62
    18
100
AcDbLine
 10
4.524272
 20
-6.203928
 30
0.0
 11
3.423219
 21
-6.203928
 31
0.0
  0
LINE
  5
436
100
AcDbEntity
  8
レイヤー_2
 62
    18
100
AcDbLine
 10
4.524272
 20
-4.849316
 30
0.0
 11
9.095913
 21
-4.849316
 31
0.0
  0
LINE
  5
435
100
AcDbEntity
  8
レイヤー_2
 62
    18
100
AcDbLine
 10
9.857968
 20
-4.087261
 30
0.0
 11
10.789522
 21
-4.087261
 31
0.0
  0
LINE
  5
434
100
AcDbEntity
  8
レイヤー_2
 62
    18
100
AcDbLine
 10
-1.233172
 20
-4.087261
 30
0.0
 11
9.857968
 21
-4.087261
 31
0.0
  0
POLYLINE
  5
422
100
AcDbEntity
  8
レイヤー_2
 62
    18
100
AcDb2dPolyline
 66
     1
 10
0.0
 20
0.0
 30
0.0
  0
VERTEX
  5
423
100
AcDbEntity
  8
レイヤー_2
 62
    18
100
AcDbVertex
100
AcDb2dVertex
 10
6.725688
 20
17.672134
 30
0.0
  0
VERTEX
  5
424
100
AcDbEntity
  8
レイヤー_2
 62
    18
100
AcDbVertex
100
AcDb2dVertex
 10
6.725688
 20
17.926038
 30
0.0
  0
VERTEX
  5
425
100
AcDbEntity
  8
レイヤー_2
 62
    18
100
AcDbVertex
100
AcDb2dVertex
 10
6.556189
 20
18.180113
 30
0.0
  0
VERTEX
  5
426
100
AcDbEntity
  8
レイヤー_2
 62
    18
100
AcDbVertex
100
AcDb2dVertex
 10
6.301941
 20
18.34944
 30
0.0
  0
VERTEX
  5
427
100
AcDbEntity
  8
レイヤー_2
 62
    18
100
AcDbVertex
100
AcDb2dVertex
 10
6.048382
 20
18.603516
 30
0.0
  0
VERTEX
  5
428
100
AcDbEntity
  8
レイヤー_2
 62
    18
100
AcDbVertex
100
AcDb2dVertex
 10
5.624635
 20
18.772842
 30
0.0
  0
VERTEX
  5
429
100
AcDbEntity
  8
レイヤー_2
 62
    18
100
AcDbVertex
100
AcDb2dVertex
 10
4.777831
 20
18.942169
 30
0.0
  0
VERTEX
  5
42A
100
AcDbEntity
  8
レイヤー_2
 62
    18
100
AcDbVertex
100
AcDb2dVertex
 10
4.270024
 20
19.026746
 30
0.0
  0
VERTEX
  5
42B
100
AcDbEntity
  8
レイヤー_2
 62
    18
100
AcDbVertex
100
AcDb2dVertex
 10
3.762217
 20
19.026746
 30
0.0
  0
VERTEX
  5
42C
100
AcDbEntity
  8
レイヤー_2
 62
    18
100
AcDbVertex
100
AcDb2dVertex
 10
2.745913
 20
18.857419
 30
0.0
  0
VERTEX
  5
42D
100
AcDbEntity
  8
レイヤー_2
 62
    18
100
AcDbVertex
100
AcDb2dVertex
 10
2.322856
 20
18.772842
 30
0.0
  0
VERTEX
  5
42E
100
AcDbEntity
  8
レイヤー_2
 62
    18
100
AcDbVertex
100
AcDb2dVertex
 10
1.983858
 20
18.603516
 30
0.0
  0
VERTEX
  5
42F
100
AcDbEntity
  8
レイヤー_2
 62
    18
100
AcDbVertex
100
AcDb2dVertex
 10
1.64555
 20
18.34944
 30
0.0
  0
VERTEX
  5
430
100
AcDbEntity
  8
レイヤー_2
 62
    18
100
AcDbVertex
100
AcDb2dVertex
 10
1.476051
 20
18.180113
 30
0.0
  0
VERTEX
  5
431
100
AcDbEntity
  8
レイヤー_2
 62
    18
100
AcDbVertex
100
AcDb2dVertex
 10
1.306552
 20
17.926038
 30
0.0
  0
VERTEX
  5
432
100
AcDbEntity
  8
レイヤー_2
 62
    18
100
AcDbVertex
100
AcDb2dVertex
 10
1.221803
 20
17.672134
 30
0.0
  0
SEQEND
  5
433
100
AcDbEntity
  8
レイヤー_2
 62
    18
  0
LINE
  5
421
100
AcDbEntity
  8
レイヤー_2
 62
    18
100
AcDbLine
 10
1.221803
 20
18.34944
 30
0.0
 11
1.221803
 21
17.672134
 31
0.0
  0
POLYLINE
  5
413
100
AcDbEntity
  8
レイヤー_2
 62
    18
100
AcDb2dPolyline
 66
     1
 10
0.0
 20
0.0
 30
0.0
  0
VERTEX
  5
414
100
AcDbEntity
  8
レイヤー_2
 62
    18
100
AcDbVertex
100
AcDb2dVertex
 10
6.725688
 20
18.34944
 30
0.0
  0
VERTEX
  5
415
100
AcDbEntity
  8
レイヤー_2
 62
    18
100
AcDbVertex
100
AcDb2dVertex
 10
6.47144
 20
18.603516
 30
0.0
  0
VERTEX
  5
416
100
AcDbEntity
  8
レイヤー_2
 62
    18
100
AcDbVertex
100
AcDb2dVertex
 10
6.132442
 20
18.772842
 30
0.0
  0
VERTEX
  5
417
100
AcDbEntity
  8
レイヤー_2
 62
    18
100
AcDbVertex
100
AcDb2dVertex
 10
5.794134
 20
19.026746
 30
0.0
  0
VERTEX
  5
418
100
AcDbEntity
  8
レイヤー_2
 62
    18
100
AcDbVertex
100
AcDb2dVertex
 10
4.270024
 20
19.280821
 30
0.0
  0
VERTEX
  5
419
100
AcDbEntity
  8
レイヤー_2
 62
    18
100
AcDbVertex
100
AcDb2dVertex
 10
3.762217
 20
19.280821
 30
0.0
  0
VERTEX
  5
41A
100
AcDbEntity
  8
レイヤー_2
 62
    18
100
AcDbVertex
100
AcDb2dVertex
 10
3.16966
 20
19.196072
 30
0.0
  0
VERTEX
  5
41B
100
AcDbEntity
  8
レイヤー_2
 62
    18
100
AcDbVertex
100
AcDb2dVertex
 10
2.745913
 20
19.111495
 30
0.0
  0
VERTEX
  5
41C
100
AcDbEntity
  8
レイヤー_2
 62
    18
100
AcDbVertex
100
AcDb2dVertex
 10
2.238106
 20
19.026746
 30
0.0
  0
VERTEX
  5
41D
100
AcDbEntity
  8
レイヤー_2
 62
    18
100
AcDbVertex
100
AcDb2dVertex
 10
1.815049
 20
18.772842
 30
0.0
  0
VERTEX
  5
41E
100
AcDbEntity
  8
レイヤー_2
 62
    18
100
AcDbVertex
100
AcDb2dVertex
 10
1.476051
 20
18.603516
 30
0.0
  0
VERTEX
  5
41F
100
AcDbEntity
  8
レイヤー_2
 62
    18
100
AcDbVertex
100
AcDb2dVertex
 10
1.221803
 20
18.34944
 30
0.0
  0
SEQEND
  5
420
100
AcDbEntity
  8
レイヤー_2
 62
    18
  0
LINE
  5
412
100
AcDbEntity
  8
レイヤー_2
 62
    18
100
AcDbLine
 10
6.725688
 20
18.34944
 30
0.0
 11
6.725688
 21
17.672134
 31
0.0
  0
POLYLINE
  5
404
100
AcDbEntity
  8
レイヤー_2
 62
    18
100
AcDb2dPolyline
 66
     1
 10
0.0
 20
0.0
 30
0.0
  0
VERTEX
  5
405
100
AcDbEntity
  8
レイヤー_2
 62
    18
100
AcDbVertex
100
AcDb2dVertex
 10
1.221803
 20
17.164155
 30
0.0
  0
VERTEX
  5
406
100
AcDbEntity
  8
レイヤー_2
 62
    18
100
AcDbVertex
100
AcDb2dVertex
 10
1.476051
 20
16.910079
 30
0.0
  0
VERTEX
  5
407
100
AcDbEntity
  8
レイヤー_2
 62
    18
100
AcDbVertex
100
AcDb2dVertex
 10
1.815049
 20
16.740752
 30
0.0
  0
VERTEX
  5
408
100
AcDbEntity
  8
レイヤー_2
 62
    18
100
AcDbVertex
100
AcDb2dVertex
 10
2.238106
 20
16.571426
 30
0.0
  0
VERTEX
  5
409
100
AcDbEntity
  8
レイヤー_2
 62
    18
100
AcDbVertex
100
AcDb2dVertex
 10
2.745913
 20
16.4021
 30
0.0
  0
VERTEX
  5
40A
100
AcDbEntity
  8
レイヤー_2
 62
    18
100
AcDbVertex
100
AcDb2dVertex
 10
3.16966
 20
16.317523
 30
0.0
  0
VERTEX
  5
40B
100
AcDbEntity
  8
レイヤー_2
 62
    18
100
AcDbVertex
100
AcDb2dVertex
 10
3.762217
 20
16.232773
 30
0.0
  0
VERTEX
  5
40C
100
AcDbEntity
  8
レイヤー_2
 62
    18
100
AcDbVertex
100
AcDb2dVertex
 10
4.270024
 20
16.232773
 30
0.0
  0
VERTEX
  5
40D
100
AcDbEntity
  8
レイヤー_2
 62
    18
100
AcDbVertex
100
AcDb2dVertex
 10
5.286327
 20
16.4021
 30
0.0
  0
VERTEX
  5
40E
100
AcDbEntity
  8
レイヤー_2
 62
    18
100
AcDbVertex
100
AcDb2dVertex
 10
5.794134
 20
16.571426
 30
0.0
  0
VERTEX
  5
40F
100
AcDbEntity
  8
レイヤー_2
 62
    18
100
AcDbVertex
100
AcDb2dVertex
 10
6.47144
 20
16.910079
 30
0.0
  0
VERTEX
  5
410
100
AcDbEntity
  8
レイヤー_2
 62
    18
100
AcDbVertex
100
AcDb2dVertex
 10
6.725688
 20
17.164155
 30
0.0
  0
SEQEND
  5
411
100
AcDbEntity
  8
レイヤー_2
 62
    18
  0
POLYLINE
  5
3FA
100
AcDbEntity
  8
レイヤー_2
 62
    18
100
AcDb2dPolyline
 66
     1
 10
0.0
 20
0.0
 30
0.0
  0
VERTEX
  5
3FB
100
AcDbEntity
  8
レイヤー_2
 62
    18
100
AcDbVertex
100
AcDb2dVertex
 10
6.725688
 20
19.111495
 30
0.0
  0
VERTEX
  5
3FC
100
AcDbEntity
  8
レイヤー_2
 62
    18
100
AcDbVertex
100
AcDb2dVertex
 10
6.894497
 20
18.942169
 30
0.0
  0
VERTEX
  5
3FD
100
AcDbEntity
  8
レイヤー_2
 62
    18
100
AcDbVertex
100
AcDb2dVertex
 10
6.894497
 20
18.772842
 30
0.0
  0
VERTEX
  5
3FE
100
AcDbEntity
  8
レイヤー_2
 62
    18
100
AcDbVertex
100
AcDb2dVertex
 10
6.979247
 20
18.688093
 30
0.0
  0
VERTEX
  5
3FF
100
AcDbEntity
  8
レイヤー_2
 62
    18
100
AcDbVertex
100
AcDb2dVertex
 10
6.979247
 20
18.34944
 30
0.0
  0
VERTEX
  5
400
100
AcDbEntity
  8
レイヤー_2
 62
    18
100
AcDbVertex
100
AcDb2dVertex
 10
6.894497
 20
18.180113
 30
0.0
  0
VERTEX
  5
401
100
AcDbEntity
  8
レイヤー_2
 62
    18
100
AcDbVertex
100
AcDb2dVertex
 10
6.894497
 20
18.095364
 30
0.0
  0
VERTEX
  5
402
100
AcDbEntity
  8
レイヤー_2
 62
    18
100
AcDbVertex
100
AcDb2dVertex
 10
6.725688
 20
17.926038
 30
0.0
  0
SEQEND
  5
403
100
AcDbEntity
  8
レイヤー_2
 62
    18
  0
LINE
  5
3F9
100
AcDbEntity
  8
レイヤー_2
 62
    18
100
AcDbLine
 10
6.725688
 20
19.111495
 30
0.0
 11
6.725688
 21
18.34944
 31
0.0
  0
LINE
  5
3F8
100
AcDbEntity
  8
レイヤー_2
 62
    18
100
AcDbLine
 10
1.221803
 20
19.111495
 30
0.0
 11
1.221803
 21
18.34944
 31
0.0
  0
POLYLINE
  5
3EE
100
AcDbEntity
  8
レイヤー_2
 62
    18
100
AcDb2dPolyline
 66
     1
 10
0.0
 20
0.0
 30
0.0
  0
VERTEX
  5
3EF
100
AcDbEntity
  8
レイヤー_2
 62
    18
100
AcDbVertex
100
AcDb2dVertex
 10
1.221803
 20
17.926038
 30
0.0
  0
VERTEX
  5
3F0
100
AcDbEntity
  8
レイヤー_2
 62
    18
100
AcDbVertex
100
AcDb2dVertex
 10
1.137743
 20
18.095364
 30
0.0
  0
VERTEX
  5
3F1
100
AcDbEntity
  8
レイヤー_2
 62
    18
100
AcDbVertex
100
AcDb2dVertex
 10
1.052993
 20
18.180113
 30
0.0
  0
VERTEX
  5
3F2
100
AcDbEntity
  8
レイヤー_2
 62
    18
100
AcDbVertex
100
AcDb2dVertex
 10
1.052993
 20
18.34944
 30
0.0
  0
VERTEX
  5
3F3
100
AcDbEntity
  8
レイヤー_2
 62
    18
100
AcDbVertex
100
AcDb2dVertex
 10
0.968244
 20
18.518766
 30
0.0
  0
VERTEX
  5
3F4
100
AcDbEntity
  8
レイヤー_2
 62
    18
100
AcDbVertex
100
AcDb2dVertex
 10
1.052993
 20
18.688093
 30
0.0
  0
VERTEX
  5
3F5
100
AcDbEntity
  8
レイヤー_2
 62
    18
100
AcDbVertex
100
AcDb2dVertex
 10
1.052993
 20
18.772842
 30
0.0
  0
VERTEX
  5
3F6
100
AcDbEntity
  8
レイヤー_2
 62
    18
100
AcDbVertex
100
AcDb2dVertex
 10
1.221803
 20
19.111495
 30
0.0
  0
SEQEND
  5
3F7
100
AcDbEntity
  8
レイヤー_2
 62
    18
  0
POLYLINE
  5
3D0
100
AcDbEntity
  8
レイヤー_2
 62
    18
100
AcDb2dPolyline
 66
     1
 10
0.0
 20
0.0
 30
0.0
  0
VERTEX
  5
3D1
100
AcDbEntity
  8
レイヤー_2
 62
    18
100
AcDbVertex
100
AcDb2dVertex
 10
4.015776
 20
18.857419
 30
0.0
  0
VERTEX
  5
3D2
100
AcDbEntity
  8
レイヤー_2
 62
    18
100
AcDbVertex
100
AcDb2dVertex
 10
3.507968
 20
18.857419
 30
0.0
  0
VERTEX
  5
3D3
100
AcDbEntity
  8
レイヤー_2
 62
    18
100
AcDbVertex
100
AcDb2dVertex
 10
2.661164
 20
18.688093
 30
0.0
  0
VERTEX
  5
3D4
100
AcDbEntity
  8
レイヤー_2
 62
    18
100
AcDbVertex
100
AcDb2dVertex
 10
2.238106
 20
18.518766
 30
0.0
  0
VERTEX
  5
3D5
100
AcDbEntity
  8
レイヤー_2
 62
    18
100
AcDbVertex
100
AcDb2dVertex
 10
1.730299
 20
18.180113
 30
0.0
  0
VERTEX
  5
3D6
100
AcDbEntity
  8
レイヤー_2
 62
    18
100
AcDbVertex
100
AcDb2dVertex
 10
1.560801
 20
17.926038
 30
0.0
  0
VERTEX
  5
3D7
100
AcDbEntity
  8
レイヤー_2
 62
    18
100
AcDbVertex
100
AcDb2dVertex
 10
1.476051
 20
17.672134
 30
0.0
  0
VERTEX
  5
3D8
100
AcDbEntity
  8
レイヤー_2
 62
    18
100
AcDbVertex
100
AcDb2dVertex
 10
1.560801
 20
17.502808
 30
0.0
  0
VERTEX
  5
3D9
100
AcDbEntity
  8
レイヤー_2
 62
    18
100
AcDbVertex
100
AcDb2dVertex
 10
1.64555
 20
17.248732
 30
0.0
  0
VERTEX
  5
3DA
100
AcDbEntity
  8
レイヤー_2
 62
    18
100
AcDbVertex
100
AcDb2dVertex
 10
1.815049
 20
16.994828
 30
0.0
  0
VERTEX
  5
3DB
100
AcDbEntity
  8
レイヤー_2
 62
    18
100
AcDbVertex
100
AcDb2dVertex
 10
2.068608
 20
16.825502
 30
0.0
  0
VERTEX
  5
3DC
100
AcDbEntity
  8
レイヤー_2
 62
    18
100
AcDbVertex
100
AcDb2dVertex
 10
2.492354
 20
16.656175
 30
0.0
  0
VERTEX
  5
3DD
100
AcDbEntity
  8
レイヤー_2
 62
    18
100
AcDbVertex
100
AcDb2dVertex
 10
2.830663
 20
16.571426
 30
0.0
  0
VERTEX
  5
3DE
100
AcDbEntity
  8
レイヤー_2
 62
    18
100
AcDbVertex
100
AcDb2dVertex
 10
3.254409
 20
16.4021
 30
0.0
  0
VERTEX
  5
3DF
100
AcDbEntity
  8
レイヤー_2
 62
    18
100
AcDbVertex
100
AcDb2dVertex
 10
4.69377
 20
16.4021
 30
0.0
  0
VERTEX
  5
3E0
100
AcDbEntity
  8
レイヤー_2
 62
    18
100
AcDbVertex
100
AcDb2dVertex
 10
5.116828
 20
16.571426
 30
0.0
  0
VERTEX
  5
3E1
100
AcDbEntity
  8
レイヤー_2
 62
    18
100
AcDbVertex
100
AcDb2dVertex
 10
5.539886
 20
16.656175
 30
0.0
  0
VERTEX
  5
3E2
100
AcDbEntity
  8
レイヤー_2
 62
    18
100
AcDbVertex
100
AcDb2dVertex
 10
5.878883
 20
16.825502
 30
0.0
  0
VERTEX
  5
3E3
100
AcDbEntity
  8
レイヤー_2
 62
    18
100
AcDbVertex
100
AcDb2dVertex
 10
6.132442
 20
16.994828
 30
0.0
  0
VERTEX
  5
3E4
100
AcDbEntity
  8
レイヤー_2
 62
    18
100
AcDbVertex
100
AcDb2dVertex
 10
6.38669
 20
17.248732
 30
0.0
  0
VERTEX
  5
3E5
100
AcDbEntity
  8
レイヤー_2
 62
    18
100
AcDbVertex
100
AcDb2dVertex
 10
6.47144
 20
17.502808
 30
0.0
  0
VERTEX
  5
3E6
100
AcDbEntity
  8
レイヤー_2
 62
    18
100
AcDbVertex
100
AcDb2dVertex
 10
6.47144
 20
17.672134
 30
0.0
  0
VERTEX
  5
3E7
100
AcDbEntity
  8
レイヤー_2
 62
    18
100
AcDbVertex
100
AcDb2dVertex
 10
6.301941
 20
18.180113
 30
0.0
  0
VERTEX
  5
3E8
100
AcDbEntity
  8
レイヤー_2
 62
    18
100
AcDbVertex
100
AcDb2dVertex
 10
6.048382
 20
18.34944
 30
0.0
  0
VERTEX
  5
3E9
100
AcDbEntity
  8
レイヤー_2
 62
    18
100
AcDbVertex
100
AcDb2dVertex
 10
5.371076
 20
18.688093
 30
0.0
  0
VERTEX
  5
3EA
100
AcDbEntity
  8
レイヤー_2
 62
    18
100
AcDbVertex
100
AcDb2dVertex
 10
4.947329
 20
18.772842
 30
0.0
  0
VERTEX
  5
3EB
100
AcDbEntity
  8
レイヤー_2
 62
    18
100
AcDbVertex
100
AcDb2dVertex
 10
4.439522
 20
18.857419
 30
0.0
  0
VERTEX
  5
3EC
100
AcDbEntity
  8
レイヤー_2
 62
    18
100
AcDbVertex
100
AcDb2dVertex
 10
4.015776
 20
18.857419
 30
0.0
  0
SEQEND
  5
3ED
100
AcDbEntity
  8
レイヤー_2
 62
    18
  0
POLYLINE
  5
3C0
100
AcDbEntity
  8
レイヤー_2
 62
    18
100
AcDb2dPolyline
 66
     1
 10
0.0
 20
0.0
 30
0.0
  0
VERTEX
  5
3C1
100
AcDbEntity
  8
レイヤー_2
 62
    18
100
AcDbVertex
100
AcDb2dVertex
 10
1.221803
 20
17.672134
 30
0.0
  0
VERTEX
  5
3C2
100
AcDbEntity
  8
レイヤー_2
 62
    18
100
AcDbVertex
100
AcDb2dVertex
 10
1.306552
 20
17.418058
 30
0.0
  0
VERTEX
  5
3C3
100
AcDbEntity
  8
レイヤー_2
 62
    18
100
AcDbVertex
100
AcDb2dVertex
 10
1.64555
 20
16.910079
 30
0.0
  0
VERTEX
  5
3C4
100
AcDbEntity
  8
レイヤー_2
 62
    18
100
AcDbVertex
100
AcDb2dVertex
 10
2.322856
 20
16.571426
 30
0.0
  0
VERTEX
  5
3C5
100
AcDbEntity
  8
レイヤー_2
 62
    18
100
AcDbVertex
100
AcDb2dVertex
 10
2.745913
 20
16.4021
 30
0.0
  0
VERTEX
  5
3C6
100
AcDbEntity
  8
レイヤー_2
 62
    18
100
AcDbVertex
100
AcDb2dVertex
 10
3.762217
 20
16.232773
 30
0.0
  0
VERTEX
  5
3C7
100
AcDbEntity
  8
レイヤー_2
 62
    18
100
AcDbVertex
100
AcDb2dVertex
 10
4.270024
 20
16.232773
 30
0.0
  0
VERTEX
  5
3C8
100
AcDbEntity
  8
レイヤー_2
 62
    18
100
AcDbVertex
100
AcDb2dVertex
 10
4.777831
 20
16.317523
 30
0.0
  0
VERTEX
  5
3C9
100
AcDbEntity
  8
レイヤー_2
 62
    18
100
AcDbVertex
100
AcDb2dVertex
 10
5.201577
 20
16.4021
 30
0.0
  0
VERTEX
  5
3CA
100
AcDbEntity
  8
レイヤー_2
 62
    18
100
AcDbVertex
100
AcDb2dVertex
 10
6.048382
 20
16.740752
 30
0.0
  0
VERTEX
  5
3CB
100
AcDbEntity
  8
レイヤー_2
 62
    18
100
AcDbVertex
100
AcDb2dVertex
 10
6.301941
 20
16.910079
 30
0.0
  0
VERTEX
  5
3CC
100
AcDbEntity
  8
レイヤー_2
 62
    18
100
AcDbVertex
100
AcDb2dVertex
 10
6.556189
 20
17.164155
 30
0.0
  0
VERTEX
  5
3CD
100
AcDbEntity
  8
レイヤー_2
 62
    18
100
AcDbVertex
100
AcDb2dVertex
 10
6.725688
 20
17.418058
 30
0.0
  0
VERTEX
  5
3CE
100
AcDbEntity
  8
レイヤー_2
 62
    18
100
AcDbVertex
100
AcDb2dVertex
 10
6.725688
 20
17.672134
 30
0.0
  0
SEQEND
  5
3CF
100
AcDbEntity
  8
レイヤー_2
 62
    18
  0
LINE
  5
3BF
100
AcDbEntity
  8
レイヤー_2
 62
    18
100
AcDbLine
 10
1.221803
 20
17.672134
 30
0.0
 11
1.221803
 21
17.164155
 31
0.0
  0
LINE
  5
3BE
100
AcDbEntity
  8
レイヤー_2
 62
    18
100
AcDbLine
 10
6.725688
 20
17.672134
 30
0.0
 11
6.725688
 21
17.164155
 31
0.0
  0
LINE
  5
3BD
100
AcDbEntity
  8
レイヤー_2
 62
    18
100
AcDbLine
 10
4.015776
 20
4.633309
 30
0.0
 11
10.196966
 21
4.633309
 31
0.0
  0
LINE
  5
3BC
100
AcDbEntity
  8
レイヤー_2
 62
    18
100
AcDbLine
 10
-2.164726
 20
4.633309
 30
0.0
 11
4.015776
 21
4.633309
 31
0.0
  0
LINE
  5
3BB
100
AcDbEntity
  8
レイヤー_2
 62
    18
100
AcDbLine
 10
4.015776
 20
32.150148
 30
0.0
 11
10.196966
 21
32.150148
 31
0.0
  0
LINE
  5
3BA
100
AcDbEntity
  8
レイヤー_2
 62
    18
100
AcDbLine
 10
-2.164726
 20
32.150148
 30
0.0
 11
4.015776
 21
32.150148
 31
0.0
  0
POLYLINE
  5
3AB
100
AcDbEntity
  8
レイヤー_2
 62
    18
100
AcDb2dPolyline
 66
     1
 10
0.0
 20
0.0
 30
0.0
  0
VERTEX
  5
3AC
100
AcDbEntity
  8
レイヤー_2
 62
    18
100
AcDbVertex
100
AcDb2dVertex
 10
5.878883
 20
36.806711
 30
0.0
  0
VERTEX
  5
3AD
100
AcDbEntity
  8
レイヤー_2
 62
    18
100
AcDbVertex
100
AcDb2dVertex
 10
5.624635
 20
37.738093
 30
0.0
  0
VERTEX
  5
3AE
100
AcDbEntity
  8
レイヤー_2
 62
    18
100
AcDbVertex
100
AcDb2dVertex
 10
4.947329
 20
38.415398
 30
0.0
  0
VERTEX
  5
3AF
100
AcDbEntity
  8
レイヤー_2
 62
    18
100
AcDbVertex
100
AcDb2dVertex
 10
4.015776
 20
38.669474
 30
0.0
  0
VERTEX
  5
3B0
100
AcDbEntity
  8
レイヤー_2
 62
    18
100
AcDbVertex
100
AcDb2dVertex
 10
3.084911
 20
38.415398
 30
0.0
  0
VERTEX
  5
3B1
100
AcDbEntity
  8
レイヤー_2
 62
    18
100
AcDbVertex
100
AcDb2dVertex
 10
2.407605
 20
37.738093
 30
0.0
  0
VERTEX
  5
3B2
100
AcDbEntity
  8
レイヤー_2
 62
    18
100
AcDbVertex
100
AcDb2dVertex
 10
2.153357
 20
36.806711
 30
0.0
  0
VERTEX
  5
3B3
100
AcDbEntity
  8
レイヤー_2
 62
    18
100
AcDbVertex
100
AcDb2dVertex
 10
2.407605
 20
35.875502
 30
0.0
  0
VERTEX
  5
3B4
100
AcDbEntity
  8
レイヤー_2
 62
    18
100
AcDbVertex
100
AcDb2dVertex
 10
3.084911
 20
35.198196
 30
0.0
  0
VERTEX
  5
3B5
100
AcDbEntity
  8
レイヤー_2
 62
    18
100
AcDbVertex
100
AcDb2dVertex
 10
4.015776
 20
34.94412
 30
0.0
  0
VERTEX
  5
3B6
100
AcDbEntity
  8
レイヤー_2
 62
    18
100
AcDbVertex
100
AcDb2dVertex
 10
4.947329
 20
35.198196
 30
0.0
  0
VERTEX
  5
3B7
100
AcDbEntity
  8
レイヤー_2
 62
    18
100
AcDbVertex
100
AcDb2dVertex
 10
5.624635
 20
35.875502
 30
0.0
  0
VERTEX
  5
3B8
100
AcDbEntity
  8
レイヤー_2
 62
    18
100
AcDbVertex
100
AcDb2dVertex
 10
5.878883
 20
36.806711
 30
0.0
  0
SEQEND
  5
3B9
100
AcDbEntity
  8
レイヤー_2
 62
    18
  0
LINE
  5
3AA
100
AcDbEntity
  8
レイヤー_2
 62
    18
100
AcDbLine
 10
10.281715
 20
32.742704
 30
0.0
 11
-2.249475
 21
32.742704
 31
0.0
  0
POLYLINE
  5
38F
100
AcDbEntity
  8
レイヤー_2
 62
    18
100
AcDb2dPolyline
 66
     1
 10
0.0
 20
0.0
 30
0.0
  0
VERTEX
  5
390
100
AcDbEntity
  8
レイヤー_2
 62
    18
100
AcDbVertex
100
AcDb2dVertex
 10
1.221803
 20
17.756711
 30
0.0
  0
VERTEX
  5
391
100
AcDbEntity
  8
レイヤー_2
 62
    18
100
AcDbVertex
100
AcDb2dVertex
 10
0.883495
 20
18.010787
 30
0.0
  0
VERTEX
  5
392
100
AcDbEntity
  8
レイヤー_2
 62
    18
100
AcDbVertex
100
AcDb2dVertex
 10
0.713996
 20
18.264863
 30
0.0
  0
VERTEX
  5
393
100
AcDbEntity
  8
レイヤー_2
 62
    18
100
AcDbVertex
100
AcDb2dVertex
 10
0.629247
 20
18.518766
 30
0.0
  0
VERTEX
  5
394
100
AcDbEntity
  8
レイヤー_2
 62
    18
100
AcDbVertex
100
AcDb2dVertex
 10
0.629247
 20
19.111495
 30
0.0
  0
VERTEX
  5
395
100
AcDbEntity
  8
レイヤー_2
 62
    18
100
AcDbVertex
100
AcDb2dVertex
 10
0.798745
 20
19.365398
 30
0.0
  0
VERTEX
  5
396
100
AcDbEntity
  8
レイヤー_2
 62
    18
100
AcDbVertex
100
AcDb2dVertex
 10
1.052993
 20
19.619474
 30
0.0
  0
VERTEX
  5
397
100
AcDbEntity
  8
レイヤー_2
 62
    18
100
AcDbVertex
100
AcDb2dVertex
 10
1.391302
 20
19.788801
 30
0.0
  0
VERTEX
  5
398
100
AcDbEntity
  8
レイヤー_2
 62
    18
100
AcDbVertex
100
AcDb2dVertex
 10
1.730299
 20
20.042704
 30
0.0
  0
VERTEX
  5
399
100
AcDbEntity
  8
レイヤー_2
 62
    18
100
AcDbVertex
100
AcDb2dVertex
 10
2.153357
 20
20.212031
 30
0.0
  0
VERTEX
  5
39A
100
AcDbEntity
  8
レイヤー_2
 62
    18
100
AcDbVertex
100
AcDb2dVertex
 10
3.16966
 20
20.381529
 30
0.0
  0
VERTEX
  5
39B
100
AcDbEntity
  8
レイヤー_2
 62
    18
100
AcDbVertex
100
AcDb2dVertex
 10
3.762217
 20
20.466106
 30
0.0
  0
VERTEX
  5
39C
100
AcDbEntity
  8
レイヤー_2
 62
    18
100
AcDbVertex
100
AcDb2dVertex
 10
4.270024
 20
20.466106
 30
0.0
  0
VERTEX
  5
39D
100
AcDbEntity
  8
レイヤー_2
 62
    18
100
AcDbVertex
100
AcDb2dVertex
 10
4.777831
 20
20.381529
 30
0.0
  0
VERTEX
  5
39E
100
AcDbEntity
  8
レイヤー_2
 62
    18
100
AcDbVertex
100
AcDb2dVertex
 10
5.371076
 20
20.29678
 30
0.0
  0
VERTEX
  5
39F
100
AcDbEntity
  8
レイヤー_2
 62
    18
100
AcDbVertex
100
AcDb2dVertex
 10
5.794134
 20
20.212031
 30
0.0
  0
VERTEX
  5
3A0
100
AcDbEntity
  8
レイヤー_2
 62
    18
100
AcDbVertex
100
AcDb2dVertex
 10
6.301941
 20
20.042704
 30
0.0
  0
VERTEX
  5
3A1
100
AcDbEntity
  8
レイヤー_2
 62
    18
100
AcDbVertex
100
AcDb2dVertex
 10
6.640938
 20
19.788801
 30
0.0
  0
VERTEX
  5
3A2
100
AcDbEntity
  8
レイヤー_2
 62
    18
100
AcDbVertex
100
AcDb2dVertex
 10
6.979247
 20
19.619474
 30
0.0
  0
VERTEX
  5
3A3
100
AcDbEntity
  8
レイヤー_2
 62
    18
100
AcDbVertex
100
AcDb2dVertex
 10
7.318244
 20
19.111495
 30
0.0
  0
VERTEX
  5
3A4
100
AcDbEntity
  8
レイヤー_2
 62
    18
100
AcDbVertex
100
AcDb2dVertex
 10
7.402993
 20
18.857419
 30
0.0
  0
VERTEX
  5
3A5
100
AcDbEntity
  8
レイヤー_2
 62
    18
100
AcDbVertex
100
AcDb2dVertex
 10
7.402993
 20
18.518766
 30
0.0
  0
VERTEX
  5
3A6
100
AcDbEntity
  8
レイヤー_2
 62
    18
100
AcDbVertex
100
AcDb2dVertex
 10
7.318244
 20
18.264863
 30
0.0
  0
VERTEX
  5
3A7
100
AcDbEntity
  8
レイヤー_2
 62
    18
100
AcDbVertex
100
AcDb2dVertex
 10
7.063996
 20
18.010787
 30
0.0
  0
VERTEX
  5
3A8
100
AcDbEntity
  8
レイヤー_2
 62
    18
100
AcDbVertex
100
AcDb2dVertex
 10
6.810437
 20
17.756711
 30
0.0
  0
SEQEND
  5
3A9
100
AcDbEntity
  8
レイヤー_2
 62
    18
  0
POLYLINE
  5
384
100
AcDbEntity
  8
レイヤー_2
 62
    18
100
AcDb2dPolyline
 66
     1
 10
0.0
 20
0.0
 30
0.0
  0
VERTEX
  5
385
100
AcDbEntity
  8
レイヤー_2
 62
    18
100
AcDbVertex
100
AcDb2dVertex
 10
4.015776
 20
20.29678
 30
0.0
  0
VERTEX
  5
386
100
AcDbEntity
  8
レイヤー_2
 62
    18
100
AcDbVertex
100
AcDb2dVertex
 10
3.507968
 20
20.29678
 30
0.0
  0
VERTEX
  5
387
100
AcDbEntity
  8
レイヤー_2
 62
    18
100
AcDbVertex
100
AcDb2dVertex
 10
3.000161
 20
20.212031
 30
0.0
  0
VERTEX
  5
388
100
AcDbEntity
  8
レイヤー_2
 62
    18
100
AcDbVertex
100
AcDb2dVertex
 10
2.492354
 20
20.042704
 30
0.0
  0
VERTEX
  5
389
100
AcDbEntity
  8
レイヤー_2
 62
    18
100
AcDbVertex
100
AcDb2dVertex
 10
2.068608
 20
19.958127
 30
0.0
  0
VERTEX
  5
38A
100
AcDbEntity
  8
レイヤー_2
 62
    18
100
AcDbVertex
100
AcDb2dVertex
 10
1.730299
 20
19.788801
 30
0.0
  0
VERTEX
  5
38B
100
AcDbEntity
  8
レイヤー_2
 62
    18
100
AcDbVertex
100
AcDb2dVertex
 10
1.391302
 20
19.534725
 30
0.0
  0
VERTEX
  5
38C
100
AcDbEntity
  8
レイヤー_2
 62
    18
100
AcDbVertex
100
AcDb2dVertex
 10
0.968244
 20
19.111495
 30
0.0
  0
VERTEX
  5
38D
100
AcDbEntity
  8
レイヤー_2
 62
    18
100
AcDbVertex
100
AcDb2dVertex
 10
0.968244
 20
18.434189
 30
0.0
  0
SEQEND
  5
38E
100
AcDbEntity
  8
レイヤー_2
 62
    18
  0
POLYLINE
  5
376
100
AcDbEntity
  8
レイヤー_2
 62
    18
100
AcDb2dPolyline
 66
     1
 10
0.0
 20
0.0
 30
0.0
  0
VERTEX
  5
377
100
AcDbEntity
  8
レイヤー_2
 62
    18
100
AcDbVertex
100
AcDb2dVertex
 10
6.979247
 20
18.434189
 30
0.0
  0
VERTEX
  5
378
100
AcDbEntity
  8
レイヤー_2
 62
    18
100
AcDbVertex
100
AcDb2dVertex
 10
7.063996
 20
18.518766
 30
0.0
  0
VERTEX
  5
379
100
AcDbEntity
  8
レイヤー_2
 62
    18
100
AcDbVertex
100
AcDb2dVertex
 10
7.063996
 20
18.772842
 30
0.0
  0
VERTEX
  5
37A
100
AcDbEntity
  8
レイヤー_2
 62
    18
100
AcDbVertex
100
AcDb2dVertex
 10
6.979247
 20
19.111495
 30
0.0
  0
VERTEX
  5
37B
100
AcDbEntity
  8
レイヤー_2
 62
    18
100
AcDbVertex
100
AcDb2dVertex
 10
6.810437
 20
19.280821
 30
0.0
  0
VERTEX
  5
37C
100
AcDbEntity
  8
レイヤー_2
 62
    18
100
AcDbVertex
100
AcDb2dVertex
 10
6.640938
 20
19.534725
 30
0.0
  0
VERTEX
  5
37D
100
AcDbEntity
  8
レイヤー_2
 62
    18
100
AcDbVertex
100
AcDb2dVertex
 10
6.301941
 20
19.788801
 30
0.0
  0
VERTEX
  5
37E
100
AcDbEntity
  8
レイヤー_2
 62
    18
100
AcDbVertex
100
AcDb2dVertex
 10
5.963633
 20
19.958127
 30
0.0
  0
VERTEX
  5
37F
100
AcDbEntity
  8
レイヤー_2
 62
    18
100
AcDbVertex
100
AcDb2dVertex
 10
5.455136
 20
20.042704
 30
0.0
  0
VERTEX
  5
380
100
AcDbEntity
  8
レイヤー_2
 62
    18
100
AcDbVertex
100
AcDb2dVertex
 10
5.032079
 20
20.212031
 30
0.0
  0
VERTEX
  5
381
100
AcDbEntity
  8
レイヤー_2
 62
    18
100
AcDbVertex
100
AcDb2dVertex
 10
4.524272
 20
20.29678
 30
0.0
  0
VERTEX
  5
382
100
AcDbEntity
  8
レイヤー_2
 62
    18
100
AcDbVertex
100
AcDb2dVertex
 10
4.015776
 20
20.29678
 30
0.0
  0
SEQEND
  5
383
100
AcDbEntity
  8
レイヤー_2
 62
    18
  0
POLYLINE
  5
367
100
AcDbEntity
  8
レイヤー_2
 62
    18
100
AcDb2dPolyline
 66
     1
 10
0.0
 20
0.0
 30
0.0
  0
VERTEX
  5
368
100
AcDbEntity
  8
レイヤー_2
 62
    18
100
AcDbVertex
100
AcDb2dVertex
 10
7.402993
 20
23.937385
 30
0.0
  0
VERTEX
  5
369
100
AcDbEntity
  8
レイヤー_2
 62
    18
100
AcDbVertex
100
AcDb2dVertex
 10
7.318244
 20
24.784189
 30
0.0
  0
VERTEX
  5
36A
100
AcDbEntity
  8
レイヤー_2
 62
    18
100
AcDbVertex
100
AcDb2dVertex
 10
6.979247
 20
25.630821
 30
0.0
  0
VERTEX
  5
36B
100
AcDbEntity
  8
レイヤー_2
 62
    18
100
AcDbVertex
100
AcDb2dVertex
 10
6.38669
 20
26.308127
 30
0.0
  0
VERTEX
  5
36C
100
AcDbEntity
  8
レイヤー_2
 62
    18
100
AcDbVertex
100
AcDb2dVertex
 10
5.709384
 20
26.900856
 30
0.0
  0
VERTEX
  5
36D
100
AcDbEntity
  8
レイヤー_2
 62
    18
100
AcDbVertex
100
AcDb2dVertex
 10
4.86258
 20
27.239509
 30
0.0
  0
VERTEX
  5
36E
100
AcDbEntity
  8
レイヤー_2
 62
    18
100
AcDbVertex
100
AcDb2dVertex
 10
4.015776
 20
27.324086
 30
0.0
  0
VERTEX
  5
36F
100
AcDbEntity
  8
レイヤー_2
 62
    18
100
AcDbVertex
100
AcDb2dVertex
 10
3.084911
 20
27.239509
 30
0.0
  0
VERTEX
  5
370
100
AcDbEntity
  8
レイヤー_2
 62
    18
100
AcDbVertex
100
AcDb2dVertex
 10
2.322856
 20
26.900856
 30
0.0
  0
VERTEX
  5
371
100
AcDbEntity
  8
レイヤー_2
 62
    18
100
AcDbVertex
100
AcDb2dVertex
 10
1.560801
 20
26.308127
 30
0.0
  0
VERTEX
  5
372
100
AcDbEntity
  8
レイヤー_2
 62
    18
100
AcDbVertex
100
AcDb2dVertex
 10
1.052993
 20
25.630821
 30
0.0
  0
VERTEX
  5
373
100
AcDbEntity
  8
レイヤー_2
 62
    18
100
AcDbVertex
100
AcDb2dVertex
 10
0.713996
 20
24.784189
 30
0.0
  0
VERTEX
  5
374
100
AcDbEntity
  8
レイヤー_2
 62
    18
100
AcDbVertex
100
AcDb2dVertex
 10
0.544497
 20
23.937385
 30
0.0
  0
SEQEND
  5
375
100
AcDbEntity
  8
レイヤー_2
 62
    18
  0
LINE
  5
366
100
AcDbEntity
  8
レイヤー_2
 62
    18
100
AcDbLine
 10
7.063996
 20
-18.819006
 30
0.0
 11
7.318244
 21
-18.819006
 31
0.0
  0
POLYLINE
  5
35D
100
AcDbEntity
  8
レイヤー_2
 62
    18
100
AcDb2dPolyline
 66
     1
 10
0.0
 20
0.0
 30
0.0
  0
VERTEX
  5
35E
100
AcDbEntity
  8
レイヤー_2
 62
    18
100
AcDbVertex
100
AcDb2dVertex
 10
2.661164
 20
18.518766
 30
0.0
  0
VERTEX
  5
35F
100
AcDbEntity
  8
レイヤー_2
 62
    18
100
AcDbVertex
100
AcDb2dVertex
 10
2.407605
 20
18.434189
 30
0.0
  0
VERTEX
  5
360
100
AcDbEntity
  8
レイヤー_2
 62
    18
100
AcDbVertex
100
AcDb2dVertex
 10
2.068608
 20
18.264863
 30
0.0
  0
VERTEX
  5
361
100
AcDbEntity
  8
レイヤー_2
 62
    18
100
AcDbVertex
100
AcDb2dVertex
 10
1.899109
 20
18.010787
 30
0.0
  0
VERTEX
  5
362
100
AcDbEntity
  8
レイヤー_2
 62
    18
100
AcDbVertex
100
AcDb2dVertex
 10
1.815049
 20
17.841461
 30
0.0
  0
VERTEX
  5
363
100
AcDbEntity
  8
レイヤー_2
 62
    18
100
AcDbVertex
100
AcDb2dVertex
 10
1.730299
 20
17.587385
 30
0.0
  0
VERTEX
  5
364
100
AcDbEntity
  8
レイヤー_2
 62
    18
100
AcDbVertex
100
AcDb2dVertex
 10
1.899109
 20
17.248732
 30
0.0
  0
SEQEND
  5
365
100
AcDbEntity
  8
レイヤー_2
 62
    18
  0
POLYLINE
  5
351
100
AcDbEntity
  8
レイヤー_2
 62
    18
100
AcDb2dPolyline
 66
     1
 10
0.0
 20
0.0
 30
0.0
  0
VERTEX
  5
352
100
AcDbEntity
  8
レイヤー_2
 62
    18
100
AcDbVertex
100
AcDb2dVertex
 10
6.132442
 20
17.333481
 30
0.0
  0
VERTEX
  5
353
100
AcDbEntity
  8
レイヤー_2
 62
    18
100
AcDbVertex
100
AcDb2dVertex
 10
6.132442
 20
17.418058
 30
0.0
  0
VERTEX
  5
354
100
AcDbEntity
  8
レイヤー_2
 62
    18
100
AcDbVertex
100
AcDb2dVertex
 10
6.217192
 20
17.587385
 30
0.0
  0
VERTEX
  5
355
100
AcDbEntity
  8
レイヤー_2
 62
    18
100
AcDbVertex
100
AcDb2dVertex
 10
6.217192
 20
17.841461
 30
0.0
  0
VERTEX
  5
356
100
AcDbEntity
  8
レイヤー_2
 62
    18
100
AcDbVertex
100
AcDb2dVertex
 10
6.132442
 20
18.010787
 30
0.0
  0
VERTEX
  5
357
100
AcDbEntity
  8
レイヤー_2
 62
    18
100
AcDbVertex
100
AcDb2dVertex
 10
5.878883
 20
18.264863
 30
0.0
  0
VERTEX
  5
358
100
AcDbEntity
  8
レイヤー_2
 62
    18
100
AcDbVertex
100
AcDb2dVertex
 10
5.624635
 20
18.434189
 30
0.0
  0
VERTEX
  5
359
100
AcDbEntity
  8
レイヤー_2
 62
    18
100
AcDbVertex
100
AcDb2dVertex
 10
5.286327
 20
18.603516
 30
0.0
  0
VERTEX
  5
35A
100
AcDbEntity
  8
レイヤー_2
 62
    18
100
AcDbVertex
100
AcDb2dVertex
 10
4.439522
 20
18.772842
 30
0.0
  0
VERTEX
  5
35B
100
AcDbEntity
  8
レイヤー_2
 62
    18
100
AcDbVertex
100
AcDb2dVertex
 10
4.015776
 20
18.772842
 30
0.0
  0
SEQEND
  5
35C
100
AcDbEntity
  8
レイヤー_2
 62
    18
  0
LINE
  5
350
100
AcDbEntity
  8
レイヤー_2
 62
    18
100
AcDbLine
 10
9.095913
 20
-4.849316
 30
0.0
 11
9.180663
 21
-4.933721
 31
0.0
  0
POLYLINE
  5
346
100
AcDbEntity
  8
レイヤー_2
 62
    18
100
AcDb2dPolyline
 66
     1
 10
0.0
 20
0.0
 30
0.0
  0
VERTEX
  5
347
100
AcDbEntity
  8
レイヤー_2
 62
    18
100
AcDbVertex
100
AcDb2dVertex
 10
4.015776
 20
20.974086
 30
0.0
  0
VERTEX
  5
348
100
AcDbEntity
  8
レイヤー_2
 62
    18
100
AcDbVertex
100
AcDb2dVertex
 10
3.423219
 20
20.974086
 30
0.0
  0
VERTEX
  5
349
100
AcDbEntity
  8
レイヤー_2
 62
    18
100
AcDbVertex
100
AcDb2dVertex
 10
2.407605
 20
20.804759
 30
0.0
  0
VERTEX
  5
34A
100
AcDbEntity
  8
レイヤー_2
 62
    18
100
AcDbVertex
100
AcDb2dVertex
 10
1.560801
 20
20.466106
 30
0.0
  0
VERTEX
  5
34B
100
AcDbEntity
  8
レイヤー_2
 62
    18
100
AcDbVertex
100
AcDb2dVertex
 10
1.221803
 20
20.29678
 30
0.0
  0
VERTEX
  5
34C
100
AcDbEntity
  8
レイヤー_2
 62
    18
100
AcDbVertex
100
AcDb2dVertex
 10
0.883495
 20
20.042704
 30
0.0
  0
VERTEX
  5
34D
100
AcDbEntity
  8
レイヤー_2
 62
    18
100
AcDbVertex
100
AcDb2dVertex
 10
0.713996
 20
19.788801
 30
0.0
  0
VERTEX
  5
34E
100
AcDbEntity
  8
レイヤー_2
 62
    18
100
AcDbVertex
100
AcDb2dVertex
 10
0.544497
 20
19.280821
 30
0.0
  0
SEQEND
  5
34F
100
AcDbEntity
  8
レイヤー_2
 62
    18
  0
POLYLINE
  5
33B
100
AcDbEntity
  8
レイヤー_2
 62
    18
100
AcDb2dPolyline
 66
     1
 10
0.0
 20
0.0
 30
0.0
  0
VERTEX
  5
33C
100
AcDbEntity
  8
レイヤー_2
 62
    18
100
AcDbVertex
100
AcDb2dVertex
 10
7.402993
 20
19.280821
 30
0.0
  0
VERTEX
  5
33D
100
AcDbEntity
  8
レイヤー_2
 62
    18
100
AcDbVertex
100
AcDb2dVertex
 10
7.402993
 20
19.534725
 30
0.0
  0
VERTEX
  5
33E
100
AcDbEntity
  8
レイヤー_2
 62
    18
100
AcDbVertex
100
AcDb2dVertex
 10
7.318244
 20
19.788801
 30
0.0
  0
VERTEX
  5
33F
100
AcDbEntity
  8
レイヤー_2
 62
    18
100
AcDbVertex
100
AcDb2dVertex
 10
6.810437
 20
20.29678
 30
0.0
  0
VERTEX
  5
340
100
AcDbEntity
  8
レイヤー_2
 62
    18
100
AcDbVertex
100
AcDb2dVertex
 10
6.47144
 20
20.466106
 30
0.0
  0
VERTEX
  5
341
100
AcDbEntity
  8
レイヤー_2
 62
    18
100
AcDbVertex
100
AcDb2dVertex
 10
5.624635
 20
20.804759
 30
0.0
  0
VERTEX
  5
342
100
AcDbEntity
  8
レイヤー_2
 62
    18
100
AcDbVertex
100
AcDb2dVertex
 10
5.116828
 20
20.889509
 30
0.0
  0
VERTEX
  5
343
100
AcDbEntity
  8
レイヤー_2
 62
    18
100
AcDbVertex
100
AcDb2dVertex
 10
4.524272
 20
20.974086
 30
0.0
  0
VERTEX
  5
344
100
AcDbEntity
  8
レイヤー_2
 62
    18
100
AcDbVertex
100
AcDb2dVertex
 10
4.015776
 20
20.974086
 30
0.0
  0
SEQEND
  5
345
100
AcDbEntity
  8
レイヤー_2
 62
    18
  0
POLYLINE
  5
32B
100
AcDbEntity
  8
レイヤー_2
 62
    18
100
AcDb2dPolyline
 66
     1
 10
0.0
 20
0.0
 30
0.0
  0
VERTEX
  5
32C
100
AcDbEntity
  8
レイヤー_2
 62
    18
100
AcDbVertex
100
AcDb2dVertex
 10
0.968244
 20
-24.830353
 30
0.0
  0
VERTEX
  5
32D
100
AcDbEntity
  8
レイヤー_2
 62
    18
100
AcDbVertex
100
AcDb2dVertex
 10
1.052993
 20
-24.830353
 30
0.0
  0
VERTEX
  5
32E
100
AcDbEntity
  8
レイヤー_2
 62
    18
100
AcDbVertex
100
AcDb2dVertex
 10
1.052993
 20
-24.915103
 30
0.0
  0
VERTEX
  5
32F
100
AcDbEntity
  8
レイヤー_2
 62
    18
100
AcDbVertex
100
AcDb2dVertex
 10
1.476051
 20
-24.915103
 30
0.0
  0
VERTEX
  5
330
100
AcDbEntity
  8
レイヤー_2
 62
    18
100
AcDbVertex
100
AcDb2dVertex
 10
1.64555
 20
-24.830353
 30
0.0
  0
VERTEX
  5
331
100
AcDbEntity
  8
レイヤー_2
 62
    18
100
AcDbVertex
100
AcDb2dVertex
 10
1.899109
 20
-24.830353
 30
0.0
  0
VERTEX
  5
332
100
AcDbEntity
  8
レイヤー_2
 62
    18
100
AcDbVertex
100
AcDb2dVertex
 10
2.068608
 20
-24.745604
 30
0.0
  0
VERTEX
  5
333
100
AcDbEntity
  8
レイヤー_2
 62
    18
100
AcDbVertex
100
AcDb2dVertex
 10
2.238106
 20
-24.745604
 30
0.0
  0
VERTEX
  5
334
100
AcDbEntity
  8
レイヤー_2
 62
    18
100
AcDbVertex
100
AcDb2dVertex
 10
2.407605
 20
-24.661544
 30
0.0
  0
VERTEX
  5
335
100
AcDbEntity
  8
レイヤー_2
 62
    18
100
AcDbVertex
100
AcDb2dVertex
 10
2.577104
 20
-24.661544
 30
0.0
  0
VERTEX
  5
336
100
AcDbEntity
  8
レイヤー_2
 62
    18
100
AcDbVertex
100
AcDb2dVertex
 10
2.915412
 20
-24.492045
 30
0.0
  0
VERTEX
  5
337
100
AcDbEntity
  8
レイヤー_2
 62
    18
100
AcDbVertex
100
AcDb2dVertex
 10
3.084911
 20
-24.322546
 30
0.0
  0
VERTEX
  5
338
100
AcDbEntity
  8
レイヤー_2
 62
    18
100
AcDbVertex
100
AcDb2dVertex
 10
3.254409
 20
-24.237797
 30
0.0
  0
VERTEX
  5
339
100
AcDbEntity
  8
レイヤー_2
 62
    18
100
AcDbVertex
100
AcDb2dVertex
 10
3.423219
 20
-24.068298
 30
0.0
  0
SEQEND
  5
33A
100
AcDbEntity
  8
レイヤー_2
 62
    18
  0
POLYLINE
  5
31D
100
AcDbEntity
  8
レイヤー_2
 62
    18
100
AcDb2dPolyline
 66
     1
 10
0.0
 20
0.0
 30
0.0
  0
VERTEX
  5
31E
100
AcDbEntity
  8
レイヤー_2
 62
    18
100
AcDbVertex
100
AcDb2dVertex
 10
4.524272
 20
-25.2541
 30
0.0
  0
VERTEX
  5
31F
100
AcDbEntity
  8
レイヤー_2
 62
    18
100
AcDbVertex
100
AcDb2dVertex
 10
4.69377
 20
-25.2541
 30
0.0
  0
VERTEX
  5
320
100
AcDbEntity
  8
レイヤー_2
 62
    18
100
AcDbVertex
100
AcDb2dVertex
 10
4.777831
 20
-25.169351
 30
0.0
  0
VERTEX
  5
321
100
AcDbEntity
  8
レイヤー_2
 62
    18
100
AcDbVertex
100
AcDb2dVertex
 10
4.947329
 20
-25.169351
 30
0.0
  0
VERTEX
  5
322
100
AcDbEntity
  8
レイヤー_2
 62
    18
100
AcDbVertex
100
AcDb2dVertex
 10
5.032079
 20
-25.084602
 30
0.0
  0
VERTEX
  5
323
100
AcDbEntity
  8
レイヤー_2
 62
    18
100
AcDbVertex
100
AcDb2dVertex
 10
5.116828
 20
-25.084602
 30
0.0
  0
VERTEX
  5
324
100
AcDbEntity
  8
レイヤー_2
 62
    18
100
AcDbVertex
100
AcDb2dVertex
 10
5.286327
 20
-24.999852
 30
0.0
  0
VERTEX
  5
325
100
AcDbEntity
  8
レイヤー_2
 62
    18
100
AcDbVertex
100
AcDb2dVertex
 10
5.539886
 20
-24.999852
 30
0.0
  0
VERTEX
  5
326
100
AcDbEntity
  8
レイヤー_2
 62
    18
100
AcDbVertex
100
AcDb2dVertex
 10
5.709384
 20
-24.915103
 30
0.0
  0
VERTEX
  5
327
100
AcDbEntity
  8
レイヤー_2
 62
    18
100
AcDbVertex
100
AcDb2dVertex
 10
6.640938
 20
-24.915103
 30
0.0
  0
VERTEX
  5
328
100
AcDbEntity
  8
レイヤー_2
 62
    18
100
AcDbVertex
100
AcDb2dVertex
 10
6.810437
 20
-24.999852
 30
0.0
  0
VERTEX
  5
329
100
AcDbEntity
  8
レイヤー_2
 62
    18
100
AcDbVertex
100
AcDb2dVertex
 10
7.063996
 20
-24.999852
 30
0.0
  0
SEQEND
  5
32A
100
AcDbEntity
  8
レイヤー_2
 62
    18
  0
LINE
  5
31C
100
AcDbEntity
  8
レイヤー_2
 62
    18
100
AcDbLine
 10
4.015776
 20
41.717523
 30
0.0
 11
4.015776
 21
36.722134
 31
0.0
  0
LINE
  5
31B
100
AcDbEntity
  8
レイヤー_2
 62
    18
100
AcDbLine
 10
4.015776
 20
35.706175
 30
0.0
 11
4.015776
 21
34.690044
 31
0.0
  0
LINE
  5
31A
100
AcDbEntity
  8
レイヤー_2
 62
    18
100
AcDbLine
 10
4.015776
 20
33.674086
 30
0.0
 11
4.015776
 21
28.678697
 31
0.0
  0
LINE
  5
319
100
AcDbEntity
  8
レイヤー_2
 62
    18
100
AcDbLine
 10
4.015776
 20
27.662739
 30
0.0
 11
4.015776
 21
26.64678
 31
0.0
  0
LINE
  5
318
100
AcDbEntity
  8
レイヤー_2
 62
    18
100
AcDbLine
 10
4.015776
 20
25.715398
 30
0.0
 11
4.015776
 21
20.720182
 31
0.0
  0
LINE
  5
317
100
AcDbEntity
  8
レイヤー_2
 62
    18
100
AcDbLine
 10
4.015776
 20
19.704051
 30
0.0
 11
4.015776
 21
18.688093
 31
0.0
  0
LINE
  5
316
100
AcDbEntity
  8
レイヤー_2
 62
    18
100
AcDbLine
 10
4.015776
 20
17.672134
 30
0.0
 11
4.015776
 21
12.676746
 31
0.0
  0
LINE
  5
315
100
AcDbEntity
  8
レイヤー_2
 62
    18
100
AcDbLine
 10
4.015776
 20
11.660787
 30
0.0
 11
4.015776
 21
10.644656
 31
0.0
  0
LINE
  5
314
100
AcDbEntity
  8
レイヤー_2
 62
    18
100
AcDbLine
 10
4.015776
 20
9.713447
 30
0.0
 11
4.015776
 21
4.718058
 31
0.0
  0
LINE
  5
313
100
AcDbEntity
  8
レイヤー_2
 62
    18
100
AcDbLine
 10
4.015776
 20
3.7021
 30
0.0
 11
4.015776
 21
2.686141
 31
0.0
  0
LINE
  5
312
100
AcDbEntity
  8
レイヤー_2
 62
    18
100
AcDbLine
 10
4.015776
 20
1.670182
 30
0.0
 11
4.015776
 21
-3.325206
 31
0.0
  0
LINE
  5
311
100
AcDbEntity
  8
レイヤー_2
 62
    18
100
AcDbLine
 10
4.015776
 20
-4.341165
 30
0.0
 11
4.015776
 21
-5.357123
 31
0.0
  0
LINE
  5
310
100
AcDbEntity
  8
レイヤー_2
 62
    18
100
AcDbLine
 10
4.015776
 20
-6.288677
 30
0.0
 11
4.015776
 21
-11.283894
 31
0.0
  0
LINE
  5
30F
100
AcDbEntity
  8
レイヤー_2
 62
    18
100
AcDbLine
 10
4.015776
 20
-12.300197
 30
0.0
 11
4.015776
 21
-13.315811
 31
0.0
  0
LINE
  5
30E
100
AcDbEntity
  8
レイヤー_2
 62
    18
100
AcDbLine
 10
4.015776
 20
-14.332114
 30
0.0
 11
4.015776
 21
-19.327502
 31
0.0
  0
LINE
  5
30D
100
AcDbEntity
  8
レイヤー_2
 62
    18
100
AcDbLine
 10
4.015776
 20
-20.343117
 30
0.0
 11
4.015776
 21
-21.359075
 31
0.0
  0
LINE
  5
30C
100
AcDbEntity
  8
レイヤー_2
 62
    18
100
AcDbLine
 10
4.015776
 20
-22.290629
 30
0.0
 11
4.015776
 21
-26.523962
 31
0.0
  0
LINE
  5
30B
100
AcDbEntity
  8
レイヤー_2
 62
    18
100
AcDbLine
 10
4.015776
 20
-26.523962
 30
0.0
 11
4.015776
 21
-25.507659
 31
0.0
  0
LINE
  5
30A
100
AcDbEntity
  8
レイヤー_2
 62
    18
100
AcDbLine
 10
-2.249475
 20
70.334725
 30
0.0
 11
-2.249475
 21
40.870718
 31
0.0
  0
LINE
  5
309
100
AcDbEntity
  8
レイヤー_2
 62
    18
100
AcDbLine
 10
10.281715
 20
70.504051
 30
0.0
 11
10.281715
 21
41.040044
 31
0.0
  0
LINE
  5
308
100
AcDbEntity
  8
レイヤー_2
 62
    18
100
AcDbLine
 10
-19.775365
 20
-3.917763
 30
0.0
 11
-3.519337
 21
-3.917763
 31
0.0
  0
LINE
  5
307
100
AcDbEntity
  8
レイヤー_2
 62
    18
100
AcDbLine
 10
-2.249475
 20
69.064863
 30
0.0
 11
-3.349839
 21
67.879405
 31
0.0
  0
LINE
  5
306
100
AcDbEntity
  8
レイヤー_2
 62
    18
100
AcDbLine
 10
-1.148423
 20
70.334725
 30
0.0
 11
-2.249475
 21
69.064863
 31
0.0
  0
LINE
  5
305
100
AcDbEntity
  8
レイヤー_2
 62
    18
100
AcDbLine
 10
-3.18034
 20
69.064863
 30
0.0
 11
11.551577
 21
69.064863
 31
0.0
  0
LINE
  5
304
100
AcDbEntity
  8
レイヤー_2
 62
    18
100
AcDbLine
 10
10.196966
 20
69.064863
 30
0.0
 11
9.180663
 21
67.879405
 31
0.0
  0
LINE
  5
303
100
AcDbEntity
  8
レイヤー_2
 62
    18
100
AcDbLine
 10
11.297329
 20
70.334725
 30
0.0
 11
10.196966
 21
69.064863
 31
0.0
  0
LINE
  5
302
100
AcDbEntity
  8
レイヤー_2
 62
    18
100
AcDbLine
 10
-19.775365
 20
4.633309
 30
0.0
 11
-7.83742
 21
4.633309
 31
0.0
  0
LINE
  5
301
100
AcDbEntity
  8
レイヤー_2
 62
    18
100
AcDbLine
 10
-18.420753
 20
5.818766
 30
0.0
 11
-18.420753
 21
-28.4291
 31
0.0
  0
LINE
  5
300
100
AcDbEntity
  8
レイヤー_2
 62
    18
100
AcDbLine
 10
-19.690616
 20
5.818766
 30
0.0
 11
-17.234951
 21
3.61735
 31
0.0
  0
LINE
  5
2FF
100
AcDbEntity
  8
レイヤー_2
 62
    18
100
AcDbLine
 10
-19.690616
 20
-2.817055
 30
0.0
 11
-17.234951
 21
-5.018471
 31
0.0
  0
LINE
  5
2FE
100
AcDbEntity
  8
レイヤー_2
 62
    18
100
AcDbLine
 10
-6.905866
 20
4.633309
 30
0.0
 11
14.938106
 21
4.633309
 31
0.0
  0
MTEXT
  5
2FD
100
AcDbEntity
  8
レイヤー_2
 62
     7
100
AcDbMText
 10
-25.298542
 20
-27.972281
 30
0.0
 40
5.512152
 41
0.0
 71
     1
 72
     2
  1
\fMS PGothic|b0|i0|c128;\H5.5122;\C7;\U+006D\U+0061\U+0078\U+002E\U+0033\U+0035
  7
STD
210
0.0
220
0.0
230
1.0
 11
0.0
 21
1.0
 31
0.0
 73
     1
 44
1.0
  0
MTEXT
  5
2FC
100
AcDbEntity
  8
レイヤー_2
 62
     7
100
AcDbMText
 10
-3.778408
 20
75.400221
 30
0.0
 40
5.512152
 41
0.0
 71
     1
 72
     2
  1
\fMS PGothic|b0|i0|c128;\H5.5122;\C7;\U+03C6\U+0035\U+0030
  7
STD
210
0.0
220
0.0
230
1.0
 73
     1
 44
1.0
  0
INSERT
  5
2F1
100
AcDbEntity
  8
レイヤー_2
 62
     7
100
AcDbBlockReference
  2
AI9-BLK12
 10
3.992349
 20
-13.618549
 30
0.0
  0
INSERT
  5
2E9
100
AcDbEntity
  8
レイヤー_2
  6
AI9-LType1
 62
     7
100
AcDbBlockReference
  2
AI9-BLK11
 10
3.992349
 20
-0.40721
 30
0.0
  0
INSERT
  5
23C
100
AcDbEntity
  8
レイヤー_2
 62
     7
100
AcDbBlockReference
  2
AI9-BLK6
 10
4.549938
 20
-49.570962
 30
0.0
  0
ENDBLK
  5
825
100
AcDbEntity
  8
レイヤー_2
100
AcDbBlockEnd
  0
BLOCK
  5
23D
100
AcDbEntity
  8
レイヤー_2
 62
     7
100
AcDbBlockBegin
  2
AI9-BLK6
 70
     0
 10
0.0
 20
0.0
 30
0.0
  3
AI9-BLK6
  1

  0
MTEXT
  5
2E6
100
AcDbEntity
  8
レイヤー_2
  6
AI9-LType1
 62
     7
100
AcDbMText
 10
8.777931
 20
-10.433718
 30
0.0
 40
4.724702
 41
0.0
 71
     1
 72
     2
  1
\fMS PGothic|b0|i0|c128;\H4.7247;\C7;\U+0047\U+0031\U+002F\U+0032
  7
STD
210
0.0
220
0.0
230
1.0
 73
     1
 44
1.0
  0
LINE
  5
2E5
100
AcDbEntity
  8
レイヤー_2
  6
AI9-LType1
 62
     7
100
AcDbLine
 10
1.24833
 20
3.338298
 30
0.0
 11
15.327747
 21
15.096408
 31
0.0
  0
INSERT
  5
29A
100
AcDbEntity
  8
レイヤー_2
 62
     7
100
AcDbBlockReference
  2
AI9-BLK9
 10
15.327402
 20
4.502051
 30
0.0
  0
LINE
  5
298
100
AcDbEntity
  8
レイヤー_2
 62
     7
100
AcDbLine
 10
1.196654
 20
21.085362
 30
0.0
 11
1.196654
 21
26.644368
 31
0.0
  0
LINE
  5
297
100
AcDbEntity
  8
レイヤー_2
 62
     7
100
AcDbLine
 10
1.196654
 20
12.210107
 30
0.0
 11
1.196654
 21
17.769803
 31
0.0
  0
LINE
  5
296
100
AcDbEntity
  8
レイヤー_2
 62
     7
100
AcDbLine
 10
1.196654
 20
18.921153
 30
0.0
 11
1.196654
 21
20.022895
 31
0.0
  0
LINE
  5
295
100
AcDbEntity
  8
レイヤー_2
 62
     7
100
AcDbLine
 10
1.196654
 20
3.335541
 30
0.0
 11
1.196654
 21
8.894548
 31
0.0
  0
LINE
  5
294
100
AcDbEntity
  8
レイヤー_2
 62
     7
100
AcDbLine
 10
1.196654
 20
10.046587
 30
0.0
 11
1.196654
 21
11.14764
 31
0.0
  0
MTEXT
  5
293
100
AcDbEntity
  8
レイヤー_2
  6
AI9-LType1
 62
     7
100
AcDbMText
 10
-21.602988
 20
-10.433718
 30
0.0
 40
4.724702
 41
0.0
 71
     1
 72
     2
  1
\fMS PGothic|b0|i0|c128;\H4.7247;\C7;\U+0047\U+0031\U+002F\U+0032
  7
STD
210
0.0
220
0.0
230
1.0
 73
     1
 44
1.0
  0
INSERT
  5
248
100
AcDbEntity
  8
レイヤー_2
  6
AI9-LType1
 62
     7
100
AcDbBlockReference
  2
AI9-BLK7
 10
-15.641595
 20
4.502395
 30
0.0
  0
LINE
  5
246
100
AcDbEntity
  8
レイヤー_2
  6
AI9-LType1
 62
     7
100
AcDbLine
 10
-2.276002
 20
3.219097
 30
0.0
 11
-15.536864
 21
14.889014
 31
0.0
  0
LINE
  5
244
100
AcDbEntity
  8
レイヤー_2
 62
     7
100
AcDbLine
 10
-2.311831
 20
21.11499
 30
0.0
 11
-2.311831
 21
26.683643
 31
0.0
  0
LINE
  5
243
100
AcDbEntity
  8
レイヤー_2
 62
     7
100
AcDbLine
 10
-2.311831
 20
12.225266
 30
0.0
 11
-2.311831
 21
17.793918
 31
0.0
  0
LINE
  5
242
100
AcDbEntity
  8
レイヤー_2
 62
     7
100
AcDbLine
 10
-2.311831
 20
18.947336
 30
0.0
 11
-2.311831
 21
20.051145
 31
0.0
  0
LINE
  5
241
100
AcDbEntity
  8
レイヤー_2
 62
     7
100
AcDbLine
 10
-2.311831
 20
3.335541
 30
0.0
 11
-2.311831
 21
8.903505
 31
0.0
  0
LINE
  5
240
100
AcDbEntity
  8
レイヤー_2
 62
     7
100
AcDbLine
 10
-2.311831
 20
10.057612
 30
0.0
 11
-2.311831
 21
11.160731
 31
0.0
  0
MTEXT
  5
23F
100
AcDbEntity
  8
レイヤー_2
 62
     7
100
AcDbMText
 10
-8.277359
 20
-20.006654
 30
0.0
 40
2.362351
 41
0.0
 71
     1
 72
     2
  1
\fMS PGothic|b0|i0|c128;\H2.3624;\C7;\U+63A5\U+7D9A\U+30BD\U+30B1\U+30C3\U+30C8
  7
STD
210
0.0
220
0.0
230
1.0
 73
     1
 44
1.0
  0
MTEXT
  5
23E
100
AcDbEntity
  8
レイヤー_2
 62
     7
100
AcDbMText
 10
-8.277359
 20
-23.887209
 30
0.0
 40
2.362351
 41
0.0
 71
     1
 72
     2
  1
\fMS PGothic|b0|i0|c128;\H2.3624;\C7;\U+FF08\U+9006\U+6B62\U+5F01\U+4ED8\U+FF09
  7
STD
210
0.0
220
0.0
230
1.0
 73
     1
 44
1.0
  0
ENDBLK
  5
2E7
100
AcDbEntity
  8
レイヤー_2
100
AcDbBlockEnd
  0
BLOCK
  5
249
100
AcDbEntity
  8
レイヤー_2
  6
AI9-LType1
 62
     7
100
AcDbBlockBegin
  2
AI9-BLK7
 70
     0
 10
0.0
 20
0.0
 30
0.0
  3
AI9-BLK7
  1

  0
LINE
  5
291
100
AcDbEntity
  8
レイヤー_2
  6
AI9-LType1
 62
     7
100
AcDbLine
 10
0.0
 20
10.476191
 30
0.0
 11
0.0
 21
-10.476191
 31
0.0
  0
INSERT
  5
24B
100
AcDbEntity
  8
レイヤー_2
  6
AI9-LType1
 62
     7
100
AcDbBlockReference
  2
AI9-BLK8
 10
0.0
 20
-3.551549
 30
0.0
  0
ENDBLK
  5
292
100
AcDbEntity
  8
レイヤー_2
100
AcDbBlockEnd
  0
BLOCK
  5
24C
100
AcDbEntity
  8
レイヤー_2
  6
AI9-LType1
 62
     7
100
AcDbBlockBegin
  2
AI9-BLK8
 70
     0
 10
0.0
 20
0.0
 30
0.0
  3
AI9-BLK8
  1

  0
SPLINE
  5
28F
100
AcDbEntity
  8
レイヤー_2
 62
     7
100
AcDbSpline
210
0.0
220
0.0
230
1.0
 70
     8
 71
     3
 72
    95
 73
    91
 74
     0
 42
0.00000001
 43
0.00000001
 40
0.0
 40
0.0
 40
0.0
 40
0.0
 40
1.0
 40
1.0
 40
1.0
 40
2.0
 40
2.0
 40
2.0
 40
3.0
 40
3.0
 40
3.0
 40
4.0
 40
4.0
 40
4.0
 40
5.0
 40
5.0
 40
5.0
 40
6.0
 40
6.0
 40
6.0
 40
7.0
 40
7.0
 40
7.0
 40
8.0
 40
8.0
 40
8.0
 40
9.0
 40
9.0
 40
9.0
 40
10.0
 40
10.0
 40
10.0
 40
11.0
 40
11.0
 40
11.0
 40
12.0
 40
12.0
 40
12.0
 40
13.0
 40
13.0
 40
13.0
 40
14.0
 40
14.0
 40
14.0
 40
15.0
 40
15.0
 40
15.0
 40
16.0
 40
16.0
 40
16.0
 40
17.0
 40
17.0
 40
17.0
 40
18.0
 40
18.0
 40
18.0
 40
19.0
 40
19.0
 40
19.0
 40
20.0
 40
20.0
 40
20.0
 40
21.0
 40
21.0
 40
21.0
 40
22.0
 40
22.0
 40
22.0
 40
23.0
 40
23.0
 40
23.0
 40
24.0
 40
24.0
 40
24.0
 40
25.0
 40
25.0
 40
25.0
 40
26.0
 40
26.0
 40
26.0
 40
27.0
 40
27.0
 40
27.0
 40
28.0
 40
28.0
 40
28.0
 40
29.0
 40
29.0
 40
29.0
 40
30.0
 40
30.0
 40
30.0
 40
30.0
 10
-1.1100097656249999
 20
6.2990125868055546
 30
0.0
 10
-1.0976074218749998
 20
6.2955674913194439
 30
0.0
 10
-1.085205078125
 20
6.2921223958333323
 30
0.0
 10
-1.072802734375
 20
6.2886773003472216
 30
0.0
 10
-1.0604003906249999
 20
6.2852322048611109
 30
0.0
 10
-1.0479980468749999
 20
6.2824761284722213
 30
0.0
 10
-1.0355957031249998
 20
6.2797200520833325
 30
0.0
 10
-1.023193359375
 20
6.2762749565972218
 30
0.0
 10
-1.010791015625
 20
6.274207899305555
 30
0.0
 10
-0.9983886718749999
 20
6.2721408420138882
 30
0.0
 10
-0.9859863281249999
 20
6.2700737847222214
 30
0.0
 10
-0.9735839843749999
 20
6.2680067274305546
 30
0.0
 10
-0.9611816406249999
 20
6.2673177083333327
 30
0.0
 10
-0.9480902777777777
 20
6.2659396701388888
 30
0.0
 10
-0.9356879340277777
 20
6.2659396701388888
 30
0.0
 10
-0.9232855902777777
 20
6.2659396701388888
 30
0.0
 10
-0.8943467881944444
 20
6.2666286892361107
 30
0.0
 10
-0.8660970052083332
 20
6.2700737847222214
 30
0.0
 10
-0.8385362413194444
 20
6.2769639756944438
 30
0.0
 10
-0.8102864583333332
 20
6.2838541666666661
 30
0.0
 10
-0.7820366753472221
 20
6.2914333767361104
 30
0.0
 10
-0.7537868923611111
 20
6.2990125868055546
 30
0.0
 10
-0.7255371093749999
 20
6.3079698350694438
 30
0.0
 10
-0.6979763454861111
 20
6.315549045138888
 30
0.0
 10
-0.6697265625
 20
6.3231282552083323
 30
0.0
 10
-0.6428548177083333
 20
6.3307074652777775
 30
0.0
 10
-0.6152940538194444
 20
6.336219618055555
 30
0.0
 10
-0.5877332899305555
 20
6.3389756944444438
 30
0.0
 10
-0.5622395833333332
 20
6.3424207899305554
 30
0.0
 10
-0.5360568576388889
 20
6.3410427517361105
 30
0.0
 10
-0.5098741319444444
 20
6.336219618055555
 30
0.0
 10
-0.4712890625
 20
6.3279513888888888
 30
0.0
 10
-0.4347710503472222
 20
6.3107259114583325
 30
0.0
 10
-0.4030761718749999
 20
6.2872992621527768
 30
0.0
 10
-0.3672471788194444
 20
6.2618055555555552
 30
0.0
 10
-0.3334852430555556
 20
6.2335557725694439
 30
0.0
 10
-0.3024793836805556
 20
6.2025499131944439
 30
0.0
 10
-0.2700954861111111
 20
6.1701660156249991
 30
0.0
 10
-0.2377115885416667
 20
6.1384711371527771
 30
0.0
 10
-0.204638671875
 20
6.1067762586805552
 30
0.0
 10
-0.1743218315972222
 20
6.0771484374999991
 30
0.0
 10
-0.1405598958333333
 20
6.0502766927083327
 30
0.0
 10
-0.105419921875
 20
6.026161024305555
 30
0.0
 10
-0.0737250434027778
 20
6.0048014322916661
 30
0.0
 10
-0.0378960503472222
 20
5.9910210503472214
 30
0.0
 10
0.0
 20
5.9861979166666659
 30
0.0
 10
0.0365180121527778
 20
5.9813747829861104
 30
0.0
 10
0.0737250434027778
 20
5.9868869357638888
 30
0.0
 10
0.1081759982638889
 20
6.0020453559027773
 30
0.0
 10
0.1453830295138889
 20
6.0185818142361107
 30
0.0
 10
0.1832790798611111
 20
6.0358072916666661
 30
0.0
 10
0.2211751302083333
 20
6.0530327690972214
 30
0.0
 10
0.26044921875
 20
6.0709472656249996
 30
0.0
 10
0.2990342881944444
 20
6.0916178385416657
 30
0.0
 10
0.3355523003472222
 20
6.1150444878472214
 30
0.0
 10
0.3720703124999999
 20
6.1350260416666664
 30
0.0
 10
0.40927734375
 20
6.1515624999999998
 30
0.0
 10
0.4485514322916666
 20
6.1639648437499996
 30
0.0
 10
0.4823133680555555
 20
6.1763671874999995
 30
0.0
 10
0.5195203993055555
 20
6.180501302083333
 30
0.0
 10
0.555349392361111
 20
6.1763671874999995
 30
0.0
 10
0.5815321180555555
 20
6.1715440538194439
 30
0.0
 10
0.6063368055555555
 20
6.1625868055555548
 30
0.0
 10
0.6297634548611111
 20
6.149495442708333
 30
0.0
 10
0.6545681423611111
 20
6.1357150607638884
 30
0.0
 10
0.6786838107638888
 20
6.119178602430555
 30
0.0
 10
0.700732421875
 20
6.1012641059027768
 30
0.0
 10
0.7248480902777778
 20
6.0819715711805546
 30
0.0
 10
0.7489637586805555
 20
6.0619900173611105
 30
0.0
 10
0.7717013888888888
 20
6.0420084635416664
 30
0.0
 10
0.7958170572916666
 20
6.0220269097222214
 30
0.0
 10
0.8199327256944444
 20
6.0027343749999993
 30
0.0
 10
0.8454264322916666
 20
5.9841308593749991
 30
0.0
 10
0.8695421006944444
 20
5.9669053819444438
 30
0.0
 10
0.8957248263888888
 20
5.9524359809027771
 30
0.0
 10
0.9232855902777777
 20
5.9400336371527773
 30
0.0
 10
0.9349989149305554
 20
5.9352105034722218
 30
0.0
 10
0.9467122395833333
 20
5.9310763888888882
 30
0.0
 10
0.9591145833333332
 20
5.9283203124999995
 30
0.0
 10
0.9715169270833333
 20
5.9248752170138888
 30
0.0
 10
0.983230251736111
 20
5.9221191406249991
 30
0.0
 10
0.9956325954861111
 20
5.9193630642361104
 30
0.0
 10
1.008034939236111
 20
5.9166069878472216
 30
0.0
 10
1.0211263020833332
 20
5.9152289496527777
 30
0.0
 10
1.0335286458333333
 20
5.9138509114583329
 30
0.0
 10
1.0459309895833333
 20
5.912472873263888
 30
0.0
 10
1.0590223524305555
 20
5.9110948350694441
 30
0.0
 10
1.0714246961805554
 20
5.9104058159722213
 30
0.0
 10
1.0845160590277776
 20
5.9090277777777773
 30
0.0
 10
1.0976074218749998
 20
5.9076497395833325
 30
0.0
 10
1.1100097656249999
 20
5.9076497395833325
 30
0.0
  0
LINE
  5
28E
100
AcDbEntity
  8
レイヤー_2
 62
     7
100
AcDbLine
 10
1.986442
 20
-0.541569
 30
0.0
 11
1.869998
 21
-0.541569
 31
0.0
  0
LINE
  5
28D
100
AcDbEntity
  8
レイヤー_2
 62
     7
100
AcDbLine
 10
1.869998
 20
0.525033
 30
0.0
 11
1.869998
 21
-0.541569
 31
0.0
  0
LINE
  5
28C
100
AcDbEntity
  8
レイヤー_2
 62
     7
100
AcDbLine
 10
1.869998
 20
-0.541569
 30
0.0
 11
1.986442
 21
-0.744141
 31
0.0
  0
LINE
  5
28B
100
AcDbEntity
  8
レイヤー_2
 62
     7
100
AcDbLine
 10
-1.869309
 20
-0.541569
 30
0.0
 11
-1.986442
 21
-0.541569
 31
0.0
  0
LINE
  5
28A
100
AcDbEntity
  8
レイヤー_2
 62
     7
100
AcDbLine
 10
-1.869309
 20
-0.541569
 30
0.0
 11
-1.869309
 21
0.525033
 31
0.0
  0
LINE
  5
289
100
AcDbEntity
  8
レイヤー_2
 62
     7
100
AcDbLine
 10
-1.986442
 20
-0.744141
 30
0.0
 11
-1.869309
 21
-0.541569
 31
0.0
  0
LINE
  5
288
100
AcDbEntity
  8
レイヤー_2
 62
     7
100
AcDbLine
 10
-1.096229
 20
0.634587
 30
0.0
 11
-1.577165
 21
0.634587
 31
0.0
  0
LINE
  5
287
100
AcDbEntity
  8
レイヤー_2
 62
     7
100
AcDbLine
 10
-1.096229
 20
3.087495
 30
0.0
 11
-1.096229
 21
0.634587
 31
0.0
  0
LINE
  5
286
100
AcDbEntity
  8
レイヤー_2
 62
     7
100
AcDbLine
 10
-1.577165
 20
3.087495
 30
0.0
 11
-1.096229
 21
3.087495
 31
0.0
  0
LINE
  5
285
100
AcDbEntity
  8
レイヤー_2
 62
     7
100
AcDbLine
 10
-1.577165
 20
3.087495
 30
0.0
 11
-1.577165
 21
0.634587
 31
0.0
  0
LINE
  5
284
100
AcDbEntity
  8
レイヤー_2
 62
     7
100
AcDbLine
 10
-1.752865
 20
4.706689
 30
0.0
 11
0.0
 21
4.706689
 31
0.0
  0
LINE
  5
283
100
AcDbEntity
  8
レイヤー_2
 62
     7
100
AcDbLine
 10
-2.453597
 20
0.500228
 30
0.0
 11
0.0
 21
0.500228
 31
0.0
  0
LINE
  5
282
100
AcDbEntity
  8
レイヤー_2
 62
     7
100
AcDbLine
 10
-2.687174
 20
0.634587
 30
0.0
 11
-2.453597
 21
0.500228
 31
0.0
  0
LINE
  5
281
100
AcDbEntity
  8
レイヤー_2
 62
     7
100
AcDbLine
 10
-1.752865
 20
4.706689
 30
0.0
 11
-2.560395
 21
3.307981
 31
0.0
  0
LINE
  5
280
100
AcDbEntity
  8
レイヤー_2
 62
     7
100
AcDbLine
 10
-2.687174
 20
3.087495
 30
0.0
 11
-2.687174
 21
0.634587
 31
0.0
  0
LINE
  5
27F
100
AcDbEntity
  8
レイヤー_2
 62
     7
100
AcDbLine
 10
1.18029
 20
4.706689
 30
0.0
 11
0.0
 21
4.706689
 31
0.0
  0
LINE
  5
27E
100
AcDbEntity
  8
レイヤー_2
 62
     7
100
AcDbLine
 10
2.045009
 20
0.500228
 30
0.0
 11
0.0
 21
0.500228
 31
0.0
  0
LINE
  5
27D
100
AcDbEntity
  8
レイヤー_2
 62
     7
100
AcDbLine
 10
1.577165
 20
0.634587
 30
0.0
 11
1.096229
 21
0.634587
 31
0.0
  0
LINE
  5
27C
100
AcDbEntity
  8
レイヤー_2
 62
     7
100
AcDbLine
 10
1.096229
 20
0.634587
 30
0.0
 11
1.096229
 21
3.087495
 31
0.0
  0
LINE
  5
27B
100
AcDbEntity
  8
レイヤー_2
 62
     7
100
AcDbLine
 10
1.096229
 20
3.087495
 30
0.0
 11
1.577165
 21
3.087495
 31
0.0
  0
LINE
  5
27A
100
AcDbEntity
  8
レイヤー_2
 62
     7
100
AcDbLine
 10
1.577165
 20
0.634587
 30
0.0
 11
1.577165
 21
3.087495
 31
0.0
  0
LINE
  5
279
100
AcDbEntity
  8
レイヤー_2
 62
     7
100
AcDbLine
 10
0.0
 20
4.706689
 30
0.0
 11
1.752865
 21
4.706689
 31
0.0
  0
LINE
  5
278
100
AcDbEntity
  8
レイヤー_2
 62
     7
100
AcDbLine
 10
0.0
 20
0.500228
 30
0.0
 11
2.453597
 21
0.500228
 31
0.0
  0
LINE
  5
277
100
AcDbEntity
  8
レイヤー_2
 62
     7
100
AcDbLine
 10
2.453597
 20
0.500228
 30
0.0
 11
2.687863
 21
0.634587
 31
0.0
  0
LINE
  5
276
100
AcDbEntity
  8
レイヤー_2
 62
     7
100
AcDbLine
 10
2.687863
 20
3.087495
 30
0.0
 11
1.752865
 21
4.706689
 31
0.0
  0
LINE
  5
275
100
AcDbEntity
  8
レイヤー_2
 62
     7
100
AcDbLine
 10
2.687863
 20
0.634587
 30
0.0
 11
2.687863
 21
3.087495
 31
0.0
  0
LINE
  5
274
100
AcDbEntity
  8
レイヤー_2
 62
     7
100
AcDbLine
 10
-2.560395
 20
3.307981
 30
0.0
 11
-2.687174
 21
3.087495
 31
0.0
  0
SPLINE
  5
273
100
AcDbEntity
  8
レイヤー_2
 62
     7
100
AcDbSpline
210
0.0
220
0.0
230
1.0
 70
     8
 71
     3
 72
     8
 73
     4
 74
     0
 42
0.00000001
 43
0.00000001
 40
0.0
 40
0.0
 40
0.0
 40
0.0
 40
1.0
 40
1.0
 40
1.0
 40
1.0
 10
-1.0962293836805554
 20
0.6345865885416666
 30
0.0
 10
-0.737939453125
 20
0.5450141059027778
 30
0.0
 10
-0.3693142361111111
 20
0.5002278645833332
 30
0.0
 10
0.0
 20
0.5002278645833332
 30
0.0
  0
SPLINE
  5
272
100
AcDbEntity
  8
レイヤー_2
 62
     7
100
AcDbSpline
210
0.0
220
0.0
230
1.0
 70
     8
 71
     3
 72
     8
 73
     4
 74
     0
 42
0.00000001
 43
0.00000001
 40
0.0
 40
0.0
 40
0.0
 40
0.0
 40
1.0
 40
1.0
 40
1.0
 40
1.0
 10
-2.6871744791666665
 20
0.6345865885416666
 30
0.0
 10
-2.3392198350694442
 20
0.4547526041666666
 30
0.0
 10
-1.9251193576388888
 20
0.4547526041666666
 30
0.0
 10
-1.5771647135416664
 20
0.6345865885416666
 30
0.0
  0
SPLINE
  5
271
100
AcDbEntity
  8
レイヤー_2
 62
     7
100
AcDbSpline
210
0.0
220
0.0
230
1.0
 70
     8
 71
     3
 72
     8
 73
     4
 74
     0
 42
0.00000001
 43
0.00000001
 40
0.0
 40
0.0
 40
0.0
 40
0.0
 40
1.0
 40
1.0
 40
1.0
 40
1.0
 10
0.0
 20
3.4919487847222217
 30
0.0
 10
-0.4016981336805555
 20
3.4919487847222217
 30
0.0
 10
-0.7903049045138888
 20
3.3486328124999996
 30
0.0
 10
-1.0962293836805554
 20
3.0874945746527773
 30
0.0
  0
SPLINE
  5
270
100
AcDbEntity
  8
レイヤー_2
 62
     7
100
AcDbSpline
210
0.0
220
0.0
230
1.0
 70
     8
 71
     3
 72
    11
 73
     7
 74
     0
 42
0.00000001
 43
0.00000001
 40
0.0
 40
0.0
 40
0.0
 40
0.0
 40
1.0
 40
1.0
 40
1.0
 40
2.0
 40
2.0
 40
2.0
 40
2.0
 10
-1.5771647135416664
 20
3.0874945746527773
 30
0.0
 10
-1.6729383680555554
 20
3.3941080729166662
 30
0.0
 10
-1.9988444010416664
 20
3.5649848090277776
 30
0.0
 10
-2.3054578993055554
 20
3.4692111545138884
 30
0.0
 10
-2.403298611111111
 20
3.4388943142361108
 30
0.0
 10
-2.490804036458333
 20
3.3830837673611107
 30
0.0
 10
-2.5603949652777773
 20
3.3079806857638885
 30
0.0
  0
SPLINE
  5
26F
100
AcDbEntity
  8
レイヤー_2
 62
     7
100
AcDbSpline
210
0.0
220
0.0
230
1.0
 70
     8
 71
     3
 72
     8
 73
     4
 74
     0
 42
0.00000001
 43
0.00000001
 40
0.0
 40
0.0
 40
0.0
 40
0.0
 40
1.0
 40
1.0
 40
1.0
 40
1.0
 10
0.0
 20
0.5002278645833332
 30
0.0
 10
0.3693142361111111
 20
0.5002278645833332
 30
0.0
 10
0.737939453125
 20
0.5450141059027778
 30
0.0
 10
1.0962293836805554
 20
0.6345865885416666
 30
0.0
  0
SPLINE
  5
26E
100
AcDbEntity
  8
レイヤー_2
 62
     7
100
AcDbSpline
210
0.0
220
0.0
230
1.0
 70
     8
 71
     3
 72
     8
 73
     4
 74
     0
 42
0.00000001
 43
0.00000001
 40
0.0
 40
0.0
 40
0.0
 40
0.0
 40
1.0
 40
1.0
 40
1.0
 40
1.0
 10
1.5771647135416664
 20
0.6345865885416666
 30
0.0
 10
1.9251193576388888
 20
0.4547526041666666
 30
0.0
 10
2.3392198350694442
 20
0.4547526041666666
 30
0.0
 10
2.6878634982638885
 20
0.6345865885416666
 30
0.0
  0
SPLINE
  5
26D
100
AcDbEntity
  8
レイヤー_2
 62
     7
100
AcDbSpline
210
0.0
220
0.0
230
1.0
 70
     8
 71
     3
 72
     8
 73
     4
 74
     0
 42
0.00000001
 43
0.00000001
 40
0.0
 40
0.0
 40
0.0
 40
0.0
 40
1.0
 40
1.0
 40
1.0
 40
1.0
 10
1.0962293836805554
 20
3.0874945746527773
 30
0.0
 10
0.7909939236111111
 20
3.3486328124999996
 30
0.0
 10
0.4016981336805555
 20
3.4919487847222217
 30
0.0
 10
0.0
 20
3.4919487847222217
 30
0.0
  0
SPLINE
  5
26C
100
AcDbEntity
  8
レイヤー_2
 62
     7
100
AcDbSpline
210
0.0
220
0.0
230
1.0
 70
     8
 71
     3
 72
    11
 73
     7
 74
     0
 42
0.00000001
 43
0.00000001
 40
0.0
 40
0.0
 40
0.0
 40
0.0
 40
1.0
 40
1.0
 40
1.0
 40
2.0
 40
2.0
 40
2.0
 40
2.0
 10
2.6878634982638885
 20
3.0874945746527773
 30
0.0
 10
2.5920898437499997
 20
3.3941080729166662
 30
0.0
 10
2.2654947916666663
 20
3.5649848090277776
 30
0.0
 10
1.9588812934027775
 20
3.4692111545138884
 30
0.0
 10
1.7769802517361108
 20
3.4120225694444439
 30
0.0
 10
1.6343532986111109
 20
3.2693956163194442
 30
0.0
 10
1.5771647135416664
 20
3.0874945746527773
 30
0.0
  0
LINE
  5
26B
100
AcDbEntity
  8
レイヤー_2
 62
     7
100
AcDbLine
 10
-2.775369
 20
-6.131581
 30
0.0
 11
-3.037885
 21
-5.990332
 31
0.0
  0
LINE
  5
26A
100
AcDbEntity
  8
レイヤー_2
 62
     7
100
AcDbLine
 10
3.037885
 20
-5.990332
 30
0.0
 11
2.775369
 21
-6.131581
 31
0.0
  0
LINE
  5
269
100
AcDbEntity
  8
レイヤー_2
 62
     7
100
AcDbLine
 10
-3.037885
 20
-1.317405
 30
0.0
 11
-2.775369
 21
-1.176845
 31
0.0
  0
LINE
  5
268
100
AcDbEntity
  8
レイヤー_2
 62
     7
100
AcDbLine
 10
2.775369
 20
-1.176845
 30
0.0
 11
3.037885
 21
-1.317405
 31
0.0
  0
LINE
  5
267
100
AcDbEntity
  8
レイヤー_2
 62
     7
100
AcDbLine
 10
-2.687174
 20
-6.341043
 30
0.0
 11
2.687863
 21
-6.341043
 31
0.0
  0
LINE
  5
266
100
AcDbEntity
  8
レイヤー_2
 62
     7
100
AcDbLine
 10
-1.844504
 20
-5.990332
 30
0.0
 11
-1.168576
 21
-5.990332
 31
0.0
  0
LINE
  5
265
100
AcDbEntity
  8
レイヤー_2
 62
     7
100
AcDbLine
 10
1.168576
 20
-5.990332
 30
0.0
 11
1.844504
 21
-5.990332
 31
0.0
  0
LINE
  5
264
100
AcDbEntity
  8
レイヤー_2
 62
     7
100
AcDbLine
 10
3.037885
 20
-5.990332
 30
0.0
 11
2.687863
 21
-6.341043
 31
0.0
  0
LINE
  5
263
100
AcDbEntity
  8
レイヤー_2
 62
     7
100
AcDbLine
 10
-3.037885
 20
-5.990332
 30
0.0
 11
-2.687174
 21
-6.341043
 31
0.0
  0
LINE
  5
262
100
AcDbEntity
  8
レイヤー_2
 62
     7
100
AcDbLine
 10
2.687863
 20
-0.966694
 30
0.0
 11
-2.687174
 21
-0.966694
 31
0.0
  0
LINE
  5
261
100
AcDbEntity
  8
レイヤー_2
 62
     7
100
AcDbLine
 10
2.687863
 20
-0.966694
 30
0.0
 11
3.037885
 21
-1.317405
 31
0.0
  0
LINE
  5
260
100
AcDbEntity
  8
レイヤー_2
 62
     7
100
AcDbLine
 10
1.844504
 20
-1.317405
 30
0.0
 11
1.168576
 21
-1.317405
 31
0.0
  0
LINE
  5
25F
100
AcDbEntity
  8
レイヤー_2
 62
     7
100
AcDbLine
 10
-1.168576
 20
-1.317405
 30
0.0
 11
-1.844504
 21
-1.317405
 31
0.0
  0
LINE
  5
25E
100
AcDbEntity
  8
レイヤー_2
 62
     7
100
AcDbLine
 10
-2.687174
 20
-0.966694
 30
0.0
 11
-3.037885
 21
-1.317405
 31
0.0
  0
LINE
  5
25D
100
AcDbEntity
  8
レイヤー_2
 62
     7
100
AcDbLine
 10
-3.037885
 20
-5.990332
 30
0.0
 11
-3.037885
 21
-1.317405
 31
0.0
  0
LINE
  5
25C
100
AcDbEntity
  8
レイヤー_2
 62
     7
100
AcDbLine
 10
-1.844504
 20
-5.990332
 30
0.0
 11
-1.844504
 21
-1.317405
 31
0.0
  0
LINE
  5
25B
100
AcDbEntity
  8
レイヤー_2
 62
     7
100
AcDbLine
 10
-1.168576
 20
-5.990332
 30
0.0
 11
-1.168576
 21
-1.317405
 31
0.0
  0
LINE
  5
25A
100
AcDbEntity
  8
レイヤー_2
 62
     7
100
AcDbLine
 10
1.168576
 20
-5.990332
 30
0.0
 11
1.168576
 21
-1.317405
 31
0.0
  0
LINE
  5
259
100
AcDbEntity
  8
レイヤー_2
 62
     7
100
AcDbLine
 10
1.844504
 20
-5.990332
 30
0.0
 11
1.844504
 21
-1.317405
 31
0.0
  0
LINE
  5
258
100
AcDbEntity
  8
レイヤー_2
 62
     7
100
AcDbLine
 10
3.037885
 20
-5.990332
 30
0.0
 11
3.037885
 21
-1.317405
 31
0.0
  0
SPLINE
  5
257
100
AcDbEntity
  8
レイヤー_2
 62
     7
100
AcDbSpline
210
0.0
220
0.0
230
1.0
 70
     8
 71
     3
 72
     8
 73
     4
 74
     0
 42
0.00000001
 43
0.00000001
 40
0.0
 40
0.0
 40
0.0
 40
0.0
 40
1.0
 40
1.0
 40
1.0
 40
1.0
 10
-2.775368923611111
 20
-6.1315809461805548
 30
0.0
 10
-2.4680664062499997
 20
-6.2955674913194439
 30
0.0
 10
-2.0891059027777774
 20
-6.2383789062499995
 30
0.0
 10
-1.8445041232638888
 20
-5.9903320312499995
 30
0.0
  0
SPLINE
  5
256
100
AcDbEntity
  8
レイヤー_2
 62
     7
100
AcDbSpline
210
0.0
220
0.0
230
1.0
 70
     8
 71
     3
 72
     8
 73
     4
 74
     0
 42
0.00000001
 43
0.00000001
 40
0.0
 40
0.0
 40
0.0
 40
0.0
 40
1.0
 40
1.0
 40
1.0
 40
1.0
 10
1.8445041232638888
 20
-5.9903320312499995
 30
0.0
 10
2.0891059027777774
 20
-6.2383789062499995
 30
0.0
 10
2.4680664062499997
 20
-6.2955674913194439
 30
0.0
 10
2.775368923611111
 20
-6.1315809461805548
 30
0.0
  0
SPLINE
  5
255
100
AcDbEntity
  8
レイヤー_2
 62
     7
100
AcDbSpline
210
0.0
220
0.0
230
1.0
 70
     8
 71
     3
 72
     8
 73
     4
 74
     0
 42
0.00000001
 43
0.00000001
 40
0.0
 40
0.0
 40
0.0
 40
0.0
 40
1.0
 40
1.0
 40
1.0
 40
1.0
 10
-1.1685763888888887
 20
-5.9903320312499995
 30
0.0
 10
-0.4203016493055555
 20
-6.3024576822916663
 30
0.0
 10
0.4209906684027777
 20
-6.3024576822916663
 30
0.0
 10
1.1685763888888887
 20
-5.9903320312499995
 30
0.0
  0
SPLINE
  5
254
100
AcDbEntity
  8
レイヤー_2
 62
     7
100
AcDbSpline
210
0.0
220
0.0
230
1.0
 70
     8
 71
     3
 72
     8
 73
     4
 74
     0
 42
0.00000001
 43
0.00000001
 40
0.0
 40
0.0
 40
0.0
 40
0.0
 40
1.0
 40
1.0
 40
1.0
 40
1.0
 10
-1.8445041232638888
 20
-1.3174045138888888
 30
0.0
 10
-2.0891059027777774
 20
-1.0693576388888888
 30
0.0
 10
-2.4680664062499997
 20
-1.0121690538194443
 30
0.0
 10
-2.775368923611111
 20
-1.1768446180555554
 30
0.0
  0
SPLINE
  5
253
100
AcDbEntity
  8
レイヤー_2
 62
     7
100
AcDbSpline
210
0.0
220
0.0
230
1.0
 70
     8
 71
     3
 72
     8
 73
     4
 74
     0
 42
0.00000001
 43
0.00000001
 40
0.0
 40
0.0
 40
0.0
 40
0.0
 40
1.0
 40
1.0
 40
1.0
 40
1.0
 10
2.775368923611111
 20
-1.1768446180555554
 30
0.0
 10
2.4680664062499997
 20
-1.0121690538194443
 30
0.0
 10
2.0891059027777774
 20
-1.0693576388888888
 30
0.0
 10
1.8445041232638888
 20
-1.3174045138888888
 30
0.0
  0
SPLINE
  5
252
100
AcDbEntity
  8
レイヤー_2
 62
     7
100
AcDbSpline
210
0.0
220
0.0
230
1.0
 70
     8
 71
     3
 72
     8
 73
     4
 74
     0
 42
0.00000001
 43
0.00000001
 40
0.0
 40
0.0
 40
0.0
 40
0.0
 40
1.0
 40
1.0
 40
1.0
 40
1.0
 10
1.1685763888888887
 20
-1.3174045138888888
 30
0.0
 10
0.4209906684027777
 20
-1.0059678819444444
 30
0.0
 10
-0.4203016493055555
 20
-1.0059678819444444
 30
0.0
 10
-1.1685763888888887
 20
-1.3174045138888888
 30
0.0
  0
LINE
  5
251
100
AcDbEntity
  8
レイヤー_2
 62
     7
100
AcDbLine
 10
-1.11001
 20
4.706689
 30
0.0
 11
-1.11001
 21
6.305903
 31
0.0
  0
LINE
  5
250
100
AcDbEntity
  8
レイヤー_2
 62
     7
100
AcDbLine
 10
1.11001
 20
4.706689
 30
0.0
 11
1.11001
 21
5.90765
 31
0.0
  0
LINE
  5
24F
100
AcDbEntity
  8
レイヤー_2
 62
     7
100
AcDbLine
 10
1.986442
 20
-0.744141
 30
0.0
 11
1.986442
 21
0.500228
 31
0.0
  0
LINE
  5
24E
100
AcDbEntity
  8
レイヤー_2
 62
     7
100
AcDbLine
 10
-1.986442
 20
0.500228
 30
0.0
 11
-1.986442
 21
-0.744141
 31
0.0
  0
LINE
  5
24D
100
AcDbEntity
  8
レイヤー_2
 62
     7
100
AcDbLine
 10
-1.869309
 20
-0.541569
 30
0.0
 11
1.869998
 21
-0.541569
 31
0.0
  0
ENDBLK
  5
290
100
AcDbEntity
  8
レイヤー_2
100
AcDbBlockEnd
  0
BLOCK
  5
29B
100
AcDbEntity
  8
レイヤー_2
 62
     7
100
AcDbBlockBegin
  2
AI9-BLK9
 70
     0
 10
0.0
 20
0.0
 30
0.0
  3
AI9-BLK9
  1

  0
LINE
  5
2E3
100
AcDbEntity
  8
レイヤー_2
  6
AI9-LType1
 62
     7
100
AcDbLine
 10
-0.000345
 20
10.475846
 30
0.0
 11
-0.000345
 21
-10.475846
 31
0.0
  0
INSERT
  5
29D
100
AcDbEntity
  8
レイヤー_2
 62
     7
100
AcDbBlockReference
  2
AI9-BLK10
 10
0.0
 20
-3.433899
 30
0.0
  0
ENDBLK
  5
2E4
100
AcDbEntity
  8
レイヤー_2
100
AcDbBlockEnd
  0
BLOCK
  5
29E
100
AcDbEntity
  8
レイヤー_2
 62
     7
100
AcDbBlockBegin
  2
AI9-BLK10
 70
     0
 10
0.0
 20
0.0
 30
0.0
  3
AI9-BLK10
  1

  0
SPLINE
  5
2E1
100
AcDbEntity
  8
レイヤー_2
 62
     7
100
AcDbSpline
210
0.0
220
0.0
230
1.0
 70
     8
 71
     3
 72
    95
 73
    91
 74
     0
 42
0.00000001
 43
0.00000001
 40
0.0
 40
0.0
 40
0.0
 40
0.0
 40
1.0
 40
1.0
 40
1.0
 40
2.0
 40
2.0
 40
2.0
 40
3.0
 40
3.0
 40
3.0
 40
4.0
 40
4.0
 40
4.0
 40
5.0
 40
5.0
 40
5.0
 40
6.0
 40
6.0
 40
6.0
 40
7.0
 40
7.0
 40
7.0
 40
8.0
 40
8.0
 40
8.0
 40
9.0
 40
9.0
 40
9.0
 40
10.0
 40
10.0
 40
10.0
 40
11.0
 40
11.0
 40
11.0
 40
12.0
 40
12.0
 40
12.0
 40
13.0
 40
13.0
 40
13.0
 40
14.0
 40
14.0
 40
14.0
 40
15.0
 40
15.0
 40
15.0
 40
16.0
 40
16.0
 40
16.0
 40
17.0
 40
17.0
 40
17.0
 40
18.0
 40
18.0
 40
18.0
 40
19.0
 40
19.0
 40
19.0
 40
20.0
 40
20.0
 40
20.0
 40
21.0
 40
21.0
 40
21.0
 40
22.0
 40
22.0
 40
22.0
 40
23.0
 40
23.0
 40
23.0
 40
24.0
 40
24.0
 40
24.0
 40
25.0
 40
25.0
 40
25.0
 40
26.0
 40
26.0
 40
26.0
 40
27.0
 40
27.0
 40
27.0
 40
28.0
 40
28.0
 40
28.0
 40
29.0
 40
29.0
 40
29.0
 40
30.0
 40
30.0
 40
30.0
 40
30.0
 10
-1.1103542751736111
 20
6.2988403320312498
 30
0.0
 10
-1.097951931423611
 20
6.2953952365451382
 30
0.0
 10
-1.085549587673611
 20
6.2919501410590275
 30
0.0
 10
-1.0731472439236109
 20
6.2885050455729159
 30
0.0
 10
-1.0607449001736111
 20
6.2850599500868052
 30
0.0
 10
-1.0483425564236111
 20
6.2823038736979164
 30
0.0
 10
-1.035940212673611
 20
6.2795477973090268
 30
0.0
 10
-1.023537868923611
 20
6.276791720920138
 30
0.0
 10
-1.0111355251736109
 20
6.2740356445312493
 30
0.0
 10
-0.998733181423611
 20
6.2719685872395825
 30
0.0
 10
-0.9863308376736111
 20
6.2699015299479157
 30
0.0
 10
-0.973928493923611
 20
6.2685234917534718
 30
0.0
 10
-0.9608371310763888
 20
6.267145453559027
 30
0.0
 10
-0.9484347873263888
 20
6.265767415364583
 30
0.0
 10
-0.9360324435763888
 20
6.265767415364583
 30
0.0
 10
-0.9229410807291666
 20
6.265767415364583
 30
0.0
 10
-0.8946912977430555
 20
6.266456434461805
 30
0.0
 10
-0.8664415147569444
 20
6.2699015299479157
 30
0.0
 10
-0.8388807508680555
 20
6.276791720920138
 30
0.0
 10
-0.8099419487847221
 20
6.2836819118923604
 30
0.0
 10
-0.781692165798611
 20
6.2912611219618046
 30
0.0
 10
-0.7541314019097222
 20
6.2995293511284718
 30
0.0
 10
-0.725881618923611
 20
6.307797580295138
 30
0.0
 10
-0.6976318359374999
 20
6.3160658094618052
 30
0.0
 10
-0.6700710720486111
 20
6.3236450195312495
 30
0.0
 10
-0.6431993272569444
 20
6.3305352105034718
 30
0.0
 10
-0.6156385633680555
 20
6.3360473632812493
 30
0.0
 10
-0.5880777994791666
 20
6.3394924587673609
 30
0.0
 10
-0.5625840928819444
 20
6.3422485351562496
 30
0.0
 10
-0.5357123480902777
 20
6.3415595160590268
 30
0.0
 10
-0.5102186414930555
 20
6.3367363823784713
 30
0.0
 10
-0.4716335720486111
 20
6.327779134114583
 30
0.0
 10
-0.4351155598958333
 20
6.3112426757812496
 30
0.0
 10
-0.4034206814236111
 20
6.2878160264756939
 30
0.0
 10
-0.3675916883680555
 20
6.2616333007812495
 30
0.0
 10
-0.3338297526041666
 20
6.2333835177951382
 30
0.0
 10
-0.3028238932291666
 20
6.2023776584201382
 30
0.0
 10
-0.2704399956597222
 20
6.1699937608506943
 30
0.0
 10
-0.2373670789930555
 20
6.1382988823784714
 30
0.0
 10
-0.2049831814236111
 20
6.1066040039062495
 30
0.0
 10
-0.1739773220486111
 20
6.0769761827256943
 30
0.0
 10
-0.1409044053819444
 20
6.050104437934027
 30
0.0
 10
-0.1050754123263889
 20
6.0259887695312493
 30
0.0
 10
-0.0740695529513889
 20
6.0046291775173604
 30
0.0
 10
-0.0375515407986111
 20
5.9915378146701386
 30
0.0
 10
-0.0003445095486111
 20
5.9860256618923602
 30
0.0
 10
0.0368625217013889
 20
5.9818915473090275
 30
0.0
 10
0.0740695529513889
 20
5.986714680989583
 30
0.0
 10
0.1078314887152778
 20
6.0018731011284716
 30
0.0
 10
0.1457275390625
 20
6.018409559461805
 30
0.0
 10
0.1829345703125
 20
6.0356350368923604
 30
0.0
 10
0.2208306206597222
 20
6.0528605143229157
 30
0.0
 10
0.2601047092013888
 20
6.0714640299479159
 30
0.0
 10
0.2986897786458333
 20
6.0921346028645829
 30
0.0
 10
0.3358968098958333
 20
6.1148722330729157
 30
0.0
 10
0.3717258029513889
 20
6.1348537868923607
 30
0.0
 10
0.4096218532986111
 20
6.1513902452256941
 30
0.0
 10
0.4482069227430555
 20
6.1644816080729159
 30
0.0
 10
0.4826578776041666
 20
6.1761949327256938
 30
0.0
 10
0.5191758897569444
 20
6.1803290473090273
 30
0.0
 10
0.5550048828124999
 20
6.1761949327256938
 30
0.0
 10
0.5811876085069444
 20
6.1720608181423602
 30
0.0
 10
0.6066813151041666
 20
6.163103569878472
 30
0.0
 10
0.6294189453125
 20
6.1500122070312493
 30
0.0
 10
0.6542236328125
 20
6.1355428059895827
 30
0.0
 10
0.6783393012152778
 20
6.1190063476562493
 30
0.0
 10
0.7010769314236111
 20
6.101091851128472
 30
0.0
 10
0.7245035807291667
 20
6.0817993164062498
 30
0.0
 10
0.7486192491319443
 20
6.0618177625868048
 30
0.0
 10
0.7720458984374999
 20
6.0418362087673607
 30
0.0
 10
0.7954725477430555
 20
6.0218546549479157
 30
0.0
 10
0.8195882161458332
 20
6.0025621202256936
 30
0.0
 10
0.8450819227430555
 20
5.9846476236979163
 30
0.0
 10
0.8691975911458333
 20
5.966733127170138
 30
0.0
 10
0.8953803168402778
 20
5.9522637261284714
 30
0.0
 10
0.9229410807291666
 20
5.9405504014756936
 30
0.0
 10
0.9346544053819443
 20
5.9350382486979161
 30
0.0
 10
0.9463677300347222
 20
5.9309041341145825
 30
0.0
 10
0.9587700737847221
 20
5.9281480577256938
 30
0.0
 10
0.9711724175347222
 20
5.924702962239583
 30
0.0
 10
0.9835747612847221
 20
5.9219468858506943
 30
0.0
 10
0.9959771050347221
 20
5.9191908094618046
 30
0.0
 10
1.0083794487847222
 20
5.9171237521701388
 30
0.0
 10
1.0207817925347222
 20
5.915056694878472
 30
0.0
 10
1.0331841362847221
 20
5.9136786566840271
 30
0.0
 10
1.0462754991319443
 20
5.9123006184895832
 30
0.0
 10
1.0586778428819443
 20
5.9116115993923604
 30
0.0
 10
1.0717692057291666
 20
5.9102335611979164
 30
0.0
 10
1.0841715494791666
 20
5.9088555230034716
 30
0.0
 10
1.0972629123263888
 20
5.9081665039062496
 30
0.0
 10
1.1096652560763889
 20
5.9074774848090277
 30
0.0
  0
LINE
  5
2E0
100
AcDbEntity
  8
レイヤー_2
 62
     7
100
AcDbLine
 10
1.986098
 20
-0.541741
 30
0.0
 11
1.869653
 21
-0.541741
 31
0.0
  0
LINE
  5
2DF
100
AcDbEntity
  8
レイヤー_2
 62
     7
100
AcDbLine
 10
1.869653
 20
0.525549
 30
0.0
 11
1.869653
 21
-0.541741
 31
0.0
  0
LINE
  5
2DE
100
AcDbEntity
  8
レイヤー_2
 62
     7
100
AcDbLine
 10
1.869653
 20
-0.541741
 30
0.0
 11
1.986098
 21
-0.743624
 31
0.0
  0
LINE
  5
2DD
100
AcDbEntity
  8
レイヤー_2
 62
     7
100
AcDbLine
 10
-1.869653
 20
-0.541741
 30
0.0
 11
-1.986787
 21
-0.541741
 31
0.0
  0
LINE
  5
2DC
100
AcDbEntity
  8
レイヤー_2
 62
     7
100
AcDbLine
 10
-1.869653
 20
-0.541741
 30
0.0
 11
-1.869653
 21
0.525549
 31
0.0
  0
LINE
  5
2DB
100
AcDbEntity
  8
レイヤー_2
 62
     7
100
AcDbLine
 10
-1.986787
 20
-0.743624
 30
0.0
 11
-1.869653
 21
-0.541741
 31
0.0
  0
LINE
  5
2DA
100
AcDbEntity
  8
レイヤー_2
 62
     7
100
AcDbLine
 10
-1.096574
 20
0.635103
 30
0.0
 11
-1.57682
 21
0.635103
 31
0.0
  0
LINE
  5
2D9
100
AcDbEntity
  8
レイヤー_2
 62
     7
100
AcDbLine
 10
-1.096574
 20
3.087322
 30
0.0
 11
-1.096574
 21
0.635103
 31
0.0
  0
LINE
  5
2D8
100
AcDbEntity
  8
レイヤー_2
 62
     7
100
AcDbLine
 10
-1.57682
 20
3.087322
 30
0.0
 11
-1.096574
 21
3.087322
 31
0.0
  0
LINE
  5
2D7
100
AcDbEntity
  8
レイヤー_2
 62
     7
100
AcDbLine
 10
-1.57682
 20
3.087322
 30
0.0
 11
-1.57682
 21
0.635103
 31
0.0
  0
LINE
  5
2D6
100
AcDbEntity
  8
レイヤー_2
 62
     7
100
AcDbLine
 10
-1.75252
 20
4.706517
 30
0.0
 11
-0.000345
 21
4.706517
 31
0.0
  0
LINE
  5
2D5
100
AcDbEntity
  8
レイヤー_2
 62
     7
100
AcDbLine
 10
-2.453942
 20
0.500056
 30
0.0
 11
-0.000345
 21
0.500056
 31
0.0
  0
LINE
  5
2D4
100
AcDbEntity
  8
レイヤー_2
 62
     7
100
AcDbLine
 10
-2.687519
 20
0.635103
 30
0.0
 11
-2.453942
 21
0.500056
 31
0.0
  0
LINE
  5
2D3
100
AcDbEntity
  8
レイヤー_2
 62
     7
100
AcDbLine
 10
-1.75252
 20
4.706517
 30
0.0
 11
-2.56005
 21
3.308497
 31
0.0
  0
LINE
  5
2D2
100
AcDbEntity
  8
レイヤー_2
 62
     7
100
AcDbLine
 10
-2.687519
 20
3.087322
 30
0.0
 11
-2.687519
 21
0.635103
 31
0.0
  0
LINE
  5
2D1
100
AcDbEntity
  8
レイヤー_2
 62
     7
100
AcDbLine
 10
1.179945
 20
4.706517
 30
0.0
 11
-0.000345
 21
4.706517
 31
0.0
  0
LINE
  5
2D0
100
AcDbEntity
  8
レイヤー_2
 62
     7
100
AcDbLine
 10
2.044664
 20
0.500056
 30
0.0
 11
-0.000345
 21
0.500056
 31
0.0
  0
LINE
  5
2CF
100
AcDbEntity
  8
レイヤー_2
 62
     7
100
AcDbLine
 10
1.57682
 20
0.635103
 30
0.0
 11
1.095885
 21
0.635103
 31
0.0
  0
LINE
  5
2CE
100
AcDbEntity
  8
レイヤー_2
 62
     7
100
AcDbLine
 10
1.095885
 20
0.635103
 30
0.0
 11
1.095885
 21
3.087322
 31
0.0
  0
LINE
  5
2CD
100
AcDbEntity
  8
レイヤー_2
 62
     7
100
AcDbLine
 10
1.095885
 20
3.087322
 30
0.0
 11
1.57682
 21
3.087322
 31
0.0
  0
LINE
  5
2CC
100
AcDbEntity
  8
レイヤー_2
 62
     7
100
AcDbLine
 10
1.57682
 20
0.635103
 30
0.0
 11
1.57682
 21
3.087322
 31
0.0
  0
LINE
  5
2CB
100
AcDbEntity
  8
レイヤー_2
 62
     7
100
AcDbLine
 10
-0.000345
 20
4.706517
 30
0.0
 11
1.75252
 21
4.706517
 31
0.0
  0
LINE
  5
2CA
100
AcDbEntity
  8
レイヤー_2
 62
     7
100
AcDbLine
 10
-0.000345
 20
0.500056
 30
0.0
 11
2.453942
 21
0.500056
 31
0.0
  0
LINE
  5
2C9
100
AcDbEntity
  8
レイヤー_2
 62
     7
100
AcDbLine
 10
2.453942
 20
0.500056
 30
0.0
 11
2.687519
 21
0.635103
 31
0.0
  0
LINE
  5
2C8
100
AcDbEntity
  8
レイヤー_2
 62
     7
100
AcDbLine
 10
2.687519
 20
3.087322
 30
0.0
 11
1.75252
 21
4.706517
 31
0.0
  0
LINE
  5
2C7
100
AcDbEntity
  8
レイヤー_2
 62
     7
100
AcDbLine
 10
2.687519
 20
0.635103
 30
0.0
 11
2.687519
 21
3.087322
 31
0.0
  0
LINE
  5
2C6
100
AcDbEntity
  8
レイヤー_2
 62
     7
100
AcDbLine
 10
-2.56005
 20
3.308497
 30
0.0
 11
-2.687519
 21
3.087322
 31
0.0
  0
SPLINE
  5
2C5
100
AcDbEntity
  8
レイヤー_2
 62
     7
100
AcDbSpline
210
0.0
220
0.0
230
1.0
 70
     8
 71
     3
 72
     8
 73
     4
 74
     0
 42
0.00000001
 43
0.00000001
 40
0.0
 40
0.0
 40
0.0
 40
0.0
 40
1.0
 40
1.0
 40
1.0
 40
1.0
 10
-1.0965738932291667
 20
0.6351033528645833
 30
0.0
 10
-0.7375949435763888
 20
0.5455308702256944
 30
0.0
 10
-0.3696587456597222
 20
0.5000556098090278
 30
0.0
 10
-0.0003445095486111
 20
0.5000556098090278
 30
0.0
  0
SPLINE
  5
2C4
100
AcDbEntity
  8
レイヤー_2
 62
     7
100
AcDbSpline
210
0.0
220
0.0
230
1.0
 70
     8
 71
     3
 72
     8
 73
     4
 74
     0
 42
0.00000001
 43
0.00000001
 40
0.0
 40
0.0
 40
0.0
 40
0.0
 40
1.0
 40
1.0
 40
1.0
 40
1.0
 10
-2.6875189887152775
 20
0.6351033528645833
 30
0.0
 10
-2.3395643446180552
 20
0.4545803493923611
 30
0.0
 10
-1.9254638671874997
 20
0.4545803493923611
 30
0.0
 10
-1.5768202039930554
 20
0.6351033528645833
 30
0.0
  0
SPLINE
  5
2C3
100
AcDbEntity
  8
レイヤー_2
 62
     7
100
AcDbSpline
210
0.0
220
0.0
230
1.0
 70
     8
 71
     3
 72
     8
 73
     4
 74
     0
 42
0.00000001
 43
0.00000001
 40
0.0
 40
0.0
 40
0.0
 40
0.0
 40
1.0
 40
1.0
 40
1.0
 40
1.0
 10
-0.0003445095486111
 20
3.4924655490451384
 30
0.0
 10
-0.4020426432291666
 20
3.4924655490451384
 30
0.0
 10
-0.7906494140624999
 20
3.3491495768229163
 30
0.0
 10
-1.0965738932291667
 20
3.0873223198784721
 30
0.0
  0
SPLINE
  5
2C2
100
AcDbEntity
  8
レイヤー_2
 62
     7
100
AcDbSpline
210
0.0
220
0.0
230
1.0
 70
     8
 71
     3
 72
    11
 73
     7
 74
     0
 42
0.00000001
 43
0.00000001
 40
0.0
 40
0.0
 40
0.0
 40
0.0
 40
1.0
 40
1.0
 40
1.0
 40
2.0
 40
2.0
 40
2.0
 40
2.0
 10
-1.5768202039930554
 20
3.0873223198784721
 30
0.0
 10
-1.6725938585069442
 20
3.3946248372395829
 30
0.0
 10
-1.9991889105902776
 20
3.5655015733506943
 30
0.0
 10
-2.3058024088541664
 20
3.4690388997395831
 30
0.0
 10
-2.403643120659722
 20
3.4387220594618051
 30
0.0
 10
-2.491148546006944
 20
3.3836005316840274
 30
0.0
 10
-2.5600504557291663
 20
3.3084974500868052
 30
0.0
  0
SPLINE
  5
2C1
100
AcDbEntity
  8
レイヤー_2
 62
     7
100
AcDbSpline
210
0.0
220
0.0
230
1.0
 70
     8
 71
     3
 72
     8
 73
     4
 74
     0
 42
0.00000001
 43
0.00000001
 40
0.0
 40
0.0
 40
0.0
 40
0.0
 40
1.0
 40
1.0
 40
1.0
 40
1.0
 10
-0.0003445095486111
 20
0.5000556098090278
 30
0.0
 10
0.3696587456597222
 20
0.5000556098090278
 30
0.0
 10
0.7375949435763888
 20
0.5455308702256944
 30
0.0
 10
1.0958848741319442
 20
0.6351033528645833
 30
0.0
  0
SPLINE
  5
2C0
100
AcDbEntity
  8
レイヤー_2
 62
     7
100
AcDbSpline
210
0.0
220
0.0
230
1.0
 70
     8
 71
     3
 72
     8
 73
     4
 74
     0
 42
0.00000001
 43
0.00000001
 40
0.0
 40
0.0
 40
0.0
 40
0.0
 40
1.0
 40
1.0
 40
1.0
 40
1.0
 10
1.5768202039930554
 20
0.6351033528645833
 30
0.0
 10
1.9254638671874997
 20
0.4545803493923611
 30
0.0
 10
2.3395643446180552
 20
0.4545803493923611
 30
0.0
 10
2.6875189887152775
 20
0.6351033528645833
 30
0.0
  0
SPLINE
  5
2BF
100
AcDbEntity
  8
レイヤー_2
 62
     7
100
AcDbSpline
210
0.0
220
0.0
230
1.0
 70
     8
 71
     3
 72
     8
 73
     4
 74
     0
 42
0.00000001
 43
0.00000001
 40
0.0
 40
0.0
 40
0.0
 40
0.0
 40
1.0
 40
1.0
 40
1.0
 40
1.0
 10
1.0958848741319442
 20
3.0873223198784721
 30
0.0
 10
0.7906494140624999
 20
3.3491495768229163
 30
0.0
 10
0.4020426432291666
 20
3.4924655490451384
 30
0.0
 10
-0.0003445095486111
 20
3.4924655490451384
 30
0.0
  0
SPLINE
  5
2BE
100
AcDbEntity
  8
レイヤー_2
 62
     7
100
AcDbSpline
210
0.0
220
0.0
230
1.0
 70
     8
 71
     3
 72
    11
 73
     7
 74
     0
 42
0.00000001
 43
0.00000001
 40
0.0
 40
0.0
 40
0.0
 40
0.0
 40
1.0
 40
1.0
 40
1.0
 40
2.0
 40
2.0
 40
2.0
 40
2.0
 10
2.6875189887152775
 20
3.0873223198784721
 30
0.0
 10
2.5917453342013888
 20
3.3946248372395829
 30
0.0
 10
2.2651502821180554
 20
3.5655015733506943
 30
0.0
 10
1.9585367838541665
 20
3.4690388997395831
 30
0.0
 10
1.7766357421874999
 20
3.4125393337673606
 30
0.0
 10
1.6340087890624999
 20
3.2699123806423609
 30
0.0
 10
1.5768202039930554
 20
3.0873223198784721
 30
0.0
  0
LINE
  5
2BD
100
AcDbEntity
  8
レイヤー_2
 62
     7
100
AcDbLine
 10
-2.775024
 20
-6.131064
 30
0.0
 11
-3.03823
 21
-5.990504
 31
0.0
  0
LINE
  5
2BC
100
AcDbEntity
  8
レイヤー_2
 62
     7
100
AcDbLine
 10
3.03823
 20
-5.990504
 30
0.0
 11
2.775024
 21
-6.131064
 31
0.0
  0
LINE
  5
2BB
100
AcDbEntity
  8
レイヤー_2
 62
     7
100
AcDbLine
 10
-3.03823
 20
-1.316888
 30
0.0
 11
-2.775024
 21
-1.176328
 31
0.0
  0
LINE
  5
2BA
100
AcDbEntity
  8
レイヤー_2
 62
     7
100
AcDbLine
 10
2.775024
 20
-1.176328
 30
0.0
 11
3.03823
 21
-1.316888
 31
0.0
  0
LINE
  5
2B9
100
AcDbEntity
  8
レイヤー_2
 62
     7
100
AcDbLine
 10
-2.687519
 20
-6.341215
 30
0.0
 11
2.687519
 21
-6.341215
 31
0.0
  0
LINE
  5
2B8
100
AcDbEntity
  8
レイヤー_2
 62
     7
100
AcDbLine
 10
-1.844849
 20
-5.990504
 30
0.0
 11
-1.168921
 21
-5.990504
 31
0.0
  0
LINE
  5
2B7
100
AcDbEntity
  8
レイヤー_2
 62
     7
100
AcDbLine
 10
1.168232
 20
-5.990504
 30
0.0
 11
1.84416
 21
-5.990504
 31
0.0
  0
LINE
  5
2B6
100
AcDbEntity
  8
レイヤー_2
 62
     7
100
AcDbLine
 10
3.03823
 20
-5.990504
 30
0.0
 11
2.687519
 21
-6.341215
 31
0.0
  0
LINE
  5
2B5
100
AcDbEntity
  8
レイヤー_2
 62
     7
100
AcDbLine
 10
-3.03823
 20
-5.990504
 30
0.0
 11
-2.687519
 21
-6.341215
 31
0.0
  0
LINE
  5
2B4
100
AcDbEntity
  8
レイヤー_2
 62
     7
100
AcDbLine
 10
2.687519
 20
-0.966177
 30
0.0
 11
-2.687519
 21
-0.966177
 31
0.0
  0
LINE
  5
2B3
100
AcDbEntity
  8
レイヤー_2
 62
     7
100
AcDbLine
 10
2.687519
 20
-0.966177
 30
0.0
 11
3.03823
 21
-1.316888
 31
0.0
  0
LINE
  5
2B2
100
AcDbEntity
  8
レイヤー_2
 62
     7
100
AcDbLine
 10
1.84416
 20
-1.316888
 30
0.0
 11
1.168232
 21
-1.316888
 31
0.0
  0
LINE
  5
2B1
100
AcDbEntity
  8
レイヤー_2
 62
     7
100
AcDbLine
 10
-1.168921
 20
-1.316888
 30
0.0
 11
-1.844849
 21
-1.316888
 31
0.0
  0
LINE
  5
2B0
100
AcDbEntity
  8
レイヤー_2
 62
     7
100
AcDbLine
 10
-2.687519
 20
-0.966177
 30
0.0
 11
-3.03823
 21
-1.316888
 31
0.0
  0
LINE
  5
2AF
100
AcDbEntity
  8
レイヤー_2
 62
     7
100
AcDbLine
 10
-3.03823
 20
-5.990504
 30
0.0
 11
-3.03823
 21
-1.316888
 31
0.0
  0
LINE
  5
2AE
100
AcDbEntity
  8
レイヤー_2
 62
     7
100
AcDbLine
 10
-1.844849
 20
-5.990504
 30
0.0
 11
-1.844849
 21
-1.316888
 31
0.0
  0
LINE
  5
2AD
100
AcDbEntity
  8
レイヤー_2
 62
     7
100
AcDbLine
 10
-1.168921
 20
-5.990504
 30
0.0
 11
-1.168921
 21
-1.316888
 31
0.0
  0
LINE
  5
2AC
100
AcDbEntity
  8
レイヤー_2
 62
     7
100
AcDbLine
 10
1.168232
 20
-5.990504
 30
0.0
 11
1.168232
 21
-1.316888
 31
0.0
  0
LINE
  5
2AB
100
AcDbEntity
  8
レイヤー_2
 62
     7
100
AcDbLine
 10
1.84416
 20
-5.990504
 30
0.0
 11
1.84416
 21
-1.316888
 31
0.0
  0
LINE
  5
2AA
100
AcDbEntity
  8
レイヤー_2
 62
     7
100
AcDbLine
 10
3.03823
 20
-5.990504
 30
0.0
 11
3.03823
 21
-1.316888
 31
0.0
  0
SPLINE
  5
2A9
100
AcDbEntity
  8
レイヤー_2
 62
     7
100
AcDbSpline
210
0.0
220
0.0
230
1.0
 70
     8
 71
     3
 72
     8
 73
     4
 74
     0
 42
0.00000001
 43
0.00000001
 40
0.0
 40
0.0
 40
0.0
 40
0.0
 40
1.0
 40
1.0
 40
1.0
 40
1.0
 10
-2.7750244140624996
 20
-6.1310641818576386
 30
0.0
 10
-2.4684109157986107
 20
-6.2957397460937496
 30
0.0
 10
-2.0894504123263888
 20
-6.2385511610243052
 30
0.0
 10
-1.8448486328124998
 20
-5.9905042860243052
 30
0.0
  0
SPLINE
  5
2A8
100
AcDbEntity
  8
レイヤー_2
 62
     7
100
AcDbSpline
210
0.0
220
0.0
230
1.0
 70
     8
 71
     3
 72
     8
 73
     4
 74
     0
 42
0.00000001
 43
0.00000001
 40
0.0
 40
0.0
 40
0.0
 40
0.0
 40
1.0
 40
1.0
 40
1.0
 40
1.0
 10
1.8441596137152776
 20
-5.9905042860243052
 30
0.0
 10
2.0894504123263888
 20
-6.2385511610243052
 30
0.0
 10
2.4677218967013888
 20
-6.2957397460937496
 30
0.0
 10
2.7750244140624996
 20
-6.1310641818576386
 30
0.0
  0
SPLINE
  5
2A7
100
AcDbEntity
  8
レイヤー_2
 62
     7
100
AcDbSpline
210
0.0
220
0.0
230
1.0
 70
     8
 71
     3
 72
     8
 73
     4
 74
     0
 42
0.00000001
 43
0.00000001
 40
0.0
 40
0.0
 40
0.0
 40
0.0
 40
1.0
 40
1.0
 40
1.0
 40
1.0
 10
-1.1689208984374999
 20
-5.9905042860243052
 30
0.0
 10
-0.4206461588541666
 20
-6.3019409179687491
 30
0.0
 10
0.4206461588541666
 20
-6.3019409179687491
 30
0.0
 10
1.1682318793402777
 20
-5.9905042860243052
 30
0.0
  0
SPLINE
  5
2A6
100
AcDbEntity
  8
レイヤー_2
 62
     7
100
AcDbSpline
210
0.0
220
0.0
230
1.0
 70
     8
 71
     3
 72
     8
 73
     4
 74
     0
 42
0.00000001
 43
0.00000001
 40
0.0
 40
0.0
 40
0.0
 40
0.0
 40
1.0
 40
1.0
 40
1.0
 40
1.0
 10
-1.8448486328124998
 20
-1.3168877495659721
 30
0.0
 10
-2.0894504123263888
 20
-1.0695298936631943
 30
0.0
 10
-2.4684109157986107
 20
-1.0123413085937498
 30
0.0
 10
-2.7750244140624996
 20
-1.1763278537326387
 30
0.0
  0
SPLINE
  5
2A5
100
AcDbEntity
  8
レイヤー_2
 62
     7
100
AcDbSpline
210
0.0
220
0.0
230
1.0
 70
     8
 71
     3
 72
     8
 73
     4
 74
     0
 42
0.00000001
 43
0.00000001
 40
0.0
 40
0.0
 40
0.0
 40
0.0
 40
1.0
 40
1.0
 40
1.0
 40
1.0
 10
2.7750244140624996
 20
-1.1763278537326387
 30
0.0
 10
2.4677218967013888
 20
-1.0123413085937498
 30
0.0
 10
2.0894504123263888
 20
-1.0695298936631943
 30
0.0
 10
1.8441596137152776
 20
-1.3168877495659721
 30
0.0
  0
SPLINE
  5
2A4
100
AcDbEntity
  8
レイヤー_2
 62
     7
100
AcDbSpline
210
0.0
220
0.0
230
1.0
 70
     8
 71
     3
 72
     8
 73
     4
 74
     0
 42
0.00000001
 43
0.00000001
 40
0.0
 40
0.0
 40
0.0
 40
0.0
 40
1.0
 40
1.0
 40
1.0
 40
1.0
 10
1.1682318793402777
 20
-1.3168877495659721
 30
0.0
 10
0.4206461588541666
 20
-1.0054511176215277
 30
0.0
 10
-0.4206461588541666
 20
-1.0054511176215277
 30
0.0
 10
-1.1689208984374999
 20
-1.3168877495659721
 30
0.0
  0
LINE
  5
2A3
100
AcDbEntity
  8
レイヤー_2
 62
     7
100
AcDbLine
 10
-1.110354
 20
4.706517
 30
0.0
 11
-1.110354
 21
6.30642
 31
0.0
  0
LINE
  5
2A2
100
AcDbEntity
  8
レイヤー_2
 62
     7
100
AcDbLine
 10
1.109665
 20
4.706517
 30
0.0
 11
1.109665
 21
5.907477
 31
0.0
  0
LINE
  5
2A1
100
AcDbEntity
  8
レイヤー_2
 62
     7
100
AcDbLine
 10
1.986098
 20
-0.743624
 30
0.0
 11
1.986098
 21
0.500056
 31
0.0
  0
LINE
  5
2A0
100
AcDbEntity
  8
レイヤー_2
 62
     7
100
AcDbLine
 10
-1.986787
 20
0.500056
 30
0.0
 11
-1.986787
 21
-0.743624
 31
0.0
  0
LINE
  5
29F
100
AcDbEntity
  8
レイヤー_2
 62
     7
100
AcDbLine
 10
-1.869653
 20
-0.541741
 30
0.0
 11
1.869653
 21
-0.541741
 31
0.0
  0
ENDBLK
  5
2E2
100
AcDbEntity
  8
レイヤー_2
100
AcDbBlockEnd
  0
BLOCK
  5
2EA
100
AcDbEntity
  8
レイヤー_2
  6
AI9-LType1
 62
     7
100
AcDbBlockBegin
  2
AI9-BLK11
 70
     0
 10
0.0
 20
0.0
 30
0.0
  3
AI9-BLK11
  1

  0
LINE
  5
2EE
100
AcDbEntity
  8
レイヤー_2
 62
     7
100
AcDbLine
 10
1.754243
 20
-1.709801
 30
0.0
 11
1.754243
 21
3.84955
 31
0.0
  0
LINE
  5
2ED
100
AcDbEntity
  8
レイヤー_2
 62
     7
100
AcDbLine
 10
1.754243
 20
-3.873665
 30
0.0
 11
1.754243
 21
-2.772268
 31
0.0
  0
LINE
  5
2EC
100
AcDbEntity
  8
レイヤー_2
 62
     7
100
AcDbLine
 10
-1.754243
 20
-1.694642
 30
0.0
 11
-1.754243
 21
3.873665
 31
0.0
  0
LINE
  5
2EB
100
AcDbEntity
  8
レイヤー_2
 62
     7
100
AcDbLine
 10
-1.754243
 20
-3.862641
 30
0.0
 11
-1.754243
 21
-2.759177
 31
0.0
  0
ENDBLK
  5
2EF
100
AcDbEntity
  8
レイヤー_2
100
AcDbBlockEnd
  0
BLOCK
  5
2F2
100
AcDbEntity
  8
レイヤー_2
 62
     7
100
AcDbBlockBegin
  2
AI9-BLK12
 70
     0
 10
0.0
 20
0.0
 30
0.0
  3
AI9-BLK12
  1

  0
LINE
  5
2FA
100
AcDbEntity
  8
レイヤー_2
 62
     7
100
AcDbLine
 10
1.754243
 20
2.720506
 30
0.0
 11
1.754243
 21
8.27934
 31
0.0
  0
LINE
  5
2F9
100
AcDbEntity
  8
レイヤー_2
 62
     7
100
AcDbLine
 10
1.754243
 20
-6.154749
 30
0.0
 11
1.754243
 21
-0.595743
 31
0.0
  0
LINE
  5
2F8
100
AcDbEntity
  8
レイヤー_2
 62
     7
100
AcDbLine
 10
1.754243
 20
0.556297
 30
0.0
 11
1.754243
 21
1.658038
 31
0.0
  0
LINE
  5
2F7
100
AcDbEntity
  8
レイヤー_2
 62
     7
100
AcDbLine
 10
1.754243
 20
-8.318614
 30
0.0
 11
1.754243
 21
-7.217217
 31
0.0
  0
LINE
  5
2F6
100
AcDbEntity
  8
レイヤー_2
 62
     7
100
AcDbLine
 10
-1.754243
 20
2.750134
 30
0.0
 11
-1.754243
 21
8.318614
 31
0.0
  0
LINE
  5
2F5
100
AcDbEntity
  8
レイヤー_2
 62
     7
100
AcDbLine
 10
-1.754243
 20
-6.139591
 30
0.0
 11
-1.754243
 21
-0.571627
 31
0.0
  0
LINE
  5
2F4
100
AcDbEntity
  8
レイヤー_2
 62
     7
100
AcDbLine
 10
-1.754243
 20
0.58248
 30
0.0
 11
-1.754243
 21
1.685599
 31
0.0
  0
LINE
  5
2F3
100
AcDbEntity
  8
レイヤー_2
 62
     7
100
AcDbLine
 10
-1.754243
 20
-8.307589
 30
0.0
 11
-1.754243
 21
-7.204125
 31
0.0
  0
ENDBLK
  5
2FB
100
AcDbEntity
  8
レイヤー_2
100
AcDbBlockEnd
  0
ENDSEC
  0
SECTION
  2
ENTITIES
  0
MTEXT
  5
840
100
AcDbEntity
  8
レイヤー_1
 62
     7
100
AcDbMText
 10
47.801389
 20
54.121991
 30
0.0
 40
3.674768
 41
0.0
 71
     1
 72
     2
  1
\fOsaka|b0|i0|c128;\H3.6748;\C7;\U+0033\U+0033\U+002E\U+0035\U+0030\U+0032\U+002E\U+0036\U+0032\U+0035\U+002E\U+0058\U+0058
  7
STD
210
0.0
220
0.0
230
1.0
 73
     1
 44
1.0
  0
MTEXT
  5
83F
100
AcDbEntity
  8
レイヤー_1
 62
     7
100
AcDbMText
 10
39.6875
 20
56.608234
 30
0.0
 40
1.574901
 41
0.0
 71
     1
 72
     2
  1
\fOsaka|b0|i0|c128;\H1.5749;\C7;\U+54C1\U+756A
  7
STD
210
0.0
220
0.0
230
1.0
 73
     1
 44
1.0
  0
MTEXT
  5
83E
100
AcDbEntity
  8
レイヤー_1
 62
     7
100
AcDbMText
 10
47.801389
 20
32.959209
 30
0.0
 40
3.149486
 41
0.0
 71
     1
 72
     2
  1
\fOsaka|b0|i0|c128;\H3.1495;\C7;\U+FF11\U+7A74\U+578B\U+30B7\U+30F3\U+30B0\U+30EB\U+30EC\U+30D0\U+30FC\U+6D17\U+9762\U+7528\U+6DF7\U+5408\U+6813
  7
STD
210
0.0
220
0.0
230
1.0
 73
     1
 44
1.0
  0
MTEXT
  5
83D
100
AcDbEntity
  8
レイヤー_1
 62
     7
100
AcDbMText
 10
39.6875
 20
35.441567
 30
0.0
 40
1.574901
 41
0.0
 71
     1
 72
     2
  1
\fOsaka|b0|i0|c128;\H1.5749;\C7;\U+54C1
  7
STD
210
0.0
220
0.0
230
1.0
 73
     1
 44
1.0
  0
MTEXT
  5
83C
100
AcDbEntity
  8
レイヤー_1
 62
     7
100
AcDbMText
 10
47.801389
 20
42.954809
 30
0.0
 40
3.149486
 41
0.0
 71
     1
 72
     2
  1
\fOsaka|b0|i0|c128;\H3.1495;\C7;\U+004D\U+0065\U+0074\U+0061\U+002E\U+004F\U+0032
  7
STD
210
0.0
220
0.0
230
1.0
 73
     1
 44
1.0
  0
POLYLINE
  5
836
100
AcDbEntity
  8
レイヤー_1
 62
     7
100
AcDb2dPolyline
 66
     1
 10
0.0
 20
0.0
 30
0.0
 70
     1
  0
VERTEX
  5
837
100
AcDbEntity
  8
レイヤー_1
 62
     7
100
AcDbVertex
100
AcDb2dVertex
 10
23.636111
 20
26.105556
 30
0.0
  0
VERTEX
  5
838
100
AcDbEntity
  8
レイヤー_1
 62
     7
100
AcDbVertex
100
AcDb2dVertex
 10
198.613889
 20
26.105556
 30
0.0
  0
VERTEX
  5
839
100
AcDbEntity
  8
レイヤー_1
 62
     7
100
AcDbVertex
100
AcDb2dVertex
 10
198.613889
 20
276.577778
 30
0.0
  0
VERTEX
  5
83A
100
AcDbEntity
  8
レイヤー_1
 62
     7
100
AcDbVertex
100
AcDb2dVertex
 10
23.636111
 20
276.577778
 30
0.0
  0
SEQEND
  5
83B
100
AcDbEntity
  8
レイヤー_1
 62
     7
  0
LINE
  5
835
100
AcDbEntity
  8
レイヤー_1
 62
     7
100
AcDbLine
 10
170.568056
 20
36.5125
 30
0.0
 11
27.693056
 21
36.5125
 31
0.0
  0
LINE
  5
834
100
AcDbEntity
  8
レイヤー_1
 62
     7
100
AcDbLine
 10
170.568056
 20
47.095833
 30
0.0
 11
27.693056
 21
47.095833
 31
0.0
  0
LINE
  5
833
100
AcDbEntity
  8
レイヤー_1
 62
     7
100
AcDbLine
 10
23.636111
 20
57.855556
 30
0.0
 11
198.261111
 21
57.855556
 31
0.0
  0
LINE
  5
832
100
AcDbEntity
  8
レイヤー_1
 62
     7
100
AcDbLine
 10
170.744444
 20
57.855556
 30
0.0
 11
170.744444
 21
26.458333
 31
0.0
  0
MTEXT
  5
831
100
AcDbEntity
  8
レイヤー_1
 62
     7
100
AcDbMText
 10
33.3375
 20
46.024901
 30
0.0
 40
1.574901
 41
0.0
 71
     1
 72
     2
  1
\fOsaka|b0|i0|c128;\H1.5749;\C7;\U+30B7\U+30EA\U+30FC\U+30BA
  7
STD
210
0.0
220
0.0
230
1.0
 73
     1
 44
1.0
  0
MTEXT
  5
830
100
AcDbEntity
  8
レイヤー_1
 62
     7
100
AcDbMText
 10
174.095833
 20
54.655042
 30
0.0
 40
3.149486
 41
0.0
 71
     1
 72
     2
  1
\fHeiseiKakuGothicCAN W9|b0|i0|c128;\H3.1495;\C253;\U+5BF8\U+6CD5\U+53C2\U+8003\U+56F3
  7
STD
210
0.0
220
0.0
230
1.0
 73
     1
 44
1.0
  0
LINE
  5
82F
100
AcDbEntity
  8
レイヤー_1
 62
     7
100
AcDbLine
 10
27.516667
 20
57.855556
 30
0.0
 11
27.516667
 21
26.458333
 31
0.0
  0
IMAGE
  5
82C
100
AcDbEntity
  8
レイヤー_1
 62
     7
 92
        0
100
AcDbRasterImage
 90
        0
 10
172.155556
 20
28.574682
 30
0.0
 11
0.352531
 21
0.0
 31
0.0
 12
0.0
 22
0.352813
 32
0.0
 13
70.0
 23
9.0
340
82E
 70
     7
280
     0
281
    50
282
    50
283
     0
360
82D
 71
     1
 91
        2
 14
-0.5
 24
-0.5
 14
69.5
 24
8.5
  0
IMAGE
  5
829
100
AcDbEntity
  8
レイヤー_1
 62
     7
 92
        0
100
AcDbRasterImage
 90
        0
 10
172.155556
 20
28.574682
 30
0.0
 11
0.352531
 21
0.0
 31
0.0
 12
0.0
 22
0.352813
 32
0.0
 13
70.0
 23
9.0
340
82B
 70
     7
280
     0
281
    50
282
    50
283
     0
360
82A
 71
     1
 91
        2
 14
-0.5
 24
-0.5
 14
69.5
 24
8.5
  0
MTEXT
  5
828
100
AcDbEntity
  8
レイヤー_1
 62
     7
100
AcDbMText
 10
113.418056
 20
46.024901
 30
0.0
 40
1.574901
 41
0.0
 71
     1
 72
     2
  1
\fOsaka|b0|i0|c128;\H1.5749;\C7;\U+4ED5\U+4E0A
  7
STD
210
0.0
220
0.0
230
1.0
 73
     1
 44
1.0
  0
MTEXT
  5
827
100
AcDbEntity
  8
レイヤー_1
 62
     7
100
AcDbMText
 10
124.765511
 20
40.968164
 30
0.0
 40
1.162842
 41
0.0
 71
     1
 72
     2
  1
\fOsaka|b0|i0|c128;\H1.1628;\W2.71;\C7;
  7
STD
210
0.0
220
0.0
230
1.0
 73
     1
 44
1.0
  0
INSERT
  5
239
100
AcDbEntity
  8
レイヤー_2
 62
     7
100
AcDbBlockReference
  2
AI9-BLK5
 10
161.514861
 20
158.749828
 30
0.0
  0
INSERT
  5
2A
100
AcDbEntity
  8
レイヤー_2
 62
     7
100
AcDbBlockReference
  2
AI9-BLK1
 10
76.98996
 20
168.124622
 30
0.0
  0
ENDSEC
  0
SECTION
  2
OBJECTS
  0
DICTIONARY
  5
19
100
AcDbDictionary
280
     0
281
     1
  3
ACAD_GROUP
350
1A
  3
ACAD_MLINESTYLE
350
1B
  3
ACAD_LAYOUT
350
1E
  3
ACAD_PLOTSETTINGS
350
22
  3
ACAD_PLOTSTYLENAME
350
1F
  3
ACAD_WIPEOUT_VARS
350
23
  0
DICTIONARY
  5
1A
102
{ACAD_REACTORS
330
19
102
}
100
AcDbDictionary
280
     0
281
     1
  0
DICTIONARY
  5
1B
102
{ACAD_REACTORS
330
19
102
}
100
AcDbDictionary
280
     0
281
     1
  3
Standard
350
1C
  0
MLINESTYLE
  5
1C
102
{ACAD_REACTORS
330
1B
102
}
100
AcDbMlineStyle
  2
Standard
 70
     0
  3

 62
     0
 51
90.0
 52
90.0
 71
     2
 49
0.5
 62
   256
  6
ByLayer
 49
-0.5
 62
   256
  6
ByLayer
  0
ACDBDICTIONARYWDFLT
  5
1F
102
{ACAD_REACTORS
330
19
102
}
100
AcDbDictionary
281
     1
  3
Normal
350
1D
100
AcDbDictionaryWithDefault
340
1D
  0
ACDBPLACEHOLDER
  5
1D
102
{ACAD_REACTORS
330
1F
102
}
  0
LAYOUT
  5
20
102
{ACAD_REACTORS
330
1E
102
}
100
AcDbPlotSettings
  1

  2

  4

  6

 40
0.0
 41
0.0
 42
0.0
 43
0.0
 44
0.0
 45
0.0
 46
0.0
 47
0.0
 48
0.0
 49
0.0
140
0.0
141
0.0
142
1.0
143
1.0
 70
  1024
 72
     0
 73
     0
 74
     0
  7

 75
     0
147
1.0
148
0.0
149
0.0
100
AcDbLayout
  1
Model
 70
     0
 71
     0
 10
0.0
 20
0.0
 11
0.0
 21
0.0
 12
0.0
 22
0.0
 32
0.0
 14
0.0
 24
0.0
 34
0.0
 15
0.0
 25
0.0
 35
0.0
146
0.0
 13
0.0
 23
0.0
 33
0.0
 16
0.0
 26
0.0
 36
0.0
 17
0.0
 27
0.0
 37
0.0
 76
     0
330
A
331
0
345
0
346
0
  0
LAYOUT
  5
21
102
{ACAD_REACTORS
330
1E
102
}
100
AcDbPlotSettings
  1

  2

  4

  6

 40
0.0
 41
0.0
 42
0.0
 43
0.0
 44
0.0
 45
0.0
 46
0.0
 47
0.0
 48
0.0
 49
0.0
140
0.0
141
0.0
142
1.0
143
1.0
 70
     0
 72
     0
 73
     0
 74
     0
  7

 75
     0
147
1.0
148
0.0
149
0.0
100
AcDbLayout
  1
Layout1
 70
     0
 71
     0
 10
0.0
 20
0.0
 11
0.0
 21
0.0
 12
0.0
 22
0.0
 32
0.0
 14
0.0
 24
0.0
 34
0.0
 15
0.0
 25
0.0
 35
0.0
146
0.0
 13
0.0
 23
0.0
 33
0.0
 16
0.0
 26
0.0
 36
0.0
 17
0.0
 27
0.0
 37
0.0
 76
     0
330
B
331
0
345
0
346
0
  0
DICTIONARY
  5
1E
102
{ACAD_REACTORS
330
19
102
}
100
AcDbDictionary
280
     0
281
     1
  3
Layout1
350
21
  3
Model
350
20
  0
DICTIONARY
  5
22
102
{ACAD_REACTORS
330
19
102
}
100
AcDbDictionary
280
     0
281
     1
  0
WIPEOUTVARIABLES
  5
23
100
AcDbWipeoutVariables
 70
     1
  0
IMAGEDEF_REACTOR
  5
82A
100
AcDbRasterImageDefReactor
 90
        2
330
829
  0
IMAGEDEF
  5
82B
100
AcDbRasterImageDef
 90
        0
  1
\\192.168.6.3\free(2009_04\一過性\DB_WEB用DXF_丸茂\Meta.02\33502625_1.bmp
 10
70.0
 20
9.0
 11
0.352778
 21
0.352778
280
     1
281
     0
  0
IMAGEDEF_REACTOR
  5
82D
100
AcDbRasterImageDefReactor
 90
        2
330
82C
  0
IMAGEDEF
  5
82E
100
AcDbRasterImageDef
 90
        0
  1
\\192.168.6.3\free(2009_04\一過性\DB_WEB用DXF_丸茂\Meta.02\33502625_2.bmp
 10
70.0
 20
9.0
 11
0.352778
 21
0.352778
280
     1
281
     0
  0
ENDSEC
  0
EOF
