  0
SECTION
  2
HEADER
  9
$ACADVER
  1
AC1015
  9
$ACADMAINTVER
 70
     6
  9
$DWGCODEPAGE
  3
ANSI_932
  9
$INSBASE
 10
0.0
 20
0.0
 30
0.0
  9
$EXTMIN
 10
23.283333
 20
26.811111
 30
1.000000E+20
  9
$EXTMAX
 10
198.966667
 20
276.930556
 30
-1.000000E+20
  9
$LIMMIN
 10
23.283333
 20
26.811111
  9
$LIMMAX
 10
198.966667
 20
276.930556
  9
$ORTHOMODE
 70
     0
  9
$REGENMODE
 70
     1
  9
$FILLMODE
 70
     1
  9
$QTEXTMODE
 70
     0
  9
$MIRRTEXT
 70
     1
  9
$LTSCALE
 40
1.0
  9
$ATTMODE
 70
     1
  9
$TEXTSIZE
 40
0.2
  9
$TRACEWID
 40
0.05
  9
$TEXTSTYLE
  7
Standard
  9
$CLAYER
  8
0
  9
$CELTYPE
  6
Continuous
  9
$CECOLOR
 62
   256
  9
$CELTSCALE
 40
1.0
  9
$DISPSILH
 70
     0
  9
$DIMSCALE
 40
1.0
  9
$DIMASZ
 40
0.18
  9
$DIMEXO
 40
0.0625
  9
$DIMDLI
 40
0.38
  9
$DIMRND
 40
0.0
  9
$DIMDLE
 40
0.0
  9
$DIMEXE
 40
0.18
  9
$DIMTP
 40
0.0
  9
$DIMTM
 40
0.0
  9
$DIMTXT
 40
0.18
  9
$DIMCEN
 40
0.09
  9
$DIMTSZ
 40
0.0
  9
$DIMTOL
 70
     0
  9
$DIMLIM
 70
     0
  9
$DIMTIH
 70
     1
  9
$DIMTOH
 70
     1
  9
$DIMSE1
 70
     0
  9
$DIMSE2
 70
     0
  9
$DIMTAD
 70
     0
  9
$DIMZIN
 70
     0
  9
$DIMBLK
  1

  9
$DIMASO
 70
     1
  9
$DIMSHO
 70
     1
  9
$DIMPOST
  1

  9
$DIMAPOST
  1

  9
$DIMALT
 70
     0
  9
$DIMALTD
 70
     2
  9
$DIMALTF
 40
25.4
  9
$DIMLFAC
 40
1.0
  9
$DIMTOFL
 70
     0
  9
$DIMTVP
 40
0.0
  9
$DIMTIX
 70
     0
  9
$DIMSOXD
 70
     0
  9
$DIMSAH
 70
     0
  9
$DIMBLK1
  1

  9
$DIMBLK2
  1

  9
$DIMSTYLE
  2
Standard
  9
$DIMCLRD
 70
     0
  9
$DIMCLRE
 70
     0
  9
$DIMCLRT
 70
     0
  9
$DIMTFAC
 40
1.0
  9
$DIMGAP
 40
0.09
  9
$DIMJUST
 70
     0
  9
$DIMSD1
 70
     0
  9
$DIMSD2
 70
     0
  9
$DIMTOLJ
 70
     1
  9
$DIMTZIN
 70
     0
  9
$DIMALTZ
 70
     0
  9
$DIMALTTZ
 70
     0
  9
$DIMUPT
 70
     0
  9
$DIMDEC
 70
     4
  9
$DIMTDEC
 70
     4
  9
$DIMALTU
 70
     2
  9
$DIMALTTD
 70
     2
  9
$DIMTXSTY
  7
Standard
  9
$DIMAUNIT
 70
     0
  9
$DIMADEC
 70
     0
  9
$DIMALTRND
 40
0.0
  9
$DIMAZIN
 70
     0
  9
$DIMDSEP
 70
     0
  9
$DIMATFIT
 70
     3
  9
$DIMFRAC
 70
     0
  9
$DIMLDRBLK
  1

  9
$DIMLUNIT
 70
     2
  9
$DIMLWD
 70
     0
  9
$DIMLWE
 70
     0
  9
$DIMTMOVE
 70
     0
  9
$LUNITS
 70
     2
  9
$LUPREC
 70
     4
  9
$SKETCHINC
 40
0.1
  9
$FILLETRAD
 40
0.0
  9
$AUNITS
 70
     0
  9
$AUPREC
 70
     0
  9
$MENU
  1
acad
  9
$ELEVATION
 40
0.0
  9
$PELEVATION
 40
0.0
  9
$THICKNESS
 40
0.0
  9
$LIMCHECK
 70
     0
  9
$CHAMFERA
 40
0.0
  9
$CHAMFERB
 40
0.0
  9
$CHAMFERC
 40
0.0
  9
$CHAMFERD
 40
0.0
  9
$SKPOLY
 70
     0
  9
$TDCREATE
 40
0.000000000
  9
$TDUCREATE
 40
0.000000000
  9
$TDUPDATE
 40
0.000000000
  9
$TDUUPDATE
 40
0.000000000
  9
$TDINDWG
 40
0.0000000000
  9
$TDUSRTIMER
 40
0.0000000000
  9
$USRTIMER
 70
     1
  9
$ANGBASE
 50
0.0
  9
$ANGDIR
 70
     0
  9
$PDMODE
 70
     0
  9
$PDSIZE
 40
0.0
  9
$PLINEWID
 40
0.0
  9
$SPLFRAME
 70
     0
  9
$SPLINETYPE
 70
     6
  9
$SPLINESEGS
 70
     8
  9
$HANDSEED
  5
616
  9
$SURFTAB1
 70
     6
  9
$SURFTAB2
 70
     6
  9
$SURFTYPE
 70
     6
  9
$SURFU
 70
     6
  9
$SURFV
 70
     6
  9
$UCSBASE
  2

  9
$UCSNAME
  2

  9
$UCSORG
 10
0.0
 20
0.0
 30
0.0
  9
$UCSXDIR
 10
1.0
 20
0.0
 30
0.0
  9
$UCSYDIR
 10
0.0
 20
1.0
 30
0.0
  9
$UCSORTHOREF
  2

  9
$UCSORTHOVIEW
 70
     0
  9
$UCSORGTOP
 10
0.0
 20
0.0
 30
0.0
  9
$UCSORGBOTTOM
 10
0.0
 20
0.0
 30
0.0
  9
$UCSORGLEFT
 10
0.0
 20
0.0
 30
0.0
  9
$UCSORGRIGHT
 10
0.0
 20
0.0
 30
0.0
  9
$UCSORGFRONT
 10
0.0
 20
0.0
 30
0.0
  9
$UCSORGBACK
 10
0.0
 20
0.0
 30
0.0
  9
$PUCSBASE
  2

  9
$PUCSNAME
  2

  9
$PUCSORG
 10
0.0
 20
0.0
 30
0.0
  9
$PUCSXDIR
 10
1.0
 20
0.0
 30
0.0
  9
$PUCSYDIR
 10
0.0
 20
1.0
 30
0.0
  9
$PUCSORTHOREF
  2

  9
$PUCSORTHOVIEW
 70
     0
  9
$PUCSORGTOP
 10
0.0
 20
0.0
 30
0.0
  9
$PUCSORGBOTTOM
 10
0.0
 20
0.0
 30
0.0
  9
$PUCSORGLEFT
 10
0.0
 20
0.0
 30
0.0
  9
$PUCSORGRIGHT
 10
0.0
 20
0.0
 30
0.0
  9
$PUCSORGFRONT
 10
0.0
 20
0.0
 30
0.0
  9
$PUCSORGBACK
 10
0.0
 20
0.0
 30
0.0
  9
$USERI1
 70
     0
  9
$USERI2
 70
     0
  9
$USERI3
 70
     0
  9
$USERI4
 70
     0
  9
$USERI5
 70
     0
  9
$USERR1
 40
0.0
  9
$USERR2
 40
0.0
  9
$USERR3
 40
0.0
  9
$USERR4
 40
0.0
  9
$USERR5
 40
0.0
  9
$WORLDVIEW
 70
     1
  9
$SHADEDGE
 70
     3
  9
$SHADEDIF
 70
    70
  9
$TILEMODE
 70
     1
  9
$MAXACTVP
 70
    16
  9
$PINSBASE
 10
0.0
 20
0.0
 30
0.0
  9
$PLIMCHECK
 70
     0
  9
$PEXTMIN
 10
1.000000E+20
 20
1.000000E+20
 30
1.000000E+20
  9
$PEXTMAX
 10
-1.000000E+20
 20
-1.000000E+20
 30
-1.000000E+20
  9
$PLIMMIN
 10
0.0
 20
0.0
  9
$PLIMMAX
 10
12.0
 20
9.0
  9
$UNITMODE
 70
     0
  9
$VISRETAIN
 70
     0
  9
$PLINEGEN
 70
     1
  9
$PSLTSCALE
 70
     0
  9
$TREEDEPTH
 70
  3020
  9
$CMLSTYLE
  2
Standard
  9
$CMLJUST
 70
     0
  9
$CMLSCALE
 40
1.0
  9
$PROXYGRAPHICS
 70
     0
  9
$MEASUREMENT
 70
     1
  9
$CELWEIGHT
370
     0
  9
$ENDCAPS
280
     0
  9
$JOINSTYLE
280
     0
  9
$LWDISPLAY
290
     0
  9
$INSUNITS
 70
     0
  9
$HYPERLINKBASE
  1

  9
$STYLESHEET
  1

  9
$XEDIT
290
     1
  9
$CEPSNTYPE
380
     0
  9
$PSTYLEMODE
290
     1
  9
$FINGERPRINTGUID
  2

  9
$VERSIONGUID
  2

  9
$EXTNAMES
290
     1
  9
$PSVPSCALE
 40
0.0
  0
ENDSEC
  0
SECTION
  2
CLASSES
  0
CLASS
  1
LWPOLYLINE
  2
AcDbPolyline
  3
AutoCAD 2000
 90
    32768
280
     0
281
     1
  0
CLASS
  1
IMAGE
  2
AcDbRasterImage
  3
ISM
 90
      127
280
     0
281
     1
  0
CLASS
  1
OLE2FRAME
  2
AcDbOle2Frame
  3
AutoCAD 2000
 90
    32768
280
     0
281
     1
  0
CLASS
  1
HATCH
  2
AcDbHatch
  3
AutoCAD 2000
 90
    32768
280
     0
281
     1
  0
CLASS
  1
DICTIONARYVAR
  2
AcDbDictionaryVar
  3
AutoCAD 2000
 90
    32768
280
     0
281
     0
  0
CLASS
  1
RASTERVARIABLES
  2
AcDbRasterVariables
  3
ISM
 90
    32768
280
     0
281
     0
  0
CLASS
  1
IMAGEDEF
  2
AcDbRasterImageDef
  3
ISM
 90
        0
280
     0
281
     0
  0
CLASS
  1
IMAGEDEF_REACTOR
  2
AcDbRasterImageDefReactor
  3
ISM
 90
        1
280
     0
281
     0
  0
CLASS
  1
IDBUFFER
  2
AcDbIdBuffer
  3
AutoCAD 2000
 90
    32768
280
     0
281
     0
  0
CLASS
  1
SPATIAL_FILTER
  2
AcDbSpatialFilter
  3
AutoCAD 2000
 90
    32768
280
     0
281
     0
  0
CLASS
  1
XRECORD
  2
AcDbXrecord
  3
AutoCAD 2000
 90
    32768
280
     0
281
     0
  0
CLASS
  1
SORTENTSTABLE
  2
AcDbSortentsTable
  3
AutoCAD 2000
 90
    32768
280
     0
281
     0
  0
CLASS
  1
LAYER_INDEX
  2
AcDbLayerIndex
  3
AutoCAD 2000
 90
    32768
280
     0
281
     0
  0
CLASS
  1
SPATIAL_INDEX
  2
AcDbSpatialIndex
  3
AutoCAD 2000
 90
    32768
280
     0
281
     0
  0
CLASS
  1
OBJECT_PTR
  2
CAseDLPNTableRecord
  3
"ASE-LPNTableRecord"
 90
    32769
280
     0
281
     0
  0
CLASS
  1
LAYOUT
  2
AcDbLayout
  3
AutoCAD 2000
 90
        0
280
     0
281
     0
  0
CLASS
  1
PLOTSETTINGS
  2
AcDbPlotSettings
  3
AutoCAD 2000
 90
    32768
280
     0
281
     0
  0
CLASS
  1
ACDBDICTIONARYWDFLT
  2
AcDbDictionaryWithDefault
  3
AutoCAD 2000
 90
        0
280
     0
281
     0
  0
CLASS
  1
ACDBPLACEHOLDER
  2
AcDbPlaceHolder
  3
AutoCAD 2000
 90
        0
280
     0
281
     0
  0
CLASS
  1
VBA_PROJECT
  2
AcDbVbaProject
  3
acadvba
 90
    32768
280
     0
281
     0
  0
CLASS
  1
WIPEOUT
  2
AcDbWipeout
  3
WipeOut|AutoCAD Express Tool|expresstools@autodesk.com
 90
    32895
280
     0
281
     1
  0
CLASS
  1
WIPEOUTVARIABLES
  2
AcDbWipeoutVariables
  3
WipeOut|AutoCAD Express Tool|expresstools@autodesk.com
 90
        0
280
     0
281
     0
  0
CLASS
  1
RTEXT
  2
RText
  3
RText|AutoCAD Express Tool|expresstools@autodesk.com
 90
    32768
280
     0
281
     1
  0
CLASS
  1
ARCALIGNEDTEXT
  2
AcDbArcAlignedText
  3
ATEXT|AutoCAD Express Tool|expresstools@autodesk.com
 90
    32768
280
     0
281
     1
  0
ENDSEC
  0
SECTION
  2
TABLES
  0
TABLE
  2
VPORT
  5
7
100
AcDbSymbolTable
 70
     1
  0
VPORT
  5
15
100
AcDbSymbolTableRecord
100
AcDbViewportTableRecord
  2
*ACTIVE
 70
     0
 10
0.0
 20
0.0
 11
1.0
 21
1.0
 12
6.591288
 22
4.579184
 13
0.0
 23
0.0
 14
1.0
 24
1.0
 15
0.0
 25
0.0
 16
0.0
 26
0.0
 36
1.0
 17
0.0
 27
0.0
 37
0.0
 40
9.158369
 41
0.688564
 42
50.0
 43
0.0
 44
0.0
 50
0.0
 51
0.0
 71
     0
 72
   100
 73
     1
 74
     1
 75
     0
 76
     0
 77
     0
 78
     0
281
     0
 65
     0
110
0.0
120
0.0
130
0.0
111
1.0
121
0.0
131
0.0
112
0.0
122
1.0
132
0.0
345
0
346
0
 79
     0
146
0.0
  0
ENDTAB
  0
TABLE
  2
LTYPE
  5
4
100
AcDbSymbolTable
 70
     6
  0
LTYPE
  5
11
100
AcDbSymbolTableRecord
100
AcDbLinetypeTableRecord
  2
ByBlock
 70
    64
  3

 72
    65
 73
     0
 40
0.0
  0
LTYPE
  5
12
100
AcDbSymbolTableRecord
100
AcDbLinetypeTableRecord
  2
ByLayer
 70
    64
  3

 72
    65
 73
     0
 40
0.0
  0
LTYPE
  5
13
100
AcDbSymbolTableRecord
100
AcDbLinetypeTableRecord
  2
Continuous
 70
    64
  3
Solid line
 72
    65
 73
     0
 40
0.0
  0
LTYPE
  5
52
100
AcDbSymbolTableRecord
100
AcDbLinetypeTableRecord
  2
AI9-LType1
 70
    64
  3
Illustrator Dash Style No.1
 72
    65
 73
     4
 40
8.000295
 49
4.99992
 74
     0
 49
-1.000125
 74
     0
 49
1.000125
 74
     0
 49
-1.000125
 74
     0
  0
LTYPE
  5
5E
100
AcDbSymbolTableRecord
100
AcDbLinetypeTableRecord
  2
AI9-LType2
 70
    64
  3
Illustrator Dash Style No.2
 72
    65
 73
     2
 40
3.999795
 49
1.000125
 74
     0
 49
-2.99967
 74
     0
  0
LTYPE
  5
59A
100
AcDbSymbolTableRecord
100
AcDbLinetypeTableRecord
  2
AI9-LType3
 70
    64
  3
Illustrator Dash Style No.3
 72
    65
 73
     4
 40
14.795182
 49
9.246975
 74
     0
 49
-1.849402
 74
     0
 49
1.849402
 74
     0
 49
-1.849402
 74
     0
  0
ENDTAB
  0
TABLE
  2
LAYER
  5
2
100
AcDbSymbolTable
 70
     3
  0
LAYER
  5
14
100
AcDbSymbolTableRecord
100
AcDbLayerTableRecord
  2
0
 70
     0
 62
     7
  6
Continuous
290
     1
370
    -3
390
1D
  0
LAYER
  5
28
100
AcDbSymbolTableRecord
100
AcDbLayerTableRecord
  2
レイヤー_2
 70
     0
 62
     1
  6
Continuous
290
     1
370
    -3
390
1D
  0
LAYER
  5
5FB
100
AcDbSymbolTableRecord
100
AcDbLayerTableRecord
  2
レイヤー_1
 70
     0
 62
   160
  6
Continuous
290
     1
370
    -3
390
1D
  0
ENDTAB
  0
TABLE
  2
STYLE
  5
3
100
AcDbSymbolTable
 70
     5
  0
STYLE
  5
17
100
AcDbSymbolTableRecord
100
AcDbTextStyleTableRecord
  2
Standard
 70
     0
 40
0.0
 41
1.0
 50
0.0
 71
     0
 42
0.0
  3
txt
  4

  0
STYLE
  5
24
100
AcDbSymbolTableRecord
100
AcDbTextStyleTableRecord
  2
STD
 70
     0
 40
0.0
 41
1.0
 50
0.0
 71
     0
 42
0.0
  3
txt
  4

  0
STYLE
  5
25
100
AcDbSymbolTableRecord
100
AcDbTextStyleTableRecord
  2
TATESTD
 70
     4
 40
0.0
 41
1.0
 50
0.0
 71
     0
 42
0.0
  3
txt
  4

  0
STYLE
  5
26
100
AcDbSymbolTableRecord
100
AcDbTextStyleTableRecord
  2
KANJISTD
 70
     0
 40
0.0
 41
1.0
 50
0.0
 71
     0
 42
0.0
  3
txt
  4
extfont
  0
STYLE
  5
27
100
AcDbSymbolTableRecord
100
AcDbTextStyleTableRecord
  2
KANJITATE
 70
     4
 40
0.0
 41
1.0
 50
0.0
 71
     0
 42
0.0
  3
txt
  4
extfont
  0
ENDTAB
  0
TABLE
  2
VIEW
  5
5
100
AcDbSymbolTable
 70
     0
  0
ENDTAB
  0
TABLE
  2
UCS
  5
6
100
AcDbSymbolTable
 70
     0
  0
ENDTAB
  0
TABLE
  2
APPID
  5
8
100
AcDbSymbolTable
 70
     1
  0
APPID
  5
16
100
AcDbSymbolTableRecord
100
AcDbRegAppTableRecord
  2
ACAD
 70
     0
  0
ENDTAB
  0
TABLE
  2
DIMSTYLE
  5
9
100
AcDbSymbolTable
 70
     1
100
AcDbDimStyleTable
 71
     0
  0
DIMSTYLE
105
18
100
AcDbSymbolTableRecord
100
AcDbDimStyleTableRecord
  2
Standard
 70
     0
  3

  4

 40
1.0
 41
0.18
 42
0.0625
 43
0.38
 44
0.18
 45
0.0
 46
0.0
 47
0.0
 48
0.0
 71
     0
 72
     0
 73
     1
 74
     1
 75
     0
 76
     0
 77
     0
 78
     0
 79
     0
140
0.18
141
0.09
142
0.0
143
25.4
144
1.0
145
0.0
146
1.0
147
0.09
148
0.0
170
     0
171
     2
172
     0
173
     0
174
     0
175
     0
176
     0
177
     0
178
     0
179
     0
271
     4
272
     4
273
     2
274
     2
275
     0
276
     0
277
     2
278
    46
279
     0
280
     0
281
     0
282
     0
283
     1
284
     0
285
     0
286
     0
288
     0
340
17
341
0
342
0
343
0
344
0
371
    -2
372
    -2
  0
ENDTAB
  0
TABLE
  2
BLOCK_RECORD
  5
1
100
AcDbSymbolTable
 70
     8
  0
BLOCK_RECORD
  5
A
100
AcDbSymbolTableRecord
100
AcDbBlockTableRecord
  2
*MODEL_SPACE
340
20
  0
BLOCK_RECORD
  5
B
100
AcDbSymbolTableRecord
100
AcDbBlockTableRecord
  2
*PAPER_SPACE
340
21
  0
BLOCK_RECORD
  5
53A
100
AcDbSymbolTableRecord
100
AcDbBlockTableRecord
  2
AI9-BLK1
340
0
102
{BLKREFS
331
53B
102
}
  0
BLOCK_RECORD
  5
547
100
AcDbSymbolTableRecord
100
AcDbBlockTableRecord
  2
AI9-BLK2
340
0
102
{BLKREFS
331
548
102
}
  0
BLOCK_RECORD
  5
54D
100
AcDbSymbolTableRecord
100
AcDbBlockTableRecord
  2
AI9-BLK3
340
0
102
{BLKREFS
331
54E
102
}
  0
BLOCK_RECORD
  5
550
100
AcDbSymbolTableRecord
100
AcDbBlockTableRecord
  2
AI9-BLK4
340
0
102
{BLKREFS
331
551
102
}
  0
BLOCK_RECORD
  5
553
100
AcDbSymbolTableRecord
100
AcDbBlockTableRecord
  2
AI9-BLK5
340
0
102
{BLKREFS
331
554
102
}
  0
BLOCK_RECORD
  5
5A1
100
AcDbSymbolTableRecord
100
AcDbBlockTableRecord
  2
AI9-BLK6
340
0
102
{BLKREFS
331
5A2
102
}
  0
BLOCK_RECORD
  5
5A4
100
AcDbSymbolTableRecord
100
AcDbBlockTableRecord
  2
AI9-BLK7
340
0
102
{BLKREFS
331
5A5
102
}
  0
BLOCK_RECORD
  5
5A7
100
AcDbSymbolTableRecord
100
AcDbBlockTableRecord
  2
AI9-BLK8
340
0
102
{BLKREFS
331
5A8
102
}
  0
ENDTAB
  0
ENDSEC
  0
SECTION
  2
BLOCKS
  0
BLOCK
  5
D
100
AcDbEntity
  8
0
100
AcDbBlockBegin
  2
*MODEL_SPACE
 70
     0
 10
0.0
 20
0.0
 30
0.0
  3
*MODEL_SPACE
  1

  0
ENDBLK
  5
E
100
AcDbEntity
  8
0
100
AcDbBlockEnd
  0
BLOCK
  5
F
100
AcDbEntity
 67
     1
  8
0
100
AcDbBlockBegin
  2
*PAPER_SPACE
 70
     0
 10
0.0
 20
0.0
 30
0.0
  3
*PAPER_SPACE
  1

  0
ENDBLK
  5
10
100
AcDbEntity
 67
     1
  8
0
100
AcDbBlockEnd
  0
BLOCK
  5
53C
100
AcDbEntity
  8
レイヤー_2
 62
     7
100
AcDbBlockBegin
  2
AI9-BLK1
 70
     0
 10
0.0
 20
0.0
 30
0.0
  3
AI9-BLK1
  1

  0
MTEXT
  5
53D
100
AcDbEntity
  8
レイヤー_2
 62
     7
100
AcDbMText
 10
-7.408333
 20
2.835313
 30
0.0
 40
5.512152
 41
0.0
 71
     1
 72
     2
  1
\fMS Gothic|b0|i0|c128;\H5.5122;\C7;\U+03C6\U+0033\U+0035
  7
STD
210
0.0
220
0.0
230
1.0
 73
     1
 44
1.0
  0
ENDBLK
  5
53E
100
AcDbEntity
  8
レイヤー_2
100
AcDbBlockEnd
  0
BLOCK
  5
549
100
AcDbEntity
  8
レイヤー_2
 62
     7
100
AcDbBlockBegin
  2
AI9-BLK2
 70
     0
 10
0.0
 20
0.0
 30
0.0
  3
AI9-BLK2
  1

  0
MTEXT
  5
54B
100
AcDbEntity
  8
レイヤー_2
 62
     7
100
AcDbMText
 10
-9.928765
 20
3.954609
 30
0.0
 40
2.887318
 41
0.0
 71
     1
 72
     2
  1
\fMS PGothic|b0|i0|c128;\H2.8873;\C7;\U+63A5\U+7D9A\U+30BD\U+30B1\U+30C3\U+30C8
  7
STD
210
0.0
220
0.0
230
1.0
 73
     1
 44
1.0
  0
MTEXT
  5
54A
100
AcDbEntity
  8
レイヤー_2
 62
     7
100
AcDbMText
 10
-9.928765
 20
-0.98428
 30
0.0
 40
2.887318
 41
0.0
 71
     1
 72
     2
  1
\fMS PGothic|b0|i0|c128;\H2.8873;\C7;\U+FF08\U+9006\U+6B62\U+5F01\U+4ED8\U+FF09
  7
STD
210
0.0
220
0.0
230
1.0
 73
     1
 44
1.0
  0
ENDBLK
  5
54C
100
AcDbEntity
  8
レイヤー_2
100
AcDbBlockEnd
  0
BLOCK
  5
54F
100
AcDbEntity
  8
レイヤー_2
 62
     7
100
AcDbBlockBegin
  2
AI9-BLK3
 70
     0
 10
0.0
 20
0.0
 30
0.0
  3
AI9-BLK3
  1

  0
MTEXT
  5
59F
100
AcDbEntity
  8
レイヤー_2
  6
AI9-LType3
 62
     7
100
AcDbMText
 10
-10.952648
 20
-34.029448
 30
0.0
 40
5.512152
 41
0.0
 71
     1
 72
     2
  1
\fMS PGothic|b0|i0|c128;\H5.5122;\C7;\U+0047\U+0031\U+002F\U+0032
  7
STD
210
0.0
220
0.0
230
1.0
 73
     1
 44
1.0
  0
INSERT
  5
551
100
AcDbEntity
  8
レイヤー_2
 62
     7
100
AcDbBlockReference
  2
AI9-BLK4
 10
2.170066
 20
4.084505
 30
0.0
  0
ENDBLK
  5
5A0
100
AcDbEntity
  8
レイヤー_2
100
AcDbBlockEnd
  0
BLOCK
  5
552
100
AcDbEntity
  8
レイヤー_2
 62
     7
100
AcDbBlockBegin
  2
AI9-BLK4
 70
     0
 10
0.0
 20
0.0
 30
0.0
  3
AI9-BLK4
  1

  0
LINE
  5
59D
100
AcDbEntity
  8
レイヤー_2
  6
AI9-LType3
 62
     7
100
AcDbLine
 10
8.694387
 20
-27.15097
 30
0.0
 11
8.694387
 21
36.381759
 31
0.0
  0
LINE
  5
59C
100
AcDbEntity
  8
レイヤー_2
  6
AI9-LType3
 62
     7
100
AcDbLine
 10
8.570364
 20
-27.069666
 30
0.0
 11
-5.567619
 21
-15.429377
 31
0.0
  0
LINE
  5
59B
100
AcDbEntity
  8
レイヤー_2
  6
AI9-LType3
 62
     7
100
AcDbLine
 10
-5.567619
 20
-15.429377
 30
0.0
 11
-5.567619
 21
-36.381759
 31
0.0
  0
INSERT
  5
554
100
AcDbEntity
  8
レイヤー_2
 62
     7
100
AcDbBlockReference
  2
AI9-BLK5
 10
-5.567963
 20
-29.339467
 30
0.0
  0
ENDBLK
  5
59E
100
AcDbEntity
  8
レイヤー_2
100
AcDbBlockEnd
  0
BLOCK
  5
555
100
AcDbEntity
  8
レイヤー_2
 62
     7
100
AcDbBlockBegin
  2
AI9-BLK5
 70
     0
 10
0.0
 20
0.0
 30
0.0
  3
AI9-BLK5
  1

  0
SPLINE
  5
598
100
AcDbEntity
  8
レイヤー_2
 62
     7
100
AcDbSpline
210
0.0
220
0.0
230
1.0
 70
     8
 71
     3
 72
    95
 73
    91
 74
     0
 42
0.00000001
 43
0.00000001
 40
0.0
 40
0.0
 40
0.0
 40
0.0
 40
1.0
 40
1.0
 40
1.0
 40
2.0
 40
2.0
 40
2.0
 40
3.0
 40
3.0
 40
3.0
 40
4.0
 40
4.0
 40
4.0
 40
5.0
 40
5.0
 40
5.0
 40
6.0
 40
6.0
 40
6.0
 40
7.0
 40
7.0
 40
7.0
 40
8.0
 40
8.0
 40
8.0
 40
9.0
 40
9.0
 40
9.0
 40
10.0
 40
10.0
 40
10.0
 40
11.0
 40
11.0
 40
11.0
 40
12.0
 40
12.0
 40
12.0
 40
13.0
 40
13.0
 40
13.0
 40
14.0
 40
14.0
 40
14.0
 40
15.0
 40
15.0
 40
15.0
 40
16.0
 40
16.0
 40
16.0
 40
17.0
 40
17.0
 40
17.0
 40
18.0
 40
18.0
 40
18.0
 40
19.0
 40
19.0
 40
19.0
 40
20.0
 40
20.0
 40
20.0
 40
21.0
 40
21.0
 40
21.0
 40
22.0
 40
22.0
 40
22.0
 40
23.0
 40
23.0
 40
23.0
 40
24.0
 40
24.0
 40
24.0
 40
25.0
 40
25.0
 40
25.0
 40
26.0
 40
26.0
 40
26.0
 40
27.0
 40
27.0
 40
27.0
 40
28.0
 40
28.0
 40
28.0
 40
29.0
 40
29.0
 40
29.0
 40
30.0
 40
30.0
 40
30.0
 40
30.0
 10
1.1103542751736111
 20
6.2991848415798604
 30
0.0
 10
1.097951931423611
 20
6.2957397460937496
 30
0.0
 10
1.085549587673611
 20
6.292294650607638
 30
0.0
 10
1.0731472439236109
 20
6.2888495551215273
 30
0.0
 10
1.0607449001736111
 20
6.2854044596354157
 30
0.0
 10
1.0483425564236111
 20
6.282648383246527
 30
0.0
 10
1.035940212673611
 20
6.2798923068576382
 30
0.0
 10
1.023537868923611
 20
6.2771362304687495
 30
0.0
 10
1.0111355251736109
 20
6.2743801540798607
 30
0.0
 10
0.998733181423611
 20
6.2723130967881939
 30
0.0
 10
0.9863308376736111
 20
6.2702460394965271
 30
0.0
 10
0.973928493923611
 20
6.2688680013020823
 30
0.0
 10
0.9608371310763888
 20
6.2674899631076384
 30
0.0
 10
0.9484347873263888
 20
6.2661119249131936
 30
0.0
 10
0.9360324435763888
 20
6.2661119249131936
 30
0.0
 10
0.9229410807291666
 20
6.2661119249131936
 30
0.0
 10
0.8946912977430555
 20
6.2668009440104164
 30
0.0
 10
0.8664415147569444
 20
6.2702460394965271
 30
0.0
 10
0.8388807508680555
 20
6.2771362304687495
 30
0.0
 10
0.8099419487847221
 20
6.2840264214409718
 30
0.0
 10
0.781692165798611
 20
6.2916056315104161
 30
0.0
 10
0.7541314019097222
 20
6.2998738606770823
 30
0.0
 10
0.725881618923611
 20
6.3081420898437495
 30
0.0
 10
0.6976318359374999
 20
6.3164103190104157
 30
0.0
 10
0.6700710720486111
 20
6.3239895290798609
 30
0.0
 10
0.6431993272569444
 20
6.3308797200520823
 30
0.0
 10
0.6156385633680555
 20
6.3363918728298607
 30
0.0
 10
0.5880777994791666
 20
6.3398369683159714
 30
0.0
 10
0.5625840928819444
 20
6.3425930447048602
 30
0.0
 10
0.5357123480902777
 20
6.3419040256076382
 30
0.0
 10
0.5102186414930555
 20
6.3370808919270827
 30
0.0
 10
0.4716335720486111
 20
6.3281236436631936
 30
0.0
 10
0.4351155598958333
 20
6.3115871853298602
 30
0.0
 10
0.4034206814236111
 20
6.2881605360243054
 30
0.0
 10
0.3675916883680555
 20
6.2619778103298609
 30
0.0
 10
0.3338297526041666
 20
6.2337280273437496
 30
0.0
 10
0.3028238932291666
 20
6.2027221679687496
 30
0.0
 10
0.2704399956597222
 20
6.1703382703993048
 30
0.0
 10
0.2373670789930555
 20
6.1386433919270829
 30
0.0
 10
0.2049831814236111
 20
6.1069485134548609
 30
0.0
 10
0.1739773220486111
 20
6.0773206922743048
 30
0.0
 10
0.1409044053819444
 20
6.0504489474826384
 30
0.0
 10
0.1050754123263889
 20
6.0263332790798607
 30
0.0
 10
0.0740695529513889
 20
6.0049736870659718
 30
0.0
 10
0.0375515407986111
 20
5.9918823242187491
 30
0.0
 10
0.0003445095486111
 20
5.9863701714409716
 30
0.0
 10
-0.0368625217013889
 20
5.982236056857638
 30
0.0
 10
-0.0740695529513889
 20
5.9870591905381936
 30
0.0
 10
-0.1078314887152778
 20
6.002217610677083
 30
0.0
 10
-0.1457275390625
 20
6.0187540690104164
 30
0.0
 10
-0.1829345703125
 20
6.0359795464409718
 30
0.0
 10
-0.2208306206597222
 20
6.0532050238715271
 30
0.0
 10
-0.2601047092013888
 20
6.0718085394965273
 30
0.0
 10
-0.2986897786458333
 20
6.0924791124131943
 30
0.0
 10
-0.3358968098958333
 20
6.1152167426215271
 30
0.0
 10
-0.3717258029513889
 20
6.1351982964409713
 30
0.0
 10
-0.4096218532986111
 20
6.1517347547743046
 30
0.0
 10
-0.4482069227430555
 20
6.1648261176215273
 30
0.0
 10
-0.4826578776041666
 20
6.1765394422743052
 30
0.0
 10
-0.5191758897569444
 20
6.1806735568576388
 30
0.0
 10
-0.5550048828124999
 20
6.1765394422743052
 30
0.0
 10
-0.5811876085069444
 20
6.1724053276909716
 30
0.0
 10
-0.6066813151041666
 20
6.1634480794270825
 30
0.0
 10
-0.6294189453125
 20
6.1503567165798607
 30
0.0
 10
-0.6542236328125
 20
6.1358873155381941
 30
0.0
 10
-0.6783393012152778
 20
6.1193508572048607
 30
0.0
 10
-0.7010769314236111
 20
6.1014363606770825
 30
0.0
 10
-0.7245035807291667
 20
6.0821438259548604
 30
0.0
 10
-0.7486192491319443
 20
6.0621622721354163
 30
0.0
 10
-0.7720458984374999
 20
6.0421807183159713
 30
0.0
 10
-0.7954725477430555
 20
6.0221991644965271
 30
0.0
 10
-0.8195882161458332
 20
6.002906629774305
 30
0.0
 10
-0.8450819227430555
 20
5.9849921332465268
 30
0.0
 10
-0.8691975911458333
 20
5.9670776367187495
 30
0.0
 10
-0.8953803168402778
 20
5.9526082356770829
 30
0.0
 10
-0.9229410807291666
 20
5.940894911024305
 30
0.0
 10
-0.9346544053819443
 20
5.9353827582465275
 30
0.0
 10
-0.9463677300347222
 20
5.9312486436631939
 30
0.0
 10
-0.9587700737847221
 20
5.9284925672743052
 30
0.0
 10
-0.9711724175347222
 20
5.9250474717881936
 30
0.0
 10
-0.9835747612847221
 20
5.9222913953993048
 30
0.0
 10
-0.9959771050347221
 20
5.9195353190104161
 30
0.0
 10
-1.0083794487847222
 20
5.9174682617187493
 30
0.0
 10
-1.0207817925347222
 20
5.9154012044270825
 30
0.0
 10
-1.0331841362847221
 20
5.9140231662326386
 30
0.0
 10
-1.0462754991319443
 20
5.9126451280381938
 30
0.0
 10
-1.0586778428819443
 20
5.9119561089409718
 30
0.0
 10
-1.0717692057291666
 20
5.910578070746527
 30
0.0
 10
-1.0841715494791666
 20
5.909200032552083
 30
0.0
 10
-1.0972629123263888
 20
5.9085110134548602
 30
0.0
 10
-1.1096652560763889
 20
5.9078219943576382
 30
0.0
  0
LINE
  5
597
100
AcDbEntity
  8
レイヤー_2
 62
     7
100
AcDbLine
 10
-1.986098
 20
-0.541397
 30
0.0
 11
-1.869653
 21
-0.541397
 31
0.0
  0
LINE
  5
596
100
AcDbEntity
  8
レイヤー_2
 62
     7
100
AcDbLine
 10
-1.869653
 20
0.525894
 30
0.0
 11
-1.869653
 21
-0.541397
 31
0.0
  0
LINE
  5
595
100
AcDbEntity
  8
レイヤー_2
 62
     7
100
AcDbLine
 10
-1.869653
 20
-0.541397
 30
0.0
 11
-1.986098
 21
-0.743279
 31
0.0
  0
LINE
  5
594
100
AcDbEntity
  8
レイヤー_2
 62
     7
100
AcDbLine
 10
1.869653
 20
-0.541397
 30
0.0
 11
1.986787
 21
-0.541397
 31
0.0
  0
LINE
  5
593
100
AcDbEntity
  8
レイヤー_2
 62
     7
100
AcDbLine
 10
1.869653
 20
-0.541397
 30
0.0
 11
1.869653
 21
0.525894
 31
0.0
  0
LINE
  5
592
100
AcDbEntity
  8
レイヤー_2
 62
     7
100
AcDbLine
 10
1.986787
 20
-0.743279
 30
0.0
 11
1.869653
 21
-0.541397
 31
0.0
  0
LINE
  5
591
100
AcDbEntity
  8
レイヤー_2
 62
     7
100
AcDbLine
 10
1.096574
 20
0.635448
 30
0.0
 11
1.57682
 21
0.635448
 31
0.0
  0
LINE
  5
590
100
AcDbEntity
  8
レイヤー_2
 62
     7
100
AcDbLine
 10
1.096574
 20
3.087667
 30
0.0
 11
1.096574
 21
0.635448
 31
0.0
  0
LINE
  5
58F
100
AcDbEntity
  8
レイヤー_2
 62
     7
100
AcDbLine
 10
1.57682
 20
3.087667
 30
0.0
 11
1.096574
 21
3.087667
 31
0.0
  0
LINE
  5
58E
100
AcDbEntity
  8
レイヤー_2
 62
     7
100
AcDbLine
 10
1.57682
 20
3.087667
 30
0.0
 11
1.57682
 21
0.635448
 31
0.0
  0
LINE
  5
58D
100
AcDbEntity
  8
レイヤー_2
 62
     7
100
AcDbLine
 10
1.75252
 20
4.706862
 30
0.0
 11
0.000345
 21
4.706862
 31
0.0
  0
LINE
  5
58C
100
AcDbEntity
  8
レイヤー_2
 62
     7
100
AcDbLine
 10
2.453942
 20
0.5004
 30
0.0
 11
0.000345
 21
0.5004
 31
0.0
  0
LINE
  5
58B
100
AcDbEntity
  8
レイヤー_2
 62
     7
100
AcDbLine
 10
2.687519
 20
0.635448
 30
0.0
 11
2.453942
 21
0.5004
 31
0.0
  0
LINE
  5
58A
100
AcDbEntity
  8
レイヤー_2
 62
     7
100
AcDbLine
 10
1.75252
 20
4.706862
 30
0.0
 11
2.56005
 21
3.308842
 31
0.0
  0
LINE
  5
589
100
AcDbEntity
  8
レイヤー_2
 62
     7
100
AcDbLine
 10
2.687519
 20
3.087667
 30
0.0
 11
2.687519
 21
0.635448
 31
0.0
  0
LINE
  5
588
100
AcDbEntity
  8
レイヤー_2
 62
     7
100
AcDbLine
 10
-1.179945
 20
4.706862
 30
0.0
 11
0.000345
 21
4.706862
 31
0.0
  0
LINE
  5
587
100
AcDbEntity
  8
レイヤー_2
 62
     7
100
AcDbLine
 10
-2.044664
 20
0.5004
 30
0.0
 11
0.000345
 21
0.5004
 31
0.0
  0
LINE
  5
586
100
AcDbEntity
  8
レイヤー_2
 62
     7
100
AcDbLine
 10
-1.57682
 20
0.635448
 30
0.0
 11
-1.095885
 21
0.635448
 31
0.0
  0
LINE
  5
585
100
AcDbEntity
  8
レイヤー_2
 62
     7
100
AcDbLine
 10
-1.095885
 20
0.635448
 30
0.0
 11
-1.095885
 21
3.087667
 31
0.0
  0
LINE
  5
584
100
AcDbEntity
  8
レイヤー_2
 62
     7
100
AcDbLine
 10
-1.095885
 20
3.087667
 30
0.0
 11
-1.57682
 21
3.087667
 31
0.0
  0
LINE
  5
583
100
AcDbEntity
  8
レイヤー_2
 62
     7
100
AcDbLine
 10
-1.57682
 20
0.635448
 30
0.0
 11
-1.57682
 21
3.087667
 31
0.0
  0
LINE
  5
582
100
AcDbEntity
  8
レイヤー_2
 62
     7
100
AcDbLine
 10
0.000345
 20
4.706862
 30
0.0
 11
-1.75252
 21
4.706862
 31
0.0
  0
LINE
  5
581
100
AcDbEntity
  8
レイヤー_2
 62
     7
100
AcDbLine
 10
0.000345
 20
0.5004
 30
0.0
 11
-2.453942
 21
0.5004
 31
0.0
  0
LINE
  5
580
100
AcDbEntity
  8
レイヤー_2
 62
     7
100
AcDbLine
 10
-2.453942
 20
0.5004
 30
0.0
 11
-2.687519
 21
0.635448
 31
0.0
  0
LINE
  5
57F
100
AcDbEntity
  8
レイヤー_2
 62
     7
100
AcDbLine
 10
-2.687519
 20
3.087667
 30
0.0
 11
-1.75252
 21
4.706862
 31
0.0
  0
LINE
  5
57E
100
AcDbEntity
  8
レイヤー_2
 62
     7
100
AcDbLine
 10
-2.687519
 20
0.635448
 30
0.0
 11
-2.687519
 21
3.087667
 31
0.0
  0
LINE
  5
57D
100
AcDbEntity
  8
レイヤー_2
 62
     7
100
AcDbLine
 10
2.56005
 20
3.308842
 30
0.0
 11
2.687519
 21
3.087667
 31
0.0
  0
SPLINE
  5
57C
100
AcDbEntity
  8
レイヤー_2
 62
     7
100
AcDbSpline
210
0.0
220
0.0
230
1.0
 70
     8
 71
     3
 72
     8
 73
     4
 74
     0
 42
0.00000001
 43
0.00000001
 40
0.0
 40
0.0
 40
0.0
 40
0.0
 40
1.0
 40
1.0
 40
1.0
 40
1.0
 10
1.0965738932291667
 20
0.6354478624131944
 30
0.0
 10
0.7375949435763888
 20
0.5458753797743056
 30
0.0
 10
0.3696587456597222
 20
0.5004001193576388
 30
0.0
 10
0.0003445095486111
 20
0.5004001193576388
 30
0.0
  0
SPLINE
  5
57B
100
AcDbEntity
  8
レイヤー_2
 62
     7
100
AcDbSpline
210
0.0
220
0.0
230
1.0
 70
     8
 71
     3
 72
     8
 73
     4
 74
     0
 42
0.00000001
 43
0.00000001
 40
0.0
 40
0.0
 40
0.0
 40
0.0
 40
1.0
 40
1.0
 40
1.0
 40
1.0
 10
2.6875189887152775
 20
0.6354478624131944
 30
0.0
 10
2.3395643446180552
 20
0.4549248589409722
 30
0.0
 10
1.9254638671874997
 20
0.4549248589409722
 30
0.0
 10
1.5768202039930554
 20
0.6354478624131944
 30
0.0
  0
SPLINE
  5
57A
100
AcDbEntity
  8
レイヤー_2
 62
     7
100
AcDbSpline
210
0.0
220
0.0
230
1.0
 70
     8
 71
     3
 72
     8
 73
     4
 74
     0
 42
0.00000001
 43
0.00000001
 40
0.0
 40
0.0
 40
0.0
 40
0.0
 40
1.0
 40
1.0
 40
1.0
 40
1.0
 10
0.0003445095486111
 20
3.4928100585937498
 30
0.0
 10
0.4020426432291666
 20
3.4928100585937498
 30
0.0
 10
0.7906494140624999
 20
3.3494940863715277
 30
0.0
 10
1.0965738932291667
 20
3.087666829427083
 30
0.0
  0
SPLINE
  5
579
100
AcDbEntity
  8
レイヤー_2
 62
     7
100
AcDbSpline
210
0.0
220
0.0
230
1.0
 70
     8
 71
     3
 72
    11
 73
     7
 74
     0
 42
0.00000001
 43
0.00000001
 40
0.0
 40
0.0
 40
0.0
 40
0.0
 40
1.0
 40
1.0
 40
1.0
 40
2.0
 40
2.0
 40
2.0
 40
2.0
 10
1.5768202039930554
 20
3.087666829427083
 30
0.0
 10
1.6725938585069442
 20
3.3949693467881943
 30
0.0
 10
1.9991889105902776
 20
3.5658460828993053
 30
0.0
 10
2.3058024088541664
 20
3.4693834092881941
 30
0.0
 10
2.403643120659722
 20
3.4390665690104165
 30
0.0
 10
2.491148546006944
 20
3.3839450412326384
 30
0.0
 10
2.5600504557291663
 20
3.3088419596354162
 30
0.0
  0
SPLINE
  5
578
100
AcDbEntity
  8
レイヤー_2
 62
     7
100
AcDbSpline
210
0.0
220
0.0
230
1.0
 70
     8
 71
     3
 72
     8
 73
     4
 74
     0
 42
0.00000001
 43
0.00000001
 40
0.0
 40
0.0
 40
0.0
 40
0.0
 40
1.0
 40
1.0
 40
1.0
 40
1.0
 10
0.0003445095486111
 20
0.5004001193576388
 30
0.0
 10
-0.3696587456597222
 20
0.5004001193576388
 30
0.0
 10
-0.7375949435763888
 20
0.5458753797743056
 30
0.0
 10
-1.0958848741319442
 20
0.6354478624131944
 30
0.0
  0
SPLINE
  5
577
100
AcDbEntity
  8
レイヤー_2
 62
     7
100
AcDbSpline
210
0.0
220
0.0
230
1.0
 70
     8
 71
     3
 72
     8
 73
     4
 74
     0
 42
0.00000001
 43
0.00000001
 40
0.0
 40
0.0
 40
0.0
 40
0.0
 40
1.0
 40
1.0
 40
1.0
 40
1.0
 10
-1.5768202039930554
 20
0.6354478624131944
 30
0.0
 10
-1.9254638671874997
 20
0.4549248589409722
 30
0.0
 10
-2.3395643446180552
 20
0.4549248589409722
 30
0.0
 10
-2.6875189887152775
 20
0.6354478624131944
 30
0.0
  0
SPLINE
  5
576
100
AcDbEntity
  8
レイヤー_2
 62
     7
100
AcDbSpline
210
0.0
220
0.0
230
1.0
 70
     8
 71
     3
 72
     8
 73
     4
 74
     0
 42
0.00000001
 43
0.00000001
 40
0.0
 40
0.0
 40
0.0
 40
0.0
 40
1.0
 40
1.0
 40
1.0
 40
1.0
 10
-1.0958848741319442
 20
3.087666829427083
 30
0.0
 10
-0.7906494140624999
 20
3.3494940863715277
 30
0.0
 10
-0.4020426432291666
 20
3.4928100585937498
 30
0.0
 10
0.0003445095486111
 20
3.4928100585937498
 30
0.0
  0
SPLINE
  5
575
100
AcDbEntity
  8
レイヤー_2
 62
     7
100
AcDbSpline
210
0.0
220
0.0
230
1.0
 70
     8
 71
     3
 72
    11
 73
     7
 74
     0
 42
0.00000001
 43
0.00000001
 40
0.0
 40
0.0
 40
0.0
 40
0.0
 40
1.0
 40
1.0
 40
1.0
 40
2.0
 40
2.0
 40
2.0
 40
2.0
 10
-2.6875189887152775
 20
3.087666829427083
 30
0.0
 10
-2.5917453342013888
 20
3.3949693467881943
 30
0.0
 10
-2.2651502821180554
 20
3.5658460828993053
 30
0.0
 10
-1.9585367838541665
 20
3.4693834092881941
 30
0.0
 10
-1.7766357421874999
 20
3.4128838433159721
 30
0.0
 10
-1.6340087890624999
 20
3.2702568901909719
 30
0.0
 10
-1.5768202039930554
 20
3.087666829427083
 30
0.0
  0
LINE
  5
574
100
AcDbEntity
  8
レイヤー_2
 62
     7
100
AcDbLine
 10
2.775024
 20
-6.131409
 30
0.0
 11
3.03823
 21
-5.990849
 31
0.0
  0
LINE
  5
573
100
AcDbEntity
  8
レイヤー_2
 62
     7
100
AcDbLine
 10
-3.03823
 20
-5.990849
 30
0.0
 11
-2.775024
 21
-6.131409
 31
0.0
  0
LINE
  5
572
100
AcDbEntity
  8
レイヤー_2
 62
     7
100
AcDbLine
 10
3.03823
 20
-1.316543
 30
0.0
 11
2.775024
 21
-1.175983
 31
0.0
  0
LINE
  5
571
100
AcDbEntity
  8
レイヤー_2
 62
     7
100
AcDbLine
 10
-2.775024
 20
-1.175983
 30
0.0
 11
-3.03823
 21
-1.316543
 31
0.0
  0
LINE
  5
570
100
AcDbEntity
  8
レイヤー_2
 62
     7
100
AcDbLine
 10
2.687519
 20
-6.34156
 30
0.0
 11
-2.687519
 21
-6.34156
 31
0.0
  0
LINE
  5
56F
100
AcDbEntity
  8
レイヤー_2
 62
     7
100
AcDbLine
 10
1.844849
 20
-5.990849
 30
0.0
 11
1.168921
 21
-5.990849
 31
0.0
  0
LINE
  5
56E
100
AcDbEntity
  8
レイヤー_2
 62
     7
100
AcDbLine
 10
-1.168232
 20
-5.990849
 30
0.0
 11
-1.84416
 21
-5.990849
 31
0.0
  0
LINE
  5
56D
100
AcDbEntity
  8
レイヤー_2
 62
     7
100
AcDbLine
 10
-3.03823
 20
-5.990849
 30
0.0
 11
-2.687519
 21
-6.34156
 31
0.0
  0
LINE
  5
56C
100
AcDbEntity
  8
レイヤー_2
 62
     7
100
AcDbLine
 10
3.03823
 20
-5.990849
 30
0.0
 11
2.687519
 21
-6.34156
 31
0.0
  0
LINE
  5
56B
100
AcDbEntity
  8
レイヤー_2
 62
     7
100
AcDbLine
 10
-2.687519
 20
-0.965833
 30
0.0
 11
2.687519
 21
-0.965833
 31
0.0
  0
LINE
  5
56A
100
AcDbEntity
  8
レイヤー_2
 62
     7
100
AcDbLine
 10
-2.687519
 20
-0.965833
 30
0.0
 11
-3.03823
 21
-1.316543
 31
0.0
  0
LINE
  5
569
100
AcDbEntity
  8
レイヤー_2
 62
     7
100
AcDbLine
 10
-1.84416
 20
-1.316543
 30
0.0
 11
-1.168232
 21
-1.316543
 31
0.0
  0
LINE
  5
568
100
AcDbEntity
  8
レイヤー_2
 62
     7
100
AcDbLine
 10
1.168921
 20
-1.316543
 30
0.0
 11
1.844849
 21
-1.316543
 31
0.0
  0
LINE
  5
567
100
AcDbEntity
  8
レイヤー_2
 62
     7
100
AcDbLine
 10
2.687519
 20
-0.965833
 30
0.0
 11
3.03823
 21
-1.316543
 31
0.0
  0
LINE
  5
566
100
AcDbEntity
  8
レイヤー_2
 62
     7
100
AcDbLine
 10
3.03823
 20
-5.990849
 30
0.0
 11
3.03823
 21
-1.316543
 31
0.0
  0
LINE
  5
565
100
AcDbEntity
  8
レイヤー_2
 62
     7
100
AcDbLine
 10
1.844849
 20
-5.990849
 30
0.0
 11
1.844849
 21
-1.316543
 31
0.0
  0
LINE
  5
564
100
AcDbEntity
  8
レイヤー_2
 62
     7
100
AcDbLine
 10
1.168921
 20
-5.990849
 30
0.0
 11
1.168921
 21
-1.316543
 31
0.0
  0
LINE
  5
563
100
AcDbEntity
  8
レイヤー_2
 62
     7
100
AcDbLine
 10
-1.168232
 20
-5.990849
 30
0.0
 11
-1.168232
 21
-1.316543
 31
0.0
  0
LINE
  5
562
100
AcDbEntity
  8
レイヤー_2
 62
     7
100
AcDbLine
 10
-1.84416
 20
-5.990849
 30
0.0
 11
-1.84416
 21
-1.316543
 31
0.0
  0
LINE
  5
561
100
AcDbEntity
  8
レイヤー_2
 62
     7
100
AcDbLine
 10
-3.03823
 20
-5.990849
 30
0.0
 11
-3.03823
 21
-1.316543
 31
0.0
  0
SPLINE
  5
560
100
AcDbEntity
  8
レイヤー_2
 62
     7
100
AcDbSpline
210
0.0
220
0.0
230
1.0
 70
     8
 71
     3
 72
     8
 73
     4
 74
     0
 42
0.00000001
 43
0.00000001
 40
0.0
 40
0.0
 40
0.0
 40
0.0
 40
1.0
 40
1.0
 40
1.0
 40
1.0
 10
2.7750244140624996
 20
-6.1314086914062491
 30
0.0
 10
2.4684109157986107
 20
-6.2960842556423602
 30
0.0
 10
2.0894504123263888
 20
-6.2388956705729157
 30
0.0
 10
1.8448486328124998
 20
-5.9908487955729157
 30
0.0
  0
SPLINE
  5
55F
100
AcDbEntity
  8
レイヤー_2
 62
     7
100
AcDbSpline
210
0.0
220
0.0
230
1.0
 70
     8
 71
     3
 72
     8
 73
     4
 74
     0
 42
0.00000001
 43
0.00000001
 40
0.0
 40
0.0
 40
0.0
 40
0.0
 40
1.0
 40
1.0
 40
1.0
 40
1.0
 10
-1.8441596137152776
 20
-5.9908487955729157
 30
0.0
 10
-2.0894504123263888
 20
-6.2388956705729157
 30
0.0
 10
-2.4677218967013888
 20
-6.2960842556423602
 30
0.0
 10
-2.7750244140624996
 20
-6.1314086914062491
 30
0.0
  0
SPLINE
  5
55E
100
AcDbEntity
  8
レイヤー_2
 62
     7
100
AcDbSpline
210
0.0
220
0.0
230
1.0
 70
     8
 71
     3
 72
     8
 73
     4
 74
     0
 42
0.00000001
 43
0.00000001
 40
0.0
 40
0.0
 40
0.0
 40
0.0
 40
1.0
 40
1.0
 40
1.0
 40
1.0
 10
1.1689208984374999
 20
-5.9908487955729157
 30
0.0
 10
0.4206461588541666
 20
-6.3022854275173605
 30
0.0
 10
-0.4206461588541666
 20
-6.3022854275173605
 30
0.0
 10
-1.1682318793402777
 20
-5.9908487955729157
 30
0.0
  0
SPLINE
  5
55D
100
AcDbEntity
  8
レイヤー_2
 62
     7
100
AcDbSpline
210
0.0
220
0.0
230
1.0
 70
     8
 71
     3
 72
     8
 73
     4
 74
     0
 42
0.00000001
 43
0.00000001
 40
0.0
 40
0.0
 40
0.0
 40
0.0
 40
1.0
 40
1.0
 40
1.0
 40
1.0
 10
1.8448486328124998
 20
-1.3165432400173609
 30
0.0
 10
2.0894504123263888
 20
-1.0691853841145833
 30
0.0
 10
2.4684109157986107
 20
-1.0119967990451388
 30
0.0
 10
2.7750244140624996
 20
-1.1759833441840277
 30
0.0
  0
SPLINE
  5
55C
100
AcDbEntity
  8
レイヤー_2
 62
     7
100
AcDbSpline
210
0.0
220
0.0
230
1.0
 70
     8
 71
     3
 72
     8
 73
     4
 74
     0
 42
0.00000001
 43
0.00000001
 40
0.0
 40
0.0
 40
0.0
 40
0.0
 40
1.0
 40
1.0
 40
1.0
 40
1.0
 10
-2.7750244140624996
 20
-1.1759833441840277
 30
0.0
 10
-2.4677218967013888
 20
-1.0119967990451388
 30
0.0
 10
-2.0894504123263888
 20
-1.0691853841145833
 30
0.0
 10
-1.8441596137152776
 20
-1.3165432400173609
 30
0.0
  0
SPLINE
  5
55B
100
AcDbEntity
  8
レイヤー_2
 62
     7
100
AcDbSpline
210
0.0
220
0.0
230
1.0
 70
     8
 71
     3
 72
     8
 73
     4
 74
     0
 42
0.00000001
 43
0.00000001
 40
0.0
 40
0.0
 40
0.0
 40
0.0
 40
1.0
 40
1.0
 40
1.0
 40
1.0
 10
-1.1682318793402777
 20
-1.3165432400173609
 30
0.0
 10
-0.4206461588541666
 20
-1.0051066080729165
 30
0.0
 10
0.4206461588541666
 20
-1.0051066080729165
 30
0.0
 10
1.1689208984374999
 20
-1.3165432400173609
 30
0.0
  0
LINE
  5
55A
100
AcDbEntity
  8
レイヤー_2
 62
     7
100
AcDbLine
 10
1.110354
 20
4.706862
 30
0.0
 11
1.110354
 21
6.306764
 31
0.0
  0
LINE
  5
559
100
AcDbEntity
  8
レイヤー_2
 62
     7
100
AcDbLine
 10
-1.109665
 20
4.706862
 30
0.0
 11
-1.109665
 21
5.907822
 31
0.0
  0
LINE
  5
558
100
AcDbEntity
  8
レイヤー_2
 62
     7
100
AcDbLine
 10
-1.986098
 20
-0.743279
 30
0.0
 11
-1.986098
 21
0.5004
 31
0.0
  0
LINE
  5
557
100
AcDbEntity
  8
レイヤー_2
 62
     7
100
AcDbLine
 10
1.986787
 20
0.5004
 30
0.0
 11
1.986787
 21
-0.743279
 31
0.0
  0
LINE
  5
556
100
AcDbEntity
  8
レイヤー_2
 62
     7
100
AcDbLine
 10
1.869653
 20
-0.541397
 30
0.0
 11
-1.869653
 21
-0.541397
 31
0.0
  0
ENDBLK
  5
599
100
AcDbEntity
  8
レイヤー_2
100
AcDbBlockEnd
  0
BLOCK
  5
5A3
100
AcDbEntity
  8
レイヤー_2
  6
AI9-LType3
 62
     7
100
AcDbBlockBegin
  2
AI9-BLK6
 70
     0
 10
0.0
 20
0.0
 30
0.0
  3
AI9-BLK6
  1

  0
MTEXT
  5
5F2
100
AcDbEntity
  8
レイヤー_2
  6
AI9-LType3
 62
     7
100
AcDbMText
 10
-4.051002
 20
-34.029448
 30
0.0
 40
5.512152
 41
0.0
 71
     1
 72
     2
  1
\fMS PGothic|b0|i0|c128;\H5.5122;\C7;\U+0047\U+0031\U+002F\U+0032
  7
STD
210
0.0
220
0.0
230
1.0
 73
     1
 44
1.0
  0
INSERT
  5
5A5
100
AcDbEntity
  8
レイヤー_2
  6
AI9-LType3
 62
     7
100
AcDbBlockReference
  2
AI9-BLK7
 10
-2.128983
 20
4.084505
 30
0.0
  0
ENDBLK
  5
5F3
100
AcDbEntity
  8
レイヤー_2
100
AcDbBlockEnd
  0
BLOCK
  5
5A6
100
AcDbEntity
  8
レイヤー_2
  6
AI9-LType3
 62
     7
100
AcDbBlockBegin
  2
AI9-BLK7
 70
     0
 10
0.0
 20
0.0
 30
0.0
  3
AI9-BLK7
  1

  0
LINE
  5
5F0
100
AcDbEntity
  8
レイヤー_2
  6
AI9-LType3
 62
     7
100
AcDbLine
 10
-8.694387
 20
-27.15097
 30
0.0
 11
-8.694387
 21
36.381759
 31
0.0
  0
LINE
  5
5EF
100
AcDbEntity
  8
レイヤー_2
  6
AI9-LType3
 62
     7
100
AcDbLine
 10
-8.570364
 20
-27.069666
 30
0.0
 11
5.567619
 21
-15.429377
 31
0.0
  0
LINE
  5
5EE
100
AcDbEntity
  8
レイヤー_2
  6
AI9-LType3
 62
     7
100
AcDbLine
 10
5.567619
 20
-15.429377
 30
0.0
 11
5.567619
 21
-36.381759
 31
0.0
  0
INSERT
  5
5A8
100
AcDbEntity
  8
レイヤー_2
  6
AI9-LType3
 62
     7
100
AcDbBlockReference
  2
AI9-BLK8
 10
5.567963
 20
-29.339467
 30
0.0
  0
ENDBLK
  5
5F1
100
AcDbEntity
  8
レイヤー_2
100
AcDbBlockEnd
  0
BLOCK
  5
5A9
100
AcDbEntity
  8
レイヤー_2
  6
AI9-LType3
 62
     7
100
AcDbBlockBegin
  2
AI9-BLK8
 70
     0
 10
0.0
 20
0.0
 30
0.0
  3
AI9-BLK8
  1

  0
SPLINE
  5
5EC
100
AcDbEntity
  8
レイヤー_2
 62
     7
100
AcDbSpline
210
0.0
220
0.0
230
1.0
 70
     8
 71
     3
 72
    95
 73
    91
 74
     0
 42
0.00000001
 43
0.00000001
 40
0.0
 40
0.0
 40
0.0
 40
0.0
 40
1.0
 40
1.0
 40
1.0
 40
2.0
 40
2.0
 40
2.0
 40
3.0
 40
3.0
 40
3.0
 40
4.0
 40
4.0
 40
4.0
 40
5.0
 40
5.0
 40
5.0
 40
6.0
 40
6.0
 40
6.0
 40
7.0
 40
7.0
 40
7.0
 40
8.0
 40
8.0
 40
8.0
 40
9.0
 40
9.0
 40
9.0
 40
10.0
 40
10.0
 40
10.0
 40
11.0
 40
11.0
 40
11.0
 40
12.0
 40
12.0
 40
12.0
 40
13.0
 40
13.0
 40
13.0
 40
14.0
 40
14.0
 40
14.0
 40
15.0
 40
15.0
 40
15.0
 40
16.0
 40
16.0
 40
16.0
 40
17.0
 40
17.0
 40
17.0
 40
18.0
 40
18.0
 40
18.0
 40
19.0
 40
19.0
 40
19.0
 40
20.0
 40
20.0
 40
20.0
 40
21.0
 40
21.0
 40
21.0
 40
22.0
 40
22.0
 40
22.0
 40
23.0
 40
23.0
 40
23.0
 40
24.0
 40
24.0
 40
24.0
 40
25.0
 40
25.0
 40
25.0
 40
26.0
 40
26.0
 40
26.0
 40
27.0
 40
27.0
 40
27.0
 40
28.0
 40
28.0
 40
28.0
 40
29.0
 40
29.0
 40
29.0
 40
30.0
 40
30.0
 40
30.0
 40
30.0
 10
-1.1103542751736111
 20
6.2991848415798604
 30
0.0
 10
-1.097951931423611
 20
6.2957397460937496
 30
0.0
 10
-1.085549587673611
 20
6.292294650607638
 30
0.0
 10
-1.0731472439236109
 20
6.2888495551215273
 30
0.0
 10
-1.0607449001736111
 20
6.2854044596354157
 30
0.0
 10
-1.0483425564236111
 20
6.282648383246527
 30
0.0
 10
-1.035940212673611
 20
6.2798923068576382
 30
0.0
 10
-1.023537868923611
 20
6.2771362304687495
 30
0.0
 10
-1.0111355251736109
 20
6.2743801540798607
 30
0.0
 10
-0.998733181423611
 20
6.2723130967881939
 30
0.0
 10
-0.9863308376736111
 20
6.2702460394965271
 30
0.0
 10
-0.973928493923611
 20
6.2688680013020823
 30
0.0
 10
-0.9608371310763888
 20
6.2674899631076384
 30
0.0
 10
-0.9484347873263888
 20
6.2661119249131936
 30
0.0
 10
-0.9360324435763888
 20
6.2661119249131936
 30
0.0
 10
-0.9229410807291666
 20
6.2661119249131936
 30
0.0
 10
-0.8946912977430555
 20
6.2668009440104164
 30
0.0
 10
-0.8664415147569444
 20
6.2702460394965271
 30
0.0
 10
-0.8388807508680555
 20
6.2771362304687495
 30
0.0
 10
-0.8099419487847221
 20
6.2840264214409718
 30
0.0
 10
-0.781692165798611
 20
6.2916056315104161
 30
0.0
 10
-0.7541314019097222
 20
6.2998738606770823
 30
0.0
 10
-0.725881618923611
 20
6.3081420898437495
 30
0.0
 10
-0.6976318359374999
 20
6.3164103190104157
 30
0.0
 10
-0.6700710720486111
 20
6.3239895290798609
 30
0.0
 10
-0.6431993272569444
 20
6.3308797200520823
 30
0.0
 10
-0.6156385633680555
 20
6.3363918728298607
 30
0.0
 10
-0.5880777994791666
 20
6.3398369683159714
 30
0.0
 10
-0.5625840928819444
 20
6.3425930447048602
 30
0.0
 10
-0.5357123480902777
 20
6.3419040256076382
 30
0.0
 10
-0.5102186414930555
 20
6.3370808919270827
 30
0.0
 10
-0.4716335720486111
 20
6.3281236436631936
 30
0.0
 10
-0.4351155598958333
 20
6.3115871853298602
 30
0.0
 10
-0.4034206814236111
 20
6.2881605360243054
 30
0.0
 10
-0.3675916883680555
 20
6.2619778103298609
 30
0.0
 10
-0.3338297526041666
 20
6.2337280273437496
 30
0.0
 10
-0.3028238932291666
 20
6.2027221679687496
 30
0.0
 10
-0.2704399956597222
 20
6.1703382703993048
 30
0.0
 10
-0.2373670789930555
 20
6.1386433919270829
 30
0.0
 10
-0.2049831814236111
 20
6.1069485134548609
 30
0.0
 10
-0.1739773220486111
 20
6.0773206922743048
 30
0.0
 10
-0.1409044053819444
 20
6.0504489474826384
 30
0.0
 10
-0.1050754123263889
 20
6.0263332790798607
 30
0.0
 10
-0.0740695529513889
 20
6.0049736870659718
 30
0.0
 10
-0.0375515407986111
 20
5.9918823242187491
 30
0.0
 10
-0.0003445095486111
 20
5.9863701714409716
 30
0.0
 10
0.0368625217013889
 20
5.982236056857638
 30
0.0
 10
0.0740695529513889
 20
5.9870591905381936
 30
0.0
 10
0.1078314887152778
 20
6.002217610677083
 30
0.0
 10
0.1457275390625
 20
6.0187540690104164
 30
0.0
 10
0.1829345703125
 20
6.0359795464409718
 30
0.0
 10
0.2208306206597222
 20
6.0532050238715271
 30
0.0
 10
0.2601047092013888
 20
6.0718085394965273
 30
0.0
 10
0.2986897786458333
 20
6.0924791124131943
 30
0.0
 10
0.3358968098958333
 20
6.1152167426215271
 30
0.0
 10
0.3717258029513889
 20
6.1351982964409713
 30
0.0
 10
0.4096218532986111
 20
6.1517347547743046
 30
0.0
 10
0.4482069227430555
 20
6.1648261176215273
 30
0.0
 10
0.4826578776041666
 20
6.1765394422743052
 30
0.0
 10
0.5191758897569444
 20
6.1806735568576388
 30
0.0
 10
0.5550048828124999
 20
6.1765394422743052
 30
0.0
 10
0.5811876085069444
 20
6.1724053276909716
 30
0.0
 10
0.6066813151041666
 20
6.1634480794270825
 30
0.0
 10
0.6294189453125
 20
6.1503567165798607
 30
0.0
 10
0.6542236328125
 20
6.1358873155381941
 30
0.0
 10
0.6783393012152778
 20
6.1193508572048607
 30
0.0
 10
0.7010769314236111
 20
6.1014363606770825
 30
0.0
 10
0.7245035807291667
 20
6.0821438259548604
 30
0.0
 10
0.7486192491319443
 20
6.0621622721354163
 30
0.0
 10
0.7720458984374999
 20
6.0421807183159713
 30
0.0
 10
0.7954725477430555
 20
6.0221991644965271
 30
0.0
 10
0.8195882161458332
 20
6.002906629774305
 30
0.0
 10
0.8450819227430555
 20
5.9849921332465268
 30
0.0
 10
0.8691975911458333
 20
5.9670776367187495
 30
0.0
 10
0.8953803168402778
 20
5.9526082356770829
 30
0.0
 10
0.9229410807291666
 20
5.940894911024305
 30
0.0
 10
0.9346544053819443
 20
5.9353827582465275
 30
0.0
 10
0.9463677300347222
 20
5.9312486436631939
 30
0.0
 10
0.9587700737847221
 20
5.9284925672743052
 30
0.0
 10
0.9711724175347222
 20
5.9250474717881936
 30
0.0
 10
0.9835747612847221
 20
5.9222913953993048
 30
0.0
 10
0.9959771050347221
 20
5.9195353190104161
 30
0.0
 10
1.0083794487847222
 20
5.9174682617187493
 30
0.0
 10
1.0207817925347222
 20
5.9154012044270825
 30
0.0
 10
1.0331841362847221
 20
5.9140231662326386
 30
0.0
 10
1.0462754991319443
 20
5.9126451280381938
 30
0.0
 10
1.0586778428819443
 20
5.9119561089409718
 30
0.0
 10
1.0717692057291666
 20
5.910578070746527
 30
0.0
 10
1.0841715494791666
 20
5.909200032552083
 30
0.0
 10
1.0972629123263888
 20
5.9085110134548602
 30
0.0
 10
1.1096652560763889
 20
5.9078219943576382
 30
0.0
  0
LINE
  5
5EB
100
AcDbEntity
  8
レイヤー_2
 62
     7
100
AcDbLine
 10
1.986098
 20
-0.541397
 30
0.0
 11
1.869653
 21
-0.541397
 31
0.0
  0
LINE
  5
5EA
100
AcDbEntity
  8
レイヤー_2
 62
     7
100
AcDbLine
 10
1.869653
 20
0.525894
 30
0.0
 11
1.869653
 21
-0.541397
 31
0.0
  0
LINE
  5
5E9
100
AcDbEntity
  8
レイヤー_2
 62
     7
100
AcDbLine
 10
1.869653
 20
-0.541397
 30
0.0
 11
1.986098
 21
-0.743279
 31
0.0
  0
LINE
  5
5E8
100
AcDbEntity
  8
レイヤー_2
 62
     7
100
AcDbLine
 10
-1.869653
 20
-0.541397
 30
0.0
 11
-1.986787
 21
-0.541397
 31
0.0
  0
LINE
  5
5E7
100
AcDbEntity
  8
レイヤー_2
 62
     7
100
AcDbLine
 10
-1.869653
 20
-0.541397
 30
0.0
 11
-1.869653
 21
0.525894
 31
0.0
  0
LINE
  5
5E6
100
AcDbEntity
  8
レイヤー_2
 62
     7
100
AcDbLine
 10
-1.986787
 20
-0.743279
 30
0.0
 11
-1.869653
 21
-0.541397
 31
0.0
  0
LINE
  5
5E5
100
AcDbEntity
  8
レイヤー_2
 62
     7
100
AcDbLine
 10
-1.096574
 20
0.635448
 30
0.0
 11
-1.57682
 21
0.635448
 31
0.0
  0
LINE
  5
5E4
100
AcDbEntity
  8
レイヤー_2
 62
     7
100
AcDbLine
 10
-1.096574
 20
3.087667
 30
0.0
 11
-1.096574
 21
0.635448
 31
0.0
  0
LINE
  5
5E3
100
AcDbEntity
  8
レイヤー_2
 62
     7
100
AcDbLine
 10
-1.57682
 20
3.087667
 30
0.0
 11
-1.096574
 21
3.087667
 31
0.0
  0
LINE
  5
5E2
100
AcDbEntity
  8
レイヤー_2
 62
     7
100
AcDbLine
 10
-1.57682
 20
3.087667
 30
0.0
 11
-1.57682
 21
0.635448
 31
0.0
  0
LINE
  5
5E1
100
AcDbEntity
  8
レイヤー_2
 62
     7
100
AcDbLine
 10
-1.75252
 20
4.706862
 30
0.0
 11
-0.000345
 21
4.706862
 31
0.0
  0
LINE
  5
5E0
100
AcDbEntity
  8
レイヤー_2
 62
     7
100
AcDbLine
 10
-2.453942
 20
0.5004
 30
0.0
 11
-0.000345
 21
0.5004
 31
0.0
  0
LINE
  5
5DF
100
AcDbEntity
  8
レイヤー_2
 62
     7
100
AcDbLine
 10
-2.687519
 20
0.635448
 30
0.0
 11
-2.453942
 21
0.5004
 31
0.0
  0
LINE
  5
5DE
100
AcDbEntity
  8
レイヤー_2
 62
     7
100
AcDbLine
 10
-1.75252
 20
4.706862
 30
0.0
 11
-2.56005
 21
3.308842
 31
0.0
  0
LINE
  5
5DD
100
AcDbEntity
  8
レイヤー_2
 62
     7
100
AcDbLine
 10
-2.687519
 20
3.087667
 30
0.0
 11
-2.687519
 21
0.635448
 31
0.0
  0
LINE
  5
5DC
100
AcDbEntity
  8
レイヤー_2
 62
     7
100
AcDbLine
 10
1.179945
 20
4.706862
 30
0.0
 11
-0.000345
 21
4.706862
 31
0.0
  0
LINE
  5
5DB
100
AcDbEntity
  8
レイヤー_2
 62
     7
100
AcDbLine
 10
2.044664
 20
0.5004
 30
0.0
 11
-0.000345
 21
0.5004
 31
0.0
  0
LINE
  5
5DA
100
AcDbEntity
  8
レイヤー_2
 62
     7
100
AcDbLine
 10
1.57682
 20
0.635448
 30
0.0
 11
1.095885
 21
0.635448
 31
0.0
  0
LINE
  5
5D9
100
AcDbEntity
  8
レイヤー_2
 62
     7
100
AcDbLine
 10
1.095885
 20
0.635448
 30
0.0
 11
1.095885
 21
3.087667
 31
0.0
  0
LINE
  5
5D8
100
AcDbEntity
  8
レイヤー_2
 62
     7
100
AcDbLine
 10
1.095885
 20
3.087667
 30
0.0
 11
1.57682
 21
3.087667
 31
0.0
  0
LINE
  5
5D7
100
AcDbEntity
  8
レイヤー_2
 62
     7
100
AcDbLine
 10
1.57682
 20
0.635448
 30
0.0
 11
1.57682
 21
3.087667
 31
0.0
  0
LINE
  5
5D6
100
AcDbEntity
  8
レイヤー_2
 62
     7
100
AcDbLine
 10
-0.000345
 20
4.706862
 30
0.0
 11
1.75252
 21
4.706862
 31
0.0
  0
LINE
  5
5D5
100
AcDbEntity
  8
レイヤー_2
 62
     7
100
AcDbLine
 10
-0.000345
 20
0.5004
 30
0.0
 11
2.453942
 21
0.5004
 31
0.0
  0
LINE
  5
5D4
100
AcDbEntity
  8
レイヤー_2
 62
     7
100
AcDbLine
 10
2.453942
 20
0.5004
 30
0.0
 11
2.687519
 21
0.635448
 31
0.0
  0
LINE
  5
5D3
100
AcDbEntity
  8
レイヤー_2
 62
     7
100
AcDbLine
 10
2.687519
 20
3.087667
 30
0.0
 11
1.75252
 21
4.706862
 31
0.0
  0
LINE
  5
5D2
100
AcDbEntity
  8
レイヤー_2
 62
     7
100
AcDbLine
 10
2.687519
 20
0.635448
 30
0.0
 11
2.687519
 21
3.087667
 31
0.0
  0
LINE
  5
5D1
100
AcDbEntity
  8
レイヤー_2
 62
     7
100
AcDbLine
 10
-2.56005
 20
3.308842
 30
0.0
 11
-2.687519
 21
3.087667
 31
0.0
  0
SPLINE
  5
5D0
100
AcDbEntity
  8
レイヤー_2
 62
     7
100
AcDbSpline
210
0.0
220
0.0
230
1.0
 70
     8
 71
     3
 72
     8
 73
     4
 74
     0
 42
0.00000001
 43
0.00000001
 40
0.0
 40
0.0
 40
0.0
 40
0.0
 40
1.0
 40
1.0
 40
1.0
 40
1.0
 10
-1.0965738932291667
 20
0.6354478624131944
 30
0.0
 10
-0.7375949435763888
 20
0.5458753797743056
 30
0.0
 10
-0.3696587456597222
 20
0.5004001193576388
 30
0.0
 10
-0.0003445095486111
 20
0.5004001193576388
 30
0.0
  0
SPLINE
  5
5CF
100
AcDbEntity
  8
レイヤー_2
 62
     7
100
AcDbSpline
210
0.0
220
0.0
230
1.0
 70
     8
 71
     3
 72
     8
 73
     4
 74
     0
 42
0.00000001
 43
0.00000001
 40
0.0
 40
0.0
 40
0.0
 40
0.0
 40
1.0
 40
1.0
 40
1.0
 40
1.0
 10
-2.6875189887152775
 20
0.6354478624131944
 30
0.0
 10
-2.3395643446180552
 20
0.4549248589409722
 30
0.0
 10
-1.9254638671874997
 20
0.4549248589409722
 30
0.0
 10
-1.5768202039930554
 20
0.6354478624131944
 30
0.0
  0
SPLINE
  5
5CE
100
AcDbEntity
  8
レイヤー_2
 62
     7
100
AcDbSpline
210
0.0
220
0.0
230
1.0
 70
     8
 71
     3
 72
     8
 73
     4
 74
     0
 42
0.00000001
 43
0.00000001
 40
0.0
 40
0.0
 40
0.0
 40
0.0
 40
1.0
 40
1.0
 40
1.0
 40
1.0
 10
-0.0003445095486111
 20
3.4928100585937498
 30
0.0
 10
-0.4020426432291666
 20
3.4928100585937498
 30
0.0
 10
-0.7906494140624999
 20
3.3494940863715277
 30
0.0
 10
-1.0965738932291667
 20
3.087666829427083
 30
0.0
  0
SPLINE
  5
5CD
100
AcDbEntity
  8
レイヤー_2
 62
     7
100
AcDbSpline
210
0.0
220
0.0
230
1.0
 70
     8
 71
     3
 72
    11
 73
     7
 74
     0
 42
0.00000001
 43
0.00000001
 40
0.0
 40
0.0
 40
0.0
 40
0.0
 40
1.0
 40
1.0
 40
1.0
 40
2.0
 40
2.0
 40
2.0
 40
2.0
 10
-1.5768202039930554
 20
3.087666829427083
 30
0.0
 10
-1.6725938585069442
 20
3.3949693467881943
 30
0.0
 10
-1.9991889105902776
 20
3.5658460828993053
 30
0.0
 10
-2.3058024088541664
 20
3.4693834092881941
 30
0.0
 10
-2.403643120659722
 20
3.4390665690104165
 30
0.0
 10
-2.491148546006944
 20
3.3839450412326384
 30
0.0
 10
-2.5600504557291663
 20
3.3088419596354162
 30
0.0
  0
SPLINE
  5
5CC
100
AcDbEntity
  8
レイヤー_2
 62
     7
100
AcDbSpline
210
0.0
220
0.0
230
1.0
 70
     8
 71
     3
 72
     8
 73
     4
 74
     0
 42
0.00000001
 43
0.00000001
 40
0.0
 40
0.0
 40
0.0
 40
0.0
 40
1.0
 40
1.0
 40
1.0
 40
1.0
 10
-0.0003445095486111
 20
0.5004001193576388
 30
0.0
 10
0.3696587456597222
 20
0.5004001193576388
 30
0.0
 10
0.7375949435763888
 20
0.5458753797743056
 30
0.0
 10
1.0958848741319442
 20
0.6354478624131944
 30
0.0
  0
SPLINE
  5
5CB
100
AcDbEntity
  8
レイヤー_2
 62
     7
100
AcDbSpline
210
0.0
220
0.0
230
1.0
 70
     8
 71
     3
 72
     8
 73
     4
 74
     0
 42
0.00000001
 43
0.00000001
 40
0.0
 40
0.0
 40
0.0
 40
0.0
 40
1.0
 40
1.0
 40
1.0
 40
1.0
 10
1.5768202039930554
 20
0.6354478624131944
 30
0.0
 10
1.9254638671874997
 20
0.4549248589409722
 30
0.0
 10
2.3395643446180552
 20
0.4549248589409722
 30
0.0
 10
2.6875189887152775
 20
0.6354478624131944
 30
0.0
  0
SPLINE
  5
5CA
100
AcDbEntity
  8
レイヤー_2
 62
     7
100
AcDbSpline
210
0.0
220
0.0
230
1.0
 70
     8
 71
     3
 72
     8
 73
     4
 74
     0
 42
0.00000001
 43
0.00000001
 40
0.0
 40
0.0
 40
0.0
 40
0.0
 40
1.0
 40
1.0
 40
1.0
 40
1.0
 10
1.0958848741319442
 20
3.087666829427083
 30
0.0
 10
0.7906494140624999
 20
3.3494940863715277
 30
0.0
 10
0.4020426432291666
 20
3.4928100585937498
 30
0.0
 10
-0.0003445095486111
 20
3.4928100585937498
 30
0.0
  0
SPLINE
  5
5C9
100
AcDbEntity
  8
レイヤー_2
 62
     7
100
AcDbSpline
210
0.0
220
0.0
230
1.0
 70
     8
 71
     3
 72
    11
 73
     7
 74
     0
 42
0.00000001
 43
0.00000001
 40
0.0
 40
0.0
 40
0.0
 40
0.0
 40
1.0
 40
1.0
 40
1.0
 40
2.0
 40
2.0
 40
2.0
 40
2.0
 10
2.6875189887152775
 20
3.087666829427083
 30
0.0
 10
2.5917453342013888
 20
3.3949693467881943
 30
0.0
 10
2.2651502821180554
 20
3.5658460828993053
 30
0.0
 10
1.9585367838541665
 20
3.4693834092881941
 30
0.0
 10
1.7766357421874999
 20
3.4128838433159721
 30
0.0
 10
1.6340087890624999
 20
3.2702568901909719
 30
0.0
 10
1.5768202039930554
 20
3.087666829427083
 30
0.0
  0
LINE
  5
5C8
100
AcDbEntity
  8
レイヤー_2
 62
     7
100
AcDbLine
 10
-2.775024
 20
-6.131409
 30
0.0
 11
-3.03823
 21
-5.990849
 31
0.0
  0
LINE
  5
5C7
100
AcDbEntity
  8
レイヤー_2
 62
     7
100
AcDbLine
 10
3.03823
 20
-5.990849
 30
0.0
 11
2.775024
 21
-6.131409
 31
0.0
  0
LINE
  5
5C6
100
AcDbEntity
  8
レイヤー_2
 62
     7
100
AcDbLine
 10
-3.03823
 20
-1.316543
 30
0.0
 11
-2.775024
 21
-1.175983
 31
0.0
  0
LINE
  5
5C5
100
AcDbEntity
  8
レイヤー_2
 62
     7
100
AcDbLine
 10
2.775024
 20
-1.175983
 30
0.0
 11
3.03823
 21
-1.316543
 31
0.0
  0
LINE
  5
5C4
100
AcDbEntity
  8
レイヤー_2
 62
     7
100
AcDbLine
 10
-2.687519
 20
-6.34156
 30
0.0
 11
2.687519
 21
-6.34156
 31
0.0
  0
LINE
  5
5C3
100
AcDbEntity
  8
レイヤー_2
 62
     7
100
AcDbLine
 10
-1.844849
 20
-5.990849
 30
0.0
 11
-1.168921
 21
-5.990849
 31
0.0
  0
LINE
  5
5C2
100
AcDbEntity
  8
レイヤー_2
 62
     7
100
AcDbLine
 10
1.168232
 20
-5.990849
 30
0.0
 11
1.84416
 21
-5.990849
 31
0.0
  0
LINE
  5
5C1
100
AcDbEntity
  8
レイヤー_2
 62
     7
100
AcDbLine
 10
3.03823
 20
-5.990849
 30
0.0
 11
2.687519
 21
-6.34156
 31
0.0
  0
LINE
  5
5C0
100
AcDbEntity
  8
レイヤー_2
 62
     7
100
AcDbLine
 10
-3.03823
 20
-5.990849
 30
0.0
 11
-2.687519
 21
-6.34156
 31
0.0
  0
LINE
  5
5BF
100
AcDbEntity
  8
レイヤー_2
 62
     7
100
AcDbLine
 10
2.687519
 20
-0.965833
 30
0.0
 11
-2.687519
 21
-0.965833
 31
0.0
  0
LINE
  5
5BE
100
AcDbEntity
  8
レイヤー_2
 62
     7
100
AcDbLine
 10
2.687519
 20
-0.965833
 30
0.0
 11
3.03823
 21
-1.316543
 31
0.0
  0
LINE
  5
5BD
100
AcDbEntity
  8
レイヤー_2
 62
     7
100
AcDbLine
 10
1.84416
 20
-1.316543
 30
0.0
 11
1.168232
 21
-1.316543
 31
0.0
  0
LINE
  5
5BC
100
AcDbEntity
  8
レイヤー_2
 62
     7
100
AcDbLine
 10
-1.168921
 20
-1.316543
 30
0.0
 11
-1.844849
 21
-1.316543
 31
0.0
  0
LINE
  5
5BB
100
AcDbEntity
  8
レイヤー_2
 62
     7
100
AcDbLine
 10
-2.687519
 20
-0.965833
 30
0.0
 11
-3.03823
 21
-1.316543
 31
0.0
  0
LINE
  5
5BA
100
AcDbEntity
  8
レイヤー_2
 62
     7
100
AcDbLine
 10
-3.03823
 20
-5.990849
 30
0.0
 11
-3.03823
 21
-1.316543
 31
0.0
  0
LINE
  5
5B9
100
AcDbEntity
  8
レイヤー_2
 62
     7
100
AcDbLine
 10
-1.844849
 20
-5.990849
 30
0.0
 11
-1.844849
 21
-1.316543
 31
0.0
  0
LINE
  5
5B8
100
AcDbEntity
  8
レイヤー_2
 62
     7
100
AcDbLine
 10
-1.168921
 20
-5.990849
 30
0.0
 11
-1.168921
 21
-1.316543
 31
0.0
  0
LINE
  5
5B7
100
AcDbEntity
  8
レイヤー_2
 62
     7
100
AcDbLine
 10
1.168232
 20
-5.990849
 30
0.0
 11
1.168232
 21
-1.316543
 31
0.0
  0
LINE
  5
5B6
100
AcDbEntity
  8
レイヤー_2
 62
     7
100
AcDbLine
 10
1.84416
 20
-5.990849
 30
0.0
 11
1.84416
 21
-1.316543
 31
0.0
  0
LINE
  5
5B5
100
AcDbEntity
  8
レイヤー_2
 62
     7
100
AcDbLine
 10
3.03823
 20
-5.990849
 30
0.0
 11
3.03823
 21
-1.316543
 31
0.0
  0
SPLINE
  5
5B4
100
AcDbEntity
  8
レイヤー_2
 62
     7
100
AcDbSpline
210
0.0
220
0.0
230
1.0
 70
     8
 71
     3
 72
     8
 73
     4
 74
     0
 42
0.00000001
 43
0.00000001
 40
0.0
 40
0.0
 40
0.0
 40
0.0
 40
1.0
 40
1.0
 40
1.0
 40
1.0
 10
-2.7750244140624996
 20
-6.1314086914062491
 30
0.0
 10
-2.4684109157986107
 20
-6.2960842556423602
 30
0.0
 10
-2.0894504123263888
 20
-6.2388956705729157
 30
0.0
 10
-1.8448486328124998
 20
-5.9908487955729157
 30
0.0
  0
SPLINE
  5
5B3
100
AcDbEntity
  8
レイヤー_2
 62
     7
100
AcDbSpline
210
0.0
220
0.0
230
1.0
 70
     8
 71
     3
 72
     8
 73
     4
 74
     0
 42
0.00000001
 43
0.00000001
 40
0.0
 40
0.0
 40
0.0
 40
0.0
 40
1.0
 40
1.0
 40
1.0
 40
1.0
 10
1.8441596137152776
 20
-5.9908487955729157
 30
0.0
 10
2.0894504123263888
 20
-6.2388956705729157
 30
0.0
 10
2.4677218967013888
 20
-6.2960842556423602
 30
0.0
 10
2.7750244140624996
 20
-6.1314086914062491
 30
0.0
  0
SPLINE
  5
5B2
100
AcDbEntity
  8
レイヤー_2
 62
     7
100
AcDbSpline
210
0.0
220
0.0
230
1.0
 70
     8
 71
     3
 72
     8
 73
     4
 74
     0
 42
0.00000001
 43
0.00000001
 40
0.0
 40
0.0
 40
0.0
 40
0.0
 40
1.0
 40
1.0
 40
1.0
 40
1.0
 10
-1.1689208984374999
 20
-5.9908487955729157
 30
0.0
 10
-0.4206461588541666
 20
-6.3022854275173605
 30
0.0
 10
0.4206461588541666
 20
-6.3022854275173605
 30
0.0
 10
1.1682318793402777
 20
-5.9908487955729157
 30
0.0
  0
SPLINE
  5
5B1
100
AcDbEntity
  8
レイヤー_2
 62
     7
100
AcDbSpline
210
0.0
220
0.0
230
1.0
 70
     8
 71
     3
 72
     8
 73
     4
 74
     0
 42
0.00000001
 43
0.00000001
 40
0.0
 40
0.0
 40
0.0
 40
0.0
 40
1.0
 40
1.0
 40
1.0
 40
1.0
 10
-1.8448486328124998
 20
-1.3165432400173609
 30
0.0
 10
-2.0894504123263888
 20
-1.0691853841145833
 30
0.0
 10
-2.4684109157986107
 20
-1.0119967990451388
 30
0.0
 10
-2.7750244140624996
 20
-1.1759833441840277
 30
0.0
  0
SPLINE
  5
5B0
100
AcDbEntity
  8
レイヤー_2
 62
     7
100
AcDbSpline
210
0.0
220
0.0
230
1.0
 70
     8
 71
     3
 72
     8
 73
     4
 74
     0
 42
0.00000001
 43
0.00000001
 40
0.0
 40
0.0
 40
0.0
 40
0.0
 40
1.0
 40
1.0
 40
1.0
 40
1.0
 10
2.7750244140624996
 20
-1.1759833441840277
 30
0.0
 10
2.4677218967013888
 20
-1.0119967990451388
 30
0.0
 10
2.0894504123263888
 20
-1.0691853841145833
 30
0.0
 10
1.8441596137152776
 20
-1.3165432400173609
 30
0.0
  0
SPLINE
  5
5AF
100
AcDbEntity
  8
レイヤー_2
 62
     7
100
AcDbSpline
210
0.0
220
0.0
230
1.0
 70
     8
 71
     3
 72
     8
 73
     4
 74
     0
 42
0.00000001
 43
0.00000001
 40
0.0
 40
0.0
 40
0.0
 40
0.0
 40
1.0
 40
1.0
 40
1.0
 40
1.0
 10
1.1682318793402777
 20
-1.3165432400173609
 30
0.0
 10
0.4206461588541666
 20
-1.0051066080729165
 30
0.0
 10
-0.4206461588541666
 20
-1.0051066080729165
 30
0.0
 10
-1.1689208984374999
 20
-1.3165432400173609
 30
0.0
  0
LINE
  5
5AE
100
AcDbEntity
  8
レイヤー_2
 62
     7
100
AcDbLine
 10
-1.110354
 20
4.706862
 30
0.0
 11
-1.110354
 21
6.306764
 31
0.0
  0
LINE
  5
5AD
100
AcDbEntity
  8
レイヤー_2
 62
     7
100
AcDbLine
 10
1.109665
 20
4.706862
 30
0.0
 11
1.109665
 21
5.907822
 31
0.0
  0
LINE
  5
5AC
100
AcDbEntity
  8
レイヤー_2
 62
     7
100
AcDbLine
 10
1.986098
 20
-0.743279
 30
0.0
 11
1.986098
 21
0.5004
 31
0.0
  0
LINE
  5
5AB
100
AcDbEntity
  8
レイヤー_2
 62
     7
100
AcDbLine
 10
-1.986787
 20
0.5004
 30
0.0
 11
-1.986787
 21
-0.743279
 31
0.0
  0
LINE
  5
5AA
100
AcDbEntity
  8
レイヤー_2
 62
     7
100
AcDbLine
 10
-1.869653
 20
-0.541397
 30
0.0
 11
1.869653
 21
-0.541397
 31
0.0
  0
ENDBLK
  5
5ED
100
AcDbEntity
  8
レイヤー_2
100
AcDbBlockEnd
  0
ENDSEC
  0
SECTION
  2
ENTITIES
  0
MTEXT
  5
615
100
AcDbEntity
  8
レイヤー_1
 62
     7
100
AcDbMText
 10
47.801389
 20
55.180324
 30
0.0
 40
3.674768
 41
0.0
 71
     1
 72
     2
  1
\fOsaka|b0|i0|c128;\H3.6748;\C7;\U+0033\U+0033\U+002E\U+0035\U+0032\U+0031\U+002E\U+0036\U+0037\U+0030\U+002E\U+0058\U+0058
  7
STD
210
0.0
220
0.0
230
1.0
 73
     1
 44
1.0
  0
MTEXT
  5
614
100
AcDbEntity
  8
レイヤー_1
 62
     7
100
AcDbMText
 10
39.6875
 20
57.666567
 30
0.0
 40
1.574901
 41
0.0
 71
     1
 72
     2
  1
\fOsaka|b0|i0|c128;\H1.5749;\C7;\U+54C1\U+756A
  7
STD
210
0.0
220
0.0
230
1.0
 73
     1
 44
1.0
  0
MTEXT
  5
613
100
AcDbEntity
  8
レイヤー_1
 62
     7
100
AcDbMText
 10
47.801389
 20
34.017542
 30
0.0
 40
3.149486
 41
0.0
 71
     1
 72
     2
  1
\fOsaka|b0|i0|c128;\H3.1495;\C7;\U+FF11\U+7A74\U+578B\U+30B7\U+30F3\U+30B0\U+30EB\U+30EC\U+30D0\U+30FC\U+6D17\U+9762\U+7528\U+6DF7\U+5408\U+6813
  7
STD
210
0.0
220
0.0
230
1.0
 73
     1
 44
1.0
  0
MTEXT
  5
612
100
AcDbEntity
  8
レイヤー_1
 62
     7
100
AcDbMText
 10
39.6875
 20
36.499901
 30
0.0
 40
1.574901
 41
0.0
 71
     1
 72
     2
  1
\fOsaka|b0|i0|c128;\H1.5749;\C7;\U+54C1
  7
STD
210
0.0
220
0.0
230
1.0
 73
     1
 44
1.0
  0
MTEXT
  5
611
100
AcDbEntity
  8
レイヤー_1
 62
     7
100
AcDbMText
 10
47.801389
 20
44.013142
 30
0.0
 40
3.149486
 41
0.0
 71
     1
 72
     2
  1
\fOsaka|b0|i0|c128;\H3.1495;\C7;\U+FF29\U+FF2D\U+FF2F
  7
STD
210
0.0
220
0.0
230
1.0
 73
     1
 44
1.0
  0
POLYLINE
  5
60B
100
AcDbEntity
  8
レイヤー_1
 62
     7
100
AcDb2dPolyline
 66
     1
 10
0.0
 20
0.0
 30
0.0
 70
     1
  0
VERTEX
  5
60C
100
AcDbEntity
  8
レイヤー_1
 62
     7
100
AcDbVertex
100
AcDb2dVertex
 10
23.636111
 20
27.163889
 30
0.0
  0
VERTEX
  5
60D
100
AcDbEntity
  8
レイヤー_1
 62
     7
100
AcDbVertex
100
AcDb2dVertex
 10
198.613889
 20
27.163889
 30
0.0
  0
VERTEX
  5
60E
100
AcDbEntity
  8
レイヤー_1
 62
     7
100
AcDbVertex
100
AcDb2dVertex
 10
198.613889
 20
276.577778
 30
0.0
  0
VERTEX
  5
60F
100
AcDbEntity
  8
レイヤー_1
 62
     7
100
AcDbVertex
100
AcDb2dVertex
 10
23.636111
 20
276.577778
 30
0.0
  0
SEQEND
  5
610
100
AcDbEntity
  8
レイヤー_1
 62
     7
  0
LINE
  5
60A
100
AcDbEntity
  8
レイヤー_1
 62
     7
100
AcDbLine
 10
170.568056
 20
37.570833
 30
0.0
 11
27.693056
 21
37.570833
 31
0.0
  0
LINE
  5
609
100
AcDbEntity
  8
レイヤー_1
 62
     7
100
AcDbLine
 10
170.568056
 20
48.154167
 30
0.0
 11
27.693056
 21
48.154167
 31
0.0
  0
LINE
  5
608
100
AcDbEntity
  8
レイヤー_1
 62
     7
100
AcDbLine
 10
23.636111
 20
58.913889
 30
0.0
 11
198.261111
 21
58.913889
 31
0.0
  0
LINE
  5
607
100
AcDbEntity
  8
レイヤー_1
 62
     7
100
AcDbLine
 10
170.744444
 20
58.913889
 30
0.0
 11
170.744444
 21
27.516667
 31
0.0
  0
MTEXT
  5
606
100
AcDbEntity
  8
レイヤー_1
 62
     7
100
AcDbMText
 10
29.104167
 20
47.083234
 30
0.0
 40
1.574901
 41
0.0
 71
     1
 72
     2
  1
\fOsaka|b0|i0|c128;\H1.5749;\C7;\U+30BB\U+30EC\U+30AF\U+30B7\U+30E7\U+30F3
  7
STD
210
0.0
220
0.0
230
1.0
 73
     1
 44
1.0
  0
MTEXT
  5
605
100
AcDbEntity
  8
レイヤー_1
 62
     7
100
AcDbMText
 10
174.095833
 20
55.713375
 30
0.0
 40
3.149801
 41
0.0
 71
     1
 72
     2
  1
\fHeiseiKakuGothicCAN W9|b0|i0|c128;\H3.1498;\C253;\U+5BF8\U+6CD5\U+53C2\U+8003\U+56F3
  7
STD
210
0.0
220
0.0
230
1.0
 11
0.9999
 21
0.0
 31
0.0
 73
     1
 44
1.0
  0
LINE
  5
604
100
AcDbEntity
  8
レイヤー_1
 62
     7
100
AcDbLine
 10
27.516667
 20
58.913889
 30
0.0
 11
27.516667
 21
27.516667
 31
0.0
  0
IMAGE
  5
601
100
AcDbEntity
  8
レイヤー_1
  6
AI9-LType3
 62
     7
 92
        0
100
AcDbRasterImage
 90
        0
 10
172.155556
 20
29.633016
 30
0.0
 11
0.352531
 21
0.0
 31
0.0
 12
0.0
 22
0.352813
 32
0.0
 13
70.0
 23
9.0
340
603
 70
     7
280
     0
281
    50
282
    50
283
     0
360
602
 71
     1
 91
        2
 14
-0.5
 24
-0.5
 14
69.5
 24
8.5
  0
IMAGE
  5
5FE
100
AcDbEntity
  8
レイヤー_1
  6
AI9-LType3
 62
     7
 92
        0
100
AcDbRasterImage
 90
        0
 10
172.155556
 20
29.633016
 30
0.0
 11
0.352531
 21
0.0
 31
0.0
 12
0.0
 22
0.352813
 32
0.0
 13
70.0
 23
9.0
340
600
 70
     7
280
     0
281
    50
282
    50
283
     0
360
5FF
 71
     1
 91
        2
 14
-0.5
 24
-0.5
 14
69.5
 24
8.5
  0
MTEXT
  5
5FD
100
AcDbEntity
  8
レイヤー_1
  6
AI9-LType3
 62
     7
100
AcDbMText
 10
113.418056
 20
47.083234
 30
0.0
 40
1.574901
 41
0.0
 71
     1
 72
     2
  1
\fOsaka|b0|i0|c128;\H1.5749;\C7;\U+4ED5\U+4E0A
  7
STD
210
0.0
220
0.0
230
1.0
 73
     1
 44
1.0
  0
MTEXT
  5
5FC
100
AcDbEntity
  8
レイヤー_1
  6
AI9-LType3
 62
     7
100
AcDbMText
 10
124.765511
 20
42.026497
 30
0.0
 40
1.162842
 41
0.0
 71
     1
 72
     2
  1
\fOsaka|b0|i0|c128;\H1.1628;\W2.71;\C7;
  7
STD
210
0.0
220
0.0
230
1.0
 73
     1
 44
1.0
  0
MTEXT
  5
5FA
100
AcDbEntity
  8
レイヤー_2
  6
AI9-LType3
 62
     7
100
AcDbMText
 10
46.565805
 20
249.602753
 30
0.0
 40
6.299603
 41
0.0
 71
     1
 72
     2
  1
\fMS Gothic|b0|i0|c128;\H6.2996;\C7;\U+03C6\U+0034\U+0037
  7
STD
210
0.0
220
0.0
230
1.0
 73
     1
 44
1.0
  0
MTEXT
  5
5F9
100
AcDbEntity
  8
レイヤー_2
  6
AI9-LType3
 62
     7
100
AcDbMText
 10
122.443861
 20
249.275469
 30
0.0
 40
6.299603
 41
0.0
 71
     1
 72
     2
  1
\fMS Gothic|b0|i0|c128;\H6.2996;\C7;\U+0031\U+0033\U+0030
  7
STD
210
0.0
220
0.0
230
1.0
 73
     1
 44
1.0
  0
MTEXT
  5
5F8
100
AcDbEntity
  8
レイヤー_2
  6
AI9-LType3
 62
     7
100
AcDbMText
 10
135.119702
 20
195.517123
 30
0.0
 40
6.299603
 41
0.0
 71
     1
 72
     2
  1
\fMS Gothic|b0|i0|c128;\H6.2996;\C7;\U+0035\U+0030\U+00B0
  7
STD
210
0.0
220
0.0
230
1.0
 11
0.76604
 21
-0.64279
 31
0.0
 73
     1
 44
1.0
  0
MTEXT
  5
5F7
100
AcDbEntity
  8
レイヤー_2
  6
AI9-LType3
 62
     7
100
AcDbMText
 10
40.548873
 20
135.680263
 30
0.0
 40
6.299603
 41
0.0
 71
     1
 72
     2
  1
\fMS Gothic|b0|i0|c128;\H6.2996;\C7;\U+006D\U+0061\U+0078\U+002E\U+0035\U+0035
  7
STD
210
0.0
220
0.0
230
1.0
 11
0.0
 21
1.0
 31
0.0
 73
     1
 44
1.0
  0
MTEXT
  5
5F6
100
AcDbEntity
  8
レイヤー_2
  6
AI9-LType3
 62
     7
100
AcDbMText
 10
185.151933
 20
193.63297
 30
0.0
 40
6.299603
 41
0.0
 71
     1
 72
     2
  1
\fMS Gothic|b0|i0|c128;\H6.2996;\C7;\U+0031\U+0038\U+0038
  7
STD
210
0.0
220
0.0
230
1.0
 11
0.0
 21
1.0
 31
0.0
 73
     1
 44
1.0
  0
MTEXT
  5
5F5
100
AcDbEntity
  8
レイヤー_2
  6
AI9-LType3
 62
     7
100
AcDbMText
 10
172.651748
 20
190.104159
 30
0.0
 40
6.299603
 41
0.0
 71
     1
 72
     2
  1
\fMS Gothic|b0|i0|c128;\H6.2996;\C7;\U+0031\U+0035\U+0034
  7
STD
210
0.0
220
0.0
230
1.0
 11
0.0
 21
1.0
 31
0.0
 73
     1
 44
1.0
  0
MTEXT
  5
5F4
100
AcDbEntity
  8
レイヤー_2
  6
AI9-LType3
 62
     7
100
AcDbMText
 10
161.268464
 20
182.695825
 30
0.0
 40
6.299603
 41
0.0
 71
     1
 72
     2
  1
\fMS Gothic|b0|i0|c128;\H6.2996;\C7;\U+0038\U+0030
  7
STD
210
0.0
220
0.0
230
1.0
 11
0.0
 21
1.0
 31
0.0
 73
     1
 44
1.0
  0
INSERT
  5
5A2
100
AcDbEntity
  8
レイヤー_2
  6
AI9-LType3
 62
     7
100
AcDbBlockReference
  2
AI9-BLK6
 10
82.773156
 20
137.002318
 30
0.0
  0
INSERT
  5
54E
100
AcDbEntity
  8
レイヤー_2
 62
     7
100
AcDbBlockReference
  2
AI9-BLK3
 10
57.866235
 20
137.002318
 30
0.0
  0
INSERT
  5
548
100
AcDbEntity
  8
レイヤー_2
 62
     7
100
AcDbBlockReference
  2
AI9-BLK2
 10
103.305667
 20
111.693096
 30
0.0
  0
SPLINE
  5
546
100
AcDbEntity
  8
レイヤー_2
 62
     7
100
AcDbSpline
210
0.0
220
0.0
230
1.0
 70
     8
 71
     3
 72
    17
 73
    13
 74
     0
 42
0.00000001
 43
0.00000001
 40
0.0
 40
0.0
 40
0.0
 40
0.0
 40
1.0
 40
1.0
 40
1.0
 40
2.0
 40
2.0
 40
2.0
 40
3.0
 40
3.0
 40
3.0
 40
4.0
 40
4.0
 40
4.0
 40
4.0
 10
74.049054633246527
 20
84.93090549045138
 30
0.0
 10
74.049054633246527
 20
86.984871419270831
 30
0.0
 10
72.38421223958332
 20
88.649541558159711
 30
0.0
 10
70.330590820312494
 20
88.649541558159711
 30
0.0
 10
68.276624891493043
 20
88.649541558159711
 30
0.0
 10
66.61126573350694
 20
86.984871419270831
 30
0.0
 10
66.61126573350694
 20
84.93090549045138
 30
0.0
 10
66.61126573350694
 20
82.876939561631943
 30
0.0
 10
68.276624891493043
 20
81.212958441840271
 30
0.0
 10
70.330590820312494
 20
81.212958441840271
 30
0.0
 10
72.38421223958332
 20
81.212958441840271
 30
0.0
 10
74.049054633246527
 20
82.876939561631943
 30
0.0
 10
74.049054633246527
 20
84.93090549045138
 30
0.0
  0
LINE
  5
545
100
AcDbEntity
  8
レイヤー_2
  6
AI9-LType1
 62
     7
100
AcDbLine
 10
70.330591
 20
80.384757
 30
0.0
 11
70.330591
 21
219.550251
 31
0.0
  0
LINE
  5
544
100
AcDbEntity
  8
レイヤー_2
  6
AI9-LType1
 62
     7
100
AcDbLine
 10
65.377405
 20
84.930905
 30
0.0
 11
74.946502
 21
84.930905
 31
0.0
  0
LINE
  5
543
100
AcDbEntity
  8
レイヤー_2
 62
     7
100
AcDbLine
 10
74.946502
 20
84.930905
 30
0.0
 11
75.797268
 21
84.930905
 31
0.0
  0
LINE
  5
542
100
AcDbEntity
  8
レイヤー_2
 62
     7
100
AcDbLine
 10
77.092452
 20
78.237774
 30
0.0
 11
66.547531
 21
88.781833
 31
0.0
  0
LINE
  5
541
100
AcDbEntity
  8
レイヤー_2
 62
     7
100
AcDbLine
 10
77.092452
 20
78.237774
 30
0.0
 11
91.077645
 21
78.237774
 31
0.0
  0
LINE
  5
540
100
AcDbEntity
  8
レイヤー_2
 62
     7
100
AcDbLine
 10
66.420924
 20
87.509904
 30
0.0
 11
69.202839
 21
87.509904
 31
0.0
  0
LINE
  5
53F
100
AcDbEntity
  8
レイヤー_2
 62
     7
100
AcDbLine
 10
71.593907
 20
82.261646
 30
0.0
 11
74.375133
 21
82.261646
 31
0.0
  0
INSERT
  5
53B
100
AcDbEntity
  8
レイヤー_2
 62
     7
100
AcDbBlockReference
  2
AI9-BLK1
 10
83.284667
 20
82.20549
 30
0.0
  0
SPLINE
  5
539
100
AcDbEntity
  8
レイヤー_2
 62
     7
100
AcDbSpline
210
0.0
220
0.0
230
1.0
 70
     8
 71
     3
 72
     8
 73
     4
 74
     0
 42
0.00000001
 43
0.00000001
 40
0.0
 40
0.0
 40
0.0
 40
0.0
 40
1.0
 40
1.0
 40
1.0
 40
1.0
 10
112.33595106336804
 20
136.45747612847222
 30
0.0
 10
113.23546549479165
 20
136.16360948350695
 30
0.0
 10
114.17390950520833
 20
136.39133029513889
 30
0.0
 10
114.83640136718749
 20
136.63937717013889
 30
0.0
  0
LINE
  5
538
100
AcDbEntity
  8
レイヤー_2
  6
AI9-LType2
 62
     7
100
AcDbLine
 10
117.639331
 20
163.08083
 30
0.0
 11
117.625551
 21
163.332666
 31
0.0
  0
LINE
  5
537
100
AcDbEntity
  8
レイヤー_2
 62
     7
100
AcDbLine
 10
117.625551
 20
163.332666
 30
0.0
 11
117.573185
 21
164.33071
 31
0.0
  0
LINE
  5
536
100
AcDbEntity
  8
レイヤー_2
  6
AI9-LType2
 62
     7
100
AcDbLine
 10
105.953912
 20
164.33071
 30
0.0
 11
105.94082
 21
164.079563
 31
0.0
  0
LINE
  5
535
100
AcDbEntity
  8
レイヤー_2
 62
     7
100
AcDbLine
 10
105.94082
 20
164.079563
 30
0.0
 11
105.887766
 21
163.08083
 31
0.0
  0
LINE
  5
534
100
AcDbEntity
  8
レイヤー_2
 62
     7
100
AcDbLine
 10
111.58492
 20
152.755878
 30
0.0
 11
111.58492
 21
158.60634
 31
0.0
  0
LINE
  5
533
100
AcDbEntity
  8
レイヤー_2
 62
     7
100
AcDbLine
 10
111.993509
 20
152.736586
 30
0.0
 11
111.960091
 21
152.755878
 31
0.0
  0
LINE
  5
532
100
AcDbEntity
  8
レイヤー_2
 62
     7
100
AcDbLine
 10
111.960091
 20
149.755545
 30
0.0
 11
111.993509
 21
149.775182
 31
0.0
  0
LINE
  5
531
100
AcDbEntity
  8
レイヤー_2
 62
     7
100
AcDbLine
 10
110.260626
 20
162.581291
 30
0.0
 11
110.260626
 21
163.08083
 31
0.0
  0
LINE
  5
530
100
AcDbEntity
  8
レイヤー_2
 62
     7
100
AcDbLine
 10
105.459885
 20
163.08083
 30
0.0
 11
105.459885
 21
162.581291
 31
0.0
  0
LINE
  5
52F
100
AcDbEntity
  8
レイヤー_2
 62
     7
100
AcDbLine
 10
110.202748
 20
160.819469
 30
0.0
 11
110.202748
 21
162.581291
 31
0.0
  0
SPLINE
  5
52E
100
AcDbEntity
  8
レイヤー_2
 62
     7
100
AcDbSpline
210
0.0
220
0.0
230
1.0
 70
     8
 71
     3
 72
     8
 73
     4
 74
     0
 42
0.00000001
 43
0.00000001
 40
0.0
 40
0.0
 40
0.0
 40
0.0
 40
1.0
 40
1.0
 40
1.0
 40
1.0
 10
105.45988498263888
 20
160.83083767361109
 30
0.0
 10
105.45988498263888
 20
160.69337836371525
 30
0.0
 10
105.57150607638889
 20
160.58072374131942
 30
0.0
 10
105.70999891493055
 20
160.58072374131942
 30
0.0
  0
LINE
  5
52D
100
AcDbEntity
  8
レイヤー_2
 62
     7
100
AcDbLine
 10
105.459885
 20
162.581291
 30
0.0
 11
105.459885
 21
160.830838
 31
0.0
  0
SPLINE
  5
52C
100
AcDbEntity
  8
レイヤー_2
 62
     7
100
AcDbSpline
210
0.0
220
0.0
230
1.0
 70
     8
 71
     3
 72
    26
 73
    22
 74
     0
 42
0.00000001
 43
0.00000001
 40
0.0
 40
0.0
 40
0.0
 40
0.0
 40
1.0
 40
1.0
 40
1.0
 40
2.0
 40
2.0
 40
2.0
 40
3.0
 40
3.0
 40
3.0
 40
4.0
 40
4.0
 40
4.0
 40
5.0
 40
5.0
 40
5.0
 40
6.0
 40
6.0
 40
6.0
 40
7.0
 40
7.0
 40
7.0
 40
7.0
 10
109.62810601128471
 20
160.49804144965276
 30
0.0
 10
109.66462402343748
 20
160.50286458333332
 30
0.0
 10
109.70079752604165
 20
160.50665418836803
 30
0.0
 10
109.73455946180555
 20
160.51078830295137
 30
0.0
 10
109.80173882378472
 20
160.51940104166664
 30
0.0
 10
109.85892740885416
 20
160.52801378038194
 30
0.0
 10
109.9068142361111
 20
160.53834906684025
 30
0.0
 10
109.94643283420137
 20
160.54592827690971
 30
0.0
 10
109.98019476996527
 20
160.55350748697916
 30
0.0
 10
110.01912434895833
 20
160.56866590711803
 30
0.0
 10
110.03841688368054
 20
160.57590060763889
 30
0.0
 10
110.05977647569443
 20
160.58485785590275
 30
0.0
 10
110.08251410590277
 20
160.60104980468748
 30
0.0
 10
110.10352918836804
 20
160.61448567708331
 30
0.0
 10
110.12592230902777
 20
160.63343370225692
 30
0.0
 10
110.14521484374998
 20
160.65686035156247
 30
0.0
 10
110.16278483072915
 20
160.6789089626736
 30
0.0
 10
110.17897677951387
 20
160.70440266927082
 30
0.0
 10
110.18758951822916
 20
160.73230794270833
 30
0.0
 10
110.19585774739582
 20
160.75814615885415
 30
0.0
 10
110.19861382378471
 20
160.78501790364581
 30
0.0
 10
110.20102539062499
 20
160.81188964843747
 30
0.0
  0
SPLINE
  5
52B
100
AcDbEntity
  8
レイヤー_2
 62
     7
100
AcDbSpline
210
0.0
220
0.0
230
1.0
 70
     8
 71
     3
 72
    29
 73
    25
 74
     0
 42
0.00000001
 43
0.00000001
 40
0.0
 40
0.0
 40
0.0
 40
0.0
 40
1.0
 40
1.0
 40
1.0
 40
2.0
 40
2.0
 40
2.0
 40
3.0
 40
3.0
 40
3.0
 40
4.0
 40
4.0
 40
4.0
 40
5.0
 40
5.0
 40
5.0
 40
6.0
 40
6.0
 40
6.0
 40
7.0
 40
7.0
 40
7.0
 40
8.0
 40
8.0
 40
8.0
 40
8.0
 10
105.84297960069443
 20
160.21175401475693
 30
0.0
 10
105.84435763888888
 20
160.17902560763886
 30
0.0
 10
105.8450466579861
 20
160.1456081814236
 30
0.0
 10
105.85262586805554
 20
160.11632486979164
 30
0.0
 10
105.86433919270833
 20
160.07188313802081
 30
0.0
 10
105.89258897569444
 20
160.03639865451387
 30
0.0
 10
105.9194607204861
 20
160.00918240017359
 30
0.0
 10
105.94702148437499
 20
159.97955457899303
 30
0.0
 10
105.97251519097222
 20
159.96060655381942
 30
0.0
 10
105.99938693576388
 20
159.9440700954861
 30
0.0
 10
106.03452690972222
 20
159.92167697482637
 30
0.0
 10
106.06966688368054
 20
159.90582953559027
 30
0.0
 10
106.10687391493055
 20
159.89136013454859
 30
0.0
 10
106.1675075954861
 20
159.86827799479164
 30
0.0
 10
106.23365342881944
 20
159.85036349826387
 30
0.0
 10
106.3101345486111
 20
159.83382703993055
 30
0.0
 10
106.38661566840277
 20
159.81763509114583
 30
0.0
 10
106.47412109374999
 20
159.80282118055555
 30
0.0
 10
106.57127278645832
 20
159.7890407986111
 30
0.0
 10
106.66635742187499
 20
159.77594943576386
 30
0.0
 10
106.77108832465277
 20
159.76389160156248
 30
0.0
 10
106.88684353298611
 20
159.75355631510416
 30
0.0
 10
106.91509331597221
 20
159.75080023871527
 30
0.0
 10
106.94403211805555
 20
159.7487331814236
 30
0.0
 10
106.97228190104165
 20
159.74632161458331
 30
0.0
  0
SPLINE
  5
52A
100
AcDbEntity
  8
レイヤー_2
 62
     7
100
AcDbSpline
210
0.0
220
0.0
230
1.0
 70
     8
 71
     3
 72
    11
 73
     7
 74
     0
 42
0.00000001
 43
0.00000001
 40
0.0
 40
0.0
 40
0.0
 40
0.0
 40
1.0
 40
1.0
 40
1.0
 40
2.0
 40
2.0
 40
2.0
 40
2.0
 10
107.65441080729165
 20
160.15801052517361
 30
0.0
 10
107.65441080729165
 20
160.15801052517361
 30
0.0
 10
107.65165473090276
 20
160.15559895833331
 30
0.0
 10
107.65165473090276
 20
160.15559895833331
 30
0.0
 10
107.65165473090276
 20
160.15559895833331
 30
0.0
 10
107.66750217013887
 20
160.16248914930554
 30
0.0
 10
107.68266059027776
 20
160.17006835937499
 30
0.0
  0
SPLINE
  5
529
100
AcDbEntity
  8
レイヤー_2
 62
     7
100
AcDbSpline
210
0.0
220
0.0
230
1.0
 70
     8
 71
     3
 72
     8
 73
     4
 74
     0
 42
0.00000001
 43
0.00000001
 40
0.0
 40
0.0
 40
0.0
 40
0.0
 40
1.0
 40
1.0
 40
1.0
 40
1.0
 10
105.83471137152777
 20
160.4556667751736
 30
0.0
 10
105.83471137152777
 20
160.52525770399305
 30
0.0
 10
105.77821180555554
 20
160.58072374131942
 30
0.0
 10
105.70999891493055
 20
160.58072374131942
 30
0.0
  0
LINE
  5
528
100
AcDbEntity
  8
レイヤー_2
 62
     7
100
AcDbLine
 10
105.834711
 20
160.455667
 30
0.0
 11
105.834711
 21
160.216922
 31
0.0
  0
SPLINE
  5
527
100
AcDbEntity
  8
レイヤー_2
 62
     7
100
AcDbSpline
210
0.0
220
0.0
230
1.0
 70
     8
 71
     3
 72
    14
 73
    10
 74
     0
 42
0.00000001
 43
0.00000001
 40
0.0
 40
0.0
 40
0.0
 40
0.0
 40
1.0
 40
1.0
 40
1.0
 40
2.0
 40
2.0
 40
2.0
 40
3.0
 40
3.0
 40
3.0
 40
3.0
 10
117.43055826822916
 20
160.38331976996525
 30
0.0
 10
117.47121039496527
 20
160.39537760416664
 30
0.0
 10
117.51358506944443
 20
160.40674641927083
 30
0.0
 10
117.55010308159721
 20
160.41811523437499
 30
0.0
 10
117.63381890190971
 20
160.44360894097221
 30
0.0
 10
117.69548611111109
 20
160.46669108072916
 30
0.0
 10
117.75474175347222
 20
160.50527615017359
 30
0.0
 10
117.77747938368054
 20
160.52043457031249
 30
0.0
 10
117.80056152343749
 20
160.53800455729166
 30
0.0
 10
117.8226101345486
 20
160.5548855251736
 30
0.0
  0
SPLINE
  5
526
100
AcDbEntity
  8
レイヤー_2
 62
     7
100
AcDbSpline
210
0.0
220
0.0
230
1.0
 70
     8
 71
     3
 72
     8
 73
     4
 74
     0
 42
0.00000001
 43
0.00000001
 40
0.0
 40
0.0
 40
0.0
 40
0.0
 40
1.0
 40
1.0
 40
1.0
 40
1.0
 10
117.90494791666666
 20
160.58072374131942
 30
0.0
 10
117.87394205729166
 20
160.58072374131942
 30
0.0
 10
117.84603678385416
 20
160.56969943576388
 30
0.0
 10
117.82502170138888
 20
160.55144042968749
 30
0.0
  0
LINE
  5
525
100
AcDbEntity
  8
レイヤー_2
 62
     7
100
AcDbLine
 10
106.953678
 20
159.740465
 30
0.0
 11
106.970215
 21
159.71945
 31
0.0
  0
SPLINE
  5
524
100
AcDbEntity
  8
レイヤー_2
 62
     7
100
AcDbSpline
210
0.0
220
0.0
230
1.0
 70
     8
 71
     3
 72
     8
 73
     4
 74
     0
 42
0.00000001
 43
0.00000001
 40
0.0
 40
0.0
 40
0.0
 40
0.0
 40
1.0
 40
1.0
 40
1.0
 40
1.0
 10
106.95987955729166
 20
159.73495279947915
 30
0.0
 10
107.00879991319444
 20
159.66708441840277
 30
0.0
 10
107.08459201388888
 20
159.63125542534721
 30
0.0
 10
107.16245117187499
 20
159.63125542534721
 30
0.0
  0
LINE
  5
523
100
AcDbEntity
  8
レイヤー_2
 62
     7
100
AcDbLine
 10
111.313447
 20
164.33071
 30
0.0
 11
111.313447
 21
172.581369
 31
0.0
  0
LINE
  5
522
100
AcDbEntity
  8
レイヤー_2
 62
     7
100
AcDbLine
 10
111.313447
 20
171.963319
 30
0.0
 11
111.313447
 21
176.718929
 31
0.0
  0
LINE
  5
521
100
AcDbEntity
  8
レイヤー_2
 62
     7
100
AcDbLine
 10
109.356632
 20
176.718929
 30
0.0
 11
109.356632
 21
171.25363
 31
0.0
  0
LINE
  5
520
100
AcDbEntity
  8
レイヤー_2
 62
     7
100
AcDbLine
 10
109.356632
 20
172.581369
 30
0.0
 11
109.356632
 21
164.33071
 31
0.0
  0
LINE
  5
51F
100
AcDbEntity
  8
レイヤー_2
 62
     7
100
AcDbLine
 10
114.959736
 20
176.46916
 30
0.0
 11
114.959736
 21
176.718929
 31
0.0
  0
LINE
  5
51E
100
AcDbEntity
  8
レイヤー_2
 62
     7
100
AcDbLine
 10
112.210205
 20
176.718929
 30
0.0
 11
112.210205
 21
176.46916
 31
0.0
  0
SPLINE
  5
51D
100
AcDbEntity
  8
レイヤー_2
 62
     7
100
AcDbSpline
210
0.0
220
0.0
230
1.0
 70
     8
 71
     3
 72
     8
 73
     4
 74
     0
 42
0.00000001
 43
0.00000001
 40
0.0
 40
0.0
 40
0.0
 40
0.0
 40
1.0
 40
1.0
 40
1.0
 40
1.0
 10
115.08513726128471
 20
176.01819661458333
 30
0.0
 10
115.08513726128471
 20
176.18459472656249
 30
0.0
 10
115.0382839626736
 20
176.34031304253472
 30
0.0
 10
114.95973578559027
 20
176.46915961371525
 30
0.0
  0
SPLINE
  5
51C
100
AcDbEntity
  8
レイヤー_2
 62
     7
100
AcDbSpline
210
0.0
220
0.0
230
1.0
 70
     8
 71
     3
 72
     8
 73
     4
 74
     0
 42
0.00000001
 43
0.00000001
 40
0.0
 40
0.0
 40
0.0
 40
0.0
 40
1.0
 40
1.0
 40
1.0
 40
1.0
 10
112.21020507812499
 20
176.46915961371525
 30
0.0
 10
112.12407769097221
 20
176.32618815104166
 30
0.0
 10
112.08411458333332
 20
176.16909179687499
 30
0.0
 10
112.08480360243054
 20
176.01819661458333
 30
0.0
  0
LINE
  5
51B
100
AcDbEntity
  8
レイヤー_2
 62
     7
100
AcDbLine
 10
115.085137
 20
175.094222
 30
0.0
 11
115.085137
 21
176.018197
 31
0.0
  0
LINE
  5
51A
100
AcDbEntity
  8
レイヤー_2
 62
     7
100
AcDbLine
 10
112.084804
 20
176.018197
 30
0.0
 11
112.084804
 21
175.094222
 31
0.0
  0
LINE
  5
519
100
AcDbEntity
  8
レイヤー_2
 62
     7
100
AcDbLine
 10
114.834679
 20
136.637655
 30
0.0
 11
114.834679
 21
163.08083
 31
0.0
  0
LINE
  5
518
100
AcDbEntity
  8
レイヤー_2
 62
     7
100
AcDbLine
 10
114.834679
 20
164.33071
 30
0.0
 11
114.834679
 21
172.581369
 31
0.0
  0
LINE
  5
517
100
AcDbEntity
  8
レイヤー_2
 62
     7
100
AcDbLine
 10
114.834679
 20
172.428407
 30
0.0
 11
114.834679
 21
175.094222
 31
0.0
  0
LINE
  5
516
100
AcDbEntity
  8
レイヤー_2
 62
     7
100
AcDbLine
 10
112.334918
 20
175.094222
 30
0.0
 11
112.334918
 21
172.251329
 31
0.0
  0
LINE
  5
515
100
AcDbEntity
  8
レイヤー_2
 62
     7
100
AcDbLine
 10
112.334918
 20
172.581369
 30
0.0
 11
112.334918
 21
164.33071
 31
0.0
  0
LINE
  5
514
100
AcDbEntity
  8
レイヤー_2
 62
     7
100
AcDbLine
 10
112.334918
 20
163.08083
 30
0.0
 11
112.334918
 21
136.457476
 31
0.0
  0
LINE
  5
513
100
AcDbEntity
  8
レイヤー_2
 62
     7
100
AcDbLine
 10
107.747428
 20
177.468582
 30
0.0
 11
107.747428
 21
176.718929
 31
0.0
  0
LINE
  5
512
100
AcDbEntity
  8
レイヤー_2
 62
     7
100
AcDbLine
 10
116.172065
 20
176.718929
 30
0.0
 11
116.172065
 21
177.468582
 31
0.0
  0
LINE
  5
511
100
AcDbEntity
  8
レイヤー_2
 62
     7
100
AcDbLine
 10
117.902881
 20
204.56977
 30
0.0
 11
117.81193
 21
211.114073
 31
0.0
  0
LINE
  5
510
100
AcDbEntity
  8
レイヤー_2
 62
     7
100
AcDbLine
 10
106.056576
 20
206.479386
 30
0.0
 11
106.029704
 21
204.56977
 31
0.0
  0
LINE
  5
50F
100
AcDbEntity
  8
レイヤー_2
 62
     7
100
AcDbLine
 10
106.185422
 20
215.734635
 30
0.0
 11
106.077935
 21
208.010042
 31
0.0
  0
SPLINE
  5
50E
100
AcDbEntity
  8
レイヤー_2
 62
     7
100
AcDbSpline
210
0.0
220
0.0
230
1.0
 70
     8
 71
     3
 72
     8
 73
     4
 74
     0
 42
0.00000001
 43
0.00000001
 40
0.0
 40
0.0
 40
0.0
 40
0.0
 40
1.0
 40
1.0
 40
1.0
 40
1.0
 10
117.90288085937499
 20
204.56873643663192
 30
0.0
 10
117.90288085937499
 20
204.56976996527777
 30
0.0
 10
117.90288085937499
 20
204.56976996527777
 30
0.0
 10
117.90288085937499
 20
204.56976996527777
 30
0.0
  0
SPLINE
  5
50D
100
AcDbEntity
  8
レイヤー_2
 62
     7
100
AcDbSpline
210
0.0
220
0.0
230
1.0
 70
     8
 71
     3
 72
     8
 73
     4
 74
     0
 42
0.00000001
 43
0.00000001
 40
0.0
 40
0.0
 40
0.0
 40
0.0
 40
1.0
 40
1.0
 40
1.0
 40
1.0
 10
117.82846679687499
 20
204.49432237413194
 30
0.0
 10
117.86980794270832
 20
204.49432237413194
 30
0.0
 10
117.90288085937499
 20
204.52739529079858
 30
0.0
 10
117.90288085937499
 20
204.56873643663192
 30
0.0
  0
SPLINE
  5
50C
100
AcDbEntity
  8
レイヤー_2
 62
     7
100
AcDbSpline
210
0.0
220
0.0
230
1.0
 70
     8
 71
     3
 72
    11
 73
     7
 74
     0
 42
0.00000001
 43
0.00000001
 40
0.0
 40
0.0
 40
0.0
 40
0.0
 40
1.0
 40
1.0
 40
1.0
 40
2.0
 40
2.0
 40
2.0
 40
2.0
 10
106.02970377604166
 20
204.56976996527777
 30
0.0
 10
106.02970377604166
 20
204.56976996527777
 30
0.0
 10
106.02970377604166
 20
204.56976996527777
 30
0.0
 10
106.02970377604166
 20
204.56873643663192
 30
0.0
 10
106.02970377604166
 20
204.52739529079858
 30
0.0
 10
106.06346571180555
 20
204.49432237413194
 30
0.0
 10
106.10480685763888
 20
204.49432237413194
 30
0.0
  0
LINE
  5
50B
100
AcDbEntity
  8
レイヤー_2
 62
     7
100
AcDbLine
 10
135.017082
 20
215.994051
 30
0.0
 11
111.966637
 21
215.994051
 31
0.0
  0
SPLINE
  5
50A
100
AcDbEntity
  8
レイヤー_2
 62
     7
100
AcDbSpline
210
0.0
220
0.0
230
1.0
 70
     8
 71
     3
 72
     8
 73
     4
 74
     0
 42
0.00000001
 43
0.00000001
 40
0.0
 40
0.0
 40
0.0
 40
0.0
 40
1.0
 40
1.0
 40
1.0
 40
1.0
 10
106.38179253472221
 20
215.9313503689236
 30
0.0
 10
106.27361653645832
 20
215.92893880208331
 30
0.0
 10
106.18748914930555
 20
215.84177788628469
 30
0.0
 10
106.18542209201388
 20
215.73463541666663
 30
0.0
  0
SPLINE
  5
509
100
AcDbEntity
  8
レイヤー_2
 62
     7
100
AcDbSpline
210
0.0
220
0.0
230
1.0
 70
     8
 71
     3
 72
     8
 73
     4
 74
     0
 42
0.00000001
 43
0.00000001
 40
0.0
 40
0.0
 40
0.0
 40
0.0
 40
1.0
 40
1.0
 40
1.0
 40
1.0
 10
111.96663682725693
 20
215.99405110677083
 30
0.0
 10
110.00293240017361
 20
215.99405110677083
 30
0.0
 10
108.04508463541666
 20
215.97131347656247
 30
0.0
 10
106.38179253472221
 20
215.9313503689236
 30
0.0
  0
SPLINE
  5
508
100
AcDbEntity
  8
レイヤー_2
 62
     7
100
AcDbSpline
210
0.0
220
0.0
230
1.0
 70
     8
 71
     3
 72
    11
 73
     7
 74
     0
 42
0.00000001
 43
0.00000001
 40
0.0
 40
0.0
 40
0.0
 40
0.0
 40
1.0
 40
1.0
 40
1.0
 40
2.0
 40
2.0
 40
2.0
 40
2.0
 10
118.18710123697916
 20
211.49372287326386
 30
0.0
 10
117.97936197916665
 20
211.49372287326386
 30
0.0
 10
117.81193033854166
 20
211.32594672309025
 30
0.0
 10
117.81193033854166
 20
211.11855197482637
 30
0.0
 10
117.81193033854166
 20
211.11717393663193
 30
0.0
 10
117.81193033854166
 20
211.11579589843748
 30
0.0
 10
117.81193033854166
 20
211.11407335069441
 30
0.0
  0
SPLINE
  5
507
100
AcDbEntity
  8
レイヤー_2
 62
     7
100
AcDbSpline
210
0.0
220
0.0
230
1.0
 70
     8
 71
     3
 72
     8
 73
     4
 74
     0
 42
0.00000001
 43
0.00000001
 40
0.0
 40
0.0
 40
0.0
 40
0.0
 40
1.0
 40
1.0
 40
1.0
 40
1.0
 10
135.21724175347222
 20
215.79423556857637
 30
0.0
 10
135.21724175347222
 20
215.90447862413191
 30
0.0
 10
135.12732476128471
 20
215.99405110677083
 30
0.0
 10
135.01708170572917
 20
215.99405110677083
 30
0.0
  0
LINE
  5
506
100
AcDbEntity
  8
レイヤー_2
 62
     7
100
AcDbLine
 10
106.459652
 20
204.344116
 30
0.0
 11
106.459652
 21
203.719176
 31
0.0
  0
LINE
  5
505
100
AcDbEntity
  8
レイヤー_2
 62
     7
100
AcDbLine
 10
117.460186
 20
203.719176
 30
0.0
 11
117.460186
 21
204.344116
 31
0.0
  0
LINE
  5
504
100
AcDbEntity
  8
レイヤー_2
 62
     7
100
AcDbLine
 10
106.512017
 20
204.494322
 30
0.0
 11
106.502371
 21
204.466762
 31
0.0
  0
LINE
  5
503
100
AcDbEntity
  8
レイヤー_2
 62
     7
100
AcDbLine
 10
106.502371
 20
204.466762
 30
0.0
 11
106.459652
 21
204.344116
 31
0.0
  0
LINE
  5
502
100
AcDbEntity
  8
レイヤー_2
 62
     7
100
AcDbLine
 10
117.460186
 20
204.344116
 30
0.0
 11
117.407132
 21
204.494322
 31
0.0
  0
LINE
  5
501
100
AcDbEntity
  8
レイヤー_2
 62
     7
100
AcDbLine
 10
135.085295
 20
203.739502
 30
0.0
 11
117.790226
 21
203.739502
 31
0.0
  0
LINE
  5
500
100
AcDbEntity
  8
レイヤー_2
 62
     7
100
AcDbLine
 10
120.259671
 20
200.148679
 30
0.0
 11
135.085295
 21
200.148679
 31
0.0
  0
LINE
  5
4FF
100
AcDbEntity
  8
レイヤー_2
 62
     7
100
AcDbLine
 10
117.809863
 20
200.148679
 30
0.0
 11
118.663558
 21
200.148679
 31
0.0
  0
SPLINE
  5
4FE
100
AcDbEntity
  8
レイヤー_2
 62
     7
100
AcDbSpline
210
0.0
220
0.0
230
1.0
 70
     8
 71
     3
 72
     8
 73
     4
 74
     0
 42
0.00000001
 43
0.00000001
 40
0.0
 40
0.0
 40
0.0
 40
0.0
 40
1.0
 40
1.0
 40
1.0
 40
1.0
 10
141.86351996527776
 20
201.2724690755208
 30
0.0
 10
139.88052300347221
 20
202.93645019531249
 30
0.0
 10
137.46516655815972
 20
203.74535861545138
 30
0.0
 10
135.08529459635415
 20
203.73950195312497
 30
0.0
  0
SPLINE
  5
4FD
100
AcDbEntity
  8
レイヤー_2
 62
     7
100
AcDbSpline
210
0.0
220
0.0
230
1.0
 70
     8
 71
     3
 72
     8
 73
     4
 74
     0
 42
0.00000001
 43
0.00000001
 40
0.0
 40
0.0
 40
0.0
 40
0.0
 40
1.0
 40
1.0
 40
1.0
 40
1.0
 10
139.55599500868055
 20
198.52224934895833
 30
0.0
 10
138.24823676215277
 20
199.61916775173609
 30
0.0
 10
136.65488009982639
 20
200.15315755208331
 30
0.0
 10
135.08529459635415
 20
200.14867892795138
 30
0.0
  0
LINE
  5
4FC
100
AcDbEntity
  8
レイヤー_2
 62
     7
100
AcDbLine
 10
141.35089
 20
197.015709
 30
0.0
 11
143.232945
 21
195.436133
 31
0.0
  0
LINE
  5
4FB
100
AcDbEntity
  8
レイヤー_2
 62
     7
100
AcDbLine
 10
139.555995
 20
198.522249
 30
0.0
 11
140.751443
 21
197.518693
 31
0.0
  0
LINE
  5
4FA
100
AcDbEntity
  8
レイヤー_2
 62
     7
100
AcDbLine
 10
145.540815
 20
198.186697
 30
0.0
 11
141.86352
 21
201.272469
 31
0.0
  0
SPLINE
  5
4F9
100
AcDbEntity
  8
レイヤー_2
 62
     7
100
AcDbSpline
210
0.0
220
0.0
230
1.0
 70
     8
 71
     3
 72
     8
 73
     4
 74
     0
 42
0.00000001
 43
0.00000001
 40
0.0
 40
0.0
 40
0.0
 40
0.0
 40
1.0
 40
1.0
 40
1.0
 40
1.0
 10
143.23294542100692
 20
195.43613281249998
 30
0.0
 10
143.31769476996527
 20
195.36516384548608
 30
0.0
 10
143.44309624565972
 20
195.37653266059027
 30
0.0
 10
143.51440972222221
 20
195.4612820095486
 30
0.0
  0
SPLINE
  5
4F8
100
AcDbEntity
  8
レイヤー_2
 62
     7
100
AcDbSpline
210
0.0
220
0.0
230
1.0
 70
     8
 71
     3
 72
     8
 73
     4
 74
     0
 42
0.00000001
 43
0.00000001
 40
0.0
 40
0.0
 40
0.0
 40
0.0
 40
1.0
 40
1.0
 40
1.0
 40
1.0
 10
145.61212836371527
 20
198.03339029947915
 30
0.0
 10
145.61212836371527
 20
198.09505750868053
 30
0.0
 10
145.58422309027776
 20
198.15017903645833
 30
0.0
 10
145.54081488715278
 20
198.18669704861108
 30
0.0
  0
SPLINE
  5
4F7
100
AcDbEntity
  8
レイヤー_2
 62
     7
100
AcDbSpline
210
0.0
220
0.0
230
1.0
 70
     8
 71
     3
 72
     8
 73
     4
 74
     0
 42
0.00000001
 43
0.00000001
 40
0.0
 40
0.0
 40
0.0
 40
0.0
 40
1.0
 40
1.0
 40
1.0
 40
1.0
 10
145.56527506510415
 20
197.90523274739581
 30
0.0
 10
145.59696994357637
 20
197.94243977864582
 30
0.0
 10
145.61212836371527
 20
197.98791503906247
 30
0.0
 10
145.61212836371527
 20
198.03339029947915
 30
0.0
  0
LINE
  5
4F6
100
AcDbEntity
  8
レイヤー_2
 62
     7
100
AcDbLine
 10
117.809863
 20
177.468582
 30
0.0
 11
117.809863
 21
200.148679
 31
0.0
  0
LINE
  5
4F5
100
AcDbEntity
  8
レイヤー_2
 62
     7
100
AcDbLine
 10
106.110319
 20
188.676166
 30
0.0
 11
106.110319
 21
177.468582
 31
0.0
  0
LINE
  5
4F4
100
AcDbEntity
  8
レイヤー_2
 62
     7
100
AcDbLine
 10
106.110319
 20
203.643728
 30
0.0
 11
106.110319
 21
188.521826
 31
0.0
  0
SPLINE
  5
4F3
100
AcDbEntity
  8
レイヤー_2
 62
     7
100
AcDbSpline
210
0.0
220
0.0
230
1.0
 70
     8
 71
     3
 72
     8
 73
     4
 74
     0
 42
0.00000001
 43
0.00000001
 40
0.0
 40
0.0
 40
0.0
 40
0.0
 40
1.0
 40
1.0
 40
1.0
 40
1.0
 10
106.18473307291666
 20
203.71917588975694
 30
0.0
 10
106.14339192708333
 20
203.71917588975694
 30
0.0
 10
106.11031901041666
 20
203.68575846354165
 30
0.0
 10
106.11031901041666
 20
203.64372829861108
 30
0.0
  0
LINE
  5
4F2
100
AcDbEntity
  8
レイヤー_2
  6
AI9-LType2
 62
     7
100
AcDbLine
 10
107.5986
 20
164.33071
 30
0.0
 11
116.573419
 21
164.33071
 31
0.0
  0
LINE
  5
4F1
100
AcDbEntity
  8
レイヤー_2
 62
     7
100
AcDbLine
 10
116.573419
 20
164.33071
 30
0.0
 11
117.573185
 21
164.33071
 31
0.0
  0
LINE
  5
4F0
100
AcDbEntity
  8
レイヤー_2
  6
AI9-LType2
 62
     7
100
AcDbLine
 10
105.953912
 20
164.33071
 30
0.0
 11
106.598145
 21
164.33071
 31
0.0
  0
LINE
  5
4EF
100
AcDbEntity
  8
レイヤー_2
 62
     7
100
AcDbLine
 10
106.598145
 20
164.33071
 30
0.0
 11
107.5986
 21
164.33071
 31
0.0
  0
LINE
  5
4EE
100
AcDbEntity
  8
レイヤー_2
 62
     7
100
AcDbLine
 10
110.02567
 20
163.08083
 30
0.0
 11
117.528743
 21
163.08083
 31
0.0
  0
LINE
  5
4ED
100
AcDbEntity
  8
レイヤー_2
 62
     7
100
AcDbLine
 10
111.740294
 20
149.900928
 30
0.0
 11
110.85077
 21
149.755545
 31
0.0
  0
SPLINE
  5
4EC
100
AcDbEntity
  8
レイヤー_2
 62
     7
100
AcDbSpline
210
0.0
220
0.0
230
1.0
 70
     8
 71
     3
 72
    11
 73
     7
 74
     0
 42
0.00000001
 43
0.00000001
 40
0.0
 40
0.0
 40
0.0
 40
0.0
 40
1.0
 40
1.0
 40
1.0
 40
2.0
 40
2.0
 40
2.0
 40
2.0
 10
110.85077039930555
 20
149.75554470486111
 30
0.0
 10
110.82975531684026
 20
149.75588921440971
 30
0.0
 10
110.80839572482638
 20
149.75588921440971
 30
0.0
 10
110.7873806423611
 20
149.75692274305555
 30
0.0
 10
110.5083279079861
 20
149.76312391493053
 30
0.0
 10
110.23478732638888
 20
149.83237033420139
 30
0.0
 10
109.96124674479165
 20
149.90092773437499
 30
0.0
  0
LINE
  5
4EB
100
AcDbEntity
  8
レイヤー_2
 62
     7
100
AcDbLine
 10
109.961247
 20
149.900928
 30
0.0
 11
109.961247
 21
152.61084
 31
0.0
  0
SPLINE
  5
4EA
100
AcDbEntity
  8
レイヤー_2
 62
     7
100
AcDbSpline
210
0.0
220
0.0
230
1.0
 70
     8
 71
     3
 72
    11
 73
     7
 74
     0
 42
0.00000001
 43
0.00000001
 40
0.0
 40
0.0
 40
0.0
 40
0.0
 40
1.0
 40
1.0
 40
1.0
 40
2.0
 40
2.0
 40
2.0
 40
2.0
 10
110.85077039930555
 20
152.75587836371525
 30
0.0
 10
110.82975531684026
 20
152.75587836371525
 30
0.0
 10
110.80839572482638
 20
152.75587836371525
 30
0.0
 10
110.7873806423611
 20
152.75518934461803
 30
0.0
 10
110.5083279079861
 20
152.74829915364583
 30
0.0
 10
110.23478732638888
 20
152.6793972439236
 30
0.0
 10
109.96124674479165
 20
152.61083984375
 30
0.0
  0
LINE
  5
4E9
100
AcDbEntity
  8
レイヤー_2
 62
     7
100
AcDbLine
 10
111.740294
 20
152.61084
 30
0.0
 11
110.85077
 21
152.755878
 31
0.0
  0
LINE
  5
4E8
100
AcDbEntity
  8
レイヤー_2
 62
     7
100
AcDbLine
 10
111.740294
 20
149.900928
 30
0.0
 11
111.740294
 21
152.61084
 31
0.0
  0
LINE
  5
4E7
100
AcDbEntity
  8
レイヤー_2
 62
     7
100
AcDbLine
 10
109.961247
 20
152.61084
 30
0.0
 11
109.258103
 21
152.755878
 31
0.0
  0
LINE
  5
4E6
100
AcDbEntity
  8
レイヤー_2
 62
     7
100
AcDbLine
 10
108.582864
 20
152.755878
 30
0.0
 11
110.884532
 21
152.755878
 31
0.0
  0
LINE
  5
4E5
100
AcDbEntity
  8
レイヤー_2
 62
     7
100
AcDbLine
 10
110.85077
 20
149.755545
 30
0.0
 11
108.582864
 21
149.755545
 31
0.0
  0
LINE
  5
4E4
100
AcDbEntity
  8
レイヤー_2
 62
     7
100
AcDbLine
 10
109.961247
 20
149.900928
 30
0.0
 11
109.258103
 21
149.755545
 31
0.0
  0
LINE
  5
4E3
100
AcDbEntity
  8
レイヤー_2
 62
     7
100
AcDbLine
 10
111.960091
 20
159.256085
 30
0.0
 11
108.578385
 21
159.256085
 31
0.0
  0
LINE
  5
4E2
100
AcDbEntity
  8
レイヤー_2
 62
     7
100
AcDbLine
 10
111.58492
 20
158.60634
 30
0.0
 11
108.952867
 21
158.60634
 31
0.0
  0
LINE
  5
4E1
100
AcDbEntity
  8
レイヤー_2
 62
     7
100
AcDbLine
 10
111.960091
 20
159.621265
 30
0.0
 11
109.260859
 21
159.621265
 31
0.0
  0
SPLINE
  5
4E0
100
AcDbEntity
  8
レイヤー_2
 62
     7
100
AcDbSpline
210
0.0
220
0.0
230
1.0
 70
     8
 71
     3
 72
    11
 73
     7
 74
     0
 42
0.00000001
 43
0.00000001
 40
0.0
 40
0.0
 40
0.0
 40
0.0
 40
1.0
 40
1.0
 40
1.0
 40
2.0
 40
2.0
 40
2.0
 40
2.0
 10
111.92736273871527
 20
152.75587836371525
 30
0.0
 10
111.88050944010416
 20
152.73934190538193
 30
0.0
 10
111.83296712239583
 20
152.72314995659721
 30
0.0
 10
111.78783637152777
 20
152.67181803385415
 30
0.0
 10
111.77164442274305
 20
152.65459255642361
 30
0.0
 10
111.75579698350694
 20
152.63254394531248
 30
0.0
 10
111.74029405381944
 20
152.61083984375
 30
0.0
  0
LINE
  5
4DF
100
AcDbEntity
  8
レイヤー_2
 62
     7
100
AcDbLine
 10
110.85077
 20
152.755878
 30
0.0
 11
111.927363
 21
152.755878
 31
0.0
  0
SPLINE
  5
4DE
100
AcDbEntity
  8
レイヤー_2
 62
     7
100
AcDbSpline
210
0.0
220
0.0
230
1.0
 70
     8
 71
     3
 72
    11
 73
     7
 74
     0
 42
0.00000001
 43
0.00000001
 40
0.0
 40
0.0
 40
0.0
 40
0.0
 40
1.0
 40
1.0
 40
1.0
 40
2.0
 40
2.0
 40
2.0
 40
2.0
 10
111.92736273871527
 20
149.75554470486111
 30
0.0
 10
111.88050944010416
 20
149.77208116319443
 30
0.0
 10
111.83296712239583
 20
149.78861762152778
 30
0.0
 10
111.78783637152777
 20
149.83926052517359
 30
0.0
 10
111.77164442274305
 20
149.85751953124998
 30
0.0
 10
111.75579698350694
 20
149.87922363281248
 30
0.0
 10
111.74029405381944
 20
149.90092773437499
 30
0.0
  0
LINE
  5
4DD
100
AcDbEntity
  8
レイヤー_2
 62
     7
100
AcDbLine
 10
111.927363
 20
149.755545
 30
0.0
 11
110.85077
 21
149.755545
 31
0.0
  0
SPLINE
  5
4DC
100
AcDbEntity
  8
レイヤー_2
 62
     7
100
AcDbSpline
210
0.0
220
0.0
230
1.0
 70
     8
 71
     3
 72
    11
 73
     7
 74
     0
 42
0.00000001
 43
0.00000001
 40
0.0
 40
0.0
 40
0.0
 40
0.0
 40
1.0
 40
1.0
 40
1.0
 40
2.0
 40
2.0
 40
2.0
 40
2.0
 10
111.99075249565971
 20
149.77966037326388
 30
0.0
 10
111.99075249565971
 20
149.77966037326388
 30
0.0
 10
111.9780056423611
 20
149.76760253906249
 30
0.0
 10
111.9780056423611
 20
149.76760253906249
 30
0.0
 10
111.96181369357637
 20
149.75347764756944
 30
0.0
 10
111.94458821614582
 20
149.75485568576389
 30
0.0
 10
111.92736273871527
 20
149.75554470486111
 30
0.0
  0
SPLINE
  5
4DB
100
AcDbEntity
  8
レイヤー_2
 62
     7
100
AcDbSpline
210
0.0
220
0.0
230
1.0
 70
     8
 71
     3
 72
    11
 73
     7
 74
     0
 42
0.00000001
 43
0.00000001
 40
0.0
 40
0.0
 40
0.0
 40
0.0
 40
1.0
 40
1.0
 40
1.0
 40
2.0
 40
2.0
 40
2.0
 40
2.0
 10
111.9935085720486
 20
152.73004014756944
 30
0.0
 10
111.9935085720486
 20
152.73004014756944
 30
0.0
 10
111.9780056423611
 20
152.74416503906249
 30
0.0
 10
111.9780056423611
 20
152.74416503906249
 30
0.0
 10
111.96181369357637
 20
152.75794542100692
 30
0.0
 10
111.94458821614582
 20
152.75656738281248
 30
0.0
 10
111.92736273871527
 20
152.75587836371525
 30
0.0
  0
LINE
  5
4DA
100
AcDbEntity
  8
レイヤー_2
 62
     7
100
AcDbLine
 10
108.707232
 20
163.08083
 30
0.0
 11
110.02567
 21
163.08083
 31
0.0
  0
LINE
  5
4D9
100
AcDbEntity
  8
レイヤー_2
 62
     7
100
AcDbLine
 10
108.707232
 20
162.581291
 30
0.0
 11
110.260626
 21
162.581291
 31
0.0
  0
LINE
  5
4D8
100
AcDbEntity
  8
レイヤー_2
 62
     7
100
AcDbLine
 10
118.333862
 20
163.08083
 30
0.0
 11
118.333862
 21
162.581291
 31
0.0
  0
LINE
  5
4D7
100
AcDbEntity
  8
レイヤー_2
 62
     7
100
AcDbLine
 10
105.459885
 20
163.08083
 30
0.0
 11
108.707232
 21
163.08083
 31
0.0
  0
LINE
  5
4D6
100
AcDbEntity
  8
レイヤー_2
 62
     7
100
AcDbLine
 10
105.459885
 20
162.581291
 30
0.0
 11
105.82851
 21
162.581291
 31
0.0
  0
LINE
  5
4D5
100
AcDbEntity
  8
レイヤー_2
 62
     7
100
AcDbLine
 10
117.528743
 20
163.08083
 30
0.0
 11
118.333862
 21
163.08083
 31
0.0
  0
LINE
  5
4D4
100
AcDbEntity
  8
レイヤー_2
 62
     7
100
AcDbLine
 10
112.083081
 20
163.08083
 30
0.0
 11
112.083081
 21
162.581291
 31
0.0
  0
POLYLINE
  5
4CE
100
AcDbEntity
  8
レイヤー_2
 62
     7
100
AcDb2dPolyline
 66
     1
 10
0.0
 20
0.0
 30
0.0
  0
VERTEX
  5
4CF
100
AcDbEntity
  8
レイヤー_2
 62
     7
100
AcDbVertex
100
AcDb2dVertex
 10
109.312535
 20
160.580724
 30
0.0
  0
VERTEX
  5
4D0
100
AcDbEntity
  8
レイヤー_2
 62
     7
100
AcDbVertex
100
AcDb2dVertex
 10
109.329416
 20
160.580724
 30
0.0
  0
VERTEX
  5
4D1
100
AcDbEntity
  8
レイヤー_2
 62
     7
100
AcDbVertex
100
AcDb2dVertex
 10
109.333895
 20
160.580379
 30
0.0
  0
VERTEX
  5
4D2
100
AcDbEntity
  8
レイヤー_2
 62
     7
100
AcDbVertex
100
AcDb2dVertex
 10
109.335273
 20
160.580379
 30
0.0
  0
SEQEND
  5
4D3
100
AcDbEntity
  8
レイヤー_2
 62
     7
  0
LINE
  5
4CD
100
AcDbEntity
  8
レイヤー_2
 62
     7
100
AcDbLine
 10
108.8316
 20
160.580724
 30
0.0
 11
106.291531
 21
160.580724
 31
0.0
  0
LINE
  5
4CC
100
AcDbEntity
  8
レイヤー_2
 62
     7
100
AcDbLine
 10
106.291531
 20
160.580724
 30
0.0
 11
105.709999
 21
160.580724
 31
0.0
  0
SPLINE
  5
4CB
100
AcDbEntity
  8
レイヤー_2
 62
     7
100
AcDbSpline
210
0.0
220
0.0
230
1.0
 70
     8
 71
     3
 72
     8
 73
     4
 74
     0
 42
0.00000001
 43
0.00000001
 40
0.0
 40
0.0
 40
0.0
 40
0.0
 40
1.0
 40
1.0
 40
1.0
 40
1.0
 10
118.08374837239582
 20
160.58072374131942
 30
0.0
 10
118.22224121093748
 20
160.58072374131942
 30
0.0
 10
118.33386230468749
 20
160.69337836371525
 30
0.0
 10
118.33386230468749
 20
160.83083767361109
 30
0.0
  0
LINE
  5
4CA
100
AcDbEntity
  8
レイヤー_2
 62
     7
100
AcDbLine
 10
118.333862
 20
162.581291
 30
0.0
 11
118.333862
 21
160.830838
 31
0.0
  0
LINE
  5
4C9
100
AcDbEntity
  8
レイヤー_2
 62
     7
100
AcDbLine
 10
108.707232
 20
162.581291
 30
0.0
 11
105.82851
 21
162.581291
 31
0.0
  0
SPLINE
  5
4C8
100
AcDbEntity
  8
レイヤー_2
 62
     7
100
AcDbSpline
210
0.0
220
0.0
230
1.0
 70
     8
 71
     3
 72
    23
 73
    19
 74
     0
 42
0.00000001
 43
0.00000001
 40
0.0
 40
0.0
 40
0.0
 40
0.0
 40
1.0
 40
1.0
 40
1.0
 40
2.0
 40
2.0
 40
2.0
 40
3.0
 40
3.0
 40
3.0
 40
4.0
 40
4.0
 40
4.0
 40
5.0
 40
5.0
 40
5.0
 40
6.0
 40
6.0
 40
6.0
 40
6.0
 10
108.98008355034722
 20
160.58141276041664
 30
0.0
 10
108.98008355034722
 20
160.58141276041664
 30
0.0
 10
108.96320258246527
 20
160.59071451822916
 30
0.0
 10
108.95458984374999
 20
160.60104980468748
 30
0.0
 10
108.94666612413194
 20
160.61138509114582
 30
0.0
 10
108.93874240451387
 20
160.62723253038192
 30
0.0
 10
108.93185221354166
 20
160.64618055555553
 30
0.0
 10
108.92496202256943
 20
160.66581759982637
 30
0.0
 10
108.91910536024305
 20
160.68786621093747
 30
0.0
 10
108.91359320746527
 20
160.71232638888887
 30
0.0
 10
108.90911458333332
 20
160.73782009548609
 30
0.0
 10
108.90532497829859
 20
160.76469184027778
 30
0.0
 10
108.90291341145833
 20
160.79225260416666
 30
0.0
 10
108.90222439236111
 20
160.8029324001736
 30
0.0
 10
108.90084635416666
 20
160.81361219618054
 30
0.0
 10
108.90084635416666
 20
160.82394748263889
 30
0.0
 10
108.90084635416666
 20
160.82394748263889
 30
0.0
 10
108.90084635416666
 20
160.83083767361109
 30
0.0
 10
108.90084635416666
 20
160.83083767361109
 30
0.0
  0
SPLINE
  5
4C7
100
AcDbEntity
  8
レイヤー_2
 62
     7
100
AcDbSpline
210
0.0
220
0.0
230
1.0
 70
     8
 71
     3
 72
     8
 73
     4
 74
     0
 42
0.00000001
 43
0.00000001
 40
0.0
 40
0.0
 40
0.0
 40
0.0
 40
1.0
 40
1.0
 40
1.0
 40
1.0
 10
109.33527289496527
 20
160.58037923177082
 30
0.0
 10
107.63098415798611
 20
160.42121582031248
 30
0.0
 10
106.52235243055554
 20
160.23001302083333
 30
0.0
 10
106.19369032118054
 20
160.06327039930554
 30
0.0
  0
POLYLINE
  5
4C1
100
AcDbEntity
  8
レイヤー_2
 62
     7
100
AcDb2dPolyline
 66
     1
 10
0.0
 20
0.0
 30
0.0
  0
VERTEX
  5
4C2
100
AcDbEntity
  8
レイヤー_2
 62
     7
100
AcDbVertex
100
AcDb2dVertex
 10
108.980084
 20
160.581413
 30
0.0
  0
VERTEX
  5
4C3
100
AcDbEntity
  8
レイヤー_2
 62
     7
100
AcDbVertex
100
AcDb2dVertex
 10
108.983529
 20
160.581068
 30
0.0
  0
VERTEX
  5
4C4
100
AcDbEntity
  8
レイヤー_2
 62
     7
100
AcDbVertex
100
AcDb2dVertex
 10
108.990419
 20
160.580724
 30
0.0
  0
VERTEX
  5
4C5
100
AcDbEntity
  8
レイヤー_2
 62
     7
100
AcDbVertex
100
AcDb2dVertex
 10
108.992141
 20
160.580724
 30
0.0
  0
SEQEND
  5
4C6
100
AcDbEntity
  8
レイヤー_2
 62
     7
  0
SPLINE
  5
4C0
100
AcDbEntity
  8
レイヤー_2
 62
     7
100
AcDbSpline
210
0.0
220
0.0
230
1.0
 70
     8
 71
     3
 72
     8
 73
     4
 74
     0
 42
0.00000001
 43
0.00000001
 40
0.0
 40
0.0
 40
0.0
 40
0.0
 40
1.0
 40
1.0
 40
1.0
 40
1.0
 10
109.61501464843749
 20
160.49804144965276
 30
0.0
 10
108.55116916232637
 20
160.38676486545137
 30
0.0
 10
107.85836046006943
 20
160.26274142795137
 30
0.0
 10
107.59722222222221
 20
160.1518093532986
 30
0.0
  0
LINE
  5
4BF
100
AcDbEntity
  8
レイヤー_2
 62
     7
100
AcDbLine
 10
109.312535
 20
160.580724
 30
0.0
 11
108.992141
 21
160.580724
 31
0.0
  0
LINE
  5
4BE
100
AcDbEntity
  8
レイヤー_2
 62
     7
100
AcDbLine
 10
108.992141
 20
160.580724
 30
0.0
 11
108.8316
 21
160.580724
 31
0.0
  0
POLYLINE
  5
4B8
100
AcDbEntity
  8
レイヤー_2
 62
     7
100
AcDb2dPolyline
 66
     1
 10
0.0
 20
0.0
 30
0.0
  0
VERTEX
  5
4B9
100
AcDbEntity
  8
レイヤー_2
 62
     7
100
AcDbVertex
100
AcDb2dVertex
 10
118.066867
 20
160.580724
 30
0.0
  0
VERTEX
  5
4BA
100
AcDbEntity
  8
レイヤー_2
 62
     7
100
AcDbVertex
100
AcDb2dVertex
 10
118.074447
 20
160.581068
 30
0.0
  0
VERTEX
  5
4BB
100
AcDbEntity
  8
レイヤー_2
 62
     7
100
AcDbVertex
100
AcDb2dVertex
 10
118.082026
 20
160.581068
 30
0.0
  0
VERTEX
  5
4BC
100
AcDbEntity
  8
レイヤー_2
 62
     7
100
AcDbVertex
100
AcDb2dVertex
 10
118.084782
 20
160.581413
 30
0.0
  0
SEQEND
  5
4BD
100
AcDbEntity
  8
レイヤー_2
 62
     7
  0
LINE
  5
4B7
100
AcDbEntity
  8
レイヤー_2
 62
     7
100
AcDbLine
 10
117.746129
 20
160.580724
 30
0.0
 11
118.066867
 21
160.580724
 31
0.0
  0
POLYLINE
  5
4B1
100
AcDbEntity
  8
レイヤー_2
 62
     7
100
AcDb2dPolyline
 66
     1
 10
0.0
 20
0.0
 30
0.0
  0
VERTEX
  5
4B2
100
AcDbEntity
  8
レイヤー_2
 62
     7
100
AcDbVertex
100
AcDb2dVertex
 10
117.717535
 20
160.580379
 30
0.0
  0
VERTEX
  5
4B3
100
AcDbEntity
  8
レイヤー_2
 62
     7
100
AcDbVertex
100
AcDb2dVertex
 10
117.719946
 20
160.580379
 30
0.0
  0
VERTEX
  5
4B4
100
AcDbEntity
  8
レイヤー_2
 62
     7
100
AcDbVertex
100
AcDb2dVertex
 10
117.726836
 20
160.580724
 30
0.0
  0
VERTEX
  5
4B5
100
AcDbEntity
  8
レイヤー_2
 62
     7
100
AcDbVertex
100
AcDb2dVertex
 10
117.746129
 20
160.580724
 30
0.0
  0
SEQEND
  5
4B6
100
AcDbEntity
  8
レイヤー_2
 62
     7
  0
SPLINE
  5
4B0
100
AcDbEntity
  8
レイヤー_2
 62
     7
100
AcDbSpline
210
0.0
220
0.0
230
1.0
 70
     8
 71
     3
 72
     8
 73
     4
 74
     0
 42
0.00000001
 43
0.00000001
 40
0.0
 40
0.0
 40
0.0
 40
0.0
 40
1.0
 40
1.0
 40
1.0
 40
1.0
 10
112.06620008680555
 20
159.77319335937497
 30
0.0
 10
112.16025119357639
 20
159.77801649305553
 30
0.0
 10
112.25499131944443
 20
159.78352864583331
 30
0.0
 10
112.33491753472221
 20
159.78800726996528
 30
0.0
  0
SPLINE
  5
4AF
100
AcDbEntity
  8
レイヤー_2
 62
     7
100
AcDbSpline
210
0.0
220
0.0
230
1.0
 70
     8
 71
     3
 72
     8
 73
     4
 74
     0
 42
0.00000001
 43
0.00000001
 40
0.0
 40
0.0
 40
0.0
 40
0.0
 40
1.0
 40
1.0
 40
1.0
 40
1.0
 10
114.83467881944443
 20
159.9816216362847
 30
0.0
 10
116.06871202256943
 20
160.10598958333333
 30
0.0
 10
116.93963216145832
 20
160.2448269314236
 30
0.0
 10
117.38025987413194
 20
160.37367350260416
 30
0.0
  0
SPLINE
  5
4AE
100
AcDbEntity
  8
レイヤー_2
 62
     7
100
AcDbSpline
210
0.0
220
0.0
230
1.0
 70
     8
 71
     3
 72
    23
 73
    19
 74
     0
 42
0.00000001
 43
0.00000001
 40
0.0
 40
0.0
 40
0.0
 40
0.0
 40
1.0
 40
1.0
 40
1.0
 40
2.0
 40
2.0
 40
2.0
 40
3.0
 40
3.0
 40
3.0
 40
4.0
 40
4.0
 40
4.0
 40
5.0
 40
5.0
 40
5.0
 40
6.0
 40
6.0
 40
6.0
 40
6.0
 10
118.08478190104165
 20
160.58141276041664
 30
0.0
 10
118.11199815538194
 20
160.5862358940972
 30
0.0
 10
118.13921440972221
 20
160.59071451822916
 30
0.0
 10
118.16505262586804
 20
160.60104980468748
 30
0.0
 10
118.19089084201387
 20
160.61138509114582
 30
0.0
 10
118.21397298177082
 20
160.62723253038192
 30
0.0
 10
118.23464355468749
 20
160.64618055555553
 30
0.0
 10
118.25496961805554
 20
160.66581759982637
 30
0.0
 10
118.2721950954861
 20
160.68786621093747
 30
0.0
 10
118.28563096788193
 20
160.71232638888887
 30
0.0
 10
118.29872233072916
 20
160.73782009548609
 30
0.0
 10
118.30767957899305
 20
160.76469184027778
 30
0.0
 10
118.31284722222222
 20
160.79225260416666
 30
0.0
 10
118.31353624131944
 20
160.8029324001736
 30
0.0
 10
118.31525878906248
 20
160.81361219618054
 30
0.0
 10
118.31525878906248
 20
160.82394748263889
 30
0.0
 10
118.31525878906248
 20
160.82394748263889
 30
0.0
 10
118.31560329861109
 20
160.83083767361109
 30
0.0
 10
118.31560329861109
 20
160.83083767361109
 30
0.0
  0
LINE
  5
4AD
100
AcDbEntity
  8
レイヤー_2
 62
     7
100
AcDbLine
 10
118.333862
 20
162.581291
 30
0.0
 11
116.336051
 21
162.581291
 31
0.0
  0
LINE
  5
4AC
100
AcDbEntity
  8
レイヤー_2
 62
     7
100
AcDbLine
 10
118.066867
 20
160.580724
 30
0.0
 11
118.084437
 21
160.580724
 31
0.0
  0
LINE
  5
4AB
100
AcDbEntity
  8
レイヤー_2
 62
     7
100
AcDbLine
 10
116.336051
 20
162.581291
 30
0.0
 11
114.834679
 21
162.581291
 31
0.0
  0
LINE
  5
4AA
100
AcDbEntity
  8
レイヤー_2
 62
     7
100
AcDbLine
 10
109.633274
 20
159.635045
 30
0.0
 11
111.882232
 21
159.635045
 31
0.0
  0
LINE
  5
4A9
100
AcDbEntity
  8
レイヤー_2
 62
     7
100
AcDbLine
 10
112.084459
 20
162.581291
 30
0.0
 11
110.260626
 21
162.581291
 31
0.0
  0
LINE
  5
4A8
100
AcDbEntity
  8
レイヤー_2
 62
     7
100
AcDbLine
 10
108.656245
 20
159.635045
 30
0.0
 11
109.544046
 21
159.635045
 31
0.0
  0
LINE
  5
4A7
100
AcDbEntity
  8
レイヤー_2
 62
     7
100
AcDbLine
 10
109.544046
 20
159.635045
 30
0.0
 11
109.548524
 21
159.635045
 31
0.0
  0
LINE
  5
4A6
100
AcDbEntity
  8
レイヤー_2
 62
     7
100
AcDbLine
 10
109.548524
 20
159.635045
 30
0.0
 11
109.633274
 21
159.635045
 31
0.0
  0
LINE
  5
4A5
100
AcDbEntity
  8
レイヤー_2
 62
     7
100
AcDbLine
 10
108.284174
 20
159.631255
 30
0.0
 11
107.162451
 21
159.631255
 31
0.0
  0
SPLINE
  5
4A4
100
AcDbEntity
  8
レイヤー_2
 62
     7
100
AcDbSpline
210
0.0
220
0.0
230
1.0
 70
     8
 71
     3
 72
     8
 73
     4
 74
     0
 42
0.00000001
 43
0.00000001
 40
0.0
 40
0.0
 40
0.0
 40
0.0
 40
1.0
 40
1.0
 40
1.0
 40
1.0
 10
111.88361002604165
 20
159.63504503038192
 30
0.0
 10
111.99075249565971
 20
159.65364854600693
 30
0.0
 10
112.06998969184026
 20
159.73839789496526
 30
0.0
 10
112.08755967881943
 20
159.84106174045138
 30
0.0
  0
LINE
  5
4A3
100
AcDbEntity
  8
レイヤー_2
 62
     7
100
AcDbLine
 10
112.334918
 20
162.581291
 30
0.0
 11
112.084459
 21
162.581291
 31
0.0
  0
LINE
  5
4A2
100
AcDbEntity
  8
レイヤー_2
 62
     7
100
AcDbLine
 10
112.098239
 20
159.90583
 30
0.0
 11
112.08756
 21
159.841062
 31
0.0
  0
LINE
  5
4A1
100
AcDbEntity
  8
レイヤー_2
 62
     7
100
AcDbLine
 10
114.947333
 20
176.46916
 30
0.0
 11
114.947333
 21
176.718929
 31
0.0
  0
LINE
  5
4A0
100
AcDbEntity
  8
レイヤー_2
 62
     7
100
AcDbLine
 10
112.218473
 20
176.718929
 30
0.0
 11
112.218473
 21
176.46916
 31
0.0
  0
LINE
  5
49F
100
AcDbEntity
  8
レイヤー_2
 62
     7
100
AcDbLine
 10
112.260159
 20
176.46916
 30
0.0
 11
112.210205
 21
176.46916
 31
0.0
  0
LINE
  5
49E
100
AcDbEntity
  8
レイヤー_2
 62
     7
100
AcDbLine
 10
112.388317
 20
176.46916
 30
0.0
 11
112.260159
 21
176.46916
 31
0.0
  0
LINE
  5
49D
100
AcDbEntity
  8
レイヤー_2
 62
     7
100
AcDbLine
 10
112.907837
 20
176.46916
 30
0.0
 11
112.388317
 21
176.46916
 31
0.0
  0
LINE
  5
49C
100
AcDbEntity
  8
レイヤー_2
 62
     7
100
AcDbLine
 10
113.217551
 20
176.46916
 30
0.0
 11
112.907837
 21
176.46916
 31
0.0
  0
LINE
  5
49B
100
AcDbEntity
  8
レイヤー_2
 62
     7
100
AcDbLine
 10
113.952045
 20
176.46916
 30
0.0
 11
113.217551
 21
176.46916
 31
0.0
  0
LINE
  5
49A
100
AcDbEntity
  8
レイヤー_2
 62
     7
100
AcDbLine
 10
114.262104
 20
176.46916
 30
0.0
 11
113.952045
 21
176.46916
 31
0.0
  0
LINE
  5
499
100
AcDbEntity
  8
レイヤー_2
 62
     7
100
AcDbLine
 10
114.781624
 20
176.46916
 30
0.0
 11
114.262104
 21
176.46916
 31
0.0
  0
LINE
  5
498
100
AcDbEntity
  8
レイヤー_2
 62
     7
100
AcDbLine
 10
114.910126
 20
176.46916
 30
0.0
 11
114.781624
 21
176.46916
 31
0.0
  0
LINE
  5
497
100
AcDbEntity
  8
レイヤー_2
 62
     7
100
AcDbLine
 10
114.959736
 20
176.46916
 30
0.0
 11
114.910126
 21
176.46916
 31
0.0
  0
LINE
  5
496
100
AcDbEntity
  8
レイヤー_2
 62
     7
100
AcDbLine
 10
115.085137
 20
175.094222
 30
0.0
 11
112.084804
 21
175.094222
 31
0.0
  0
LINE
  5
495
100
AcDbEntity
  8
レイヤー_2
 62
     7
100
AcDbLine
 10
113.217551
 20
176.718929
 30
0.0
 11
113.217551
 21
176.46916
 31
0.0
  0
LINE
  5
494
100
AcDbEntity
  8
レイヤー_2
 62
     7
100
AcDbLine
 10
112.907837
 20
176.46916
 30
0.0
 11
112.907837
 21
176.718929
 31
0.0
  0
LINE
  5
493
100
AcDbEntity
  8
レイヤー_2
 62
     7
100
AcDbLine
 10
113.952045
 20
176.46916
 30
0.0
 11
113.952045
 21
176.718929
 31
0.0
  0
LINE
  5
492
100
AcDbEntity
  8
レイヤー_2
 62
     7
100
AcDbLine
 10
114.262104
 20
176.718929
 30
0.0
 11
114.262104
 21
176.46916
 31
0.0
  0
LINE
  5
491
100
AcDbEntity
  8
レイヤー_2
 62
     7
100
AcDbLine
 10
112.388317
 20
176.718929
 30
0.0
 11
112.388317
 21
176.46916
 31
0.0
  0
LINE
  5
490
100
AcDbEntity
  8
レイヤー_2
 62
     7
100
AcDbLine
 10
114.781624
 20
176.46916
 30
0.0
 11
114.781624
 21
176.718929
 31
0.0
  0
LINE
  5
48F
100
AcDbEntity
  8
レイヤー_2
 62
     7
100
AcDbLine
 10
114.910126
 20
176.718929
 30
0.0
 11
114.910126
 21
176.46916
 31
0.0
  0
LINE
  5
48E
100
AcDbEntity
  8
レイヤー_2
 62
     7
100
AcDbLine
 10
112.260159
 20
176.46916
 30
0.0
 11
112.260159
 21
176.718929
 31
0.0
  0
LINE
  5
48D
100
AcDbEntity
  8
レイヤー_2
 62
     7
100
AcDbLine
 10
107.829422
 20
176.718929
 30
0.0
 11
116.172065
 21
176.718929
 31
0.0
  0
LINE
  5
48C
100
AcDbEntity
  8
レイヤー_2
 62
     7
100
AcDbLine
 10
107.747428
 20
176.718929
 30
0.0
 11
107.829422
 21
176.718929
 31
0.0
  0
SPLINE
  5
48B
100
AcDbEntity
  8
レイヤー_2
 62
     7
100
AcDbSpline
210
0.0
220
0.0
230
1.0
 70
     8
 71
     3
 72
    14
 73
    10
 74
     0
 42
0.00000001
 43
0.00000001
 40
0.0
 40
0.0
 40
0.0
 40
0.0
 40
1.0
 40
1.0
 40
1.0
 40
2.0
 40
2.0
 40
2.0
 40
3.0
 40
3.0
 40
3.0
 40
3.0
 10
106.08620334201387
 20
206.70676269531248
 30
0.0
 10
106.08000217013888
 20
206.65129665798608
 30
0.0
 10
106.07380099826388
 20
206.59479709201386
 30
0.0
 10
106.06759982638889
 20
206.5520779079861
 30
0.0
 10
106.06277669270833
 20
206.50901421440972
 30
0.0
 10
106.05726453993054
 20
206.47594129774305
 30
0.0
 10
106.05726453993054
 20
206.47594129774305
 30
0.0
 10
106.05726453993054
 20
206.47594129774305
 30
0.0
 10
106.05795355902777
 20
206.47938639322913
 30
0.0
 10
106.05795355902777
 20
206.47938639322913
 30
0.0
  0
SPLINE
  5
48A
100
AcDbEntity
  8
レイヤー_2
 62
     7
100
AcDbSpline
210
0.0
220
0.0
230
1.0
 70
     8
 71
     3
 72
    29
 73
    25
 74
     0
 42
0.00000001
 43
0.00000001
 40
0.0
 40
0.0
 40
0.0
 40
0.0
 40
1.0
 40
1.0
 40
1.0
 40
2.0
 40
2.0
 40
2.0
 40
3.0
 40
3.0
 40
3.0
 40
4.0
 40
4.0
 40
4.0
 40
5.0
 40
5.0
 40
5.0
 40
6.0
 40
6.0
 40
6.0
 40
7.0
 40
7.0
 40
7.0
 40
8.0
 40
8.0
 40
8.0
 40
8.0
 10
106.07862413194444
 20
208.01004231770833
 30
0.0
 10
106.07862413194444
 20
208.01004231770833
 30
0.0
 10
106.07862413194444
 20
208.01658799913193
 30
0.0
 10
106.07862413194444
 20
208.01658799913193
 30
0.0
 10
106.07862413194444
 20
208.01658799913193
 30
0.0
 10
106.08138020833333
 20
207.98799370659719
 30
0.0
 10
106.08551432291665
 20
207.95009765624999
 30
0.0
 10
106.08964843749999
 20
207.91185709635414
 30
0.0
 10
106.09516059027777
 20
207.86397026909719
 30
0.0
 10
106.09929470486109
 20
207.80471462673609
 30
0.0
 10
106.10411783854165
 20
207.74545898437498
 30
0.0
 10
106.10962999131944
 20
207.67449001736108
 30
0.0
 10
106.11238606770833
 20
207.59663085937498
 30
0.0
 10
106.11583116319443
 20
207.51808268229163
 30
0.0
 10
106.11858723958332
 20
207.43436686197916
 30
0.0
 10
106.11858723958332
 20
207.34755045572913
 30
0.0
 10
106.11927625868054
 20
207.26176757812499
 30
0.0
 10
106.1178982204861
 20
207.17391764322915
 30
0.0
 10
106.114453125
 20
207.08882378472219
 30
0.0
 10
106.11031901041666
 20
207.00372992621527
 30
0.0
 10
106.10618489583332
 20
206.92139214409721
 30
0.0
 10
106.09929470486109
 20
206.84835611979165
 30
0.0
 10
106.09584960937499
 20
206.79771321614581
 30
0.0
 10
106.09102647569443
 20
206.75189344618053
 30
0.0
 10
106.08620334201387
 20
206.70676269531248
 30
0.0
  0
LINE
  5
489
100
AcDbEntity
  8
レイヤー_2
 62
     7
100
AcDbLine
 10
117.828467
 20
204.494322
 30
0.0
 11
106.104807
 21
204.494322
 31
0.0
  0
SPLINE
  5
488
100
AcDbEntity
  8
レイヤー_2
 62
     7
100
AcDbSpline
210
0.0
220
0.0
230
1.0
 70
     8
 71
     3
 72
    20
 73
    16
 74
     0
 42
0.00000001
 43
0.00000001
 40
0.0
 40
0.0
 40
0.0
 40
0.0
 40
1.0
 40
1.0
 40
1.0
 40
2.0
 40
2.0
 40
2.0
 40
3.0
 40
3.0
 40
3.0
 40
4.0
 40
4.0
 40
4.0
 40
5.0
 40
5.0
 40
5.0
 40
5.0
 10
117.84879286024305
 20
215.9937065972222
 30
0.0
 10
117.84879286024305
 20
215.9937065972222
 30
0.0
 10
117.83260091145833
 20
215.9937065972222
 30
0.0
 10
117.83260091145833
 20
215.9937065972222
 30
0.0
 10
117.78781467013887
 20
215.9937065972222
 30
0.0
 10
117.74302842881943
 20
215.9937065972222
 30
0.0
 10
117.70134277343749
 20
215.99301757812498
 30
0.0
 10
117.65931260850694
 20
215.99301757812498
 30
0.0
 10
117.6210720486111
 20
215.99301757812498
 30
0.0
 10
117.58662109374998
 20
215.99301757812498
 30
0.0
 10
117.55182562934027
 20
215.99232855902775
 30
0.0
 10
117.52219780815972
 20
215.99232855902775
 30
0.0
 10
117.50118272569443
 20
215.99232855902775
 30
0.0
 10
117.47982313368054
 20
215.99232855902775
 30
0.0
 10
117.46707628038193
 20
215.99232855902775
 30
0.0
 10
117.45536295572916
 20
215.99163953993053
 30
0.0
  0
SPLINE
  5
487
100
AcDbEntity
  8
レイヤー_2
 62
     7
100
AcDbSpline
210
0.0
220
0.0
230
1.0
 70
     8
 71
     3
 72
    20
 73
    16
 74
     0
 42
0.00000001
 43
0.00000001
 40
0.0
 40
0.0
 40
0.0
 40
0.0
 40
1.0
 40
1.0
 40
1.0
 40
2.0
 40
2.0
 40
2.0
 40
3.0
 40
3.0
 40
3.0
 40
4.0
 40
4.0
 40
4.0
 40
5.0
 40
5.0
 40
5.0
 40
5.0
 10
118.14334852430555
 20
211.49372287326386
 30
0.0
 10
118.10028483072915
 20
211.48958875868053
 30
0.0
 10
118.05687662760415
 20
211.48511013454859
 30
0.0
 10
118.01691351996527
 20
211.47236328124998
 30
0.0
 10
117.97522786458332
 20
211.45996093749997
 30
0.0
 10
117.93664279513888
 20
211.43791232638887
 30
0.0
 10
117.90391438802082
 20
211.41069607204858
 30
0.0
 10
117.86980794270832
 20
211.38347981770832
 30
0.0
 10
117.84155815972221
 20
211.3517849392361
 30
0.0
 10
117.81778700086805
 20
211.31595594618054
 30
0.0
 10
117.79539388020832
 20
211.27943793402775
 30
0.0
 10
117.77816840277777
 20
211.23981933593748
 30
0.0
 10
117.76990017361111
 20
211.19778917100692
 30
0.0
 10
117.76404351128471
 20
211.17057291666666
 30
0.0
 10
117.76232096354165
 20
211.14197862413192
 30
0.0
 10
117.7605984157986
 20
211.11407335069441
 30
0.0
  0
LINE
  5
486
100
AcDbEntity
  8
レイヤー_2
 62
     7
100
AcDbLine
 10
135.017082
 20
211.493723
 30
0.0
 11
118.143349
 21
211.493723
 31
0.0
  0
SPLINE
  5
485
100
AcDbEntity
  8
レイヤー_2
 62
     7
100
AcDbSpline
210
0.0
220
0.0
230
1.0
 70
     8
 71
     3
 72
     8
 73
     4
 74
     0
 42
0.00000001
 43
0.00000001
 40
0.0
 40
0.0
 40
0.0
 40
0.0
 40
1.0
 40
1.0
 40
1.0
 40
1.0
 10
135.01708170572917
 20
211.49372287326386
 30
0.0
 10
135.12732476128471
 20
211.49372287326386
 30
0.0
 10
135.21724175347222
 20
211.58398437499997
 30
0.0
 10
135.21724175347222
 20
211.69388292100692
 30
0.0
  0
LINE
  5
484
100
AcDbEntity
  8
レイヤー_2
 62
     7
100
AcDbLine
 10
135.217242
 20
215.793202
 30
0.0
 11
135.217242
 21
211.693883
 31
0.0
  0
LINE
  5
483
100
AcDbEntity
  8
レイヤー_2
 62
     7
100
AcDbLine
 10
135.217242
 20
215.794236
 30
0.0
 11
135.217242
 21
215.793202
 31
0.0
  0
LINE
  5
482
100
AcDbEntity
  8
レイヤー_2
 62
     7
100
AcDbLine
 10
115.535067
 20
200.207246
 30
0.0
 11
115.535067
 21
200.390525
 31
0.0
  0
LINE
  5
481
100
AcDbEntity
  8
レイヤー_2
 62
     7
100
AcDbLine
 10
115.632907
 20
200.190709
 30
0.0
 11
115.535067
 21
200.207246
 31
0.0
  0
LINE
  5
480
100
AcDbEntity
  8
レイヤー_2
 62
     7
100
AcDbLine
 10
115.535067
 20
200.390525
 30
0.0
 11
115.535067
 21
203.497656
 31
0.0
  0
LINE
  5
47F
100
AcDbEntity
  8
レイヤー_2
 62
     7
100
AcDbLine
 10
115.535067
 20
203.680591
 30
0.0
 11
115.632907
 21
203.698161
 31
0.0
  0
LINE
  5
47E
100
AcDbEntity
  8
レイヤー_2
 62
     7
100
AcDbLine
 10
115.535067
 20
203.497656
 30
0.0
 11
115.535067
 21
203.680591
 31
0.0
  0
LINE
  5
47D
100
AcDbEntity
  8
レイヤー_2
 62
     7
100
AcDbLine
 10
145.538059
 20
197.872849
 30
0.0
 11
143.541281
 21
195.492632
 31
0.0
  0
SPLINE
  5
47C
100
AcDbEntity
  8
レイヤー_2
 62
     7
100
AcDbSpline
210
0.0
220
0.0
230
1.0
 70
     8
 71
     3
 72
    23
 73
    19
 74
     0
 42
0.00000001
 43
0.00000001
 40
0.0
 40
0.0
 40
0.0
 40
0.0
 40
1.0
 40
1.0
 40
1.0
 40
2.0
 40
2.0
 40
2.0
 40
3.0
 40
3.0
 40
3.0
 40
4.0
 40
4.0
 40
4.0
 40
5.0
 40
5.0
 40
5.0
 40
6.0
 40
6.0
 40
6.0
 40
6.0
 10
117.79022623697915
 20
203.73846842447915
 30
0.0
 10
117.79022623697915
 20
203.73846842447915
 30
0.0
 10
117.7978054470486
 20
203.73846842447915
 30
0.0
 10
117.7978054470486
 20
203.73846842447915
 30
0.0
 10
117.7978054470486
 20
203.73846842447915
 30
0.0
 10
117.7326931423611
 20
203.73777940538193
 30
0.0
 10
117.65483398437499
 20
203.73605685763886
 30
0.0
 10
117.57490776909721
 20
203.73364529079859
 30
0.0
 10
117.47293294270833
 20
203.73157823350692
 30
0.0
 10
117.34408637152777
 20
203.72847764756943
 30
0.0
 10
117.21765136718749
 20
203.72606608072914
 30
0.0
 10
117.06503363715277
 20
203.72296549479165
 30
0.0
 10
116.89105631510415
 20
203.71952039930554
 30
0.0
 10
116.71225585937499
 20
203.71573079427083
 30
0.0
 10
116.51037326388888
 20
203.71228569878471
 30
0.0
 10
116.28334147135416
 20
203.70815158420137
 30
0.0
 10
116.07973632812499
 20
203.70470648871526
 30
0.0
 10
115.85649414062499
 20
203.70126139322915
 30
0.0
 10
115.63290744357637
 20
203.69816080729166
 30
0.0
  0
SPLINE
  5
47B
100
AcDbEntity
  8
レイヤー_2
 62
     7
100
AcDbSpline
210
0.0
220
0.0
230
1.0
 70
     8
 71
     3
 72
    23
 73
    19
 74
     0
 42
0.00000001
 43
0.00000001
 40
0.0
 40
0.0
 40
0.0
 40
0.0
 40
1.0
 40
1.0
 40
1.0
 40
2.0
 40
2.0
 40
2.0
 40
3.0
 40
3.0
 40
3.0
 40
4.0
 40
4.0
 40
4.0
 40
5.0
 40
5.0
 40
5.0
 40
6.0
 40
6.0
 40
6.0
 40
6.0
 10
117.79022623697915
 20
200.1497124565972
 30
0.0
 10
117.79022623697915
 20
200.1497124565972
 30
0.0
 10
117.7978054470486
 20
200.1497124565972
 30
0.0
 10
117.7978054470486
 20
200.1497124565972
 30
0.0
 10
117.7978054470486
 20
200.1497124565972
 30
0.0
 10
117.7326931423611
 20
200.15040147569442
 30
0.0
 10
117.65483398437499
 20
200.15212402343749
 30
0.0
 10
117.57490776909721
 20
200.15419108072913
 30
0.0
 10
117.47293294270833
 20
200.1562581380208
 30
0.0
 10
117.34408637152777
 20
200.15970323350692
 30
0.0
 10
117.21765136718749
 20
200.16177029079859
 30
0.0
 10
117.06503363715277
 20
200.1648708767361
 30
0.0
 10
116.89105631510415
 20
200.16866048177081
 30
0.0
 10
116.71225585937499
 20
200.17245008680553
 30
0.0
 10
116.51037326388888
 20
200.17589518229164
 30
0.0
 10
116.28334147135416
 20
200.18002929687498
 30
0.0
 10
116.07973632812499
 20
200.18381890190972
 30
0.0
 10
115.85649414062499
 20
200.18691948784721
 30
0.0
 10
115.63290744357637
 20
200.19070909288192
 30
0.0
  0
LINE
  5
47A
100
AcDbEntity
  8
レイヤー_2
 62
     7
100
AcDbLine
 10
118.889212
 20
200.150057
 30
0.0
 11
118.790337
 21
200.149712
 31
0.0
  0
SPLINE
  5
479
100
AcDbEntity
  8
レイヤー_2
 62
     7
100
AcDbSpline
210
0.0
220
0.0
230
1.0
 70
     8
 71
     3
 72
    35
 73
    31
 74
     0
 42
0.00000001
 43
0.00000001
 40
0.0
 40
0.0
 40
0.0
 40
0.0
 40
1.0
 40
1.0
 40
1.0
 40
2.0
 40
2.0
 40
2.0
 40
3.0
 40
3.0
 40
3.0
 40
4.0
 40
4.0
 40
4.0
 40
5.0
 40
5.0
 40
5.0
 40
6.0
 40
6.0
 40
6.0
 40
7.0
 40
7.0
 40
7.0
 40
8.0
 40
8.0
 40
8.0
 40
9.0
 40
9.0
 40
9.0
 40
10.0
 40
10.0
 40
10.0
 40
10.0
 10
118.66355794270832
 20
200.14867892795138
 30
0.0
 10
118.66355794270832
 20
200.14867892795138
 30
0.0
 10
118.66665852864583
 20
200.14867892795138
 30
0.0
 10
118.66665852864583
 20
200.14867892795138
 30
0.0
 10
118.67768283420138
 20
200.14867892795138
 30
0.0
 10
118.71385633680555
 20
200.14867892795138
 30
0.0
 10
118.76002061631944
 20
200.1497124565972
 30
0.0
 10
118.80721842447916
 20
200.1497124565972
 30
0.0
 10
118.86475151909721
 20
200.15005696614583
 30
0.0
 10
118.93227539062499
 20
200.15005696614583
 30
0.0
 10
119.00117730034721
 20
200.15005696614583
 30
0.0
 10
119.08006998697915
 20
200.15005696614583
 30
0.0
 10
119.16481933593749
 20
200.15005696614583
 30
0.0
 10
119.24956868489582
 20
200.15005696614583
 30
0.0
 10
119.33983018663193
 20
200.15040147569442
 30
0.0
 10
119.43043619791666
 20
200.15040147569442
 30
0.0
 10
119.52138671874999
 20
200.15040147569442
 30
0.0
 10
119.61268174913194
 20
200.15005696614583
 30
0.0
 10
119.69949815538193
 20
200.15005696614583
 30
0.0
 10
119.78665907118055
 20
200.15005696614583
 30
0.0
 10
119.8689968532986
 20
200.15005696614583
 30
0.0
 10
119.94168836805555
 20
200.15005696614583
 30
0.0
 10
120.01403537326388
 20
200.15005696614583
 30
0.0
 10
120.07742513020833
 20
200.1497124565972
 30
0.0
 10
120.12910156249998
 20
200.1497124565972
 30
0.0
 10
120.18077799479165
 20
200.1497124565972
 30
0.0
 10
120.22280815972221
 20
200.14867892795138
 30
0.0
 10
120.24141167534721
 20
200.14867892795138
 30
0.0
 10
120.25588107638887
 20
200.14867892795138
 30
0.0
 10
120.2596706814236
 20
200.14867892795138
 30
0.0
 10
120.2596706814236
 20
200.14867892795138
 30
0.0
  0
LINE
  5
478
100
AcDbEntity
  8
レイヤー_2
 62
     7
100
AcDbLine
 10
140.751443
 20
197.518693
 30
0.0
 11
140.756266
 21
197.515248
 31
0.0
  0
LINE
  5
477
100
AcDbEntity
  8
レイヤー_2
 62
     7
100
AcDbLine
 10
140.756266
 20
197.515248
 30
0.0
 11
140.79554
 21
197.481831
 31
0.0
  0
LINE
  5
476
100
AcDbEntity
  8
レイヤー_2
 62
     7
100
AcDbLine
 10
140.79554
 20
197.481831
 30
0.0
 11
140.863753
 21
197.424297
 31
0.0
  0
LINE
  5
475
100
AcDbEntity
  8
レイヤー_2
 62
     7
100
AcDbLine
 10
140.863753
 20
197.424297
 30
0.0
 11
140.953326
 21
197.349539
 31
0.0
  0
LINE
  5
474
100
AcDbEntity
  8
レイヤー_2
 62
     7
100
AcDbLine
 10
140.953326
 20
197.349539
 30
0.0
 11
141.052889
 21
197.265479
 31
0.0
  0
LINE
  5
473
100
AcDbEntity
  8
レイヤー_2
 62
     7
100
AcDbLine
 10
141.052889
 20
197.265479
 30
0.0
 11
141.152797
 21
197.182452
 31
0.0
  0
LINE
  5
472
100
AcDbEntity
  8
レイヤー_2
 62
     7
100
AcDbLine
 10
141.152797
 20
197.182452
 30
0.0
 11
141.240302
 21
197.108382
 31
0.0
  0
LINE
  5
471
100
AcDbEntity
  8
レイヤー_2
 62
     7
100
AcDbLine
 10
141.240302
 20
197.108382
 30
0.0
 11
141.306793
 21
197.052227
 31
0.0
  0
LINE
  5
470
100
AcDbEntity
  8
レイヤー_2
 62
     7
100
AcDbLine
 10
141.306793
 20
197.052227
 30
0.0
 11
141.344689
 21
197.020877
 31
0.0
  0
LINE
  5
46F
100
AcDbEntity
  8
レイヤー_2
 62
     7
100
AcDbLine
 10
141.344689
 20
197.020877
 30
0.0
 11
141.35089
 21
197.015709
 31
0.0
  0
LINE
  5
46E
100
AcDbEntity
  8
レイヤー_2
 62
     7
100
AcDbLine
 10
143.541281
 20
195.492632
 30
0.0
 11
143.529224
 21
195.478507
 31
0.0
  0
LINE
  5
46D
100
AcDbEntity
  8
レイヤー_2
 62
     7
100
AcDbLine
 10
143.529224
 20
195.478507
 30
0.0
 11
143.5213
 21
195.468861
 31
0.0
  0
LINE
  5
46C
100
AcDbEntity
  8
レイヤー_2
 62
     7
100
AcDbLine
 10
143.5213
 20
195.468861
 30
0.0
 11
143.516132
 21
195.463005
 31
0.0
  0
LINE
  5
46B
100
AcDbEntity
  8
レイヤー_2
 62
     7
100
AcDbLine
 10
143.516132
 20
195.463005
 30
0.0
 11
143.51441
 21
195.461282
 31
0.0
  0
LINE
  5
46A
100
AcDbEntity
  8
レイヤー_2
 62
     7
100
AcDbLine
 10
145.565275
 20
197.905233
 30
0.0
 11
145.563208
 21
197.902477
 31
0.0
  0
LINE
  5
469
100
AcDbEntity
  8
レイヤー_2
 62
     7
100
AcDbLine
 10
145.563208
 20
197.902477
 30
0.0
 11
145.558385
 21
197.89662
 31
0.0
  0
LINE
  5
468
100
AcDbEntity
  8
レイヤー_2
 62
     7
100
AcDbLine
 10
145.558385
 20
197.89662
 30
0.0
 11
145.550117
 21
197.887318
 31
0.0
  0
LINE
  5
467
100
AcDbEntity
  8
レイヤー_2
 62
     7
100
AcDbLine
 10
145.550117
 20
197.887318
 30
0.0
 11
145.538059
 21
197.872849
 31
0.0
  0
LINE
  5
466
100
AcDbEntity
  8
レイヤー_2
 62
     7
100
AcDbLine
 10
117.809863
 20
177.468582
 30
0.0
 11
106.110319
 21
177.468582
 31
0.0
  0
LINE
  5
465
100
AcDbEntity
  8
レイヤー_2
 62
     7
100
AcDbLine
 10
106.184733
 20
203.719176
 30
0.0
 11
116.906559
 21
203.719176
 31
0.0
  0
LINE
  5
464
100
AcDbEntity
  8
レイヤー_2
 62
     7
100
AcDbLine
 10
111.993509
 20
152.73004
 30
0.0
 11
111.993509
 21
149.77966
 31
0.0
  0
LINE
  5
463
100
AcDbEntity
  8
レイヤー_2
 62
     7
100
AcDbLine
 10
108.582864
 20
152.755878
 30
0.0
 11
108.582864
 21
149.755545
 31
0.0
  0
LINE
  5
462
100
AcDbEntity
  8
レイヤー_2
 62
     7
100
AcDbLine
 10
108.952867
 20
152.755878
 30
0.0
 11
108.952867
 21
158.60634
 31
0.0
  0
LINE
  5
461
100
AcDbEntity
  8
レイヤー_2
 62
     7
100
AcDbLine
 10
111.58492
 20
158.60634
 30
0.0
 11
111.960091
 21
159.256085
 31
0.0
  0
LINE
  5
460
100
AcDbEntity
  8
レイヤー_2
 62
     7
100
AcDbLine
 10
111.960091
 20
159.256085
 30
0.0
 11
111.960091
 21
159.621265
 31
0.0
  0
LINE
  5
45F
100
AcDbEntity
  8
レイヤー_2
 62
     7
100
AcDbLine
 10
111.960091
 20
159.621265
 30
0.0
 11
111.880854
 21
159.635045
 31
0.0
  0
LINE
  5
45E
100
AcDbEntity
  8
レイヤー_2
 62
     7
100
AcDbLine
 10
111.882232
 20
159.635045
 30
0.0
 11
111.882921
 21
159.635045
 31
0.0
  0
LINE
  5
45D
100
AcDbEntity
  8
レイヤー_2
 62
     7
100
AcDbLine
 10
108.952867
 20
158.60634
 30
0.0
 11
108.578385
 21
159.256085
 31
0.0
  0
LINE
  5
45C
100
AcDbEntity
  8
レイヤー_2
 62
     7
100
AcDbLine
 10
108.578385
 20
159.256085
 30
0.0
 11
108.578385
 21
159.621265
 31
0.0
  0
LINE
  5
45B
100
AcDbEntity
  8
レイヤー_2
 62
     7
100
AcDbLine
 10
108.578385
 20
159.621265
 30
0.0
 11
108.657623
 21
159.635045
 31
0.0
  0
LINE
  5
45A
100
AcDbEntity
  8
レイヤー_2
 62
     7
100
AcDbLine
 10
108.656245
 20
159.635045
 30
0.0
 11
108.654867
 21
159.635045
 31
0.0
  0
LINE
  5
459
100
AcDbEntity
  8
レイヤー_2
 62
     7
100
AcDbLine
 10
108.582864
 20
149.887836
 30
0.0
 11
108.582864
 21
152.597748
 31
0.0
  0
LINE
  5
458
100
AcDbEntity
  8
レイヤー_2
 62
     7
100
AcDbLine
 10
108.582864
 20
152.597748
 30
0.0
 11
109.285319
 21
152.743132
 31
0.0
  0
LINE
  5
457
100
AcDbEntity
  8
レイヤー_2
 62
     7
100
AcDbLine
 10
108.582864
 20
149.887836
 30
0.0
 11
109.285319
 21
149.742798
 31
0.0
  0
SPLINE
  5
456
100
AcDbEntity
  8
レイヤー_2
 62
     7
100
AcDbSpline
210
0.0
220
0.0
230
1.0
 70
     8
 71
     3
 72
     8
 73
     4
 74
     0
 42
0.00000001
 43
0.00000001
 40
0.0
 40
0.0
 40
0.0
 40
0.0
 40
1.0
 40
1.0
 40
1.0
 40
1.0
 10
67.578304036458334
 20
137.38627387152778
 30
0.0
 10
68.527427842881934
 20
137.65361328124999
 30
0.0
 10
69.556133355034717
 20
137.47963595920137
 30
0.0
 10
70.077720811631934
 20
136.99456651475694
 30
0.0
  0
SPLINE
  5
455
100
AcDbEntity
  8
レイヤー_2
 62
     7
100
AcDbSpline
210
0.0
220
0.0
230
1.0
 70
     8
 71
     3
 72
     8
 73
     4
 74
     0
 42
0.00000001
 43
0.00000001
 40
0.0
 40
0.0
 40
0.0
 40
0.0
 40
1.0
 40
1.0
 40
1.0
 40
1.0
 10
70.70162760416666
 20
136.68554144965276
 30
0.0
 10
71.457481553819434
 20
136.47504611545136
 30
0.0
 10
72.563012695312494
 20
136.51810980902778
 30
0.0
 10
73.203455946180554
 20
136.80129665798609
 30
0.0
  0
LINE
  5
454
100
AcDbEntity
  8
レイヤー_2
  6
AI9-LType2
 62
     7
100
AcDbLine
 10
76.007419
 20
163.08083
 30
0.0
 11
75.994328
 21
163.332666
 31
0.0
  0
LINE
  5
453
100
AcDbEntity
  8
レイヤー_2
 62
     7
100
AcDbLine
 10
75.994328
 20
163.332666
 30
0.0
 11
75.942307
 21
164.33071
 31
0.0
  0
LINE
  5
452
100
AcDbEntity
  8
レイヤー_2
  6
AI9-LType2
 62
     7
100
AcDbLine
 10
64.323033
 20
164.33071
 30
0.0
 11
64.309942
 21
164.079563
 31
0.0
  0
LINE
  5
451
100
AcDbEntity
  8
レイヤー_2
 62
     7
100
AcDbLine
 10
64.309942
 20
164.079563
 30
0.0
 11
64.257232
 21
163.08083
 31
0.0
  0
LINE
  5
450
100
AcDbEntity
  8
レイヤー_2
 62
     7
100
AcDbLine
 10
74.140177
 20
159.621265
 30
0.0
 11
74.086089
 21
159.631255
 31
0.0
  0
LINE
  5
44F
100
AcDbEntity
  8
レイヤー_2
 62
     7
100
AcDbLine
 10
73.765007
 20
158.60634
 30
0.0
 11
74.140177
 21
159.256085
 31
0.0
  0
LINE
  5
44E
100
AcDbEntity
  8
レイヤー_2
 62
     7
100
AcDbLine
 10
74.140177
 20
159.256085
 30
0.0
 11
74.140177
 21
159.621265
 31
0.0
  0
LINE
  5
44D
100
AcDbEntity
  8
レイヤー_2
 62
     7
100
AcDbLine
 10
73.765007
 20
152.755878
 30
0.0
 11
73.765007
 21
158.60634
 31
0.0
  0
LINE
  5
44C
100
AcDbEntity
  8
レイヤー_2
 62
     7
100
AcDbLine
 10
74.241463
 20
152.697312
 30
0.0
 11
74.140177
 21
152.755878
 31
0.0
  0
LINE
  5
44B
100
AcDbEntity
  8
レイヤー_2
 62
     7
100
AcDbLine
 10
74.140177
 20
149.755545
 30
0.0
 11
74.241463
 21
149.814111
 31
0.0
  0
LINE
  5
44A
100
AcDbEntity
  8
レイヤー_2
 62
     7
100
AcDbLine
 10
76.3192
 20
162.581291
 30
0.0
 11
76.3192
 21
163.08083
 31
0.0
  0
LINE
  5
449
100
AcDbEntity
  8
レイヤー_2
 62
     7
100
AcDbLine
 10
68.981147
 20
163.08083
 30
0.0
 11
68.981147
 21
162.581291
 31
0.0
  0
LINE
  5
448
100
AcDbEntity
  8
レイヤー_2
 62
     7
100
AcDbLine
 10
64.1463
 20
163.08083
 30
0.0
 11
64.1463
 21
162.581291
 31
0.0
  0
SPLINE
  5
447
100
AcDbEntity
  8
レイヤー_2
 62
     7
100
AcDbSpline
210
0.0
220
0.0
230
1.0
 70
     8
 71
     3
 72
     8
 73
     4
 74
     0
 42
0.00000001
 43
0.00000001
 40
0.0
 40
0.0
 40
0.0
 40
0.0
 40
1.0
 40
1.0
 40
1.0
 40
1.0
 10
76.068397352430551
 20
160.58072374131942
 30
0.0
 10
76.206890190972217
 20
160.58072374131942
 30
0.0
 10
76.31851128472222
 20
160.69337836371525
 30
0.0
 10
76.31851128472222
 20
160.83083767361109
 30
0.0
  0
LINE
  5
446
100
AcDbEntity
  8
レイヤー_2
 62
     7
100
AcDbLine
 10
76.318511
 20
160.830838
 30
0.0
 11
76.318511
 21
162.581291
 31
0.0
  0
SPLINE
  5
445
100
AcDbEntity
  8
レイヤー_2
 62
     7
100
AcDbSpline
210
0.0
220
0.0
230
1.0
 70
     8
 71
     3
 72
    14
 73
    10
 74
     0
 42
0.00000001
 43
0.00000001
 40
0.0
 40
0.0
 40
0.0
 40
0.0
 40
1.0
 40
1.0
 40
1.0
 40
2.0
 40
2.0
 40
2.0
 40
3.0
 40
3.0
 40
3.0
 40
3.0
 10
75.820694986979163
 20
159.78869628906247
 30
0.0
 10
75.844810655381934
 20
159.80695529513886
 30
0.0
 10
75.868581814236109
 20
159.82555881076388
 30
0.0
 10
75.893041992187491
 20
159.8575981987847
 30
0.0
 10
75.917502170138889
 20
159.88963758680555
 30
0.0
 10
75.942995876736106
 20
159.93580186631942
 30
0.0
 10
75.94161783854166
 20
159.97989908854166
 30
0.0
 10
75.940928819444437
 20
159.99230143229164
 30
0.0
 10
75.938861762152769
 20
160.00401475694443
 30
0.0
 10
75.936105685763877
 20
160.01538357204859
 30
0.0
  0
LINE
  5
444
100
AcDbEntity
  8
レイヤー_2
 62
     7
100
AcDbLine
 10
68.981147
 20
162.581291
 30
0.0
 11
68.981147
 21
160.845307
 31
0.0
  0
SPLINE
  5
443
100
AcDbEntity
  8
レイヤー_2
 62
     7
100
AcDbSpline
210
0.0
220
0.0
230
1.0
 70
     8
 71
     3
 72
    41
 73
    37
 74
     0
 42
0.00000001
 43
0.00000001
 40
0.0
 40
0.0
 40
0.0
 40
0.0
 40
1.0
 40
1.0
 40
1.0
 40
2.0
 40
2.0
 40
2.0
 40
3.0
 40
3.0
 40
3.0
 40
4.0
 40
4.0
 40
4.0
 40
5.0
 40
5.0
 40
5.0
 40
6.0
 40
6.0
 40
6.0
 40
7.0
 40
7.0
 40
7.0
 40
8.0
 40
8.0
 40
8.0
 40
9.0
 40
9.0
 40
9.0
 40
10.0
 40
10.0
 40
10.0
 40
11.0
 40
11.0
 40
11.0
 40
12.0
 40
12.0
 40
12.0
 40
12.0
 10
68.984592013888886
 20
160.84599609374999
 30
0.0
 10
68.984592013888886
 20
160.84599609374999
 30
0.0
 10
68.982524956597217
 20
160.82188042534722
 30
0.0
 10
68.982524956597217
 20
160.82188042534722
 30
0.0
 10
68.981835937499994
 20
160.79397515190971
 30
0.0
 10
68.991826714409711
 20
160.7657253689236
 30
0.0
 10
69.004229058159723
 20
160.74023166232638
 30
0.0
 10
69.014564344618051
 20
160.7192165798611
 30
0.0
 10
69.026622178819437
 20
160.69957953559026
 30
0.0
 10
69.041091579861103
 20
160.68269856770831
 30
0.0
 10
69.053838433159711
 20
160.66685112847222
 30
0.0
 10
69.067618815104154
 20
160.65375976562498
 30
0.0
 10
69.082432725694431
 20
160.64273546006942
 30
0.0
 10
69.095868598090277
 20
160.63308919270833
 30
0.0
 10
69.108959960937497
 20
160.62516547309028
 30
0.0
 10
69.120673285590271
 20
160.61861979166665
 30
0.0
 10
69.132042100694434
 20
160.61310763888886
 30
0.0
 10
69.15133463541666
 20
160.60483940972222
 30
0.0
 10
69.15133463541666
 20
160.60483940972222
 30
0.0
 10
69.164081488715269
 20
160.60001627604166
 30
0.0
 10
69.175450303819431
 20
160.59657118055554
 30
0.0
 10
69.186130099826386
 20
160.59347059461805
 30
0.0
 10
69.210590277777769
 20
160.58658040364583
 30
0.0
 10
69.235394965277777
 20
160.58141276041664
 30
0.0
 10
69.262955729166663
 20
160.57590060763889
 30
0.0
 10
69.30395236545138
 20
160.56832139756943
 30
0.0
 10
69.354250759548606
 20
160.56074218749998
 30
0.0
 10
69.413506401909714
 20
160.55281846788193
 30
0.0
 10
69.474829101562491
 20
160.54386121961804
 30
0.0
 10
69.547865125868043
 20
160.53455946180554
 30
0.0
 10
69.625724283854154
 20
160.52594672309027
 30
0.0
 10
69.697037760416663
 20
160.51871202256942
 30
0.0
 10
69.773174370659717
 20
160.51078830295137
 30
0.0
 10
69.850689019097217
 20
160.50320909288192
 30
0.0
 10
69.8717041015625
 20
160.50183105468747
 30
0.0
 10
69.892374674479157
 20
160.49976399739583
 30
0.0
 10
69.91338975694444
 20
160.49804144965276
 30
0.0
  0
SPLINE
  5
442
100
AcDbEntity
  8
レイヤー_2
 62
     7
100
AcDbSpline
210
0.0
220
0.0
230
1.0
 70
     8
 71
     3
 72
     8
 73
     4
 74
     0
 42
0.00000001
 43
0.00000001
 40
0.0
 40
0.0
 40
0.0
 40
0.0
 40
1.0
 40
1.0
 40
1.0
 40
1.0
 10
76.068397352430551
 20
160.58072374131942
 30
0.0
 10
75.999150933159711
 20
160.58072374131942
 30
0.0
 10
75.943684895833329
 20
160.52525770399305
 30
0.0
 10
75.943684895833329
 20
160.4556667751736
 30
0.0
  0
LINE
  5
441
100
AcDbEntity
  8
レイヤー_2
 62
     7
100
AcDbLine
 10
75.943685
 20
160.013317
 30
0.0
 11
75.943685
 21
160.455667
 31
0.0
  0
SPLINE
  5
440
100
AcDbEntity
  8
レイヤー_2
 62
     7
100
AcDbSpline
210
0.0
220
0.0
230
1.0
 70
     8
 71
     3
 72
    14
 73
    10
 74
     0
 42
0.00000001
 43
0.00000001
 40
0.0
 40
0.0
 40
0.0
 40
0.0
 40
1.0
 40
1.0
 40
1.0
 40
2.0
 40
2.0
 40
2.0
 40
3.0
 40
3.0
 40
3.0
 40
3.0
 10
73.737445746527769
 20
160.03777669270832
 30
0.0
 10
73.756393771701383
 20
160.03398708767361
 30
0.0
 10
73.776375325520831
 20
160.03019748263887
 30
0.0
 10
73.792911783854166
 20
160.02606336805553
 30
0.0
 10
73.809103732638889
 20
160.02192925347219
 30
0.0
 10
73.817027452256937
 20
160.01986219618055
 30
0.0
 10
73.817027452256937
 20
160.01986219618055
 30
0.0
 10
73.817027452256937
 20
160.01986219618055
 30
0.0
 10
73.816338433159714
 20
160.02020670572915
 30
0.0
 10
73.816338433159714
 20
160.02020670572915
 30
0.0
  0
SPLINE
  5
43F
100
AcDbEntity
  8
レイヤー_2
 62
     7
100
AcDbSpline
210
0.0
220
0.0
230
1.0
 70
     8
 71
     3
 72
    14
 73
    10
 74
     0
 42
0.00000001
 43
0.00000001
 40
0.0
 40
0.0
 40
0.0
 40
0.0
 40
1.0
 40
1.0
 40
1.0
 40
2.0
 40
2.0
 40
2.0
 40
3.0
 40
3.0
 40
3.0
 40
3.0
 10
75.900276692708331
 20
159.84140624999998
 30
0.0
 10
75.90234375
 20
159.85553114149303
 30
0.0
 10
75.904066297743043
 20
159.86896701388886
 30
0.0
 10
75.906133355034711
 20
159.88033582899305
 30
0.0
 10
75.907855902777769
 20
159.89136013454859
 30
0.0
 10
75.910267469618049
 20
159.90169542100693
 30
0.0
 10
75.910267469618049
 20
159.90169542100693
 30
0.0
 10
75.910267469618049
 20
159.90169542100693
 30
0.0
 10
75.910267469618049
 20
159.90169542100693
 30
0.0
 10
75.910267469618049
 20
159.90169542100693
 30
0.0
  0
SPLINE
  5
43E
100
AcDbEntity
  8
レイヤー_2
 62
     7
100
AcDbSpline
210
0.0
220
0.0
230
1.0
 70
     8
 71
     3
 72
     8
 73
     4
 74
     0
 42
0.00000001
 43
0.00000001
 40
0.0
 40
0.0
 40
0.0
 40
0.0
 40
1.0
 40
1.0
 40
1.0
 40
1.0
 10
75.652574327256943
 20
159.63125542534721
 30
0.0
 10
75.777975802951389
 20
159.63125542534721
 30
0.0
 10
75.881673177083329
 20
159.72289496527776
 30
0.0
 10
75.900276692708331
 20
159.84450683593749
 30
0.0
  0
LINE
  5
43D
100
AcDbEntity
  8
レイヤー_2
 62
     7
100
AcDbLine
 10
64.158358
 20
162.581291
 30
0.0
 11
64.158358
 21
160.845307
 31
0.0
  0
SPLINE
  5
43C
100
AcDbEntity
  8
レイヤー_2
 62
     7
100
AcDbSpline
210
0.0
220
0.0
230
1.0
 70
     8
 71
     3
 72
    29
 73
    25
 74
     0
 42
0.00000001
 43
0.00000001
 40
0.0
 40
0.0
 40
0.0
 40
0.0
 40
1.0
 40
1.0
 40
1.0
 40
2.0
 40
2.0
 40
2.0
 40
3.0
 40
3.0
 40
3.0
 40
4.0
 40
4.0
 40
4.0
 40
5.0
 40
5.0
 40
5.0
 40
6.0
 40
6.0
 40
6.0
 40
7.0
 40
7.0
 40
7.0
 40
8.0
 40
8.0
 40
8.0
 40
8.0
 10
64.162147352430551
 20
160.84392903645832
 30
0.0
 10
64.162147352430551
 20
160.83014865451386
 30
0.0
 10
64.160424804687494
 20
160.81567925347221
 30
0.0
 10
64.162147352430551
 20
160.80258789062498
 30
0.0
 10
64.16421440972222
 20
160.77537163628472
 30
0.0
 10
64.17489420572916
 20
160.74987792968747
 30
0.0
 10
64.18798556857638
 20
160.7257622612847
 30
0.0
 10
64.199354383680543
 20
160.70578070746527
 30
0.0
 10
64.212445746527777
 20
160.6882107204861
 30
0.0
 10
64.226915147569443
 20
160.67236328124997
 30
0.0
 10
64.239662000868051
 20
160.65858289930554
 30
0.0
 10
64.254475911458329
 20
160.64652506510416
 30
0.0
 10
64.268256293402771
 20
160.63687879774304
 30
0.0
 10
64.28100314670138
 20
160.62792154947914
 30
0.0
 10
64.293749999999989
 20
160.62103135850694
 30
0.0
 10
64.304774305555554
 20
160.61551920572916
 30
0.0
 10
64.315798611111106
 20
160.61000705295137
 30
0.0
 10
64.335780164930554
 20
160.60277235243055
 30
0.0
 10
64.335780164930554
 20
160.60277235243055
 30
0.0
 10
64.348871527777774
 20
160.59726019965277
 30
0.0
 10
64.36092936197916
 20
160.59347059461805
 30
0.0
 10
64.372298177083323
 20
160.59071451822916
 30
0.0
 10
64.372298177083323
 20
160.59071451822916
 30
0.0
 10
64.393657769097217
 20
160.5858913845486
 30
0.0
 10
64.393657769097217
 20
160.5858913845486
 30
0.0
  0
LINE
  5
43B
100
AcDbEntity
  8
レイヤー_2
 62
     7
100
AcDbLine
 10
73.493877
 20
164.33071
 30
0.0
 11
73.493877
 21
172.581369
 31
0.0
  0
LINE
  5
43A
100
AcDbEntity
  8
レイヤー_2
 62
     7
100
AcDbLine
 10
73.493877
 20
171.677376
 30
0.0
 11
73.493877
 21
176.718929
 31
0.0
  0
LINE
  5
439
100
AcDbEntity
  8
レイヤー_2
 62
     7
100
AcDbLine
 10
73.452881
 20
175.094222
 30
0.0
 11
73.452881
 21
176.018197
 31
0.0
  0
LINE
  5
438
100
AcDbEntity
  8
レイヤー_2
 62
     7
100
AcDbLine
 10
70.453236
 20
176.018197
 30
0.0
 11
70.453236
 21
175.094222
 31
0.0
  0
SPLINE
  5
437
100
AcDbEntity
  8
レイヤー_2
 62
     7
100
AcDbSpline
210
0.0
220
0.0
230
1.0
 70
     8
 71
     3
 72
     8
 73
     4
 74
     0
 42
0.00000001
 43
0.00000001
 40
0.0
 40
0.0
 40
0.0
 40
0.0
 40
1.0
 40
1.0
 40
1.0
 40
1.0
 10
73.452880859375
 20
176.01819661458333
 30
0.0
 10
73.452880859375
 20
176.18459472656249
 30
0.0
 10
73.406027560763889
 20
176.34031304253472
 30
0.0
 10
73.327479383680554
 20
176.46915961371525
 30
0.0
  0
SPLINE
  5
436
100
AcDbEntity
  8
レイヤー_2
 62
     7
100
AcDbSpline
210
0.0
220
0.0
230
1.0
 70
     8
 71
     3
 72
     8
 73
     4
 74
     0
 42
0.00000001
 43
0.00000001
 40
0.0
 40
0.0
 40
0.0
 40
0.0
 40
1.0
 40
1.0
 40
1.0
 40
1.0
 10
70.57760416666666
 20
176.46915961371525
 30
0.0
 10
70.4918212890625
 20
176.32618815104166
 30
0.0
 10
70.451513671874991
 20
176.16909179687499
 30
0.0
 10
70.453236219618049
 20
176.01819661458333
 30
0.0
  0
LINE
  5
435
100
AcDbEntity
  8
レイヤー_2
 62
     7
100
AcDbLine
 10
73.202422
 20
136.800608
 30
0.0
 11
73.202422
 21
160.128383
 31
0.0
  0
LINE
  5
434
100
AcDbEntity
  8
レイヤー_2
 62
     7
100
AcDbLine
 10
73.202422
 20
164.33071
 30
0.0
 11
73.202422
 21
172.581369
 31
0.0
  0
LINE
  5
433
100
AcDbEntity
  8
レイヤー_2
 62
     7
100
AcDbLine
 10
73.202422
 20
170.610086
 30
0.0
 11
73.202422
 21
175.094222
 31
0.0
  0
LINE
  5
432
100
AcDbEntity
  8
レイヤー_2
 62
     7
100
AcDbLine
 10
70.702661
 20
175.094222
 30
0.0
 11
70.702661
 21
171.020741
 31
0.0
  0
LINE
  5
431
100
AcDbEntity
  8
レイヤー_2
 62
     7
100
AcDbLine
 10
70.702661
 20
172.581369
 30
0.0
 11
70.702661
 21
164.33071
 31
0.0
  0
LINE
  5
430
100
AcDbEntity
  8
レイヤー_2
 62
     7
100
AcDbLine
 10
70.702661
 20
160.424316
 30
0.0
 11
70.702661
 21
136.685541
 31
0.0
  0
LINE
  5
42F
100
AcDbEntity
  8
レイヤー_2
 62
     7
100
AcDbLine
 10
73.327479
 20
176.46916
 30
0.0
 11
73.327479
 21
176.718929
 31
0.0
  0
LINE
  5
42E
100
AcDbEntity
  8
レイヤー_2
 62
     7
100
AcDbLine
 10
70.577604
 20
176.718929
 30
0.0
 11
70.577604
 21
176.46916
 31
0.0
  0
SPLINE
  5
42D
100
AcDbEntity
  8
レイヤー_2
 62
     7
100
AcDbSpline
210
0.0
220
0.0
230
1.0
 70
     8
 71
     3
 72
     8
 73
     4
 74
     0
 42
0.00000001
 43
0.00000001
 40
0.0
 40
0.0
 40
0.0
 40
0.0
 40
1.0
 40
1.0
 40
1.0
 40
1.0
 10
70.327490234374991
 20
176.01819661458333
 30
0.0
 10
70.327490234374991
 20
176.18459472656249
 30
0.0
 10
70.280981445312491
 20
176.34031304253472
 30
0.0
 10
70.20312228732638
 20
176.46915961371525
 30
0.0
  0
SPLINE
  5
42C
100
AcDbEntity
  8
レイヤー_2
 62
     7
100
AcDbSpline
210
0.0
220
0.0
230
1.0
 70
     8
 71
     3
 72
     8
 73
     4
 74
     0
 42
0.00000001
 43
0.00000001
 40
0.0
 40
0.0
 40
0.0
 40
0.0
 40
1.0
 40
1.0
 40
1.0
 40
1.0
 10
67.452558051215277
 20
176.46915961371525
 30
0.0
 10
67.366775173611103
 20
176.32618815104166
 30
0.0
 10
67.326467556423609
 20
176.16909179687499
 30
0.0
 10
67.327845594618054
 20
176.01819661458333
 30
0.0
  0
LINE
  5
42B
100
AcDbEntity
  8
レイヤー_2
 62
     7
100
AcDbLine
 10
70.32749
 20
175.094222
 30
0.0
 11
70.32749
 21
176.018197
 31
0.0
  0
LINE
  5
42A
100
AcDbEntity
  8
レイヤー_2
 62
     7
100
AcDbLine
 10
67.327846
 20
176.018197
 30
0.0
 11
67.327846
 21
175.094222
 31
0.0
  0
LINE
  5
429
100
AcDbEntity
  8
レイヤー_2
 62
     7
100
AcDbLine
 10
70.077721
 20
136.994911
 30
0.0
 11
70.077721
 21
160.483572
 31
0.0
  0
LINE
  5
428
100
AcDbEntity
  8
レイヤー_2
 62
     7
100
AcDbLine
 10
70.077721
 20
164.33071
 30
0.0
 11
70.077721
 21
172.581369
 31
0.0
  0
LINE
  5
427
100
AcDbEntity
  8
レイヤー_2
 62
     7
100
AcDbLine
 10
70.077721
 20
172.272689
 30
0.0
 11
70.077721
 21
175.094222
 31
0.0
  0
LINE
  5
426
100
AcDbEntity
  8
レイヤー_2
 62
     7
100
AcDbLine
 10
67.57796
 20
175.094222
 30
0.0
 11
67.57796
 21
171.739388
 31
0.0
  0
LINE
  5
425
100
AcDbEntity
  8
レイヤー_2
 62
     7
100
AcDbLine
 10
67.57796
 20
172.581369
 30
0.0
 11
67.57796
 21
164.33071
 31
0.0
  0
LINE
  5
424
100
AcDbEntity
  8
レイヤー_2
 62
     7
100
AcDbLine
 10
67.57796
 20
163.08083
 30
0.0
 11
67.57796
 21
137.386274
 31
0.0
  0
LINE
  5
423
100
AcDbEntity
  8
レイヤー_2
 62
     7
100
AcDbLine
 10
66.177528
 20
177.468582
 30
0.0
 11
66.177528
 21
176.718929
 31
0.0
  0
LINE
  5
422
100
AcDbEntity
  8
レイヤー_2
 62
     7
100
AcDbLine
 10
74.602165
 20
176.718929
 30
0.0
 11
74.602165
 21
177.468582
 31
0.0
  0
LINE
  5
421
100
AcDbEntity
  8
レイヤー_2
 62
     7
100
AcDbLine
 10
76.332981
 20
204.56977
 30
0.0
 11
76.177607
 21
215.734635
 31
0.0
  0
LINE
  5
420
100
AcDbEntity
  8
レイヤー_2
 62
     7
100
AcDbLine
 10
64.615866
 20
215.734635
 30
0.0
 11
64.460148
 21
204.56977
 31
0.0
  0
SPLINE
  5
41F
100
AcDbEntity
  8
レイヤー_2
 62
     7
100
AcDbSpline
210
0.0
220
0.0
230
1.0
 70
     8
 71
     3
 72
     8
 73
     4
 74
     0
 42
0.00000001
 43
0.00000001
 40
0.0
 40
0.0
 40
0.0
 40
0.0
 40
1.0
 40
1.0
 40
1.0
 40
1.0
 10
76.332980685763886
 20
204.56873643663192
 30
0.0
 10
76.332980685763886
 20
204.56976996527777
 30
0.0
 10
76.332980685763886
 20
204.56976996527777
 30
0.0
 10
76.332980685763886
 20
204.56976996527777
 30
0.0
  0
SPLINE
  5
41E
100
AcDbEntity
  8
レイヤー_2
 62
     7
100
AcDbSpline
210
0.0
220
0.0
230
1.0
 70
     8
 71
     3
 72
     8
 73
     4
 74
     0
 42
0.00000001
 43
0.00000001
 40
0.0
 40
0.0
 40
0.0
 40
0.0
 40
1.0
 40
1.0
 40
1.0
 40
1.0
 10
76.257877604166666
 20
204.49432237413194
 30
0.0
 10
76.299563259548606
 20
204.49432237413194
 30
0.0
 10
76.332980685763886
 20
204.52739529079858
 30
0.0
 10
76.332980685763886
 20
204.56873643663192
 30
0.0
  0
SPLINE
  5
41D
100
AcDbEntity
  8
レイヤー_2
 62
     7
100
AcDbSpline
210
0.0
220
0.0
230
1.0
 70
     8
 71
     3
 72
    11
 73
     7
 74
     0
 42
0.00000001
 43
0.00000001
 40
0.0
 40
0.0
 40
0.0
 40
0.0
 40
1.0
 40
1.0
 40
1.0
 40
2.0
 40
2.0
 40
2.0
 40
2.0
 10
64.460148111979166
 20
204.56976996527777
 30
0.0
 10
64.460148111979166
 20
204.56976996527777
 30
0.0
 10
64.460148111979166
 20
204.56976996527777
 30
0.0
 10
64.460148111979166
 20
204.56873643663192
 30
0.0
 10
64.460148111979166
 20
204.52739529079858
 30
0.0
 10
64.493910047743043
 20
204.49432237413194
 30
0.0
 10
64.535595703124997
 20
204.49432237413194
 30
0.0
  0
LINE
  5
41C
100
AcDbEntity
  8
レイヤー_2
 62
     7
100
AcDbLine
 10
64.890096
 20
204.344116
 30
0.0
 11
64.890096
 21
203.719176
 31
0.0
  0
LINE
  5
41B
100
AcDbEntity
  8
レイヤー_2
 62
     7
100
AcDbLine
 10
75.889941
 20
203.719176
 30
0.0
 11
75.889941
 21
204.344116
 31
0.0
  0
LINE
  5
41A
100
AcDbEntity
  8
レイヤー_2
 62
     7
100
AcDbLine
 10
64.94315
 20
204.494322
 30
0.0
 11
64.890096
 21
204.344116
 31
0.0
  0
LINE
  5
419
100
AcDbEntity
  8
レイヤー_2
 62
     7
100
AcDbLine
 10
75.889941
 20
204.344116
 30
0.0
 11
75.837231
 21
204.494322
 31
0.0
  0
LINE
  5
418
100
AcDbEntity
  8
レイヤー_2
 62
     7
100
AcDbLine
 10
73.665788
 20
197.267201
 30
0.0
 11
74.142589
 21
197.267201
 31
0.0
  0
LINE
  5
417
100
AcDbEntity
  8
レイヤー_2
 62
     7
100
AcDbLine
 10
66.637793
 20
197.267201
 30
0.0
 11
67.11425
 21
197.267201
 31
0.0
  0
LINE
  5
416
100
AcDbEntity
  8
レイヤー_2
 62
     7
100
AcDbLine
 10
70.416029
 20
197.267201
 30
0.0
 11
70.828752
 21
197.267201
 31
0.0
  0
LINE
  5
415
100
AcDbEntity
  8
レイヤー_2
 62
     7
100
AcDbLine
 10
70.880773
 20
197.267201
 30
0.0
 11
71.29315
 21
197.267201
 31
0.0
  0
LINE
  5
414
100
AcDbEntity
  8
レイヤー_2
 62
     7
100
AcDbLine
 10
69.95163
 20
197.267201
 30
0.0
 11
70.364008
 21
197.267201
 31
0.0
  0
LINE
  5
413
100
AcDbEntity
  8
レイヤー_2
 62
     7
100
AcDbLine
 10
71.345171
 20
197.267201
 30
0.0
 11
71.757205
 21
197.267201
 31
0.0
  0
LINE
  5
412
100
AcDbEntity
  8
レイヤー_2
 62
     7
100
AcDbLine
 10
69.487576
 20
197.267201
 30
0.0
 11
69.899609
 21
197.267201
 31
0.0
  0
LINE
  5
411
100
AcDbEntity
  8
レイヤー_2
 62
     7
100
AcDbLine
 10
68.558778
 20
197.267201
 30
0.0
 11
68.971156
 21
197.267201
 31
0.0
  0
LINE
  5
410
100
AcDbEntity
  8
レイヤー_2
 62
     7
100
AcDbLine
 10
68.094724
 20
197.267201
 30
0.0
 11
68.506757
 21
197.267201
 31
0.0
  0
LINE
  5
40F
100
AcDbEntity
  8
レイヤー_2
 62
     7
100
AcDbLine
 10
69.023177
 20
197.267201
 30
0.0
 11
69.435211
 21
197.267201
 31
0.0
  0
LINE
  5
40E
100
AcDbEntity
  8
レイヤー_2
 62
     7
100
AcDbLine
 10
67.631014
 20
197.267201
 30
0.0
 11
68.042358
 21
197.267201
 31
0.0
  0
LINE
  5
40D
100
AcDbEntity
  8
レイヤー_2
 62
     7
100
AcDbLine
 10
72.273625
 20
197.267201
 30
0.0
 11
72.685314
 21
197.267201
 31
0.0
  0
LINE
  5
40C
100
AcDbEntity
  8
レイヤー_2
 62
     7
100
AcDbLine
 10
72.738024
 20
197.267201
 30
0.0
 11
73.149368
 21
197.267201
 31
0.0
  0
LINE
  5
40B
100
AcDbEntity
  8
レイヤー_2
 62
     7
100
AcDbLine
 10
67.166615
 20
197.267201
 30
0.0
 11
67.578304
 21
197.267201
 31
0.0
  0
LINE
  5
40A
100
AcDbEntity
  8
レイヤー_2
 62
     7
100
AcDbLine
 10
71.809226
 20
197.267201
 30
0.0
 11
72.220915
 21
197.267201
 31
0.0
  0
LINE
  5
409
100
AcDbEntity
  8
レイヤー_2
 62
     7
100
AcDbLine
 10
73.202078
 20
197.267201
 30
0.0
 11
73.613767
 21
197.267201
 31
0.0
  0
LINE
  5
408
100
AcDbEntity
  8
レイヤー_2
 62
     7
100
AcDbLine
 10
72.273625
 20
196.995039
 30
0.0
 11
72.685314
 21
196.995039
 31
0.0
  0
LINE
  5
407
100
AcDbEntity
  8
レイヤー_2
 62
     7
100
AcDbLine
 10
66.577159
 20
196.995039
 30
0.0
 11
67.11425
 21
196.995039
 31
0.0
  0
LINE
  5
406
100
AcDbEntity
  8
レイヤー_2
 62
     7
100
AcDbLine
 10
69.95163
 20
196.995039
 30
0.0
 11
70.364008
 21
196.995039
 31
0.0
  0
LINE
  5
405
100
AcDbEntity
  8
レイヤー_2
 62
     7
100
AcDbLine
 10
73.665788
 20
196.995039
 30
0.0
 11
74.203223
 21
196.995039
 31
0.0
  0
LINE
  5
404
100
AcDbEntity
  8
レイヤー_2
 62
     7
100
AcDbLine
 10
73.202078
 20
196.995039
 30
0.0
 11
73.613767
 21
196.995039
 31
0.0
  0
LINE
  5
403
100
AcDbEntity
  8
レイヤー_2
 62
     7
100
AcDbLine
 10
68.094724
 20
196.995039
 30
0.0
 11
68.506757
 21
196.995039
 31
0.0
  0
LINE
  5
402
100
AcDbEntity
  8
レイヤー_2
 62
     7
100
AcDbLine
 10
72.738024
 20
196.995039
 30
0.0
 11
73.149368
 21
196.995039
 31
0.0
  0
LINE
  5
401
100
AcDbEntity
  8
レイヤー_2
 62
     7
100
AcDbLine
 10
70.880773
 20
196.995039
 30
0.0
 11
71.29315
 21
196.995039
 31
0.0
  0
LINE
  5
400
100
AcDbEntity
  8
レイヤー_2
 62
     7
100
AcDbLine
 10
71.809226
 20
196.995039
 30
0.0
 11
72.220915
 21
196.995039
 31
0.0
  0
LINE
  5
3FF
100
AcDbEntity
  8
レイヤー_2
 62
     7
100
AcDbLine
 10
70.416029
 20
196.995039
 30
0.0
 11
70.828752
 21
196.995039
 31
0.0
  0
LINE
  5
3FE
100
AcDbEntity
  8
レイヤー_2
 62
     7
100
AcDbLine
 10
67.631014
 20
196.995039
 30
0.0
 11
68.042358
 21
196.995039
 31
0.0
  0
LINE
  5
3FD
100
AcDbEntity
  8
レイヤー_2
 62
     7
100
AcDbLine
 10
67.166615
 20
196.995039
 30
0.0
 11
67.578304
 21
196.995039
 31
0.0
  0
LINE
  5
3FC
100
AcDbEntity
  8
レイヤー_2
 62
     7
100
AcDbLine
 10
68.558778
 20
196.995039
 30
0.0
 11
68.971156
 21
196.995039
 31
0.0
  0
LINE
  5
3FB
100
AcDbEntity
  8
レイヤー_2
 62
     7
100
AcDbLine
 10
69.023177
 20
196.995039
 30
0.0
 11
69.435211
 21
196.995039
 31
0.0
  0
LINE
  5
3FA
100
AcDbEntity
  8
レイヤー_2
 62
     7
100
AcDbLine
 10
69.487576
 20
196.995039
 30
0.0
 11
69.899609
 21
196.995039
 31
0.0
  0
LINE
  5
3F9
100
AcDbEntity
  8
レイヤー_2
 62
     7
100
AcDbLine
 10
71.345171
 20
196.995039
 30
0.0
 11
71.757205
 21
196.995039
 31
0.0
  0
LINE
  5
3F8
100
AcDbEntity
  8
レイヤー_2
 62
     7
100
AcDbLine
 10
66.577159
 20
196.721842
 30
0.0
 11
67.11425
 21
196.721842
 31
0.0
  0
LINE
  5
3F7
100
AcDbEntity
  8
レイヤー_2
 62
     7
100
AcDbLine
 10
73.665788
 20
196.721842
 30
0.0
 11
74.203223
 21
196.721842
 31
0.0
  0
LINE
  5
3F6
100
AcDbEntity
  8
レイヤー_2
 62
     7
100
AcDbLine
 10
68.558778
 20
196.721842
 30
0.0
 11
68.971156
 21
196.721842
 31
0.0
  0
LINE
  5
3F5
100
AcDbEntity
  8
レイヤー_2
 62
     7
100
AcDbLine
 10
69.487576
 20
196.721842
 30
0.0
 11
69.899609
 21
196.721842
 31
0.0
  0
LINE
  5
3F4
100
AcDbEntity
  8
レイヤー_2
 62
     7
100
AcDbLine
 10
67.631014
 20
196.721842
 30
0.0
 11
68.042358
 21
196.721842
 31
0.0
  0
LINE
  5
3F3
100
AcDbEntity
  8
レイヤー_2
 62
     7
100
AcDbLine
 10
72.738024
 20
196.721842
 30
0.0
 11
73.149368
 21
196.721842
 31
0.0
  0
LINE
  5
3F2
100
AcDbEntity
  8
レイヤー_2
 62
     7
100
AcDbLine
 10
70.416029
 20
196.721842
 30
0.0
 11
70.828752
 21
196.721842
 31
0.0
  0
LINE
  5
3F1
100
AcDbEntity
  8
レイヤー_2
 62
     7
100
AcDbLine
 10
71.809226
 20
196.721842
 30
0.0
 11
72.220915
 21
196.721842
 31
0.0
  0
LINE
  5
3F0
100
AcDbEntity
  8
レイヤー_2
 62
     7
100
AcDbLine
 10
72.273625
 20
196.721842
 30
0.0
 11
72.685314
 21
196.721842
 31
0.0
  0
LINE
  5
3EF
100
AcDbEntity
  8
レイヤー_2
 62
     7
100
AcDbLine
 10
71.345171
 20
196.721842
 30
0.0
 11
71.757205
 21
196.721842
 31
0.0
  0
LINE
  5
3EE
100
AcDbEntity
  8
レイヤー_2
 62
     7
100
AcDbLine
 10
69.023177
 20
196.721842
 30
0.0
 11
69.435211
 21
196.721842
 31
0.0
  0
LINE
  5
3ED
100
AcDbEntity
  8
レイヤー_2
 62
     7
100
AcDbLine
 10
69.95163
 20
196.721842
 30
0.0
 11
70.364008
 21
196.721842
 31
0.0
  0
LINE
  5
3EC
100
AcDbEntity
  8
レイヤー_2
 62
     7
100
AcDbLine
 10
73.202078
 20
196.721842
 30
0.0
 11
73.613767
 21
196.721842
 31
0.0
  0
LINE
  5
3EB
100
AcDbEntity
  8
レイヤー_2
 62
     7
100
AcDbLine
 10
68.094724
 20
196.721842
 30
0.0
 11
68.506757
 21
196.721842
 31
0.0
  0
LINE
  5
3EA
100
AcDbEntity
  8
レイヤー_2
 62
     7
100
AcDbLine
 10
70.880773
 20
196.721842
 30
0.0
 11
71.29315
 21
196.721842
 31
0.0
  0
LINE
  5
3E9
100
AcDbEntity
  8
レイヤー_2
 62
     7
100
AcDbLine
 10
67.166615
 20
196.721842
 30
0.0
 11
67.578304
 21
196.721842
 31
0.0
  0
SPLINE
  5
3E8
100
AcDbEntity
  8
レイヤー_2
 62
     7
100
AcDbSpline
210
0.0
220
0.0
230
1.0
 70
     8
 71
     3
 72
     8
 73
     4
 74
     0
 42
0.00000001
 43
0.00000001
 40
0.0
 40
0.0
 40
0.0
 40
0.0
 40
1.0
 40
1.0
 40
1.0
 40
1.0
 10
74.942540147569431
 20
195.4213189019097
 30
0.0
 10
75.052438693576377
 20
195.42304144965277
 30
0.0
 10
75.139944118923609
 20
195.51192491319443
 30
0.0
 10
75.139944118923609
 20
195.62113444010416
 30
0.0
  0
SPLINE
  5
3E7
100
AcDbEntity
  8
レイヤー_2
 62
     7
100
AcDbSpline
210
0.0
220
0.0
230
1.0
 70
     8
 71
     3
 72
    14
 73
    10
 74
     0
 42
0.00000001
 43
0.00000001
 40
0.0
 40
0.0
 40
0.0
 40
0.0
 40
1.0
 40
1.0
 40
1.0
 40
2.0
 40
2.0
 40
2.0
 40
3.0
 40
3.0
 40
3.0
 40
3.0
 10
65.837497287326386
 20
195.4213189019097
 30
0.0
 10
66.617122395833334
 20
195.41201714409721
 30
0.0
 10
67.396058485243046
 20
195.40305989583331
 30
0.0
 10
68.176028103298606
 20
195.39720323350693
 30
0.0
 10
69.657419162326377
 20
195.38583441840277
 30
0.0
 10
71.13812120225694
 20
195.38583441840277
 30
0.0
 10
72.619856770833323
 20
195.39754774305553
 30
0.0
 10
73.393625217013877
 20
195.40305989583331
 30
0.0
 10
74.168427191840266
 20
195.41201714409721
 30
0.0
 10
74.942540147569431
 20
195.4213189019097
 30
0.0
  0
SPLINE
  5
3E6
100
AcDbEntity
  8
レイヤー_2
 62
     7
100
AcDbSpline
210
0.0
220
0.0
230
1.0
 70
     8
 71
     3
 72
     8
 73
     4
 74
     0
 42
0.00000001
 43
0.00000001
 40
0.0
 40
0.0
 40
0.0
 40
0.0
 40
1.0
 40
1.0
 40
1.0
 40
1.0
 10
65.640437825520834
 20
195.62113444010416
 30
0.0
 10
65.640437825520834
 20
195.51192491319443
 30
0.0
 10
65.728287760416663
 20
195.42304144965277
 30
0.0
 10
65.837497287326386
 20
195.4213189019097
 30
0.0
  0
SPLINE
  5
3E5
100
AcDbEntity
  8
レイヤー_2
 62
     7
100
AcDbSpline
210
0.0
220
0.0
230
1.0
 70
     8
 71
     3
 72
     8
 73
     4
 74
     0
 42
0.00000001
 43
0.00000001
 40
0.0
 40
0.0
 40
0.0
 40
0.0
 40
1.0
 40
1.0
 40
1.0
 40
1.0
 10
64.615177408854166
 20
203.71917588975694
 30
0.0
 10
64.573491753472211
 20
203.71917588975694
 30
0.0
 10
64.540074327256931
 20
203.68575846354165
 30
0.0
 10
64.540074327256931
 20
203.64372829861108
 30
0.0
  0
SPLINE
  5
3E4
100
AcDbEntity
  8
レイヤー_2
 62
     7
100
AcDbSpline
210
0.0
220
0.0
230
1.0
 70
     8
 71
     3
 72
     8
 73
     4
 74
     0
 42
0.00000001
 43
0.00000001
 40
0.0
 40
0.0
 40
0.0
 40
0.0
 40
1.0
 40
1.0
 40
1.0
 40
1.0
 10
76.240307617187497
 20
203.64372829861108
 30
0.0
 10
76.240307617187497
 20
203.68575846354165
 30
0.0
 10
76.206890190972217
 20
203.71917588975694
 30
0.0
 10
76.165204535590277
 20
203.71917588975694
 30
0.0
  0
LINE
  5
3E3
100
AcDbEntity
  8
レイヤー_2
 62
     7
100
AcDbLine
 10
76.240308
 20
177.468582
 30
0.0
 11
76.240308
 21
203.643728
 31
0.0
  0
LINE
  5
3E2
100
AcDbEntity
  8
レイヤー_2
 62
     7
100
AcDbLine
 10
64.540074
 20
203.643728
 30
0.0
 11
64.540074
 21
177.468582
 31
0.0
  0
LINE
  5
3E1
100
AcDbEntity
  8
レイヤー_2
  6
AI9-LType2
 62
     7
100
AcDbLine
 10
64.323033
 20
164.33071
 30
0.0
 11
74.941851
 21
164.33071
 31
0.0
  0
LINE
  5
3E0
100
AcDbEntity
  8
レイヤー_2
 62
     7
100
AcDbLine
 10
74.941851
 20
164.33071
 30
0.0
 11
75.942307
 21
164.33071
 31
0.0
  0
LINE
  5
3DF
100
AcDbEntity
  8
レイヤー_2
 62
     7
100
AcDbLine
 10
64.257232
 20
163.08083
 30
0.0
 11
68.981147
 21
163.08083
 31
0.0
  0
LINE
  5
3DE
100
AcDbEntity
  8
レイヤー_2
 62
     7
100
AcDbLine
 10
74.353773
 20
149.900928
 30
0.0
 11
73.732278
 21
149.755545
 31
0.0
  0
SPLINE
  5
3DD
100
AcDbEntity
  8
レイヤー_2
 62
     7
100
AcDbSpline
210
0.0
220
0.0
230
1.0
 70
     8
 71
     3
 72
    11
 73
     7
 74
     0
 42
0.00000001
 43
0.00000001
 40
0.0
 40
0.0
 40
0.0
 40
0.0
 40
1.0
 40
1.0
 40
1.0
 40
2.0
 40
2.0
 40
2.0
 40
2.0
 10
73.732278103298611
 20
149.75554470486111
 30
0.0
 10
73.71746419270832
 20
149.75588921440971
 30
0.0
 10
73.702305772569431
 20
149.75588921440971
 30
0.0
 10
73.688180881076377
 20
149.75692274305555
 30
0.0
 10
73.523505316840271
 20
149.76277940538193
 30
0.0
 10
73.363652886284711
 20
149.8203125
 30
0.0
 10
73.20242241753472
 20
149.87784559461804
 30
0.0
  0
SPLINE
  5
3DC
100
AcDbEntity
  8
レイヤー_2
 62
     7
100
AcDbSpline
210
0.0
220
0.0
230
1.0
 70
     8
 71
     3
 72
    11
 73
     7
 74
     0
 42
0.00000001
 43
0.00000001
 40
0.0
 40
0.0
 40
0.0
 40
0.0
 40
1.0
 40
1.0
 40
1.0
 40
2.0
 40
2.0
 40
2.0
 40
2.0
 10
73.732278103298611
 20
152.75587836371525
 30
0.0
 10
73.71746419270832
 20
152.75587836371525
 30
0.0
 10
73.702305772569431
 20
152.75587836371525
 30
0.0
 10
73.688180881076377
 20
152.75518934461803
 30
0.0
 10
73.523505316840271
 20
152.74933268229165
 30
0.0
 10
73.363652886284711
 20
152.69145507812499
 30
0.0
 10
73.20242241753472
 20
152.63392198350692
 30
0.0
  0
LINE
  5
3DB
100
AcDbEntity
  8
レイヤー_2
 62
     7
100
AcDbLine
 10
74.353773
 20
152.61084
 30
0.0
 11
73.732278
 21
152.755878
 31
0.0
  0
LINE
  5
3DA
100
AcDbEntity
  8
レイヤー_2
 62
     7
100
AcDbLine
 10
74.353773
 20
149.900928
 30
0.0
 11
74.353773
 21
152.61084
 31
0.0
  0
LINE
  5
3D9
100
AcDbEntity
  8
レイヤー_2
 62
     7
100
AcDbLine
 10
74.140177
 20
159.621265
 30
0.0
 11
73.202422
 21
159.621265
 31
0.0
  0
LINE
  5
3D8
100
AcDbEntity
  8
レイヤー_2
 62
     7
100
AcDbLine
 10
74.140177
 20
159.256085
 30
0.0
 11
73.202422
 21
159.256085
 31
0.0
  0
LINE
  5
3D7
100
AcDbEntity
  8
レイヤー_2
 62
     7
100
AcDbLine
 10
73.765007
 20
158.60634
 30
0.0
 11
73.202422
 21
158.60634
 31
0.0
  0
LINE
  5
3D6
100
AcDbEntity
  8
レイヤー_2
 62
     7
100
AcDbLine
 10
73.202422
 20
152.755878
 30
0.0
 11
73.732278
 21
152.755878
 31
0.0
  0
LINE
  5
3D5
100
AcDbEntity
  8
レイヤー_2
 62
     7
100
AcDbLine
 10
73.732278
 20
149.755545
 30
0.0
 11
73.202422
 21
149.755545
 31
0.0
  0
LINE
  5
3D4
100
AcDbEntity
  8
レイヤー_2
 62
     7
100
AcDbLine
 10
70.676134
 20
149.900928
 30
0.0
 11
70.676134
 21
152.61084
 31
0.0
  0
LINE
  5
3D3
100
AcDbEntity
  8
レイヤー_2
 62
     7
100
AcDbLine
 10
74.229061
 20
152.676297
 30
0.0
 11
74.353773
 21
152.61084
 31
0.0
  0
LINE
  5
3D2
100
AcDbEntity
  8
レイヤー_2
 62
     7
100
AcDbLine
 10
73.732278
 20
152.755878
 30
0.0
 11
74.140177
 21
152.755878
 31
0.0
  0
LINE
  5
3D1
100
AcDbEntity
  8
レイヤー_2
 62
     7
100
AcDbLine
 10
74.229061
 20
149.835471
 30
0.0
 11
74.353773
 21
149.900928
 31
0.0
  0
LINE
  5
3D0
100
AcDbEntity
  8
レイヤー_2
 62
     7
100
AcDbLine
 10
74.140177
 20
149.755545
 30
0.0
 11
73.732278
 21
149.755545
 31
0.0
  0
LINE
  5
3CF
100
AcDbEntity
  8
レイヤー_2
 62
     7
100
AcDbLine
 10
72.028334
 20
162.581291
 30
0.0
 11
76.3192
 21
162.581291
 31
0.0
  0
LINE
  5
3CE
100
AcDbEntity
  8
レイヤー_2
 62
     7
100
AcDbLine
 10
69.999517
 20
163.08083
 30
0.0
 11
76.3192
 21
163.08083
 31
0.0
  0
LINE
  5
3CD
100
AcDbEntity
  8
レイヤー_2
 62
     7
100
AcDbLine
 10
69.000439
 20
163.08083
 30
0.0
 11
69.999517
 21
163.08083
 31
0.0
  0
LINE
  5
3CC
100
AcDbEntity
  8
レイヤー_2
 62
     7
100
AcDbLine
 10
64.1463
 20
162.581291
 30
0.0
 11
66.169604
 21
162.581291
 31
0.0
  0
LINE
  5
3CB
100
AcDbEntity
  8
レイヤー_2
 62
     7
100
AcDbLine
 10
64.1463
 20
163.08083
 30
0.0
 11
64.257232
 21
163.08083
 31
0.0
  0
LINE
  5
3CA
100
AcDbEntity
  8
レイヤー_2
 62
     7
100
AcDbLine
 10
66.169604
 20
162.581291
 30
0.0
 11
67.57796
 21
162.581291
 31
0.0
  0
SPLINE
  5
3C9
100
AcDbEntity
  8
レイヤー_2
 62
     7
100
AcDbSpline
210
0.0
220
0.0
230
1.0
 70
     8
 71
     3
 72
    35
 73
    31
 74
     0
 42
0.00000001
 43
0.00000001
 40
0.0
 40
0.0
 40
0.0
 40
0.0
 40
1.0
 40
1.0
 40
1.0
 40
2.0
 40
2.0
 40
2.0
 40
3.0
 40
3.0
 40
3.0
 40
4.0
 40
4.0
 40
4.0
 40
5.0
 40
5.0
 40
5.0
 40
6.0
 40
6.0
 40
6.0
 40
7.0
 40
7.0
 40
7.0
 40
8.0
 40
8.0
 40
8.0
 40
9.0
 40
9.0
 40
9.0
 40
10.0
 40
10.0
 40
10.0
 40
10.0
 10
73.470795355902766
 20
160.4556667751736
 30
0.0
 10
73.402926974826386
 20
160.45842285156249
 30
0.0
 10
73.33471408420138
 20
160.46083441840275
 30
0.0
 10
73.265812174479166
 20
160.46324598524305
 30
0.0
 10
72.988481987847209
 20
160.47495930989581
 30
0.0
 10
72.691859266493054
 20
160.48529459635415
 30
0.0
 10
72.3831787109375
 20
160.49597439236109
 30
0.0
 10
72.110671657986103
 20
160.50493164062499
 30
0.0
 10
71.829207356770823
 20
160.51457790798611
 30
0.0
 10
71.54119737413194
 20
160.52353515624998
 30
0.0
 10
71.244919162326383
 20
160.53249240451387
 30
0.0
 10
70.941750759548611
 20
160.54248318142359
 30
0.0
 10
70.636859809027769
 20
160.55109592013886
 30
0.0
 10
70.494577365451377
 20
160.5552300347222
 30
0.0
 10
70.351605902777777
 20
160.55936414930554
 30
0.0
 10
70.209323459201386
 20
160.56384277343747
 30
0.0
 10
70.11733940972222
 20
160.56625434027777
 30
0.0
 10
70.027077907986111
 20
160.56866590711803
 30
0.0
 10
69.935782877604154
 20
160.57176649305555
 30
0.0
 10
69.881694878472217
 20
160.57314453124999
 30
0.0
 10
69.827262369791654
 20
160.57417805989581
 30
0.0
 10
69.773174370659717
 20
160.57590060763889
 30
0.0
 10
69.744235568576386
 20
160.57693413628471
 30
0.0
 10
69.714607747395831
 20
160.57762315538193
 30
0.0
 10
69.684979926215277
 20
160.57865668402778
 30
0.0
 10
69.669476996527777
 20
160.57900119357637
 30
0.0
 10
69.653629557291666
 20
160.57934570312497
 30
0.0
 10
69.640538194444431
 20
160.5796902126736
 30
0.0
 10
69.640538194444431
 20
160.5796902126736
 30
0.0
 10
69.620901150173609
 20
160.58037923177082
 30
0.0
 10
69.620901150173609
 20
160.58037923177082
 30
0.0
  0
POLYLINE
  5
3C3
100
AcDbEntity
  8
レイヤー_2
 62
     7
100
AcDb2dPolyline
 66
     1
 10
0.0
 20
0.0
 30
0.0
  0
VERTEX
  5
3C4
100
AcDbEntity
  8
レイヤー_2
 62
     7
100
AcDbVertex
100
AcDb2dVertex
 10
69.620901
 20
160.580379
 30
0.0
  0
VERTEX
  5
3C5
100
AcDbEntity
  8
レイヤー_2
 62
     7
100
AcDbVertex
100
AcDb2dVertex
 10
69.621246
 20
160.580379
 30
0.0
  0
VERTEX
  5
3C6
100
AcDbEntity
  8
レイヤー_2
 62
     7
100
AcDbVertex
100
AcDb2dVertex
 10
69.622279
 20
160.580724
 30
0.0
  0
VERTEX
  5
3C7
100
AcDbEntity
  8
レイヤー_2
 62
     7
100
AcDbVertex
100
AcDb2dVertex
 10
69.630547
 20
160.580724
 30
0.0
  0
SEQEND
  5
3C8
100
AcDbEntity
  8
レイヤー_2
 62
     7
  0
LINE
  5
3C2
100
AcDbEntity
  8
レイヤー_2
 62
     7
100
AcDbLine
 10
76.068397
 20
160.580724
 30
0.0
 11
73.54452
 21
160.580724
 31
0.0
  0
LINE
  5
3C1
100
AcDbEntity
  8
レイヤー_2
 62
     7
100
AcDbLine
 10
73.54452
 20
160.580724
 30
0.0
 11
69.995039
 21
160.580724
 31
0.0
  0
LINE
  5
3C0
100
AcDbEntity
  8
レイヤー_2
 62
     7
100
AcDbLine
 10
72.028334
 20
162.581291
 30
0.0
 11
69.999517
 21
162.581291
 31
0.0
  0
SPLINE
  5
3BF
100
AcDbEntity
  8
レイヤー_2
 62
     7
100
AcDbSpline
210
0.0
220
0.0
230
1.0
 70
     8
 71
     3
 72
     8
 73
     4
 74
     0
 42
0.00000001
 43
0.00000001
 40
0.0
 40
0.0
 40
0.0
 40
0.0
 40
1.0
 40
1.0
 40
1.0
 40
1.0
 10
75.649129231770829
 20
159.79455295138888
 30
0.0
 10
75.370765516493051
 20
159.97576497395832
 30
0.0
 10
72.708740234375
 20
160.32199707031248
 30
0.0
 10
69.62124565972222
 20
160.58037923177082
 30
0.0
  0
SPLINE
  5
3BE
100
AcDbEntity
  8
レイヤー_2
 62
     7
100
AcDbSpline
210
0.0
220
0.0
230
1.0
 70
     8
 71
     3
 72
     8
 73
     4
 74
     0
 42
0.00000001
 43
0.00000001
 40
0.0
 40
0.0
 40
0.0
 40
0.0
 40
1.0
 40
1.0
 40
1.0
 40
1.0
 10
73.341259765624997
 20
159.97921006944443
 30
0.0
 10
73.89281955295138
 20
159.95406087239581
 30
0.0
 10
74.051638454861106
 20
159.97817654079859
 30
0.0
 10
73.763283962673611
 20
160.03467610677083
 30
0.0
  0
SPLINE
  5
3BD
100
AcDbEntity
  8
レイヤー_2
 62
     7
100
AcDbSpline
210
0.0
220
0.0
230
1.0
 70
     8
 71
     3
 72
     8
 73
     4
 74
     0
 42
0.00000001
 43
0.00000001
 40
0.0
 40
0.0
 40
0.0
 40
0.0
 40
1.0
 40
1.0
 40
1.0
 40
1.0
 10
73.763628472222209
 20
160.03536512586805
 30
0.0
 10
73.033957248263889
 20
160.1766140407986
 30
0.0
 10
71.539474826388883
 20
160.3533474392361
 30
0.0
 10
69.914423285590274
 20
160.49804144965276
 30
0.0
  0
SPLINE
  5
3BC
100
AcDbEntity
  8
レイヤー_2
 62
     7
100
AcDbSpline
210
0.0
220
0.0
230
1.0
 70
     8
 71
     3
 72
    11
 73
     7
 74
     0
 42
0.00000001
 43
0.00000001
 40
0.0
 40
0.0
 40
0.0
 40
0.0
 40
1.0
 40
1.0
 40
1.0
 40
2.0
 40
2.0
 40
2.0
 40
2.0
 10
69.824850802951389
 20
160.58141276041664
 30
0.0
 10
69.465527343749997
 20
160.60897352430555
 30
0.0
 10
69.213001844618049
 20
160.61448567708331
 30
0.0
 10
69.210245768229157
 20
160.59657118055554
 30
0.0
 10
69.208178710937489
 20
160.57624511718748
 30
0.0
 10
69.518926323784711
 20
160.5331814236111
 30
0.0
 10
69.91338975694444
 20
160.49804144965276
 30
0.0
  0
POLYLINE
  5
3B6
100
AcDbEntity
  8
レイヤー_2
 62
     7
100
AcDb2dPolyline
 66
     1
 10
0.0
 20
0.0
 30
0.0
  0
VERTEX
  5
3B7
100
AcDbEntity
  8
レイヤー_2
 62
     7
100
AcDbVertex
100
AcDb2dVertex
 10
69.821061
 20
160.580724
 30
0.0
  0
VERTEX
  5
3B8
100
AcDbEntity
  8
レイヤー_2
 62
     7
100
AcDbVertex
100
AcDb2dVertex
 10
69.824506
 20
160.581068
 30
0.0
  0
VERTEX
  5
3B9
100
AcDbEntity
  8
レイヤー_2
 62
     7
100
AcDbVertex
100
AcDb2dVertex
 10
69.82554
 20
160.581068
 30
0.0
  0
VERTEX
  5
3BA
100
AcDbEntity
  8
レイヤー_2
 62
     7
100
AcDbVertex
100
AcDb2dVertex
 10
69.82554
 20
160.581413
 30
0.0
  0
SEQEND
  5
3BB
100
AcDbEntity
  8
レイヤー_2
 62
     7
  0
LINE
  5
3B5
100
AcDbEntity
  8
レイヤー_2
 62
     7
100
AcDbLine
 10
69.630547
 20
160.580724
 30
0.0
 11
69.821061
 21
160.580724
 31
0.0
  0
LINE
  5
3B4
100
AcDbEntity
  8
レイヤー_2
 62
     7
100
AcDbLine
 10
69.999517
 20
162.581291
 30
0.0
 11
68.981147
 21
162.581291
 31
0.0
  0
LINE
  5
3B3
100
AcDbEntity
  8
レイヤー_2
 62
     7
100
AcDbLine
 10
69.995039
 20
160.580724
 30
0.0
 11
69.821061
 21
160.580724
 31
0.0
  0
SPLINE
  5
3B2
100
AcDbEntity
  8
レイヤー_2
 62
     7
100
AcDbSpline
210
0.0
220
0.0
230
1.0
 70
     8
 71
     3
 72
     8
 73
     4
 74
     0
 42
0.00000001
 43
0.00000001
 40
0.0
 40
0.0
 40
0.0
 40
0.0
 40
1.0
 40
1.0
 40
1.0
 40
1.0
 10
75.676689995659714
 20
159.68327636718749
 30
0.0
 10
75.676689995659714
 20
159.68396538628471
 30
0.0
 10
75.676689995659714
 20
159.68534342447916
 30
0.0
 10
75.676689995659714
 20
159.68568793402775
 30
0.0
  0
SPLINE
  5
3B1
100
AcDbEntity
  8
レイヤー_2
 62
     7
100
AcDbSpline
210
0.0
220
0.0
230
1.0
 70
     8
 71
     3
 72
     8
 73
     4
 74
     0
 42
0.00000001
 43
0.00000001
 40
0.0
 40
0.0
 40
0.0
 40
0.0
 40
1.0
 40
1.0
 40
1.0
 40
1.0
 10
75.652574327256943
 20
159.63125542534721
 30
0.0
 10
75.668766276041666
 20
159.64434678819444
 30
0.0
 10
75.676689995659714
 20
159.66398383246528
 30
0.0
 10
75.676689995659714
 20
159.68327636718749
 30
0.0
  0
LINE
  5
3B0
100
AcDbEntity
  8
レイヤー_2
 62
     7
100
AcDbLine
 10
75.652574
 20
159.631255
 30
0.0
 11
73.254443
 21
159.631255
 31
0.0
  0
LINE
  5
3AF
100
AcDbEntity
  8
レイヤー_2
 62
     7
100
AcDbLine
 10
73.202422
 20
159.631255
 30
0.0
 11
73.254443
 21
159.631255
 31
0.0
  0
POLYLINE
  5
3A9
100
AcDbEntity
  8
レイヤー_2
 62
     7
100
AcDb2dPolyline
 66
     1
 10
0.0
 20
0.0
 30
0.0
  0
VERTEX
  5
3AA
100
AcDbEntity
  8
レイヤー_2
 62
     7
100
AcDbVertex
100
AcDb2dVertex
 10
64.424664
 20
160.581413
 30
0.0
  0
VERTEX
  5
3AB
100
AcDbEntity
  8
レイヤー_2
 62
     7
100
AcDbVertex
100
AcDb2dVertex
 10
64.430865
 20
160.581068
 30
0.0
  0
VERTEX
  5
3AC
100
AcDbEntity
  8
レイヤー_2
 62
     7
100
AcDbVertex
100
AcDb2dVertex
 10
64.437066
 20
160.580724
 30
0.0
  0
VERTEX
  5
3AD
100
AcDbEntity
  8
レイヤー_2
 62
     7
100
AcDbVertex
100
AcDb2dVertex
 10
64.438444
 20
160.580724
 30
0.0
  0
SEQEND
  5
3AE
100
AcDbEntity
  8
レイヤー_2
 62
     7
  0
SPLINE
  5
3A8
100
AcDbEntity
  8
レイヤー_2
 62
     7
100
AcDbSpline
210
0.0
220
0.0
230
1.0
 70
     8
 71
     3
 72
    14
 73
    10
 74
     0
 42
0.00000001
 43
0.00000001
 40
0.0
 40
0.0
 40
0.0
 40
0.0
 40
1.0
 40
1.0
 40
1.0
 40
2.0
 40
2.0
 40
2.0
 40
3.0
 40
3.0
 40
3.0
 40
3.0
 10
65.772040473090271
 20
160.49804144965276
 30
0.0
 10
65.630447048611103
 20
160.52146809895831
 30
0.0
 10
65.389979383680554
 20
160.54902886284719
 30
0.0
 10
65.140209960937497
 20
160.57004394531248
 30
0.0
 10
64.725764973958334
 20
160.60552842881944
 30
0.0
 10
64.388834635416657
 20
160.61793077256942
 30
0.0
 10
64.386423068576377
 20
160.59657118055554
 30
0.0
 10
64.386423068576377
 20
160.59243706597221
 30
0.0
 10
64.400892469618043
 20
160.58692491319442
 30
0.0
 10
64.424663628472217
 20
160.58141276041664
 30
0.0
  0
SPLINE
  5
3A7
100
AcDbEntity
  8
レイヤー_2
 62
     7
100
AcDbSpline
210
0.0
220
0.0
230
1.0
 70
     8
 71
     3
 72
     8
 73
     4
 74
     0
 42
0.00000001
 43
0.00000001
 40
0.0
 40
0.0
 40
0.0
 40
0.0
 40
1.0
 40
1.0
 40
1.0
 40
1.0
 10
64.648939344618043
 20
160.57934570312497
 30
0.0
 10
65.289727105034714
 20
160.45842285156249
 30
0.0
 10
66.350816514756943
 20
160.31889648437499
 30
0.0
 10
67.576925998263889
 20
160.18729383680554
 30
0.0
  0
POLYLINE
  5
3A1
100
AcDbEntity
  8
レイヤー_2
 62
     7
100
AcDb2dPolyline
 66
     1
 10
0.0
 20
0.0
 30
0.0
  0
VERTEX
  5
3A2
100
AcDbEntity
  8
レイヤー_2
 62
     7
100
AcDbVertex
100
AcDb2dVertex
 10
64.628269
 20
160.580724
 30
0.0
  0
VERTEX
  5
3A3
100
AcDbEntity
  8
レイヤー_2
 62
     7
100
AcDbVertex
100
AcDb2dVertex
 10
64.64136
 20
160.580724
 30
0.0
  0
VERTEX
  5
3A4
100
AcDbEntity
  8
レイヤー_2
 62
     7
100
AcDbVertex
100
AcDb2dVertex
 10
64.646872
 20
160.580379
 30
0.0
  0
VERTEX
  5
3A5
100
AcDbEntity
  8
レイヤー_2
 62
     7
100
AcDbVertex
100
AcDb2dVertex
 10
64.648939
 20
160.580379
 30
0.0
  0
SEQEND
  5
3A6
100
AcDbEntity
  8
レイヤー_2
 62
     7
  0
LINE
  5
3A0
100
AcDbEntity
  8
レイヤー_2
 62
     7
100
AcDbLine
 10
64.628269
 20
160.580724
 30
0.0
 11
64.438444
 21
160.580724
 31
0.0
  0
LINE
  5
39F
100
AcDbEntity
  8
レイヤー_2
 62
     7
100
AcDbLine
 10
70.560379
 20
175.094222
 30
0.0
 11
70.453236
 21
175.094222
 31
0.0
  0
LINE
  5
39E
100
AcDbEntity
  8
レイヤー_2
 62
     7
100
AcDbLine
 10
73.452881
 20
175.094222
 30
0.0
 11
70.560379
 21
175.094222
 31
0.0
  0
LINE
  5
39D
100
AcDbEntity
  8
レイヤー_2
 62
     7
100
AcDbLine
 10
70.858724
 20
176.46916
 30
0.0
 11
70.586217
 21
176.46916
 31
0.0
  0
LINE
  5
39C
100
AcDbEntity
  8
レイヤー_2
 62
     7
100
AcDbLine
 10
71.093335
 20
176.46916
 30
0.0
 11
70.858724
 21
176.46916
 31
0.0
  0
LINE
  5
39B
100
AcDbEntity
  8
レイヤー_2
 62
     7
100
AcDbLine
 10
71.768574
 20
176.46916
 30
0.0
 11
71.093335
 21
176.46916
 31
0.0
  0
LINE
  5
39A
100
AcDbEntity
  8
レイヤー_2
 62
     7
100
AcDbLine
 10
72.103781
 20
176.46916
 30
0.0
 11
71.768574
 21
176.46916
 31
0.0
  0
LINE
  5
399
100
AcDbEntity
  8
レイヤー_2
 62
     7
100
AcDbLine
 10
72.786255
 20
176.46916
 30
0.0
 11
72.103781
 21
176.46916
 31
0.0
  0
LINE
  5
398
100
AcDbEntity
  8
レイヤー_2
 62
     7
100
AcDbLine
 10
73.025689
 20
176.46916
 30
0.0
 11
72.786255
 21
176.46916
 31
0.0
  0
LINE
  5
397
100
AcDbEntity
  8
レイヤー_2
 62
     7
100
AcDbLine
 10
73.315422
 20
176.46916
 30
0.0
 11
73.025689
 21
176.46916
 31
0.0
  0
LINE
  5
396
100
AcDbEntity
  8
レイヤー_2
 62
     7
100
AcDbLine
 10
73.327479
 20
176.46916
 30
0.0
 11
73.315422
 21
176.46916
 31
0.0
  0
LINE
  5
395
100
AcDbEntity
  8
レイヤー_2
 62
     7
100
AcDbLine
 10
70.586217
 20
176.46916
 30
0.0
 11
70.577604
 21
176.46916
 31
0.0
  0
LINE
  5
394
100
AcDbEntity
  8
レイヤー_2
 62
     7
100
AcDbLine
 10
71.093335
 20
176.718929
 30
0.0
 11
71.093335
 21
176.46916
 31
0.0
  0
LINE
  5
393
100
AcDbEntity
  8
レイヤー_2
 62
     7
100
AcDbLine
 10
71.768574
 20
176.46916
 30
0.0
 11
71.768574
 21
176.718929
 31
0.0
  0
LINE
  5
392
100
AcDbEntity
  8
レイヤー_2
 62
     7
100
AcDbLine
 10
72.103781
 20
176.718929
 30
0.0
 11
72.103781
 21
176.46916
 31
0.0
  0
LINE
  5
391
100
AcDbEntity
  8
レイヤー_2
 62
     7
100
AcDbLine
 10
72.786255
 20
176.46916
 30
0.0
 11
72.786255
 21
176.718929
 31
0.0
  0
LINE
  5
390
100
AcDbEntity
  8
レイヤー_2
 62
     7
100
AcDbLine
 10
70.858724
 20
176.46916
 30
0.0
 11
70.858724
 21
176.718929
 31
0.0
  0
LINE
  5
38F
100
AcDbEntity
  8
レイヤー_2
 62
     7
100
AcDbLine
 10
73.025689
 20
176.718929
 30
0.0
 11
73.025689
 21
176.46916
 31
0.0
  0
LINE
  5
38E
100
AcDbEntity
  8
レイヤー_2
 62
     7
100
AcDbLine
 10
73.315422
 20
176.46916
 30
0.0
 11
73.315422
 21
176.718929
 31
0.0
  0
LINE
  5
38D
100
AcDbEntity
  8
レイヤー_2
 62
     7
100
AcDbLine
 10
70.586217
 20
176.718929
 30
0.0
 11
70.586217
 21
176.46916
 31
0.0
  0
LINE
  5
38C
100
AcDbEntity
  8
レイヤー_2
 62
     7
100
AcDbLine
 10
67.502512
 20
176.46916
 30
0.0
 11
67.452558
 21
176.46916
 31
0.0
  0
LINE
  5
38B
100
AcDbEntity
  8
レイヤー_2
 62
     7
100
AcDbLine
 10
67.631014
 20
176.46916
 30
0.0
 11
67.502512
 21
176.46916
 31
0.0
  0
LINE
  5
38A
100
AcDbEntity
  8
レイヤー_2
 62
     7
100
AcDbLine
 10
68.15019
 20
176.46916
 30
0.0
 11
67.631014
 21
176.46916
 31
0.0
  0
LINE
  5
389
100
AcDbEntity
  8
レイヤー_2
 62
     7
100
AcDbLine
 10
68.460593
 20
176.46916
 30
0.0
 11
68.15019
 21
176.46916
 31
0.0
  0
LINE
  5
388
100
AcDbEntity
  8
レイヤー_2
 62
     7
100
AcDbLine
 10
69.195087
 20
176.46916
 30
0.0
 11
68.460593
 21
176.46916
 31
0.0
  0
LINE
  5
387
100
AcDbEntity
  8
レイヤー_2
 62
     7
100
AcDbLine
 10
69.504457
 20
176.46916
 30
0.0
 11
69.195087
 21
176.46916
 31
0.0
  0
LINE
  5
386
100
AcDbEntity
  8
レイヤー_2
 62
     7
100
AcDbLine
 10
70.024666
 20
176.46916
 30
0.0
 11
69.504457
 21
176.46916
 31
0.0
  0
LINE
  5
385
100
AcDbEntity
  8
レイヤー_2
 62
     7
100
AcDbLine
 10
70.152479
 20
176.46916
 30
0.0
 11
70.024666
 21
176.46916
 31
0.0
  0
LINE
  5
384
100
AcDbEntity
  8
レイヤー_2
 62
     7
100
AcDbLine
 10
70.203122
 20
176.46916
 30
0.0
 11
70.152479
 21
176.46916
 31
0.0
  0
LINE
  5
383
100
AcDbEntity
  8
レイヤー_2
 62
     7
100
AcDbLine
 10
70.32749
 20
175.094222
 30
0.0
 11
67.327846
 21
175.094222
 31
0.0
  0
LINE
  5
382
100
AcDbEntity
  8
レイヤー_2
 62
     7
100
AcDbLine
 10
68.460593
 20
176.718929
 30
0.0
 11
68.460593
 21
176.46916
 31
0.0
  0
LINE
  5
381
100
AcDbEntity
  8
レイヤー_2
 62
     7
100
AcDbLine
 10
69.195087
 20
176.46916
 30
0.0
 11
69.195087
 21
176.718929
 31
0.0
  0
LINE
  5
380
100
AcDbEntity
  8
レイヤー_2
 62
     7
100
AcDbLine
 10
68.15019
 20
176.46916
 30
0.0
 11
68.15019
 21
176.718929
 31
0.0
  0
LINE
  5
37F
100
AcDbEntity
  8
レイヤー_2
 62
     7
100
AcDbLine
 10
69.504457
 20
176.718929
 30
0.0
 11
69.504457
 21
176.46916
 31
0.0
  0
LINE
  5
37E
100
AcDbEntity
  8
レイヤー_2
 62
     7
100
AcDbLine
 10
67.631014
 20
176.718929
 30
0.0
 11
67.631014
 21
176.46916
 31
0.0
  0
LINE
  5
37D
100
AcDbEntity
  8
レイヤー_2
 62
     7
100
AcDbLine
 10
70.024666
 20
176.46916
 30
0.0
 11
70.024666
 21
176.718929
 31
0.0
  0
LINE
  5
37C
100
AcDbEntity
  8
レイヤー_2
 62
     7
100
AcDbLine
 10
70.152479
 20
176.718929
 30
0.0
 11
70.152479
 21
176.46916
 31
0.0
  0
LINE
  5
37B
100
AcDbEntity
  8
レイヤー_2
 62
     7
100
AcDbLine
 10
67.502512
 20
176.46916
 30
0.0
 11
67.502512
 21
176.718929
 31
0.0
  0
LINE
  5
37A
100
AcDbEntity
  8
レイヤー_2
 62
     7
100
AcDbLine
 10
66.177528
 20
176.718929
 30
0.0
 11
74.602165
 21
176.718929
 31
0.0
  0
LINE
  5
379
100
AcDbEntity
  8
レイヤー_2
 62
     7
100
AcDbLine
 10
71.274202
 20
215.795958
 30
0.0
 11
71.331736
 21
211.696984
 31
0.0
  0
SPLINE
  5
378
100
AcDbEntity
  8
レイヤー_2
 62
     7
100
AcDbSpline
210
0.0
220
0.0
230
1.0
 70
     8
 71
     3
 72
    11
 73
     7
 74
     0
 42
0.00000001
 43
0.00000001
 40
0.0
 40
0.0
 40
0.0
 40
0.0
 40
1.0
 40
1.0
 40
1.0
 40
2.0
 40
2.0
 40
2.0
 40
2.0
 10
69.462082248263883
 20
211.69698350694443
 30
0.0
 10
69.462082248263883
 20
211.69560546874999
 30
0.0
 10
69.462082248263883
 20
211.69491644965277
 30
0.0
 10
69.462082248263883
 20
211.69388292100692
 30
0.0
 10
69.462082248263883
 20
211.58398437499997
 30
0.0
 10
69.551654730902769
 20
211.49372287326386
 30
0.0
 10
69.661553276909714
 20
211.49372287326386
 30
0.0
  0
SPLINE
  5
377
100
AcDbEntity
  8
レイヤー_2
 62
     7
100
AcDbSpline
210
0.0
220
0.0
230
1.0
 70
     8
 71
     3
 72
     8
 73
     4
 74
     0
 42
0.00000001
 43
0.00000001
 40
0.0
 40
0.0
 40
0.0
 40
0.0
 40
1.0
 40
1.0
 40
1.0
 40
1.0
 10
69.718397352430543
 20
215.9937065972222
 30
0.0
 10
69.60918782552082
 20
215.99301757812498
 30
0.0
 10
69.52099338107638
 20
215.90516764322913
 30
0.0
 10
69.519270833333323
 20
215.79595811631941
 30
0.0
  0
SPLINE
  5
376
100
AcDbEntity
  8
レイヤー_2
 62
     7
100
AcDbSpline
210
0.0
220
0.0
230
1.0
 70
     8
 71
     3
 72
     8
 73
     4
 74
     0
 42
0.00000001
 43
0.00000001
 40
0.0
 40
0.0
 40
0.0
 40
0.0
 40
1.0
 40
1.0
 40
1.0
 40
1.0
 10
71.331735568576377
 20
211.69388292100692
 30
0.0
 10
71.331735568576377
 20
211.69491644965277
 30
0.0
 10
71.331735568576377
 20
211.69629448784721
 30
0.0
 10
71.331735568576377
 20
211.69698350694443
 30
0.0
  0
SPLINE
  5
375
100
AcDbEntity
  8
レイヤー_2
 62
     7
100
AcDbSpline
210
0.0
220
0.0
230
1.0
 70
     8
 71
     3
 72
     8
 73
     4
 74
     0
 42
0.00000001
 43
0.00000001
 40
0.0
 40
0.0
 40
0.0
 40
0.0
 40
1.0
 40
1.0
 40
1.0
 40
1.0
 10
71.131231011284711
 20
211.49372287326386
 30
0.0
 10
71.242163085937491
 20
211.49372287326386
 30
0.0
 10
71.331735568576377
 20
211.58398437499997
 30
0.0
 10
71.331735568576377
 20
211.69388292100692
 30
0.0
  0
LINE
  5
374
100
AcDbEntity
  8
レイヤー_2
 62
     7
100
AcDbLine
 10
71.131231
 20
211.493723
 30
0.0
 11
69.661553
 21
211.493723
 31
0.0
  0
LINE
  5
373
100
AcDbEntity
  8
レイヤー_2
 62
     7
100
AcDbLine
 10
69.462082
 20
211.696984
 30
0.0
 11
69.519271
 21
215.795958
 31
0.0
  0
LINE
  5
372
100
AcDbEntity
  8
レイヤー_2
 62
     7
100
AcDbLine
 10
71.074731
 20
215.993707
 30
0.0
 11
69.718397
 21
215.993707
 31
0.0
  0
SPLINE
  5
371
100
AcDbEntity
  8
レイヤー_2
 62
     7
100
AcDbSpline
210
0.0
220
0.0
230
1.0
 70
     8
 71
     3
 72
     8
 73
     4
 74
     0
 42
0.00000001
 43
0.00000001
 40
0.0
 40
0.0
 40
0.0
 40
0.0
 40
1.0
 40
1.0
 40
1.0
 40
1.0
 10
71.274202473958326
 20
215.79595811631941
 30
0.0
 10
71.272479926215269
 20
215.90516764322913
 30
0.0
 10
71.183940972222217
 20
215.99301757812498
 30
0.0
 10
71.074731445312494
 20
215.9937065972222
 30
0.0
  0
SPLINE
  5
370
100
AcDbEntity
  8
レイヤー_2
 62
     7
100
AcDbSpline
210
0.0
220
0.0
230
1.0
 70
     8
 71
     3
 72
     8
 73
     4
 74
     0
 42
0.00000001
 43
0.00000001
 40
0.0
 40
0.0
 40
0.0
 40
0.0
 40
1.0
 40
1.0
 40
1.0
 40
1.0
 10
64.812236870659717
 20
215.9313503689236
 30
0.0
 10
64.704060872395829
 20
215.92962782118053
 30
0.0
 10
64.617588975694431
 20
215.84177788628469
 30
0.0
 10
64.615866427951389
 20
215.73463541666663
 30
0.0
  0
SPLINE
  5
36F
100
AcDbEntity
  8
レイヤー_2
 62
     7
100
AcDbSpline
210
0.0
220
0.0
230
1.0
 70
     8
 71
     3
 72
    32
 73
    28
 74
     0
 42
0.00000001
 43
0.00000001
 40
0.0
 40
0.0
 40
0.0
 40
0.0
 40
1.0
 40
1.0
 40
1.0
 40
2.0
 40
2.0
 40
2.0
 40
3.0
 40
3.0
 40
3.0
 40
4.0
 40
4.0
 40
4.0
 40
5.0
 40
5.0
 40
5.0
 40
6.0
 40
6.0
 40
6.0
 40
7.0
 40
7.0
 40
7.0
 40
8.0
 40
8.0
 40
8.0
 40
9.0
 40
9.0
 40
9.0
 40
9.0
 10
64.812236870659717
 20
215.9313503689236
 30
0.0
 10
64.827395290798606
 20
215.93203938802083
 30
0.0
 10
64.842898220486106
 20
215.93272840711805
 30
0.0
 10
64.891474066840274
 20
215.93307291666665
 30
0.0
 10
64.940049913194443
 20
215.93410644531249
 30
0.0
 10
65.021354166666654
 20
215.93617350260413
 30
0.0
 10
65.126085069444443
 20
215.93858506944443
 30
0.0
 10
65.230815972222217
 20
215.9406521267361
 30
0.0
 10
65.360007052951389
 20
215.94340820312499
 30
0.0
 10
65.511935763888886
 20
215.9468532986111
 30
0.0
 10
65.663519965277771
 20
215.94926486545137
 30
0.0
 10
65.838875325520831
 20
215.95270996093748
 30
0.0
 10
66.03524576822916
 20
215.9561550564236
 30
0.0
 10
66.230927191840266
 20
215.95994466145831
 30
0.0
 10
66.447968207465266
 20
215.9627007378472
 30
0.0
 10
66.682579210069434
 20
215.96614583333331
 30
0.0
 10
66.917190212673603
 20
215.96993543836803
 30
0.0
 10
67.169026692708329
 20
215.97372504340277
 30
0.0
 10
67.434988064236109
 20
215.97648111979166
 30
0.0
 10
67.700949435763889
 20
215.97958170572915
 30
0.0
 10
67.981724717881931
 20
215.98268229166663
 30
0.0
 10
68.272146267361109
 20
215.9847493489583
 30
0.0
 10
68.562567816840271
 20
215.98750542534719
 30
0.0
 10
68.863324652777777
 20
215.98991699218749
 30
0.0
 10
69.169593641493051
 20
215.99129503038193
 30
0.0
 10
69.242974175347214
 20
215.99163953993053
 30
0.0
 10
69.3170437282986
 20
215.99163953993053
 30
0.0
 10
69.390768771701389
 20
215.99163953993053
 30
0.0
  0
SPLINE
  5
36E
100
AcDbEntity
  8
レイヤー_2
 62
     7
100
AcDbSpline
210
0.0
220
0.0
230
1.0
 70
     8
 71
     3
 72
     8
 73
     4
 74
     0
 42
0.00000001
 43
0.00000001
 40
0.0
 40
0.0
 40
0.0
 40
0.0
 40
1.0
 40
1.0
 40
1.0
 40
1.0
 10
76.177606879340274
 20
215.73463541666663
 30
0.0
 10
76.175884331597217
 20
215.84246690538191
 30
0.0
 10
76.08941243489582
 20
215.92893880208331
 30
0.0
 10
75.981925455729154
 20
215.9313503689236
 30
0.0
  0
SPLINE
  5
36D
100
AcDbEntity
  8
レイヤー_2
 62
     7
100
AcDbSpline
210
0.0
220
0.0
230
1.0
 70
     8
 71
     3
 72
    32
 73
    28
 74
     0
 42
0.00000001
 43
0.00000001
 40
0.0
 40
0.0
 40
0.0
 40
0.0
 40
1.0
 40
1.0
 40
1.0
 40
2.0
 40
2.0
 40
2.0
 40
3.0
 40
3.0
 40
3.0
 40
4.0
 40
4.0
 40
4.0
 40
5.0
 40
5.0
 40
5.0
 40
6.0
 40
6.0
 40
6.0
 40
7.0
 40
7.0
 40
7.0
 40
8.0
 40
8.0
 40
8.0
 40
9.0
 40
9.0
 40
9.0
 40
9.0
 10
71.402704535590274
 20
215.99163953993053
 30
0.0
 10
71.477118598090271
 20
215.99163953993053
 30
0.0
 10
71.550843641493046
 20
215.99163953993053
 30
0.0
 10
71.624224175347209
 20
215.99129503038193
 30
0.0
 10
71.930493164062497
 20
215.98991699218749
 30
0.0
 10
72.231249999999989
 20
215.98750542534719
 30
0.0
 10
72.521327039930554
 20
215.9847493489583
 30
0.0
 10
72.811748589409717
 20
215.98268229166663
 30
0.0
 10
73.092179361979163
 20
215.97958170572915
 30
0.0
 10
73.358829752604166
 20
215.97648111979166
 30
0.0
 10
73.62444661458332
 20
215.97372504340277
 30
0.0
 10
73.876283094618046
 20
215.96993543836803
 30
0.0
 10
74.110894097222214
 20
215.96614583333331
 30
0.0
 10
74.345505099826383
 20
215.9627007378472
 30
0.0
 10
74.562546115451383
 20
215.95994466145831
 30
0.0
 10
74.7585720486111
 20
215.9561550564236
 30
0.0
 10
74.954942491319443
 20
215.95270996093748
 30
0.0
 10
75.129608832465266
 20
215.94926486545137
 30
0.0
 10
75.281193033854166
 20
215.9468532986111
 30
0.0
 10
75.433466254340274
 20
215.94340820312499
 30
0.0
 10
75.56231282552082
 20
215.9406521267361
 30
0.0
 10
75.667043728298609
 20
215.93858506944443
 30
0.0
 10
75.772119140624994
 20
215.93617350260413
 30
0.0
 10
75.853767903645831
 20
215.93410644531249
 30
0.0
 10
75.90234375
 20
215.93307291666665
 30
0.0
 10
75.950575086805543
 20
215.93272840711805
 30
0.0
 10
75.965733506944431
 20
215.93203938802083
 30
0.0
 10
75.981925455729154
 20
215.9313503689236
 30
0.0
  0
LINE
  5
36C
100
AcDbEntity
  8
レイヤー_2
 62
     7
100
AcDbLine
 10
76.257878
 20
204.494322
 30
0.0
 11
64.535596
 21
204.494322
 31
0.0
  0
SPLINE
  5
36B
100
AcDbEntity
  8
レイヤー_2
 62
     7
100
AcDbSpline
210
0.0
220
0.0
230
1.0
 70
     8
 71
     3
 72
    20
 73
    16
 74
     0
 42
0.00000001
 43
0.00000001
 40
0.0
 40
0.0
 40
0.0
 40
0.0
 40
1.0
 40
1.0
 40
1.0
 40
2.0
 40
2.0
 40
2.0
 40
3.0
 40
3.0
 40
3.0
 40
4.0
 40
4.0
 40
4.0
 40
5.0
 40
5.0
 40
5.0
 40
5.0
 10
71.402704535590274
 20
215.99163953993053
 30
0.0
 10
71.402704535590274
 20
215.99163953993053
 30
0.0
 10
71.387201605902774
 20
215.99232855902775
 30
0.0
 10
71.387201605902774
 20
215.99232855902775
 30
0.0
 10
71.343448893229166
 20
215.99232855902775
 30
0.0
 10
71.301074218749989
 20
215.99232855902775
 30
0.0
 10
71.263178168402774
 20
215.99232855902775
 30
0.0
 10
71.224593098958323
 20
215.99232855902775
 30
0.0
 10
71.19048665364582
 20
215.99301757812498
 30
0.0
 10
71.162581380208323
 20
215.99301757812498
 30
0.0
 10
71.133987087673603
 20
215.99301757812498
 30
0.0
 10
71.110560438368054
 20
215.99301757812498
 30
0.0
 10
71.09746907552082
 20
215.99301757812498
 30
0.0
 10
71.083688693576377
 20
215.9937065972222
 30
0.0
 10
71.074731445312494
 20
215.9937065972222
 30
0.0
 10
71.074731445312494
 20
215.9937065972222
 30
0.0
  0
SPLINE
  5
36A
100
AcDbEntity
  8
レイヤー_2
 62
     7
100
AcDbSpline
210
0.0
220
0.0
230
1.0
 70
     8
 71
     3
 72
    20
 73
    16
 74
     0
 42
0.00000001
 43
0.00000001
 40
0.0
 40
0.0
 40
0.0
 40
0.0
 40
1.0
 40
1.0
 40
1.0
 40
2.0
 40
2.0
 40
2.0
 40
3.0
 40
3.0
 40
3.0
 40
4.0
 40
4.0
 40
4.0
 40
5.0
 40
5.0
 40
5.0
 40
5.0
 10
69.718397352430543
 20
215.9937065972222
 30
0.0
 10
69.718397352430543
 20
215.9937065972222
 30
0.0
 10
69.718397352430543
 20
215.9937065972222
 30
0.0
 10
69.718397352430543
 20
215.9937065972222
 30
0.0
 10
69.718397352430543
 20
215.9937065972222
 30
0.0
 10
69.707717556423603
 20
215.99301757812498
 30
0.0
 10
69.690836588541657
 20
215.99301757812498
 30
0.0
 10
69.673955620659711
 20
215.99301757812498
 30
0.0
 10
69.650184461805551
 20
215.99301757812498
 30
0.0
 10
69.620901150173609
 20
215.99301757812498
 30
0.0
 10
69.591273328993054
 20
215.99301757812498
 30
0.0
 10
69.556133355034717
 20
215.99232855902775
 30
0.0
 10
69.516859266493043
 20
215.99232855902775
 30
0.0
 10
69.47689615885416
 20
215.99232855902775
 30
0.0
 10
69.434176974826386
 20
215.99232855902775
 30
0.0
 10
69.390768771701389
 20
215.99163953993053
 30
0.0
  0
LINE
  5
369
100
AcDbEntity
  8
レイヤー_2
 62
     7
100
AcDbLine
 10
67.190042
 20
196.259511
 30
0.0
 11
67.140088
 21
196.259511
 31
0.0
  0
LINE
  5
368
100
AcDbEntity
  8
レイヤー_2
 62
     7
100
AcDbLine
 10
67.190042
 20
196.412473
 30
0.0
 11
67.190042
 21
196.259511
 31
0.0
  0
LINE
  5
367
100
AcDbEntity
  8
レイヤー_2
 62
     7
100
AcDbLine
 10
73.589996
 20
196.412473
 30
0.0
 11
67.190042
 21
196.412473
 31
0.0
  0
LINE
  5
366
100
AcDbEntity
  8
レイヤー_2
 62
     7
100
AcDbLine
 10
73.589996
 20
196.412473
 30
0.0
 11
73.589996
 21
196.259511
 31
0.0
  0
LINE
  5
365
100
AcDbEntity
  8
レイヤー_2
 62
     7
100
AcDbLine
 10
73.63995
 20
196.259511
 30
0.0
 11
73.589996
 21
196.259511
 31
0.0
  0
SPLINE
  5
364
100
AcDbEntity
  8
レイヤー_2
 62
     7
100
AcDbSpline
210
0.0
220
0.0
230
1.0
 70
     8
 71
     3
 72
     8
 73
     4
 74
     0
 42
0.00000001
 43
0.00000001
 40
0.0
 40
0.0
 40
0.0
 40
0.0
 40
1.0
 40
1.0
 40
1.0
 40
1.0
 10
73.63994954427082
 20
196.25951063368055
 30
0.0
 10
73.913834635416663
 20
196.22816026475692
 30
0.0
 10
74.16119249131944
 20
196.41936306423608
 30
0.0
 10
74.203222656249991
 20
196.69049207899303
 30
0.0
  0
LINE
  5
363
100
AcDbEntity
  8
レイヤー_2
 62
     7
100
AcDbLine
 10
74.203223
 20
197.073242
 30
0.0
 11
74.203223
 21
196.690492
 31
0.0
  0
SPLINE
  5
362
100
AcDbEntity
  8
レイヤー_2
 62
     7
100
AcDbSpline
210
0.0
220
0.0
230
1.0
 70
     8
 71
     3
 72
     8
 73
     4
 74
     0
 42
0.00000001
 43
0.00000001
 40
0.0
 40
0.0
 40
0.0
 40
0.0
 40
1.0
 40
1.0
 40
1.0
 40
1.0
 10
74.203222656249991
 20
197.07324218749997
 30
0.0
 10
74.199777560763877
 20
197.17728407118054
 30
0.0
 10
74.155335828993046
 20
197.27099066840276
 30
0.0
 10
74.085400390624997
 20
197.3371365017361
 30
0.0
  0
SPLINE
  5
361
100
AcDbEntity
  8
レイヤー_2
 62
     7
100
AcDbSpline
210
0.0
220
0.0
230
1.0
 70
     8
 71
     3
 72
     8
 73
     4
 74
     0
 42
0.00000001
 43
0.00000001
 40
0.0
 40
0.0
 40
0.0
 40
0.0
 40
1.0
 40
1.0
 40
1.0
 40
1.0
 10
66.694981553819431
 20
197.3371365017361
 30
0.0
 10
66.6195339626736
 20
197.26547851562498
 30
0.0
 10
66.580604383680551
 20
197.16970486111109
 30
0.0
 10
66.577159288194437
 20
197.07324218749997
 30
0.0
  0
LINE
  5
360
100
AcDbEntity
  8
レイヤー_2
 62
     7
100
AcDbLine
 10
66.577159
 20
196.690492
 30
0.0
 11
66.577159
 21
197.073242
 31
0.0
  0
SPLINE
  5
35F
100
AcDbEntity
  8
レイヤー_2
 62
     7
100
AcDbSpline
210
0.0
220
0.0
230
1.0
 70
     8
 71
     3
 72
     8
 73
     4
 74
     0
 42
0.00000001
 43
0.00000001
 40
0.0
 40
0.0
 40
0.0
 40
0.0
 40
1.0
 40
1.0
 40
1.0
 40
1.0
 10
66.577159288194437
 20
196.69049207899303
 30
0.0
 10
66.618500434027766
 20
196.41798502604166
 30
0.0
 10
66.867925347222211
 20
196.22816026475692
 30
0.0
 10
67.140087890624997
 20
196.25951063368055
 30
0.0
  0
LINE
  5
35E
100
AcDbEntity
  8
レイヤー_2
 62
     7
100
AcDbLine
 10
73.452881
 20
196.298096
 30
0.0
 11
73.452881
 21
196.116195
 31
0.0
  0
LINE
  5
35D
100
AcDbEntity
  8
レイヤー_2
 62
     7
100
AcDbLine
 10
73.452881
 20
196.298096
 30
0.0
 11
72.402127
 21
196.298096
 31
0.0
  0
LINE
  5
35C
100
AcDbEntity
  8
レイヤー_2
 62
     7
100
AcDbLine
 10
72.402127
 20
196.116195
 30
0.0
 11
72.402127
 21
196.298096
 31
0.0
  0
LINE
  5
35B
100
AcDbEntity
  8
レイヤー_2
 62
     7
100
AcDbLine
 10
72.402127
 20
196.116195
 30
0.0
 11
72.277759
 21
196.116195
 31
0.0
  0
LINE
  5
35A
100
AcDbEntity
  8
レイヤー_2
 62
     7
100
AcDbLine
 10
72.277759
 20
196.298096
 30
0.0
 11
72.277759
 21
196.116195
 31
0.0
  0
LINE
  5
359
100
AcDbEntity
  8
レイヤー_2
 62
     7
100
AcDbLine
 10
72.277759
 20
196.298096
 30
0.0
 11
70.75296
 21
196.298096
 31
0.0
  0
LINE
  5
358
100
AcDbEntity
  8
レイヤー_2
 62
     7
100
AcDbLine
 10
70.75296
 20
196.116195
 30
0.0
 11
70.75296
 21
196.298096
 31
0.0
  0
LINE
  5
357
100
AcDbEntity
  8
レイヤー_2
 62
     7
100
AcDbLine
 10
70.75296
 20
196.116195
 30
0.0
 11
70.627558
 21
196.116195
 31
0.0
  0
LINE
  5
356
100
AcDbEntity
  8
レイヤー_2
 62
     7
100
AcDbLine
 10
70.627558
 20
196.298096
 30
0.0
 11
70.627558
 21
196.116195
 31
0.0
  0
LINE
  5
355
100
AcDbEntity
  8
レイヤー_2
 62
     7
100
AcDbLine
 10
70.627558
 20
196.298096
 30
0.0
 11
70.152479
 21
196.298096
 31
0.0
  0
LINE
  5
354
100
AcDbEntity
  8
レイヤー_2
 62
     7
100
AcDbLine
 10
70.152479
 20
196.116195
 30
0.0
 11
70.152479
 21
196.298096
 31
0.0
  0
LINE
  5
353
100
AcDbEntity
  8
レイヤー_2
 62
     7
100
AcDbLine
 10
70.152479
 20
196.116195
 30
0.0
 11
70.027422
 21
196.116195
 31
0.0
  0
LINE
  5
352
100
AcDbEntity
  8
レイヤー_2
 62
     7
100
AcDbLine
 10
70.027422
 20
196.298096
 30
0.0
 11
70.027422
 21
196.116195
 31
0.0
  0
LINE
  5
351
100
AcDbEntity
  8
レイヤー_2
 62
     7
100
AcDbLine
 10
70.027422
 20
196.298096
 30
0.0
 11
68.502623
 21
196.298096
 31
0.0
  0
LINE
  5
350
100
AcDbEntity
  8
レイヤー_2
 62
     7
100
AcDbLine
 10
68.502623
 20
196.116195
 30
0.0
 11
68.502623
 21
196.298096
 31
0.0
  0
LINE
  5
34F
100
AcDbEntity
  8
レイヤー_2
 62
     7
100
AcDbLine
 10
68.502623
 20
196.116195
 30
0.0
 11
68.377911
 21
196.116195
 31
0.0
  0
LINE
  5
34E
100
AcDbEntity
  8
レイヤー_2
 62
     7
100
AcDbLine
 10
68.377911
 20
196.298096
 30
0.0
 11
68.377911
 21
196.116195
 31
0.0
  0
LINE
  5
34D
100
AcDbEntity
  8
レイヤー_2
 62
     7
100
AcDbLine
 10
68.377911
 20
196.298096
 30
0.0
 11
67.327846
 21
196.298096
 31
0.0
  0
LINE
  5
34C
100
AcDbEntity
  8
レイヤー_2
 62
     7
100
AcDbLine
 10
67.327846
 20
196.116195
 30
0.0
 11
67.327846
 21
196.298096
 31
0.0
  0
LINE
  5
34B
100
AcDbEntity
  8
レイヤー_2
 62
     7
100
AcDbLine
 10
67.327846
 20
196.116195
 30
0.0
 11
67.15249
 21
196.116195
 31
0.0
  0
LINE
  5
34A
100
AcDbEntity
  8
レイヤー_2
 62
     7
100
AcDbLine
 10
67.15249
 20
196.144444
 30
0.0
 11
67.15249
 21
196.116195
 31
0.0
  0
SPLINE
  5
349
100
AcDbEntity
  8
レイヤー_2
 62
     7
100
AcDbSpline
210
0.0
220
0.0
230
1.0
 70
     8
 71
     3
 72
     8
 73
     4
 74
     0
 42
0.00000001
 43
0.00000001
 40
0.0
 40
0.0
 40
0.0
 40
0.0
 40
1.0
 40
1.0
 40
1.0
 40
1.0
 10
66.42764214409722
 20
196.69049207899303
 30
0.0
 10
66.481041124131934
 20
196.34115939670136
 30
0.0
 10
66.803157552083334
 20
196.10034722222221
 30
0.0
 10
67.152490234374994
 20
196.14547797309027
 30
0.0
  0
LINE
  5
348
100
AcDbEntity
  8
レイヤー_2
 62
     7
100
AcDbLine
 10
66.427642
 20
196.690492
 30
0.0
 11
66.427642
 21
197.054294
 31
0.0
  0
LINE
  5
347
100
AcDbEntity
  8
レイヤー_2
 62
     7
100
AcDbLine
 10
74.352395
 20
197.054294
 30
0.0
 11
74.352395
 21
196.690492
 31
0.0
  0
SPLINE
  5
346
100
AcDbEntity
  8
レイヤー_2
 62
     7
100
AcDbSpline
210
0.0
220
0.0
230
1.0
 70
     8
 71
     3
 72
     8
 73
     4
 74
     0
 42
0.00000001
 43
0.00000001
 40
0.0
 40
0.0
 40
0.0
 40
0.0
 40
1.0
 40
1.0
 40
1.0
 40
1.0
 10
73.628236219618046
 20
196.14547797309027
 30
0.0
 10
73.978257921006943
 20
196.09965820312499
 30
0.0
 10
74.299340820312494
 20
196.3425374348958
 30
0.0
 10
74.352395290798611
 20
196.69049207899303
 30
0.0
  0
LINE
  5
345
100
AcDbEntity
  8
レイヤー_2
 62
     7
100
AcDbLine
 10
73.628236
 20
196.116195
 30
0.0
 11
73.628236
 21
196.144444
 31
0.0
  0
LINE
  5
344
100
AcDbEntity
  8
レイヤー_2
 62
     7
100
AcDbLine
 10
73.628236
 20
196.116195
 30
0.0
 11
73.452881
 21
196.116195
 31
0.0
  0
LINE
  5
343
100
AcDbEntity
  8
レイヤー_2
 62
     7
100
AcDbLine
 10
67.140088
 20
197.280292
 30
0.0
 11
67.105981
 21
197.327835
 31
0.0
  0
LINE
  5
342
100
AcDbEntity
  8
レイヤー_2
 62
     7
100
AcDbLine
 10
67.105981
 20
197.327835
 30
0.0
 11
67.105981
 21
197.448758
 31
0.0
  0
LINE
  5
341
100
AcDbEntity
  8
レイヤー_2
 62
     7
100
AcDbLine
 10
67.173505
 20
197.327835
 30
0.0
 11
67.173505
 21
197.449102
 31
0.0
  0
LINE
  5
340
100
AcDbEntity
  8
レイヤー_2
 62
     7
100
AcDbLine
 10
67.173505
 20
197.327835
 30
0.0
 11
67.140088
 21
197.280292
 31
0.0
  0
LINE
  5
33F
100
AcDbEntity
  8
レイヤー_2
 62
     7
100
AcDbLine
 10
68.997339
 20
197.280292
 30
0.0
 11
68.963577
 21
197.327835
 31
0.0
  0
LINE
  5
33E
100
AcDbEntity
  8
レイヤー_2
 62
     7
100
AcDbLine
 10
68.963577
 20
197.327835
 30
0.0
 11
68.963577
 21
197.449102
 31
0.0
  0
LINE
  5
33D
100
AcDbEntity
  8
レイヤー_2
 62
     7
100
AcDbLine
 10
69.03179
 20
197.327835
 30
0.0
 11
69.03179
 21
197.449102
 31
0.0
  0
LINE
  5
33C
100
AcDbEntity
  8
レイヤー_2
 62
     7
100
AcDbLine
 10
69.03179
 20
197.327835
 30
0.0
 11
68.997339
 21
197.280292
 31
0.0
  0
LINE
  5
33B
100
AcDbEntity
  8
レイヤー_2
 62
     7
100
AcDbLine
 10
69.461738
 20
197.280292
 30
0.0
 11
69.427976
 21
197.327835
 31
0.0
  0
LINE
  5
33A
100
AcDbEntity
  8
レイヤー_2
 62
     7
100
AcDbLine
 10
69.427976
 20
197.327835
 30
0.0
 11
69.427976
 21
197.449102
 31
0.0
  0
LINE
  5
339
100
AcDbEntity
  8
レイヤー_2
 62
     7
100
AcDbLine
 10
69.4955
 20
197.327835
 30
0.0
 11
69.4955
 21
197.449102
 31
0.0
  0
LINE
  5
338
100
AcDbEntity
  8
レイヤー_2
 62
     7
100
AcDbLine
 10
69.4955
 20
197.327835
 30
0.0
 11
69.461738
 21
197.280292
 31
0.0
  0
LINE
  5
337
100
AcDbEntity
  8
レイヤー_2
 62
     7
100
AcDbLine
 10
73.17624
 20
197.280292
 30
0.0
 11
73.141444
 21
197.327835
 31
0.0
  0
LINE
  5
336
100
AcDbEntity
  8
レイヤー_2
 62
     7
100
AcDbLine
 10
73.141444
 20
197.327835
 30
0.0
 11
73.141444
 21
197.449102
 31
0.0
  0
LINE
  5
335
100
AcDbEntity
  8
レイヤー_2
 62
     7
100
AcDbLine
 10
73.210346
 20
197.327835
 30
0.0
 11
73.210346
 21
197.449102
 31
0.0
  0
LINE
  5
334
100
AcDbEntity
  8
レイヤー_2
 62
     7
100
AcDbLine
 10
73.210346
 20
197.327835
 30
0.0
 11
73.17624
 21
197.280292
 31
0.0
  0
LINE
  5
333
100
AcDbEntity
  8
レイヤー_2
 62
     7
100
AcDbLine
 10
71.783043
 20
197.280292
 30
0.0
 11
71.748592
 21
197.327835
 31
0.0
  0
LINE
  5
332
100
AcDbEntity
  8
レイヤー_2
 62
     7
100
AcDbLine
 10
71.748592
 20
197.327835
 30
0.0
 11
71.748592
 21
197.449102
 31
0.0
  0
LINE
  5
331
100
AcDbEntity
  8
レイヤー_2
 62
     7
100
AcDbLine
 10
71.816805
 20
197.327835
 30
0.0
 11
71.816805
 21
197.449102
 31
0.0
  0
LINE
  5
330
100
AcDbEntity
  8
レイヤー_2
 62
     7
100
AcDbLine
 10
71.816805
 20
197.327835
 30
0.0
 11
71.783043
 21
197.280292
 31
0.0
  0
LINE
  5
32F
100
AcDbEntity
  8
レイヤー_2
 62
     7
100
AcDbLine
 10
72.711841
 20
197.280292
 30
0.0
 11
72.677045
 21
197.327835
 31
0.0
  0
LINE
  5
32E
100
AcDbEntity
  8
レイヤー_2
 62
     7
100
AcDbLine
 10
72.677045
 20
197.327835
 30
0.0
 11
72.677045
 21
197.449102
 31
0.0
  0
LINE
  5
32D
100
AcDbEntity
  8
レイヤー_2
 62
     7
100
AcDbLine
 10
72.745603
 20
197.327835
 30
0.0
 11
72.745603
 21
197.449102
 31
0.0
  0
LINE
  5
32C
100
AcDbEntity
  8
レイヤー_2
 62
     7
100
AcDbLine
 10
72.745603
 20
197.327835
 30
0.0
 11
72.711841
 21
197.280292
 31
0.0
  0
LINE
  5
32B
100
AcDbEntity
  8
レイヤー_2
 62
     7
100
AcDbLine
 10
67.604142
 20
197.280292
 30
0.0
 11
67.570036
 21
197.327835
 31
0.0
  0
LINE
  5
32A
100
AcDbEntity
  8
レイヤー_2
 62
     7
100
AcDbLine
 10
67.570036
 20
197.327835
 30
0.0
 11
67.570036
 21
197.449102
 31
0.0
  0
LINE
  5
329
100
AcDbEntity
  8
レイヤー_2
 62
     7
100
AcDbLine
 10
67.638938
 20
197.327835
 30
0.0
 11
67.638938
 21
197.449102
 31
0.0
  0
LINE
  5
328
100
AcDbEntity
  8
レイヤー_2
 62
     7
100
AcDbLine
 10
67.638938
 20
197.327835
 30
0.0
 11
67.604142
 21
197.280292
 31
0.0
  0
LINE
  5
327
100
AcDbEntity
  8
レイヤー_2
 62
     7
100
AcDbLine
 10
68.068541
 20
197.280292
 30
0.0
 11
68.034435
 21
197.327835
 31
0.0
  0
LINE
  5
326
100
AcDbEntity
  8
レイヤー_2
 62
     7
100
AcDbLine
 10
68.034435
 20
197.327835
 30
0.0
 11
68.034435
 21
197.449102
 31
0.0
  0
LINE
  5
325
100
AcDbEntity
  8
レイヤー_2
 62
     7
100
AcDbLine
 10
68.103337
 20
197.327835
 30
0.0
 11
68.103337
 21
197.449102
 31
0.0
  0
LINE
  5
324
100
AcDbEntity
  8
レイヤー_2
 62
     7
100
AcDbLine
 10
68.103337
 20
197.327835
 30
0.0
 11
68.068541
 21
197.280292
 31
0.0
  0
LINE
  5
323
100
AcDbEntity
  8
レイヤー_2
 62
     7
100
AcDbLine
 10
68.53294
 20
197.280292
 30
0.0
 11
68.498834
 21
197.327835
 31
0.0
  0
LINE
  5
322
100
AcDbEntity
  8
レイヤー_2
 62
     7
100
AcDbLine
 10
68.498834
 20
197.327835
 30
0.0
 11
68.498834
 21
197.449102
 31
0.0
  0
LINE
  5
321
100
AcDbEntity
  8
レイヤー_2
 62
     7
100
AcDbLine
 10
68.567391
 20
197.327835
 30
0.0
 11
68.567391
 21
197.449102
 31
0.0
  0
LINE
  5
320
100
AcDbEntity
  8
レイヤー_2
 62
     7
100
AcDbLine
 10
68.567391
 20
197.327835
 30
0.0
 11
68.53294
 21
197.280292
 31
0.0
  0
LINE
  5
31F
100
AcDbEntity
  8
レイヤー_2
 62
     7
100
AcDbLine
 10
70.390191
 20
197.280292
 30
0.0
 11
70.356429
 21
197.327835
 31
0.0
  0
LINE
  5
31E
100
AcDbEntity
  8
レイヤー_2
 62
     7
100
AcDbLine
 10
70.356429
 20
197.327835
 30
0.0
 11
70.356429
 21
197.449102
 31
0.0
  0
LINE
  5
31D
100
AcDbEntity
  8
レイヤー_2
 62
     7
100
AcDbLine
 10
70.423953
 20
197.327835
 30
0.0
 11
70.423953
 21
197.449102
 31
0.0
  0
LINE
  5
31C
100
AcDbEntity
  8
レイヤー_2
 62
     7
100
AcDbLine
 10
70.423953
 20
197.327835
 30
0.0
 11
70.390191
 21
197.280292
 31
0.0
  0
LINE
  5
31B
100
AcDbEntity
  8
レイヤー_2
 62
     7
100
AcDbLine
 10
73.63995
 20
197.280292
 30
0.0
 11
73.605843
 21
197.327835
 31
0.0
  0
LINE
  5
31A
100
AcDbEntity
  8
レイヤー_2
 62
     7
100
AcDbLine
 10
73.605843
 20
197.327835
 30
0.0
 11
73.605843
 21
197.449102
 31
0.0
  0
LINE
  5
319
100
AcDbEntity
  8
レイヤー_2
 62
     7
100
AcDbLine
 10
73.6744
 20
197.327835
 30
0.0
 11
73.6744
 21
197.448758
 31
0.0
  0
LINE
  5
318
100
AcDbEntity
  8
レイヤー_2
 62
     7
100
AcDbLine
 10
73.6744
 20
197.327835
 30
0.0
 11
73.63995
 21
197.280292
 31
0.0
  0
LINE
  5
317
100
AcDbEntity
  8
レイヤー_2
 62
     7
100
AcDbLine
 10
72.247442
 20
197.280292
 30
0.0
 11
72.212991
 21
197.327835
 31
0.0
  0
LINE
  5
316
100
AcDbEntity
  8
レイヤー_2
 62
     7
100
AcDbLine
 10
72.212991
 20
197.327835
 30
0.0
 11
72.212991
 21
197.449102
 31
0.0
  0
LINE
  5
315
100
AcDbEntity
  8
レイヤー_2
 62
     7
100
AcDbLine
 10
72.281548
 20
197.327835
 30
0.0
 11
72.281548
 21
197.449102
 31
0.0
  0
LINE
  5
314
100
AcDbEntity
  8
レイヤー_2
 62
     7
100
AcDbLine
 10
72.281548
 20
197.327835
 30
0.0
 11
72.247442
 21
197.280292
 31
0.0
  0
LINE
  5
313
100
AcDbEntity
  8
レイヤー_2
 62
     7
100
AcDbLine
 10
70.85459
 20
197.280292
 30
0.0
 11
70.820828
 21
197.327835
 31
0.0
  0
LINE
  5
312
100
AcDbEntity
  8
レイヤー_2
 62
     7
100
AcDbLine
 10
70.820828
 20
197.327835
 30
0.0
 11
70.820828
 21
197.449102
 31
0.0
  0
LINE
  5
311
100
AcDbEntity
  8
レイヤー_2
 62
     7
100
AcDbLine
 10
70.888352
 20
197.327835
 30
0.0
 11
70.888352
 21
197.449102
 31
0.0
  0
LINE
  5
310
100
AcDbEntity
  8
レイヤー_2
 62
     7
100
AcDbLine
 10
70.888352
 20
197.327835
 30
0.0
 11
70.85459
 21
197.280292
 31
0.0
  0
LINE
  5
30F
100
AcDbEntity
  8
レイヤー_2
 62
     7
100
AcDbLine
 10
71.318644
 20
197.280292
 30
0.0
 11
71.284538
 21
197.327835
 31
0.0
  0
LINE
  5
30E
100
AcDbEntity
  8
レイヤー_2
 62
     7
100
AcDbLine
 10
71.284538
 20
197.327835
 30
0.0
 11
71.284538
 21
197.449102
 31
0.0
  0
LINE
  5
30D
100
AcDbEntity
  8
レイヤー_2
 62
     7
100
AcDbLine
 10
71.352751
 20
197.327835
 30
0.0
 11
71.352751
 21
197.449102
 31
0.0
  0
LINE
  5
30C
100
AcDbEntity
  8
レイヤー_2
 62
     7
100
AcDbLine
 10
71.352751
 20
197.327835
 30
0.0
 11
71.318644
 21
197.280292
 31
0.0
  0
LINE
  5
30B
100
AcDbEntity
  8
レイヤー_2
 62
     7
100
AcDbLine
 10
69.925792
 20
197.280292
 30
0.0
 11
69.892375
 21
197.327835
 31
0.0
  0
LINE
  5
30A
100
AcDbEntity
  8
レイヤー_2
 62
     7
100
AcDbLine
 10
69.892375
 20
197.327835
 30
0.0
 11
69.892375
 21
197.449102
 31
0.0
  0
LINE
  5
309
100
AcDbEntity
  8
レイヤー_2
 62
     7
100
AcDbLine
 10
69.959554
 20
197.327835
 30
0.0
 11
69.959554
 21
197.449102
 31
0.0
  0
LINE
  5
308
100
AcDbEntity
  8
レイヤー_2
 62
     7
100
AcDbLine
 10
69.959554
 20
197.327835
 30
0.0
 11
69.925792
 21
197.280292
 31
0.0
  0
LINE
  5
307
100
AcDbEntity
  8
レイヤー_2
 62
     7
100
AcDbLine
 10
72.282926
 20
197.449102
 30
0.0
 11
72.281548
 21
197.327835
 31
0.0
  0
LINE
  5
306
100
AcDbEntity
  8
レイヤー_2
 62
     7
100
AcDbLine
 10
73.605843
 20
197.327835
 30
0.0
 11
73.604465
 21
197.449102
 31
0.0
  0
LINE
  5
305
100
AcDbEntity
  8
レイヤー_2
 62
     7
100
AcDbLine
 10
69.497911
 20
197.449102
 30
0.0
 11
69.4955
 21
197.327835
 31
0.0
  0
LINE
  5
304
100
AcDbEntity
  8
レイヤー_2
 62
     7
100
AcDbLine
 10
69.032823
 20
197.449102
 30
0.0
 11
69.03179
 21
197.327835
 31
0.0
  0
LINE
  5
303
100
AcDbEntity
  8
レイヤー_2
 62
     7
100
AcDbLine
 10
71.354129
 20
197.449102
 30
0.0
 11
71.352751
 21
197.327835
 31
0.0
  0
LINE
  5
302
100
AcDbEntity
  8
レイヤー_2
 62
     7
100
AcDbLine
 10
69.961621
 20
197.449102
 30
0.0
 11
69.959554
 21
197.327835
 31
0.0
  0
LINE
  5
301
100
AcDbEntity
  8
レイヤー_2
 62
     7
100
AcDbLine
 10
71.818528
 20
197.449102
 30
0.0
 11
71.816805
 21
197.327835
 31
0.0
  0
LINE
  5
300
100
AcDbEntity
  8
レイヤー_2
 62
     7
100
AcDbLine
 10
70.890074
 20
197.449102
 30
0.0
 11
70.888352
 21
197.327835
 31
0.0
  0
LINE
  5
2FF
100
AcDbEntity
  8
レイヤー_2
 62
     7
100
AcDbLine
 10
67.639627
 20
197.449102
 30
0.0
 11
67.638938
 21
197.327835
 31
0.0
  0
LINE
  5
2FE
100
AcDbEntity
  8
レイヤー_2
 62
     7
100
AcDbLine
 10
73.211724
 20
197.449102
 30
0.0
 11
73.210346
 21
197.327835
 31
0.0
  0
LINE
  5
2FD
100
AcDbEntity
  8
レイヤー_2
 62
     7
100
AcDbLine
 10
72.747325
 20
197.449102
 30
0.0
 11
72.745603
 21
197.327835
 31
0.0
  0
LINE
  5
2FC
100
AcDbEntity
  8
レイヤー_2
 62
     7
100
AcDbLine
 10
70.425675
 20
197.449102
 30
0.0
 11
70.423953
 21
197.327835
 31
0.0
  0
LINE
  5
2FB
100
AcDbEntity
  8
レイヤー_2
 62
     7
100
AcDbLine
 10
68.104026
 20
197.449102
 30
0.0
 11
68.103337
 21
197.327835
 31
0.0
  0
LINE
  5
2FA
100
AcDbEntity
  8
レイヤー_2
 62
     7
100
AcDbLine
 10
68.569113
 20
197.449102
 30
0.0
 11
68.567391
 21
197.327835
 31
0.0
  0
LINE
  5
2F9
100
AcDbEntity
  8
レイヤー_2
 62
     7
100
AcDbLine
 10
68.963577
 20
197.327835
 30
0.0
 11
68.961854
 21
197.449102
 31
0.0
  0
LINE
  5
2F8
100
AcDbEntity
  8
レイヤー_2
 62
     7
100
AcDbLine
 10
71.748592
 20
197.327835
 30
0.0
 11
71.74687
 21
197.449102
 31
0.0
  0
LINE
  5
2F7
100
AcDbEntity
  8
レイヤー_2
 62
     7
100
AcDbLine
 10
67.175917
 20
197.449102
 30
0.0
 11
67.173505
 21
197.327835
 31
0.0
  0
LINE
  5
2F6
100
AcDbEntity
  8
レイヤー_2
 62
     7
100
AcDbLine
 10
69.427976
 20
197.327835
 30
0.0
 11
69.426253
 21
197.449102
 31
0.0
  0
LINE
  5
2F5
100
AcDbEntity
  8
レイヤー_2
 62
     7
100
AcDbLine
 10
69.892375
 20
197.327835
 30
0.0
 11
69.890308
 21
197.449102
 31
0.0
  0
LINE
  5
2F4
100
AcDbEntity
  8
レイヤー_2
 62
     7
100
AcDbLine
 10
72.677045
 20
197.327835
 30
0.0
 11
72.676012
 21
197.449102
 31
0.0
  0
LINE
  5
2F3
100
AcDbEntity
  8
レイヤー_2
 62
     7
100
AcDbLine
 10
67.570036
 20
197.327835
 30
0.0
 11
67.568658
 21
197.449102
 31
0.0
  0
LINE
  5
2F2
100
AcDbEntity
  8
レイヤー_2
 62
     7
100
AcDbLine
 10
70.356429
 20
197.327835
 30
0.0
 11
70.354706
 21
197.449102
 31
0.0
  0
LINE
  5
2F1
100
AcDbEntity
  8
レイヤー_2
 62
     7
100
AcDbLine
 10
72.212991
 20
197.327835
 30
0.0
 11
72.211268
 21
197.449102
 31
0.0
  0
LINE
  5
2F0
100
AcDbEntity
  8
レイヤー_2
 62
     7
100
AcDbLine
 10
68.498834
 20
197.327835
 30
0.0
 11
68.497456
 21
197.449102
 31
0.0
  0
LINE
  5
2EF
100
AcDbEntity
  8
レイヤー_2
 62
     7
100
AcDbLine
 10
71.284538
 20
197.327835
 30
0.0
 11
71.282471
 21
197.449102
 31
0.0
  0
LINE
  5
2EE
100
AcDbEntity
  8
レイヤー_2
 62
     7
100
AcDbLine
 10
70.820828
 20
197.327835
 30
0.0
 11
70.818416
 21
197.449102
 31
0.0
  0
LINE
  5
2ED
100
AcDbEntity
  8
レイヤー_2
 62
     7
100
AcDbLine
 10
73.141444
 20
197.327835
 30
0.0
 11
73.140411
 21
197.449102
 31
0.0
  0
LINE
  5
2EC
100
AcDbEntity
  8
レイヤー_2
 62
     7
100
AcDbLine
 10
68.034435
 20
197.327835
 30
0.0
 11
68.033401
 21
197.449102
 31
0.0
  0
LINE
  5
2EB
100
AcDbEntity
  8
レイヤー_2
 62
     7
100
AcDbLine
 10
73.676123
 20
197.448758
 30
0.0
 11
73.6744
 21
197.327835
 31
0.0
  0
LINE
  5
2EA
100
AcDbEntity
  8
レイヤー_2
 62
     7
100
AcDbLine
 10
67.105981
 20
197.327835
 30
0.0
 11
67.104259
 21
197.448758
 31
0.0
  0
LINE
  5
2E9
100
AcDbEntity
  8
レイヤー_2
 62
     7
100
AcDbLine
 10
73.63995
 20
197.280292
 30
0.0
 11
73.665788
 21
197.267201
 31
0.0
  0
LINE
  5
2E8
100
AcDbEntity
  8
レイヤー_2
 62
     7
100
AcDbLine
 10
67.11425
 20
197.267201
 30
0.0
 11
67.140088
 21
197.280292
 31
0.0
  0
LINE
  5
2E7
100
AcDbEntity
  8
レイヤー_2
 62
     7
100
AcDbLine
 10
70.390191
 20
197.280292
 30
0.0
 11
70.416029
 21
197.267201
 31
0.0
  0
LINE
  5
2E6
100
AcDbEntity
  8
レイヤー_2
 62
     7
100
AcDbLine
 10
70.820828
 20
197.327835
 30
0.0
 11
70.423953
 21
197.327835
 31
0.0
  0
LINE
  5
2E5
100
AcDbEntity
  8
レイヤー_2
 62
     7
100
AcDbLine
 10
70.828752
 20
197.267201
 30
0.0
 11
70.85459
 21
197.280292
 31
0.0
  0
LINE
  5
2E4
100
AcDbEntity
  8
レイヤー_2
 62
     7
100
AcDbLine
 10
70.85459
 20
197.280292
 30
0.0
 11
70.880773
 21
197.267201
 31
0.0
  0
LINE
  5
2E3
100
AcDbEntity
  8
レイヤー_2
 62
     7
100
AcDbLine
 10
71.284538
 20
197.327835
 30
0.0
 11
70.888352
 21
197.327835
 31
0.0
  0
LINE
  5
2E2
100
AcDbEntity
  8
レイヤー_2
 62
     7
100
AcDbLine
 10
71.29315
 20
197.267201
 30
0.0
 11
71.318644
 21
197.280292
 31
0.0
  0
LINE
  5
2E1
100
AcDbEntity
  8
レイヤー_2
 62
     7
100
AcDbLine
 10
69.925792
 20
197.280292
 30
0.0
 11
69.95163
 21
197.267201
 31
0.0
  0
LINE
  5
2E0
100
AcDbEntity
  8
レイヤー_2
 62
     7
100
AcDbLine
 10
70.356429
 20
197.327835
 30
0.0
 11
69.959554
 21
197.327835
 31
0.0
  0
LINE
  5
2DF
100
AcDbEntity
  8
レイヤー_2
 62
     7
100
AcDbLine
 10
70.364008
 20
197.267201
 30
0.0
 11
70.390191
 21
197.280292
 31
0.0
  0
LINE
  5
2DE
100
AcDbEntity
  8
レイヤー_2
 62
     7
100
AcDbLine
 10
71.318644
 20
197.280292
 30
0.0
 11
71.345171
 21
197.267201
 31
0.0
  0
LINE
  5
2DD
100
AcDbEntity
  8
レイヤー_2
 62
     7
100
AcDbLine
 10
71.748592
 20
197.327835
 30
0.0
 11
71.352751
 21
197.327835
 31
0.0
  0
LINE
  5
2DC
100
AcDbEntity
  8
レイヤー_2
 62
     7
100
AcDbLine
 10
71.757205
 20
197.267201
 30
0.0
 11
71.783043
 21
197.280292
 31
0.0
  0
LINE
  5
2DB
100
AcDbEntity
  8
レイヤー_2
 62
     7
100
AcDbLine
 10
69.461738
 20
197.280292
 30
0.0
 11
69.487576
 21
197.267201
 31
0.0
  0
LINE
  5
2DA
100
AcDbEntity
  8
レイヤー_2
 62
     7
100
AcDbLine
 10
69.892375
 20
197.327835
 30
0.0
 11
69.4955
 21
197.327835
 31
0.0
  0
LINE
  5
2D9
100
AcDbEntity
  8
レイヤー_2
 62
     7
100
AcDbLine
 10
69.899609
 20
197.267201
 30
0.0
 11
69.925792
 21
197.280292
 31
0.0
  0
LINE
  5
2D8
100
AcDbEntity
  8
レイヤー_2
 62
     7
100
AcDbLine
 10
68.53294
 20
197.280292
 30
0.0
 11
68.558778
 21
197.267201
 31
0.0
  0
LINE
  5
2D7
100
AcDbEntity
  8
レイヤー_2
 62
     7
100
AcDbLine
 10
68.963577
 20
197.327835
 30
0.0
 11
68.567391
 21
197.327835
 31
0.0
  0
LINE
  5
2D6
100
AcDbEntity
  8
レイヤー_2
 62
     7
100
AcDbLine
 10
68.971156
 20
197.267201
 30
0.0
 11
68.997339
 21
197.280292
 31
0.0
  0
LINE
  5
2D5
100
AcDbEntity
  8
レイヤー_2
 62
     7
100
AcDbLine
 10
68.068541
 20
197.280292
 30
0.0
 11
68.094724
 21
197.267201
 31
0.0
  0
LINE
  5
2D4
100
AcDbEntity
  8
レイヤー_2
 62
     7
100
AcDbLine
 10
68.498834
 20
197.327835
 30
0.0
 11
68.103337
 21
197.327835
 31
0.0
  0
LINE
  5
2D3
100
AcDbEntity
  8
レイヤー_2
 62
     7
100
AcDbLine
 10
68.506757
 20
197.267201
 30
0.0
 11
68.53294
 21
197.280292
 31
0.0
  0
LINE
  5
2D2
100
AcDbEntity
  8
レイヤー_2
 62
     7
100
AcDbLine
 10
68.997339
 20
197.280292
 30
0.0
 11
69.023177
 21
197.267201
 31
0.0
  0
LINE
  5
2D1
100
AcDbEntity
  8
レイヤー_2
 62
     7
100
AcDbLine
 10
69.427976
 20
197.327835
 30
0.0
 11
69.03179
 21
197.327835
 31
0.0
  0
LINE
  5
2D0
100
AcDbEntity
  8
レイヤー_2
 62
     7
100
AcDbLine
 10
69.435211
 20
197.267201
 30
0.0
 11
69.461738
 21
197.280292
 31
0.0
  0
LINE
  5
2CF
100
AcDbEntity
  8
レイヤー_2
 62
     7
100
AcDbLine
 10
67.604142
 20
197.280292
 30
0.0
 11
67.631014
 21
197.267201
 31
0.0
  0
LINE
  5
2CE
100
AcDbEntity
  8
レイヤー_2
 62
     7
100
AcDbLine
 10
68.034435
 20
197.327835
 30
0.0
 11
67.638938
 21
197.327835
 31
0.0
  0
LINE
  5
2CD
100
AcDbEntity
  8
レイヤー_2
 62
     7
100
AcDbLine
 10
68.042358
 20
197.267201
 30
0.0
 11
68.068541
 21
197.280292
 31
0.0
  0
LINE
  5
2CC
100
AcDbEntity
  8
レイヤー_2
 62
     7
100
AcDbLine
 10
72.247442
 20
197.280292
 30
0.0
 11
72.273625
 21
197.267201
 31
0.0
  0
LINE
  5
2CB
100
AcDbEntity
  8
レイヤー_2
 62
     7
100
AcDbLine
 10
72.677045
 20
197.327835
 30
0.0
 11
72.281548
 21
197.327835
 31
0.0
  0
LINE
  5
2CA
100
AcDbEntity
  8
レイヤー_2
 62
     7
100
AcDbLine
 10
72.685314
 20
197.267201
 30
0.0
 11
72.711841
 21
197.280292
 31
0.0
  0
LINE
  5
2C9
100
AcDbEntity
  8
レイヤー_2
 62
     7
100
AcDbLine
 10
72.711841
 20
197.280292
 30
0.0
 11
72.738024
 21
197.267201
 31
0.0
  0
LINE
  5
2C8
100
AcDbEntity
  8
レイヤー_2
 62
     7
100
AcDbLine
 10
73.141444
 20
197.327835
 30
0.0
 11
72.745603
 21
197.327835
 31
0.0
  0
LINE
  5
2C7
100
AcDbEntity
  8
レイヤー_2
 62
     7
100
AcDbLine
 10
73.149368
 20
197.267201
 30
0.0
 11
73.17624
 21
197.280292
 31
0.0
  0
LINE
  5
2C6
100
AcDbEntity
  8
レイヤー_2
 62
     7
100
AcDbLine
 10
67.578304
 20
197.267201
 30
0.0
 11
67.604142
 21
197.280292
 31
0.0
  0
LINE
  5
2C5
100
AcDbEntity
  8
レイヤー_2
 62
     7
100
AcDbLine
 10
67.140088
 20
197.280292
 30
0.0
 11
67.166615
 21
197.267201
 31
0.0
  0
LINE
  5
2C4
100
AcDbEntity
  8
レイヤー_2
 62
     7
100
AcDbLine
 10
67.570036
 20
197.327835
 30
0.0
 11
67.173505
 21
197.327835
 31
0.0
  0
LINE
  5
2C3
100
AcDbEntity
  8
レイヤー_2
 62
     7
100
AcDbLine
 10
71.783043
 20
197.280292
 30
0.0
 11
71.809226
 21
197.267201
 31
0.0
  0
LINE
  5
2C2
100
AcDbEntity
  8
レイヤー_2
 62
     7
100
AcDbLine
 10
72.212991
 20
197.327835
 30
0.0
 11
71.816805
 21
197.327835
 31
0.0
  0
LINE
  5
2C1
100
AcDbEntity
  8
レイヤー_2
 62
     7
100
AcDbLine
 10
72.220915
 20
197.267201
 30
0.0
 11
72.247442
 21
197.280292
 31
0.0
  0
LINE
  5
2C0
100
AcDbEntity
  8
レイヤー_2
 62
     7
100
AcDbLine
 10
73.17624
 20
197.280292
 30
0.0
 11
73.202078
 21
197.267201
 31
0.0
  0
LINE
  5
2BF
100
AcDbEntity
  8
レイヤー_2
 62
     7
100
AcDbLine
 10
73.605843
 20
197.327835
 30
0.0
 11
73.210346
 21
197.327835
 31
0.0
  0
LINE
  5
2BE
100
AcDbEntity
  8
レイヤー_2
 62
     7
100
AcDbLine
 10
73.613767
 20
197.267201
 30
0.0
 11
73.63995
 21
197.280292
 31
0.0
  0
LINE
  5
2BD
100
AcDbEntity
  8
レイヤー_2
 62
     7
100
AcDbLine
 10
69.03179
 20
197.054639
 30
0.0
 11
69.03179
 21
197.267201
 31
0.0
  0
LINE
  5
2BC
100
AcDbEntity
  8
レイヤー_2
 62
     7
100
AcDbLine
 10
69.03179
 20
197.054639
 30
0.0
 11
68.997339
 21
197.007096
 31
0.0
  0
LINE
  5
2BB
100
AcDbEntity
  8
レイヤー_2
 62
     7
100
AcDbLine
 10
68.997339
 20
197.007096
 30
0.0
 11
68.963577
 21
197.054639
 31
0.0
  0
LINE
  5
2BA
100
AcDbEntity
  8
レイヤー_2
 62
     7
100
AcDbLine
 10
68.963577
 20
197.054639
 30
0.0
 11
68.963577
 21
197.267201
 31
0.0
  0
LINE
  5
2B9
100
AcDbEntity
  8
レイヤー_2
 62
     7
100
AcDbLine
 10
72.281548
 20
197.054639
 30
0.0
 11
72.281548
 21
197.267201
 31
0.0
  0
LINE
  5
2B8
100
AcDbEntity
  8
レイヤー_2
 62
     7
100
AcDbLine
 10
72.281548
 20
197.054639
 30
0.0
 11
72.247442
 21
197.007096
 31
0.0
  0
LINE
  5
2B7
100
AcDbEntity
  8
レイヤー_2
 62
     7
100
AcDbLine
 10
72.247442
 20
197.007096
 30
0.0
 11
72.212991
 21
197.054639
 31
0.0
  0
LINE
  5
2B6
100
AcDbEntity
  8
レイヤー_2
 62
     7
100
AcDbLine
 10
72.212991
 20
197.054639
 30
0.0
 11
72.212991
 21
197.267201
 31
0.0
  0
LINE
  5
2B5
100
AcDbEntity
  8
レイヤー_2
 62
     7
100
AcDbLine
 10
71.352751
 20
197.054639
 30
0.0
 11
71.352751
 21
197.267201
 31
0.0
  0
LINE
  5
2B4
100
AcDbEntity
  8
レイヤー_2
 62
     7
100
AcDbLine
 10
71.352751
 20
197.054639
 30
0.0
 11
71.318644
 21
197.007096
 31
0.0
  0
LINE
  5
2B3
100
AcDbEntity
  8
レイヤー_2
 62
     7
100
AcDbLine
 10
71.318644
 20
197.007096
 30
0.0
 11
71.284538
 21
197.054639
 31
0.0
  0
LINE
  5
2B2
100
AcDbEntity
  8
レイヤー_2
 62
     7
100
AcDbLine
 10
71.284538
 20
197.054639
 30
0.0
 11
71.284538
 21
197.267201
 31
0.0
  0
LINE
  5
2B1
100
AcDbEntity
  8
レイヤー_2
 62
     7
100
AcDbLine
 10
73.210346
 20
197.054639
 30
0.0
 11
73.210346
 21
197.267201
 31
0.0
  0
LINE
  5
2B0
100
AcDbEntity
  8
レイヤー_2
 62
     7
100
AcDbLine
 10
73.210346
 20
197.054639
 30
0.0
 11
73.17624
 21
197.007096
 31
0.0
  0
LINE
  5
2AF
100
AcDbEntity
  8
レイヤー_2
 62
     7
100
AcDbLine
 10
73.17624
 20
197.007096
 30
0.0
 11
73.141444
 21
197.054639
 31
0.0
  0
LINE
  5
2AE
100
AcDbEntity
  8
レイヤー_2
 62
     7
100
AcDbLine
 10
73.141444
 20
197.054639
 30
0.0
 11
73.141444
 21
197.267201
 31
0.0
  0
LINE
  5
2AD
100
AcDbEntity
  8
レイヤー_2
 62
     7
100
AcDbLine
 10
67.638938
 20
197.054639
 30
0.0
 11
67.638938
 21
197.267201
 31
0.0
  0
LINE
  5
2AC
100
AcDbEntity
  8
レイヤー_2
 62
     7
100
AcDbLine
 10
67.638938
 20
197.054639
 30
0.0
 11
67.604142
 21
197.007096
 31
0.0
  0
LINE
  5
2AB
100
AcDbEntity
  8
レイヤー_2
 62
     7
100
AcDbLine
 10
67.604142
 20
197.007096
 30
0.0
 11
67.570036
 21
197.054639
 31
0.0
  0
LINE
  5
2AA
100
AcDbEntity
  8
レイヤー_2
 62
     7
100
AcDbLine
 10
67.570036
 20
197.054639
 30
0.0
 11
67.570036
 21
197.267201
 31
0.0
  0
LINE
  5
2A9
100
AcDbEntity
  8
レイヤー_2
 62
     7
100
AcDbLine
 10
71.816805
 20
197.054639
 30
0.0
 11
71.816805
 21
197.267201
 31
0.0
  0
LINE
  5
2A8
100
AcDbEntity
  8
レイヤー_2
 62
     7
100
AcDbLine
 10
71.816805
 20
197.054639
 30
0.0
 11
71.783043
 21
197.007096
 31
0.0
  0
LINE
  5
2A7
100
AcDbEntity
  8
レイヤー_2
 62
     7
100
AcDbLine
 10
71.783043
 20
197.007096
 30
0.0
 11
71.748592
 21
197.054639
 31
0.0
  0
LINE
  5
2A6
100
AcDbEntity
  8
レイヤー_2
 62
     7
100
AcDbLine
 10
71.748592
 20
197.054639
 30
0.0
 11
71.748592
 21
197.267201
 31
0.0
  0
LINE
  5
2A5
100
AcDbEntity
  8
レイヤー_2
 62
     7
100
AcDbLine
 10
68.567391
 20
197.054639
 30
0.0
 11
68.567391
 21
197.267201
 31
0.0
  0
LINE
  5
2A4
100
AcDbEntity
  8
レイヤー_2
 62
     7
100
AcDbLine
 10
68.567391
 20
197.054639
 30
0.0
 11
68.53294
 21
197.007096
 31
0.0
  0
LINE
  5
2A3
100
AcDbEntity
  8
レイヤー_2
 62
     7
100
AcDbLine
 10
68.53294
 20
197.007096
 30
0.0
 11
68.498834
 21
197.054639
 31
0.0
  0
LINE
  5
2A2
100
AcDbEntity
  8
レイヤー_2
 62
     7
100
AcDbLine
 10
68.498834
 20
197.054639
 30
0.0
 11
68.498834
 21
197.267201
 31
0.0
  0
LINE
  5
2A1
100
AcDbEntity
  8
レイヤー_2
 62
     7
100
AcDbLine
 10
69.4955
 20
197.054639
 30
0.0
 11
69.4955
 21
197.267201
 31
0.0
  0
LINE
  5
2A0
100
AcDbEntity
  8
レイヤー_2
 62
     7
100
AcDbLine
 10
69.4955
 20
197.054639
 30
0.0
 11
69.461738
 21
197.007096
 31
0.0
  0
LINE
  5
29F
100
AcDbEntity
  8
レイヤー_2
 62
     7
100
AcDbLine
 10
69.461738
 20
197.007096
 30
0.0
 11
69.427976
 21
197.054639
 31
0.0
  0
LINE
  5
29E
100
AcDbEntity
  8
レイヤー_2
 62
     7
100
AcDbLine
 10
69.427976
 20
197.054639
 30
0.0
 11
69.427976
 21
197.267201
 31
0.0
  0
LINE
  5
29D
100
AcDbEntity
  8
レイヤー_2
 62
     7
100
AcDbLine
 10
70.423953
 20
197.054639
 30
0.0
 11
70.423953
 21
197.267201
 31
0.0
  0
LINE
  5
29C
100
AcDbEntity
  8
レイヤー_2
 62
     7
100
AcDbLine
 10
70.423953
 20
197.054639
 30
0.0
 11
70.390191
 21
197.007096
 31
0.0
  0
LINE
  5
29B
100
AcDbEntity
  8
レイヤー_2
 62
     7
100
AcDbLine
 10
70.390191
 20
197.007096
 30
0.0
 11
70.356429
 21
197.054639
 31
0.0
  0
LINE
  5
29A
100
AcDbEntity
  8
レイヤー_2
 62
     7
100
AcDbLine
 10
70.356429
 20
197.054639
 30
0.0
 11
70.356429
 21
197.267201
 31
0.0
  0
LINE
  5
299
100
AcDbEntity
  8
レイヤー_2
 62
     7
100
AcDbLine
 10
73.6744
 20
197.054639
 30
0.0
 11
73.6744
 21
197.267201
 31
0.0
  0
LINE
  5
298
100
AcDbEntity
  8
レイヤー_2
 62
     7
100
AcDbLine
 10
73.6744
 20
197.054639
 30
0.0
 11
73.63995
 21
197.007096
 31
0.0
  0
LINE
  5
297
100
AcDbEntity
  8
レイヤー_2
 62
     7
100
AcDbLine
 10
73.63995
 20
197.007096
 30
0.0
 11
73.605843
 21
197.054639
 31
0.0
  0
LINE
  5
296
100
AcDbEntity
  8
レイヤー_2
 62
     7
100
AcDbLine
 10
73.605843
 20
197.054639
 30
0.0
 11
73.605843
 21
197.267201
 31
0.0
  0
LINE
  5
295
100
AcDbEntity
  8
レイヤー_2
 62
     7
100
AcDbLine
 10
70.888352
 20
197.054639
 30
0.0
 11
70.888352
 21
197.267201
 31
0.0
  0
LINE
  5
294
100
AcDbEntity
  8
レイヤー_2
 62
     7
100
AcDbLine
 10
70.888352
 20
197.054639
 30
0.0
 11
70.85459
 21
197.007096
 31
0.0
  0
LINE
  5
293
100
AcDbEntity
  8
レイヤー_2
 62
     7
100
AcDbLine
 10
70.85459
 20
197.007096
 30
0.0
 11
70.820828
 21
197.054639
 31
0.0
  0
LINE
  5
292
100
AcDbEntity
  8
レイヤー_2
 62
     7
100
AcDbLine
 10
70.820828
 20
197.054639
 30
0.0
 11
70.820828
 21
197.267201
 31
0.0
  0
LINE
  5
291
100
AcDbEntity
  8
レイヤー_2
 62
     7
100
AcDbLine
 10
67.173505
 20
197.054639
 30
0.0
 11
67.173505
 21
197.267201
 31
0.0
  0
LINE
  5
290
100
AcDbEntity
  8
レイヤー_2
 62
     7
100
AcDbLine
 10
67.173505
 20
197.054639
 30
0.0
 11
67.140088
 21
197.007096
 31
0.0
  0
LINE
  5
28F
100
AcDbEntity
  8
レイヤー_2
 62
     7
100
AcDbLine
 10
67.140088
 20
197.007096
 30
0.0
 11
67.105981
 21
197.054639
 31
0.0
  0
LINE
  5
28E
100
AcDbEntity
  8
レイヤー_2
 62
     7
100
AcDbLine
 10
67.105981
 20
197.054639
 30
0.0
 11
67.105981
 21
197.267201
 31
0.0
  0
LINE
  5
28D
100
AcDbEntity
  8
レイヤー_2
 62
     7
100
AcDbLine
 10
69.959554
 20
197.054639
 30
0.0
 11
69.959554
 21
197.267201
 31
0.0
  0
LINE
  5
28C
100
AcDbEntity
  8
レイヤー_2
 62
     7
100
AcDbLine
 10
69.959554
 20
197.054639
 30
0.0
 11
69.925792
 21
197.007096
 31
0.0
  0
LINE
  5
28B
100
AcDbEntity
  8
レイヤー_2
 62
     7
100
AcDbLine
 10
69.925792
 20
197.007096
 30
0.0
 11
69.892375
 21
197.054639
 31
0.0
  0
LINE
  5
28A
100
AcDbEntity
  8
レイヤー_2
 62
     7
100
AcDbLine
 10
69.892375
 20
197.054639
 30
0.0
 11
69.892375
 21
197.267201
 31
0.0
  0
LINE
  5
289
100
AcDbEntity
  8
レイヤー_2
 62
     7
100
AcDbLine
 10
72.745603
 20
197.054639
 30
0.0
 11
72.745603
 21
197.267201
 31
0.0
  0
LINE
  5
288
100
AcDbEntity
  8
レイヤー_2
 62
     7
100
AcDbLine
 10
72.745603
 20
197.054639
 30
0.0
 11
72.711841
 21
197.007096
 31
0.0
  0
LINE
  5
287
100
AcDbEntity
  8
レイヤー_2
 62
     7
100
AcDbLine
 10
72.711841
 20
197.007096
 30
0.0
 11
72.677045
 21
197.054639
 31
0.0
  0
LINE
  5
286
100
AcDbEntity
  8
レイヤー_2
 62
     7
100
AcDbLine
 10
72.677045
 20
197.054639
 30
0.0
 11
72.677045
 21
197.267201
 31
0.0
  0
LINE
  5
285
100
AcDbEntity
  8
レイヤー_2
 62
     7
100
AcDbLine
 10
68.103337
 20
197.054639
 30
0.0
 11
68.103337
 21
197.267201
 31
0.0
  0
LINE
  5
284
100
AcDbEntity
  8
レイヤー_2
 62
     7
100
AcDbLine
 10
68.103337
 20
197.054639
 30
0.0
 11
68.068541
 21
197.007096
 31
0.0
  0
LINE
  5
283
100
AcDbEntity
  8
レイヤー_2
 62
     7
100
AcDbLine
 10
68.068541
 20
197.007096
 30
0.0
 11
68.034435
 21
197.054639
 31
0.0
  0
LINE
  5
282
100
AcDbEntity
  8
レイヤー_2
 62
     7
100
AcDbLine
 10
68.034435
 20
197.054639
 30
0.0
 11
68.034435
 21
197.267201
 31
0.0
  0
LINE
  5
281
100
AcDbEntity
  8
レイヤー_2
 62
     7
100
AcDbLine
 10
67.570036
 20
197.054639
 30
0.0
 11
67.567624
 21
197.267201
 31
0.0
  0
LINE
  5
280
100
AcDbEntity
  8
レイヤー_2
 62
     7
100
AcDbLine
 10
72.677045
 20
197.054639
 30
0.0
 11
72.674978
 21
197.267201
 31
0.0
  0
LINE
  5
27F
100
AcDbEntity
  8
レイヤー_2
 62
     7
100
AcDbLine
 10
71.748592
 20
197.054639
 30
0.0
 11
71.746181
 21
197.267201
 31
0.0
  0
LINE
  5
27E
100
AcDbEntity
  8
レイヤー_2
 62
     7
100
AcDbLine
 10
72.212991
 20
197.054639
 30
0.0
 11
72.210579
 21
197.267201
 31
0.0
  0
LINE
  5
27D
100
AcDbEntity
  8
レイヤー_2
 62
     7
100
AcDbLine
 10
71.284538
 20
197.054639
 30
0.0
 11
71.282126
 21
197.267201
 31
0.0
  0
LINE
  5
27C
100
AcDbEntity
  8
レイヤー_2
 62
     7
100
AcDbLine
 10
68.498834
 20
197.054639
 30
0.0
 11
68.496077
 21
197.267201
 31
0.0
  0
LINE
  5
27B
100
AcDbEntity
  8
レイヤー_2
 62
     7
100
AcDbLine
 10
68.034435
 20
197.054639
 30
0.0
 11
68.031679
 21
197.267201
 31
0.0
  0
LINE
  5
27A
100
AcDbEntity
  8
レイヤー_2
 62
     7
100
AcDbLine
 10
70.820828
 20
197.054639
 30
0.0
 11
70.817727
 21
197.267201
 31
0.0
  0
LINE
  5
279
100
AcDbEntity
  8
レイヤー_2
 62
     7
100
AcDbLine
 10
73.605843
 20
197.054639
 30
0.0
 11
73.602743
 21
197.267201
 31
0.0
  0
LINE
  5
278
100
AcDbEntity
  8
レイヤー_2
 62
     7
100
AcDbLine
 10
69.427976
 20
197.054639
 30
0.0
 11
69.424531
 21
197.267201
 31
0.0
  0
LINE
  5
277
100
AcDbEntity
  8
レイヤー_2
 62
     7
100
AcDbLine
 10
68.963577
 20
197.054639
 30
0.0
 11
68.960132
 21
197.267201
 31
0.0
  0
LINE
  5
276
100
AcDbEntity
  8
レイヤー_2
 62
     7
100
AcDbLine
 10
73.141444
 20
197.054639
 30
0.0
 11
73.138688
 21
197.267201
 31
0.0
  0
LINE
  5
275
100
AcDbEntity
  8
レイヤー_2
 62
     7
100
AcDbLine
 10
70.356429
 20
197.054639
 30
0.0
 11
70.353328
 21
197.267201
 31
0.0
  0
LINE
  5
274
100
AcDbEntity
  8
レイヤー_2
 62
     7
100
AcDbLine
 10
69.892375
 20
197.054639
 30
0.0
 11
69.88893
 21
197.267201
 31
0.0
  0
LINE
  5
273
100
AcDbEntity
  8
レイヤー_2
 62
     7
100
AcDbLine
 10
67.105981
 20
197.054639
 30
0.0
 11
67.103225
 21
197.267201
 31
0.0
  0
LINE
  5
272
100
AcDbEntity
  8
レイヤー_2
 62
     7
100
AcDbLine
 10
72.28396
 20
197.267201
 30
0.0
 11
72.281548
 21
197.054639
 31
0.0
  0
LINE
  5
271
100
AcDbEntity
  8
レイヤー_2
 62
     7
100
AcDbLine
 10
69.034201
 20
197.267201
 30
0.0
 11
69.03179
 21
197.054639
 31
0.0
  0
LINE
  5
270
100
AcDbEntity
  8
レイヤー_2
 62
     7
100
AcDbLine
 10
72.748359
 20
197.267201
 30
0.0
 11
72.745603
 21
197.054639
 31
0.0
  0
LINE
  5
26F
100
AcDbEntity
  8
レイヤー_2
 62
     7
100
AcDbLine
 10
68.569803
 20
197.267201
 30
0.0
 11
68.567391
 21
197.054639
 31
0.0
  0
LINE
  5
26E
100
AcDbEntity
  8
レイヤー_2
 62
     7
100
AcDbLine
 10
71.819561
 20
197.267201
 30
0.0
 11
71.816805
 21
197.054639
 31
0.0
  0
LINE
  5
26D
100
AcDbEntity
  8
レイヤー_2
 62
     7
100
AcDbLine
 10
70.427398
 20
197.267201
 30
0.0
 11
70.423953
 21
197.054639
 31
0.0
  0
LINE
  5
26C
100
AcDbEntity
  8
レイヤー_2
 62
     7
100
AcDbLine
 10
68.105748
 20
197.267201
 30
0.0
 11
68.103337
 21
197.054639
 31
0.0
  0
LINE
  5
26B
100
AcDbEntity
  8
レイヤー_2
 62
     7
100
AcDbLine
 10
73.212758
 20
197.267201
 30
0.0
 11
73.210346
 21
197.054639
 31
0.0
  0
LINE
  5
26A
100
AcDbEntity
  8
レイヤー_2
 62
     7
100
AcDbLine
 10
71.355851
 20
197.267201
 30
0.0
 11
71.352751
 21
197.054639
 31
0.0
  0
LINE
  5
269
100
AcDbEntity
  8
レイヤー_2
 62
     7
100
AcDbLine
 10
69.498256
 20
197.267201
 30
0.0
 11
69.4955
 21
197.054639
 31
0.0
  0
LINE
  5
268
100
AcDbEntity
  8
レイヤー_2
 62
     7
100
AcDbLine
 10
67.641349
 20
197.267201
 30
0.0
 11
67.638938
 21
197.054639
 31
0.0
  0
LINE
  5
267
100
AcDbEntity
  8
レイヤー_2
 62
     7
100
AcDbLine
 10
73.676812
 20
197.267201
 30
0.0
 11
73.6744
 21
197.054639
 31
0.0
  0
LINE
  5
266
100
AcDbEntity
  8
レイヤー_2
 62
     7
100
AcDbLine
 10
70.891452
 20
197.267201
 30
0.0
 11
70.888352
 21
197.054639
 31
0.0
  0
LINE
  5
265
100
AcDbEntity
  8
レイヤー_2
 62
     7
100
AcDbLine
 10
69.962655
 20
197.267201
 30
0.0
 11
69.959554
 21
197.054639
 31
0.0
  0
LINE
  5
264
100
AcDbEntity
  8
レイヤー_2
 62
     7
100
AcDbLine
 10
67.177295
 20
197.267201
 30
0.0
 11
67.173505
 21
197.054639
 31
0.0
  0
LINE
  5
263
100
AcDbEntity
  8
レイヤー_2
 62
     7
100
AcDbLine
 10
72.247442
 20
197.007096
 30
0.0
 11
72.273625
 21
196.995039
 31
0.0
  0
LINE
  5
262
100
AcDbEntity
  8
レイヤー_2
 62
     7
100
AcDbLine
 10
72.677045
 20
197.054639
 30
0.0
 11
72.281548
 21
197.054639
 31
0.0
  0
LINE
  5
261
100
AcDbEntity
  8
レイヤー_2
 62
     7
100
AcDbLine
 10
72.685314
 20
196.995039
 30
0.0
 11
72.711841
 21
197.007096
 31
0.0
  0
LINE
  5
260
100
AcDbEntity
  8
レイヤー_2
 62
     7
100
AcDbLine
 10
67.105981
 20
197.054639
 30
0.0
 11
66.577159
 21
197.054639
 31
0.0
  0
LINE
  5
25F
100
AcDbEntity
  8
レイヤー_2
 62
     7
100
AcDbLine
 10
67.11425
 20
196.995039
 30
0.0
 11
67.140088
 21
197.007096
 31
0.0
  0
LINE
  5
25E
100
AcDbEntity
  8
レイヤー_2
 62
     7
100
AcDbLine
 10
69.925792
 20
197.007096
 30
0.0
 11
69.95163
 21
196.995039
 31
0.0
  0
LINE
  5
25D
100
AcDbEntity
  8
レイヤー_2
 62
     7
100
AcDbLine
 10
70.356429
 20
197.054639
 30
0.0
 11
69.959554
 21
197.054639
 31
0.0
  0
LINE
  5
25C
100
AcDbEntity
  8
レイヤー_2
 62
     7
100
AcDbLine
 10
70.364008
 20
196.995039
 30
0.0
 11
70.390191
 21
197.007096
 31
0.0
  0
LINE
  5
25B
100
AcDbEntity
  8
レイヤー_2
 62
     7
100
AcDbLine
 10
73.63995
 20
197.007096
 30
0.0
 11
73.665788
 21
196.995039
 31
0.0
  0
LINE
  5
25A
100
AcDbEntity
  8
レイヤー_2
 62
     7
100
AcDbLine
 10
74.203223
 20
197.054639
 30
0.0
 11
73.6744
 21
197.054639
 31
0.0
  0
LINE
  5
259
100
AcDbEntity
  8
レイヤー_2
 62
     7
100
AcDbLine
 10
73.17624
 20
197.007096
 30
0.0
 11
73.202078
 21
196.995039
 31
0.0
  0
LINE
  5
258
100
AcDbEntity
  8
レイヤー_2
 62
     7
100
AcDbLine
 10
73.605843
 20
197.054639
 30
0.0
 11
73.210346
 21
197.054639
 31
0.0
  0
LINE
  5
257
100
AcDbEntity
  8
レイヤー_2
 62
     7
100
AcDbLine
 10
73.613767
 20
196.995039
 30
0.0
 11
73.63995
 21
197.007096
 31
0.0
  0
LINE
  5
256
100
AcDbEntity
  8
レイヤー_2
 62
     7
100
AcDbLine
 10
68.068541
 20
197.007096
 30
0.0
 11
68.094724
 21
196.995039
 31
0.0
  0
LINE
  5
255
100
AcDbEntity
  8
レイヤー_2
 62
     7
100
AcDbLine
 10
68.498834
 20
197.054639
 30
0.0
 11
68.103337
 21
197.054639
 31
0.0
  0
LINE
  5
254
100
AcDbEntity
  8
レイヤー_2
 62
     7
100
AcDbLine
 10
68.506757
 20
196.995039
 30
0.0
 11
68.53294
 21
197.007096
 31
0.0
  0
LINE
  5
253
100
AcDbEntity
  8
レイヤー_2
 62
     7
100
AcDbLine
 10
72.711841
 20
197.007096
 30
0.0
 11
72.738024
 21
196.995039
 31
0.0
  0
LINE
  5
252
100
AcDbEntity
  8
レイヤー_2
 62
     7
100
AcDbLine
 10
73.141444
 20
197.054639
 30
0.0
 11
72.745603
 21
197.054639
 31
0.0
  0
LINE
  5
251
100
AcDbEntity
  8
レイヤー_2
 62
     7
100
AcDbLine
 10
73.149368
 20
196.995039
 30
0.0
 11
73.17624
 21
197.007096
 31
0.0
  0
LINE
  5
250
100
AcDbEntity
  8
レイヤー_2
 62
     7
100
AcDbLine
 10
70.85459
 20
197.007096
 30
0.0
 11
70.880773
 21
196.995039
 31
0.0
  0
LINE
  5
24F
100
AcDbEntity
  8
レイヤー_2
 62
     7
100
AcDbLine
 10
71.284538
 20
197.054639
 30
0.0
 11
70.888352
 21
197.054639
 31
0.0
  0
LINE
  5
24E
100
AcDbEntity
  8
レイヤー_2
 62
     7
100
AcDbLine
 10
71.29315
 20
196.995039
 30
0.0
 11
71.318644
 21
197.007096
 31
0.0
  0
LINE
  5
24D
100
AcDbEntity
  8
レイヤー_2
 62
     7
100
AcDbLine
 10
71.783043
 20
197.007096
 30
0.0
 11
71.809226
 21
196.995039
 31
0.0
  0
LINE
  5
24C
100
AcDbEntity
  8
レイヤー_2
 62
     7
100
AcDbLine
 10
72.212991
 20
197.054639
 30
0.0
 11
71.816805
 21
197.054639
 31
0.0
  0
LINE
  5
24B
100
AcDbEntity
  8
レイヤー_2
 62
     7
100
AcDbLine
 10
72.220915
 20
196.995039
 30
0.0
 11
72.247442
 21
197.007096
 31
0.0
  0
LINE
  5
24A
100
AcDbEntity
  8
レイヤー_2
 62
     7
100
AcDbLine
 10
70.390191
 20
197.007096
 30
0.0
 11
70.416029
 21
196.995039
 31
0.0
  0
LINE
  5
249
100
AcDbEntity
  8
レイヤー_2
 62
     7
100
AcDbLine
 10
70.820828
 20
197.054639
 30
0.0
 11
70.423953
 21
197.054639
 31
0.0
  0
LINE
  5
248
100
AcDbEntity
  8
レイヤー_2
 62
     7
100
AcDbLine
 10
70.828752
 20
196.995039
 30
0.0
 11
70.85459
 21
197.007096
 31
0.0
  0
LINE
  5
247
100
AcDbEntity
  8
レイヤー_2
 62
     7
100
AcDbLine
 10
67.604142
 20
197.007096
 30
0.0
 11
67.631014
 21
196.995039
 31
0.0
  0
LINE
  5
246
100
AcDbEntity
  8
レイヤー_2
 62
     7
100
AcDbLine
 10
68.034435
 20
197.054639
 30
0.0
 11
67.638938
 21
197.054639
 31
0.0
  0
LINE
  5
245
100
AcDbEntity
  8
レイヤー_2
 62
     7
100
AcDbLine
 10
68.042358
 20
196.995039
 30
0.0
 11
68.068541
 21
197.007096
 31
0.0
  0
LINE
  5
244
100
AcDbEntity
  8
レイヤー_2
 62
     7
100
AcDbLine
 10
67.578304
 20
196.995039
 30
0.0
 11
67.604142
 21
197.007096
 31
0.0
  0
LINE
  5
243
100
AcDbEntity
  8
レイヤー_2
 62
     7
100
AcDbLine
 10
67.140088
 20
197.007096
 30
0.0
 11
67.166615
 21
196.995039
 31
0.0
  0
LINE
  5
242
100
AcDbEntity
  8
レイヤー_2
 62
     7
100
AcDbLine
 10
67.570036
 20
197.054639
 30
0.0
 11
67.173505
 21
197.054639
 31
0.0
  0
LINE
  5
241
100
AcDbEntity
  8
レイヤー_2
 62
     7
100
AcDbLine
 10
68.53294
 20
197.007096
 30
0.0
 11
68.558778
 21
196.995039
 31
0.0
  0
LINE
  5
240
100
AcDbEntity
  8
レイヤー_2
 62
     7
100
AcDbLine
 10
68.963577
 20
197.054639
 30
0.0
 11
68.567391
 21
197.054639
 31
0.0
  0
LINE
  5
23F
100
AcDbEntity
  8
レイヤー_2
 62
     7
100
AcDbLine
 10
68.971156
 20
196.995039
 30
0.0
 11
68.997339
 21
197.007096
 31
0.0
  0
LINE
  5
23E
100
AcDbEntity
  8
レイヤー_2
 62
     7
100
AcDbLine
 10
68.997339
 20
197.007096
 30
0.0
 11
69.023177
 21
196.995039
 31
0.0
  0
LINE
  5
23D
100
AcDbEntity
  8
レイヤー_2
 62
     7
100
AcDbLine
 10
69.427976
 20
197.054639
 30
0.0
 11
69.03179
 21
197.054639
 31
0.0
  0
LINE
  5
23C
100
AcDbEntity
  8
レイヤー_2
 62
     7
100
AcDbLine
 10
69.435211
 20
196.995039
 30
0.0
 11
69.461738
 21
197.007096
 31
0.0
  0
LINE
  5
23B
100
AcDbEntity
  8
レイヤー_2
 62
     7
100
AcDbLine
 10
69.461738
 20
197.007096
 30
0.0
 11
69.487576
 21
196.995039
 31
0.0
  0
LINE
  5
23A
100
AcDbEntity
  8
レイヤー_2
 62
     7
100
AcDbLine
 10
69.892375
 20
197.054639
 30
0.0
 11
69.4955
 21
197.054639
 31
0.0
  0
LINE
  5
239
100
AcDbEntity
  8
レイヤー_2
 62
     7
100
AcDbLine
 10
69.899609
 20
196.995039
 30
0.0
 11
69.925792
 21
197.007096
 31
0.0
  0
LINE
  5
238
100
AcDbEntity
  8
レイヤー_2
 62
     7
100
AcDbLine
 10
71.318644
 20
197.007096
 30
0.0
 11
71.345171
 21
196.995039
 31
0.0
  0
LINE
  5
237
100
AcDbEntity
  8
レイヤー_2
 62
     7
100
AcDbLine
 10
71.748592
 20
197.054639
 30
0.0
 11
71.352751
 21
197.054639
 31
0.0
  0
LINE
  5
236
100
AcDbEntity
  8
レイヤー_2
 62
     7
100
AcDbLine
 10
71.757205
 20
196.995039
 30
0.0
 11
71.783043
 21
197.007096
 31
0.0
  0
LINE
  5
235
100
AcDbEntity
  8
レイヤー_2
 62
     7
100
AcDbLine
 10
67.604142
 20
196.7339
 30
0.0
 11
67.570036
 21
196.782476
 31
0.0
  0
LINE
  5
234
100
AcDbEntity
  8
レイヤー_2
 62
     7
100
AcDbLine
 10
67.570036
 20
196.782476
 30
0.0
 11
67.570036
 21
196.995039
 31
0.0
  0
LINE
  5
233
100
AcDbEntity
  8
レイヤー_2
 62
     7
100
AcDbLine
 10
67.638938
 20
196.782476
 30
0.0
 11
67.638938
 21
196.995039
 31
0.0
  0
LINE
  5
232
100
AcDbEntity
  8
レイヤー_2
 62
     7
100
AcDbLine
 10
67.638938
 20
196.782476
 30
0.0
 11
67.604142
 21
196.7339
 31
0.0
  0
LINE
  5
231
100
AcDbEntity
  8
レイヤー_2
 62
     7
100
AcDbLine
 10
69.461738
 20
196.7339
 30
0.0
 11
69.427976
 21
196.782476
 31
0.0
  0
LINE
  5
230
100
AcDbEntity
  8
レイヤー_2
 62
     7
100
AcDbLine
 10
69.427976
 20
196.782476
 30
0.0
 11
69.427976
 21
196.995039
 31
0.0
  0
LINE
  5
22F
100
AcDbEntity
  8
レイヤー_2
 62
     7
100
AcDbLine
 10
69.4955
 20
196.782476
 30
0.0
 11
69.4955
 21
196.995039
 31
0.0
  0
LINE
  5
22E
100
AcDbEntity
  8
レイヤー_2
 62
     7
100
AcDbLine
 10
69.4955
 20
196.782476
 30
0.0
 11
69.461738
 21
196.7339
 31
0.0
  0
LINE
  5
22D
100
AcDbEntity
  8
レイヤー_2
 62
     7
100
AcDbLine
 10
72.711841
 20
196.7339
 30
0.0
 11
72.677045
 21
196.782476
 31
0.0
  0
LINE
  5
22C
100
AcDbEntity
  8
レイヤー_2
 62
     7
100
AcDbLine
 10
72.677045
 20
196.782476
 30
0.0
 11
72.677045
 21
196.995039
 31
0.0
  0
LINE
  5
22B
100
AcDbEntity
  8
レイヤー_2
 62
     7
100
AcDbLine
 10
72.745603
 20
196.782476
 30
0.0
 11
72.745603
 21
196.995039
 31
0.0
  0
LINE
  5
22A
100
AcDbEntity
  8
レイヤー_2
 62
     7
100
AcDbLine
 10
72.745603
 20
196.782476
 30
0.0
 11
72.711841
 21
196.7339
 31
0.0
  0
LINE
  5
229
100
AcDbEntity
  8
レイヤー_2
 62
     7
100
AcDbLine
 10
70.85459
 20
196.7339
 30
0.0
 11
70.820828
 21
196.782476
 31
0.0
  0
LINE
  5
228
100
AcDbEntity
  8
レイヤー_2
 62
     7
100
AcDbLine
 10
70.820828
 20
196.782476
 30
0.0
 11
70.820828
 21
196.995039
 31
0.0
  0
LINE
  5
227
100
AcDbEntity
  8
レイヤー_2
 62
     7
100
AcDbLine
 10
70.888352
 20
196.782476
 30
0.0
 11
70.888352
 21
196.995039
 31
0.0
  0
LINE
  5
226
100
AcDbEntity
  8
レイヤー_2
 62
     7
100
AcDbLine
 10
70.888352
 20
196.782476
 30
0.0
 11
70.85459
 21
196.7339
 31
0.0
  0
LINE
  5
225
100
AcDbEntity
  8
レイヤー_2
 62
     7
100
AcDbLine
 10
72.247442
 20
196.7339
 30
0.0
 11
72.212991
 21
196.782476
 31
0.0
  0
LINE
  5
224
100
AcDbEntity
  8
レイヤー_2
 62
     7
100
AcDbLine
 10
72.212991
 20
196.782476
 30
0.0
 11
72.212991
 21
196.995039
 31
0.0
  0
LINE
  5
223
100
AcDbEntity
  8
レイヤー_2
 62
     7
100
AcDbLine
 10
72.281548
 20
196.782476
 30
0.0
 11
72.281548
 21
196.995039
 31
0.0
  0
LINE
  5
222
100
AcDbEntity
  8
レイヤー_2
 62
     7
100
AcDbLine
 10
72.281548
 20
196.782476
 30
0.0
 11
72.247442
 21
196.7339
 31
0.0
  0
LINE
  5
221
100
AcDbEntity
  8
レイヤー_2
 62
     7
100
AcDbLine
 10
73.17624
 20
196.7339
 30
0.0
 11
73.141444
 21
196.782476
 31
0.0
  0
LINE
  5
220
100
AcDbEntity
  8
レイヤー_2
 62
     7
100
AcDbLine
 10
73.141444
 20
196.782476
 30
0.0
 11
73.141444
 21
196.995039
 31
0.0
  0
LINE
  5
21F
100
AcDbEntity
  8
レイヤー_2
 62
     7
100
AcDbLine
 10
73.210346
 20
196.782476
 30
0.0
 11
73.210346
 21
196.995039
 31
0.0
  0
LINE
  5
21E
100
AcDbEntity
  8
レイヤー_2
 62
     7
100
AcDbLine
 10
73.210346
 20
196.782476
 30
0.0
 11
73.17624
 21
196.7339
 31
0.0
  0
LINE
  5
21D
100
AcDbEntity
  8
レイヤー_2
 62
     7
100
AcDbLine
 10
70.390191
 20
196.7339
 30
0.0
 11
70.356429
 21
196.782476
 31
0.0
  0
LINE
  5
21C
100
AcDbEntity
  8
レイヤー_2
 62
     7
100
AcDbLine
 10
70.356429
 20
196.782476
 30
0.0
 11
70.356429
 21
196.995039
 31
0.0
  0
LINE
  5
21B
100
AcDbEntity
  8
レイヤー_2
 62
     7
100
AcDbLine
 10
70.423953
 20
196.782476
 30
0.0
 11
70.423953
 21
196.995039
 31
0.0
  0
LINE
  5
21A
100
AcDbEntity
  8
レイヤー_2
 62
     7
100
AcDbLine
 10
70.423953
 20
196.782476
 30
0.0
 11
70.390191
 21
196.7339
 31
0.0
  0
LINE
  5
219
100
AcDbEntity
  8
レイヤー_2
 62
     7
100
AcDbLine
 10
68.997339
 20
196.7339
 30
0.0
 11
68.963577
 21
196.782476
 31
0.0
  0
LINE
  5
218
100
AcDbEntity
  8
レイヤー_2
 62
     7
100
AcDbLine
 10
68.963577
 20
196.782476
 30
0.0
 11
68.963577
 21
196.995039
 31
0.0
  0
LINE
  5
217
100
AcDbEntity
  8
レイヤー_2
 62
     7
100
AcDbLine
 10
69.03179
 20
196.782476
 30
0.0
 11
69.03179
 21
196.995039
 31
0.0
  0
LINE
  5
216
100
AcDbEntity
  8
レイヤー_2
 62
     7
100
AcDbLine
 10
69.03179
 20
196.782476
 30
0.0
 11
68.997339
 21
196.7339
 31
0.0
  0
LINE
  5
215
100
AcDbEntity
  8
レイヤー_2
 62
     7
100
AcDbLine
 10
71.783043
 20
196.7339
 30
0.0
 11
71.748592
 21
196.782476
 31
0.0
  0
LINE
  5
214
100
AcDbEntity
  8
レイヤー_2
 62
     7
100
AcDbLine
 10
71.748592
 20
196.782476
 30
0.0
 11
71.748592
 21
196.995039
 31
0.0
  0
LINE
  5
213
100
AcDbEntity
  8
レイヤー_2
 62
     7
100
AcDbLine
 10
71.816805
 20
196.782476
 30
0.0
 11
71.816805
 21
196.995039
 31
0.0
  0
LINE
  5
212
100
AcDbEntity
  8
レイヤー_2
 62
     7
100
AcDbLine
 10
71.816805
 20
196.782476
 30
0.0
 11
71.783043
 21
196.7339
 31
0.0
  0
LINE
  5
211
100
AcDbEntity
  8
レイヤー_2
 62
     7
100
AcDbLine
 10
71.318644
 20
196.7339
 30
0.0
 11
71.284538
 21
196.782476
 31
0.0
  0
LINE
  5
210
100
AcDbEntity
  8
レイヤー_2
 62
     7
100
AcDbLine
 10
71.284538
 20
196.782476
 30
0.0
 11
71.284538
 21
196.995039
 31
0.0
  0
LINE
  5
20F
100
AcDbEntity
  8
レイヤー_2
 62
     7
100
AcDbLine
 10
71.352751
 20
196.782476
 30
0.0
 11
71.352751
 21
196.995039
 31
0.0
  0
LINE
  5
20E
100
AcDbEntity
  8
レイヤー_2
 62
     7
100
AcDbLine
 10
71.352751
 20
196.782476
 30
0.0
 11
71.318644
 21
196.7339
 31
0.0
  0
LINE
  5
20D
100
AcDbEntity
  8
レイヤー_2
 62
     7
100
AcDbLine
 10
69.925792
 20
196.7339
 30
0.0
 11
69.892375
 21
196.782476
 31
0.0
  0
LINE
  5
20C
100
AcDbEntity
  8
レイヤー_2
 62
     7
100
AcDbLine
 10
69.892375
 20
196.782476
 30
0.0
 11
69.892375
 21
196.995039
 31
0.0
  0
LINE
  5
20B
100
AcDbEntity
  8
レイヤー_2
 62
     7
100
AcDbLine
 10
69.959554
 20
196.782476
 30
0.0
 11
69.959554
 21
196.995039
 31
0.0
  0
LINE
  5
20A
100
AcDbEntity
  8
レイヤー_2
 62
     7
100
AcDbLine
 10
69.959554
 20
196.782476
 30
0.0
 11
69.925792
 21
196.7339
 31
0.0
  0
LINE
  5
209
100
AcDbEntity
  8
レイヤー_2
 62
     7
100
AcDbLine
 10
68.068541
 20
196.7339
 30
0.0
 11
68.034435
 21
196.782476
 31
0.0
  0
LINE
  5
208
100
AcDbEntity
  8
レイヤー_2
 62
     7
100
AcDbLine
 10
68.034435
 20
196.782476
 30
0.0
 11
68.034435
 21
196.995039
 31
0.0
  0
LINE
  5
207
100
AcDbEntity
  8
レイヤー_2
 62
     7
100
AcDbLine
 10
68.103337
 20
196.782476
 30
0.0
 11
68.103337
 21
196.995039
 31
0.0
  0
LINE
  5
206
100
AcDbEntity
  8
レイヤー_2
 62
     7
100
AcDbLine
 10
68.103337
 20
196.782476
 30
0.0
 11
68.068541
 21
196.7339
 31
0.0
  0
LINE
  5
205
100
AcDbEntity
  8
レイヤー_2
 62
     7
100
AcDbLine
 10
67.140088
 20
196.7339
 30
0.0
 11
67.105981
 21
196.782476
 31
0.0
  0
LINE
  5
204
100
AcDbEntity
  8
レイヤー_2
 62
     7
100
AcDbLine
 10
67.105981
 20
196.782476
 30
0.0
 11
67.105981
 21
196.995039
 31
0.0
  0
LINE
  5
203
100
AcDbEntity
  8
レイヤー_2
 62
     7
100
AcDbLine
 10
67.173505
 20
196.782476
 30
0.0
 11
67.173505
 21
196.995039
 31
0.0
  0
LINE
  5
202
100
AcDbEntity
  8
レイヤー_2
 62
     7
100
AcDbLine
 10
67.173505
 20
196.782476
 30
0.0
 11
67.140088
 21
196.7339
 31
0.0
  0
LINE
  5
201
100
AcDbEntity
  8
レイヤー_2
 62
     7
100
AcDbLine
 10
73.63995
 20
196.7339
 30
0.0
 11
73.605843
 21
196.782476
 31
0.0
  0
LINE
  5
200
100
AcDbEntity
  8
レイヤー_2
 62
     7
100
AcDbLine
 10
73.605843
 20
196.782476
 30
0.0
 11
73.605843
 21
196.995039
 31
0.0
  0
LINE
  5
1FF
100
AcDbEntity
  8
レイヤー_2
 62
     7
100
AcDbLine
 10
73.6744
 20
196.782476
 30
0.0
 11
73.6744
 21
196.995039
 31
0.0
  0
LINE
  5
1FE
100
AcDbEntity
  8
レイヤー_2
 62
     7
100
AcDbLine
 10
73.6744
 20
196.782476
 30
0.0
 11
73.63995
 21
196.7339
 31
0.0
  0
LINE
  5
1FD
100
AcDbEntity
  8
レイヤー_2
 62
     7
100
AcDbLine
 10
68.53294
 20
196.7339
 30
0.0
 11
68.498834
 21
196.782476
 31
0.0
  0
LINE
  5
1FC
100
AcDbEntity
  8
レイヤー_2
 62
     7
100
AcDbLine
 10
68.498834
 20
196.782476
 30
0.0
 11
68.498834
 21
196.995039
 31
0.0
  0
LINE
  5
1FB
100
AcDbEntity
  8
レイヤー_2
 62
     7
100
AcDbLine
 10
68.567391
 20
196.782476
 30
0.0
 11
68.567391
 21
196.995039
 31
0.0
  0
LINE
  5
1FA
100
AcDbEntity
  8
レイヤー_2
 62
     7
100
AcDbLine
 10
68.567391
 20
196.782476
 30
0.0
 11
68.53294
 21
196.7339
 31
0.0
  0
LINE
  5
1F9
100
AcDbEntity
  8
レイヤー_2
 62
     7
100
AcDbLine
 10
74.368932
 20
197.010197
 30
0.0
 11
74.352395
 21
196.986426
 31
0.0
  0
LINE
  5
1F8
100
AcDbEntity
  8
レイヤー_2
 62
     7
100
AcDbLine
 10
66.411106
 20
197.010197
 30
0.0
 11
66.427642
 21
196.986426
 31
0.0
  0
LINE
  5
1F7
100
AcDbEntity
  8
レイヤー_2
 62
     7
100
AcDbLine
 10
70.820828
 20
196.782476
 30
0.0
 11
70.817727
 21
196.995039
 31
0.0
  0
LINE
  5
1F6
100
AcDbEntity
  8
レイヤー_2
 62
     7
100
AcDbLine
 10
69.892375
 20
196.782476
 30
0.0
 11
69.88893
 21
196.995039
 31
0.0
  0
LINE
  5
1F5
100
AcDbEntity
  8
レイヤー_2
 62
     7
100
AcDbLine
 10
68.034435
 20
196.782476
 30
0.0
 11
68.031679
 21
196.995039
 31
0.0
  0
LINE
  5
1F4
100
AcDbEntity
  8
レイヤー_2
 62
     7
100
AcDbLine
 10
69.427976
 20
196.782476
 30
0.0
 11
69.424531
 21
196.995039
 31
0.0
  0
LINE
  5
1F3
100
AcDbEntity
  8
レイヤー_2
 62
     7
100
AcDbLine
 10
68.498834
 20
196.782476
 30
0.0
 11
68.496077
 21
196.995039
 31
0.0
  0
LINE
  5
1F2
100
AcDbEntity
  8
レイヤー_2
 62
     7
100
AcDbLine
 10
67.570036
 20
196.782476
 30
0.0
 11
67.567624
 21
196.995039
 31
0.0
  0
LINE
  5
1F1
100
AcDbEntity
  8
レイヤー_2
 62
     7
100
AcDbLine
 10
70.356429
 20
196.782476
 30
0.0
 11
70.353328
 21
196.995039
 31
0.0
  0
LINE
  5
1F0
100
AcDbEntity
  8
レイヤー_2
 62
     7
100
AcDbLine
 10
73.605843
 20
196.782476
 30
0.0
 11
73.602743
 21
196.995039
 31
0.0
  0
LINE
  5
1EF
100
AcDbEntity
  8
レイヤー_2
 62
     7
100
AcDbLine
 10
73.141444
 20
196.782476
 30
0.0
 11
73.138688
 21
196.995039
 31
0.0
  0
LINE
  5
1EE
100
AcDbEntity
  8
レイヤー_2
 62
     7
100
AcDbLine
 10
71.748592
 20
196.782476
 30
0.0
 11
71.746181
 21
196.995039
 31
0.0
  0
LINE
  5
1ED
100
AcDbEntity
  8
レイヤー_2
 62
     7
100
AcDbLine
 10
72.677045
 20
196.782476
 30
0.0
 11
72.674978
 21
196.995039
 31
0.0
  0
LINE
  5
1EC
100
AcDbEntity
  8
レイヤー_2
 62
     7
100
AcDbLine
 10
71.284538
 20
196.782476
 30
0.0
 11
71.282126
 21
196.995039
 31
0.0
  0
LINE
  5
1EB
100
AcDbEntity
  8
レイヤー_2
 62
     7
100
AcDbLine
 10
72.212991
 20
196.782476
 30
0.0
 11
72.210579
 21
196.995039
 31
0.0
  0
LINE
  5
1EA
100
AcDbEntity
  8
レイヤー_2
 62
     7
100
AcDbLine
 10
68.963577
 20
196.782476
 30
0.0
 11
68.960132
 21
196.995039
 31
0.0
  0
LINE
  5
1E9
100
AcDbEntity
  8
レイヤー_2
 62
     7
100
AcDbLine
 10
70.427398
 20
196.995039
 30
0.0
 11
70.423953
 21
196.782476
 31
0.0
  0
LINE
  5
1E8
100
AcDbEntity
  8
レイヤー_2
 62
     7
100
AcDbLine
 10
73.212758
 20
196.995039
 30
0.0
 11
73.210346
 21
196.782476
 31
0.0
  0
LINE
  5
1E7
100
AcDbEntity
  8
レイヤー_2
 62
     7
100
AcDbLine
 10
67.641349
 20
196.995039
 30
0.0
 11
67.638938
 21
196.782476
 31
0.0
  0
LINE
  5
1E6
100
AcDbEntity
  8
レイヤー_2
 62
     7
100
AcDbLine
 10
72.28396
 20
196.995039
 30
0.0
 11
72.281548
 21
196.782476
 31
0.0
  0
LINE
  5
1E5
100
AcDbEntity
  8
レイヤー_2
 62
     7
100
AcDbLine
 10
69.034201
 20
196.995039
 30
0.0
 11
69.03179
 21
196.782476
 31
0.0
  0
LINE
  5
1E4
100
AcDbEntity
  8
レイヤー_2
 62
     7
100
AcDbLine
 10
71.355851
 20
196.995039
 30
0.0
 11
71.352751
 21
196.782476
 31
0.0
  0
LINE
  5
1E3
100
AcDbEntity
  8
レイヤー_2
 62
     7
100
AcDbLine
 10
71.819561
 20
196.995039
 30
0.0
 11
71.816805
 21
196.782476
 31
0.0
  0
LINE
  5
1E2
100
AcDbEntity
  8
レイヤー_2
 62
     7
100
AcDbLine
 10
68.105748
 20
196.995039
 30
0.0
 11
68.103337
 21
196.782476
 31
0.0
  0
LINE
  5
1E1
100
AcDbEntity
  8
レイヤー_2
 62
     7
100
AcDbLine
 10
69.498256
 20
196.995039
 30
0.0
 11
69.4955
 21
196.782476
 31
0.0
  0
LINE
  5
1E0
100
AcDbEntity
  8
レイヤー_2
 62
     7
100
AcDbLine
 10
67.177295
 20
196.995039
 30
0.0
 11
67.173505
 21
196.782476
 31
0.0
  0
LINE
  5
1DF
100
AcDbEntity
  8
レイヤー_2
 62
     7
100
AcDbLine
 10
70.891452
 20
196.995039
 30
0.0
 11
70.888352
 21
196.782476
 31
0.0
  0
LINE
  5
1DE
100
AcDbEntity
  8
レイヤー_2
 62
     7
100
AcDbLine
 10
72.748359
 20
196.995039
 30
0.0
 11
72.745603
 21
196.782476
 31
0.0
  0
LINE
  5
1DD
100
AcDbEntity
  8
レイヤー_2
 62
     7
100
AcDbLine
 10
69.962655
 20
196.995039
 30
0.0
 11
69.959554
 21
196.782476
 31
0.0
  0
LINE
  5
1DC
100
AcDbEntity
  8
レイヤー_2
 62
     7
100
AcDbLine
 10
73.676812
 20
196.995039
 30
0.0
 11
73.6744
 21
196.782476
 31
0.0
  0
LINE
  5
1DB
100
AcDbEntity
  8
レイヤー_2
 62
     7
100
AcDbLine
 10
68.569803
 20
196.995039
 30
0.0
 11
68.567391
 21
196.782476
 31
0.0
  0
LINE
  5
1DA
100
AcDbEntity
  8
レイヤー_2
 62
     7
100
AcDbLine
 10
67.105981
 20
196.782476
 30
0.0
 11
67.103225
 21
196.995039
 31
0.0
  0
LINE
  5
1D9
100
AcDbEntity
  8
レイヤー_2
 62
     7
100
AcDbLine
 10
73.63995
 20
196.259511
 30
0.0
 11
73.63995
 21
196.308431
 31
0.0
  0
POLYLINE
  5
1D0
100
AcDbEntity
  8
レイヤー_2
 62
     7
100
AcDb2dPolyline
 66
     1
 10
0.0
 20
0.0
 30
0.0
  0
VERTEX
  5
1D1
100
AcDbEntity
  8
レイヤー_2
 62
     7
100
AcDbVertex
100
AcDb2dVertex
 10
73.63995
 20
196.308431
 30
0.0
  0
VERTEX
  5
1D2
100
AcDbEntity
  8
レイヤー_2
 62
     7
100
AcDbVertex
100
AcDb2dVertex
 10
73.644428
 20
196.308431
 30
0.0
  0
VERTEX
  5
1D3
100
AcDbEntity
  8
レイヤー_2
 62
     7
100
AcDbVertex
100
AcDb2dVertex
 10
73.655452
 20
196.310154
 30
0.0
  0
VERTEX
  5
1D4
100
AcDbEntity
  8
レイヤー_2
 62
     7
100
AcDbVertex
100
AcDb2dVertex
 10
73.664065
 20
196.314632
 30
0.0
  0
VERTEX
  5
1D5
100
AcDbEntity
  8
レイヤー_2
 62
     7
100
AcDbVertex
100
AcDb2dVertex
 10
73.670611
 20
196.320833
 30
0.0
  0
VERTEX
  5
1D6
100
AcDbEntity
  8
レイヤー_2
 62
     7
100
AcDbVertex
100
AcDb2dVertex
 10
73.6744
 20
196.327724
 30
0.0
  0
VERTEX
  5
1D7
100
AcDbEntity
  8
レイヤー_2
 62
     7
100
AcDbVertex
100
AcDb2dVertex
 10
73.6744
 20
196.330135
 30
0.0
  0
SEQEND
  5
1D8
100
AcDbEntity
  8
レイヤー_2
 62
     7
  0
POLYLINE
  5
1C8
100
AcDbEntity
  8
レイヤー_2
 62
     7
100
AcDb2dPolyline
 66
     1
 10
0.0
 20
0.0
 30
0.0
  0
VERTEX
  5
1C9
100
AcDbEntity
  8
レイヤー_2
 62
     7
100
AcDbVertex
100
AcDb2dVertex
 10
67.105981
 20
196.330135
 30
0.0
  0
VERTEX
  5
1CA
100
AcDbEntity
  8
レイヤー_2
 62
     7
100
AcDbVertex
100
AcDb2dVertex
 10
67.108049
 20
196.323245
 30
0.0
  0
VERTEX
  5
1CB
100
AcDbEntity
  8
レイヤー_2
 62
     7
100
AcDbVertex
100
AcDb2dVertex
 10
67.113561
 20
196.316699
 30
0.0
  0
VERTEX
  5
1CC
100
AcDbEntity
  8
レイヤー_2
 62
     7
100
AcDbVertex
100
AcDb2dVertex
 10
67.122518
 20
196.311532
 30
0.0
  0
VERTEX
  5
1CD
100
AcDbEntity
  8
レイヤー_2
 62
     7
100
AcDbVertex
100
AcDb2dVertex
 10
67.132853
 20
196.308431
 30
0.0
  0
VERTEX
  5
1CE
100
AcDbEntity
  8
レイヤー_2
 62
     7
100
AcDbVertex
100
AcDb2dVertex
 10
67.140088
 20
196.308431
 30
0.0
  0
SEQEND
  5
1CF
100
AcDbEntity
  8
レイヤー_2
 62
     7
  0
LINE
  5
1C7
100
AcDbEntity
  8
レイヤー_2
 62
     7
100
AcDbLine
 10
67.140088
 20
196.259511
 30
0.0
 11
67.140088
 21
196.308431
 31
0.0
  0
LINE
  5
1C6
100
AcDbEntity
  8
レイヤー_2
 62
     7
100
AcDbLine
 10
67.105981
 20
196.782476
 30
0.0
 11
66.577159
 21
196.782476
 31
0.0
  0
LINE
  5
1C5
100
AcDbEntity
  8
レイヤー_2
 62
     7
100
AcDbLine
 10
67.11425
 20
196.721842
 30
0.0
 11
67.140088
 21
196.7339
 31
0.0
  0
LINE
  5
1C4
100
AcDbEntity
  8
レイヤー_2
 62
     7
100
AcDbLine
 10
73.63995
 20
196.7339
 30
0.0
 11
73.665788
 21
196.721842
 31
0.0
  0
LINE
  5
1C3
100
AcDbEntity
  8
レイヤー_2
 62
     7
100
AcDbLine
 10
74.203223
 20
196.782476
 30
0.0
 11
73.6744
 21
196.782476
 31
0.0
  0
LINE
  5
1C2
100
AcDbEntity
  8
レイヤー_2
 62
     7
100
AcDbLine
 10
68.53294
 20
196.7339
 30
0.0
 11
68.558778
 21
196.721842
 31
0.0
  0
LINE
  5
1C1
100
AcDbEntity
  8
レイヤー_2
 62
     7
100
AcDbLine
 10
68.963577
 20
196.782476
 30
0.0
 11
68.567391
 21
196.782476
 31
0.0
  0
LINE
  5
1C0
100
AcDbEntity
  8
レイヤー_2
 62
     7
100
AcDbLine
 10
68.971156
 20
196.721842
 30
0.0
 11
68.997339
 21
196.7339
 31
0.0
  0
LINE
  5
1BF
100
AcDbEntity
  8
レイヤー_2
 62
     7
100
AcDbLine
 10
69.461738
 20
196.7339
 30
0.0
 11
69.487576
 21
196.721842
 31
0.0
  0
LINE
  5
1BE
100
AcDbEntity
  8
レイヤー_2
 62
     7
100
AcDbLine
 10
69.892375
 20
196.782476
 30
0.0
 11
69.4955
 21
196.782476
 31
0.0
  0
LINE
  5
1BD
100
AcDbEntity
  8
レイヤー_2
 62
     7
100
AcDbLine
 10
69.899609
 20
196.721842
 30
0.0
 11
69.925792
 21
196.7339
 31
0.0
  0
LINE
  5
1BC
100
AcDbEntity
  8
レイヤー_2
 62
     7
100
AcDbLine
 10
67.604142
 20
196.7339
 30
0.0
 11
67.631014
 21
196.721842
 31
0.0
  0
LINE
  5
1BB
100
AcDbEntity
  8
レイヤー_2
 62
     7
100
AcDbLine
 10
68.034435
 20
196.782476
 30
0.0
 11
67.638938
 21
196.782476
 31
0.0
  0
LINE
  5
1BA
100
AcDbEntity
  8
レイヤー_2
 62
     7
100
AcDbLine
 10
68.042358
 20
196.721842
 30
0.0
 11
68.068541
 21
196.7339
 31
0.0
  0
LINE
  5
1B9
100
AcDbEntity
  8
レイヤー_2
 62
     7
100
AcDbLine
 10
72.711841
 20
196.7339
 30
0.0
 11
72.738024
 21
196.721842
 31
0.0
  0
LINE
  5
1B8
100
AcDbEntity
  8
レイヤー_2
 62
     7
100
AcDbLine
 10
73.141444
 20
196.782476
 30
0.0
 11
72.745603
 21
196.782476
 31
0.0
  0
LINE
  5
1B7
100
AcDbEntity
  8
レイヤー_2
 62
     7
100
AcDbLine
 10
73.149368
 20
196.721842
 30
0.0
 11
73.17624
 21
196.7339
 31
0.0
  0
LINE
  5
1B6
100
AcDbEntity
  8
レイヤー_2
 62
     7
100
AcDbLine
 10
70.390191
 20
196.7339
 30
0.0
 11
70.416029
 21
196.721842
 31
0.0
  0
LINE
  5
1B5
100
AcDbEntity
  8
レイヤー_2
 62
     7
100
AcDbLine
 10
70.820828
 20
196.782476
 30
0.0
 11
70.423953
 21
196.782476
 31
0.0
  0
LINE
  5
1B4
100
AcDbEntity
  8
レイヤー_2
 62
     7
100
AcDbLine
 10
70.828752
 20
196.721842
 30
0.0
 11
70.85459
 21
196.7339
 31
0.0
  0
LINE
  5
1B3
100
AcDbEntity
  8
レイヤー_2
 62
     7
100
AcDbLine
 10
71.783043
 20
196.7339
 30
0.0
 11
71.809226
 21
196.721842
 31
0.0
  0
LINE
  5
1B2
100
AcDbEntity
  8
レイヤー_2
 62
     7
100
AcDbLine
 10
72.212991
 20
196.782476
 30
0.0
 11
71.816805
 21
196.782476
 31
0.0
  0
LINE
  5
1B1
100
AcDbEntity
  8
レイヤー_2
 62
     7
100
AcDbLine
 10
72.220915
 20
196.721842
 30
0.0
 11
72.247442
 21
196.7339
 31
0.0
  0
LINE
  5
1B0
100
AcDbEntity
  8
レイヤー_2
 62
     7
100
AcDbLine
 10
72.247442
 20
196.7339
 30
0.0
 11
72.273625
 21
196.721842
 31
0.0
  0
LINE
  5
1AF
100
AcDbEntity
  8
レイヤー_2
 62
     7
100
AcDbLine
 10
72.677045
 20
196.782476
 30
0.0
 11
72.281548
 21
196.782476
 31
0.0
  0
LINE
  5
1AE
100
AcDbEntity
  8
レイヤー_2
 62
     7
100
AcDbLine
 10
72.685314
 20
196.721842
 30
0.0
 11
72.711841
 21
196.7339
 31
0.0
  0
LINE
  5
1AD
100
AcDbEntity
  8
レイヤー_2
 62
     7
100
AcDbLine
 10
71.318644
 20
196.7339
 30
0.0
 11
71.345171
 21
196.721842
 31
0.0
  0
LINE
  5
1AC
100
AcDbEntity
  8
レイヤー_2
 62
     7
100
AcDbLine
 10
71.748592
 20
196.782476
 30
0.0
 11
71.352751
 21
196.782476
 31
0.0
  0
LINE
  5
1AB
100
AcDbEntity
  8
レイヤー_2
 62
     7
100
AcDbLine
 10
71.757205
 20
196.721842
 30
0.0
 11
71.783043
 21
196.7339
 31
0.0
  0
LINE
  5
1AA
100
AcDbEntity
  8
レイヤー_2
 62
     7
100
AcDbLine
 10
68.997339
 20
196.7339
 30
0.0
 11
69.023177
 21
196.721842
 31
0.0
  0
LINE
  5
1A9
100
AcDbEntity
  8
レイヤー_2
 62
     7
100
AcDbLine
 10
69.427976
 20
196.782476
 30
0.0
 11
69.03179
 21
196.782476
 31
0.0
  0
LINE
  5
1A8
100
AcDbEntity
  8
レイヤー_2
 62
     7
100
AcDbLine
 10
69.435211
 20
196.721842
 30
0.0
 11
69.461738
 21
196.7339
 31
0.0
  0
LINE
  5
1A7
100
AcDbEntity
  8
レイヤー_2
 62
     7
100
AcDbLine
 10
69.925792
 20
196.7339
 30
0.0
 11
69.95163
 21
196.721842
 31
0.0
  0
LINE
  5
1A6
100
AcDbEntity
  8
レイヤー_2
 62
     7
100
AcDbLine
 10
70.356429
 20
196.782476
 30
0.0
 11
69.959554
 21
196.782476
 31
0.0
  0
LINE
  5
1A5
100
AcDbEntity
  8
レイヤー_2
 62
     7
100
AcDbLine
 10
70.364008
 20
196.721842
 30
0.0
 11
70.390191
 21
196.7339
 31
0.0
  0
LINE
  5
1A4
100
AcDbEntity
  8
レイヤー_2
 62
     7
100
AcDbLine
 10
73.17624
 20
196.7339
 30
0.0
 11
73.202078
 21
196.721842
 31
0.0
  0
LINE
  5
1A3
100
AcDbEntity
  8
レイヤー_2
 62
     7
100
AcDbLine
 10
73.605843
 20
196.782476
 30
0.0
 11
73.210346
 21
196.782476
 31
0.0
  0
LINE
  5
1A2
100
AcDbEntity
  8
レイヤー_2
 62
     7
100
AcDbLine
 10
73.613767
 20
196.721842
 30
0.0
 11
73.63995
 21
196.7339
 31
0.0
  0
LINE
  5
1A1
100
AcDbEntity
  8
レイヤー_2
 62
     7
100
AcDbLine
 10
68.068541
 20
196.7339
 30
0.0
 11
68.094724
 21
196.721842
 31
0.0
  0
LINE
  5
1A0
100
AcDbEntity
  8
レイヤー_2
 62
     7
100
AcDbLine
 10
68.498834
 20
196.782476
 30
0.0
 11
68.103337
 21
196.782476
 31
0.0
  0
LINE
  5
19F
100
AcDbEntity
  8
レイヤー_2
 62
     7
100
AcDbLine
 10
68.506757
 20
196.721842
 30
0.0
 11
68.53294
 21
196.7339
 31
0.0
  0
LINE
  5
19E
100
AcDbEntity
  8
レイヤー_2
 62
     7
100
AcDbLine
 10
70.85459
 20
196.7339
 30
0.0
 11
70.880773
 21
196.721842
 31
0.0
  0
LINE
  5
19D
100
AcDbEntity
  8
レイヤー_2
 62
     7
100
AcDbLine
 10
71.284538
 20
196.782476
 30
0.0
 11
70.888352
 21
196.782476
 31
0.0
  0
LINE
  5
19C
100
AcDbEntity
  8
レイヤー_2
 62
     7
100
AcDbLine
 10
71.29315
 20
196.721842
 30
0.0
 11
71.318644
 21
196.7339
 31
0.0
  0
LINE
  5
19B
100
AcDbEntity
  8
レイヤー_2
 62
     7
100
AcDbLine
 10
67.578304
 20
196.721842
 30
0.0
 11
67.604142
 21
196.7339
 31
0.0
  0
LINE
  5
19A
100
AcDbEntity
  8
レイヤー_2
 62
     7
100
AcDbLine
 10
67.140088
 20
196.7339
 30
0.0
 11
67.166615
 21
196.721842
 31
0.0
  0
LINE
  5
199
100
AcDbEntity
  8
レイヤー_2
 62
     7
100
AcDbLine
 10
67.570036
 20
196.782476
 30
0.0
 11
67.173505
 21
196.782476
 31
0.0
  0
LINE
  5
198
100
AcDbEntity
  8
レイヤー_2
 62
     7
100
AcDbLine
 10
73.605843
 20
196.482753
 30
0.0
 11
73.605843
 21
196.721842
 31
0.0
  0
LINE
  5
197
100
AcDbEntity
  8
レイヤー_2
 62
     7
100
AcDbLine
 10
73.6744
 20
196.330135
 30
0.0
 11
73.6744
 21
196.721842
 31
0.0
  0
LINE
  5
196
100
AcDbEntity
  8
レイヤー_2
 62
     7
100
AcDbLine
 10
73.63995
 20
196.308431
 30
0.0
 11
73.63995
 21
196.460704
 31
0.0
  0
LINE
  5
195
100
AcDbEntity
  8
レイヤー_2
 62
     7
100
AcDbLine
 10
73.63995
 20
196.460704
 30
0.0
 11
73.633748
 21
196.461393
 31
0.0
  0
LINE
  5
194
100
AcDbEntity
  8
レイヤー_2
 62
     7
100
AcDbLine
 10
73.633748
 20
196.461393
 30
0.0
 11
73.627203
 21
196.462771
 31
0.0
  0
LINE
  5
193
100
AcDbEntity
  8
レイヤー_2
 62
     7
100
AcDbLine
 10
73.627203
 20
196.462771
 30
0.0
 11
73.621346
 21
196.464494
 31
0.0
  0
LINE
  5
192
100
AcDbEntity
  8
レイヤー_2
 62
     7
100
AcDbLine
 10
73.621346
 20
196.464494
 30
0.0
 11
73.615834
 21
196.467594
 31
0.0
  0
LINE
  5
191
100
AcDbEntity
  8
レイヤー_2
 62
     7
100
AcDbLine
 10
73.615834
 20
196.467594
 30
0.0
 11
73.6117
 21
196.471384
 31
0.0
  0
LINE
  5
190
100
AcDbEntity
  8
レイヤー_2
 62
     7
100
AcDbLine
 10
73.6117
 20
196.471384
 30
0.0
 11
73.608599
 21
196.47414
 31
0.0
  0
LINE
  5
18F
100
AcDbEntity
  8
レイヤー_2
 62
     7
100
AcDbLine
 10
73.608599
 20
196.47414
 30
0.0
 11
73.606877
 21
196.478619
 31
0.0
  0
LINE
  5
18E
100
AcDbEntity
  8
レイヤー_2
 62
     7
100
AcDbLine
 10
73.606877
 20
196.478619
 30
0.0
 11
73.605843
 21
196.482753
 31
0.0
  0
LINE
  5
18D
100
AcDbEntity
  8
レイヤー_2
 62
     7
100
AcDbLine
 10
69.4955
 20
196.482753
 30
0.0
 11
69.4955
 21
196.721842
 31
0.0
  0
LINE
  5
18C
100
AcDbEntity
  8
レイヤー_2
 62
     7
100
AcDbLine
 10
69.427976
 20
196.482753
 30
0.0
 11
69.430387
 21
196.47414
 31
0.0
  0
LINE
  5
18B
100
AcDbEntity
  8
レイヤー_2
 62
     7
100
AcDbLine
 10
69.430387
 20
196.47414
 30
0.0
 11
69.437278
 21
196.467594
 31
0.0
  0
LINE
  5
18A
100
AcDbEntity
  8
レイヤー_2
 62
     7
100
AcDbLine
 10
69.437278
 20
196.467594
 30
0.0
 11
69.448646
 21
196.462771
 31
0.0
  0
LINE
  5
189
100
AcDbEntity
  8
レイヤー_2
 62
     7
100
AcDbLine
 10
69.448646
 20
196.462771
 30
0.0
 11
69.461738
 21
196.460704
 31
0.0
  0
LINE
  5
188
100
AcDbEntity
  8
レイヤー_2
 62
     7
100
AcDbLine
 10
69.461738
 20
196.460704
 30
0.0
 11
69.474829
 21
196.462771
 31
0.0
  0
LINE
  5
187
100
AcDbEntity
  8
レイヤー_2
 62
     7
100
AcDbLine
 10
69.474829
 20
196.462771
 30
0.0
 11
69.485509
 21
196.467594
 31
0.0
  0
LINE
  5
186
100
AcDbEntity
  8
レイヤー_2
 62
     7
100
AcDbLine
 10
69.485509
 20
196.467594
 30
0.0
 11
69.493433
 21
196.47414
 31
0.0
  0
LINE
  5
185
100
AcDbEntity
  8
レイヤー_2
 62
     7
100
AcDbLine
 10
69.493433
 20
196.47414
 30
0.0
 11
69.4955
 21
196.482753
 31
0.0
  0
LINE
  5
184
100
AcDbEntity
  8
レイヤー_2
 62
     7
100
AcDbLine
 10
69.427976
 20
196.482753
 30
0.0
 11
69.427976
 21
196.721842
 31
0.0
  0
LINE
  5
183
100
AcDbEntity
  8
レイヤー_2
 62
     7
100
AcDbLine
 10
70.888352
 20
196.482753
 30
0.0
 11
70.888352
 21
196.721842
 31
0.0
  0
LINE
  5
182
100
AcDbEntity
  8
レイヤー_2
 62
     7
100
AcDbLine
 10
70.820828
 20
196.482753
 30
0.0
 11
70.822895
 21
196.47414
 31
0.0
  0
LINE
  5
181
100
AcDbEntity
  8
レイヤー_2
 62
     7
100
AcDbLine
 10
70.822895
 20
196.47414
 30
0.0
 11
70.830474
 21
196.467594
 31
0.0
  0
LINE
  5
180
100
AcDbEntity
  8
レイヤー_2
 62
     7
100
AcDbLine
 10
70.830474
 20
196.467594
 30
0.0
 11
70.841843
 21
196.462771
 31
0.0
  0
LINE
  5
17F
100
AcDbEntity
  8
レイヤー_2
 62
     7
100
AcDbLine
 10
70.841843
 20
196.462771
 30
0.0
 11
70.85459
 21
196.460704
 31
0.0
  0
LINE
  5
17E
100
AcDbEntity
  8
レイヤー_2
 62
     7
100
AcDbLine
 10
70.85459
 20
196.460704
 30
0.0
 11
70.867337
 21
196.462771
 31
0.0
  0
LINE
  5
17D
100
AcDbEntity
  8
レイヤー_2
 62
     7
100
AcDbLine
 10
70.867337
 20
196.462771
 30
0.0
 11
70.878706
 21
196.467594
 31
0.0
  0
LINE
  5
17C
100
AcDbEntity
  8
レイヤー_2
 62
     7
100
AcDbLine
 10
70.878706
 20
196.467594
 30
0.0
 11
70.88594
 21
196.47414
 31
0.0
  0
LINE
  5
17B
100
AcDbEntity
  8
レイヤー_2
 62
     7
100
AcDbLine
 10
70.88594
 20
196.47414
 30
0.0
 11
70.888352
 21
196.482753
 31
0.0
  0
LINE
  5
17A
100
AcDbEntity
  8
レイヤー_2
 62
     7
100
AcDbLine
 10
70.820828
 20
196.482753
 30
0.0
 11
70.820828
 21
196.721842
 31
0.0
  0
LINE
  5
179
100
AcDbEntity
  8
レイヤー_2
 62
     7
100
AcDbLine
 10
73.210346
 20
196.482753
 30
0.0
 11
73.210346
 21
196.721842
 31
0.0
  0
LINE
  5
178
100
AcDbEntity
  8
レイヤー_2
 62
     7
100
AcDbLine
 10
73.141444
 20
196.482753
 30
0.0
 11
73.144889
 21
196.47414
 31
0.0
  0
LINE
  5
177
100
AcDbEntity
  8
レイヤー_2
 62
     7
100
AcDbLine
 10
73.144889
 20
196.47414
 30
0.0
 11
73.152124
 21
196.467594
 31
0.0
  0
LINE
  5
176
100
AcDbEntity
  8
レイヤー_2
 62
     7
100
AcDbLine
 10
73.152124
 20
196.467594
 30
0.0
 11
73.162459
 21
196.462771
 31
0.0
  0
LINE
  5
175
100
AcDbEntity
  8
レイヤー_2
 62
     7
100
AcDbLine
 10
73.162459
 20
196.462771
 30
0.0
 11
73.17624
 21
196.460704
 31
0.0
  0
LINE
  5
174
100
AcDbEntity
  8
レイヤー_2
 62
     7
100
AcDbLine
 10
73.17624
 20
196.460704
 30
0.0
 11
73.189331
 21
196.462771
 31
0.0
  0
LINE
  5
173
100
AcDbEntity
  8
レイヤー_2
 62
     7
100
AcDbLine
 10
73.189331
 20
196.462771
 30
0.0
 11
73.199666
 21
196.467594
 31
0.0
  0
LINE
  5
172
100
AcDbEntity
  8
レイヤー_2
 62
     7
100
AcDbLine
 10
73.199666
 20
196.467594
 30
0.0
 11
73.207246
 21
196.47414
 31
0.0
  0
LINE
  5
171
100
AcDbEntity
  8
レイヤー_2
 62
     7
100
AcDbLine
 10
73.207246
 20
196.47414
 30
0.0
 11
73.210346
 21
196.482753
 31
0.0
  0
LINE
  5
170
100
AcDbEntity
  8
レイヤー_2
 62
     7
100
AcDbLine
 10
73.141444
 20
196.482753
 30
0.0
 11
73.141444
 21
196.721842
 31
0.0
  0
LINE
  5
16F
100
AcDbEntity
  8
レイヤー_2
 62
     7
100
AcDbLine
 10
72.745603
 20
196.482753
 30
0.0
 11
72.745603
 21
196.721842
 31
0.0
  0
LINE
  5
16E
100
AcDbEntity
  8
レイヤー_2
 62
     7
100
AcDbLine
 10
72.677045
 20
196.482753
 30
0.0
 11
72.68049
 21
196.47414
 31
0.0
  0
LINE
  5
16D
100
AcDbEntity
  8
レイヤー_2
 62
     7
100
AcDbLine
 10
72.68049
 20
196.47414
 30
0.0
 11
72.687725
 21
196.467594
 31
0.0
  0
LINE
  5
16C
100
AcDbEntity
  8
レイヤー_2
 62
     7
100
AcDbLine
 10
72.687725
 20
196.467594
 30
0.0
 11
72.69806
 21
196.462771
 31
0.0
  0
LINE
  5
16B
100
AcDbEntity
  8
レイヤー_2
 62
     7
100
AcDbLine
 10
72.69806
 20
196.462771
 30
0.0
 11
72.711841
 21
196.460704
 31
0.0
  0
LINE
  5
16A
100
AcDbEntity
  8
レイヤー_2
 62
     7
100
AcDbLine
 10
72.711841
 20
196.460704
 30
0.0
 11
72.724932
 21
196.462771
 31
0.0
  0
LINE
  5
169
100
AcDbEntity
  8
レイヤー_2
 62
     7
100
AcDbLine
 10
72.724932
 20
196.462771
 30
0.0
 11
72.735956
 21
196.467594
 31
0.0
  0
LINE
  5
168
100
AcDbEntity
  8
レイヤー_2
 62
     7
100
AcDbLine
 10
72.735956
 20
196.467594
 30
0.0
 11
72.742847
 21
196.47414
 31
0.0
  0
LINE
  5
167
100
AcDbEntity
  8
レイヤー_2
 62
     7
100
AcDbLine
 10
72.742847
 20
196.47414
 30
0.0
 11
72.745603
 21
196.482753
 31
0.0
  0
LINE
  5
166
100
AcDbEntity
  8
レイヤー_2
 62
     7
100
AcDbLine
 10
72.677045
 20
196.482753
 30
0.0
 11
72.677045
 21
196.721842
 31
0.0
  0
LINE
  5
165
100
AcDbEntity
  8
レイヤー_2
 62
     7
100
AcDbLine
 10
67.638938
 20
196.482753
 30
0.0
 11
67.638938
 21
196.721842
 31
0.0
  0
LINE
  5
164
100
AcDbEntity
  8
レイヤー_2
 62
     7
100
AcDbLine
 10
67.570036
 20
196.482753
 30
0.0
 11
67.572792
 21
196.47414
 31
0.0
  0
LINE
  5
163
100
AcDbEntity
  8
レイヤー_2
 62
     7
100
AcDbLine
 10
67.572792
 20
196.47414
 30
0.0
 11
67.580371
 21
196.467594
 31
0.0
  0
LINE
  5
162
100
AcDbEntity
  8
レイヤー_2
 62
     7
100
AcDbLine
 10
67.580371
 20
196.467594
 30
0.0
 11
67.591051
 21
196.462771
 31
0.0
  0
LINE
  5
161
100
AcDbEntity
  8
レイヤー_2
 62
     7
100
AcDbLine
 10
67.591051
 20
196.462771
 30
0.0
 11
67.604142
 21
196.460704
 31
0.0
  0
LINE
  5
160
100
AcDbEntity
  8
レイヤー_2
 62
     7
100
AcDbLine
 10
67.604142
 20
196.460704
 30
0.0
 11
67.617578
 21
196.462771
 31
0.0
  0
LINE
  5
15F
100
AcDbEntity
  8
レイヤー_2
 62
     7
100
AcDbLine
 10
67.617578
 20
196.462771
 30
0.0
 11
67.628602
 21
196.467594
 31
0.0
  0
LINE
  5
15E
100
AcDbEntity
  8
レイヤー_2
 62
     7
100
AcDbLine
 10
67.628602
 20
196.467594
 30
0.0
 11
67.635493
 21
196.47414
 31
0.0
  0
LINE
  5
15D
100
AcDbEntity
  8
レイヤー_2
 62
     7
100
AcDbLine
 10
67.635493
 20
196.47414
 30
0.0
 11
67.638938
 21
196.482753
 31
0.0
  0
LINE
  5
15C
100
AcDbEntity
  8
レイヤー_2
 62
     7
100
AcDbLine
 10
67.570036
 20
196.482753
 30
0.0
 11
67.570036
 21
196.721842
 31
0.0
  0
LINE
  5
15B
100
AcDbEntity
  8
レイヤー_2
 62
     7
100
AcDbLine
 10
71.816805
 20
196.482753
 30
0.0
 11
71.816805
 21
196.721842
 31
0.0
  0
LINE
  5
15A
100
AcDbEntity
  8
レイヤー_2
 62
     7
100
AcDbLine
 10
71.748592
 20
196.482753
 30
0.0
 11
71.751004
 21
196.47414
 31
0.0
  0
LINE
  5
159
100
AcDbEntity
  8
レイヤー_2
 62
     7
100
AcDbLine
 10
71.751004
 20
196.47414
 30
0.0
 11
71.758927
 21
196.467594
 31
0.0
  0
LINE
  5
158
100
AcDbEntity
  8
レイヤー_2
 62
     7
100
AcDbLine
 10
71.758927
 20
196.467594
 30
0.0
 11
71.769607
 21
196.462771
 31
0.0
  0
LINE
  5
157
100
AcDbEntity
  8
レイヤー_2
 62
     7
100
AcDbLine
 10
71.769607
 20
196.462771
 30
0.0
 11
71.783043
 21
196.460704
 31
0.0
  0
LINE
  5
156
100
AcDbEntity
  8
レイヤー_2
 62
     7
100
AcDbLine
 10
71.783043
 20
196.460704
 30
0.0
 11
71.796479
 21
196.462771
 31
0.0
  0
LINE
  5
155
100
AcDbEntity
  8
レイヤー_2
 62
     7
100
AcDbLine
 10
71.796479
 20
196.462771
 30
0.0
 11
71.807503
 21
196.467594
 31
0.0
  0
LINE
  5
154
100
AcDbEntity
  8
レイヤー_2
 62
     7
100
AcDbLine
 10
71.807503
 20
196.467594
 30
0.0
 11
71.814049
 21
196.47414
 31
0.0
  0
LINE
  5
153
100
AcDbEntity
  8
レイヤー_2
 62
     7
100
AcDbLine
 10
71.814049
 20
196.47414
 30
0.0
 11
71.816805
 21
196.482753
 31
0.0
  0
LINE
  5
152
100
AcDbEntity
  8
レイヤー_2
 62
     7
100
AcDbLine
 10
71.748592
 20
196.482753
 30
0.0
 11
71.748592
 21
196.721842
 31
0.0
  0
LINE
  5
151
100
AcDbEntity
  8
レイヤー_2
 62
     7
100
AcDbLine
 10
69.03179
 20
196.482753
 30
0.0
 11
69.03179
 21
196.721842
 31
0.0
  0
LINE
  5
150
100
AcDbEntity
  8
レイヤー_2
 62
     7
100
AcDbLine
 10
68.963577
 20
196.482753
 30
0.0
 11
68.965988
 21
196.47414
 31
0.0
  0
LINE
  5
14F
100
AcDbEntity
  8
レイヤー_2
 62
     7
100
AcDbLine
 10
68.965988
 20
196.47414
 30
0.0
 11
68.972879
 21
196.467594
 31
0.0
  0
LINE
  5
14E
100
AcDbEntity
  8
レイヤー_2
 62
     7
100
AcDbLine
 10
68.972879
 20
196.467594
 30
0.0
 11
68.983903
 21
196.462771
 31
0.0
  0
LINE
  5
14D
100
AcDbEntity
  8
レイヤー_2
 62
     7
100
AcDbLine
 10
68.983903
 20
196.462771
 30
0.0
 11
68.997339
 21
196.460704
 31
0.0
  0
LINE
  5
14C
100
AcDbEntity
  8
レイヤー_2
 62
     7
100
AcDbLine
 10
68.997339
 20
196.460704
 30
0.0
 11
69.01043
 21
196.462771
 31
0.0
  0
LINE
  5
14B
100
AcDbEntity
  8
レイヤー_2
 62
     7
100
AcDbLine
 10
69.01043
 20
196.462771
 30
0.0
 11
69.021455
 21
196.467594
 31
0.0
  0
LINE
  5
14A
100
AcDbEntity
  8
レイヤー_2
 62
     7
100
AcDbLine
 10
69.021455
 20
196.467594
 30
0.0
 11
69.028689
 21
196.47414
 31
0.0
  0
LINE
  5
149
100
AcDbEntity
  8
レイヤー_2
 62
     7
100
AcDbLine
 10
69.028689
 20
196.47414
 30
0.0
 11
69.03179
 21
196.482753
 31
0.0
  0
LINE
  5
148
100
AcDbEntity
  8
レイヤー_2
 62
     7
100
AcDbLine
 10
68.963577
 20
196.482753
 30
0.0
 11
68.963577
 21
196.721842
 31
0.0
  0
LINE
  5
147
100
AcDbEntity
  8
レイヤー_2
 62
     7
100
AcDbLine
 10
72.281548
 20
196.482753
 30
0.0
 11
72.281548
 21
196.721842
 31
0.0
  0
LINE
  5
146
100
AcDbEntity
  8
レイヤー_2
 62
     7
100
AcDbLine
 10
72.212991
 20
196.482753
 30
0.0
 11
72.216092
 21
196.47414
 31
0.0
  0
LINE
  5
145
100
AcDbEntity
  8
レイヤー_2
 62
     7
100
AcDbLine
 10
72.216092
 20
196.47414
 30
0.0
 11
72.223326
 21
196.467594
 31
0.0
  0
LINE
  5
144
100
AcDbEntity
  8
レイヤー_2
 62
     7
100
AcDbLine
 10
72.223326
 20
196.467594
 30
0.0
 11
72.234006
 21
196.462771
 31
0.0
  0
LINE
  5
143
100
AcDbEntity
  8
レイヤー_2
 62
     7
100
AcDbLine
 10
72.234006
 20
196.462771
 30
0.0
 11
72.247442
 21
196.460704
 31
0.0
  0
LINE
  5
142
100
AcDbEntity
  8
レイヤー_2
 62
     7
100
AcDbLine
 10
72.247442
 20
196.460704
 30
0.0
 11
72.260533
 21
196.462771
 31
0.0
  0
LINE
  5
141
100
AcDbEntity
  8
レイヤー_2
 62
     7
100
AcDbLine
 10
72.260533
 20
196.462771
 30
0.0
 11
72.271558
 21
196.467594
 31
0.0
  0
LINE
  5
140
100
AcDbEntity
  8
レイヤー_2
 62
     7
100
AcDbLine
 10
72.271558
 20
196.467594
 30
0.0
 11
72.278448
 21
196.47414
 31
0.0
  0
LINE
  5
13F
100
AcDbEntity
  8
レイヤー_2
 62
     7
100
AcDbLine
 10
72.278448
 20
196.47414
 30
0.0
 11
72.281548
 21
196.482753
 31
0.0
  0
LINE
  5
13E
100
AcDbEntity
  8
レイヤー_2
 62
     7
100
AcDbLine
 10
72.212991
 20
196.482753
 30
0.0
 11
72.212991
 21
196.721842
 31
0.0
  0
LINE
  5
13D
100
AcDbEntity
  8
レイヤー_2
 62
     7
100
AcDbLine
 10
70.423953
 20
196.482753
 30
0.0
 11
70.423953
 21
196.721842
 31
0.0
  0
LINE
  5
13C
100
AcDbEntity
  8
レイヤー_2
 62
     7
100
AcDbLine
 10
70.356429
 20
196.482753
 30
0.0
 11
70.358841
 21
196.47414
 31
0.0
  0
LINE
  5
13B
100
AcDbEntity
  8
レイヤー_2
 62
     7
100
AcDbLine
 10
70.358841
 20
196.47414
 30
0.0
 11
70.366075
 21
196.467594
 31
0.0
  0
LINE
  5
13A
100
AcDbEntity
  8
レイヤー_2
 62
     7
100
AcDbLine
 10
70.366075
 20
196.467594
 30
0.0
 11
70.3771
 21
196.462771
 31
0.0
  0
LINE
  5
139
100
AcDbEntity
  8
レイヤー_2
 62
     7
100
AcDbLine
 10
70.3771
 20
196.462771
 30
0.0
 11
70.390191
 21
196.460704
 31
0.0
  0
LINE
  5
138
100
AcDbEntity
  8
レイヤー_2
 62
     7
100
AcDbLine
 10
70.390191
 20
196.460704
 30
0.0
 11
70.402938
 21
196.462771
 31
0.0
  0
LINE
  5
137
100
AcDbEntity
  8
レイヤー_2
 62
     7
100
AcDbLine
 10
70.402938
 20
196.462771
 30
0.0
 11
70.414651
 21
196.467594
 31
0.0
  0
LINE
  5
136
100
AcDbEntity
  8
レイヤー_2
 62
     7
100
AcDbLine
 10
70.414651
 20
196.467594
 30
0.0
 11
70.421541
 21
196.47414
 31
0.0
  0
LINE
  5
135
100
AcDbEntity
  8
レイヤー_2
 62
     7
100
AcDbLine
 10
70.421541
 20
196.47414
 30
0.0
 11
70.423953
 21
196.482753
 31
0.0
  0
LINE
  5
134
100
AcDbEntity
  8
レイヤー_2
 62
     7
100
AcDbLine
 10
70.356429
 20
196.482753
 30
0.0
 11
70.356429
 21
196.721842
 31
0.0
  0
LINE
  5
133
100
AcDbEntity
  8
レイヤー_2
 62
     7
100
AcDbLine
 10
71.352751
 20
196.482753
 30
0.0
 11
71.352751
 21
196.721842
 31
0.0
  0
LINE
  5
132
100
AcDbEntity
  8
レイヤー_2
 62
     7
100
AcDbLine
 10
71.284538
 20
196.482753
 30
0.0
 11
71.286605
 21
196.47414
 31
0.0
  0
LINE
  5
131
100
AcDbEntity
  8
レイヤー_2
 62
     7
100
AcDbLine
 10
71.286605
 20
196.47414
 30
0.0
 11
71.294873
 21
196.467594
 31
0.0
  0
LINE
  5
130
100
AcDbEntity
  8
レイヤー_2
 62
     7
100
AcDbLine
 10
71.294873
 20
196.467594
 30
0.0
 11
71.305897
 21
196.462771
 31
0.0
  0
LINE
  5
12F
100
AcDbEntity
  8
レイヤー_2
 62
     7
100
AcDbLine
 10
71.305897
 20
196.462771
 30
0.0
 11
71.318644
 21
196.460704
 31
0.0
  0
LINE
  5
12E
100
AcDbEntity
  8
レイヤー_2
 62
     7
100
AcDbLine
 10
71.318644
 20
196.460704
 30
0.0
 11
71.331736
 21
196.462771
 31
0.0
  0
LINE
  5
12D
100
AcDbEntity
  8
レイヤー_2
 62
     7
100
AcDbLine
 10
71.331736
 20
196.462771
 30
0.0
 11
71.343104
 21
196.467594
 31
0.0
  0
LINE
  5
12C
100
AcDbEntity
  8
レイヤー_2
 62
     7
100
AcDbLine
 10
71.343104
 20
196.467594
 30
0.0
 11
71.350339
 21
196.47414
 31
0.0
  0
LINE
  5
12B
100
AcDbEntity
  8
レイヤー_2
 62
     7
100
AcDbLine
 10
71.350339
 20
196.47414
 30
0.0
 11
71.352751
 21
196.482753
 31
0.0
  0
LINE
  5
12A
100
AcDbEntity
  8
レイヤー_2
 62
     7
100
AcDbLine
 10
71.284538
 20
196.482753
 30
0.0
 11
71.284538
 21
196.721842
 31
0.0
  0
LINE
  5
129
100
AcDbEntity
  8
レイヤー_2
 62
     7
100
AcDbLine
 10
68.103337
 20
196.482753
 30
0.0
 11
68.103337
 21
196.721842
 31
0.0
  0
LINE
  5
128
100
AcDbEntity
  8
レイヤー_2
 62
     7
100
AcDbLine
 10
68.034435
 20
196.482753
 30
0.0
 11
68.037535
 21
196.47414
 31
0.0
  0
LINE
  5
127
100
AcDbEntity
  8
レイヤー_2
 62
     7
100
AcDbLine
 10
68.037535
 20
196.47414
 30
0.0
 11
68.044425
 21
196.467594
 31
0.0
  0
LINE
  5
126
100
AcDbEntity
  8
レイヤー_2
 62
     7
100
AcDbLine
 10
68.044425
 20
196.467594
 30
0.0
 11
68.05545
 21
196.462771
 31
0.0
  0
LINE
  5
125
100
AcDbEntity
  8
レイヤー_2
 62
     7
100
AcDbLine
 10
68.05545
 20
196.462771
 30
0.0
 11
68.068541
 21
196.460704
 31
0.0
  0
LINE
  5
124
100
AcDbEntity
  8
レイヤー_2
 62
     7
100
AcDbLine
 10
68.068541
 20
196.460704
 30
0.0
 11
68.081977
 21
196.462771
 31
0.0
  0
LINE
  5
123
100
AcDbEntity
  8
レイヤー_2
 62
     7
100
AcDbLine
 10
68.081977
 20
196.462771
 30
0.0
 11
68.093001
 21
196.467594
 31
0.0
  0
LINE
  5
122
100
AcDbEntity
  8
レイヤー_2
 62
     7
100
AcDbLine
 10
68.093001
 20
196.467594
 30
0.0
 11
68.099891
 21
196.47414
 31
0.0
  0
LINE
  5
121
100
AcDbEntity
  8
レイヤー_2
 62
     7
100
AcDbLine
 10
68.099891
 20
196.47414
 30
0.0
 11
68.103337
 21
196.482753
 31
0.0
  0
LINE
  5
120
100
AcDbEntity
  8
レイヤー_2
 62
     7
100
AcDbLine
 10
68.034435
 20
196.482753
 30
0.0
 11
68.034435
 21
196.721842
 31
0.0
  0
LINE
  5
11F
100
AcDbEntity
  8
レイヤー_2
 62
     7
100
AcDbLine
 10
68.567391
 20
196.482753
 30
0.0
 11
68.567391
 21
196.721842
 31
0.0
  0
LINE
  5
11E
100
AcDbEntity
  8
レイヤー_2
 62
     7
100
AcDbLine
 10
68.498834
 20
196.482753
 30
0.0
 11
68.50159
 21
196.47414
 31
0.0
  0
LINE
  5
11D
100
AcDbEntity
  8
レイヤー_2
 62
     7
100
AcDbLine
 10
68.50159
 20
196.47414
 30
0.0
 11
68.508824
 21
196.467594
 31
0.0
  0
LINE
  5
11C
100
AcDbEntity
  8
レイヤー_2
 62
     7
100
AcDbLine
 10
68.508824
 20
196.467594
 30
0.0
 11
68.519849
 21
196.462771
 31
0.0
  0
LINE
  5
11B
100
AcDbEntity
  8
レイヤー_2
 62
     7
100
AcDbLine
 10
68.519849
 20
196.462771
 30
0.0
 11
68.53294
 21
196.460704
 31
0.0
  0
LINE
  5
11A
100
AcDbEntity
  8
レイヤー_2
 62
     7
100
AcDbLine
 10
68.53294
 20
196.460704
 30
0.0
 11
68.546031
 21
196.462771
 31
0.0
  0
LINE
  5
119
100
AcDbEntity
  8
レイヤー_2
 62
     7
100
AcDbLine
 10
68.546031
 20
196.462771
 30
0.0
 11
68.556711
 21
196.467594
 31
0.0
  0
LINE
  5
118
100
AcDbEntity
  8
レイヤー_2
 62
     7
100
AcDbLine
 10
68.556711
 20
196.467594
 30
0.0
 11
68.564635
 21
196.47414
 31
0.0
  0
LINE
  5
117
100
AcDbEntity
  8
レイヤー_2
 62
     7
100
AcDbLine
 10
68.564635
 20
196.47414
 30
0.0
 11
68.567391
 21
196.482753
 31
0.0
  0
LINE
  5
116
100
AcDbEntity
  8
レイヤー_2
 62
     7
100
AcDbLine
 10
68.498834
 20
196.482753
 30
0.0
 11
68.498834
 21
196.721842
 31
0.0
  0
LINE
  5
115
100
AcDbEntity
  8
レイヤー_2
 62
     7
100
AcDbLine
 10
67.140088
 20
196.308431
 30
0.0
 11
67.140088
 21
196.460704
 31
0.0
  0
LINE
  5
114
100
AcDbEntity
  8
レイヤー_2
 62
     7
100
AcDbLine
 10
67.105981
 20
196.330135
 30
0.0
 11
67.105981
 21
196.721842
 31
0.0
  0
LINE
  5
113
100
AcDbEntity
  8
レイヤー_2
 62
     7
100
AcDbLine
 10
67.173505
 20
196.482753
 30
0.0
 11
67.173505
 21
196.721842
 31
0.0
  0
LINE
  5
112
100
AcDbEntity
  8
レイヤー_2
 62
     7
100
AcDbLine
 10
67.173505
 20
196.482753
 30
0.0
 11
67.173505
 21
196.478619
 31
0.0
  0
LINE
  5
111
100
AcDbEntity
  8
レイヤー_2
 62
     7
100
AcDbLine
 10
67.173505
 20
196.478619
 30
0.0
 11
67.171438
 21
196.47414
 31
0.0
  0
LINE
  5
110
100
AcDbEntity
  8
レイヤー_2
 62
     7
100
AcDbLine
 10
67.171438
 20
196.47414
 30
0.0
 11
67.168682
 21
196.471384
 31
0.0
  0
LINE
  5
10F
100
AcDbEntity
  8
レイヤー_2
 62
     7
100
AcDbLine
 10
67.168682
 20
196.471384
 30
0.0
 11
67.164204
 21
196.467594
 31
0.0
  0
LINE
  5
10E
100
AcDbEntity
  8
レイヤー_2
 62
     7
100
AcDbLine
 10
67.164204
 20
196.467594
 30
0.0
 11
67.15938
 21
196.464494
 31
0.0
  0
LINE
  5
10D
100
AcDbEntity
  8
レイヤー_2
 62
     7
100
AcDbLine
 10
67.15938
 20
196.464494
 30
0.0
 11
67.153179
 21
196.462771
 31
0.0
  0
LINE
  5
10C
100
AcDbEntity
  8
レイヤー_2
 62
     7
100
AcDbLine
 10
67.153179
 20
196.462771
 30
0.0
 11
67.146978
 21
196.461393
 31
0.0
  0
LINE
  5
10B
100
AcDbEntity
  8
レイヤー_2
 62
     7
100
AcDbLine
 10
67.146978
 20
196.461393
 30
0.0
 11
67.140088
 21
196.460704
 31
0.0
  0
LINE
  5
10A
100
AcDbEntity
  8
レイヤー_2
 62
     7
100
AcDbLine
 10
69.959554
 20
196.482753
 30
0.0
 11
69.959554
 21
196.721842
 31
0.0
  0
LINE
  5
109
100
AcDbEntity
  8
レイヤー_2
 62
     7
100
AcDbLine
 10
69.892375
 20
196.482753
 30
0.0
 11
69.894442
 21
196.47414
 31
0.0
  0
LINE
  5
108
100
AcDbEntity
  8
レイヤー_2
 62
     7
100
AcDbLine
 10
69.894442
 20
196.47414
 30
0.0
 11
69.901676
 21
196.467594
 31
0.0
  0
LINE
  5
107
100
AcDbEntity
  8
レイヤー_2
 62
     7
100
AcDbLine
 10
69.901676
 20
196.467594
 30
0.0
 11
69.913045
 21
196.462771
 31
0.0
  0
LINE
  5
106
100
AcDbEntity
  8
レイヤー_2
 62
     7
100
AcDbLine
 10
69.913045
 20
196.462771
 30
0.0
 11
69.925792
 21
196.460704
 31
0.0
  0
LINE
  5
105
100
AcDbEntity
  8
レイヤー_2
 62
     7
100
AcDbLine
 10
69.925792
 20
196.460704
 30
0.0
 11
69.938539
 21
196.462771
 31
0.0
  0
LINE
  5
104
100
AcDbEntity
  8
レイヤー_2
 62
     7
100
AcDbLine
 10
69.938539
 20
196.462771
 30
0.0
 11
69.949908
 21
196.467594
 31
0.0
  0
LINE
  5
103
100
AcDbEntity
  8
レイヤー_2
 62
     7
100
AcDbLine
 10
69.949908
 20
196.467594
 30
0.0
 11
69.957831
 21
196.47414
 31
0.0
  0
LINE
  5
102
100
AcDbEntity
  8
レイヤー_2
 62
     7
100
AcDbLine
 10
69.957831
 20
196.47414
 30
0.0
 11
69.959554
 21
196.482753
 31
0.0
  0
LINE
  5
101
100
AcDbEntity
  8
レイヤー_2
 62
     7
100
AcDbLine
 10
69.892375
 20
196.482753
 30
0.0
 11
69.892375
 21
196.721842
 31
0.0
  0
LINE
  5
100
100
AcDbEntity
  8
レイヤー_2
 62
     7
100
AcDbLine
 10
67.102881
 20
196.582316
 30
0.0
 11
67.102881
 21
196.721842
 31
0.0
  0
LINE
  5
FF
100
AcDbEntity
  8
レイヤー_2
 62
     7
100
AcDbLine
 10
73.605843
 20
196.482753
 30
0.0
 11
73.602743
 21
196.721842
 31
0.0
  0
LINE
  5
FE
100
AcDbEntity
  8
レイヤー_2
 62
     7
100
AcDbLine
 10
70.352984
 20
196.721842
 30
0.0
 11
70.356429
 21
196.482753
 31
0.0
  0
LINE
  5
FD
100
AcDbEntity
  8
レイヤー_2
 62
     7
100
AcDbLine
 10
73.138688
 20
196.721842
 30
0.0
 11
73.141444
 21
196.482753
 31
0.0
  0
LINE
  5
FC
100
AcDbEntity
  8
レイヤー_2
 62
     7
100
AcDbLine
 10
71.745492
 20
196.721842
 30
0.0
 11
71.748592
 21
196.482753
 31
0.0
  0
LINE
  5
FB
100
AcDbEntity
  8
レイヤー_2
 62
     7
100
AcDbLine
 10
72.674289
 20
196.721842
 30
0.0
 11
72.677045
 21
196.482753
 31
0.0
  0
LINE
  5
FA
100
AcDbEntity
  8
レイヤー_2
 62
     7
100
AcDbLine
 10
70.816694
 20
196.721842
 30
0.0
 11
70.820828
 21
196.482753
 31
0.0
  0
LINE
  5
F9
100
AcDbEntity
  8
レイヤー_2
 62
     7
100
AcDbLine
 10
68.960132
 20
196.721842
 30
0.0
 11
68.963577
 21
196.482753
 31
0.0
  0
LINE
  5
F8
100
AcDbEntity
  8
レイヤー_2
 62
     7
100
AcDbLine
 10
69.888585
 20
196.721842
 30
0.0
 11
69.892375
 21
196.482753
 31
0.0
  0
LINE
  5
F7
100
AcDbEntity
  8
レイヤー_2
 62
     7
100
AcDbLine
 10
68.031679
 20
196.721842
 30
0.0
 11
68.034435
 21
196.482753
 31
0.0
  0
LINE
  5
F6
100
AcDbEntity
  8
レイヤー_2
 62
     7
100
AcDbLine
 10
69.424186
 20
196.721842
 30
0.0
 11
69.427976
 21
196.482753
 31
0.0
  0
LINE
  5
F5
100
AcDbEntity
  8
レイヤー_2
 62
     7
100
AcDbLine
 10
67.56728
 20
196.721842
 30
0.0
 11
67.570036
 21
196.482753
 31
0.0
  0
LINE
  5
F4
100
AcDbEntity
  8
レイヤー_2
 62
     7
100
AcDbLine
 10
72.20989
 20
196.721842
 30
0.0
 11
72.212991
 21
196.482753
 31
0.0
  0
LINE
  5
F3
100
AcDbEntity
  8
レイヤー_2
 62
     7
100
AcDbLine
 10
68.495733
 20
196.721842
 30
0.0
 11
68.498834
 21
196.482753
 31
0.0
  0
LINE
  5
F2
100
AcDbEntity
  8
レイヤー_2
 62
     7
100
AcDbLine
 10
71.281093
 20
196.721842
 30
0.0
 11
71.284538
 21
196.482753
 31
0.0
  0
LINE
  5
F1
100
AcDbEntity
  8
レイヤー_2
 62
     7
100
AcDbLine
 10
70.423953
 20
196.482753
 30
0.0
 11
70.427398
 21
196.721842
 31
0.0
  0
LINE
  5
F0
100
AcDbEntity
  8
レイヤー_2
 62
     7
100
AcDbLine
 10
73.677846
 20
196.582316
 30
0.0
 11
73.677846
 21
196.721842
 31
0.0
  0
LINE
  5
EF
100
AcDbEntity
  8
レイヤー_2
 62
     7
100
AcDbLine
 10
73.210346
 20
196.482753
 30
0.0
 11
73.212758
 21
196.721842
 31
0.0
  0
LINE
  5
EE
100
AcDbEntity
  8
レイヤー_2
 62
     7
100
AcDbLine
 10
71.816805
 20
196.482753
 30
0.0
 11
71.820595
 21
196.721842
 31
0.0
  0
LINE
  5
ED
100
AcDbEntity
  8
レイヤー_2
 62
     7
100
AcDbLine
 10
67.638938
 20
196.482753
 30
0.0
 11
67.641694
 21
196.721842
 31
0.0
  0
LINE
  5
EC
100
AcDbEntity
  8
レイヤー_2
 62
     7
100
AcDbLine
 10
71.352751
 20
196.482753
 30
0.0
 11
71.356196
 21
196.721842
 31
0.0
  0
LINE
  5
EB
100
AcDbEntity
  8
レイヤー_2
 62
     7
100
AcDbLine
 10
69.959554
 20
196.482753
 30
0.0
 11
69.963344
 21
196.721842
 31
0.0
  0
LINE
  5
EA
100
AcDbEntity
  8
レイヤー_2
 62
     7
100
AcDbLine
 10
67.177295
 20
196.721842
 30
0.0
 11
67.173505
 21
196.482753
 31
0.0
  0
LINE
  5
E9
100
AcDbEntity
  8
レイヤー_2
 62
     7
100
AcDbLine
 10
69.4955
 20
196.482753
 30
0.0
 11
69.498945
 21
196.721842
 31
0.0
  0
LINE
  5
E8
100
AcDbEntity
  8
レイヤー_2
 62
     7
100
AcDbLine
 10
69.03179
 20
196.482753
 30
0.0
 11
69.034546
 21
196.721842
 31
0.0
  0
LINE
  5
E7
100
AcDbEntity
  8
レイヤー_2
 62
     7
100
AcDbLine
 10
70.888352
 20
196.482753
 30
0.0
 11
70.891797
 21
196.721842
 31
0.0
  0
LINE
  5
E6
100
AcDbEntity
  8
レイヤー_2
 62
     7
100
AcDbLine
 10
68.103337
 20
196.482753
 30
0.0
 11
68.105748
 21
196.721842
 31
0.0
  0
LINE
  5
E5
100
AcDbEntity
  8
レイヤー_2
 62
     7
100
AcDbLine
 10
72.281548
 20
196.482753
 30
0.0
 11
72.284649
 21
196.721842
 31
0.0
  0
LINE
  5
E4
100
AcDbEntity
  8
レイヤー_2
 62
     7
100
AcDbLine
 10
72.745603
 20
196.482753
 30
0.0
 11
72.749048
 21
196.721842
 31
0.0
  0
LINE
  5
E3
100
AcDbEntity
  8
レイヤー_2
 62
     7
100
AcDbLine
 10
68.567391
 20
196.482753
 30
0.0
 11
68.570147
 21
196.721842
 31
0.0
  0
LINE
  5
E2
100
AcDbEntity
  8
レイヤー_2
 62
     7
100
AcDbLine
 10
73.63995
 20
196.460704
 30
0.0
 11
73.589996
 21
196.460704
 31
0.0
  0
LINE
  5
E1
100
AcDbEntity
  8
レイヤー_2
 62
     7
100
AcDbLine
 10
73.589996
 20
196.460704
 30
0.0
 11
73.589996
 21
196.412473
 31
0.0
  0
LINE
  5
E0
100
AcDbEntity
  8
レイヤー_2
 62
     7
100
AcDbLine
 10
67.190042
 20
196.412473
 30
0.0
 11
67.190042
 21
196.460704
 31
0.0
  0
LINE
  5
DF
100
AcDbEntity
  8
レイヤー_2
 62
     7
100
AcDbLine
 10
67.140088
 20
196.460704
 30
0.0
 11
67.190042
 21
196.460704
 31
0.0
  0
LINE
  5
DE
100
AcDbEntity
  8
レイヤー_2
 62
     7
100
AcDbLine
 10
67.140088
 20
196.308431
 30
0.0
 11
67.190042
 21
196.308431
 31
0.0
  0
LINE
  5
DD
100
AcDbEntity
  8
レイヤー_2
 62
     7
100
AcDbLine
 10
73.63995
 20
196.308431
 30
0.0
 11
73.589996
 21
196.308431
 31
0.0
  0
LINE
  5
DC
100
AcDbEntity
  8
レイヤー_2
 62
     7
100
AcDbLine
 10
68.514681
 20
196.298096
 30
0.0
 11
68.514681
 21
196.13342
 31
0.0
  0
LINE
  5
DB
100
AcDbEntity
  8
レイヤー_2
 62
     7
100
AcDbLine
 10
68.514681
 20
196.13342
 30
0.0
 11
68.502623
 21
196.116195
 31
0.0
  0
LINE
  5
DA
100
AcDbEntity
  8
レイヤー_2
 62
     7
100
AcDbLine
 10
70.765362
 20
196.298096
 30
0.0
 11
70.765362
 21
196.13342
 31
0.0
  0
LINE
  5
D9
100
AcDbEntity
  8
レイヤー_2
 62
     7
100
AcDbLine
 10
70.765362
 20
196.13342
 30
0.0
 11
70.75296
 21
196.116195
 31
0.0
  0
LINE
  5
D8
100
AcDbEntity
  8
レイヤー_2
 62
     7
100
AcDbLine
 10
70.027422
 20
196.116195
 30
0.0
 11
70.014676
 21
196.13342
 31
0.0
  0
LINE
  5
D7
100
AcDbEntity
  8
レイヤー_2
 62
     7
100
AcDbLine
 10
70.014676
 20
196.13342
 30
0.0
 11
70.014676
 21
196.298096
 31
0.0
  0
LINE
  5
D6
100
AcDbEntity
  8
レイヤー_2
 62
     7
100
AcDbLine
 10
67.340592
 20
196.13342
 30
0.0
 11
67.327846
 21
196.116195
 31
0.0
  0
LINE
  5
D5
100
AcDbEntity
  8
レイヤー_2
 62
     7
100
AcDbLine
 10
67.340592
 20
196.298096
 30
0.0
 11
67.340592
 21
196.13342
 31
0.0
  0
LINE
  5
D4
100
AcDbEntity
  8
レイヤー_2
 62
     7
100
AcDbLine
 10
72.277759
 20
196.116195
 30
0.0
 11
72.265012
 21
196.13342
 31
0.0
  0
LINE
  5
D3
100
AcDbEntity
  8
レイヤー_2
 62
     7
100
AcDbLine
 10
72.265012
 20
196.13342
 30
0.0
 11
72.265012
 21
196.298096
 31
0.0
  0
LINE
  5
D2
100
AcDbEntity
  8
レイヤー_2
 62
     7
100
AcDbLine
 10
73.452881
 20
196.116195
 30
0.0
 11
73.439789
 21
196.13342
 31
0.0
  0
LINE
  5
D1
100
AcDbEntity
  8
レイヤー_2
 62
     7
100
AcDbLine
 10
73.439789
 20
196.13342
 30
0.0
 11
73.439789
 21
196.298096
 31
0.0
  0
LINE
  5
D0
100
AcDbEntity
  8
レイヤー_2
 62
     7
100
AcDbLine
 10
68.377911
 20
196.116195
 30
0.0
 11
68.365164
 21
196.13342
 31
0.0
  0
LINE
  5
CF
100
AcDbEntity
  8
レイヤー_2
 62
     7
100
AcDbLine
 10
68.365164
 20
196.13342
 30
0.0
 11
68.365164
 21
196.298096
 31
0.0
  0
LINE
  5
CE
100
AcDbEntity
  8
レイヤー_2
 62
     7
100
AcDbLine
 10
72.414874
 20
196.298096
 30
0.0
 11
72.414874
 21
196.13342
 31
0.0
  0
LINE
  5
CD
100
AcDbEntity
  8
レイヤー_2
 62
     7
100
AcDbLine
 10
72.414874
 20
196.13342
 30
0.0
 11
72.402127
 21
196.116195
 31
0.0
  0
LINE
  5
CC
100
AcDbEntity
  8
レイヤー_2
 62
     7
100
AcDbLine
 10
70.627558
 20
196.116195
 30
0.0
 11
70.614811
 21
196.13342
 31
0.0
  0
LINE
  5
CB
100
AcDbEntity
  8
レイヤー_2
 62
     7
100
AcDbLine
 10
70.614811
 20
196.13342
 30
0.0
 11
70.614811
 21
196.298096
 31
0.0
  0
LINE
  5
CA
100
AcDbEntity
  8
レイヤー_2
 62
     7
100
AcDbLine
 10
70.165226
 20
196.298096
 30
0.0
 11
70.165226
 21
196.13342
 31
0.0
  0
LINE
  5
C9
100
AcDbEntity
  8
レイヤー_2
 62
     7
100
AcDbLine
 10
70.165226
 20
196.13342
 30
0.0
 11
70.152479
 21
196.116195
 31
0.0
  0
LINE
  5
C8
100
AcDbEntity
  8
レイヤー_2
 62
     7
100
AcDbLine
 10
73.63995
 20
196.144444
 30
0.0
 11
73.63995
 21
196.13342
 31
0.0
  0
LINE
  5
C7
100
AcDbEntity
  8
レイヤー_2
 62
     7
100
AcDbLine
 10
73.63995
 20
196.13342
 30
0.0
 11
73.628236
 21
196.116195
 31
0.0
  0
LINE
  5
C6
100
AcDbEntity
  8
レイヤー_2
 62
     7
100
AcDbLine
 10
67.15249
 20
196.116195
 30
0.0
 11
67.140088
 21
196.13342
 31
0.0
  0
LINE
  5
C5
100
AcDbEntity
  8
レイヤー_2
 62
     7
100
AcDbLine
 10
67.140088
 20
196.13342
 30
0.0
 11
67.140088
 21
196.144444
 31
0.0
  0
LINE
  5
C4
100
AcDbEntity
  8
レイヤー_2
 62
     7
100
AcDbLine
 10
65.836464
 20
198.155347
 30
0.0
 11
66.975068
 21
198.168783
 31
0.0
  0
LINE
  5
C3
100
AcDbEntity
  8
レイヤー_2
 62
     7
100
AcDbLine
 10
66.975068
 20
198.168783
 30
0.0
 11
68.113327
 21
198.179118
 31
0.0
  0
LINE
  5
C2
100
AcDbEntity
  8
レイヤー_2
 62
     7
100
AcDbLine
 10
68.113327
 20
198.179118
 30
0.0
 11
69.251931
 21
198.184975
 31
0.0
  0
LINE
  5
C1
100
AcDbEntity
  8
レイヤー_2
 62
     7
100
AcDbLine
 10
69.251931
 20
198.184975
 30
0.0
 11
70.390191
 21
198.186697
 31
0.0
  0
LINE
  5
C0
100
AcDbEntity
  8
レイヤー_2
 62
     7
100
AcDbLine
 10
70.390191
 20
198.186697
 30
0.0
 11
71.528451
 21
198.184975
 31
0.0
  0
LINE
  5
BF
100
AcDbEntity
  8
レイヤー_2
 62
     7
100
AcDbLine
 10
71.528451
 20
198.184975
 30
0.0
 11
72.66671
 21
198.179118
 31
0.0
  0
LINE
  5
BE
100
AcDbEntity
  8
レイヤー_2
 62
     7
100
AcDbLine
 10
72.66671
 20
198.179118
 30
0.0
 11
73.805659
 21
198.168783
 31
0.0
  0
LINE
  5
BD
100
AcDbEntity
  8
レイヤー_2
 62
     7
100
AcDbLine
 10
73.805659
 20
198.168783
 30
0.0
 11
74.943574
 21
198.155347
 31
0.0
  0
SPLINE
  5
BC
100
AcDbEntity
  8
レイヤー_2
 62
     7
100
AcDbSpline
210
0.0
220
0.0
230
1.0
 70
     8
 71
     3
 72
     8
 73
     4
 74
     0
 42
0.00000001
 43
0.00000001
 40
0.0
 40
0.0
 40
0.0
 40
0.0
 40
1.0
 40
1.0
 40
1.0
 40
1.0
 10
75.139944118923609
 20
198.00203993055553
 30
0.0
 10
75.125819227430554
 20
198.09746907552082
 30
0.0
 10
75.039347330729157
 20
198.16464843749998
 30
0.0
 10
74.943573676215266
 20
198.15534667968748
 30
0.0
  0
SPLINE
  5
BB
100
AcDbEntity
  8
レイヤー_2
 62
     7
100
AcDbSpline
210
0.0
220
0.0
230
1.0
 70
     8
 71
     3
 72
     8
 73
     4
 74
     0
 42
0.00000001
 43
0.00000001
 40
0.0
 40
0.0
 40
0.0
 40
0.0
 40
1.0
 40
1.0
 40
1.0
 40
1.0
 10
65.836463758680551
 20
198.15534667968748
 30
0.0
 10
65.74069010416666
 20
198.16464843749998
 30
0.0
 10
65.654218207465277
 20
198.0967800564236
 30
0.0
 10
65.640437825520834
 20
198.00203993055553
 30
0.0
  0
LINE
  5
BA
100
AcDbEntity
  8
レイヤー_2
 62
     7
100
AcDbLine
 10
66.390091
 20
196.874805
 30
0.0
 11
66.390091
 21
196.491021
 31
0.0
  0
SPLINE
  5
B9
100
AcDbEntity
  8
レイヤー_2
 62
     7
100
AcDbSpline
210
0.0
220
0.0
230
1.0
 70
     8
 71
     3
 72
     8
 73
     4
 74
     0
 42
0.00000001
 43
0.00000001
 40
0.0
 40
0.0
 40
0.0
 40
0.0
 40
1.0
 40
1.0
 40
1.0
 40
1.0
 10
66.390090603298603
 20
196.4910210503472
 30
0.0
 10
66.444523111979166
 20
196.12894151475692
 30
0.0
 10
66.77697482638888
 20
195.87572699652776
 30
0.0
 10
67.140087890624997
 20
195.9170681423611
 30
0.0
  0
LINE
  5
B8
100
AcDbEntity
  8
レイヤー_2
 62
     7
100
AcDbLine
 10
67.140088
 20
195.917068
 30
0.0
 11
73.63995
 21
195.917068
 31
0.0
  0
SPLINE
  5
B7
100
AcDbEntity
  8
レイヤー_2
 62
     7
100
AcDbSpline
210
0.0
220
0.0
230
1.0
 70
     8
 71
     3
 72
     8
 73
     4
 74
     0
 42
0.00000001
 43
0.00000001
 40
0.0
 40
0.0
 40
0.0
 40
0.0
 40
1.0
 40
1.0
 40
1.0
 40
1.0
 10
73.63994954427082
 20
195.9170681423611
 30
0.0
 10
74.004440646701383
 20
195.87469346788194
 30
0.0
 10
74.335514322916666
 20
196.12997504340277
 30
0.0
 10
74.390291341145826
 20
196.4910210503472
 30
0.0
  0
LINE
  5
B6
100
AcDbEntity
  8
レイヤー_2
 62
     7
100
AcDbLine
 10
74.390291
 20
196.491021
 30
0.0
 11
74.390291
 21
196.874805
 31
0.0
  0
SPLINE
  5
B5
100
AcDbEntity
  8
レイヤー_2
 62
     7
100
AcDbSpline
210
0.0
220
0.0
230
1.0
 70
     8
 71
     3
 72
     8
 73
     4
 74
     0
 42
0.00000001
 43
0.00000001
 40
0.0
 40
0.0
 40
0.0
 40
0.0
 40
1.0
 40
1.0
 40
1.0
 40
1.0
 10
74.390291341145826
 20
196.87480468749999
 30
0.0
 10
74.335514322916666
 20
197.23791775173609
 30
0.0
 10
74.003407118055549
 20
197.49009874131943
 30
0.0
 10
73.63994954427082
 20
197.44910210503471
 30
0.0
  0
LINE
  5
B4
100
AcDbEntity
  8
レイヤー_2
 62
     7
100
AcDbLine
 10
73.63995
 20
197.449102
 30
0.0
 11
67.140088
 21
197.449102
 31
0.0
  0
SPLINE
  5
B3
100
AcDbEntity
  8
レイヤー_2
 62
     7
100
AcDbSpline
210
0.0
220
0.0
230
1.0
 70
     8
 71
     3
 72
     8
 73
     4
 74
     0
 42
0.00000001
 43
0.00000001
 40
0.0
 40
0.0
 40
0.0
 40
0.0
 40
1.0
 40
1.0
 40
1.0
 40
1.0
 10
67.140087890624997
 20
197.44910210503471
 30
0.0
 10
66.775596788194434
 20
197.49113226996525
 30
0.0
 10
66.444523111979166
 20
197.23585069444442
 30
0.0
 10
66.390090603298603
 20
196.87480468749999
 30
0.0
  0
LINE
  5
B2
100
AcDbEntity
  8
レイヤー_2
 62
     7
100
AcDbLine
 10
75.139944
 20
198.00204
 30
0.0
 11
75.139944
 21
195.621134
 31
0.0
  0
LINE
  5
B1
100
AcDbEntity
  8
レイヤー_2
 62
     7
100
AcDbLine
 10
65.640438
 20
195.621134
 30
0.0
 11
65.640438
 21
198.00204
 31
0.0
  0
LINE
  5
B0
100
AcDbEntity
  8
レイヤー_2
 62
     7
100
AcDbLine
 10
65.640438
 20
198.00204
 30
0.0
 11
65.640438
 21
201.086778
 31
0.0
  0
LINE
  5
AF
100
AcDbEntity
  8
レイヤー_2
 62
     7
100
AcDbLine
 10
75.139944
 20
201.086778
 30
0.0
 11
75.139944
 21
198.00204
 31
0.0
  0
SPLINE
  5
AE
100
AcDbEntity
  8
レイヤー_2
 62
     7
100
AcDbSpline
210
0.0
220
0.0
230
1.0
 70
     8
 71
     3
 72
     8
 73
     4
 74
     0
 42
0.00000001
 43
0.00000001
 40
0.0
 40
0.0
 40
0.0
 40
0.0
 40
1.0
 40
1.0
 40
1.0
 40
1.0
 10
74.9446072048611
 20
203.69816080729166
 30
0.0
 10
71.744458007812497
 20
203.75638292100692
 30
0.0
 10
68.556366644965266
 20
203.75397135416665
 30
0.0
 10
65.839564344618054
 20
203.69816080729166
 30
0.0
  0
SPLINE
  5
AD
100
AcDbEntity
  8
レイヤー_2
 62
     7
100
AcDbSpline
210
0.0
220
0.0
230
1.0
 70
     8
 71
     3
 72
     8
 73
     4
 74
     0
 42
0.00000001
 43
0.00000001
 40
0.0
 40
0.0
 40
0.0
 40
0.0
 40
1.0
 40
1.0
 40
1.0
 40
1.0
 10
75.139944118923609
 20
203.49765624999998
 30
0.0
 10
75.139944118923609
 20
203.6068657769097
 30
0.0
 10
75.052438693576377
 20
203.69574924045136
 30
0.0
 10
74.943573676215266
 20
203.69816080729166
 30
0.0
  0
LINE
  5
AC
100
AcDbEntity
  8
レイヤー_2
 62
     7
100
AcDbLine
 10
75.139944
 20
203.497656
 30
0.0
 11
75.139944
 21
201.086778
 31
0.0
  0
SPLINE
  5
AB
100
AcDbEntity
  8
レイヤー_2
 62
     7
100
AcDbSpline
210
0.0
220
0.0
230
1.0
 70
     8
 71
     3
 72
     8
 73
     4
 74
     0
 42
0.00000001
 43
0.00000001
 40
0.0
 40
0.0
 40
0.0
 40
0.0
 40
1.0
 40
1.0
 40
1.0
 40
1.0
 10
65.836463758680551
 20
203.69816080729166
 30
0.0
 10
65.727254231770829
 20
203.69574924045136
 30
0.0
 10
65.640437825520834
 20
203.6065212673611
 30
0.0
 10
65.640437825520834
 20
203.49765624999998
 30
0.0
  0
LINE
  5
AA
100
AcDbEntity
  8
レイヤー_2
 62
     7
100
AcDbLine
 10
65.640438
 20
201.086778
 30
0.0
 11
65.640438
 21
203.497656
 31
0.0
  0
LINE
  5
A9
100
AcDbEntity
  8
レイヤー_2
 62
     7
100
AcDbLine
 10
73.562435
 20
203.719176
 30
0.0
 11
76.165205
 21
203.719176
 31
0.0
  0
LINE
  5
A8
100
AcDbEntity
  8
レイヤー_2
 62
     7
100
AcDbLine
 10
64.615177
 20
203.719176
 30
0.0
 11
67.217603
 21
203.719176
 31
0.0
  0
LINE
  5
A7
100
AcDbEntity
  8
レイヤー_2
 62
     7
100
AcDbLine
 10
76.240308
 20
177.468582
 30
0.0
 11
64.540074
 21
177.468582
 31
0.0
  0
SPLINE
  5
A6
100
AcDbEntity
  8
レイヤー_2
 62
     7
100
AcDbSpline
210
0.0
220
0.0
230
1.0
 70
     8
 71
     3
 72
     8
 73
     4
 74
     0
 42
0.00000001
 43
0.00000001
 40
0.0
 40
0.0
 40
0.0
 40
0.0
 40
1.0
 40
1.0
 40
1.0
 40
1.0
 10
75.943340386284717
 20
160.01331651475692
 30
0.0
 10
75.942306857638883
 20
160.11046820746526
 30
0.0
 10
74.975957573784711
 20
160.2761773003472
 30
0.0
 10
73.471139865451377
 20
160.45497775607637
 30
0.0
  0
SPLINE
  5
A5
100
AcDbEntity
  8
レイヤー_2
 62
     7
100
AcDbSpline
210
0.0
220
0.0
230
1.0
 70
     8
 71
     3
 72
     8
 73
     4
 74
     0
 42
0.00000001
 43
0.00000001
 40
0.0
 40
0.0
 40
0.0
 40
0.0
 40
1.0
 40
1.0
 40
1.0
 40
1.0
 10
65.772040473090271
 20
160.49769694010416
 30
0.0
 10
66.23437228732638
 20
160.42052680121526
 30
0.0
 10
66.873092990451383
 20
160.33715549045138
 30
0.0
 10
67.576925998263889
 20
160.25895182291666
 30
0.0
  0
LINE
  5
A4
100
AcDbEntity
  8
レイヤー_2
 62
     7
100
AcDbLine
 10
70.560379
 20
176.018197
 30
0.0
 11
70.453236
 21
176.018197
 31
0.0
  0
LINE
  5
A3
100
AcDbEntity
  8
レイヤー_2
 62
     7
100
AcDbLine
 10
73.452881
 20
176.018197
 30
0.0
 11
70.560379
 21
176.018197
 31
0.0
  0
LINE
  5
A2
100
AcDbEntity
  8
レイヤー_2
 62
     7
100
AcDbLine
 10
70.32749
 20
176.018197
 30
0.0
 11
67.327846
 21
176.018197
 31
0.0
  0
LINE
  5
A1
100
AcDbEntity
  8
レイヤー_2
 62
     7
100
AcDbLine
 10
74.094358
 20
197.327835
 30
0.0
 11
73.6744
 21
197.327835
 31
0.0
  0
LINE
  5
A0
100
AcDbEntity
  8
レイヤー_2
 62
     7
100
AcDbLine
 10
67.105981
 20
197.327835
 30
0.0
 11
66.686024
 21
197.327835
 31
0.0
  0
LINE
  5
9F
100
AcDbEntity
  8
レイヤー_2
 62
     7
100
AcDbLine
 10
67.140088
 20
196.13342
 30
0.0
 11
67.140088
 21
195.917068
 31
0.0
  0
LINE
  5
9E
100
AcDbEntity
  8
レイヤー_2
 62
     7
100
AcDbLine
 10
73.63995
 20
196.13342
 30
0.0
 11
73.63995
 21
195.917068
 31
0.0
  0
LINE
  5
9D
100
AcDbEntity
  8
レイヤー_2
  6
AI9-LType2
 62
     7
100
AcDbLine
 10
116.469032
 20
206.887286
 30
0.0
 11
114.055398
 21
211.87854
 31
0.0
  0
LINE
  5
9C
100
AcDbEntity
  8
レイヤー_2
 62
     7
100
AcDbLine
 10
114.055398
 20
211.87854
 30
0.0
 11
113.620627
 21
212.779433
 31
0.0
  0
LINE
  5
9B
100
AcDbEntity
  8
レイヤー_2
  6
AI9-LType2
 62
     7
100
AcDbLine
 10
104.925206
 20
203.611344
 30
0.0
 11
105.297965
 21
202.781765
 31
0.0
  0
LINE
  5
9A
100
AcDbEntity
  8
レイヤー_2
 62
     7
100
AcDbLine
 10
105.297965
 20
202.781765
 30
0.0
 11
105.707932
 21
201.869504
 31
0.0
  0
LINE
  5
99
100
AcDbEntity
  8
レイヤー_2
  6
AI9-LType2
 62
     7
100
AcDbLine
 10
101.131295
 20
212.053895
 30
0.0
 11
103.887716
 21
205.920247
 31
0.0
  0
LINE
  5
98
100
AcDbEntity
  8
レイヤー_2
 62
     7
100
AcDbLine
 10
103.887716
 20
205.920247
 30
0.0
 11
104.298027
 21
205.008331
 31
0.0
  0
SPLINE
  5
97
100
AcDbEntity
  8
レイヤー_2
 62
     7
100
AcDbSpline
210
0.0
220
0.0
230
1.0
 70
     8
 71
     3
 72
     8
 73
     4
 74
     0
 42
0.00000001
 43
0.00000001
 40
0.0
 40
0.0
 40
0.0
 40
0.0
 40
1.0
 40
1.0
 40
1.0
 40
1.0
 10
116.47661132812499
 20
206.85421278211803
 30
0.0
 10
116.47661132812499
 20
206.86661512586804
 30
0.0
 10
116.47351074218749
 20
206.8779839409722
 30
0.0
 10
116.46903211805555
 20
206.88728569878469
 30
0.0
  0
SPLINE
  5
96
100
AcDbEntity
  8
レイヤー_2
 62
     7
100
AcDbSpline
210
0.0
220
0.0
230
1.0
 70
     8
 71
     3
 72
    11
 73
     7
 74
     0
 42
0.00000001
 43
0.00000001
 40
0.0
 40
0.0
 40
0.0
 40
0.0
 40
1.0
 40
1.0
 40
1.0
 40
2.0
 40
2.0
 40
2.0
 40
2.0
 10
116.43320312499999
 20
206.78634440104165
 30
0.0
 10
116.44181586371526
 20
206.79047851562498
 30
0.0
 10
116.4490505642361
 20
206.79599066840277
 30
0.0
 10
116.45456271701387
 20
206.80150282118055
 30
0.0
 10
116.46903211805555
 20
206.8159722222222
 30
0.0
 10
116.47661132812499
 20
206.83560926649304
 30
0.0
 10
116.47661132812499
 20
206.85421278211803
 30
0.0
  0
SPLINE
  5
95
100
AcDbEntity
  8
レイヤー_2
 62
     7
100
AcDbSpline
210
0.0
220
0.0
230
1.0
 70
     8
 71
     3
 72
    11
 73
     7
 74
     0
 42
0.00000001
 43
0.00000001
 40
0.0
 40
0.0
 40
0.0
 40
0.0
 40
1.0
 40
1.0
 40
1.0
 40
2.0
 40
2.0
 40
2.0
 40
2.0
 10
105.70793185763888
 20
201.86950412326388
 30
0.0
 10
105.71206597222221
 20
201.86089138454858
 30
0.0
 10
105.71757812499999
 20
201.85365668402775
 30
0.0
 10
105.72309027777777
 20
201.84745551215275
 30
0.0
 10
105.74651692708332
 20
201.82437337239583
 30
0.0
 10
105.78027886284721
 20
201.81955023871527
 30
0.0
 10
105.80852864583332
 20
201.83229709201387
 30
0.0
  0
LINE
  5
94
100
AcDbEntity
  8
レイヤー_2
  6
AI9-LType2
 62
     7
100
AcDbLine
 10
127.151584
 20
224.473465
 30
0.0
 11
107.167274
 21
215.154826
 31
0.0
  0
LINE
  5
93
100
AcDbEntity
  8
レイヤー_2
 62
     7
100
AcDbLine
 10
107.167274
 20
215.154826
 30
0.0
 11
106.260525
 21
214.732113
 31
0.0
  0
SPLINE
  5
92
100
AcDbEntity
  8
レイヤー_2
 62
     7
100
AcDbSpline
210
0.0
220
0.0
230
1.0
 70
     8
 71
     3
 72
    14
 73
    10
 74
     0
 42
0.00000001
 43
0.00000001
 40
0.0
 40
0.0
 40
0.0
 40
0.0
 40
1.0
 40
1.0
 40
1.0
 40
2.0
 40
2.0
 40
2.0
 40
3.0
 40
3.0
 40
3.0
 40
3.0
 10
101.22465684678818
 20
212.31537814670136
 30
0.0
 10
101.20398627387152
 20
212.30504286024305
 30
0.0
 10
101.18676079644096
 20
212.29195149739581
 30
0.0
 10
101.1722913953993
 20
212.27713758680554
 30
0.0
 10
101.13301730685762
 20
212.23820800781249
 30
0.0
 10
101.1133802625868
 20
212.1865315755208
 30
0.0
 10
101.1133802625868
 20
212.13588867187499
 30
0.0
 10
101.1133802625868
 20
212.10591634114581
 30
0.0
 10
101.12027045355902
 20
212.0780110677083
 30
0.0
 10
101.13129475911457
 20
212.05389539930553
 30
0.0
  0
SPLINE
  5
91
100
AcDbEntity
  8
レイヤー_2
  6
AI9-LType2
 62
     7
100
AcDbSpline
210
0.0
220
0.0
230
1.0
 70
     8
 71
     3
 72
     8
 73
     4
 74
     0
 42
0.00000001
 43
0.00000001
 40
0.0
 40
0.0
 40
0.0
 40
0.0
 40
1.0
 40
1.0
 40
1.0
 40
1.0
 10
106.2605251736111
 20
214.73211263020832
 30
0.0
 10
104.79911566840276
 20
214.05067274305554
 30
0.0
 10
103.34786919487846
 20
213.35751953124998
 30
0.0
 10
102.12279324001736
 20
212.75635036892359
 30
0.0
  0
SPLINE
  5
90
100
AcDbEntity
  8
レイヤー_2
 62
     7
100
AcDbSpline
210
0.0
220
0.0
230
1.0
 70
     8
 71
     3
 72
     8
 73
     4
 74
     0
 42
0.00000001
 43
0.00000001
 40
0.0
 40
0.0
 40
0.0
 40
0.0
 40
1.0
 40
1.0
 40
1.0
 40
1.0
 10
102.12279324001736
 20
212.75635036892359
 30
0.0
 10
101.80722249348958
 20
212.60235460069441
 30
0.0
 10
101.4919962565104
 20
212.44698079427081
 30
0.0
 10
101.2253458658854
 20
212.31537814670136
 30
0.0
  0
SPLINE
  5
8F
100
AcDbEntity
  8
レイヤー_2
 62
     7
100
AcDbSpline
210
0.0
220
0.0
230
1.0
 70
     8
 71
     3
 72
    14
 73
    10
 74
     0
 42
0.00000001
 43
0.00000001
 40
0.0
 40
0.0
 40
0.0
 40
0.0
 40
1.0
 40
1.0
 40
1.0
 40
2.0
 40
2.0
 40
2.0
 40
3.0
 40
3.0
 40
3.0
 40
3.0
 10
113.79942762586805
 20
213.28241644965277
 30
0.0
 10
113.75774197048609
 20
213.26277940538193
 30
0.0
 10
113.72156846788194
 20
213.23659667968749
 30
0.0
 10
113.69297417534722
 20
213.20765787760413
 30
0.0
 10
113.61959364149304
 20
213.1346218532986
 30
0.0
 10
113.58307562934027
 20
213.03850368923608
 30
0.0
 10
113.58307562934027
 20
212.94238552517359
 30
0.0
 10
113.58307562934027
 20
212.88312988281248
 30
0.0
 10
113.59685601128471
 20
212.82731933593749
 30
0.0
 10
113.62062717013887
 20
212.77943250868054
 30
0.0
  0
SPLINE
  5
8E
100
AcDbEntity
  8
レイヤー_2
 62
     7
100
AcDbSpline
210
0.0
220
0.0
230
1.0
 70
     8
 71
     3
 72
    11
 73
     7
 74
     0
 42
0.00000001
 43
0.00000001
 40
0.0
 40
0.0
 40
0.0
 40
0.0
 40
1.0
 40
1.0
 40
1.0
 40
2.0
 40
2.0
 40
2.0
 40
2.0
 10
127.41720106336804
 20
224.37700195312499
 30
0.0
 10
127.40686577690971
 20
224.39939507378469
 30
0.0
 10
127.39239637586805
 20
224.4183430989583
 30
0.0
 10
127.37723795572916
 20
224.4338460286458
 30
0.0
 10
127.31625976562499
 20
224.49379069010413
 30
0.0
 10
127.22634277343749
 20
224.50791558159719
 30
0.0
 10
127.15158420138887
 20
224.4734646267361
 30
0.0
  0
SPLINE
  5
8D
100
AcDbEntity
  8
レイヤー_2
  6
AI9-LType2
 62
     7
100
AcDbSpline
210
0.0
220
0.0
230
1.0
 70
     8
 71
     3
 72
     8
 73
     4
 74
     0
 42
0.00000001
 43
0.00000001
 40
0.0
 40
0.0
 40
0.0
 40
0.0
 40
1.0
 40
1.0
 40
1.0
 40
1.0
 10
117.46018608940972
 20
204.34411621093747
 30
0.0
 10
117.27036132812499
 20
204.90773383246525
 30
0.0
 10
117.00267740885415
 20
205.42277560763887
 30
0.0
 10
116.6970974392361
 20
205.8458333333333
 30
0.0
  0
SPLINE
  5
8C
100
AcDbEntity
  8
レイヤー_2
 62
     7
100
AcDbSpline
210
0.0
220
0.0
230
1.0
 70
     8
 71
     3
 72
    11
 73
     7
 74
     0
 42
0.00000001
 43
0.00000001
 40
0.0
 40
0.0
 40
0.0
 40
0.0
 40
1.0
 40
1.0
 40
1.0
 40
2.0
 40
2.0
 40
2.0
 40
2.0
 10
116.6970974392361
 20
205.8458333333333
 30
0.0
 10
116.49728190104166
 20
206.12833116319442
 30
0.0
 10
116.27679578993055
 20
206.38774685329858
 30
0.0
 10
116.06319986979166
 20
206.59755316840275
 30
0.0
 10
116.05906575520832
 20
206.60168728298609
 30
0.0
 10
116.05493164062499
 20
206.60582139756943
 30
0.0
 10
116.05183105468748
 20
206.60892198350692
 30
0.0
  0
LINE
  5
8B
100
AcDbEntity
  8
レイヤー_2
 62
     7
100
AcDbLine
 10
117.460186
 20
203.719176
 30
0.0
 11
117.460186
 21
204.344116
 31
0.0
  0
LINE
  5
8A
100
AcDbEntity
  8
レイヤー_2
 62
     7
100
AcDbLine
 10
115.535067
 20
203.680591
 30
0.0
 11
115.632907
 21
203.698161
 31
0.0
  0
LINE
  5
89
100
AcDbEntity
  8
レイヤー_2
 62
     7
100
AcDbLine
 10
115.535067
 20
203.497656
 30
0.0
 11
115.535067
 21
203.680591
 31
0.0
  0
SPLINE
  5
88
100
AcDbEntity
  8
レイヤー_2
  6
AI9-LType2
 62
     7
100
AcDbSpline
210
0.0
220
0.0
230
1.0
 70
     8
 71
     3
 72
    20
 73
    16
 74
     0
 42
0.00000001
 43
0.00000001
 40
0.0
 40
0.0
 40
0.0
 40
0.0
 40
1.0
 40
1.0
 40
1.0
 40
2.0
 40
2.0
 40
2.0
 40
3.0
 40
3.0
 40
3.0
 40
4.0
 40
4.0
 40
4.0
 40
5.0
 40
5.0
 40
5.0
 40
5.0
 10
117.79022623697915
 20
203.73846842447915
 30
0.0
 10
117.79022623697915
 20
203.73846842447915
 30
0.0
 10
117.7978054470486
 20
203.73846842447915
 30
0.0
 10
117.7978054470486
 20
203.73846842447915
 30
0.0
 10
117.7978054470486
 20
203.73846842447915
 30
0.0
 10
117.7326931423611
 20
203.73777940538193
 30
0.0
 10
117.65483398437499
 20
203.73605685763886
 30
0.0
 10
117.57490776909721
 20
203.73364529079859
 30
0.0
 10
117.47293294270833
 20
203.73157823350692
 30
0.0
 10
117.34408637152777
 20
203.72847764756943
 30
0.0
 10
117.21765136718749
 20
203.72606608072914
 30
0.0
 10
117.06503363715277
 20
203.72296549479165
 30
0.0
 10
116.89105631510415
 20
203.71952039930554
 30
0.0
 10
116.80802951388888
 20
203.71745334201387
 30
0.0
 10
116.72086859809026
 20
203.71573079427083
 30
0.0
 10
116.62819552951387
 20
203.71400824652775
 30
0.0
  0
SPLINE
  5
87
100
AcDbEntity
  8
レイヤー_2
 62
     7
100
AcDbSpline
210
0.0
220
0.0
230
1.0
 70
     8
 71
     3
 72
    11
 73
     7
 74
     0
 42
0.00000001
 43
0.00000001
 40
0.0
 40
0.0
 40
0.0
 40
0.0
 40
1.0
 40
1.0
 40
1.0
 40
2.0
 40
2.0
 40
2.0
 40
2.0
 10
116.62819552951387
 20
203.71400824652775
 30
0.0
 10
116.5203640407986
 20
203.71228569878471
 30
0.0
 10
116.40529785156249
 20
203.71021864149304
 30
0.0
 10
116.28334147135416
 20
203.70815158420137
 30
0.0
 10
116.07973632812499
 20
203.70470648871526
 30
0.0
 10
115.85649414062499
 20
203.70126139322915
 30
0.0
 10
115.63290744357637
 20
203.69816080729166
 30
0.0
  0
LINE
  5
86
100
AcDbEntity
  8
レイヤー_2
  6
AI9-LType2
 62
     7
100
AcDbLine
 10
109.858583
 20
203.719176
 30
0.0
 11
115.906793
 21
203.719176
 31
0.0
  0
LINE
  5
85
100
AcDbEntity
  8
レイヤー_2
 62
     7
100
AcDbLine
 10
115.906793
 20
203.719176
 30
0.0
 11
116.906559
 21
203.719176
 31
0.0
  0
SPLINE
  5
84
100
AcDbEntity
  8
レイヤー_2
 62
     7
100
AcDbSpline
210
0.0
220
0.0
230
1.0
 70
     8
 71
     3
 72
    14
 73
    10
 74
     0
 42
0.00000001
 43
0.00000001
 40
0.0
 40
0.0
 40
0.0
 40
0.0
 40
1.0
 40
1.0
 40
1.0
 40
2.0
 40
2.0
 40
2.0
 40
3.0
 40
3.0
 40
3.0
 40
3.0
 10
104.85699327256944
 20
203.82907443576386
 30
0.0
 10
104.87421875
 20
203.77601996527775
 30
0.0
 10
104.89213324652776
 20
203.72296549479165
 30
0.0
 10
104.905224609375
 20
203.68196885850693
 30
0.0
 10
104.91831597222222
 20
203.64097222222222
 30
0.0
 10
104.92796223958332
 20
203.60824381510415
 30
0.0
 10
104.92796223958332
 20
203.60824381510415
 30
0.0
 10
104.92796223958332
 20
203.60824381510415
 30
0.0
 10
104.92658420138888
 20
203.61203342013886
 30
0.0
 10
104.92658420138888
 20
203.61203342013886
 30
0.0
  0
SPLINE
  5
83
100
AcDbEntity
  8
レイヤー_2
  6
AI9-LType2
 62
     7
100
AcDbSpline
210
0.0
220
0.0
230
1.0
 70
     8
 71
     3
 72
    17
 73
    13
 74
     0
 42
0.00000001
 43
0.00000001
 40
0.0
 40
0.0
 40
0.0
 40
0.0
 40
1.0
 40
1.0
 40
1.0
 40
2.0
 40
2.0
 40
2.0
 40
3.0
 40
3.0
 40
3.0
 40
4.0
 40
4.0
 40
4.0
 40
4.0
 10
104.29906005859374
 20
205.00833062065971
 30
0.0
 10
104.29906005859374
 20
205.00833062065971
 30
0.0
 10
104.29630398220485
 20
205.01315375434027
 30
0.0
 10
104.29630398220485
 20
205.01315375434027
 30
0.0
 10
104.29630398220485
 20
205.01315375434027
 30
0.0
 10
104.3104288736979
 20
204.98972710503472
 30
0.0
 10
104.33041042751735
 20
204.95665418836805
 30
0.0
 10
104.3503919813368
 20
204.92358127170138
 30
0.0
 10
104.37485215928818
 20
204.88258463541663
 30
0.0
 10
104.40413547092012
 20
204.83090820312498
 30
0.0
 10
104.41860487196179
 20
204.80541449652776
 30
0.0
 10
104.43376329210068
 20
204.77819824218747
 30
0.0
 10
104.4499552408854
 20
204.74960394965277
 30
0.0
  0
SPLINE
  5
82
100
AcDbEntity
  8
レイヤー_2
 62
     7
100
AcDbSpline
210
0.0
220
0.0
230
1.0
 70
     8
 71
     3
 72
    20
 73
    16
 74
     0
 42
0.00000001
 43
0.00000001
 40
0.0
 40
0.0
 40
0.0
 40
0.0
 40
1.0
 40
1.0
 40
1.0
 40
2.0
 40
2.0
 40
2.0
 40
3.0
 40
3.0
 40
3.0
 40
4.0
 40
4.0
 40
4.0
 40
5.0
 40
5.0
 40
5.0
 40
5.0
 10
104.4499552408854
 20
204.74960394965277
 30
0.0
 10
104.46649169921874
 20
204.71894259982636
 30
0.0
 10
104.48302815755207
 20
204.68724772135414
 30
0.0
 10
104.50163167317707
 20
204.65348578559025
 30
0.0
 10
104.54056125217014
 20
204.57803819444442
 30
0.0
 10
104.57845730251735
 20
204.50259060329859
 30
0.0
 10
104.61497531467013
 20
204.42438693576386
 30
0.0
 10
104.65183783637151
 20
204.34652777777777
 30
0.0
 10
104.68732231987846
 20
204.2669460720486
 30
0.0
 10
104.72005072699652
 20
204.18736436631943
 30
0.0
 10
104.75243462456596
 20
204.10916069878471
 30
0.0
 10
104.78326822916665
 20
204.0319905598958
 30
0.0
 10
104.80807291666666
 20
203.9634331597222
 30
0.0
 10
104.82598741319444
 20
203.9165798611111
 30
0.0
 10
104.84114583333333
 20
203.87282714843749
 30
0.0
 10
104.85699327256944
 20
203.82907443576386
 30
0.0
  0
LINE
  5
81
100
AcDbEntity
  8
レイヤー_2
 62
     7
100
AcDbLine
 10
116.433203
 20
206.786344
 30
0.0
 11
116.423212
 21
206.781866
 31
0.0
  0
LINE
  5
80
100
AcDbEntity
  8
レイヤー_2
 62
     7
100
AcDbLine
 10
116.423212
 20
206.781866
 30
0.0
 11
116.342253
 21
206.744659
 31
0.0
  0
LINE
  5
7F
100
AcDbEntity
  8
レイヤー_2
 62
     7
100
AcDbLine
 10
116.342253
 20
206.744659
 30
0.0
 11
116.183089
 21
206.670245
 31
0.0
  0
LINE
  5
7E
100
AcDbEntity
  8
レイヤー_2
 62
     7
100
AcDbLine
 10
116.183089
 20
206.670245
 30
0.0
 11
115.946756
 21
206.559657
 31
0.0
  0
LINE
  5
7D
100
AcDbEntity
  8
レイヤー_2
 62
     7
100
AcDbLine
 10
115.946756
 20
206.559657
 30
0.0
 11
115.637042
 21
206.415652
 31
0.0
  0
LINE
  5
7C
100
AcDbEntity
  8
レイヤー_2
 62
     7
100
AcDbLine
 10
115.637042
 20
206.415652
 30
0.0
 11
115.259459
 21
206.239608
 31
0.0
  0
LINE
  5
7B
100
AcDbEntity
  8
レイヤー_2
 62
     7
100
AcDbLine
 10
115.259459
 20
206.239608
 30
0.0
 11
114.818142
 21
206.03428
 31
0.0
  0
LINE
  5
7A
100
AcDbEntity
  8
レイヤー_2
 62
     7
100
AcDbLine
 10
114.818142
 20
206.03428
 30
0.0
 11
114.321704
 21
205.802425
 31
0.0
  0
LINE
  5
79
100
AcDbEntity
  8
レイヤー_2
 62
     7
100
AcDbLine
 10
114.321704
 20
205.802425
 30
0.0
 11
113.777379
 21
205.547833
 31
0.0
  0
LINE
  5
78
100
AcDbEntity
  8
レイヤー_2
 62
     7
100
AcDbLine
 10
113.777379
 20
205.547833
 30
0.0
 11
113.191024
 21
205.275326
 31
0.0
  0
LINE
  5
77
100
AcDbEntity
  8
レイヤー_2
 62
     7
100
AcDbLine
 10
113.191024
 20
205.275326
 30
0.0
 11
112.574352
 21
204.987316
 31
0.0
  0
LINE
  5
76
100
AcDbEntity
  8
レイヤー_2
 62
     7
100
AcDbLine
 10
112.574352
 20
204.987316
 30
0.0
 11
111.935286
 21
204.689315
 31
0.0
  0
LINE
  5
75
100
AcDbEntity
  8
レイヤー_2
 62
     7
100
AcDbLine
 10
111.935286
 20
204.689315
 30
0.0
 11
111.284163
 21
204.385457
 31
0.0
  0
LINE
  5
74
100
AcDbEntity
  8
レイヤー_2
 62
     7
100
AcDbLine
 10
111.284163
 20
204.385457
 30
0.0
 11
110.630284
 21
204.081255
 31
0.0
  0
LINE
  5
73
100
AcDbEntity
  8
レイヤー_2
 62
     7
100
AcDbLine
 10
110.630284
 20
204.081255
 30
0.0
 11
109.983984
 21
203.779121
 31
0.0
  0
LINE
  5
72
100
AcDbEntity
  8
レイヤー_2
 62
     7
100
AcDbLine
 10
109.983984
 20
203.779121
 30
0.0
 11
109.355254
 21
203.486287
 31
0.0
  0
LINE
  5
71
100
AcDbEntity
  8
レイヤー_2
 62
     7
100
AcDbLine
 10
109.355254
 20
203.486287
 30
0.0
 11
108.752707
 21
203.205168
 31
0.0
  0
LINE
  5
70
100
AcDbEntity
  8
レイヤー_2
 62
     7
100
AcDbLine
 10
108.752707
 20
203.205168
 30
0.0
 11
108.186334
 21
202.941618
 31
0.0
  0
LINE
  5
6F
100
AcDbEntity
  8
レイヤー_2
 62
     7
100
AcDbLine
 10
108.186334
 20
202.941618
 30
0.0
 11
107.664746
 21
202.69805
 31
0.0
  0
LINE
  5
6E
100
AcDbEntity
  8
レイヤー_2
 62
     7
100
AcDbLine
 10
107.664746
 20
202.69805
 30
0.0
 11
107.194835
 21
202.478942
 31
0.0
  0
LINE
  5
6D
100
AcDbEntity
  8
レイヤー_2
 62
     7
100
AcDbLine
 10
107.194835
 20
202.478942
 30
0.0
 11
106.784869
 21
202.287739
 31
0.0
  0
LINE
  5
6C
100
AcDbEntity
  8
レイヤー_2
 62
     7
100
AcDbLine
 10
106.784869
 20
202.287739
 30
0.0
 11
106.440359
 21
202.127542
 31
0.0
  0
LINE
  5
6B
100
AcDbEntity
  8
レイヤー_2
 62
     7
100
AcDbLine
 10
106.440359
 20
202.127542
 30
0.0
 11
106.166819
 21
201.999729
 31
0.0
  0
LINE
  5
6A
100
AcDbEntity
  8
レイヤー_2
 62
     7
100
AcDbLine
 10
106.166819
 20
201.999729
 30
0.0
 11
105.96907
 21
201.9074
 31
0.0
  0
LINE
  5
69
100
AcDbEntity
  8
レイヤー_2
 62
     7
100
AcDbLine
 10
105.96907
 20
201.9074
 30
0.0
 11
105.847803
 21
201.850901
 31
0.0
  0
LINE
  5
68
100
AcDbEntity
  8
レイヤー_2
 62
     7
100
AcDbLine
 10
105.847803
 20
201.850901
 30
0.0
 11
105.808529
 21
201.832297
 31
0.0
  0
SPLINE
  5
67
100
AcDbEntity
  8
レイヤー_2
 62
     7
100
AcDbSpline
210
0.0
220
0.0
230
1.0
 70
     8
 71
     3
 72
    20
 73
    16
 74
     0
 42
0.00000001
 43
0.00000001
 40
0.0
 40
0.0
 40
0.0
 40
0.0
 40
1.0
 40
1.0
 40
1.0
 40
2.0
 40
2.0
 40
2.0
 40
3.0
 40
3.0
 40
3.0
 40
4.0
 40
4.0
 40
4.0
 40
5.0
 40
5.0
 40
5.0
 40
5.0
 10
111.59215494791665
 20
217.21671549479166
 30
0.0
 10
111.59215494791665
 20
217.21671549479166
 30
0.0
 10
111.57699652777777
 20
217.21051432291665
 30
0.0
 10
111.57699652777777
 20
217.21051432291665
 30
0.0
 10
111.53668891059027
 20
217.19191080729163
 30
0.0
 10
111.49603678385415
 20
217.17227376302083
 30
0.0
 10
111.45779622395833
 20
217.15435926649303
 30
0.0
 10
111.42058919270832
 20
217.13713378906249
 30
0.0
 10
111.38510470920139
 20
217.12025282118054
 30
0.0
 10
111.35375434027777
 20
217.10612792968749
 30
0.0
 10
111.32343749999998
 20
217.09131401909721
 30
0.0
 10
111.29622124565971
 20
217.0785671657986
 30
0.0
 10
111.27761773003471
 20
217.06926540798608
 30
0.0
 10
111.25798068576388
 20
217.06065266927081
 30
0.0
 10
111.24661187065971
 20
217.05514051649303
 30
0.0
 10
111.23558756510415
 20
217.04962836371527
 30
0.0
  0
SPLINE
  5
66
100
AcDbEntity
  8
レイヤー_2
 62
     7
100
AcDbSpline
210
0.0
220
0.0
230
1.0
 70
     8
 71
     3
 72
    20
 73
    16
 74
     0
 42
0.00000001
 43
0.00000001
 40
0.0
 40
0.0
 40
0.0
 40
0.0
 40
1.0
 40
1.0
 40
1.0
 40
2.0
 40
2.0
 40
2.0
 40
3.0
 40
3.0
 40
3.0
 40
4.0
 40
4.0
 40
4.0
 40
5.0
 40
5.0
 40
5.0
 40
5.0
 10
113.75980902777776
 20
213.26346842447916
 30
0.0
 10
113.72329101562499
 20
213.24210883246525
 30
0.0
 10
113.68573947482638
 20
213.21971571180555
 30
0.0
 10
113.65404459635415
 20
213.19077690972219
 30
0.0
 10
113.62338324652777
 20
213.16149359809026
 30
0.0
 10
113.59754503038194
 20
213.12600911458333
 30
0.0
 10
113.57825249565971
 20
213.08707953559025
 30
0.0
 10
113.55964898003471
 20
213.04918348524305
 30
0.0
 10
113.54655761718749
 20
213.00715332031248
 30
0.0
 10
113.54070095486109
 20
212.96443413628469
 30
0.0
 10
113.53553331163194
 20
212.92240397135416
 30
0.0
 10
113.53656684027777
 20
212.87899576822915
 30
0.0
 10
113.54655761718749
 20
212.8376546223958
 30
0.0
 10
113.55344780815972
 20
212.81078287760414
 30
0.0
 10
113.56343858506943
 20
212.7846001519097
 30
0.0
 10
113.57446289062499
 20
212.75772840711804
 30
0.0
  0
SPLINE
  5
65
100
AcDbEntity
  8
レイヤー_2
 62
     7
100
AcDbSpline
210
0.0
220
0.0
230
1.0
 70
     8
 71
     3
 72
     8
 73
     4
 74
     0
 42
0.00000001
 43
0.00000001
 40
0.0
 40
0.0
 40
0.0
 40
0.0
 40
1.0
 40
1.0
 40
1.0
 40
1.0
 10
129.16834309895833
 20
220.57637261284719
 30
0.0
 10
129.16834309895833
 20
220.60668945312497
 30
0.0
 10
129.1614529079861
 20
220.6356282552083
 30
0.0
 10
129.14973958333331
 20
220.66112196180555
 30
0.0
  0
SPLINE
  5
64
100
AcDbEntity
  8
レイヤー_2
 62
     7
100
AcDbSpline
210
0.0
220
0.0
230
1.0
 70
     8
 71
     3
 72
    11
 73
     7
 74
     0
 42
0.00000001
 43
0.00000001
 40
0.0
 40
0.0
 40
0.0
 40
0.0
 40
1.0
 40
1.0
 40
1.0
 40
2.0
 40
2.0
 40
2.0
 40
2.0
 10
129.0529324001736
 20
220.39481608072916
 30
0.0
 10
129.07498101128471
 20
220.40584038628469
 30
0.0
 10
129.09461805555554
 20
220.41927625868053
 30
0.0
 10
129.10977647569445
 20
220.43443467881943
 30
0.0
 10
129.14905056423609
 20
220.47439778645833
 30
0.0
 10
129.16834309895833
 20
220.52504069010413
 30
0.0
 10
129.16834309895833
 20
220.57637261284719
 30
0.0
  0
LINE
  5
63
100
AcDbEntity
  8
レイヤー_2
  6
AI9-LType2
 62
     7
100
AcDbLine
 10
129.052932
 20
220.394816
 30
0.0
 11
114.666214
 21
213.686526
 31
0.0
  0
LINE
  5
62
100
AcDbEntity
  8
レイヤー_2
 62
     7
100
AcDbLine
 10
114.666214
 20
213.686526
 30
0.0
 11
113.759809
 21
213.263468
 31
0.0
  0
LINE
  5
61
100
AcDbEntity
  8
レイヤー_2
  6
AI9-LType2
 62
     7
100
AcDbLine
 10
127.417201
 20
224.375624
 30
0.0
 11
128.727026
 21
221.567182
 31
0.0
  0
LINE
  5
60
100
AcDbEntity
  8
レイヤー_2
 62
     7
100
AcDbLine
 10
128.727026
 20
221.567182
 30
0.0
 11
129.14974
 21
220.661122
 31
0.0
  0
LINE
  5
5F
100
AcDbEntity
  8
レイヤー_2
  6
AI9-LType2
 62
     7
100
AcDbLine
 10
111.194935
 20
204.344116
 30
0.0
 11
116.45973
 21
204.344116
 31
0.0
  0
LINE
  5
5D
100
AcDbEntity
  8
レイヤー_2
 62
     7
100
AcDbLine
 10
116.45973
 20
204.344116
 30
0.0
 11
117.460186
 21
204.344116
 31
0.0
  0
LINE
  5
5C
100
AcDbEntity
  8
レイヤー_2
 62
     7
100
AcDbLine
 10
192.157091
 20
176.717206
 30
0.0
 11
192.157091
 21
226.097827
 31
0.0
  0
LINE
  5
5B
100
AcDbEntity
  8
レイヤー_2
 62
     7
100
AcDbLine
 10
192.156402
 20
177.472716
 30
0.0
 11
193.381822
 21
176.38441
 31
0.0
  0
LINE
  5
5A
100
AcDbEntity
  8
レイヤー_2
 62
     7
100
AcDbLine
 10
190.932359
 20
178.561711
 30
0.0
 11
192.156402
 21
177.472716
 31
0.0
  0
LINE
  5
59
100
AcDbEntity
  8
レイヤー_2
 62
     7
100
AcDbLine
 10
192.157435
 20
224.494824
 30
0.0
 11
193.382856
 21
223.406863
 31
0.0
  0
LINE
  5
58
100
AcDbEntity
  8
レイヤー_2
 62
     7
100
AcDbLine
 10
190.932704
 20
225.58313
 30
0.0
 11
192.157435
 21
224.494824
 31
0.0
  0
LINE
  5
57
100
AcDbEntity
  8
レイヤー_2
 62
     7
100
AcDbLine
 10
127.886079
 20
224.494824
 30
0.0
 11
193.827618
 21
224.494824
 31
0.0
  0
LINE
  5
56
100
AcDbEntity
  8
レイヤー_2
 62
     7
100
AcDbLine
 10
70.330591
 20
136.792339
 30
0.0
 11
70.330591
 21
135.791884
 31
0.0
  0
LINE
  5
55
100
AcDbEntity
  8
レイヤー_2
  6
AI9-LType1
 62
     7
100
AcDbLine
 10
111.957335
 20
216.688927
 30
0.0
 11
111.957335
 21
136.562552
 31
0.0
  0
LINE
  5
54
100
AcDbEntity
  8
レイヤー_2
 62
     7
100
AcDbLine
 10
111.957335
 20
136.562552
 30
0.0
 11
111.957335
 21
135.56244
 31
0.0
  0
LINE
  5
53
100
AcDbEntity
  8
レイヤー_2
  6
AI9-LType1
 62
     7
100
AcDbLine
 10
140.967451
 20
199.666021
 30
0.0
 11
144.460433
 21
196.725977
 31
0.0
  0
LINE
  5
51
100
AcDbEntity
  8
レイヤー_2
 62
     7
100
AcDbLine
 10
144.460433
 20
196.725977
 30
0.0
 11
145.225244
 21
196.081744
 31
0.0
  0
LINE
  5
50
100
AcDbEntity
  8
レイヤー_2
 62
     7
100
AcDbLine
 10
111.836757
 20
174.846175
 30
0.0
 11
112.35042
 21
174.846175
 31
0.0
  0
LINE
  5
4F
100
AcDbEntity
  8
レイヤー_2
 62
     7
100
AcDbLine
 10
168.298771
 20
177.394168
 30
0.0
 11
167.07404
 21
178.482473
 31
0.0
  0
LINE
  5
4E
100
AcDbEntity
  8
レイヤー_2
 62
     7
100
AcDbLine
 10
169.523503
 20
176.306207
 30
0.0
 11
168.298771
 21
177.394168
 31
0.0
  0
LINE
  5
4D
100
AcDbEntity
  8
レイヤー_2
 62
     7
100
AcDbLine
 10
169.716772
 20
196.772141
 30
0.0
 11
145.685509
 21
196.772141
 31
0.0
  0
LINE
  5
4C
100
AcDbEntity
  8
レイヤー_2
 62
     7
100
AcDbLine
 10
168.273622
 20
198.313477
 30
0.0
 11
168.273622
 21
176.255219
 31
0.0
  0
LINE
  5
4B
100
AcDbEntity
  8
レイヤー_2
 62
     7
100
AcDbLine
 10
168.273622
 20
196.772141
 30
0.0
 11
167.049235
 21
197.860791
 31
0.0
  0
LINE
  5
4A
100
AcDbEntity
  8
レイヤー_2
 62
     7
100
AcDbLine
 10
169.498009
 20
195.68418
 30
0.0
 11
168.273622
 21
196.772141
 31
0.0
  0
LINE
  5
49
100
AcDbEntity
  8
レイヤー_2
 62
     7
100
AcDbLine
 10
46.630056
 20
162.801777
 30
0.0
 11
63.481396
 21
162.801777
 31
0.0
  0
LINE
  5
48
100
AcDbEntity
  8
レイヤー_2
 62
     7
100
AcDbLine
 10
179.657251
 20
176.717206
 30
0.0
 11
179.657251
 21
217.204313
 31
0.0
  0
LINE
  5
47
100
AcDbEntity
  8
レイヤー_2
 62
     7
100
AcDbLine
 10
111.957335
 20
218.368755
 30
0.0
 11
111.957335
 21
243.085248
 31
0.0
  0
LINE
  5
46
100
AcDbEntity
  8
レイヤー_2
 62
     7
100
AcDbLine
 10
110.618571
 20
241.917361
 30
0.0
 11
145.992811
 21
241.917361
 31
0.0
  0
LINE
  5
45
100
AcDbEntity
  8
レイヤー_2
 62
     7
100
AcDbLine
 10
144.4625
 20
195.094035
 30
0.0
 11
144.4625
 21
180.147833
 31
0.0
  0
LINE
  5
44
100
AcDbEntity
  8
レイヤー_2
 62
     7
100
AcDbLine
 10
111.978006
 20
241.897035
 30
0.0
 11
110.8897
 21
240.672304
 31
0.0
  0
LINE
  5
43
100
AcDbEntity
  8
レイヤー_2
 62
     7
100
AcDbLine
 10
113.066656
 20
243.121766
 30
0.0
 11
111.978006
 21
241.897035
 31
0.0
  0
LINE
  5
42
100
AcDbEntity
  8
レイヤー_2
 62
     7
100
AcDbLine
 10
144.640611
 20
241.903581
 30
0.0
 11
143.551961
 21
240.67816
 31
0.0
  0
LINE
  5
41
100
AcDbEntity
  8
レイヤー_2
 62
     7
100
AcDbLine
 10
145.728573
 20
243.127623
 30
0.0
 11
144.640611
 21
241.903581
 31
0.0
  0
LINE
  5
40
100
AcDbEntity
  8
レイヤー_2
 62
     7
100
AcDbLine
 10
179.657251
 20
177.472716
 30
0.0
 11
180.881638
 21
176.38441
 31
0.0
  0
LINE
  5
3F
100
AcDbEntity
  8
レイヤー_2
 62
     7
100
AcDbLine
 10
178.43252
 20
178.561711
 30
0.0
 11
179.657251
 21
177.472716
 31
0.0
  0
LINE
  5
3E
100
AcDbEntity
  8
レイヤー_2
 62
     7
100
AcDbLine
 10
179.766116
 20
215.917914
 30
0.0
 11
180.991192
 21
214.829609
 31
0.0
  0
LINE
  5
3D
100
AcDbEntity
  8
レイヤー_2
 62
     7
100
AcDbLine
 10
178.541385
 20
217.006909
 30
0.0
 11
179.766116
 21
215.917914
 31
0.0
  0
LINE
  5
3C
100
AcDbEntity
  8
レイヤー_2
 62
     7
100
AcDbLine
 10
123.978307
 20
177.463414
 30
0.0
 11
193.833819
 21
177.463414
 31
0.0
  0
LINE
  5
3B
100
AcDbEntity
  8
レイヤー_2
 62
     7
100
AcDbLine
 10
143.306326
 20
180.485452
 30
0.0
 11
145.483626
 21
182.934915
 31
0.0
  0
LINE
  5
3A
100
AcDbEntity
  8
レイヤー_2
 62
     7
100
AcDbLine
 10
155.634256
 20
185.556977
 30
0.0
 11
156.29468
 21
188.766772
 31
0.0
  0
LINE
  5
39
100
AcDbEntity
  8
レイヤー_2
 62
     7
100
AcDbLine
 10
46.558743
 20
177.468582
 30
0.0
 11
58.452246
 21
177.468582
 31
0.0
  0
LINE
  5
38
100
AcDbEntity
  8
レイヤー_2
 62
     7
100
AcDbLine
 10
47.906809
 20
178.59375
 30
0.0
 11
47.906809
 21
135.327485
 31
0.0
  0
LINE
  5
37
100
AcDbEntity
  8
レイヤー_2
 62
     7
100
AcDbLine
 10
46.642114
 20
178.627856
 30
0.0
 11
49.091233
 21
176.450901
 31
0.0
  0
LINE
  5
36
100
AcDbEntity
  8
レイヤー_2
 62
     7
100
AcDbLine
 10
46.787153
 20
163.818769
 30
0.0
 11
49.236271
 21
161.642502
 31
0.0
  0
LINE
  5
35
100
AcDbEntity
  8
レイヤー_2
 62
     7
100
AcDbLine
 10
135.488026
 20
215.994051
 30
0.0
 11
181.22408
 21
215.994051
 31
0.0
  0
LINE
  5
34
100
AcDbEntity
  8
レイヤー_2
 62
     7
100
AcDbLine
 10
156.746332
 20
186.451668
 30
0.0
 11
145.432294
 21
195.95772
 31
0.0
  0
LINE
  5
33
100
AcDbEntity
  8
レイヤー_2
 62
     7
100
AcDbLine
 10
144.640611
 20
199.689448
 30
0.0
 11
144.640611
 21
243.277829
 31
0.0
  0
SPLINE
  5
32
100
AcDbEntity
  8
レイヤー_2
 62
     7
100
AcDbSpline
210
0.0
220
0.0
230
1.0
 70
     8
 71
     3
 72
    11
 73
     7
 74
     0
 42
0.00000001
 43
0.00000001
 40
0.0
 40
0.0
 40
0.0
 40
0.0
 40
1.0
 40
1.0
 40
1.0
 40
2.0
 40
2.0
 40
2.0
 40
2.0
 10
130.12401258680555
 20
192.6838460286458
 30
0.0
 10
131.95094672309025
 20
186.10646972656249
 30
0.0
 10
137.90372721354166
 20
181.78563096788193
 30
0.0
 10
144.51486545138889
 20
181.74497884114581
 30
0.0
 10
149.65804850260415
 20
181.74497884114581
 30
0.0
 10
154.19455023871527
 20
184.34464789496525
 30
0.0
 10
156.91445312499999
 20
188.35473904079859
 30
0.0
  0
LINE
  5
31
100
AcDbEntity
  8
レイヤー_2
 62
     7
100
AcDbLine
 10
64.607254
 20
241.985574
 30
0.0
 11
63.519293
 21
240.760498
 31
0.0
  0
LINE
  5
30
100
AcDbEntity
  8
レイヤー_2
 62
     7
100
AcDbLine
 10
65.696593
 20
243.209961
 30
0.0
 11
64.607254
 21
241.985574
 31
0.0
  0
LINE
  5
2F
100
AcDbEntity
  8
レイヤー_2
 62
     7
100
AcDbLine
 10
47.426218
 20
242.028638
 30
0.0
 11
77.809204
 21
242.028638
 31
0.0
  0
LINE
  5
2E
100
AcDbEntity
  8
レイヤー_2
 62
     7
100
AcDbLine
 10
76.263734
 20
241.985574
 30
0.0
 11
75.175429
 21
240.760498
 31
0.0
  0
LINE
  5
2D
100
AcDbEntity
  8
レイヤー_2
 62
     7
100
AcDbLine
 10
77.352729
 20
243.209961
 30
0.0
 11
76.263734
 21
241.985574
 31
0.0
  0
LINE
  5
2C
100
AcDbEntity
  8
レイヤー_2
 62
     7
100
AcDbLine
 10
64.607254
 20
243.025993
 30
0.0
 11
64.607254
 21
216.463273
 31
0.0
  0
LINE
  5
2B
100
AcDbEntity
  8
レイヤー_2
 62
     7
100
AcDbLine
 10
76.263734
 20
243.166553
 30
0.0
 11
76.263734
 21
216.422965
 31
0.0
  0
LINE
  5
2A
100
AcDbEntity
  8
レイヤー_2
 62
     7
100
AcDbLine
 10
59.454424
 20
177.468582
 30
0.0
 11
81.279793
 21
177.468582
 31
0.0
  0
LINE
  5
29
100
AcDbEntity
  8
レイヤー_2
 62
     7
100
AcDbLine
 10
101.61912
 20
177.468582
 30
0.0
 11
123.444661
 21
177.468582
 31
0.0
  0
ENDSEC
  0
SECTION
  2
OBJECTS
  0
DICTIONARY
  5
19
100
AcDbDictionary
280
     0
281
     1
  3
ACAD_GROUP
350
1A
  3
ACAD_MLINESTYLE
350
1B
  3
ACAD_LAYOUT
350
1E
  3
ACAD_PLOTSETTINGS
350
22
  3
ACAD_PLOTSTYLENAME
350
1F
  3
ACAD_WIPEOUT_VARS
350
23
  0
DICTIONARY
  5
1A
102
{ACAD_REACTORS
330
19
102
}
100
AcDbDictionary
280
     0
281
     1
  0
DICTIONARY
  5
1B
102
{ACAD_REACTORS
330
19
102
}
100
AcDbDictionary
280
     0
281
     1
  3
Standard
350
1C
  0
MLINESTYLE
  5
1C
102
{ACAD_REACTORS
330
1B
102
}
100
AcDbMlineStyle
  2
Standard
 70
     0
  3

 62
     0
 51
90.0
 52
90.0
 71
     2
 49
0.5
 62
   256
  6
ByLayer
 49
-0.5
 62
   256
  6
ByLayer
  0
ACDBDICTIONARYWDFLT
  5
1F
102
{ACAD_REACTORS
330
19
102
}
100
AcDbDictionary
281
     1
  3
Normal
350
1D
100
AcDbDictionaryWithDefault
340
1D
  0
ACDBPLACEHOLDER
  5
1D
102
{ACAD_REACTORS
330
1F
102
}
  0
LAYOUT
  5
20
102
{ACAD_REACTORS
330
1E
102
}
100
AcDbPlotSettings
  1

  2

  4

  6

 40
0.0
 41
0.0
 42
0.0
 43
0.0
 44
0.0
 45
0.0
 46
0.0
 47
0.0
 48
0.0
 49
0.0
140
0.0
141
0.0
142
1.0
143
1.0
 70
  1024
 72
     0
 73
     0
 74
     0
  7

 75
     0
147
1.0
148
0.0
149
0.0
100
AcDbLayout
  1
Model
 70
     0
 71
     0
 10
0.0
 20
0.0
 11
0.0
 21
0.0
 12
0.0
 22
0.0
 32
0.0
 14
0.0
 24
0.0
 34
0.0
 15
0.0
 25
0.0
 35
0.0
146
0.0
 13
0.0
 23
0.0
 33
0.0
 16
0.0
 26
0.0
 36
0.0
 17
0.0
 27
0.0
 37
0.0
 76
     0
330
A
331
0
345
0
346
0
  0
LAYOUT
  5
21
102
{ACAD_REACTORS
330
1E
102
}
100
AcDbPlotSettings
  1

  2

  4

  6

 40
0.0
 41
0.0
 42
0.0
 43
0.0
 44
0.0
 45
0.0
 46
0.0
 47
0.0
 48
0.0
 49
0.0
140
0.0
141
0.0
142
1.0
143
1.0
 70
     0
 72
     0
 73
     0
 74
     0
  7

 75
     0
147
1.0
148
0.0
149
0.0
100
AcDbLayout
  1
Layout1
 70
     0
 71
     0
 10
0.0
 20
0.0
 11
0.0
 21
0.0
 12
0.0
 22
0.0
 32
0.0
 14
0.0
 24
0.0
 34
0.0
 15
0.0
 25
0.0
 35
0.0
146
0.0
 13
0.0
 23
0.0
 33
0.0
 16
0.0
 26
0.0
 36
0.0
 17
0.0
 27
0.0
 37
0.0
 76
     0
330
B
331
0
345
0
346
0
  0
DICTIONARY
  5
1E
102
{ACAD_REACTORS
330
19
102
}
100
AcDbDictionary
280
     0
281
     1
  3
Layout1
350
21
  3
Model
350
20
  0
DICTIONARY
  5
22
102
{ACAD_REACTORS
330
19
102
}
100
AcDbDictionary
280
     0
281
     1
  0
WIPEOUTVARIABLES
  5
23
100
AcDbWipeoutVariables
 70
     1
  0
IMAGEDEF_REACTOR
  5
5FF
100
AcDbRasterImageDefReactor
 90
        2
330
5FE
  0
IMAGEDEF
  5
600
100
AcDbRasterImageDef
 90
        0
  1
\\192.168.6.3\free(2009_04\組織\営業本部\営推G\エンジニアリングサービスチーム\丸茂 from 081001\DBカタログ品参考図ＡＩ\IMO\33521670_1.bmp
 10
70.0
 20
9.0
 11
0.352778
 21
0.352778
280
     1
281
     0
  0
IMAGEDEF_REACTOR
  5
602
100
AcDbRasterImageDefReactor
 90
        2
330
601
  0
IMAGEDEF
  5
603
100
AcDbRasterImageDef
 90
        0
  1
\\192.168.6.3\free(2009_04\組織\営業本部\営推G\エンジニアリングサービスチーム\丸茂 from 081001\DBカタログ品参考図ＡＩ\IMO\33521670_2.bmp
 10
70.0
 20
9.0
 11
0.352778
 21
0.352778
280
     1
281
     0
  0
ENDSEC
  0
EOF
