  0
SECTION
  2
HEADER
  9
$ACADVER
  1
AC1015
  9
$ACADMAINTVER
 70
     6
  9
$DWGCODEPAGE
  3
ANSI_932
  9
$INSBASE
 10
0.0
 20
0.0
 30
0.0
  9
$EXTMIN
 10
23.283333
 20
26.811111
 30
1.000000E+20
  9
$EXTMAX
 10
198.966667
 20
276.930556
 30
-1.000000E+20
  9
$LIMMIN
 10
23.283333
 20
26.811111
  9
$LIMMAX
 10
198.966667
 20
276.930556
  9
$ORTHOMODE
 70
     0
  9
$REGENMODE
 70
     1
  9
$FILLMODE
 70
     1
  9
$QTEXTMODE
 70
     0
  9
$MIRRTEXT
 70
     1
  9
$LTSCALE
 40
1.0
  9
$ATTMODE
 70
     1
  9
$TEXTSIZE
 40
0.2
  9
$TRACEWID
 40
0.05
  9
$TEXTSTYLE
  7
Standard
  9
$CLAYER
  8
0
  9
$CELTYPE
  6
Continuous
  9
$CECOLOR
 62
   256
  9
$CELTSCALE
 40
1.0
  9
$DISPSILH
 70
     0
  9
$DIMSCALE
 40
1.0
  9
$DIMASZ
 40
0.18
  9
$DIMEXO
 40
0.0625
  9
$DIMDLI
 40
0.38
  9
$DIMRND
 40
0.0
  9
$DIMDLE
 40
0.0
  9
$DIMEXE
 40
0.18
  9
$DIMTP
 40
0.0
  9
$DIMTM
 40
0.0
  9
$DIMTXT
 40
0.18
  9
$DIMCEN
 40
0.09
  9
$DIMTSZ
 40
0.0
  9
$DIMTOL
 70
     0
  9
$DIMLIM
 70
     0
  9
$DIMTIH
 70
     1
  9
$DIMTOH
 70
     1
  9
$DIMSE1
 70
     0
  9
$DIMSE2
 70
     0
  9
$DIMTAD
 70
     0
  9
$DIMZIN
 70
     0
  9
$DIMBLK
  1

  9
$DIMASO
 70
     1
  9
$DIMSHO
 70
     1
  9
$DIMPOST
  1

  9
$DIMAPOST
  1

  9
$DIMALT
 70
     0
  9
$DIMALTD
 70
     2
  9
$DIMALTF
 40
25.4
  9
$DIMLFAC
 40
1.0
  9
$DIMTOFL
 70
     0
  9
$DIMTVP
 40
0.0
  9
$DIMTIX
 70
     0
  9
$DIMSOXD
 70
     0
  9
$DIMSAH
 70
     0
  9
$DIMBLK1
  1

  9
$DIMBLK2
  1

  9
$DIMSTYLE
  2
Standard
  9
$DIMCLRD
 70
     0
  9
$DIMCLRE
 70
     0
  9
$DIMCLRT
 70
     0
  9
$DIMTFAC
 40
1.0
  9
$DIMGAP
 40
0.09
  9
$DIMJUST
 70
     0
  9
$DIMSD1
 70
     0
  9
$DIMSD2
 70
     0
  9
$DIMTOLJ
 70
     1
  9
$DIMTZIN
 70
     0
  9
$DIMALTZ
 70
     0
  9
$DIMALTTZ
 70
     0
  9
$DIMUPT
 70
     0
  9
$DIMDEC
 70
     4
  9
$DIMTDEC
 70
     4
  9
$DIMALTU
 70
     2
  9
$DIMALTTD
 70
     2
  9
$DIMTXSTY
  7
Standard
  9
$DIMAUNIT
 70
     0
  9
$DIMADEC
 70
     0
  9
$DIMALTRND
 40
0.0
  9
$DIMAZIN
 70
     0
  9
$DIMDSEP
 70
     0
  9
$DIMATFIT
 70
     3
  9
$DIMFRAC
 70
     0
  9
$DIMLDRBLK
  1

  9
$DIMLUNIT
 70
     2
  9
$DIMLWD
 70
     0
  9
$DIMLWE
 70
     0
  9
$DIMTMOVE
 70
     0
  9
$LUNITS
 70
     2
  9
$LUPREC
 70
     4
  9
$SKETCHINC
 40
0.1
  9
$FILLETRAD
 40
0.0
  9
$AUNITS
 70
     0
  9
$AUPREC
 70
     0
  9
$MENU
  1
acad
  9
$ELEVATION
 40
0.0
  9
$PELEVATION
 40
0.0
  9
$THICKNESS
 40
0.0
  9
$LIMCHECK
 70
     0
  9
$CHAMFERA
 40
0.0
  9
$CHAMFERB
 40
0.0
  9
$CHAMFERC
 40
0.0
  9
$CHAMFERD
 40
0.0
  9
$SKPOLY
 70
     0
  9
$TDCREATE
 40
0.000000000
  9
$TDUCREATE
 40
0.000000000
  9
$TDUPDATE
 40
0.000000000
  9
$TDUUPDATE
 40
0.000000000
  9
$TDINDWG
 40
0.0000000000
  9
$TDUSRTIMER
 40
0.0000000000
  9
$USRTIMER
 70
     1
  9
$ANGBASE
 50
0.0
  9
$ANGDIR
 70
     0
  9
$PDMODE
 70
     0
  9
$PDSIZE
 40
0.0
  9
$PLINEWID
 40
0.0
  9
$SPLFRAME
 70
     0
  9
$SPLINETYPE
 70
     6
  9
$SPLINESEGS
 70
     8
  9
$HANDSEED
  5
561
  9
$SURFTAB1
 70
     6
  9
$SURFTAB2
 70
     6
  9
$SURFTYPE
 70
     6
  9
$SURFU
 70
     6
  9
$SURFV
 70
     6
  9
$UCSBASE
  2

  9
$UCSNAME
  2

  9
$UCSORG
 10
0.0
 20
0.0
 30
0.0
  9
$UCSXDIR
 10
1.0
 20
0.0
 30
0.0
  9
$UCSYDIR
 10
0.0
 20
1.0
 30
0.0
  9
$UCSORTHOREF
  2

  9
$UCSORTHOVIEW
 70
     0
  9
$UCSORGTOP
 10
0.0
 20
0.0
 30
0.0
  9
$UCSORGBOTTOM
 10
0.0
 20
0.0
 30
0.0
  9
$UCSORGLEFT
 10
0.0
 20
0.0
 30
0.0
  9
$UCSORGRIGHT
 10
0.0
 20
0.0
 30
0.0
  9
$UCSORGFRONT
 10
0.0
 20
0.0
 30
0.0
  9
$UCSORGBACK
 10
0.0
 20
0.0
 30
0.0
  9
$PUCSBASE
  2

  9
$PUCSNAME
  2

  9
$PUCSORG
 10
0.0
 20
0.0
 30
0.0
  9
$PUCSXDIR
 10
1.0
 20
0.0
 30
0.0
  9
$PUCSYDIR
 10
0.0
 20
1.0
 30
0.0
  9
$PUCSORTHOREF
  2

  9
$PUCSORTHOVIEW
 70
     0
  9
$PUCSORGTOP
 10
0.0
 20
0.0
 30
0.0
  9
$PUCSORGBOTTOM
 10
0.0
 20
0.0
 30
0.0
  9
$PUCSORGLEFT
 10
0.0
 20
0.0
 30
0.0
  9
$PUCSORGRIGHT
 10
0.0
 20
0.0
 30
0.0
  9
$PUCSORGFRONT
 10
0.0
 20
0.0
 30
0.0
  9
$PUCSORGBACK
 10
0.0
 20
0.0
 30
0.0
  9
$USERI1
 70
     0
  9
$USERI2
 70
     0
  9
$USERI3
 70
     0
  9
$USERI4
 70
     0
  9
$USERI5
 70
     0
  9
$USERR1
 40
0.0
  9
$USERR2
 40
0.0
  9
$USERR3
 40
0.0
  9
$USERR4
 40
0.0
  9
$USERR5
 40
0.0
  9
$WORLDVIEW
 70
     1
  9
$SHADEDGE
 70
     3
  9
$SHADEDIF
 70
    70
  9
$TILEMODE
 70
     1
  9
$MAXACTVP
 70
    16
  9
$PINSBASE
 10
0.0
 20
0.0
 30
0.0
  9
$PLIMCHECK
 70
     0
  9
$PEXTMIN
 10
1.000000E+20
 20
1.000000E+20
 30
1.000000E+20
  9
$PEXTMAX
 10
-1.000000E+20
 20
-1.000000E+20
 30
-1.000000E+20
  9
$PLIMMIN
 10
0.0
 20
0.0
  9
$PLIMMAX
 10
12.0
 20
9.0
  9
$UNITMODE
 70
     0
  9
$VISRETAIN
 70
     0
  9
$PLINEGEN
 70
     1
  9
$PSLTSCALE
 70
     0
  9
$TREEDEPTH
 70
  3020
  9
$CMLSTYLE
  2
Standard
  9
$CMLJUST
 70
     0
  9
$CMLSCALE
 40
1.0
  9
$PROXYGRAPHICS
 70
     0
  9
$MEASUREMENT
 70
     1
  9
$CELWEIGHT
370
     0
  9
$ENDCAPS
280
     0
  9
$JOINSTYLE
280
     0
  9
$LWDISPLAY
290
     0
  9
$INSUNITS
 70
     0
  9
$HYPERLINKBASE
  1

  9
$STYLESHEET
  1

  9
$XEDIT
290
     1
  9
$CEPSNTYPE
380
     0
  9
$PSTYLEMODE
290
     1
  9
$FINGERPRINTGUID
  2

  9
$VERSIONGUID
  2

  9
$EXTNAMES
290
     1
  9
$PSVPSCALE
 40
0.0
  0
ENDSEC
  0
SECTION
  2
CLASSES
  0
CLASS
  1
LWPOLYLINE
  2
AcDbPolyline
  3
AutoCAD 2000
 90
    32768
280
     0
281
     1
  0
CLASS
  1
IMAGE
  2
AcDbRasterImage
  3
ISM
 90
      127
280
     0
281
     1
  0
CLASS
  1
OLE2FRAME
  2
AcDbOle2Frame
  3
AutoCAD 2000
 90
    32768
280
     0
281
     1
  0
CLASS
  1
HATCH
  2
AcDbHatch
  3
AutoCAD 2000
 90
    32768
280
     0
281
     1
  0
CLASS
  1
DICTIONARYVAR
  2
AcDbDictionaryVar
  3
AutoCAD 2000
 90
    32768
280
     0
281
     0
  0
CLASS
  1
RASTERVARIABLES
  2
AcDbRasterVariables
  3
ISM
 90
    32768
280
     0
281
     0
  0
CLASS
  1
IMAGEDEF
  2
AcDbRasterImageDef
  3
ISM
 90
        0
280
     0
281
     0
  0
CLASS
  1
IMAGEDEF_REACTOR
  2
AcDbRasterImageDefReactor
  3
ISM
 90
        1
280
     0
281
     0
  0
CLASS
  1
IDBUFFER
  2
AcDbIdBuffer
  3
AutoCAD 2000
 90
    32768
280
     0
281
     0
  0
CLASS
  1
SPATIAL_FILTER
  2
AcDbSpatialFilter
  3
AutoCAD 2000
 90
    32768
280
     0
281
     0
  0
CLASS
  1
XRECORD
  2
AcDbXrecord
  3
AutoCAD 2000
 90
    32768
280
     0
281
     0
  0
CLASS
  1
SORTENTSTABLE
  2
AcDbSortentsTable
  3
AutoCAD 2000
 90
    32768
280
     0
281
     0
  0
CLASS
  1
LAYER_INDEX
  2
AcDbLayerIndex
  3
AutoCAD 2000
 90
    32768
280
     0
281
     0
  0
CLASS
  1
SPATIAL_INDEX
  2
AcDbSpatialIndex
  3
AutoCAD 2000
 90
    32768
280
     0
281
     0
  0
CLASS
  1
OBJECT_PTR
  2
CAseDLPNTableRecord
  3
"ASE-LPNTableRecord"
 90
    32769
280
     0
281
     0
  0
CLASS
  1
LAYOUT
  2
AcDbLayout
  3
AutoCAD 2000
 90
        0
280
     0
281
     0
  0
CLASS
  1
PLOTSETTINGS
  2
AcDbPlotSettings
  3
AutoCAD 2000
 90
    32768
280
     0
281
     0
  0
CLASS
  1
ACDBDICTIONARYWDFLT
  2
AcDbDictionaryWithDefault
  3
AutoCAD 2000
 90
        0
280
     0
281
     0
  0
CLASS
  1
ACDBPLACEHOLDER
  2
AcDbPlaceHolder
  3
AutoCAD 2000
 90
        0
280
     0
281
     0
  0
CLASS
  1
VBA_PROJECT
  2
AcDbVbaProject
  3
acadvba
 90
    32768
280
     0
281
     0
  0
CLASS
  1
WIPEOUT
  2
AcDbWipeout
  3
WipeOut|AutoCAD Express Tool|expresstools@autodesk.com
 90
    32895
280
     0
281
     1
  0
CLASS
  1
WIPEOUTVARIABLES
  2
AcDbWipeoutVariables
  3
WipeOut|AutoCAD Express Tool|expresstools@autodesk.com
 90
        0
280
     0
281
     0
  0
CLASS
  1
RTEXT
  2
RText
  3
RText|AutoCAD Express Tool|expresstools@autodesk.com
 90
    32768
280
     0
281
     1
  0
CLASS
  1
ARCALIGNEDTEXT
  2
AcDbArcAlignedText
  3
ATEXT|AutoCAD Express Tool|expresstools@autodesk.com
 90
    32768
280
     0
281
     1
  0
ENDSEC
  0
SECTION
  2
TABLES
  0
TABLE
  2
VPORT
  5
7
100
AcDbSymbolTable
 70
     1
  0
VPORT
  5
15
100
AcDbSymbolTableRecord
100
AcDbViewportTableRecord
  2
*ACTIVE
 70
     0
 10
0.0
 20
0.0
 11
1.0
 21
1.0
 12
6.591288
 22
4.579184
 13
0.0
 23
0.0
 14
1.0
 24
1.0
 15
0.0
 25
0.0
 16
0.0
 26
0.0
 36
1.0
 17
0.0
 27
0.0
 37
0.0
 40
9.158369
 41
0.688564
 42
50.0
 43
0.0
 44
0.0
 50
0.0
 51
0.0
 71
     0
 72
   100
 73
     1
 74
     1
 75
     0
 76
     0
 77
     0
 78
     0
281
     0
 65
     0
110
0.0
120
0.0
130
0.0
111
1.0
121
0.0
131
0.0
112
0.0
122
1.0
132
0.0
345
0
346
0
 79
     0
146
0.0
  0
ENDTAB
  0
TABLE
  2
LTYPE
  5
4
100
AcDbSymbolTable
 70
     6
  0
LTYPE
  5
11
100
AcDbSymbolTableRecord
100
AcDbLinetypeTableRecord
  2
ByBlock
 70
    64
  3

 72
    65
 73
     0
 40
0.0
  0
LTYPE
  5
12
100
AcDbSymbolTableRecord
100
AcDbLinetypeTableRecord
  2
ByLayer
 70
    64
  3

 72
    65
 73
     0
 40
0.0
  0
LTYPE
  5
13
100
AcDbSymbolTableRecord
100
AcDbLinetypeTableRecord
  2
Continuous
 70
    64
  3
Solid line
 72
    65
 73
     0
 40
0.0
  0
LTYPE
  5
59
100
AcDbSymbolTableRecord
100
AcDbLinetypeTableRecord
  2
AI9-LType1
 70
    64
  3
Illustrator Dash Style No.1
 72
    65
 73
     4
 40
8.000295
 49
4.99992
 74
     0
 49
-1.000125
 74
     0
 49
1.000125
 74
     0
 49
-1.000125
 74
     0
  0
LTYPE
  5
464
100
AcDbSymbolTableRecord
100
AcDbLinetypeTableRecord
  2
AI9-LType2
 70
    64
  3
Illustrator Dash Style No.2
 72
    65
 73
     2
 40
2.00025
 49
1.000125
 74
     0
 49
-1.000125
 74
     0
  0
LTYPE
  5
4E6
100
AcDbSymbolTableRecord
100
AcDbLinetypeTableRecord
  2
AI9-LType3
 70
    64
  3
Illustrator Dash Style No.3
 72
    65
 73
     4
 40
14.795182
 49
9.246975
 74
     0
 49
-1.849402
 74
     0
 49
1.849402
 74
     0
 49
-1.849402
 74
     0
  0
ENDTAB
  0
TABLE
  2
LAYER
  5
2
100
AcDbSymbolTable
 70
     3
  0
LAYER
  5
14
100
AcDbSymbolTableRecord
100
AcDbLayerTableRecord
  2
0
 70
     0
 62
     7
  6
Continuous
290
     1
370
    -3
390
1D
  0
LAYER
  5
28
100
AcDbSymbolTableRecord
100
AcDbLayerTableRecord
  2
レイヤー_2
 70
     0
 62
     1
  6
Continuous
290
     1
370
    -3
390
1D
  0
LAYER
  5
546
100
AcDbSymbolTableRecord
100
AcDbLayerTableRecord
  2
レイヤー_1
 70
     0
 62
   160
  6
Continuous
290
     1
370
    -3
390
1D
  0
ENDTAB
  0
TABLE
  2
STYLE
  5
3
100
AcDbSymbolTable
 70
     5
  0
STYLE
  5
17
100
AcDbSymbolTableRecord
100
AcDbTextStyleTableRecord
  2
Standard
 70
     0
 40
0.0
 41
1.0
 50
0.0
 71
     0
 42
0.0
  3
txt
  4

  0
STYLE
  5
24
100
AcDbSymbolTableRecord
100
AcDbTextStyleTableRecord
  2
STD
 70
     0
 40
0.0
 41
1.0
 50
0.0
 71
     0
 42
0.0
  3
txt
  4

  0
STYLE
  5
25
100
AcDbSymbolTableRecord
100
AcDbTextStyleTableRecord
  2
TATESTD
 70
     4
 40
0.0
 41
1.0
 50
0.0
 71
     0
 42
0.0
  3
txt
  4

  0
STYLE
  5
26
100
AcDbSymbolTableRecord
100
AcDbTextStyleTableRecord
  2
KANJISTD
 70
     0
 40
0.0
 41
1.0
 50
0.0
 71
     0
 42
0.0
  3
txt
  4
extfont
  0
STYLE
  5
27
100
AcDbSymbolTableRecord
100
AcDbTextStyleTableRecord
  2
KANJITATE
 70
     4
 40
0.0
 41
1.0
 50
0.0
 71
     0
 42
0.0
  3
txt
  4
extfont
  0
ENDTAB
  0
TABLE
  2
VIEW
  5
5
100
AcDbSymbolTable
 70
     0
  0
ENDTAB
  0
TABLE
  2
UCS
  5
6
100
AcDbSymbolTable
 70
     0
  0
ENDTAB
  0
TABLE
  2
APPID
  5
8
100
AcDbSymbolTable
 70
     1
  0
APPID
  5
16
100
AcDbSymbolTableRecord
100
AcDbRegAppTableRecord
  2
ACAD
 70
     0
  0
ENDTAB
  0
TABLE
  2
DIMSTYLE
  5
9
100
AcDbSymbolTable
 70
     1
100
AcDbDimStyleTable
 71
     0
  0
DIMSTYLE
105
18
100
AcDbSymbolTableRecord
100
AcDbDimStyleTableRecord
  2
Standard
 70
     0
  3

  4

 40
1.0
 41
0.18
 42
0.0625
 43
0.38
 44
0.18
 45
0.0
 46
0.0
 47
0.0
 48
0.0
 71
     0
 72
     0
 73
     1
 74
     1
 75
     0
 76
     0
 77
     0
 78
     0
 79
     0
140
0.18
141
0.09
142
0.0
143
25.4
144
1.0
145
0.0
146
1.0
147
0.09
148
0.0
170
     0
171
     2
172
     0
173
     0
174
     0
175
     0
176
     0
177
     0
178
     0
179
     0
271
     4
272
     4
273
     2
274
     2
275
     0
276
     0
277
     2
278
    46
279
     0
280
     0
281
     0
282
     0
283
     1
284
     0
285
     0
286
     0
288
     0
340
17
341
0
342
0
343
0
344
0
371
    -2
372
    -2
  0
ENDTAB
  0
TABLE
  2
BLOCK_RECORD
  5
1
100
AcDbSymbolTable
 70
     8
  0
BLOCK_RECORD
  5
A
100
AcDbSymbolTableRecord
100
AcDbBlockTableRecord
  2
*MODEL_SPACE
340
20
  0
BLOCK_RECORD
  5
B
100
AcDbSymbolTableRecord
100
AcDbBlockTableRecord
  2
*PAPER_SPACE
340
21
  0
BLOCK_RECORD
  5
485
100
AcDbSymbolTableRecord
100
AcDbBlockTableRecord
  2
AI9-BLK1
340
0
102
{BLKREFS
331
486
102
}
  0
BLOCK_RECORD
  5
493
100
AcDbSymbolTableRecord
100
AcDbBlockTableRecord
  2
AI9-BLK2
340
0
102
{BLKREFS
331
494
102
}
  0
BLOCK_RECORD
  5
499
100
AcDbSymbolTableRecord
100
AcDbBlockTableRecord
  2
AI9-BLK3
340
0
102
{BLKREFS
331
49A
102
}
  0
BLOCK_RECORD
  5
49C
100
AcDbSymbolTableRecord
100
AcDbBlockTableRecord
  2
AI9-BLK4
340
0
102
{BLKREFS
331
49D
102
}
  0
BLOCK_RECORD
  5
49F
100
AcDbSymbolTableRecord
100
AcDbBlockTableRecord
  2
AI9-BLK5
340
0
102
{BLKREFS
331
4A0
102
}
  0
BLOCK_RECORD
  5
4ED
100
AcDbSymbolTableRecord
100
AcDbBlockTableRecord
  2
AI9-BLK6
340
0
102
{BLKREFS
331
4EE
102
}
  0
BLOCK_RECORD
  5
4F0
100
AcDbSymbolTableRecord
100
AcDbBlockTableRecord
  2
AI9-BLK7
340
0
102
{BLKREFS
331
4F1
102
}
  0
BLOCK_RECORD
  5
4F3
100
AcDbSymbolTableRecord
100
AcDbBlockTableRecord
  2
AI9-BLK8
340
0
102
{BLKREFS
331
4F4
102
}
  0
ENDTAB
  0
ENDSEC
  0
SECTION
  2
BLOCKS
  0
BLOCK
  5
D
100
AcDbEntity
  8
0
100
AcDbBlockBegin
  2
*MODEL_SPACE
 70
     0
 10
0.0
 20
0.0
 30
0.0
  3
*MODEL_SPACE
  1

  0
ENDBLK
  5
E
100
AcDbEntity
  8
0
100
AcDbBlockEnd
  0
BLOCK
  5
F
100
AcDbEntity
 67
     1
  8
0
100
AcDbBlockBegin
  2
*PAPER_SPACE
 70
     0
 10
0.0
 20
0.0
 30
0.0
  3
*PAPER_SPACE
  1

  0
ENDBLK
  5
10
100
AcDbEntity
 67
     1
  8
0
100
AcDbBlockEnd
  0
BLOCK
  5
487
100
AcDbEntity
  8
レイヤー_2
 62
     7
100
AcDbBlockBegin
  2
AI9-BLK1
 70
     0
 10
0.0
 20
0.0
 30
0.0
  3
AI9-BLK1
  1

  0
MTEXT
  5
488
100
AcDbEntity
  8
レイヤー_2
 62
     7
100
AcDbMText
 10
-7.408333
 20
2.835313
 30
0.0
 40
5.512152
 41
0.0
 71
     1
 72
     2
  1
\fMS Gothic|b0|i0|c128;\H5.5122;\C7;\U+03C6\U+0033\U+0035
  7
STD
210
0.0
220
0.0
230
1.0
 73
     1
 44
1.0
  0
ENDBLK
  5
489
100
AcDbEntity
  8
レイヤー_2
100
AcDbBlockEnd
  0
BLOCK
  5
495
100
AcDbEntity
  8
レイヤー_2
 62
     7
100
AcDbBlockBegin
  2
AI9-BLK2
 70
     0
 10
0.0
 20
0.0
 30
0.0
  3
AI9-BLK2
  1

  0
MTEXT
  5
497
100
AcDbEntity
  8
レイヤー_2
 62
     7
100
AcDbMText
 10
-9.928765
 20
3.954609
 30
0.0
 40
2.887318
 41
0.0
 71
     1
 72
     2
  1
\fMS PGothic|b0|i0|c128;\H2.8873;\C7;\U+63A5\U+7D9A\U+30BD\U+30B1\U+30C3\U+30C8
  7
STD
210
0.0
220
0.0
230
1.0
 73
     1
 44
1.0
  0
MTEXT
  5
496
100
AcDbEntity
  8
レイヤー_2
 62
     7
100
AcDbMText
 10
-9.928765
 20
-0.98428
 30
0.0
 40
2.887318
 41
0.0
 71
     1
 72
     2
  1
\fMS PGothic|b0|i0|c128;\H2.8873;\C7;\U+FF08\U+9006\U+6B62\U+5F01\U+4ED8\U+FF09
  7
STD
210
0.0
220
0.0
230
1.0
 73
     1
 44
1.0
  0
ENDBLK
  5
498
100
AcDbEntity
  8
レイヤー_2
100
AcDbBlockEnd
  0
BLOCK
  5
49B
100
AcDbEntity
  8
レイヤー_2
 62
     7
100
AcDbBlockBegin
  2
AI9-BLK3
 70
     0
 10
0.0
 20
0.0
 30
0.0
  3
AI9-BLK3
  1

  0
MTEXT
  5
4EB
100
AcDbEntity
  8
レイヤー_2
  6
AI9-LType3
 62
     7
100
AcDbMText
 10
-10.952648
 20
-29.922205
 30
0.0
 40
5.512152
 41
0.0
 71
     1
 72
     2
  1
\fMS PGothic|b0|i0|c128;\H5.5122;\C7;\U+0047\U+0031\U+002F\U+0032
  7
STD
210
0.0
220
0.0
230
1.0
 73
     1
 44
1.0
  0
INSERT
  5
49D
100
AcDbEntity
  8
レイヤー_2
 62
     7
100
AcDbBlockReference
  2
AI9-BLK4
 10
2.170066
 20
4.084505
 30
0.0
  0
ENDBLK
  5
4EC
100
AcDbEntity
  8
レイヤー_2
100
AcDbBlockEnd
  0
BLOCK
  5
49E
100
AcDbEntity
  8
レイヤー_2
 62
     7
100
AcDbBlockBegin
  2
AI9-BLK4
 70
     0
 10
0.0
 20
0.0
 30
0.0
  3
AI9-BLK4
  1

  0
LINE
  5
4E9
100
AcDbEntity
  8
レイヤー_2
  6
AI9-LType3
 62
     7
100
AcDbLine
 10
8.694387
 20
-23.043727
 30
0.0
 11
8.694387
 21
32.274516
 31
0.0
  0
LINE
  5
4E8
100
AcDbEntity
  8
レイヤー_2
  6
AI9-LType3
 62
     7
100
AcDbLine
 10
8.570364
 20
-22.962423
 30
0.0
 11
-5.567619
 21
-11.322134
 31
0.0
  0
LINE
  5
4E7
100
AcDbEntity
  8
レイヤー_2
  6
AI9-LType3
 62
     7
100
AcDbLine
 10
-5.567619
 20
-11.322134
 30
0.0
 11
-5.567619
 21
-32.274516
 31
0.0
  0
INSERT
  5
4A0
100
AcDbEntity
  8
レイヤー_2
 62
     7
100
AcDbBlockReference
  2
AI9-BLK5
 10
-5.567963
 20
-25.232224
 30
0.0
  0
ENDBLK
  5
4EA
100
AcDbEntity
  8
レイヤー_2
100
AcDbBlockEnd
  0
BLOCK
  5
4A1
100
AcDbEntity
  8
レイヤー_2
 62
     7
100
AcDbBlockBegin
  2
AI9-BLK5
 70
     0
 10
0.0
 20
0.0
 30
0.0
  3
AI9-BLK5
  1

  0
SPLINE
  5
4E4
100
AcDbEntity
  8
レイヤー_2
 62
     7
100
AcDbSpline
210
0.0
220
0.0
230
1.0
 70
     8
 71
     3
 72
    95
 73
    91
 74
     0
 42
0.00000001
 43
0.00000001
 40
0.0
 40
0.0
 40
0.0
 40
0.0
 40
1.0
 40
1.0
 40
1.0
 40
2.0
 40
2.0
 40
2.0
 40
3.0
 40
3.0
 40
3.0
 40
4.0
 40
4.0
 40
4.0
 40
5.0
 40
5.0
 40
5.0
 40
6.0
 40
6.0
 40
6.0
 40
7.0
 40
7.0
 40
7.0
 40
8.0
 40
8.0
 40
8.0
 40
9.0
 40
9.0
 40
9.0
 40
10.0
 40
10.0
 40
10.0
 40
11.0
 40
11.0
 40
11.0
 40
12.0
 40
12.0
 40
12.0
 40
13.0
 40
13.0
 40
13.0
 40
14.0
 40
14.0
 40
14.0
 40
15.0
 40
15.0
 40
15.0
 40
16.0
 40
16.0
 40
16.0
 40
17.0
 40
17.0
 40
17.0
 40
18.0
 40
18.0
 40
18.0
 40
19.0
 40
19.0
 40
19.0
 40
20.0
 40
20.0
 40
20.0
 40
21.0
 40
21.0
 40
21.0
 40
22.0
 40
22.0
 40
22.0
 40
23.0
 40
23.0
 40
23.0
 40
24.0
 40
24.0
 40
24.0
 40
25.0
 40
25.0
 40
25.0
 40
26.0
 40
26.0
 40
26.0
 40
27.0
 40
27.0
 40
27.0
 40
28.0
 40
28.0
 40
28.0
 40
29.0
 40
29.0
 40
29.0
 40
30.0
 40
30.0
 40
30.0
 40
30.0
 10
1.1103542751736111
 20
6.2991848415798604
 30
0.0
 10
1.097951931423611
 20
6.2957397460937496
 30
0.0
 10
1.085549587673611
 20
6.292294650607638
 30
0.0
 10
1.0731472439236109
 20
6.2888495551215273
 30
0.0
 10
1.0607449001736111
 20
6.2854044596354157
 30
0.0
 10
1.0483425564236111
 20
6.282648383246527
 30
0.0
 10
1.035940212673611
 20
6.2798923068576382
 30
0.0
 10
1.023537868923611
 20
6.2771362304687495
 30
0.0
 10
1.0111355251736109
 20
6.2743801540798607
 30
0.0
 10
0.998733181423611
 20
6.2723130967881939
 30
0.0
 10
0.9863308376736111
 20
6.2702460394965271
 30
0.0
 10
0.973928493923611
 20
6.2688680013020823
 30
0.0
 10
0.9608371310763888
 20
6.2674899631076384
 30
0.0
 10
0.9484347873263888
 20
6.2661119249131936
 30
0.0
 10
0.9360324435763888
 20
6.2661119249131936
 30
0.0
 10
0.9229410807291666
 20
6.2661119249131936
 30
0.0
 10
0.8946912977430555
 20
6.2668009440104164
 30
0.0
 10
0.8664415147569444
 20
6.2702460394965271
 30
0.0
 10
0.8388807508680555
 20
6.2771362304687495
 30
0.0
 10
0.8099419487847221
 20
6.2840264214409718
 30
0.0
 10
0.781692165798611
 20
6.2916056315104161
 30
0.0
 10
0.7541314019097222
 20
6.2998738606770823
 30
0.0
 10
0.725881618923611
 20
6.3081420898437495
 30
0.0
 10
0.6976318359374999
 20
6.3164103190104157
 30
0.0
 10
0.6700710720486111
 20
6.3239895290798609
 30
0.0
 10
0.6431993272569444
 20
6.3308797200520823
 30
0.0
 10
0.6156385633680555
 20
6.3363918728298607
 30
0.0
 10
0.5880777994791666
 20
6.3398369683159714
 30
0.0
 10
0.5625840928819444
 20
6.3425930447048602
 30
0.0
 10
0.5357123480902777
 20
6.3419040256076382
 30
0.0
 10
0.5102186414930555
 20
6.3370808919270827
 30
0.0
 10
0.4716335720486111
 20
6.3281236436631936
 30
0.0
 10
0.4351155598958333
 20
6.3115871853298602
 30
0.0
 10
0.4034206814236111
 20
6.2881605360243054
 30
0.0
 10
0.3675916883680555
 20
6.2619778103298609
 30
0.0
 10
0.3338297526041666
 20
6.2337280273437496
 30
0.0
 10
0.3028238932291666
 20
6.2027221679687496
 30
0.0
 10
0.2704399956597222
 20
6.1703382703993048
 30
0.0
 10
0.2373670789930555
 20
6.1386433919270829
 30
0.0
 10
0.2049831814236111
 20
6.1069485134548609
 30
0.0
 10
0.1739773220486111
 20
6.0773206922743048
 30
0.0
 10
0.1409044053819444
 20
6.0504489474826384
 30
0.0
 10
0.1050754123263889
 20
6.0263332790798607
 30
0.0
 10
0.0740695529513889
 20
6.0049736870659718
 30
0.0
 10
0.0375515407986111
 20
5.9918823242187491
 30
0.0
 10
0.0003445095486111
 20
5.9863701714409716
 30
0.0
 10
-0.0368625217013889
 20
5.982236056857638
 30
0.0
 10
-0.0740695529513889
 20
5.9870591905381936
 30
0.0
 10
-0.1078314887152778
 20
6.002217610677083
 30
0.0
 10
-0.1457275390625
 20
6.0187540690104164
 30
0.0
 10
-0.1829345703125
 20
6.0359795464409718
 30
0.0
 10
-0.2208306206597222
 20
6.0532050238715271
 30
0.0
 10
-0.2601047092013888
 20
6.0718085394965273
 30
0.0
 10
-0.2986897786458333
 20
6.0924791124131943
 30
0.0
 10
-0.3358968098958333
 20
6.1152167426215271
 30
0.0
 10
-0.3717258029513889
 20
6.1351982964409713
 30
0.0
 10
-0.4096218532986111
 20
6.1517347547743046
 30
0.0
 10
-0.4482069227430555
 20
6.1648261176215273
 30
0.0
 10
-0.4826578776041666
 20
6.1765394422743052
 30
0.0
 10
-0.5191758897569444
 20
6.1806735568576388
 30
0.0
 10
-0.5550048828124999
 20
6.1765394422743052
 30
0.0
 10
-0.5811876085069444
 20
6.1724053276909716
 30
0.0
 10
-0.6066813151041666
 20
6.1634480794270825
 30
0.0
 10
-0.6294189453125
 20
6.1503567165798607
 30
0.0
 10
-0.6542236328125
 20
6.1358873155381941
 30
0.0
 10
-0.6783393012152778
 20
6.1193508572048607
 30
0.0
 10
-0.7010769314236111
 20
6.1014363606770825
 30
0.0
 10
-0.7245035807291667
 20
6.0821438259548604
 30
0.0
 10
-0.7486192491319443
 20
6.0621622721354163
 30
0.0
 10
-0.7720458984374999
 20
6.0421807183159713
 30
0.0
 10
-0.7954725477430555
 20
6.0221991644965271
 30
0.0
 10
-0.8195882161458332
 20
6.002906629774305
 30
0.0
 10
-0.8450819227430555
 20
5.9849921332465268
 30
0.0
 10
-0.8691975911458333
 20
5.9670776367187495
 30
0.0
 10
-0.8953803168402778
 20
5.9526082356770829
 30
0.0
 10
-0.9229410807291666
 20
5.940894911024305
 30
0.0
 10
-0.9346544053819443
 20
5.9353827582465275
 30
0.0
 10
-0.9463677300347222
 20
5.9312486436631939
 30
0.0
 10
-0.9587700737847221
 20
5.9284925672743052
 30
0.0
 10
-0.9711724175347222
 20
5.9250474717881936
 30
0.0
 10
-0.9835747612847221
 20
5.9222913953993048
 30
0.0
 10
-0.9959771050347221
 20
5.9195353190104161
 30
0.0
 10
-1.0083794487847222
 20
5.9174682617187493
 30
0.0
 10
-1.0207817925347222
 20
5.9154012044270825
 30
0.0
 10
-1.0331841362847221
 20
5.9140231662326386
 30
0.0
 10
-1.0462754991319443
 20
5.9126451280381938
 30
0.0
 10
-1.0586778428819443
 20
5.9119561089409718
 30
0.0
 10
-1.0717692057291666
 20
5.910578070746527
 30
0.0
 10
-1.0841715494791666
 20
5.909200032552083
 30
0.0
 10
-1.0972629123263888
 20
5.9085110134548602
 30
0.0
 10
-1.1096652560763889
 20
5.9078219943576382
 30
0.0
  0
LINE
  5
4E3
100
AcDbEntity
  8
レイヤー_2
 62
     7
100
AcDbLine
 10
-1.986098
 20
-0.541397
 30
0.0
 11
-1.869653
 21
-0.541397
 31
0.0
  0
LINE
  5
4E2
100
AcDbEntity
  8
レイヤー_2
 62
     7
100
AcDbLine
 10
-1.869653
 20
0.525894
 30
0.0
 11
-1.869653
 21
-0.541397
 31
0.0
  0
LINE
  5
4E1
100
AcDbEntity
  8
レイヤー_2
 62
     7
100
AcDbLine
 10
-1.869653
 20
-0.541397
 30
0.0
 11
-1.986098
 21
-0.743279
 31
0.0
  0
LINE
  5
4E0
100
AcDbEntity
  8
レイヤー_2
 62
     7
100
AcDbLine
 10
1.869653
 20
-0.541397
 30
0.0
 11
1.986787
 21
-0.541397
 31
0.0
  0
LINE
  5
4DF
100
AcDbEntity
  8
レイヤー_2
 62
     7
100
AcDbLine
 10
1.869653
 20
-0.541397
 30
0.0
 11
1.869653
 21
0.525894
 31
0.0
  0
LINE
  5
4DE
100
AcDbEntity
  8
レイヤー_2
 62
     7
100
AcDbLine
 10
1.986787
 20
-0.743279
 30
0.0
 11
1.869653
 21
-0.541397
 31
0.0
  0
LINE
  5
4DD
100
AcDbEntity
  8
レイヤー_2
 62
     7
100
AcDbLine
 10
1.096574
 20
0.635448
 30
0.0
 11
1.57682
 21
0.635448
 31
0.0
  0
LINE
  5
4DC
100
AcDbEntity
  8
レイヤー_2
 62
     7
100
AcDbLine
 10
1.096574
 20
3.087667
 30
0.0
 11
1.096574
 21
0.635448
 31
0.0
  0
LINE
  5
4DB
100
AcDbEntity
  8
レイヤー_2
 62
     7
100
AcDbLine
 10
1.57682
 20
3.087667
 30
0.0
 11
1.096574
 21
3.087667
 31
0.0
  0
LINE
  5
4DA
100
AcDbEntity
  8
レイヤー_2
 62
     7
100
AcDbLine
 10
1.57682
 20
3.087667
 30
0.0
 11
1.57682
 21
0.635448
 31
0.0
  0
LINE
  5
4D9
100
AcDbEntity
  8
レイヤー_2
 62
     7
100
AcDbLine
 10
1.75252
 20
4.706862
 30
0.0
 11
0.000345
 21
4.706862
 31
0.0
  0
LINE
  5
4D8
100
AcDbEntity
  8
レイヤー_2
 62
     7
100
AcDbLine
 10
2.453942
 20
0.5004
 30
0.0
 11
0.000345
 21
0.5004
 31
0.0
  0
LINE
  5
4D7
100
AcDbEntity
  8
レイヤー_2
 62
     7
100
AcDbLine
 10
2.687519
 20
0.635448
 30
0.0
 11
2.453942
 21
0.5004
 31
0.0
  0
LINE
  5
4D6
100
AcDbEntity
  8
レイヤー_2
 62
     7
100
AcDbLine
 10
1.75252
 20
4.706862
 30
0.0
 11
2.56005
 21
3.308842
 31
0.0
  0
LINE
  5
4D5
100
AcDbEntity
  8
レイヤー_2
 62
     7
100
AcDbLine
 10
2.687519
 20
3.087667
 30
0.0
 11
2.687519
 21
0.635448
 31
0.0
  0
LINE
  5
4D4
100
AcDbEntity
  8
レイヤー_2
 62
     7
100
AcDbLine
 10
-1.179945
 20
4.706862
 30
0.0
 11
0.000345
 21
4.706862
 31
0.0
  0
LINE
  5
4D3
100
AcDbEntity
  8
レイヤー_2
 62
     7
100
AcDbLine
 10
-2.044664
 20
0.5004
 30
0.0
 11
0.000345
 21
0.5004
 31
0.0
  0
LINE
  5
4D2
100
AcDbEntity
  8
レイヤー_2
 62
     7
100
AcDbLine
 10
-1.57682
 20
0.635448
 30
0.0
 11
-1.095885
 21
0.635448
 31
0.0
  0
LINE
  5
4D1
100
AcDbEntity
  8
レイヤー_2
 62
     7
100
AcDbLine
 10
-1.095885
 20
0.635448
 30
0.0
 11
-1.095885
 21
3.087667
 31
0.0
  0
LINE
  5
4D0
100
AcDbEntity
  8
レイヤー_2
 62
     7
100
AcDbLine
 10
-1.095885
 20
3.087667
 30
0.0
 11
-1.57682
 21
3.087667
 31
0.0
  0
LINE
  5
4CF
100
AcDbEntity
  8
レイヤー_2
 62
     7
100
AcDbLine
 10
-1.57682
 20
0.635448
 30
0.0
 11
-1.57682
 21
3.087667
 31
0.0
  0
LINE
  5
4CE
100
AcDbEntity
  8
レイヤー_2
 62
     7
100
AcDbLine
 10
0.000345
 20
4.706862
 30
0.0
 11
-1.75252
 21
4.706862
 31
0.0
  0
LINE
  5
4CD
100
AcDbEntity
  8
レイヤー_2
 62
     7
100
AcDbLine
 10
0.000345
 20
0.5004
 30
0.0
 11
-2.453942
 21
0.5004
 31
0.0
  0
LINE
  5
4CC
100
AcDbEntity
  8
レイヤー_2
 62
     7
100
AcDbLine
 10
-2.453942
 20
0.5004
 30
0.0
 11
-2.687519
 21
0.635448
 31
0.0
  0
LINE
  5
4CB
100
AcDbEntity
  8
レイヤー_2
 62
     7
100
AcDbLine
 10
-2.687519
 20
3.087667
 30
0.0
 11
-1.75252
 21
4.706862
 31
0.0
  0
LINE
  5
4CA
100
AcDbEntity
  8
レイヤー_2
 62
     7
100
AcDbLine
 10
-2.687519
 20
0.635448
 30
0.0
 11
-2.687519
 21
3.087667
 31
0.0
  0
LINE
  5
4C9
100
AcDbEntity
  8
レイヤー_2
 62
     7
100
AcDbLine
 10
2.56005
 20
3.308842
 30
0.0
 11
2.687519
 21
3.087667
 31
0.0
  0
SPLINE
  5
4C8
100
AcDbEntity
  8
レイヤー_2
 62
     7
100
AcDbSpline
210
0.0
220
0.0
230
1.0
 70
     8
 71
     3
 72
     8
 73
     4
 74
     0
 42
0.00000001
 43
0.00000001
 40
0.0
 40
0.0
 40
0.0
 40
0.0
 40
1.0
 40
1.0
 40
1.0
 40
1.0
 10
1.0965738932291667
 20
0.6354478624131944
 30
0.0
 10
0.7375949435763888
 20
0.5458753797743056
 30
0.0
 10
0.3696587456597222
 20
0.5004001193576388
 30
0.0
 10
0.0003445095486111
 20
0.5004001193576388
 30
0.0
  0
SPLINE
  5
4C7
100
AcDbEntity
  8
レイヤー_2
 62
     7
100
AcDbSpline
210
0.0
220
0.0
230
1.0
 70
     8
 71
     3
 72
     8
 73
     4
 74
     0
 42
0.00000001
 43
0.00000001
 40
0.0
 40
0.0
 40
0.0
 40
0.0
 40
1.0
 40
1.0
 40
1.0
 40
1.0
 10
2.6875189887152775
 20
0.6354478624131944
 30
0.0
 10
2.3395643446180552
 20
0.4549248589409722
 30
0.0
 10
1.9254638671874997
 20
0.4549248589409722
 30
0.0
 10
1.5768202039930554
 20
0.6354478624131944
 30
0.0
  0
SPLINE
  5
4C6
100
AcDbEntity
  8
レイヤー_2
 62
     7
100
AcDbSpline
210
0.0
220
0.0
230
1.0
 70
     8
 71
     3
 72
     8
 73
     4
 74
     0
 42
0.00000001
 43
0.00000001
 40
0.0
 40
0.0
 40
0.0
 40
0.0
 40
1.0
 40
1.0
 40
1.0
 40
1.0
 10
0.0003445095486111
 20
3.4928100585937498
 30
0.0
 10
0.4020426432291666
 20
3.4928100585937498
 30
0.0
 10
0.7906494140624999
 20
3.3494940863715277
 30
0.0
 10
1.0965738932291667
 20
3.087666829427083
 30
0.0
  0
SPLINE
  5
4C5
100
AcDbEntity
  8
レイヤー_2
 62
     7
100
AcDbSpline
210
0.0
220
0.0
230
1.0
 70
     8
 71
     3
 72
    11
 73
     7
 74
     0
 42
0.00000001
 43
0.00000001
 40
0.0
 40
0.0
 40
0.0
 40
0.0
 40
1.0
 40
1.0
 40
1.0
 40
2.0
 40
2.0
 40
2.0
 40
2.0
 10
1.5768202039930554
 20
3.087666829427083
 30
0.0
 10
1.6725938585069442
 20
3.3949693467881943
 30
0.0
 10
1.9991889105902776
 20
3.5658460828993053
 30
0.0
 10
2.3058024088541664
 20
3.4693834092881941
 30
0.0
 10
2.403643120659722
 20
3.4390665690104165
 30
0.0
 10
2.491148546006944
 20
3.3839450412326384
 30
0.0
 10
2.5600504557291663
 20
3.3088419596354162
 30
0.0
  0
SPLINE
  5
4C4
100
AcDbEntity
  8
レイヤー_2
 62
     7
100
AcDbSpline
210
0.0
220
0.0
230
1.0
 70
     8
 71
     3
 72
     8
 73
     4
 74
     0
 42
0.00000001
 43
0.00000001
 40
0.0
 40
0.0
 40
0.0
 40
0.0
 40
1.0
 40
1.0
 40
1.0
 40
1.0
 10
0.0003445095486111
 20
0.5004001193576388
 30
0.0
 10
-0.3696587456597222
 20
0.5004001193576388
 30
0.0
 10
-0.7375949435763888
 20
0.5458753797743056
 30
0.0
 10
-1.0958848741319442
 20
0.6354478624131944
 30
0.0
  0
SPLINE
  5
4C3
100
AcDbEntity
  8
レイヤー_2
 62
     7
100
AcDbSpline
210
0.0
220
0.0
230
1.0
 70
     8
 71
     3
 72
     8
 73
     4
 74
     0
 42
0.00000001
 43
0.00000001
 40
0.0
 40
0.0
 40
0.0
 40
0.0
 40
1.0
 40
1.0
 40
1.0
 40
1.0
 10
-1.5768202039930554
 20
0.6354478624131944
 30
0.0
 10
-1.9254638671874997
 20
0.4549248589409722
 30
0.0
 10
-2.3395643446180552
 20
0.4549248589409722
 30
0.0
 10
-2.6875189887152775
 20
0.6354478624131944
 30
0.0
  0
SPLINE
  5
4C2
100
AcDbEntity
  8
レイヤー_2
 62
     7
100
AcDbSpline
210
0.0
220
0.0
230
1.0
 70
     8
 71
     3
 72
     8
 73
     4
 74
     0
 42
0.00000001
 43
0.00000001
 40
0.0
 40
0.0
 40
0.0
 40
0.0
 40
1.0
 40
1.0
 40
1.0
 40
1.0
 10
-1.0958848741319442
 20
3.087666829427083
 30
0.0
 10
-0.7906494140624999
 20
3.3494940863715277
 30
0.0
 10
-0.4020426432291666
 20
3.4928100585937498
 30
0.0
 10
0.0003445095486111
 20
3.4928100585937498
 30
0.0
  0
SPLINE
  5
4C1
100
AcDbEntity
  8
レイヤー_2
 62
     7
100
AcDbSpline
210
0.0
220
0.0
230
1.0
 70
     8
 71
     3
 72
    11
 73
     7
 74
     0
 42
0.00000001
 43
0.00000001
 40
0.0
 40
0.0
 40
0.0
 40
0.0
 40
1.0
 40
1.0
 40
1.0
 40
2.0
 40
2.0
 40
2.0
 40
2.0
 10
-2.6875189887152775
 20
3.087666829427083
 30
0.0
 10
-2.5917453342013888
 20
3.3949693467881943
 30
0.0
 10
-2.2651502821180554
 20
3.5658460828993053
 30
0.0
 10
-1.9585367838541665
 20
3.4693834092881941
 30
0.0
 10
-1.7766357421874999
 20
3.4128838433159721
 30
0.0
 10
-1.6340087890624999
 20
3.2702568901909719
 30
0.0
 10
-1.5768202039930554
 20
3.087666829427083
 30
0.0
  0
LINE
  5
4C0
100
AcDbEntity
  8
レイヤー_2
 62
     7
100
AcDbLine
 10
2.775024
 20
-6.131409
 30
0.0
 11
3.03823
 21
-5.990849
 31
0.0
  0
LINE
  5
4BF
100
AcDbEntity
  8
レイヤー_2
 62
     7
100
AcDbLine
 10
-3.03823
 20
-5.990849
 30
0.0
 11
-2.775024
 21
-6.131409
 31
0.0
  0
LINE
  5
4BE
100
AcDbEntity
  8
レイヤー_2
 62
     7
100
AcDbLine
 10
3.03823
 20
-1.316543
 30
0.0
 11
2.775024
 21
-1.175983
 31
0.0
  0
LINE
  5
4BD
100
AcDbEntity
  8
レイヤー_2
 62
     7
100
AcDbLine
 10
-2.775024
 20
-1.175983
 30
0.0
 11
-3.03823
 21
-1.316543
 31
0.0
  0
LINE
  5
4BC
100
AcDbEntity
  8
レイヤー_2
 62
     7
100
AcDbLine
 10
2.687519
 20
-6.34156
 30
0.0
 11
-2.687519
 21
-6.34156
 31
0.0
  0
LINE
  5
4BB
100
AcDbEntity
  8
レイヤー_2
 62
     7
100
AcDbLine
 10
1.844849
 20
-5.990849
 30
0.0
 11
1.168921
 21
-5.990849
 31
0.0
  0
LINE
  5
4BA
100
AcDbEntity
  8
レイヤー_2
 62
     7
100
AcDbLine
 10
-1.168232
 20
-5.990849
 30
0.0
 11
-1.84416
 21
-5.990849
 31
0.0
  0
LINE
  5
4B9
100
AcDbEntity
  8
レイヤー_2
 62
     7
100
AcDbLine
 10
-3.03823
 20
-5.990849
 30
0.0
 11
-2.687519
 21
-6.34156
 31
0.0
  0
LINE
  5
4B8
100
AcDbEntity
  8
レイヤー_2
 62
     7
100
AcDbLine
 10
3.03823
 20
-5.990849
 30
0.0
 11
2.687519
 21
-6.34156
 31
0.0
  0
LINE
  5
4B7
100
AcDbEntity
  8
レイヤー_2
 62
     7
100
AcDbLine
 10
-2.687519
 20
-0.965833
 30
0.0
 11
2.687519
 21
-0.965833
 31
0.0
  0
LINE
  5
4B6
100
AcDbEntity
  8
レイヤー_2
 62
     7
100
AcDbLine
 10
-2.687519
 20
-0.965833
 30
0.0
 11
-3.03823
 21
-1.316543
 31
0.0
  0
LINE
  5
4B5
100
AcDbEntity
  8
レイヤー_2
 62
     7
100
AcDbLine
 10
-1.84416
 20
-1.316543
 30
0.0
 11
-1.168232
 21
-1.316543
 31
0.0
  0
LINE
  5
4B4
100
AcDbEntity
  8
レイヤー_2
 62
     7
100
AcDbLine
 10
1.168921
 20
-1.316543
 30
0.0
 11
1.844849
 21
-1.316543
 31
0.0
  0
LINE
  5
4B3
100
AcDbEntity
  8
レイヤー_2
 62
     7
100
AcDbLine
 10
2.687519
 20
-0.965833
 30
0.0
 11
3.03823
 21
-1.316543
 31
0.0
  0
LINE
  5
4B2
100
AcDbEntity
  8
レイヤー_2
 62
     7
100
AcDbLine
 10
3.03823
 20
-5.990849
 30
0.0
 11
3.03823
 21
-1.316543
 31
0.0
  0
LINE
  5
4B1
100
AcDbEntity
  8
レイヤー_2
 62
     7
100
AcDbLine
 10
1.844849
 20
-5.990849
 30
0.0
 11
1.844849
 21
-1.316543
 31
0.0
  0
LINE
  5
4B0
100
AcDbEntity
  8
レイヤー_2
 62
     7
100
AcDbLine
 10
1.168921
 20
-5.990849
 30
0.0
 11
1.168921
 21
-1.316543
 31
0.0
  0
LINE
  5
4AF
100
AcDbEntity
  8
レイヤー_2
 62
     7
100
AcDbLine
 10
-1.168232
 20
-5.990849
 30
0.0
 11
-1.168232
 21
-1.316543
 31
0.0
  0
LINE
  5
4AE
100
AcDbEntity
  8
レイヤー_2
 62
     7
100
AcDbLine
 10
-1.84416
 20
-5.990849
 30
0.0
 11
-1.84416
 21
-1.316543
 31
0.0
  0
LINE
  5
4AD
100
AcDbEntity
  8
レイヤー_2
 62
     7
100
AcDbLine
 10
-3.03823
 20
-5.990849
 30
0.0
 11
-3.03823
 21
-1.316543
 31
0.0
  0
SPLINE
  5
4AC
100
AcDbEntity
  8
レイヤー_2
 62
     7
100
AcDbSpline
210
0.0
220
0.0
230
1.0
 70
     8
 71
     3
 72
     8
 73
     4
 74
     0
 42
0.00000001
 43
0.00000001
 40
0.0
 40
0.0
 40
0.0
 40
0.0
 40
1.0
 40
1.0
 40
1.0
 40
1.0
 10
2.7750244140624996
 20
-6.1314086914062491
 30
0.0
 10
2.4684109157986107
 20
-6.2960842556423602
 30
0.0
 10
2.0894504123263888
 20
-6.2388956705729157
 30
0.0
 10
1.8448486328124998
 20
-5.9908487955729157
 30
0.0
  0
SPLINE
  5
4AB
100
AcDbEntity
  8
レイヤー_2
 62
     7
100
AcDbSpline
210
0.0
220
0.0
230
1.0
 70
     8
 71
     3
 72
     8
 73
     4
 74
     0
 42
0.00000001
 43
0.00000001
 40
0.0
 40
0.0
 40
0.0
 40
0.0
 40
1.0
 40
1.0
 40
1.0
 40
1.0
 10
-1.8441596137152776
 20
-5.9908487955729157
 30
0.0
 10
-2.0894504123263888
 20
-6.2388956705729157
 30
0.0
 10
-2.4677218967013888
 20
-6.2960842556423602
 30
0.0
 10
-2.7750244140624996
 20
-6.1314086914062491
 30
0.0
  0
SPLINE
  5
4AA
100
AcDbEntity
  8
レイヤー_2
 62
     7
100
AcDbSpline
210
0.0
220
0.0
230
1.0
 70
     8
 71
     3
 72
     8
 73
     4
 74
     0
 42
0.00000001
 43
0.00000001
 40
0.0
 40
0.0
 40
0.0
 40
0.0
 40
1.0
 40
1.0
 40
1.0
 40
1.0
 10
1.1689208984374999
 20
-5.9908487955729157
 30
0.0
 10
0.4206461588541666
 20
-6.3022854275173605
 30
0.0
 10
-0.4206461588541666
 20
-6.3022854275173605
 30
0.0
 10
-1.1682318793402777
 20
-5.9908487955729157
 30
0.0
  0
SPLINE
  5
4A9
100
AcDbEntity
  8
レイヤー_2
 62
     7
100
AcDbSpline
210
0.0
220
0.0
230
1.0
 70
     8
 71
     3
 72
     8
 73
     4
 74
     0
 42
0.00000001
 43
0.00000001
 40
0.0
 40
0.0
 40
0.0
 40
0.0
 40
1.0
 40
1.0
 40
1.0
 40
1.0
 10
1.8448486328124998
 20
-1.3165432400173609
 30
0.0
 10
2.0894504123263888
 20
-1.0691853841145833
 30
0.0
 10
2.4684109157986107
 20
-1.0119967990451388
 30
0.0
 10
2.7750244140624996
 20
-1.1759833441840277
 30
0.0
  0
SPLINE
  5
4A8
100
AcDbEntity
  8
レイヤー_2
 62
     7
100
AcDbSpline
210
0.0
220
0.0
230
1.0
 70
     8
 71
     3
 72
     8
 73
     4
 74
     0
 42
0.00000001
 43
0.00000001
 40
0.0
 40
0.0
 40
0.0
 40
0.0
 40
1.0
 40
1.0
 40
1.0
 40
1.0
 10
-2.7750244140624996
 20
-1.1759833441840277
 30
0.0
 10
-2.4677218967013888
 20
-1.0119967990451388
 30
0.0
 10
-2.0894504123263888
 20
-1.0691853841145833
 30
0.0
 10
-1.8441596137152776
 20
-1.3165432400173609
 30
0.0
  0
SPLINE
  5
4A7
100
AcDbEntity
  8
レイヤー_2
 62
     7
100
AcDbSpline
210
0.0
220
0.0
230
1.0
 70
     8
 71
     3
 72
     8
 73
     4
 74
     0
 42
0.00000001
 43
0.00000001
 40
0.0
 40
0.0
 40
0.0
 40
0.0
 40
1.0
 40
1.0
 40
1.0
 40
1.0
 10
-1.1682318793402777
 20
-1.3165432400173609
 30
0.0
 10
-0.4206461588541666
 20
-1.0051066080729165
 30
0.0
 10
0.4206461588541666
 20
-1.0051066080729165
 30
0.0
 10
1.1689208984374999
 20
-1.3165432400173609
 30
0.0
  0
LINE
  5
4A6
100
AcDbEntity
  8
レイヤー_2
 62
     7
100
AcDbLine
 10
1.110354
 20
4.706862
 30
0.0
 11
1.110354
 21
6.306764
 31
0.0
  0
LINE
  5
4A5
100
AcDbEntity
  8
レイヤー_2
 62
     7
100
AcDbLine
 10
-1.109665
 20
4.706862
 30
0.0
 11
-1.109665
 21
5.907822
 31
0.0
  0
LINE
  5
4A4
100
AcDbEntity
  8
レイヤー_2
 62
     7
100
AcDbLine
 10
-1.986098
 20
-0.743279
 30
0.0
 11
-1.986098
 21
0.5004
 31
0.0
  0
LINE
  5
4A3
100
AcDbEntity
  8
レイヤー_2
 62
     7
100
AcDbLine
 10
1.986787
 20
0.5004
 30
0.0
 11
1.986787
 21
-0.743279
 31
0.0
  0
LINE
  5
4A2
100
AcDbEntity
  8
レイヤー_2
 62
     7
100
AcDbLine
 10
1.869653
 20
-0.541397
 30
0.0
 11
-1.869653
 21
-0.541397
 31
0.0
  0
ENDBLK
  5
4E5
100
AcDbEntity
  8
レイヤー_2
100
AcDbBlockEnd
  0
BLOCK
  5
4EF
100
AcDbEntity
  8
レイヤー_2
  6
AI9-LType3
 62
     7
100
AcDbBlockBegin
  2
AI9-BLK6
 70
     0
 10
0.0
 20
0.0
 30
0.0
  3
AI9-BLK6
  1

  0
MTEXT
  5
53E
100
AcDbEntity
  8
レイヤー_2
  6
AI9-LType3
 62
     7
100
AcDbMText
 10
-4.051002
 20
-29.922205
 30
0.0
 40
5.512152
 41
0.0
 71
     1
 72
     2
  1
\fMS PGothic|b0|i0|c128;\H5.5122;\C7;\U+0047\U+0031\U+002F\U+0032
  7
STD
210
0.0
220
0.0
230
1.0
 73
     1
 44
1.0
  0
INSERT
  5
4F1
100
AcDbEntity
  8
レイヤー_2
  6
AI9-LType3
 62
     7
100
AcDbBlockReference
  2
AI9-BLK7
 10
-2.128983
 20
4.084505
 30
0.0
  0
ENDBLK
  5
53F
100
AcDbEntity
  8
レイヤー_2
100
AcDbBlockEnd
  0
BLOCK
  5
4F2
100
AcDbEntity
  8
レイヤー_2
  6
AI9-LType3
 62
     7
100
AcDbBlockBegin
  2
AI9-BLK7
 70
     0
 10
0.0
 20
0.0
 30
0.0
  3
AI9-BLK7
  1

  0
LINE
  5
53C
100
AcDbEntity
  8
レイヤー_2
  6
AI9-LType3
 62
     7
100
AcDbLine
 10
-8.694387
 20
-23.043727
 30
0.0
 11
-8.694387
 21
32.274516
 31
0.0
  0
LINE
  5
53B
100
AcDbEntity
  8
レイヤー_2
  6
AI9-LType3
 62
     7
100
AcDbLine
 10
-8.570364
 20
-22.962423
 30
0.0
 11
5.567619
 21
-11.322134
 31
0.0
  0
LINE
  5
53A
100
AcDbEntity
  8
レイヤー_2
  6
AI9-LType3
 62
     7
100
AcDbLine
 10
5.567619
 20
-11.322134
 30
0.0
 11
5.567619
 21
-32.274516
 31
0.0
  0
INSERT
  5
4F4
100
AcDbEntity
  8
レイヤー_2
  6
AI9-LType3
 62
     7
100
AcDbBlockReference
  2
AI9-BLK8
 10
5.567963
 20
-25.232224
 30
0.0
  0
ENDBLK
  5
53D
100
AcDbEntity
  8
レイヤー_2
100
AcDbBlockEnd
  0
BLOCK
  5
4F5
100
AcDbEntity
  8
レイヤー_2
  6
AI9-LType3
 62
     7
100
AcDbBlockBegin
  2
AI9-BLK8
 70
     0
 10
0.0
 20
0.0
 30
0.0
  3
AI9-BLK8
  1

  0
SPLINE
  5
538
100
AcDbEntity
  8
レイヤー_2
 62
     7
100
AcDbSpline
210
0.0
220
0.0
230
1.0
 70
     8
 71
     3
 72
    95
 73
    91
 74
     0
 42
0.00000001
 43
0.00000001
 40
0.0
 40
0.0
 40
0.0
 40
0.0
 40
1.0
 40
1.0
 40
1.0
 40
2.0
 40
2.0
 40
2.0
 40
3.0
 40
3.0
 40
3.0
 40
4.0
 40
4.0
 40
4.0
 40
5.0
 40
5.0
 40
5.0
 40
6.0
 40
6.0
 40
6.0
 40
7.0
 40
7.0
 40
7.0
 40
8.0
 40
8.0
 40
8.0
 40
9.0
 40
9.0
 40
9.0
 40
10.0
 40
10.0
 40
10.0
 40
11.0
 40
11.0
 40
11.0
 40
12.0
 40
12.0
 40
12.0
 40
13.0
 40
13.0
 40
13.0
 40
14.0
 40
14.0
 40
14.0
 40
15.0
 40
15.0
 40
15.0
 40
16.0
 40
16.0
 40
16.0
 40
17.0
 40
17.0
 40
17.0
 40
18.0
 40
18.0
 40
18.0
 40
19.0
 40
19.0
 40
19.0
 40
20.0
 40
20.0
 40
20.0
 40
21.0
 40
21.0
 40
21.0
 40
22.0
 40
22.0
 40
22.0
 40
23.0
 40
23.0
 40
23.0
 40
24.0
 40
24.0
 40
24.0
 40
25.0
 40
25.0
 40
25.0
 40
26.0
 40
26.0
 40
26.0
 40
27.0
 40
27.0
 40
27.0
 40
28.0
 40
28.0
 40
28.0
 40
29.0
 40
29.0
 40
29.0
 40
30.0
 40
30.0
 40
30.0
 40
30.0
 10
-1.1103542751736111
 20
6.2991848415798604
 30
0.0
 10
-1.097951931423611
 20
6.2957397460937496
 30
0.0
 10
-1.085549587673611
 20
6.292294650607638
 30
0.0
 10
-1.0731472439236109
 20
6.2888495551215273
 30
0.0
 10
-1.0607449001736111
 20
6.2854044596354157
 30
0.0
 10
-1.0483425564236111
 20
6.282648383246527
 30
0.0
 10
-1.035940212673611
 20
6.2798923068576382
 30
0.0
 10
-1.023537868923611
 20
6.2771362304687495
 30
0.0
 10
-1.0111355251736109
 20
6.2743801540798607
 30
0.0
 10
-0.998733181423611
 20
6.2723130967881939
 30
0.0
 10
-0.9863308376736111
 20
6.2702460394965271
 30
0.0
 10
-0.973928493923611
 20
6.2688680013020823
 30
0.0
 10
-0.9608371310763888
 20
6.2674899631076384
 30
0.0
 10
-0.9484347873263888
 20
6.2661119249131936
 30
0.0
 10
-0.9360324435763888
 20
6.2661119249131936
 30
0.0
 10
-0.9229410807291666
 20
6.2661119249131936
 30
0.0
 10
-0.8946912977430555
 20
6.2668009440104164
 30
0.0
 10
-0.8664415147569444
 20
6.2702460394965271
 30
0.0
 10
-0.8388807508680555
 20
6.2771362304687495
 30
0.0
 10
-0.8099419487847221
 20
6.2840264214409718
 30
0.0
 10
-0.781692165798611
 20
6.2916056315104161
 30
0.0
 10
-0.7541314019097222
 20
6.2998738606770823
 30
0.0
 10
-0.725881618923611
 20
6.3081420898437495
 30
0.0
 10
-0.6976318359374999
 20
6.3164103190104157
 30
0.0
 10
-0.6700710720486111
 20
6.3239895290798609
 30
0.0
 10
-0.6431993272569444
 20
6.3308797200520823
 30
0.0
 10
-0.6156385633680555
 20
6.3363918728298607
 30
0.0
 10
-0.5880777994791666
 20
6.3398369683159714
 30
0.0
 10
-0.5625840928819444
 20
6.3425930447048602
 30
0.0
 10
-0.5357123480902777
 20
6.3419040256076382
 30
0.0
 10
-0.5102186414930555
 20
6.3370808919270827
 30
0.0
 10
-0.4716335720486111
 20
6.3281236436631936
 30
0.0
 10
-0.4351155598958333
 20
6.3115871853298602
 30
0.0
 10
-0.4034206814236111
 20
6.2881605360243054
 30
0.0
 10
-0.3675916883680555
 20
6.2619778103298609
 30
0.0
 10
-0.3338297526041666
 20
6.2337280273437496
 30
0.0
 10
-0.3028238932291666
 20
6.2027221679687496
 30
0.0
 10
-0.2704399956597222
 20
6.1703382703993048
 30
0.0
 10
-0.2373670789930555
 20
6.1386433919270829
 30
0.0
 10
-0.2049831814236111
 20
6.1069485134548609
 30
0.0
 10
-0.1739773220486111
 20
6.0773206922743048
 30
0.0
 10
-0.1409044053819444
 20
6.0504489474826384
 30
0.0
 10
-0.1050754123263889
 20
6.0263332790798607
 30
0.0
 10
-0.0740695529513889
 20
6.0049736870659718
 30
0.0
 10
-0.0375515407986111
 20
5.9918823242187491
 30
0.0
 10
-0.0003445095486111
 20
5.9863701714409716
 30
0.0
 10
0.0368625217013889
 20
5.982236056857638
 30
0.0
 10
0.0740695529513889
 20
5.9870591905381936
 30
0.0
 10
0.1078314887152778
 20
6.002217610677083
 30
0.0
 10
0.1457275390625
 20
6.0187540690104164
 30
0.0
 10
0.1829345703125
 20
6.0359795464409718
 30
0.0
 10
0.2208306206597222
 20
6.0532050238715271
 30
0.0
 10
0.2601047092013888
 20
6.0718085394965273
 30
0.0
 10
0.2986897786458333
 20
6.0924791124131943
 30
0.0
 10
0.3358968098958333
 20
6.1152167426215271
 30
0.0
 10
0.3717258029513889
 20
6.1351982964409713
 30
0.0
 10
0.4096218532986111
 20
6.1517347547743046
 30
0.0
 10
0.4482069227430555
 20
6.1648261176215273
 30
0.0
 10
0.4826578776041666
 20
6.1765394422743052
 30
0.0
 10
0.5191758897569444
 20
6.1806735568576388
 30
0.0
 10
0.5550048828124999
 20
6.1765394422743052
 30
0.0
 10
0.5811876085069444
 20
6.1724053276909716
 30
0.0
 10
0.6066813151041666
 20
6.1634480794270825
 30
0.0
 10
0.6294189453125
 20
6.1503567165798607
 30
0.0
 10
0.6542236328125
 20
6.1358873155381941
 30
0.0
 10
0.6783393012152778
 20
6.1193508572048607
 30
0.0
 10
0.7010769314236111
 20
6.1014363606770825
 30
0.0
 10
0.7245035807291667
 20
6.0821438259548604
 30
0.0
 10
0.7486192491319443
 20
6.0621622721354163
 30
0.0
 10
0.7720458984374999
 20
6.0421807183159713
 30
0.0
 10
0.7954725477430555
 20
6.0221991644965271
 30
0.0
 10
0.8195882161458332
 20
6.002906629774305
 30
0.0
 10
0.8450819227430555
 20
5.9849921332465268
 30
0.0
 10
0.8691975911458333
 20
5.9670776367187495
 30
0.0
 10
0.8953803168402778
 20
5.9526082356770829
 30
0.0
 10
0.9229410807291666
 20
5.940894911024305
 30
0.0
 10
0.9346544053819443
 20
5.9353827582465275
 30
0.0
 10
0.9463677300347222
 20
5.9312486436631939
 30
0.0
 10
0.9587700737847221
 20
5.9284925672743052
 30
0.0
 10
0.9711724175347222
 20
5.9250474717881936
 30
0.0
 10
0.9835747612847221
 20
5.9222913953993048
 30
0.0
 10
0.9959771050347221
 20
5.9195353190104161
 30
0.0
 10
1.0083794487847222
 20
5.9174682617187493
 30
0.0
 10
1.0207817925347222
 20
5.9154012044270825
 30
0.0
 10
1.0331841362847221
 20
5.9140231662326386
 30
0.0
 10
1.0462754991319443
 20
5.9126451280381938
 30
0.0
 10
1.0586778428819443
 20
5.9119561089409718
 30
0.0
 10
1.0717692057291666
 20
5.910578070746527
 30
0.0
 10
1.0841715494791666
 20
5.909200032552083
 30
0.0
 10
1.0972629123263888
 20
5.9085110134548602
 30
0.0
 10
1.1096652560763889
 20
5.9078219943576382
 30
0.0
  0
LINE
  5
537
100
AcDbEntity
  8
レイヤー_2
 62
     7
100
AcDbLine
 10
1.986098
 20
-0.541397
 30
0.0
 11
1.869653
 21
-0.541397
 31
0.0
  0
LINE
  5
536
100
AcDbEntity
  8
レイヤー_2
 62
     7
100
AcDbLine
 10
1.869653
 20
0.525894
 30
0.0
 11
1.869653
 21
-0.541397
 31
0.0
  0
LINE
  5
535
100
AcDbEntity
  8
レイヤー_2
 62
     7
100
AcDbLine
 10
1.869653
 20
-0.541397
 30
0.0
 11
1.986098
 21
-0.743279
 31
0.0
  0
LINE
  5
534
100
AcDbEntity
  8
レイヤー_2
 62
     7
100
AcDbLine
 10
-1.869653
 20
-0.541397
 30
0.0
 11
-1.986787
 21
-0.541397
 31
0.0
  0
LINE
  5
533
100
AcDbEntity
  8
レイヤー_2
 62
     7
100
AcDbLine
 10
-1.869653
 20
-0.541397
 30
0.0
 11
-1.869653
 21
0.525894
 31
0.0
  0
LINE
  5
532
100
AcDbEntity
  8
レイヤー_2
 62
     7
100
AcDbLine
 10
-1.986787
 20
-0.743279
 30
0.0
 11
-1.869653
 21
-0.541397
 31
0.0
  0
LINE
  5
531
100
AcDbEntity
  8
レイヤー_2
 62
     7
100
AcDbLine
 10
-1.096574
 20
0.635448
 30
0.0
 11
-1.57682
 21
0.635448
 31
0.0
  0
LINE
  5
530
100
AcDbEntity
  8
レイヤー_2
 62
     7
100
AcDbLine
 10
-1.096574
 20
3.087667
 30
0.0
 11
-1.096574
 21
0.635448
 31
0.0
  0
LINE
  5
52F
100
AcDbEntity
  8
レイヤー_2
 62
     7
100
AcDbLine
 10
-1.57682
 20
3.087667
 30
0.0
 11
-1.096574
 21
3.087667
 31
0.0
  0
LINE
  5
52E
100
AcDbEntity
  8
レイヤー_2
 62
     7
100
AcDbLine
 10
-1.57682
 20
3.087667
 30
0.0
 11
-1.57682
 21
0.635448
 31
0.0
  0
LINE
  5
52D
100
AcDbEntity
  8
レイヤー_2
 62
     7
100
AcDbLine
 10
-1.75252
 20
4.706862
 30
0.0
 11
-0.000345
 21
4.706862
 31
0.0
  0
LINE
  5
52C
100
AcDbEntity
  8
レイヤー_2
 62
     7
100
AcDbLine
 10
-2.453942
 20
0.5004
 30
0.0
 11
-0.000345
 21
0.5004
 31
0.0
  0
LINE
  5
52B
100
AcDbEntity
  8
レイヤー_2
 62
     7
100
AcDbLine
 10
-2.687519
 20
0.635448
 30
0.0
 11
-2.453942
 21
0.5004
 31
0.0
  0
LINE
  5
52A
100
AcDbEntity
  8
レイヤー_2
 62
     7
100
AcDbLine
 10
-1.75252
 20
4.706862
 30
0.0
 11
-2.56005
 21
3.308842
 31
0.0
  0
LINE
  5
529
100
AcDbEntity
  8
レイヤー_2
 62
     7
100
AcDbLine
 10
-2.687519
 20
3.087667
 30
0.0
 11
-2.687519
 21
0.635448
 31
0.0
  0
LINE
  5
528
100
AcDbEntity
  8
レイヤー_2
 62
     7
100
AcDbLine
 10
1.179945
 20
4.706862
 30
0.0
 11
-0.000345
 21
4.706862
 31
0.0
  0
LINE
  5
527
100
AcDbEntity
  8
レイヤー_2
 62
     7
100
AcDbLine
 10
2.044664
 20
0.5004
 30
0.0
 11
-0.000345
 21
0.5004
 31
0.0
  0
LINE
  5
526
100
AcDbEntity
  8
レイヤー_2
 62
     7
100
AcDbLine
 10
1.57682
 20
0.635448
 30
0.0
 11
1.095885
 21
0.635448
 31
0.0
  0
LINE
  5
525
100
AcDbEntity
  8
レイヤー_2
 62
     7
100
AcDbLine
 10
1.095885
 20
0.635448
 30
0.0
 11
1.095885
 21
3.087667
 31
0.0
  0
LINE
  5
524
100
AcDbEntity
  8
レイヤー_2
 62
     7
100
AcDbLine
 10
1.095885
 20
3.087667
 30
0.0
 11
1.57682
 21
3.087667
 31
0.0
  0
LINE
  5
523
100
AcDbEntity
  8
レイヤー_2
 62
     7
100
AcDbLine
 10
1.57682
 20
0.635448
 30
0.0
 11
1.57682
 21
3.087667
 31
0.0
  0
LINE
  5
522
100
AcDbEntity
  8
レイヤー_2
 62
     7
100
AcDbLine
 10
-0.000345
 20
4.706862
 30
0.0
 11
1.75252
 21
4.706862
 31
0.0
  0
LINE
  5
521
100
AcDbEntity
  8
レイヤー_2
 62
     7
100
AcDbLine
 10
-0.000345
 20
0.5004
 30
0.0
 11
2.453942
 21
0.5004
 31
0.0
  0
LINE
  5
520
100
AcDbEntity
  8
レイヤー_2
 62
     7
100
AcDbLine
 10
2.453942
 20
0.5004
 30
0.0
 11
2.687519
 21
0.635448
 31
0.0
  0
LINE
  5
51F
100
AcDbEntity
  8
レイヤー_2
 62
     7
100
AcDbLine
 10
2.687519
 20
3.087667
 30
0.0
 11
1.75252
 21
4.706862
 31
0.0
  0
LINE
  5
51E
100
AcDbEntity
  8
レイヤー_2
 62
     7
100
AcDbLine
 10
2.687519
 20
0.635448
 30
0.0
 11
2.687519
 21
3.087667
 31
0.0
  0
LINE
  5
51D
100
AcDbEntity
  8
レイヤー_2
 62
     7
100
AcDbLine
 10
-2.56005
 20
3.308842
 30
0.0
 11
-2.687519
 21
3.087667
 31
0.0
  0
SPLINE
  5
51C
100
AcDbEntity
  8
レイヤー_2
 62
     7
100
AcDbSpline
210
0.0
220
0.0
230
1.0
 70
     8
 71
     3
 72
     8
 73
     4
 74
     0
 42
0.00000001
 43
0.00000001
 40
0.0
 40
0.0
 40
0.0
 40
0.0
 40
1.0
 40
1.0
 40
1.0
 40
1.0
 10
-1.0965738932291667
 20
0.6354478624131944
 30
0.0
 10
-0.7375949435763888
 20
0.5458753797743056
 30
0.0
 10
-0.3696587456597222
 20
0.5004001193576388
 30
0.0
 10
-0.0003445095486111
 20
0.5004001193576388
 30
0.0
  0
SPLINE
  5
51B
100
AcDbEntity
  8
レイヤー_2
 62
     7
100
AcDbSpline
210
0.0
220
0.0
230
1.0
 70
     8
 71
     3
 72
     8
 73
     4
 74
     0
 42
0.00000001
 43
0.00000001
 40
0.0
 40
0.0
 40
0.0
 40
0.0
 40
1.0
 40
1.0
 40
1.0
 40
1.0
 10
-2.6875189887152775
 20
0.6354478624131944
 30
0.0
 10
-2.3395643446180552
 20
0.4549248589409722
 30
0.0
 10
-1.9254638671874997
 20
0.4549248589409722
 30
0.0
 10
-1.5768202039930554
 20
0.6354478624131944
 30
0.0
  0
SPLINE
  5
51A
100
AcDbEntity
  8
レイヤー_2
 62
     7
100
AcDbSpline
210
0.0
220
0.0
230
1.0
 70
     8
 71
     3
 72
     8
 73
     4
 74
     0
 42
0.00000001
 43
0.00000001
 40
0.0
 40
0.0
 40
0.0
 40
0.0
 40
1.0
 40
1.0
 40
1.0
 40
1.0
 10
-0.0003445095486111
 20
3.4928100585937498
 30
0.0
 10
-0.4020426432291666
 20
3.4928100585937498
 30
0.0
 10
-0.7906494140624999
 20
3.3494940863715277
 30
0.0
 10
-1.0965738932291667
 20
3.087666829427083
 30
0.0
  0
SPLINE
  5
519
100
AcDbEntity
  8
レイヤー_2
 62
     7
100
AcDbSpline
210
0.0
220
0.0
230
1.0
 70
     8
 71
     3
 72
    11
 73
     7
 74
     0
 42
0.00000001
 43
0.00000001
 40
0.0
 40
0.0
 40
0.0
 40
0.0
 40
1.0
 40
1.0
 40
1.0
 40
2.0
 40
2.0
 40
2.0
 40
2.0
 10
-1.5768202039930554
 20
3.087666829427083
 30
0.0
 10
-1.6725938585069442
 20
3.3949693467881943
 30
0.0
 10
-1.9991889105902776
 20
3.5658460828993053
 30
0.0
 10
-2.3058024088541664
 20
3.4693834092881941
 30
0.0
 10
-2.403643120659722
 20
3.4390665690104165
 30
0.0
 10
-2.491148546006944
 20
3.3839450412326384
 30
0.0
 10
-2.5600504557291663
 20
3.3088419596354162
 30
0.0
  0
SPLINE
  5
518
100
AcDbEntity
  8
レイヤー_2
 62
     7
100
AcDbSpline
210
0.0
220
0.0
230
1.0
 70
     8
 71
     3
 72
     8
 73
     4
 74
     0
 42
0.00000001
 43
0.00000001
 40
0.0
 40
0.0
 40
0.0
 40
0.0
 40
1.0
 40
1.0
 40
1.0
 40
1.0
 10
-0.0003445095486111
 20
0.5004001193576388
 30
0.0
 10
0.3696587456597222
 20
0.5004001193576388
 30
0.0
 10
0.7375949435763888
 20
0.5458753797743056
 30
0.0
 10
1.0958848741319442
 20
0.6354478624131944
 30
0.0
  0
SPLINE
  5
517
100
AcDbEntity
  8
レイヤー_2
 62
     7
100
AcDbSpline
210
0.0
220
0.0
230
1.0
 70
     8
 71
     3
 72
     8
 73
     4
 74
     0
 42
0.00000001
 43
0.00000001
 40
0.0
 40
0.0
 40
0.0
 40
0.0
 40
1.0
 40
1.0
 40
1.0
 40
1.0
 10
1.5768202039930554
 20
0.6354478624131944
 30
0.0
 10
1.9254638671874997
 20
0.4549248589409722
 30
0.0
 10
2.3395643446180552
 20
0.4549248589409722
 30
0.0
 10
2.6875189887152775
 20
0.6354478624131944
 30
0.0
  0
SPLINE
  5
516
100
AcDbEntity
  8
レイヤー_2
 62
     7
100
AcDbSpline
210
0.0
220
0.0
230
1.0
 70
     8
 71
     3
 72
     8
 73
     4
 74
     0
 42
0.00000001
 43
0.00000001
 40
0.0
 40
0.0
 40
0.0
 40
0.0
 40
1.0
 40
1.0
 40
1.0
 40
1.0
 10
1.0958848741319442
 20
3.087666829427083
 30
0.0
 10
0.7906494140624999
 20
3.3494940863715277
 30
0.0
 10
0.4020426432291666
 20
3.4928100585937498
 30
0.0
 10
-0.0003445095486111
 20
3.4928100585937498
 30
0.0
  0
SPLINE
  5
515
100
AcDbEntity
  8
レイヤー_2
 62
     7
100
AcDbSpline
210
0.0
220
0.0
230
1.0
 70
     8
 71
     3
 72
    11
 73
     7
 74
     0
 42
0.00000001
 43
0.00000001
 40
0.0
 40
0.0
 40
0.0
 40
0.0
 40
1.0
 40
1.0
 40
1.0
 40
2.0
 40
2.0
 40
2.0
 40
2.0
 10
2.6875189887152775
 20
3.087666829427083
 30
0.0
 10
2.5917453342013888
 20
3.3949693467881943
 30
0.0
 10
2.2651502821180554
 20
3.5658460828993053
 30
0.0
 10
1.9585367838541665
 20
3.4693834092881941
 30
0.0
 10
1.7766357421874999
 20
3.4128838433159721
 30
0.0
 10
1.6340087890624999
 20
3.2702568901909719
 30
0.0
 10
1.5768202039930554
 20
3.087666829427083
 30
0.0
  0
LINE
  5
514
100
AcDbEntity
  8
レイヤー_2
 62
     7
100
AcDbLine
 10
-2.775024
 20
-6.131409
 30
0.0
 11
-3.03823
 21
-5.990849
 31
0.0
  0
LINE
  5
513
100
AcDbEntity
  8
レイヤー_2
 62
     7
100
AcDbLine
 10
3.03823
 20
-5.990849
 30
0.0
 11
2.775024
 21
-6.131409
 31
0.0
  0
LINE
  5
512
100
AcDbEntity
  8
レイヤー_2
 62
     7
100
AcDbLine
 10
-3.03823
 20
-1.316543
 30
0.0
 11
-2.775024
 21
-1.175983
 31
0.0
  0
LINE
  5
511
100
AcDbEntity
  8
レイヤー_2
 62
     7
100
AcDbLine
 10
2.775024
 20
-1.175983
 30
0.0
 11
3.03823
 21
-1.316543
 31
0.0
  0
LINE
  5
510
100
AcDbEntity
  8
レイヤー_2
 62
     7
100
AcDbLine
 10
-2.687519
 20
-6.34156
 30
0.0
 11
2.687519
 21
-6.34156
 31
0.0
  0
LINE
  5
50F
100
AcDbEntity
  8
レイヤー_2
 62
     7
100
AcDbLine
 10
-1.844849
 20
-5.990849
 30
0.0
 11
-1.168921
 21
-5.990849
 31
0.0
  0
LINE
  5
50E
100
AcDbEntity
  8
レイヤー_2
 62
     7
100
AcDbLine
 10
1.168232
 20
-5.990849
 30
0.0
 11
1.84416
 21
-5.990849
 31
0.0
  0
LINE
  5
50D
100
AcDbEntity
  8
レイヤー_2
 62
     7
100
AcDbLine
 10
3.03823
 20
-5.990849
 30
0.0
 11
2.687519
 21
-6.34156
 31
0.0
  0
LINE
  5
50C
100
AcDbEntity
  8
レイヤー_2
 62
     7
100
AcDbLine
 10
-3.03823
 20
-5.990849
 30
0.0
 11
-2.687519
 21
-6.34156
 31
0.0
  0
LINE
  5
50B
100
AcDbEntity
  8
レイヤー_2
 62
     7
100
AcDbLine
 10
2.687519
 20
-0.965833
 30
0.0
 11
-2.687519
 21
-0.965833
 31
0.0
  0
LINE
  5
50A
100
AcDbEntity
  8
レイヤー_2
 62
     7
100
AcDbLine
 10
2.687519
 20
-0.965833
 30
0.0
 11
3.03823
 21
-1.316543
 31
0.0
  0
LINE
  5
509
100
AcDbEntity
  8
レイヤー_2
 62
     7
100
AcDbLine
 10
1.84416
 20
-1.316543
 30
0.0
 11
1.168232
 21
-1.316543
 31
0.0
  0
LINE
  5
508
100
AcDbEntity
  8
レイヤー_2
 62
     7
100
AcDbLine
 10
-1.168921
 20
-1.316543
 30
0.0
 11
-1.844849
 21
-1.316543
 31
0.0
  0
LINE
  5
507
100
AcDbEntity
  8
レイヤー_2
 62
     7
100
AcDbLine
 10
-2.687519
 20
-0.965833
 30
0.0
 11
-3.03823
 21
-1.316543
 31
0.0
  0
LINE
  5
506
100
AcDbEntity
  8
レイヤー_2
 62
     7
100
AcDbLine
 10
-3.03823
 20
-5.990849
 30
0.0
 11
-3.03823
 21
-1.316543
 31
0.0
  0
LINE
  5
505
100
AcDbEntity
  8
レイヤー_2
 62
     7
100
AcDbLine
 10
-1.844849
 20
-5.990849
 30
0.0
 11
-1.844849
 21
-1.316543
 31
0.0
  0
LINE
  5
504
100
AcDbEntity
  8
レイヤー_2
 62
     7
100
AcDbLine
 10
-1.168921
 20
-5.990849
 30
0.0
 11
-1.168921
 21
-1.316543
 31
0.0
  0
LINE
  5
503
100
AcDbEntity
  8
レイヤー_2
 62
     7
100
AcDbLine
 10
1.168232
 20
-5.990849
 30
0.0
 11
1.168232
 21
-1.316543
 31
0.0
  0
LINE
  5
502
100
AcDbEntity
  8
レイヤー_2
 62
     7
100
AcDbLine
 10
1.84416
 20
-5.990849
 30
0.0
 11
1.84416
 21
-1.316543
 31
0.0
  0
LINE
  5
501
100
AcDbEntity
  8
レイヤー_2
 62
     7
100
AcDbLine
 10
3.03823
 20
-5.990849
 30
0.0
 11
3.03823
 21
-1.316543
 31
0.0
  0
SPLINE
  5
500
100
AcDbEntity
  8
レイヤー_2
 62
     7
100
AcDbSpline
210
0.0
220
0.0
230
1.0
 70
     8
 71
     3
 72
     8
 73
     4
 74
     0
 42
0.00000001
 43
0.00000001
 40
0.0
 40
0.0
 40
0.0
 40
0.0
 40
1.0
 40
1.0
 40
1.0
 40
1.0
 10
-2.7750244140624996
 20
-6.1314086914062491
 30
0.0
 10
-2.4684109157986107
 20
-6.2960842556423602
 30
0.0
 10
-2.0894504123263888
 20
-6.2388956705729157
 30
0.0
 10
-1.8448486328124998
 20
-5.9908487955729157
 30
0.0
  0
SPLINE
  5
4FF
100
AcDbEntity
  8
レイヤー_2
 62
     7
100
AcDbSpline
210
0.0
220
0.0
230
1.0
 70
     8
 71
     3
 72
     8
 73
     4
 74
     0
 42
0.00000001
 43
0.00000001
 40
0.0
 40
0.0
 40
0.0
 40
0.0
 40
1.0
 40
1.0
 40
1.0
 40
1.0
 10
1.8441596137152776
 20
-5.9908487955729157
 30
0.0
 10
2.0894504123263888
 20
-6.2388956705729157
 30
0.0
 10
2.4677218967013888
 20
-6.2960842556423602
 30
0.0
 10
2.7750244140624996
 20
-6.1314086914062491
 30
0.0
  0
SPLINE
  5
4FE
100
AcDbEntity
  8
レイヤー_2
 62
     7
100
AcDbSpline
210
0.0
220
0.0
230
1.0
 70
     8
 71
     3
 72
     8
 73
     4
 74
     0
 42
0.00000001
 43
0.00000001
 40
0.0
 40
0.0
 40
0.0
 40
0.0
 40
1.0
 40
1.0
 40
1.0
 40
1.0
 10
-1.1689208984374999
 20
-5.9908487955729157
 30
0.0
 10
-0.4206461588541666
 20
-6.3022854275173605
 30
0.0
 10
0.4206461588541666
 20
-6.3022854275173605
 30
0.0
 10
1.1682318793402777
 20
-5.9908487955729157
 30
0.0
  0
SPLINE
  5
4FD
100
AcDbEntity
  8
レイヤー_2
 62
     7
100
AcDbSpline
210
0.0
220
0.0
230
1.0
 70
     8
 71
     3
 72
     8
 73
     4
 74
     0
 42
0.00000001
 43
0.00000001
 40
0.0
 40
0.0
 40
0.0
 40
0.0
 40
1.0
 40
1.0
 40
1.0
 40
1.0
 10
-1.8448486328124998
 20
-1.3165432400173609
 30
0.0
 10
-2.0894504123263888
 20
-1.0691853841145833
 30
0.0
 10
-2.4684109157986107
 20
-1.0119967990451388
 30
0.0
 10
-2.7750244140624996
 20
-1.1759833441840277
 30
0.0
  0
SPLINE
  5
4FC
100
AcDbEntity
  8
レイヤー_2
 62
     7
100
AcDbSpline
210
0.0
220
0.0
230
1.0
 70
     8
 71
     3
 72
     8
 73
     4
 74
     0
 42
0.00000001
 43
0.00000001
 40
0.0
 40
0.0
 40
0.0
 40
0.0
 40
1.0
 40
1.0
 40
1.0
 40
1.0
 10
2.7750244140624996
 20
-1.1759833441840277
 30
0.0
 10
2.4677218967013888
 20
-1.0119967990451388
 30
0.0
 10
2.0894504123263888
 20
-1.0691853841145833
 30
0.0
 10
1.8441596137152776
 20
-1.3165432400173609
 30
0.0
  0
SPLINE
  5
4FB
100
AcDbEntity
  8
レイヤー_2
 62
     7
100
AcDbSpline
210
0.0
220
0.0
230
1.0
 70
     8
 71
     3
 72
     8
 73
     4
 74
     0
 42
0.00000001
 43
0.00000001
 40
0.0
 40
0.0
 40
0.0
 40
0.0
 40
1.0
 40
1.0
 40
1.0
 40
1.0
 10
1.1682318793402777
 20
-1.3165432400173609
 30
0.0
 10
0.4206461588541666
 20
-1.0051066080729165
 30
0.0
 10
-0.4206461588541666
 20
-1.0051066080729165
 30
0.0
 10
-1.1689208984374999
 20
-1.3165432400173609
 30
0.0
  0
LINE
  5
4FA
100
AcDbEntity
  8
レイヤー_2
 62
     7
100
AcDbLine
 10
-1.110354
 20
4.706862
 30
0.0
 11
-1.110354
 21
6.306764
 31
0.0
  0
LINE
  5
4F9
100
AcDbEntity
  8
レイヤー_2
 62
     7
100
AcDbLine
 10
1.109665
 20
4.706862
 30
0.0
 11
1.109665
 21
5.907822
 31
0.0
  0
LINE
  5
4F8
100
AcDbEntity
  8
レイヤー_2
 62
     7
100
AcDbLine
 10
1.986098
 20
-0.743279
 30
0.0
 11
1.986098
 21
0.5004
 31
0.0
  0
LINE
  5
4F7
100
AcDbEntity
  8
レイヤー_2
 62
     7
100
AcDbLine
 10
-1.986787
 20
0.5004
 30
0.0
 11
-1.986787
 21
-0.743279
 31
0.0
  0
LINE
  5
4F6
100
AcDbEntity
  8
レイヤー_2
 62
     7
100
AcDbLine
 10
-1.869653
 20
-0.541397
 30
0.0
 11
1.869653
 21
-0.541397
 31
0.0
  0
ENDBLK
  5
539
100
AcDbEntity
  8
レイヤー_2
100
AcDbBlockEnd
  0
ENDSEC
  0
SECTION
  2
ENTITIES
  0
MTEXT
  5
560
100
AcDbEntity
  8
レイヤー_1
 62
     7
100
AcDbMText
 10
47.801389
 20
55.180324
 30
0.0
 40
3.674768
 41
0.0
 71
     1
 72
     2
  1
\fMS Gothic|b0|i0|c128;\H3.6748;\C7;\U+0033\U+0033\U+002E\U+0035\U+0033\U+0034\U+002E\U+0037\U+0033\U+0030\U+002E\U+0058\U+0058
  7
STD
210
0.0
220
0.0
230
1.0
 73
     1
 44
1.0
  0
MTEXT
  5
55F
100
AcDbEntity
  8
レイヤー_1
 62
     7
100
AcDbMText
 10
39.6875
 20
57.666567
 30
0.0
 40
1.574901
 41
0.0
 71
     1
 72
     2
  1
\fOsaka|b0|i0|c128;\H1.5749;\C7;\U+54C1\U+756A
  7
STD
210
0.0
220
0.0
230
1.0
 73
     1
 44
1.0
  0
MTEXT
  5
55E
100
AcDbEntity
  8
レイヤー_1
 62
     7
100
AcDbMText
 10
47.801389
 20
34.017542
 30
0.0
 40
3.149486
 41
0.0
 71
     1
 72
     2
  1
\fOsaka|b0|i0|c128;\H3.1495;\C7;\U+FF11\U+7A74\U+578B\U+30B7\U+30F3\U+30B0\U+30EB\U+30EC\U+30D0\U+30FC\U+6D17\U+9762\U+7528\U+6DF7\U+5408\U+6813
  7
STD
210
0.0
220
0.0
230
1.0
 73
     1
 44
1.0
  0
MTEXT
  5
55D
100
AcDbEntity
  8
レイヤー_1
 62
     7
100
AcDbMText
 10
39.6875
 20
36.499901
 30
0.0
 40
1.574901
 41
0.0
 71
     1
 72
     2
  1
\fOsaka|b0|i0|c128;\H1.5749;\C7;\U+54C1
  7
STD
210
0.0
220
0.0
230
1.0
 73
     1
 44
1.0
  0
MTEXT
  5
55C
100
AcDbEntity
  8
レイヤー_1
 62
     7
100
AcDbMText
 10
47.801389
 20
44.013142
 30
0.0
 40
3.149486
 41
0.0
 71
     1
 72
     2
  1
\fMS Gothic|b0|i0|c128;\H3.1495;\C7;\U+0053\U+0055\U+0050\U+0045\U+0052\U+004E\U+004F\U+0056\U+0041
  7
STD
210
0.0
220
0.0
230
1.0
 73
     1
 44
1.0
  0
POLYLINE
  5
556
100
AcDbEntity
  8
レイヤー_1
 62
     7
100
AcDb2dPolyline
 66
     1
 10
0.0
 20
0.0
 30
0.0
 70
     1
  0
VERTEX
  5
557
100
AcDbEntity
  8
レイヤー_1
 62
     7
100
AcDbVertex
100
AcDb2dVertex
 10
23.636111
 20
27.163889
 30
0.0
  0
VERTEX
  5
558
100
AcDbEntity
  8
レイヤー_1
 62
     7
100
AcDbVertex
100
AcDb2dVertex
 10
198.613889
 20
27.163889
 30
0.0
  0
VERTEX
  5
559
100
AcDbEntity
  8
レイヤー_1
 62
     7
100
AcDbVertex
100
AcDb2dVertex
 10
198.613889
 20
276.577778
 30
0.0
  0
VERTEX
  5
55A
100
AcDbEntity
  8
レイヤー_1
 62
     7
100
AcDbVertex
100
AcDb2dVertex
 10
23.636111
 20
276.577778
 30
0.0
  0
SEQEND
  5
55B
100
AcDbEntity
  8
レイヤー_1
 62
     7
  0
LINE
  5
555
100
AcDbEntity
  8
レイヤー_1
 62
     7
100
AcDbLine
 10
170.568056
 20
37.570833
 30
0.0
 11
27.693056
 21
37.570833
 31
0.0
  0
LINE
  5
554
100
AcDbEntity
  8
レイヤー_1
 62
     7
100
AcDbLine
 10
170.568056
 20
48.154167
 30
0.0
 11
27.693056
 21
48.154167
 31
0.0
  0
LINE
  5
553
100
AcDbEntity
  8
レイヤー_1
 62
     7
100
AcDbLine
 10
23.636111
 20
58.913889
 30
0.0
 11
198.261111
 21
58.913889
 31
0.0
  0
LINE
  5
552
100
AcDbEntity
  8
レイヤー_1
 62
     7
100
AcDbLine
 10
170.744444
 20
58.913889
 30
0.0
 11
170.744444
 21
27.516667
 31
0.0
  0
MTEXT
  5
551
100
AcDbEntity
  8
レイヤー_1
 62
     7
100
AcDbMText
 10
29.104167
 20
47.083234
 30
0.0
 40
1.574901
 41
0.0
 71
     1
 72
     2
  1
\fOsaka|b0|i0|c128;\H1.5749;\C7;\U+30BB\U+30EC\U+30AF\U+30B7\U+30E7\U+30F3
  7
STD
210
0.0
220
0.0
230
1.0
 73
     1
 44
1.0
  0
MTEXT
  5
550
100
AcDbEntity
  8
レイヤー_1
 62
     7
100
AcDbMText
 10
174.095833
 20
55.713375
 30
0.0
 40
3.149801
 41
0.0
 71
     1
 72
     2
  1
\fHeiseiKakuGothicCAN W9|b0|i0|c128;\H3.1498;\C253;\U+5BF8\U+6CD5\U+53C2\U+8003\U+56F3
  7
STD
210
0.0
220
0.0
230
1.0
 11
0.9999
 21
0.0
 31
0.0
 73
     1
 44
1.0
  0
LINE
  5
54F
100
AcDbEntity
  8
レイヤー_1
 62
     7
100
AcDbLine
 10
27.516667
 20
58.913889
 30
0.0
 11
27.516667
 21
27.516667
 31
0.0
  0
IMAGE
  5
54C
100
AcDbEntity
  8
レイヤー_1
  6
AI9-LType3
 62
     7
 92
        0
100
AcDbRasterImage
 90
        0
 10
172.155556
 20
29.633016
 30
0.0
 11
0.352531
 21
0.0
 31
0.0
 12
0.0
 22
0.352813
 32
0.0
 13
70.0
 23
9.0
340
54E
 70
     7
280
     0
281
    50
282
    50
283
     0
360
54D
 71
     1
 91
        2
 14
-0.5
 24
-0.5
 14
69.5
 24
8.5
  0
IMAGE
  5
549
100
AcDbEntity
  8
レイヤー_1
  6
AI9-LType3
 62
     7
 92
        0
100
AcDbRasterImage
 90
        0
 10
172.155556
 20
29.633016
 30
0.0
 11
0.352531
 21
0.0
 31
0.0
 12
0.0
 22
0.352813
 32
0.0
 13
70.0
 23
9.0
340
54B
 70
     7
280
     0
281
    50
282
    50
283
     0
360
54A
 71
     1
 91
        2
 14
-0.5
 24
-0.5
 14
69.5
 24
8.5
  0
MTEXT
  5
548
100
AcDbEntity
  8
レイヤー_1
  6
AI9-LType3
 62
     7
100
AcDbMText
 10
113.418056
 20
47.083234
 30
0.0
 40
1.574901
 41
0.0
 71
     1
 72
     2
  1
\fOsaka|b0|i0|c128;\H1.5749;\C7;\U+4ED5\U+4E0A
  7
STD
210
0.0
220
0.0
230
1.0
 73
     1
 44
1.0
  0
MTEXT
  5
547
100
AcDbEntity
  8
レイヤー_1
  6
AI9-LType3
 62
     7
100
AcDbMText
 10
124.765511
 20
42.026497
 30
0.0
 40
1.162842
 41
0.0
 71
     1
 72
     2
  1
\fOsaka|b0|i0|c128;\H1.1628;\W2.71;\C7;
  7
STD
210
0.0
220
0.0
230
1.0
 73
     1
 44
1.0
  0
MTEXT
  5
545
100
AcDbEntity
  8
レイヤー_2
  6
AI9-LType3
 62
     7
100
AcDbMText
 10
120.410221
 20
266.112783
 30
0.0
 40
5.512152
 41
0.0
 71
     1
 72
     2
  1
\fMS Gothic|b0|i0|c128;\H5.5122;\C7;\U+0032\U+0032\U+0030
  7
STD
210
0.0
220
0.0
230
1.0
 73
     1
 44
1.0
  0
MTEXT
  5
544
100
AcDbEntity
  8
レイヤー_2
  6
AI9-LType3
 62
     7
100
AcDbMText
 10
60.961998
 20
266.082811
 30
0.0
 40
5.512152
 41
0.0
 71
     1
 72
     2
  1
\fMS Gothic|b0|i0|c128;\H5.5122;\C7;\U+0035\U+0030
  7
STD
210
0.0
220
0.0
230
1.0
 73
     1
 44
1.0
  0
MTEXT
  5
543
100
AcDbEntity
  8
レイヤー_2
  6
AI9-LType3
 62
     7
100
AcDbMText
 10
113.707444
 20
256.940905
 30
0.0
 40
5.512152
 41
0.0
 71
     1
 72
     2
  1
\fMS Gothic|b0|i0|c128;\H5.5122;\C7;\U+0031\U+0035\U+0038
  7
STD
210
0.0
220
0.0
230
1.0
 73
     1
 44
1.0
  0
MTEXT
  5
542
100
AcDbEntity
  8
レイヤー_2
  6
AI9-LType3
 62
     7
100
AcDbMText
 10
179.147033
 20
198.405461
 30
0.0
 40
5.512152
 41
0.0
 71
     1
 72
     2
  1
\fMS Gothic|b0|i0|c128;\H5.5122;\C7;\U+0034\U+0030\U+0037
  7
STD
210
0.0
220
0.0
230
1.0
 11
0.0
 21
1.0
 31
0.0
 73
     1
 44
1.0
  0
MTEXT
  5
541
100
AcDbEntity
  8
レイヤー_2
  6
AI9-LType3
 62
     7
100
AcDbMText
 10
167.654539
 20
191.702683
 30
0.0
 40
5.512152
 41
0.0
 71
     1
 72
     2
  1
\fMS Gothic|b0|i0|c128;\H5.5122;\C7;\U+0033\U+0034\U+0033
  7
STD
210
0.0
220
0.0
230
1.0
 11
0.0
 21
1.0
 31
0.0
 73
     1
 44
1.0
  0
MTEXT
  5
540
100
AcDbEntity
  8
レイヤー_2
  6
AI9-LType3
 62
     7
100
AcDbMText
 10
155.473026
 20
184.76495
 30
0.0
 40
5.512152
 41
0.0
 71
     1
 72
     2
  1
\fMS Gothic|b0|i0|c128;\H5.5122;\C7;\U+0032\U+0038\U+0035
  7
STD
210
0.0
220
0.0
230
1.0
 11
0.0
 21
1.0
 31
0.0
 73
     1
 44
1.0
  0
INSERT
  5
4EE
100
AcDbEntity
  8
レイヤー_2
  6
AI9-LType3
 62
     7
100
AcDbBlockReference
  2
AI9-BLK6
 10
76.942849
 20
119.707594
 30
0.0
  0
INSERT
  5
49A
100
AcDbEntity
  8
レイヤー_2
 62
     7
100
AcDbBlockReference
  2
AI9-BLK3
 10
51.550859
 20
119.707594
 30
0.0
  0
INSERT
  5
494
100
AcDbEntity
  8
レイヤー_2
 62
     7
100
AcDbBlockReference
  2
AI9-BLK2
 10
97.263658
 20
98.505615
 30
0.0
  0
SPLINE
  5
492
100
AcDbEntity
  8
レイヤー_2
 62
     7
100
AcDbSpline
210
0.0
220
0.0
230
1.0
 70
     8
 71
     3
 72
    17
 73
    13
 74
     0
 42
0.00000001
 43
0.00000001
 40
0.0
 40
0.0
 40
0.0
 40
0.0
 40
1.0
 40
1.0
 40
1.0
 40
2.0
 40
2.0
 40
2.0
 40
3.0
 40
3.0
 40
3.0
 40
4.0
 40
4.0
 40
4.0
 40
4.0
 10
68.006873914930551
 20
74.813004557291663
 30
0.0
 10
68.006873914930551
 20
76.8669704861111
 30
0.0
 10
66.342031521267359
 20
78.531640624999994
 30
0.0
 10
64.288410101996519
 20
78.531640624999994
 30
0.0
 10
62.234444173177074
 20
78.531640624999994
 30
0.0
 10
60.569085015190964
 20
76.8669704861111
 30
0.0
 10
60.569085015190964
 20
74.813004557291663
 30
0.0
 10
60.569085015190964
 20
72.759038628472211
 30
0.0
 10
62.234444173177074
 20
71.095057508680554
 30
0.0
 10
64.288410101996519
 20
71.095057508680554
 30
0.0
 10
66.342031521267359
 20
71.095057508680554
 30
0.0
 10
68.006873914930551
 20
72.759038628472211
 30
0.0
 10
68.006873914930551
 20
74.813004557291663
 30
0.0
  0
LINE
  5
491
100
AcDbEntity
  8
レイヤー_2
  6
AI9-LType1
 62
     7
100
AcDbLine
 10
64.28841
 20
70.266857
 30
0.0
 11
64.28841
 21
236.104796
 31
0.0
  0
LINE
  5
490
100
AcDbEntity
  8
レイヤー_2
  6
AI9-LType1
 62
     7
100
AcDbLine
 10
59.335224
 20
74.813005
 30
0.0
 11
68.904321
 21
74.813005
 31
0.0
  0
LINE
  5
48F
100
AcDbEntity
  8
レイヤー_2
 62
     7
100
AcDbLine
 10
68.904321
 20
74.813005
 30
0.0
 11
69.755088
 21
74.813005
 31
0.0
  0
LINE
  5
48E
100
AcDbEntity
  8
レイヤー_2
 62
     7
100
AcDbLine
 10
71.050271
 20
68.119873
 30
0.0
 11
60.505351
 21
78.663932
 31
0.0
  0
LINE
  5
48D
100
AcDbEntity
  8
レイヤー_2
 62
     7
100
AcDbLine
 10
71.050271
 20
68.119873
 30
0.0
 11
85.035464
 21
68.119873
 31
0.0
  0
LINE
  5
48C
100
AcDbEntity
  8
レイヤー_2
 62
     7
100
AcDbLine
 10
60.378743
 20
77.392003
 30
0.0
 11
63.160658
 21
77.392003
 31
0.0
  0
LINE
  5
48B
100
AcDbEntity
  8
レイヤー_2
 62
     7
100
AcDbLine
 10
65.551727
 20
72.143745
 30
0.0
 11
68.332952
 21
72.143745
 31
0.0
  0
MTEXT
  5
48A
100
AcDbEntity
  8
レイヤー_2
 62
     7
100
AcDbMText
 10
35.605923
 20
117.640709
 30
0.0
 40
5.512152
 41
0.0
 71
     1
 72
     2
  1
\fMS Gothic|b0|i0|c128;\H5.5122;\C7;\U+006D\U+0061\U+0078\U+002E\U+0031\U+0030\U+0030
  7
STD
210
0.0
220
0.0
230
1.0
 11
0.0
 21
1.0
 31
0.0
 73
     1
 44
1.0
  0
INSERT
  5
486
100
AcDbEntity
  8
レイヤー_2
 62
     7
100
AcDbBlockReference
  2
AI9-BLK1
 10
77.242486
 20
72.087934
 30
0.0
  0
SPLINE
  5
484
100
AcDbEntity
  8
レイヤー_2
 62
     7
100
AcDbSpline
210
0.0
220
0.0
230
1.0
 70
     8
 71
     3
 72
    20
 73
    16
 74
     0
 42
0.00000001
 43
0.00000001
 40
0.0
 40
0.0
 40
0.0
 40
0.0
 40
1.0
 40
1.0
 40
1.0
 40
2.0
 40
2.0
 40
2.0
 40
3.0
 40
3.0
 40
3.0
 40
4.0
 40
4.0
 40
4.0
 40
5.0
 40
5.0
 40
5.0
 40
5.0
 10
96.584974500868043
 20
228.05360785590275
 30
0.0
 10
96.583424207899299
 20
228.06032579210068
 30
0.0
 10
96.580668131510407
 20
228.06635470920136
 30
0.0
 10
96.575672743055549
 20
228.07083333333333
 30
0.0
 10
96.569299316406244
 20
228.07668999565971
 30
0.0
 10
96.560686577690959
 20
228.08013509114582
 30
0.0
 10
96.552590603298597
 20
228.08013509114582
 30
0.0
 10
96.543461100260402
 20
228.08013509114582
 30
0.0
 10
96.535537380642353
 20
228.07668999565971
 30
0.0
 10
96.52950846354166
 20
228.07083333333333
 30
0.0
 10
96.523135036892356
 20
228.0639431423611
 30
0.0
 10
96.520034450954853
 20
228.05584716796872
 30
0.0
 10
96.520034450954853
 20
228.04740668402775
 30
0.0
 10
96.520034450954853
 20
228.04706217447915
 30
0.0
 10
96.520034450954853
 20
228.04637315538193
 30
0.0
 10
96.520378960503464
 20
228.04516737196178
 30
0.0
  0
SPLINE
  5
483
100
AcDbEntity
  8
レイヤー_2
 62
     7
100
AcDbSpline
210
0.0
220
0.0
230
1.0
 70
     8
 71
     3
 72
     8
 73
     4
 74
     0
 42
0.00000001
 43
0.00000001
 40
0.0
 40
0.0
 40
0.0
 40
0.0
 40
1.0
 40
1.0
 40
1.0
 40
1.0
 10
96.827853732638886
 20
226.67178005642359
 30
0.0
 10
96.827853732638886
 20
226.67350260416666
 30
0.0
 10
96.827853732638886
 20
226.67574191623262
 30
0.0
 10
96.826820203993051
 20
226.67729220920137
 30
0.0
  0
SPLINE
  5
482
100
AcDbEntity
  8
レイヤー_2
 62
     7
100
AcDbSpline
210
0.0
220
0.0
230
1.0
 70
     8
 71
     3
 72
    17
 73
    13
 74
     0
 42
0.00000001
 43
0.00000001
 40
0.0
 40
0.0
 40
0.0
 40
0.0
 40
1.0
 40
1.0
 40
1.0
 40
2.0
 40
2.0
 40
2.0
 40
3.0
 40
3.0
 40
3.0
 40
4.0
 40
4.0
 40
4.0
 40
4.0
 10
96.764291720920127
 20
226.66282280815969
 30
0.0
 10
96.76498074001735
 20
226.65679389105901
 30
0.0
 10
96.768253580729152
 20
226.65248752170137
 30
0.0
 10
96.772559950086801
 20
226.64904242621526
 30
0.0
 10
96.778416612413181
 20
226.64266899956596
 30
0.0
 10
96.786684841579856
 20
226.63922390407984
 30
0.0
 10
96.795297580295127
 20
226.63922390407984
 30
0.0
 10
96.803910319010413
 20
226.63922390407984
 30
0.0
 10
96.812178548177073
 20
226.64301350911455
 30
0.0
 10
96.818207465277766
 20
226.64904242621526
 30
0.0
 10
96.825097656249994
 20
226.65507134331594
 30
0.0
 10
96.827853732638886
 20
226.66385633680554
 30
0.0
 10
96.827853732638886
 20
226.67178005642359
 30
0.0
  0
SPLINE
  5
481
100
AcDbEntity
  8
レイヤー_2
  6
AI9-LType2
 62
     7
100
AcDbSpline
210
0.0
220
0.0
230
1.0
 70
     8
 71
     3
 72
     8
 73
     4
 74
     0
 42
0.00000001
 43
0.00000001
 40
0.0
 40
0.0
 40
0.0
 40
0.0
 40
1.0
 40
1.0
 40
1.0
 40
1.0
 10
96.520378960503464
 20
228.04516737196178
 30
0.0
 10
96.53243679470485
 20
227.84517957899303
 30
0.0
 10
96.554313151041654
 20
227.64708658854164
 30
0.0
 10
96.581184895833331
 20
227.47758789062499
 30
0.0
  0
SPLINE
  5
480
100
AcDbEntity
  8
レイヤー_2
 62
     7
100
AcDbSpline
210
0.0
220
0.0
230
1.0
 70
     8
 71
     3
 72
     8
 73
     4
 74
     0
 42
0.00000001
 43
0.00000001
 40
0.0
 40
0.0
 40
0.0
 40
0.0
 40
1.0
 40
1.0
 40
1.0
 40
1.0
 10
96.581184895833331
 20
227.47758789062499
 30
0.0
 10
96.626660156249997
 20
227.1868218315972
 30
0.0
 10
96.690566677517353
 20
226.90449625651038
 30
0.0
 10
96.764291720920127
 20
226.66282280815969
 30
0.0
  0
SPLINE
  5
47F
100
AcDbEntity
  8
レイヤー_2
  6
AI9-LType2
 62
     7
100
AcDbSpline
210
0.0
220
0.0
230
1.0
 70
     8
 71
     3
 72
    62
 73
    58
 74
     0
 42
0.00000001
 43
0.00000001
 40
0.0
 40
0.0
 40
0.0
 40
0.0
 40
1.0
 40
1.0
 40
1.0
 40
2.0
 40
2.0
 40
2.0
 40
3.0
 40
3.0
 40
3.0
 40
4.0
 40
4.0
 40
4.0
 40
5.0
 40
5.0
 40
5.0
 40
6.0
 40
6.0
 40
6.0
 40
7.0
 40
7.0
 40
7.0
 40
8.0
 40
8.0
 40
8.0
 40
9.0
 40
9.0
 40
9.0
 40
10.0
 40
10.0
 40
10.0
 40
11.0
 40
11.0
 40
11.0
 40
12.0
 40
12.0
 40
12.0
 40
13.0
 40
13.0
 40
13.0
 40
14.0
 40
14.0
 40
14.0
 40
15.0
 40
15.0
 40
15.0
 40
16.0
 40
16.0
 40
16.0
 40
17.0
 40
17.0
 40
17.0
 40
18.0
 40
18.0
 40
18.0
 40
19.0
 40
19.0
 40
19.0
 40
19.0
 10
130.4330376519097
 20
245.37416992187497
 30
0.0
 10
129.64479980468749
 20
244.99744873046873
 30
0.0
 10
128.85587293836804
 20
244.6210720486111
 30
0.0
 10
128.06763509114583
 20
244.24435085720484
 30
0.0
 10
127.28180881076388
 20
243.86866319444442
 30
0.0
 10
126.49632703993055
 20
243.49280327690971
 30
0.0
 10
125.71187879774304
 20
243.11625434027775
 30
0.0
 10
124.99771050347221
 20
242.773639594184
 30
0.0
 10
124.28388671874998
 20
242.43119710286456
 30
0.0
 10
123.57075195312498
 20
242.08772108289929
 30
0.0
 10
122.92789713541666
 20
241.77852376302081
 30
0.0
 10
122.28573133680554
 20
241.46915418836804
 30
0.0
 10
121.64322102864583
 20
241.15926784939234
 30
0.0
 10
121.07202419704861
 20
240.88383246527775
 30
0.0
 10
120.50048285590276
 20
240.60788031684027
 30
0.0
 10
119.92997504340276
 20
240.33158365885416
 30
0.0
 10
119.5310329861111
 20
240.13865831163193
 30
0.0
 10
119.13140190972221
 20
239.9455607096354
 30
0.0
 10
118.73280436197916
 20
239.75280761718747
 30
0.0
 10
118.37795952690971
 20
239.58038058810763
 30
0.0
 10
118.02277018229165
 20
239.40829806857636
 30
0.0
 10
117.6675808376736
 20
239.23604329427081
 30
0.0
 10
117.35648871527776
 20
239.08532036675345
 30
0.0
 10
117.04505208333332
 20
238.93425292968749
 30
0.0
 10
116.73395996093748
 20
238.78353000217012
 30
0.0
 10
116.46558702256944
 20
238.65296088324649
 30
0.0
 10
116.19721408420138
 20
238.52290852864581
 30
0.0
 10
115.92884114583332
 20
238.39233940972221
 30
0.0
 10
115.65013292100693
 20
238.25625813802083
 30
0.0
 10
115.37039116753471
 20
238.12017686631941
 30
0.0
 10
115.09099392361109
 20
237.98461235894095
 30
0.0
 10
114.67207031249998
 20
237.78066270616318
 30
0.0
 10
114.25314670138887
 20
237.57602403428817
 30
0.0
 10
113.83422309027777
 20
237.3722466362847
 30
0.0
 10
113.34398600260415
 20
237.13350151909719
 30
0.0
 10
112.85443793402777
 20
236.89389512803817
 30
0.0
 10
112.36420084635415
 20
236.65515001085066
 30
0.0
 10
111.80299479166666
 20
236.38092041015622
 30
0.0
 10
111.24282226562499
 20
236.10703531901041
 30
0.0
 10
110.6819607204861
 20
235.83228895399304
 30
0.0
 10
110.05013020833333
 20
235.52291937934027
 30
0.0
 10
109.41933322482637
 20
235.21372205946179
 30
0.0
 10
108.78784722222221
 20
234.90349121093749
 30
0.0
 10
108.08470323350693
 20
234.55898166232637
 30
0.0
 10
107.38293728298611
 20
234.21378309461804
 30
0.0
 10
106.68082682291666
 20
233.86789550781248
 30
0.0
 10
105.92290581597221
 20
233.49513617621525
 30
0.0
 10
105.16464029947916
 20
233.12134331597221
 30
0.0
 10
104.40689154730902
 20
232.74668918185762
 30
0.0
 10
103.58041314019096
 20
232.33913438585068
 30
0.0
 10
102.75445149739582
 20
231.9307183159722
 30
0.0
 10
101.92848985460068
 20
231.5212687174479
 30
0.0
 10
101.03448757595486
 20
231.07840169270833
 30
0.0
 10
100.14048529730901
 20
230.6348456488715
 30
0.0
 10
99.247172037760407
 20
230.19060058593749
 30
0.0
 10
98.601733398437489
 20
229.86986219618055
 30
0.0
 10
97.957156032986106
 20
229.54877929687498
 30
0.0
 10
97.313095431857633
 20
229.22735188802082
 30
0.0
  0
SPLINE
  5
47E
100
AcDbEntity
  8
レイヤー_2
 62
     7
100
AcDbSpline
210
0.0
220
0.0
230
1.0
 70
     8
 71
     3
 72
     8
 73
     4
 74
     0
 42
0.00000001
 43
0.00000001
 40
0.0
 40
0.0
 40
0.0
 40
0.0
 40
1.0
 40
1.0
 40
1.0
 40
1.0
 10
97.313095431857633
 20
229.22735188802082
 30
0.0
 10
97.063670518663187
 20
229.10298394097219
 30
0.0
 10
96.814245605468741
 20
228.9786159939236
 30
0.0
 10
96.564992947048609
 20
228.8545925564236
 30
0.0
  0
SPLINE
  5
47D
100
AcDbEntity
  8
レイヤー_2
 62
     7
100
AcDbSpline
210
0.0
220
0.0
230
1.0
 70
     8
 71
     3
 72
    11
 73
     7
 74
     0
 42
0.00000001
 43
0.00000001
 40
0.0
 40
0.0
 40
0.0
 40
0.0
 40
1.0
 40
1.0
 40
1.0
 40
2.0
 40
2.0
 40
2.0
 40
2.0
 10
130.66730414496527
 20
245.26375461154512
 30
0.0
 10
130.65972493489582
 20
245.2942437065972
 30
0.0
 10
130.64387749565972
 20
245.32128770616316
 30
0.0
 10
130.62320692274304
 20
245.34126925998262
 30
0.0
 10
130.5725640190972
 20
245.39260118272568
 30
0.0
 10
130.49642740885415
 20
245.40328097873262
 30
0.0
 10
130.4326931423611
 20
245.37416992187497
 30
0.0
  0
SPLINE
  5
47C
100
AcDbEntity
  8
レイヤー_2
 62
     7
100
AcDbSpline
210
0.0
220
0.0
230
1.0
 70
     8
 71
     3
 72
    14
 73
    10
 74
     0
 42
0.00000001
 43
0.00000001
 40
0.0
 40
0.0
 40
0.0
 40
0.0
 40
1.0
 40
1.0
 40
1.0
 40
2.0
 40
2.0
 40
2.0
 40
3.0
 40
3.0
 40
3.0
 40
3.0
 10
96.564992947048609
 20
228.8545925564236
 30
0.0
 10
96.547767469618051
 20
228.845807562934
 30
0.0
 10
96.533125813802073
 20
228.83512776692706
 30
0.0
 10
96.521412489149299
 20
228.8234144422743
 30
0.0
 10
96.488511827256929
 20
228.79085828993053
 30
0.0
 10
96.472147623697907
 20
228.74762234157984
 30
0.0
 10
96.472147623697907
 20
228.70524766710068
 30
0.0
 10
96.472147623697907
 20
228.69508463541663
 30
0.0
 10
96.47335340711804
 20
228.68457709418399
 30
0.0
 10
96.475075954861097
 20
228.67648111979165
 30
0.0
  0
LINE
  5
47B
100
AcDbEntity
  8
レイヤー_2
  6
AI9-LType2
 62
     7
100
AcDbLine
 10
109.260859
 20
229.933424
 30
0.0
 11
102.374974
 21
226.574628
 31
0.0
  0
LINE
  5
47A
100
AcDbEntity
  8
レイヤー_2
 62
     7
100
AcDbLine
 10
102.374974
 20
226.574628
 30
0.0
 11
101.624116
 21
226.208931
 31
0.0
  0
POLYLINE
  5
46E
100
AcDbEntity
  8
レイヤー_2
 62
     7
100
AcDb2dPolyline
 66
     1
 10
0.0
 20
0.0
 30
0.0
  0
VERTEX
  5
46F
100
AcDbEntity
  8
レイヤー_2
 62
     7
100
AcDbVertex
100
AcDb2dVertex
 10
109.31977
 20
229.962708
 30
0.0
  0
VERTEX
  5
470
100
AcDbEntity
  8
レイヤー_2
 62
     7
100
AcDbVertex
100
AcDb2dVertex
 10
109.319425
 20
229.961674
 30
0.0
  0
VERTEX
  5
471
100
AcDbEntity
  8
レイヤー_2
 62
     7
100
AcDbVertex
100
AcDb2dVertex
 10
109.316325
 20
229.960985
 30
0.0
  0
VERTEX
  5
472
100
AcDbEntity
  8
レイヤー_2
 62
     7
100
AcDbVertex
100
AcDb2dVertex
 10
109.311846
 20
229.958401
 30
0.0
  0
VERTEX
  5
473
100
AcDbEntity
  8
レイヤー_2
 62
     7
100
AcDbVertex
100
AcDb2dVertex
 10
109.306334
 20
229.955301
 30
0.0
  0
VERTEX
  5
474
100
AcDbEntity
  8
レイヤー_2
 62
     7
100
AcDbVertex
100
AcDb2dVertex
 10
109.298755
 20
229.951855
 30
0.0
  0
VERTEX
  5
475
100
AcDbEntity
  8
レイヤー_2
 62
     7
100
AcDbVertex
100
AcDb2dVertex
 10
109.290487
 20
229.947894
 30
0.0
  0
VERTEX
  5
476
100
AcDbEntity
  8
レイヤー_2
 62
     7
100
AcDbVertex
100
AcDb2dVertex
 10
109.281185
 20
229.943415
 30
0.0
  0
VERTEX
  5
477
100
AcDbEntity
  8
レイヤー_2
 62
     7
100
AcDbVertex
100
AcDb2dVertex
 10
109.271539
 20
229.93842
 30
0.0
  0
VERTEX
  5
478
100
AcDbEntity
  8
レイヤー_2
 62
     7
100
AcDbVertex
100
AcDb2dVertex
 10
109.260859
 20
229.933424
 30
0.0
  0
SEQEND
  5
479
100
AcDbEntity
  8
レイヤー_2
 62
     7
  0
LINE
  5
46D
100
AcDbEntity
  8
レイヤー_2
  6
AI9-LType2
 62
     7
100
AcDbLine
 10
101.580191
 20
226.198424
 30
0.0
 11
97.850358
 21
226.133139
 31
0.0
  0
LINE
  5
46C
100
AcDbEntity
  8
レイヤー_2
 62
     7
100
AcDbLine
 10
97.850358
 20
226.133139
 30
0.0
 11
97.015267
 21
226.118498
 31
0.0
  0
LINE
  5
46B
100
AcDbEntity
  8
レイヤー_2
  6
AI9-LType2
 62
     7
100
AcDbLine
 10
108.98594
 20
232.295382
 30
0.0
 11
109.231576
 21
230.897017
 31
0.0
  0
LINE
  5
46A
100
AcDbEntity
  8
レイヤー_2
 62
     7
100
AcDbLine
 10
109.231576
 20
230.897017
 30
0.0
 11
109.376614
 21
230.074501
 31
0.0
  0
SPLINE
  5
469
100
AcDbEntity
  8
レイヤー_2
 62
     7
100
AcDbSpline
210
0.0
220
0.0
230
1.0
 70
     8
 71
     3
 72
    11
 73
     7
 74
     0
 42
0.00000001
 43
0.00000001
 40
0.0
 40
0.0
 40
0.0
 40
0.0
 40
1.0
 40
1.0
 40
1.0
 40
2.0
 40
2.0
 40
2.0
 40
2.0
 10
96.910536024305543
 20
226.20479736328122
 30
0.0
 10
96.91467013888888
 20
226.18292100694441
 30
0.0
 10
96.92534993489582
 20
226.1638007269965
 30
0.0
 10
96.939819335937486
 20
226.14915907118055
 30
0.0
 10
96.96066216362847
 20
226.12831624348956
 30
0.0
 10
96.987706163194431
 20
226.11832546657985
 30
0.0
 10
97.015266927083331
 20
226.11849772135415
 30
0.0
  0
LINE
  5
468
100
AcDbEntity
  8
レイヤー_2
  6
AI9-LType2
 62
     7
100
AcDbLine
 10
96.910536
 20
226.204797
 30
0.0
 11
96.620459
 21
227.85207
 31
0.0
  0
LINE
  5
467
100
AcDbEntity
  8
レイヤー_2
 62
     7
100
AcDbLine
 10
96.620459
 20
227.85207
 30
0.0
 11
96.475076
 21
228.675103
 31
0.0
  0
SPLINE
  5
466
100
AcDbEntity
  8
レイヤー_2
 62
     7
100
AcDbSpline
210
0.0
220
0.0
230
1.0
 70
     8
 71
     3
 72
    14
 73
    10
 74
     0
 42
0.00000001
 43
0.00000001
 40
0.0
 40
0.0
 40
0.0
 40
0.0
 40
1.0
 40
1.0
 40
1.0
 40
2.0
 40
2.0
 40
2.0
 40
3.0
 40
3.0
 40
3.0
 40
3.0
 10
109.19884711371527
 20
232.73549262152775
 30
0.0
 10
109.16095106336805
 20
232.71551106770832
 30
0.0
 10
109.12718912760415
 20
232.6901896158854
 30
0.0
 10
109.10169542100694
 20
232.66297336154511
 30
0.0
 10
109.01935763888888
 20
232.5814968532986
 30
0.0
 10
108.97905002170138
 20
232.47452663845485
 30
0.0
 10
108.97905002170138
 20
232.36790093315969
 30
0.0
 10
108.97905002170138
 20
232.34171820746525
 30
0.0
 10
108.98146158854166
 20
232.31743028428818
 30
0.0
 10
108.9859402126736
 20
232.29538167317708
 30
0.0
  0
LINE
  5
465
100
AcDbEntity
  8
レイヤー_2
  6
AI9-LType2
 62
     7
100
AcDbLine
 10
130.762044
 20
244.364929
 30
0.0
 11
109.934375
 21
233.132023
 31
0.0
  0
LINE
  5
463
100
AcDbEntity
  8
レイヤー_2
 62
     7
100
AcDbLine
 10
109.934375
 20
233.132023
 30
0.0
 11
109.198847
 21
232.735493
 31
0.0
  0
SPLINE
  5
462
100
AcDbEntity
  8
レイヤー_2
 62
     7
100
AcDbSpline
210
0.0
220
0.0
230
1.0
 70
     8
 71
     3
 72
     8
 73
     4
 74
     0
 42
0.00000001
 43
0.00000001
 40
0.0
 40
0.0
 40
0.0
 40
0.0
 40
1.0
 40
1.0
 40
1.0
 40
1.0
 10
130.84954969618053
 20
244.51169026692705
 30
0.0
 10
130.84954969618053
 20
244.52633192274303
 30
0.0
 10
130.84782714843749
 20
244.53994004991318
 30
0.0
 10
130.8447265625
 20
244.55199788411457
 30
0.0
  0
SPLINE
  5
461
100
AcDbEntity
  8
レイヤー_2
 62
     7
100
AcDbSpline
210
0.0
220
0.0
230
1.0
 70
     8
 71
     3
 72
    11
 73
     7
 74
     0
 42
0.00000001
 43
0.00000001
 40
0.0
 40
0.0
 40
0.0
 40
0.0
 40
1.0
 40
1.0
 40
1.0
 40
2.0
 40
2.0
 40
2.0
 40
2.0
 10
130.76204427083331
 20
244.36492919921872
 30
0.0
 10
130.77720269097222
 20
244.37233615451387
 30
0.0
 10
130.79029405381942
 20
244.38301595052081
 30
0.0
 10
130.80097384982636
 20
244.39352349175346
 30
0.0
 10
130.83335774739581
 20
244.4264241536458
 30
0.0
 10
130.84954969618053
 20
244.46879882812499
 30
0.0
 10
130.84954969618053
 20
244.51169026692705
 30
0.0
  0
LINE
  5
460
100
AcDbEntity
  8
レイヤー_2
 62
     7
100
AcDbLine
 10
130.667649
 20
245.262204
 30
0.0
 11
130.844727
 21
244.551998
 31
0.0
  0
SPLINE
  5
45F
100
AcDbEntity
  8
レイヤー_2
 62
     7
100
AcDbSpline
210
0.0
220
0.0
230
1.0
 70
     8
 71
     3
 72
    11
 73
     7
 74
     0
 42
0.00000001
 43
0.00000001
 40
0.0
 40
0.0
 40
0.0
 40
0.0
 40
1.0
 40
1.0
 40
1.0
 40
2.0
 40
2.0
 40
2.0
 40
2.0
 10
130.66764865451387
 20
245.26220431857638
 30
0.0
 10
130.66041395399304
 20
245.29286566840275
 30
0.0
 10
130.64422200520832
 20
245.31956515842012
 30
0.0
 10
130.62424045138889
 20
245.33937445746525
 30
0.0
 10
130.5725640190972
 20
245.39156765407984
 30
0.0
 10
130.49573838975692
 20
245.40173068576388
 30
0.0
 10
130.4326931423611
 20
245.3715861002604
 30
0.0
  0
SPLINE
  5
45E
100
AcDbEntity
  8
レイヤー_2
 62
     7
100
AcDbSpline
210
0.0
220
0.0
230
1.0
 70
     8
 71
     3
 72
    14
 73
    10
 74
     0
 42
0.00000001
 43
0.00000001
 40
0.0
 40
0.0
 40
0.0
 40
0.0
 40
1.0
 40
1.0
 40
1.0
 40
2.0
 40
2.0
 40
2.0
 40
3.0
 40
3.0
 40
3.0
 40
3.0
 10
96.566543240017353
 20
228.85355902777775
 30
0.0
 10
96.548628743489573
 20
228.8452907986111
 30
0.0
 10
96.533987087673609
 20
228.83443874782984
 30
0.0
 10
96.521412489149299
 20
228.82203640407985
 30
0.0
 10
96.489200846354152
 20
228.78948025173608
 30
0.0
 10
96.472664388020831
 20
228.74693332248262
 30
0.0
 10
96.472664388020831
 20
228.70352511935761
 30
0.0
 10
96.472664388020831
 20
228.69387885199652
 30
0.0
 10
96.47335340711804
 20
228.68337131076387
 30
0.0
 10
96.475075954861097
 20
228.6751030815972
 30
0.0
  0
LINE
  5
45D
100
AcDbEntity
  8
レイヤー_2
 62
     7
100
AcDbLine
 10
96.564993
 20
228.854593
 30
0.0
 11
96.566543
 21
228.854593
 31
0.0
  0
SPLINE
  5
45C
100
AcDbEntity
  8
レイヤー_2
 62
     7
100
AcDbSpline
210
0.0
220
0.0
230
1.0
 70
     8
 71
     3
 72
    11
 73
     7
 74
     0
 42
0.00000001
 43
0.00000001
 40
0.0
 40
0.0
 40
0.0
 40
0.0
 40
1.0
 40
1.0
 40
1.0
 40
2.0
 40
2.0
 40
2.0
 40
2.0
 10
103.76989339192707
 20
131.4186794704861
 30
0.0
 10
103.60280626085068
 20
131.36528049045137
 30
0.0
 10
103.40678032769097
 20
131.25675998263887
 30
0.0
 10
103.16166178385416
 20
131.07244737413194
 30
0.0
 10
102.48538953993055
 20
130.565673828125
 30
0.0
 10
102.08885904947915
 20
130.38928493923609
 30
0.0
 10
101.65098741319443
 20
130.52708875868055
 30
0.0
  0
SPLINE
  5
45B
100
AcDbEntity
  8
レイヤー_2
 62
     7
100
AcDbSpline
210
0.0
220
0.0
230
1.0
 70
     8
 71
     3
 72
     8
 73
     4
 74
     0
 42
0.00000001
 43
0.00000001
 40
0.0
 40
0.0
 40
0.0
 40
0.0
 40
1.0
 40
1.0
 40
1.0
 40
1.0
 10
96.821480305989581
 20
230.47464870876735
 30
0.0
 10
96.805116102430546
 20
230.47464870876735
 30
0.0
 10
96.790991210937491
 20
230.46207411024304
 30
0.0
 10
96.789613172743046
 20
230.44536539713539
 30
0.0
  0
SPLINE
  5
45A
100
AcDbEntity
  8
レイヤー_2
 62
     7
100
AcDbSpline
210
0.0
220
0.0
230
1.0
 70
     8
 71
     3
 72
     8
 73
     4
 74
     0
 42
0.00000001
 43
0.00000001
 40
0.0
 40
0.0
 40
0.0
 40
0.0
 40
1.0
 40
1.0
 40
1.0
 40
1.0
 10
96.854036458333326
 20
230.4420925564236
 30
0.0
 10
96.854036458333326
 20
230.46017930772567
 30
0.0
 10
96.839911566840271
 20
230.47464870876735
 30
0.0
 10
96.821480305989581
 20
230.47464870876735
 30
0.0
  0
SPLINE
  5
459
100
AcDbEntity
  8
レイヤー_2
 62
     7
100
AcDbSpline
210
0.0
220
0.0
230
1.0
 70
     8
 71
     3
 72
     8
 73
     4
 74
     0
 42
0.00000001
 43
0.00000001
 40
0.0
 40
0.0
 40
0.0
 40
0.0
 40
1.0
 40
1.0
 40
1.0
 40
1.0
 10
96.825614420572904
 20
229.01237792968749
 30
0.0
 10
96.84197862413194
 20
229.01444498697916
 30
0.0
 10
96.854036458333326
 20
229.02891438802081
 30
0.0
 10
96.854036458333326
 20
229.04510633680553
 30
0.0
  0
SPLINE
  5
458
100
AcDbEntity
  8
レイヤー_2
 62
     7
100
AcDbSpline
210
0.0
220
0.0
230
1.0
 70
     8
 71
     3
 72
     8
 73
     4
 74
     0
 42
0.00000001
 43
0.00000001
 40
0.0
 40
0.0
 40
0.0
 40
0.0
 40
1.0
 40
1.0
 40
1.0
 40
1.0
 10
96.789613172743046
 20
229.04166124131942
 30
0.0
 10
96.790991210937491
 20
229.02374674479165
 30
0.0
 10
96.807183159722214
 20
229.01082763671872
 30
0.0
 10
96.825614420572904
 20
229.01237792968749
 30
0.0
  0
SPLINE
  5
457
100
AcDbEntity
  8
レイヤー_2
 62
     7
100
AcDbSpline
210
0.0
220
0.0
230
1.0
 70
     8
 71
     3
 72
     8
 73
     4
 74
     0
 42
0.00000001
 43
0.00000001
 40
0.0
 40
0.0
 40
0.0
 40
0.0
 40
1.0
 40
1.0
 40
1.0
 40
1.0
 10
96.789613172743046
 20
230.44536539713539
 30
0.0
 10
96.733285861545127
 20
229.95392252604165
 30
0.0
 10
96.737075466579853
 20
229.46936984592011
 30
0.0
 10
96.789613172743046
 20
229.04166124131942
 30
0.0
  0
SPLINE
  5
456
100
AcDbEntity
  8
レイヤー_2
 62
     7
100
AcDbSpline
210
0.0
220
0.0
230
1.0
 70
     8
 71
     3
 72
     8
 73
     4
 74
     0
 42
0.00000001
 43
0.00000001
 40
0.0
 40
0.0
 40
0.0
 40
0.0
 40
1.0
 40
1.0
 40
1.0
 40
1.0
 10
98.377802191840274
 20
160.72748480902777
 30
0.0
 10
98.454972330729163
 20
160.59450412326387
 30
0.0
 10
98.593637424045127
 20
160.51974555121527
 30
0.0
 10
98.740053982204856
 20
160.51853976779512
 30
0.0
  0
SPLINE
  5
455
100
AcDbEntity
  8
レイヤー_2
 62
     7
100
AcDbSpline
210
0.0
220
0.0
230
1.0
 70
     8
 71
     3
 72
     8
 73
     4
 74
     0
 42
0.00000001
 43
0.00000001
 40
0.0
 40
0.0
 40
0.0
 40
0.0
 40
1.0
 40
1.0
 40
1.0
 40
1.0
 10
106.67634819878471
 20
160.51853976779512
 30
0.0
 10
106.83034396701387
 20
160.51853976779512
 30
0.0
 10
106.96470269097222
 20
160.6017388237847
 30
0.0
 10
107.03773871527777
 20
160.72748480902777
 30
0.0
  0
LINE
  5
454
100
AcDbEntity
  8
レイヤー_2
 62
     7
100
AcDbLine
 10
98.740054
 20
160.51854
 30
0.0
 11
106.676348
 21
160.51854
 31
0.0
  0
LINE
  5
453
100
AcDbEntity
  8
レイヤー_2
 62
     7
100
AcDbLine
 10
150.244059
 20
220.536582
 30
0.0
 11
150.114524
 21
222.122876
 31
0.0
  0
LINE
  5
452
100
AcDbEntity
  8
レイヤー_2
 62
     7
100
AcDbLine
 10
145.119135
 20
221.713082
 30
0.0
 11
145.248671
 21
220.127821
 31
0.0
  0
LINE
  5
451
100
AcDbEntity
  8
レイヤー_2
 62
     7
100
AcDbLine
 10
145.248671
 20
220.127821
 30
0.0
 11
145.466745
 21
220.024985
 31
0.0
  0
LINE
  5
450
100
AcDbEntity
  8
レイヤー_2
 62
     7
100
AcDbLine
 10
150.045966
 20
220.399122
 30
0.0
 11
150.244059
 21
220.536582
 31
0.0
  0
SPLINE
  5
44F
100
AcDbEntity
  8
レイヤー_2
 62
     7
100
AcDbSpline
210
0.0
220
0.0
230
1.0
 70
     8
 71
     3
 72
     8
 73
     4
 74
     0
 42
0.00000001
 43
0.00000001
 40
0.0
 40
0.0
 40
0.0
 40
0.0
 40
1.0
 40
1.0
 40
1.0
 40
1.0
 10
145.83468153211805
 20
220.05461290147568
 30
0.0
 10
145.84570583767359
 20
220.02980821397568
 30
0.0
 10
145.87051052517359
 20
220.01585557725693
 30
0.0
 10
145.89703776041665
 20
220.01757812499997
 30
0.0
  0
SPLINE
  5
44E
100
AcDbEntity
  8
レイヤー_2
 62
     7
100
AcDbSpline
210
0.0
220
0.0
230
1.0
 70
     8
 71
     3
 72
     8
 73
     4
 74
     0
 42
0.00000001
 43
0.00000001
 40
0.0
 40
0.0
 40
0.0
 40
0.0
 40
1.0
 40
1.0
 40
1.0
 40
1.0
 10
149.62325303819443
 20
220.32350260416663
 30
0.0
 10
149.6501247829861
 20
220.32522515190971
 30
0.0
 10
149.67148437499998
 20
220.34417317708332
 30
0.0
 10
149.67837456597221
 20
220.36897786458331
 30
0.0
  0
LINE
  5
44D
100
AcDbEntity
  8
レイヤー_2
 62
     7
100
AcDbLine
 10
104.184855
 20
160.51854
 30
0.0
 11
104.209315
 21
144.969963
 31
0.0
  0
LINE
  5
44C
100
AcDbEntity
  8
レイヤー_2
 62
     7
100
AcDbLine
 10
105.84298
 20
145.063325
 30
0.0
 11
105.855382
 21
160.51854
 31
0.0
  0
LINE
  5
44B
100
AcDbEntity
  8
レイヤー_2
 62
     7
100
AcDbLine
 10
96.847663
 20
191.744713
 30
0.0
 11
96.847663
 21
160.727485
 31
0.0
  0
LINE
  5
44A
100
AcDbEntity
  8
レイヤー_2
 62
     7
100
AcDbLine
 10
96.847663
 20
196.233156
 30
0.0
 11
96.847663
 21
194.025022
 31
0.0
  0
LINE
  5
449
100
AcDbEntity
  8
レイヤー_2
 62
     7
100
AcDbLine
 10
108.180477
 20
160.727485
 30
0.0
 11
108.180477
 21
196.233156
 31
0.0
  0
SPLINE
  5
448
100
AcDbEntity
  8
レイヤー_2
 62
     7
100
AcDbSpline
210
0.0
220
0.0
230
1.0
 70
     8
 71
     3
 72
     8
 73
     4
 74
     0
 42
0.00000001
 43
0.00000001
 40
0.0
 40
0.0
 40
0.0
 40
0.0
 40
1.0
 40
1.0
 40
1.0
 40
1.0
 10
103.76730957031249
 20
131.39490831163192
 30
0.0
 10
103.76730957031249
 20
144.10903320312499
 30
0.0
 10
103.78729112413194
 20
142.58182237413192
 30
0.0
 10
103.78729112413194
 20
142.58182237413192
 30
0.0
  0
LINE
  5
447
100
AcDbEntity
  8
レイヤー_2
 62
     7
100
AcDbLine
 10
103.769893
 20
145.063325
 30
0.0
 11
103.76731
 21
160.51854
 31
0.0
  0
LINE
  5
446
100
AcDbEntity
  8
レイヤー_2
 62
     7
100
AcDbLine
 10
101.678548
 20
160.51854
 30
0.0
 11
101.679926
 21
145.063325
 31
0.0
  0
SPLINE
  5
445
100
AcDbEntity
  8
レイヤー_2
 62
     7
100
AcDbSpline
210
0.0
220
0.0
230
1.0
 70
     8
 71
     3
 72
     8
 73
     4
 74
     0
 42
0.00000001
 43
0.00000001
 40
0.0
 40
0.0
 40
0.0
 40
0.0
 40
1.0
 40
1.0
 40
1.0
 40
1.0
 10
101.67751464843749
 20
142.75511067708331
 30
0.0
 10
101.67751464843749
 20
142.75511067708331
 30
0.0
 10
101.67854817708333
 20
143.56574164496527
 30
0.0
 10
101.67854817708333
 20
130.51813151041665
 30
0.0
  0
LINE
  5
444
100
AcDbEntity
  8
レイヤー_2
 62
     7
100
AcDbLine
 10
97.480872
 20
232.359288
 30
0.0
 11
97.019229
 21
232.355671
 31
0.0
  0
SPLINE
  5
443
100
AcDbEntity
  8
レイヤー_2
 62
     7
100
AcDbSpline
210
0.0
220
0.0
230
1.0
 70
     8
 71
     3
 72
    62
 73
    58
 74
     0
 42
0.00000001
 43
0.00000001
 40
0.0
 40
0.0
 40
0.0
 40
0.0
 40
1.0
 40
1.0
 40
1.0
 40
2.0
 40
2.0
 40
2.0
 40
3.0
 40
3.0
 40
3.0
 40
4.0
 40
4.0
 40
4.0
 40
5.0
 40
5.0
 40
5.0
 40
6.0
 40
6.0
 40
6.0
 40
7.0
 40
7.0
 40
7.0
 40
8.0
 40
8.0
 40
8.0
 40
9.0
 40
9.0
 40
9.0
 40
10.0
 40
10.0
 40
10.0
 40
11.0
 40
11.0
 40
11.0
 40
12.0
 40
12.0
 40
12.0
 40
13.0
 40
13.0
 40
13.0
 40
14.0
 40
14.0
 40
14.0
 40
15.0
 40
15.0
 40
15.0
 40
16.0
 40
16.0
 40
16.0
 40
17.0
 40
17.0
 40
17.0
 40
18.0
 40
18.0
 40
18.0
 40
19.0
 40
19.0
 40
19.0
 40
19.0
 10
134.6494900173611
 20
232.3558430989583
 30
0.0
 10
133.77788085937499
 20
232.36342230902775
 30
0.0
 10
132.90489366319443
 20
232.3713460286458
 30
0.0
 10
132.03190646701387
 20
232.37823621961803
 30
0.0
 10
131.16270887586805
 20
232.38460964626734
 30
0.0
 10
130.2931667751736
 20
232.39115532769094
 30
0.0
 10
129.42362467447916
 20
232.39701199001735
 30
0.0
 10
128.63331976996525
 20
232.40166286892358
 30
0.0
 10
127.84232584635416
 20
232.40648600260414
 30
0.0
 10
127.05167643229166
 20
232.4109646267361
 30
0.0
 10
126.33923068576388
 20
232.41475423177081
 30
0.0
 10
125.62747395833333
 20
232.4178548177083
 30
0.0
 10
124.91502821180555
 20
232.42164442274304
 30
0.0
 10
124.28181966145833
 20
232.42371148003471
 30
0.0
 10
123.64861111111109
 20
232.4266398111979
 30
0.0
 10
123.01540256076387
 20
232.42853461371524
 30
0.0
 10
122.57201877170138
 20
232.43025716145831
 30
0.0
 10
122.13001302083332
 20
232.43129069010413
 30
0.0
 10
121.68731825086805
 20
232.43284098307291
 30
0.0
 10
121.29354383680554
 20
232.43404676649303
 30
0.0
 10
120.89873589409721
 20
232.43473578559025
 30
0.0
 10
120.50530598958332
 20
232.4357693142361
 30
0.0
 10
120.16010742187498
 20
232.43628607855899
 30
0.0
 10
119.81421983506944
 20
232.43749186197914
 30
0.0
 10
119.46936577690971
 20
232.43766411675344
 30
0.0
 10
119.1713650173611
 20
232.43835313585066
 30
0.0
 10
118.87336425781248
 20
232.43835313585066
 30
0.0
 10
118.57501898871527
 20
232.43921440972221
 30
0.0
 10
118.26530490451388
 20
232.43921440972221
 30
0.0
 10
117.95524631076388
 20
232.43973117404511
 30
0.0
 10
117.64518771701388
 20
232.43973117404511
 30
0.0
 10
117.17872178819444
 20
232.44059244791666
 30
0.0
 10
116.71363389756944
 20
232.44093695746525
 30
0.0
 10
116.24820149739583
 20
232.44093695746525
 30
0.0
 10
115.70353190104166
 20
232.44093695746525
 30
0.0
 10
115.15955132378471
 20
232.44093695746525
 30
0.0
 10
114.61522623697915
 20
232.44059244791666
 30
0.0
 10
113.99235297309026
 20
232.43973117404511
 30
0.0
 10
113.36879069010416
 20
232.43921440972221
 30
0.0
 10
112.74522840711805
 20
232.43835313585066
 30
0.0
 10
112.0431179470486
 20
232.43749186197914
 30
0.0
 10
111.34031846788193
 20
232.4357693142361
 30
0.0
 10
110.63820800781249
 20
232.43439127604165
 30
0.0
 10
109.85686035156249
 20
232.43249647352428
 30
0.0
 10
109.07585720486109
 20
232.43025716145831
 30
0.0
 10
108.29485405815971
 20
232.42732883029512
 30
0.0
 10
107.45046115451387
 20
232.42422824435761
 30
0.0
 10
106.60641276041666
 20
232.42061089409719
 30
0.0
 10
105.76236436631943
 20
232.41630452473956
 30
0.0
 10
104.84149034288194
 20
232.41234266493055
 30
0.0
 10
103.92130533854166
 20
232.40648600260414
 30
0.0
 10
103.00112033420137
 20
232.40097384982636
 30
0.0
 10
102.00497097439235
 20
232.39477267795138
 30
0.0
 10
101.00847710503471
 20
232.38805474175345
 30
0.0
 10
100.01163872612847
 20
232.380475531684
 30
0.0
 10
99.272665744357624
 20
232.37461886935762
 30
0.0
 10
98.533175998263886
 20
232.36824544270831
 30
0.0
 10
97.794375271267356
 20
232.36204427083331
 30
0.0
  0
SPLINE
  5
442
100
AcDbEntity
  8
レイヤー_2
 62
     7
100
AcDbSpline
210
0.0
220
0.0
230
1.0
 70
     8
 71
     3
 72
     8
 73
     4
 74
     0
 42
0.00000001
 43
0.00000001
 40
0.0
 40
0.0
 40
0.0
 40
0.0
 40
1.0
 40
1.0
 40
1.0
 40
1.0
 10
134.81554361979167
 20
232.18910047743054
 30
0.0
 10
134.81554361979167
 20
232.2805677625868
 30
0.0
 10
134.74147406684025
 20
232.355670844184
 30
0.0
 10
134.6494900173611
 20
232.35687662760415
 30
0.0
  0
SPLINE
  5
441
100
AcDbEntity
  8
レイヤー_2
 62
     7
100
AcDbSpline
210
0.0
220
0.0
230
1.0
 70
     8
 71
     3
 72
     8
 73
     4
 74
     0
 42
0.00000001
 43
0.00000001
 40
0.0
 40
0.0
 40
0.0
 40
0.0
 40
1.0
 40
1.0
 40
1.0
 40
1.0
 10
134.81003146701389
 20
232.14603678385416
 30
0.0
 10
134.81416558159722
 20
232.16085069444443
 30
0.0
 10
134.81554361979167
 20
232.17618136935761
 30
0.0
 10
134.81554361979167
 20
232.18910047743054
 30
0.0
  0
SPLINE
  5
440
100
AcDbEntity
  8
レイヤー_2
 62
     7
100
AcDbSpline
210
0.0
220
0.0
230
1.0
 70
     8
 71
     3
 72
     8
 73
     4
 74
     0
 42
0.00000001
 43
0.00000001
 40
0.0
 40
0.0
 40
0.0
 40
0.0
 40
1.0
 40
1.0
 40
1.0
 40
1.0
 10
97.019228786892356
 20
232.355670844184
 30
0.0
 10
96.928450520833323
 20
232.35480957031248
 30
0.0
 10
96.854036458333326
 20
232.28039550781247
 30
0.0
 10
96.854036458333326
 20
232.18875596788192
 30
0.0
  0
SPLINE
  5
43F
100
AcDbEntity
  8
レイヤー_2
 62
     7
100
AcDbSpline
210
0.0
220
0.0
230
1.0
 70
     8
 71
     3
 72
     8
 73
     4
 74
     0
 42
0.00000001
 43
0.00000001
 40
0.0
 40
0.0
 40
0.0
 40
0.0
 40
1.0
 40
1.0
 40
1.0
 40
1.0
 10
96.820619032118046
 20
194.14404975043402
 30
0.0
 10
96.773593478732636
 20
194.14404975043402
 30
0.0
 10
96.733285861545127
 20
194.11321614583332
 30
0.0
 10
96.720194498697907
 20
194.06929117838541
 30
0.0
  0
SPLINE
  5
43E
100
AcDbEntity
  8
レイヤー_2
 62
     7
100
AcDbSpline
210
0.0
220
0.0
230
1.0
 70
     8
 71
     3
 72
     8
 73
     4
 74
     0
 42
0.00000001
 43
0.00000001
 40
0.0
 40
0.0
 40
0.0
 40
0.0
 40
1.0
 40
1.0
 40
1.0
 40
1.0
 10
96.720194498697907
 20
191.71284586588541
 30
0.0
 10
96.733285861545127
 20
191.66754286024303
 30
0.0
 10
96.77462700737847
 20
191.6384318033854
 30
0.0
 10
96.820619032118046
 20
191.63791503906248
 30
0.0
  0
SPLINE
  5
43D
100
AcDbEntity
  8
レイヤー_2
 62
     7
100
AcDbSpline
210
0.0
220
0.0
230
1.0
 70
     8
 71
     3
 72
     8
 73
     4
 74
     0
 42
0.00000001
 43
0.00000001
 40
0.0
 40
0.0
 40
0.0
 40
0.0
 40
1.0
 40
1.0
 40
1.0
 40
1.0
 10
96.720194498697907
 20
194.06929117838541
 30
0.0
 10
96.481277126736103
 20
193.26400010850693
 30
0.0
 10
96.49850260416666
 20
192.44355061848955
 30
0.0
 10
96.720194498697907
 20
191.71284586588541
 30
0.0
  0
SPLINE
  5
43C
100
AcDbEntity
  8
レイヤー_2
 62
     7
100
AcDbSpline
210
0.0
220
0.0
230
1.0
 70
     8
 71
     3
 72
     8
 73
     4
 74
     0
 42
0.00000001
 43
0.00000001
 40
0.0
 40
0.0
 40
0.0
 40
0.0
 40
1.0
 40
1.0
 40
1.0
 40
1.0
 10
97.637106662326374
 20
225.78621826171872
 30
0.0
 10
97.706180826822902
 20
225.78621826171872
 30
0.0
 10
97.762852647569431
 20
225.84202880859374
 30
0.0
 10
97.762852647569431
 20
225.91127522786456
 30
0.0
  0
SPLINE
  5
43B
100
AcDbEntity
  8
レイヤー_2
 62
     7
100
AcDbSpline
210
0.0
220
0.0
230
1.0
 70
     8
 71
     3
 72
     8
 73
     4
 74
     0
 42
0.00000001
 43
0.00000001
 40
0.0
 40
0.0
 40
0.0
 40
0.0
 40
1.0
 40
1.0
 40
1.0
 40
1.0
 10
105.59458821614582
 20
225.91127522786456
 30
0.0
 10
105.59458821614582
 20
225.84202880859374
 30
0.0
 10
105.65039876302082
 20
225.78621826171872
 30
0.0
 10
105.72033420138888
 20
225.78621826171872
 30
0.0
  0
LINE
  5
43A
100
AcDbEntity
  8
レイヤー_2
 62
     7
100
AcDbLine
 10
97.762853
 20
226.307633
 30
0.0
 11
97.762853
 21
225.911275
 31
0.0
  0
LINE
  5
439
100
AcDbEntity
  8
レイヤー_2
 62
     7
100
AcDbLine
 10
105.594588
 20
225.911275
 30
0.0
 11
105.594588
 21
226.193429
 31
0.0
  0
SPLINE
  5
438
100
AcDbEntity
  8
レイヤー_2
 62
     7
100
AcDbSpline
210
0.0
220
0.0
230
1.0
 70
     8
 71
     3
 72
     8
 73
     4
 74
     0
 42
0.00000001
 43
0.00000001
 40
0.0
 40
0.0
 40
0.0
 40
0.0
 40
1.0
 40
1.0
 40
1.0
 40
1.0
 10
98.083246527777774
 20
227.85947672526041
 30
0.0
 10
97.860693359374991
 20
227.34477945963539
 30
0.0
 10
97.757685004340274
 20
226.80855034722219
 30
0.0
 10
97.762852647569431
 20
226.30763346354163
 30
0.0
  0
LINE
  5
437
100
AcDbEntity
  8
レイヤー_2
 62
     7
100
AcDbLine
 10
103.76731
 20
141.687131
 30
0.0
 11
103.976082
 21
141.324707
 31
0.0
  0
LINE
  5
436
100
AcDbEntity
  8
レイヤー_2
 62
     7
100
AcDbLine
 10
106.064155
 20
141.324707
 30
0.0
 11
106.377658
 21
141.867654
 31
0.0
  0
LINE
  5
435
100
AcDbEntity
  8
レイヤー_2
 62
     7
100
AcDbLine
 10
106.377658
 20
141.867654
 30
0.0
 11
106.377658
 21
142.173579
 31
0.0
  0
LINE
  5
434
100
AcDbEntity
  8
レイヤー_2
 62
     7
100
AcDbLine
 10
106.377658
 20
142.173579
 30
0.0
 11
106.332872
 21
142.181158
 31
0.0
  0
LINE
  5
433
100
AcDbEntity
  8
レイヤー_2
 62
     7
100
AcDbLine
 10
106.064155
 20
136.43715
 30
0.0
 11
106.064155
 21
141.324707
 31
0.0
  0
LINE
  5
432
100
AcDbEntity
  8
レイヤー_2
 62
     7
100
AcDbLine
 10
103.976082
 20
141.324707
 30
0.0
 11
103.976082
 21
136.43715
 31
0.0
  0
LINE
  5
431
100
AcDbEntity
  8
レイヤー_2
 62
     7
100
AcDbLine
 10
107.848714
 20
144.64509
 30
0.0
 11
107.848714
 21
145.063325
 31
0.0
  0
LINE
  5
430
100
AcDbEntity
  8
レイヤー_2
 62
     7
100
AcDbLine
 10
99.723284
 20
145.063325
 30
0.0
 11
99.723284
 21
144.64509
 31
0.0
  0
LINE
  5
42F
100
AcDbEntity
  8
レイヤー_2
 62
     7
100
AcDbLine
 10
99.050974
 20
145.063325
 30
0.0
 11
99.050974
 21
144.64509
 31
0.0
  0
LINE
  5
42E
100
AcDbEntity
  8
レイヤー_2
 62
     7
100
AcDbLine
 10
107.848025
 20
143.184025
 30
0.0
 11
107.848025
 21
144.64509
 31
0.0
  0
SPLINE
  5
42D
100
AcDbEntity
  8
レイヤー_2
 62
     7
100
AcDbSpline
210
0.0
220
0.0
230
1.0
 70
     8
 71
     3
 72
     8
 73
     4
 74
     0
 42
0.00000001
 43
0.00000001
 40
0.0
 40
0.0
 40
0.0
 40
0.0
 40
1.0
 40
1.0
 40
1.0
 40
1.0
 10
107.63959689670138
 20
142.9749077690972
 30
0.0
 10
107.75500759548611
 20
142.9749077690972
 30
0.0
 10
107.84802517361111
 20
143.06826985677083
 30
0.0
 10
107.84802517361111
 20
143.18402506510415
 30
0.0
  0
SPLINE
  5
42C
100
AcDbEntity
  8
レイヤー_2
 62
     7
100
AcDbSpline
210
0.0
220
0.0
230
1.0
 70
     8
 71
     3
 72
     8
 73
     4
 74
     0
 42
0.00000001
 43
0.00000001
 40
0.0
 40
0.0
 40
0.0
 40
0.0
 40
1.0
 40
1.0
 40
1.0
 40
1.0
 10
107.63959689670138
 20
142.9749077690972
 30
0.0
 10
107.58206380208333
 20
142.9749077690972
 30
0.0
 10
107.53521050347221
 20
142.92770996093748
 30
0.0
 10
107.53521050347221
 20
142.86983235677081
 30
0.0
  0
LINE
  5
42B
100
AcDbEntity
  8
レイヤー_2
 62
     7
100
AcDbLine
 10
107.535211
 20
142.390275
 30
0.0
 11
107.535211
 21
142.869832
 31
0.0
  0
LINE
  5
42A
100
AcDbEntity
  8
レイヤー_2
 62
     7
100
AcDbLine
 10
99.722423
 20
144.64509
 30
0.0
 11
99.722423
 21
143.204351
 31
0.0
  0
SPLINE
  5
429
100
AcDbEntity
  8
レイヤー_2
 62
     7
100
AcDbSpline
210
0.0
220
0.0
230
1.0
 70
     8
 71
     3
 72
    41
 73
    37
 74
     0
 42
0.00000001
 43
0.00000001
 40
0.0
 40
0.0
 40
0.0
 40
0.0
 40
1.0
 40
1.0
 40
1.0
 40
2.0
 40
2.0
 40
2.0
 40
3.0
 40
3.0
 40
3.0
 40
4.0
 40
4.0
 40
4.0
 40
5.0
 40
5.0
 40
5.0
 40
6.0
 40
6.0
 40
6.0
 40
7.0
 40
7.0
 40
7.0
 40
8.0
 40
8.0
 40
8.0
 40
9.0
 40
9.0
 40
9.0
 40
10.0
 40
10.0
 40
10.0
 40
11.0
 40
11.0
 40
11.0
 40
12.0
 40
12.0
 40
12.0
 40
12.0
 10
99.72604031032985
 20
143.20331759982636
 30
0.0
 10
99.72604031032985
 20
143.20331759982636
 30
0.0
 10
99.723973253038181
 20
143.17954644097222
 30
0.0
 10
99.723973253038181
 20
143.17954644097222
 30
0.0
 10
99.724490017361106
 20
143.15715332031249
 30
0.0
 10
99.732413736979154
 20
143.13441569010416
 30
0.0
 10
99.74343804253472
 20
143.11374511718748
 30
0.0
 10
99.75170627170138
 20
143.09789767795138
 30
0.0
 10
99.761180284288187
 20
143.08239474826388
 30
0.0
 10
99.772893608940961
 20
143.06826985677083
 30
0.0
 10
99.78271213107638
 20
143.05655653211804
 30
0.0
 10
99.794769965277766
 20
143.0455322265625
 30
0.0
 10
99.807172309027763
 20
143.03623046874998
 30
0.0
 10
99.817163085937494
 20
143.02865125868055
 30
0.0
 10
99.828876410590269
 20
143.02176106770833
 30
0.0
 10
99.839556206597209
 20
143.01624891493054
 30
0.0
 10
99.849202473958329
 20
143.01245930989583
 30
0.0
 10
99.858159722222211
 20
143.00832519531249
 30
0.0
 10
99.866944715711796
 20
143.0055691189236
 30
0.0
 10
99.866944715711796
 20
143.0055691189236
 30
0.0
 10
99.88106960720485
 20
143.00109049479164
 30
0.0
 10
99.88106960720485
 20
143.00109049479164
 30
0.0
 10
99.88106960720485
 20
143.00109049479164
 30
0.0
 10
99.890371365017359
 20
142.9993679470486
 30
0.0
 10
99.890371365017359
 20
142.9993679470486
 30
0.0
 10
99.890371365017359
 20
142.9993679470486
 30
0.0
 10
99.898122829861109
 20
142.99764539930555
 30
0.0
 10
99.898122829861109
 20
142.99764539930555
 30
0.0
 10
99.898122829861109
 20
142.99764539930555
 30
0.0
 10
99.910180664062494
 20
142.99626736111111
 30
0.0
 10
99.910180664062494
 20
142.99626736111111
 30
0.0
 10
99.923099772135402
 20
142.99454481336804
 30
0.0
 10
99.937052408854157
 20
142.99247775607637
 30
0.0
 10
99.960306803385407
 20
142.98903266059025
 30
0.0
 10
99.978221299913187
 20
142.98731011284721
 30
0.0
 10
100.00147569444444
 20
142.98489854600692
 30
0.0
 10
100.02473008897569
 20
142.98214246961805
 30
0.0
  0
SPLINE
  5
428
100
AcDbEntity
  8
レイヤー_2
 62
     7
100
AcDbSpline
210
0.0
220
0.0
230
1.0
 70
     8
 71
     3
 72
     8
 73
     4
 74
     0
 42
0.00000001
 43
0.00000001
 40
0.0
 40
0.0
 40
0.0
 40
0.0
 40
1.0
 40
1.0
 40
1.0
 40
1.0
 10
107.32574869791665
 20
142.18115776909721
 30
0.0
 10
107.44150390624999
 20
142.18115776909721
 30
0.0
 10
107.53521050347221
 20
142.27486436631943
 30
0.0
 10
107.53521050347221
 20
142.39027506510416
 30
0.0
  0
LINE
  5
427
100
AcDbEntity
  8
レイヤー_2
 62
     7
100
AcDbLine
 10
99.072506
 20
144.64509
 30
0.0
 11
99.072506
 21
143.204351
 31
0.0
  0
SPLINE
  5
426
100
AcDbEntity
  8
レイヤー_2
 62
     7
100
AcDbSpline
210
0.0
220
0.0
230
1.0
 70
     8
 71
     3
 72
    38
 73
    34
 74
     0
 42
0.00000001
 43
0.00000001
 40
0.0
 40
0.0
 40
0.0
 40
0.0
 40
1.0
 40
1.0
 40
1.0
 40
2.0
 40
2.0
 40
2.0
 40
3.0
 40
3.0
 40
3.0
 40
4.0
 40
4.0
 40
4.0
 40
5.0
 40
5.0
 40
5.0
 40
6.0
 40
6.0
 40
6.0
 40
7.0
 40
7.0
 40
7.0
 40
8.0
 40
8.0
 40
8.0
 40
9.0
 40
9.0
 40
9.0
 40
10.0
 40
10.0
 40
10.0
 40
11.0
 40
11.0
 40
11.0
 40
11.0
 10
99.075434027777774
 20
143.19987250434028
 30
0.0
 10
99.076123046874997
 20
143.18264702690971
 30
0.0
 10
99.076123046874997
 20
143.16576605902776
 30
0.0
 10
99.08025716145832
 20
143.14854058159722
 30
0.0
 10
99.083874511718747
 20
143.12890353732638
 30
0.0
 10
99.09334852430554
 20
143.10995551215277
 30
0.0
 10
99.104717339409717
 20
143.092041015625
 30
0.0
 10
99.114363606770823
 20
143.07757161458332
 30
0.0
 10
99.125215657552076
 20
143.06448025173609
 30
0.0
 10
99.137101236979163
 20
143.05276692708333
 30
0.0
 10
99.14760877821179
 20
143.04277615017361
 30
0.0
 10
99.159322102864579
 20
143.03416341145831
 30
0.0
 10
99.171379937065964
 20
143.02589518229166
 30
0.0
 10
99.181198459201383
 20
143.02038302951388
 30
0.0
 10
99.191878255208323
 20
143.01521538628472
 30
0.0
 10
99.202558051215263
 20
143.01039225260416
 30
0.0
 10
99.202558051215263
 20
143.01039225260416
 30
0.0
 10
99.224434407552067
 20
143.00384657118053
 30
0.0
 10
99.224434407552067
 20
143.00384657118053
 30
0.0
 10
99.224434407552067
 20
143.00384657118053
 30
0.0
 10
99.235458713107633
 20
143.00005696614582
 30
0.0
 10
99.235458713107633
 20
143.00005696614582
 30
0.0
 10
99.235458713107633
 20
143.00005696614582
 30
0.0
 10
99.243382432725681
 20
142.99833441840278
 30
0.0
 10
99.243382432725681
 20
142.99833441840278
 30
0.0
 10
99.243382432725681
 20
142.99833441840278
 30
0.0
 10
99.251995171440967
 20
142.99695638020833
 30
0.0
 10
99.251995171440967
 20
142.99695638020833
 30
0.0
 10
99.251995171440967
 20
142.99695638020833
 30
0.0
 10
99.270770941840269
 20
142.99454481336804
 30
0.0
 10
99.270770941840269
 20
142.99454481336804
 30
0.0
 10
99.28610161675347
 20
142.99247775607637
 30
0.0
 10
99.309528266059019
 20
142.98903266059025
 30
0.0
 10
99.333471679687491
 20
142.98696560329859
 30
0.0
  0
POLYLINE
  5
41C
100
AcDbEntity
  8
レイヤー_2
 62
     7
100
AcDb2dPolyline
 66
     1
 10
0.0
 20
0.0
 30
0.0
  0
VERTEX
  5
41D
100
AcDbEntity
  8
レイヤー_2
 62
     7
100
AcDbVertex
100
AcDb2dVertex
 10
150.244059
 20
220.536582
 30
0.0
  0
VERTEX
  5
41E
100
AcDbEntity
  8
レイヤー_2
 62
     7
100
AcDbVertex
100
AcDb2dVertex
 10
150.234413
 20
220.535548
 30
0.0
  0
VERTEX
  5
41F
100
AcDbEntity
  8
レイヤー_2
 62
     7
100
AcDbVertex
100
AcDb2dVertex
 10
150.155176
 20
220.529692
 30
0.0
  0
VERTEX
  5
420
100
AcDbEntity
  8
レイヤー_2
 62
     7
100
AcDbVertex
100
AcDb2dVertex
 10
150.000491
 20
220.5166
 30
0.0
  0
VERTEX
  5
421
100
AcDbEntity
  8
レイヤー_2
 62
     7
100
AcDbVertex
100
AcDb2dVertex
 10
149.773459
 20
220.498169
 30
0.0
  0
VERTEX
  5
422
100
AcDbEntity
  8
レイヤー_2
 62
     7
100
AcDbVertex
100
AcDb2dVertex
 10
149.482004
 20
220.474053
 30
0.0
  0
VERTEX
  5
423
100
AcDbEntity
  8
レイヤー_2
 62
     7
100
AcDbVertex
100
AcDb2dVertex
 10
149.135428
 20
220.445803
 30
0.0
  0
VERTEX
  5
424
100
AcDbEntity
  8
レイヤー_2
 62
     7
100
AcDbVertex
100
AcDb2dVertex
 10
148.745098
 20
220.413936
 30
0.0
  0
SEQEND
  5
425
100
AcDbEntity
  8
レイヤー_2
 62
     7
  0
LINE
  5
41B
100
AcDbEntity
  8
レイヤー_2
 62
     7
100
AcDbLine
 10
148.745098
 20
220.413936
 30
0.0
 11
148.686876
 21
221.126554
 31
0.0
  0
POLYLINE
  5
410
100
AcDbEntity
  8
レイヤー_2
 62
     7
100
AcDb2dPolyline
 66
     1
 10
0.0
 20
0.0
 30
0.0
  0
VERTEX
  5
411
100
AcDbEntity
  8
レイヤー_2
 62
     7
100
AcDbVertex
100
AcDb2dVertex
 10
146.689754
 20
220.96274
 30
0.0
  0
VERTEX
  5
412
100
AcDbEntity
  8
レイヤー_2
 62
     7
100
AcDbVertex
100
AcDb2dVertex
 10
146.929877
 20
220.982549
 30
0.0
  0
VERTEX
  5
413
100
AcDbEntity
  8
レイヤー_2
 62
     7
100
AcDbVertex
100
AcDb2dVertex
 10
147.177924
 20
221.002703
 30
0.0
  0
VERTEX
  5
414
100
AcDbEntity
  8
レイヤー_2
 62
     7
100
AcDbVertex
100
AcDb2dVertex
 10
147.431828
 20
221.024063
 30
0.0
  0
VERTEX
  5
415
100
AcDbEntity
  8
レイヤー_2
 62
     7
100
AcDbVertex
100
AcDb2dVertex
 10
147.688143
 20
221.044389
 30
0.0
  0
VERTEX
  5
416
100
AcDbEntity
  8
レイヤー_2
 62
     7
100
AcDbVertex
100
AcDb2dVertex
 10
147.944458
 20
221.065748
 30
0.0
  0
VERTEX
  5
417
100
AcDbEntity
  8
レイヤー_2
 62
     7
100
AcDbVertex
100
AcDb2dVertex
 10
148.198362
 20
221.086247
 30
0.0
  0
VERTEX
  5
418
100
AcDbEntity
  8
レイヤー_2
 62
     7
100
AcDbVertex
100
AcDb2dVertex
 10
148.446064
 20
221.106917
 30
0.0
  0
VERTEX
  5
419
100
AcDbEntity
  8
レイヤー_2
 62
     7
100
AcDbVertex
100
AcDb2dVertex
 10
148.686876
 20
221.126554
 30
0.0
  0
SEQEND
  5
41A
100
AcDbEntity
  8
レイヤー_2
 62
     7
  0
LINE
  5
40F
100
AcDbEntity
  8
レイヤー_2
 62
     7
100
AcDbLine
 10
146.689754
 20
220.96274
 30
0.0
 11
146.748321
 21
220.250639
 31
0.0
  0
POLYLINE
  5
405
100
AcDbEntity
  8
レイヤー_2
 62
     7
100
AcDb2dPolyline
 66
     1
 10
0.0
 20
0.0
 30
0.0
  0
VERTEX
  5
406
100
AcDbEntity
  8
レイヤー_2
 62
     7
100
AcDbVertex
100
AcDb2dVertex
 10
146.748321
 20
220.250639
 30
0.0
  0
VERTEX
  5
407
100
AcDbEntity
  8
レイヤー_2
 62
     7
100
AcDbVertex
100
AcDb2dVertex
 10
146.357303
 20
220.218427
 30
0.0
  0
VERTEX
  5
408
100
AcDbEntity
  8
レイヤー_2
 62
     7
100
AcDbVertex
100
AcDb2dVertex
 10
146.011415
 20
220.189833
 30
0.0
  0
VERTEX
  5
409
100
AcDbEntity
  8
レイヤー_2
 62
     7
100
AcDbVertex
100
AcDb2dVertex
 10
145.719615
 20
220.166751
 30
0.0
  0
VERTEX
  5
40A
100
AcDbEntity
  8
レイヤー_2
 62
     7
100
AcDbVertex
100
AcDb2dVertex
 10
145.493273
 20
220.14763
 30
0.0
  0
VERTEX
  5
40B
100
AcDbEntity
  8
レイヤー_2
 62
     7
100
AcDbVertex
100
AcDb2dVertex
 10
145.337554
 20
220.135056
 30
0.0
  0
VERTEX
  5
40C
100
AcDbEntity
  8
レイヤー_2
 62
     7
100
AcDbVertex
100
AcDb2dVertex
 10
145.259006
 20
220.128166
 30
0.0
  0
VERTEX
  5
40D
100
AcDbEntity
  8
レイヤー_2
 62
     7
100
AcDbVertex
100
AcDb2dVertex
 10
145.248671
 20
220.127821
 30
0.0
  0
SEQEND
  5
40E
100
AcDbEntity
  8
レイヤー_2
 62
     7
  0
POLYLINE
  5
3F9
100
AcDbEntity
  8
レイヤー_2
 62
     7
100
AcDb2dPolyline
 66
     1
 10
0.0
 20
0.0
 30
0.0
  0
VERTEX
  5
3FA
100
AcDbEntity
  8
レイヤー_2
 62
     7
100
AcDbVertex
100
AcDb2dVertex
 10
147.756011
 20
220.212054
 30
0.0
  0
VERTEX
  5
3FB
100
AcDbEntity
  8
レイヤー_2
 62
     7
100
AcDbVertex
100
AcDb2dVertex
 10
147.33571
 20
220.177947
 30
0.0
  0
VERTEX
  5
3FC
100
AcDbEntity
  8
レイヤー_2
 62
     7
100
AcDbVertex
100
AcDb2dVertex
 10
146.929188
 20
220.144358
 30
0.0
  0
VERTEX
  5
3FD
100
AcDbEntity
  8
レイヤー_2
 62
     7
100
AcDbVertex
100
AcDb2dVertex
 10
146.550917
 20
220.113524
 30
0.0
  0
VERTEX
  5
3FE
100
AcDbEntity
  8
レイヤー_2
 62
     7
100
AcDbVertex
100
AcDb2dVertex
 10
146.213642
 20
220.085791
 30
0.0
  0
VERTEX
  5
3FF
100
AcDbEntity
  8
レイヤー_2
 62
     7
100
AcDbVertex
100
AcDb2dVertex
 10
145.929766
 20
220.062709
 30
0.0
  0
VERTEX
  5
400
100
AcDbEntity
  8
レイヤー_2
 62
     7
100
AcDbVertex
100
AcDb2dVertex
 10
145.706868
 20
220.043933
 30
0.0
  0
VERTEX
  5
401
100
AcDbEntity
  8
レイヤー_2
 62
     7
100
AcDbVertex
100
AcDb2dVertex
 10
145.554251
 20
220.031703
 30
0.0
  0
VERTEX
  5
402
100
AcDbEntity
  8
レイヤー_2
 62
     7
100
AcDbVertex
100
AcDb2dVertex
 10
145.476392
 20
220.025674
 30
0.0
  0
VERTEX
  5
403
100
AcDbEntity
  8
レイヤー_2
 62
     7
100
AcDbVertex
100
AcDb2dVertex
 10
145.466745
 20
220.024985
 30
0.0
  0
SEQEND
  5
404
100
AcDbEntity
  8
レイヤー_2
 62
     7
  0
LINE
  5
3F8
100
AcDbEntity
  8
レイヤー_2
 62
     7
100
AcDbLine
 10
146.748321
 20
220.250639
 30
0.0
 11
147.756011
 21
220.212054
 31
0.0
  0
SPLINE
  5
3F7
100
AcDbEntity
  8
レイヤー_2
 62
     7
100
AcDbSpline
210
0.0
220
0.0
230
1.0
 70
     8
 71
     3
 72
    11
 73
     7
 74
     0
 42
0.00000001
 43
0.00000001
 40
0.0
 40
0.0
 40
0.0
 40
0.0
 40
1.0
 40
1.0
 40
1.0
 40
2.0
 40
2.0
 40
2.0
 40
2.0
 10
147.75601128472221
 20
220.21205376519094
 30
0.0
 10
147.84076063368053
 20
220.22049424913192
 30
0.0
 10
147.92447645399304
 20
220.22910698784719
 30
0.0
 10
148.00819227430554
 20
220.24099256727428
 30
0.0
 10
148.25727267795136
 20
220.27682156032984
 30
0.0
 10
148.50152994791665
 20
220.34537896050344
 30
0.0
 10
148.74509819878472
 20
220.41393636067707
 30
0.0
  0
POLYLINE
  5
3EB
100
AcDbEntity
  8
レイヤー_2
 62
     7
100
AcDb2dPolyline
 66
     1
 10
0.0
 20
0.0
 30
0.0
  0
VERTEX
  5
3EC
100
AcDbEntity
  8
レイヤー_2
 62
     7
100
AcDbVertex
100
AcDb2dVertex
 10
150.045966
 20
220.399122
 30
0.0
  0
VERTEX
  5
3ED
100
AcDbEntity
  8
レイヤー_2
 62
     7
100
AcDbVertex
100
AcDb2dVertex
 10
150.03632
 20
220.399122
 30
0.0
  0
VERTEX
  5
3EE
100
AcDbEntity
  8
レイヤー_2
 62
     7
100
AcDbVertex
100
AcDb2dVertex
 10
149.95915
 20
220.39206
 30
0.0
  0
VERTEX
  5
3EF
100
AcDbEntity
  8
レイヤー_2
 62
     7
100
AcDbVertex
100
AcDb2dVertex
 10
149.806188
 20
220.380002
 30
0.0
  0
VERTEX
  5
3F0
100
AcDbEntity
  8
レイヤー_2
 62
     7
100
AcDbVertex
100
AcDb2dVertex
 10
149.583634
 20
220.361399
 30
0.0
  0
VERTEX
  5
3F1
100
AcDbEntity
  8
レイヤー_2
 62
     7
100
AcDbVertex
100
AcDb2dVertex
 10
149.298725
 20
220.337972
 30
0.0
  0
VERTEX
  5
3F2
100
AcDbEntity
  8
レイヤー_2
 62
     7
100
AcDbVertex
100
AcDb2dVertex
 10
148.961795
 20
220.310583
 30
0.0
  0
VERTEX
  5
3F3
100
AcDbEntity
  8
レイヤー_2
 62
     7
100
AcDbVertex
100
AcDb2dVertex
 10
148.583179
 20
220.280094
 30
0.0
  0
VERTEX
  5
3F4
100
AcDbEntity
  8
レイヤー_2
 62
     7
100
AcDbVertex
100
AcDb2dVertex
 10
148.176657
 20
220.246677
 30
0.0
  0
VERTEX
  5
3F5
100
AcDbEntity
  8
レイヤー_2
 62
     7
100
AcDbVertex
100
AcDb2dVertex
 10
147.756011
 20
220.212054
 30
0.0
  0
SEQEND
  5
3F6
100
AcDbEntity
  8
レイヤー_2
 62
     7
  0
POLYLINE
  5
3D8
100
AcDbEntity
  8
レイヤー_2
 62
     7
100
AcDb2dPolyline
 66
     1
 10
0.0
 20
0.0
 30
0.0
  0
VERTEX
  5
3D9
100
AcDbEntity
  8
レイヤー_2
 62
     7
100
AcDbVertex
100
AcDb2dVertex
 10
149.623253
 20
220.323503
 30
0.0
  0
VERTEX
  5
3DA
100
AcDbEntity
  8
レイヤー_2
 62
     7
100
AcDbVertex
100
AcDb2dVertex
 10
149.584668
 20
220.319368
 30
0.0
  0
VERTEX
  5
3DB
100
AcDbEntity
  8
レイヤー_2
 62
     7
100
AcDbVertex
100
AcDb2dVertex
 10
149.472013
 20
220.310583
 30
0.0
  0
VERTEX
  5
3DC
100
AcDbEntity
  8
レイヤー_2
 62
     7
100
AcDbVertex
100
AcDb2dVertex
 10
149.289079
 20
220.295597
 30
0.0
  0
VERTEX
  5
3DD
100
AcDbEntity
  8
レイヤー_2
 62
     7
100
AcDbVertex
100
AcDb2dVertex
 10
149.043788
 20
220.275788
 30
0.0
  0
VERTEX
  5
3DE
100
AcDbEntity
  8
レイヤー_2
 62
     7
100
AcDbVertex
100
AcDb2dVertex
 10
148.745098
 20
220.250983
 30
0.0
  0
VERTEX
  5
3DF
100
AcDbEntity
  8
レイヤー_2
 62
     7
100
AcDbVertex
100
AcDb2dVertex
 10
148.40679
 20
220.223423
 30
0.0
  0
VERTEX
  5
3E0
100
AcDbEntity
  8
レイヤー_2
 62
     7
100
AcDbVertex
100
AcDb2dVertex
 10
148.042299
 20
220.193623
 30
0.0
  0
VERTEX
  5
3E1
100
AcDbEntity
  8
レイヤー_2
 62
     7
100
AcDbVertex
100
AcDb2dVertex
 10
147.665061
 20
220.162789
 30
0.0
  0
VERTEX
  5
3E2
100
AcDbEntity
  8
レイヤー_2
 62
     7
100
AcDbVertex
100
AcDb2dVertex
 10
147.292301
 20
220.1323
 30
0.0
  0
VERTEX
  5
3E3
100
AcDbEntity
  8
レイヤー_2
 62
     7
100
AcDbVertex
100
AcDb2dVertex
 10
146.939868
 20
220.102844
 30
0.0
  0
VERTEX
  5
3E4
100
AcDbEntity
  8
レイヤー_2
 62
     7
100
AcDbVertex
100
AcDb2dVertex
 10
146.619819
 20
220.077178
 30
0.0
  0
VERTEX
  5
3E5
100
AcDbEntity
  8
レイヤー_2
 62
     7
100
AcDbVertex
100
AcDb2dVertex
 10
146.346278
 20
220.054613
 30
0.0
  0
VERTEX
  5
3E6
100
AcDbEntity
  8
レイヤー_2
 62
     7
100
AcDbVertex
100
AcDb2dVertex
 10
146.13096
 20
220.036698
 30
0.0
  0
VERTEX
  5
3E7
100
AcDbEntity
  8
レイヤー_2
 62
     7
100
AcDbVertex
100
AcDb2dVertex
 10
145.981787
 20
220.024985
 30
0.0
  0
VERTEX
  5
3E8
100
AcDbEntity
  8
レイヤー_2
 62
     7
100
AcDbVertex
100
AcDb2dVertex
 10
145.90634
 20
220.018956
 30
0.0
  0
VERTEX
  5
3E9
100
AcDbEntity
  8
レイヤー_2
 62
     7
100
AcDbVertex
100
AcDb2dVertex
 10
145.897038
 20
220.017578
 30
0.0
  0
SEQEND
  5
3EA
100
AcDbEntity
  8
レイヤー_2
 62
     7
  0
LINE
  5
3D7
100
AcDbEntity
  8
レイヤー_2
 62
     7
100
AcDbLine
 10
97.101911
 20
160.727485
 30
0.0
 11
96.87798
 21
160.727485
 31
0.0
  0
LINE
  5
3D6
100
AcDbEntity
  8
レイヤー_2
 62
     7
100
AcDbLine
 10
96.87798
 20
196.233156
 30
0.0
 11
97.101911
 21
196.233156
 31
0.0
  0
LINE
  5
3D5
100
AcDbEntity
  8
レイヤー_2
 62
     7
100
AcDbLine
 10
97.101911
 20
160.727485
 30
0.0
 11
108.008222
 21
160.727485
 31
0.0
  0
LINE
  5
3D4
100
AcDbEntity
  8
レイヤー_2
 62
     7
100
AcDbLine
 10
97.101911
 20
196.233156
 30
0.0
 11
108.008222
 21
196.233156
 31
0.0
  0
SPLINE
  5
3D3
100
AcDbEntity
  8
レイヤー_2
 62
     7
100
AcDbSpline
210
0.0
220
0.0
230
1.0
 70
     8
 71
     3
 72
    35
 73
    31
 74
     0
 42
0.00000001
 43
0.00000001
 40
0.0
 40
0.0
 40
0.0
 40
0.0
 40
1.0
 40
1.0
 40
1.0
 40
2.0
 40
2.0
 40
2.0
 40
3.0
 40
3.0
 40
3.0
 40
4.0
 40
4.0
 40
4.0
 40
5.0
 40
5.0
 40
5.0
 40
6.0
 40
6.0
 40
6.0
 40
7.0
 40
7.0
 40
7.0
 40
8.0
 40
8.0
 40
8.0
 40
9.0
 40
9.0
 40
9.0
 40
10.0
 40
10.0
 40
10.0
 40
10.0
 10
96.847663031684021
 20
194.02502170138888
 30
0.0
 10
96.847663031684021
 20
194.02502170138888
 30
0.0
 10
96.847663031684021
 20
194.03225640190971
 30
0.0
 10
96.847663031684021
 20
194.03225640190971
 30
0.0
 10
96.847663031684021
 20
194.03225640190971
 30
0.0
 10
96.848179796006931
 20
193.98368055555554
 30
0.0
 10
96.848179796006931
 20
193.92356363932291
 30
0.0
 10
96.848179796006931
 20
193.86379123263887
 30
0.0
 10
96.848179796006931
 20
193.78989393446179
 30
0.0
 10
96.848179796006931
 20
193.69928792317705
 30
0.0
 10
96.848179796006931
 20
193.60799289279512
 30
0.0
 10
96.849213324652766
 20
193.50033365885415
 30
0.0
 10
96.849213324652766
 20
193.38320041232637
 30
0.0
 10
96.849213324652766
 20
193.2660671657986
 30
0.0
 10
96.849213324652766
 20
193.14049343532983
 30
0.0
 10
96.84973008897569
 20
193.0118191189236
 30
0.0
 10
96.84973008897569
 20
192.88348931206596
 30
0.0
 10
96.84973008897569
 20
192.75309244791666
 30
0.0
 10
96.849213324652766
 20
192.62648518880206
 30
0.0
 10
96.849213324652766
 20
192.50091145833332
 30
0.0
 10
96.849213324652766
 20
192.38016086154511
 30
0.0
 10
96.849213324652766
 20
192.27198486328123
 30
0.0
 10
96.848179796006931
 20
192.16346435546873
 30
0.0
 10
96.848179796006931
 20
192.06682942708332
 30
0.0
 10
96.848179796006931
 20
191.9862141927083
 30
0.0
 10
96.848179796006931
 20
191.90611572265624
 30
0.0
 10
96.848179796006931
 20
191.84100341796872
 30
0.0
 10
96.848179796006931
 20
191.80327962239582
 30
0.0
 10
96.847663031684021
 20
191.76641710069444
 30
0.0
 10
96.847663031684021
 20
191.75556504991317
 30
0.0
 10
96.847663031684021
 20
191.74471299913193
 30
0.0
  0
LINE
  5
3D2
100
AcDbEntity
  8
レイヤー_2
 62
     7
100
AcDbLine
 10
96.847663
 20
160.727485
 30
0.0
 11
96.87798
 21
160.727485
 31
0.0
  0
LINE
  5
3D1
100
AcDbEntity
  8
レイヤー_2
 62
     7
100
AcDbLine
 10
96.847663
 20
196.233156
 30
0.0
 11
96.87798
 21
196.233156
 31
0.0
  0
LINE
  5
3D0
100
AcDbEntity
  8
レイヤー_2
 62
     7
100
AcDbLine
 10
108.160495
 20
160.727485
 30
0.0
 11
108.008222
 21
160.727485
 31
0.0
  0
LINE
  5
3CF
100
AcDbEntity
  8
レイヤー_2
 62
     7
100
AcDbLine
 10
108.008222
 20
196.233156
 30
0.0
 11
108.160495
 21
196.233156
 31
0.0
  0
LINE
  5
3CE
100
AcDbEntity
  8
レイヤー_2
 62
     7
100
AcDbLine
 10
108.160495
 20
160.727485
 30
0.0
 11
108.180477
 21
160.727485
 31
0.0
  0
LINE
  5
3CD
100
AcDbEntity
  8
レイヤー_2
 62
     7
100
AcDbLine
 10
108.160495
 20
196.233156
 30
0.0
 11
108.180477
 21
196.233156
 31
0.0
  0
SPLINE
  5
3CC
100
AcDbEntity
  8
レイヤー_2
 62
     7
100
AcDbSpline
210
0.0
220
0.0
230
1.0
 70
     8
 71
     3
 72
     8
 73
     4
 74
     0
 42
0.00000001
 43
0.00000001
 40
0.0
 40
0.0
 40
0.0
 40
0.0
 40
1.0
 40
1.0
 40
1.0
 40
1.0
 10
97.055746799045124
 20
225.64428032769095
 30
0.0
 10
97.077106391059019
 20
225.6361843532986
 30
0.0
 10
97.097432454427079
 20
225.6275716145833
 30
0.0
 10
97.118447536892347
 20
225.61895887586803
 30
0.0
  0
LINE
  5
3CB
100
AcDbEntity
  8
レイヤー_2
 62
     7
100
AcDbLine
 10
97.035421
 20
225.658233
 30
0.0
 11
97.055747
 21
225.64428
 31
0.0
  0
SPLINE
  5
3CA
100
AcDbEntity
  8
レイヤー_2
 62
     7
100
AcDbSpline
210
0.0
220
0.0
230
1.0
 70
     8
 71
     3
 72
     8
 73
     4
 74
     0
 42
0.00000001
 43
0.00000001
 40
0.0
 40
0.0
 40
0.0
 40
0.0
 40
1.0
 40
1.0
 40
1.0
 40
1.0
 10
96.986155870225687
 20
225.69888509114583
 30
0.0
 10
97.00286458333332
 20
225.68562147352429
 30
0.0
 10
97.019228786892356
 20
225.67166883680554
 30
0.0
 10
97.035420735677079
 20
225.65823296440971
 30
0.0
  0
SPLINE
  5
3C9
100
AcDbEntity
  8
レイヤー_2
 62
     7
100
AcDbSpline
210
0.0
220
0.0
230
1.0
 70
     8
 71
     3
 72
     8
 73
     4
 74
     0
 42
0.00000001
 43
0.00000001
 40
0.0
 40
0.0
 40
0.0
 40
0.0
 40
1.0
 40
1.0
 40
1.0
 40
1.0
 10
96.932756890190959
 20
225.7450493706597
 30
0.0
 10
96.949465603298606
 20
225.73092447916665
 30
0.0
 10
96.967035590277774
 20
225.71473253038192
 30
0.0
 10
96.986155870225687
 20
225.69888509114583
 30
0.0
  0
SPLINE
  5
3C8
100
AcDbEntity
  8
レイヤー_2
 62
     7
100
AcDbSpline
210
0.0
220
0.0
230
1.0
 70
     8
 71
     3
 72
    11
 73
     7
 74
     0
 42
0.00000001
 43
0.00000001
 40
0.0
 40
0.0
 40
0.0
 40
0.0
 40
1.0
 40
1.0
 40
1.0
 40
2.0
 40
2.0
 40
2.0
 40
2.0
 10
97.042483181423606
 20
225.78621826171872
 30
0.0
 10
97.02267388237847
 20
225.78621826171872
 30
0.0
 10
97.003725857204856
 20
225.782428656684
 30
0.0
 10
96.985294596354152
 20
225.7760552300347
 30
0.0
 10
96.967035590277774
 20
225.76916503906247
 30
0.0
 10
96.948776584201383
 20
225.75917426215275
 30
0.0
 10
96.932756890190959
 20
225.7450493706597
 30
0.0
  0
LINE
  5
3C7
100
AcDbEntity
  8
レイヤー_2
 62
     7
100
AcDbLine
 10
97.042483
 20
225.786218
 30
0.0
 11
97.202336
 21
225.786218
 31
0.0
  0
SPLINE
  5
3C6
100
AcDbEntity
  8
レイヤー_2
 62
     7
100
AcDbSpline
210
0.0
220
0.0
230
1.0
 70
     8
 71
     3
 72
     8
 73
     4
 74
     0
 42
0.00000001
 43
0.00000001
 40
0.0
 40
0.0
 40
0.0
 40
0.0
 40
1.0
 40
1.0
 40
1.0
 40
1.0
 10
96.879530164930543
 20
225.65823296440971
 30
0.0
 10
96.88366427951388
 20
225.67545844184025
 30
0.0
 10
96.890726725260407
 20
225.69268391927082
 30
0.0
 10
96.900545247395826
 20
225.70784233940969
 30
0.0
  0
LINE
  5
3C5
100
AcDbEntity
  8
レイヤー_2
 62
     7
100
AcDbLine
 10
96.875052
 20
196.54597
 30
0.0
 11
96.875052
 21
225.618959
 31
0.0
  0
SPLINE
  5
3C4
100
AcDbEntity
  8
レイヤー_2
 62
     7
100
AcDbSpline
210
0.0
220
0.0
230
1.0
 70
     8
 71
     3
 72
     8
 73
     4
 74
     0
 42
0.00000001
 43
0.00000001
 40
0.0
 40
0.0
 40
0.0
 40
0.0
 40
1.0
 40
1.0
 40
1.0
 40
1.0
 10
96.879530164930543
 20
225.65823296440971
 30
0.0
 10
96.87642957899304
 20
225.64462483723958
 30
0.0
 10
96.874707031249997
 20
225.63136121961804
 30
0.0
 10
96.875051540798609
 20
225.61895887586803
 30
0.0
  0
LINE
  5
3C3
100
AcDbEntity
  8
レイヤー_2
 62
     7
100
AcDbLine
 10
97.055747
 20
196.54597
 30
0.0
 11
96.875052
 21
196.54597
 31
0.0
  0
LINE
  5
3C2
100
AcDbEntity
  8
レイヤー_2
 62
     7
100
AcDbLine
 10
108.139825
 20
218.679331
 30
0.0
 11
97.118448
 21
225.618959
 31
0.0
  0
LINE
  5
3C1
100
AcDbEntity
  8
レイヤー_2
 62
     7
100
AcDbLine
 10
108.000298
 20
196.54597
 30
0.0
 11
97.055747
 21
196.54597
 31
0.0
  0
SPLINE
  5
3C0
100
AcDbEntity
  8
レイヤー_2
 62
     7
100
AcDbSpline
210
0.0
220
0.0
230
1.0
 70
     8
 71
     3
 72
     8
 73
     4
 74
     0
 42
0.00000001
 43
0.00000001
 40
0.0
 40
0.0
 40
0.0
 40
0.0
 40
1.0
 40
1.0
 40
1.0
 40
1.0
 10
96.932756890190959
 20
225.7450493706597
 30
0.0
 10
96.919665527343739
 20
225.73385281032984
 30
0.0
 10
96.908468967013874
 20
225.72127821180553
 30
0.0
 10
96.900545247395826
 20
225.70784233940969
 30
0.0
  0
LINE
  5
3BF
100
AcDbEntity
  8
レイヤー_2
 62
     7
100
AcDbLine
 10
97.202336
 20
225.786218
 30
0.0
 11
153.422504
 21
225.786218
 31
0.0
  0
SPLINE
  5
3BE
100
AcDbEntity
  8
レイヤー_2
 62
     7
100
AcDbSpline
210
0.0
220
0.0
230
1.0
 70
     8
 71
     3
 72
     8
 73
     4
 74
     0
 42
0.00000001
 43
0.00000001
 40
0.0
 40
0.0
 40
0.0
 40
0.0
 40
1.0
 40
1.0
 40
1.0
 40
1.0
 10
153.5634087456597
 20
225.70922037760414
 30
0.0
 10
153.53171386718748
 20
225.75882975260416
 30
0.0
 10
153.47797037760415
 20
225.78535698784719
 30
0.0
 10
153.42250434027775
 20
225.78621826171872
 30
0.0
  0
SPLINE
  5
3BD
100
AcDbEntity
  8
レイヤー_2
 62
     7
100
AcDbSpline
210
0.0
220
0.0
230
1.0
 70
     8
 71
     3
 72
     8
 73
     4
 74
     0
 42
0.00000001
 43
0.00000001
 40
0.0
 40
0.0
 40
0.0
 40
0.0
 40
1.0
 40
1.0
 40
1.0
 40
1.0
 10
153.58924696180554
 20
225.61895887586803
 30
0.0
 10
153.58924696180554
 20
225.652204047309
 30
0.0
 10
153.57925618489583
 20
225.68338216145833
 30
0.0
 10
153.5634087456597
 20
225.70922037760414
 30
0.0
  0
SPLINE
  5
3BC
100
AcDbEntity
  8
レイヤー_2
 62
     7
100
AcDbSpline
210
0.0
220
0.0
230
1.0
 70
     8
 71
     3
 72
     8
 73
     4
 74
     0
 42
0.00000001
 43
0.00000001
 40
0.0
 40
0.0
 40
0.0
 40
0.0
 40
1.0
 40
1.0
 40
1.0
 40
1.0
 10
153.58407931857639
 20
225.57572292751735
 30
0.0
 10
153.58821343315969
 20
225.59070909288192
 30
0.0
 10
153.58993598090277
 20
225.6053507486979
 30
0.0
 10
153.58924696180554
 20
225.61895887586803
 30
0.0
  0
LINE
  5
3BB
100
AcDbEntity
  8
レイヤー_2
 62
     7
100
AcDbLine
 10
153.584079
 20
225.575723
 30
0.0
 11
152.746232
 21
222.450332
 31
0.0
  0
LINE
  5
3BA
100
AcDbEntity
  8
レイヤー_2
 62
     7
100
AcDbLine
 10
97.188211
 20
196.233156
 30
0.0
 11
97.188211
 21
196.54597
 31
0.0
  0
LINE
  5
3B9
100
AcDbEntity
  8
レイヤー_2
 62
     7
100
AcDbLine
 10
107.839757
 20
196.233156
 30
0.0
 11
107.839757
 21
196.54597
 31
0.0
  0
LINE
  5
3B8
100
AcDbEntity
  8
レイヤー_2
 62
     7
100
AcDbLine
 10
152.599127
 20
222.326653
 30
0.0
 11
108.5367
 21
218.716366
 31
0.0
  0
SPLINE
  5
3B7
100
AcDbEntity
  8
レイヤー_2
 62
     7
100
AcDbSpline
210
0.0
220
0.0
230
1.0
 70
     8
 71
     3
 72
     8
 73
     4
 74
     0
 42
0.00000001
 43
0.00000001
 40
0.0
 40
0.0
 40
0.0
 40
0.0
 40
1.0
 40
1.0
 40
1.0
 40
1.0
 10
152.59912651909721
 20
222.32665337456595
 30
0.0
 10
152.67043999565971
 20
222.33268229166666
 30
0.0
 10
152.72797309027777
 20
222.38280843098957
 30
0.0
 10
152.74623209635416
 20
222.45033230251735
 30
0.0
  0
SPLINE
  5
3B6
100
AcDbEntity
  8
レイヤー_2
 62
     7
100
AcDbSpline
210
0.0
220
0.0
230
1.0
 70
     8
 71
     3
 72
     8
 73
     4
 74
     0
 42
0.00000001
 43
0.00000001
 40
0.0
 40
0.0
 40
0.0
 40
0.0
 40
1.0
 40
1.0
 40
1.0
 40
1.0
 10
108.53669976128471
 20
218.71636555989582
 30
0.0
 10
108.43506944444444
 20
218.70792507595485
 30
0.0
 10
108.34549696180555
 20
218.66400010850691
 30
0.0
 10
108.2790066189236
 20
218.59871554904512
 30
0.0
  0
SPLINE
  5
3B5
100
AcDbEntity
  8
レイヤー_2
 62
     7
100
AcDbSpline
210
0.0
220
0.0
230
1.0
 70
     8
 71
     3
 72
     8
 73
     4
 74
     0
 42
0.00000001
 43
0.00000001
 40
0.0
 40
0.0
 40
0.0
 40
0.0
 40
1.0
 40
1.0
 40
1.0
 40
1.0
 10
108.25282389322916
 20
218.57098253038191
 30
0.0
 10
108.21768391927083
 20
218.61301269531248
 30
0.0
 10
108.17840983072915
 20
218.65056423611108
 30
0.0
 10
108.13982476128471
 20
218.67933078342011
 30
0.0
  0
SPLINE
  5
3B4
100
AcDbEntity
  8
レイヤー_2
 62
     7
100
AcDbSpline
210
0.0
220
0.0
230
1.0
 70
     8
 71
     3
 72
     8
 73
     4
 74
     0
 42
0.00000001
 43
0.00000001
 40
0.0
 40
0.0
 40
0.0
 40
0.0
 40
1.0
 40
1.0
 40
1.0
 40
1.0
 10
108.25282389322916
 20
218.57098253038191
 30
0.0
 10
108.18564453124999
 20
218.49191758897567
 30
0.0
 10
108.15291612413193
 20
218.39579942491318
 30
0.0
 10
108.15291612413193
 20
218.29985351562499
 30
0.0
  0
LINE
  5
3B3
100
AcDbEntity
  8
レイヤー_2
 62
     7
100
AcDbLine
 10
108.152916
 20
218.299854
 30
0.0
 11
108.152916
 21
196.54597
 31
0.0
  0
LINE
  5
3B2
100
AcDbEntity
  8
レイヤー_2
 62
     7
100
AcDbLine
 10
108.152916
 20
196.54597
 30
0.0
 11
108.000298
 21
196.54597
 31
0.0
  0
SPLINE
  5
3B1
100
AcDbEntity
  8
レイヤー_2
 62
     7
100
AcDbSpline
210
0.0
220
0.0
230
1.0
 70
     8
 71
     3
 72
     8
 73
     4
 74
     0
 42
0.00000001
 43
0.00000001
 40
0.0
 40
0.0
 40
0.0
 40
0.0
 40
1.0
 40
1.0
 40
1.0
 40
1.0
 10
108.2790066189236
 20
218.59871554904512
 30
0.0
 10
108.26970486111109
 20
218.58975830078123
 30
0.0
 10
108.26109212239582
 20
218.58045654296873
 30
0.0
 10
108.25282389322916
 20
218.57098253038191
 30
0.0
  0
SPLINE
  5
3B0
100
AcDbEntity
  8
レイヤー_2
 62
     7
100
AcDbSpline
210
0.0
220
0.0
230
1.0
 70
     8
 71
     3
 72
     8
 73
     4
 74
     0
 42
0.00000001
 43
0.00000001
 40
0.0
 40
0.0
 40
0.0
 40
0.0
 40
1.0
 40
1.0
 40
1.0
 40
1.0
 10
101.62411566840277
 20
226.20893147786455
 30
0.0
 10
101.64754231770833
 20
226.19773491753469
 30
0.0
 10
101.6716579861111
 20
226.19291178385416
 30
0.0
 10
101.69474012586805
 20
226.19342854817705
 30
0.0
  0
LINE
  5
3AF
100
AcDbEntity
  8
レイヤー_2
 62
     7
100
AcDbLine
 10
107.75673
 20
226.193429
 30
0.0
 11
101.69474
 21
226.193429
 31
0.0
  0
SPLINE
  5
3AE
100
AcDbEntity
  8
レイヤー_2
 62
     7
100
AcDbSpline
210
0.0
220
0.0
230
1.0
 70
     8
 71
     3
 72
     8
 73
     4
 74
     0
 42
0.00000001
 43
0.00000001
 40
0.0
 40
0.0
 40
0.0
 40
0.0
 40
1.0
 40
1.0
 40
1.0
 40
1.0
 10
107.81908637152777
 20
226.19342854817705
 30
0.0
 10
107.87661946614583
 20
226.19342854817705
 30
0.0
 10
107.92312825520833
 20
226.23959282769096
 30
0.0
 10
107.92312825520833
 20
226.29781494140622
 30
0.0
  0
LINE
  5
3AD
100
AcDbEntity
  8
レイヤー_2
 62
     7
100
AcDbLine
 10
107.819086
 20
226.193429
 30
0.0
 11
107.75673
 21
226.193429
 31
0.0
  0
LINE
  5
3AC
100
AcDbEntity
  8
レイヤー_2
 62
     7
100
AcDbLine
 10
107.923128
 20
229.861249
 30
0.0
 11
107.923128
 21
226.297815
 31
0.0
  0
LINE
  5
3AB
100
AcDbEntity
  8
レイヤー_2
 62
     7
100
AcDbLine
 10
101.624116
 20
226.208931
 30
0.0
 11
96.976854
 21
228.375897
 31
0.0
  0
POLYLINE
  5
3A0
100
AcDbEntity
  8
レイヤー_2
 62
     7
100
AcDb2dPolyline
 66
     1
 10
0.0
 20
0.0
 30
0.0
  0
VERTEX
  5
3A1
100
AcDbEntity
  8
レイヤー_2
 62
     7
100
AcDbVertex
100
AcDb2dVertex
 10
96.976854
 20
228.375897
 30
0.0
  0
VERTEX
  5
3A2
100
AcDbEntity
  8
レイヤー_2
 62
     7
100
AcDbVertex
100
AcDb2dVertex
 10
96.964969
 20
228.381236
 30
0.0
  0
VERTEX
  5
3A3
100
AcDbEntity
  8
レイヤー_2
 62
     7
100
AcDbVertex
100
AcDb2dVertex
 10
96.952911
 20
228.386921
 30
0.0
  0
VERTEX
  5
3A4
100
AcDbEntity
  8
レイヤー_2
 62
     7
100
AcDbVertex
100
AcDb2dVertex
 10
96.942403
 20
228.391916
 30
0.0
  0
VERTEX
  5
3A5
100
AcDbEntity
  8
レイヤー_2
 62
     7
100
AcDbVertex
100
AcDb2dVertex
 10
96.932757
 20
228.396912
 30
0.0
  0
VERTEX
  5
3A6
100
AcDbEntity
  8
レイヤー_2
 62
     7
100
AcDbVertex
100
AcDb2dVertex
 10
96.924661
 20
228.400529
 30
0.0
  0
VERTEX
  5
3A7
100
AcDbEntity
  8
レイヤー_2
 62
     7
100
AcDbVertex
100
AcDb2dVertex
 10
96.918977
 20
228.402252
 30
0.0
  0
VERTEX
  5
3A8
100
AcDbEntity
  8
レイヤー_2
 62
     7
100
AcDbVertex
100
AcDb2dVertex
 10
96.915531
 20
228.404663
 30
0.0
  0
VERTEX
  5
3A9
100
AcDbEntity
  8
レイヤー_2
 62
     7
100
AcDbVertex
100
AcDb2dVertex
 10
96.91467
 20
228.405008
 30
0.0
  0
SEQEND
  5
3AA
100
AcDbEntity
  8
レイヤー_2
 62
     7
  0
SPLINE
  5
39F
100
AcDbEntity
  8
レイヤー_2
 62
     7
100
AcDbSpline
210
0.0
220
0.0
230
1.0
 70
     8
 71
     3
 72
     8
 73
     4
 74
     0
 42
0.00000001
 43
0.00000001
 40
0.0
 40
0.0
 40
0.0
 40
0.0
 40
1.0
 40
1.0
 40
1.0
 40
1.0
 10
96.854036458333326
 20
228.49957546657984
 30
0.0
 10
96.854036458333326
 20
228.45754530164928
 30
0.0
 10
96.878668891059021
 20
228.42154405381942
 30
0.0
 10
96.91467013888888
 20
228.4050075954861
 30
0.0
  0
LINE
  5
39E
100
AcDbEntity
  8
レイヤー_2
 62
     7
100
AcDbLine
 10
96.854036
 20
228.499575
 30
0.0
 11
96.854036
 21
232.18755
 31
0.0
  0
SPLINE
  5
39D
100
AcDbEntity
  8
レイヤー_2
 62
     7
100
AcDbSpline
210
0.0
220
0.0
230
1.0
 70
     8
 71
     3
 72
     8
 73
     4
 74
     0
 42
0.00000001
 43
0.00000001
 40
0.0
 40
0.0
 40
0.0
 40
0.0
 40
1.0
 40
1.0
 40
1.0
 40
1.0
 10
108.32448187934027
 20
230.27810601128471
 30
0.0
 10
108.09986165364582
 20
230.26932101779511
 30
0.0
 10
107.92312825520833
 20
230.08466389973955
 30
0.0
 10
107.92312825520833
 20
229.86124945746525
 30
0.0
  0
LINE
  5
39C
100
AcDbEntity
  8
レイヤー_2
 62
     7
100
AcDbLine
 10
134.463455
 20
231.304744
 30
0.0
 11
108.324482
 21
230.278106
 31
0.0
  0
SPLINE
  5
39B
100
AcDbEntity
  8
レイヤー_2
 62
     7
100
AcDbSpline
210
0.0
220
0.0
230
1.0
 70
     8
 71
     3
 72
     8
 73
     4
 74
     0
 42
0.00000001
 43
0.00000001
 40
0.0
 40
0.0
 40
0.0
 40
0.0
 40
1.0
 40
1.0
 40
1.0
 40
1.0
 10
134.4634548611111
 20
231.30474446614582
 30
0.0
 10
134.53752441406249
 20
231.30767279730901
 30
0.0
 10
134.59850260416667
 20
231.35934922960067
 30
0.0
 10
134.61813964843748
 20
231.42911241319442
 30
0.0
  0
LINE
  5
39A
100
AcDbEntity
  8
レイヤー_2
 62
     7
100
AcDbLine
 10
134.809687
 20
232.14397
 30
0.0
 11
134.61814
 21
231.429112
 31
0.0
  0
SPLINE
  5
399
100
AcDbEntity
  8
レイヤー_2
 62
     7
100
AcDbSpline
210
0.0
220
0.0
230
1.0
 70
     8
 71
     3
 72
     8
 73
     4
 74
     0
 42
0.00000001
 43
0.00000001
 40
0.0
 40
0.0
 40
0.0
 40
0.0
 40
1.0
 40
1.0
 40
1.0
 40
1.0
 10
134.81519911024304
 20
232.1875501844618
 30
0.0
 10
134.81519911024304
 20
232.28005099826387
 30
0.0
 10
134.74009602864581
 20
232.35446506076386
 30
0.0
 10
134.64811197916666
 20
232.35446506076386
 30
0.0
  0
SPLINE
  5
398
100
AcDbEntity
  8
レイヤー_2
 62
     7
100
AcDbSpline
210
0.0
220
0.0
230
1.0
 70
     8
 71
     3
 72
     8
 73
     4
 74
     0
 42
0.00000001
 43
0.00000001
 40
0.0
 40
0.0
 40
0.0
 40
0.0
 40
1.0
 40
1.0
 40
1.0
 40
1.0
 10
134.80968695746526
 20
232.14396972656249
 30
0.0
 10
134.81416558159722
 20
232.15947265624999
 30
0.0
 10
134.81519911024304
 20
232.17376980251734
 30
0.0
 10
134.81519911024304
 20
232.1875501844618
 30
0.0
  0
SPLINE
  5
397
100
AcDbEntity
  8
レイヤー_2
 62
     7
100
AcDbSpline
210
0.0
220
0.0
230
1.0
 70
     8
 71
     3
 72
     8
 73
     4
 74
     0
 42
0.00000001
 43
0.00000001
 40
0.0
 40
0.0
 40
0.0
 40
0.0
 40
1.0
 40
1.0
 40
1.0
 40
1.0
 10
97.021295844184024
 20
232.35446506076386
 30
0.0
 10
96.929139539930546
 20
232.35412055121526
 30
0.0
 10
96.854036458333326
 20
232.28005099826387
 30
0.0
 10
96.854036458333326
 20
232.1875501844618
 30
0.0
  0
LINE
  5
396
100
AcDbEntity
  8
レイヤー_2
 62
     7
100
AcDbLine
 10
97.480872
 20
232.359116
 30
0.0
 11
97.480872
 21
232.359805
 31
0.0
  0
LINE
  5
395
100
AcDbEntity
  8
レイヤー_2
 62
     7
100
AcDbLine
 10
97.794375
 20
232.362044
 30
0.0
 11
97.480872
 21
232.359116
 31
0.0
  0
LINE
  5
394
100
AcDbEntity
  8
レイヤー_2
 62
     7
100
AcDbLine
 10
97.794375
 20
232.362906
 30
0.0
 11
97.794375
 21
232.362044
 31
0.0
  0
LINE
  5
393
100
AcDbEntity
  8
レイヤー_2
 62
     7
100
AcDbLine
 10
97.794375
 20
232.362906
 30
0.0
 11
97.480872
 21
232.359805
 31
0.0
  0
LINE
  5
392
100
AcDbEntity
  8
レイヤー_2
 62
     7
100
AcDbLine
 10
96.820619
 20
194.14405
 30
0.0
 11
96.820619
 21
191.637915
 31
0.0
  0
LINE
  5
391
100
AcDbEntity
  8
レイヤー_2
 62
     7
100
AcDbLine
 10
99.838178
 20
226.307633
 30
0.0
 11
99.838178
 21
226.203592
 31
0.0
  0
LINE
  5
390
100
AcDbEntity
  8
レイヤー_2
 62
     7
100
AcDbLine
 10
97.848808
 20
226.203592
 30
0.0
 11
97.848808
 21
226.307633
 31
0.0
  0
LINE
  5
38F
100
AcDbEntity
  8
レイヤー_2
 62
     7
100
AcDbLine
 10
99.838178
 20
226.203592
 30
0.0
 11
97.848808
 21
226.203592
 31
0.0
  0
SPLINE
  5
38E
100
AcDbEntity
  8
レイヤー_2
 62
     7
100
AcDbSpline
210
0.0
220
0.0
230
1.0
 70
     8
 71
     3
 72
     8
 73
     4
 74
     0
 42
0.00000001
 43
0.00000001
 40
0.0
 40
0.0
 40
0.0
 40
0.0
 40
1.0
 40
1.0
 40
1.0
 40
1.0
 10
98.345246039496516
 20
227.73803710937497
 30
0.0
 10
97.981616210937489
 20
227.33065456814234
 30
0.0
 10
97.819007703993051
 20
226.81337348090275
 30
0.0
 10
97.848807779947904
 20
226.30763346354163
 30
0.0
  0
SPLINE
  5
38D
100
AcDbEntity
  8
レイヤー_2
 62
     7
100
AcDbSpline
210
0.0
220
0.0
230
1.0
 70
     8
 71
     3
 72
     8
 73
     4
 74
     0
 42
0.00000001
 43
0.00000001
 40
0.0
 40
0.0
 40
0.0
 40
0.0
 40
1.0
 40
1.0
 40
1.0
 40
1.0
 10
99.838178168402763
 20
226.32692599826387
 30
0.0
 10
99.838178168402763
 20
226.60218912760413
 30
0.0
 10
99.794425455729154
 20
226.86711697048608
 30
0.0
 10
99.716738552517356
 20
227.09828287760413
 30
0.0
  0
SPLINE
  5
38C
100
AcDbEntity
  8
レイヤー_2
 62
     7
100
AcDbSpline
210
0.0
220
0.0
230
1.0
 70
     8
 71
     3
 72
     8
 73
     4
 74
     0
 42
0.00000001
 43
0.00000001
 40
0.0
 40
0.0
 40
0.0
 40
0.0
 40
1.0
 40
1.0
 40
1.0
 40
1.0
 10
99.838178168402763
 20
226.30763346354163
 30
0.0
 10
99.838178168402763
 20
226.31469590928816
 30
0.0
 10
99.838178168402763
 20
226.32072482638887
 30
0.0
 10
99.838178168402763
 20
226.32692599826387
 30
0.0
  0
LINE
  5
38B
100
AcDbEntity
  8
レイヤー_2
 62
     7
100
AcDbLine
 10
106.264659
 20
134.052799
 30
0.0
 11
105.541189
 21
133.931532
 31
0.0
  0
SPLINE
  5
38A
100
AcDbEntity
  8
レイヤー_2
 62
     7
100
AcDbSpline
210
0.0
220
0.0
230
1.0
 70
     8
 71
     3
 72
    11
 73
     7
 74
     0
 42
0.00000001
 43
0.00000001
 40
0.0
 40
0.0
 40
0.0
 40
0.0
 40
1.0
 40
1.0
 40
1.0
 40
2.0
 40
2.0
 40
2.0
 40
2.0
 10
105.54118923611111
 20
133.93153211805554
 30
0.0
 10
105.52396375868055
 20
133.93153211805554
 30
0.0
 10
105.50604926215277
 20
133.93153211805554
 30
0.0
 10
105.48916829427083
 20
133.93222113715277
 30
0.0
 10
105.26248101128471
 20
133.93773328993055
 30
0.0
 10
105.04010009765624
 20
133.99526638454859
 30
0.0
 10
104.81685791015624
 20
134.05279947916665
 30
0.0
  0
LINE
  5
389
100
AcDbEntity
  8
レイヤー_2
 62
     7
100
AcDbLine
 10
104.816858
 20
134.052799
 30
0.0
 11
104.816858
 21
136.315883
 31
0.0
  0
SPLINE
  5
388
100
AcDbEntity
  8
レイヤー_2
 62
     7
100
AcDbSpline
210
0.0
220
0.0
230
1.0
 70
     8
 71
     3
 72
    11
 73
     7
 74
     0
 42
0.00000001
 43
0.00000001
 40
0.0
 40
0.0
 40
0.0
 40
0.0
 40
1.0
 40
1.0
 40
1.0
 40
2.0
 40
2.0
 40
2.0
 40
2.0
 10
105.54118923611111
 20
136.43715006510416
 30
0.0
 10
105.52396375868055
 20
136.43715006510416
 30
0.0
 10
105.50604926215277
 20
136.43715006510416
 30
0.0
 10
105.48916829427083
 20
136.43611653645831
 30
0.0
 10
105.26248101128471
 20
136.43094889322916
 30
0.0
 10
105.04010009765624
 20
136.37341579861109
 30
0.0
 10
104.81685791015624
 20
136.31588270399305
 30
0.0
  0
LINE
  5
387
100
AcDbEntity
  8
レイヤー_2
 62
     7
100
AcDbLine
 10
106.264659
 20
136.315883
 30
0.0
 11
105.541189
 21
136.43715
 31
0.0
  0
LINE
  5
386
100
AcDbEntity
  8
レイヤー_2
 62
     7
100
AcDbLine
 10
106.264659
 20
134.052799
 30
0.0
 11
106.264659
 21
136.315883
 31
0.0
  0
LINE
  5
385
100
AcDbEntity
  8
レイヤー_2
 62
     7
100
AcDbLine
 10
106.377658
 20
141.867654
 30
0.0
 11
103.76731
 21
141.867654
 31
0.0
  0
LINE
  5
384
100
AcDbEntity
  8
レイヤー_2
 62
     7
100
AcDbLine
 10
106.064155
 20
141.324707
 30
0.0
 11
103.976082
 21
141.324707
 31
0.0
  0
LINE
  5
383
100
AcDbEntity
  8
レイヤー_2
 62
     7
100
AcDbLine
 10
106.377658
 20
142.173579
 30
0.0
 11
103.76731
 21
142.173579
 31
0.0
  0
SPLINE
  5
382
100
AcDbEntity
  8
レイヤー_2
 62
     7
100
AcDbSpline
210
0.0
220
0.0
230
1.0
 70
     8
 71
     3
 72
    11
 73
     7
 74
     0
 42
0.00000001
 43
0.00000001
 40
0.0
 40
0.0
 40
0.0
 40
0.0
 40
1.0
 40
1.0
 40
1.0
 40
2.0
 40
2.0
 40
2.0
 40
2.0
 10
104.81685791015624
 20
136.31588270399305
 30
0.0
 10
104.6669962565104
 20
136.3641140407986
 30
0.0
 10
104.51696234809027
 20
136.41096733940972
 30
0.0
 10
104.36417236328124
 20
136.42784830729164
 30
0.0
 10
104.30767279730902
 20
136.43404947916665
 30
0.0
 10
104.25186225043402
 20
136.43577202690972
 30
0.0
 10
104.19501817491319
 20
136.43715006510416
 30
0.0
  0
LINE
  5
381
100
AcDbEntity
  8
レイヤー_2
 62
     7
100
AcDbLine
 10
104.195018
 20
136.43715
 30
0.0
 11
105.541189
 21
136.43715
 31
0.0
  0
SPLINE
  5
380
100
AcDbEntity
  8
レイヤー_2
 62
     7
100
AcDbSpline
210
0.0
220
0.0
230
1.0
 70
     8
 71
     3
 72
    11
 73
     7
 74
     0
 42
0.00000001
 43
0.00000001
 40
0.0
 40
0.0
 40
0.0
 40
0.0
 40
1.0
 40
1.0
 40
1.0
 40
2.0
 40
2.0
 40
2.0
 40
2.0
 10
104.81685791015624
 20
134.05279947916665
 30
0.0
 10
104.6669962565104
 20
134.00491265190971
 30
0.0
 10
104.51696234809027
 20
133.95737033420139
 30
0.0
 10
104.36417236328124
 20
133.94083387586804
 30
0.0
 10
104.30767279730902
 20
133.93463270399303
 30
0.0
 10
104.25186225043402
 20
133.93291015624999
 30
0.0
 10
104.19501817491319
 20
133.93153211805554
 30
0.0
  0
LINE
  5
37F
100
AcDbEntity
  8
レイヤー_2
 62
     7
100
AcDbLine
 10
105.541189
 20
133.931532
 30
0.0
 11
104.195018
 21
133.931532
 31
0.0
  0
LINE
  5
37E
100
AcDbEntity
  8
レイヤー_2
 62
     7
100
AcDbLine
 10
104.195018
 20
133.931532
 30
0.0
 11
103.76731
 21
133.995611
 31
0.0
  0
LINE
  5
37D
100
AcDbEntity
  8
レイヤー_2
 62
     7
100
AcDbLine
 10
104.195018
 20
136.43715
 30
0.0
 11
103.76731
 21
136.372727
 31
0.0
  0
SPLINE
  5
37C
100
AcDbEntity
  8
レイヤー_2
 62
     7
100
AcDbSpline
210
0.0
220
0.0
230
1.0
 70
     8
 71
     3
 72
    11
 73
     7
 74
     0
 42
0.00000001
 43
0.00000001
 40
0.0
 40
0.0
 40
0.0
 40
0.0
 40
1.0
 40
1.0
 40
1.0
 40
2.0
 40
2.0
 40
2.0
 40
2.0
 10
106.36663411458332
 20
136.43715006510416
 30
0.0
 10
106.36663411458332
 20
136.43715006510416
 30
0.0
 10
106.35905490451388
 20
136.43611653645831
 30
0.0
 10
106.35905490451388
 20
136.43611653645831
 30
0.0
 10
106.32736002604166
 20
136.43094889322916
 30
0.0
 10
106.29600965711805
 20
136.37341579861109
 30
0.0
 10
106.26465928819444
 20
136.31588270399305
 30
0.0
  0
LINE
  5
37B
100
AcDbEntity
  8
レイヤー_2
 62
     7
100
AcDbLine
 10
105.541189
 20
136.43715
 30
0.0
 11
106.366634
 21
136.43715
 31
0.0
  0
SPLINE
  5
37A
100
AcDbEntity
  8
レイヤー_2
 62
     7
100
AcDbSpline
210
0.0
220
0.0
230
1.0
 70
     8
 71
     3
 72
    11
 73
     7
 74
     0
 42
0.00000001
 43
0.00000001
 40
0.0
 40
0.0
 40
0.0
 40
0.0
 40
1.0
 40
1.0
 40
1.0
 40
2.0
 40
2.0
 40
2.0
 40
2.0
 10
106.36663411458332
 20
133.93153211805554
 30
0.0
 10
106.36663411458332
 20
133.93153211805554
 30
0.0
 10
106.35905490451388
 20
133.93222113715277
 30
0.0
 10
106.35905490451388
 20
133.93222113715277
 30
0.0
 10
106.32736002604166
 20
133.93773328993055
 30
0.0
 10
106.29600965711805
 20
133.99526638454859
 30
0.0
 10
106.26465928819444
 20
134.05279947916665
 30
0.0
  0
LINE
  5
379
100
AcDbEntity
  8
レイヤー_2
 62
     7
100
AcDbLine
 10
106.366634
 20
133.931532
 30
0.0
 11
105.541189
 21
133.931532
 31
0.0
  0
LINE
  5
378
100
AcDbEntity
  8
レイヤー_2
 62
     7
100
AcDbLine
 10
103.76731
 20
136.43715
 30
0.0
 11
104.195018
 21
136.43715
 31
0.0
  0
LINE
  5
377
100
AcDbEntity
  8
レイヤー_2
 62
     7
100
AcDbLine
 10
104.195018
 20
133.931532
 30
0.0
 11
103.76731
 21
133.931532
 31
0.0
  0
LINE
  5
376
100
AcDbEntity
  8
レイヤー_2
 62
     7
100
AcDbLine
 10
106.46792
 20
134.052799
 30
0.0
 11
106.366634
 21
133.931532
 31
0.0
  0
LINE
  5
375
100
AcDbEntity
  8
レイヤー_2
 62
     7
100
AcDbLine
 10
106.46792
 20
136.315883
 30
0.0
 11
106.366634
 21
136.43715
 31
0.0
  0
LINE
  5
374
100
AcDbEntity
  8
レイヤー_2
 62
     7
100
AcDbLine
 10
106.46792
 20
134.052799
 30
0.0
 11
106.46792
 21
136.315883
 31
0.0
  0
LINE
  5
373
100
AcDbEntity
  8
レイヤー_2
 62
     7
100
AcDbLine
 10
100.206114
 20
145.063325
 30
0.0
 11
100.206114
 21
144.64509
 31
0.0
  0
LINE
  5
372
100
AcDbEntity
  8
レイヤー_2
 62
     7
100
AcDbLine
 10
101.865272
 20
144.64509
 30
0.0
 11
107.848714
 21
144.64509
 31
0.0
  0
LINE
  5
371
100
AcDbEntity
  8
レイヤー_2
 62
     7
100
AcDbLine
 10
100.206114
 20
145.063325
 30
0.0
 11
107.848714
 21
145.063325
 31
0.0
  0
LINE
  5
370
100
AcDbEntity
  8
レイヤー_2
 62
     7
100
AcDbLine
 10
99.723284
 20
144.64509
 30
0.0
 11
100.206114
 21
144.64509
 31
0.0
  0
LINE
  5
36F
100
AcDbEntity
  8
レイヤー_2
 62
     7
100
AcDbLine
 10
99.723284
 20
145.063325
 30
0.0
 11
100.206114
 21
145.063325
 31
0.0
  0
LINE
  5
36E
100
AcDbEntity
  8
レイヤー_2
 62
     7
100
AcDbLine
 10
99.050974
 20
144.64509
 30
0.0
 11
99.722423
 21
144.64509
 31
0.0
  0
LINE
  5
36D
100
AcDbEntity
  8
レイヤー_2
 62
     7
100
AcDbLine
 10
99.050974
 20
145.063325
 30
0.0
 11
99.723284
 21
145.063325
 31
0.0
  0
POLYLINE
  5
367
100
AcDbEntity
  8
レイヤー_2
 62
     7
100
AcDb2dPolyline
 66
     1
 10
0.0
 20
0.0
 30
0.0
  0
VERTEX
  5
368
100
AcDbEntity
  8
レイヤー_2
 62
     7
100
AcDbVertex
100
AcDb2dVertex
 10
100.147548
 20
142.974219
 30
0.0
  0
VERTEX
  5
369
100
AcDbEntity
  8
レイヤー_2
 62
     7
100
AcDbVertex
100
AcDb2dVertex
 10
100.146859
 20
142.974219
 30
0.0
  0
VERTEX
  5
36A
100
AcDbEntity
  8
レイヤー_2
 62
     7
100
AcDbVertex
100
AcDb2dVertex
 10
100.144447
 20
142.974908
 30
0.0
  0
VERTEX
  5
36B
100
AcDbEntity
  8
レイヤー_2
 62
     7
100
AcDbVertex
100
AcDb2dVertex
 10
100.144103
 20
142.974908
 30
0.0
  0
SEQEND
  5
36C
100
AcDbEntity
  8
レイヤー_2
 62
     7
  0
LINE
  5
366
100
AcDbEntity
  8
レイヤー_2
 62
     7
100
AcDbLine
 10
100.206114
 20
144.64509
 30
0.0
 11
100.206114
 21
143.184025
 31
0.0
  0
LINE
  5
365
100
AcDbEntity
  8
レイヤー_2
 62
     7
100
AcDbLine
 10
101.865272
 20
144.64509
 30
0.0
 11
100.206114
 21
144.64509
 31
0.0
  0
LINE
  5
364
100
AcDbEntity
  8
レイヤー_2
 62
     7
100
AcDbLine
 10
107.639597
 20
142.974908
 30
0.0
 11
103.399201
 21
142.974908
 31
0.0
  0
POLYLINE
  5
359
100
AcDbEntity
  8
レイヤー_2
 62
     7
100
AcDb2dPolyline
 66
     1
 10
0.0
 20
0.0
 30
0.0
  0
VERTEX
  5
35A
100
AcDbEntity
  8
レイヤー_2
 62
     7
100
AcDbVertex
100
AcDb2dVertex
 10
100.294309
 20
142.974908
 30
0.0
  0
VERTEX
  5
35B
100
AcDbEntity
  8
レイヤー_2
 62
     7
100
AcDbVertex
100
AcDb2dVertex
 10
100.276911
 20
142.978697
 30
0.0
  0
VERTEX
  5
35C
100
AcDbEntity
  8
レイヤー_2
 62
     7
100
AcDbVertex
100
AcDb2dVertex
 10
100.261064
 20
142.990411
 30
0.0
  0
VERTEX
  5
35D
100
AcDbEntity
  8
レイヤー_2
 62
     7
100
AcDbVertex
100
AcDb2dVertex
 10
100.244872
 20
143.009703
 30
0.0
  0
VERTEX
  5
35E
100
AcDbEntity
  8
レイヤー_2
 62
     7
100
AcDbVertex
100
AcDb2dVertex
 10
100.231953
 20
143.035541
 30
0.0
  0
VERTEX
  5
35F
100
AcDbEntity
  8
レイヤー_2
 62
     7
100
AcDbVertex
100
AcDb2dVertex
 10
100.221101
 20
143.067581
 30
0.0
  0
VERTEX
  5
360
100
AcDbEntity
  8
レイヤー_2
 62
     7
100
AcDbVertex
100
AcDb2dVertex
 10
100.213349
 20
143.103065
 30
0.0
  0
VERTEX
  5
361
100
AcDbEntity
  8
レイヤー_2
 62
     7
100
AcDbVertex
100
AcDb2dVertex
 10
100.208354
 20
143.142684
 30
0.0
  0
VERTEX
  5
362
100
AcDbEntity
  8
レイヤー_2
 62
     7
100
AcDbVertex
100
AcDb2dVertex
 10
100.206114
 20
143.184025
 30
0.0
  0
SEQEND
  5
363
100
AcDbEntity
  8
レイヤー_2
 62
     7
  0
LINE
  5
358
100
AcDbEntity
  8
レイヤー_2
 62
     7
100
AcDbLine
 10
103.399201
 20
142.974908
 30
0.0
 11
100.294309
 21
142.974908
 31
0.0
  0
SPLINE
  5
357
100
AcDbEntity
  8
レイヤー_2
 62
     7
100
AcDbSpline
210
0.0
220
0.0
230
1.0
 70
     8
 71
     3
 72
    11
 73
     7
 74
     0
 42
0.00000001
 43
0.00000001
 40
0.0
 40
0.0
 40
0.0
 40
0.0
 40
1.0
 40
1.0
 40
1.0
 40
2.0
 40
2.0
 40
2.0
 40
2.0
 10
106.94851074218749
 20
142.27865397135415
 30
0.0
 10
106.18783365885416
 20
142.36960449218748
 30
0.0
 10
104.39018283420138
 20
142.55736219618055
 30
0.0
 10
102.45386691623263
 20
142.74925401475693
 30
0.0
 10
101.6096462673611
 20
142.83331434461803
 30
0.0
 10
100.8157240125868
 20
142.90979546440971
 30
0.0
 10
100.14892578124999
 20
142.97352973090275
 30
0.0
  0
POLYLINE
  5
351
100
AcDbEntity
  8
レイヤー_2
 62
     7
100
AcDb2dPolyline
 66
     1
 10
0.0
 20
0.0
 30
0.0
  0
VERTEX
  5
352
100
AcDbEntity
  8
レイヤー_2
 62
     7
100
AcDbVertex
100
AcDb2dVertex
 10
100.169252
 20
142.974908
 30
0.0
  0
VERTEX
  5
353
100
AcDbEntity
  8
レイヤー_2
 62
     7
100
AcDbVertex
100
AcDb2dVertex
 10
100.169252
 20
142.974908
 30
0.0
  0
VERTEX
  5
354
100
AcDbEntity
  8
レイヤー_2
 62
     7
100
AcDbVertex
100
AcDb2dVertex
 10
100.167529
 20
142.975597
 30
0.0
  0
VERTEX
  5
355
100
AcDbEntity
  8
レイヤー_2
 62
     7
100
AcDbVertex
100
AcDb2dVertex
 10
100.16684
 20
142.975597
 30
0.0
  0
SEQEND
  5
356
100
AcDbEntity
  8
レイヤー_2
 62
     7
  0
LINE
  5
350
100
AcDbEntity
  8
レイヤー_2
 62
     7
100
AcDbLine
 10
100.14393
 20
142.974908
 30
0.0
 11
100.169252
 21
142.974908
 31
0.0
  0
LINE
  5
34F
100
AcDbEntity
  8
レイヤー_2
 62
     7
100
AcDbLine
 10
100.206114
 20
144.64509
 30
0.0
 11
99.722423
 21
144.64509
 31
0.0
  0
LINE
  5
34E
100
AcDbEntity
  8
レイヤー_2
 62
     7
100
AcDbLine
 10
100.294309
 20
142.974908
 30
0.0
 11
100.169252
 21
142.974908
 31
0.0
  0
SPLINE
  5
34D
100
AcDbEntity
  8
レイヤー_2
 62
     7
100
AcDbSpline
210
0.0
220
0.0
230
1.0
 70
     8
 71
     3
 72
    11
 73
     7
 74
     0
 42
0.00000001
 43
0.00000001
 40
0.0
 40
0.0
 40
0.0
 40
0.0
 40
1.0
 40
1.0
 40
1.0
 40
2.0
 40
2.0
 40
2.0
 40
2.0
 10
107.01947970920138
 20
142.22663302951386
 30
0.0
 10
107.00707736545138
 20
142.24213595920136
 30
0.0
 10
106.99570855034722
 20
142.25694986979164
 30
0.0
 10
106.98192816840277
 20
142.26487358940972
 30
0.0
 10
106.97159288194443
 20
142.27176378038195
 30
0.0
 10
106.95919053819443
 20
142.27555338541666
 30
0.0
 10
106.94816623263888
 20
142.2769314236111
 30
0.0
  0
SPLINE
  5
34C
100
AcDbEntity
  8
レイヤー_2
 62
     7
100
AcDbSpline
210
0.0
220
0.0
230
1.0
 70
     8
 71
     3
 72
     8
 73
     4
 74
     0
 42
0.00000001
 43
0.00000001
 40
0.0
 40
0.0
 40
0.0
 40
0.0
 40
1.0
 40
1.0
 40
1.0
 40
1.0
 10
107.01947970920138
 20
142.22663302951386
 30
0.0
 10
107.02258029513888
 20
142.20527343749998
 30
0.0
 10
107.03773871527777
 20
142.18770345052081
 30
0.0
 10
107.05772026909722
 20
142.18115776909721
 30
0.0
  0
LINE
  5
34B
100
AcDbEntity
  8
レイヤー_2
 62
     7
100
AcDbLine
 10
107.05772
 20
142.181158
 30
0.0
 11
105.071967
 21
142.181158
 31
0.0
  0
LINE
  5
34A
100
AcDbEntity
  8
レイヤー_2
 62
     7
100
AcDbLine
 10
107.325749
 20
142.181158
 30
0.0
 11
107.05772
 21
142.181158
 31
0.0
  0
POLYLINE
  5
345
100
AcDbEntity
  8
レイヤー_2
 62
     7
100
AcDb2dPolyline
 66
     1
 10
0.0
 20
0.0
 30
0.0
  0
VERTEX
  5
346
100
AcDbEntity
  8
レイヤー_2
 62
     7
100
AcDbVertex
100
AcDb2dVertex
 10
99.438375
 20
142.975597
 30
0.0
  0
VERTEX
  5
347
100
AcDbEntity
  8
レイヤー_2
 62
     7
100
AcDbVertex
100
AcDb2dVertex
 10
99.441992
 20
142.974908
 30
0.0
  0
VERTEX
  5
348
100
AcDbEntity
  8
レイヤー_2
 62
     7
100
AcDbVertex
100
AcDb2dVertex
 10
99.443715
 20
142.974908
 30
0.0
  0
SEQEND
  5
349
100
AcDbEntity
  8
レイヤー_2
 62
     7
  0
SPLINE
  5
344
100
AcDbEntity
  8
レイヤー_2
 62
     7
100
AcDbSpline
210
0.0
220
0.0
230
1.0
 70
     8
 71
     3
 72
     8
 73
     4
 74
     0
 42
0.00000001
 43
0.00000001
 40
0.0
 40
0.0
 40
0.0
 40
0.0
 40
1.0
 40
1.0
 40
1.0
 40
1.0
 10
99.332438151041657
 20
142.98696560329859
 30
0.0
 10
99.3617214626736
 20
142.9835205078125
 30
0.0
 10
99.398411729600681
 20
142.97869737413194
 30
0.0
 10
99.438374837239579
 20
142.97559678819442
 30
0.0
  0
SPLINE
  5
343
100
AcDbEntity
  8
レイヤー_2
 62
     7
100
AcDbSpline
210
0.0
220
0.0
230
1.0
 70
     8
 71
     3
 72
     8
 73
     4
 74
     0
 42
0.00000001
 43
0.00000001
 40
0.0
 40
0.0
 40
0.0
 40
0.0
 40
1.0
 40
1.0
 40
1.0
 40
1.0
 10
99.476443142361106
 20
142.97352973090275
 30
0.0
 10
100.15116509331597
 20
142.90256076388889
 30
0.0
 10
100.91942138671874
 20
142.82332356770831
 30
0.0
 10
101.67854817708333
 20
142.74753146701389
 30
0.0
  0
POLYLINE
  5
33D
100
AcDbEntity
  8
レイヤー_2
 62
     7
100
AcDb2dPolyline
 66
     1
 10
0.0
 20
0.0
 30
0.0
  0
VERTEX
  5
33E
100
AcDbEntity
  8
レイヤー_2
 62
     7
100
AcDbVertex
100
AcDb2dVertex
 10
99.469725
 20
142.974908
 30
0.0
  0
VERTEX
  5
33F
100
AcDbEntity
  8
レイヤー_2
 62
     7
100
AcDbVertex
100
AcDb2dVertex
 10
99.473687
 20
142.974908
 30
0.0
  0
VERTEX
  5
340
100
AcDbEntity
  8
レイヤー_2
 62
     7
100
AcDbVertex
100
AcDb2dVertex
 10
99.475926
 20
142.974219
 30
0.0
  0
VERTEX
  5
341
100
AcDbEntity
  8
レイヤー_2
 62
     7
100
AcDbVertex
100
AcDb2dVertex
 10
99.476443
 20
142.974219
 30
0.0
  0
SEQEND
  5
342
100
AcDbEntity
  8
レイヤー_2
 62
     7
  0
LINE
  5
33C
100
AcDbEntity
  8
レイヤー_2
 62
     7
100
AcDbLine
 10
96.789613
 20
230.445365
 30
0.0
 11
96.789613
 21
229.041661
 31
0.0
  0
LINE
  5
33B
100
AcDbEntity
  8
レイヤー_2
 62
     7
100
AcDbLine
 10
96.720194
 20
194.069291
 30
0.0
 11
96.720194
 21
191.712846
 31
0.0
  0
SPLINE
  5
33A
100
AcDbEntity
  8
レイヤー_2
 62
     7
100
AcDbSpline
210
0.0
220
0.0
230
1.0
 70
     8
 71
     3
 72
    14
 73
    10
 74
     0
 42
0.00000001
 43
0.00000001
 40
0.0
 40
0.0
 40
0.0
 40
0.0
 40
1.0
 40
1.0
 40
1.0
 40
2.0
 40
2.0
 40
2.0
 40
3.0
 40
3.0
 40
3.0
 40
3.0
 10
100.21851671006944
 20
142.90531684027778
 30
0.0
 10
100.11395806206596
 20
142.91668565538194
 30
0.0
 10
99.998891872829859
 20
142.9280544704861
 30
0.0
 10
99.887615288628467
 20
142.93942328559027
 30
0.0
 10
99.541555447048609
 20
142.97352973090275
 30
0.0
 10
99.26043565538194
 20
142.99867892795137
 30
0.0
 10
99.26043565538194
 20
142.99626736111111
 30
0.0
 10
99.26043565538194
 20
142.99557834201389
 30
0.0
 10
99.286790635850679
 20
142.99213324652777
 30
0.0
 10
99.332438151041657
 20
142.98696560329859
 30
0.0
  0
SPLINE
  5
339
100
AcDbEntity
  8
レイヤー_2
 62
     7
100
AcDbSpline
210
0.0
220
0.0
230
1.0
 70
     8
 71
     3
 72
     8
 73
     4
 74
     0
 42
0.00000001
 43
0.00000001
 40
0.0
 40
0.0
 40
0.0
 40
0.0
 40
1.0
 40
1.0
 40
1.0
 40
1.0
 10
100.2176554361979
 20
142.90531684027778
 30
0.0
 10
100.68532714843749
 20
142.85570746527776
 30
0.0
 10
101.19158393012152
 20
142.80506456163192
 30
0.0
 10
101.67751464843749
 20
142.75511067708331
 30
0.0
  0
SPLINE
  5
338
100
AcDbEntity
  8
レイヤー_2
 62
     7
100
AcDbSpline
210
0.0
220
0.0
230
1.0
 70
     8
 71
     3
 72
     8
 73
     4
 74
     0
 42
0.00000001
 43
0.00000001
 40
0.0
 40
0.0
 40
0.0
 40
0.0
 40
1.0
 40
1.0
 40
1.0
 40
1.0
 10
99.729657660590263
 20
143.16025390624998
 30
0.0
 10
99.34036187065972
 20
143.18884819878471
 30
0.0
 10
99.074228244357627
 20
143.20641818576388
 30
0.0
 10
99.07250569661457
 20
143.20435112847221
 30
0.0
  0
SPLINE
  5
337
100
AcDbEntity
  8
レイヤー_2
 62
     7
100
AcDbSpline
210
0.0
220
0.0
230
1.0
 70
     8
 71
     3
 72
    11
 73
     7
 74
     0
 42
0.00000001
 43
0.00000001
 40
0.0
 40
0.0
 40
0.0
 40
0.0
 40
1.0
 40
1.0
 40
1.0
 40
2.0
 40
2.0
 40
2.0
 40
2.0
 10
61.56919623480902
 20
130.02754991319443
 30
0.0
 10
62.260626898871521
 20
130.37240397135415
 30
0.0
 10
63.21130099826388
 20
130.65352376302081
 30
0.0
 10
64.076192220052079
 20
129.70129937065971
 30
0.0
 10
65.188785807291666
 20
128.47897949218748
 30
0.0
 10
65.667826334635407
 20
128.68465169270831
 30
0.0
 10
66.836402723524301
 20
129.4498074001736
 30
0.0
  0
SPLINE
  5
336
100
AcDbEntity
  8
レイヤー_2
 62
     7
100
AcDbSpline
210
0.0
220
0.0
230
1.0
 70
     8
 71
     3
 72
     8
 73
     4
 74
     0
 42
0.00000001
 43
0.00000001
 40
0.0
 40
0.0
 40
0.0
 40
0.0
 40
1.0
 40
1.0
 40
1.0
 40
1.0
 10
59.646316189236103
 20
160.70646972656249
 30
0.0
 10
59.723314073350686
 20
160.57348904079859
 30
0.0
 10
59.862495930989581
 20
160.49855821397568
 30
0.0
 10
60.008051215277774
 20
160.49718017578124
 30
0.0
  0
SPLINE
  5
335
100
AcDbEntity
  8
レイヤー_2
 62
     7
100
AcDbSpline
210
0.0
220
0.0
230
1.0
 70
     8
 71
     3
 72
     8
 73
     4
 74
     0
 42
0.00000001
 43
0.00000001
 40
0.0
 40
0.0
 40
0.0
 40
0.0
 40
1.0
 40
1.0
 40
1.0
 40
1.0
 10
67.944173177083329
 20
160.49718017578124
 30
0.0
 10
68.098168945312494
 20
160.49718017578124
 30
0.0
 10
68.232527669270823
 20
160.58089599609374
 30
0.0
 10
68.306597222222223
 20
160.70646972656249
 30
0.0
  0
LINE
  5
334
100
AcDbEntity
  8
レイヤー_2
 62
     7
100
AcDbLine
 10
60.008051
 20
160.49718
 30
0.0
 11
67.944173
 21
160.49718
 31
0.0
  0
LINE
  5
333
100
AcDbEntity
  8
レイヤー_2
 62
     7
100
AcDbLine
 10
66.684474
 20
221.024063
 30
0.0
 11
66.684474
 21
221.93908
 31
0.0
  0
LINE
  5
332
100
AcDbEntity
  8
レイヤー_2
 62
     7
100
AcDbLine
 10
61.671516
 20
221.93908
 30
0.0
 11
61.671516
 21
221.024063
 31
0.0
  0
LINE
  5
331
100
AcDbEntity
  8
レイヤー_2
 62
     7
100
AcDbLine
 10
61.88115
 20
220.177947
 30
0.0
 11
61.904404
 21
220.164511
 31
0.0
  0
LINE
  5
330
100
AcDbEntity
  8
レイヤー_2
 62
     7
100
AcDbLine
 10
66.452964
 20
220.164511
 30
0.0
 11
66.475873
 21
220.177947
 31
0.0
  0
SPLINE
  5
32F
100
AcDbEntity
  8
レイヤー_2
 62
     7
100
AcDbSpline
210
0.0
220
0.0
230
1.0
 70
     8
 71
     3
 72
    17
 73
    13
 74
     0
 42
0.00000001
 43
0.00000001
 40
0.0
 40
0.0
 40
0.0
 40
0.0
 40
1.0
 40
1.0
 40
1.0
 40
2.0
 40
2.0
 40
2.0
 40
3.0
 40
3.0
 40
3.0
 40
4.0
 40
4.0
 40
4.0
 40
4.0
 10
63.03422309027777
 20
220.26958685980901
 30
0.0
 10
63.118455674913186
 20
220.27423773871527
 30
0.0
 10
63.202860514322914
 20
220.27923312717013
 30
0.0
 10
63.292777506510411
 20
220.28388400607636
 30
0.0
 10
63.394580078124996
 20
220.28836263020833
 30
0.0
 10
63.50292833116319
 20
220.29197998046874
 30
0.0
 10
63.614549424913186
 20
220.29473605685763
 30
0.0
 10
63.726170518663189
 20
220.29783664279512
 30
0.0
 10
63.841236707899299
 20
220.29973144531249
 30
0.0
 10
63.956991916232631
 20
220.30024820963538
 30
0.0
 10
64.030200195312489
 20
220.30162624782983
 30
0.0
 10
64.104442003038187
 20
220.30162624782983
 30
0.0
 10
64.178167046440961
 20
220.30179850260416
 30
0.0
  0
SPLINE
  5
32E
100
AcDbEntity
  8
レイヤー_2
 62
     7
100
AcDbSpline
210
0.0
220
0.0
230
1.0
 70
     8
 71
     3
 72
    11
 73
     7
 74
     0
 42
0.00000001
 43
0.00000001
 40
0.0
 40
0.0
 40
0.0
 40
0.0
 40
1.0
 40
1.0
 40
1.0
 40
2.0
 40
2.0
 40
2.0
 40
2.0
 10
62.80822482638888
 20
220.25287814670136
 30
0.0
 10
62.868169487847219
 20
220.25770128038192
 30
0.0
 10
62.92931993272569
 20
220.26373019748263
 30
0.0
 10
63.003733995225687
 20
220.26803656684027
 30
0.0
 10
63.013897026909717
 20
220.26838107638886
 30
0.0
 10
63.024060058593747
 20
220.26941460503471
 30
0.0
 10
63.03422309027777
 20
220.26958685980901
 30
0.0
  0
LINE
  5
32D
100
AcDbEntity
  8
レイヤー_2
 62
     7
100
AcDbLine
 10
62.246502
 20
220.255806
 30
0.0
 11
62.246502
 21
220.212054
 31
0.0
  0
LINE
  5
32C
100
AcDbEntity
  8
レイヤー_2
 62
     7
100
AcDbLine
 10
66.110177
 20
220.212054
 30
0.0
 11
66.110177
 21
220.255806
 31
0.0
  0
LINE
  5
32B
100
AcDbEntity
  8
レイヤー_2
 62
     7
100
AcDbLine
 10
65.535707
 20
220.181048
 30
0.0
 11
65.535707
 21
220.249433
 31
0.0
  0
LINE
  5
32A
100
AcDbEntity
  8
レイヤー_2
 62
     7
100
AcDbLine
 10
62.820799
 20
220.249433
 30
0.0
 11
62.820799
 21
220.181048
 31
0.0
  0
LINE
  5
329
100
AcDbEntity
  8
レイヤー_2
 62
     7
100
AcDbLine
 10
65.181207
 20
220.181048
 30
0.0
 11
65.181207
 21
220.247711
 31
0.0
  0
LINE
  5
328
100
AcDbEntity
  8
レイヤー_2
 62
     7
100
AcDbLine
 10
63.176333
 20
220.247711
 30
0.0
 11
63.176333
 21
220.181048
 31
0.0
  0
LINE
  5
327
100
AcDbEntity
  8
レイヤー_2
 62
     7
100
AcDbLine
 10
64.80483
 20
220.181048
 30
0.0
 11
64.80483
 21
220.23772
 31
0.0
  0
LINE
  5
326
100
AcDbEntity
  8
レイヤー_2
 62
     7
100
AcDbLine
 10
63.552021
 20
220.23772
 30
0.0
 11
63.552021
 21
220.181048
 31
0.0
  0
LINE
  5
325
100
AcDbEntity
  8
レイヤー_2
 62
     7
100
AcDbLine
 10
63.342904
 20
160.49718
 30
0.0
 11
63.342904
 21
153.397183
 31
0.0
  0
LINE
  5
324
100
AcDbEntity
  8
レイヤー_2
 62
     7
100
AcDbLine
 10
65.01343
 20
153.397183
 30
0.0
 11
65.01343
 21
160.49718
 31
0.0
  0
LINE
  5
323
100
AcDbEntity
  8
レイヤー_2
 62
     7
100
AcDbLine
 10
69.384051
 20
160.70647
 30
0.0
 11
69.384051
 21
196.211796
 31
0.0
  0
LINE
  5
322
100
AcDbEntity
  8
レイヤー_2
 62
     7
100
AcDbLine
 10
58.973317
 20
196.211796
 30
0.0
 11
58.973317
 21
160.70647
 31
0.0
  0
SPLINE
  5
321
100
AcDbEntity
  8
レイヤー_2
 62
     7
100
AcDbSpline
210
0.0
220
0.0
230
1.0
 70
     8
 71
     3
 72
     8
 73
     4
 74
     0
 42
0.00000001
 43
0.00000001
 40
0.0
 40
0.0
 40
0.0
 40
0.0
 40
1.0
 40
1.0
 40
1.0
 40
1.0
 10
63.655718315972216
 20
130.06923556857637
 30
0.0
 10
63.655718315972216
 20
133.66591525607637
 30
0.0
 10
63.655718315972216
 20
134.07725965711805
 30
0.0
 10
63.655718315972216
 20
134.07725965711805
 30
0.0
  0
LINE
  5
320
100
AcDbEntity
  8
レイヤー_2
 62
     7
100
AcDbLine
 10
61.567474
 20
160.49718
 30
0.0
 11
61.567474
 21
153.397183
 31
0.0
  0
SPLINE
  5
31F
100
AcDbEntity
  8
レイヤー_2
 62
     7
100
AcDbSpline
210
0.0
220
0.0
230
1.0
 70
     8
 71
     3
 72
     8
 73
     4
 74
     0
 42
0.00000001
 43
0.00000001
 40
0.0
 40
0.0
 40
0.0
 40
0.0
 40
1.0
 40
1.0
 40
1.0
 40
1.0
 10
61.56747368706597
 20
142.28864474826386
 30
0.0
 10
61.56747368706597
 20
142.28864474826386
 30
0.0
 10
61.56747368706597
 20
142.99454481336804
 30
0.0
 10
61.56747368706597
 20
130.02754991319443
 30
0.0
  0
SPLINE
  5
31E
100
AcDbEntity
  8
レイヤー_2
 62
     7
100
AcDbSpline
210
0.0
220
0.0
230
1.0
 70
     8
 71
     3
 72
     8
 73
     4
 74
     0
 42
0.00000001
 43
0.00000001
 40
0.0
 40
0.0
 40
0.0
 40
0.0
 40
1.0
 40
1.0
 40
1.0
 40
1.0
 10
66.789032660590266
 20
129.41949055989582
 30
0.0
 10
66.789032660590266
 20
143.18953721788193
 30
0.0
 10
66.789032660590266
 20
142.27245279947914
 30
0.0
 10
66.789032660590266
 20
142.27245279947914
 30
0.0
  0
LINE
  5
31D
100
AcDbEntity
  8
レイヤー_2
 62
     7
100
AcDbLine
 10
66.789033
 20
153.397183
 30
0.0
 11
66.789033
 21
160.49718
 31
0.0
  0
SPLINE
  5
31C
100
AcDbEntity
  8
レイヤー_2
 62
     7
100
AcDbSpline
210
0.0
220
0.0
230
1.0
 70
     8
 71
     3
 72
     8
 73
     4
 74
     0
 42
0.00000001
 43
0.00000001
 40
0.0
 40
0.0
 40
0.0
 40
0.0
 40
1.0
 40
1.0
 40
1.0
 40
1.0
 10
64.700960286458326
 20
134.07725965711805
 30
0.0
 10
64.700960286458326
 20
134.07725965711805
 30
0.0
 10
64.700960286458326
 20
133.51708713107638
 30
0.0
 10
64.700960286458326
 20
129.11563313802083
 30
0.0
  0
LINE
  5
31B
100
AcDbEntity
  8
レイヤー_2
 62
     7
100
AcDbLine
 10
69.343399
 20
196.525127
 30
0.0
 11
69.343399
 21
225.637218
 31
0.0
  0
LINE
  5
31A
100
AcDbEntity
  8
レイヤー_2
 62
     7
100
AcDbLine
 10
59.013797
 20
225.637218
 30
0.0
 11
59.013797
 21
196.525127
 31
0.0
  0
SPLINE
  5
319
100
AcDbEntity
  8
レイヤー_2
 62
     7
100
AcDbSpline
210
0.0
220
0.0
230
1.0
 70
     8
 71
     3
 72
    11
 73
     7
 74
     0
 42
0.00000001
 43
0.00000001
 40
0.0
 40
0.0
 40
0.0
 40
0.0
 40
1.0
 40
1.0
 40
1.0
 40
2.0
 40
2.0
 40
2.0
 40
2.0
 10
69.132558865017359
 20
232.34154595269095
 30
0.0
 10
67.640143500434021
 20
232.37754720052081
 30
0.0
 10
66.147728135850684
 20
232.41475423177081
 30
0.0
 10
64.654796006944437
 20
232.41940511067708
 30
0.0
 10
62.844742838541663
 20
232.42474500868053
 30
0.0
 10
61.03434516059027
 20
232.38237033420137
 30
0.0
 10
59.22411973741319
 20
232.34068467881943
 30
0.0
  0
SPLINE
  5
318
100
AcDbEntity
  8
レイヤー_2
 62
     7
100
AcDbSpline
210
0.0
220
0.0
230
1.0
 70
     8
 71
     3
 72
     8
 73
     4
 74
     0
 42
0.00000001
 43
0.00000001
 40
0.0
 40
0.0
 40
0.0
 40
0.0
 40
1.0
 40
1.0
 40
1.0
 40
1.0
 10
59.22411973741319
 20
232.34171820746525
 30
0.0
 10
59.134202745225686
 20
232.33930664062498
 30
0.0
 10
59.06375054253472
 20
232.26730414496527
 30
0.0
 10
59.062027994791663
 20
232.17790391710068
 30
0.0
  0
SPLINE
  5
317
100
AcDbEntity
  8
レイヤー_2
 62
     7
100
AcDbSpline
210
0.0
220
0.0
230
1.0
 70
     8
 71
     3
 72
     8
 73
     4
 74
     0
 42
0.00000001
 43
0.00000001
 40
0.0
 40
0.0
 40
0.0
 40
0.0
 40
1.0
 40
1.0
 40
1.0
 40
1.0
 10
69.294995117187497
 20
232.17790391710068
 30
0.0
 10
69.293100314670127
 20
232.26730414496527
 30
0.0
 10
69.221786838107633
 20
232.33930664062498
 30
0.0
 10
69.13290337456597
 20
232.34171820746525
 30
0.0
  0
SPLINE
  5
316
100
AcDbEntity
  8
レイヤー_2
 62
     7
100
AcDbSpline
210
0.0
220
0.0
230
1.0
 70
     8
 71
     3
 72
    14
 73
    10
 74
     0
 42
0.00000001
 43
0.00000001
 40
0.0
 40
0.0
 40
0.0
 40
0.0
 40
1.0
 40
1.0
 40
1.0
 40
2.0
 40
2.0
 40
2.0
 40
3.0
 40
3.0
 40
3.0
 40
3.0
 10
68.847304958767353
 20
231.05755886501734
 30
0.0
 10
68.871592881944437
 20
231.0561808268229
 30
0.0
 10
68.895708550347223
 20
231.05428602430553
 30
0.0
 10
68.913278537326377
 20
231.05221896701386
 30
0.0
 10
68.93136528862847
 20
231.04946289062497
 30
0.0
 10
68.945490180121524
 20
231.04636230468748
 30
0.0
 10
68.945490180121524
 20
231.04636230468748
 30
0.0
 10
68.945490180121524
 20
231.04636230468748
 30
0.0
 10
68.945490180121524
 20
231.04636230468748
 30
0.0
 10
68.945490180121524
 20
231.04636230468748
 30
0.0
  0
SPLINE
  5
315
100
AcDbEntity
  8
レイヤー_2
 62
     7
100
AcDbSpline
210
0.0
220
0.0
230
1.0
 70
     8
 71
     3
 72
    14
 73
    10
 74
     0
 42
0.00000001
 43
0.00000001
 40
0.0
 40
0.0
 40
0.0
 40
0.0
 40
1.0
 40
1.0
 40
1.0
 40
2.0
 40
2.0
 40
2.0
 40
3.0
 40
3.0
 40
3.0
 40
3.0
 10
59.409810384114579
 20
231.04636230468748
 30
0.0
 10
59.409810384114579
 20
231.04636230468748
 30
0.0
 10
59.409810384114579
 20
231.04636230468748
 30
0.0
 10
59.409810384114579
 20
231.04636230468748
 30
0.0
 10
59.409810384114579
 20
231.04636230468748
 30
0.0
 10
59.418939887152774
 20
231.04860161675344
 30
0.0
 10
59.432720269097217
 20
231.05066867404511
 30
0.0
 10
59.443055555555553
 20
231.05221896701386
 30
0.0
 10
59.456146918402773
 20
231.05308024088541
 30
0.0
 10
59.46975504557291
 20
231.05428602430553
 30
0.0
  0
LINE
  5
314
100
AcDbEntity
  8
レイヤー_2
 62
     7
100
AcDbLine
 10
60.62145
 20
231.086153
 30
0.0
 11
67.735745
 21
231.086153
 31
0.0
  0
SPLINE
  5
313
100
AcDbEntity
  8
レイヤー_2
 62
     7
100
AcDbSpline
210
0.0
220
0.0
230
1.0
 70
     8
 71
     3
 72
     8
 73
     4
 74
     0
 42
0.00000001
 43
0.00000001
 40
0.0
 40
0.0
 40
0.0
 40
0.0
 40
1.0
 40
1.0
 40
1.0
 40
1.0
 10
60.136725531684021
 20
225.76468641493054
 30
0.0
 10
60.205971950954854
 20
225.76468641493054
 30
0.0
 10
60.262471516927079
 20
225.82084147135416
 30
0.0
 10
60.262471516927079
 20
225.89026014539928
 30
0.0
  0
SPLINE
  5
312
100
AcDbEntity
  8
レイヤー_2
 62
     7
100
AcDbSpline
210
0.0
220
0.0
230
1.0
 70
     8
 71
     3
 72
     8
 73
     4
 74
     0
 42
0.00000001
 43
0.00000001
 40
0.0
 40
0.0
 40
0.0
 40
0.0
 40
1.0
 40
1.0
 40
1.0
 40
1.0
 10
68.094034830729157
 20
225.89026014539928
 30
0.0
 10
68.094034830729157
 20
225.82084147135416
 30
0.0
 10
68.150534396701389
 20
225.76468641493054
 30
0.0
 10
68.219953070746527
 20
225.76468641493054
 30
0.0
  0
LINE
  5
311
100
AcDbEntity
  8
レイヤー_2
 62
     7
100
AcDbLine
 10
60.262472
 20
226.172241
 30
0.0
 11
60.262472
 21
225.89026
 31
0.0
  0
LINE
  5
310
100
AcDbEntity
  8
レイヤー_2
 62
     7
100
AcDbLine
 10
68.094035
 20
225.89026
 30
0.0
 11
68.094035
 21
226.172241
 31
0.0
  0
SPLINE
  5
30F
100
AcDbEntity
  8
レイヤー_2
 62
     7
100
AcDbSpline
210
0.0
220
0.0
230
1.0
 70
     8
 71
     3
 72
     8
 73
     4
 74
     0
 42
0.00000001
 43
0.00000001
 40
0.0
 40
0.0
 40
0.0
 40
0.0
 40
1.0
 40
1.0
 40
1.0
 40
1.0
 10
66.475873480902777
 20
220.39343804253471
 30
0.0
 10
64.867530653211801
 20
220.5825737847222
 30
0.0
 10
63.282097710503464
 20
220.57206624348956
 30
0.0
 10
61.88046061197916
 20
220.39343804253471
 30
0.0
  0
SPLINE
  5
30E
100
AcDbEntity
  8
レイヤー_2
 62
     7
100
AcDbSpline
210
0.0
220
0.0
230
1.0
 70
     8
 71
     3
 72
    11
 73
     7
 74
     0
 42
0.00000001
 43
0.00000001
 40
0.0
 40
0.0
 40
0.0
 40
0.0
 40
1.0
 40
1.0
 40
1.0
 40
2.0
 40
2.0
 40
2.0
 40
2.0
 10
66.475873480902777
 20
220.19121093749999
 30
0.0
 10
66.475873480902777
 20
220.19121093749999
 30
0.0
 10
66.475873480902777
 20
220.20774739583331
 30
0.0
 10
66.475873480902777
 20
220.21980523003469
 30
0.0
 10
66.475873480902777
 20
220.25563422309025
 30
0.0
 10
66.475873480902777
 20
220.32419162326386
 30
0.0
 10
66.475873480902777
 20
220.39343804253471
 30
0.0
  0
POLYLINE
  5
2FA
100
AcDbEntity
  8
レイヤー_2
 62
     7
100
AcDb2dPolyline
 66
     1
 10
0.0
 20
0.0
 30
0.0
  0
VERTEX
  5
2FB
100
AcDbEntity
  8
レイヤー_2
 62
     7
100
AcDbVertex
100
AcDb2dVertex
 10
66.475873
 20
220.191211
 30
0.0
  0
VERTEX
  5
2FC
100
AcDbEntity
  8
レイヤー_2
 62
     7
100
AcDbVertex
100
AcDb2dVertex
 10
66.436944
 20
220.225145
 30
0.0
  0
VERTEX
  5
2FD
100
AcDbEntity
  8
レイヤー_2
 62
     7
100
AcDbVertex
100
AcDb2dVertex
 10
66.320672
 20
220.258735
 30
0.0
  0
VERTEX
  5
2FE
100
AcDbEntity
  8
レイヤー_2
 62
     7
100
AcDbVertex
100
AcDb2dVertex
 10
66.131881
 20
220.289741
 30
0.0
  0
VERTEX
  5
2FF
100
AcDbEntity
  8
レイヤー_2
 62
     7
100
AcDbVertex
100
AcDb2dVertex
 10
65.876082
 20
220.317646
 30
0.0
  0
VERTEX
  5
300
100
AcDbEntity
  8
レイヤー_2
 62
     7
100
AcDbVertex
100
AcDb2dVertex
 10
65.562923
 20
220.341073
 30
0.0
  0
VERTEX
  5
301
100
AcDbEntity
  8
レイヤー_2
 62
     7
100
AcDbVertex
100
AcDb2dVertex
 10
65.202911
 20
220.358815
 30
0.0
  0
VERTEX
  5
302
100
AcDbEntity
  8
レイヤー_2
 62
     7
100
AcDbVertex
100
AcDb2dVertex
 10
64.807069
 20
220.371389
 30
0.0
  0
VERTEX
  5
303
100
AcDbEntity
  8
レイヤー_2
 62
     7
100
AcDbVertex
100
AcDb2dVertex
 10
64.390213
 20
220.377591
 30
0.0
  0
VERTEX
  5
304
100
AcDbEntity
  8
レイヤー_2
 62
     7
100
AcDbVertex
100
AcDb2dVertex
 10
63.966294
 20
220.377591
 30
0.0
  0
VERTEX
  5
305
100
AcDbEntity
  8
レイヤー_2
 62
     7
100
AcDbVertex
100
AcDb2dVertex
 10
63.549609
 20
220.371389
 30
0.0
  0
VERTEX
  5
306
100
AcDbEntity
  8
レイヤー_2
 62
     7
100
AcDbVertex
100
AcDb2dVertex
 10
63.15394
 20
220.358815
 30
0.0
  0
VERTEX
  5
307
100
AcDbEntity
  8
レイヤー_2
 62
     7
100
AcDbVertex
100
AcDb2dVertex
 10
62.793928
 20
220.341073
 30
0.0
  0
VERTEX
  5
308
100
AcDbEntity
  8
レイヤー_2
 62
     7
100
AcDbVertex
100
AcDb2dVertex
 10
62.479907
 20
220.317646
 30
0.0
  0
VERTEX
  5
309
100
AcDbEntity
  8
レイヤー_2
 62
     7
100
AcDbVertex
100
AcDb2dVertex
 10
62.225315
 20
220.289741
 30
0.0
  0
VERTEX
  5
30A
100
AcDbEntity
  8
レイヤー_2
 62
     7
100
AcDbVertex
100
AcDb2dVertex
 10
62.036007
 20
220.258735
 30
0.0
  0
VERTEX
  5
30B
100
AcDbEntity
  8
レイヤー_2
 62
     7
100
AcDbVertex
100
AcDb2dVertex
 10
61.920424
 20
220.225145
 30
0.0
  0
VERTEX
  5
30C
100
AcDbEntity
  8
レイヤー_2
 62
     7
100
AcDbVertex
100
AcDb2dVertex
 10
61.88115
 20
220.191211
 30
0.0
  0
SEQEND
  5
30D
100
AcDbEntity
  8
レイヤー_2
 62
     7
  0
SPLINE
  5
2F9
100
AcDbEntity
  8
レイヤー_2
 62
     7
100
AcDbSpline
210
0.0
220
0.0
230
1.0
 70
     8
 71
     3
 72
    11
 73
     7
 74
     0
 42
0.00000001
 43
0.00000001
 40
0.0
 40
0.0
 40
0.0
 40
0.0
 40
1.0
 40
1.0
 40
1.0
 40
2.0
 40
2.0
 40
2.0
 40
2.0
 10
61.881149631076383
 20
220.19121093749999
 30
0.0
 10
61.881149631076383
 20
220.19121093749999
 30
0.0
 10
61.881149631076383
 20
220.20774739583331
 30
0.0
 10
61.881149631076383
 20
220.21980523003469
 30
0.0
 10
61.881149631076383
 20
220.25563422309025
 30
0.0
 10
61.881149631076383
 20
220.32419162326386
 30
0.0
 10
61.881149631076383
 20
220.39343804253471
 30
0.0
  0
LINE
  5
2F8
100
AcDbEntity
  8
レイヤー_2
 62
     7
100
AcDbLine
 10
66.475873
 20
220.393438
 30
0.0
 11
66.475873
 21
221.105367
 31
0.0
  0
LINE
  5
2F7
100
AcDbEntity
  8
レイヤー_2
 62
     7
100
AcDbLine
 10
61.88115
 20
220.393438
 30
0.0
 11
61.88115
 21
221.105367
 31
0.0
  0
POLYLINE
  5
2EC
100
AcDbEntity
  8
レイヤー_2
 62
     7
100
AcDb2dPolyline
 66
     1
 10
0.0
 20
0.0
 30
0.0
  0
VERTEX
  5
2ED
100
AcDbEntity
  8
レイヤー_2
 62
     7
100
AcDbVertex
100
AcDb2dVertex
 10
61.88115
 20
220.942242
 30
0.0
  0
VERTEX
  5
2EE
100
AcDbEntity
  8
レイヤー_2
 62
     7
100
AcDbVertex
100
AcDb2dVertex
 10
61.790371
 20
220.96119
 30
0.0
  0
VERTEX
  5
2EF
100
AcDbEntity
  8
レイヤー_2
 62
     7
100
AcDbVertex
100
AcDb2dVertex
 10
61.725087
 20
220.982205
 30
0.0
  0
VERTEX
  5
2F0
100
AcDbEntity
  8
レイヤー_2
 62
     7
100
AcDbVertex
100
AcDb2dVertex
 10
61.685124
 20
221.002703
 30
0.0
  0
VERTEX
  5
2F1
100
AcDbEntity
  8
レイヤー_2
 62
     7
100
AcDbVertex
100
AcDb2dVertex
 10
61.671516
 20
221.024063
 30
0.0
  0
VERTEX
  5
2F2
100
AcDbEntity
  8
レイヤー_2
 62
     7
100
AcDbVertex
100
AcDb2dVertex
 10
61.685124
 20
221.044389
 30
0.0
  0
VERTEX
  5
2F3
100
AcDbEntity
  8
レイヤー_2
 62
     7
100
AcDbVertex
100
AcDb2dVertex
 10
61.725087
 20
221.065748
 30
0.0
  0
VERTEX
  5
2F4
100
AcDbEntity
  8
レイヤー_2
 62
     7
100
AcDbVertex
100
AcDb2dVertex
 10
61.790371
 20
221.085558
 30
0.0
  0
VERTEX
  5
2F5
100
AcDbEntity
  8
レイヤー_2
 62
     7
100
AcDbVertex
100
AcDb2dVertex
 10
61.88115
 20
221.105367
 30
0.0
  0
SEQEND
  5
2F6
100
AcDbEntity
  8
レイヤー_2
 62
     7
  0
POLYLINE
  5
2E1
100
AcDbEntity
  8
レイヤー_2
 62
     7
100
AcDb2dPolyline
 66
     1
 10
0.0
 20
0.0
 30
0.0
  0
VERTEX
  5
2E2
100
AcDbEntity
  8
レイヤー_2
 62
     7
100
AcDbVertex
100
AcDb2dVertex
 10
66.475873
 20
221.105367
 30
0.0
  0
VERTEX
  5
2E3
100
AcDbEntity
  8
レイヤー_2
 62
     7
100
AcDbVertex
100
AcDb2dVertex
 10
66.566307
 20
221.085558
 30
0.0
  0
VERTEX
  5
2E4
100
AcDbEntity
  8
レイヤー_2
 62
     7
100
AcDbVertex
100
AcDb2dVertex
 10
66.631764
 20
221.065748
 30
0.0
  0
VERTEX
  5
2E5
100
AcDbEntity
  8
レイヤー_2
 62
     7
100
AcDbVertex
100
AcDb2dVertex
 10
66.67121
 20
221.044389
 30
0.0
  0
VERTEX
  5
2E6
100
AcDbEntity
  8
レイヤー_2
 62
     7
100
AcDbVertex
100
AcDb2dVertex
 10
66.684474
 20
221.024063
 30
0.0
  0
VERTEX
  5
2E7
100
AcDbEntity
  8
レイヤー_2
 62
     7
100
AcDbVertex
100
AcDb2dVertex
 10
66.67121
 20
221.002703
 30
0.0
  0
VERTEX
  5
2E8
100
AcDbEntity
  8
レイヤー_2
 62
     7
100
AcDbVertex
100
AcDb2dVertex
 10
66.631764
 20
220.982205
 30
0.0
  0
VERTEX
  5
2E9
100
AcDbEntity
  8
レイヤー_2
 62
     7
100
AcDbVertex
100
AcDb2dVertex
 10
66.566307
 20
220.96119
 30
0.0
  0
VERTEX
  5
2EA
100
AcDbEntity
  8
レイヤー_2
 62
     7
100
AcDbVertex
100
AcDb2dVertex
 10
66.475873
 20
220.942242
 30
0.0
  0
SEQEND
  5
2EB
100
AcDbEntity
  8
レイヤー_2
 62
     7
  0
POLYLINE
  5
2C7
100
AcDbEntity
  8
レイヤー_2
 62
     7
100
AcDb2dPolyline
 66
     1
 10
0.0
 20
0.0
 30
0.0
  0
VERTEX
  5
2C8
100
AcDbEntity
  8
レイヤー_2
 62
     7
100
AcDbVertex
100
AcDb2dVertex
 10
65.950324
 20
220.100949
 30
0.0
  0
VERTEX
  5
2C9
100
AcDbEntity
  8
レイヤー_2
 62
     7
100
AcDbVertex
100
AcDb2dVertex
 10
66.077965
 20
220.120931
 30
0.0
  0
VERTEX
  5
2CA
100
AcDbEntity
  8
レイヤー_2
 62
     7
100
AcDbVertex
100
AcDb2dVertex
 10
66.207845
 20
220.151076
 30
0.0
  0
VERTEX
  5
2CB
100
AcDbEntity
  8
レイヤー_2
 62
     7
100
AcDbVertex
100
AcDb2dVertex
 10
66.264517
 20
220.183115
 30
0.0
  0
VERTEX
  5
2CC
100
AcDbEntity
  8
レイヤー_2
 62
     7
100
AcDbVertex
100
AcDb2dVertex
 10
66.246086
 20
220.215499
 30
0.0
  0
VERTEX
  5
2CD
100
AcDbEntity
  8
レイヤー_2
 62
     7
100
AcDbVertex
100
AcDb2dVertex
 10
66.152035
 20
220.246677
 30
0.0
  0
VERTEX
  5
2CE
100
AcDbEntity
  8
レイヤー_2
 62
     7
100
AcDbVertex
100
AcDb2dVertex
 10
65.986842
 20
220.276822
 30
0.0
  0
VERTEX
  5
2CF
100
AcDbEntity
  8
レイヤー_2
 62
     7
100
AcDbVertex
100
AcDb2dVertex
 10
65.756882
 20
220.302832
 30
0.0
  0
VERTEX
  5
2D0
100
AcDbEntity
  8
レイヤー_2
 62
     7
100
AcDbVertex
100
AcDb2dVertex
 10
65.469217
 20
220.325225
 30
0.0
  0
VERTEX
  5
2D1
100
AcDbEntity
  8
レイヤー_2
 62
     7
100
AcDbVertex
100
AcDb2dVertex
 10
65.135387
 20
220.342795
 30
0.0
  0
VERTEX
  5
2D2
100
AcDbEntity
  8
レイヤー_2
 62
     7
100
AcDbVertex
100
AcDb2dVertex
 10
64.766934
 20
220.354508
 30
0.0
  0
VERTEX
  5
2D3
100
AcDbEntity
  8
レイヤー_2
 62
     7
100
AcDbVertex
100
AcDb2dVertex
 10
64.376949
 20
220.36071
 30
0.0
  0
VERTEX
  5
2D4
100
AcDbEntity
  8
レイヤー_2
 62
     7
100
AcDbVertex
100
AcDb2dVertex
 10
63.97973
 20
220.36071
 30
0.0
  0
VERTEX
  5
2D5
100
AcDbEntity
  8
レイヤー_2
 62
     7
100
AcDbVertex
100
AcDb2dVertex
 10
63.589917
 20
220.354508
 30
0.0
  0
VERTEX
  5
2D6
100
AcDbEntity
  8
レイヤー_2
 62
     7
100
AcDbVertex
100
AcDb2dVertex
 10
63.221464
 20
220.342795
 30
0.0
  0
VERTEX
  5
2D7
100
AcDbEntity
  8
レイヤー_2
 62
     7
100
AcDbVertex
100
AcDb2dVertex
 10
62.887118
 20
220.325225
 30
0.0
  0
VERTEX
  5
2D8
100
AcDbEntity
  8
レイヤー_2
 62
     7
100
AcDbVertex
100
AcDb2dVertex
 10
62.599969
 20
220.302832
 30
0.0
  0
VERTEX
  5
2D9
100
AcDbEntity
  8
レイヤー_2
 62
     7
100
AcDbVertex
100
AcDb2dVertex
 10
62.369664
 20
220.276822
 30
0.0
  0
VERTEX
  5
2DA
100
AcDbEntity
  8
レイヤー_2
 62
     7
100
AcDbVertex
100
AcDb2dVertex
 10
62.2043
 20
220.246677
 30
0.0
  0
VERTEX
  5
2DB
100
AcDbEntity
  8
レイヤー_2
 62
     7
100
AcDbVertex
100
AcDb2dVertex
 10
62.111282
 20
220.215499
 30
0.0
  0
VERTEX
  5
2DC
100
AcDbEntity
  8
レイヤー_2
 62
     7
100
AcDbVertex
100
AcDb2dVertex
 10
62.092506
 20
220.183115
 30
0.0
  0
VERTEX
  5
2DD
100
AcDbEntity
  8
レイヤー_2
 62
     7
100
AcDbVertex
100
AcDb2dVertex
 10
62.148661
 20
220.151076
 30
0.0
  0
VERTEX
  5
2DE
100
AcDbEntity
  8
レイヤー_2
 62
     7
100
AcDbVertex
100
AcDb2dVertex
 10
62.278369
 20
220.120931
 30
0.0
  0
VERTEX
  5
2DF
100
AcDbEntity
  8
レイヤー_2
 62
     7
100
AcDbVertex
100
AcDb2dVertex
 10
62.406527
 20
220.100949
 30
0.0
  0
SEQEND
  5
2E0
100
AcDbEntity
  8
レイヤー_2
 62
     7
  0
SPLINE
  5
2C6
100
AcDbEntity
  8
レイヤー_2
 62
     7
100
AcDbSpline
210
0.0
220
0.0
230
1.0
 70
     8
 71
     3
 72
     8
 73
     4
 74
     0
 42
0.00000001
 43
0.00000001
 40
0.0
 40
0.0
 40
0.0
 40
0.0
 40
1.0
 40
1.0
 40
1.0
 40
1.0
 10
61.881149631076383
 20
220.19121093749999
 30
0.0
 10
62.286637369791663
 20
220.05237358940971
 30
0.0
 10
62.70091010199652
 20
220.00121392144095
 30
0.0
 10
63.081248643663187
 20
220.02653537326387
 30
0.0
  0
SPLINE
  5
2C5
100
AcDbEntity
  8
レイヤー_2
 62
     7
100
AcDbSpline
210
0.0
220
0.0
230
1.0
 70
     8
 71
     3
 72
     8
 73
     4
 74
     0
 42
0.00000001
 43
0.00000001
 40
0.0
 40
0.0
 40
0.0
 40
0.0
 40
1.0
 40
1.0
 40
1.0
 40
1.0
 10
65.30367974175347
 20
220.02774115668402
 30
0.0
 10
65.721914333767359
 20
220.00569254557288
 30
0.0
 10
66.12533501519097
 20
220.06735975477429
 30
0.0
 10
66.475873480902777
 20
220.19121093749999
 30
0.0
  0
POLYLINE
  5
2BC
100
AcDbEntity
  8
レイヤー_2
 62
     7
100
AcDb2dPolyline
 66
     1
 10
0.0
 20
0.0
 30
0.0
  0
VERTEX
  5
2BD
100
AcDbEntity
  8
レイヤー_2
 62
     7
100
AcDbVertex
100
AcDb2dVertex
 10
65.762394
 20
220.302488
 30
0.0
  0
VERTEX
  5
2BE
100
AcDbEntity
  8
レイヤー_2
 62
     7
100
AcDbVertex
100
AcDb2dVertex
 10
65.784787
 20
220.299387
 30
0.0
  0
VERTEX
  5
2BF
100
AcDbEntity
  8
レイヤー_2
 62
     7
100
AcDbVertex
100
AcDb2dVertex
 10
65.963416
 20
220.272171
 30
0.0
  0
VERTEX
  5
2C0
100
AcDbEntity
  8
レイヤー_2
 62
     7
100
AcDbVertex
100
AcDb2dVertex
 10
66.073142
 20
220.243232
 30
0.0
  0
VERTEX
  5
2C1
100
AcDbEntity
  8
レイヤー_2
 62
     7
100
AcDbVertex
100
AcDb2dVertex
 10
66.110177
 20
220.212054
 30
0.0
  0
VERTEX
  5
2C2
100
AcDbEntity
  8
レイヤー_2
 62
     7
100
AcDbVertex
100
AcDb2dVertex
 10
66.073142
 20
220.181737
 30
0.0
  0
VERTEX
  5
2C3
100
AcDbEntity
  8
レイヤー_2
 62
     7
100
AcDbVertex
100
AcDb2dVertex
 10
65.994766
 20
220.15831
 30
0.0
  0
SEQEND
  5
2C4
100
AcDbEntity
  8
レイヤー_2
 62
     7
  0
POLYLINE
  5
2B3
100
AcDbEntity
  8
レイヤー_2
 62
     7
100
AcDb2dPolyline
 66
     1
 10
0.0
 20
0.0
 30
0.0
  0
VERTEX
  5
2B4
100
AcDbEntity
  8
レイヤー_2
 62
     7
100
AcDbVertex
100
AcDb2dVertex
 10
62.36174
 20
220.15831
 30
0.0
  0
VERTEX
  5
2B5
100
AcDbEntity
  8
レイヤー_2
 62
     7
100
AcDbVertex
100
AcDb2dVertex
 10
62.283537
 20
220.181737
 30
0.0
  0
VERTEX
  5
2B6
100
AcDbEntity
  8
レイヤー_2
 62
     7
100
AcDbVertex
100
AcDb2dVertex
 10
62.246502
 20
220.212054
 30
0.0
  0
VERTEX
  5
2B7
100
AcDbEntity
  8
レイヤー_2
 62
     7
100
AcDbVertex
100
AcDb2dVertex
 10
62.283537
 20
220.243232
 30
0.0
  0
VERTEX
  5
2B8
100
AcDbEntity
  8
レイヤー_2
 62
     7
100
AcDbVertex
100
AcDb2dVertex
 10
62.393435
 20
220.272171
 30
0.0
  0
VERTEX
  5
2B9
100
AcDbEntity
  8
レイヤー_2
 62
     7
100
AcDbVertex
100
AcDb2dVertex
 10
62.572236
 20
220.299387
 30
0.0
  0
VERTEX
  5
2BA
100
AcDbEntity
  8
レイヤー_2
 62
     7
100
AcDbVertex
100
AcDb2dVertex
 10
62.594457
 20
220.302488
 30
0.0
  0
SEQEND
  5
2BB
100
AcDbEntity
  8
レイヤー_2
 62
     7
  0
POLYLINE
  5
2A0
100
AcDbEntity
  8
レイヤー_2
 62
     7
100
AcDb2dPolyline
 66
     1
 10
0.0
 20
0.0
 30
0.0
  0
VERTEX
  5
2A1
100
AcDbEntity
  8
レイヤー_2
 62
     7
100
AcDbVertex
100
AcDb2dVertex
 10
62.309375
 20
220.14763
 30
0.0
  0
VERTEX
  5
2A2
100
AcDbEntity
  8
レイヤー_2
 62
     7
100
AcDbVertex
100
AcDb2dVertex
 10
62.311442
 20
220.141946
 30
0.0
  0
VERTEX
  5
2A3
100
AcDbEntity
  8
レイヤー_2
 62
     7
100
AcDbVertex
100
AcDb2dVertex
 10
62.368803
 20
220.111112
 30
0.0
  0
VERTEX
  5
2A4
100
AcDbEntity
  8
レイヤー_2
 62
     7
100
AcDbVertex
100
AcDb2dVertex
 10
62.500578
 20
220.082518
 30
0.0
  0
VERTEX
  5
2A5
100
AcDbEntity
  8
レイヤー_2
 62
     7
100
AcDbVertex
100
AcDb2dVertex
 10
62.700566
 20
220.055991
 30
0.0
  0
VERTEX
  5
2A6
100
AcDbEntity
  8
レイヤー_2
 62
     7
100
AcDbVertex
100
AcDb2dVertex
 10
62.960843
 20
220.034287
 30
0.0
  0
VERTEX
  5
2A7
100
AcDbEntity
  8
レイヤー_2
 62
     7
100
AcDbVertex
100
AcDb2dVertex
 10
63.270901
 20
220.016545
 30
0.0
  0
VERTEX
  5
2A8
100
AcDbEntity
  8
レイヤー_2
 62
     7
100
AcDbVertex
100
AcDb2dVertex
 10
63.618511
 20
220.004142
 30
0.0
  0
VERTEX
  5
2A9
100
AcDbEntity
  8
レイヤー_2
 62
     7
100
AcDbVertex
100
AcDb2dVertex
 10
63.989204
 20
219.997941
 30
0.0
  0
VERTEX
  5
2AA
100
AcDbEntity
  8
レイヤー_2
 62
     7
100
AcDbVertex
100
AcDb2dVertex
 10
64.367303
 20
219.997941
 30
0.0
  0
VERTEX
  5
2AB
100
AcDbEntity
  8
レイヤー_2
 62
     7
100
AcDbVertex
100
AcDb2dVertex
 10
64.737823
 20
220.004142
 30
0.0
  0
VERTEX
  5
2AC
100
AcDbEntity
  8
レイヤー_2
 62
     7
100
AcDbVertex
100
AcDb2dVertex
 10
65.085433
 20
220.016545
 30
0.0
  0
VERTEX
  5
2AD
100
AcDbEntity
  8
レイヤー_2
 62
     7
100
AcDbVertex
100
AcDb2dVertex
 10
65.396008
 20
220.034287
 30
0.0
  0
VERTEX
  5
2AE
100
AcDbEntity
  8
レイヤー_2
 62
     7
100
AcDbVertex
100
AcDb2dVertex
 10
65.656974
 20
220.055991
 30
0.0
  0
VERTEX
  5
2AF
100
AcDbEntity
  8
レイヤー_2
 62
     7
100
AcDbVertex
100
AcDb2dVertex
 10
65.85679
 20
220.082518
 30
0.0
  0
VERTEX
  5
2B0
100
AcDbEntity
  8
レイヤー_2
 62
     7
100
AcDbVertex
100
AcDb2dVertex
 10
65.98822
 20
220.111112
 30
0.0
  0
VERTEX
  5
2B1
100
AcDbEntity
  8
レイヤー_2
 62
     7
100
AcDbVertex
100
AcDb2dVertex
 10
66.037141
 20
220.133506
 30
0.0
  0
SEQEND
  5
2B2
100
AcDbEntity
  8
レイヤー_2
 62
     7
  0
SPLINE
  5
29F
100
AcDbEntity
  8
レイヤー_2
 62
     7
100
AcDbSpline
210
0.0
220
0.0
230
1.0
 70
     8
 71
     3
 72
     8
 73
     4
 74
     0
 42
0.00000001
 43
0.00000001
 40
0.0
 40
0.0
 40
0.0
 40
0.0
 40
1.0
 40
1.0
 40
1.0
 40
1.0
 10
65.496949598524296
 20
220.25735677083333
 30
0.0
 10
65.034101019965277
 20
220.29129096137152
 30
0.0
 10
64.574353027343747
 20
220.30610487196179
 30
0.0
 10
64.178167046440961
 20
220.30179850260416
 30
0.0
  0
POLYLINE
  5
27D
100
AcDbEntity
  8
レイヤー_2
 62
     7
100
AcDb2dPolyline
 66
     1
 10
0.0
 20
0.0
 30
0.0
  0
VERTEX
  5
27E
100
AcDbEntity
  8
レイヤー_2
 62
     7
100
AcDbVertex
100
AcDb2dVertex
 10
64.178167
 20
220.298181
 30
0.0
  0
VERTEX
  5
27F
100
AcDbEntity
  8
レイヤー_2
 62
     7
100
AcDbVertex
100
AcDb2dVertex
 10
64.546275
 20
220.295597
 30
0.0
  0
VERTEX
  5
280
100
AcDbEntity
  8
レイヤー_2
 62
     7
100
AcDbVertex
100
AcDb2dVertex
 10
64.898709
 20
220.286296
 30
0.0
  0
VERTEX
  5
281
100
AcDbEntity
  8
レイヤー_2
 62
     7
100
AcDbVertex
100
AcDb2dVertex
 10
65.222203
 20
220.272171
 30
0.0
  0
VERTEX
  5
282
100
AcDbEntity
  8
レイヤー_2
 62
     7
100
AcDbVertex
100
AcDb2dVertex
 10
65.502806
 20
220.252878
 30
0.0
  0
VERTEX
  5
283
100
AcDbEntity
  8
レイヤー_2
 62
     7
100
AcDbVertex
100
AcDb2dVertex
 10
65.728977
 20
220.228246
 30
0.0
  0
VERTEX
  5
284
100
AcDbEntity
  8
レイヤー_2
 62
     7
100
AcDbVertex
100
AcDb2dVertex
 10
65.892102
 20
220.201374
 30
0.0
  0
VERTEX
  5
285
100
AcDbEntity
  8
レイヤー_2
 62
     7
100
AcDbVertex
100
AcDb2dVertex
 10
65.98512
 20
220.172435
 30
0.0
  0
VERTEX
  5
286
100
AcDbEntity
  8
レイヤー_2
 62
     7
100
AcDbVertex
100
AcDb2dVertex
 10
66.003723
 20
220.141946
 30
0.0
  0
VERTEX
  5
287
100
AcDbEntity
  8
レイヤー_2
 62
     7
100
AcDbVertex
100
AcDb2dVertex
 10
65.947568
 20
220.112318
 30
0.0
  0
VERTEX
  5
288
100
AcDbEntity
  8
レイヤー_2
 62
     7
100
AcDbVertex
100
AcDb2dVertex
 10
65.818722
 20
220.084068
 30
0.0
  0
VERTEX
  5
289
100
AcDbEntity
  8
レイヤー_2
 62
     7
100
AcDbVertex
100
AcDb2dVertex
 10
65.623557
 20
220.058058
 30
0.0
  0
VERTEX
  5
28A
100
AcDbEntity
  8
レイヤー_2
 62
     7
100
AcDbVertex
100
AcDb2dVertex
 10
65.368792
 20
220.036526
 30
0.0
  0
VERTEX
  5
28B
100
AcDbEntity
  8
レイヤー_2
 62
     7
100
AcDbVertex
100
AcDb2dVertex
 10
65.065624
 20
220.019301
 30
0.0
  0
VERTEX
  5
28C
100
AcDbEntity
  8
レイヤー_2
 62
     7
100
AcDbVertex
100
AcDb2dVertex
 10
64.725593
 20
220.007243
 30
0.0
  0
VERTEX
  5
28D
100
AcDbEntity
  8
レイヤー_2
 62
     7
100
AcDbVertex
100
AcDb2dVertex
 10
64.363169
 20
220.001214
 30
0.0
  0
VERTEX
  5
28E
100
AcDbEntity
  8
レイヤー_2
 62
     7
100
AcDbVertex
100
AcDb2dVertex
 10
63.993682
 20
220.001214
 30
0.0
  0
VERTEX
  5
28F
100
AcDbEntity
  8
レイヤー_2
 62
     7
100
AcDbVertex
100
AcDb2dVertex
 10
63.631086
 20
220.007243
 30
0.0
  0
VERTEX
  5
290
100
AcDbEntity
  8
レイヤー_2
 62
     7
100
AcDbVertex
100
AcDb2dVertex
 10
63.291572
 20
220.019301
 30
0.0
  0
VERTEX
  5
291
100
AcDbEntity
  8
レイヤー_2
 62
     7
100
AcDbVertex
100
AcDb2dVertex
 10
62.987887
 20
220.036526
 30
0.0
  0
VERTEX
  5
292
100
AcDbEntity
  8
レイヤー_2
 62
     7
100
AcDbVertex
100
AcDb2dVertex
 10
62.733122
 20
220.058058
 30
0.0
  0
VERTEX
  5
293
100
AcDbEntity
  8
レイヤー_2
 62
     7
100
AcDbVertex
100
AcDb2dVertex
 10
62.537957
 20
220.084068
 30
0.0
  0
VERTEX
  5
294
100
AcDbEntity
  8
レイヤー_2
 62
     7
100
AcDbVertex
100
AcDb2dVertex
 10
62.409111
 20
220.112318
 30
0.0
  0
VERTEX
  5
295
100
AcDbEntity
  8
レイヤー_2
 62
     7
100
AcDbVertex
100
AcDb2dVertex
 10
62.353128
 20
220.141946
 30
0.0
  0
VERTEX
  5
296
100
AcDbEntity
  8
レイヤー_2
 62
     7
100
AcDbVertex
100
AcDb2dVertex
 10
62.371903
 20
220.172435
 30
0.0
  0
VERTEX
  5
297
100
AcDbEntity
  8
レイヤー_2
 62
     7
100
AcDbVertex
100
AcDb2dVertex
 10
62.464232
 20
220.201374
 30
0.0
  0
VERTEX
  5
298
100
AcDbEntity
  8
レイヤー_2
 62
     7
100
AcDbVertex
100
AcDb2dVertex
 10
62.62753
 20
220.228246
 30
0.0
  0
VERTEX
  5
299
100
AcDbEntity
  8
レイヤー_2
 62
     7
100
AcDbVertex
100
AcDb2dVertex
 10
62.8537
 20
220.252878
 30
0.0
  0
VERTEX
  5
29A
100
AcDbEntity
  8
レイヤー_2
 62
     7
100
AcDbVertex
100
AcDb2dVertex
 10
63.134303
 20
220.272171
 30
0.0
  0
VERTEX
  5
29B
100
AcDbEntity
  8
レイヤー_2
 62
     7
100
AcDbVertex
100
AcDb2dVertex
 10
63.457281
 20
220.286296
 30
0.0
  0
VERTEX
  5
29C
100
AcDbEntity
  8
レイヤー_2
 62
     7
100
AcDbVertex
100
AcDb2dVertex
 10
63.810575
 20
220.295597
 30
0.0
  0
VERTEX
  5
29D
100
AcDbEntity
  8
レイヤー_2
 62
     7
100
AcDbVertex
100
AcDb2dVertex
 10
64.178167
 20
220.298181
 30
0.0
  0
SEQEND
  5
29E
100
AcDbEntity
  8
レイヤー_2
 62
     7
  0
POLYLINE
  5
26B
100
AcDbEntity
  8
レイヤー_2
 62
     7
100
AcDb2dPolyline
 66
     1
 10
0.0
 20
0.0
 30
0.0
  0
VERTEX
  5
26C
100
AcDbEntity
  8
レイヤー_2
 62
     7
100
AcDbVertex
100
AcDb2dVertex
 10
62.360707
 20
220.165028
 30
0.0
  0
VERTEX
  5
26D
100
AcDbEntity
  8
レイヤー_2
 62
     7
100
AcDbVertex
100
AcDb2dVertex
 10
62.434776
 20
220.136434
 30
0.0
  0
VERTEX
  5
26E
100
AcDbEntity
  8
レイヤー_2
 62
     7
100
AcDbVertex
100
AcDb2dVertex
 10
62.580332
 20
220.108701
 30
0.0
  0
VERTEX
  5
26F
100
AcDbEntity
  8
レイヤー_2
 62
     7
100
AcDbVertex
100
AcDb2dVertex
 10
62.791861
 20
220.084068
 30
0.0
  0
VERTEX
  5
270
100
AcDbEntity
  8
レイヤー_2
 62
     7
100
AcDbVertex
100
AcDb2dVertex
 10
63.060234
 20
220.062709
 30
0.0
  0
VERTEX
  5
271
100
AcDbEntity
  8
レイヤー_2
 62
     7
100
AcDbVertex
100
AcDb2dVertex
 10
63.373048
 20
220.047206
 30
0.0
  0
VERTEX
  5
272
100
AcDbEntity
  8
レイヤー_2
 62
     7
100
AcDbVertex
100
AcDb2dVertex
 10
63.720314
 20
220.036526
 30
0.0
  0
VERTEX
  5
273
100
AcDbEntity
  8
レイヤー_2
 62
     7
100
AcDbVertex
100
AcDb2dVertex
 10
64.085666
 20
220.031703
 30
0.0
  0
VERTEX
  5
274
100
AcDbEntity
  8
レイヤー_2
 62
     7
100
AcDbVertex
100
AcDb2dVertex
 10
64.455153
 20
220.033426
 30
0.0
  0
VERTEX
  5
275
100
AcDbEntity
  8
レイヤー_2
 62
     7
100
AcDbVertex
100
AcDb2dVertex
 10
64.812926
 20
220.041177
 30
0.0
  0
VERTEX
  5
276
100
AcDbEntity
  8
レイヤー_2
 62
     7
100
AcDbVertex
100
AcDb2dVertex
 10
65.145378
 20
220.054441
 30
0.0
  0
VERTEX
  5
277
100
AcDbEntity
  8
レイヤー_2
 62
     7
100
AcDbVertex
100
AcDb2dVertex
 10
65.437694
 20
220.073216
 30
0.0
  0
VERTEX
  5
278
100
AcDbEntity
  8
レイヤー_2
 62
     7
100
AcDbVertex
100
AcDb2dVertex
 10
65.678162
 20
220.09561
 30
0.0
  0
VERTEX
  5
279
100
AcDbEntity
  8
レイヤー_2
 62
     7
100
AcDbVertex
100
AcDb2dVertex
 10
65.857479
 20
220.122309
 30
0.0
  0
VERTEX
  5
27A
100
AcDbEntity
  8
レイヤー_2
 62
     7
100
AcDbVertex
100
AcDb2dVertex
 10
65.968411
 20
220.151076
 30
0.0
  0
VERTEX
  5
27B
100
AcDbEntity
  8
レイヤー_2
 62
     7
100
AcDbVertex
100
AcDb2dVertex
 10
65.995627
 20
220.165028
 30
0.0
  0
SEQEND
  5
27C
100
AcDbEntity
  8
レイヤー_2
 62
     7
  0
POLYLINE
  5
266
100
AcDbEntity
  8
レイヤー_2
 62
     7
100
AcDb2dPolyline
 66
     1
 10
0.0
 20
0.0
 30
0.0
  0
VERTEX
  5
267
100
AcDbEntity
  8
レイヤー_2
 62
     7
100
AcDbVertex
100
AcDb2dVertex
 10
65.849211
 20
220.181048
 30
0.0
  0
VERTEX
  5
268
100
AcDbEntity
  8
レイヤー_2
 62
     7
100
AcDbVertex
100
AcDb2dVertex
 10
65.810109
 20
220.209814
 30
0.0
  0
VERTEX
  5
269
100
AcDbEntity
  8
レイヤー_2
 62
     7
100
AcDbVertex
100
AcDb2dVertex
 10
65.76515
 20
220.223939
 30
0.0
  0
SEQEND
  5
26A
100
AcDbEntity
  8
レイヤー_2
 62
     7
  0
POLYLINE
  5
253
100
AcDbEntity
  8
レイヤー_2
 62
     7
100
AcDb2dPolyline
 66
     1
 10
0.0
 20
0.0
 30
0.0
  0
VERTEX
  5
254
100
AcDbEntity
  8
レイヤー_2
 62
     7
100
AcDbVertex
100
AcDb2dVertex
 10
62.592045
 20
220.223939
 30
0.0
  0
VERTEX
  5
255
100
AcDbEntity
  8
レイヤー_2
 62
     7
100
AcDbVertex
100
AcDb2dVertex
 10
62.516942
 20
220.195862
 30
0.0
  0
VERTEX
  5
256
100
AcDbEntity
  8
レイヤー_2
 62
     7
100
AcDbVertex
100
AcDb2dVertex
 10
62.516942
 20
220.166062
 30
0.0
  0
VERTEX
  5
257
100
AcDbEntity
  8
レイヤー_2
 62
     7
100
AcDbVertex
100
AcDb2dVertex
 10
62.595318
 20
220.137984
 30
0.0
  0
VERTEX
  5
258
100
AcDbEntity
  8
レイヤー_2
 62
     7
100
AcDbVertex
100
AcDb2dVertex
 10
62.746558
 20
220.110596
 30
0.0
  0
VERTEX
  5
259
100
AcDbEntity
  8
レイヤー_2
 62
     7
100
AcDbVertex
100
AcDb2dVertex
 10
62.965493
 20
220.086997
 30
0.0
  0
VERTEX
  5
25A
100
AcDbEntity
  8
レイヤー_2
 62
     7
100
AcDbVertex
100
AcDb2dVertex
 10
63.241101
 20
220.068049
 30
0.0
  0
VERTEX
  5
25B
100
AcDbEntity
  8
レイヤー_2
 62
     7
100
AcDbVertex
100
AcDb2dVertex
 10
63.560117
 20
220.054441
 30
0.0
  0
VERTEX
  5
25C
100
AcDbEntity
  8
レイヤー_2
 62
     7
100
AcDbVertex
100
AcDb2dVertex
 10
63.907899
 20
220.046
 30
0.0
  0
VERTEX
  5
25D
100
AcDbEntity
  8
レイヤー_2
 62
     7
100
AcDbVertex
100
AcDb2dVertex
 10
64.269118
 20
220.045311
 30
0.0
  0
VERTEX
  5
25E
100
AcDbEntity
  8
レイヤー_2
 62
     7
100
AcDbVertex
100
AcDb2dVertex
 10
64.625168
 20
220.04979
 30
0.0
  0
VERTEX
  5
25F
100
AcDbEntity
  8
レイヤー_2
 62
     7
100
AcDbVertex
100
AcDb2dVertex
 10
64.96072
 20
220.059953
 30
0.0
  0
VERTEX
  5
260
100
AcDbEntity
  8
レイヤー_2
 62
     7
100
AcDbVertex
100
AcDb2dVertex
 10
65.260099
 20
220.076834
 30
0.0
  0
VERTEX
  5
261
100
AcDbEntity
  8
レイヤー_2
 62
     7
100
AcDbVertex
100
AcDb2dVertex
 10
65.508146
 20
220.098538
 30
0.0
  0
VERTEX
  5
262
100
AcDbEntity
  8
レイヤー_2
 62
     7
100
AcDbVertex
100
AcDb2dVertex
 10
65.69487
 20
220.12317
 30
0.0
  0
VERTEX
  5
263
100
AcDbEntity
  8
レイヤー_2
 62
     7
100
AcDbVertex
100
AcDb2dVertex
 10
65.810109
 20
220.151592
 30
0.0
  0
VERTEX
  5
264
100
AcDbEntity
  8
レイヤー_2
 62
     7
100
AcDbVertex
100
AcDb2dVertex
 10
65.849211
 20
220.181048
 30
0.0
  0
SEQEND
  5
265
100
AcDbEntity
  8
レイヤー_2
 62
     7
  0
LINE
  5
252
100
AcDbEntity
  8
レイヤー_2
 62
     7
100
AcDbLine
 10
62.713657
 20
220.229451
 30
0.0
 11
62.713657
 21
220.238753
 31
0.0
  0
LINE
  5
251
100
AcDbEntity
  8
レイヤー_2
 62
     7
100
AcDbLine
 10
62.713657
 20
220.229451
 30
0.0
 11
62.750003
 21
220.224801
 31
0.0
  0
LINE
  5
250
100
AcDbEntity
  8
レイヤー_2
 62
     7
100
AcDbLine
 10
65.606676
 20
220.224801
 30
0.0
 11
65.643366
 21
220.229451
 31
0.0
  0
LINE
  5
24F
100
AcDbEntity
  8
レイヤー_2
 62
     7
100
AcDbLine
 10
65.643366
 20
220.238753
 30
0.0
 11
65.643366
 21
220.229451
 31
0.0
  0
POLYLINE
  5
231
100
AcDbEntity
  8
レイヤー_2
 62
     7
100
AcDb2dPolyline
 66
     1
 10
0.0
 20
0.0
 30
0.0
  0
VERTEX
  5
232
100
AcDbEntity
  8
レイヤー_2
 62
     7
100
AcDbVertex
100
AcDb2dVertex
 10
65.535707
 20
220.181048
 30
0.0
  0
VERTEX
  5
233
100
AcDbEntity
  8
レイヤー_2
 62
     7
100
AcDbVertex
100
AcDb2dVertex
 10
65.499533
 20
220.206369
 30
0.0
  0
VERTEX
  5
234
100
AcDbEntity
  8
レイヤー_2
 62
     7
100
AcDbVertex
100
AcDb2dVertex
 10
65.391702
 20
220.230485
 30
0.0
  0
VERTEX
  5
235
100
AcDbEntity
  8
レイヤー_2
 62
     7
100
AcDbVertex
100
AcDb2dVertex
 10
65.218241
 20
220.252189
 30
0.0
  0
VERTEX
  5
236
100
AcDbEntity
  8
レイヤー_2
 62
     7
100
AcDbVertex
100
AcDb2dVertex
 10
64.989315
 20
220.269587
 30
0.0
  0
VERTEX
  5
237
100
AcDbEntity
  8
レイヤー_2
 62
     7
100
AcDbVertex
100
AcDb2dVertex
 10
64.716291
 20
220.281989
 30
0.0
  0
VERTEX
  5
238
100
AcDbEntity
  8
レイヤー_2
 62
     7
100
AcDbVertex
100
AcDb2dVertex
 10
64.414501
 20
220.289741
 30
0.0
  0
VERTEX
  5
239
100
AcDbEntity
  8
レイヤー_2
 62
     7
100
AcDbVertex
100
AcDb2dVertex
 10
64.099274
 20
220.291291
 30
0.0
  0
VERTEX
  5
23A
100
AcDbEntity
  8
レイヤー_2
 62
     7
100
AcDbVertex
100
AcDb2dVertex
 10
63.788871
 20
220.286812
 30
0.0
  0
VERTEX
  5
23B
100
AcDbEntity
  8
レイヤー_2
 62
     7
100
AcDbVertex
100
AcDb2dVertex
 10
63.499655
 20
220.276822
 30
0.0
  0
VERTEX
  5
23C
100
AcDbEntity
  8
レイヤー_2
 62
     7
100
AcDbVertex
100
AcDb2dVertex
 10
63.246441
 20
220.261491
 30
0.0
  0
VERTEX
  5
23D
100
AcDbEntity
  8
レイヤー_2
 62
     7
100
AcDbVertex
100
AcDb2dVertex
 10
63.044214
 20
220.241682
 30
0.0
  0
VERTEX
  5
23E
100
AcDbEntity
  8
レイヤー_2
 62
     7
100
AcDbVertex
100
AcDb2dVertex
 10
62.90262
 20
220.218427
 30
0.0
  0
VERTEX
  5
23F
100
AcDbEntity
  8
レイヤー_2
 62
     7
100
AcDbVertex
100
AcDb2dVertex
 10
62.830446
 20
220.193623
 30
0.0
  0
VERTEX
  5
240
100
AcDbEntity
  8
レイヤー_2
 62
     7
100
AcDbVertex
100
AcDb2dVertex
 10
62.830446
 20
220.168129
 30
0.0
  0
VERTEX
  5
241
100
AcDbEntity
  8
レイヤー_2
 62
     7
100
AcDbVertex
100
AcDb2dVertex
 10
62.90262
 20
220.14298
 30
0.0
  0
VERTEX
  5
242
100
AcDbEntity
  8
レイヤー_2
 62
     7
100
AcDbVertex
100
AcDb2dVertex
 10
63.044214
 20
220.12007
 30
0.0
  0
VERTEX
  5
243
100
AcDbEntity
  8
レイヤー_2
 62
     7
100
AcDbVertex
100
AcDb2dVertex
 10
63.246441
 20
220.100088
 30
0.0
  0
VERTEX
  5
244
100
AcDbEntity
  8
レイヤー_2
 62
     7
100
AcDbVertex
100
AcDb2dVertex
 10
63.499655
 20
220.085274
 30
0.0
  0
VERTEX
  5
245
100
AcDbEntity
  8
レイヤー_2
 62
     7
100
AcDbVertex
100
AcDb2dVertex
 10
63.788871
 20
220.07425
 30
0.0
  0
VERTEX
  5
246
100
AcDbEntity
  8
レイヤー_2
 62
     7
100
AcDbVertex
100
AcDb2dVertex
 10
64.099274
 20
220.070288
 30
0.0
  0
VERTEX
  5
247
100
AcDbEntity
  8
レイヤー_2
 62
     7
100
AcDbVertex
100
AcDb2dVertex
 10
64.414501
 20
220.072011
 30
0.0
  0
VERTEX
  5
248
100
AcDbEntity
  8
レイヤー_2
 62
     7
100
AcDbVertex
100
AcDb2dVertex
 10
64.716291
 20
220.078556
 30
0.0
  0
VERTEX
  5
249
100
AcDbEntity
  8
レイヤー_2
 62
     7
100
AcDbVertex
100
AcDb2dVertex
 10
64.989315
 20
220.092337
 30
0.0
  0
VERTEX
  5
24A
100
AcDbEntity
  8
レイヤー_2
 62
     7
100
AcDbVertex
100
AcDb2dVertex
 10
65.218241
 20
220.110079
 30
0.0
  0
VERTEX
  5
24B
100
AcDbEntity
  8
レイヤー_2
 62
     7
100
AcDbVertex
100
AcDb2dVertex
 10
65.391702
 20
220.131266
 30
0.0
  0
VERTEX
  5
24C
100
AcDbEntity
  8
レイヤー_2
 62
     7
100
AcDbVertex
100
AcDb2dVertex
 10
65.499533
 20
220.155382
 30
0.0
  0
VERTEX
  5
24D
100
AcDbEntity
  8
レイヤー_2
 62
     7
100
AcDbVertex
100
AcDb2dVertex
 10
65.535707
 20
220.181048
 30
0.0
  0
SEQEND
  5
24E
100
AcDbEntity
  8
レイヤー_2
 62
     7
  0
POLYLINE
  5
214
100
AcDbEntity
  8
レイヤー_2
 62
     7
100
AcDb2dPolyline
 66
     1
 10
0.0
 20
0.0
 30
0.0
  0
VERTEX
  5
215
100
AcDbEntity
  8
レイヤー_2
 62
     7
100
AcDbVertex
100
AcDb2dVertex
 10
65.473351
 20
220.181048
 30
0.0
  0
VERTEX
  5
216
100
AcDbEntity
  8
レイヤー_2
 62
     7
100
AcDbVertex
100
AcDb2dVertex
 10
65.435799
 20
220.206369
 30
0.0
  0
VERTEX
  5
217
100
AcDbEntity
  8
レイヤー_2
 62
     7
100
AcDbVertex
100
AcDb2dVertex
 10
65.325212
 20
220.229451
 30
0.0
  0
VERTEX
  5
218
100
AcDbEntity
  8
レイヤー_2
 62
     7
100
AcDbVertex
100
AcDb2dVertex
 10
65.147789
 20
220.250983
 30
0.0
  0
VERTEX
  5
219
100
AcDbEntity
  8
レイヤー_2
 62
     7
100
AcDbVertex
100
AcDb2dVertex
 10
64.913867
 20
220.267692
 30
0.0
  0
VERTEX
  5
21A
100
AcDbEntity
  8
レイヤー_2
 62
     7
100
AcDbVertex
100
AcDb2dVertex
 10
64.637571
 20
220.280094
 30
0.0
  0
VERTEX
  5
21B
100
AcDbEntity
  8
レイヤー_2
 62
     7
100
AcDbVertex
100
AcDb2dVertex
 10
64.334402
 20
220.285607
 30
0.0
  0
VERTEX
  5
21C
100
AcDbEntity
  8
レイヤー_2
 62
     7
100
AcDbVertex
100
AcDb2dVertex
 10
64.021932
 20
220.285607
 30
0.0
  0
VERTEX
  5
21D
100
AcDbEntity
  8
レイヤー_2
 62
     7
100
AcDbVertex
100
AcDb2dVertex
 10
63.71928
 20
220.280094
 30
0.0
  0
VERTEX
  5
21E
100
AcDbEntity
  8
レイヤー_2
 62
     7
100
AcDbVertex
100
AcDb2dVertex
 10
63.442984
 20
220.267692
 30
0.0
  0
VERTEX
  5
21F
100
AcDbEntity
  8
レイヤー_2
 62
     7
100
AcDbVertex
100
AcDb2dVertex
 10
63.209234
 20
220.250983
 30
0.0
  0
VERTEX
  5
220
100
AcDbEntity
  8
レイヤー_2
 62
     7
100
AcDbVertex
100
AcDb2dVertex
 10
63.031984
 20
220.229451
 30
0.0
  0
VERTEX
  5
221
100
AcDbEntity
  8
レイヤー_2
 62
     7
100
AcDbVertex
100
AcDb2dVertex
 10
62.921052
 20
220.206369
 30
0.0
  0
VERTEX
  5
222
100
AcDbEntity
  8
レイヤー_2
 62
     7
100
AcDbVertex
100
AcDb2dVertex
 10
62.883328
 20
220.181048
 30
0.0
  0
VERTEX
  5
223
100
AcDbEntity
  8
レイヤー_2
 62
     7
100
AcDbVertex
100
AcDb2dVertex
 10
62.921052
 20
220.155382
 30
0.0
  0
VERTEX
  5
224
100
AcDbEntity
  8
レイヤー_2
 62
     7
100
AcDbVertex
100
AcDb2dVertex
 10
63.031984
 20
220.131783
 30
0.0
  0
VERTEX
  5
225
100
AcDbEntity
  8
レイヤー_2
 62
     7
100
AcDbVertex
100
AcDb2dVertex
 10
63.209234
 20
220.110596
 30
0.0
  0
VERTEX
  5
226
100
AcDbEntity
  8
レイヤー_2
 62
     7
100
AcDbVertex
100
AcDb2dVertex
 10
63.442984
 20
220.093542
 30
0.0
  0
VERTEX
  5
227
100
AcDbEntity
  8
レイヤー_2
 62
     7
100
AcDbVertex
100
AcDb2dVertex
 10
63.71928
 20
220.081657
 30
0.0
  0
VERTEX
  5
228
100
AcDbEntity
  8
レイヤー_2
 62
     7
100
AcDbVertex
100
AcDb2dVertex
 10
64.021932
 20
220.075972
 30
0.0
  0
VERTEX
  5
229
100
AcDbEntity
  8
レイヤー_2
 62
     7
100
AcDbVertex
100
AcDb2dVertex
 10
64.334402
 20
220.075972
 30
0.0
  0
VERTEX
  5
22A
100
AcDbEntity
  8
レイヤー_2
 62
     7
100
AcDbVertex
100
AcDb2dVertex
 10
64.637571
 20
220.081657
 30
0.0
  0
VERTEX
  5
22B
100
AcDbEntity
  8
レイヤー_2
 62
     7
100
AcDbVertex
100
AcDb2dVertex
 10
64.913867
 20
220.093542
 30
0.0
  0
VERTEX
  5
22C
100
AcDbEntity
  8
レイヤー_2
 62
     7
100
AcDbVertex
100
AcDb2dVertex
 10
65.147789
 20
220.110596
 30
0.0
  0
VERTEX
  5
22D
100
AcDbEntity
  8
レイヤー_2
 62
     7
100
AcDbVertex
100
AcDb2dVertex
 10
65.325212
 20
220.131783
 30
0.0
  0
VERTEX
  5
22E
100
AcDbEntity
  8
レイヤー_2
 62
     7
100
AcDbVertex
100
AcDb2dVertex
 10
65.435799
 20
220.155382
 30
0.0
  0
VERTEX
  5
22F
100
AcDbEntity
  8
レイヤー_2
 62
     7
100
AcDbVertex
100
AcDb2dVertex
 10
65.473351
 20
220.181048
 30
0.0
  0
SEQEND
  5
230
100
AcDbEntity
  8
レイヤー_2
 62
     7
  0
POLYLINE
  5
1FA
100
AcDbEntity
  8
レイヤー_2
 62
     7
100
AcDb2dPolyline
 66
     1
 10
0.0
 20
0.0
 30
0.0
  0
VERTEX
  5
1FB
100
AcDbEntity
  8
レイヤー_2
 62
     7
100
AcDbVertex
100
AcDb2dVertex
 10
65.181207
 20
220.181048
 30
0.0
  0
VERTEX
  5
1FC
100
AcDbEntity
  8
レイヤー_2
 62
     7
100
AcDbVertex
100
AcDb2dVertex
 10
65.144172
 20
220.202924
 30
0.0
  0
VERTEX
  5
1FD
100
AcDbEntity
  8
レイヤー_2
 62
     7
100
AcDbVertex
100
AcDb2dVertex
 10
65.034618
 20
220.223423
 30
0.0
  0
VERTEX
  5
1FE
100
AcDbEntity
  8
レイヤー_2
 62
     7
100
AcDbVertex
100
AcDb2dVertex
 10
64.862535
 20
220.240304
 30
0.0
  0
VERTEX
  5
1FF
100
AcDbEntity
  8
レイヤー_2
 62
     7
100
AcDbVertex
100
AcDb2dVertex
 10
64.639121
 20
220.253567
 30
0.0
  0
VERTEX
  5
200
100
AcDbEntity
  8
レイヤー_2
 62
     7
100
AcDbVertex
100
AcDb2dVertex
 10
64.382289
 20
220.260802
 30
0.0
  0
VERTEX
  5
201
100
AcDbEntity
  8
レイヤー_2
 62
     7
100
AcDbVertex
100
AcDb2dVertex
 10
64.110126
 20
220.26218
 30
0.0
  0
VERTEX
  5
202
100
AcDbEntity
  8
レイヤー_2
 62
     7
100
AcDbVertex
100
AcDb2dVertex
 10
63.842959
 20
220.257701
 30
0.0
  0
VERTEX
  5
203
100
AcDbEntity
  8
レイヤー_2
 62
     7
100
AcDbVertex
100
AcDb2dVertex
 10
63.600252
 20
220.247711
 30
0.0
  0
VERTEX
  5
204
100
AcDbEntity
  8
レイヤー_2
 62
     7
100
AcDbVertex
100
AcDb2dVertex
 10
63.400781
 20
220.232897
 30
0.0
  0
VERTEX
  5
205
100
AcDbEntity
  8
レイヤー_2
 62
     7
100
AcDbVertex
100
AcDb2dVertex
 10
63.258671
 20
220.213604
 30
0.0
  0
VERTEX
  5
206
100
AcDbEntity
  8
レイヤー_2
 62
     7
100
AcDbVertex
100
AcDb2dVertex
 10
63.185118
 20
220.1919
 30
0.0
  0
VERTEX
  5
207
100
AcDbEntity
  8
レイヤー_2
 62
     7
100
AcDbVertex
100
AcDb2dVertex
 10
63.185118
 20
220.169507
 30
0.0
  0
VERTEX
  5
208
100
AcDbEntity
  8
レイヤー_2
 62
     7
100
AcDbVertex
100
AcDb2dVertex
 10
63.258671
 20
220.147975
 30
0.0
  0
VERTEX
  5
209
100
AcDbEntity
  8
レイヤー_2
 62
     7
100
AcDbVertex
100
AcDb2dVertex
 10
63.400781
 20
220.129199
 30
0.0
  0
VERTEX
  5
20A
100
AcDbEntity
  8
レイヤー_2
 62
     7
100
AcDbVertex
100
AcDb2dVertex
 10
63.600252
 20
220.113869
 30
0.0
  0
VERTEX
  5
20B
100
AcDbEntity
  8
レイヤー_2
 62
     7
100
AcDbVertex
100
AcDb2dVertex
 10
63.842959
 20
220.103189
 30
0.0
  0
VERTEX
  5
20C
100
AcDbEntity
  8
レイヤー_2
 62
     7
100
AcDbVertex
100
AcDb2dVertex
 10
64.110126
 20
220.099571
 30
0.0
  0
VERTEX
  5
20D
100
AcDbEntity
  8
レイヤー_2
 62
     7
100
AcDbVertex
100
AcDb2dVertex
 10
64.382289
 20
220.100605
 30
0.0
  0
VERTEX
  5
20E
100
AcDbEntity
  8
レイヤー_2
 62
     7
100
AcDbVertex
100
AcDb2dVertex
 10
64.639121
 20
220.10784
 30
0.0
  0
VERTEX
  5
20F
100
AcDbEntity
  8
レイヤー_2
 62
     7
100
AcDbVertex
100
AcDb2dVertex
 10
64.862535
 20
220.121275
 30
0.0
  0
VERTEX
  5
210
100
AcDbEntity
  8
レイヤー_2
 62
     7
100
AcDbVertex
100
AcDb2dVertex
 10
65.034618
 20
220.138501
 30
0.0
  0
VERTEX
  5
211
100
AcDbEntity
  8
レイヤー_2
 62
     7
100
AcDbVertex
100
AcDb2dVertex
 10
65.144172
 20
220.158827
 30
0.0
  0
VERTEX
  5
212
100
AcDbEntity
  8
レイヤー_2
 62
     7
100
AcDbVertex
100
AcDb2dVertex
 10
65.181207
 20
220.181048
 30
0.0
  0
SEQEND
  5
213
100
AcDbEntity
  8
レイヤー_2
 62
     7
  0
POLYLINE
  5
1E1
100
AcDbEntity
  8
レイヤー_2
 62
     7
100
AcDb2dPolyline
 66
     1
 10
0.0
 20
0.0
 30
0.0
  0
VERTEX
  5
1E2
100
AcDbEntity
  8
レイヤー_2
 62
     7
100
AcDbVertex
100
AcDb2dVertex
 10
65.118506
 20
220.181048
 30
0.0
  0
VERTEX
  5
1E3
100
AcDbEntity
  8
レイヤー_2
 62
     7
100
AcDbVertex
100
AcDb2dVertex
 10
65.080093
 20
220.202235
 30
0.0
  0
VERTEX
  5
1E4
100
AcDbEntity
  8
レイヤー_2
 62
     7
100
AcDbVertex
100
AcDb2dVertex
 10
64.969333
 20
220.222217
 30
0.0
  0
VERTEX
  5
1E5
100
AcDbEntity
  8
レイヤー_2
 62
     7
100
AcDbVertex
100
AcDb2dVertex
 10
64.793806
 20
220.238753
 30
0.0
  0
VERTEX
  5
1E6
100
AcDbEntity
  8
レイヤー_2
 62
     7
100
AcDbVertex
100
AcDb2dVertex
 10
64.569013
 20
220.250639
 30
0.0
  0
VERTEX
  5
1E7
100
AcDbEntity
  8
レイヤー_2
 62
     7
100
AcDbVertex
100
AcDb2dVertex
 10
64.311664
 20
220.256495
 30
0.0
  0
VERTEX
  5
1E8
100
AcDbEntity
  8
レイヤー_2
 62
     7
100
AcDbVertex
100
AcDb2dVertex
 10
64.045014
 20
220.256495
 30
0.0
  0
VERTEX
  5
1E9
100
AcDbEntity
  8
レイヤー_2
 62
     7
100
AcDbVertex
100
AcDb2dVertex
 10
63.788182
 20
220.250639
 30
0.0
  0
VERTEX
  5
1EA
100
AcDbEntity
  8
レイヤー_2
 62
     7
100
AcDbVertex
100
AcDb2dVertex
 10
63.562873
 20
220.238753
 30
0.0
  0
VERTEX
  5
1EB
100
AcDbEntity
  8
レイヤー_2
 62
     7
100
AcDbVertex
100
AcDb2dVertex
 10
63.387173
 20
220.222217
 30
0.0
  0
VERTEX
  5
1EC
100
AcDbEntity
  8
レイヤー_2
 62
     7
100
AcDbVertex
100
AcDb2dVertex
 10
63.276586
 20
220.202235
 30
0.0
  0
VERTEX
  5
1ED
100
AcDbEntity
  8
レイヤー_2
 62
     7
100
AcDbVertex
100
AcDb2dVertex
 10
63.238345
 20
220.181048
 30
0.0
  0
VERTEX
  5
1EE
100
AcDbEntity
  8
レイヤー_2
 62
     7
100
AcDbVertex
100
AcDb2dVertex
 10
63.276586
 20
220.158827
 30
0.0
  0
VERTEX
  5
1EF
100
AcDbEntity
  8
レイヤー_2
 62
     7
100
AcDbVertex
100
AcDb2dVertex
 10
63.387173
 20
220.139535
 30
0.0
  0
VERTEX
  5
1F0
100
AcDbEntity
  8
レイヤー_2
 62
     7
100
AcDbVertex
100
AcDb2dVertex
 10
63.562873
 20
220.122826
 30
0.0
  0
VERTEX
  5
1F1
100
AcDbEntity
  8
レイヤー_2
 62
     7
100
AcDbVertex
100
AcDb2dVertex
 10
63.788182
 20
220.111112
 30
0.0
  0
VERTEX
  5
1F2
100
AcDbEntity
  8
レイヤー_2
 62
     7
100
AcDbVertex
100
AcDb2dVertex
 10
64.045014
 20
220.105428
 30
0.0
  0
VERTEX
  5
1F3
100
AcDbEntity
  8
レイヤー_2
 62
     7
100
AcDbVertex
100
AcDb2dVertex
 10
64.311664
 20
220.105428
 30
0.0
  0
VERTEX
  5
1F4
100
AcDbEntity
  8
レイヤー_2
 62
     7
100
AcDbVertex
100
AcDb2dVertex
 10
64.569013
 20
220.111112
 30
0.0
  0
VERTEX
  5
1F5
100
AcDbEntity
  8
レイヤー_2
 62
     7
100
AcDbVertex
100
AcDb2dVertex
 10
64.793806
 20
220.122826
 30
0.0
  0
VERTEX
  5
1F6
100
AcDbEntity
  8
レイヤー_2
 62
     7
100
AcDbVertex
100
AcDb2dVertex
 10
64.969333
 20
220.139535
 30
0.0
  0
VERTEX
  5
1F7
100
AcDbEntity
  8
レイヤー_2
 62
     7
100
AcDbVertex
100
AcDb2dVertex
 10
65.080093
 20
220.158827
 30
0.0
  0
VERTEX
  5
1F8
100
AcDbEntity
  8
レイヤー_2
 62
     7
100
AcDbVertex
100
AcDb2dVertex
 10
65.118506
 20
220.181048
 30
0.0
  0
SEQEND
  5
1F9
100
AcDbEntity
  8
レイヤー_2
 62
     7
  0
POLYLINE
  5
1CC
100
AcDbEntity
  8
レイヤー_2
 62
     7
100
AcDb2dPolyline
 66
     1
 10
0.0
 20
0.0
 30
0.0
  0
VERTEX
  5
1CD
100
AcDbEntity
  8
レイヤー_2
 62
     7
100
AcDbVertex
100
AcDb2dVertex
 10
64.80483
 20
220.181048
 30
0.0
  0
VERTEX
  5
1CE
100
AcDbEntity
  8
レイヤー_2
 62
     7
100
AcDbVertex
100
AcDb2dVertex
 10
64.767278
 20
220.198618
 30
0.0
  0
VERTEX
  5
1CF
100
AcDbEntity
  8
レイヤー_2
 62
     7
100
AcDbVertex
100
AcDb2dVertex
 10
64.658758
 20
220.213604
 30
0.0
  0
VERTEX
  5
1D0
100
AcDbEntity
  8
レイヤー_2
 62
     7
100
AcDbVertex
100
AcDb2dVertex
 10
64.491843
 20
220.225145
 30
0.0
  0
VERTEX
  5
1D1
100
AcDbEntity
  8
レイヤー_2
 62
     7
100
AcDbVertex
100
AcDb2dVertex
 10
64.28686
 20
220.231174
 30
0.0
  0
VERTEX
  5
1D2
100
AcDbEntity
  8
レイヤー_2
 62
     7
100
AcDbVertex
100
AcDb2dVertex
 10
64.069647
 20
220.231174
 30
0.0
  0
VERTEX
  5
1D3
100
AcDbEntity
  8
レイヤー_2
 62
     7
100
AcDbVertex
100
AcDb2dVertex
 10
63.865008
 20
220.225145
 30
0.0
  0
VERTEX
  5
1D4
100
AcDbEntity
  8
レイヤー_2
 62
     7
100
AcDbVertex
100
AcDb2dVertex
 10
63.698093
 20
220.213604
 30
0.0
  0
VERTEX
  5
1D5
100
AcDbEntity
  8
レイヤー_2
 62
     7
100
AcDbVertex
100
AcDb2dVertex
 10
63.589572
 20
220.198618
 30
0.0
  0
VERTEX
  5
1D6
100
AcDbEntity
  8
レイヤー_2
 62
     7
100
AcDbVertex
100
AcDb2dVertex
 10
63.552021
 20
220.181048
 30
0.0
  0
VERTEX
  5
1D7
100
AcDbEntity
  8
レイヤー_2
 62
     7
100
AcDbVertex
100
AcDb2dVertex
 10
63.589572
 20
220.163306
 30
0.0
  0
VERTEX
  5
1D8
100
AcDbEntity
  8
レイヤー_2
 62
     7
100
AcDbVertex
100
AcDb2dVertex
 10
63.698093
 20
220.147975
 30
0.0
  0
VERTEX
  5
1D9
100
AcDbEntity
  8
レイヤー_2
 62
     7
100
AcDbVertex
100
AcDb2dVertex
 10
63.865008
 20
220.136434
 30
0.0
  0
VERTEX
  5
1DA
100
AcDbEntity
  8
レイヤー_2
 62
     7
100
AcDbVertex
100
AcDb2dVertex
 10
64.069647
 20
220.130577
 30
0.0
  0
VERTEX
  5
1DB
100
AcDbEntity
  8
レイヤー_2
 62
     7
100
AcDbVertex
100
AcDb2dVertex
 10
64.28686
 20
220.130577
 30
0.0
  0
VERTEX
  5
1DC
100
AcDbEntity
  8
レイヤー_2
 62
     7
100
AcDbVertex
100
AcDb2dVertex
 10
64.491843
 20
220.136434
 30
0.0
  0
VERTEX
  5
1DD
100
AcDbEntity
  8
レイヤー_2
 62
     7
100
AcDbVertex
100
AcDb2dVertex
 10
64.658758
 20
220.147975
 30
0.0
  0
VERTEX
  5
1DE
100
AcDbEntity
  8
レイヤー_2
 62
     7
100
AcDbVertex
100
AcDb2dVertex
 10
64.767278
 20
220.163306
 30
0.0
  0
VERTEX
  5
1DF
100
AcDbEntity
  8
レイヤー_2
 62
     7
100
AcDbVertex
100
AcDb2dVertex
 10
64.80483
 20
220.181048
 30
0.0
  0
SEQEND
  5
1E0
100
AcDbEntity
  8
レイヤー_2
 62
     7
  0
POLYLINE
  5
1B8
100
AcDbEntity
  8
レイヤー_2
 62
     7
100
AcDb2dPolyline
 66
     1
 10
0.0
 20
0.0
 30
0.0
  0
VERTEX
  5
1B9
100
AcDbEntity
  8
レイヤー_2
 62
     7
100
AcDbVertex
100
AcDb2dVertex
 10
64.742301
 20
220.181048
 30
0.0
  0
VERTEX
  5
1BA
100
AcDbEntity
  8
レイヤー_2
 62
     7
100
AcDbVertex
100
AcDb2dVertex
 10
64.704061
 20
220.19724
 30
0.0
  0
VERTEX
  5
1BB
100
AcDbEntity
  8
レイヤー_2
 62
     7
100
AcDbVertex
100
AcDb2dVertex
 10
64.595196
 20
220.212054
 30
0.0
  0
VERTEX
  5
1BC
100
AcDbEntity
  8
レイヤー_2
 62
     7
100
AcDbVertex
100
AcDb2dVertex
 10
64.429831
 20
220.221872
 30
0.0
  0
VERTEX
  5
1BD
100
AcDbEntity
  8
レイヤー_2
 62
     7
100
AcDbVertex
100
AcDb2dVertex
 10
64.230532
 20
220.226868
 30
0.0
  0
VERTEX
  5
1BE
100
AcDbEntity
  8
レイヤー_2
 62
     7
100
AcDbVertex
100
AcDb2dVertex
 10
64.023827
 20
220.225145
 30
0.0
  0
VERTEX
  5
1BF
100
AcDbEntity
  8
レイヤー_2
 62
     7
100
AcDbVertex
100
AcDb2dVertex
 10
63.838481
 20
220.217566
 30
0.0
  0
VERTEX
  5
1C0
100
AcDbEntity
  8
レイヤー_2
 62
     7
100
AcDbVertex
100
AcDb2dVertex
 10
63.699127
 20
220.204991
 30
0.0
  0
VERTEX
  5
1C1
100
AcDbEntity
  8
レイヤー_2
 62
     7
100
AcDbVertex
100
AcDb2dVertex
 10
63.623851
 20
220.189144
 30
0.0
  0
VERTEX
  5
1C2
100
AcDbEntity
  8
レイヤー_2
 62
     7
100
AcDbVertex
100
AcDb2dVertex
 10
63.623851
 20
220.172435
 30
0.0
  0
VERTEX
  5
1C3
100
AcDbEntity
  8
レイヤー_2
 62
     7
100
AcDbVertex
100
AcDb2dVertex
 10
63.699127
 20
220.15676
 30
0.0
  0
VERTEX
  5
1C4
100
AcDbEntity
  8
レイヤー_2
 62
     7
100
AcDbVertex
100
AcDb2dVertex
 10
63.838481
 20
220.144358
 30
0.0
  0
VERTEX
  5
1C5
100
AcDbEntity
  8
レイヤー_2
 62
     7
100
AcDbVertex
100
AcDb2dVertex
 10
64.023827
 20
220.136434
 30
0.0
  0
VERTEX
  5
1C6
100
AcDbEntity
  8
レイヤー_2
 62
     7
100
AcDbVertex
100
AcDb2dVertex
 10
64.230532
 20
220.135056
 30
0.0
  0
VERTEX
  5
1C7
100
AcDbEntity
  8
レイヤー_2
 62
     7
100
AcDbVertex
100
AcDb2dVertex
 10
64.429831
 20
220.139879
 30
0.0
  0
VERTEX
  5
1C8
100
AcDbEntity
  8
レイヤー_2
 62
     7
100
AcDbVertex
100
AcDb2dVertex
 10
64.595196
 20
220.149525
 30
0.0
  0
VERTEX
  5
1C9
100
AcDbEntity
  8
レイヤー_2
 62
     7
100
AcDbVertex
100
AcDb2dVertex
 10
64.704061
 20
220.164339
 30
0.0
  0
VERTEX
  5
1CA
100
AcDbEntity
  8
レイヤー_2
 62
     7
100
AcDbVertex
100
AcDb2dVertex
 10
64.742301
 20
220.181048
 30
0.0
  0
SEQEND
  5
1CB
100
AcDbEntity
  8
レイヤー_2
 62
     7
  0
LINE
  5
1B7
100
AcDbEntity
  8
レイヤー_2
 62
     7
100
AcDbLine
 10
65.23185
 20
220.242371
 30
0.0
 11
65.181207
 21
220.24461
 31
0.0
  0
LINE
  5
1B6
100
AcDbEntity
  8
レイヤー_2
 62
     7
100
AcDbLine
 10
63.176333
 20
220.24461
 30
0.0
 11
63.125346
 21
220.242371
 31
0.0
  0
LINE
  5
1B5
100
AcDbEntity
  8
レイヤー_2
 62
     7
100
AcDbLine
 10
65.606676
 20
220.224801
 30
0.0
 11
65.535707
 21
220.227729
 31
0.0
  0
LINE
  5
1B4
100
AcDbEntity
  8
レイヤー_2
 62
     7
100
AcDbLine
 10
65.535707
 20
220.235136
 30
0.0
 11
65.643366
 21
220.229451
 31
0.0
  0
LINE
  5
1B3
100
AcDbEntity
  8
レイヤー_2
 62
     7
100
AcDbLine
 10
62.713657
 20
220.229451
 30
0.0
 11
62.820799
 21
220.235136
 31
0.0
  0
LINE
  5
1B2
100
AcDbEntity
  8
レイヤー_2
 62
     7
100
AcDbLine
 10
62.820799
 20
220.227729
 30
0.0
 11
62.750003
 21
220.224801
 31
0.0
  0
LINE
  5
1B1
100
AcDbEntity
  8
レイヤー_2
 62
     7
100
AcDbLine
 10
60.047498
 20
196.211796
 30
0.0
 11
68.309353
 21
196.211796
 31
0.0
  0
LINE
  5
1B0
100
AcDbEntity
  8
レイヤー_2
 62
     7
100
AcDbLine
 10
60.047498
 20
160.70647
 30
0.0
 11
68.309353
 21
160.70647
 31
0.0
  0
LINE
  5
1AF
100
AcDbEntity
  8
レイヤー_2
 62
     7
100
AcDbLine
 10
59.882994
 20
160.70647
 30
0.0
 11
59.882994
 21
196.211796
 31
0.0
  0
LINE
  5
1AE
100
AcDbEntity
  8
レイヤー_2
 62
     7
100
AcDbLine
 10
60.047498
 20
160.70647
 30
0.0
 11
59.882994
 21
160.70647
 31
0.0
  0
LINE
  5
1AD
100
AcDbEntity
  8
レイヤー_2
 62
     7
100
AcDbLine
 10
59.882994
 20
196.211796
 30
0.0
 11
60.047498
 21
196.211796
 31
0.0
  0
LINE
  5
1AC
100
AcDbEntity
  8
レイヤー_2
 62
     7
100
AcDbLine
 10
68.473857
 20
196.211796
 30
0.0
 11
68.473857
 21
160.70647
 31
0.0
  0
LINE
  5
1AB
100
AcDbEntity
  8
レイヤー_2
 62
     7
100
AcDbLine
 10
68.473857
 20
160.70647
 30
0.0
 11
68.309353
 21
160.70647
 31
0.0
  0
LINE
  5
1AA
100
AcDbEntity
  8
レイヤー_2
 62
     7
100
AcDbLine
 10
68.309353
 20
196.211796
 30
0.0
 11
68.473857
 21
196.211796
 31
0.0
  0
LINE
  5
1A9
100
AcDbEntity
  8
レイヤー_2
 62
     7
100
AcDbLine
 10
58.973661
 20
196.211796
 30
0.0
 11
58.973661
 21
160.70647
 31
0.0
  0
LINE
  5
1A8
100
AcDbEntity
  8
レイヤー_2
 62
     7
100
AcDbLine
 10
58.973661
 20
160.70647
 30
0.0
 11
59.882994
 21
160.70647
 31
0.0
  0
LINE
  5
1A7
100
AcDbEntity
  8
レイヤー_2
 62
     7
100
AcDbLine
 10
58.973661
 20
196.211796
 30
0.0
 11
59.882994
 21
196.211796
 31
0.0
  0
LINE
  5
1A6
100
AcDbEntity
  8
レイヤー_2
 62
     7
100
AcDbLine
 10
69.38319
 20
160.70647
 30
0.0
 11
69.38319
 21
196.211796
 31
0.0
  0
LINE
  5
1A5
100
AcDbEntity
  8
レイヤー_2
 62
     7
100
AcDbLine
 10
68.473857
 20
160.70647
 30
0.0
 11
69.38319
 21
160.70647
 31
0.0
  0
LINE
  5
1A4
100
AcDbEntity
  8
レイヤー_2
 62
     7
100
AcDbLine
 10
68.473857
 20
196.211796
 30
0.0
 11
69.38319
 21
196.211796
 31
0.0
  0
LINE
  5
1A3
100
AcDbEntity
  8
レイヤー_2
 62
     7
100
AcDbLine
 10
69.384051
 20
160.70647
 30
0.0
 11
69.38319
 21
160.70647
 31
0.0
  0
LINE
  5
1A2
100
AcDbEntity
  8
レイヤー_2
 62
     7
100
AcDbLine
 10
69.38319
 20
196.211796
 30
0.0
 11
69.384051
 21
196.211796
 31
0.0
  0
LINE
  5
1A1
100
AcDbEntity
  8
レイヤー_2
 62
     7
100
AcDbLine
 10
58.973661
 20
160.70647
 30
0.0
 11
58.973317
 21
160.70647
 31
0.0
  0
LINE
  5
1A0
100
AcDbEntity
  8
レイヤー_2
 62
     7
100
AcDbLine
 10
58.973317
 20
196.211796
 30
0.0
 11
58.973661
 21
196.211796
 31
0.0
  0
LINE
  5
19F
100
AcDbEntity
  8
レイヤー_2
 62
     7
100
AcDbLine
 10
59.189669
 20
225.764686
 30
0.0
 11
69.167354
 21
225.764686
 31
0.0
  0
LINE
  5
19E
100
AcDbEntity
  8
レイヤー_2
 62
     7
100
AcDbLine
 10
69.332891
 20
225.575895
 30
0.0
 11
68.918963
 21
222.450505
 31
0.0
  0
LINE
  5
19D
100
AcDbEntity
  8
レイヤー_2
 62
     7
100
AcDbLine
 10
59.437888
 20
222.450505
 30
0.0
 11
59.023615
 21
225.575895
 31
0.0
  0
SPLINE
  5
19C
100
AcDbEntity
  8
レイヤー_2
 62
     7
100
AcDbSpline
210
0.0
220
0.0
230
1.0
 70
     8
 71
     3
 72
     8
 73
     4
 74
     0
 42
0.00000001
 43
0.00000001
 40
0.0
 40
0.0
 40
0.0
 40
0.0
 40
1.0
 40
1.0
 40
1.0
 40
1.0
 10
68.753426106770831
 20
222.30529378255207
 30
0.0
 10
68.837486436631934
 20
222.30529378255207
 30
0.0
 10
68.907766384548609
 20
222.36799452039929
 30
0.0
 10
68.918962944878473
 20
222.45050455729165
 30
0.0
  0
LINE
  5
19B
100
AcDbEntity
  8
レイヤー_2
 62
     7
100
AcDbLine
 10
68.753426
 20
222.305294
 30
0.0
 11
59.60308
 21
222.305294
 31
0.0
  0
SPLINE
  5
19A
100
AcDbEntity
  8
レイヤー_2
 62
     7
100
AcDbSpline
210
0.0
220
0.0
230
1.0
 70
     8
 71
     3
 72
     8
 73
     4
 74
     0
 42
0.00000001
 43
0.00000001
 40
0.0
 40
0.0
 40
0.0
 40
0.0
 40
1.0
 40
1.0
 40
1.0
 40
1.0
 10
59.437887912326381
 20
222.45050455729165
 30
0.0
 10
59.448739963107634
 20
222.36661648220485
 30
0.0
 10
59.520570203993053
 20
222.30529378255207
 30
0.0
 10
59.603080240885411
 20
222.30529378255207
 30
0.0
  0
LINE
  5
199
100
AcDbEntity
  8
レイヤー_2
 62
     7
100
AcDbLine
 10
68.918963
 20
222.450505
 30
0.0
 11
68.440956
 21
218.840044
 31
0.0
  0
LINE
  5
198
100
AcDbEntity
  8
レイヤー_2
 62
     7
100
AcDbLine
 10
60.12639
 20
218.479687
 30
0.0
 11
68.320205
 21
218.479687
 31
0.0
  0
SPLINE
  5
197
100
AcDbEntity
  8
レイヤー_2
 62
     7
100
AcDbSpline
210
0.0
220
0.0
230
1.0
 70
     8
 71
     3
 72
     8
 73
     4
 74
     0
 42
0.00000001
 43
0.00000001
 40
0.0
 40
0.0
 40
0.0
 40
0.0
 40
1.0
 40
1.0
 40
1.0
 40
1.0
 10
61.620183648003469
 20
221.89756673177081
 30
0.0
 10
61.620183648003469
 20
221.88206380208331
 30
0.0
 10
61.639131673177076
 20
221.86776665581596
 30
0.0
 10
61.671515570746521
 20
221.85519205729165
 30
0.0
  0
SPLINE
  5
196
100
AcDbEntity
  8
レイヤー_2
 62
     7
100
AcDbSpline
210
0.0
220
0.0
230
1.0
 70
     8
 71
     3
 72
    14
 73
    10
 74
     0
 42
0.00000001
 43
0.00000001
 40
0.0
 40
0.0
 40
0.0
 40
0.0
 40
1.0
 40
1.0
 40
1.0
 40
2.0
 40
2.0
 40
2.0
 40
3.0
 40
3.0
 40
3.0
 40
3.0
 10
66.684474012586804
 20
221.85588107638887
 30
0.0
 10
66.721164279513886
 20
221.87000596788192
 30
0.0
 10
66.738045247395831
 20
221.8846476236979
 30
0.0
 10
66.737011718749997
 20
221.89756673177081
 30
0.0
 10
66.737011718749997
 20
222.01297743055554
 30
0.0
 10
65.591345214843741
 20
222.10651177300346
 30
0.0
 10
64.178167046440961
 20
222.10651177300346
 30
0.0
 10
62.765677897135411
 20
222.10651177300346
 30
0.0
 10
61.620183648003469
 20
222.01297743055554
 30
0.0
 10
61.620183648003469
 20
221.89756673177081
 30
0.0
  0
LINE
  5
195
100
AcDbEntity
  8
レイヤー_2
 62
     7
100
AcDbLine
 10
59.91555
 20
218.840044
 30
0.0
 11
59.437888
 21
222.450505
 31
0.0
  0
POLYLINE
  5
18F
100
AcDbEntity
  8
レイヤー_2
 62
     7
100
AcDb2dPolyline
 66
     1
 10
0.0
 20
0.0
 30
0.0
  0
VERTEX
  5
190
100
AcDbEntity
  8
レイヤー_2
 62
     7
100
AcDbVertex
100
AcDb2dVertex
 10
59.937255
 20
218.675541
 30
0.0
  0
VERTEX
  5
191
100
AcDbEntity
  8
レイヤー_2
 62
     7
100
AcDbVertex
100
AcDb2dVertex
 10
59.926402
 20
218.757534
 30
0.0
  0
VERTEX
  5
192
100
AcDbEntity
  8
レイヤー_2
 62
     7
100
AcDbVertex
100
AcDb2dVertex
 10
59.919168
 20
218.81369
 30
0.0
  0
VERTEX
  5
193
100
AcDbEntity
  8
レイヤー_2
 62
     7
100
AcDbVertex
100
AcDb2dVertex
 10
59.91555
 20
218.840044
 30
0.0
  0
SEQEND
  5
194
100
AcDbEntity
  8
レイヤー_2
 62
     7
  0
POLYLINE
  5
189
100
AcDbEntity
  8
レイヤー_2
 62
     7
100
AcDb2dPolyline
 66
     1
 10
0.0
 20
0.0
 30
0.0
  0
VERTEX
  5
18A
100
AcDbEntity
  8
レイヤー_2
 62
     7
100
AcDbVertex
100
AcDb2dVertex
 10
68.440956
 20
218.840044
 30
0.0
  0
VERTEX
  5
18B
100
AcDbEntity
  8
レイヤー_2
 62
     7
100
AcDbVertex
100
AcDb2dVertex
 10
68.437166
 20
218.81369
 30
0.0
  0
VERTEX
  5
18C
100
AcDbEntity
  8
レイヤー_2
 62
     7
100
AcDbVertex
100
AcDb2dVertex
 10
68.430276
 20
218.757534
 30
0.0
  0
VERTEX
  5
18D
100
AcDbEntity
  8
レイヤー_2
 62
     7
100
AcDbVertex
100
AcDb2dVertex
 10
68.419424
 20
218.675541
 30
0.0
  0
SEQEND
  5
18E
100
AcDbEntity
  8
レイヤー_2
 62
     7
  0
LINE
  5
188
100
AcDbEntity
  8
レイヤー_2
 62
     7
100
AcDbLine
 10
59.937944
 20
218.658488
 30
0.0
 11
59.937255
 21
218.675541
 31
0.0
  0
LINE
  5
187
100
AcDbEntity
  8
レイヤー_2
 62
     7
100
AcDbLine
 10
68.419424
 20
218.675541
 30
0.0
 11
68.419424
 21
218.658488
 31
0.0
  0
SPLINE
  5
186
100
AcDbEntity
  8
レイヤー_2
 62
     7
100
AcDbSpline
210
0.0
220
0.0
230
1.0
 70
     8
 71
     3
 72
     8
 73
     4
 74
     0
 42
0.00000001
 43
0.00000001
 40
0.0
 40
0.0
 40
0.0
 40
0.0
 40
1.0
 40
1.0
 40
1.0
 40
1.0
 10
68.430792914496521
 20
218.2791829427083
 30
0.0
 10
68.430792914496521
 20
218.42387695312499
 30
0.0
 10
68.426314290364573
 20
218.55702989366318
 30
0.0
 10
68.419424099392359
 20
218.65848795572916
 30
0.0
  0
SPLINE
  5
185
100
AcDbEntity
  8
レイヤー_2
 62
     7
100
AcDbSpline
210
0.0
220
0.0
230
1.0
 70
     8
 71
     3
 72
     8
 73
     4
 74
     0
 42
0.00000001
 43
0.00000001
 40
0.0
 40
0.0
 40
0.0
 40
0.0
 40
1.0
 40
1.0
 40
1.0
 40
1.0
 10
59.937943522135413
 20
218.65848795572916
 30
0.0
 10
59.92950303819444
 20
218.54772813585066
 30
0.0
 10
59.92588568793402
 20
218.41268039279512
 30
0.0
 10
59.92588568793402
 20
218.27883843315971
 30
0.0
  0
SPLINE
  5
184
100
AcDbEntity
  8
レイヤー_2
 62
     7
100
AcDbSpline
210
0.0
220
0.0
230
1.0
 70
     8
 71
     3
 72
     8
 73
     4
 74
     0
 42
0.00000001
 43
0.00000001
 40
0.0
 40
0.0
 40
0.0
 40
0.0
 40
1.0
 40
1.0
 40
1.0
 40
1.0
 10
59.023615180121524
 20
225.57572292751735
 30
0.0
 10
59.023098415798607
 20
225.5834743923611
 30
0.0
 10
59.021548122829856
 20
225.59122585720485
 30
0.0
 10
59.018792046440964
 20
225.59794379340275
 30
0.0
  0
LINE
  5
183
100
AcDbEntity
  8
レイヤー_2
 62
     7
100
AcDbLine
 10
68.264567
 20
196.525127
 30
0.0
 11
60.092456
 21
196.525127
 31
0.0
  0
LINE
  5
182
100
AcDbEntity
  8
レイヤー_2
 62
     7
100
AcDbLine
 10
59.925886
 20
196.525127
 30
0.0
 11
59.925886
 21
218.279183
 31
0.0
  0
LINE
  5
181
100
AcDbEntity
  8
レイヤー_2
 62
     7
100
AcDbLine
 10
60.092456
 20
196.525127
 30
0.0
 11
59.925886
 21
196.525127
 31
0.0
  0
LINE
  5
180
100
AcDbEntity
  8
レイヤー_2
 62
     7
100
AcDbLine
 10
68.430793
 20
218.279183
 30
0.0
 11
68.430793
 21
196.525127
 31
0.0
  0
LINE
  5
17F
100
AcDbEntity
  8
レイヤー_2
 62
     7
100
AcDbLine
 10
68.430793
 20
196.525127
 30
0.0
 11
68.264567
 21
196.525127
 31
0.0
  0
LINE
  5
17E
100
AcDbEntity
  8
レイヤー_2
 62
     7
100
AcDbLine
 10
59.013969
 20
225.623093
 30
0.0
 11
59.013969
 21
196.525127
 31
0.0
  0
SPLINE
  5
17D
100
AcDbEntity
  8
レイヤー_2
 62
     7
100
AcDbSpline
210
0.0
220
0.0
230
1.0
 70
     8
 71
     3
 72
     8
 73
     4
 74
     0
 42
0.00000001
 43
0.00000001
 40
0.0
 40
0.0
 40
0.0
 40
0.0
 40
1.0
 40
1.0
 40
1.0
 40
1.0
 10
59.013968912760411
 20
225.62309299045137
 30
0.0
 10
59.015691460503469
 20
225.61482476128469
 30
0.0
 10
59.017414008246526
 20
225.60655653211805
 30
0.0
 10
59.018792046440964
 20
225.59794379340275
 30
0.0
  0
LINE
  5
17C
100
AcDbEntity
  8
レイヤー_2
 62
     7
100
AcDbLine
 10
59.925886
 20
196.525127
 30
0.0
 11
59.013969
 21
196.525127
 31
0.0
  0
LINE
  5
17B
100
AcDbEntity
  8
レイヤー_2
 62
     7
100
AcDbLine
 10
69.34271
 20
196.525127
 30
0.0
 11
69.34271
 21
225.623093
 31
0.0
  0
LINE
  5
17A
100
AcDbEntity
  8
レイヤー_2
 62
     7
100
AcDbLine
 10
69.34271
 20
196.525127
 30
0.0
 11
68.430793
 21
196.525127
 31
0.0
  0
LINE
  5
179
100
AcDbEntity
  8
レイヤー_2
 62
     7
100
AcDbLine
 10
60.210106
 20
196.211796
 30
0.0
 11
60.210106
 21
196.525127
 31
0.0
  0
LINE
  5
178
100
AcDbEntity
  8
レイヤー_2
 62
     7
100
AcDbLine
 10
68.147089
 20
196.211796
 30
0.0
 11
68.147089
 21
196.525127
 31
0.0
  0
LINE
  5
177
100
AcDbEntity
  8
レイヤー_2
 62
     7
100
AcDbLine
 10
59.270456
 20
196.211796
 30
0.0
 11
59.270456
 21
196.525127
 31
0.0
  0
LINE
  5
176
100
AcDbEntity
  8
レイヤー_2
 62
     7
100
AcDbLine
 10
69.086222
 20
196.211796
 30
0.0
 11
69.086222
 21
196.525127
 31
0.0
  0
LINE
  5
175
100
AcDbEntity
  8
レイヤー_2
 62
     7
100
AcDbLine
 10
59.013797
 20
225.637218
 30
0.0
 11
59.013969
 21
225.623093
 31
0.0
  0
SPLINE
  5
174
100
AcDbEntity
  8
レイヤー_2
 62
     7
100
AcDbSpline
210
0.0
220
0.0
230
1.0
 70
     8
 71
     3
 72
     8
 73
     4
 74
     0
 42
0.00000001
 43
0.00000001
 40
0.0
 40
0.0
 40
0.0
 40
0.0
 40
1.0
 40
1.0
 40
1.0
 40
1.0
 10
59.020342339409716
 20
225.67804226345484
 30
0.0
 10
59.016552734374997
 20
225.66426188151038
 30
0.0
 10
59.013968912760411
 20
225.65134277343748
 30
0.0
 10
59.013796657986106
 20
225.63721788194442
 30
0.0
  0
SPLINE
  5
173
100
AcDbEntity
  8
レイヤー_2
 62
     7
100
AcDbSpline
210
0.0
220
0.0
230
1.0
 70
     8
 71
     3
 72
     8
 73
     4
 74
     0
 42
0.00000001
 43
0.00000001
 40
0.0
 40
0.0
 40
0.0
 40
0.0
 40
1.0
 40
1.0
 40
1.0
 40
1.0
 10
59.045319281684023
 20
225.72455105251734
 30
0.0
 10
59.03274468315972
 20
225.70956488715277
 30
0.0
 10
59.024820963541664
 20
225.69406195746527
 30
0.0
 10
59.020342339409716
 20
225.67804226345484
 30
0.0
  0
SPLINE
  5
172
100
AcDbEntity
  8
レイヤー_2
 62
     7
100
AcDbSpline
210
0.0
220
0.0
230
1.0
 70
     8
 71
     3
 72
    11
 73
     7
 74
     0
 42
0.00000001
 43
0.00000001
 40
0.0
 40
0.0
 40
0.0
 40
0.0
 40
1.0
 40
1.0
 40
1.0
 40
2.0
 40
2.0
 40
2.0
 40
2.0
 10
59.17881673177083
 20
225.76468641493054
 30
0.0
 10
59.156079101562497
 20
225.76468641493054
 30
0.0
 10
59.133858235677081
 20
225.76124131944442
 30
0.0
 10
59.111465115017353
 20
225.75504014756942
 30
0.0
 10
59.089244249131937
 20
225.74814995659719
 30
0.0
 10
59.066334364149299
 20
225.73815917968747
 30
0.0
 10
59.045319281684023
 20
225.72455105251734
 30
0.0
  0
LINE
  5
171
100
AcDbEntity
  8
レイヤー_2
 62
     7
100
AcDbLine
 10
59.178817
 20
225.764686
 30
0.0
 11
59.189669
 21
225.764686
 31
0.0
  0
SPLINE
  5
170
100
AcDbEntity
  8
レイヤー_2
 62
     7
100
AcDbSpline
210
0.0
220
0.0
230
1.0
 70
     8
 71
     3
 72
     8
 73
     4
 74
     0
 42
0.00000001
 43
0.00000001
 40
0.0
 40
0.0
 40
0.0
 40
0.0
 40
1.0
 40
1.0
 40
1.0
 40
1.0
 10
69.336508517795139
 20
225.67804226345484
 30
0.0
 10
69.331685384114579
 20
225.69406195746527
 30
0.0
 10
69.323589409722217
 20
225.70956488715277
 30
0.0
 10
69.311014811197907
 20
225.72455105251734
 30
0.0
  0
SPLINE
  5
16F
100
AcDbEntity
  8
レイヤー_2
 62
     7
100
AcDbSpline
210
0.0
220
0.0
230
1.0
 70
     8
 71
     3
 72
    11
 73
     7
 74
     0
 42
0.00000001
 43
0.00000001
 40
0.0
 40
0.0
 40
0.0
 40
0.0
 40
1.0
 40
1.0
 40
1.0
 40
2.0
 40
2.0
 40
2.0
 40
2.0
 10
69.311014811197907
 20
225.72455105251734
 30
0.0
 10
69.290171983506937
 20
225.73815917968747
 30
0.0
 10
69.26812337239582
 20
225.74814995659719
 30
0.0
 10
69.245730251736106
 20
225.75504014756942
 30
0.0
 10
69.223337131076377
 20
225.76124131944442
 30
0.0
 10
69.20025499131944
 20
225.76468641493054
 30
0.0
 10
69.178034125434024
 20
225.76468641493054
 30
0.0
  0
LINE
  5
16E
100
AcDbEntity
  8
レイヤー_2
 62
     7
100
AcDbLine
 10
69.167354
 20
225.764686
 30
0.0
 11
69.178034
 21
225.764686
 31
0.0
  0
LINE
  5
16D
100
AcDbEntity
  8
レイヤー_2
 62
     7
100
AcDbLine
 10
69.343399
 20
196.525127
 30
0.0
 11
69.34271
 21
196.525127
 31
0.0
  0
LINE
  5
16C
100
AcDbEntity
  8
レイヤー_2
 62
     7
100
AcDbLine
 10
59.013969
 20
196.525127
 30
0.0
 11
59.013797
 21
196.525127
 31
0.0
  0
SPLINE
  5
16B
100
AcDbEntity
  8
レイヤー_2
 62
     7
100
AcDbSpline
210
0.0
220
0.0
230
1.0
 70
     8
 71
     3
 72
     8
 73
     4
 74
     0
 42
0.00000001
 43
0.00000001
 40
0.0
 40
0.0
 40
0.0
 40
0.0
 40
1.0
 40
1.0
 40
1.0
 40
1.0
 10
69.294995117187497
 20
232.16911892361108
 30
0.0
 10
69.293100314670127
 20
232.26041395399304
 30
0.0
 10
69.218858506944443
 20
232.3336222330729
 30
0.0
 10
69.128252495659723
 20
232.3336222330729
 30
0.0
  0
LINE
  5
16A
100
AcDbEntity
  8
レイヤー_2
 62
     7
100
AcDbLine
 10
69.294995
 20
232.169119
 30
0.0
 11
69.307225
 21
231.454262
 31
0.0
  0
LINE
  5
169
100
AcDbEntity
  8
レイヤー_2
 62
     7
100
AcDbLine
 10
59.049281
 20
231.454262
 30
0.0
 11
59.062028
 21
232.169119
 31
0.0
  0
SPLINE
  5
168
100
AcDbEntity
  8
レイヤー_2
 62
     7
100
AcDbSpline
210
0.0
220
0.0
230
1.0
 70
     8
 71
     3
 72
     8
 73
     4
 74
     0
 42
0.00000001
 43
0.00000001
 40
0.0
 40
0.0
 40
0.0
 40
0.0
 40
1.0
 40
1.0
 40
1.0
 40
1.0
 10
69.307225206163181
 20
231.45098876953122
 30
0.0
 10
69.307225206163181
 20
231.45253906249997
 30
0.0
 10
69.307225206163181
 20
231.45322808159719
 30
0.0
 10
69.307225206163181
 20
231.45426161024304
 30
0.0
  0
SPLINE
  5
167
100
AcDbEntity
  8
レイヤー_2
 62
     7
100
AcDbSpline
210
0.0
220
0.0
230
1.0
 70
     8
 71
     3
 72
    11
 73
     7
 74
     0
 42
0.00000001
 43
0.00000001
 40
0.0
 40
0.0
 40
0.0
 40
0.0
 40
1.0
 40
1.0
 40
1.0
 40
2.0
 40
2.0
 40
2.0
 40
2.0
 10
69.140310329861109
 20
231.28493516710068
 30
0.0
 10
69.140310329861109
 20
231.28493516710068
 30
0.0
 10
69.140310329861109
 20
231.28493516710068
 30
0.0
 10
69.140310329861109
 20
231.28493516710068
 30
0.0
 10
69.232811143663184
 20
231.28493516710068
 30
0.0
 10
69.307225206163181
 20
231.35866021050344
 30
0.0
 10
69.307225206163181
 20
231.45098876953122
 30
0.0
  0
SPLINE
  5
166
100
AcDbEntity
  8
レイヤー_2
 62
     7
100
AcDbSpline
210
0.0
220
0.0
230
1.0
 70
     8
 71
     3
 72
    14
 73
    10
 74
     0
 42
0.00000001
 43
0.00000001
 40
0.0
 40
0.0
 40
0.0
 40
0.0
 40
1.0
 40
1.0
 40
1.0
 40
2.0
 40
2.0
 40
2.0
 40
3.0
 40
3.0
 40
3.0
 40
3.0
 10
59.049281141493047
 20
231.45426161024304
 30
0.0
 10
59.049281141493047
 20
231.45322808159719
 30
0.0
 10
59.049281141493047
 20
231.45253906249997
 30
0.0
 10
59.049281141493047
 20
231.45098876953122
 30
0.0
 10
59.049281141493047
 20
231.35866021050344
 30
0.0
 10
59.123867458767357
 20
231.28493516710068
 30
0.0
 10
59.21636827256944
 20
231.28493516710068
 30
0.0
 10
59.21636827256944
 20
231.28493516710068
 30
0.0
 10
59.21636827256944
 20
231.28493516710068
 30
0.0
 10
59.21636827256944
 20
231.28493516710068
 30
0.0
  0
LINE
  5
165
100
AcDbEntity
  8
レイヤー_2
 62
     7
100
AcDbLine
 10
69.14031
 20
231.284935
 30
0.0
 11
59.216368
 21
231.284935
 31
0.0
  0
SPLINE
  5
164
100
AcDbEntity
  8
レイヤー_2
 62
     7
100
AcDbSpline
210
0.0
220
0.0
230
1.0
 70
     8
 71
     3
 72
    14
 73
    10
 74
     0
 42
0.00000001
 43
0.00000001
 40
0.0
 40
0.0
 40
0.0
 40
0.0
 40
1.0
 40
1.0
 40
1.0
 40
2.0
 40
2.0
 40
2.0
 40
3.0
 40
3.0
 40
3.0
 40
3.0
 10
59.031194390190969
 20
230.4269341362847
 30
0.0
 10
59.031194390190969
 20
230.4265896267361
 30
0.0
 10
59.031194390190969
 20
230.42521158854166
 30
0.0
 10
59.031194390190969
 20
230.42417805989581
 30
0.0
 10
59.031194390190969
 20
230.33236626519096
 30
0.0
 10
59.106469726562494
 20
230.25743543836805
 30
0.0
 10
59.197937011718743
 20
230.25743543836805
 30
0.0
 10
59.197937011718743
 20
230.25743543836805
 30
0.0
 10
59.197937011718743
 20
230.25743543836805
 30
0.0
 10
59.197937011718743
 20
230.25743543836805
 30
0.0
  0
LINE
  5
163
100
AcDbEntity
  8
レイヤー_2
 62
     7
100
AcDbLine
 10
59.031194
 20
230.426934
 30
0.0
 11
59.049281
 21
231.454262
 31
0.0
  0
SPLINE
  5
162
100
AcDbEntity
  8
レイヤー_2
 62
     7
100
AcDbSpline
210
0.0
220
0.0
230
1.0
 70
     8
 71
     3
 72
     8
 73
     4
 74
     0
 42
0.00000001
 43
0.00000001
 40
0.0
 40
0.0
 40
0.0
 40
0.0
 40
1.0
 40
1.0
 40
1.0
 40
1.0
 10
69.324967447916663
 20
230.42417805989581
 30
0.0
 10
69.324967447916663
 20
230.42521158854166
 30
0.0
 10
69.324967447916663
 20
230.4265896267361
 30
0.0
 10
69.324967447916663
 20
230.4269341362847
 30
0.0
  0
SPLINE
  5
161
100
AcDbEntity
  8
レイヤー_2
 62
     7
100
AcDbSpline
210
0.0
220
0.0
230
1.0
 70
     8
 71
     3
 72
    11
 73
     7
 74
     0
 42
0.00000001
 43
0.00000001
 40
0.0
 40
0.0
 40
0.0
 40
0.0
 40
1.0
 40
1.0
 40
1.0
 40
2.0
 40
2.0
 40
2.0
 40
2.0
 10
69.158052571614576
 20
230.25743543836805
 30
0.0
 10
69.158741590711799
 20
230.25743543836805
 30
0.0
 10
69.158741590711799
 20
230.25743543836805
 30
0.0
 10
69.158741590711799
 20
230.25743543836805
 30
0.0
 10
69.250897894965277
 20
230.25743543836805
 30
0.0
 10
69.324967447916663
 20
230.33236626519096
 30
0.0
 10
69.324967447916663
 20
230.42417805989581
 30
0.0
  0
LINE
  5
160
100
AcDbEntity
  8
レイヤー_2
 62
     7
100
AcDbLine
 10
69.307225
 20
231.454262
 30
0.0
 11
69.324967
 21
230.426934
 31
0.0
  0
LINE
  5
15F
100
AcDbEntity
  8
レイヤー_2
 62
     7
100
AcDbLine
 10
68.728966
 20
230.257435
 30
0.0
 11
69.158053
 21
230.257435
 31
0.0
  0
SPLINE
  5
15E
100
AcDbEntity
  8
レイヤー_2
 62
     7
100
AcDbSpline
210
0.0
220
0.0
230
1.0
 70
     8
 71
     3
 72
     8
 73
     4
 74
     0
 42
0.00000001
 43
0.00000001
 40
0.0
 40
0.0
 40
0.0
 40
0.0
 40
1.0
 40
1.0
 40
1.0
 40
1.0
 10
68.728965928819434
 20
230.25743543836805
 30
0.0
 10
68.941183810763889
 20
230.26742621527777
 30
0.0
 10
69.044536675347217
 20
230.27879503038193
 30
0.0
 10
69.043675401475681
 20
230.29085286458331
 30
0.0
  0
LINE
  5
15D
100
AcDbEntity
  8
レイヤー_2
 62
     7
100
AcDbLine
 10
69.043675
 20
230.623132
 30
0.0
 11
69.043675
 21
230.290853
 31
0.0
  0
SPLINE
  5
15C
100
AcDbEntity
  8
レイヤー_2
 62
     7
100
AcDbSpline
210
0.0
220
0.0
230
1.0
 70
     8
 71
     3
 72
     8
 73
     4
 74
     0
 42
0.00000001
 43
0.00000001
 40
0.0
 40
0.0
 40
0.0
 40
0.0
 40
1.0
 40
1.0
 40
1.0
 40
1.0
 10
69.043675401475681
 20
230.62278781467012
 30
0.0
 10
69.043675401475681
 20
230.77161593967011
 30
0.0
 10
69.018870713975687
 20
230.9140706380208
 30
0.0
 10
68.9759792751736
 20
231.03774956597221
 30
0.0
  0
SPLINE
  5
15B
100
AcDbEntity
  8
レイヤー_2
 62
     7
100
AcDbSpline
210
0.0
220
0.0
230
1.0
 70
     8
 71
     3
 72
     8
 73
     4
 74
     0
 42
0.00000001
 43
0.00000001
 40
0.0
 40
0.0
 40
0.0
 40
0.0
 40
1.0
 40
1.0
 40
1.0
 40
1.0
 10
68.859362792968739
 20
231.05755886501734
 30
0.0
 10
68.464554850260413
 20
231.08167453342011
 30
0.0
 10
68.071986219618054
 20
231.09011501736109
 30
0.0
 10
67.7357449001736
 20
231.08615315755208
 30
0.0
  0
LINE
  5
15A
100
AcDbEntity
  8
レイヤー_2
 62
     7
100
AcDbLine
 10
60.62145
 20
231.086153
 30
0.0
 11
67.735745
 21
231.086153
 31
0.0
  0
SPLINE
  5
159
100
AcDbEntity
  8
レイヤー_2
 62
     7
100
AcDbSpline
210
0.0
220
0.0
230
1.0
 70
     8
 71
     3
 72
     8
 73
     4
 74
     0
 42
0.00000001
 43
0.00000001
 40
0.0
 40
0.0
 40
0.0
 40
0.0
 40
1.0
 40
1.0
 40
1.0
 40
1.0
 10
60.62179497612847
 20
231.08615315755208
 30
0.0
 10
60.211828613281241
 20
231.09011501736109
 30
0.0
 10
59.806513129340274
 20
231.07840169270833
 30
0.0
 10
59.457524956597219
 20
231.05428602430553
 30
0.0
  0
SPLINE
  5
158
100
AcDbEntity
  8
レイヤー_2
 62
     7
100
AcDbSpline
210
0.0
220
0.0
230
1.0
 70
     8
 71
     3
 72
     8
 73
     4
 74
     0
 42
0.00000001
 43
0.00000001
 40
0.0
 40
0.0
 40
0.0
 40
0.0
 40
1.0
 40
1.0
 40
1.0
 40
1.0
 10
59.380527072482636
 20
231.03774956597221
 30
0.0
 10
59.333501519097219
 20
230.89805094401041
 30
0.0
 10
59.311969672309026
 20
230.75421820746524
 30
0.0
 10
59.313175455729159
 20
230.62313232421872
 30
0.0
  0
LINE
  5
157
100
AcDbEntity
  8
レイヤー_2
 62
     7
100
AcDbLine
 10
59.313175
 20
230.290853
 30
0.0
 11
59.313175
 21
230.623132
 31
0.0
  0
SPLINE
  5
156
100
AcDbEntity
  8
レイヤー_2
 62
     7
100
AcDbSpline
210
0.0
220
0.0
230
1.0
 70
     8
 71
     3
 72
     8
 73
     4
 74
     0
 42
0.00000001
 43
0.00000001
 40
0.0
 40
0.0
 40
0.0
 40
0.0
 40
1.0
 40
1.0
 40
1.0
 40
1.0
 10
59.313175455729159
 20
230.29085286458331
 30
0.0
 10
59.313175455729159
 20
230.27793375651041
 30
0.0
 10
59.432548014322911
 20
230.26604817708332
 30
0.0
 10
59.627368164062496
 20
230.25743543836805
 30
0.0
  0
LINE
  5
155
100
AcDbEntity
  8
レイヤー_2
 62
     7
100
AcDbLine
 10
59.197937
 20
230.257435
 30
0.0
 11
59.627368
 21
230.257435
 31
0.0
  0
LINE
  5
154
100
AcDbEntity
  8
レイヤー_2
 62
     7
100
AcDbLine
 10
67.735745
 20
231.086153
 30
0.0
 11
67.735745
 21
231.086153
 31
0.0
  0
LINE
  5
153
100
AcDbEntity
  8
レイヤー_2
 62
     7
100
AcDbLine
 10
67.71473
 20
231.080296
 30
0.0
 11
67.735917
 21
231.080296
 31
0.0
  0
POLYLINE
  5
148
100
AcDbEntity
  8
レイヤー_2
 62
     7
100
AcDb2dPolyline
 66
     1
 10
0.0
 20
0.0
 30
0.0
  0
VERTEX
  5
149
100
AcDbEntity
  8
レイヤー_2
 62
     7
100
AcDbVertex
100
AcDb2dVertex
 10
69.324967
 20
230.426934
 30
0.0
  0
VERTEX
  5
14A
100
AcDbEntity
  8
レイヤー_2
 62
     7
100
AcDbVertex
100
AcDb2dVertex
 10
69.325656
 20
230.412292
 30
0.0
  0
VERTEX
  5
14B
100
AcDbEntity
  8
レイヤー_2
 62
     7
100
AcDbVertex
100
AcDb2dVertex
 10
69.326001
 20
230.376291
 30
0.0
  0
VERTEX
  5
14C
100
AcDbEntity
  8
レイヤー_2
 62
     7
100
AcDbVertex
100
AcDb2dVertex
 10
69.327207
 20
230.32117
 30
0.0
  0
VERTEX
  5
14D
100
AcDbEntity
  8
レイヤー_2
 62
     7
100
AcDbVertex
100
AcDb2dVertex
 10
69.328585
 20
230.248306
 30
0.0
  0
VERTEX
  5
14E
100
AcDbEntity
  8
レイヤー_2
 62
     7
100
AcDbVertex
100
AcDb2dVertex
 10
69.330307
 20
230.160973
 30
0.0
  0
VERTEX
  5
14F
100
AcDbEntity
  8
レイヤー_2
 62
     7
100
AcDbVertex
100
AcDb2dVertex
 10
69.331685
 20
230.061754
 30
0.0
  0
VERTEX
  5
150
100
AcDbEntity
  8
レイヤー_2
 62
     7
100
AcDbVertex
100
AcDb2dVertex
 10
69.333752
 20
229.953923
 30
0.0
  0
VERTEX
  5
151
100
AcDbEntity
  8
レイヤー_2
 62
     7
100
AcDbVertex
100
AcDb2dVertex
 10
69.335992
 20
229.842818
 30
0.0
  0
SEQEND
  5
152
100
AcDbEntity
  8
レイヤー_2
 62
     7
  0
POLYLINE
  5
13D
100
AcDbEntity
  8
レイヤー_2
 62
     7
100
AcDb2dPolyline
 66
     1
 10
0.0
 20
0.0
 30
0.0
  0
VERTEX
  5
13E
100
AcDbEntity
  8
レイヤー_2
 62
     7
100
AcDbVertex
100
AcDb2dVertex
 10
59.021204
 20
229.842818
 30
0.0
  0
VERTEX
  5
13F
100
AcDbEntity
  8
レイヤー_2
 62
     7
100
AcDbVertex
100
AcDb2dVertex
 10
59.023098
 20
229.953923
 30
0.0
  0
VERTEX
  5
140
100
AcDbEntity
  8
レイヤー_2
 62
     7
100
AcDbVertex
100
AcDb2dVertex
 10
59.024821
 20
230.061754
 30
0.0
  0
VERTEX
  5
141
100
AcDbEntity
  8
レイヤー_2
 62
     7
100
AcDbVertex
100
AcDb2dVertex
 10
59.026716
 20
230.160973
 30
0.0
  0
VERTEX
  5
142
100
AcDbEntity
  8
レイヤー_2
 62
     7
100
AcDbVertex
100
AcDb2dVertex
 10
59.027922
 20
230.248306
 30
0.0
  0
VERTEX
  5
143
100
AcDbEntity
  8
レイヤー_2
 62
     7
100
AcDbVertex
100
AcDb2dVertex
 10
59.029644
 20
230.32117
 30
0.0
  0
VERTEX
  5
144
100
AcDbEntity
  8
レイヤー_2
 62
     7
100
AcDbVertex
100
AcDb2dVertex
 10
59.030678
 20
230.376291
 30
0.0
  0
VERTEX
  5
145
100
AcDbEntity
  8
レイヤー_2
 62
     7
100
AcDbVertex
100
AcDb2dVertex
 10
59.03085
 20
230.412292
 30
0.0
  0
VERTEX
  5
146
100
AcDbEntity
  8
レイヤー_2
 62
     7
100
AcDbVertex
100
AcDb2dVertex
 10
59.031194
 20
230.426934
 30
0.0
  0
SEQEND
  5
147
100
AcDbEntity
  8
レイヤー_2
 62
     7
  0
LINE
  5
13C
100
AcDbEntity
  8
レイヤー_2
 62
     7
100
AcDbLine
 10
69.335992
 20
229.842818
 30
0.0
 11
69.397831
 21
226.278695
 31
0.0
  0
LINE
  5
13B
100
AcDbEntity
  8
レイヤー_2
 62
     7
100
AcDbLine
 10
58.959192
 20
226.278695
 30
0.0
 11
59.021204
 21
229.842818
 31
0.0
  0
LINE
  5
13A
100
AcDbEntity
  8
レイヤー_2
 62
     7
100
AcDbLine
 10
69.2931
 20
226.172241
 30
0.0
 11
69.231089
 21
226.172241
 31
0.0
  0
SPLINE
  5
139
100
AcDbEntity
  8
レイヤー_2
 62
     7
100
AcDbSpline
210
0.0
220
0.0
230
1.0
 70
     8
 71
     3
 72
     8
 73
     4
 74
     0
 42
0.00000001
 43
0.00000001
 40
0.0
 40
0.0
 40
0.0
 40
0.0
 40
1.0
 40
1.0
 40
1.0
 40
1.0
 10
69.397831217447916
 20
226.27645534939234
 30
0.0
 10
69.397831217447916
 20
226.27679985894096
 30
0.0
 10
69.397831217447916
 20
226.27800564236108
 30
0.0
 10
69.397831217447916
 20
226.2786946614583
 30
0.0
  0
SPLINE
  5
138
100
AcDbEntity
  8
レイヤー_2
 62
     7
100
AcDbSpline
210
0.0
220
0.0
230
1.0
 70
     8
 71
     3
 72
     8
 73
     4
 74
     0
 42
0.00000001
 43
0.00000001
 40
0.0
 40
0.0
 40
0.0
 40
0.0
 40
1.0
 40
1.0
 40
1.0
 40
1.0
 10
69.293100314670127
 20
226.17224121093747
 30
0.0
 10
69.351494683159714
 20
226.17224121093747
 30
0.0
 10
69.397831217447916
 20
226.2189222547743
 30
0.0
 10
69.397831217447916
 20
226.27645534939234
 30
0.0
  0
LINE
  5
137
100
AcDbEntity
  8
レイヤー_2
 62
     7
100
AcDbLine
 10
69.231089
 20
226.172241
 30
0.0
 11
59.063062
 21
226.172241
 31
0.0
  0
SPLINE
  5
136
100
AcDbEntity
  8
レイヤー_2
 62
     7
100
AcDbSpline
210
0.0
220
0.0
230
1.0
 70
     8
 71
     3
 72
    11
 73
     7
 74
     0
 42
0.00000001
 43
0.00000001
 40
0.0
 40
0.0
 40
0.0
 40
0.0
 40
1.0
 40
1.0
 40
1.0
 40
2.0
 40
2.0
 40
2.0
 40
2.0
 10
58.959191894531244
 20
226.2786946614583
 30
0.0
 10
58.959191894531244
 20
226.27800564236108
 30
0.0
 10
58.959191894531244
 20
226.27679985894096
 30
0.0
 10
58.959191894531244
 20
226.27645534939234
 30
0.0
 10
58.959191894531244
 20
226.2189222547743
 30
0.0
 10
59.004839409722216
 20
226.17224121093747
 30
0.0
 10
59.063061523437497
 20
226.17224121093747
 30
0.0
  0
POLYLINE
  5
12B
100
AcDbEntity
  8
レイヤー_2
 62
     7
100
AcDb2dPolyline
 66
     1
 10
0.0
 20
0.0
 30
0.0
  0
VERTEX
  5
12C
100
AcDbEntity
  8
レイヤー_2
 62
     7
100
AcDbVertex
100
AcDb2dVertex
 10
64.178167
 20
220.301799
 30
0.0
  0
VERTEX
  5
12D
100
AcDbEntity
  8
レイヤー_2
 62
     7
100
AcDbVertex
100
AcDb2dVertex
 10
63.802307
 20
220.299215
 30
0.0
  0
VERTEX
  5
12E
100
AcDbEntity
  8
レイヤー_2
 62
     7
100
AcDbVertex
100
AcDb2dVertex
 10
63.441433
 20
220.289741
 30
0.0
  0
VERTEX
  5
12F
100
AcDbEntity
  8
レイヤー_2
 62
     7
100
AcDbVertex
100
AcDb2dVertex
 10
63.110532
 20
220.274582
 30
0.0
  0
VERTEX
  5
130
100
AcDbEntity
  8
レイヤー_2
 62
     7
100
AcDbVertex
100
AcDb2dVertex
 10
62.823728
 20
220.254256
 30
0.0
  0
VERTEX
  5
131
100
AcDbEntity
  8
レイヤー_2
 62
     7
100
AcDbVertex
100
AcDb2dVertex
 10
62.59239
 20
220.230485
 30
0.0
  0
VERTEX
  5
132
100
AcDbEntity
  8
レイヤー_2
 62
     7
100
AcDbVertex
100
AcDb2dVertex
 10
62.425475
 20
220.202235
 30
0.0
  0
VERTEX
  5
133
100
AcDbEntity
  8
レイヤー_2
 62
     7
100
AcDbVertex
100
AcDb2dVertex
 10
62.331079
 20
220.172952
 30
0.0
  0
VERTEX
  5
134
100
AcDbEntity
  8
レイヤー_2
 62
     7
100
AcDbVertex
100
AcDb2dVertex
 10
62.309375
 20
220.14763
 30
0.0
  0
SEQEND
  5
135
100
AcDbEntity
  8
レイヤー_2
 62
     7
  0
POLYLINE
  5
122
100
AcDbEntity
  8
レイヤー_2
 62
     7
100
AcDb2dPolyline
 66
     1
 10
0.0
 20
0.0
 30
0.0
  0
VERTEX
  5
123
100
AcDbEntity
  8
レイヤー_2
 62
     7
100
AcDbVertex
100
AcDb2dVertex
 10
66.037141
 20
220.133506
 30
0.0
  0
VERTEX
  5
124
100
AcDbEntity
  8
レイヤー_2
 62
     7
100
AcDbVertex
100
AcDb2dVertex
 10
66.045064
 20
220.141946
 30
0.0
  0
VERTEX
  5
125
100
AcDbEntity
  8
レイヤー_2
 62
     7
100
AcDbVertex
100
AcDb2dVertex
 10
66.025772
 20
220.172952
 30
0.0
  0
VERTEX
  5
126
100
AcDbEntity
  8
レイヤー_2
 62
     7
100
AcDbVertex
100
AcDb2dVertex
 10
65.931204
 20
220.202235
 30
0.0
  0
VERTEX
  5
127
100
AcDbEntity
  8
レイヤー_2
 62
     7
100
AcDbVertex
100
AcDb2dVertex
 10
65.76515
 20
220.230485
 30
0.0
  0
VERTEX
  5
128
100
AcDbEntity
  8
レイヤー_2
 62
     7
100
AcDbVertex
100
AcDb2dVertex
 10
65.533123
 20
220.254256
 30
0.0
  0
VERTEX
  5
129
100
AcDbEntity
  8
レイヤー_2
 62
     7
100
AcDbVertex
100
AcDb2dVertex
 10
65.496605
 20
220.257357
 30
0.0
  0
SEQEND
  5
12A
100
AcDbEntity
  8
レイヤー_2
 62
     7
  0
SPLINE
  5
121
100
AcDbEntity
  8
レイヤー_2
 62
     7
100
AcDbSpline
210
0.0
220
0.0
230
1.0
 70
     8
 71
     3
 72
     8
 73
     4
 74
     0
 42
0.00000001
 43
0.00000001
 40
0.0
 40
0.0
 40
0.0
 40
0.0
 40
1.0
 40
1.0
 40
1.0
 40
1.0
 10
68.9759792751736
 20
231.03774956597221
 30
0.0
 10
68.936016167534717
 20
231.04980740017359
 30
0.0
 10
68.895708550347223
 20
231.05704210069442
 30
0.0
 10
68.859362792968739
 20
231.05755886501734
 30
0.0
  0
POLYLINE
  5
11C
100
AcDbEntity
  8
レイヤー_2
 62
     7
100
AcDb2dPolyline
 66
     1
 10
0.0
 20
0.0
 30
0.0
  0
VERTEX
  5
11D
100
AcDbEntity
  8
レイヤー_2
 62
     7
100
AcDbVertex
100
AcDb2dVertex
 10
59.380527
 20
231.03775
 30
0.0
  0
VERTEX
  5
11E
100
AcDbEntity
  8
レイヤー_2
 62
     7
100
AcDbVertex
100
AcDb2dVertex
 10
59.406882
 20
231.047051
 30
0.0
  0
VERTEX
  5
11F
100
AcDbEntity
  8
レイヤー_2
 62
     7
100
AcDbVertex
100
AcDb2dVertex
 10
59.457525
 20
231.054286
 30
0.0
  0
SEQEND
  5
120
100
AcDbEntity
  8
レイヤー_2
 62
     7
  0
SPLINE
  5
11B
100
AcDbEntity
  8
レイヤー_2
 62
     7
100
AcDbSpline
210
0.0
220
0.0
230
1.0
 70
     8
 71
     3
 72
     8
 73
     4
 74
     0
 42
0.00000001
 43
0.00000001
 40
0.0
 40
0.0
 40
0.0
 40
0.0
 40
1.0
 40
1.0
 40
1.0
 40
1.0
 10
68.94204508463541
 20
231.04825710720485
 30
0.0
 10
68.95272488064235
 20
231.04085015190969
 30
0.0
 10
68.964610460069437
 20
231.03774956597221
 30
0.0
 10
68.9759792751736
 20
231.03774956597221
 30
0.0
  0
SPLINE
  5
11A
100
AcDbEntity
  8
レイヤー_2
 62
     7
100
AcDbSpline
210
0.0
220
0.0
230
1.0
 70
     8
 71
     3
 72
     8
 73
     4
 74
     0
 42
0.00000001
 43
0.00000001
 40
0.0
 40
0.0
 40
0.0
 40
0.0
 40
1.0
 40
1.0
 40
1.0
 40
1.0
 10
59.380527072482636
 20
231.03774956597221
 30
0.0
 10
59.392412651909716
 20
231.03774956597221
 30
0.0
 10
59.404642740885414
 20
231.04153917100692
 30
0.0
 10
59.413944498697909
 20
231.0470513237847
 30
0.0
  0
LINE
  5
119
100
AcDbEntity
  8
レイヤー_2
 62
     7
100
AcDbLine
 10
65.535707
 20
142.152219
 30
0.0
 11
65.490921
 21
142.160143
 31
0.0
  0
LINE
  5
118
100
AcDbEntity
  8
レイヤー_2
 62
     7
100
AcDbLine
 10
62.865758
 20
142.160143
 30
0.0
 11
62.820799
 21
142.152219
 31
0.0
  0
LINE
  5
117
100
AcDbEntity
  8
レイヤー_2
 62
     7
100
AcDbLine
 10
65.535707
 20
141.846639
 30
0.0
 11
65.535707
 21
142.152219
 31
0.0
  0
LINE
  5
116
100
AcDbEntity
  8
レイヤー_2
 62
     7
100
AcDbLine
 10
62.820799
 20
142.152219
 30
0.0
 11
62.820799
 21
141.846639
 31
0.0
  0
LINE
  5
115
100
AcDbEntity
  8
レイヤー_2
 62
     7
100
AcDbLine
 10
62.820799
 20
141.846639
 30
0.0
 11
63.134303
 21
141.304036
 31
0.0
  0
LINE
  5
114
100
AcDbEntity
  8
レイヤー_2
 62
     7
100
AcDbLine
 10
65.22272
 20
141.304036
 30
0.0
 11
65.535707
 21
141.846639
 31
0.0
  0
LINE
  5
113
100
AcDbEntity
  8
レイヤー_2
 62
     7
100
AcDbLine
 10
65.22272
 20
136.416479
 30
0.0
 11
65.22272
 21
141.304036
 31
0.0
  0
LINE
  5
112
100
AcDbEntity
  8
レイヤー_2
 62
     7
100
AcDbLine
 10
63.134303
 20
141.304036
 30
0.0
 11
63.134303
 21
136.416479
 31
0.0
  0
LINE
  5
111
100
AcDbEntity
  8
レイヤー_2
 62
     7
100
AcDbLine
 10
65.657147
 20
136.346544
 30
0.0
 11
65.535707
 21
136.416479
 31
0.0
  0
LINE
  5
110
100
AcDbEntity
  8
レイヤー_2
 62
     7
100
AcDbLine
 10
65.535707
 20
133.910173
 30
0.0
 11
65.657147
 21
133.980108
 31
0.0
  0
LINE
  5
10F
100
AcDbEntity
  8
レイヤー_2
 62
     7
100
AcDbLine
 10
62.820799
 20
136.416479
 30
0.0
 11
62.699188
 21
136.346544
 31
0.0
  0
LINE
  5
10E
100
AcDbEntity
  8
レイヤー_2
 62
     7
100
AcDbLine
 10
62.699188
 20
133.980108
 30
0.0
 11
62.820799
 21
133.910173
 31
0.0
  0
LINE
  5
10D
100
AcDbEntity
  8
レイヤー_2
 62
     7
100
AcDbLine
 10
69.34581
 20
144.624764
 30
0.0
 11
69.34581
 21
145.04231
 31
0.0
  0
LINE
  5
10C
100
AcDbEntity
  8
レイヤー_2
 62
     7
100
AcDbLine
 10
58.589533
 20
145.04231
 30
0.0
 11
58.589533
 21
144.624764
 31
0.0
  0
SPLINE
  5
10B
100
AcDbEntity
  8
レイヤー_2
 62
     7
100
AcDbSpline
210
0.0
220
0.0
230
1.0
 70
     8
 71
     3
 72
     8
 73
     4
 74
     0
 42
0.00000001
 43
0.00000001
 40
0.0
 40
0.0
 40
0.0
 40
0.0
 40
1.0
 40
1.0
 40
1.0
 40
1.0
 10
69.136865234374994
 20
142.95423719618054
 30
0.0
 10
69.252275933159723
 20
142.95423719618054
 30
0.0
 10
69.345810275607633
 20
143.04725477430554
 30
0.0
 10
69.345810275607633
 20
143.16300998263887
 30
0.0
  0
SPLINE
  5
10A
100
AcDbEntity
  8
レイヤー_2
 62
     7
100
AcDbSpline
210
0.0
220
0.0
230
1.0
 70
     8
 71
     3
 72
     8
 73
     4
 74
     0
 42
0.00000001
 43
0.00000001
 40
0.0
 40
0.0
 40
0.0
 40
0.0
 40
1.0
 40
1.0
 40
1.0
 40
1.0
 10
58.589533148871524
 20
143.16300998263887
 30
0.0
 10
58.589533148871524
 20
143.04725477430554
 30
0.0
 10
58.683239746093747
 20
142.95423719618054
 30
0.0
 10
58.797961425781246
 20
142.95423719618054
 30
0.0
  0
LINE
  5
109
100
AcDbEntity
  8
レイヤー_2
 62
     7
100
AcDbLine
 10
69.34581
 20
143.16301
 30
0.0
 11
69.34581
 21
144.624764
 31
0.0
  0
LINE
  5
108
100
AcDbEntity
  8
レイヤー_2
 62
     7
100
AcDbLine
 10
58.589533
 20
144.624764
 30
0.0
 11
58.589533
 21
143.16301
 31
0.0
  0
SPLINE
  5
107
100
AcDbEntity
  8
レイヤー_2
 62
     7
100
AcDbSpline
210
0.0
220
0.0
230
1.0
 70
     8
 71
     3
 72
    23
 73
    19
 74
     0
 42
0.00000001
 43
0.00000001
 40
0.0
 40
0.0
 40
0.0
 40
0.0
 40
1.0
 40
1.0
 40
1.0
 40
2.0
 40
2.0
 40
2.0
 40
3.0
 40
3.0
 40
3.0
 40
4.0
 40
4.0
 40
4.0
 40
5.0
 40
5.0
 40
5.0
 40
6.0
 40
6.0
 40
6.0
 40
6.0
 10
58.91698947482638
 20
142.87431098090278
 30
0.0
 10
58.91819525824652
 20
142.86328667534721
 30
0.0
 10
58.918539767795131
 20
142.85226236979165
 30
0.0
 10
58.9206068250868
 20
142.84227159288193
 30
0.0
 10
58.928013780381939
 20
142.80299750434025
 30
0.0
 10
58.953851996527774
 20
142.77509223090277
 30
0.0
 10
58.976761881510413
 20
142.75235460069442
 30
0.0
 10
59.003116861979159
 20
142.7268608940972
 30
0.0
 10
59.026199001736103
 20
142.70687934027777
 30
0.0
 10
59.051003689236104
 20
142.69034288194442
 30
0.0
 10
59.085282389322913
 20
142.66622721354165
 30
0.0
 10
59.123867458767357
 20
142.64831271701388
 30
0.0
 10
59.163486056857636
 20
142.63108723958331
 30
0.0
 10
59.225842285156247
 20
142.60490451388887
 30
0.0
 10
59.292332628038189
 20
142.5807888454861
 30
0.0
 10
59.383627658420131
 20
142.55805121527777
 30
0.0
 10
59.401542154947911
 20
142.55391710069443
 30
0.0
 10
59.42031792534722
 20
142.55047200520832
 30
0.0
 10
59.439093695746521
 20
142.54495985243054
 30
0.0
  0
SPLINE
  5
106
100
AcDbEntity
  8
レイヤー_2
 62
     7
100
AcDbSpline
210
0.0
220
0.0
230
1.0
 70
     8
 71
     3
 72
    14
 73
    10
 74
     0
 42
0.00000001
 43
0.00000001
 40
0.0
 40
0.0
 40
0.0
 40
0.0
 40
1.0
 40
1.0
 40
1.0
 40
2.0
 40
2.0
 40
2.0
 40
3.0
 40
3.0
 40
3.0
 40
3.0
 10
62.127473958333326
 20
142.25419379340278
 30
0.0
 10
62.127473958333326
 20
142.25419379340278
 30
0.0
 10
62.146766493055551
 20
142.25384928385415
 30
0.0
 10
62.146766493055551
 20
142.25384928385415
 30
0.0
 10
62.169848632812496
 20
142.25178222656248
 30
0.0
 10
62.19534233940972
 20
142.24351399739581
 30
0.0
 10
62.216357421874996
 20
142.22663302951386
 30
0.0
 10
62.216357421874996
 20
142.22663302951386
 30
0.0
 10
62.237889268663189
 20
142.20734049479165
 30
0.0
 10
62.237889268663189
 20
142.20734049479165
 30
0.0
  0
SPLINE
  5
105
100
AcDbEntity
  8
レイヤー_2
 62
     7
100
AcDbSpline
210
0.0
220
0.0
230
1.0
 70
     8
 71
     3
 72
     8
 73
     4
 74
     0
 42
0.00000001
 43
0.00000001
 40
0.0
 40
0.0
 40
0.0
 40
0.0
 40
1.0
 40
1.0
 40
1.0
 40
1.0
 10
62.239611816406246
 20
142.21009657118054
 30
0.0
 10
62.279574924045136
 20
142.17633463541665
 30
0.0
 10
62.32763400607638
 20
142.15979817708333
 30
0.0
 10
62.37534857855902
 20
142.16014268663193
 30
0.0
  0
SPLINE
  5
104
100
AcDbEntity
  8
レイヤー_2
 62
     7
100
AcDbSpline
210
0.0
220
0.0
230
1.0
 70
     8
 71
     3
 72
    14
 73
    10
 74
     0
 42
0.00000001
 43
0.00000001
 40
0.0
 40
0.0
 40
0.0
 40
0.0
 40
1.0
 40
1.0
 40
1.0
 40
2.0
 40
2.0
 40
2.0
 40
3.0
 40
3.0
 40
3.0
 40
3.0
 10
66.432809787326377
 20
142.21388617621525
 30
0.0
 10
66.432809787326377
 20
142.21388617621525
 30
0.0
 10
66.447623697916654
 20
142.22663302951386
 30
0.0
 10
66.447623697916654
 20
142.22663302951386
 30
0.0
 10
66.464332411024301
 20
142.24144694010414
 30
0.0
 10
66.481557888454859
 20
142.24902615017359
 30
0.0
 10
66.49740532769097
 20
142.25247124565971
 30
0.0
 10
66.507396104600687
 20
142.25350477430555
 30
0.0
 10
66.516353352864584
 20
142.25350477430555
 30
0.0
 10
66.525138346354154
 20
142.25247124565971
 30
0.0
  0
SPLINE
  5
103
100
AcDbEntity
  8
レイヤー_2
 62
     7
100
AcDbSpline
210
0.0
220
0.0
230
1.0
 70
     8
 71
     3
 72
     8
 73
     4
 74
     0
 42
0.00000001
 43
0.00000001
 40
0.0
 40
0.0
 40
0.0
 40
0.0
 40
1.0
 40
1.0
 40
1.0
 40
1.0
 10
66.291388617621521
 20
142.16014268663193
 30
0.0
 10
66.346337890624994
 20
142.16014268663193
 30
0.0
 10
66.395085991753461
 20
142.18115776909721
 30
0.0
 10
66.432293023003467
 20
142.2149197048611
 30
0.0
  0
SPLINE
  5
102
100
AcDbEntity
  8
レイヤー_2
 62
     7
100
AcDbSpline
210
0.0
220
0.0
230
1.0
 70
     8
 71
     3
 72
    20
 73
    16
 74
     0
 42
0.00000001
 43
0.00000001
 40
0.0
 40
0.0
 40
0.0
 40
0.0
 40
1.0
 40
1.0
 40
1.0
 40
2.0
 40
2.0
 40
2.0
 40
3.0
 40
3.0
 40
3.0
 40
4.0
 40
4.0
 40
4.0
 40
5.0
 40
5.0
 40
5.0
 40
5.0
 10
68.664542643229154
 20
142.51912163628472
 30
0.0
 10
68.692103407118054
 20
142.52601182725692
 30
0.0
 10
68.720008680555551
 20
142.5342800564236
 30
0.0
 10
68.745674641927081
 20
142.54323730468749
 30
0.0
 10
68.806480577256934
 20
142.56356336805555
 30
0.0
 10
68.85385064019097
 20
142.5873345269097
 30
0.0
 10
68.900187174479157
 20
142.62178548177081
 30
0.0
 10
68.92705891927082
 20
142.64176703559028
 30
0.0
 10
68.953241644965274
 20
142.66519368489583
 30
0.0
 10
68.979424370659714
 20
142.69895562065972
 30
0.0
 10
69.001817491319443
 20
142.72754991319442
 30
0.0
 10
69.024210611979157
 20
142.76268988715276
 30
0.0
 10
69.026966688368049
 20
142.8043755425347
 30
0.0
 10
69.028344726562494
 20
142.81918945312498
 30
0.0
 10
69.026966688368049
 20
142.83607042100692
 30
0.0
 10
69.025588650173603
 20
142.85226236979165
 30
0.0
  0
SPLINE
  5
101
100
AcDbEntity
  8
レイヤー_2
 62
     7
100
AcDbSpline
210
0.0
220
0.0
230
1.0
 70
     8
 71
     3
 72
     8
 73
     4
 74
     0
 42
0.00000001
 43
0.00000001
 40
0.0
 40
0.0
 40
0.0
 40
0.0
 40
1.0
 40
1.0
 40
1.0
 40
1.0
 10
58.911821831597216
 20
142.87121039496526
 30
0.0
 10
58.901142035590276
 20
142.91978624131943
 30
0.0
 10
58.858078342013883
 20
142.95423719618054
 30
0.0
 10
58.809330240885409
 20
142.95423719618054
 30
0.0
  0
SPLINE
  5
100
100
AcDbEntity
  8
レイヤー_2
 62
     7
100
AcDbSpline
210
0.0
220
0.0
230
1.0
 70
     8
 71
     3
 72
     8
 73
     4
 74
     0
 42
0.00000001
 43
0.00000001
 40
0.0
 40
0.0
 40
0.0
 40
0.0
 40
1.0
 40
1.0
 40
1.0
 40
1.0
 10
69.136865234374994
 20
142.95423719618054
 30
0.0
 10
69.079504394531241
 20
142.95423719618054
 30
0.0
 10
69.033340115017353
 20
142.90772840711804
 30
0.0
 10
69.032478841145831
 20
142.8505398220486
 30
0.0
  0
LINE
  5
FF
100
AcDbEntity
  8
レイヤー_2
 62
     7
100
AcDbLine
 10
64.779853
 20
134.031095
 30
0.0
 11
64.002467
 21
133.910173
 31
0.0
  0
SPLINE
  5
FE
100
AcDbEntity
  8
レイヤー_2
 62
     7
100
AcDbSpline
210
0.0
220
0.0
230
1.0
 70
     8
 71
     3
 72
    11
 73
     7
 74
     0
 42
0.00000001
 43
0.00000001
 40
0.0
 40
0.0
 40
0.0
 40
0.0
 40
1.0
 40
1.0
 40
1.0
 40
2.0
 40
2.0
 40
2.0
 40
2.0
 10
64.002467176649304
 20
133.91017252604166
 30
0.0
 10
63.98351915147569
 20
133.91017252604166
 30
0.0
 10
63.965432400173604
 20
133.91017252604166
 30
0.0
 10
63.946828884548609
 20
133.91086154513889
 30
0.0
 10
63.70326063368055
 20
133.91671820746527
 30
0.0
 10
63.463998752170134
 20
133.97425130208333
 30
0.0
 10
63.225425889756941
 20
134.03109537760415
 30
0.0
  0
LINE
  5
FD
100
AcDbEntity
  8
レイヤー_2
 62
     7
100
AcDbLine
 10
63.225426
 20
134.031095
 30
0.0
 11
63.225426
 21
136.295212
 31
0.0
  0
SPLINE
  5
FC
100
AcDbEntity
  8
レイヤー_2
 62
     7
100
AcDbSpline
210
0.0
220
0.0
230
1.0
 70
     8
 71
     3
 72
    11
 73
     7
 74
     0
 42
0.00000001
 43
0.00000001
 40
0.0
 40
0.0
 40
0.0
 40
0.0
 40
1.0
 40
1.0
 40
1.0
 40
2.0
 40
2.0
 40
2.0
 40
2.0
 10
64.002467176649304
 20
136.41647949218748
 30
0.0
 10
63.98351915147569
 20
136.41613498263888
 30
0.0
 10
63.965432400173604
 20
136.41613498263888
 30
0.0
 10
63.946828884548609
 20
136.41579047309025
 30
0.0
 10
63.70326063368055
 20
136.4102783203125
 30
0.0
 10
63.463998752170134
 20
136.35240071614581
 30
0.0
 10
63.225425889756941
 20
136.29521213107637
 30
0.0
  0
LINE
  5
FB
100
AcDbEntity
  8
レイヤー_2
 62
     7
100
AcDbLine
 10
64.779853
 20
136.295212
 30
0.0
 11
64.002467
 21
136.416479
 31
0.0
  0
LINE
  5
FA
100
AcDbEntity
  8
レイヤー_2
 62
     7
100
AcDbLine
 10
64.779853
 20
134.031095
 30
0.0
 11
64.779853
 21
136.295212
 31
0.0
  0
LINE
  5
F9
100
AcDbEntity
  8
レイヤー_2
 62
     7
100
AcDbLine
 10
65.255965
 20
142.152219
 30
0.0
 11
62.820799
 21
142.152219
 31
0.0
  0
LINE
  5
F8
100
AcDbEntity
  8
レイヤー_2
 62
     7
100
AcDbLine
 10
65.535707
 20
142.152219
 30
0.0
 11
65.255965
 21
142.152219
 31
0.0
  0
LINE
  5
F7
100
AcDbEntity
  8
レイヤー_2
 62
     7
100
AcDbLine
 10
65.255965
 20
141.846639
 30
0.0
 11
62.820799
 21
141.846639
 31
0.0
  0
LINE
  5
F6
100
AcDbEntity
  8
レイヤー_2
 62
     7
100
AcDbLine
 10
65.535707
 20
141.846639
 30
0.0
 11
65.255965
 21
141.846639
 31
0.0
  0
LINE
  5
F5
100
AcDbEntity
  8
レイヤー_2
 62
     7
100
AcDbLine
 10
65.007574
 20
141.304036
 30
0.0
 11
63.134303
 21
141.304036
 31
0.0
  0
LINE
  5
F4
100
AcDbEntity
  8
レイヤー_2
 62
     7
100
AcDbLine
 10
65.22272
 20
141.304036
 30
0.0
 11
65.007574
 21
141.304036
 31
0.0
  0
SPLINE
  5
F3
100
AcDbEntity
  8
レイヤー_2
 62
     7
100
AcDbSpline
210
0.0
220
0.0
230
1.0
 70
     8
 71
     3
 72
    11
 73
     7
 74
     0
 42
0.00000001
 43
0.00000001
 40
0.0
 40
0.0
 40
0.0
 40
0.0
 40
1.0
 40
1.0
 40
1.0
 40
2.0
 40
2.0
 40
2.0
 40
2.0
 10
65.255965169270823
 20
136.41647949218748
 30
0.0
 10
65.212901475694437
 20
136.41441243489581
 30
0.0
 10
65.16949327256944
 20
136.41303439670136
 30
0.0
 10
65.126946343315964
 20
136.40683322482639
 30
0.0
 10
65.009468587239581
 20
136.39064127604166
 30
0.0
 10
64.894402398003464
 20
136.34275444878472
 30
0.0
 10
64.779852973090271
 20
136.29521213107637
 30
0.0
  0
LINE
  5
F2
100
AcDbEntity
  8
レイヤー_2
 62
     7
100
AcDbLine
 10
65.255965
 20
136.416479
 30
0.0
 11
64.002467
 21
136.416479
 31
0.0
  0
SPLINE
  5
F1
100
AcDbEntity
  8
レイヤー_2
 62
     7
100
AcDbSpline
210
0.0
220
0.0
230
1.0
 70
     8
 71
     3
 72
    11
 73
     7
 74
     0
 42
0.00000001
 43
0.00000001
 40
0.0
 40
0.0
 40
0.0
 40
0.0
 40
1.0
 40
1.0
 40
1.0
 40
2.0
 40
2.0
 40
2.0
 40
2.0
 10
65.255965169270823
 20
133.91017252604166
 30
0.0
 10
65.212901475694437
 20
133.91223958333333
 30
0.0
 10
65.16949327256944
 20
133.91361762152778
 30
0.0
 10
65.126946343315964
 20
133.91981879340275
 30
0.0
 10
65.009468587239581
 20
133.9363552517361
 30
0.0
 10
64.894402398003464
 20
133.98424207899305
 30
0.0
 10
64.779852973090271
 20
134.03109537760415
 30
0.0
  0
LINE
  5
F0
100
AcDbEntity
  8
レイヤー_2
 62
     7
100
AcDbLine
 10
65.255965
 20
133.910173
 30
0.0
 11
64.002467
 21
133.910173
 31
0.0
  0
LINE
  5
EF
100
AcDbEntity
  8
レイヤー_2
 62
     7
100
AcDbLine
 10
63.225426
 20
136.295212
 30
0.0
 11
62.924497
 21
136.416479
 31
0.0
  0
LINE
  5
EE
100
AcDbEntity
  8
レイヤー_2
 62
     7
100
AcDbLine
 10
62.924497
 20
136.416479
 30
0.0
 11
64.002467
 21
136.416479
 31
0.0
  0
LINE
  5
ED
100
AcDbEntity
  8
レイヤー_2
 62
     7
100
AcDbLine
 10
63.225426
 20
134.031095
 30
0.0
 11
62.924497
 21
133.910173
 31
0.0
  0
LINE
  5
EC
100
AcDbEntity
  8
レイヤー_2
 62
     7
100
AcDbLine
 10
64.002467
 20
133.910173
 30
0.0
 11
62.924497
 21
133.910173
 31
0.0
  0
SPLINE
  5
EB
100
AcDbEntity
  8
レイヤー_2
 62
     7
100
AcDbSpline
210
0.0
220
0.0
230
1.0
 70
     8
 71
     3
 72
    11
 73
     7
 74
     0
 42
0.00000001
 43
0.00000001
 40
0.0
 40
0.0
 40
0.0
 40
0.0
 40
1.0
 40
1.0
 40
1.0
 40
2.0
 40
2.0
 40
2.0
 40
2.0
 10
65.732594129774299
 20
134.03109537760415
 30
0.0
 10
65.692803276909714
 20
134.01352539062498
 30
0.0
 10
65.65301242404513
 20
133.99526638454859
 30
0.0
 10
65.612188042534711
 20
133.98010796440971
 30
0.0
 10
65.495399305555551
 20
133.93773328993055
 30
0.0
 10
65.376199001736111
 20
133.92395290798609
 30
0.0
 10
65.255965169270823
 20
133.91017252604166
 30
0.0
  0
SPLINE
  5
EA
100
AcDbEntity
  8
レイヤー_2
 62
     7
100
AcDbSpline
210
0.0
220
0.0
230
1.0
 70
     8
 71
     3
 72
    11
 73
     7
 74
     0
 42
0.00000001
 43
0.00000001
 40
0.0
 40
0.0
 40
0.0
 40
0.0
 40
1.0
 40
1.0
 40
1.0
 40
2.0
 40
2.0
 40
2.0
 40
2.0
 10
65.732594129774299
 20
136.29521213107637
 30
0.0
 10
65.692803276909714
 20
136.31347113715276
 30
0.0
 10
65.65301242404513
 20
136.33207465277778
 30
0.0
 10
65.612188042534711
 20
136.34723307291665
 30
0.0
 10
65.495399305555551
 20
136.38891872829859
 30
0.0
 10
65.376199001736111
 20
136.40269911024305
 30
0.0
 10
65.255965169270823
 20
136.41647949218748
 30
0.0
  0
LINE
  5
E9
100
AcDbEntity
  8
レイヤー_2
 62
     7
100
AcDbLine
 10
65.732594
 20
134.031095
 30
0.0
 11
65.732594
 21
136.295212
 31
0.0
  0
SPLINE
  5
E8
100
AcDbEntity
  8
レイヤー_2
 62
     7
100
AcDbSpline
210
0.0
220
0.0
230
1.0
 70
     8
 71
     3
 72
    11
 73
     7
 74
     0
 42
0.00000001
 43
0.00000001
 40
0.0
 40
0.0
 40
0.0
 40
0.0
 40
1.0
 40
1.0
 40
1.0
 40
2.0
 40
2.0
 40
2.0
 40
2.0
 10
62.92449679904513
 20
133.91017252604166
 30
0.0
 10
62.92449679904513
 20
133.91017252604166
 30
0.0
 10
62.902964952256937
 20
133.91086154513889
 30
0.0
 10
62.902964952256937
 20
133.91086154513889
 30
0.0
 10
62.808913845486103
 20
133.91671820746527
 30
0.0
 10
62.717102050781243
 20
133.97425130208333
 30
0.0
 10
62.623739963107631
 20
134.03109537760415
 30
0.0
  0
LINE
  5
E7
100
AcDbEntity
  8
レイヤー_2
 62
     7
100
AcDbLine
 10
62.62374
 20
134.031095
 30
0.0
 11
62.62374
 21
136.295212
 31
0.0
  0
SPLINE
  5
E6
100
AcDbEntity
  8
レイヤー_2
 62
     7
100
AcDbSpline
210
0.0
220
0.0
230
1.0
 70
     8
 71
     3
 72
    11
 73
     7
 74
     0
 42
0.00000001
 43
0.00000001
 40
0.0
 40
0.0
 40
0.0
 40
0.0
 40
1.0
 40
1.0
 40
1.0
 40
2.0
 40
2.0
 40
2.0
 40
2.0
 10
62.92449679904513
 20
136.41647949218748
 30
0.0
 10
62.92449679904513
 20
136.41647949218748
 30
0.0
 10
62.902964952256937
 20
136.41579047309025
 30
0.0
 10
62.902964952256937
 20
136.41579047309025
 30
0.0
 10
62.808913845486103
 20
136.4102783203125
 30
0.0
 10
62.717102050781243
 20
136.35240071614581
 30
0.0
 10
62.623739963107631
 20
136.29521213107637
 30
0.0
  0
LINE
  5
E5
100
AcDbEntity
  8
レイヤー_2
 62
     7
100
AcDbLine
 10
65.648534
 20
136.331386
 30
0.0
 11
65.732594
 21
136.295212
 31
0.0
  0
LINE
  5
E4
100
AcDbEntity
  8
レイヤー_2
 62
     7
100
AcDbLine
 10
65.255965
 20
136.416479
 30
0.0
 11
65.535707
 21
136.416479
 31
0.0
  0
LINE
  5
E3
100
AcDbEntity
  8
レイヤー_2
 62
     7
100
AcDbLine
 10
65.648534
 20
133.995611
 30
0.0
 11
65.732594
 21
134.031095
 31
0.0
  0
LINE
  5
E2
100
AcDbEntity
  8
レイヤー_2
 62
     7
100
AcDbLine
 10
65.535707
 20
133.910173
 30
0.0
 11
65.255965
 21
133.910173
 31
0.0
  0
LINE
  5
E1
100
AcDbEntity
  8
レイヤー_2
 62
     7
100
AcDbLine
 10
62.820799
 20
136.416479
 30
0.0
 11
62.924497
 21
136.416479
 31
0.0
  0
LINE
  5
E0
100
AcDbEntity
  8
レイヤー_2
 62
     7
100
AcDbLine
 10
62.924497
 20
133.910173
 30
0.0
 11
62.820799
 21
133.910173
 31
0.0
  0
LINE
  5
DF
100
AcDbEntity
  8
レイヤー_2
 62
     7
100
AcDbLine
 10
58.589533
 20
145.04231
 30
0.0
 11
69.34581
 21
145.04231
 31
0.0
  0
LINE
  5
DE
100
AcDbEntity
  8
レイヤー_2
 62
     7
100
AcDbLine
 10
58.589533
 20
144.624764
 30
0.0
 11
69.311532
 21
144.624764
 31
0.0
  0
LINE
  5
DD
100
AcDbEntity
  8
レイヤー_2
 62
     7
100
AcDbLine
 10
69.136865
 20
142.954237
 30
0.0
 11
69.135659
 21
142.954237
 31
0.0
  0
LINE
  5
DC
100
AcDbEntity
  8
レイヤー_2
 62
     7
100
AcDbLine
 10
69.135659
 20
142.954237
 30
0.0
 11
58.882366
 21
142.954237
 31
0.0
  0
LINE
  5
DB
100
AcDbEntity
  8
レイヤー_2
 62
     7
100
AcDbLine
 10
69.34581
 20
144.624764
 30
0.0
 11
69.311532
 21
144.624764
 31
0.0
  0
SPLINE
  5
DA
100
AcDbEntity
  8
レイヤー_2
 62
     7
100
AcDbSpline
210
0.0
220
0.0
230
1.0
 70
     8
 71
     3
 72
     8
 73
     4
 74
     0
 42
0.00000001
 43
0.00000001
 40
0.0
 40
0.0
 40
0.0
 40
0.0
 40
1.0
 40
1.0
 40
1.0
 40
1.0
 10
69.135659450954861
 20
142.95423719618054
 30
0.0
 10
69.07864312065972
 20
142.95423719618054
 30
0.0
 10
69.031789822048609
 20
142.90669487847222
 30
0.0
 10
69.031789822048609
 20
142.84916178385416
 30
0.0
  0
LINE
  5
D9
100
AcDbEntity
  8
レイヤー_2
 62
     7
100
AcDbLine
 10
66.291389
 20
142.160143
 30
0.0
 11
62.375349
 21
142.160143
 31
0.0
  0
SPLINE
  5
D8
100
AcDbEntity
  8
レイヤー_2
 62
     7
100
AcDbSpline
210
0.0
220
0.0
230
1.0
 70
     8
 71
     3
 72
     8
 73
     4
 74
     0
 42
0.00000001
 43
0.00000001
 40
0.0
 40
0.0
 40
0.0
 40
0.0
 40
1.0
 40
1.0
 40
1.0
 40
1.0
 10
59.484224446614576
 20
142.5404812282986
 30
0.0
 10
60.002883572048603
 20
142.41232367621527
 30
0.0
 10
60.979223632812491
 20
142.31344943576389
 30
0.0
 10
62.136431206597216
 20
142.25694986979164
 30
0.0
  0
LINE
  5
D7
100
AcDbEntity
  8
レイヤー_2
 62
     7
100
AcDbLine
 10
69.027483
 20
142.851573
 30
0.0
 11
69.03179
 21
142.849162
 31
0.0
  0
SPLINE
  5
D6
100
AcDbEntity
  8
レイヤー_2
 62
     7
100
AcDbSpline
210
0.0
220
0.0
230
1.0
 70
     8
 71
     3
 72
     8
 73
     4
 74
     0
 42
0.00000001
 43
0.00000001
 40
0.0
 40
0.0
 40
0.0
 40
0.0
 40
1.0
 40
1.0
 40
1.0
 40
1.0
 10
66.509290907118043
 20
142.25626085069445
 30
0.0
 10
67.555394151475681
 20
142.31138237847222
 30
0.0
 10
68.272663031684019
 20
142.40302191840277
 30
0.0
 10
68.604770236545136
 20
142.50775282118053
 30
0.0
  0
LINE
  5
D5
100
AcDbEntity
  8
レイヤー_2
 62
     7
100
AcDbLine
 10
66.789033
 20
153.397183
 30
0.0
 11
66.789033
 21
145.112245
 31
0.0
  0
LINE
  5
D4
100
AcDbEntity
  8
レイヤー_2
 62
     7
100
AcDbLine
 10
65.01343
 20
153.397183
 30
0.0
 11
65.01343
 21
145.04231
 31
0.0
  0
LINE
  5
D3
100
AcDbEntity
  8
レイヤー_2
 62
     7
100
AcDbLine
 10
63.342904
 20
153.397183
 30
0.0
 11
63.342904
 21
145.04231
 31
0.0
  0
LINE
  5
D2
100
AcDbEntity
  8
レイヤー_2
 62
     7
100
AcDbLine
 10
61.567474
 20
153.397183
 30
0.0
 11
61.567474
 21
145.04231
 31
0.0
  0
LINE
  5
D1
100
AcDbEntity
  8
レイヤー_2
 62
     7
100
AcDbLine
 10
62.965149
 20
200.075298
 30
0.0
 11
62.965149
 21
198.613889
 31
0.0
  0
LINE
  5
D0
100
AcDbEntity
  8
レイヤー_2
 62
     7
100
AcDbLine
 10
65.391874
 20
198.613889
 30
0.0
 11
62.965149
 21
198.613889
 31
0.0
  0
LINE
  5
CF
100
AcDbEntity
  8
レイヤー_2
 62
     7
100
AcDbLine
 10
65.391874
 20
198.613889
 30
0.0
 11
65.391874
 21
200.075298
 31
0.0
  0
LINE
  5
CE
100
AcDbEntity
  8
レイヤー_2
 62
     7
100
AcDbLine
 10
62.965149
 20
200.075298
 30
0.0
 11
65.391874
 21
200.075298
 31
0.0
  0
LINE
  5
CD
100
AcDbEntity
  8
レイヤー_2
 62
     7
100
AcDbLine
 10
65.255448
 20
199.259844
 30
0.0
 11
65.255448
 21
199.269146
 31
0.0
  0
LINE
  5
CC
100
AcDbEntity
  8
レイヤー_2
 62
     7
100
AcDbLine
 10
63.101919
 20
199.269146
 30
0.0
 11
65.255448
 21
199.269146
 31
0.0
  0
LINE
  5
CB
100
AcDbEntity
  8
レイヤー_2
 62
     7
100
AcDbLine
 10
63.101919
 20
199.269146
 30
0.0
 11
63.101919
 21
199.259844
 31
0.0
  0
LINE
  5
CA
100
AcDbEntity
  8
レイヤー_2
 62
     7
100
AcDbLine
 10
63.101919
 20
199.259844
 30
0.0
 11
65.255448
 21
199.259844
 31
0.0
  0
LINE
  5
C9
100
AcDbEntity
  8
レイヤー_2
 62
     7
100
AcDbLine
 10
64.74678
 20
199.879789
 30
0.0
 11
65.255448
 21
199.32978
 31
0.0
  0
LINE
  5
C8
100
AcDbEntity
  8
レイヤー_2
 62
     7
100
AcDbLine
 10
65.255448
 20
199.32978
 30
0.0
 11
65.255448
 21
199.960404
 31
0.0
  0
LINE
  5
C7
100
AcDbEntity
  8
レイヤー_2
 62
     7
100
AcDbLine
 10
65.255448
 20
199.960404
 30
0.0
 11
65.21893
 21
199.960404
 31
0.0
  0
LINE
  5
C6
100
AcDbEntity
  8
レイヤー_2
 62
     7
100
AcDbLine
 10
65.21893
 20
199.960404
 30
0.0
 11
65.21893
 21
199.422453
 31
0.0
  0
LINE
  5
C5
100
AcDbEntity
  8
レイヤー_2
 62
     7
100
AcDbLine
 10
65.21893
 20
199.422453
 30
0.0
 11
64.709573
 21
199.972979
 31
0.0
  0
LINE
  5
C4
100
AcDbEntity
  8
レイヤー_2
 62
     7
100
AcDbLine
 10
64.709573
 20
199.353551
 30
0.0
 11
64.709573
 21
199.972979
 31
0.0
  0
LINE
  5
C3
100
AcDbEntity
  8
レイヤー_2
 62
     7
100
AcDbLine
 10
64.709573
 20
199.353551
 30
0.0
 11
64.74678
 21
199.353551
 31
0.0
  0
LINE
  5
C2
100
AcDbEntity
  8
レイヤー_2
 62
     7
100
AcDbLine
 10
64.74678
 20
199.353551
 30
0.0
 11
64.74678
 21
199.879789
 31
0.0
  0
SPLINE
  5
C1
100
AcDbEntity
  8
レイヤー_2
 62
     7
100
AcDbSpline
210
0.0
220
0.0
230
1.0
 70
     8
 71
     3
 72
    17
 73
    13
 74
     0
 42
0.00000001
 43
0.00000001
 40
0.0
 40
0.0
 40
0.0
 40
0.0
 40
1.0
 40
1.0
 40
1.0
 40
2.0
 40
2.0
 40
2.0
 40
3.0
 40
3.0
 40
3.0
 40
4.0
 40
4.0
 40
4.0
 40
4.0
 10
64.223297797309016
 20
199.65671929253472
 30
0.0
 10
64.223297797309016
 20
199.83345269097219
 30
0.0
 10
64.080154079861103
 20
199.97625189887151
 30
0.0
 10
63.904454210069439
 20
199.97625189887151
 30
0.0
 10
63.728065321180551
 20
199.97625189887151
 30
0.0
 10
63.584921603732631
 20
199.83345269097219
 30
0.0
 10
63.584921603732631
 20
199.65671929253472
 30
0.0
 10
63.584921603732631
 20
199.48101942274303
 30
0.0
 10
63.728065321180551
 20
199.33822021484374
 30
0.0
 10
63.904454210069439
 20
199.33822021484374
 30
0.0
 10
64.080154079861103
 20
199.33822021484374
 30
0.0
 10
64.223297797309016
 20
199.48101942274303
 30
0.0
 10
64.223297797309016
 20
199.65671929253472
 30
0.0
  0
LINE
  5
C0
100
AcDbEntity
  8
レイヤー_2
 62
     7
100
AcDbLine
 10
64.352833
 20
199.644834
 30
0.0
 11
64.37471
 21
199.644834
 31
0.0
  0
LINE
  5
BF
100
AcDbEntity
  8
レイヤー_2
 62
     7
100
AcDbLine
 10
64.37471
 20
199.644834
 30
0.0
 11
64.575731
 21
199.353551
 31
0.0
  0
LINE
  5
BE
100
AcDbEntity
  8
レイヤー_2
 62
     7
100
AcDbLine
 10
64.575731
 20
199.353551
 30
0.0
 11
64.616728
 21
199.353551
 31
0.0
  0
LINE
  5
BD
100
AcDbEntity
  8
レイヤー_2
 62
     7
100
AcDbLine
 10
64.415362
 20
199.644834
 30
0.0
 11
64.616728
 21
199.353551
 31
0.0
  0
LINE
  5
BC
100
AcDbEntity
  8
レイヤー_2
 62
     7
100
AcDbLine
 10
64.415362
 20
199.644834
 30
0.0
 11
64.431554
 21
199.644834
 31
0.0
  0
SPLINE
  5
BB
100
AcDbEntity
  8
レイヤー_2
 62
     7
100
AcDbSpline
210
0.0
220
0.0
230
1.0
 70
     8
 71
     3
 72
     8
 73
     4
 74
     0
 42
0.00000001
 43
0.00000001
 40
0.0
 40
0.0
 40
0.0
 40
0.0
 40
1.0
 40
1.0
 40
1.0
 40
1.0
 10
64.589166937934024
 20
199.80279134114582
 30
0.0
 10
64.589166937934024
 20
199.88978000217011
 30
0.0
 10
64.51837022569444
 20
199.96040445963538
 30
0.0
 10
64.431553819444431
 20
199.96040445963538
 30
0.0
  0
SPLINE
  5
BA
100
AcDbEntity
  8
レイヤー_2
 62
     7
100
AcDbSpline
210
0.0
220
0.0
230
1.0
 70
     8
 71
     3
 72
     8
 73
     4
 74
     0
 42
0.00000001
 43
0.00000001
 40
0.0
 40
0.0
 40
0.0
 40
0.0
 40
1.0
 40
1.0
 40
1.0
 40
1.0
 10
64.431553819444431
 20
199.64483371310763
 30
0.0
 10
64.51837022569444
 20
199.64483371310763
 30
0.0
 10
64.589166937934024
 20
199.7156304253472
 30
0.0
 10
64.589166937934024
 20
199.80279134114582
 30
0.0
  0
LINE
  5
B9
100
AcDbEntity
  8
レイヤー_2
 62
     7
100
AcDbLine
 10
64.316315
 20
199.960404
 30
0.0
 11
64.431554
 21
199.960404
 31
0.0
  0
LINE
  5
B8
100
AcDbEntity
  8
レイヤー_2
 62
     7
100
AcDbLine
 10
64.316315
 20
199.353551
 30
0.0
 11
64.316315
 21
199.960404
 31
0.0
  0
LINE
  5
B7
100
AcDbEntity
  8
レイヤー_2
 62
     7
100
AcDbLine
 10
64.316315
 20
199.353551
 30
0.0
 11
64.352833
 21
199.353551
 31
0.0
  0
LINE
  5
B6
100
AcDbEntity
  8
レイヤー_2
 62
     7
100
AcDbLine
 10
64.352833
 20
199.353551
 30
0.0
 11
64.352833
 21
199.644834
 31
0.0
  0
LINE
  5
B5
100
AcDbEntity
  8
レイヤー_2
 62
     7
100
AcDbLine
 10
63.101919
 20
199.960404
 30
0.0
 11
63.101919
 21
199.353551
 31
0.0
  0
LINE
  5
B4
100
AcDbEntity
  8
レイヤー_2
 62
     7
100
AcDbLine
 10
63.101919
 20
199.353551
 30
0.0
 11
63.226115
 21
199.353551
 31
0.0
  0
SPLINE
  5
B3
100
AcDbEntity
  8
レイヤー_2
 62
     7
100
AcDbSpline
210
0.0
220
0.0
230
1.0
 70
     8
 71
     3
 72
     8
 73
     4
 74
     0
 42
0.00000001
 43
0.00000001
 40
0.0
 40
0.0
 40
0.0
 40
0.0
 40
1.0
 40
1.0
 40
1.0
 40
1.0
 10
63.52911105685763
 20
199.65671929253472
 30
0.0
 10
63.52911105685763
 20
199.82483995225692
 30
0.0
 10
63.393546549479161
 20
199.96040445963538
 30
0.0
 10
63.226114908854164
 20
199.96040445963538
 30
0.0
  0
SPLINE
  5
B2
100
AcDbEntity
  8
レイヤー_2
 62
     7
100
AcDbSpline
210
0.0
220
0.0
230
1.0
 70
     8
 71
     3
 72
     8
 73
     4
 74
     0
 42
0.00000001
 43
0.00000001
 40
0.0
 40
0.0
 40
0.0
 40
0.0
 40
1.0
 40
1.0
 40
1.0
 40
1.0
 10
63.226114908854164
 20
199.35355088975692
 30
0.0
 10
63.393546549479161
 20
199.35355088975692
 30
0.0
 10
63.52911105685763
 20
199.489459906684
 30
0.0
 10
63.52911105685763
 20
199.65671929253472
 30
0.0
  0
SPLINE
  5
B1
100
AcDbEntity
  8
レイヤー_2
 62
     7
100
AcDbSpline
210
0.0
220
0.0
230
1.0
 70
     8
 71
     3
 72
    17
 73
    13
 74
     0
 42
0.00000001
 43
0.00000001
 40
0.0
 40
0.0
 40
0.0
 40
0.0
 40
1.0
 40
1.0
 40
1.0
 40
2.0
 40
2.0
 40
2.0
 40
3.0
 40
3.0
 40
3.0
 40
4.0
 40
4.0
 40
4.0
 40
4.0
 10
64.502522786458329
 20
199.09775254991317
 30
0.0
 10
64.460492621527777
 20
199.1416775173611
 30
0.0
 10
64.404165310329859
 20
199.16458740234373
 30
0.0
 10
64.347665744357627
 20
199.16458740234373
 30
0.0
 10
64.229326714409723
 20
199.16458740234373
 30
0.0
 10
64.133553059895831
 20
199.06864149305554
 30
0.0
 10
64.133553059895831
 20
198.95064697265624
 30
0.0
 10
64.133553059895831
 20
198.83230794270833
 30
0.0
 10
64.229326714409723
 20
198.73653428819443
 30
0.0
 10
64.347665744357627
 20
198.73653428819443
 30
0.0
 10
64.408127170138883
 20
198.73653428819443
 30
0.0
 10
64.463765462239579
 20
198.76202799479165
 30
0.0
 10
64.502522786458329
 20
198.80302463107637
 30
0.0
  0
LINE
  5
B0
100
AcDbEntity
  8
レイヤー_2
 62
     7
100
AcDbLine
 10
64.502523
 20
199.144089
 30
0.0
 11
64.502523
 21
199.097753
 31
0.0
  0
SPLINE
  5
AF
100
AcDbEntity
  8
レイヤー_2
 62
     7
100
AcDbSpline
210
0.0
220
0.0
230
1.0
 70
     8
 71
     3
 72
    17
 73
    13
 74
     0
 42
0.00000001
 43
0.00000001
 40
0.0
 40
0.0
 40
0.0
 40
0.0
 40
1.0
 40
1.0
 40
1.0
 40
2.0
 40
2.0
 40
2.0
 40
3.0
 40
3.0
 40
3.0
 40
4.0
 40
4.0
 40
4.0
 40
4.0
 10
64.502522786458329
 20
199.14408908420137
 30
0.0
 10
64.456530761718739
 20
199.18077935112845
 30
0.0
 10
64.401064724392356
 20
199.19852159288192
 30
0.0
 10
64.347665744357627
 20
199.19852159288192
 30
0.0
 10
64.210378689236109
 20
199.19852159288192
 30
0.0
 10
64.099274359809016
 20
199.08707275390623
 30
0.0
 10
64.099274359809016
 20
198.95064697265624
 30
0.0
 10
64.099274359809016
 20
198.81353217230901
 30
0.0
 10
64.210378689236109
 20
198.70260009765624
 30
0.0
 10
64.347665744357627
 20
198.70260009765624
 30
0.0
 10
64.405887858072916
 20
198.70260009765624
 30
0.0
 10
64.460492621527777
 20
198.7234429253472
 30
0.0
 10
64.502522786458329
 20
198.75686035156249
 30
0.0
  0
LINE
  5
AE
100
AcDbEntity
  8
レイヤー_2
 62
     7
100
AcDbLine
 10
64.502523
 20
198.803025
 30
0.0
 11
64.502523
 21
198.75686
 31
0.0
  0
LINE
  5
AD
100
AcDbEntity
  8
レイヤー_2
 62
     7
100
AcDbLine
 10
63.101919
 20
199.184397
 30
0.0
 11
63.101919
 21
198.716725
 31
0.0
  0
LINE
  5
AC
100
AcDbEntity
  8
レイヤー_2
 62
     7
100
AcDbLine
 10
63.101919
 20
198.716725
 30
0.0
 11
63.244374
 21
198.716725
 31
0.0
  0
SPLINE
  5
AB
100
AcDbEntity
  8
レイヤー_2
 62
     7
100
AcDbSpline
210
0.0
220
0.0
230
1.0
 70
     8
 71
     3
 72
     8
 73
     4
 74
     0
 42
0.00000001
 43
0.00000001
 40
0.0
 40
0.0
 40
0.0
 40
0.0
 40
1.0
 40
1.0
 40
1.0
 40
1.0
 10
63.377526855468744
 20
198.85056694878472
 30
0.0
 10
63.377526855468744
 20
198.90706651475693
 30
0.0
 10
63.342386881510414
 20
198.95529785156248
 30
0.0
 10
63.291571723090271
 20
198.97545166015624
 30
0.0
  0
SPLINE
  5
AA
100
AcDbEntity
  8
レイヤー_2
 62
     7
100
AcDbSpline
210
0.0
220
0.0
230
1.0
 70
     8
 71
     3
 72
     8
 73
     4
 74
     0
 42
0.00000001
 43
0.00000001
 40
0.0
 40
0.0
 40
0.0
 40
0.0
 40
1.0
 40
1.0
 40
1.0
 40
1.0
 10
63.244373914930549
 20
198.7167249891493
 30
0.0
 10
63.318271213107636
 20
198.7167249891493
 30
0.0
 10
63.377526855468744
 20
198.77666965060763
 30
0.0
 10
63.377526855468744
 20
198.85056694878472
 30
0.0
  0
SPLINE
  5
A9
100
AcDbEntity
  8
レイヤー_2
 62
     7
100
AcDbSpline
210
0.0
220
0.0
230
1.0
 70
     8
 71
     3
 72
     8
 73
     4
 74
     0
 42
0.00000001
 43
0.00000001
 40
0.0
 40
0.0
 40
0.0
 40
0.0
 40
1.0
 40
1.0
 40
1.0
 40
1.0
 10
63.334290907118053
 20
199.06554090711805
 30
0.0
 10
63.334290907118053
 20
199.13134223090276
 30
0.0
 10
63.281408691406241
 20
199.18439670138886
 30
0.0
 10
63.215607367621523
 20
199.18439670138886
 30
0.0
  0
SPLINE
  5
A8
100
AcDbEntity
  8
レイヤー_2
 62
     7
100
AcDbSpline
210
0.0
220
0.0
230
1.0
 70
     8
 71
     3
 72
     8
 73
     4
 74
     0
 42
0.00000001
 43
0.00000001
 40
0.0
 40
0.0
 40
0.0
 40
0.0
 40
1.0
 40
1.0
 40
1.0
 40
1.0
 10
63.292088487413189
 20
198.97545166015624
 30
0.0
 10
63.320166015624991
 20
198.99870605468749
 30
0.0
 10
63.334290907118053
 20
199.03177897135416
 30
0.0
 10
63.334290907118053
 20
199.06554090711805
 30
0.0
  0
LINE
  5
A7
100
AcDbEntity
  8
レイヤー_2
 62
     7
100
AcDbLine
 10
63.101919
 20
199.184397
 30
0.0
 11
63.215607
 21
199.184397
 31
0.0
  0
LINE
  5
A6
100
AcDbEntity
  8
レイヤー_2
 62
     7
100
AcDbLine
 10
63.44574
 20
199.184397
 30
0.0
 11
63.44574
 21
198.716725
 31
0.0
  0
LINE
  5
A5
100
AcDbEntity
  8
レイヤー_2
 62
     7
100
AcDbLine
 10
63.44574
 20
198.716725
 30
0.0
 11
63.481569
 21
198.716725
 31
0.0
  0
LINE
  5
A4
100
AcDbEntity
  8
レイヤー_2
 62
     7
100
AcDbLine
 10
63.481569
 20
198.716725
 30
0.0
 11
63.481569
 21
198.940139
 31
0.0
  0
LINE
  5
A3
100
AcDbEntity
  8
レイヤー_2
 62
     7
100
AcDbLine
 10
63.481569
 20
198.940139
 30
0.0
 11
63.490526
 21
198.940139
 31
0.0
  0
LINE
  5
A2
100
AcDbEntity
  8
レイヤー_2
 62
     7
100
AcDbLine
 10
63.490526
 20
198.940139
 30
0.0
 11
63.634359
 21
198.716725
 31
0.0
  0
LINE
  5
A1
100
AcDbEntity
  8
レイヤー_2
 62
     7
100
AcDbLine
 10
63.634359
 20
198.716725
 30
0.0
 11
63.674666
 21
198.716725
 31
0.0
  0
LINE
  5
A0
100
AcDbEntity
  8
レイヤー_2
 62
     7
100
AcDbLine
 10
63.531006
 20
198.940139
 30
0.0
 11
63.674666
 21
198.716725
 31
0.0
  0
LINE
  5
9F
100
AcDbEntity
  8
レイヤー_2
 62
     7
100
AcDbLine
 10
63.531006
 20
198.940139
 30
0.0
 11
63.537896
 21
198.940139
 31
0.0
  0
SPLINE
  5
9E
100
AcDbEntity
  8
レイヤー_2
 62
     7
100
AcDbSpline
210
0.0
220
0.0
230
1.0
 70
     8
 71
     3
 72
     8
 73
     4
 74
     0
 42
0.00000001
 43
0.00000001
 40
0.0
 40
0.0
 40
0.0
 40
0.0
 40
1.0
 40
1.0
 40
1.0
 40
1.0
 10
63.659335666232636
 20
199.06209581163193
 30
0.0
 10
63.659335666232636
 20
199.12927517361109
 30
0.0
 10
63.604386393229163
 20
199.18439670138886
 30
0.0
 10
63.537896050347214
 20
199.18439670138886
 30
0.0
  0
SPLINE
  5
9D
100
AcDbEntity
  8
レイヤー_2
 62
     7
100
AcDbSpline
210
0.0
220
0.0
230
1.0
 70
     8
 71
     3
 72
     8
 73
     4
 74
     0
 42
0.00000001
 43
0.00000001
 40
0.0
 40
0.0
 40
0.0
 40
0.0
 40
1.0
 40
1.0
 40
1.0
 40
1.0
 10
63.537896050347214
 20
198.9401394314236
 30
0.0
 10
63.604386393229163
 20
198.9401394314236
 30
0.0
 10
63.659335666232636
 20
198.99491644965275
 30
0.0
 10
63.659335666232636
 20
199.06209581163193
 30
0.0
  0
LINE
  5
9C
100
AcDbEntity
  8
レイヤー_2
 62
     7
100
AcDbLine
 10
63.44574
 20
199.184397
 30
0.0
 11
63.537896
 21
199.184397
 31
0.0
  0
LINE
  5
9B
100
AcDbEntity
  8
レイヤー_2
 62
     7
100
AcDbLine
 10
63.784393
 20
198.871754
 30
0.0
 11
63.986792
 21
198.871754
 31
0.0
  0
LINE
  5
9A
100
AcDbEntity
  8
レイヤー_2
 62
     7
100
AcDbLine
 10
63.986792
 20
198.871754
 30
0.0
 11
64.050182
 21
198.716725
 31
0.0
  0
LINE
  5
99
100
AcDbEntity
  8
レイヤー_2
 62
     7
100
AcDbLine
 10
64.050182
 20
198.716725
 30
0.0
 11
64.086872
 21
198.716725
 31
0.0
  0
LINE
  5
98
100
AcDbEntity
  8
レイヤー_2
 62
     7
100
AcDbLine
 10
63.885678
 20
199.208168
 30
0.0
 11
64.086872
 21
198.716725
 31
0.0
  0
LINE
  5
97
100
AcDbEntity
  8
レイヤー_2
 62
     7
100
AcDbLine
 10
63.683968
 20
198.716725
 30
0.0
 11
63.885678
 21
199.208168
 31
0.0
  0
LINE
  5
96
100
AcDbEntity
  8
レイヤー_2
 62
     7
100
AcDbLine
 10
63.683968
 20
198.716725
 30
0.0
 11
63.720831
 21
198.716725
 31
0.0
  0
LINE
  5
95
100
AcDbEntity
  8
レイヤー_2
 62
     7
100
AcDbLine
 10
63.720831
 20
198.716725
 30
0.0
 11
63.784393
 21
198.871754
 31
0.0
  0
LINE
  5
94
100
AcDbEntity
  8
レイヤー_2
 62
     7
100
AcDbLine
 10
64.612938
 20
198.716725
 30
0.0
 11
64.612938
 21
198.947546
 31
0.0
  0
LINE
  5
93
100
AcDbEntity
  8
レイヤー_2
 62
     7
100
AcDbLine
 10
64.887512
 20
198.947546
 30
0.0
 11
64.612938
 21
198.947546
 31
0.0
  0
LINE
  5
92
100
AcDbEntity
  8
レイヤー_2
 62
     7
100
AcDbLine
 10
64.887512
 20
198.947546
 30
0.0
 11
64.887512
 21
198.716725
 31
0.0
  0
LINE
  5
91
100
AcDbEntity
  8
レイヤー_2
 62
     7
100
AcDbLine
 10
64.923513
 20
198.716725
 30
0.0
 11
64.887512
 21
198.716725
 31
0.0
  0
LINE
  5
90
100
AcDbEntity
  8
レイヤー_2
 62
     7
100
AcDbLine
 10
64.923513
 20
198.716725
 30
0.0
 11
64.923513
 21
199.184397
 31
0.0
  0
LINE
  5
8F
100
AcDbEntity
  8
レイヤー_2
 62
     7
100
AcDbLine
 10
64.887512
 20
199.184397
 30
0.0
 11
64.923513
 21
199.184397
 31
0.0
  0
LINE
  5
8E
100
AcDbEntity
  8
レイヤー_2
 62
     7
100
AcDbLine
 10
64.887512
 20
199.184397
 30
0.0
 11
64.887512
 21
198.983548
 31
0.0
  0
LINE
  5
8D
100
AcDbEntity
  8
レイヤー_2
 62
     7
100
AcDbLine
 10
64.612938
 20
198.983548
 30
0.0
 11
64.887512
 21
198.983548
 31
0.0
  0
LINE
  5
8C
100
AcDbEntity
  8
レイヤー_2
 62
     7
100
AcDbLine
 10
64.612938
 20
198.983548
 30
0.0
 11
64.612938
 21
199.184397
 31
0.0
  0
LINE
  5
8B
100
AcDbEntity
  8
レイヤー_2
 62
     7
100
AcDbLine
 10
64.576765
 20
199.184397
 30
0.0
 11
64.612938
 21
199.184397
 31
0.0
  0
LINE
  5
8A
100
AcDbEntity
  8
レイヤー_2
 62
     7
100
AcDbLine
 10
64.576765
 20
199.184397
 30
0.0
 11
64.576765
 21
198.716725
 31
0.0
  0
LINE
  5
89
100
AcDbEntity
  8
レイヤー_2
 62
     7
100
AcDbLine
 10
64.612938
 20
198.716725
 30
0.0
 11
64.576765
 21
198.716725
 31
0.0
  0
LINE
  5
88
100
AcDbEntity
  8
レイヤー_2
 62
     7
100
AcDbLine
 10
65.093184
 20
198.716725
 30
0.0
 11
65.093184
 21
199.14719
 31
0.0
  0
LINE
  5
87
100
AcDbEntity
  8
レイヤー_2
 62
     7
100
AcDbLine
 10
65.093184
 20
198.716725
 30
0.0
 11
65.129013
 21
198.716725
 31
0.0
  0
LINE
  5
86
100
AcDbEntity
  8
レイヤー_2
 62
     7
100
AcDbLine
 10
65.129013
 20
199.14719
 30
0.0
 11
65.129013
 21
198.716725
 31
0.0
  0
LINE
  5
85
100
AcDbEntity
  8
レイヤー_2
 62
     7
100
AcDbLine
 10
65.255448
 20
199.14719
 30
0.0
 11
65.129013
 21
199.14719
 31
0.0
  0
LINE
  5
84
100
AcDbEntity
  8
レイヤー_2
 62
     7
100
AcDbLine
 10
65.255448
 20
199.14719
 30
0.0
 11
65.255448
 21
199.184397
 31
0.0
  0
LINE
  5
83
100
AcDbEntity
  8
レイヤー_2
 62
     7
100
AcDbLine
 10
64.967611
 20
199.184397
 30
0.0
 11
65.255448
 21
199.184397
 31
0.0
  0
LINE
  5
82
100
AcDbEntity
  8
レイヤー_2
 62
     7
100
AcDbLine
 10
64.967611
 20
199.184397
 30
0.0
 11
64.967611
 21
199.14719
 31
0.0
  0
LINE
  5
81
100
AcDbEntity
  8
レイヤー_2
 62
     7
100
AcDbLine
 10
65.382572
 20
198.623018
 30
0.0
 11
62.974278
 21
198.623018
 31
0.0
  0
LINE
  5
80
100
AcDbEntity
  8
レイヤー_2
 62
     7
100
AcDbLine
 10
62.974278
 20
200.06703
 30
0.0
 11
65.382572
 21
200.06703
 31
0.0
  0
LINE
  5
7F
100
AcDbEntity
  8
レイヤー_2
 62
     7
100
AcDbLine
 10
65.382572
 20
198.623018
 30
0.0
 11
65.382572
 21
200.06703
 31
0.0
  0
LINE
  5
7E
100
AcDbEntity
  8
レイヤー_2
 62
     7
100
AcDbLine
 10
63.101919
 20
199.960404
 30
0.0
 11
63.226115
 21
199.960404
 31
0.0
  0
LINE
  5
7D
100
AcDbEntity
  8
レイヤー_2
 62
     7
100
AcDbLine
 10
65.093184
 20
199.14719
 30
0.0
 11
64.967611
 21
199.14719
 31
0.0
  0
LINE
  5
7C
100
AcDbEntity
  8
レイヤー_2
 62
     7
100
AcDbLine
 10
62.974278
 20
200.06703
 30
0.0
 11
62.974278
 21
198.623018
 31
0.0
  0
SPLINE
  5
7B
100
AcDbEntity
  8
レイヤー_2
 62
     7
100
AcDbSpline
210
0.0
220
0.0
230
1.0
 70
     8
 71
     3
 72
     8
 73
     4
 74
     0
 42
0.00000001
 43
0.00000001
 40
0.0
 40
0.0
 40
0.0
 40
0.0
 40
1.0
 40
1.0
 40
1.0
 40
1.0
 10
64.552648925781241
 20
199.80279134114582
 30
0.0
 10
64.552648925781241
 20
199.8703152126736
 30
0.0
 10
64.498388671874991
 20
199.9237141927083
 30
0.0
 10
64.431553819444431
 20
199.9237141927083
 30
0.0
  0
SPLINE
  5
7A
100
AcDbEntity
  8
レイヤー_2
 62
     7
100
AcDbSpline
210
0.0
220
0.0
230
1.0
 70
     8
 71
     3
 72
     8
 73
     4
 74
     0
 42
0.00000001
 43
0.00000001
 40
0.0
 40
0.0
 40
0.0
 40
0.0
 40
1.0
 40
1.0
 40
1.0
 40
1.0
 10
64.431553819444431
 20
199.68152398003471
 30
0.0
 10
64.498388671874991
 20
199.68152398003471
 30
0.0
 10
64.552648925781241
 20
199.73561197916663
 30
0.0
 10
64.552648925781241
 20
199.80279134114582
 30
0.0
  0
LINE
  5
79
100
AcDbEntity
  8
レイヤー_2
 62
     7
100
AcDbLine
 10
64.352833
 20
199.681524
 30
0.0
 11
64.431554
 21
199.681524
 31
0.0
  0
LINE
  5
78
100
AcDbEntity
  8
レイヤー_2
 62
     7
100
AcDbLine
 10
64.352833
 20
199.681524
 30
0.0
 11
64.352833
 21
199.923714
 31
0.0
  0
LINE
  5
77
100
AcDbEntity
  8
レイヤー_2
 62
     7
100
AcDbLine
 10
64.352833
 20
199.923714
 30
0.0
 11
64.431554
 21
199.923714
 31
0.0
  0
LINE
  5
76
100
AcDbEntity
  8
レイヤー_2
 62
     7
100
AcDbLine
 10
63.481569
 20
198.97683
 30
0.0
 11
63.481569
 21
199.14719
 31
0.0
  0
LINE
  5
75
100
AcDbEntity
  8
レイヤー_2
 62
     7
100
AcDbLine
 10
63.481569
 20
199.14719
 30
0.0
 11
63.537896
 21
199.14719
 31
0.0
  0
SPLINE
  5
74
100
AcDbEntity
  8
レイヤー_2
 62
     7
100
AcDbSpline
210
0.0
220
0.0
230
1.0
 70
     8
 71
     3
 72
     8
 73
     4
 74
     0
 42
0.00000001
 43
0.00000001
 40
0.0
 40
0.0
 40
0.0
 40
0.0
 40
1.0
 40
1.0
 40
1.0
 40
1.0
 10
63.62333441840277
 20
199.06209581163193
 30
0.0
 10
63.62333441840277
 20
199.10894911024303
 30
0.0
 10
63.584921603732631
 20
199.14718967013886
 30
0.0
 10
63.537896050347214
 20
199.14718967013886
 30
0.0
  0
SPLINE
  5
73
100
AcDbEntity
  8
レイヤー_2
 62
     7
100
AcDbSpline
210
0.0
220
0.0
230
1.0
 70
     8
 71
     3
 72
     8
 73
     4
 74
     0
 42
0.00000001
 43
0.00000001
 40
0.0
 40
0.0
 40
0.0
 40
0.0
 40
1.0
 40
1.0
 40
1.0
 40
1.0
 10
63.537896050347214
 20
198.97682969835068
 30
0.0
 10
63.584921603732631
 20
198.97682969835068
 30
0.0
 10
63.62333441840277
 20
199.01558702256943
 30
0.0
 10
63.62333441840277
 20
199.06209581163193
 30
0.0
  0
LINE
  5
72
100
AcDbEntity
  8
レイヤー_2
 62
     7
100
AcDbLine
 10
63.481569
 20
198.97683
 30
0.0
 11
63.537896
 21
198.97683
 31
0.0
  0
LINE
  5
71
100
AcDbEntity
  8
レイヤー_2
 62
     7
100
AcDbLine
 10
63.797829
 20
198.905688
 30
0.0
 11
63.972667
 21
198.905688
 31
0.0
  0
LINE
  5
70
100
AcDbEntity
  8
レイヤー_2
 62
     7
100
AcDbLine
 10
63.797829
 20
198.905688
 30
0.0
 11
63.885678
 21
199.118595
 31
0.0
  0
LINE
  5
6F
100
AcDbEntity
  8
レイヤー_2
 62
     7
100
AcDbLine
 10
63.885678
 20
199.118595
 30
0.0
 11
63.972667
 21
198.905688
 31
0.0
  0
LINE
  5
6E
100
AcDbEntity
  8
レイヤー_2
 62
     7
100
AcDbLine
 10
63.13792
 20
199.923714
 30
0.0
 11
63.226115
 21
199.923714
 31
0.0
  0
SPLINE
  5
6D
100
AcDbEntity
  8
レイヤー_2
 62
     7
100
AcDbSpline
210
0.0
220
0.0
230
1.0
 70
     8
 71
     3
 72
     8
 73
     4
 74
     0
 42
0.00000001
 43
0.00000001
 40
0.0
 40
0.0
 40
0.0
 40
0.0
 40
1.0
 40
1.0
 40
1.0
 40
1.0
 10
63.492937554253466
 20
199.65671929253472
 30
0.0
 10
63.492937554253466
 20
199.80416937934027
 30
0.0
 10
63.373048231336803
 20
199.9237141927083
 30
0.0
 10
63.226114908854164
 20
199.9237141927083
 30
0.0
  0
SPLINE
  5
6C
100
AcDbEntity
  8
レイヤー_2
 62
     7
100
AcDbSpline
210
0.0
220
0.0
230
1.0
 70
     8
 71
     3
 72
     8
 73
     4
 74
     0
 42
0.00000001
 43
0.00000001
 40
0.0
 40
0.0
 40
0.0
 40
0.0
 40
1.0
 40
1.0
 40
1.0
 40
1.0
 10
63.226114908854164
 20
199.39058566623262
 30
0.0
 10
63.373048231336803
 20
199.39058566623262
 30
0.0
 10
63.492937554253466
 20
199.50961371527777
 30
0.0
 10
63.492937554253466
 20
199.65671929253472
 30
0.0
  0
LINE
  5
6B
100
AcDbEntity
  8
レイヤー_2
 62
     7
100
AcDbLine
 10
63.13792
 20
199.390586
 30
0.0
 11
63.226115
 21
199.390586
 31
0.0
  0
LINE
  5
6A
100
AcDbEntity
  8
レイヤー_2
 62
     7
100
AcDbLine
 10
63.13792
 20
199.923714
 30
0.0
 11
63.13792
 21
199.390586
 31
0.0
  0
LINE
  5
69
100
AcDbEntity
  8
レイヤー_2
 62
     7
100
AcDbLine
 10
63.13792
 20
198.947546
 30
0.0
 11
63.244374
 21
198.947546
 31
0.0
  0
LINE
  5
68
100
AcDbEntity
  8
レイヤー_2
 62
     7
100
AcDbLine
 10
63.13792
 20
198.947546
 30
0.0
 11
63.13792
 21
198.752898
 31
0.0
  0
LINE
  5
67
100
AcDbEntity
  8
レイヤー_2
 62
     7
100
AcDbLine
 10
63.13792
 20
198.752898
 30
0.0
 11
63.244374
 21
198.752898
 31
0.0
  0
SPLINE
  5
66
100
AcDbEntity
  8
レイヤー_2
 62
     7
100
AcDbSpline
210
0.0
220
0.0
230
1.0
 70
     8
 71
     3
 72
     8
 73
     4
 74
     0
 42
0.00000001
 43
0.00000001
 40
0.0
 40
0.0
 40
0.0
 40
0.0
 40
1.0
 40
1.0
 40
1.0
 40
1.0
 10
63.341525607638886
 20
198.85056694878472
 30
0.0
 10
63.341525607638886
 20
198.90362141927082
 30
0.0
 10
63.297083875868047
 20
198.94754638671873
 30
0.0
 10
63.244373914930549
 20
198.94754638671873
 30
0.0
  0
SPLINE
  5
65
100
AcDbEntity
  8
レイヤー_2
 62
     7
100
AcDbSpline
210
0.0
220
0.0
230
1.0
 70
     8
 71
     3
 72
     8
 73
     4
 74
     0
 42
0.00000001
 43
0.00000001
 40
0.0
 40
0.0
 40
0.0
 40
0.0
 40
1.0
 40
1.0
 40
1.0
 40
1.0
 10
63.244373914930549
 20
198.75289849175346
 30
0.0
 10
63.297083875868047
 20
198.75289849175346
 30
0.0
 10
63.341525607638886
 20
198.79665120442706
 30
0.0
 10
63.341525607638886
 20
198.85056694878472
 30
0.0
  0
LINE
  5
64
100
AcDbEntity
  8
レイヤー_2
 62
     7
100
AcDbLine
 10
63.13792
 20
199.14719
 30
0.0
 11
63.215607
 21
199.14719
 31
0.0
  0
SPLINE
  5
63
100
AcDbEntity
  8
レイヤー_2
 62
     7
100
AcDbSpline
210
0.0
220
0.0
230
1.0
 70
     8
 71
     3
 72
     8
 73
     4
 74
     0
 42
0.00000001
 43
0.00000001
 40
0.0
 40
0.0
 40
0.0
 40
0.0
 40
1.0
 40
1.0
 40
1.0
 40
1.0
 10
63.297428385416659
 20
199.06554090711805
 30
0.0
 10
63.297428385416659
 20
199.111188422309
 30
0.0
 10
63.260565863715271
 20
199.14718967013886
 30
0.0
 10
63.215607367621523
 20
199.14718967013886
 30
0.0
  0
SPLINE
  5
62
100
AcDbEntity
  8
レイヤー_2
 62
     7
100
AcDbSpline
210
0.0
220
0.0
230
1.0
 70
     8
 71
     3
 72
     8
 73
     4
 74
     0
 42
0.00000001
 43
0.00000001
 40
0.0
 40
0.0
 40
0.0
 40
0.0
 40
1.0
 40
1.0
 40
1.0
 40
1.0
 10
63.215607367621523
 20
198.98354763454859
 30
0.0
 10
63.260565863715271
 20
198.98354763454859
 30
0.0
 10
63.297428385416659
 20
199.02041015624999
 30
0.0
 10
63.297428385416659
 20
199.06554090711805
 30
0.0
  0
LINE
  5
61
100
AcDbEntity
  8
レイヤー_2
 62
     7
100
AcDbLine
 10
63.13792
 20
198.983548
 30
0.0
 11
63.215607
 21
198.983548
 31
0.0
  0
LINE
  5
60
100
AcDbEntity
  8
レイヤー_2
 62
     7
100
AcDbLine
 10
63.13792
 20
199.14719
 30
0.0
 11
63.13792
 21
198.983548
 31
0.0
  0
SPLINE
  5
5F
100
AcDbEntity
  8
レイヤー_2
 62
     7
100
AcDbSpline
210
0.0
220
0.0
230
1.0
 70
     8
 71
     3
 72
    17
 73
    13
 74
     0
 42
0.00000001
 43
0.00000001
 40
0.0
 40
0.0
 40
0.0
 40
0.0
 40
1.0
 40
1.0
 40
1.0
 40
2.0
 40
2.0
 40
2.0
 40
3.0
 40
3.0
 40
3.0
 40
4.0
 40
4.0
 40
4.0
 40
4.0
 10
64.189019097222214
 20
199.65671929253472
 30
0.0
 10
64.189019097222214
 20
199.8150214301215
 30
0.0
 10
64.061895073784711
 20
199.94231770833332
 30
0.0
 10
63.904454210069439
 20
199.94231770833332
 30
0.0
 10
63.746668836805547
 20
199.94231770833332
 30
0.0
 10
63.618855794270829
 20
199.8150214301215
 30
0.0
 10
63.618855794270829
 20
199.65671929253472
 30
0.0
 10
63.618855794270829
 20
199.49962293836805
 30
0.0
 10
63.746668836805547
 20
199.37180989583331
 30
0.0
 10
63.904454210069439
 20
199.37180989583331
 30
0.0
 10
64.061895073784711
 20
199.37180989583331
 30
0.0
 10
64.189019097222214
 20
199.49962293836805
 30
0.0
 10
64.189019097222214
 20
199.65671929253472
 30
0.0
  0
LINE
  5
5E
100
AcDbEntity
  8
レイヤー_2
  6
AI9-LType1
 62
     7
100
AcDbLine
 10
81.32079
 20
127.817177
 30
0.0
 11
81.32079
 21
233.284469
 31
0.0
  0
LINE
  5
5D
100
AcDbEntity
  8
レイヤー_2
 62
     7
100
AcDbLine
 10
64.28841
 20
233.284469
 30
0.0
 11
64.28841
 21
234.11956
 31
0.0
  0
LINE
  5
5C
100
AcDbEntity
  8
レイヤー_2
  6
AI9-LType1
 62
     7
100
AcDbLine
 10
102.387721
 20
233.449833
 30
0.0
 11
102.387721
 21
130.574631
 31
0.0
  0
LINE
  5
5B
100
AcDbEntity
  8
レイヤー_2
 62
     7
100
AcDbLine
 10
102.387721
 20
130.574631
 30
0.0
 11
102.387721
 21
129.738162
 31
0.0
  0
LINE
  5
5A
100
AcDbEntity
  8
レイヤー_2
  6
AI9-LType1
 62
     7
100
AcDbLine
 10
147.527946
 20
223.404107
 30
0.0
 11
147.818368
 21
220.176569
 31
0.0
  0
LINE
  5
58
100
AcDbEntity
  8
レイヤー_2
 62
     7
100
AcDbLine
 10
147.818368
 20
220.176569
 30
0.0
 11
147.893471
 21
219.344062
 31
0.0
  0
LINE
  5
57
100
AcDbEntity
  8
レイヤー_2
 62
     7
100
AcDbLine
 10
59.085282
 20
260.8771
 30
0.0
 11
59.085282
 21
233.05313
 31
0.0
  0
LINE
  5
56
100
AcDbEntity
  8
レイヤー_2
 62
     7
100
AcDbLine
 10
69.453642
 20
260.910173
 30
0.0
 11
69.453642
 21
232.819725
 31
0.0
  0
LINE
  5
55
100
AcDbEntity
  8
レイヤー_2
 62
     7
100
AcDbLine
 10
162.043511
 20
221.279172
 30
0.0
 11
162.043511
 21
159.413353
 31
0.0
  0
LINE
  5
54
100
AcDbEntity
  8
レイヤー_2
 62
     7
100
AcDbLine
 10
162.043856
 20
220.124548
 30
0.0
 11
161.020318
 21
221.033192
 31
0.0
  0
LINE
  5
53
100
AcDbEntity
  8
レイヤー_2
 62
     7
100
AcDbLine
 10
163.067049
 20
219.215215
 30
0.0
 11
162.043856
 21
220.124548
 31
0.0
  0
LINE
  5
52
100
AcDbEntity
  8
レイヤー_2
 62
     7
100
AcDbLine
 10
162.064871
 20
160.637223
 30
0.0
 11
161.041333
 21
161.547245
 31
0.0
  0
LINE
  5
51
100
AcDbEntity
  8
レイヤー_2
 62
     7
100
AcDbLine
 10
163.08772
 20
159.728235
 30
0.0
 11
162.064871
 21
160.637223
 31
0.0
  0
LINE
  5
50
100
AcDbEntity
  8
レイヤー_2
 62
     7
100
AcDbLine
 10
40.945821
 20
145.079861
 30
0.0
 11
57.753925
 21
145.079861
 31
0.0
  0
LINE
  5
4F
100
AcDbEntity
  8
レイヤー_2
 62
     7
100
AcDbLine
 10
42.176409
 20
117.287931
 30
0.0
 11
42.176409
 21
161.79512
 31
0.0
  0
LINE
  5
4E
100
AcDbEntity
  8
レイヤー_2
 62
     7
100
AcDbLine
 10
42.175892
 20
145.092608
 30
0.0
 11
43.199086
 21
144.183447
 31
0.0
  0
LINE
  5
4D
100
AcDbEntity
  8
レイヤー_2
 62
     7
100
AcDbLine
 10
41.153044
 20
146.002458
 30
0.0
 11
42.175892
 21
145.092608
 31
0.0
  0
LINE
  5
4C
100
AcDbEntity
  8
レイヤー_2
 62
     7
100
AcDbLine
 10
102.463169
 20
234.077185
 30
0.0
 11
102.463169
 21
261.013181
 31
0.0
  0
LINE
  5
4B
100
AcDbEntity
  8
レイヤー_2
 62
     7
100
AcDbLine
 10
147.713637
 20
226.685733
 30
0.0
 11
147.713637
 21
261.25985
 31
0.0
  0
LINE
  5
4A
100
AcDbEntity
  8
レイヤー_2
 62
     7
100
AcDbLine
 10
102.463169
 20
259.950713
 30
0.0
 11
101.553663
 21
258.927865
 31
0.0
  0
LINE
  5
49
100
AcDbEntity
  8
レイヤー_2
 62
     7
100
AcDbLine
 10
103.372846
 20
260.973562
 30
0.0
 11
102.463169
 21
259.950713
 31
0.0
  0
LINE
  5
48
100
AcDbEntity
  8
レイヤー_2
 62
     7
100
AcDbLine
 10
147.713637
 20
259.950713
 30
0.0
 11
146.803787
 21
258.927865
 31
0.0
  0
LINE
  5
47
100
AcDbEntity
  8
レイヤー_2
 62
     7
100
AcDbLine
 10
148.622797
 20
260.973562
 30
0.0
 11
147.713637
 21
259.950713
 31
0.0
  0
LINE
  5
46
100
AcDbEntity
  8
レイヤー_2
 62
     7
100
AcDbLine
 10
58.206266
 20
259.838576
 30
0.0
 11
70.628592
 21
259.838576
 31
0.0
  0
LINE
  5
45
100
AcDbEntity
  8
レイヤー_2
 62
     7
100
AcDbLine
 10
42.175892
 20
160.714738
 30
0.0
 11
43.199086
 21
159.805405
 31
0.0
  0
LINE
  5
44
100
AcDbEntity
  8
レイヤー_2
 62
     7
100
AcDbLine
 10
41.153044
 20
161.624415
 30
0.0
 11
42.175892
 21
160.714738
 31
0.0
  0
LINE
  5
43
100
AcDbEntity
  8
レイヤー_2
 62
     7
100
AcDbLine
 10
174.225024
 20
159.474331
 30
0.0
 11
174.225024
 21
233.59246
 31
0.0
  0
LINE
  5
42
100
AcDbEntity
  8
レイヤー_2
 62
     7
100
AcDbLine
 10
174.225024
 20
232.380476
 30
0.0
 11
175.248218
 21
231.471487
 31
0.0
  0
LINE
  5
41
100
AcDbEntity
  8
レイヤー_2
 62
     7
100
AcDbLine
 10
173.201831
 20
233.289636
 30
0.0
 11
174.225024
 21
232.380476
 31
0.0
  0
LINE
  5
40
100
AcDbEntity
  8
レイヤー_2
 62
     7
100
AcDbLine
 10
174.225024
 20
160.69579
 30
0.0
 11
175.248218
 21
159.786457
 31
0.0
  0
LINE
  5
3F
100
AcDbEntity
  8
レイヤー_2
 62
     7
100
AcDbLine
 10
173.201831
 20
161.604951
 30
0.0
 11
174.225024
 21
160.69579
 31
0.0
  0
LINE
  5
3E
100
AcDbEntity
  8
レイヤー_2
 62
     7
100
AcDbLine
 10
115.463064
 20
160.678048
 30
0.0
 11
186.953274
 21
160.678048
 31
0.0
  0
LINE
  5
3D
100
AcDbEntity
  8
レイヤー_2
 62
     7
100
AcDbLine
 10
60.006673
 20
260.886746
 30
0.0
 11
58.190419
 21
258.842943
 31
0.0
  0
LINE
  5
3C
100
AcDbEntity
  8
レイヤー_2
 62
     7
100
AcDbLine
 10
70.45048
 20
260.933599
 30
0.0
 11
68.634398
 21
258.889969
 31
0.0
  0
LINE
  5
3B
100
AcDbEntity
  8
レイヤー_2
 62
     7
100
AcDbLine
 10
40.945821
 20
160.70647
 30
0.0
 11
52.789026
 21
160.70647
 31
0.0
  0
LINE
  5
3A
100
AcDbEntity
  8
レイヤー_2
 62
     7
100
AcDbLine
 10
135.54177
 20
232.380476
 30
0.0
 11
175.450789
 21
232.380476
 31
0.0
  0
LINE
  5
39
100
AcDbEntity
  8
レイヤー_2
 62
     7
100
AcDbLine
 10
163.349547
 20
220.124548
 30
0.0
 11
150.294702
 21
220.124548
 31
0.0
  0
LINE
  5
38
100
AcDbEntity
  8
レイヤー_2
 62
     7
100
AcDbLine
 10
185.717518
 20
245.572607
 30
0.0
 11
186.741056
 21
244.663619
 31
0.0
  0
LINE
  5
37
100
AcDbEntity
  8
レイヤー_2
 62
     7
100
AcDbLine
 10
184.694325
 20
246.481768
 30
0.0
 11
185.717518
 21
245.572607
 31
0.0
  0
LINE
  5
36
100
AcDbEntity
  8
レイヤー_2
 62
     7
100
AcDbLine
 10
131.30947
 20
245.572607
 30
0.0
 11
187.081432
 21
245.572607
 31
0.0
  0
LINE
  5
35
100
AcDbEntity
  8
レイヤー_2
 62
     7
100
AcDbLine
 10
185.717518
 20
246.665564
 30
0.0
 11
185.717518
 21
159.501203
 31
0.0
  0
LINE
  5
34
100
AcDbEntity
  8
レイヤー_2
 62
     7
100
AcDbLine
 10
185.659641
 20
160.728691
 30
0.0
 11
186.68249
 21
159.819185
 31
0.0
  0
LINE
  5
33
100
AcDbEntity
  8
レイヤー_2
 62
     7
100
AcDbLine
 10
184.635758
 20
161.637851
 30
0.0
 11
185.659641
 21
160.728691
 31
0.0
  0
LINE
  5
32
100
AcDbEntity
  8
レイヤー_2
 62
     7
100
AcDbLine
 10
101.304928
 20
259.950713
 30
0.0
 11
149.058257
 21
259.950713
 31
0.0
  0
LINE
  5
31
100
AcDbEntity
  8
レイヤー_2
 62
     7
100
AcDbLine
 10
135.042231
 20
232.940304
 30
0.0
 11
135.042231
 21
245.170565
 31
0.0
  0
LINE
  5
30
100
AcDbEntity
  8
レイヤー_2
 62
     7
100
AcDbLine
 10
135.042231
 20
246.060777
 30
0.0
 11
135.042231
 21
251.963949
 31
0.0
  0
LINE
  5
2F
100
AcDbEntity
  8
レイヤー_2
 62
     7
100
AcDbLine
 10
102.463169
 20
250.862207
 30
0.0
 11
101.554352
 21
249.839014
 31
0.0
  0
LINE
  5
2E
100
AcDbEntity
  8
レイヤー_2
 62
     7
100
AcDbLine
 10
103.373191
 20
251.8854
 30
0.0
 11
102.463169
 21
250.862207
 31
0.0
  0
LINE
  5
2D
100
AcDbEntity
  8
レイヤー_2
 62
     7
100
AcDbLine
 10
135.040853
 20
250.862207
 30
0.0
 11
134.132037
 21
249.839014
 31
0.0
  0
LINE
  5
2C
100
AcDbEntity
  8
レイヤー_2
 62
     7
100
AcDbLine
 10
135.950014
 20
251.8854
 30
0.0
 11
135.040853
 21
250.862207
 31
0.0
  0
LINE
  5
2B
100
AcDbEntity
  8
レイヤー_2
 62
     7
100
AcDbLine
 10
101.547979
 20
250.862207
 30
0.0
 11
135.999623
 21
250.862207
 31
0.0
  0
LINE
  5
2A
100
AcDbEntity
  8
レイヤー_2
 62
     7
100
AcDbLine
 10
54.229593
 20
160.70647
 30
0.0
 11
74.506219
 21
160.70647
 31
0.0
  0
LINE
  5
29
100
AcDbEntity
  8
レイヤー_2
 62
     7
100
AcDbLine
 10
93.882125
 20
160.70647
 30
0.0
 11
114.15944
 21
160.70647
 31
0.0
  0
ENDSEC
  0
SECTION
  2
OBJECTS
  0
DICTIONARY
  5
19
100
AcDbDictionary
280
     0
281
     1
  3
ACAD_GROUP
350
1A
  3
ACAD_MLINESTYLE
350
1B
  3
ACAD_LAYOUT
350
1E
  3
ACAD_PLOTSETTINGS
350
22
  3
ACAD_PLOTSTYLENAME
350
1F
  3
ACAD_WIPEOUT_VARS
350
23
  0
DICTIONARY
  5
1A
102
{ACAD_REACTORS
330
19
102
}
100
AcDbDictionary
280
     0
281
     1
  0
DICTIONARY
  5
1B
102
{ACAD_REACTORS
330
19
102
}
100
AcDbDictionary
280
     0
281
     1
  3
Standard
350
1C
  0
MLINESTYLE
  5
1C
102
{ACAD_REACTORS
330
1B
102
}
100
AcDbMlineStyle
  2
Standard
 70
     0
  3

 62
     0
 51
90.0
 52
90.0
 71
     2
 49
0.5
 62
   256
  6
ByLayer
 49
-0.5
 62
   256
  6
ByLayer
  0
ACDBDICTIONARYWDFLT
  5
1F
102
{ACAD_REACTORS
330
19
102
}
100
AcDbDictionary
281
     1
  3
Normal
350
1D
100
AcDbDictionaryWithDefault
340
1D
  0
ACDBPLACEHOLDER
  5
1D
102
{ACAD_REACTORS
330
1F
102
}
  0
LAYOUT
  5
20
102
{ACAD_REACTORS
330
1E
102
}
100
AcDbPlotSettings
  1

  2

  4

  6

 40
0.0
 41
0.0
 42
0.0
 43
0.0
 44
0.0
 45
0.0
 46
0.0
 47
0.0
 48
0.0
 49
0.0
140
0.0
141
0.0
142
1.0
143
1.0
 70
  1024
 72
     0
 73
     0
 74
     0
  7

 75
     0
147
1.0
148
0.0
149
0.0
100
AcDbLayout
  1
Model
 70
     0
 71
     0
 10
0.0
 20
0.0
 11
0.0
 21
0.0
 12
0.0
 22
0.0
 32
0.0
 14
0.0
 24
0.0
 34
0.0
 15
0.0
 25
0.0
 35
0.0
146
0.0
 13
0.0
 23
0.0
 33
0.0
 16
0.0
 26
0.0
 36
0.0
 17
0.0
 27
0.0
 37
0.0
 76
     0
330
A
331
0
345
0
346
0
  0
LAYOUT
  5
21
102
{ACAD_REACTORS
330
1E
102
}
100
AcDbPlotSettings
  1

  2

  4

  6

 40
0.0
 41
0.0
 42
0.0
 43
0.0
 44
0.0
 45
0.0
 46
0.0
 47
0.0
 48
0.0
 49
0.0
140
0.0
141
0.0
142
1.0
143
1.0
 70
     0
 72
     0
 73
     0
 74
     0
  7

 75
     0
147
1.0
148
0.0
149
0.0
100
AcDbLayout
  1
Layout1
 70
     0
 71
     0
 10
0.0
 20
0.0
 11
0.0
 21
0.0
 12
0.0
 22
0.0
 32
0.0
 14
0.0
 24
0.0
 34
0.0
 15
0.0
 25
0.0
 35
0.0
146
0.0
 13
0.0
 23
0.0
 33
0.0
 16
0.0
 26
0.0
 36
0.0
 17
0.0
 27
0.0
 37
0.0
 76
     0
330
B
331
0
345
0
346
0
  0
DICTIONARY
  5
1E
102
{ACAD_REACTORS
330
19
102
}
100
AcDbDictionary
280
     0
281
     1
  3
Layout1
350
21
  3
Model
350
20
  0
DICTIONARY
  5
22
102
{ACAD_REACTORS
330
19
102
}
100
AcDbDictionary
280
     0
281
     1
  0
WIPEOUTVARIABLES
  5
23
100
AcDbWipeoutVariables
 70
     1
  0
IMAGEDEF_REACTOR
  5
54A
100
AcDbRasterImageDefReactor
 90
        2
330
549
  0
IMAGEDEF
  5
54B
100
AcDbRasterImageDef
 90
        0
  1
\\192.168.6.3\free(2009_04\組織\営業本部\営推G\エンジニアリングサービスチーム\丸茂 from 081001\DBカタログ品参考図ＡＩ\SUPERNOVA\33534730_1.bmp
 10
70.0
 20
9.0
 11
0.352778
 21
0.352778
280
     1
281
     0
  0
IMAGEDEF_REACTOR
  5
54D
100
AcDbRasterImageDefReactor
 90
        2
330
54C
  0
IMAGEDEF
  5
54E
100
AcDbRasterImageDef
 90
        0
  1
\\192.168.6.3\free(2009_04\組織\営業本部\営推G\エンジニアリングサービスチーム\丸茂 from 081001\DBカタログ品参考図ＡＩ\SUPERNOVA\33534730_2.bmp
 10
70.0
 20
9.0
 11
0.352778
 21
0.352778
280
     1
281
     0
  0
ENDSEC
  0
EOF
