  0
SECTION
  2
HEADER
  9
$ACADVER
  1
AC1015
  9
$ACADMAINTVER
 70
     6
  9
$DWGCODEPAGE
  3
ANSI_932
  9
$INSBASE
 10
0.0
 20
0.0
 30
0.0
  9
$EXTMIN
 10
23.283333
 20
25.752778
 30
1.000000E+20
  9
$EXTMAX
 10
198.966667
 20
276.930556
 30
-1.000000E+20
  9
$LIMMIN
 10
23.283333
 20
25.752778
  9
$LIMMAX
 10
198.966667
 20
276.930556
  9
$ORTHOMODE
 70
     0
  9
$REGENMODE
 70
     1
  9
$FILLMODE
 70
     1
  9
$QTEXTMODE
 70
     0
  9
$MIRRTEXT
 70
     1
  9
$LTSCALE
 40
1.0
  9
$ATTMODE
 70
     1
  9
$TEXTSIZE
 40
0.2
  9
$TRACEWID
 40
0.05
  9
$TEXTSTYLE
  7
Standard
  9
$CLAYER
  8
0
  9
$CELTYPE
  6
Continuous
  9
$CECOLOR
 62
   256
  9
$CELTSCALE
 40
1.0
  9
$DISPSILH
 70
     0
  9
$DIMSCALE
 40
1.0
  9
$DIMASZ
 40
0.18
  9
$DIMEXO
 40
0.0625
  9
$DIMDLI
 40
0.38
  9
$DIMRND
 40
0.0
  9
$DIMDLE
 40
0.0
  9
$DIMEXE
 40
0.18
  9
$DIMTP
 40
0.0
  9
$DIMTM
 40
0.0
  9
$DIMTXT
 40
0.18
  9
$DIMCEN
 40
0.09
  9
$DIMTSZ
 40
0.0
  9
$DIMTOL
 70
     0
  9
$DIMLIM
 70
     0
  9
$DIMTIH
 70
     1
  9
$DIMTOH
 70
     1
  9
$DIMSE1
 70
     0
  9
$DIMSE2
 70
     0
  9
$DIMTAD
 70
     0
  9
$DIMZIN
 70
     0
  9
$DIMBLK
  1

  9
$DIMASO
 70
     1
  9
$DIMSHO
 70
     1
  9
$DIMPOST
  1

  9
$DIMAPOST
  1

  9
$DIMALT
 70
     0
  9
$DIMALTD
 70
     2
  9
$DIMALTF
 40
25.4
  9
$DIMLFAC
 40
1.0
  9
$DIMTOFL
 70
     0
  9
$DIMTVP
 40
0.0
  9
$DIMTIX
 70
     0
  9
$DIMSOXD
 70
     0
  9
$DIMSAH
 70
     0
  9
$DIMBLK1
  1

  9
$DIMBLK2
  1

  9
$DIMSTYLE
  2
Standard
  9
$DIMCLRD
 70
     0
  9
$DIMCLRE
 70
     0
  9
$DIMCLRT
 70
     0
  9
$DIMTFAC
 40
1.0
  9
$DIMGAP
 40
0.09
  9
$DIMJUST
 70
     0
  9
$DIMSD1
 70
     0
  9
$DIMSD2
 70
     0
  9
$DIMTOLJ
 70
     1
  9
$DIMTZIN
 70
     0
  9
$DIMALTZ
 70
     0
  9
$DIMALTTZ
 70
     0
  9
$DIMUPT
 70
     0
  9
$DIMDEC
 70
     4
  9
$DIMTDEC
 70
     4
  9
$DIMALTU
 70
     2
  9
$DIMALTTD
 70
     2
  9
$DIMTXSTY
  7
Standard
  9
$DIMAUNIT
 70
     0
  9
$DIMADEC
 70
     0
  9
$DIMALTRND
 40
0.0
  9
$DIMAZIN
 70
     0
  9
$DIMDSEP
 70
     0
  9
$DIMATFIT
 70
     3
  9
$DIMFRAC
 70
     0
  9
$DIMLDRBLK
  1

  9
$DIMLUNIT
 70
     2
  9
$DIMLWD
 70
     0
  9
$DIMLWE
 70
     0
  9
$DIMTMOVE
 70
     0
  9
$LUNITS
 70
     2
  9
$LUPREC
 70
     4
  9
$SKETCHINC
 40
0.1
  9
$FILLETRAD
 40
0.0
  9
$AUNITS
 70
     0
  9
$AUPREC
 70
     0
  9
$MENU
  1
acad
  9
$ELEVATION
 40
0.0
  9
$PELEVATION
 40
0.0
  9
$THICKNESS
 40
0.0
  9
$LIMCHECK
 70
     0
  9
$CHAMFERA
 40
0.0
  9
$CHAMFERB
 40
0.0
  9
$CHAMFERC
 40
0.0
  9
$CHAMFERD
 40
0.0
  9
$SKPOLY
 70
     0
  9
$TDCREATE
 40
0.000000000
  9
$TDUCREATE
 40
0.000000000
  9
$TDUPDATE
 40
0.000000000
  9
$TDUUPDATE
 40
0.000000000
  9
$TDINDWG
 40
0.0000000000
  9
$TDUSRTIMER
 40
0.0000000000
  9
$USRTIMER
 70
     1
  9
$ANGBASE
 50
0.0
  9
$ANGDIR
 70
     0
  9
$PDMODE
 70
     0
  9
$PDSIZE
 40
0.0
  9
$PLINEWID
 40
0.0
  9
$SPLFRAME
 70
     0
  9
$SPLINETYPE
 70
     6
  9
$SPLINESEGS
 70
     8
  9
$HANDSEED
  5
395
  9
$SURFTAB1
 70
     6
  9
$SURFTAB2
 70
     6
  9
$SURFTYPE
 70
     6
  9
$SURFU
 70
     6
  9
$SURFV
 70
     6
  9
$UCSBASE
  2

  9
$UCSNAME
  2

  9
$UCSORG
 10
0.0
 20
0.0
 30
0.0
  9
$UCSXDIR
 10
1.0
 20
0.0
 30
0.0
  9
$UCSYDIR
 10
0.0
 20
1.0
 30
0.0
  9
$UCSORTHOREF
  2

  9
$UCSORTHOVIEW
 70
     0
  9
$UCSORGTOP
 10
0.0
 20
0.0
 30
0.0
  9
$UCSORGBOTTOM
 10
0.0
 20
0.0
 30
0.0
  9
$UCSORGLEFT
 10
0.0
 20
0.0
 30
0.0
  9
$UCSORGRIGHT
 10
0.0
 20
0.0
 30
0.0
  9
$UCSORGFRONT
 10
0.0
 20
0.0
 30
0.0
  9
$UCSORGBACK
 10
0.0
 20
0.0
 30
0.0
  9
$PUCSBASE
  2

  9
$PUCSNAME
  2

  9
$PUCSORG
 10
0.0
 20
0.0
 30
0.0
  9
$PUCSXDIR
 10
1.0
 20
0.0
 30
0.0
  9
$PUCSYDIR
 10
0.0
 20
1.0
 30
0.0
  9
$PUCSORTHOREF
  2

  9
$PUCSORTHOVIEW
 70
     0
  9
$PUCSORGTOP
 10
0.0
 20
0.0
 30
0.0
  9
$PUCSORGBOTTOM
 10
0.0
 20
0.0
 30
0.0
  9
$PUCSORGLEFT
 10
0.0
 20
0.0
 30
0.0
  9
$PUCSORGRIGHT
 10
0.0
 20
0.0
 30
0.0
  9
$PUCSORGFRONT
 10
0.0
 20
0.0
 30
0.0
  9
$PUCSORGBACK
 10
0.0
 20
0.0
 30
0.0
  9
$USERI1
 70
     0
  9
$USERI2
 70
     0
  9
$USERI3
 70
     0
  9
$USERI4
 70
     0
  9
$USERI5
 70
     0
  9
$USERR1
 40
0.0
  9
$USERR2
 40
0.0
  9
$USERR3
 40
0.0
  9
$USERR4
 40
0.0
  9
$USERR5
 40
0.0
  9
$WORLDVIEW
 70
     1
  9
$SHADEDGE
 70
     3
  9
$SHADEDIF
 70
    70
  9
$TILEMODE
 70
     1
  9
$MAXACTVP
 70
    16
  9
$PINSBASE
 10
0.0
 20
0.0
 30
0.0
  9
$PLIMCHECK
 70
     0
  9
$PEXTMIN
 10
1.000000E+20
 20
1.000000E+20
 30
1.000000E+20
  9
$PEXTMAX
 10
-1.000000E+20
 20
-1.000000E+20
 30
-1.000000E+20
  9
$PLIMMIN
 10
0.0
 20
0.0
  9
$PLIMMAX
 10
12.0
 20
9.0
  9
$UNITMODE
 70
     0
  9
$VISRETAIN
 70
     0
  9
$PLINEGEN
 70
     1
  9
$PSLTSCALE
 70
     0
  9
$TREEDEPTH
 70
  3020
  9
$CMLSTYLE
  2
Standard
  9
$CMLJUST
 70
     0
  9
$CMLSCALE
 40
1.0
  9
$PROXYGRAPHICS
 70
     0
  9
$MEASUREMENT
 70
     1
  9
$CELWEIGHT
370
     0
  9
$ENDCAPS
280
     0
  9
$JOINSTYLE
280
     0
  9
$LWDISPLAY
290
     0
  9
$INSUNITS
 70
     0
  9
$HYPERLINKBASE
  1

  9
$STYLESHEET
  1

  9
$XEDIT
290
     1
  9
$CEPSNTYPE
380
     0
  9
$PSTYLEMODE
290
     1
  9
$FINGERPRINTGUID
  2

  9
$VERSIONGUID
  2

  9
$EXTNAMES
290
     1
  9
$PSVPSCALE
 40
0.0
  0
ENDSEC
  0
SECTION
  2
CLASSES
  0
CLASS
  1
LWPOLYLINE
  2
AcDbPolyline
  3
AutoCAD 2000
 90
    32768
280
     0
281
     1
  0
CLASS
  1
IMAGE
  2
AcDbRasterImage
  3
ISM
 90
      127
280
     0
281
     1
  0
CLASS
  1
OLE2FRAME
  2
AcDbOle2Frame
  3
AutoCAD 2000
 90
    32768
280
     0
281
     1
  0
CLASS
  1
HATCH
  2
AcDbHatch
  3
AutoCAD 2000
 90
    32768
280
     0
281
     1
  0
CLASS
  1
DICTIONARYVAR
  2
AcDbDictionaryVar
  3
AutoCAD 2000
 90
    32768
280
     0
281
     0
  0
CLASS
  1
RASTERVARIABLES
  2
AcDbRasterVariables
  3
ISM
 90
    32768
280
     0
281
     0
  0
CLASS
  1
IMAGEDEF
  2
AcDbRasterImageDef
  3
ISM
 90
        0
280
     0
281
     0
  0
CLASS
  1
IMAGEDEF_REACTOR
  2
AcDbRasterImageDefReactor
  3
ISM
 90
        1
280
     0
281
     0
  0
CLASS
  1
IDBUFFER
  2
AcDbIdBuffer
  3
AutoCAD 2000
 90
    32768
280
     0
281
     0
  0
CLASS
  1
SPATIAL_FILTER
  2
AcDbSpatialFilter
  3
AutoCAD 2000
 90
    32768
280
     0
281
     0
  0
CLASS
  1
XRECORD
  2
AcDbXrecord
  3
AutoCAD 2000
 90
    32768
280
     0
281
     0
  0
CLASS
  1
SORTENTSTABLE
  2
AcDbSortentsTable
  3
AutoCAD 2000
 90
    32768
280
     0
281
     0
  0
CLASS
  1
LAYER_INDEX
  2
AcDbLayerIndex
  3
AutoCAD 2000
 90
    32768
280
     0
281
     0
  0
CLASS
  1
SPATIAL_INDEX
  2
AcDbSpatialIndex
  3
AutoCAD 2000
 90
    32768
280
     0
281
     0
  0
CLASS
  1
OBJECT_PTR
  2
CAseDLPNTableRecord
  3
"ASE-LPNTableRecord"
 90
    32769
280
     0
281
     0
  0
CLASS
  1
LAYOUT
  2
AcDbLayout
  3
AutoCAD 2000
 90
        0
280
     0
281
     0
  0
CLASS
  1
PLOTSETTINGS
  2
AcDbPlotSettings
  3
AutoCAD 2000
 90
    32768
280
     0
281
     0
  0
CLASS
  1
ACDBDICTIONARYWDFLT
  2
AcDbDictionaryWithDefault
  3
AutoCAD 2000
 90
        0
280
     0
281
     0
  0
CLASS
  1
ACDBPLACEHOLDER
  2
AcDbPlaceHolder
  3
AutoCAD 2000
 90
        0
280
     0
281
     0
  0
CLASS
  1
VBA_PROJECT
  2
AcDbVbaProject
  3
acadvba
 90
    32768
280
     0
281
     0
  0
CLASS
  1
WIPEOUT
  2
AcDbWipeout
  3
WipeOut|AutoCAD Express Tool|expresstools@autodesk.com
 90
    32895
280
     0
281
     1
  0
CLASS
  1
WIPEOUTVARIABLES
  2
AcDbWipeoutVariables
  3
WipeOut|AutoCAD Express Tool|expresstools@autodesk.com
 90
        0
280
     0
281
     0
  0
CLASS
  1
RTEXT
  2
RText
  3
RText|AutoCAD Express Tool|expresstools@autodesk.com
 90
    32768
280
     0
281
     1
  0
CLASS
  1
ARCALIGNEDTEXT
  2
AcDbArcAlignedText
  3
ATEXT|AutoCAD Express Tool|expresstools@autodesk.com
 90
    32768
280
     0
281
     1
  0
ENDSEC
  0
SECTION
  2
TABLES
  0
TABLE
  2
VPORT
  5
7
100
AcDbSymbolTable
 70
     1
  0
VPORT
  5
15
100
AcDbSymbolTableRecord
100
AcDbViewportTableRecord
  2
*ACTIVE
 70
     0
 10
0.0
 20
0.0
 11
1.0
 21
1.0
 12
6.591288
 22
4.579184
 13
0.0
 23
0.0
 14
1.0
 24
1.0
 15
0.0
 25
0.0
 16
0.0
 26
0.0
 36
1.0
 17
0.0
 27
0.0
 37
0.0
 40
9.158369
 41
0.688564
 42
50.0
 43
0.0
 44
0.0
 50
0.0
 51
0.0
 71
     0
 72
   100
 73
     1
 74
     1
 75
     0
 76
     0
 77
     0
 78
     0
281
     0
 65
     0
110
0.0
120
0.0
130
0.0
111
1.0
121
0.0
131
0.0
112
0.0
122
1.0
132
0.0
345
0
346
0
 79
     0
146
0.0
  0
ENDTAB
  0
TABLE
  2
LTYPE
  5
4
100
AcDbSymbolTable
 70
     4
  0
LTYPE
  5
11
100
AcDbSymbolTableRecord
100
AcDbLinetypeTableRecord
  2
ByBlock
 70
    64
  3

 72
    65
 73
     0
 40
0.0
  0
LTYPE
  5
12
100
AcDbSymbolTableRecord
100
AcDbLinetypeTableRecord
  2
ByLayer
 70
    64
  3

 72
    65
 73
     0
 40
0.0
  0
LTYPE
  5
13
100
AcDbSymbolTableRecord
100
AcDbLinetypeTableRecord
  2
Continuous
 70
    64
  3
Solid line
 72
    65
 73
     0
 40
0.0
  0
LTYPE
  5
32
100
AcDbSymbolTableRecord
100
AcDbLinetypeTableRecord
  2
AI9-LType1
 70
    64
  3
Illustrator Dash Style No.1
 72
    65
 73
     4
 40
37.352534
 49
23.34528
 74
     0
 49
-4.669084
 74
     0
 49
4.669084
 74
     0
 49
-4.669084
 74
     0
  0
ENDTAB
  0
TABLE
  2
LAYER
  5
2
100
AcDbSymbolTable
 70
     3
  0
LAYER
  5
14
100
AcDbSymbolTableRecord
100
AcDbLayerTableRecord
  2
0
 70
     0
 62
     7
  6
Continuous
290
     1
370
    -3
390
1D
  0
LAYER
  5
28
100
AcDbSymbolTableRecord
100
AcDbLayerTableRecord
  2
レイヤー_2
 70
     0
 62
     1
  6
Continuous
290
     1
370
    -3
390
1D
  0
LAYER
  5
37A
100
AcDbSymbolTableRecord
100
AcDbLayerTableRecord
  2
レイヤー_1
 70
     0
 62
   160
  6
Continuous
290
     1
370
    -3
390
1D
  0
ENDTAB
  0
TABLE
  2
STYLE
  5
3
100
AcDbSymbolTable
 70
     5
  0
STYLE
  5
17
100
AcDbSymbolTableRecord
100
AcDbTextStyleTableRecord
  2
Standard
 70
     0
 40
0.0
 41
1.0
 50
0.0
 71
     0
 42
0.0
  3
txt
  4

  0
STYLE
  5
24
100
AcDbSymbolTableRecord
100
AcDbTextStyleTableRecord
  2
STD
 70
     0
 40
0.0
 41
1.0
 50
0.0
 71
     0
 42
0.0
  3
txt
  4

  0
STYLE
  5
25
100
AcDbSymbolTableRecord
100
AcDbTextStyleTableRecord
  2
TATESTD
 70
     4
 40
0.0
 41
1.0
 50
0.0
 71
     0
 42
0.0
  3
txt
  4

  0
STYLE
  5
26
100
AcDbSymbolTableRecord
100
AcDbTextStyleTableRecord
  2
KANJISTD
 70
     0
 40
0.0
 41
1.0
 50
0.0
 71
     0
 42
0.0
  3
txt
  4
extfont
  0
STYLE
  5
27
100
AcDbSymbolTableRecord
100
AcDbTextStyleTableRecord
  2
KANJITATE
 70
     4
 40
0.0
 41
1.0
 50
0.0
 71
     0
 42
0.0
  3
txt
  4
extfont
  0
ENDTAB
  0
TABLE
  2
VIEW
  5
5
100
AcDbSymbolTable
 70
     0
  0
ENDTAB
  0
TABLE
  2
UCS
  5
6
100
AcDbSymbolTable
 70
     0
  0
ENDTAB
  0
TABLE
  2
APPID
  5
8
100
AcDbSymbolTable
 70
     1
  0
APPID
  5
16
100
AcDbSymbolTableRecord
100
AcDbRegAppTableRecord
  2
ACAD
 70
     0
  0
ENDTAB
  0
TABLE
  2
DIMSTYLE
  5
9
100
AcDbSymbolTable
 70
     1
100
AcDbDimStyleTable
 71
     0
  0
DIMSTYLE
105
18
100
AcDbSymbolTableRecord
100
AcDbDimStyleTableRecord
  2
Standard
 70
     0
  3

  4

 40
1.0
 41
0.18
 42
0.0625
 43
0.38
 44
0.18
 45
0.0
 46
0.0
 47
0.0
 48
0.0
 71
     0
 72
     0
 73
     1
 74
     1
 75
     0
 76
     0
 77
     0
 78
     0
 79
     0
140
0.18
141
0.09
142
0.0
143
25.4
144
1.0
145
0.0
146
1.0
147
0.09
148
0.0
170
     0
171
     2
172
     0
173
     0
174
     0
175
     0
176
     0
177
     0
178
     0
179
     0
271
     4
272
     4
273
     2
274
     2
275
     0
276
     0
277
     2
278
    46
279
     0
280
     0
281
     0
282
     0
283
     1
284
     0
285
     0
286
     0
288
     0
340
17
341
0
342
0
343
0
344
0
371
    -2
372
    -2
  0
ENDTAB
  0
TABLE
  2
BLOCK_RECORD
  5
1
100
AcDbSymbolTable
 70
     4
  0
BLOCK_RECORD
  5
A
100
AcDbSymbolTableRecord
100
AcDbBlockTableRecord
  2
*MODEL_SPACE
340
20
  0
BLOCK_RECORD
  5
B
100
AcDbSymbolTableRecord
100
AcDbBlockTableRecord
  2
*PAPER_SPACE
340
21
  0
BLOCK_RECORD
  5
29
100
AcDbSymbolTableRecord
100
AcDbBlockTableRecord
  2
AI9-BLK1
340
0
102
{BLKREFS
331
2A
102
}
  0
BLOCK_RECORD
  5
2C
100
AcDbSymbolTableRecord
100
AcDbBlockTableRecord
  2
AI9-BLK2
340
0
102
{BLKREFS
331
2D
102
}
  0
BLOCK_RECORD
  5
79
100
AcDbSymbolTableRecord
100
AcDbBlockTableRecord
  2
AI9-BLK3
340
0
102
{BLKREFS
331
7A
102
}
  0
BLOCK_RECORD
  5
C5
100
AcDbSymbolTableRecord
100
AcDbBlockTableRecord
  2
AI9-BLK4
340
0
102
{BLKREFS
331
C6
102
}
  0
ENDTAB
  0
ENDSEC
  0
SECTION
  2
BLOCKS
  0
BLOCK
  5
D
100
AcDbEntity
  8
0
100
AcDbBlockBegin
  2
*MODEL_SPACE
 70
     0
 10
0.0
 20
0.0
 30
0.0
  3
*MODEL_SPACE
  1

  0
ENDBLK
  5
E
100
AcDbEntity
  8
0
100
AcDbBlockEnd
  0
BLOCK
  5
F
100
AcDbEntity
 67
     1
  8
0
100
AcDbBlockBegin
  2
*PAPER_SPACE
 70
     0
 10
0.0
 20
0.0
 30
0.0
  3
*PAPER_SPACE
  1

  0
ENDBLK
  5
10
100
AcDbEntity
 67
     1
  8
0
100
AcDbBlockEnd
  0
BLOCK
  5
2B
100
AcDbEntity
  8
レイヤー_2
 62
     7
100
AcDbBlockBegin
  2
AI9-BLK1
 70
     0
 10
0.0
 20
0.0
 30
0.0
  3
AI9-BLK1
  1

  0
LINE
  5
378
100
AcDbEntity
  8
レイヤー_2
 62
     7
100
AcDbLine
 10
-55.554576
 20
-16.773567
 30
0.0
 11
-55.554576
 21
-26.122178
 31
0.0
  0
LINE
  5
377
100
AcDbEntity
  8
レイヤー_2
 62
     7
100
AcDbLine
 10
-52.92683
 20
-39.024061
 30
0.0
 11
-52.92683
 21
-28.130669
 31
0.0
  0
LINE
  5
376
100
AcDbEntity
  8
レイヤー_2
 62
     7
100
AcDbLine
 10
-52.92683
 20
-26.122178
 30
0.0
 11
-52.92683
 21
-16.773567
 31
0.0
  0
LINE
  5
375
100
AcDbEntity
  8
レイヤー_2
 62
     7
100
AcDbLine
 10
-55.245207
 20
-16.773567
 30
0.0
 11
-55.245207
 21
-26.122178
 31
0.0
  0
LINE
  5
374
100
AcDbEntity
  8
レイヤー_2
 62
     7
100
AcDbLine
 10
-55.245207
 20
-28.05281
 30
0.0
 11
-55.245207
 21
-39.180468
 31
0.0
  0
LINE
  5
373
100
AcDbEntity
  8
レイヤー_2
 62
     7
100
AcDbLine
 10
-49.991436
 20
-37.557139
 30
0.0
 11
-49.991436
 21
-28.05281
 31
0.0
  0
LINE
  5
372
100
AcDbEntity
  8
レイヤー_2
 62
     7
100
AcDbLine
 10
-49.991436
 20
-26.122178
 30
0.0
 11
-49.991436
 21
-16.773567
 31
0.0
  0
LINE
  5
371
100
AcDbEntity
  8
レイヤー_2
 62
     7
100
AcDbLine
 10
-52.231954
 20
-16.773567
 30
0.0
 11
-52.231954
 21
-26.122178
 31
0.0
  0
LINE
  5
370
100
AcDbEntity
  8
レイヤー_2
 62
     7
100
AcDbLine
 10
-52.231954
 20
-28.05281
 30
0.0
 11
-52.231954
 21
-38.1745
 31
0.0
  0
LINE
  5
36F
100
AcDbEntity
  8
レイヤー_2
 62
     7
100
AcDbLine
 10
-47.132524
 20
-26.430859
 30
0.0
 11
-47.132524
 21
-26.122178
 31
0.0
  0
LINE
  5
36E
100
AcDbEntity
  8
レイヤー_2
 62
     7
100
AcDbLine
 10
-58.02626
 20
-26.122178
 30
0.0
 11
-58.02626
 21
-26.430859
 31
0.0
  0
POLYLINE
  5
369
100
AcDbEntity
  8
レイヤー_2
 62
     7
100
AcDb2dPolyline
 66
     1
 10
0.0
 20
0.0
 30
0.0
  0
VERTEX
  5
36A
100
AcDbEntity
  8
レイヤー_2
 62
     7
100
AcDbVertex
100
AcDb2dVertex
 10
-58.412972
 20
-26.430859
 30
0.0
  0
VERTEX
  5
36B
100
AcDbEntity
  8
レイヤー_2
 62
     7
100
AcDbVertex
100
AcDb2dVertex
 10
-58.490142
 20
-26.508718
 30
0.0
  0
VERTEX
  5
36C
100
AcDbEntity
  8
レイヤー_2
 62
     7
100
AcDbVertex
100
AcDb2dVertex
 10
-58.490142
 20
-26.585888
 30
0.0
  0
SEQEND
  5
36D
100
AcDbEntity
  8
レイヤー_2
 62
     7
  0
POLYLINE
  5
364
100
AcDbEntity
  8
レイヤー_2
 62
     7
100
AcDb2dPolyline
 66
     1
 10
0.0
 20
0.0
 30
0.0
  0
VERTEX
  5
365
100
AcDbEntity
  8
レイヤー_2
 62
     7
100
AcDbVertex
100
AcDb2dVertex
 10
-46.668814
 20
-26.585888
 30
0.0
  0
VERTEX
  5
366
100
AcDbEntity
  8
レイヤー_2
 62
     7
100
AcDbVertex
100
AcDb2dVertex
 10
-46.668814
 20
-26.508718
 30
0.0
  0
VERTEX
  5
367
100
AcDbEntity
  8
レイヤー_2
 62
     7
100
AcDbVertex
100
AcDb2dVertex
 10
-46.745984
 20
-26.430859
 30
0.0
  0
SEQEND
  5
368
100
AcDbEntity
  8
レイヤー_2
 62
     7
  0
LINE
  5
363
100
AcDbEntity
  8
レイヤー_2
 62
     7
100
AcDbLine
 10
-46.668814
 20
-27.97564
 30
0.0
 11
-46.668814
 21
-26.585888
 31
0.0
  0
LINE
  5
362
100
AcDbEntity
  8
レイヤー_2
 62
     7
100
AcDbLine
 10
-58.490142
 20
-26.585888
 30
0.0
 11
-58.490142
 21
-27.97564
 31
0.0
  0
POLYLINE
  5
35D
100
AcDbEntity
  8
レイヤー_2
 62
     7
100
AcDb2dPolyline
 66
     1
 10
0.0
 20
0.0
 30
0.0
  0
VERTEX
  5
35E
100
AcDbEntity
  8
レイヤー_2
 62
     7
100
AcDbVertex
100
AcDb2dVertex
 10
-58.490142
 20
-27.97564
 30
0.0
  0
VERTEX
  5
35F
100
AcDbEntity
  8
レイヤー_2
 62
     7
100
AcDbVertex
100
AcDb2dVertex
 10
-58.490142
 20
-28.05281
 30
0.0
  0
VERTEX
  5
360
100
AcDbEntity
  8
レイヤー_2
 62
     7
100
AcDbVertex
100
AcDb2dVertex
 10
-58.412972
 20
-28.05281
 30
0.0
  0
SEQEND
  5
361
100
AcDbEntity
  8
レイヤー_2
 62
     7
  0
POLYLINE
  5
358
100
AcDbEntity
  8
レイヤー_2
 62
     7
100
AcDb2dPolyline
 66
     1
 10
0.0
 20
0.0
 30
0.0
  0
VERTEX
  5
359
100
AcDbEntity
  8
レイヤー_2
 62
     7
100
AcDbVertex
100
AcDb2dVertex
 10
-46.745984
 20
-28.05281
 30
0.0
  0
VERTEX
  5
35A
100
AcDbEntity
  8
レイヤー_2
 62
     7
100
AcDbVertex
100
AcDb2dVertex
 10
-46.668814
 20
-28.05281
 30
0.0
  0
VERTEX
  5
35B
100
AcDbEntity
  8
レイヤー_2
 62
     7
100
AcDbVertex
100
AcDb2dVertex
 10
-46.668814
 20
-27.97564
 30
0.0
  0
SEQEND
  5
35C
100
AcDbEntity
  8
レイヤー_2
 62
     7
  0
LINE
  5
357
100
AcDbEntity
  8
レイヤー_2
 62
     7
100
AcDbLine
 10
-55.708744
 20
-28.05281
 30
0.0
 11
-56.09494
 21
-28.130669
 31
0.0
  0
LINE
  5
356
100
AcDbEntity
  8
レイヤー_2
 62
     7
100
AcDbLine
 10
-56.09494
 20
-28.439349
 30
0.0
 11
-55.786259
 21
-29.058089
 31
0.0
  0
LINE
  5
355
100
AcDbEntity
  8
レイヤー_2
 62
     7
100
AcDbLine
 10
-56.09494
 20
-28.130669
 30
0.0
 11
-56.09494
 21
-28.439349
 31
0.0
  0
LINE
  5
354
100
AcDbEntity
  8
レイヤー_2
 62
     7
100
AcDbLine
 10
-55.786259
 20
-29.058089
 30
0.0
 11
-55.786259
 21
-34.389029
 31
0.0
  0
LINE
  5
353
100
AcDbEntity
  8
レイヤー_2
 62
     7
100
AcDbLine
 10
-56.09494
 20
-34.389029
 30
0.0
 11
-56.249797
 21
-34.466888
 31
0.0
  0
LINE
  5
352
100
AcDbEntity
  8
レイヤー_2
 62
     7
100
AcDbLine
 10
-56.249797
 20
-37.093429
 30
0.0
 11
-56.09494
 21
-37.171288
 31
0.0
  0
LINE
  5
351
100
AcDbEntity
  8
レイヤー_2
 62
     7
100
AcDbLine
 10
-58.02626
 20
-26.122178
 30
0.0
 11
-47.132524
 21
-26.122178
 31
0.0
  0
LINE
  5
350
100
AcDbEntity
  8
レイヤー_2
 62
     7
100
AcDbLine
 10
-58.412972
 20
-26.430859
 30
0.0
 11
-46.745984
 21
-26.430859
 31
0.0
  0
LINE
  5
34F
100
AcDbEntity
  8
レイヤー_2
 62
     7
100
AcDbLine
 10
-46.745984
 20
-28.05281
 30
0.0
 11
-58.412972
 21
-28.05281
 31
0.0
  0
LINE
  5
34E
100
AcDbEntity
  8
レイヤー_2
 62
     7
100
AcDbLine
 10
-58.181117
 20
-26.430859
 30
0.0
 11
-58.02626
 21
-26.430859
 31
0.0
  0
LINE
  5
34D
100
AcDbEntity
  8
レイヤー_2
 62
     7
100
AcDbLine
 10
-55.245207
 20
-28.05281
 30
0.0
 11
-56.018114
 21
-28.05281
 31
0.0
  0
LINE
  5
34C
100
AcDbEntity
  8
レイヤー_2
 62
     7
100
AcDbLine
 10
-52.231954
 20
-28.05281
 30
0.0
 11
-52.92683
 21
-28.05281
 31
0.0
  0
LINE
  5
34B
100
AcDbEntity
  8
レイヤー_2
 62
     7
100
AcDbLine
 10
-48.832506
 20
-28.05281
 30
0.0
 11
-49.991436
 21
-28.05281
 31
0.0
  0
LINE
  5
34A
100
AcDbEntity
  8
レイヤー_2
 62
     7
100
AcDbLine
 10
-55.245207
 20
-37.093429
 30
0.0
 11
-55.786259
 21
-37.016259
 31
0.0
  0
LINE
  5
349
100
AcDbEntity
  8
レイヤー_2
 62
     7
100
AcDbLine
 10
-55.786259
 20
-37.016259
 30
0.0
 11
-55.786259
 21
-34.544059
 31
0.0
  0
LINE
  5
348
100
AcDbEntity
  8
レイヤー_2
 62
     7
100
AcDbLine
 10
-55.245207
 20
-34.466888
 30
0.0
 11
-55.786259
 21
-34.544059
 31
0.0
  0
LINE
  5
347
100
AcDbEntity
  8
レイヤー_2
 62
     7
100
AcDbLine
 10
-55.245207
 20
-28.130669
 30
0.0
 11
-56.09494
 21
-28.130669
 31
0.0
  0
LINE
  5
346
100
AcDbEntity
  8
レイヤー_2
 62
     7
100
AcDbLine
 10
-55.245207
 20
-28.439349
 30
0.0
 11
-56.09494
 21
-28.439349
 31
0.0
  0
LINE
  5
345
100
AcDbEntity
  8
レイヤー_2
 62
     7
100
AcDbLine
 10
-55.245207
 20
-29.058089
 30
0.0
 11
-55.786259
 21
-29.058089
 31
0.0
  0
LINE
  5
344
100
AcDbEntity
  8
レイヤー_2
 62
     7
100
AcDbLine
 10
-55.786259
 20
-34.544059
 30
0.0
 11
-56.018114
 21
-34.389029
 31
0.0
  0
LINE
  5
343
100
AcDbEntity
  8
レイヤー_2
 62
     7
100
AcDbLine
 10
-55.245207
 20
-34.389029
 30
0.0
 11
-56.018114
 21
-34.389029
 31
0.0
  0
LINE
  5
342
100
AcDbEntity
  8
レイヤー_2
 62
     7
100
AcDbLine
 10
-55.786259
 20
-37.016259
 30
0.0
 11
-56.018114
 21
-37.171288
 31
0.0
  0
LINE
  5
341
100
AcDbEntity
  8
レイヤー_2
 62
     7
100
AcDbLine
 10
-55.245207
 20
-37.171288
 30
0.0
 11
-56.018114
 21
-37.171288
 31
0.0
  0
POLYLINE
  5
33C
100
AcDbEntity
  8
レイヤー_2
 62
     7
100
AcDb2dPolyline
 66
     1
 10
0.0
 20
0.0
 30
0.0
  0
VERTEX
  5
33D
100
AcDbEntity
  8
レイヤー_2
 62
     7
100
AcDbVertex
100
AcDb2dVertex
 10
-56.018114
 20
-37.171288
 30
0.0
  0
VERTEX
  5
33E
100
AcDbEntity
  8
レイヤー_2
 62
     7
100
AcDbVertex
100
AcDb2dVertex
 10
-56.09494
 20
-37.171288
 30
0.0
  0
VERTEX
  5
33F
100
AcDbEntity
  8
レイヤー_2
 62
     7
100
AcDbVertex
100
AcDb2dVertex
 10
-56.326794
 20
-37.016259
 30
0.0
  0
SEQEND
  5
340
100
AcDbEntity
  8
レイヤー_2
 62
     7
  0
LINE
  5
33B
100
AcDbEntity
  8
レイヤー_2
 62
     7
100
AcDbLine
 10
-56.326794
 20
-37.016259
 30
0.0
 11
-56.326794
 21
-34.544059
 31
0.0
  0
POLYLINE
  5
336
100
AcDbEntity
  8
レイヤー_2
 62
     7
100
AcDb2dPolyline
 66
     1
 10
0.0
 20
0.0
 30
0.0
  0
VERTEX
  5
337
100
AcDbEntity
  8
レイヤー_2
 62
     7
100
AcDbVertex
100
AcDb2dVertex
 10
-56.018114
 20
-34.389029
 30
0.0
  0
VERTEX
  5
338
100
AcDbEntity
  8
レイヤー_2
 62
     7
100
AcDbVertex
100
AcDb2dVertex
 10
-56.09494
 20
-34.389029
 30
0.0
  0
VERTEX
  5
339
100
AcDbEntity
  8
レイヤー_2
 62
     7
100
AcDbVertex
100
AcDb2dVertex
 10
-56.326794
 20
-34.544059
 30
0.0
  0
SEQEND
  5
33A
100
AcDbEntity
  8
レイヤー_2
 62
     7
  0
LINE
  5
335
100
AcDbEntity
  8
レイヤー_2
 62
     7
100
AcDbLine
 10
-56.018114
 20
-34.389029
 30
0.0
 11
-56.09494
 21
-34.389029
 31
0.0
  0
LINE
  5
334
100
AcDbEntity
  8
レイヤー_2
 62
     7
100
AcDbLine
 10
-56.018114
 20
-37.171288
 30
0.0
 11
-56.09494
 21
-37.171288
 31
0.0
  0
LINE
  5
333
100
AcDbEntity
  8
レイヤー_2
 62
     7
100
AcDbLine
 10
-2.937288
 20
-26.122178
 30
0.0
 11
-2.937288
 21
-16.773567
 31
0.0
  0
LINE
  5
332
100
AcDbEntity
  8
レイヤー_2
 62
     7
100
AcDbLine
 10
-4.712202
 20
-16.773567
 30
0.0
 11
-4.712202
 21
-26.122178
 31
0.0
  0
LINE
  5
331
100
AcDbEntity
  8
レイヤー_2
 62
     7
100
AcDbLine
 10
0.539157
 20
-39.180468
 30
0.0
 11
0.539157
 21
-27.97564
 31
0.0
  0
LINE
  5
330
100
AcDbEntity
  8
レイヤー_2
 62
     7
100
AcDbLine
 10
0.539157
 20
-26.045008
 30
0.0
 11
0.539157
 21
-16.773567
 31
0.0
  0
LINE
  5
32F
100
AcDbEntity
  8
レイヤー_2
 62
     7
100
AcDbLine
 10
-1.777325
 20
-16.773567
 30
0.0
 11
-1.777325
 21
-26.122178
 31
0.0
  0
LINE
  5
32E
100
AcDbEntity
  8
レイヤー_2
 62
     7
100
AcDbLine
 10
-1.777325
 20
-28.05281
 30
0.0
 11
-1.777325
 21
-37.86582
 31
0.0
  0
LINE
  5
32D
100
AcDbEntity
  8
レイヤー_2
 62
     7
100
AcDbLine
 10
3.012736
 20
-26.430859
 30
0.0
 11
3.012736
 21
-26.045008
 31
0.0
  0
LINE
  5
32C
100
AcDbEntity
  8
レイヤー_2
 62
     7
100
AcDbLine
 10
-7.955759
 20
-26.045008
 30
0.0
 11
-7.955759
 21
-26.430859
 31
0.0
  0
POLYLINE
  5
327
100
AcDbEntity
  8
レイヤー_2
 62
     7
100
AcDb2dPolyline
 66
     1
 10
0.0
 20
0.0
 30
0.0
  0
VERTEX
  5
328
100
AcDbEntity
  8
レイヤー_2
 62
     7
100
AcDbVertex
100
AcDb2dVertex
 10
-8.264267
 20
-26.430859
 30
0.0
  0
VERTEX
  5
329
100
AcDbEntity
  8
レイヤー_2
 62
     7
100
AcDbVertex
100
AcDb2dVertex
 10
-8.342643
 20
-26.430859
 30
0.0
  0
VERTEX
  5
32A
100
AcDbEntity
  8
レイヤー_2
 62
     7
100
AcDbVertex
100
AcDb2dVertex
 10
-8.419124
 20
-26.508718
 30
0.0
  0
SEQEND
  5
32B
100
AcDbEntity
  8
レイヤー_2
 62
     7
  0
POLYLINE
  5
322
100
AcDbEntity
  8
レイヤー_2
 62
     7
100
AcDb2dPolyline
 66
     1
 10
0.0
 20
0.0
 30
0.0
  0
VERTEX
  5
323
100
AcDbEntity
  8
レイヤー_2
 62
     7
100
AcDbVertex
100
AcDb2dVertex
 10
3.475412
 20
-26.508718
 30
0.0
  0
VERTEX
  5
324
100
AcDbEntity
  8
レイヤー_2
 62
     7
100
AcDbVertex
100
AcDb2dVertex
 10
3.398931
 20
-26.430859
 30
0.0
  0
VERTEX
  5
325
100
AcDbEntity
  8
レイヤー_2
 62
     7
100
AcDbVertex
100
AcDb2dVertex
 10
3.321417
 20
-26.430859
 30
0.0
  0
SEQEND
  5
326
100
AcDbEntity
  8
レイヤー_2
 62
     7
  0
LINE
  5
321
100
AcDbEntity
  8
レイヤー_2
 62
     7
100
AcDbLine
 10
3.475412
 20
-27.899158
 30
0.0
 11
3.475412
 21
-26.508718
 31
0.0
  0
LINE
  5
320
100
AcDbEntity
  8
レイヤー_2
 62
     7
100
AcDbLine
 10
-8.419124
 20
-26.508718
 30
0.0
 11
-8.419124
 21
-27.899158
 31
0.0
  0
POLYLINE
  5
31B
100
AcDbEntity
  8
レイヤー_2
 62
     7
100
AcDb2dPolyline
 66
     1
 10
0.0
 20
0.0
 30
0.0
  0
VERTEX
  5
31C
100
AcDbEntity
  8
レイヤー_2
 62
     7
100
AcDbVertex
100
AcDb2dVertex
 10
-8.419124
 20
-27.899158
 30
0.0
  0
VERTEX
  5
31D
100
AcDbEntity
  8
レイヤー_2
 62
     7
100
AcDbVertex
100
AcDb2dVertex
 10
-8.342643
 20
-27.97564
 30
0.0
  0
VERTEX
  5
31E
100
AcDbEntity
  8
レイヤー_2
 62
     7
100
AcDbVertex
100
AcDb2dVertex
 10
-8.264267
 20
-27.97564
 30
0.0
  0
SEQEND
  5
31F
100
AcDbEntity
  8
レイヤー_2
 62
     7
  0
POLYLINE
  5
316
100
AcDbEntity
  8
レイヤー_2
 62
     7
100
AcDb2dPolyline
 66
     1
 10
0.0
 20
0.0
 30
0.0
  0
VERTEX
  5
317
100
AcDbEntity
  8
レイヤー_2
 62
     7
100
AcDbVertex
100
AcDb2dVertex
 10
3.321417
 20
-27.97564
 30
0.0
  0
VERTEX
  5
318
100
AcDbEntity
  8
レイヤー_2
 62
     7
100
AcDbVertex
100
AcDb2dVertex
 10
3.398931
 20
-27.97564
 30
0.0
  0
VERTEX
  5
319
100
AcDbEntity
  8
レイヤー_2
 62
     7
100
AcDbVertex
100
AcDb2dVertex
 10
3.475412
 20
-27.899158
 30
0.0
  0
SEQEND
  5
31A
100
AcDbEntity
  8
レイヤー_2
 62
     7
  0
LINE
  5
315
100
AcDbEntity
  8
レイヤー_2
 62
     7
100
AcDbLine
 10
-2.31786
 20
-28.439349
 30
0.0
 11
-2.31786
 21
-28.05281
 31
0.0
  0
LINE
  5
314
100
AcDbEntity
  8
レイヤー_2
 62
     7
100
AcDbLine
 10
-5.330252
 20
-28.05281
 30
0.0
 11
-5.330252
 21
-28.439349
 31
0.0
  0
LINE
  5
313
100
AcDbEntity
  8
レイヤー_2
 62
     7
100
AcDbLine
 10
-5.330252
 20
-28.439349
 30
0.0
 11
-4.943368
 21
-28.981607
 31
0.0
  0
LINE
  5
312
100
AcDbEntity
  8
レイヤー_2
 62
     7
100
AcDbLine
 10
-2.704055
 20
-28.981607
 30
0.0
 11
-2.31786
 21
-28.439349
 31
0.0
  0
LINE
  5
311
100
AcDbEntity
  8
レイヤー_2
 62
     7
100
AcDbLine
 10
-2.31786
 20
-28.05281
 30
0.0
 11
-2.782259
 21
-27.97564
 31
0.0
  0
LINE
  5
310
100
AcDbEntity
  8
レイヤー_2
 62
     7
100
AcDbLine
 10
-4.866886
 20
-27.97564
 30
0.0
 11
-5.330252
 21
-28.05281
 31
0.0
  0
LINE
  5
30F
100
AcDbEntity
  8
レイヤー_2
 62
     7
100
AcDbLine
 10
-2.704055
 20
-34.311859
 30
0.0
 11
-2.704055
 21
-28.981607
 31
0.0
  0
LINE
  5
30E
100
AcDbEntity
  8
レイヤー_2
 62
     7
100
AcDbLine
 10
-4.943368
 20
-28.981607
 30
0.0
 11
-4.943368
 21
-34.311859
 31
0.0
  0
LINE
  5
30D
100
AcDbEntity
  8
レイヤー_2
 62
     7
100
AcDbLine
 10
-7.955759
 20
-26.045008
 30
0.0
 11
3.012736
 21
-26.045008
 31
0.0
  0
LINE
  5
30C
100
AcDbEntity
  8
レイヤー_2
 62
     7
100
AcDbLine
 10
-8.264267
 20
-26.430859
 30
0.0
 11
3.321417
 21
-26.430859
 31
0.0
  0
LINE
  5
30B
100
AcDbEntity
  8
レイヤー_2
 62
     7
100
AcDbLine
 10
3.321417
 20
-27.97564
 30
0.0
 11
-8.264267
 21
-27.97564
 31
0.0
  0
LINE
  5
30A
100
AcDbEntity
  8
レイヤー_2
 62
     7
100
AcDbLine
 10
3.012736
 20
-26.430859
 30
0.0
 11
3.089217
 21
-26.430859
 31
0.0
  0
LINE
  5
309
100
AcDbEntity
  8
レイヤー_2
 62
     7
100
AcDbLine
 10
-8.032929
 20
-26.430859
 30
0.0
 11
-7.955759
 21
-26.430859
 31
0.0
  0
LINE
  5
308
100
AcDbEntity
  8
レイヤー_2
 62
     7
100
AcDbLine
 10
2.007113
 20
-27.97564
 30
0.0
 11
0.539157
 21
-27.97564
 31
0.0
  0
LINE
  5
307
100
AcDbEntity
  8
レイヤー_2
 62
     7
100
AcDbLine
 10
-6.334325
 20
-27.97564
 30
0.0
 11
-6.565835
 21
-27.97564
 31
0.0
  0
LINE
  5
306
100
AcDbEntity
  8
レイヤー_2
 62
     7
100
AcDbLine
 10
-6.10247
 20
-27.97564
 30
0.0
 11
-6.334325
 21
-27.97564
 31
0.0
  0
LINE
  5
305
100
AcDbEntity
  8
レイヤー_2
 62
     7
100
AcDbLine
 10
-1.777325
 20
-27.97564
 30
0.0
 11
-2.47289
 21
-27.97564
 31
0.0
  0
LINE
  5
304
100
AcDbEntity
  8
レイヤー_2
 62
     7
100
AcDbLine
 10
-2.550404
 20
-36.9384
 30
0.0
 11
-3.322106
 21
-37.093429
 31
0.0
  0
POLYLINE
  5
2FF
100
AcDbEntity
  8
レイヤー_2
 62
     7
100
AcDb2dPolyline
 66
     1
 10
0.0
 20
0.0
 30
0.0
  0
VERTEX
  5
300
100
AcDbEntity
  8
レイヤー_2
 62
     7
100
AcDbVertex
100
AcDb2dVertex
 10
-3.322106
 20
-37.093429
 30
0.0
  0
VERTEX
  5
301
100
AcDbEntity
  8
レイヤー_2
 62
     7
100
AcDbVertex
100
AcDb2dVertex
 10
-3.39962
 20
-37.093429
 30
0.0
  0
VERTEX
  5
302
100
AcDbEntity
  8
レイヤー_2
 62
     7
100
AcDbVertex
100
AcDb2dVertex
 10
-4.171666
 20
-36.9384
 30
0.0
  0
SEQEND
  5
303
100
AcDbEntity
  8
レイヤー_2
 62
     7
  0
LINE
  5
2FE
100
AcDbEntity
  8
レイヤー_2
 62
     7
100
AcDbLine
 10
-4.171666
 20
-36.9384
 30
0.0
 11
-4.171666
 21
-34.466888
 31
0.0
  0
POLYLINE
  5
2F9
100
AcDbEntity
  8
レイヤー_2
 62
     7
100
AcDb2dPolyline
 66
     1
 10
0.0
 20
0.0
 30
0.0
  0
VERTEX
  5
2FA
100
AcDbEntity
  8
レイヤー_2
 62
     7
100
AcDbVertex
100
AcDb2dVertex
 10
-3.322106
 20
-34.311859
 30
0.0
  0
VERTEX
  5
2FB
100
AcDbEntity
  8
レイヤー_2
 62
     7
100
AcDbVertex
100
AcDb2dVertex
 10
-3.39962
 20
-34.311859
 30
0.0
  0
VERTEX
  5
2FC
100
AcDbEntity
  8
レイヤー_2
 62
     7
100
AcDbVertex
100
AcDb2dVertex
 10
-4.171666
 20
-34.466888
 30
0.0
  0
SEQEND
  5
2FD
100
AcDbEntity
  8
レイヤー_2
 62
     7
  0
LINE
  5
2F8
100
AcDbEntity
  8
レイヤー_2
 62
     7
100
AcDbLine
 10
-2.550404
 20
-34.466888
 30
0.0
 11
-3.322106
 21
-34.311859
 31
0.0
  0
LINE
  5
2F7
100
AcDbEntity
  8
レイヤー_2
 62
     7
100
AcDbLine
 10
-2.550404
 20
-36.9384
 30
0.0
 11
-2.550404
 21
-34.466888
 31
0.0
  0
LINE
  5
2F6
100
AcDbEntity
  8
レイヤー_2
 62
     7
100
AcDbLine
 10
-2.31786
 20
-28.05281
 30
0.0
 11
-5.330252
 21
-28.05281
 31
0.0
  0
LINE
  5
2F5
100
AcDbEntity
  8
レイヤー_2
 62
     7
100
AcDbLine
 10
-2.31786
 20
-28.439349
 30
0.0
 11
-5.330252
 21
-28.439349
 31
0.0
  0
LINE
  5
2F4
100
AcDbEntity
  8
レイヤー_2
 62
     7
100
AcDbLine
 10
-2.704055
 20
-28.981607
 30
0.0
 11
-4.943368
 21
-28.981607
 31
0.0
  0
POLYLINE
  5
2EF
100
AcDbEntity
  8
レイヤー_2
 62
     7
100
AcDb2dPolyline
 66
     1
 10
0.0
 20
0.0
 30
0.0
  0
VERTEX
  5
2F0
100
AcDbEntity
  8
レイヤー_2
 62
     7
100
AcDbVertex
100
AcDb2dVertex
 10
-4.171666
 20
-34.466888
 30
0.0
  0
VERTEX
  5
2F1
100
AcDbEntity
  8
レイヤー_2
 62
     7
100
AcDbVertex
100
AcDb2dVertex
 10
-4.63572
 20
-34.389029
 30
0.0
  0
VERTEX
  5
2F2
100
AcDbEntity
  8
レイヤー_2
 62
     7
100
AcDbVertex
100
AcDb2dVertex
 10
-4.789716
 20
-34.311859
 30
0.0
  0
SEQEND
  5
2F3
100
AcDbEntity
  8
レイヤー_2
 62
     7
  0
LINE
  5
2EE
100
AcDbEntity
  8
レイヤー_2
 62
     7
100
AcDbLine
 10
-3.322106
 20
-34.311859
 30
0.0
 11
-4.789716
 21
-34.311859
 31
0.0
  0
POLYLINE
  5
2E9
100
AcDbEntity
  8
レイヤー_2
 62
     7
100
AcDb2dPolyline
 66
     1
 10
0.0
 20
0.0
 30
0.0
  0
VERTEX
  5
2EA
100
AcDbEntity
  8
レイヤー_2
 62
     7
100
AcDbVertex
100
AcDb2dVertex
 10
-4.171666
 20
-36.9384
 30
0.0
  0
VERTEX
  5
2EB
100
AcDbEntity
  8
レイヤー_2
 62
     7
100
AcDbVertex
100
AcDb2dVertex
 10
-4.63572
 20
-37.093429
 30
0.0
  0
VERTEX
  5
2EC
100
AcDbEntity
  8
レイヤー_2
 62
     7
100
AcDbVertex
100
AcDb2dVertex
 10
-4.789716
 20
-37.093429
 30
0.0
  0
SEQEND
  5
2ED
100
AcDbEntity
  8
レイヤー_2
 62
     7
  0
LINE
  5
2E8
100
AcDbEntity
  8
レイヤー_2
 62
     7
100
AcDbLine
 10
-3.322106
 20
-37.093429
 30
0.0
 11
-4.789716
 21
-37.093429
 31
0.0
  0
POLYLINE
  5
2E3
100
AcDbEntity
  8
レイヤー_2
 62
     7
100
AcDb2dPolyline
 66
     1
 10
0.0
 20
0.0
 30
0.0
  0
VERTEX
  5
2E4
100
AcDbEntity
  8
レイヤー_2
 62
     7
100
AcDbVertex
100
AcDb2dVertex
 10
-4.789716
 20
-37.093429
 30
0.0
  0
VERTEX
  5
2E5
100
AcDbEntity
  8
レイヤー_2
 62
     7
100
AcDbVertex
100
AcDb2dVertex
 10
-5.253082
 20
-37.016259
 30
0.0
  0
VERTEX
  5
2E6
100
AcDbEntity
  8
レイヤー_2
 62
     7
100
AcDbVertex
100
AcDb2dVertex
 10
-5.407766
 20
-36.9384
 30
0.0
  0
SEQEND
  5
2E7
100
AcDbEntity
  8
レイヤー_2
 62
     7
  0
LINE
  5
2E2
100
AcDbEntity
  8
レイヤー_2
 62
     7
100
AcDbLine
 10
-5.407766
 20
-36.9384
 30
0.0
 11
-5.407766
 21
-34.466888
 31
0.0
  0
POLYLINE
  5
2DD
100
AcDbEntity
  8
レイヤー_2
 62
     7
100
AcDb2dPolyline
 66
     1
 10
0.0
 20
0.0
 30
0.0
  0
VERTEX
  5
2DE
100
AcDbEntity
  8
レイヤー_2
 62
     7
100
AcDbVertex
100
AcDb2dVertex
 10
-4.789716
 20
-34.311859
 30
0.0
  0
VERTEX
  5
2DF
100
AcDbEntity
  8
レイヤー_2
 62
     7
100
AcDbVertex
100
AcDb2dVertex
 10
-5.253082
 20
-34.389029
 30
0.0
  0
VERTEX
  5
2E0
100
AcDbEntity
  8
レイヤー_2
 62
     7
100
AcDbVertex
100
AcDb2dVertex
 10
-5.407766
 20
-34.466888
 30
0.0
  0
SEQEND
  5
2E1
100
AcDbEntity
  8
レイヤー_2
 62
     7
  0
LINE
  5
2DC
100
AcDbEntity
  8
レイヤー_2
 62
     7
100
AcDbLine
 10
-2.394341
 20
-34.311859
 30
0.0
 11
-2.550404
 21
-34.466888
 31
0.0
  0
LINE
  5
2DB
100
AcDbEntity
  8
レイヤー_2
 62
     7
100
AcDbLine
 10
-2.394341
 20
-34.311859
 30
0.0
 11
-3.322106
 21
-34.311859
 31
0.0
  0
LINE
  5
2DA
100
AcDbEntity
  8
レイヤー_2
 62
     7
100
AcDbLine
 10
-2.394341
 20
-37.093429
 30
0.0
 11
-2.550404
 21
-36.9384
 31
0.0
  0
LINE
  5
2D9
100
AcDbEntity
  8
レイヤー_2
 62
     7
100
AcDbLine
 10
-2.394341
 20
-37.093429
 30
0.0
 11
-3.322106
 21
-37.093429
 31
0.0
  0
LINE
  5
2D8
100
AcDbEntity
  8
レイヤー_2
 62
     7
100
AcDbLine
 10
-5.407766
 20
-36.9384
 30
0.0
 11
-5.330252
 21
-37.016259
 31
0.0
  0
LINE
  5
2D7
100
AcDbEntity
  8
レイヤー_2
 62
     7
100
AcDbLine
 10
-4.789716
 20
-37.093429
 30
0.0
 11
-5.330252
 21
-37.093429
 31
0.0
  0
LINE
  5
2D6
100
AcDbEntity
  8
レイヤー_2
 62
     7
100
AcDbLine
 10
-5.407766
 20
-34.466888
 30
0.0
 11
-5.330252
 21
-34.389029
 31
0.0
  0
LINE
  5
2D5
100
AcDbEntity
  8
レイヤー_2
 62
     7
100
AcDbLine
 10
-4.789716
 20
-34.311859
 30
0.0
 11
-5.330252
 21
-34.311859
 31
0.0
  0
LINE
  5
2D4
100
AcDbEntity
  8
レイヤー_2
 62
     7
100
AcDbLine
 10
-2.241379
 20
-36.9384
 30
0.0
 11
-2.241379
 21
-37.016259
 31
0.0
  0
LINE
  5
2D3
100
AcDbEntity
  8
レイヤー_2
 62
     7
100
AcDbLine
 10
-2.31786
 20
-37.016259
 30
0.0
 11
-2.394341
 21
-37.093429
 31
0.0
  0
LINE
  5
2D2
100
AcDbEntity
  8
レイヤー_2
 62
     7
100
AcDbLine
 10
-2.241379
 20
-34.466888
 30
0.0
 11
-2.394341
 21
-34.311859
 31
0.0
  0
LINE
  5
2D1
100
AcDbEntity
  8
レイヤー_2
 62
     7
100
AcDbLine
 10
-2.241379
 20
-36.9384
 30
0.0
 11
-2.241379
 21
-34.466888
 31
0.0
  0
LINE
  5
2D0
100
AcDbEntity
  8
レイヤー_2
 62
     7
100
AcDbLine
 10
-2.31786
 20
-34.311859
 30
0.0
 11
-2.394341
 21
-34.311859
 31
0.0
  0
LINE
  5
2CF
100
AcDbEntity
  8
レイヤー_2
 62
     7
100
AcDbLine
 10
-2.31786
 20
-37.093429
 30
0.0
 11
-2.394341
 21
-37.093429
 31
0.0
  0
POLYLINE
  5
2C2
100
AcDbEntity
  8
レイヤー_2
 62
     7
100
AcDb2dPolyline
 66
     1
 10
0.0
 20
0.0
 30
0.0
  0
VERTEX
  5
2C3
100
AcDbEntity
  8
レイヤー_2
 62
     7
100
AcDbVertex
100
AcDb2dVertex
 10
-55.245207
 20
-39.180468
 30
0.0
  0
VERTEX
  5
2C4
100
AcDbEntity
  8
レイヤー_2
 62
     7
100
AcDbVertex
100
AcDb2dVertex
 10
-55.168209
 20
-39.180468
 30
0.0
  0
VERTEX
  5
2C5
100
AcDbEntity
  8
レイヤー_2
 62
     7
100
AcDbVertex
100
AcDb2dVertex
 10
-55.090694
 20
-39.257638
 30
0.0
  0
VERTEX
  5
2C6
100
AcDbEntity
  8
レイヤー_2
 62
     7
100
AcDbVertex
100
AcDb2dVertex
 10
-54.936526
 20
-39.257638
 30
0.0
  0
VERTEX
  5
2C7
100
AcDbEntity
  8
レイヤー_2
 62
     7
100
AcDbVertex
100
AcDb2dVertex
 10
-54.859012
 20
-39.334808
 30
0.0
  0
VERTEX
  5
2C8
100
AcDbEntity
  8
レイヤー_2
 62
     7
100
AcDbVertex
100
AcDb2dVertex
 10
-54.4723
 20
-39.334808
 30
0.0
  0
VERTEX
  5
2C9
100
AcDbEntity
  8
レイヤー_2
 62
     7
100
AcDbVertex
100
AcDb2dVertex
 10
-54.318132
 20
-39.411289
 30
0.0
  0
VERTEX
  5
2CA
100
AcDbEntity
  8
レイヤー_2
 62
     7
100
AcDbVertex
100
AcDb2dVertex
 10
-53.931936
 20
-39.411289
 30
0.0
  0
VERTEX
  5
2CB
100
AcDbEntity
  8
レイヤー_2
 62
     7
100
AcDbVertex
100
AcDb2dVertex
 10
-53.700081
 20
-39.334808
 30
0.0
  0
VERTEX
  5
2CC
100
AcDbEntity
  8
レイヤー_2
 62
     7
100
AcDbVertex
100
AcDb2dVertex
 10
-53.545224
 20
-39.334808
 30
0.0
  0
VERTEX
  5
2CD
100
AcDbEntity
  8
レイヤー_2
 62
     7
100
AcDbVertex
100
AcDb2dVertex
 10
-52.92683
 20
-39.024061
 30
0.0
  0
SEQEND
  5
2CE
100
AcDbEntity
  8
レイヤー_2
 62
     7
  0
POLYLINE
  5
2B7
100
AcDbEntity
  8
レイヤー_2
 62
     7
100
AcDb2dPolyline
 66
     1
 10
0.0
 20
0.0
 30
0.0
  0
VERTEX
  5
2B8
100
AcDbEntity
  8
レイヤー_2
 62
     7
100
AcDbVertex
100
AcDb2dVertex
 10
-49.991436
 20
-37.557139
 30
0.0
  0
VERTEX
  5
2B9
100
AcDbEntity
  8
レイヤー_2
 62
     7
100
AcDbVertex
100
AcDb2dVertex
 10
-51.227364
 20
-37.557139
 30
0.0
  0
VERTEX
  5
2BA
100
AcDbEntity
  8
レイヤー_2
 62
     7
100
AcDbVertex
100
AcDb2dVertex
 10
-51.382221
 20
-37.634309
 30
0.0
  0
VERTEX
  5
2BB
100
AcDbEntity
  8
レイヤー_2
 62
     7
100
AcDbVertex
100
AcDb2dVertex
 10
-51.536561
 20
-37.634309
 30
0.0
  0
VERTEX
  5
2BC
100
AcDbEntity
  8
レイヤー_2
 62
     7
100
AcDbVertex
100
AcDb2dVertex
 10
-51.690902
 20
-37.71079
 30
0.0
  0
VERTEX
  5
2BD
100
AcDbEntity
  8
レイヤー_2
 62
     7
100
AcDbVertex
100
AcDb2dVertex
 10
-51.845414
 20
-37.71079
 30
0.0
  0
VERTEX
  5
2BE
100
AcDbEntity
  8
レイヤー_2
 62
     7
100
AcDbVertex
100
AcDb2dVertex
 10
-52.000271
 20
-37.788649
 30
0.0
  0
VERTEX
  5
2BF
100
AcDbEntity
  8
レイヤー_2
 62
     7
100
AcDbVertex
100
AcDb2dVertex
 10
-52.231954
 20
-38.020849
 30
0.0
  0
VERTEX
  5
2C0
100
AcDbEntity
  8
レイヤー_2
 62
     7
100
AcDbVertex
100
AcDb2dVertex
 10
-52.231954
 20
-38.1745
 30
0.0
  0
SEQEND
  5
2C1
100
AcDbEntity
  8
レイヤー_2
 62
     7
  0
POLYLINE
  5
2A7
100
AcDbEntity
  8
レイヤー_2
 62
     7
100
AcDb2dPolyline
 66
     1
 10
0.0
 20
0.0
 30
0.0
  0
VERTEX
  5
2A8
100
AcDbEntity
  8
レイヤー_2
 62
     7
100
AcDbVertex
100
AcDb2dVertex
 10
-1.777325
 20
-37.86582
 30
0.0
  0
VERTEX
  5
2A9
100
AcDbEntity
  8
レイヤー_2
 62
     7
100
AcDbVertex
100
AcDb2dVertex
 10
-1.546159
 20
-37.86582
 30
0.0
  0
VERTEX
  5
2AA
100
AcDbEntity
  8
レイヤー_2
 62
     7
100
AcDbVertex
100
AcDb2dVertex
 10
-1.468644
 20
-37.943679
 30
0.0
  0
VERTEX
  5
2AB
100
AcDbEntity
  8
レイヤー_2
 62
     7
100
AcDbVertex
100
AcDb2dVertex
 10
-1.314648
 20
-37.943679
 30
0.0
  0
VERTEX
  5
2AC
100
AcDbEntity
  8
レイヤー_2
 62
     7
100
AcDbVertex
100
AcDb2dVertex
 10
-1.236445
 20
-38.020849
 30
0.0
  0
VERTEX
  5
2AD
100
AcDbEntity
  8
レイヤー_2
 62
     7
100
AcDbVertex
100
AcDb2dVertex
 10
-1.082794
 20
-38.020849
 30
0.0
  0
VERTEX
  5
2AE
100
AcDbEntity
  8
レイヤー_2
 62
     7
100
AcDbVertex
100
AcDb2dVertex
 10
-0.927764
 20
-38.098019
 30
0.0
  0
VERTEX
  5
2AF
100
AcDbEntity
  8
レイヤー_2
 62
     7
100
AcDbVertex
100
AcDb2dVertex
 10
-0.850594
 20
-38.1745
 30
0.0
  0
VERTEX
  5
2B0
100
AcDbEntity
  8
レイヤー_2
 62
     7
100
AcDbVertex
100
AcDb2dVertex
 10
-0.387918
 20
-38.4067
 30
0.0
  0
VERTEX
  5
2B1
100
AcDbEntity
  8
レイヤー_2
 62
     7
100
AcDbVertex
100
AcDb2dVertex
 10
-0.233233
 20
-38.561729
 30
0.0
  0
VERTEX
  5
2B2
100
AcDbEntity
  8
レイヤー_2
 62
     7
100
AcDbVertex
100
AcDb2dVertex
 10
-0.078204
 20
-38.638899
 30
0.0
  0
VERTEX
  5
2B3
100
AcDbEntity
  8
レイヤー_2
 62
     7
100
AcDbVertex
100
AcDb2dVertex
 10
0.076481
 20
-38.793928
 30
0.0
  0
VERTEX
  5
2B4
100
AcDbEntity
  8
レイヤー_2
 62
     7
100
AcDbVertex
100
AcDb2dVertex
 10
0.152962
 20
-38.948958
 30
0.0
  0
VERTEX
  5
2B5
100
AcDbEntity
  8
レイヤー_2
 62
     7
100
AcDbVertex
100
AcDb2dVertex
 10
0.462676
 20
-39.257638
 30
0.0
  0
SEQEND
  5
2B6
100
AcDbEntity
  8
レイヤー_2
 62
     7
  0
LINE
  5
2A6
100
AcDbEntity
  8
レイヤー_2
 62
     7
100
AcDbLine
 10
-49.682239
 20
50.987327
 30
0.0
 11
-49.682239
 21
55.083029
 31
0.0
  0
LINE
  5
2A5
100
AcDbEntity
  8
レイヤー_2
 62
     7
100
AcDbLine
 10
-49.218701
 20
56.241614
 30
0.0
 11
-49.218701
 21
56.782494
 31
0.0
  0
LINE
  5
2A4
100
AcDbEntity
  8
レイヤー_2
 62
     7
100
AcDbLine
 10
-49.218701
 20
55.314539
 30
0.0
 11
-49.218701
 21
56.241614
 31
0.0
  0
LINE
  5
2A3
100
AcDbEntity
  8
レイヤー_2
 62
     7
100
AcDbLine
 10
-56.09494
 20
55.314539
 30
0.0
 11
-56.09494
 21
39.784738
 31
0.0
  0
LINE
  5
2A2
100
AcDbEntity
  8
レイヤー_2
 62
     7
100
AcDbLine
 10
-49.218701
 20
39.784738
 30
0.0
 11
-49.218701
 21
55.314539
 31
0.0
  0
LINE
  5
2A1
100
AcDbEntity
  8
レイヤー_2
 62
     7
100
AcDbLine
 10
-49.218701
 20
14.286897
 30
0.0
 11
-49.218701
 21
39.784738
 31
0.0
  0
LINE
  5
2A0
100
AcDbEntity
  8
レイヤー_2
 62
     7
100
AcDbLine
 10
-56.09494
 20
39.784738
 30
0.0
 11
-56.09494
 21
14.286897
 31
0.0
  0
POLYLINE
  5
29B
100
AcDbEntity
  8
レイヤー_2
 62
     7
100
AcDb2dPolyline
 66
     1
 10
0.0
 20
0.0
 30
0.0
  0
VERTEX
  5
29C
100
AcDbEntity
  8
レイヤー_2
 62
     7
100
AcDbVertex
100
AcDb2dVertex
 10
-58.181117
 20
14.286897
 30
0.0
  0
VERTEX
  5
29D
100
AcDbEntity
  8
レイヤー_2
 62
     7
100
AcDbVertex
100
AcDb2dVertex
 10
-58.33563
 20
14.209382
 30
0.0
  0
VERTEX
  5
29E
100
AcDbEntity
  8
レイヤー_2
 62
     7
100
AcDbVertex
100
AcDb2dVertex
 10
-58.33563
 20
14.13204
 30
0.0
  0
SEQEND
  5
29F
100
AcDbEntity
  8
レイヤー_2
 62
     7
  0
POLYLINE
  5
296
100
AcDbEntity
  8
レイヤー_2
 62
     7
100
AcDb2dPolyline
 66
     1
 10
0.0
 20
0.0
 30
0.0
  0
VERTEX
  5
297
100
AcDbEntity
  8
レイヤー_2
 62
     7
100
AcDbVertex
100
AcDb2dVertex
 10
-46.977667
 20
14.13204
 30
0.0
  0
VERTEX
  5
298
100
AcDbEntity
  8
レイヤー_2
 62
     7
100
AcDbVertex
100
AcDb2dVertex
 10
-46.977667
 20
14.209382
 30
0.0
  0
VERTEX
  5
299
100
AcDbEntity
  8
レイヤー_2
 62
     7
100
AcDbVertex
100
AcDb2dVertex
 10
-47.209521
 20
14.286897
 30
0.0
  0
SEQEND
  5
29A
100
AcDbEntity
  8
レイヤー_2
 62
     7
  0
LINE
  5
295
100
AcDbEntity
  8
レイヤー_2
 62
     7
100
AcDbLine
 10
-58.33563
 20
14.13204
 30
0.0
 11
-58.33563
 21
-16.773567
 31
0.0
  0
LINE
  5
294
100
AcDbEntity
  8
レイヤー_2
 62
     7
100
AcDbLine
 10
-46.977667
 20
9.033471
 30
0.0
 11
-46.977667
 21
14.13204
 31
0.0
  0
LINE
  5
293
100
AcDbEntity
  8
レイヤー_2
 62
     7
100
AcDbLine
 10
-46.977667
 20
-16.773567
 30
0.0
 11
-46.977667
 21
-1.474759
 31
0.0
  0
POLYLINE
  5
282
100
AcDbEntity
  8
レイヤー_2
 62
     7
100
AcDb2dPolyline
 66
     1
 10
0.0
 20
0.0
 30
0.0
  0
VERTEX
  5
283
100
AcDbEntity
  8
レイヤー_2
 62
     7
100
AcDbVertex
100
AcDb2dVertex
 10
-55.477062
 20
50.987327
 30
0.0
  0
VERTEX
  5
284
100
AcDbEntity
  8
レイヤー_2
 62
     7
100
AcDbVertex
100
AcDb2dVertex
 10
-54.859012
 20
50.987327
 30
0.0
  0
VERTEX
  5
285
100
AcDbEntity
  8
レイヤー_2
 62
     7
100
AcDbVertex
100
AcDb2dVertex
 10
-54.550331
 20
51.064669
 30
0.0
  0
VERTEX
  5
286
100
AcDbEntity
  8
レイヤー_2
 62
     7
100
AcDbVertex
100
AcDb2dVertex
 10
-50.609314
 20
51.064669
 30
0.0
  0
VERTEX
  5
287
100
AcDbEntity
  8
レイヤー_2
 62
     7
100
AcDbVertex
100
AcDb2dVertex
 10
-50.377631
 20
50.987327
 30
0.0
  0
VERTEX
  5
288
100
AcDbEntity
  8
レイヤー_2
 62
     7
100
AcDbVertex
100
AcDb2dVertex
 10
-49.837096
 20
50.987327
 30
0.0
  0
VERTEX
  5
289
100
AcDbEntity
  8
レイヤー_2
 62
     7
100
AcDbVertex
100
AcDb2dVertex
 10
-49.914094
 20
50.909812
 30
0.0
  0
VERTEX
  5
28A
100
AcDbEntity
  8
レイヤー_2
 62
     7
100
AcDbVertex
100
AcDb2dVertex
 10
-51.382221
 20
50.909812
 30
0.0
  0
VERTEX
  5
28B
100
AcDbEntity
  8
レイヤー_2
 62
     7
100
AcDbVertex
100
AcDb2dVertex
 10
-51.845414
 20
50.833331
 30
0.0
  0
VERTEX
  5
28C
100
AcDbEntity
  8
レイヤー_2
 62
     7
100
AcDbVertex
100
AcDb2dVertex
 10
-52.308952
 20
50.833331
 30
0.0
  0
VERTEX
  5
28D
100
AcDbEntity
  8
レイヤー_2
 62
     7
100
AcDbVertex
100
AcDb2dVertex
 10
-52.772489
 20
50.833331
 30
0.0
  0
VERTEX
  5
28E
100
AcDbEntity
  8
レイヤー_2
 62
     7
100
AcDbVertex
100
AcDb2dVertex
 10
-53.700081
 20
50.833331
 30
0.0
  0
VERTEX
  5
28F
100
AcDbEntity
  8
レイヤー_2
 62
     7
100
AcDbVertex
100
AcDb2dVertex
 10
-54.163274
 20
50.909812
 30
0.0
  0
VERTEX
  5
290
100
AcDbEntity
  8
レイヤー_2
 62
     7
100
AcDbVertex
100
AcDb2dVertex
 10
-55.477062
 20
50.909812
 30
0.0
  0
VERTEX
  5
291
100
AcDbEntity
  8
レイヤー_2
 62
     7
100
AcDbVertex
100
AcDb2dVertex
 10
-55.477062
 20
50.987327
 30
0.0
  0
SEQEND
  5
292
100
AcDbEntity
  8
レイヤー_2
 62
     7
  0
POLYLINE
  5
271
100
AcDbEntity
  8
レイヤー_2
 62
     7
100
AcDb2dPolyline
 66
     1
 10
0.0
 20
0.0
 30
0.0
  0
VERTEX
  5
272
100
AcDbEntity
  8
レイヤー_2
 62
     7
100
AcDbVertex
100
AcDb2dVertex
 10
-55.708744
 20
50.987327
 30
0.0
  0
VERTEX
  5
273
100
AcDbEntity
  8
レイヤー_2
 62
     7
100
AcDbVertex
100
AcDb2dVertex
 10
-55.090694
 20
50.987327
 30
0.0
  0
VERTEX
  5
274
100
AcDbEntity
  8
レイヤー_2
 62
     7
100
AcDbVertex
100
AcDb2dVertex
 10
-54.704671
 20
51.064669
 30
0.0
  0
VERTEX
  5
275
100
AcDbEntity
  8
レイヤー_2
 62
     7
100
AcDbVertex
100
AcDb2dVertex
 10
-50.609314
 20
51.064669
 30
0.0
  0
VERTEX
  5
276
100
AcDbEntity
  8
レイヤー_2
 62
     7
100
AcDbVertex
100
AcDb2dVertex
 10
-50.300633
 20
50.987327
 30
0.0
  0
VERTEX
  5
277
100
AcDbEntity
  8
レイヤー_2
 62
     7
100
AcDbVertex
100
AcDb2dVertex
 10
-49.682239
 20
50.987327
 30
0.0
  0
VERTEX
  5
278
100
AcDbEntity
  8
レイヤー_2
 62
     7
100
AcDbVertex
100
AcDb2dVertex
 10
-49.682239
 20
50.909812
 30
0.0
  0
VERTEX
  5
279
100
AcDbEntity
  8
レイヤー_2
 62
     7
100
AcDbVertex
100
AcDb2dVertex
 10
-50.609314
 20
50.909812
 30
0.0
  0
VERTEX
  5
27A
100
AcDbEntity
  8
レイヤー_2
 62
     7
100
AcDbVertex
100
AcDb2dVertex
 10
-50.995509
 20
50.833331
 30
0.0
  0
VERTEX
  5
27B
100
AcDbEntity
  8
レイヤー_2
 62
     7
100
AcDbVertex
100
AcDb2dVertex
 10
-51.922584
 20
50.833331
 30
0.0
  0
VERTEX
  5
27C
100
AcDbEntity
  8
レイヤー_2
 62
     7
100
AcDbVertex
100
AcDb2dVertex
 10
-52.386122
 20
50.833331
 30
0.0
  0
VERTEX
  5
27D
100
AcDbEntity
  8
レイヤー_2
 62
     7
100
AcDbVertex
100
AcDb2dVertex
 10
-54.318132
 20
50.833331
 30
0.0
  0
VERTEX
  5
27E
100
AcDbEntity
  8
レイヤー_2
 62
     7
100
AcDbVertex
100
AcDb2dVertex
 10
-54.704671
 20
50.909812
 30
0.0
  0
VERTEX
  5
27F
100
AcDbEntity
  8
レイヤー_2
 62
     7
100
AcDbVertex
100
AcDb2dVertex
 10
-55.631746
 20
50.909812
 30
0.0
  0
VERTEX
  5
280
100
AcDbEntity
  8
レイヤー_2
 62
     7
100
AcDbVertex
100
AcDb2dVertex
 10
-55.708744
 20
50.987327
 30
0.0
  0
SEQEND
  5
281
100
AcDbEntity
  8
レイヤー_2
 62
     7
  0
POLYLINE
  5
24C
100
AcDbEntity
  8
レイヤー_2
 62
     7
100
AcDb2dPolyline
 66
     1
 10
0.0
 20
0.0
 30
0.0
  0
VERTEX
  5
24D
100
AcDbEntity
  8
レイヤー_2
 62
     7
100
AcDbVertex
100
AcDb2dVertex
 10
-56.09494
 20
56.782494
 30
0.0
  0
VERTEX
  5
24E
100
AcDbEntity
  8
レイヤー_2
 62
     7
100
AcDbVertex
100
AcDb2dVertex
 10
-55.940599
 20
57.864599
 30
0.0
  0
VERTEX
  5
24F
100
AcDbEntity
  8
レイヤー_2
 62
     7
100
AcDbVertex
100
AcDb2dVertex
 10
-55.477062
 20
58.791674
 30
0.0
  0
VERTEX
  5
250
100
AcDbEntity
  8
レイヤー_2
 62
     7
100
AcDbVertex
100
AcDb2dVertex
 10
-55.168209
 20
59.177869
 30
0.0
  0
VERTEX
  5
251
100
AcDbEntity
  8
レイヤー_2
 62
     7
100
AcDbVertex
100
AcDb2dVertex
 10
-54.781669
 20
59.564065
 30
0.0
  0
VERTEX
  5
252
100
AcDbEntity
  8
レイヤー_2
 62
     7
100
AcDbVertex
100
AcDb2dVertex
 10
-53.854422
 20
60.027602
 30
0.0
  0
VERTEX
  5
253
100
AcDbEntity
  8
レイヤー_2
 62
     7
100
AcDbVertex
100
AcDb2dVertex
 10
-53.313025
 20
60.182459
 30
0.0
  0
VERTEX
  5
254
100
AcDbEntity
  8
レイヤー_2
 62
     7
100
AcDbVertex
100
AcDb2dVertex
 10
-52.772489
 20
60.25894
 30
0.0
  0
VERTEX
  5
255
100
AcDbEntity
  8
レイヤー_2
 62
     7
100
AcDbVertex
100
AcDb2dVertex
 10
-52.308952
 20
60.182459
 30
0.0
  0
VERTEX
  5
256
100
AcDbEntity
  8
レイヤー_2
 62
     7
100
AcDbVertex
100
AcDb2dVertex
 10
-51.768416
 20
60.104945
 30
0.0
  0
VERTEX
  5
257
100
AcDbEntity
  8
レイヤー_2
 62
     7
100
AcDbVertex
100
AcDb2dVertex
 10
-51.304706
 20
59.950087
 30
0.0
  0
VERTEX
  5
258
100
AcDbEntity
  8
レイヤー_2
 62
     7
100
AcDbVertex
100
AcDb2dVertex
 10
-50.841169
 20
59.718749
 30
0.0
  0
VERTEX
  5
259
100
AcDbEntity
  8
レイヤー_2
 62
     7
100
AcDbVertex
100
AcDb2dVertex
 10
-50.377631
 20
59.409207
 30
0.0
  0
VERTEX
  5
25A
100
AcDbEntity
  8
レイヤー_2
 62
     7
100
AcDbVertex
100
AcDb2dVertex
 10
-49.991436
 20
59.023012
 30
0.0
  0
VERTEX
  5
25B
100
AcDbEntity
  8
レイヤー_2
 62
     7
100
AcDbVertex
100
AcDb2dVertex
 10
-49.527382
 20
58.095937
 30
0.0
  0
VERTEX
  5
25C
100
AcDbEntity
  8
レイヤー_2
 62
     7
100
AcDbVertex
100
AcDb2dVertex
 10
-49.373041
 20
57.632227
 30
0.0
  0
VERTEX
  5
25D
100
AcDbEntity
  8
レイヤー_2
 62
     7
100
AcDbVertex
100
AcDb2dVertex
 10
-49.295699
 20
57.091347
 30
0.0
  0
VERTEX
  5
25E
100
AcDbEntity
  8
レイヤー_2
 62
     7
100
AcDbVertex
100
AcDb2dVertex
 10
-49.295699
 20
56.550295
 30
0.0
  0
VERTEX
  5
25F
100
AcDbEntity
  8
レイヤー_2
 62
     7
100
AcDbVertex
100
AcDb2dVertex
 10
-49.373041
 20
56.009415
 30
0.0
  0
VERTEX
  5
260
100
AcDbEntity
  8
レイヤー_2
 62
     7
100
AcDbVertex
100
AcDb2dVertex
 10
-49.527382
 20
55.545705
 30
0.0
  0
VERTEX
  5
261
100
AcDbEntity
  8
レイヤー_2
 62
     7
100
AcDbVertex
100
AcDb2dVertex
 10
-49.991436
 20
54.619319
 30
0.0
  0
VERTEX
  5
262
100
AcDbEntity
  8
レイヤー_2
 62
     7
100
AcDbVertex
100
AcDb2dVertex
 10
-50.377631
 20
54.232435
 30
0.0
  0
VERTEX
  5
263
100
AcDbEntity
  8
レイヤー_2
 62
     7
100
AcDbVertex
100
AcDb2dVertex
 10
-50.841169
 20
53.922721
 30
0.0
  0
VERTEX
  5
264
100
AcDbEntity
  8
レイヤー_2
 62
     7
100
AcDbVertex
100
AcDb2dVertex
 10
-51.304706
 20
53.691555
 30
0.0
  0
VERTEX
  5
265
100
AcDbEntity
  8
レイヤー_2
 62
     7
100
AcDbVertex
100
AcDb2dVertex
 10
-51.768416
 20
53.536525
 30
0.0
  0
VERTEX
  5
266
100
AcDbEntity
  8
レイヤー_2
 62
     7
100
AcDbVertex
100
AcDb2dVertex
 10
-52.308952
 20
53.460044
 30
0.0
  0
VERTEX
  5
267
100
AcDbEntity
  8
レイヤー_2
 62
     7
100
AcDbVertex
100
AcDb2dVertex
 10
-52.772489
 20
53.38253
 30
0.0
  0
VERTEX
  5
268
100
AcDbEntity
  8
レイヤー_2
 62
     7
100
AcDbVertex
100
AcDb2dVertex
 10
-53.313025
 20
53.460044
 30
0.0
  0
VERTEX
  5
269
100
AcDbEntity
  8
レイヤー_2
 62
     7
100
AcDbVertex
100
AcDb2dVertex
 10
-53.854422
 20
53.61404
 30
0.0
  0
VERTEX
  5
26A
100
AcDbEntity
  8
レイヤー_2
 62
     7
100
AcDbVertex
100
AcDb2dVertex
 10
-54.781669
 20
54.078439
 30
0.0
  0
VERTEX
  5
26B
100
AcDbEntity
  8
レイヤー_2
 62
     7
100
AcDbVertex
100
AcDb2dVertex
 10
-55.168209
 20
54.463773
 30
0.0
  0
VERTEX
  5
26C
100
AcDbEntity
  8
レイヤー_2
 62
     7
100
AcDbVertex
100
AcDb2dVertex
 10
-55.477062
 20
54.850657
 30
0.0
  0
VERTEX
  5
26D
100
AcDbEntity
  8
レイヤー_2
 62
     7
100
AcDbVertex
100
AcDb2dVertex
 10
-55.940599
 20
55.778077
 30
0.0
  0
VERTEX
  5
26E
100
AcDbEntity
  8
レイヤー_2
 62
     7
100
AcDbVertex
100
AcDb2dVertex
 10
-56.018114
 20
56.318957
 30
0.0
  0
VERTEX
  5
26F
100
AcDbEntity
  8
レイヤー_2
 62
     7
100
AcDbVertex
100
AcDb2dVertex
 10
-56.09494
 20
56.782494
 30
0.0
  0
SEQEND
  5
270
100
AcDbEntity
  8
レイヤー_2
 62
     7
  0
POLYLINE
  5
245
100
AcDbEntity
  8
レイヤー_2
 62
     7
100
AcDb2dPolyline
 66
     1
 10
0.0
 20
0.0
 30
0.0
  0
VERTEX
  5
246
100
AcDbEntity
  8
レイヤー_2
 62
     7
100
AcDbVertex
100
AcDb2dVertex
 10
-49.218701
 20
56.241614
 30
0.0
  0
VERTEX
  5
247
100
AcDbEntity
  8
レイヤー_2
 62
     7
100
AcDbVertex
100
AcDb2dVertex
 10
-49.295699
 20
56.009415
 30
0.0
  0
VERTEX
  5
248
100
AcDbEntity
  8
レイヤー_2
 62
     7
100
AcDbVertex
100
AcDb2dVertex
 10
-49.373041
 20
55.469052
 30
0.0
  0
VERTEX
  5
249
100
AcDbEntity
  8
レイヤー_2
 62
     7
100
AcDbVertex
100
AcDb2dVertex
 10
-49.527382
 20
55.004825
 30
0.0
  0
VERTEX
  5
24A
100
AcDbEntity
  8
レイヤー_2
 62
     7
100
AcDbVertex
100
AcDb2dVertex
 10
-49.682239
 20
54.696834
 30
0.0
  0
SEQEND
  5
24B
100
AcDbEntity
  8
レイヤー_2
 62
     7
  0
POLYLINE
  5
23A
100
AcDbEntity
  8
レイヤー_2
 62
     7
100
AcDb2dPolyline
 66
     1
 10
0.0
 20
0.0
 30
0.0
  0
VERTEX
  5
23B
100
AcDbEntity
  8
レイヤー_2
 62
     7
100
AcDbVertex
100
AcDb2dVertex
 10
-55.708744
 20
55.083029
 30
0.0
  0
VERTEX
  5
23C
100
AcDbEntity
  8
レイヤー_2
 62
     7
100
AcDbVertex
100
AcDb2dVertex
 10
-55.168209
 20
54.386431
 30
0.0
  0
VERTEX
  5
23D
100
AcDbEntity
  8
レイヤー_2
 62
     7
100
AcDbVertex
100
AcDb2dVertex
 10
-54.395474
 20
53.845378
 30
0.0
  0
VERTEX
  5
23E
100
AcDbEntity
  8
レイヤー_2
 62
     7
100
AcDbVertex
100
AcDb2dVertex
 10
-53.545224
 20
53.460044
 30
0.0
  0
VERTEX
  5
23F
100
AcDbEntity
  8
レイヤー_2
 62
     7
100
AcDbVertex
100
AcDb2dVertex
 10
-52.695147
 20
53.38253
 30
0.0
  0
VERTEX
  5
240
100
AcDbEntity
  8
レイヤー_2
 62
     7
100
AcDbVertex
100
AcDb2dVertex
 10
-51.768416
 20
53.460044
 30
0.0
  0
VERTEX
  5
241
100
AcDbEntity
  8
レイヤー_2
 62
     7
100
AcDbVertex
100
AcDb2dVertex
 10
-50.918684
 20
53.845378
 30
0.0
  0
VERTEX
  5
242
100
AcDbEntity
  8
レイヤー_2
 62
     7
100
AcDbVertex
100
AcDb2dVertex
 10
-50.145776
 20
54.386431
 30
0.0
  0
VERTEX
  5
243
100
AcDbEntity
  8
レイヤー_2
 62
     7
100
AcDbVertex
100
AcDb2dVertex
 10
-49.682239
 20
55.083029
 30
0.0
  0
SEQEND
  5
244
100
AcDbEntity
  8
レイヤー_2
 62
     7
  0
POLYLINE
  5
233
100
AcDbEntity
  8
レイヤー_2
 62
     7
100
AcDb2dPolyline
 66
     1
 10
0.0
 20
0.0
 30
0.0
  0
VERTEX
  5
234
100
AcDbEntity
  8
レイヤー_2
 62
     7
100
AcDbVertex
100
AcDb2dVertex
 10
-49.682239
 20
54.619319
 30
0.0
  0
VERTEX
  5
235
100
AcDbEntity
  8
レイヤー_2
 62
     7
100
AcDbVertex
100
AcDb2dVertex
 10
-49.527382
 20
55.004825
 30
0.0
  0
VERTEX
  5
236
100
AcDbEntity
  8
レイヤー_2
 62
     7
100
AcDbVertex
100
AcDb2dVertex
 10
-49.373041
 20
55.469052
 30
0.0
  0
VERTEX
  5
237
100
AcDbEntity
  8
レイヤー_2
 62
     7
100
AcDbVertex
100
AcDb2dVertex
 10
-49.295699
 20
56.009415
 30
0.0
  0
VERTEX
  5
238
100
AcDbEntity
  8
レイヤー_2
 62
     7
100
AcDbVertex
100
AcDb2dVertex
 10
-49.218701
 20
56.241614
 30
0.0
  0
SEQEND
  5
239
100
AcDbEntity
  8
レイヤー_2
 62
     7
  0
LINE
  5
232
100
AcDbEntity
  8
レイヤー_2
 62
     7
100
AcDbLine
 10
-52.695147
 20
14.286897
 30
0.0
 11
-47.209521
 21
14.286897
 31
0.0
  0
LINE
  5
231
100
AcDbEntity
  8
レイヤー_2
 62
     7
100
AcDbLine
 10
-58.181117
 20
14.286897
 30
0.0
 11
-52.695147
 21
14.286897
 31
0.0
  0
LINE
  5
230
100
AcDbEntity
  8
レイヤー_2
 62
     7
100
AcDbLine
 10
-46.977667
 20
14.13204
 30
0.0
 11
-58.33563
 21
14.13204
 31
0.0
  0
LINE
  5
22F
100
AcDbEntity
  8
レイヤー_2
 62
     7
100
AcDbLine
 10
-58.33563
 20
-16.773567
 30
0.0
 11
-46.977667
 21
-16.773567
 31
0.0
  0
POLYLINE
  5
228
100
AcDbEntity
  8
レイヤー_2
 62
     7
100
AcDb2dPolyline
 66
     1
 10
0.0
 20
0.0
 30
0.0
  0
VERTEX
  5
229
100
AcDbEntity
  8
レイヤー_2
 62
     7
100
AcDbVertex
100
AcDb2dVertex
 10
-49.682239
 20
53.691555
 30
0.0
  0
VERTEX
  5
22A
100
AcDbEntity
  8
レイヤー_2
 62
     7
100
AcDbVertex
100
AcDb2dVertex
 10
-49.527382
 20
54.078439
 30
0.0
  0
VERTEX
  5
22B
100
AcDbEntity
  8
レイヤー_2
 62
     7
100
AcDbVertex
100
AcDb2dVertex
 10
-49.373041
 20
54.541977
 30
0.0
  0
VERTEX
  5
22C
100
AcDbEntity
  8
レイヤー_2
 62
     7
100
AcDbVertex
100
AcDb2dVertex
 10
-49.295699
 20
55.083029
 30
0.0
  0
VERTEX
  5
22D
100
AcDbEntity
  8
レイヤー_2
 62
     7
100
AcDbVertex
100
AcDb2dVertex
 10
-49.218701
 20
55.314539
 30
0.0
  0
SEQEND
  5
22E
100
AcDbEntity
  8
レイヤー_2
 62
     7
  0
LINE
  5
227
100
AcDbEntity
  8
レイヤー_2
 62
     7
100
AcDbLine
 10
-34.770143
 20
-1.088909
 30
0.0
 11
-33.688211
 21
-1.088909
 31
0.0
  0
LINE
  5
226
100
AcDbEntity
  8
レイヤー_2
 62
     7
100
AcDbLine
 10
-36.392611
 20
-1.088909
 30
0.0
 11
-35.92959
 21
-1.088909
 31
0.0
  0
LINE
  5
225
100
AcDbEntity
  8
レイヤー_2
 62
     7
100
AcDbLine
 10
-38.401274
 20
8.646242
 30
0.0
 11
-38.710299
 21
8.646242
 31
0.0
  0
LINE
  5
224
100
AcDbEntity
  8
レイヤー_2
 62
     7
100
AcDbLine
 10
-33.533698
 20
-0.856709
 30
0.0
 11
-33.533698
 21
25.877404
 31
0.0
  0
LINE
  5
223
100
AcDbEntity
  8
レイヤー_2
 62
     7
100
AcDbLine
 10
-39.251523
 20
-0.702713
 30
0.0
 11
-39.174181
 21
-0.702713
 31
0.0
  0
LINE
  5
222
100
AcDbEntity
  8
レイヤー_2
 62
     7
100
AcDbLine
 10
-39.174181
 20
8.260392
 30
0.0
 11
-39.251523
 21
8.260392
 31
0.0
  0
LINE
  5
221
100
AcDbEntity
  8
レイヤー_2
 62
     7
100
AcDbLine
 10
-38.710299
 20
8.028881
 30
0.0
 11
-39.019324
 21
8.028881
 31
0.0
  0
LINE
  5
220
100
AcDbEntity
  8
レイヤー_2
 62
     7
100
AcDbLine
 10
-39.019324
 20
-0.470342
 30
0.0
 11
-38.633129
 21
-0.470342
 31
0.0
  0
LINE
  5
21F
100
AcDbEntity
  8
レイヤー_2
 62
     7
100
AcDbLine
 10
-46.668814
 20
-1.166251
 30
0.0
 11
-39.328693
 21
-1.166251
 31
0.0
  0
LINE
  5
21E
100
AcDbEntity
  8
レイヤー_2
 62
     7
100
AcDbLine
 10
-39.328693
 20
8.646242
 30
0.0
 11
-46.591471
 21
8.646242
 31
0.0
  0
LINE
  5
21D
100
AcDbEntity
  8
レイヤー_2
 62
     7
100
AcDbLine
 10
-36.469953
 20
-1.088909
 30
0.0
 11
-36.392611
 21
-1.088909
 31
0.0
  0
LINE
  5
21C
100
AcDbEntity
  8
レイヤー_2
 62
     7
100
AcDbLine
 10
-36.469953
 20
-1.088909
 30
0.0
 11
-38.710299
 21
3.779184
 31
0.0
  0
LINE
  5
21B
100
AcDbEntity
  8
レイヤー_2
 62
     7
100
AcDbLine
 10
-33.533698
 20
8.337734
 30
0.0
 11
-33.533698
 21
8.182705
 31
0.0
  0
LINE
  5
21A
100
AcDbEntity
  8
レイヤー_2
 62
     7
100
AcDbLine
 10
-33.533698
 20
-0.702713
 30
0.0
 11
-33.533698
 21
-0.856709
 31
0.0
  0
LINE
  5
219
100
AcDbEntity
  8
レイヤー_2
 62
     7
100
AcDbLine
 10
-38.710299
 20
3.779184
 30
0.0
 11
-38.710299
 21
8.646242
 31
0.0
  0
LINE
  5
218
100
AcDbEntity
  8
レイヤー_2
 62
     7
100
AcDbLine
 10
-33.533698
 20
25.877404
 30
0.0
 11
-33.533698
 21
8.723929
 31
0.0
  0
LINE
  5
217
100
AcDbEntity
  8
レイヤー_2
 62
     7
100
AcDbLine
 10
-38.710299
 20
8.028881
 30
0.0
 11
-38.710299
 21
8.415076
 31
0.0
  0
LINE
  5
216
100
AcDbEntity
  8
レイヤー_2
 62
     7
100
AcDbLine
 10
-38.092249
 20
8.955095
 30
0.0
 11
-38.092249
 21
25.953885
 31
0.0
  0
LINE
  5
215
100
AcDbEntity
  8
レイヤー_2
 62
     7
100
AcDbLine
 10
-37.860394
 20
26.108742
 30
0.0
 11
-33.688211
 21
26.030366
 31
0.0
  0
LINE
  5
214
100
AcDbEntity
  8
レイヤー_2
 62
     7
100
AcDbLine
 10
-33.533698
 20
25.877404
 30
0.0
 11
-33.533698
 21
25.953885
 31
0.0
  0
LINE
  5
213
100
AcDbEntity
  8
レイヤー_2
 62
     7
100
AcDbLine
 10
-33.533698
 20
25.953885
 30
0.0
 11
-33.533698
 21
26.030366
 31
0.0
  0
LINE
  5
212
100
AcDbEntity
  8
レイヤー_2
 62
     7
100
AcDbLine
 10
-33.533698
 20
26.030366
 30
0.0
 11
-33.610868
 21
26.030366
 31
0.0
  0
LINE
  5
211
100
AcDbEntity
  8
レイヤー_2
 62
     7
100
AcDbLine
 10
-39.251523
 20
3.779184
 30
0.0
 11
-39.251523
 21
8.492419
 31
0.0
  0
LINE
  5
210
100
AcDbEntity
  8
レイヤー_2
 62
     7
100
AcDbLine
 10
-39.251523
 20
-0.933879
 30
0.0
 11
-39.251523
 21
3.779184
 31
0.0
  0
LINE
  5
20F
100
AcDbEntity
  8
レイヤー_2
 62
     7
100
AcDbLine
 10
-46.977667
 20
-1.474759
 30
0.0
 11
-47.055009
 21
-1.320247
 31
0.0
  0
LINE
  5
20E
100
AcDbEntity
  8
レイヤー_2
 62
     7
100
AcDbLine
 10
-47.055009
 20
-1.320247
 30
0.0
 11
-47.209521
 21
-1.166251
 31
0.0
  0
LINE
  5
20D
100
AcDbEntity
  8
レイヤー_2
 62
     7
100
AcDbLine
 10
-47.209521
 20
-1.166251
 30
0.0
 11
-47.441204
 21
-0.856709
 31
0.0
  0
LINE
  5
20C
100
AcDbEntity
  8
レイヤー_2
 62
     7
100
AcDbLine
 10
-47.441204
 20
-0.856709
 30
0.0
 11
-47.750574
 21
-0.547684
 31
0.0
  0
LINE
  5
20B
100
AcDbEntity
  8
レイヤー_2
 62
     7
100
AcDbLine
 10
-47.750574
 20
-0.547684
 30
0.0
 11
-48.136597
 21
0.069677
 31
0.0
  0
LINE
  5
20A
100
AcDbEntity
  8
レイヤー_2
 62
     7
100
AcDbLine
 10
-48.136597
 20
0.069677
 30
0.0
 11
-48.677304
 21
0.766448
 31
0.0
  0
LINE
  5
209
100
AcDbEntity
  8
レイヤー_2
 62
     7
100
AcDbLine
 10
-48.677304
 20
0.766448
 30
0.0
 11
-49.218701
 21
1.61618
 31
0.0
  0
LINE
  5
208
100
AcDbEntity
  8
レイヤー_2
 62
     7
100
AcDbLine
 10
-49.218701
 20
1.61618
 30
0.0
 11
-49.604724
 21
2.543256
 31
0.0
  0
LINE
  5
207
100
AcDbEntity
  8
レイヤー_2
 62
     7
100
AcDbLine
 10
-49.604724
 20
2.543256
 30
0.0
 11
-49.759237
 21
3.005932
 31
0.0
  0
LINE
  5
206
100
AcDbEntity
  8
レイヤー_2
 62
     7
100
AcDbLine
 10
-49.759237
 20
3.005932
 30
0.0
 11
-49.837096
 21
3.546812
 31
0.0
  0
LINE
  5
205
100
AcDbEntity
  8
レイヤー_2
 62
     7
100
AcDbLine
 10
-49.837096
 20
3.546812
 30
0.0
 11
-49.837096
 21
4.165379
 31
0.0
  0
LINE
  5
204
100
AcDbEntity
  8
レイヤー_2
 62
     7
100
AcDbLine
 10
-49.837096
 20
4.165379
 30
0.0
 11
-49.682239
 21
4.782912
 31
0.0
  0
LINE
  5
203
100
AcDbEntity
  8
レイヤー_2
 62
     7
100
AcDbLine
 10
-49.682239
 20
4.782912
 30
0.0
 11
-49.450556
 21
5.324137
 31
0.0
  0
LINE
  5
202
100
AcDbEntity
  8
レイヤー_2
 62
     7
100
AcDbLine
 10
-49.450556
 20
5.324137
 30
0.0
 11
-49.064189
 21
6.096183
 31
0.0
  0
LINE
  5
201
100
AcDbEntity
  8
レイヤー_2
 62
     7
100
AcDbLine
 10
-49.064189
 20
6.096183
 30
0.0
 11
-48.600651
 21
6.869434
 31
0.0
  0
LINE
  5
200
100
AcDbEntity
  8
レイヤー_2
 62
     7
100
AcDbLine
 10
-48.600651
 20
6.869434
 30
0.0
 11
-48.136597
 21
7.565344
 31
0.0
  0
LINE
  5
1FF
100
AcDbEntity
  8
レイヤー_2
 62
     7
100
AcDbLine
 10
-48.136597
 20
7.565344
 30
0.0
 11
-47.673059
 21
8.105362
 31
0.0
  0
LINE
  5
1FE
100
AcDbEntity
  8
レイヤー_2
 62
     7
100
AcDbLine
 10
-47.673059
 20
8.105362
 30
0.0
 11
-47.364379
 21
8.492419
 31
0.0
  0
LINE
  5
1FD
100
AcDbEntity
  8
レイヤー_2
 62
     7
100
AcDbLine
 10
-47.364379
 20
8.492419
 30
0.0
 11
-47.132524
 21
8.801272
 31
0.0
  0
LINE
  5
1FC
100
AcDbEntity
  8
レイヤー_2
 62
     7
100
AcDbLine
 10
-47.132524
 20
8.801272
 30
0.0
 11
-47.055009
 21
8.955095
 31
0.0
  0
LINE
  5
1FB
100
AcDbEntity
  8
レイヤー_2
 62
     7
100
AcDbLine
 10
-47.055009
 20
8.955095
 30
0.0
 11
-46.977667
 21
9.033471
 31
0.0
  0
POLYLINE
  5
1F6
100
AcDbEntity
  8
レイヤー_2
 62
     7
100
AcDb2dPolyline
 66
     1
 10
0.0
 20
0.0
 30
0.0
  0
VERTEX
  5
1F7
100
AcDbEntity
  8
レイヤー_2
 62
     7
100
AcDbVertex
100
AcDb2dVertex
 10
-33.688211
 20
-1.088909
 30
0.0
  0
VERTEX
  5
1F8
100
AcDbEntity
  8
レイヤー_2
 62
     7
100
AcDbVertex
100
AcDb2dVertex
 10
-33.533698
 20
-1.011222
 30
0.0
  0
VERTEX
  5
1F9
100
AcDbEntity
  8
レイヤー_2
 62
     7
100
AcDbVertex
100
AcDb2dVertex
 10
-33.533698
 20
-0.856709
 30
0.0
  0
SEQEND
  5
1FA
100
AcDbEntity
  8
レイヤー_2
 62
     7
  0
POLYLINE
  5
1F1
100
AcDbEntity
  8
レイヤー_2
 62
     7
100
AcDb2dPolyline
 66
     1
 10
0.0
 20
0.0
 30
0.0
  0
VERTEX
  5
1F2
100
AcDbEntity
  8
レイヤー_2
 62
     7
100
AcDbVertex
100
AcDb2dVertex
 10
-38.401274
 20
8.646242
 30
0.0
  0
VERTEX
  5
1F3
100
AcDbEntity
  8
レイヤー_2
 62
     7
100
AcDbVertex
100
AcDb2dVertex
 10
-38.169591
 20
8.801272
 30
0.0
  0
VERTEX
  5
1F4
100
AcDbEntity
  8
レイヤー_2
 62
     7
100
AcDbVertex
100
AcDb2dVertex
 10
-38.092249
 20
9.033471
 30
0.0
  0
SEQEND
  5
1F5
100
AcDbEntity
  8
レイヤー_2
 62
     7
  0
POLYLINE
  5
1EC
100
AcDbEntity
  8
レイヤー_2
 62
     7
100
AcDb2dPolyline
 66
     1
 10
0.0
 20
0.0
 30
0.0
  0
VERTEX
  5
1ED
100
AcDbEntity
  8
レイヤー_2
 62
     7
100
AcDbVertex
100
AcDb2dVertex
 10
-33.533698
 20
25.877404
 30
0.0
  0
VERTEX
  5
1EE
100
AcDbEntity
  8
レイヤー_2
 62
     7
100
AcDbVertex
100
AcDb2dVertex
 10
-33.533698
 20
26.030366
 30
0.0
  0
VERTEX
  5
1EF
100
AcDbEntity
  8
レイヤー_2
 62
     7
100
AcDbVertex
100
AcDb2dVertex
 10
-33.688211
 20
26.030366
 30
0.0
  0
SEQEND
  5
1F0
100
AcDbEntity
  8
レイヤー_2
 62
     7
  0
POLYLINE
  5
1E7
100
AcDbEntity
  8
レイヤー_2
 62
     7
100
AcDb2dPolyline
 66
     1
 10
0.0
 20
0.0
 30
0.0
  0
VERTEX
  5
1E8
100
AcDbEntity
  8
レイヤー_2
 62
     7
100
AcDbVertex
100
AcDb2dVertex
 10
-39.174181
 20
8.182705
 30
0.0
  0
VERTEX
  5
1E9
100
AcDbEntity
  8
レイヤー_2
 62
     7
100
AcDbVertex
100
AcDb2dVertex
 10
-39.174181
 20
8.105362
 30
0.0
  0
VERTEX
  5
1EA
100
AcDbEntity
  8
レイヤー_2
 62
     7
100
AcDbVertex
100
AcDb2dVertex
 10
-39.019324
 20
8.028881
 30
0.0
  0
SEQEND
  5
1EB
100
AcDbEntity
  8
レイヤー_2
 62
     7
  0
POLYLINE
  5
1E2
100
AcDbEntity
  8
レイヤー_2
 62
     7
100
AcDb2dPolyline
 66
     1
 10
0.0
 20
0.0
 30
0.0
  0
VERTEX
  5
1E3
100
AcDbEntity
  8
レイヤー_2
 62
     7
100
AcDbVertex
100
AcDb2dVertex
 10
-39.019324
 20
-0.470342
 30
0.0
  0
VERTEX
  5
1E4
100
AcDbEntity
  8
レイヤー_2
 62
     7
100
AcDbVertex
100
AcDb2dVertex
 10
-39.174181
 20
-0.547684
 30
0.0
  0
VERTEX
  5
1E5
100
AcDbEntity
  8
レイヤー_2
 62
     7
100
AcDbVertex
100
AcDb2dVertex
 10
-39.174181
 20
-0.625026
 30
0.0
  0
SEQEND
  5
1E6
100
AcDbEntity
  8
レイヤー_2
 62
     7
  0
POLYLINE
  5
1DD
100
AcDbEntity
  8
レイヤー_2
 62
     7
100
AcDb2dPolyline
 66
     1
 10
0.0
 20
0.0
 30
0.0
  0
VERTEX
  5
1DE
100
AcDbEntity
  8
レイヤー_2
 62
     7
100
AcDbVertex
100
AcDb2dVertex
 10
-38.633129
 20
-0.470342
 30
0.0
  0
VERTEX
  5
1DF
100
AcDbEntity
  8
レイヤー_2
 62
     7
100
AcDbVertex
100
AcDb2dVertex
 10
-37.551541
 20
-0.392999
 30
0.0
  0
VERTEX
  5
1E0
100
AcDbEntity
  8
レイヤー_2
 62
     7
100
AcDbVertex
100
AcDb2dVertex
 10
-36.933835
 20
-0.161489
 30
0.0
  0
SEQEND
  5
1E1
100
AcDbEntity
  8
レイヤー_2
 62
     7
  0
POLYLINE
  5
1D8
100
AcDbEntity
  8
レイヤー_2
 62
     7
100
AcDb2dPolyline
 66
     1
 10
0.0
 20
0.0
 30
0.0
  0
VERTEX
  5
1D9
100
AcDbEntity
  8
レイヤー_2
 62
     7
100
AcDbVertex
100
AcDb2dVertex
 10
-46.668814
 20
-1.166251
 30
0.0
  0
VERTEX
  5
1DA
100
AcDbEntity
  8
レイヤー_2
 62
     7
100
AcDbVertex
100
AcDb2dVertex
 10
-46.900841
 20
-1.243593
 30
0.0
  0
VERTEX
  5
1DB
100
AcDbEntity
  8
レイヤー_2
 62
     7
100
AcDbVertex
100
AcDb2dVertex
 10
-46.977667
 20
-1.474759
 30
0.0
  0
SEQEND
  5
1DC
100
AcDbEntity
  8
レイヤー_2
 62
     7
  0
POLYLINE
  5
1D2
100
AcDbEntity
  8
レイヤー_2
 62
     7
100
AcDb2dPolyline
 66
     1
 10
0.0
 20
0.0
 30
0.0
  0
VERTEX
  5
1D3
100
AcDbEntity
  8
レイヤー_2
 62
     7
100
AcDbVertex
100
AcDb2dVertex
 10
-46.977667
 20
9.033471
 30
0.0
  0
VERTEX
  5
1D4
100
AcDbEntity
  8
レイヤー_2
 62
     7
100
AcDbVertex
100
AcDb2dVertex
 10
-46.900841
 20
8.801272
 30
0.0
  0
VERTEX
  5
1D5
100
AcDbEntity
  8
レイヤー_2
 62
     7
100
AcDbVertex
100
AcDb2dVertex
 10
-46.668814
 20
8.723929
 30
0.0
  0
VERTEX
  5
1D6
100
AcDbEntity
  8
レイヤー_2
 62
     7
100
AcDbVertex
100
AcDb2dVertex
 10
-46.591471
 20
8.723929
 30
0.0
  0
SEQEND
  5
1D7
100
AcDbEntity
  8
レイヤー_2
 62
     7
  0
POLYLINE
  5
1CD
100
AcDbEntity
  8
レイヤー_2
 62
     7
100
AcDb2dPolyline
 66
     1
 10
0.0
 20
0.0
 30
0.0
  0
VERTEX
  5
1CE
100
AcDbEntity
  8
レイヤー_2
 62
     7
100
AcDbVertex
100
AcDb2dVertex
 10
-39.328693
 20
-1.166251
 30
0.0
  0
VERTEX
  5
1CF
100
AcDbEntity
  8
レイヤー_2
 62
     7
100
AcDbVertex
100
AcDb2dVertex
 10
-39.251523
 20
-1.088909
 30
0.0
  0
VERTEX
  5
1D0
100
AcDbEntity
  8
レイヤー_2
 62
     7
100
AcDbVertex
100
AcDb2dVertex
 10
-39.251523
 20
-0.933879
 30
0.0
  0
SEQEND
  5
1D1
100
AcDbEntity
  8
レイヤー_2
 62
     7
  0
POLYLINE
  5
1C8
100
AcDbEntity
  8
レイヤー_2
 62
     7
100
AcDb2dPolyline
 66
     1
 10
0.0
 20
0.0
 30
0.0
  0
VERTEX
  5
1C9
100
AcDbEntity
  8
レイヤー_2
 62
     7
100
AcDbVertex
100
AcDb2dVertex
 10
-39.251523
 20
8.492419
 30
0.0
  0
VERTEX
  5
1CA
100
AcDbEntity
  8
レイヤー_2
 62
     7
100
AcDbVertex
100
AcDb2dVertex
 10
-39.251523
 20
8.646242
 30
0.0
  0
VERTEX
  5
1CB
100
AcDbEntity
  8
レイヤー_2
 62
     7
100
AcDbVertex
100
AcDb2dVertex
 10
-39.328693
 20
8.646242
 30
0.0
  0
SEQEND
  5
1CC
100
AcDbEntity
  8
レイヤー_2
 62
     7
  0
POLYLINE
  5
1C3
100
AcDbEntity
  8
レイヤー_2
 62
     7
100
AcDb2dPolyline
 66
     1
 10
0.0
 20
0.0
 30
0.0
  0
VERTEX
  5
1C4
100
AcDbEntity
  8
レイヤー_2
 62
     7
100
AcDbVertex
100
AcDb2dVertex
 10
-34.770143
 20
-1.088909
 30
0.0
  0
VERTEX
  5
1C5
100
AcDbEntity
  8
レイヤー_2
 62
     7
100
AcDbVertex
100
AcDb2dVertex
 10
-35.234197
 20
-1.011222
 30
0.0
  0
VERTEX
  5
1C6
100
AcDbEntity
  8
レイヤー_2
 62
     7
100
AcDbVertex
100
AcDb2dVertex
 10
-35.92959
 20
-1.088909
 30
0.0
  0
SEQEND
  5
1C7
100
AcDbEntity
  8
レイヤー_2
 62
     7
  0
LINE
  5
1C2
100
AcDbEntity
  8
レイヤー_2
 62
     7
100
AcDbLine
 10
-33.533698
 20
8.337734
 30
0.0
 11
-33.533698
 21
8.723929
 31
0.0
  0
POLYLINE
  5
1BD
100
AcDbEntity
  8
レイヤー_2
 62
     7
100
AcDb2dPolyline
 66
     1
 10
0.0
 20
0.0
 30
0.0
  0
VERTEX
  5
1BE
100
AcDbEntity
  8
レイヤー_2
 62
     7
100
AcDbVertex
100
AcDb2dVertex
 10
-37.860394
 20
26.108742
 30
0.0
  0
VERTEX
  5
1BF
100
AcDbEntity
  8
レイヤー_2
 62
     7
100
AcDbVertex
100
AcDb2dVertex
 10
-38.015251
 20
26.108742
 30
0.0
  0
VERTEX
  5
1C0
100
AcDbEntity
  8
レイヤー_2
 62
     7
100
AcDbVertex
100
AcDb2dVertex
 10
-38.092249
 20
25.953885
 30
0.0
  0
SEQEND
  5
1C1
100
AcDbEntity
  8
レイヤー_2
 62
     7
  0
LINE
  5
1BC
100
AcDbEntity
  8
レイヤー_2
 62
     7
100
AcDbLine
 10
47.748334
 20
53.15033
 30
0.0
 11
47.825505
 21
50.833331
 31
0.0
  0
LINE
  5
1BB
100
AcDbEntity
  8
レイヤー_2
 62
     7
100
AcDbLine
 10
53.928491
 20
51.064669
 30
0.0
 11
53.85201
 21
53.38253
 31
0.0
  0
LINE
  5
1BA
100
AcDbEntity
  8
レイヤー_2
 62
     7
100
AcDbLine
 10
53.85201
 20
53.38253
 30
0.0
 11
55.396791
 21
53.38253
 31
0.0
  0
LINE
  5
1B9
100
AcDbEntity
  8
レイヤー_2
 62
     7
100
AcDbLine
 10
43.498465
 20
52.995645
 30
0.0
 11
47.748334
 21
53.15033
 31
0.0
  0
LINE
  5
1B8
100
AcDbEntity
  8
レイヤー_2
 62
     7
100
AcDbLine
 10
39.403624
 20
52.84165
 30
0.0
 11
42.571389
 21
52.918992
 31
0.0
  0
LINE
  5
1B7
100
AcDbEntity
  8
レイヤー_2
 62
     7
100
AcDbLine
 10
55.08811
 20
60.25894
 30
0.0
 11
39.17108
 21
59.718749
 31
0.0
  0
LINE
  5
1B6
100
AcDbEntity
  8
レイヤー_2
 62
     7
100
AcDbLine
 10
39.248939
 20
53.227845
 30
0.0
 11
39.403624
 21
53.227845
 31
0.0
  0
LINE
  5
1B5
100
AcDbEntity
  8
レイヤー_2
 62
     7
100
AcDbLine
 10
39.17108
 20
59.255212
 30
0.0
 11
39.09391
 21
59.255212
 31
0.0
  0
POLYLINE
  5
1A9
100
AcDbEntity
  8
レイヤー_2
 62
     7
100
AcDb2dPolyline
 66
     1
 10
0.0
 20
0.0
 30
0.0
  0
VERTEX
  5
1AA
100
AcDbEntity
  8
レイヤー_2
 62
     7
100
AcDbVertex
100
AcDb2dVertex
 10
12.593202
 20
51.914402
 30
0.0
  0
VERTEX
  5
1AB
100
AcDbEntity
  8
レイヤー_2
 62
     7
100
AcDbVertex
100
AcDb2dVertex
 10
10.969529
 20
51.759545
 30
0.0
  0
VERTEX
  5
1AC
100
AcDbEntity
  8
レイヤー_2
 62
     7
100
AcDbVertex
100
AcDb2dVertex
 10
8.883523
 20
51.219527
 30
0.0
  0
VERTEX
  5
1AD
100
AcDbEntity
  8
レイヤー_2
 62
     7
100
AcDbVertex
100
AcDb2dVertex
 10
6.952547
 20
50.292451
 30
0.0
  0
VERTEX
  5
1AE
100
AcDbEntity
  8
レイヤー_2
 62
     7
100
AcDbVertex
100
AcDb2dVertex
 10
5.252393
 20
49.056351
 30
0.0
  0
VERTEX
  5
1AF
100
AcDbEntity
  8
レイヤー_2
 62
     7
100
AcDbVertex
100
AcDb2dVertex
 10
3.785126
 20
47.587535
 30
0.0
  0
VERTEX
  5
1B0
100
AcDbEntity
  8
レイヤー_2
 62
     7
100
AcDbVertex
100
AcDb2dVertex
 10
2.548337
 20
45.887897
 30
0.0
  0
VERTEX
  5
1B1
100
AcDbEntity
  8
レイヤー_2
 62
     7
100
AcDbVertex
100
AcDb2dVertex
 10
1.698432
 20
43.956232
 30
0.0
  0
VERTEX
  5
1B2
100
AcDbEntity
  8
レイヤー_2
 62
     7
100
AcDbVertex
100
AcDb2dVertex
 10
1.158586
 20
41.947741
 30
0.0
  0
VERTEX
  5
1B3
100
AcDbEntity
  8
レイヤー_2
 62
     7
100
AcDbVertex
100
AcDb2dVertex
 10
0.925353
 20
39.784738
 30
0.0
  0
SEQEND
  5
1B4
100
AcDbEntity
  8
レイヤー_2
 62
     7
  0
POLYLINE
  5
19D
100
AcDbEntity
  8
レイヤー_2
 62
     7
100
AcDb2dPolyline
 66
     1
 10
0.0
 20
0.0
 30
0.0
  0
VERTEX
  5
19E
100
AcDbEntity
  8
レイヤー_2
 62
     7
100
AcDbVertex
100
AcDb2dVertex
 10
12.361003
 20
58.714332
 30
0.0
  0
VERTEX
  5
19F
100
AcDbEntity
  8
レイヤー_2
 62
     7
100
AcDbVertex
100
AcDb2dVertex
 10
9.734117
 20
58.482994
 30
0.0
  0
VERTEX
  5
1A0
100
AcDbEntity
  8
レイヤー_2
 62
     7
100
AcDbVertex
100
AcDb2dVertex
 10
6.566697
 20
57.632227
 30
0.0
  0
VERTEX
  5
1A1
100
AcDbEntity
  8
レイヤー_2
 62
     7
100
AcDbVertex
100
AcDb2dVertex
 10
3.552927
 20
56.241614
 30
0.0
  0
VERTEX
  5
1A2
100
AcDbEntity
  8
レイヤー_2
 62
     7
100
AcDbVertex
100
AcDb2dVertex
 10
0.848872
 20
54.308916
 30
0.0
  0
VERTEX
  5
1A3
100
AcDbEntity
  8
レイヤー_2
 62
     7
100
AcDbVertex
100
AcDb2dVertex
 10
-1.468644
 20
51.991917
 30
0.0
  0
VERTEX
  5
1A4
100
AcDbEntity
  8
レイヤー_2
 62
     7
100
AcDbVertex
100
AcDb2dVertex
 10
-3.39962
 20
49.287861
 30
0.0
  0
VERTEX
  5
1A5
100
AcDbEntity
  8
レイヤー_2
 62
     7
100
AcDbVertex
100
AcDb2dVertex
 10
-4.789716
 20
46.274092
 30
0.0
  0
VERTEX
  5
1A6
100
AcDbEntity
  8
レイヤー_2
 62
     7
100
AcDbVertex
100
AcDb2dVertex
 10
-5.638932
 20
43.106499
 30
0.0
  0
VERTEX
  5
1A7
100
AcDbEntity
  8
レイヤー_2
 62
     7
100
AcDbVertex
100
AcDb2dVertex
 10
-5.870098
 20
39.784738
 30
0.0
  0
SEQEND
  5
1A8
100
AcDbEntity
  8
レイヤー_2
 62
     7
  0
LINE
  5
19C
100
AcDbEntity
  8
レイヤー_2
 62
     7
100
AcDbLine
 10
0.925353
 20
14.286897
 30
0.0
 11
0.925353
 21
39.784738
 31
0.0
  0
LINE
  5
19B
100
AcDbEntity
  8
レイヤー_2
 62
     7
100
AcDbLine
 10
-5.870098
 20
39.784738
 30
0.0
 11
-5.870098
 21
14.286897
 31
0.0
  0
LINE
  5
19A
100
AcDbEntity
  8
レイヤー_2
 62
     7
100
AcDbLine
 10
39.017429
 20
59.641407
 30
0.0
 11
12.361003
 21
58.714332
 31
0.0
  0
LINE
  5
199
100
AcDbEntity
  8
レイヤー_2
 62
     7
100
AcDbLine
 10
12.593202
 20
51.914402
 30
0.0
 11
39.326109
 21
52.84165
 31
0.0
  0
POLYLINE
  5
194
100
AcDbEntity
  8
レイヤー_2
 62
     7
100
AcDb2dPolyline
 66
     1
 10
0.0
 20
0.0
 30
0.0
  0
VERTEX
  5
195
100
AcDbEntity
  8
レイヤー_2
 62
     7
100
AcDbVertex
100
AcDb2dVertex
 10
-7.955759
 20
14.286897
 30
0.0
  0
VERTEX
  5
196
100
AcDbEntity
  8
レイヤー_2
 62
     7
100
AcDbVertex
100
AcDb2dVertex
 10
-8.111305
 20
14.209382
 30
0.0
  0
VERTEX
  5
197
100
AcDbEntity
  8
レイヤー_2
 62
     7
100
AcDbVertex
100
AcDb2dVertex
 10
-8.187786
 20
14.13204
 30
0.0
  0
SEQEND
  5
198
100
AcDbEntity
  8
レイヤー_2
 62
     7
  0
POLYLINE
  5
18F
100
AcDbEntity
  8
レイヤー_2
 62
     7
100
AcDb2dPolyline
 66
     1
 10
0.0
 20
0.0
 30
0.0
  0
VERTEX
  5
190
100
AcDbEntity
  8
レイヤー_2
 62
     7
100
AcDbVertex
100
AcDb2dVertex
 10
3.244246
 20
14.13204
 30
0.0
  0
VERTEX
  5
191
100
AcDbEntity
  8
レイヤー_2
 62
     7
100
AcDbVertex
100
AcDb2dVertex
 10
3.166043
 20
14.209382
 30
0.0
  0
VERTEX
  5
192
100
AcDbEntity
  8
レイヤー_2
 62
     7
100
AcDbVertex
100
AcDb2dVertex
 10
3.012736
 20
14.286897
 30
0.0
  0
SEQEND
  5
193
100
AcDbEntity
  8
レイヤー_2
 62
     7
  0
LINE
  5
18E
100
AcDbEntity
  8
レイヤー_2
 62
     7
100
AcDbLine
 10
-8.187786
 20
9.728347
 30
0.0
 11
-8.187786
 21
-16.773567
 31
0.0
  0
LINE
  5
18D
100
AcDbEntity
  8
レイヤー_2
 62
     7
100
AcDbLine
 10
-8.187786
 20
14.13204
 30
0.0
 11
-8.187786
 21
9.574523
 31
0.0
  0
LINE
  5
18C
100
AcDbEntity
  8
レイヤー_2
 62
     7
100
AcDbLine
 10
3.244246
 20
-16.773567
 30
0.0
 11
3.244246
 21
14.13204
 31
0.0
  0
LINE
  5
18B
100
AcDbEntity
  8
レイヤー_2
 62
     7
100
AcDbLine
 10
50.915755
 20
50.987327
 30
0.0
 11
53.928491
 21
51.064669
 31
0.0
  0
LINE
  5
18A
100
AcDbEntity
  8
レイヤー_2
 62
     7
100
AcDbLine
 10
47.825505
 20
50.833331
 30
0.0
 11
50.915755
 21
50.987327
 31
0.0
  0
POLYLINE
  5
185
100
AcDbEntity
  8
レイヤー_2
 62
     7
100
AcDb2dPolyline
 66
     1
 10
0.0
 20
0.0
 30
0.0
  0
VERTEX
  5
186
100
AcDbEntity
  8
レイヤー_2
 62
     7
100
AcDbVertex
100
AcDb2dVertex
 10
43.498465
 20
52.995645
 30
0.0
  0
VERTEX
  5
187
100
AcDbEntity
  8
レイヤー_2
 62
     7
100
AcDbVertex
100
AcDb2dVertex
 10
43.188751
 20
52.995645
 30
0.0
  0
VERTEX
  5
188
100
AcDbEntity
  8
レイヤー_2
 62
     7
100
AcDbVertex
100
AcDb2dVertex
 10
42.571389
 20
52.918992
 30
0.0
  0
SEQEND
  5
189
100
AcDbEntity
  8
レイヤー_2
 62
     7
  0
LINE
  5
184
100
AcDbEntity
  8
レイヤー_2
 62
     7
100
AcDbLine
 10
55.243829
 20
56.782494
 30
0.0
 11
55.08811
 21
60.25894
 31
0.0
  0
LINE
  5
183
100
AcDbEntity
  8
レイヤー_2
 62
     7
100
AcDbLine
 10
55.396791
 20
53.38253
 30
0.0
 11
55.243829
 21
56.782494
 31
0.0
  0
LINE
  5
182
100
AcDbEntity
  8
レイヤー_2
 62
     7
100
AcDbLine
 10
39.248939
 20
56.241614
 30
0.0
 11
39.17108
 21
59.718749
 31
0.0
  0
LINE
  5
181
100
AcDbEntity
  8
レイヤー_2
 62
     7
100
AcDbLine
 10
39.403624
 20
52.84165
 30
0.0
 11
39.248939
 21
56.241614
 31
0.0
  0
POLYLINE
  5
179
100
AcDbEntity
  8
レイヤー_2
 62
     7
100
AcDb2dPolyline
 66
     1
 10
0.0
 20
0.0
 30
0.0
  0
VERTEX
  5
17A
100
AcDbEntity
  8
レイヤー_2
 62
     7
100
AcDbVertex
100
AcDb2dVertex
 10
50.761759
 20
55.083029
 30
0.0
  0
VERTEX
  5
17B
100
AcDbEntity
  8
レイヤー_2
 62
     7
100
AcDbVertex
100
AcDb2dVertex
 10
50.22019
 20
54.928344
 30
0.0
  0
VERTEX
  5
17C
100
AcDbEntity
  8
レイヤー_2
 62
     7
100
AcDbVertex
100
AcDb2dVertex
 10
49.4478
 20
54.619319
 30
0.0
  0
VERTEX
  5
17D
100
AcDbEntity
  8
レイヤー_2
 62
     7
100
AcDbVertex
100
AcDb2dVertex
 10
48.520725
 20
53.845378
 30
0.0
  0
VERTEX
  5
17E
100
AcDbEntity
  8
レイヤー_2
 62
     7
100
AcDbVertex
100
AcDb2dVertex
 10
47.825505
 20
53.15033
 30
0.0
  0
VERTEX
  5
17F
100
AcDbEntity
  8
レイヤー_2
 62
     7
100
AcDbVertex
100
AcDb2dVertex
 10
47.748334
 20
53.15033
 30
0.0
  0
SEQEND
  5
180
100
AcDbEntity
  8
レイヤー_2
 62
     7
  0
POLYLINE
  5
16F
100
AcDbEntity
  8
レイヤー_2
 62
     7
100
AcDb2dPolyline
 66
     1
 10
0.0
 20
0.0
 30
0.0
  0
VERTEX
  5
170
100
AcDbEntity
  8
レイヤー_2
 62
     7
100
AcDbVertex
100
AcDb2dVertex
 10
53.85201
 20
53.38253
 30
0.0
  0
VERTEX
  5
171
100
AcDbEntity
  8
レイヤー_2
 62
     7
100
AcDbVertex
100
AcDb2dVertex
 10
53.697325
 20
53.460044
 30
0.0
  0
VERTEX
  5
172
100
AcDbEntity
  8
レイヤー_2
 62
     7
100
AcDbVertex
100
AcDb2dVertex
 10
53.387611
 20
53.691555
 30
0.0
  0
VERTEX
  5
173
100
AcDbEntity
  8
レイヤー_2
 62
     7
100
AcDbVertex
100
AcDb2dVertex
 10
53.079964
 20
54.000924
 30
0.0
  0
VERTEX
  5
174
100
AcDbEntity
  8
レイヤー_2
 62
     7
100
AcDbVertex
100
AcDb2dVertex
 10
52.693769
 20
54.232435
 30
0.0
  0
VERTEX
  5
175
100
AcDbEntity
  8
レイヤー_2
 62
     7
100
AcDbVertex
100
AcDb2dVertex
 10
51.766349
 20
54.850657
 30
0.0
  0
VERTEX
  5
176
100
AcDbEntity
  8
レイヤー_2
 62
     7
100
AcDbVertex
100
AcDb2dVertex
 10
51.147266
 20
55.004825
 30
0.0
  0
VERTEX
  5
177
100
AcDbEntity
  8
レイヤー_2
 62
     7
100
AcDbVertex
100
AcDb2dVertex
 10
50.761759
 20
55.083029
 30
0.0
  0
SEQEND
  5
178
100
AcDbEntity
  8
レイヤー_2
 62
     7
  0
LINE
  5
16E
100
AcDbEntity
  8
レイヤー_2
 62
     7
100
AcDbLine
 10
39.17108
 20
56.241614
 30
0.0
 11
39.326109
 21
52.84165
 31
0.0
  0
LINE
  5
16D
100
AcDbEntity
  8
レイヤー_2
 62
     7
100
AcDbLine
 10
39.017429
 20
59.641407
 30
0.0
 11
39.17108
 21
56.241614
 31
0.0
  0
LINE
  5
16C
100
AcDbEntity
  8
レイヤー_2
 62
     7
100
AcDbLine
 10
-7.955759
 20
14.286897
 30
0.0
 11
3.012736
 21
14.286897
 31
0.0
  0
LINE
  5
16B
100
AcDbEntity
  8
レイヤー_2
 62
     7
100
AcDbLine
 10
-55.708744
 20
50.987327
 30
0.0
 11
-55.708744
 21
55.083029
 31
0.0
  0
LINE
  5
16A
100
AcDbEntity
  8
レイヤー_2
 62
     7
100
AcDbLine
 10
-56.09494
 20
56.241614
 30
0.0
 11
-56.09494
 21
56.782494
 31
0.0
  0
LINE
  5
169
100
AcDbEntity
  8
レイヤー_2
 62
     7
100
AcDbLine
 10
-56.09494
 20
55.314539
 30
0.0
 11
-56.09494
 21
56.241614
 31
0.0
  0
POLYLINE
  5
162
100
AcDbEntity
  8
レイヤー_2
 62
     7
100
AcDb2dPolyline
 66
     1
 10
0.0
 20
0.0
 30
0.0
  0
VERTEX
  5
163
100
AcDbEntity
  8
レイヤー_2
 62
     7
100
AcDbVertex
100
AcDb2dVertex
 10
-56.09494
 20
56.241614
 30
0.0
  0
VERTEX
  5
164
100
AcDbEntity
  8
レイヤー_2
 62
     7
100
AcDbVertex
100
AcDb2dVertex
 10
-56.09494
 20
56.009415
 30
0.0
  0
VERTEX
  5
165
100
AcDbEntity
  8
レイヤー_2
 62
     7
100
AcDbVertex
100
AcDb2dVertex
 10
-56.018114
 20
55.469052
 30
0.0
  0
VERTEX
  5
166
100
AcDbEntity
  8
レイヤー_2
 62
     7
100
AcDbVertex
100
AcDb2dVertex
 10
-55.863257
 20
55.004825
 30
0.0
  0
VERTEX
  5
167
100
AcDbEntity
  8
レイヤー_2
 62
     7
100
AcDbVertex
100
AcDb2dVertex
 10
-55.708744
 20
54.696834
 30
0.0
  0
SEQEND
  5
168
100
AcDbEntity
  8
レイヤー_2
 62
     7
  0
POLYLINE
  5
15B
100
AcDbEntity
  8
レイヤー_2
 62
     7
100
AcDb2dPolyline
 66
     1
 10
0.0
 20
0.0
 30
0.0
  0
VERTEX
  5
15C
100
AcDbEntity
  8
レイヤー_2
 62
     7
100
AcDbVertex
100
AcDb2dVertex
 10
-55.708744
 20
54.619319
 30
0.0
  0
VERTEX
  5
15D
100
AcDbEntity
  8
レイヤー_2
 62
     7
100
AcDbVertex
100
AcDb2dVertex
 10
-55.863257
 20
55.004825
 30
0.0
  0
VERTEX
  5
15E
100
AcDbEntity
  8
レイヤー_2
 62
     7
100
AcDbVertex
100
AcDb2dVertex
 10
-56.018114
 20
55.469052
 30
0.0
  0
VERTEX
  5
15F
100
AcDbEntity
  8
レイヤー_2
 62
     7
100
AcDbVertex
100
AcDb2dVertex
 10
-56.09494
 20
56.009415
 30
0.0
  0
VERTEX
  5
160
100
AcDbEntity
  8
レイヤー_2
 62
     7
100
AcDbVertex
100
AcDb2dVertex
 10
-56.09494
 20
56.241614
 30
0.0
  0
SEQEND
  5
161
100
AcDbEntity
  8
レイヤー_2
 62
     7
  0
POLYLINE
  5
154
100
AcDbEntity
  8
レイヤー_2
 62
     7
100
AcDb2dPolyline
 66
     1
 10
0.0
 20
0.0
 30
0.0
  0
VERTEX
  5
155
100
AcDbEntity
  8
レイヤー_2
 62
     7
100
AcDbVertex
100
AcDb2dVertex
 10
-55.708744
 20
53.691555
 30
0.0
  0
VERTEX
  5
156
100
AcDbEntity
  8
レイヤー_2
 62
     7
100
AcDbVertex
100
AcDb2dVertex
 10
-55.863257
 20
54.078439
 30
0.0
  0
VERTEX
  5
157
100
AcDbEntity
  8
レイヤー_2
 62
     7
100
AcDbVertex
100
AcDb2dVertex
 10
-56.018114
 20
54.541977
 30
0.0
  0
VERTEX
  5
158
100
AcDbEntity
  8
レイヤー_2
 62
     7
100
AcDbVertex
100
AcDb2dVertex
 10
-56.09494
 20
55.083029
 30
0.0
  0
VERTEX
  5
159
100
AcDbEntity
  8
レイヤー_2
 62
     7
100
AcDbVertex
100
AcDb2dVertex
 10
-56.09494
 20
55.314539
 30
0.0
  0
SEQEND
  5
15A
100
AcDbEntity
  8
レイヤー_2
 62
     7
  0
LINE
  5
153
100
AcDbEntity
  8
レイヤー_2
 62
     7
100
AcDbLine
 10
-2.394341
 20
-41.034618
 30
0.0
 11
-2.394341
 21
-36.475379
 31
0.0
  0
LINE
  5
152
100
AcDbEntity
  8
レイヤー_2
 62
     7
100
AcDbLine
 10
-2.394341
 20
-35.548648
 30
0.0
 11
-2.394341
 21
-34.621918
 31
0.0
  0
LINE
  5
151
100
AcDbEntity
  8
レイヤー_2
 62
     7
100
AcDbLine
 10
-2.394341
 20
-33.771668
 30
0.0
 11
-2.394341
 21
-29.213118
 31
0.0
  0
LINE
  5
150
100
AcDbEntity
  8
レイヤー_2
 62
     7
100
AcDbLine
 10
-2.394341
 20
-28.285698
 30
0.0
 11
-2.394341
 21
-27.358278
 31
0.0
  0
LINE
  5
14F
100
AcDbEntity
  8
レイヤー_2
 62
     7
100
AcDbLine
 10
-2.394341
 20
-26.430859
 30
0.0
 11
-2.394341
 21
-21.872997
 31
0.0
  0
LINE
  5
14E
100
AcDbEntity
  8
レイヤー_2
 62
     7
100
AcDbLine
 10
-2.394341
 20
-20.945578
 30
0.0
 11
-2.394341
 21
-20.018158
 31
0.0
  0
LINE
  5
14D
100
AcDbEntity
  8
レイヤー_2
 62
     7
100
AcDbLine
 10
-2.394341
 20
-19.167908
 30
0.0
 11
-2.394341
 21
-14.610047
 31
0.0
  0
LINE
  5
14C
100
AcDbEntity
  8
レイヤー_2
 62
     7
100
AcDbLine
 10
-2.394341
 20
-13.682627
 30
0.0
 11
-2.394341
 21
-12.755208
 31
0.0
  0
LINE
  5
14B
100
AcDbEntity
  8
レイヤー_2
 62
     7
100
AcDbLine
 10
-2.394341
 20
-11.828477
 30
0.0
 11
-2.394341
 21
-7.26941
 31
0.0
  0
LINE
  5
14A
100
AcDbEntity
  8
レイヤー_2
 62
     7
100
AcDbLine
 10
-2.394341
 20
-6.342335
 30
0.0
 11
-2.394341
 21
-5.415948
 31
0.0
  0
LINE
  5
149
100
AcDbEntity
  8
レイヤー_2
 62
     7
100
AcDbLine
 10
-2.394341
 20
-4.566043
 30
0.0
 11
-2.394341
 21
-0.006804
 31
0.0
  0
LINE
  5
148
100
AcDbEntity
  8
レイヤー_2
 62
     7
100
AcDbLine
 10
-2.394341
 20
0.920271
 30
0.0
 11
-2.394341
 21
1.847346
 31
0.0
  0
LINE
  5
147
100
AcDbEntity
  8
レイヤー_2
 62
     7
100
AcDbLine
 10
-2.394341
 20
2.774766
 30
0.0
 11
-2.394341
 21
7.332972
 31
0.0
  0
LINE
  5
146
100
AcDbEntity
  8
レイヤー_2
 62
     7
100
AcDbLine
 10
-2.394341
 20
8.260392
 30
0.0
 11
-2.394341
 21
9.187467
 31
0.0
  0
LINE
  5
145
100
AcDbEntity
  8
レイヤー_2
 62
     7
100
AcDbLine
 10
-2.394341
 20
10.037027
 30
0.0
 11
-2.394341
 21
14.595578
 31
0.0
  0
LINE
  5
144
100
AcDbEntity
  8
レイヤー_2
 62
     7
100
AcDbLine
 10
-2.394341
 20
15.522653
 30
0.0
 11
-2.394341
 21
16.450762
 31
0.0
  0
LINE
  5
143
100
AcDbEntity
  8
レイヤー_2
 62
     7
100
AcDbLine
 10
-2.394341
 20
17.377837
 30
0.0
 11
-2.394341
 21
21.936387
 31
0.0
  0
LINE
  5
142
100
AcDbEntity
  8
レイヤー_2
 62
     7
100
AcDbLine
 10
-2.394341
 20
22.863462
 30
0.0
 11
-2.394341
 21
23.789848
 31
0.0
  0
LINE
  5
141
100
AcDbEntity
  8
レイヤー_2
 62
     7
100
AcDbLine
 10
-2.394341
 20
24.639581
 30
0.0
 11
-2.394341
 21
29.198821
 31
0.0
  0
LINE
  5
140
100
AcDbEntity
  8
レイヤー_2
 62
     7
100
AcDbLine
 10
-2.394341
 20
30.126068
 30
0.0
 11
-2.394341
 21
31.053316
 31
0.0
  0
LINE
  5
13F
100
AcDbEntity
  8
レイヤー_2
 62
     7
100
AcDbLine
 10
-2.394341
 20
31.980391
 30
0.0
 11
-2.394341
 21
36.538941
 31
0.0
  0
LINE
  5
13E
100
AcDbEntity
  8
レイヤー_2
 62
     7
100
AcDbLine
 10
-2.394341
 20
37.466016
 30
0.0
 11
-2.394341
 21
38.315749
 31
0.0
  0
LINE
  5
13D
100
AcDbEntity
  8
レイヤー_2
 62
     7
100
AcDbLine
 10
-2.394341
 20
39.243858
 30
0.0
 11
-2.394341
 21
39.784738
 31
0.0
  0
LINE
  5
13C
100
AcDbEntity
  8
レイヤー_2
 62
     7
100
AcDbLine
 10
-2.394341
 20
39.784738
 30
0.0
 11
-2.394341
 21
38.934144
 31
0.0
  0
LINE
  5
13B
100
AcDbEntity
  8
レイヤー_2
 62
     7
100
AcDbLine
 10
-52.618149
 20
-62.05039
 30
0.0
 11
-52.618149
 21
-57.491151
 31
0.0
  0
LINE
  5
13A
100
AcDbEntity
  8
レイヤー_2
 62
     7
100
AcDbLine
 10
-52.618149
 20
-56.64159
 30
0.0
 11
-52.618149
 21
-55.71417
 31
0.0
  0
LINE
  5
139
100
AcDbEntity
  8
レイヤー_2
 62
     7
100
AcDbLine
 10
-52.618149
 20
-54.786751
 30
0.0
 11
-52.618149
 21
-50.228889
 31
0.0
  0
LINE
  5
138
100
AcDbEntity
  8
レイヤー_2
 62
     7
100
AcDbLine
 10
-52.618149
 20
-49.30147
 30
0.0
 11
-52.618149
 21
-48.373361
 31
0.0
  0
LINE
  5
137
100
AcDbEntity
  8
レイヤー_2
 62
     7
100
AcDbLine
 10
-52.618149
 20
-47.44663
 30
0.0
 11
-52.618149
 21
-42.888769
 31
0.0
  0
LINE
  5
136
100
AcDbEntity
  8
レイヤー_2
 62
     7
100
AcDbLine
 10
-52.618149
 20
-42.03783
 30
0.0
 11
-52.618149
 21
-41.1111
 31
0.0
  0
LINE
  5
135
100
AcDbEntity
  8
レイヤー_2
 62
     7
100
AcDbLine
 10
-52.618149
 20
-40.184369
 30
0.0
 11
-52.618149
 21
-35.62513
 31
0.0
  0
LINE
  5
134
100
AcDbEntity
  8
レイヤー_2
 62
     7
100
AcDbLine
 10
-52.618149
 20
-34.699088
 30
0.0
 11
-52.618149
 21
-33.771668
 31
0.0
  0
LINE
  5
133
100
AcDbEntity
  8
レイヤー_2
 62
     7
100
AcDbLine
 10
-52.618149
 20
-32.844937
 30
0.0
 11
-52.618149
 21
-28.285698
 31
0.0
  0
LINE
  5
132
100
AcDbEntity
  8
レイヤー_2
 62
     7
100
AcDbLine
 10
-52.618149
 20
-27.435449
 30
0.0
 11
-52.618149
 21
-26.508718
 31
0.0
  0
LINE
  5
131
100
AcDbEntity
  8
レイヤー_2
 62
     7
100
AcDbLine
 10
-52.618149
 20
-25.581298
 30
0.0
 11
-52.618149
 21
-21.022748
 31
0.0
  0
LINE
  5
130
100
AcDbEntity
  8
レイヤー_2
 62
     7
100
AcDbLine
 10
-52.618149
 20
-20.095328
 30
0.0
 11
-52.618149
 21
-19.167908
 31
0.0
  0
LINE
  5
12F
100
AcDbEntity
  8
レイヤー_2
 62
     7
100
AcDbLine
 10
-52.618149
 20
-18.240489
 30
0.0
 11
-52.618149
 21
-13.682627
 31
0.0
  0
LINE
  5
12E
100
AcDbEntity
  8
レイヤー_2
 62
     7
100
AcDbLine
 10
-52.618149
 20
-12.833067
 30
0.0
 11
-52.618149
 21
-11.904958
 31
0.0
  0
LINE
  5
12D
100
AcDbEntity
  8
レイヤー_2
 62
     7
100
AcDbLine
 10
-52.618149
 20
-10.978916
 30
0.0
 11
-52.618149
 21
-6.419505
 31
0.0
  0
LINE
  5
12C
100
AcDbEntity
  8
レイヤー_2
 62
     7
100
AcDbLine
 10
-52.618149
 20
-5.49243
 30
0.0
 11
-52.618149
 21
-4.566043
 31
0.0
  0
LINE
  5
12B
100
AcDbEntity
  8
レイヤー_2
 62
     7
100
AcDbLine
 10
-52.618149
 20
-3.716483
 30
0.0
 11
-52.618149
 21
0.920271
 31
0.0
  0
LINE
  5
12A
100
AcDbEntity
  8
レイヤー_2
 62
     7
100
AcDbLine
 10
-52.618149
 20
1.770004
 30
0.0
 11
-52.618149
 21
2.697079
 31
0.0
  0
LINE
  5
129
100
AcDbEntity
  8
レイヤー_2
 62
     7
100
AcDbLine
 10
-52.618149
 20
3.624671
 30
0.0
 11
-52.618149
 21
8.182705
 31
0.0
  0
LINE
  5
128
100
AcDbEntity
  8
レイヤー_2
 62
     7
100
AcDbLine
 10
-52.618149
 20
9.109952
 30
0.0
 11
-52.618149
 21
10.037027
 31
0.0
  0
LINE
  5
127
100
AcDbEntity
  8
レイヤー_2
 62
     7
100
AcDbLine
 10
-52.618149
 20
10.887794
 30
0.0
 11
-52.618149
 21
15.522653
 31
0.0
  0
LINE
  5
126
100
AcDbEntity
  8
レイヤー_2
 62
     7
100
AcDbLine
 10
-52.618149
 20
16.372558
 30
0.0
 11
-52.618149
 21
17.300494
 31
0.0
  0
LINE
  5
125
100
AcDbEntity
  8
レイヤー_2
 62
     7
100
AcDbLine
 10
-52.618149
 20
18.227742
 30
0.0
 11
-52.618149
 21
22.78612
 31
0.0
  0
LINE
  5
124
100
AcDbEntity
  8
レイヤー_2
 62
     7
100
AcDbLine
 10
-52.618149
 20
23.713367
 30
0.0
 11
-52.618149
 21
24.639581
 31
0.0
  0
LINE
  5
123
100
AcDbEntity
  8
レイヤー_2
 62
     7
100
AcDbLine
 10
-52.618149
 20
25.489314
 30
0.0
 11
-52.618149
 21
30.126068
 31
0.0
  0
LINE
  5
122
100
AcDbEntity
  8
レイヤー_2
 62
     7
100
AcDbLine
 10
-52.618149
 20
30.975801
 30
0.0
 11
-52.618149
 21
31.903048
 31
0.0
  0
LINE
  5
121
100
AcDbEntity
  8
レイヤー_2
 62
     7
100
AcDbLine
 10
-52.618149
 20
32.830124
 30
0.0
 11
-52.618149
 21
37.388674
 31
0.0
  0
LINE
  5
120
100
AcDbEntity
  8
レイヤー_2
 62
     7
100
AcDbLine
 10
-52.618149
 20
38.315749
 30
0.0
 11
-52.618149
 21
39.243858
 31
0.0
  0
LINE
  5
11F
100
AcDbEntity
  8
レイヤー_2
 62
     7
100
AcDbLine
 10
-52.618149
 20
40.093591
 30
0.0
 11
-52.618149
 21
44.651107
 31
0.0
  0
LINE
  5
11E
100
AcDbEntity
  8
レイヤー_2
 62
     7
100
AcDbLine
 10
-52.618149
 20
45.579216
 30
0.0
 11
-52.618149
 21
46.506291
 31
0.0
  0
LINE
  5
11D
100
AcDbEntity
  8
レイヤー_2
 62
     7
100
AcDbLine
 10
-52.618149
 20
47.433367
 30
0.0
 11
-52.618149
 21
51.991917
 31
0.0
  0
LINE
  5
11C
100
AcDbEntity
  8
レイヤー_2
 62
     7
100
AcDbLine
 10
-52.618149
 20
52.918992
 30
0.0
 11
-52.618149
 21
53.845378
 31
0.0
  0
LINE
  5
11B
100
AcDbEntity
  8
レイヤー_2
 62
     7
100
AcDbLine
 10
-52.618149
 20
54.696834
 30
0.0
 11
-52.618149
 21
59.255212
 31
0.0
  0
LINE
  5
11A
100
AcDbEntity
  8
レイヤー_2
 62
     7
100
AcDbLine
 10
-52.618149
 20
60.182459
 30
0.0
 11
-52.618149
 21
61.108845
 31
0.0
  0
LINE
  5
119
100
AcDbEntity
  8
レイヤー_2
 62
     7
100
AcDbLine
 10
-52.618149
 20
61.804582
 30
0.0
 11
-52.618149
 21
60.877335
 31
0.0
  0
LINE
  5
118
100
AcDbEntity
  8
レイヤー_2
 62
     7
100
AcDbLine
 10
51.070785
 20
49.828914
 30
0.0
 11
50.915755
 21
54.386431
 31
0.0
  0
LINE
  5
117
100
AcDbEntity
  8
レイヤー_2
 62
     7
100
AcDbLine
 10
50.838241
 20
55.314539
 30
0.0
 11
50.838241
 21
56.164272
 31
0.0
  0
LINE
  5
116
100
AcDbEntity
  8
レイヤー_2
 62
     7
100
AcDbLine
 10
50.838241
 20
56.241614
 30
0.0
 11
50.838241
 21
55.314539
 31
0.0
  0
LINE
  5
115
100
AcDbEntity
  8
レイヤー_2
 62
     7
100
AcDbLine
 10
-73.479236
 20
-15.691118
 30
0.0
 11
-73.479236
 21
-53.783539
 31
0.0
  0
LINE
  5
114
100
AcDbEntity
  8
レイヤー_2
 62
     7
100
AcDbLine
 10
-64.749019
 20
-16.773567
 30
0.0
 11
-74.561168
 21
-16.773567
 31
0.0
  0
LINE
  5
113
100
AcDbEntity
  8
レイヤー_2
 62
     7
100
AcDbLine
 10
-72.629159
 20
-26.894569
 30
0.0
 11
-74.252488
 21
-25.272618
 31
0.0
  0
LINE
  5
112
100
AcDbEntity
  8
レイヤー_2
 62
     7
100
AcDbLine
 10
-72.629159
 20
-17.468098
 30
0.0
 11
-74.252488
 21
-15.846147
 31
0.0
  0
LINE
  5
111
100
AcDbEntity
  8
レイヤー_2
 62
     7
100
AcDbLine
 10
9.270063
 20
-16.773567
 30
0.0
 11
78.730767
 21
-16.773567
 31
0.0
  0
LINE
  5
110
100
AcDbEntity
  8
レイヤー_2
 62
     7
100
AcDbLine
 10
65.672822
 20
50.987327
 30
0.0
 11
54.77943
 21
50.987327
 31
0.0
  0
LINE
  5
10F
100
AcDbEntity
  8
レイヤー_2
 62
     7
100
AcDbLine
 10
64.823261
 20
52.223255
 30
0.0
 11
64.823261
 21
-17.700298
 31
0.0
  0
LINE
  5
10E
100
AcDbEntity
  8
レイヤー_2
 62
     7
100
AcDbLine
 10
51.070785
 20
60.954677
 30
0.0
 11
51.070785
 21
74.167308
 31
0.0
  0
LINE
  5
10D
100
AcDbEntity
  8
レイヤー_2
 62
     7
100
AcDbLine
 10
-2.394341
 20
52.995645
 30
0.0
 11
-2.394341
 21
74.089104
 31
0.0
  0
LINE
  5
10C
100
AcDbEntity
  8
レイヤー_2
 62
     7
100
AcDbLine
 10
-3.244935
 20
73.239371
 30
0.0
 11
51.99786
 21
73.239371
 31
0.0
  0
LINE
  5
10B
100
AcDbEntity
  8
レイヤー_2
 62
     7
100
AcDbLine
 10
-52.618149
 20
63.58139
 30
0.0
 11
-52.618149
 21
74.320442
 31
0.0
  0
LINE
  5
10A
100
AcDbEntity
  8
レイヤー_2
 62
     7
100
AcDbLine
 10
-33.456356
 20
26.88096
 30
0.0
 11
-33.456356
 21
74.089104
 31
0.0
  0
LINE
  5
109
100
AcDbEntity
  8
レイヤー_2
 62
     7
100
AcDbLine
 10
-32.529625
 20
73.239371
 30
0.0
 11
-53.390884
 21
73.239371
 31
0.0
  0
LINE
  5
108
100
AcDbEntity
  8
レイヤー_2
 62
     7
100
AcDbLine
 10
78.421742
 20
60.25894
 30
0.0
 11
55.78402
 21
60.25894
 31
0.0
  0
LINE
  5
107
100
AcDbEntity
  8
レイヤー_2
 62
     7
100
AcDbLine
 10
78.344572
 20
59.409207
 30
0.0
 11
76.721587
 21
61.032192
 31
0.0
  0
LINE
  5
106
100
AcDbEntity
  8
レイヤー_2
 62
     7
100
AcDbLine
 10
-53.390884
 20
72.466808
 30
0.0
 11
-51.845414
 21
74.01245
 31
0.0
  0
LINE
  5
105
100
AcDbEntity
  8
レイヤー_2
 62
     7
100
AcDbLine
 10
-34.229607
 20
72.466808
 30
0.0
 11
-32.683965
 21
74.01245
 31
0.0
  0
LINE
  5
104
100
AcDbEntity
  8
レイヤー_2
 62
     7
100
AcDbLine
 10
-1.62264
 20
74.01245
 30
0.0
 11
-3.168454
 21
72.466808
 31
0.0
  0
LINE
  5
103
100
AcDbEntity
  8
レイヤー_2
 62
     7
100
AcDbLine
 10
51.920345
 20
73.93528
 30
0.0
 11
50.298394
 21
72.389466
 31
0.0
  0
LINE
  5
102
100
AcDbEntity
  8
レイヤー_2
 62
     7
100
AcDbLine
 10
65.441656
 20
50.292451
 30
0.0
 11
63.818671
 21
51.914402
 31
0.0
  0
LINE
  5
101
100
AcDbEntity
  8
レイヤー_2
 62
     7
100
AcDbLine
 10
65.596341
 20
-17.623128
 30
0.0
 11
63.973356
 21
-16.001177
 31
0.0
  0
LINE
  5
100
100
AcDbEntity
  8
レイヤー_2
 62
     7
100
AcDbLine
 10
77.572182
 20
61.186188
 30
0.0
 11
77.572182
 21
-17.776779
 31
0.0
  0
LINE
  5
FF
100
AcDbEntity
  8
レイヤー_2
 62
     7
100
AcDbLine
 10
78.344572
 20
-17.623128
 30
0.0
 11
76.721587
 21
-16.001177
 31
0.0
  0
LINE
  5
FE
100
AcDbEntity
  8
レイヤー_2
 62
     7
100
AcDbLine
 10
-58.33563
 20
15.059115
 30
0.0
 11
-58.33563
 21
32.675267
 31
0.0
  0
LINE
  5
FD
100
AcDbEntity
  8
レイヤー_2
 62
     7
100
AcDbLine
 10
-46.823326
 20
14.904258
 30
0.0
 11
-46.823326
 21
32.752781
 31
0.0
  0
LINE
  5
FC
100
AcDbEntity
  8
レイヤー_2
 62
     7
100
AcDbLine
 10
-73.866292
 20
31.825534
 30
0.0
 11
-46.050936
 21
31.825534
 31
0.0
  0
LINE
  5
FB
100
AcDbEntity
  8
レイヤー_2
 62
     7
100
AcDbLine
 10
-57.40821
 20
32.598785
 30
0.0
 11
-58.954024
 21
31.053316
 31
0.0
  0
LINE
  5
FA
100
AcDbEntity
  8
レイヤー_2
 62
     7
100
AcDbLine
 10
-46.127934
 20
32.521443
 30
0.0
 11
-47.673059
 21
30.975801
 31
0.0
  0
LINE
  5
F9
100
AcDbEntity
  8
レイヤー_2
 62
     7
100
AcDbLine
 10
-74.329485
 20
-25.967149
 30
0.0
 11
-58.954024
 21
-25.967149
 31
0.0
  0
LINE
  5
F8
100
AcDbEntity
  8
レイヤー_2
 62
     7
100
AcDbLine
 10
-63.8216
 20
-16.773567
 30
0.0
 11
-41.337701
 21
-16.773567
 31
0.0
  0
LINE
  5
F7
100
AcDbEntity
  8
レイヤー_2
 62
     7
100
AcDbLine
 10
-12.744269
 20
-16.773567
 30
0.0
 11
8.420847
 21
-16.773567
 31
0.0
  0
MTEXT
  5
F6
100
AcDbEntity
  8
レイヤー_2
 62
     7
100
AcDbMText
 10
-46.430585
 20
78.015192
 30
0.0
 40
3.674768
 41
0.0
 71
     1
 72
     2
  1
\fGothicBBB Medium|b0|i0|c128;\H3.6748;\C7;\U+0038\U+0034
  7
STD
210
0.0
220
0.0
230
1.0
 73
     1
 44
1.0
  0
MTEXT
  5
F5
100
AcDbEntity
  8
レイヤー_2
 62
     7
100
AcDbMText
 10
18.43884
 20
78.498883
 30
0.0
 40
3.674768
 41
0.0
 71
     1
 72
     2
  1
\fGothicBBB Medium|b0|i0|c128;\H3.6748;\C7;\U+0032\U+0033\U+0035
  7
STD
210
0.0
220
0.0
230
1.0
 73
     1
 44
1.0
  0
MTEXT
  5
F4
100
AcDbEntity
  8
レイヤー_2
 62
     7
100
AcDbMText
 10
-73.956037
 20
36.646658
 30
0.0
 40
3.674768
 41
0.0
 71
     1
 72
     2
  1
\fGothicBBB Medium|b0|i0|c128;\H3.6748;\C7;\U+03C6\U+0035\U+0030
  7
STD
210
0.0
220
0.0
230
1.0
 73
     1
 44
1.0
  0
MTEXT
  5
F3
100
AcDbEntity
  8
レイヤー_2
 62
     7
100
AcDbMText
 10
59.835222
 20
12.046379
 30
0.0
 40
3.674768
 41
0.0
 71
     1
 72
     2
  1
\fGothicBBB Medium|b0|i0|c128;\H3.6748;\C7;\U+0032\U+0039\U+0037
  7
STD
210
0.0
220
0.0
230
1.0
 11
0.0
 21
1.0
 31
0.0
 73
     1
 44
1.0
  0
MTEXT
  5
F2
100
AcDbEntity
  8
レイヤー_2
 62
     7
100
AcDbMText
 10
72.648566
 20
16.231654
 30
0.0
 40
3.674768
 41
0.0
 71
     1
 72
     2
  1
\fGothicBBB Medium|b0|i0|c128;\H3.6748;\C7;\U+0033\U+0033\U+0037
  7
STD
210
0.0
220
0.0
230
1.0
 11
0.0
 21
1.0
 31
0.0
 73
     1
 44
1.0
  0
MTEXT
  5
F1
100
AcDbEntity
  8
レイヤー_2
 62
     7
100
AcDbMText
 10
-78.339289
 20
-52.984277
 30
0.0
 40
3.674768
 41
0.0
 71
     1
 72
     2
  1
\fGothicBBB Medium|b0|i0|c128;\H3.6748;\C7;\U+006D\U+0061\U+0078\U+002E\U+0034\U+0030
  7
STD
210
0.0
220
0.0
230
1.0
 11
0.0
 21
1.0
 31
0.0
 73
     1
 44
1.0
  0
INSERT
  5
C6
100
AcDbEntity
  8
レイヤー_2
  6
AI9-LType1
 62
     7
100
AcDbBlockReference
  2
AI9-BLK4
 10
5.254546
 20
-60.183148
 30
0.0
  0
MTEXT
  5
C4
100
AcDbEntity
  8
レイヤー_2
  6
AI9-LType1
 62
     7
100
AcDbMText
 10
-74.094358
 20
-74.718466
 30
0.0
 40
3.674768
 41
0.0
 71
     1
 72
     2
  1
\fGothicBBB Medium|b0|i0|c128;\H3.6748;\C7;\U+0047\U+0031\U+002F\U+0032
  7
STD
210
0.0
220
0.0
230
1.0
 73
     1
 44
1.0
  0
MTEXT
  5
C3
100
AcDbEntity
  8
レイヤー_2
  6
AI9-LType1
 62
     7
100
AcDbMText
 10
-42.867151
 20
-74.718466
 30
0.0
 40
3.674768
 41
0.0
 71
     1
 72
     2
  1
\fGothicBBB Medium|b0|i0|c128;\H3.6748;\C7;\U+0047\U+0031\U+002F\U+0032
  7
STD
210
0.0
220
0.0
230
1.0
 73
     1
 44
1.0
  0
INSERT
  5
7A
100
AcDbEntity
  8
レイヤー_2
  6
AI9-LType1
 62
     7
100
AcDbBlockReference
  2
AI9-BLK3
 10
-43.084881
 20
-42.137738
 30
0.0
  0
LINE
  5
78
100
AcDbEntity
  8
レイヤー_2
  6
AI9-LType1
 62
     7
100
AcDbLine
 10
-54.197898
 20
-61.211854
 30
0.0
 11
-54.197898
 21
-14.908392
 31
0.0
  0
SPLINE
  5
77
100
AcDbEntity
  8
レイヤー_2
 62
     7
100
AcDbSpline
210
0.0
220
0.0
230
1.0
 70
     8
 71
     3
 72
    95
 73
    91
 74
     0
 42
0.00000001
 43
0.00000001
 40
0.0
 40
0.0
 40
0.0
 40
0.0
 40
1.0
 40
1.0
 40
1.0
 40
2.0
 40
2.0
 40
2.0
 40
3.0
 40
3.0
 40
3.0
 40
4.0
 40
4.0
 40
4.0
 40
5.0
 40
5.0
 40
5.0
 40
6.0
 40
6.0
 40
6.0
 40
7.0
 40
7.0
 40
7.0
 40
8.0
 40
8.0
 40
8.0
 40
9.0
 40
9.0
 40
9.0
 40
10.0
 40
10.0
 40
10.0
 40
11.0
 40
11.0
 40
11.0
 40
12.0
 40
12.0
 40
12.0
 40
13.0
 40
13.0
 40
13.0
 40
14.0
 40
14.0
 40
14.0
 40
15.0
 40
15.0
 40
15.0
 40
16.0
 40
16.0
 40
16.0
 40
17.0
 40
17.0
 40
17.0
 40
18.0
 40
18.0
 40
18.0
 40
19.0
 40
19.0
 40
19.0
 40
20.0
 40
20.0
 40
20.0
 40
21.0
 40
21.0
 40
21.0
 40
22.0
 40
22.0
 40
22.0
 40
23.0
 40
23.0
 40
23.0
 40
24.0
 40
24.0
 40
24.0
 40
25.0
 40
25.0
 40
25.0
 40
26.0
 40
26.0
 40
26.0
 40
27.0
 40
27.0
 40
27.0
 40
28.0
 40
28.0
 40
28.0
 40
29.0
 40
29.0
 40
29.0
 40
30.0
 40
30.0
 40
30.0
 40
30.0
 10
-67.199171278211793
 20
-57.568320719401036
 30
0.0
 10
-67.187974717881943
 20
-57.572454833984366
 30
0.0
 10
-67.176950412326377
 20
-57.574521891276035
 30
0.0
 10
-67.165237087673603
 20
-57.577277967664926
 30
0.0
 10
-67.154557291666663
 20
-57.580723063151034
 30
0.0
 10
-67.142671712239576
 20
-57.583479139539925
 30
0.0
 10
-67.131302897135413
 20
-57.586235215928816
 30
0.0
 10
-67.12045084635416
 20
-57.588302273220478
 30
0.0
 10
-67.108909776475684
 20
-57.590369330512146
 30
0.0
 10
-67.097885470920133
 20
-57.592436387803815
 30
0.0
 10
-67.086172146267359
 20
-57.594503445095484
 30
0.0
 10
-67.074803331163181
 20
-57.597259521484368
 30
0.0
 10
-67.063606770833331
 20
-57.597259521484368
 30
0.0
 10
-67.051893446180543
 20
-57.598637559678814
 30
0.0
 10
-67.04052463107638
 20
-57.598637559678814
 30
0.0
 10
-67.029155815972217
 20
-57.598637559678814
 30
0.0
 10
-67.002628580729166
 20
-57.597948540581591
 30
0.0
 10
-66.976445855034711
 20
-57.594503445095484
 30
0.0
 10
-66.951468912760404
 20
-57.587613254123262
 30
0.0
 10
-66.925630696614576
 20
-57.581412082248256
 30
0.0
 10
-66.899964735243046
 20
-57.575210910373258
 30
0.0
 10
-66.874298773871516
 20
-57.568320719401036
 30
0.0
 10
-66.848805067274299
 20
-57.560052490234369
 30
0.0
 10
-66.82348361545138
 20
-57.553162299262148
 30
0.0
 10
-66.79781765407985
 20
-57.546961127387149
 30
0.0
 10
-66.773012966579856
 20
-57.540070936414928
 30
0.0
 10
-66.747691514756937
 20
-57.533869764539922
 30
0.0
 10
-66.723059082031241
 20
-57.531113688151038
 30
0.0
 10
-66.69946017795138
 20
-57.529046630859369
 30
0.0
 10
-66.675516764322907
 20
-57.529735649956592
 30
0.0
 10
-66.651745605468747
 20
-57.533869764539922
 30
0.0
 10
-66.616433376736111
 20
-57.541448974609366
 30
0.0
 10
-66.583015950520831
 20
-57.557296413845478
 30
0.0
 10
-66.554249403211799
 20
-57.578656005859372
 30
0.0
 10
-66.521693250868054
 20
-57.602771674262151
 30
0.0
 10
-66.490859646267353
 20
-57.627576361762145
 30
0.0
 10
-66.462954372829856
 20
-57.656515163845484
 30
0.0
 10
-66.432809787326377
 20
-57.686142985026038
 30
0.0
 10
-66.403354220920136
 20
-57.715081787109369
 30
0.0
 10
-66.372865125868046
 20
-57.743331570095478
 30
0.0
 10
-66.345648871527771
 20
-57.770203314887148
 30
0.0
 10
-66.314643012152771
 20
-57.795697021484372
 30
0.0
 10
-66.282431369357639
 20
-57.817056613498259
 30
0.0
 10
-66.253320312499994
 20
-57.836349148220478
 30
0.0
 10
-66.22128092447916
 20
-57.849440511067705
 30
0.0
 10
-66.186313205295136
 20
-57.854263644748258
 30
0.0
 10
-66.152895779079856
 20
-57.858397759331595
 30
0.0
 10
-66.118961588541666
 20
-57.852885606553812
 30
0.0
 10
-66.087611219618054
 20
-57.839105224609369
 30
0.0
 10
-66.054193793402774
 20
-57.823946804470481
 30
0.0
 10
-66.018881564670139
 20
-57.807410346137146
 30
0.0
 10
-65.985119628906247
 20
-57.792940945095481
 30
0.0
 10
-65.948946126302076
 20
-57.776404486762146
 30
0.0
 10
-65.913289388020829
 20
-57.758489990234366
 30
0.0
 10
-65.88021647135416
 20
-57.736441379123256
 30
0.0
 10
-65.847143554687491
 20
-57.717148844401038
 30
0.0
 10
-65.81286485460069
 20
-57.703368462456595
 30
0.0
 10
-65.777552625868054
 20
-57.691655137803814
 30
0.0
 10
-65.746374511718741
 20
-57.679941813151039
 30
0.0
 10
-65.712440321180551
 20
-57.676496717664925
 30
0.0
 10
-65.679367404513883
 20
-57.679941813151039
 30
0.0
 10
-65.655768500434021
 20
-57.684764946831592
 30
0.0
 10
-65.633203124999994
 20
-57.692344156901036
 30
0.0
 10
-65.61132676866319
 20
-57.705435519748256
 30
0.0
 10
-65.589278157552073
 20
-57.717148844401038
 30
0.0
 10
-65.56722954644097
 20
-57.732996283637149
 30
0.0
 10
-65.547075737847223
 20
-57.748843722873261
 30
0.0
 10
-65.524854871961793
 20
-57.766069200303811
 30
0.0
 10
-65.503150770399301
 20
-57.783983696831591
 30
0.0
 10
-65.482307942708331
 20
-57.802587212456594
 30
0.0
 10
-65.460087076822916
 20
-57.821190728081589
 30
0.0
 10
-65.43838297526041
 20
-57.837727186414924
 30
0.0
 10
-65.414956325954861
 20
-57.855641682942704
 30
0.0
 10
-65.393252224392356
 20
-57.870800103081592
 30
0.0
 10
-65.369308810763883
 20
-57.884580485026035
 30
0.0
 10
-65.343987358940964
 20
-57.896293809678816
 30
0.0
 10
-65.333135308159711
 20
-57.901116943359369
 30
0.0
 10
-65.322283257378473
 20
-57.903873019748261
 30
0.0
 10
-65.31143120659722
 20
-57.905940077039922
 30
0.0
 10
-65.300062391493043
 20
-57.909385172526036
 30
0.0
 10
-65.289210340711804
 20
-57.912141248914928
 30
0.0
 10
-65.27801378038194
 20
-57.914208306206589
 30
0.0
 10
-65.266300455729166
 20
-57.916275363498258
 30
0.0
 10
-65.254414876302079
 20
-57.918342420789926
 30
0.0
 10
-65.243562825520826
 20
-57.919031439887149
 30
0.0
 10
-65.232194010416663
 20
-57.921098497178811
 30
0.0
 10
-65.219963921440964
 20
-57.922476535373256
 30
0.0
 10
-65.2087673611111
 20
-57.923165554470479
 30
0.0
 10
-65.196709526909714
 20
-57.923854573567702
 30
0.0
 10
-65.184307183159717
 20
-57.925921630859371
 30
0.0
 10
-65.173971896701389
 20
-57.925921630859371
 30
0.0
  0
LINE
  5
76
100
AcDbEntity
  8
レイヤー_2
 62
     7
100
AcDbLine
 10
-64.373332
 20
-63.810834
 30
0.0
 11
-64.479785
 21
-63.810834
 31
0.0
  0
LINE
  5
75
100
AcDbEntity
  8
レイヤー_2
 62
     7
100
AcDbLine
 10
-64.479785
 20
-62.837939
 30
0.0
 11
-64.479785
 21
-63.810834
 31
0.0
  0
LINE
  5
74
100
AcDbEntity
  8
レイヤー_2
 62
     7
100
AcDbLine
 10
-64.479785
 20
-63.810834
 30
0.0
 11
-64.373332
 21
-63.995491
 31
0.0
  0
LINE
  5
73
100
AcDbEntity
  8
レイヤー_2
 62
     7
100
AcDbLine
 10
-67.892497
 20
-63.810834
 30
0.0
 11
-67.999467
 21
-63.810834
 31
0.0
  0
LINE
  5
72
100
AcDbEntity
  8
レイヤー_2
 62
     7
100
AcDbLine
 10
-67.892497
 20
-63.810834
 30
0.0
 11
-67.892497
 21
-62.837939
 31
0.0
  0
LINE
  5
71
100
AcDbEntity
  8
レイヤー_2
 62
     7
100
AcDbLine
 10
-67.999467
 20
-63.995491
 30
0.0
 11
-67.892497
 21
-63.810834
 31
0.0
  0
LINE
  5
70
100
AcDbEntity
  8
レイヤー_2
  6
AI9-LType1
 62
     7
100
AcDbLine
 10
-66.186313
 20
-50.622319
 30
0.0
 11
-66.186313
 21
-69.744666
 31
0.0
  0
LINE
  5
6F
100
AcDbEntity
  8
レイヤー_2
 62
     7
100
AcDbLine
 10
-67.186597
 20
-62.738031
 30
0.0
 11
-67.625846
 21
-62.738031
 31
0.0
  0
LINE
  5
6E
100
AcDbEntity
  8
レイヤー_2
 62
     7
100
AcDbLine
 10
-67.186597
 20
-60.498719
 30
0.0
 11
-67.186597
 21
-62.738031
 31
0.0
  0
LINE
  5
6D
100
AcDbEntity
  8
レイヤー_2
 62
     7
100
AcDbLine
 10
-67.625846
 20
-60.498719
 30
0.0
 11
-67.186597
 21
-60.498719
 31
0.0
  0
LINE
  5
6C
100
AcDbEntity
  8
レイヤー_2
 62
     7
100
AcDbLine
 10
-67.625846
 20
-60.498719
 30
0.0
 11
-67.625846
 21
-62.738031
 31
0.0
  0
LINE
  5
6B
100
AcDbEntity
  8
レイヤー_2
 62
     7
100
AcDbLine
 10
-67.785871
 20
-59.021462
 30
0.0
 11
-66.186313
 21
-59.021462
 31
0.0
  0
LINE
  5
6A
100
AcDbEntity
  8
レイヤー_2
 62
     7
100
AcDbLine
 10
-68.425625
 20
-62.859987
 30
0.0
 11
-66.186313
 21
-62.859987
 31
0.0
  0
LINE
  5
69
100
AcDbEntity
  8
レイヤー_2
 62
     7
100
AcDbLine
 10
-68.638532
 20
-62.738031
 30
0.0
 11
-68.425625
 21
-62.859987
 31
0.0
  0
LINE
  5
68
100
AcDbEntity
  8
レイヤー_2
 62
     7
100
AcDbLine
 10
-67.785871
 20
-59.021462
 30
0.0
 11
-68.522949
 21
-60.298214
 31
0.0
  0
LINE
  5
67
100
AcDbEntity
  8
レイヤー_2
 62
     7
100
AcDbLine
 10
-68.638532
 20
-60.498719
 30
0.0
 11
-68.638532
 21
-62.738031
 31
0.0
  0
LINE
  5
66
100
AcDbEntity
  8
レイヤー_2
 62
     7
100
AcDbLine
 10
-65.109204
 20
-59.021462
 30
0.0
 11
-66.186313
 21
-59.021462
 31
0.0
  0
LINE
  5
65
100
AcDbEntity
  8
レイヤー_2
 62
     7
100
AcDbLine
 10
-64.320277
 20
-62.859987
 30
0.0
 11
-66.186313
 21
-62.859987
 31
0.0
  0
LINE
  5
64
100
AcDbEntity
  8
レイヤー_2
 62
     7
100
AcDbLine
 10
-64.746952
 20
-62.738031
 30
0.0
 11
-65.18603
 21
-62.738031
 31
0.0
  0
LINE
  5
63
100
AcDbEntity
  8
レイヤー_2
 62
     7
100
AcDbLine
 10
-65.18603
 20
-62.738031
 30
0.0
 11
-65.18603
 21
-60.498719
 31
0.0
  0
LINE
  5
62
100
AcDbEntity
  8
レイヤー_2
 62
     7
100
AcDbLine
 10
-65.18603
 20
-60.498719
 30
0.0
 11
-64.746952
 21
-60.498719
 31
0.0
  0
LINE
  5
61
100
AcDbEntity
  8
レイヤー_2
 62
     7
100
AcDbLine
 10
-64.746952
 20
-62.738031
 30
0.0
 11
-64.746952
 21
-60.498719
 31
0.0
  0
LINE
  5
60
100
AcDbEntity
  8
レイヤー_2
 62
     7
100
AcDbLine
 10
-66.186313
 20
-59.021462
 30
0.0
 11
-64.586928
 21
-59.021462
 31
0.0
  0
LINE
  5
5F
100
AcDbEntity
  8
レイヤー_2
 62
     7
100
AcDbLine
 10
-66.186313
 20
-62.859987
 30
0.0
 11
-63.947518
 21
-62.859987
 31
0.0
  0
LINE
  5
5E
100
AcDbEntity
  8
レイヤー_2
 62
     7
100
AcDbLine
 10
-63.947518
 20
-62.859987
 30
0.0
 11
-63.734094
 21
-62.738031
 31
0.0
  0
LINE
  5
5D
100
AcDbEntity
  8
レイヤー_2
 62
     7
100
AcDbLine
 10
-63.734094
 20
-60.498719
 30
0.0
 11
-64.586928
 21
-59.021462
 31
0.0
  0
LINE
  5
5C
100
AcDbEntity
  8
レイヤー_2
 62
     7
100
AcDbLine
 10
-63.734094
 20
-62.738031
 30
0.0
 11
-63.734094
 21
-60.498719
 31
0.0
  0
LINE
  5
5B
100
AcDbEntity
  8
レイヤー_2
 62
     7
100
AcDbLine
 10
-68.522949
 20
-60.298214
 30
0.0
 11
-68.638532
 21
-60.498719
 31
0.0
  0
SPLINE
  5
5A
100
AcDbEntity
  8
レイヤー_2
 62
     7
100
AcDbSpline
210
0.0
220
0.0
230
1.0
 70
     8
 71
     3
 72
     8
 73
     4
 74
     0
 42
0.00000001
 43
0.00000001
 40
0.0
 40
0.0
 40
0.0
 40
0.0
 40
1.0
 40
1.0
 40
1.0
 40
1.0
 10
-67.186596679687497
 20
-62.738031005859369
 30
0.0
 10
-66.860001627604163
 20
-62.819335259331595
 30
0.0
 10
-66.523415798611111
 20
-62.859987386067701
 30
0.0
 10
-66.186313205295136
 20
-62.859987386067701
 30
0.0
  0
SPLINE
  5
59
100
AcDbEntity
  8
レイヤー_2
 62
     7
100
AcDbSpline
210
0.0
220
0.0
230
1.0
 70
     8
 71
     3
 72
     8
 73
     4
 74
     0
 42
0.00000001
 43
0.00000001
 40
0.0
 40
0.0
 40
0.0
 40
0.0
 40
1.0
 40
1.0
 40
1.0
 40
1.0
 10
-68.638532172309027
 20
-62.738031005859369
 30
0.0
 10
-68.321066623263889
 20
-62.901328531901036
 30
0.0
 10
-67.943311903211793
 20
-62.901328531901036
 30
0.0
 10
-67.625846354166654
 20
-62.738031005859369
 30
0.0
  0
SPLINE
  5
58
100
AcDbEntity
  8
レイヤー_2
 62
     7
100
AcDbSpline
210
0.0
220
0.0
230
1.0
 70
     8
 71
     3
 72
     8
 73
     4
 74
     0
 42
0.00000001
 43
0.00000001
 40
0.0
 40
0.0
 40
0.0
 40
0.0
 40
1.0
 40
1.0
 40
1.0
 40
1.0
 10
-66.186313205295136
 20
-60.130093722873255
 30
0.0
 10
-66.553043619791666
 20
-60.130093722873255
 30
0.0
 10
-66.907371690538184
 20
-60.260318332248261
 30
0.0
 10
-67.186596679687497
 20
-60.498718939887148
 30
0.0
  0
SPLINE
  5
57
100
AcDbEntity
  8
レイヤー_2
 62
     7
100
AcDbSpline
210
0.0
220
0.0
230
1.0
 70
     8
 71
     3
 72
    11
 73
     7
 74
     0
 42
0.00000001
 43
0.00000001
 40
0.0
 40
0.0
 40
0.0
 40
0.0
 40
1.0
 40
1.0
 40
1.0
 40
2.0
 40
2.0
 40
2.0
 40
2.0
 10
-67.625846354166654
 20
-60.498718939887148
 30
0.0
 10
-67.713351779513886
 20
-60.218977186414925
 30
0.0
 10
-68.010319010416666
 20
-60.063947889539925
 30
0.0
 10
-68.290233018663187
 20
-60.150764295789926
 30
0.0
 10
-68.379460991753461
 20
-60.179014078776035
 30
0.0
 10
-68.459387207031241
 20
-60.229312472873261
 30
0.0
 10
-68.52294921875
 20
-60.298214382595482
 30
0.0
  0
SPLINE
  5
56
100
AcDbEntity
  8
レイヤー_2
 62
     7
100
AcDbSpline
210
0.0
220
0.0
230
1.0
 70
     8
 71
     3
 72
     8
 73
     4
 74
     0
 42
0.00000001
 43
0.00000001
 40
0.0
 40
0.0
 40
0.0
 40
0.0
 40
1.0
 40
1.0
 40
1.0
 40
1.0
 10
-66.186313205295136
 20
-62.859987386067701
 30
0.0
 10
-65.849382866753473
 20
-62.859987386067701
 30
0.0
 10
-65.513141547309019
 20
-62.819335259331595
 30
0.0
 10
-65.186029730902774
 20
-62.738031005859369
 30
0.0
  0
SPLINE
  5
55
100
AcDbEntity
  8
レイヤー_2
 62
     7
100
AcDbSpline
210
0.0
220
0.0
230
1.0
 70
     8
 71
     3
 72
     8
 73
     4
 74
     0
 42
0.00000001
 43
0.00000001
 40
0.0
 40
0.0
 40
0.0
 40
0.0
 40
1.0
 40
1.0
 40
1.0
 40
1.0
 10
-64.746952311197916
 20
-62.738031005859369
 30
0.0
 10
-64.429486762152777
 20
-62.901328531901036
 30
0.0
 10
-64.051904296874994
 20
-62.901328531901036
 30
0.0
 10
-63.734094238281244
 20
-62.738031005859369
 30
0.0
  0
SPLINE
  5
54
100
AcDbEntity
  8
レイヤー_2
 62
     7
100
AcDbSpline
210
0.0
220
0.0
230
1.0
 70
     8
 71
     3
 72
     8
 73
     4
 74
     0
 42
0.00000001
 43
0.00000001
 40
0.0
 40
0.0
 40
0.0
 40
0.0
 40
1.0
 40
1.0
 40
1.0
 40
1.0
 10
-65.186029730902774
 20
-60.498718939887148
 30
0.0
 10
-65.464910210503461
 20
-60.260318332248261
 30
0.0
 10
-65.819927300347217
 20
-60.130093722873255
 30
0.0
 10
-66.186313205295136
 20
-60.130093722873255
 30
0.0
  0
SPLINE
  5
53
100
AcDbEntity
  8
レイヤー_2
 62
     7
100
AcDbSpline
210
0.0
220
0.0
230
1.0
 70
     8
 71
     3
 72
    11
 73
     7
 74
     0
 42
0.00000001
 43
0.00000001
 40
0.0
 40
0.0
 40
0.0
 40
0.0
 40
1.0
 40
1.0
 40
1.0
 40
2.0
 40
2.0
 40
2.0
 40
2.0
 10
-63.734094238281244
 20
-60.498718939887148
 30
0.0
 10
-63.820910644531246
 20
-60.218977186414925
 30
0.0
 10
-64.119255913628464
 20
-60.063947889539925
 30
0.0
 10
-64.398480902777777
 20
-60.150764295789926
 30
0.0
 10
-64.564706759982627
 20
-60.203129747178814
 30
0.0
 10
-64.695275878906244
 20
-60.332665337456589
 30
0.0
 10
-64.746952311197916
 20
-60.498718939887148
 30
0.0
  0
LINE
  5
52
100
AcDbEntity
  8
レイヤー_2
 62
     7
100
AcDbLine
 10
-68.719147
 20
-68.912331
 30
0.0
 11
-68.959271
 21
-68.784174
 31
0.0
  0
LINE
  5
51
100
AcDbEntity
  8
レイヤー_2
 62
     7
100
AcDbLine
 10
-63.414045
 20
-68.784174
 30
0.0
 11
-63.653996
 21
-68.912331
 31
0.0
  0
LINE
  5
50
100
AcDbEntity
  8
レイヤー_2
 62
     7
100
AcDbLine
 10
-68.959271
 20
-64.519145
 30
0.0
 11
-68.719147
 21
-64.390299
 31
0.0
  0
LINE
  5
4F
100
AcDbEntity
  8
レイヤー_2
 62
     7
100
AcDbLine
 10
-63.653996
 20
-64.390299
 30
0.0
 11
-63.414045
 21
-64.519145
 31
0.0
  0
LINE
  5
4E
100
AcDbEntity
  8
レイヤー_2
 62
     7
100
AcDbLine
 10
-68.638532
 20
-69.103189
 30
0.0
 11
-63.734094
 21
-69.103189
 31
0.0
  0
LINE
  5
4D
100
AcDbEntity
  8
レイヤー_2
 62
     7
100
AcDbLine
 10
-67.869415
 20
-68.784174
 30
0.0
 11
-67.252743
 21
-68.784174
 31
0.0
  0
LINE
  5
4C
100
AcDbEntity
  8
レイヤー_2
 62
     7
100
AcDbLine
 10
-65.120228
 20
-68.784174
 30
0.0
 11
-64.503384
 21
-68.784174
 31
0.0
  0
LINE
  5
4B
100
AcDbEntity
  8
レイヤー_2
 62
     7
100
AcDbLine
 10
-63.414045
 20
-68.784174
 30
0.0
 11
-63.734094
 21
-69.103189
 31
0.0
  0
LINE
  5
4A
100
AcDbEntity
  8
レイヤー_2
 62
     7
100
AcDbLine
 10
-68.959271
 20
-68.784174
 30
0.0
 11
-68.638532
 21
-69.103189
 31
0.0
  0
LINE
  5
49
100
AcDbEntity
  8
レイヤー_2
 62
     7
100
AcDbLine
 10
-63.734094
 20
-64.198751
 30
0.0
 11
-68.638532
 21
-64.198751
 31
0.0
  0
LINE
  5
48
100
AcDbEntity
  8
レイヤー_2
 62
     7
100
AcDbLine
 10
-63.734094
 20
-64.198751
 30
0.0
 11
-63.414045
 21
-64.519145
 31
0.0
  0
LINE
  5
47
100
AcDbEntity
  8
レイヤー_2
 62
     7
100
AcDbLine
 10
-64.825156
 20
-64.519145
 30
0.0
 11
-65.441828
 21
-64.519145
 31
0.0
  0
LINE
  5
46
100
AcDbEntity
  8
レイヤー_2
 62
     7
100
AcDbLine
 10
-67.575031
 20
-64.519145
 30
0.0
 11
-68.192048
 21
-64.519145
 31
0.0
  0
LINE
  5
45
100
AcDbEntity
  8
レイヤー_2
 62
     7
100
AcDbLine
 10
-68.638532
 20
-64.198751
 30
0.0
 11
-68.959271
 21
-64.519145
 31
0.0
  0
LINE
  5
44
100
AcDbEntity
  8
レイヤー_2
 62
     7
100
AcDbLine
 10
-68.959271
 20
-68.784174
 30
0.0
 11
-68.959271
 21
-64.519145
 31
0.0
  0
LINE
  5
43
100
AcDbEntity
  8
レイヤー_2
 62
     7
100
AcDbLine
 10
-67.869415
 20
-68.784174
 30
0.0
 11
-67.869415
 21
-64.519145
 31
0.0
  0
LINE
  5
42
100
AcDbEntity
  8
レイヤー_2
 62
     7
100
AcDbLine
 10
-67.252743
 20
-68.784174
 30
0.0
 11
-67.252743
 21
-64.519145
 31
0.0
  0
LINE
  5
41
100
AcDbEntity
  8
レイヤー_2
 62
     7
100
AcDbLine
 10
-65.120228
 20
-68.784174
 30
0.0
 11
-65.120228
 21
-64.519145
 31
0.0
  0
LINE
  5
40
100
AcDbEntity
  8
レイヤー_2
 62
     7
100
AcDbLine
 10
-64.503384
 20
-68.784174
 30
0.0
 11
-64.503384
 21
-64.519145
 31
0.0
  0
LINE
  5
3F
100
AcDbEntity
  8
レイヤー_2
 62
     7
100
AcDbLine
 10
-63.414045
 20
-68.784174
 30
0.0
 11
-63.414045
 21
-64.519145
 31
0.0
  0
SPLINE
  5
3E
100
AcDbEntity
  8
レイヤー_2
 62
     7
100
AcDbSpline
210
0.0
220
0.0
230
1.0
 70
     8
 71
     3
 72
     8
 73
     4
 74
     0
 42
0.00000001
 43
0.00000001
 40
0.0
 40
0.0
 40
0.0
 40
0.0
 40
1.0
 40
1.0
 40
1.0
 40
1.0
 10
-68.719147406684016
 20
-68.912331136067706
 30
0.0
 10
-68.439061143663181
 20
-69.062537299262146
 30
0.0
 10
-68.093001302083323
 20
-69.010171847873252
 30
0.0
 10
-67.86941460503472
 20
-68.784173583984369
 30
0.0
  0
SPLINE
  5
3D
100
AcDbEntity
  8
レイヤー_2
 62
     7
100
AcDbSpline
210
0.0
220
0.0
230
1.0
 70
     8
 71
     3
 72
     8
 73
     4
 74
     0
 42
0.00000001
 43
0.00000001
 40
0.0
 40
0.0
 40
0.0
 40
0.0
 40
1.0
 40
1.0
 40
1.0
 40
1.0
 10
-64.50338406032985
 20
-68.784173583984369
 30
0.0
 10
-64.279969618055546
 20
-69.010171847873252
 30
0.0
 10
-63.934254286024299
 20
-69.062537299262146
 30
0.0
 10
-63.653995768229159
 20
-68.912331136067706
 30
0.0
  0
SPLINE
  5
3C
100
AcDbEntity
  8
レイヤー_2
 62
     7
100
AcDbSpline
210
0.0
220
0.0
230
1.0
 70
     8
 71
     3
 72
     8
 73
     4
 74
     0
 42
0.00000001
 43
0.00000001
 40
0.0
 40
0.0
 40
0.0
 40
0.0
 40
1.0
 40
1.0
 40
1.0
 40
1.0
 10
-67.252742513020834
 20
-68.784173583984369
 30
0.0
 10
-66.569924587673611
 20
-69.068738471137152
 30
0.0
 10
-65.802357313368049
 20
-69.068738471137152
 30
0.0
 10
-65.120228407118049
 20
-68.784173583984369
 30
0.0
  0
SPLINE
  5
3B
100
AcDbEntity
  8
レイヤー_2
 62
     7
100
AcDbSpline
210
0.0
220
0.0
230
1.0
 70
     8
 71
     3
 72
     8
 73
     4
 74
     0
 42
0.00000001
 43
0.00000001
 40
0.0
 40
0.0
 40
0.0
 40
0.0
 40
1.0
 40
1.0
 40
1.0
 40
1.0
 10
-67.86941460503472
 20
-64.519145372178812
 30
0.0
 10
-68.093001302083323
 20
-64.292458089192706
 30
0.0
 10
-68.439061143663181
 20
-64.240092637803812
 30
0.0
 10
-68.719147406684016
 20
-64.390298800998252
 30
0.0
  0
SPLINE
  5
3A
100
AcDbEntity
  8
レイヤー_2
 62
     7
100
AcDbSpline
210
0.0
220
0.0
230
1.0
 70
     8
 71
     3
 72
     8
 73
     4
 74
     0
 42
0.00000001
 43
0.00000001
 40
0.0
 40
0.0
 40
0.0
 40
0.0
 40
1.0
 40
1.0
 40
1.0
 40
1.0
 10
-63.653995768229159
 20
-64.390298800998252
 30
0.0
 10
-63.934254286024299
 20
-64.240092637803812
 30
0.0
 10
-64.279969618055546
 20
-64.292458089192706
 30
0.0
 10
-64.50338406032985
 20
-64.519145372178812
 30
0.0
  0
SPLINE
  5
39
100
AcDbEntity
  8
レイヤー_2
 62
     7
100
AcDbSpline
210
0.0
220
0.0
230
1.0
 70
     8
 71
     3
 72
     8
 73
     4
 74
     0
 42
0.00000001
 43
0.00000001
 40
0.0
 40
0.0
 40
0.0
 40
0.0
 40
1.0
 40
1.0
 40
1.0
 40
1.0
 10
-65.120228407118049
 20
-64.519145372178812
 30
0.0
 10
-65.802357313368049
 20
-64.234580485026029
 30
0.0
 10
-66.569924587673611
 20
-64.234580485026029
 30
0.0
 10
-67.252742513020834
 20
-64.519145372178812
 30
0.0
  0
LINE
  5
38
100
AcDbEntity
  8
レイヤー_2
 62
     7
100
AcDbLine
 10
-67.199171
 20
-59.021462
 30
0.0
 11
-67.199171
 21
-57.56212
 31
0.0
  0
LINE
  5
37
100
AcDbEntity
  8
レイヤー_2
 62
     7
100
AcDbLine
 10
-65.173972
 20
-59.021462
 30
0.0
 11
-65.173972
 21
-57.925922
 31
0.0
  0
LINE
  5
36
100
AcDbEntity
  8
レイヤー_2
 62
     7
100
AcDbLine
 10
-64.373332
 20
-63.995491
 30
0.0
 11
-64.373332
 21
-62.859987
 31
0.0
  0
LINE
  5
35
100
AcDbEntity
  8
レイヤー_2
 62
     7
100
AcDbLine
 10
-67.999467
 20
-62.859987
 30
0.0
 11
-67.999467
 21
-63.995491
 31
0.0
  0
LINE
  5
34
100
AcDbEntity
  8
レイヤー_2
 62
     7
100
AcDbLine
 10
-67.892497
 20
-63.810834
 30
0.0
 11
-64.479785
 21
-63.810834
 31
0.0
  0
LINE
  5
33
100
AcDbEntity
  8
レイヤー_2
  6
AI9-LType1
 62
     7
100
AcDbLine
 10
-54.203754
 20
-61.193939
 30
0.0
 11
-66.305514
 21
-50.543771
 31
0.0
  0
INSERT
  5
2D
100
AcDbEntity
  8
レイヤー_2
 62
     7
100
AcDbBlockReference
  2
AI9-BLK2
 10
-52.048416
 20
-69.530381
 30
0.0
  0
ENDBLK
  5
379
100
AcDbEntity
  8
レイヤー_2
100
AcDbBlockEnd
  0
BLOCK
  5
2E
100
AcDbEntity
  8
レイヤー_2
 62
     7
100
AcDbBlockBegin
  2
AI9-BLK2
 70
     0
 10
0.0
 20
0.0
 30
0.0
  3
AI9-BLK2
  1

  0
MTEXT
  5
30
100
AcDbEntity
  8
レイヤー_2
 62
     7
100
AcDbMText
 10
-10.587381
 20
3.714518
 30
0.0
 40
2.624835
 41
0.0
 71
     1
 72
     2
  1
\fGothicBBB Medium|b0|i0|c128;\H2.6248;\C7;\U+63A5\U+7D9A\U+30BD\U+30B1\U+30C3\U+30C8
  7
STD
210
0.0
220
0.0
230
1.0
 73
     1
 44
1.0
  0
MTEXT
  5
2F
100
AcDbEntity
  8
レイヤー_2
 62
     7
100
AcDbMText
 10
-10.579285
 20
-1.01422
 30
0.0
 40
2.624835
 41
0.0
 71
     1
 72
     2
  1
\fGothicBBB Medium|b0|i0|c128;\H2.6248;\C7;\U+FF08\U+9006\U+6B62\U+5F01\U+4ED8\U+FF09
  7
STD
210
0.0
220
0.0
230
1.0
 73
     1
 44
1.0
  0
ENDBLK
  5
31
100
AcDbEntity
  8
レイヤー_2
100
AcDbBlockEnd
  0
BLOCK
  5
7B
100
AcDbEntity
  8
レイヤー_2
  6
AI9-LType1
 62
     7
100
AcDbBlockBegin
  2
AI9-BLK3
 70
     0
 10
0.0
 20
0.0
 30
0.0
  3
AI9-BLK3
  1

  0
LINE
  5
C1
100
AcDbEntity
  8
レイヤー_2
  6
AI9-LType1
 62
     7
100
AcDbLine
 10
-7.893747
 20
-18.968007
 30
0.0
 11
-7.893747
 21
27.391265
 31
0.0
  0
LINE
  5
C0
100
AcDbEntity
  8
レイヤー_2
  6
AI9-LType1
 62
     7
100
AcDbLine
 10
-7.780576
 20
-18.893593
 30
0.0
 11
5.067563
 21
-8.163498
 31
0.0
  0
SPLINE
  5
BF
100
AcDbEntity
  8
レイヤー_2
 62
     7
100
AcDbSpline
210
0.0
220
0.0
230
1.0
 70
     8
 71
     3
 72
    95
 73
    91
 74
     0
 42
0.00000001
 43
0.00000001
 40
0.0
 40
0.0
 40
0.0
 40
0.0
 40
1.0
 40
1.0
 40
1.0
 40
2.0
 40
2.0
 40
2.0
 40
3.0
 40
3.0
 40
3.0
 40
4.0
 40
4.0
 40
4.0
 40
5.0
 40
5.0
 40
5.0
 40
6.0
 40
6.0
 40
6.0
 40
7.0
 40
7.0
 40
7.0
 40
8.0
 40
8.0
 40
8.0
 40
9.0
 40
9.0
 40
9.0
 40
10.0
 40
10.0
 40
10.0
 40
11.0
 40
11.0
 40
11.0
 40
12.0
 40
12.0
 40
12.0
 40
13.0
 40
13.0
 40
13.0
 40
14.0
 40
14.0
 40
14.0
 40
15.0
 40
15.0
 40
15.0
 40
16.0
 40
16.0
 40
16.0
 40
17.0
 40
17.0
 40
17.0
 40
18.0
 40
18.0
 40
18.0
 40
19.0
 40
19.0
 40
19.0
 40
20.0
 40
20.0
 40
20.0
 40
21.0
 40
21.0
 40
21.0
 40
22.0
 40
22.0
 40
22.0
 40
23.0
 40
23.0
 40
23.0
 40
24.0
 40
24.0
 40
24.0
 40
25.0
 40
25.0
 40
25.0
 40
26.0
 40
26.0
 40
26.0
 40
27.0
 40
27.0
 40
27.0
 40
28.0
 40
28.0
 40
28.0
 40
29.0
 40
29.0
 40
29.0
 40
30.0
 40
30.0
 40
30.0
 40
30.0
 10
4.1082763671875
 20
-15.216297743055554
 30
0.0
 10
4.119300672743055
 20
-15.219742838541665
 30
0.0
 10
4.1306694878472214
 20
-15.221809895833331
 30
0.0
 10
4.1420383029513888
 20
-15.225254991319444
 30
0.0
 10
4.1534071180555552
 20
-15.228011067708332
 30
0.0
 10
4.1646036783854159
 20
-15.230767144097221
 30
0.0
 10
4.1759724934895832
 20
-15.233523220486109
 30
0.0
 10
4.1873413085937496
 20
-15.23696831597222
 30
0.0
 10
4.1987101236979161
 20
-15.239035373263887
 30
0.0
 10
4.2102511935763882
 20
-15.240413411458333
 30
0.0
 10
4.2212754991319441
 20
-15.24316948784722
 30
0.0
 10
4.2326443142361105
 20
-15.243858506944443
 30
0.0
 10
4.2443576388888884
 20
-15.245236545138887
 30
0.0
 10
4.2560709635416663
 20
-15.246614583333331
 30
0.0
 10
4.267267523871527
 20
-15.246614583333331
 30
0.0
 10
4.2793253580729163
 20
-15.246614583333331
 30
0.0
 10
4.3051635742187493
 20
-15.245236545138887
 30
0.0
 10
4.3304850260416661
 20
-15.24316948784722
 30
0.0
 10
4.3554619683159714
 20
-15.23696831597222
 30
0.0
 10
4.3819892035590273
 20
-15.230078124999999
 30
0.0
 10
4.4078274197048604
 20
-15.222498914930554
 30
0.0
 10
4.4329766167534714
 20
-15.21491970486111
 30
0.0
 10
4.4591593424479159
 20
-15.207340494791666
 30
0.0
 10
4.4853420681423604
 20
-15.200450303819443
 30
0.0
 10
4.5103190104166666
 20
-15.193560112847221
 30
0.0
 10
4.5342624240451386
 20
-15.187358940972221
 30
0.0
 10
4.5595838758680554
 20
-15.183224826388887
 30
0.0
 10
4.5847330729166664
 20
-15.178401692708333
 30
0.0
 10
4.6081597222222221
 20
-15.176334635416666
 30
0.0
 10
4.6321031358506941
 20
-15.177023654513887
 30
0.0
 10
4.6557020399305555
 20
-15.181846788194443
 30
0.0
 10
4.6910142686631939
 20
-15.189425998263888
 30
0.0
 10
4.7244316948784721
 20
-15.204584418402776
 30
0.0
 10
4.7530259874131939
 20
-15.225254991319444
 30
0.0
 10
4.7862711588541664
 20
-15.250059678819444
 30
0.0
 10
4.8164157443576388
 20
-15.275553385416666
 30
0.0
 10
4.8451822916666663
 20
-15.303803168402776
 30
0.0
 10
4.8748101128472214
 20
-15.333430989583333
 30
0.0
 10
4.9044379340277775
 20
-15.362369791666666
 30
0.0
 10
4.9340657552083327
 20
-15.391308593749999
 30
0.0
 10
4.9631768120659716
 20
-15.418180338541665
 30
0.0
 10
4.992632378472222
 20
-15.442985026041665
 30
0.0
 10
5.0257052951388888
 20
-15.465033637152777
 30
0.0
 10
5.0536105685763886
 20
-15.484326171874999
 30
0.0
 10
5.0872002495659716
 20
-15.496728515624998
 30
0.0
 10
5.1209621853298604
 20
-15.501551649305554
 30
0.0
 10
5.1552408854166663
 20
-15.504307725694442
 30
0.0
 10
5.1893473307291664
 20
-15.500862630208331
 30
0.0
 10
5.2196641710069436
 20
-15.48777126736111
 30
0.0
 10
5.2544596354166666
 20
-15.471923828124998
 30
0.0
 10
5.2880493164062496
 20
-15.45676540798611
 30
0.0
 10
5.3231892903645832
 20
-15.440228949652777
 30
0.0
 10
5.3590182834201388
 20
-15.42300347222222
 30
0.0
 10
5.3939860026041666
 20
-15.405088975694444
 30
0.0
 10
5.4280924479166659
 20
-15.383729383680555
 30
0.0
 10
5.4606486002604164
 20
-15.365814887152776
 30
0.0
 10
5.4950995551215271
 20
-15.350656467013888
 30
0.0
 10
5.530756293402777
 20
-15.33894314236111
 30
0.0
 10
5.5619344075520827
 20
-15.327918836805555
 30
0.0
 10
5.5955240885416657
 20
-15.325162760416665
 30
0.0
 10
5.6275634765624991
 20
-15.327918836805555
 30
0.0
 10
5.6518513997395825
 20
-15.331363932291666
 30
0.0
 10
5.6749335394965277
 20
-15.339632161458331
 30
0.0
 10
5.6959486219618052
 20
-15.351345486111109
 30
0.0
 10
5.7185139973958332
 20
-15.364436848958333
 30
0.0
 10
5.7402180989583327
 20
-15.380284288194444
 30
0.0
 10
5.7615776909722216
 20
-15.396131727430554
 30
0.0
 10
5.7824205186631943
 20
-15.414735243055555
 30
0.0
 10
5.8044691297743052
 20
-15.432649739583331
 30
0.0
 10
5.8258287217881941
 20
-15.449875217013888
 30
0.0
 10
5.847188313802083
 20
-15.46916775173611
 30
0.0
 10
5.8692369249131939
 20
-15.486393229166666
 30
0.0
 10
5.8924913194444439
 20
-15.502240668402777
 30
0.0
 10
5.9145399305555548
 20
-15.519466145833333
 30
0.0
 10
5.9384833441840277
 20
-15.531868489583331
 30
0.0
 10
5.9638047960069436
 20
-15.542892795138888
 30
0.0
 10
5.9741400824652775
 20
-15.548404947916666
 30
0.0
 10
5.9851643880208325
 20
-15.551850043402776
 30
0.0
 10
5.9965332031249998
 20
-15.554606119791666
 30
0.0
 10
6.0075575086805548
 20
-15.556673177083331
 30
0.0
 10
6.0194430881076384
 20
-15.559429253472221
 30
0.0
 10
6.0299506293402771
 20
-15.56218532986111
 30
0.0
 10
6.041663953993055
 20
-15.564252387152777
 30
0.0
 10
6.0528605143229157
 20
-15.566319444444442
 30
0.0
 10
6.064229329427083
 20
-15.567697482638888
 30
0.0
 10
6.0764594184027771
 20
-15.569075520833332
 30
0.0
 10
6.0876559787326388
 20
-15.569764539930555
 30
0.0
 10
6.0990247938368052
 20
-15.570453559027776
 30
0.0
 10
6.1109103732638888
 20
-15.572520616319443
 30
0.0
 10
6.1224514431423609
 20
-15.572520616319443
 30
0.0
 10
6.1341647677951388
 20
-15.573209635416665
 30
0.0
  0
LINE
  5
BE
100
AcDbEntity
  8
レイヤー_2
 62
     7
100
AcDbLine
 10
6.933599
 20
-21.458122
 30
0.0
 11
6.827835
 21
-21.458122
 31
0.0
  0
LINE
  5
BD
100
AcDbEntity
  8
レイヤー_2
 62
     7
100
AcDbLine
 10
6.827835
 20
-20.483849
 30
0.0
 11
6.827835
 21
-21.458122
 31
0.0
  0
LINE
  5
BC
100
AcDbEntity
  8
レイヤー_2
 62
     7
100
AcDbLine
 10
6.827835
 20
-21.458122
 30
0.0
 11
6.933599
 21
-21.642779
 31
0.0
  0
LINE
  5
BB
100
AcDbEntity
  8
レイヤー_2
 62
     7
100
AcDbLine
 10
3.415295
 20
-21.458122
 30
0.0
 11
3.308497
 21
-21.458122
 31
0.0
  0
LINE
  5
BA
100
AcDbEntity
  8
レイヤー_2
 62
     7
100
AcDbLine
 10
3.415295
 20
-21.458122
 30
0.0
 11
3.415295
 21
-20.483849
 31
0.0
  0
LINE
  5
B9
100
AcDbEntity
  8
レイヤー_2
 62
     7
100
AcDbLine
 10
3.308497
 20
-21.642779
 30
0.0
 11
3.415295
 21
-21.458122
 31
0.0
  0
LINE
  5
B8
100
AcDbEntity
  8
レイヤー_2
  6
AI9-LType1
 62
     7
100
AcDbLine
 10
5.120962
 20
-8.270296
 30
0.0
 11
5.120962
 21
-27.391265
 31
0.0
  0
LINE
  5
B7
100
AcDbEntity
  8
レイヤー_2
 62
     7
100
AcDbLine
 10
4.120851
 20
-20.383941
 30
0.0
 11
3.68229
 21
-20.383941
 31
0.0
  0
LINE
  5
B6
100
AcDbEntity
  8
レイヤー_2
 62
     7
100
AcDbLine
 10
4.120851
 20
-18.147385
 30
0.0
 11
4.120851
 21
-20.383941
 31
0.0
  0
LINE
  5
B5
100
AcDbEntity
  8
レイヤー_2
 62
     7
100
AcDbLine
 10
3.68229
 20
-18.147385
 30
0.0
 11
4.120851
 21
-18.147385
 31
0.0
  0
LINE
  5
B4
100
AcDbEntity
  8
レイヤー_2
 62
     7
100
AcDbLine
 10
3.68229
 20
-18.147385
 30
0.0
 11
3.68229
 21
-20.383941
 31
0.0
  0
LINE
  5
B3
100
AcDbEntity
  8
レイヤー_2
 62
     7
100
AcDbLine
 10
3.521921
 20
-16.669439
 30
0.0
 11
5.120962
 21
-16.669439
 31
0.0
  0
LINE
  5
B2
100
AcDbEntity
  8
レイヤー_2
 62
     7
100
AcDbLine
 10
2.882167
 20
-20.507275
 30
0.0
 11
5.120962
 21
-20.507275
 31
0.0
  0
LINE
  5
B1
100
AcDbEntity
  8
レイヤー_2
 62
     7
100
AcDbLine
 10
2.668743
 20
-20.383941
 30
0.0
 11
2.882167
 21
-20.507275
 31
0.0
  0
LINE
  5
B0
100
AcDbEntity
  8
レイヤー_2
 62
     7
100
AcDbLine
 10
3.521921
 20
-16.669439
 30
0.0
 11
2.78536
 21
-17.944124
 31
0.0
  0
LINE
  5
AF
100
AcDbEntity
  8
レイヤー_2
 62
     7
100
AcDbLine
 10
2.668743
 20
-18.147385
 30
0.0
 11
2.668743
 21
-20.383941
 31
0.0
  0
LINE
  5
AE
100
AcDbEntity
  8
レイヤー_2
 62
     7
100
AcDbLine
 10
6.198071
 20
-16.669439
 30
0.0
 11
5.120962
 21
-16.669439
 31
0.0
  0
LINE
  5
AD
100
AcDbEntity
  8
レイヤー_2
 62
     7
100
AcDbLine
 10
6.987515
 20
-20.507275
 30
0.0
 11
5.120962
 21
-20.507275
 31
0.0
  0
LINE
  5
AC
100
AcDbEntity
  8
レイヤー_2
 62
     7
100
AcDbLine
 10
6.560495
 20
-20.383941
 30
0.0
 11
6.12159
 21
-20.383941
 31
0.0
  0
LINE
  5
AB
100
AcDbEntity
  8
レイヤー_2
 62
     7
100
AcDbLine
 10
6.12159
 20
-20.383941
 30
0.0
 11
6.12159
 21
-18.147385
 31
0.0
  0
LINE
  5
AA
100
AcDbEntity
  8
レイヤー_2
 62
     7
100
AcDbLine
 10
6.12159
 20
-18.147385
 30
0.0
 11
6.560495
 21
-18.147385
 31
0.0
  0
LINE
  5
A9
100
AcDbEntity
  8
レイヤー_2
 62
     7
100
AcDbLine
 10
6.560495
 20
-20.383941
 30
0.0
 11
6.560495
 21
-18.147385
 31
0.0
  0
LINE
  5
A8
100
AcDbEntity
  8
レイヤー_2
 62
     7
100
AcDbLine
 10
5.120962
 20
-16.669439
 30
0.0
 11
6.720865
 21
-16.669439
 31
0.0
  0
LINE
  5
A7
100
AcDbEntity
  8
レイヤー_2
 62
     7
100
AcDbLine
 10
5.120962
 20
-20.507275
 30
0.0
 11
7.360619
 21
-20.507275
 31
0.0
  0
LINE
  5
A6
100
AcDbEntity
  8
レイヤー_2
 62
     7
100
AcDbLine
 10
7.360619
 20
-20.507275
 30
0.0
 11
7.574215
 21
-20.383941
 31
0.0
  0
LINE
  5
A5
100
AcDbEntity
  8
レイヤー_2
 62
     7
100
AcDbLine
 10
7.574215
 20
-18.147385
 30
0.0
 11
6.720865
 21
-16.669439
 31
0.0
  0
LINE
  5
A4
100
AcDbEntity
  8
レイヤー_2
 62
     7
100
AcDbLine
 10
7.574215
 20
-20.383941
 30
0.0
 11
7.574215
 21
-18.147385
 31
0.0
  0
LINE
  5
A3
100
AcDbEntity
  8
レイヤー_2
 62
     7
100
AcDbLine
 10
2.78536
 20
-17.944124
 30
0.0
 11
2.668743
 21
-18.147385
 31
0.0
  0
SPLINE
  5
A2
100
AcDbEntity
  8
レイヤー_2
 62
     7
100
AcDbSpline
210
0.0
220
0.0
230
1.0
 70
     8
 71
     3
 72
     8
 73
     4
 74
     0
 42
0.00000001
 43
0.00000001
 40
0.0
 40
0.0
 40
0.0
 40
0.0
 40
1.0
 40
1.0
 40
1.0
 40
1.0
 10
4.1208509657118055
 20
-20.38394097222222
 30
0.0
 10
4.4481350368923609
 20
-20.465934244791665
 30
0.0
 10
4.7840318467881939
 20
-20.507275390624997
 30
0.0
 10
5.1209621853298604
 20
-20.507275390624997
 30
0.0
  0
SPLINE
  5
A1
100
AcDbEntity
  8
レイヤー_2
 62
     7
100
AcDbSpline
210
0.0
220
0.0
230
1.0
 70
     8
 71
     3
 72
     8
 73
     4
 74
     0
 42
0.00000001
 43
0.00000001
 40
0.0
 40
0.0
 40
0.0
 40
0.0
 40
1.0
 40
1.0
 40
1.0
 40
1.0
 10
2.6687432183159721
 20
-20.38394097222222
 30
0.0
 10
2.9862087673611106
 20
-20.549305555555552
 30
0.0
 10
3.3641357421874996
 20
-20.549305555555552
 30
0.0
 10
3.682290310329861
 20
-20.38394097222222
 30
0.0
  0
SPLINE
  5
A0
100
AcDbEntity
  8
レイヤー_2
 62
     7
100
AcDbSpline
210
0.0
220
0.0
230
1.0
 70
     8
 71
     3
 72
     8
 73
     4
 74
     0
 42
0.00000001
 43
0.00000001
 40
0.0
 40
0.0
 40
0.0
 40
0.0
 40
1.0
 40
1.0
 40
1.0
 40
1.0
 10
5.1209621853298604
 20
-17.776692708333332
 30
0.0
 10
4.754231770833333
 20
-17.776692708333332
 30
0.0
 10
4.3995591905381941
 20
-17.908295355902776
 30
0.0
 10
4.1208509657118055
 20
-18.147384982638886
 30
0.0
  0
SPLINE
  5
9F
100
AcDbEntity
  8
レイヤー_2
 62
     7
100
AcDbSpline
210
0.0
220
0.0
230
1.0
 70
     8
 71
     3
 72
    11
 73
     7
 74
     0
 42
0.00000001
 43
0.00000001
 40
0.0
 40
0.0
 40
0.0
 40
0.0
 40
1.0
 40
1.0
 40
1.0
 40
2.0
 40
2.0
 40
2.0
 40
2.0
 10
3.682290310329861
 20
-18.147384982638886
 30
0.0
 10
3.5951293945312495
 20
-17.866265190972221
 30
0.0
 10
3.2971286349826388
 20
-17.710546874999999
 30
0.0
 10
3.0175591362847221
 20
-17.798052300347219
 30
0.0
 10
2.9278143988715275
 20
-17.826302083333331
 30
0.0
 10
2.8478881835937497
 20
-17.876600477430554
 30
0.0
 10
2.785359700520833
 20
-17.944124348958333
 30
0.0
  0
SPLINE
  5
9E
100
AcDbEntity
  8
レイヤー_2
 62
     7
100
AcDbSpline
210
0.0
220
0.0
230
1.0
 70
     8
 71
     3
 72
     8
 73
     4
 74
     0
 42
0.00000001
 43
0.00000001
 40
0.0
 40
0.0
 40
0.0
 40
0.0
 40
1.0
 40
1.0
 40
1.0
 40
1.0
 10
5.1209621853298604
 20
-20.507275390624997
 30
0.0
 10
5.4587537977430554
 20
-20.507275390624997
 30
0.0
 10
5.7946506076388884
 20
-20.465934244791665
 30
0.0
 10
6.1215901692708332
 20
-20.38394097222222
 30
0.0
  0
SPLINE
  5
9D
100
AcDbEntity
  8
レイヤー_2
 62
     7
100
AcDbSpline
210
0.0
220
0.0
230
1.0
 70
     8
 71
     3
 72
     8
 73
     4
 74
     0
 42
0.00000001
 43
0.00000001
 40
0.0
 40
0.0
 40
0.0
 40
0.0
 40
1.0
 40
1.0
 40
1.0
 40
1.0
 10
6.5604953342013879
 20
-20.38394097222222
 30
0.0
 10
6.8783053927951379
 20
-20.549305555555552
 30
0.0
 10
7.2562323676215268
 20
-20.549305555555552
 30
0.0
 10
7.5742146809895825
 20
-20.38394097222222
 30
0.0
  0
SPLINE
  5
9C
100
AcDbEntity
  8
レイヤー_2
 62
     7
100
AcDbSpline
210
0.0
220
0.0
230
1.0
 70
     8
 71
     3
 72
     8
 73
     4
 74
     0
 42
0.00000001
 43
0.00000001
 40
0.0
 40
0.0
 40
0.0
 40
0.0
 40
1.0
 40
1.0
 40
1.0
 40
1.0
 10
6.1215901692708332
 20
-18.147384982638886
 30
0.0
 10
5.8432264539930552
 20
-17.908295355902776
 30
0.0
 10
5.4885538736979163
 20
-17.776692708333332
 30
0.0
 10
5.1209621853298604
 20
-17.776692708333332
 30
0.0
  0
SPLINE
  5
9B
100
AcDbEntity
  8
レイヤー_2
 62
     7
100
AcDbSpline
210
0.0
220
0.0
230
1.0
 70
     8
 71
     3
 72
    11
 73
     7
 74
     0
 42
0.00000001
 43
0.00000001
 40
0.0
 40
0.0
 40
0.0
 40
0.0
 40
1.0
 40
1.0
 40
1.0
 40
2.0
 40
2.0
 40
2.0
 40
2.0
 10
7.5742146809895825
 20
-18.147384982638886
 30
0.0
 10
7.48670925564236
 20
-17.866265190972221
 30
0.0
 10
7.188880750868055
 20
-17.710546874999999
 30
0.0
 10
6.9084499782986102
 20
-17.798052300347219
 30
0.0
 10
6.7425686306423609
 20
-17.85041775173611
 30
0.0
 10
6.612688530815972
 20
-17.979953342013886
 30
0.0
 10
6.5604953342013879
 20
-18.147384982638886
 30
0.0
  0
LINE
  5
9A
100
AcDbEntity
  8
レイヤー_2
 62
     7
100
AcDbLine
 10
2.588645
 20
-26.559619
 30
0.0
 11
2.349038
 21
-26.431462
 31
0.0
  0
LINE
  5
99
100
AcDbEntity
  8
レイヤー_2
 62
     7
100
AcDbLine
 10
7.893747
 20
-26.431462
 30
0.0
 11
7.654141
 21
-26.559619
 31
0.0
  0
LINE
  5
98
100
AcDbEntity
  8
レイヤー_2
 62
     7
100
AcDbLine
 10
2.349038
 20
-22.165055
 30
0.0
 11
2.588645
 21
-22.038276
 31
0.0
  0
LINE
  5
97
100
AcDbEntity
  8
レイヤー_2
 62
     7
100
AcDbLine
 10
7.654141
 20
-22.038276
 30
0.0
 11
7.893747
 21
-22.165055
 31
0.0
  0
LINE
  5
96
100
AcDbEntity
  8
レイヤー_2
 62
     7
100
AcDbLine
 10
2.668743
 20
-26.751855
 30
0.0
 11
7.574215
 21
-26.751855
 31
0.0
  0
LINE
  5
95
100
AcDbEntity
  8
レイヤー_2
 62
     7
100
AcDbLine
 10
3.437689
 20
-26.431462
 30
0.0
 11
4.054533
 21
-26.431462
 31
0.0
  0
LINE
  5
94
100
AcDbEntity
  8
レイヤー_2
 62
     7
100
AcDbLine
 10
6.187391
 20
-26.431462
 30
0.0
 11
6.804408
 21
-26.431462
 31
0.0
  0
LINE
  5
93
100
AcDbEntity
  8
レイヤー_2
 62
     7
100
AcDbLine
 10
7.893747
 20
-26.431462
 30
0.0
 11
7.574215
 21
-26.751855
 31
0.0
  0
LINE
  5
92
100
AcDbEntity
  8
レイヤー_2
 62
     7
100
AcDbLine
 10
2.349038
 20
-26.431462
 30
0.0
 11
2.668743
 21
-26.751855
 31
0.0
  0
LINE
  5
91
100
AcDbEntity
  8
レイヤー_2
 62
     7
100
AcDbLine
 10
7.574215
 20
-21.846039
 30
0.0
 11
2.668743
 21
-21.846039
 31
0.0
  0
LINE
  5
90
100
AcDbEntity
  8
レイヤー_2
 62
     7
100
AcDbLine
 10
7.574215
 20
-21.846039
 30
0.0
 11
7.893747
 21
-22.165055
 31
0.0
  0
LINE
  5
8F
100
AcDbEntity
  8
レイヤー_2
 62
     7
100
AcDbLine
 10
6.804408
 20
-22.165055
 30
0.0
 11
6.187391
 21
-22.165055
 31
0.0
  0
LINE
  5
8E
100
AcDbEntity
  8
レイヤー_2
 62
     7
100
AcDbLine
 10
4.054533
 20
-22.165055
 30
0.0
 11
3.437689
 21
-22.165055
 31
0.0
  0
LINE
  5
8D
100
AcDbEntity
  8
レイヤー_2
 62
     7
100
AcDbLine
 10
2.668743
 20
-21.846039
 30
0.0
 11
2.349038
 21
-22.165055
 31
0.0
  0
LINE
  5
8C
100
AcDbEntity
  8
レイヤー_2
 62
     7
100
AcDbLine
 10
2.349038
 20
-26.431462
 30
0.0
 11
2.349038
 21
-22.165055
 31
0.0
  0
LINE
  5
8B
100
AcDbEntity
  8
レイヤー_2
 62
     7
100
AcDbLine
 10
3.437689
 20
-26.431462
 30
0.0
 11
3.437689
 21
-22.165055
 31
0.0
  0
LINE
  5
8A
100
AcDbEntity
  8
レイヤー_2
 62
     7
100
AcDbLine
 10
4.054533
 20
-26.431462
 30
0.0
 11
4.054533
 21
-22.165055
 31
0.0
  0
LINE
  5
89
100
AcDbEntity
  8
レイヤー_2
 62
     7
100
AcDbLine
 10
6.187391
 20
-26.431462
 30
0.0
 11
6.187391
 21
-22.165055
 31
0.0
  0
LINE
  5
88
100
AcDbEntity
  8
レイヤー_2
 62
     7
100
AcDbLine
 10
6.804408
 20
-26.431462
 30
0.0
 11
6.804408
 21
-22.165055
 31
0.0
  0
LINE
  5
87
100
AcDbEntity
  8
レイヤー_2
 62
     7
100
AcDbLine
 10
7.893747
 20
-26.431462
 30
0.0
 11
7.893747
 21
-22.165055
 31
0.0
  0
SPLINE
  5
86
100
AcDbEntity
  8
レイヤー_2
 62
     7
100
AcDbSpline
210
0.0
220
0.0
230
1.0
 70
     8
 71
     3
 72
     8
 73
     4
 74
     0
 42
0.00000001
 43
0.00000001
 40
0.0
 40
0.0
 40
0.0
 40
0.0
 40
1.0
 40
1.0
 40
1.0
 40
1.0
 10
2.5886447482638886
 20
-26.559619140624999
 30
0.0
 10
2.8692477756076387
 20
-26.709825303819443
 30
0.0
 10
3.2147908528645832
 20
-26.657459852430552
 30
0.0
 10
3.4376885308159717
 20
-26.431461588541666
 30
0.0
  0
SPLINE
  5
85
100
AcDbEntity
  8
レイヤー_2
 62
     7
100
AcDbSpline
210
0.0
220
0.0
230
1.0
 70
     8
 71
     3
 72
     8
 73
     4
 74
     0
 42
0.00000001
 43
0.00000001
 40
0.0
 40
0.0
 40
0.0
 40
0.0
 40
1.0
 40
1.0
 40
1.0
 40
1.0
 10
6.8044080946180552
 20
-26.431461588541666
 30
0.0
 10
7.0279947916666661
 20
-26.657459852430552
 30
0.0
 10
7.3731933593749996
 20
-26.709825303819443
 30
0.0
 10
7.6541408962673607
 20
-26.559619140624999
 30
0.0
  0
SPLINE
  5
84
100
AcDbEntity
  8
レイヤー_2
 62
     7
100
AcDbSpline
210
0.0
220
0.0
230
1.0
 70
     8
 71
     3
 72
     8
 73
     4
 74
     0
 42
0.00000001
 43
0.00000001
 40
0.0
 40
0.0
 40
0.0
 40
0.0
 40
1.0
 40
1.0
 40
1.0
 40
1.0
 10
4.0545328776041663
 20
-26.431461588541666
 30
0.0
 10
4.7373508029513882
 20
-26.716026475694441
 30
0.0
 10
5.5054348415798602
 20
-26.716026475694441
 30
0.0
 10
6.1873914930555554
 20
-26.431461588541666
 30
0.0
  0
SPLINE
  5
83
100
AcDbEntity
  8
レイヤー_2
 62
     7
100
AcDbSpline
210
0.0
220
0.0
230
1.0
 70
     8
 71
     3
 72
     8
 73
     4
 74
     0
 42
0.00000001
 43
0.00000001
 40
0.0
 40
0.0
 40
0.0
 40
0.0
 40
1.0
 40
1.0
 40
1.0
 40
1.0
 10
3.4376885308159717
 20
-22.165055338541663
 30
0.0
 10
3.2147908528645832
 20
-21.939746093749999
 30
0.0
 10
2.8692477756076387
 20
-21.888069661458331
 30
0.0
 10
2.5886447482638886
 20
-22.038275824652775
 30
0.0
  0
SPLINE
  5
82
100
AcDbEntity
  8
レイヤー_2
 62
     7
100
AcDbSpline
210
0.0
220
0.0
230
1.0
 70
     8
 71
     3
 72
     8
 73
     4
 74
     0
 42
0.00000001
 43
0.00000001
 40
0.0
 40
0.0
 40
0.0
 40
0.0
 40
1.0
 40
1.0
 40
1.0
 40
1.0
 10
7.6541408962673607
 20
-22.038275824652775
 30
0.0
 10
7.3731933593749996
 20
-21.888069661458331
 30
0.0
 10
7.0279947916666661
 20
-21.939746093749999
 30
0.0
 10
6.8044080946180552
 20
-22.165055338541663
 30
0.0
  0
SPLINE
  5
81
100
AcDbEntity
  8
レイヤー_2
 62
     7
100
AcDbSpline
210
0.0
220
0.0
230
1.0
 70
     8
 71
     3
 72
     8
 73
     4
 74
     0
 42
0.00000001
 43
0.00000001
 40
0.0
 40
0.0
 40
0.0
 40
0.0
 40
1.0
 40
1.0
 40
1.0
 40
1.0
 10
6.1873914930555554
 20
-22.165055338541663
 30
0.0
 10
5.5054348415798602
 20
-21.881868489583333
 30
0.0
 10
4.7373508029513882
 20
-21.881868489583333
 30
0.0
 10
4.0545328776041663
 20
-22.165055338541663
 30
0.0
  0
LINE
  5
80
100
AcDbEntity
  8
レイヤー_2
 62
     7
100
AcDbLine
 10
4.108276
 20
-16.669439
 30
0.0
 11
4.108276
 21
-15.210097
 31
0.0
  0
LINE
  5
7F
100
AcDbEntity
  8
レイヤー_2
 62
     7
100
AcDbLine
 10
6.134165
 20
-16.669439
 30
0.0
 11
6.134165
 21
-15.57321
 31
0.0
  0
LINE
  5
7E
100
AcDbEntity
  8
レイヤー_2
 62
     7
100
AcDbLine
 10
6.933599
 20
-21.642779
 30
0.0
 11
6.933599
 21
-20.507275
 31
0.0
  0
LINE
  5
7D
100
AcDbEntity
  8
レイヤー_2
 62
     7
100
AcDbLine
 10
3.308497
 20
-20.507275
 30
0.0
 11
3.308497
 21
-21.642779
 31
0.0
  0
LINE
  5
7C
100
AcDbEntity
  8
レイヤー_2
 62
     7
100
AcDbLine
 10
3.415295
 20
-21.458122
 30
0.0
 11
6.827835
 21
-21.458122
 31
0.0
  0
ENDBLK
  5
C2
100
AcDbEntity
  8
レイヤー_2
100
AcDbBlockEnd
  0
BLOCK
  5
C7
100
AcDbEntity
  8
レイヤー_2
  6
AI9-LType1
 62
     7
100
AcDbBlockBegin
  2
AI9-BLK4
 70
     0
 10
0.0
 20
0.0
 30
0.0
  3
AI9-BLK4
  1

  0
POLYLINE
  5
D5
100
AcDbEntity
  8
レイヤー_2
 62
     7
100
AcDb2dPolyline
 66
     1
 10
0.0
 20
0.0
 30
0.0
  0
VERTEX
  5
D6
100
AcDbEntity
  8
レイヤー_2
 62
     7
100
AcDbVertex
100
AcDb2dVertex
 10
-3.709765
 20
-0.694531
 30
0.0
  0
VERTEX
  5
D7
100
AcDbEntity
  8
レイヤー_2
 62
     7
100
AcDbVertex
100
AcDb2dVertex
 10
-3.788313
 20
0.30937
 30
0.0
  0
VERTEX
  5
D8
100
AcDbEntity
  8
レイヤー_2
 62
     7
100
AcDbVertex
100
AcDb2dVertex
 10
-4.174508
 20
1.314648
 30
0.0
  0
VERTEX
  5
D9
100
AcDbEntity
  8
レイヤー_2
 62
     7
100
AcDbVertex
100
AcDb2dVertex
 10
-4.870073
 20
2.08635
 30
0.0
  0
VERTEX
  5
DA
100
AcDbEntity
  8
レイヤー_2
 62
     7
100
AcDbVertex
100
AcDb2dVertex
 10
-5.642464
 20
2.78157
 30
0.0
  0
VERTEX
  5
DB
100
AcDbEntity
  8
レイヤー_2
 62
     7
100
AcDbVertex
100
AcDb2dVertex
 10
-6.645675
 20
3.168799
 30
0.0
  0
VERTEX
  5
DC
100
AcDbEntity
  8
レイヤー_2
 62
     7
100
AcDbVertex
100
AcDb2dVertex
 10
-7.648887
 20
3.32245
 30
0.0
  0
VERTEX
  5
DD
100
AcDbEntity
  8
レイヤー_2
 62
     7
100
AcDbVertex
100
AcDb2dVertex
 10
-8.731681
 20
3.168799
 30
0.0
  0
VERTEX
  5
DE
100
AcDbEntity
  8
レイヤー_2
 62
     7
100
AcDbVertex
100
AcDb2dVertex
 10
-9.658067
 20
2.78157
 30
0.0
  0
VERTEX
  5
DF
100
AcDbEntity
  8
レイヤー_2
 62
     7
100
AcDbVertex
100
AcDb2dVertex
 10
-10.507627
 20
2.08635
 30
0.0
  0
VERTEX
  5
E0
100
AcDbEntity
  8
レイヤー_2
 62
     7
100
AcDbVertex
100
AcDb2dVertex
 10
-11.124644
 20
1.314648
 30
0.0
  0
VERTEX
  5
E1
100
AcDbEntity
  8
レイヤー_2
 62
     7
100
AcDbVertex
100
AcDb2dVertex
 10
-11.510667
 20
0.30937
 30
0.0
  0
VERTEX
  5
E2
100
AcDbEntity
  8
レイヤー_2
 62
     7
100
AcDbVertex
100
AcDb2dVertex
 10
-11.665524
 20
-0.694531
 30
0.0
  0
VERTEX
  5
E3
100
AcDbEntity
  8
レイヤー_2
 62
     7
100
AcDbVertex
100
AcDb2dVertex
 10
-11.510667
 20
-1.699121
 30
0.0
  0
VERTEX
  5
E4
100
AcDbEntity
  8
レイヤー_2
 62
     7
100
AcDbVertex
100
AcDb2dVertex
 10
-11.124644
 20
-2.705089
 30
0.0
  0
VERTEX
  5
E5
100
AcDbEntity
  8
レイヤー_2
 62
     7
100
AcDbVertex
100
AcDb2dVertex
 10
-10.507627
 20
-3.553961
 30
0.0
  0
VERTEX
  5
E6
100
AcDbEntity
  8
レイヤー_2
 62
     7
100
AcDbVertex
100
AcDb2dVertex
 10
-9.658067
 20
-4.172011
 30
0.0
  0
VERTEX
  5
E7
100
AcDbEntity
  8
レイヤー_2
 62
     7
100
AcDbVertex
100
AcDb2dVertex
 10
-8.731681
 20
-4.55855
 30
0.0
  0
VERTEX
  5
E8
100
AcDbEntity
  8
レイヤー_2
 62
     7
100
AcDbVertex
100
AcDb2dVertex
 10
-7.648887
 20
-4.71358
 30
0.0
  0
VERTEX
  5
E9
100
AcDbEntity
  8
レイヤー_2
 62
     7
100
AcDbVertex
100
AcDb2dVertex
 10
-6.645675
 20
-4.55855
 30
0.0
  0
VERTEX
  5
EA
100
AcDbEntity
  8
レイヤー_2
 62
     7
100
AcDbVertex
100
AcDb2dVertex
 10
-5.642464
 20
-4.172011
 30
0.0
  0
VERTEX
  5
EB
100
AcDbEntity
  8
レイヤー_2
 62
     7
100
AcDbVertex
100
AcDb2dVertex
 10
-4.870073
 20
-3.553961
 30
0.0
  0
VERTEX
  5
EC
100
AcDbEntity
  8
レイヤー_2
 62
     7
100
AcDbVertex
100
AcDb2dVertex
 10
-4.174508
 20
-2.705089
 30
0.0
  0
VERTEX
  5
ED
100
AcDbEntity
  8
レイヤー_2
 62
     7
100
AcDbVertex
100
AcDb2dVertex
 10
-3.788313
 20
-1.699121
 30
0.0
  0
VERTEX
  5
EE
100
AcDbEntity
  8
レイヤー_2
 62
     7
100
AcDbVertex
100
AcDb2dVertex
 10
-3.709765
 20
-0.694531
 30
0.0
  0
SEQEND
  5
EF
100
AcDbEntity
  8
レイヤー_2
 62
     7
  0
LINE
  5
D4
100
AcDbEntity
  8
レイヤー_2
 62
     7
100
AcDbLine
 10
-7.648887
 20
-5.793962
 30
0.0
 11
-7.648887
 21
-1.235411
 31
0.0
  0
LINE
  5
D3
100
AcDbEntity
  8
レイヤー_2
 62
     7
100
AcDbLine
 10
-7.648887
 20
-0.307992
 30
0.0
 11
-7.648887
 21
0.618739
 31
0.0
  0
LINE
  5
D2
100
AcDbEntity
  8
レイヤー_2
 62
     7
100
AcDbLine
 10
-7.648887
 20
1.54547
 30
0.0
 11
-7.648887
 21
6.104709
 31
0.0
  0
LINE
  5
D1
100
AcDbEntity
  8
レイヤー_2
 62
     7
100
AcDbLine
 10
-7.648887
 20
6.953581
 30
0.0
 11
-7.648887
 21
7.881
 31
0.0
  0
LINE
  5
D0
100
AcDbEntity
  8
レイヤー_2
 62
     7
100
AcDbLine
 10
-12.360916
 20
-0.694531
 30
0.0
 11
-7.80495
 21
-0.694531
 31
0.0
  0
LINE
  5
CF
100
AcDbEntity
  8
レイヤー_2
 62
     7
100
AcDbLine
 10
-6.877186
 20
-0.694531
 30
0.0
 11
-5.950455
 21
-0.694531
 31
0.0
  0
LINE
  5
CE
100
AcDbEntity
  8
レイヤー_2
 62
     7
100
AcDbLine
 10
-5.024069
 20
-0.694531
 30
0.0
 11
-2.78269
 21
-0.694531
 31
0.0
  0
LINE
  5
CD
100
AcDbEntity
  8
レイヤー_2
 62
     7
100
AcDbLine
 10
-2.78269
 20
-0.694531
 30
0.0
 11
-3.709765
 21
-0.694531
 31
0.0
  0
LINE
  5
CC
100
AcDbEntity
  8
レイヤー_2
 62
     7
100
AcDbLine
 10
-0.388348
 20
-7.881
 30
0.0
 11
-11.588871
 21
3.32245
 31
0.0
  0
LINE
  5
CB
100
AcDbEntity
  8
レイヤー_2
 62
     7
100
AcDbLine
 10
-0.388348
 20
-7.881
 30
0.0
 11
12.360916
 21
-7.881
 31
0.0
  0
LINE
  5
CA
100
AcDbEntity
  8
レイヤー_2
 62
     7
100
AcDbLine
 10
-11.743728
 20
2.08635
 30
0.0
 11
-8.731681
 21
2.08635
 31
0.0
  0
LINE
  5
C9
100
AcDbEntity
  8
レイヤー_2
 62
     7
100
AcDbLine
 10
-6.337339
 20
-3.47679
 30
0.0
 11
-3.323914
 21
-3.47679
 31
0.0
  0
MTEXT
  5
C8
100
AcDbEntity
  8
レイヤー_2
  6
AI9-LType1
 62
     7
100
AcDbMText
 10
-0.079668
 20
-3.42075
 30
0.0
 40
3.674768
 41
0.0
 71
     1
 72
     2
  1
\fGothicBBB Medium|b0|i0|c128;\H3.6748;\C7;\U+03C6\U+0033\U+0035
  7
STD
210
0.0
220
0.0
230
1.0
 73
     1
 44
1.0
  0
ENDBLK
  5
F0
100
AcDbEntity
  8
レイヤー_2
100
AcDbBlockEnd
  0
ENDSEC
  0
SECTION
  2
ENTITIES
  0
MTEXT
  5
394
100
AcDbEntity
  8
レイヤー_1
 62
     7
100
AcDbMText
 10
47.801389
 20
54.121991
 30
0.0
 40
3.674768
 41
0.0
 71
     1
 72
     2
  1
\fOsaka|b0|i0|c128;\H3.6748;\C7;\U+0033\U+0033\U+002E\U+0038\U+0030\U+0030\U+002E\U+0037\U+0039\U+0030\U+002E\U+0058\U+0058
  7
STD
210
0.0
220
0.0
230
1.0
 73
     1
 44
1.0
  0
MTEXT
  5
393
100
AcDbEntity
  8
レイヤー_1
 62
     7
100
AcDbMText
 10
39.6875
 20
56.608234
 30
0.0
 40
1.574901
 41
0.0
 71
     1
 72
     2
  1
\fOsaka|b0|i0|c128;\H1.5749;\C7;\U+54C1\U+756A
  7
STD
210
0.0
220
0.0
230
1.0
 73
     1
 44
1.0
  0
MTEXT
  5
392
100
AcDbEntity
  8
レイヤー_1
 62
     7
100
AcDbMText
 10
47.801389
 20
32.959208
 30
0.0
 40
3.149486
 41
0.0
 71
     1
 72
     2
  1
\fOsaka|b0|i0|c128;\H3.1495;\C7;\U+FF11\U+7A74\U+578B\U+30B7\U+30F3\U+30B0\U+30EB\U+30EC\U+30D0\U+30FC\U+30AD\U+30C3\U+30C1\U+30F3\U+7528\U+6DF7\U+5408\U+6813
  7
STD
210
0.0
220
0.0
230
1.0
 73
     1
 44
1.0
  0
MTEXT
  5
391
100
AcDbEntity
  8
レイヤー_1
 62
     7
100
AcDbMText
 10
39.6875
 20
35.441567
 30
0.0
 40
1.574901
 41
0.0
 71
     1
 72
     2
  1
\fOsaka|b0|i0|c128;\H1.5749;\C7;\U+54C1
  7
STD
210
0.0
220
0.0
230
1.0
 73
     1
 44
1.0
  0
MTEXT
  5
390
100
AcDbEntity
  8
レイヤー_1
 62
     7
100
AcDbMText
 10
47.801389
 20
42.954808
 30
0.0
 40
3.149486
 41
0.0
 71
     1
 72
     2
  1
\fOsaka|b0|i0|c128;\H3.1495;\C7;\U+004B\U+0049\U+0054\U+0043\U+0048\U+0045\U+004E\U+0020\U+0020\H2.6248;\U+0045\U+004C\U+0049\U+004F
  7
STD
210
0.0
220
0.0
230
1.0
 73
     1
 44
1.0
  0
POLYLINE
  5
38A
100
AcDbEntity
  8
レイヤー_1
 62
     7
100
AcDb2dPolyline
 66
     1
 10
0.0
 20
0.0
 30
0.0
 70
     1
  0
VERTEX
  5
38B
100
AcDbEntity
  8
レイヤー_1
 62
     7
100
AcDbVertex
100
AcDb2dVertex
 10
23.636111
 20
26.105556
 30
0.0
  0
VERTEX
  5
38C
100
AcDbEntity
  8
レイヤー_1
 62
     7
100
AcDbVertex
100
AcDb2dVertex
 10
198.613889
 20
26.105556
 30
0.0
  0
VERTEX
  5
38D
100
AcDbEntity
  8
レイヤー_1
 62
     7
100
AcDbVertex
100
AcDb2dVertex
 10
198.613889
 20
276.577778
 30
0.0
  0
VERTEX
  5
38E
100
AcDbEntity
  8
レイヤー_1
 62
     7
100
AcDbVertex
100
AcDb2dVertex
 10
23.636111
 20
276.577778
 30
0.0
  0
SEQEND
  5
38F
100
AcDbEntity
  8
レイヤー_1
 62
     7
  0
LINE
  5
389
100
AcDbEntity
  8
レイヤー_1
 62
     7
100
AcDbLine
 10
170.568056
 20
36.5125
 30
0.0
 11
27.693056
 21
36.5125
 31
0.0
  0
LINE
  5
388
100
AcDbEntity
  8
レイヤー_1
 62
     7
100
AcDbLine
 10
170.568056
 20
47.095833
 30
0.0
 11
27.693056
 21
47.095833
 31
0.0
  0
LINE
  5
387
100
AcDbEntity
  8
レイヤー_1
 62
     7
100
AcDbLine
 10
23.636111
 20
57.855556
 30
0.0
 11
198.261111
 21
57.855556
 31
0.0
  0
LINE
  5
386
100
AcDbEntity
  8
レイヤー_1
 62
     7
100
AcDbLine
 10
170.744444
 20
57.855556
 30
0.0
 11
170.744444
 21
26.458333
 31
0.0
  0
MTEXT
  5
385
100
AcDbEntity
  8
レイヤー_1
 62
     7
100
AcDbMText
 10
33.3375
 20
46.024901
 30
0.0
 40
1.574901
 41
0.0
 71
     1
 72
     2
  1
\fOsaka|b0|i0|c128;\H1.5749;\C7;\U+30B7\U+30EA\U+30FC\U+30BA
  7
STD
210
0.0
220
0.0
230
1.0
 73
     1
 44
1.0
  0
MTEXT
  5
384
100
AcDbEntity
  8
レイヤー_1
 62
     7
100
AcDbMText
 10
174.095833
 20
54.655042
 30
0.0
 40
3.149486
 41
0.0
 71
     1
 72
     2
  1
\fHeiseiKakuGothicCAN W9|b0|i0|c128;\H3.1495;\C253;\U+5BF8\U+6CD5\U+53C2\U+8003\U+56F3
  7
STD
210
0.0
220
0.0
230
1.0
 73
     1
 44
1.0
  0
LINE
  5
383
100
AcDbEntity
  8
レイヤー_1
 62
     7
100
AcDbLine
 10
27.516667
 20
57.855556
 30
0.0
 11
27.516667
 21
26.458333
 31
0.0
  0
IMAGE
  5
380
100
AcDbEntity
  8
レイヤー_1
 62
     7
 92
        0
100
AcDbRasterImage
 90
        0
 10
172.155556
 20
28.574682
 30
0.0
 11
0.352531
 21
0.0
 31
0.0
 12
0.0
 22
0.352813
 32
0.0
 13
70.0
 23
9.0
340
382
 70
     7
280
     0
281
    50
282
    50
283
     0
360
381
 71
     1
 91
        2
 14
-0.5
 24
-0.5
 14
69.5
 24
8.5
  0
IMAGE
  5
37D
100
AcDbEntity
  8
レイヤー_1
 62
     7
 92
        0
100
AcDbRasterImage
 90
        0
 10
172.155556
 20
28.574682
 30
0.0
 11
0.352531
 21
0.0
 31
0.0
 12
0.0
 22
0.352813
 32
0.0
 13
70.0
 23
9.0
340
37F
 70
     7
280
     0
281
    50
282
    50
283
     0
360
37E
 71
     1
 91
        2
 14
-0.5
 24
-0.5
 14
69.5
 24
8.5
  0
MTEXT
  5
37C
100
AcDbEntity
  8
レイヤー_1
 62
     7
100
AcDbMText
 10
113.418056
 20
46.024901
 30
0.0
 40
1.574901
 41
0.0
 71
     1
 72
     2
  1
\fOsaka|b0|i0|c128;\H1.5749;\C7;\U+4ED5\U+4E0A
  7
STD
210
0.0
220
0.0
230
1.0
 73
     1
 44
1.0
  0
MTEXT
  5
37B
100
AcDbEntity
  8
レイヤー_1
 62
     7
100
AcDbMText
 10
124.765511
 20
40.968165
 30
0.0
 40
1.162843
 41
0.0
 71
     1
 72
     2
  1
\fOsaka|b0|i0|c128;\H1.1628;\W2.71;\C7;
  7
STD
210
0.0
220
0.0
230
1.0
 73
     1
 44
1.0
  0
INSERT
  5
2A
100
AcDbEntity
  8
レイヤー_2
 62
     7
100
AcDbBlockReference
  2
AI9-BLK1
 10
110.988574
 20
158.378016
 30
0.0
  0
ENDSEC
  0
SECTION
  2
OBJECTS
  0
DICTIONARY
  5
19
100
AcDbDictionary
280
     0
281
     1
  3
ACAD_GROUP
350
1A
  3
ACAD_MLINESTYLE
350
1B
  3
ACAD_LAYOUT
350
1E
  3
ACAD_PLOTSETTINGS
350
22
  3
ACAD_PLOTSTYLENAME
350
1F
  3
ACAD_WIPEOUT_VARS
350
23
  0
DICTIONARY
  5
1A
102
{ACAD_REACTORS
330
19
102
}
100
AcDbDictionary
280
     0
281
     1
  0
DICTIONARY
  5
1B
102
{ACAD_REACTORS
330
19
102
}
100
AcDbDictionary
280
     0
281
     1
  3
Standard
350
1C
  0
MLINESTYLE
  5
1C
102
{ACAD_REACTORS
330
1B
102
}
100
AcDbMlineStyle
  2
Standard
 70
     0
  3

 62
     0
 51
90.0
 52
90.0
 71
     2
 49
0.5
 62
   256
  6
ByLayer
 49
-0.5
 62
   256
  6
ByLayer
  0
ACDBDICTIONARYWDFLT
  5
1F
102
{ACAD_REACTORS
330
19
102
}
100
AcDbDictionary
281
     1
  3
Normal
350
1D
100
AcDbDictionaryWithDefault
340
1D
  0
ACDBPLACEHOLDER
  5
1D
102
{ACAD_REACTORS
330
1F
102
}
  0
LAYOUT
  5
20
102
{ACAD_REACTORS
330
1E
102
}
100
AcDbPlotSettings
  1

  2

  4

  6

 40
0.0
 41
0.0
 42
0.0
 43
0.0
 44
0.0
 45
0.0
 46
0.0
 47
0.0
 48
0.0
 49
0.0
140
0.0
141
0.0
142
1.0
143
1.0
 70
  1024
 72
     0
 73
     0
 74
     0
  7

 75
     0
147
1.0
148
0.0
149
0.0
100
AcDbLayout
  1
Model
 70
     0
 71
     0
 10
0.0
 20
0.0
 11
0.0
 21
0.0
 12
0.0
 22
0.0
 32
0.0
 14
0.0
 24
0.0
 34
0.0
 15
0.0
 25
0.0
 35
0.0
146
0.0
 13
0.0
 23
0.0
 33
0.0
 16
0.0
 26
0.0
 36
0.0
 17
0.0
 27
0.0
 37
0.0
 76
     0
330
A
331
0
345
0
346
0
  0
LAYOUT
  5
21
102
{ACAD_REACTORS
330
1E
102
}
100
AcDbPlotSettings
  1

  2

  4

  6

 40
0.0
 41
0.0
 42
0.0
 43
0.0
 44
0.0
 45
0.0
 46
0.0
 47
0.0
 48
0.0
 49
0.0
140
0.0
141
0.0
142
1.0
143
1.0
 70
     0
 72
     0
 73
     0
 74
     0
  7

 75
     0
147
1.0
148
0.0
149
0.0
100
AcDbLayout
  1
Layout1
 70
     0
 71
     0
 10
0.0
 20
0.0
 11
0.0
 21
0.0
 12
0.0
 22
0.0
 32
0.0
 14
0.0
 24
0.0
 34
0.0
 15
0.0
 25
0.0
 35
0.0
146
0.0
 13
0.0
 23
0.0
 33
0.0
 16
0.0
 26
0.0
 36
0.0
 17
0.0
 27
0.0
 37
0.0
 76
     0
330
B
331
0
345
0
346
0
  0
DICTIONARY
  5
1E
102
{ACAD_REACTORS
330
19
102
}
100
AcDbDictionary
280
     0
281
     1
  3
Layout1
350
21
  3
Model
350
20
  0
DICTIONARY
  5
22
102
{ACAD_REACTORS
330
19
102
}
100
AcDbDictionary
280
     0
281
     1
  0
WIPEOUTVARIABLES
  5
23
100
AcDbWipeoutVariables
 70
     1
  0
IMAGEDEF_REACTOR
  5
37E
100
AcDbRasterImageDefReactor
 90
        2
330
37D
  0
IMAGEDEF
  5
37F
100
AcDbRasterImageDef
 90
        0
  1
\\192.168.6.3\free(2009_04\一過性\DB_WEB用DXF_丸茂\KITCHEN\33800790_1.bmp
 10
70.0
 20
9.0
 11
0.352778
 21
0.352778
280
     1
281
     0
  0
IMAGEDEF_REACTOR
  5
381
100
AcDbRasterImageDefReactor
 90
        2
330
380
  0
IMAGEDEF
  5
382
100
AcDbRasterImageDef
 90
        0
  1
\\192.168.6.3\free(2009_04\一過性\DB_WEB用DXF_丸茂\KITCHEN\33800790_2.bmp
 10
70.0
 20
9.0
 11
0.352778
 21
0.352778
280
     1
281
     0
  0
ENDSEC
  0
EOF
