  0
SECTION
  2
HEADER
  9
$ACADVER
  1
AC1015
  9
$ACADMAINTVER
 70
     6
  9
$DWGCODEPAGE
  3
ANSI_932
  9
$INSBASE
 10
0.0
 20
0.0
 30
0.0
  9
$EXTMIN
 10
23.283333
 20
25.752778
 30
1.000000E+20
  9
$EXTMAX
 10
198.966667
 20
276.930556
 30
-1.000000E+20
  9
$LIMMIN
 10
23.283333
 20
25.752778
  9
$LIMMAX
 10
198.966667
 20
276.930556
  9
$ORTHOMODE
 70
     0
  9
$REGENMODE
 70
     1
  9
$FILLMODE
 70
     1
  9
$QTEXTMODE
 70
     0
  9
$MIRRTEXT
 70
     1
  9
$LTSCALE
 40
1.0
  9
$ATTMODE
 70
     1
  9
$TEXTSIZE
 40
0.2
  9
$TRACEWID
 40
0.05
  9
$TEXTSTYLE
  7
Standard
  9
$CLAYER
  8
0
  9
$CELTYPE
  6
Continuous
  9
$CECOLOR
 62
   256
  9
$CELTSCALE
 40
1.0
  9
$DISPSILH
 70
     0
  9
$DIMSCALE
 40
1.0
  9
$DIMASZ
 40
0.18
  9
$DIMEXO
 40
0.0625
  9
$DIMDLI
 40
0.38
  9
$DIMRND
 40
0.0
  9
$DIMDLE
 40
0.0
  9
$DIMEXE
 40
0.18
  9
$DIMTP
 40
0.0
  9
$DIMTM
 40
0.0
  9
$DIMTXT
 40
0.18
  9
$DIMCEN
 40
0.09
  9
$DIMTSZ
 40
0.0
  9
$DIMTOL
 70
     0
  9
$DIMLIM
 70
     0
  9
$DIMTIH
 70
     1
  9
$DIMTOH
 70
     1
  9
$DIMSE1
 70
     0
  9
$DIMSE2
 70
     0
  9
$DIMTAD
 70
     0
  9
$DIMZIN
 70
     0
  9
$DIMBLK
  1

  9
$DIMASO
 70
     1
  9
$DIMSHO
 70
     1
  9
$DIMPOST
  1

  9
$DIMAPOST
  1

  9
$DIMALT
 70
     0
  9
$DIMALTD
 70
     2
  9
$DIMALTF
 40
25.4
  9
$DIMLFAC
 40
1.0
  9
$DIMTOFL
 70
     0
  9
$DIMTVP
 40
0.0
  9
$DIMTIX
 70
     0
  9
$DIMSOXD
 70
     0
  9
$DIMSAH
 70
     0
  9
$DIMBLK1
  1

  9
$DIMBLK2
  1

  9
$DIMSTYLE
  2
Standard
  9
$DIMCLRD
 70
     0
  9
$DIMCLRE
 70
     0
  9
$DIMCLRT
 70
     0
  9
$DIMTFAC
 40
1.0
  9
$DIMGAP
 40
0.09
  9
$DIMJUST
 70
     0
  9
$DIMSD1
 70
     0
  9
$DIMSD2
 70
     0
  9
$DIMTOLJ
 70
     1
  9
$DIMTZIN
 70
     0
  9
$DIMALTZ
 70
     0
  9
$DIMALTTZ
 70
     0
  9
$DIMUPT
 70
     0
  9
$DIMDEC
 70
     4
  9
$DIMTDEC
 70
     4
  9
$DIMALTU
 70
     2
  9
$DIMALTTD
 70
     2
  9
$DIMTXSTY
  7
Standard
  9
$DIMAUNIT
 70
     0
  9
$DIMADEC
 70
     0
  9
$DIMALTRND
 40
0.0
  9
$DIMAZIN
 70
     0
  9
$DIMDSEP
 70
     0
  9
$DIMATFIT
 70
     3
  9
$DIMFRAC
 70
     0
  9
$DIMLDRBLK
  1

  9
$DIMLUNIT
 70
     2
  9
$DIMLWD
 70
     0
  9
$DIMLWE
 70
     0
  9
$DIMTMOVE
 70
     0
  9
$LUNITS
 70
     2
  9
$LUPREC
 70
     4
  9
$SKETCHINC
 40
0.1
  9
$FILLETRAD
 40
0.0
  9
$AUNITS
 70
     0
  9
$AUPREC
 70
     0
  9
$MENU
  1
acad
  9
$ELEVATION
 40
0.0
  9
$PELEVATION
 40
0.0
  9
$THICKNESS
 40
0.0
  9
$LIMCHECK
 70
     0
  9
$CHAMFERA
 40
0.0
  9
$CHAMFERB
 40
0.0
  9
$CHAMFERC
 40
0.0
  9
$CHAMFERD
 40
0.0
  9
$SKPOLY
 70
     0
  9
$TDCREATE
 40
0.000000000
  9
$TDUCREATE
 40
0.000000000
  9
$TDUPDATE
 40
0.000000000
  9
$TDUUPDATE
 40
0.000000000
  9
$TDINDWG
 40
0.0000000000
  9
$TDUSRTIMER
 40
0.0000000000
  9
$USRTIMER
 70
     1
  9
$ANGBASE
 50
0.0
  9
$ANGDIR
 70
     0
  9
$PDMODE
 70
     0
  9
$PDSIZE
 40
0.0
  9
$PLINEWID
 40
0.0
  9
$SPLFRAME
 70
     0
  9
$SPLINETYPE
 70
     6
  9
$SPLINESEGS
 70
     8
  9
$HANDSEED
  5
27D
  9
$SURFTAB1
 70
     6
  9
$SURFTAB2
 70
     6
  9
$SURFTYPE
 70
     6
  9
$SURFU
 70
     6
  9
$SURFV
 70
     6
  9
$UCSBASE
  2

  9
$UCSNAME
  2

  9
$UCSORG
 10
0.0
 20
0.0
 30
0.0
  9
$UCSXDIR
 10
1.0
 20
0.0
 30
0.0
  9
$UCSYDIR
 10
0.0
 20
1.0
 30
0.0
  9
$UCSORTHOREF
  2

  9
$UCSORTHOVIEW
 70
     0
  9
$UCSORGTOP
 10
0.0
 20
0.0
 30
0.0
  9
$UCSORGBOTTOM
 10
0.0
 20
0.0
 30
0.0
  9
$UCSORGLEFT
 10
0.0
 20
0.0
 30
0.0
  9
$UCSORGRIGHT
 10
0.0
 20
0.0
 30
0.0
  9
$UCSORGFRONT
 10
0.0
 20
0.0
 30
0.0
  9
$UCSORGBACK
 10
0.0
 20
0.0
 30
0.0
  9
$PUCSBASE
  2

  9
$PUCSNAME
  2

  9
$PUCSORG
 10
0.0
 20
0.0
 30
0.0
  9
$PUCSXDIR
 10
1.0
 20
0.0
 30
0.0
  9
$PUCSYDIR
 10
0.0
 20
1.0
 30
0.0
  9
$PUCSORTHOREF
  2

  9
$PUCSORTHOVIEW
 70
     0
  9
$PUCSORGTOP
 10
0.0
 20
0.0
 30
0.0
  9
$PUCSORGBOTTOM
 10
0.0
 20
0.0
 30
0.0
  9
$PUCSORGLEFT
 10
0.0
 20
0.0
 30
0.0
  9
$PUCSORGRIGHT
 10
0.0
 20
0.0
 30
0.0
  9
$PUCSORGFRONT
 10
0.0
 20
0.0
 30
0.0
  9
$PUCSORGBACK
 10
0.0
 20
0.0
 30
0.0
  9
$USERI1
 70
     0
  9
$USERI2
 70
     0
  9
$USERI3
 70
     0
  9
$USERI4
 70
     0
  9
$USERI5
 70
     0
  9
$USERR1
 40
0.0
  9
$USERR2
 40
0.0
  9
$USERR3
 40
0.0
  9
$USERR4
 40
0.0
  9
$USERR5
 40
0.0
  9
$WORLDVIEW
 70
     1
  9
$SHADEDGE
 70
     3
  9
$SHADEDIF
 70
    70
  9
$TILEMODE
 70
     1
  9
$MAXACTVP
 70
    16
  9
$PINSBASE
 10
0.0
 20
0.0
 30
0.0
  9
$PLIMCHECK
 70
     0
  9
$PEXTMIN
 10
1.000000E+20
 20
1.000000E+20
 30
1.000000E+20
  9
$PEXTMAX
 10
-1.000000E+20
 20
-1.000000E+20
 30
-1.000000E+20
  9
$PLIMMIN
 10
0.0
 20
0.0
  9
$PLIMMAX
 10
12.0
 20
9.0
  9
$UNITMODE
 70
     0
  9
$VISRETAIN
 70
     0
  9
$PLINEGEN
 70
     1
  9
$PSLTSCALE
 70
     0
  9
$TREEDEPTH
 70
  3020
  9
$CMLSTYLE
  2
Standard
  9
$CMLJUST
 70
     0
  9
$CMLSCALE
 40
1.0
  9
$PROXYGRAPHICS
 70
     0
  9
$MEASUREMENT
 70
     1
  9
$CELWEIGHT
370
     0
  9
$ENDCAPS
280
     0
  9
$JOINSTYLE
280
     0
  9
$LWDISPLAY
290
     0
  9
$INSUNITS
 70
     0
  9
$HYPERLINKBASE
  1

  9
$STYLESHEET
  1

  9
$XEDIT
290
     1
  9
$CEPSNTYPE
380
     0
  9
$PSTYLEMODE
290
     1
  9
$FINGERPRINTGUID
  2

  9
$VERSIONGUID
  2

  9
$EXTNAMES
290
     1
  9
$PSVPSCALE
 40
0.0
  0
ENDSEC
  0
SECTION
  2
CLASSES
  0
CLASS
  1
LWPOLYLINE
  2
AcDbPolyline
  3
AutoCAD 2000
 90
    32768
280
     0
281
     1
  0
CLASS
  1
IMAGE
  2
AcDbRasterImage
  3
ISM
 90
      127
280
     0
281
     1
  0
CLASS
  1
OLE2FRAME
  2
AcDbOle2Frame
  3
AutoCAD 2000
 90
    32768
280
     0
281
     1
  0
CLASS
  1
HATCH
  2
AcDbHatch
  3
AutoCAD 2000
 90
    32768
280
     0
281
     1
  0
CLASS
  1
DICTIONARYVAR
  2
AcDbDictionaryVar
  3
AutoCAD 2000
 90
    32768
280
     0
281
     0
  0
CLASS
  1
RASTERVARIABLES
  2
AcDbRasterVariables
  3
ISM
 90
    32768
280
     0
281
     0
  0
CLASS
  1
IMAGEDEF
  2
AcDbRasterImageDef
  3
ISM
 90
        0
280
     0
281
     0
  0
CLASS
  1
IMAGEDEF_REACTOR
  2
AcDbRasterImageDefReactor
  3
ISM
 90
        1
280
     0
281
     0
  0
CLASS
  1
IDBUFFER
  2
AcDbIdBuffer
  3
AutoCAD 2000
 90
    32768
280
     0
281
     0
  0
CLASS
  1
SPATIAL_FILTER
  2
AcDbSpatialFilter
  3
AutoCAD 2000
 90
    32768
280
     0
281
     0
  0
CLASS
  1
XRECORD
  2
AcDbXrecord
  3
AutoCAD 2000
 90
    32768
280
     0
281
     0
  0
CLASS
  1
SORTENTSTABLE
  2
AcDbSortentsTable
  3
AutoCAD 2000
 90
    32768
280
     0
281
     0
  0
CLASS
  1
LAYER_INDEX
  2
AcDbLayerIndex
  3
AutoCAD 2000
 90
    32768
280
     0
281
     0
  0
CLASS
  1
SPATIAL_INDEX
  2
AcDbSpatialIndex
  3
AutoCAD 2000
 90
    32768
280
     0
281
     0
  0
CLASS
  1
OBJECT_PTR
  2
CAseDLPNTableRecord
  3
"ASE-LPNTableRecord"
 90
    32769
280
     0
281
     0
  0
CLASS
  1
LAYOUT
  2
AcDbLayout
  3
AutoCAD 2000
 90
        0
280
     0
281
     0
  0
CLASS
  1
PLOTSETTINGS
  2
AcDbPlotSettings
  3
AutoCAD 2000
 90
    32768
280
     0
281
     0
  0
CLASS
  1
ACDBDICTIONARYWDFLT
  2
AcDbDictionaryWithDefault
  3
AutoCAD 2000
 90
        0
280
     0
281
     0
  0
CLASS
  1
ACDBPLACEHOLDER
  2
AcDbPlaceHolder
  3
AutoCAD 2000
 90
        0
280
     0
281
     0
  0
CLASS
  1
VBA_PROJECT
  2
AcDbVbaProject
  3
acadvba
 90
    32768
280
     0
281
     0
  0
CLASS
  1
WIPEOUT
  2
AcDbWipeout
  3
WipeOut|AutoCAD Express Tool|expresstools@autodesk.com
 90
    32895
280
     0
281
     1
  0
CLASS
  1
WIPEOUTVARIABLES
  2
AcDbWipeoutVariables
  3
WipeOut|AutoCAD Express Tool|expresstools@autodesk.com
 90
        0
280
     0
281
     0
  0
CLASS
  1
RTEXT
  2
RText
  3
RText|AutoCAD Express Tool|expresstools@autodesk.com
 90
    32768
280
     0
281
     1
  0
CLASS
  1
ARCALIGNEDTEXT
  2
AcDbArcAlignedText
  3
ATEXT|AutoCAD Express Tool|expresstools@autodesk.com
 90
    32768
280
     0
281
     1
  0
ENDSEC
  0
SECTION
  2
TABLES
  0
TABLE
  2
VPORT
  5
7
100
AcDbSymbolTable
 70
     1
  0
VPORT
  5
15
100
AcDbSymbolTableRecord
100
AcDbViewportTableRecord
  2
*ACTIVE
 70
     0
 10
0.0
 20
0.0
 11
1.0
 21
1.0
 12
6.591288
 22
4.579184
 13
0.0
 23
0.0
 14
1.0
 24
1.0
 15
0.0
 25
0.0
 16
0.0
 26
0.0
 36
1.0
 17
0.0
 27
0.0
 37
0.0
 40
9.158369
 41
0.688564
 42
50.0
 43
0.0
 44
0.0
 50
0.0
 51
0.0
 71
     0
 72
   100
 73
     1
 74
     1
 75
     0
 76
     0
 77
     0
 78
     0
281
     0
 65
     0
110
0.0
120
0.0
130
0.0
111
1.0
121
0.0
131
0.0
112
0.0
122
1.0
132
0.0
345
0
346
0
 79
     0
146
0.0
  0
ENDTAB
  0
TABLE
  2
LTYPE
  5
4
100
AcDbSymbolTable
 70
     5
  0
LTYPE
  5
11
100
AcDbSymbolTableRecord
100
AcDbLinetypeTableRecord
  2
ByBlock
 70
    64
  3

 72
    65
 73
     0
 40
0.0
  0
LTYPE
  5
12
100
AcDbSymbolTableRecord
100
AcDbLinetypeTableRecord
  2
ByLayer
 70
    64
  3

 72
    65
 73
     0
 40
0.0
  0
LTYPE
  5
13
100
AcDbSymbolTableRecord
100
AcDbLinetypeTableRecord
  2
Continuous
 70
    64
  3
Solid line
 72
    65
 73
     0
 40
0.0
  0
LTYPE
  5
35
100
AcDbSymbolTableRecord
100
AcDbLinetypeTableRecord
  2
AI9-LType1
 70
    64
  3
Illustrator Dash Style No.1
 72
    65
 73
     4
 40
14.795182
 49
9.246975
 74
     0
 49
-1.849402
 74
     0
 49
1.849402
 74
     0
 49
-1.849402
 74
     0
  0
LTYPE
  5
FB
100
AcDbSymbolTableRecord
100
AcDbLinetypeTableRecord
  2
AI9-LType2
 70
    64
  3
Illustrator Dash Style No.2
 72
    65
 73
     4
 40
8.000295
 49
4.99992
 74
     0
 49
-1.000125
 74
     0
 49
1.000125
 74
     0
 49
-1.000125
 74
     0
  0
ENDTAB
  0
TABLE
  2
LAYER
  5
2
100
AcDbSymbolTable
 70
     3
  0
LAYER
  5
14
100
AcDbSymbolTableRecord
100
AcDbLayerTableRecord
  2
0
 70
     0
 62
     7
  6
Continuous
290
     1
370
    -3
390
1D
  0
LAYER
  5
28
100
AcDbSymbolTableRecord
100
AcDbLayerTableRecord
  2
レイヤー_2
 70
     0
 62
     1
  6
Continuous
290
     1
370
    -3
390
1D
  0
LAYER
  5
262
100
AcDbSymbolTableRecord
100
AcDbLayerTableRecord
  2
レイヤー_1
 70
     4
 62
   160
  6
Continuous
290
     1
370
    -3
390
1D
  0
ENDTAB
  0
TABLE
  2
STYLE
  5
3
100
AcDbSymbolTable
 70
     5
  0
STYLE
  5
17
100
AcDbSymbolTableRecord
100
AcDbTextStyleTableRecord
  2
Standard
 70
     0
 40
0.0
 41
1.0
 50
0.0
 71
     0
 42
0.0
  3
txt
  4

  0
STYLE
  5
24
100
AcDbSymbolTableRecord
100
AcDbTextStyleTableRecord
  2
STD
 70
     0
 40
0.0
 41
1.0
 50
0.0
 71
     0
 42
0.0
  3
txt
  4

  0
STYLE
  5
25
100
AcDbSymbolTableRecord
100
AcDbTextStyleTableRecord
  2
TATESTD
 70
     4
 40
0.0
 41
1.0
 50
0.0
 71
     0
 42
0.0
  3
txt
  4

  0
STYLE
  5
26
100
AcDbSymbolTableRecord
100
AcDbTextStyleTableRecord
  2
KANJISTD
 70
     0
 40
0.0
 41
1.0
 50
0.0
 71
     0
 42
0.0
  3
txt
  4
extfont
  0
STYLE
  5
27
100
AcDbSymbolTableRecord
100
AcDbTextStyleTableRecord
  2
KANJITATE
 70
     4
 40
0.0
 41
1.0
 50
0.0
 71
     0
 42
0.0
  3
txt
  4
extfont
  0
ENDTAB
  0
TABLE
  2
VIEW
  5
5
100
AcDbSymbolTable
 70
     0
  0
ENDTAB
  0
TABLE
  2
UCS
  5
6
100
AcDbSymbolTable
 70
     0
  0
ENDTAB
  0
TABLE
  2
APPID
  5
8
100
AcDbSymbolTable
 70
     1
  0
APPID
  5
16
100
AcDbSymbolTableRecord
100
AcDbRegAppTableRecord
  2
ACAD
 70
     0
  0
ENDTAB
  0
TABLE
  2
DIMSTYLE
  5
9
100
AcDbSymbolTable
 70
     1
100
AcDbDimStyleTable
 71
     0
  0
DIMSTYLE
105
18
100
AcDbSymbolTableRecord
100
AcDbDimStyleTableRecord
  2
Standard
 70
     0
  3

  4

 40
1.0
 41
0.18
 42
0.0625
 43
0.38
 44
0.18
 45
0.0
 46
0.0
 47
0.0
 48
0.0
 71
     0
 72
     0
 73
     1
 74
     1
 75
     0
 76
     0
 77
     0
 78
     0
 79
     0
140
0.18
141
0.09
142
0.0
143
25.4
144
1.0
145
0.0
146
1.0
147
0.09
148
0.0
170
     0
171
     2
172
     0
173
     0
174
     0
175
     0
176
     0
177
     0
178
     0
179
     0
271
     4
272
     4
273
     2
274
     2
275
     0
276
     0
277
     2
278
    46
279
     0
280
     0
281
     0
282
     0
283
     1
284
     0
285
     0
286
     0
288
     0
340
17
341
0
342
0
343
0
344
0
371
    -2
372
    -2
  0
ENDTAB
  0
TABLE
  2
BLOCK_RECORD
  5
1
100
AcDbSymbolTable
 70
     8
  0
BLOCK_RECORD
  5
A
100
AcDbSymbolTableRecord
100
AcDbBlockTableRecord
  2
*MODEL_SPACE
340
20
  0
BLOCK_RECORD
  5
B
100
AcDbSymbolTableRecord
100
AcDbBlockTableRecord
  2
*PAPER_SPACE
340
21
  0
BLOCK_RECORD
  5
29
100
AcDbSymbolTableRecord
100
AcDbBlockTableRecord
  2
AI9-BLK1
340
0
102
{BLKREFS
331
2A
102
}
  0
BLOCK_RECORD
  5
2F
100
AcDbSymbolTableRecord
100
AcDbBlockTableRecord
  2
AI9-BLK2
340
0
102
{BLKREFS
331
30
102
}
  0
BLOCK_RECORD
  5
32
100
AcDbSymbolTableRecord
100
AcDbBlockTableRecord
  2
AI9-BLK3
340
0
102
{BLKREFS
331
33
102
}
  0
BLOCK_RECORD
  5
37
100
AcDbSymbolTableRecord
100
AcDbBlockTableRecord
  2
AI9-BLK4
340
0
102
{BLKREFS
331
38
102
}
  0
BLOCK_RECORD
  5
82
100
AcDbSymbolTableRecord
100
AcDbBlockTableRecord
  2
AI9-BLK5
340
0
102
{BLKREFS
331
83
102
}
  0
BLOCK_RECORD
  5
85
100
AcDbSymbolTableRecord
100
AcDbBlockTableRecord
  2
AI9-BLK6
340
0
102
{BLKREFS
331
86
102
}
  0
BLOCK_RECORD
  5
88
100
AcDbSymbolTableRecord
100
AcDbBlockTableRecord
  2
AI9-BLK7
340
0
102
{BLKREFS
331
89
102
}
  0
BLOCK_RECORD
  5
D5
100
AcDbSymbolTableRecord
100
AcDbBlockTableRecord
  2
AI9-BLK8
340
0
102
{BLKREFS
331
D6
102
}
  0
ENDTAB
  0
ENDSEC
  0
SECTION
  2
BLOCKS
  0
BLOCK
  5
D
100
AcDbEntity
  8
0
100
AcDbBlockBegin
  2
*MODEL_SPACE
 70
     0
 10
0.0
 20
0.0
 30
0.0
  3
*MODEL_SPACE
  1

  0
ENDBLK
  5
E
100
AcDbEntity
  8
0
100
AcDbBlockEnd
  0
BLOCK
  5
F
100
AcDbEntity
 67
     1
  8
0
100
AcDbBlockBegin
  2
*PAPER_SPACE
 70
     0
 10
0.0
 20
0.0
 30
0.0
  3
*PAPER_SPACE
  1

  0
ENDBLK
  5
10
100
AcDbEntity
 67
     1
  8
0
100
AcDbBlockEnd
  0
BLOCK
  5
2B
100
AcDbEntity
  8
レイヤー_2
 62
     7
100
AcDbBlockBegin
  2
AI9-BLK1
 70
     0
 10
0.0
 20
0.0
 30
0.0
  3
AI9-BLK1
  1

  0
MTEXT
  5
2D
100
AcDbEntity
  8
レイヤー_2
 62
     7
100
AcDbMText
 10
-8.123535
 20
3.155412
 30
0.0
 40
2.362351
 41
0.0
 71
     1
 72
     2
  1
\fMS PGothic|b0|i0|c128;\H2.3624;\C7;\U+63A5\U+7D9A\U+30BD\U+30B1\U+30C3\U+30C8
  7
STD
210
0.0
220
0.0
230
1.0
 73
     1
 44
1.0
  0
MTEXT
  5
2C
100
AcDbEntity
  8
レイヤー_2
 62
     7
100
AcDbMText
 10
-8.123535
 20
-0.725143
 30
0.0
 40
2.362351
 41
0.0
 71
     1
 72
     2
  1
\fMS PGothic|b0|i0|c128;\H2.3624;\C7;\U+FF08\U+9006\U+6B62\U+5F01\U+4ED8\U+FF09
  7
STD
210
0.0
220
0.0
230
1.0
 73
     1
 44
1.0
  0
ENDBLK
  5
2E
100
AcDbEntity
  8
レイヤー_2
100
AcDbBlockEnd
  0
BLOCK
  5
31
100
AcDbEntity
  8
レイヤー_2
 62
     7
100
AcDbBlockBegin
  2
AI9-BLK2
 70
     0
 10
0.0
 20
0.0
 30
0.0
  3
AI9-BLK2
  1

  0
MTEXT
  5
80
100
AcDbEntity
  8
レイヤー_2
  6
AI9-LType1
 62
     7
100
AcDbMText
 10
4.568713
 20
-16.697246
 30
0.0
 40
4.724702
 41
0.0
 71
     1
 72
     2
  1
\fMS PGothic|b0|i0|c128;\H4.7247;\C7;\U+0047\U+0031\U+002F\U+0032
  7
STD
210
0.0
220
0.0
230
1.0
 73
     1
 44
1.0
  0
INSERT
  5
33
100
AcDbEntity
  8
レイヤー_2
 62
     7
100
AcDbBlockReference
  2
AI9-BLK3
 10
-3.199977
 20
3.717947
 30
0.0
  0
ENDBLK
  5
81
100
AcDbEntity
  8
レイヤー_2
100
AcDbBlockEnd
  0
BLOCK
  5
34
100
AcDbEntity
  8
レイヤー_2
 62
     7
100
AcDbBlockBegin
  2
AI9-BLK3
 70
     0
 10
0.0
 20
0.0
 30
0.0
  3
AI9-BLK3
  1

  0
LINE
  5
7E
100
AcDbEntity
  8
レイヤー_2
  6
AI9-LType1
 62
     7
100
AcDbLine
 10
10.979519
 20
18.483971
 30
0.0
 11
10.979519
 21
-18.483971
 31
0.0
  0
INSERT
  5
38
100
AcDbEntity
  8
レイヤー_2
  6
AI9-LType1
 62
     7
100
AcDbBlockReference
  2
AI9-BLK4
 10
10.979519
 20
-11.441162
 30
0.0
  0
LINE
  5
36
100
AcDbEntity
  8
レイヤー_2
  6
AI9-LType1
 62
     7
100
AcDbLine
 10
-14.105599
 20
-2.586233
 30
0.0
 11
10.979519
 21
18.483971
 31
0.0
  0
ENDBLK
  5
7F
100
AcDbEntity
  8
レイヤー_2
100
AcDbBlockEnd
  0
BLOCK
  5
39
100
AcDbEntity
  8
レイヤー_2
  6
AI9-LType1
 62
     7
100
AcDbBlockBegin
  2
AI9-BLK4
 70
     0
 10
0.0
 20
0.0
 30
0.0
  3
AI9-BLK4
  1

  0
SPLINE
  5
7C
100
AcDbEntity
  8
レイヤー_2
 62
     7
100
AcDbSpline
210
0.0
220
0.0
230
1.0
 70
     8
 71
     3
 72
    95
 73
    91
 74
     0
 42
0.00000001
 43
0.00000001
 40
0.0
 40
0.0
 40
0.0
 40
0.0
 40
1.0
 40
1.0
 40
1.0
 40
2.0
 40
2.0
 40
2.0
 40
3.0
 40
3.0
 40
3.0
 40
4.0
 40
4.0
 40
4.0
 40
5.0
 40
5.0
 40
5.0
 40
6.0
 40
6.0
 40
6.0
 40
7.0
 40
7.0
 40
7.0
 40
8.0
 40
8.0
 40
8.0
 40
9.0
 40
9.0
 40
9.0
 40
10.0
 40
10.0
 40
10.0
 40
11.0
 40
11.0
 40
11.0
 40
12.0
 40
12.0
 40
12.0
 40
13.0
 40
13.0
 40
13.0
 40
14.0
 40
14.0
 40
14.0
 40
15.0
 40
15.0
 40
15.0
 40
16.0
 40
16.0
 40
16.0
 40
17.0
 40
17.0
 40
17.0
 40
18.0
 40
18.0
 40
18.0
 40
19.0
 40
19.0
 40
19.0
 40
20.0
 40
20.0
 40
20.0
 40
21.0
 40
21.0
 40
21.0
 40
22.0
 40
22.0
 40
22.0
 40
23.0
 40
23.0
 40
23.0
 40
24.0
 40
24.0
 40
24.0
 40
25.0
 40
25.0
 40
25.0
 40
26.0
 40
26.0
 40
26.0
 40
27.0
 40
27.0
 40
27.0
 40
28.0
 40
28.0
 40
28.0
 40
29.0
 40
29.0
 40
29.0
 40
30.0
 40
30.0
 40
30.0
 40
30.0
 10
1.1100097656249999
 20
6.2993570963541661
 30
0.0
 10
1.0976074218749998
 20
6.2959120008680554
 30
0.0
 10
1.085205078125
 20
6.2924669053819438
 30
0.0
 10
1.072802734375
 20
6.289021809895833
 30
0.0
 10
1.0604003906249999
 20
6.2855767144097214
 30
0.0
 10
1.0479980468749999
 20
6.2828206380208327
 30
0.0
 10
1.0355957031249998
 20
6.2800645616319439
 30
0.0
 10
1.023193359375
 20
6.2766194661458323
 30
0.0
 10
1.010791015625
 20
6.2745524088541664
 30
0.0
 10
0.9983886718749999
 20
6.2724853515624996
 30
0.0
 10
0.9859863281249999
 20
6.2704182942708329
 30
0.0
 10
0.9735839843749999
 20
6.2683512369791661
 30
0.0
 10
0.9611816406249999
 20
6.2676622178819441
 30
0.0
 10
0.9480902777777777
 20
6.2662841796874993
 30
0.0
 10
0.9356879340277777
 20
6.2662841796874993
 30
0.0
 10
0.9232855902777777
 20
6.2662841796874993
 30
0.0
 10
0.8943467881944444
 20
6.2669731987847213
 30
0.0
 10
0.8660970052083332
 20
6.2704182942708329
 30
0.0
 10
0.8385362413194444
 20
6.2773084852430552
 30
0.0
 10
0.8102864583333332
 20
6.2841986762152775
 30
0.0
 10
0.7820366753472221
 20
6.2917778862847218
 30
0.0
 10
0.7537868923611111
 20
6.2993570963541661
 30
0.0
 10
0.7255371093749999
 20
6.3083143446180552
 30
0.0
 10
0.6979763454861111
 20
6.3158935546874995
 30
0.0
 10
0.6697265625
 20
6.3234727647569438
 30
0.0
 10
0.6428548177083333
 20
6.331051974826388
 30
0.0
 10
0.6152940538194444
 20
6.3365641276041664
 30
0.0
 10
0.5877332899305555
 20
6.3393202039930552
 30
0.0
 10
0.5622395833333332
 20
6.3427652994791659
 30
0.0
 10
0.5360568576388889
 20
6.341387261284722
 30
0.0
 10
0.5098741319444444
 20
6.3365641276041664
 30
0.0
 10
0.4712890625
 20
6.3282958984374993
 30
0.0
 10
0.4347710503472222
 20
6.3110704210069439
 30
0.0
 10
0.4030761718749999
 20
6.2876437717013882
 30
0.0
 10
0.3672471788194444
 20
6.2621500651041657
 30
0.0
 10
0.3334852430555556
 20
6.2339002821180554
 30
0.0
 10
0.3024793836805556
 20
6.2028944227430554
 30
0.0
 10
0.2700954861111111
 20
6.1705105251736105
 30
0.0
 10
0.2377115885416667
 20
6.1388156467013886
 30
0.0
 10
0.204638671875
 20
6.1071207682291657
 30
0.0
 10
0.1743218315972222
 20
6.0774929470486105
 30
0.0
 10
0.1405598958333333
 20
6.0506212022569441
 30
0.0
 10
0.105419921875
 20
6.0265055338541664
 30
0.0
 10
0.0737250434027778
 20
6.0051459418402775
 30
0.0
 10
0.0378960503472222
 20
5.9913655598958329
 30
0.0
 10
0.0
 20
5.9865424262152773
 30
0.0
 10
-0.0365180121527778
 20
5.9817192925347218
 30
0.0
 10
-0.0737250434027778
 20
5.9872314453124993
 30
0.0
 10
-0.1081759982638889
 20
6.0023898654513888
 30
0.0
 10
-0.1453830295138889
 20
6.0189263237847213
 30
0.0
 10
-0.1832790798611111
 20
6.0361518012152775
 30
0.0
 10
-0.2211751302083333
 20
6.0533772786458329
 30
0.0
 10
-0.26044921875
 20
6.0712917751736102
 30
0.0
 10
-0.2990342881944444
 20
6.0919623480902771
 30
0.0
 10
-0.3355523003472222
 20
6.1153889973958329
 30
0.0
 10
-0.3720703124999999
 20
6.135370551215277
 30
0.0
 10
-0.40927734375
 20
6.1519070095486104
 30
0.0
 10
-0.4485514322916666
 20
6.1643093532986102
 30
0.0
 10
-0.4823133680555555
 20
6.1767116970486109
 30
0.0
 10
-0.5195203993055555
 20
6.1808458116319436
 30
0.0
 10
-0.555349392361111
 20
6.1767116970486109
 30
0.0
 10
-0.5815321180555555
 20
6.1718885633680554
 30
0.0
 10
-0.6063368055555555
 20
6.1629313151041663
 30
0.0
 10
-0.6297634548611111
 20
6.1498399522569436
 30
0.0
 10
-0.6545681423611111
 20
6.1360595703124998
 30
0.0
 10
-0.6786838107638888
 20
6.1195231119791664
 30
0.0
 10
-0.700732421875
 20
6.1016086154513882
 30
0.0
 10
-0.7248480902777778
 20
6.0823160807291661
 30
0.0
 10
-0.7489637586805555
 20
6.062334526909722
 30
0.0
 10
-0.7717013888888888
 20
6.042352973090277
 30
0.0
 10
-0.7958170572916666
 20
6.0223714192708329
 30
0.0
 10
-0.8199327256944444
 20
6.0030788845486107
 30
0.0
 10
-0.8454264322916666
 20
5.9844753689236105
 30
0.0
 10
-0.8695421006944444
 20
5.9672498914930552
 30
0.0
 10
-0.8957248263888888
 20
5.9527804904513886
 30
0.0
 10
-0.9232855902777777
 20
5.9403781467013888
 30
0.0
 10
-0.9349989149305554
 20
5.9355550130208332
 30
0.0
 10
-0.9467122395833333
 20
5.9314208984374996
 30
0.0
 10
-0.9591145833333332
 20
5.9286648220486109
 30
0.0
 10
-0.9715169270833333
 20
5.9252197265624993
 30
0.0
 10
-0.983230251736111
 20
5.9224636501736105
 30
0.0
 10
-0.9956325954861111
 20
5.9197075737847218
 30
0.0
 10
-1.008034939236111
 20
5.916951497395833
 30
0.0
 10
-1.0211263020833332
 20
5.9155734592013882
 30
0.0
 10
-1.0335286458333333
 20
5.9141954210069443
 30
0.0
 10
-1.0459309895833333
 20
5.9128173828124995
 30
0.0
 10
-1.0590223524305555
 20
5.9114393446180546
 30
0.0
 10
-1.0714246961805554
 20
5.9107503255208327
 30
0.0
 10
-1.0845160590277776
 20
5.9093722873263888
 30
0.0
 10
-1.0976074218749998
 20
5.9079942491319439
 30
0.0
 10
-1.1100097656249999
 20
5.9079942491319439
 30
0.0
  0
LINE
  5
7B
100
AcDbEntity
  8
レイヤー_2
 62
     7
100
AcDbLine
 10
-1.986442
 20
-0.541225
 30
0.0
 11
-1.869998
 21
-0.541225
 31
0.0
  0
LINE
  5
7A
100
AcDbEntity
  8
レイヤー_2
 62
     7
100
AcDbLine
 10
-1.869998
 20
0.525377
 30
0.0
 11
-1.869998
 21
-0.541225
 31
0.0
  0
LINE
  5
79
100
AcDbEntity
  8
レイヤー_2
 62
     7
100
AcDbLine
 10
-1.869998
 20
-0.541225
 30
0.0
 11
-1.986442
 21
-0.743796
 31
0.0
  0
LINE
  5
78
100
AcDbEntity
  8
レイヤー_2
 62
     7
100
AcDbLine
 10
1.869309
 20
-0.541225
 30
0.0
 11
1.986442
 21
-0.541225
 31
0.0
  0
LINE
  5
77
100
AcDbEntity
  8
レイヤー_2
 62
     7
100
AcDbLine
 10
1.869309
 20
-0.541225
 30
0.0
 11
1.869309
 21
0.525377
 31
0.0
  0
LINE
  5
76
100
AcDbEntity
  8
レイヤー_2
 62
     7
100
AcDbLine
 10
1.986442
 20
-0.743796
 30
0.0
 11
1.869309
 21
-0.541225
 31
0.0
  0
LINE
  5
75
100
AcDbEntity
  8
レイヤー_2
 62
     7
100
AcDbLine
 10
1.096229
 20
0.634931
 30
0.0
 11
1.577165
 21
0.634931
 31
0.0
  0
LINE
  5
74
100
AcDbEntity
  8
レイヤー_2
 62
     7
100
AcDbLine
 10
1.096229
 20
3.087839
 30
0.0
 11
1.096229
 21
0.634931
 31
0.0
  0
LINE
  5
73
100
AcDbEntity
  8
レイヤー_2
 62
     7
100
AcDbLine
 10
1.577165
 20
3.087839
 30
0.0
 11
1.096229
 21
3.087839
 31
0.0
  0
LINE
  5
72
100
AcDbEntity
  8
レイヤー_2
 62
     7
100
AcDbLine
 10
1.577165
 20
3.087839
 30
0.0
 11
1.577165
 21
0.634931
 31
0.0
  0
LINE
  5
71
100
AcDbEntity
  8
レイヤー_2
 62
     7
100
AcDbLine
 10
1.752865
 20
4.707034
 30
0.0
 11
0.0
 21
4.707034
 31
0.0
  0
LINE
  5
70
100
AcDbEntity
  8
レイヤー_2
 62
     7
100
AcDbLine
 10
2.453597
 20
0.500572
 30
0.0
 11
0.0
 21
0.500572
 31
0.0
  0
LINE
  5
6F
100
AcDbEntity
  8
レイヤー_2
 62
     7
100
AcDbLine
 10
2.687174
 20
0.634931
 30
0.0
 11
2.453597
 21
0.500572
 31
0.0
  0
LINE
  5
6E
100
AcDbEntity
  8
レイヤー_2
 62
     7
100
AcDbLine
 10
1.752865
 20
4.707034
 30
0.0
 11
2.560395
 21
3.308325
 31
0.0
  0
LINE
  5
6D
100
AcDbEntity
  8
レイヤー_2
 62
     7
100
AcDbLine
 10
2.687174
 20
3.087839
 30
0.0
 11
2.687174
 21
0.634931
 31
0.0
  0
LINE
  5
6C
100
AcDbEntity
  8
レイヤー_2
 62
     7
100
AcDbLine
 10
-1.18029
 20
4.707034
 30
0.0
 11
0.0
 21
4.707034
 31
0.0
  0
LINE
  5
6B
100
AcDbEntity
  8
レイヤー_2
 62
     7
100
AcDbLine
 10
-2.045009
 20
0.500572
 30
0.0
 11
0.0
 21
0.500572
 31
0.0
  0
LINE
  5
6A
100
AcDbEntity
  8
レイヤー_2
 62
     7
100
AcDbLine
 10
-1.577165
 20
0.634931
 30
0.0
 11
-1.096229
 21
0.634931
 31
0.0
  0
LINE
  5
69
100
AcDbEntity
  8
レイヤー_2
 62
     7
100
AcDbLine
 10
-1.096229
 20
0.634931
 30
0.0
 11
-1.096229
 21
3.087839
 31
0.0
  0
LINE
  5
68
100
AcDbEntity
  8
レイヤー_2
 62
     7
100
AcDbLine
 10
-1.096229
 20
3.087839
 30
0.0
 11
-1.577165
 21
3.087839
 31
0.0
  0
LINE
  5
67
100
AcDbEntity
  8
レイヤー_2
 62
     7
100
AcDbLine
 10
-1.577165
 20
0.634931
 30
0.0
 11
-1.577165
 21
3.087839
 31
0.0
  0
LINE
  5
66
100
AcDbEntity
  8
レイヤー_2
 62
     7
100
AcDbLine
 10
0.0
 20
4.707034
 30
0.0
 11
-1.752865
 21
4.707034
 31
0.0
  0
LINE
  5
65
100
AcDbEntity
  8
レイヤー_2
 62
     7
100
AcDbLine
 10
0.0
 20
0.500572
 30
0.0
 11
-2.453597
 21
0.500572
 31
0.0
  0
LINE
  5
64
100
AcDbEntity
  8
レイヤー_2
 62
     7
100
AcDbLine
 10
-2.453597
 20
0.500572
 30
0.0
 11
-2.687863
 21
0.634931
 31
0.0
  0
LINE
  5
63
100
AcDbEntity
  8
レイヤー_2
 62
     7
100
AcDbLine
 10
-2.687863
 20
3.087839
 30
0.0
 11
-1.752865
 21
4.707034
 31
0.0
  0
LINE
  5
62
100
AcDbEntity
  8
レイヤー_2
 62
     7
100
AcDbLine
 10
-2.687863
 20
0.634931
 30
0.0
 11
-2.687863
 21
3.087839
 31
0.0
  0
LINE
  5
61
100
AcDbEntity
  8
レイヤー_2
 62
     7
100
AcDbLine
 10
2.560395
 20
3.308325
 30
0.0
 11
2.687174
 21
3.087839
 31
0.0
  0
SPLINE
  5
60
100
AcDbEntity
  8
レイヤー_2
 62
     7
100
AcDbSpline
210
0.0
220
0.0
230
1.0
 70
     8
 71
     3
 72
     8
 73
     4
 74
     0
 42
0.00000001
 43
0.00000001
 40
0.0
 40
0.0
 40
0.0
 40
0.0
 40
1.0
 40
1.0
 40
1.0
 40
1.0
 10
1.0962293836805554
 20
0.6349310980902777
 30
0.0
 10
0.737939453125
 20
0.5453586154513889
 30
0.0
 10
0.3693142361111111
 20
0.5005723741319444
 30
0.0
 10
0.0
 20
0.5005723741319444
 30
0.0
  0
SPLINE
  5
5F
100
AcDbEntity
  8
レイヤー_2
 62
     7
100
AcDbSpline
210
0.0
220
0.0
230
1.0
 70
     8
 71
     3
 72
     8
 73
     4
 74
     0
 42
0.00000001
 43
0.00000001
 40
0.0
 40
0.0
 40
0.0
 40
0.0
 40
1.0
 40
1.0
 40
1.0
 40
1.0
 10
2.6871744791666665
 20
0.6349310980902777
 30
0.0
 10
2.3392198350694442
 20
0.4550971137152777
 30
0.0
 10
1.9251193576388888
 20
0.4550971137152777
 30
0.0
 10
1.5771647135416664
 20
0.6349310980902777
 30
0.0
  0
SPLINE
  5
5E
100
AcDbEntity
  8
レイヤー_2
 62
     7
100
AcDbSpline
210
0.0
220
0.0
230
1.0
 70
     8
 71
     3
 72
     8
 73
     4
 74
     0
 42
0.00000001
 43
0.00000001
 40
0.0
 40
0.0
 40
0.0
 40
0.0
 40
1.0
 40
1.0
 40
1.0
 40
1.0
 10
0.0
 20
3.4922932942708331
 30
0.0
 10
0.4016981336805555
 20
3.4922932942708331
 30
0.0
 10
0.7903049045138888
 20
3.348977322048611
 30
0.0
 10
1.0962293836805554
 20
3.0878390842013888
 30
0.0
  0
SPLINE
  5
5D
100
AcDbEntity
  8
レイヤー_2
 62
     7
100
AcDbSpline
210
0.0
220
0.0
230
1.0
 70
     8
 71
     3
 72
    11
 73
     7
 74
     0
 42
0.00000001
 43
0.00000001
 40
0.0
 40
0.0
 40
0.0
 40
0.0
 40
1.0
 40
1.0
 40
1.0
 40
2.0
 40
2.0
 40
2.0
 40
2.0
 10
1.5771647135416664
 20
3.0878390842013888
 30
0.0
 10
1.6729383680555554
 20
3.3944525824652776
 30
0.0
 10
1.9988444010416664
 20
3.5653293185763886
 30
0.0
 10
2.3054578993055554
 20
3.4695556640624998
 30
0.0
 10
2.403298611111111
 20
3.4392388237847218
 30
0.0
 10
2.490804036458333
 20
3.3834282769097217
 30
0.0
 10
2.5603949652777773
 20
3.3083251953124999
 30
0.0
  0
SPLINE
  5
5C
100
AcDbEntity
  8
レイヤー_2
 62
     7
100
AcDbSpline
210
0.0
220
0.0
230
1.0
 70
     8
 71
     3
 72
     8
 73
     4
 74
     0
 42
0.00000001
 43
0.00000001
 40
0.0
 40
0.0
 40
0.0
 40
0.0
 40
1.0
 40
1.0
 40
1.0
 40
1.0
 10
0.0
 20
0.5005723741319444
 30
0.0
 10
-0.3693142361111111
 20
0.5005723741319444
 30
0.0
 10
-0.737939453125
 20
0.5453586154513889
 30
0.0
 10
-1.0962293836805554
 20
0.6349310980902777
 30
0.0
  0
SPLINE
  5
5B
100
AcDbEntity
  8
レイヤー_2
 62
     7
100
AcDbSpline
210
0.0
220
0.0
230
1.0
 70
     8
 71
     3
 72
     8
 73
     4
 74
     0
 42
0.00000001
 43
0.00000001
 40
0.0
 40
0.0
 40
0.0
 40
0.0
 40
1.0
 40
1.0
 40
1.0
 40
1.0
 10
-1.5771647135416664
 20
0.6349310980902777
 30
0.0
 10
-1.9251193576388888
 20
0.4550971137152777
 30
0.0
 10
-2.3392198350694442
 20
0.4550971137152777
 30
0.0
 10
-2.6878634982638885
 20
0.6349310980902777
 30
0.0
  0
SPLINE
  5
5A
100
AcDbEntity
  8
レイヤー_2
 62
     7
100
AcDbSpline
210
0.0
220
0.0
230
1.0
 70
     8
 71
     3
 72
     8
 73
     4
 74
     0
 42
0.00000001
 43
0.00000001
 40
0.0
 40
0.0
 40
0.0
 40
0.0
 40
1.0
 40
1.0
 40
1.0
 40
1.0
 10
-1.0962293836805554
 20
3.0878390842013888
 30
0.0
 10
-0.7909939236111111
 20
3.348977322048611
 30
0.0
 10
-0.4016981336805555
 20
3.4922932942708331
 30
0.0
 10
0.0
 20
3.4922932942708331
 30
0.0
  0
SPLINE
  5
59
100
AcDbEntity
  8
レイヤー_2
 62
     7
100
AcDbSpline
210
0.0
220
0.0
230
1.0
 70
     8
 71
     3
 72
    11
 73
     7
 74
     0
 42
0.00000001
 43
0.00000001
 40
0.0
 40
0.0
 40
0.0
 40
0.0
 40
1.0
 40
1.0
 40
1.0
 40
2.0
 40
2.0
 40
2.0
 40
2.0
 10
-2.6878634982638885
 20
3.0878390842013888
 30
0.0
 10
-2.5920898437499997
 20
3.3944525824652776
 30
0.0
 10
-2.2654947916666663
 20
3.5653293185763886
 30
0.0
 10
-1.9588812934027775
 20
3.4695556640624998
 30
0.0
 10
-1.7769802517361108
 20
3.4123670789930554
 30
0.0
 10
-1.6343532986111109
 20
3.2697401258680552
 30
0.0
 10
-1.5771647135416664
 20
3.0878390842013888
 30
0.0
  0
LINE
  5
58
100
AcDbEntity
  8
レイヤー_2
 62
     7
100
AcDbLine
 10
2.775369
 20
-6.131925
 30
0.0
 11
3.037885
 21
-5.990677
 31
0.0
  0
LINE
  5
57
100
AcDbEntity
  8
レイヤー_2
 62
     7
100
AcDbLine
 10
-3.037885
 20
-5.990677
 30
0.0
 11
-2.775369
 21
-6.131925
 31
0.0
  0
LINE
  5
56
100
AcDbEntity
  8
レイヤー_2
 62
     7
100
AcDbLine
 10
3.037885
 20
-1.31706
 30
0.0
 11
2.775369
 21
-1.1765
 31
0.0
  0
LINE
  5
55
100
AcDbEntity
  8
レイヤー_2
 62
     7
100
AcDbLine
 10
-2.775369
 20
-1.1765
 30
0.0
 11
-3.037885
 21
-1.31706
 31
0.0
  0
LINE
  5
54
100
AcDbEntity
  8
レイヤー_2
 62
     7
100
AcDbLine
 10
2.687174
 20
-6.341387
 30
0.0
 11
-2.687863
 21
-6.341387
 31
0.0
  0
LINE
  5
53
100
AcDbEntity
  8
レイヤー_2
 62
     7
100
AcDbLine
 10
1.844504
 20
-5.990677
 30
0.0
 11
1.168576
 21
-5.990677
 31
0.0
  0
LINE
  5
52
100
AcDbEntity
  8
レイヤー_2
 62
     7
100
AcDbLine
 10
-1.168576
 20
-5.990677
 30
0.0
 11
-1.844504
 21
-5.990677
 31
0.0
  0
LINE
  5
51
100
AcDbEntity
  8
レイヤー_2
 62
     7
100
AcDbLine
 10
-3.037885
 20
-5.990677
 30
0.0
 11
-2.687863
 21
-6.341387
 31
0.0
  0
LINE
  5
50
100
AcDbEntity
  8
レイヤー_2
 62
     7
100
AcDbLine
 10
3.037885
 20
-5.990677
 30
0.0
 11
2.687174
 21
-6.341387
 31
0.0
  0
LINE
  5
4F
100
AcDbEntity
  8
レイヤー_2
 62
     7
100
AcDbLine
 10
-2.687863
 20
-0.966349
 30
0.0
 11
2.687174
 21
-0.966349
 31
0.0
  0
LINE
  5
4E
100
AcDbEntity
  8
レイヤー_2
 62
     7
100
AcDbLine
 10
-2.687863
 20
-0.966349
 30
0.0
 11
-3.037885
 21
-1.31706
 31
0.0
  0
LINE
  5
4D
100
AcDbEntity
  8
レイヤー_2
 62
     7
100
AcDbLine
 10
-1.844504
 20
-1.31706
 30
0.0
 11
-1.168576
 21
-1.31706
 31
0.0
  0
LINE
  5
4C
100
AcDbEntity
  8
レイヤー_2
 62
     7
100
AcDbLine
 10
1.168576
 20
-1.31706
 30
0.0
 11
1.844504
 21
-1.31706
 31
0.0
  0
LINE
  5
4B
100
AcDbEntity
  8
レイヤー_2
 62
     7
100
AcDbLine
 10
2.687174
 20
-0.966349
 30
0.0
 11
3.037885
 21
-1.31706
 31
0.0
  0
LINE
  5
4A
100
AcDbEntity
  8
レイヤー_2
 62
     7
100
AcDbLine
 10
3.037885
 20
-5.990677
 30
0.0
 11
3.037885
 21
-1.31706
 31
0.0
  0
LINE
  5
49
100
AcDbEntity
  8
レイヤー_2
 62
     7
100
AcDbLine
 10
1.844504
 20
-5.990677
 30
0.0
 11
1.844504
 21
-1.31706
 31
0.0
  0
LINE
  5
48
100
AcDbEntity
  8
レイヤー_2
 62
     7
100
AcDbLine
 10
1.168576
 20
-5.990677
 30
0.0
 11
1.168576
 21
-1.31706
 31
0.0
  0
LINE
  5
47
100
AcDbEntity
  8
レイヤー_2
 62
     7
100
AcDbLine
 10
-1.168576
 20
-5.990677
 30
0.0
 11
-1.168576
 21
-1.31706
 31
0.0
  0
LINE
  5
46
100
AcDbEntity
  8
レイヤー_2
 62
     7
100
AcDbLine
 10
-1.844504
 20
-5.990677
 30
0.0
 11
-1.844504
 21
-1.31706
 31
0.0
  0
LINE
  5
45
100
AcDbEntity
  8
レイヤー_2
 62
     7
100
AcDbLine
 10
-3.037885
 20
-5.990677
 30
0.0
 11
-3.037885
 21
-1.31706
 31
0.0
  0
SPLINE
  5
44
100
AcDbEntity
  8
レイヤー_2
 62
     7
100
AcDbSpline
210
0.0
220
0.0
230
1.0
 70
     8
 71
     3
 72
     8
 73
     4
 74
     0
 42
0.00000001
 43
0.00000001
 40
0.0
 40
0.0
 40
0.0
 40
0.0
 40
1.0
 40
1.0
 40
1.0
 40
1.0
 10
2.775368923611111
 20
-6.1319254557291663
 30
0.0
 10
2.4680664062499997
 20
-6.2959120008680554
 30
0.0
 10
2.0891059027777774
 20
-6.2387234157986109
 30
0.0
 10
1.8445041232638888
 20
-5.9906765407986109
 30
0.0
  0
SPLINE
  5
43
100
AcDbEntity
  8
レイヤー_2
 62
     7
100
AcDbSpline
210
0.0
220
0.0
230
1.0
 70
     8
 71
     3
 72
     8
 73
     4
 74
     0
 42
0.00000001
 43
0.00000001
 40
0.0
 40
0.0
 40
0.0
 40
0.0
 40
1.0
 40
1.0
 40
1.0
 40
1.0
 10
-1.8445041232638888
 20
-5.9906765407986109
 30
0.0
 10
-2.0891059027777774
 20
-6.2387234157986109
 30
0.0
 10
-2.4680664062499997
 20
-6.2959120008680554
 30
0.0
 10
-2.775368923611111
 20
-6.1319254557291663
 30
0.0
  0
SPLINE
  5
42
100
AcDbEntity
  8
レイヤー_2
 62
     7
100
AcDbSpline
210
0.0
220
0.0
230
1.0
 70
     8
 71
     3
 72
     8
 73
     4
 74
     0
 42
0.00000001
 43
0.00000001
 40
0.0
 40
0.0
 40
0.0
 40
0.0
 40
1.0
 40
1.0
 40
1.0
 40
1.0
 10
1.1685763888888887
 20
-5.9906765407986109
 30
0.0
 10
0.4203016493055555
 20
-6.3028021918402768
 30
0.0
 10
-0.4209906684027777
 20
-6.3028021918402768
 30
0.0
 10
-1.1685763888888887
 20
-5.9906765407986109
 30
0.0
  0
SPLINE
  5
41
100
AcDbEntity
  8
レイヤー_2
 62
     7
100
AcDbSpline
210
0.0
220
0.0
230
1.0
 70
     8
 71
     3
 72
     8
 73
     4
 74
     0
 42
0.00000001
 43
0.00000001
 40
0.0
 40
0.0
 40
0.0
 40
0.0
 40
1.0
 40
1.0
 40
1.0
 40
1.0
 10
1.8445041232638888
 20
-1.3170600043402776
 30
0.0
 10
2.0891059027777774
 20
-1.0690131293402776
 30
0.0
 10
2.4680664062499997
 20
-1.0118245442708333
 30
0.0
 10
2.775368923611111
 20
-1.1765001085069444
 30
0.0
  0
SPLINE
  5
40
100
AcDbEntity
  8
レイヤー_2
 62
     7
100
AcDbSpline
210
0.0
220
0.0
230
1.0
 70
     8
 71
     3
 72
     8
 73
     4
 74
     0
 42
0.00000001
 43
0.00000001
 40
0.0
 40
0.0
 40
0.0
 40
0.0
 40
1.0
 40
1.0
 40
1.0
 40
1.0
 10
-2.775368923611111
 20
-1.1765001085069444
 30
0.0
 10
-2.4680664062499997
 20
-1.0118245442708333
 30
0.0
 10
-2.0891059027777774
 20
-1.0690131293402776
 30
0.0
 10
-1.8445041232638888
 20
-1.3170600043402776
 30
0.0
  0
SPLINE
  5
3F
100
AcDbEntity
  8
レイヤー_2
 62
     7
100
AcDbSpline
210
0.0
220
0.0
230
1.0
 70
     8
 71
     3
 72
     8
 73
     4
 74
     0
 42
0.00000001
 43
0.00000001
 40
0.0
 40
0.0
 40
0.0
 40
0.0
 40
1.0
 40
1.0
 40
1.0
 40
1.0
 10
-1.1685763888888887
 20
-1.3170600043402776
 30
0.0
 10
-0.4209906684027777
 20
-1.0056233723958332
 30
0.0
 10
0.4203016493055555
 20
-1.0056233723958332
 30
0.0
 10
1.1685763888888887
 20
-1.3170600043402776
 30
0.0
  0
LINE
  5
3E
100
AcDbEntity
  8
レイヤー_2
 62
     7
100
AcDbLine
 10
1.11001
 20
4.707034
 30
0.0
 11
1.11001
 21
6.306247
 31
0.0
  0
LINE
  5
3D
100
AcDbEntity
  8
レイヤー_2
 62
     7
100
AcDbLine
 10
-1.11001
 20
4.707034
 30
0.0
 11
-1.11001
 21
5.907994
 31
0.0
  0
LINE
  5
3C
100
AcDbEntity
  8
レイヤー_2
 62
     7
100
AcDbLine
 10
-1.986442
 20
-0.743796
 30
0.0
 11
-1.986442
 21
0.500572
 31
0.0
  0
LINE
  5
3B
100
AcDbEntity
  8
レイヤー_2
 62
     7
100
AcDbLine
 10
1.986442
 20
0.500572
 30
0.0
 11
1.986442
 21
-0.743796
 31
0.0
  0
LINE
  5
3A
100
AcDbEntity
  8
レイヤー_2
 62
     7
100
AcDbLine
 10
1.869309
 20
-0.541225
 30
0.0
 11
-1.869998
 21
-0.541225
 31
0.0
  0
ENDBLK
  5
7D
100
AcDbEntity
  8
レイヤー_2
100
AcDbBlockEnd
  0
BLOCK
  5
84
100
AcDbEntity
  8
レイヤー_2
  6
AI9-LType1
 62
     7
100
AcDbBlockBegin
  2
AI9-BLK5
 70
     0
 10
0.0
 20
0.0
 30
0.0
  3
AI9-BLK5
  1

  0
MTEXT
  5
D3
100
AcDbEntity
  8
レイヤー_2
  6
AI9-LType1
 62
     7
100
AcDbMText
 10
-3.864191
 20
-30.429138
 30
0.0
 40
4.724702
 41
0.0
 71
     1
 72
     2
  1
\fMS PGothic|b0|i0|c128;\H4.7247;\C7;\U+0047\U+0031\U+002F\U+0032
  7
STD
210
0.0
220
0.0
230
1.0
 73
     1
 44
1.0
  0
INSERT
  5
86
100
AcDbEntity
  8
レイヤー_2
  6
AI9-LType1
 62
     7
100
AcDbBlockReference
  2
AI9-BLK6
 10
-0.178284
 20
3.65938
 30
0.0
  0
ENDBLK
  5
D4
100
AcDbEntity
  8
レイヤー_2
100
AcDbBlockEnd
  0
BLOCK
  5
87
100
AcDbEntity
  8
レイヤー_2
  6
AI9-LType1
 62
     7
100
AcDbBlockBegin
  2
AI9-BLK6
 70
     0
 10
0.0
 20
0.0
 30
0.0
  3
AI9-BLK6
  1

  0
LINE
  5
D1
100
AcDbEntity
  8
レイヤー_2
  6
AI9-LType1
 62
     7
100
AcDbLine
 10
-8.694387
 20
-23.043641
 30
0.0
 11
-8.694387
 21
32.27443
 31
0.0
  0
LINE
  5
D0
100
AcDbEntity
  8
レイヤー_2
  6
AI9-LType1
 62
     7
100
AcDbLine
 10
-8.570364
 20
-22.962337
 30
0.0
 11
5.567619
 21
-11.322048
 31
0.0
  0
LINE
  5
CF
100
AcDbEntity
  8
レイヤー_2
  6
AI9-LType1
 62
     7
100
AcDbLine
 10
5.567619
 20
-11.322048
 30
0.0
 11
5.567619
 21
-32.27443
 31
0.0
  0
INSERT
  5
89
100
AcDbEntity
  8
レイヤー_2
  6
AI9-LType1
 62
     7
100
AcDbBlockReference
  2
AI9-BLK7
 10
5.567963
 20
-25.232138
 30
0.0
  0
ENDBLK
  5
D2
100
AcDbEntity
  8
レイヤー_2
100
AcDbBlockEnd
  0
BLOCK
  5
8A
100
AcDbEntity
  8
レイヤー_2
  6
AI9-LType1
 62
     7
100
AcDbBlockBegin
  2
AI9-BLK7
 70
     0
 10
0.0
 20
0.0
 30
0.0
  3
AI9-BLK7
  1

  0
SPLINE
  5
CD
100
AcDbEntity
  8
レイヤー_2
 62
     7
100
AcDbSpline
210
0.0
220
0.0
230
1.0
 70
     8
 71
     3
 72
    95
 73
    91
 74
     0
 42
0.00000001
 43
0.00000001
 40
0.0
 40
0.0
 40
0.0
 40
0.0
 40
1.0
 40
1.0
 40
1.0
 40
2.0
 40
2.0
 40
2.0
 40
3.0
 40
3.0
 40
3.0
 40
4.0
 40
4.0
 40
4.0
 40
5.0
 40
5.0
 40
5.0
 40
6.0
 40
6.0
 40
6.0
 40
7.0
 40
7.0
 40
7.0
 40
8.0
 40
8.0
 40
8.0
 40
9.0
 40
9.0
 40
9.0
 40
10.0
 40
10.0
 40
10.0
 40
11.0
 40
11.0
 40
11.0
 40
12.0
 40
12.0
 40
12.0
 40
13.0
 40
13.0
 40
13.0
 40
14.0
 40
14.0
 40
14.0
 40
15.0
 40
15.0
 40
15.0
 40
16.0
 40
16.0
 40
16.0
 40
17.0
 40
17.0
 40
17.0
 40
18.0
 40
18.0
 40
18.0
 40
19.0
 40
19.0
 40
19.0
 40
20.0
 40
20.0
 40
20.0
 40
21.0
 40
21.0
 40
21.0
 40
22.0
 40
22.0
 40
22.0
 40
23.0
 40
23.0
 40
23.0
 40
24.0
 40
24.0
 40
24.0
 40
25.0
 40
25.0
 40
25.0
 40
26.0
 40
26.0
 40
26.0
 40
27.0
 40
27.0
 40
27.0
 40
28.0
 40
28.0
 40
28.0
 40
29.0
 40
29.0
 40
29.0
 40
30.0
 40
30.0
 40
30.0
 40
30.0
 10
-1.1103542751736111
 20
6.2991848415798604
 30
0.0
 10
-1.097951931423611
 20
6.2957397460937496
 30
0.0
 10
-1.085549587673611
 20
6.292294650607638
 30
0.0
 10
-1.0731472439236109
 20
6.2888495551215273
 30
0.0
 10
-1.0607449001736111
 20
6.2854044596354157
 30
0.0
 10
-1.0483425564236111
 20
6.282648383246527
 30
0.0
 10
-1.035940212673611
 20
6.2798923068576382
 30
0.0
 10
-1.023537868923611
 20
6.2771362304687495
 30
0.0
 10
-1.0111355251736109
 20
6.2743801540798607
 30
0.0
 10
-0.998733181423611
 20
6.2723130967881939
 30
0.0
 10
-0.9863308376736111
 20
6.2702460394965271
 30
0.0
 10
-0.973928493923611
 20
6.2688680013020823
 30
0.0
 10
-0.9608371310763888
 20
6.2674899631076384
 30
0.0
 10
-0.9484347873263888
 20
6.2661119249131936
 30
0.0
 10
-0.9360324435763888
 20
6.2661119249131936
 30
0.0
 10
-0.9229410807291666
 20
6.2661119249131936
 30
0.0
 10
-0.8946912977430555
 20
6.2668009440104164
 30
0.0
 10
-0.8664415147569444
 20
6.2702460394965271
 30
0.0
 10
-0.8388807508680555
 20
6.2771362304687495
 30
0.0
 10
-0.8099419487847221
 20
6.2840264214409718
 30
0.0
 10
-0.781692165798611
 20
6.2916056315104161
 30
0.0
 10
-0.7541314019097222
 20
6.2998738606770823
 30
0.0
 10
-0.725881618923611
 20
6.3081420898437495
 30
0.0
 10
-0.6976318359374999
 20
6.3164103190104157
 30
0.0
 10
-0.6700710720486111
 20
6.3239895290798609
 30
0.0
 10
-0.6431993272569444
 20
6.3308797200520823
 30
0.0
 10
-0.6156385633680555
 20
6.3363918728298607
 30
0.0
 10
-0.5880777994791666
 20
6.3398369683159714
 30
0.0
 10
-0.5625840928819444
 20
6.3425930447048602
 30
0.0
 10
-0.5357123480902777
 20
6.3419040256076382
 30
0.0
 10
-0.5102186414930555
 20
6.3370808919270827
 30
0.0
 10
-0.4716335720486111
 20
6.3281236436631936
 30
0.0
 10
-0.4351155598958333
 20
6.3115871853298602
 30
0.0
 10
-0.4034206814236111
 20
6.2881605360243054
 30
0.0
 10
-0.3675916883680555
 20
6.2619778103298609
 30
0.0
 10
-0.3338297526041666
 20
6.2337280273437496
 30
0.0
 10
-0.3028238932291666
 20
6.2027221679687496
 30
0.0
 10
-0.2704399956597222
 20
6.1703382703993048
 30
0.0
 10
-0.2373670789930555
 20
6.1386433919270829
 30
0.0
 10
-0.2049831814236111
 20
6.1069485134548609
 30
0.0
 10
-0.1739773220486111
 20
6.0773206922743048
 30
0.0
 10
-0.1409044053819444
 20
6.0504489474826384
 30
0.0
 10
-0.1050754123263889
 20
6.0263332790798607
 30
0.0
 10
-0.0740695529513889
 20
6.0049736870659718
 30
0.0
 10
-0.0375515407986111
 20
5.9918823242187491
 30
0.0
 10
-0.0003445095486111
 20
5.9863701714409716
 30
0.0
 10
0.0368625217013889
 20
5.982236056857638
 30
0.0
 10
0.0740695529513889
 20
5.9870591905381936
 30
0.0
 10
0.1078314887152778
 20
6.002217610677083
 30
0.0
 10
0.1457275390625
 20
6.0187540690104164
 30
0.0
 10
0.1829345703125
 20
6.0359795464409718
 30
0.0
 10
0.2208306206597222
 20
6.0532050238715271
 30
0.0
 10
0.2601047092013888
 20
6.0718085394965273
 30
0.0
 10
0.2986897786458333
 20
6.0924791124131943
 30
0.0
 10
0.3358968098958333
 20
6.1152167426215271
 30
0.0
 10
0.3717258029513889
 20
6.1351982964409713
 30
0.0
 10
0.4096218532986111
 20
6.1517347547743046
 30
0.0
 10
0.4482069227430555
 20
6.1648261176215273
 30
0.0
 10
0.4826578776041666
 20
6.1765394422743052
 30
0.0
 10
0.5191758897569444
 20
6.1806735568576388
 30
0.0
 10
0.5550048828124999
 20
6.1765394422743052
 30
0.0
 10
0.5811876085069444
 20
6.1724053276909716
 30
0.0
 10
0.6066813151041666
 20
6.1634480794270825
 30
0.0
 10
0.6294189453125
 20
6.1503567165798607
 30
0.0
 10
0.6542236328125
 20
6.1358873155381941
 30
0.0
 10
0.6783393012152778
 20
6.1193508572048607
 30
0.0
 10
0.7010769314236111
 20
6.1014363606770825
 30
0.0
 10
0.7245035807291667
 20
6.0821438259548604
 30
0.0
 10
0.7486192491319443
 20
6.0621622721354163
 30
0.0
 10
0.7720458984374999
 20
6.0421807183159713
 30
0.0
 10
0.7954725477430555
 20
6.0221991644965271
 30
0.0
 10
0.8195882161458332
 20
6.002906629774305
 30
0.0
 10
0.8450819227430555
 20
5.9849921332465268
 30
0.0
 10
0.8691975911458333
 20
5.9670776367187495
 30
0.0
 10
0.8953803168402778
 20
5.9526082356770829
 30
0.0
 10
0.9229410807291666
 20
5.940894911024305
 30
0.0
 10
0.9346544053819443
 20
5.9353827582465275
 30
0.0
 10
0.9463677300347222
 20
5.9312486436631939
 30
0.0
 10
0.9587700737847221
 20
5.9284925672743052
 30
0.0
 10
0.9711724175347222
 20
5.9250474717881936
 30
0.0
 10
0.9835747612847221
 20
5.9222913953993048
 30
0.0
 10
0.9959771050347221
 20
5.9195353190104161
 30
0.0
 10
1.0083794487847222
 20
5.9174682617187493
 30
0.0
 10
1.0207817925347222
 20
5.9154012044270825
 30
0.0
 10
1.0331841362847221
 20
5.9140231662326386
 30
0.0
 10
1.0462754991319443
 20
5.9126451280381938
 30
0.0
 10
1.0586778428819443
 20
5.9119561089409718
 30
0.0
 10
1.0717692057291666
 20
5.910578070746527
 30
0.0
 10
1.0841715494791666
 20
5.909200032552083
 30
0.0
 10
1.0972629123263888
 20
5.9085110134548602
 30
0.0
 10
1.1096652560763889
 20
5.9078219943576382
 30
0.0
  0
LINE
  5
CC
100
AcDbEntity
  8
レイヤー_2
 62
     7
100
AcDbLine
 10
1.986098
 20
-0.541397
 30
0.0
 11
1.869653
 21
-0.541397
 31
0.0
  0
LINE
  5
CB
100
AcDbEntity
  8
レイヤー_2
 62
     7
100
AcDbLine
 10
1.869653
 20
0.525894
 30
0.0
 11
1.869653
 21
-0.541397
 31
0.0
  0
LINE
  5
CA
100
AcDbEntity
  8
レイヤー_2
 62
     7
100
AcDbLine
 10
1.869653
 20
-0.541397
 30
0.0
 11
1.986098
 21
-0.743279
 31
0.0
  0
LINE
  5
C9
100
AcDbEntity
  8
レイヤー_2
 62
     7
100
AcDbLine
 10
-1.869653
 20
-0.541397
 30
0.0
 11
-1.986787
 21
-0.541397
 31
0.0
  0
LINE
  5
C8
100
AcDbEntity
  8
レイヤー_2
 62
     7
100
AcDbLine
 10
-1.869653
 20
-0.541397
 30
0.0
 11
-1.869653
 21
0.525894
 31
0.0
  0
LINE
  5
C7
100
AcDbEntity
  8
レイヤー_2
 62
     7
100
AcDbLine
 10
-1.986787
 20
-0.743279
 30
0.0
 11
-1.869653
 21
-0.541397
 31
0.0
  0
LINE
  5
C6
100
AcDbEntity
  8
レイヤー_2
 62
     7
100
AcDbLine
 10
-1.096574
 20
0.635448
 30
0.0
 11
-1.57682
 21
0.635448
 31
0.0
  0
LINE
  5
C5
100
AcDbEntity
  8
レイヤー_2
 62
     7
100
AcDbLine
 10
-1.096574
 20
3.087667
 30
0.0
 11
-1.096574
 21
0.635448
 31
0.0
  0
LINE
  5
C4
100
AcDbEntity
  8
レイヤー_2
 62
     7
100
AcDbLine
 10
-1.57682
 20
3.087667
 30
0.0
 11
-1.096574
 21
3.087667
 31
0.0
  0
LINE
  5
C3
100
AcDbEntity
  8
レイヤー_2
 62
     7
100
AcDbLine
 10
-1.57682
 20
3.087667
 30
0.0
 11
-1.57682
 21
0.635448
 31
0.0
  0
LINE
  5
C2
100
AcDbEntity
  8
レイヤー_2
 62
     7
100
AcDbLine
 10
-1.75252
 20
4.706862
 30
0.0
 11
-0.000345
 21
4.706862
 31
0.0
  0
LINE
  5
C1
100
AcDbEntity
  8
レイヤー_2
 62
     7
100
AcDbLine
 10
-2.453942
 20
0.5004
 30
0.0
 11
-0.000345
 21
0.5004
 31
0.0
  0
LINE
  5
C0
100
AcDbEntity
  8
レイヤー_2
 62
     7
100
AcDbLine
 10
-2.687519
 20
0.635448
 30
0.0
 11
-2.453942
 21
0.5004
 31
0.0
  0
LINE
  5
BF
100
AcDbEntity
  8
レイヤー_2
 62
     7
100
AcDbLine
 10
-1.75252
 20
4.706862
 30
0.0
 11
-2.56005
 21
3.308842
 31
0.0
  0
LINE
  5
BE
100
AcDbEntity
  8
レイヤー_2
 62
     7
100
AcDbLine
 10
-2.687519
 20
3.087667
 30
0.0
 11
-2.687519
 21
0.635448
 31
0.0
  0
LINE
  5
BD
100
AcDbEntity
  8
レイヤー_2
 62
     7
100
AcDbLine
 10
1.179945
 20
4.706862
 30
0.0
 11
-0.000345
 21
4.706862
 31
0.0
  0
LINE
  5
BC
100
AcDbEntity
  8
レイヤー_2
 62
     7
100
AcDbLine
 10
2.044664
 20
0.5004
 30
0.0
 11
-0.000345
 21
0.5004
 31
0.0
  0
LINE
  5
BB
100
AcDbEntity
  8
レイヤー_2
 62
     7
100
AcDbLine
 10
1.57682
 20
0.635448
 30
0.0
 11
1.095885
 21
0.635448
 31
0.0
  0
LINE
  5
BA
100
AcDbEntity
  8
レイヤー_2
 62
     7
100
AcDbLine
 10
1.095885
 20
0.635448
 30
0.0
 11
1.095885
 21
3.087667
 31
0.0
  0
LINE
  5
B9
100
AcDbEntity
  8
レイヤー_2
 62
     7
100
AcDbLine
 10
1.095885
 20
3.087667
 30
0.0
 11
1.57682
 21
3.087667
 31
0.0
  0
LINE
  5
B8
100
AcDbEntity
  8
レイヤー_2
 62
     7
100
AcDbLine
 10
1.57682
 20
0.635448
 30
0.0
 11
1.57682
 21
3.087667
 31
0.0
  0
LINE
  5
B7
100
AcDbEntity
  8
レイヤー_2
 62
     7
100
AcDbLine
 10
-0.000345
 20
4.706862
 30
0.0
 11
1.75252
 21
4.706862
 31
0.0
  0
LINE
  5
B6
100
AcDbEntity
  8
レイヤー_2
 62
     7
100
AcDbLine
 10
-0.000345
 20
0.5004
 30
0.0
 11
2.453942
 21
0.5004
 31
0.0
  0
LINE
  5
B5
100
AcDbEntity
  8
レイヤー_2
 62
     7
100
AcDbLine
 10
2.453942
 20
0.5004
 30
0.0
 11
2.687519
 21
0.635448
 31
0.0
  0
LINE
  5
B4
100
AcDbEntity
  8
レイヤー_2
 62
     7
100
AcDbLine
 10
2.687519
 20
3.087667
 30
0.0
 11
1.75252
 21
4.706862
 31
0.0
  0
LINE
  5
B3
100
AcDbEntity
  8
レイヤー_2
 62
     7
100
AcDbLine
 10
2.687519
 20
0.635448
 30
0.0
 11
2.687519
 21
3.087667
 31
0.0
  0
LINE
  5
B2
100
AcDbEntity
  8
レイヤー_2
 62
     7
100
AcDbLine
 10
-2.56005
 20
3.308842
 30
0.0
 11
-2.687519
 21
3.087667
 31
0.0
  0
SPLINE
  5
B1
100
AcDbEntity
  8
レイヤー_2
 62
     7
100
AcDbSpline
210
0.0
220
0.0
230
1.0
 70
     8
 71
     3
 72
     8
 73
     4
 74
     0
 42
0.00000001
 43
0.00000001
 40
0.0
 40
0.0
 40
0.0
 40
0.0
 40
1.0
 40
1.0
 40
1.0
 40
1.0
 10
-1.0965738932291667
 20
0.6354478624131944
 30
0.0
 10
-0.7375949435763888
 20
0.5458753797743056
 30
0.0
 10
-0.3696587456597222
 20
0.5004001193576388
 30
0.0
 10
-0.0003445095486111
 20
0.5004001193576388
 30
0.0
  0
SPLINE
  5
B0
100
AcDbEntity
  8
レイヤー_2
 62
     7
100
AcDbSpline
210
0.0
220
0.0
230
1.0
 70
     8
 71
     3
 72
     8
 73
     4
 74
     0
 42
0.00000001
 43
0.00000001
 40
0.0
 40
0.0
 40
0.0
 40
0.0
 40
1.0
 40
1.0
 40
1.0
 40
1.0
 10
-2.6875189887152775
 20
0.6354478624131944
 30
0.0
 10
-2.3395643446180552
 20
0.4549248589409722
 30
0.0
 10
-1.9254638671874997
 20
0.4549248589409722
 30
0.0
 10
-1.5768202039930554
 20
0.6354478624131944
 30
0.0
  0
SPLINE
  5
AF
100
AcDbEntity
  8
レイヤー_2
 62
     7
100
AcDbSpline
210
0.0
220
0.0
230
1.0
 70
     8
 71
     3
 72
     8
 73
     4
 74
     0
 42
0.00000001
 43
0.00000001
 40
0.0
 40
0.0
 40
0.0
 40
0.0
 40
1.0
 40
1.0
 40
1.0
 40
1.0
 10
-0.0003445095486111
 20
3.4928100585937498
 30
0.0
 10
-0.4020426432291666
 20
3.4928100585937498
 30
0.0
 10
-0.7906494140624999
 20
3.3494940863715277
 30
0.0
 10
-1.0965738932291667
 20
3.087666829427083
 30
0.0
  0
SPLINE
  5
AE
100
AcDbEntity
  8
レイヤー_2
 62
     7
100
AcDbSpline
210
0.0
220
0.0
230
1.0
 70
     8
 71
     3
 72
    11
 73
     7
 74
     0
 42
0.00000001
 43
0.00000001
 40
0.0
 40
0.0
 40
0.0
 40
0.0
 40
1.0
 40
1.0
 40
1.0
 40
2.0
 40
2.0
 40
2.0
 40
2.0
 10
-1.5768202039930554
 20
3.087666829427083
 30
0.0
 10
-1.6725938585069442
 20
3.3949693467881943
 30
0.0
 10
-1.9991889105902776
 20
3.5658460828993053
 30
0.0
 10
-2.3058024088541664
 20
3.4693834092881941
 30
0.0
 10
-2.403643120659722
 20
3.4390665690104165
 30
0.0
 10
-2.491148546006944
 20
3.3839450412326384
 30
0.0
 10
-2.5600504557291663
 20
3.3088419596354162
 30
0.0
  0
SPLINE
  5
AD
100
AcDbEntity
  8
レイヤー_2
 62
     7
100
AcDbSpline
210
0.0
220
0.0
230
1.0
 70
     8
 71
     3
 72
     8
 73
     4
 74
     0
 42
0.00000001
 43
0.00000001
 40
0.0
 40
0.0
 40
0.0
 40
0.0
 40
1.0
 40
1.0
 40
1.0
 40
1.0
 10
-0.0003445095486111
 20
0.5004001193576388
 30
0.0
 10
0.3696587456597222
 20
0.5004001193576388
 30
0.0
 10
0.7375949435763888
 20
0.5458753797743056
 30
0.0
 10
1.0958848741319442
 20
0.6354478624131944
 30
0.0
  0
SPLINE
  5
AC
100
AcDbEntity
  8
レイヤー_2
 62
     7
100
AcDbSpline
210
0.0
220
0.0
230
1.0
 70
     8
 71
     3
 72
     8
 73
     4
 74
     0
 42
0.00000001
 43
0.00000001
 40
0.0
 40
0.0
 40
0.0
 40
0.0
 40
1.0
 40
1.0
 40
1.0
 40
1.0
 10
1.5768202039930554
 20
0.6354478624131944
 30
0.0
 10
1.9254638671874997
 20
0.4549248589409722
 30
0.0
 10
2.3395643446180552
 20
0.4549248589409722
 30
0.0
 10
2.6875189887152775
 20
0.6354478624131944
 30
0.0
  0
SPLINE
  5
AB
100
AcDbEntity
  8
レイヤー_2
 62
     7
100
AcDbSpline
210
0.0
220
0.0
230
1.0
 70
     8
 71
     3
 72
     8
 73
     4
 74
     0
 42
0.00000001
 43
0.00000001
 40
0.0
 40
0.0
 40
0.0
 40
0.0
 40
1.0
 40
1.0
 40
1.0
 40
1.0
 10
1.0958848741319442
 20
3.087666829427083
 30
0.0
 10
0.7906494140624999
 20
3.3494940863715277
 30
0.0
 10
0.4020426432291666
 20
3.4928100585937498
 30
0.0
 10
-0.0003445095486111
 20
3.4928100585937498
 30
0.0
  0
SPLINE
  5
AA
100
AcDbEntity
  8
レイヤー_2
 62
     7
100
AcDbSpline
210
0.0
220
0.0
230
1.0
 70
     8
 71
     3
 72
    11
 73
     7
 74
     0
 42
0.00000001
 43
0.00000001
 40
0.0
 40
0.0
 40
0.0
 40
0.0
 40
1.0
 40
1.0
 40
1.0
 40
2.0
 40
2.0
 40
2.0
 40
2.0
 10
2.6875189887152775
 20
3.087666829427083
 30
0.0
 10
2.5917453342013888
 20
3.3949693467881943
 30
0.0
 10
2.2651502821180554
 20
3.5658460828993053
 30
0.0
 10
1.9585367838541665
 20
3.4693834092881941
 30
0.0
 10
1.7766357421874999
 20
3.4128838433159721
 30
0.0
 10
1.6340087890624999
 20
3.2702568901909719
 30
0.0
 10
1.5768202039930554
 20
3.087666829427083
 30
0.0
  0
LINE
  5
A9
100
AcDbEntity
  8
レイヤー_2
 62
     7
100
AcDbLine
 10
-2.775024
 20
-6.131409
 30
0.0
 11
-3.03823
 21
-5.990849
 31
0.0
  0
LINE
  5
A8
100
AcDbEntity
  8
レイヤー_2
 62
     7
100
AcDbLine
 10
3.03823
 20
-5.990849
 30
0.0
 11
2.775024
 21
-6.131409
 31
0.0
  0
LINE
  5
A7
100
AcDbEntity
  8
レイヤー_2
 62
     7
100
AcDbLine
 10
-3.03823
 20
-1.316543
 30
0.0
 11
-2.775024
 21
-1.175983
 31
0.0
  0
LINE
  5
A6
100
AcDbEntity
  8
レイヤー_2
 62
     7
100
AcDbLine
 10
2.775024
 20
-1.175983
 30
0.0
 11
3.03823
 21
-1.316543
 31
0.0
  0
LINE
  5
A5
100
AcDbEntity
  8
レイヤー_2
 62
     7
100
AcDbLine
 10
-2.687519
 20
-6.34156
 30
0.0
 11
2.687519
 21
-6.34156
 31
0.0
  0
LINE
  5
A4
100
AcDbEntity
  8
レイヤー_2
 62
     7
100
AcDbLine
 10
-1.844849
 20
-5.990849
 30
0.0
 11
-1.168921
 21
-5.990849
 31
0.0
  0
LINE
  5
A3
100
AcDbEntity
  8
レイヤー_2
 62
     7
100
AcDbLine
 10
1.168232
 20
-5.990849
 30
0.0
 11
1.84416
 21
-5.990849
 31
0.0
  0
LINE
  5
A2
100
AcDbEntity
  8
レイヤー_2
 62
     7
100
AcDbLine
 10
3.03823
 20
-5.990849
 30
0.0
 11
2.687519
 21
-6.34156
 31
0.0
  0
LINE
  5
A1
100
AcDbEntity
  8
レイヤー_2
 62
     7
100
AcDbLine
 10
-3.03823
 20
-5.990849
 30
0.0
 11
-2.687519
 21
-6.34156
 31
0.0
  0
LINE
  5
A0
100
AcDbEntity
  8
レイヤー_2
 62
     7
100
AcDbLine
 10
2.687519
 20
-0.965833
 30
0.0
 11
-2.687519
 21
-0.965833
 31
0.0
  0
LINE
  5
9F
100
AcDbEntity
  8
レイヤー_2
 62
     7
100
AcDbLine
 10
2.687519
 20
-0.965833
 30
0.0
 11
3.03823
 21
-1.316543
 31
0.0
  0
LINE
  5
9E
100
AcDbEntity
  8
レイヤー_2
 62
     7
100
AcDbLine
 10
1.84416
 20
-1.316543
 30
0.0
 11
1.168232
 21
-1.316543
 31
0.0
  0
LINE
  5
9D
100
AcDbEntity
  8
レイヤー_2
 62
     7
100
AcDbLine
 10
-1.168921
 20
-1.316543
 30
0.0
 11
-1.844849
 21
-1.316543
 31
0.0
  0
LINE
  5
9C
100
AcDbEntity
  8
レイヤー_2
 62
     7
100
AcDbLine
 10
-2.687519
 20
-0.965833
 30
0.0
 11
-3.03823
 21
-1.316543
 31
0.0
  0
LINE
  5
9B
100
AcDbEntity
  8
レイヤー_2
 62
     7
100
AcDbLine
 10
-3.03823
 20
-5.990849
 30
0.0
 11
-3.03823
 21
-1.316543
 31
0.0
  0
LINE
  5
9A
100
AcDbEntity
  8
レイヤー_2
 62
     7
100
AcDbLine
 10
-1.844849
 20
-5.990849
 30
0.0
 11
-1.844849
 21
-1.316543
 31
0.0
  0
LINE
  5
99
100
AcDbEntity
  8
レイヤー_2
 62
     7
100
AcDbLine
 10
-1.168921
 20
-5.990849
 30
0.0
 11
-1.168921
 21
-1.316543
 31
0.0
  0
LINE
  5
98
100
AcDbEntity
  8
レイヤー_2
 62
     7
100
AcDbLine
 10
1.168232
 20
-5.990849
 30
0.0
 11
1.168232
 21
-1.316543
 31
0.0
  0
LINE
  5
97
100
AcDbEntity
  8
レイヤー_2
 62
     7
100
AcDbLine
 10
1.84416
 20
-5.990849
 30
0.0
 11
1.84416
 21
-1.316543
 31
0.0
  0
LINE
  5
96
100
AcDbEntity
  8
レイヤー_2
 62
     7
100
AcDbLine
 10
3.03823
 20
-5.990849
 30
0.0
 11
3.03823
 21
-1.316543
 31
0.0
  0
SPLINE
  5
95
100
AcDbEntity
  8
レイヤー_2
 62
     7
100
AcDbSpline
210
0.0
220
0.0
230
1.0
 70
     8
 71
     3
 72
     8
 73
     4
 74
     0
 42
0.00000001
 43
0.00000001
 40
0.0
 40
0.0
 40
0.0
 40
0.0
 40
1.0
 40
1.0
 40
1.0
 40
1.0
 10
-2.7750244140624996
 20
-6.1314086914062491
 30
0.0
 10
-2.4684109157986107
 20
-6.2960842556423602
 30
0.0
 10
-2.0894504123263888
 20
-6.2388956705729157
 30
0.0
 10
-1.8448486328124998
 20
-5.9908487955729157
 30
0.0
  0
SPLINE
  5
94
100
AcDbEntity
  8
レイヤー_2
 62
     7
100
AcDbSpline
210
0.0
220
0.0
230
1.0
 70
     8
 71
     3
 72
     8
 73
     4
 74
     0
 42
0.00000001
 43
0.00000001
 40
0.0
 40
0.0
 40
0.0
 40
0.0
 40
1.0
 40
1.0
 40
1.0
 40
1.0
 10
1.8441596137152776
 20
-5.9908487955729157
 30
0.0
 10
2.0894504123263888
 20
-6.2388956705729157
 30
0.0
 10
2.4677218967013888
 20
-6.2960842556423602
 30
0.0
 10
2.7750244140624996
 20
-6.1314086914062491
 30
0.0
  0
SPLINE
  5
93
100
AcDbEntity
  8
レイヤー_2
 62
     7
100
AcDbSpline
210
0.0
220
0.0
230
1.0
 70
     8
 71
     3
 72
     8
 73
     4
 74
     0
 42
0.00000001
 43
0.00000001
 40
0.0
 40
0.0
 40
0.0
 40
0.0
 40
1.0
 40
1.0
 40
1.0
 40
1.0
 10
-1.1689208984374999
 20
-5.9908487955729157
 30
0.0
 10
-0.4206461588541666
 20
-6.3022854275173605
 30
0.0
 10
0.4206461588541666
 20
-6.3022854275173605
 30
0.0
 10
1.1682318793402777
 20
-5.9908487955729157
 30
0.0
  0
SPLINE
  5
92
100
AcDbEntity
  8
レイヤー_2
 62
     7
100
AcDbSpline
210
0.0
220
0.0
230
1.0
 70
     8
 71
     3
 72
     8
 73
     4
 74
     0
 42
0.00000001
 43
0.00000001
 40
0.0
 40
0.0
 40
0.0
 40
0.0
 40
1.0
 40
1.0
 40
1.0
 40
1.0
 10
-1.8448486328124998
 20
-1.3165432400173609
 30
0.0
 10
-2.0894504123263888
 20
-1.0691853841145833
 30
0.0
 10
-2.4684109157986107
 20
-1.0119967990451388
 30
0.0
 10
-2.7750244140624996
 20
-1.1759833441840277
 30
0.0
  0
SPLINE
  5
91
100
AcDbEntity
  8
レイヤー_2
 62
     7
100
AcDbSpline
210
0.0
220
0.0
230
1.0
 70
     8
 71
     3
 72
     8
 73
     4
 74
     0
 42
0.00000001
 43
0.00000001
 40
0.0
 40
0.0
 40
0.0
 40
0.0
 40
1.0
 40
1.0
 40
1.0
 40
1.0
 10
2.7750244140624996
 20
-1.1759833441840277
 30
0.0
 10
2.4677218967013888
 20
-1.0119967990451388
 30
0.0
 10
2.0894504123263888
 20
-1.0691853841145833
 30
0.0
 10
1.8441596137152776
 20
-1.3165432400173609
 30
0.0
  0
SPLINE
  5
90
100
AcDbEntity
  8
レイヤー_2
 62
     7
100
AcDbSpline
210
0.0
220
0.0
230
1.0
 70
     8
 71
     3
 72
     8
 73
     4
 74
     0
 42
0.00000001
 43
0.00000001
 40
0.0
 40
0.0
 40
0.0
 40
0.0
 40
1.0
 40
1.0
 40
1.0
 40
1.0
 10
1.1682318793402777
 20
-1.3165432400173609
 30
0.0
 10
0.4206461588541666
 20
-1.0051066080729165
 30
0.0
 10
-0.4206461588541666
 20
-1.0051066080729165
 30
0.0
 10
-1.1689208984374999
 20
-1.3165432400173609
 30
0.0
  0
LINE
  5
8F
100
AcDbEntity
  8
レイヤー_2
 62
     7
100
AcDbLine
 10
-1.110354
 20
4.706862
 30
0.0
 11
-1.110354
 21
6.306764
 31
0.0
  0
LINE
  5
8E
100
AcDbEntity
  8
レイヤー_2
 62
     7
100
AcDbLine
 10
1.109665
 20
4.706862
 30
0.0
 11
1.109665
 21
5.907822
 31
0.0
  0
LINE
  5
8D
100
AcDbEntity
  8
レイヤー_2
 62
     7
100
AcDbLine
 10
1.986098
 20
-0.743279
 30
0.0
 11
1.986098
 21
0.5004
 31
0.0
  0
LINE
  5
8C
100
AcDbEntity
  8
レイヤー_2
 62
     7
100
AcDbLine
 10
-1.986787
 20
0.5004
 30
0.0
 11
-1.986787
 21
-0.743279
 31
0.0
  0
LINE
  5
8B
100
AcDbEntity
  8
レイヤー_2
 62
     7
100
AcDbLine
 10
-1.869653
 20
-0.541397
 30
0.0
 11
1.869653
 21
-0.541397
 31
0.0
  0
ENDBLK
  5
CE
100
AcDbEntity
  8
レイヤー_2
100
AcDbBlockEnd
  0
BLOCK
  5
D7
100
AcDbEntity
  8
レイヤー_2
  6
AI9-LType1
 62
     7
100
AcDbBlockBegin
  2
AI9-BLK8
 70
     0
 10
0.0
 20
0.0
 30
0.0
  3
AI9-BLK8
  1

  0
MTEXT
  5
D8
100
AcDbEntity
  8
レイヤー_2
  6
AI9-LType1
 62
     7
100
AcDbMText
 10
-7.408333
 20
2.835313
 30
0.0
 40
5.512152
 41
0.0
 71
     1
 72
     2
  1
\fMS Gothic|b0|i0|c128;\H5.5122;\C7;\U+03C6\U+0033\U+0035
  7
STD
210
0.0
220
0.0
230
1.0
 73
     1
 44
1.0
  0
ENDBLK
  5
D9
100
AcDbEntity
  8
レイヤー_2
100
AcDbBlockEnd
  0
ENDSEC
  0
SECTION
  2
ENTITIES
  0
MTEXT
  5
27C
100
AcDbEntity
  8
レイヤー_1
 62
     7
100
AcDbMText
 10
47.801389
 20
54.121991
 30
0.0
 40
3.674768
 41
0.0
 71
     1
 72
     2
  1
\fOsaka|b0|i0|c128;\H3.6748;\C7;\U+0033\U+0033\U+002E\U+0038\U+0030\U+0030\U+002E\U+0038\U+0037\U+0035\U+002E\U+0058\U+0058
  7
STD
210
0.0
220
0.0
230
1.0
 73
     1
 44
1.0
  0
MTEXT
  5
27B
100
AcDbEntity
  8
レイヤー_1
 62
     7
100
AcDbMText
 10
39.6875
 20
56.608234
 30
0.0
 40
1.574901
 41
0.0
 71
     1
 72
     2
  1
\fOsaka|b0|i0|c128;\H1.5749;\C7;\U+54C1\U+756A
  7
STD
210
0.0
220
0.0
230
1.0
 73
     1
 44
1.0
  0
MTEXT
  5
27A
100
AcDbEntity
  8
レイヤー_1
 62
     7
100
AcDbMText
 10
47.801389
 20
32.959209
 30
0.0
 40
3.149486
 41
0.0
 71
     1
 72
     2
  1
\fOsaka|b0|i0|c128;\H3.1495;\C7;\U+FF11\U+7A74\U+578B\U+30B7\U+30F3\U+30B0\U+30EB\U+30EC\U+30D0\U+30FC\U+30AD\U+30C3\U+30C1\U+30F3\U+7528\U+6DF7\U+5408\U+6813
  7
STD
210
0.0
220
0.0
230
1.0
 73
     1
 44
1.0
  0
MTEXT
  5
279
100
AcDbEntity
  8
レイヤー_1
 62
     7
100
AcDbMText
 10
39.6875
 20
35.441567
 30
0.0
 40
1.574901
 41
0.0
 71
     1
 72
     2
  1
\fOsaka|b0|i0|c128;\H1.5749;\C7;\U+54C1
  7
STD
210
0.0
220
0.0
230
1.0
 73
     1
 44
1.0
  0
MTEXT
  5
278
100
AcDbEntity
  8
レイヤー_1
 62
     7
100
AcDbMText
 10
47.801389
 20
42.954809
 30
0.0
 40
3.149486
 41
0.0
 71
     1
 72
     2
  1
\fOsaka|b0|i0|c128;\H3.1495;\C7;\U+0054\U+0041\U+0052\U+0041\U+0020\U+0055\U+004C\U+0054\U+0052\U+0041
  7
STD
210
0.0
220
0.0
230
1.0
 73
     1
 44
1.0
  0
POLYLINE
  5
272
100
AcDbEntity
  8
レイヤー_1
 62
     7
100
AcDb2dPolyline
 66
     1
 10
0.0
 20
0.0
 30
0.0
 70
     1
  0
VERTEX
  5
273
100
AcDbEntity
  8
レイヤー_1
 62
     7
100
AcDbVertex
100
AcDb2dVertex
 10
23.636111
 20
26.105556
 30
0.0
  0
VERTEX
  5
274
100
AcDbEntity
  8
レイヤー_1
 62
     7
100
AcDbVertex
100
AcDb2dVertex
 10
198.613889
 20
26.105556
 30
0.0
  0
VERTEX
  5
275
100
AcDbEntity
  8
レイヤー_1
 62
     7
100
AcDbVertex
100
AcDb2dVertex
 10
198.613889
 20
276.577778
 30
0.0
  0
VERTEX
  5
276
100
AcDbEntity
  8
レイヤー_1
 62
     7
100
AcDbVertex
100
AcDb2dVertex
 10
23.636111
 20
276.577778
 30
0.0
  0
SEQEND
  5
277
100
AcDbEntity
  8
レイヤー_1
 62
     7
  0
LINE
  5
271
100
AcDbEntity
  8
レイヤー_1
 62
     7
100
AcDbLine
 10
170.568056
 20
36.5125
 30
0.0
 11
27.693056
 21
36.5125
 31
0.0
  0
LINE
  5
270
100
AcDbEntity
  8
レイヤー_1
 62
     7
100
AcDbLine
 10
170.568056
 20
47.095833
 30
0.0
 11
27.693056
 21
47.095833
 31
0.0
  0
LINE
  5
26F
100
AcDbEntity
  8
レイヤー_1
 62
     7
100
AcDbLine
 10
23.636111
 20
57.855556
 30
0.0
 11
198.261111
 21
57.855556
 31
0.0
  0
LINE
  5
26E
100
AcDbEntity
  8
レイヤー_1
 62
     7
100
AcDbLine
 10
170.744444
 20
57.855556
 30
0.0
 11
170.744444
 21
26.458333
 31
0.0
  0
MTEXT
  5
26D
100
AcDbEntity
  8
レイヤー_1
 62
     7
100
AcDbMText
 10
33.3375
 20
46.024901
 30
0.0
 40
1.574901
 41
0.0
 71
     1
 72
     2
  1
\fOsaka|b0|i0|c128;\H1.5749;\C7;\U+30B7\U+30EA\U+30FC\U+30BA
  7
STD
210
0.0
220
0.0
230
1.0
 73
     1
 44
1.0
  0
MTEXT
  5
26C
100
AcDbEntity
  8
レイヤー_1
 62
     7
100
AcDbMText
 10
174.095833
 20
54.655042
 30
0.0
 40
3.149486
 41
0.0
 71
     1
 72
     2
  1
\fHeiseiKakuGothicCAN W9|b0|i0|c128;\H3.1495;\C253;\U+5BF8\U+6CD5\U+53C2\U+8003\U+56F3
  7
STD
210
0.0
220
0.0
230
1.0
 73
     1
 44
1.0
  0
LINE
  5
26B
100
AcDbEntity
  8
レイヤー_1
 62
     7
100
AcDbLine
 10
27.516667
 20
57.855556
 30
0.0
 11
27.516667
 21
26.458333
 31
0.0
  0
IMAGE
  5
268
100
AcDbEntity
  8
レイヤー_1
 62
     7
 92
        0
100
AcDbRasterImage
 90
        0
 10
172.155556
 20
28.574682
 30
0.0
 11
0.352531
 21
0.0
 31
0.0
 12
0.0
 22
0.352813
 32
0.0
 13
70.0
 23
9.0
340
26A
 70
     7
280
     0
281
    50
282
    50
283
     0
360
269
 71
     1
 91
        2
 14
-0.5
 24
-0.5
 14
69.5
 24
8.5
  0
IMAGE
  5
265
100
AcDbEntity
  8
レイヤー_1
 62
     7
 92
        0
100
AcDbRasterImage
 90
        0
 10
172.155556
 20
28.574682
 30
0.0
 11
0.352531
 21
0.0
 31
0.0
 12
0.0
 22
0.352813
 32
0.0
 13
70.0
 23
9.0
340
267
 70
     7
280
     0
281
    50
282
    50
283
     0
360
266
 71
     1
 91
        2
 14
-0.5
 24
-0.5
 14
69.5
 24
8.5
  0
MTEXT
  5
264
100
AcDbEntity
  8
レイヤー_1
 62
     7
100
AcDbMText
 10
113.418056
 20
46.024901
 30
0.0
 40
1.574901
 41
0.0
 71
     1
 72
     2
  1
\fOsaka|b0|i0|c128;\H1.5749;\C7;\U+4ED5\U+4E0A
  7
STD
210
0.0
220
0.0
230
1.0
 73
     1
 44
1.0
  0
MTEXT
  5
263
100
AcDbEntity
  8
レイヤー_1
 62
     7
100
AcDbMText
 10
124.765511
 20
40.968164
 30
0.0
 40
1.162842
 41
0.0
 71
     1
 72
     2
  1
\fOsaka|b0|i0|c128;\H1.1628;\W2.71;\C7;
  7
STD
210
0.0
220
0.0
230
1.0
 73
     1
 44
1.0
  0
MTEXT
  5
261
100
AcDbEntity
  8
レイヤー_2
 62
     7
100
AcDbMText
 10
142.149807
 20
248.702206
 30
0.0
 40
6.299603
 41
0.0
 71
     1
 72
     2
  1
\fMS Gothic|b0|i0|c128;\H6.2996;\C7;\U+0032\U+0030\U+0030
  7
STD
210
0.0
220
0.0
230
1.0
 73
     1
 44
1.0
  0
MTEXT
  5
260
100
AcDbEntity
  8
レイヤー_2
 62
     7
100
AcDbMText
 10
72.285338
 20
248.608499
 30
0.0
 40
6.299603
 41
0.0
 71
     1
 72
     2
  1
\fMS Gothic|b0|i0|c128;\H6.2996;\C7;\U+0037\U+0030
  7
STD
210
0.0
220
0.0
230
1.0
 73
     1
 44
1.0
  0
MTEXT
  5
25F
100
AcDbEntity
  8
レイヤー_2
 62
     7
100
AcDbMText
 10
45.290603
 20
240.084988
 30
0.0
 40
6.299603
 41
0.0
 71
     1
 72
     2
  1
\fMS Gothic|b0|i0|c128;\H6.2996;\C7;\U+03C6\U+0034\U+0036
  7
STD
210
0.0
220
0.0
230
1.0
 73
     1
 44
1.0
  0
MTEXT
  5
25E
100
AcDbEntity
  8
レイヤー_2
 62
     7
100
AcDbMText
 10
44.734492
 20
183.018286
 30
0.0
 40
6.299603
 41
0.0
 71
     1
 72
     2
  1
\fMS Gothic|b0|i0|c128;\H6.2996;\C7;\U+0033\U+0037\U+0033
  7
STD
210
0.0
220
0.0
230
1.0
 11
0.0
 21
1.0
 31
0.0
 73
     1
 44
1.0
  0
MTEXT
  5
25D
100
AcDbEntity
  8
レイヤー_2
 62
     7
100
AcDbMText
 10
174.127627
 20
167.455412
 30
0.0
 40
6.299603
 41
0.0
 71
     1
 72
     2
  1
\fMS Gothic|b0|i0|c128;\H6.2996;\C7;\U+0032\U+0034\U+0030
  7
STD
210
0.0
220
0.0
230
1.0
 11
0.0
 21
1.0
 31
0.0
 73
     1
 44
1.0
  0
SPLINE
  5
25C
100
AcDbEntity
  8
レイヤー_2
 62
     7
100
AcDbSpline
210
0.0
220
0.0
230
1.0
 70
     8
 71
     3
 72
    17
 73
    13
 74
     0
 42
0.00000001
 43
0.00000001
 40
0.0
 40
0.0
 40
0.0
 40
0.0
 40
1.0
 40
1.0
 40
1.0
 40
2.0
 40
2.0
 40
2.0
 40
3.0
 40
3.0
 40
3.0
 40
4.0
 40
4.0
 40
4.0
 40
4.0
 10
72.545270453559027
 20
104.21999511718749
 30
0.0
 10
72.545270453559027
 20
106.27396104600693
 30
0.0
 10
70.88042805989582
 20
107.93897569444444
 30
0.0
 10
68.826806640624994
 20
107.93897569444444
 30
0.0
 10
66.772840711805543
 20
107.93897569444444
 30
0.0
 10
65.10748155381944
 20
106.27396104600693
 30
0.0
 10
65.10748155381944
 20
104.21999511718749
 30
0.0
 10
65.10748155381944
 20
102.16637369791665
 30
0.0
 10
66.772840711805543
 20
100.50204806857639
 30
0.0
 10
68.826806640624994
 20
100.50204806857639
 30
0.0
 10
70.88042805989582
 20
100.50204806857639
 30
0.0
 10
72.545270453559027
 20
102.16637369791665
 30
0.0
 10
72.545270453559027
 20
104.21999511718749
 30
0.0
  0
SPLINE
  5
25B
100
AcDbEntity
  8
レイヤー_2
 62
     7
100
AcDbSpline
210
0.0
220
0.0
230
1.0
 70
     8
 71
     3
 72
     8
 73
     4
 74
     0
 42
0.00000001
 43
0.00000001
 40
0.0
 40
0.0
 40
0.0
 40
0.0
 40
1.0
 40
1.0
 40
1.0
 40
1.0
 10
126.60450303819444
 20
125.7011990017361
 30
0.0
 10
127.47060004340277
 20
125.92168511284721
 30
0.0
 10
128.25056966145831
 20
125.83211263020833
 30
0.0
 10
128.72943793402777
 20
125.61748318142359
 30
0.0
  0
LINE
  5
25A
100
AcDbEntity
  8
レイヤー_2
 62
     7
100
AcDbLine
 10
131.384918
 20
143.798975
 30
0.0
 11
131.329107
 21
144.861787
 31
0.0
  0
LINE
  5
259
100
AcDbEntity
  8
レイヤー_2
 62
     7
100
AcDbLine
 10
121.453396
 20
144.861787
 30
0.0
 11
121.397586
 21
143.798975
 31
0.0
  0
SPLINE
  5
258
100
AcDbEntity
  8
レイヤー_2
 62
     7
100
AcDbSpline
210
0.0
220
0.0
230
1.0
 70
     8
 71
     3
 72
     8
 73
     4
 74
     0
 42
0.00000001
 43
0.00000001
 40
0.0
 40
0.0
 40
0.0
 40
0.0
 40
1.0
 40
1.0
 40
1.0
 40
1.0
 10
128.94096679687499
 20
147.6874538845486
 30
0.0
 10
128.94096679687499
 20
147.74016384548611
 30
0.0
 10
128.93545464409721
 20
147.79149576822914
 30
0.0
 10
128.92649739583331
 20
147.8362820095486
 30
0.0
  0
SPLINE
  5
257
100
AcDbEntity
  8
レイヤー_2
 62
     7
100
AcDbSpline
210
0.0
220
0.0
230
1.0
 70
     8
 71
     3
 72
     8
 73
     4
 74
     0
 42
0.00000001
 43
0.00000001
 40
0.0
 40
0.0
 40
0.0
 40
0.0
 40
1.0
 40
1.0
 40
1.0
 40
1.0
 10
126.40606553819444
 20
147.8362820095486
 30
0.0
 10
126.3957302517361
 20
147.78495008680554
 30
0.0
 10
126.39090711805554
 20
147.73361816406248
 30
0.0
 10
126.39159613715276
 20
147.6874538845486
 30
0.0
  0
LINE
  5
256
100
AcDbEntity
  8
レイヤー_2
 62
     7
100
AcDbLine
 10
128.940967
 20
146.901972
 30
0.0
 11
128.940967
 21
147.687454
 31
0.0
  0
LINE
  5
255
100
AcDbEntity
  8
レイヤー_2
 62
     7
100
AcDbLine
 10
126.391596
 20
147.687454
 30
0.0
 11
126.391596
 21
146.901972
 31
0.0
  0
LINE
  5
254
100
AcDbEntity
  8
レイヤー_2
 62
     7
100
AcDbLine
 10
128.728749
 20
125.618172
 30
0.0
 11
128.728749
 21
139.230433
 31
0.0
  0
LINE
  5
253
100
AcDbEntity
  8
レイヤー_2
 62
     7
100
AcDbLine
 10
128.728749
 20
141.037042
 30
0.0
 11
128.728749
 21
143.798975
 31
0.0
  0
LINE
  5
252
100
AcDbEntity
  8
レイヤー_2
 62
     7
100
AcDbLine
 10
128.728749
 20
144.861787
 30
0.0
 11
128.728749
 21
146.901972
 31
0.0
  0
LINE
  5
251
100
AcDbEntity
  8
レイヤー_2
 62
     7
100
AcDbLine
 10
126.604503
 20
146.901972
 30
0.0
 11
126.604503
 21
144.861787
 31
0.0
  0
LINE
  5
250
100
AcDbEntity
  8
レイヤー_2
 62
     7
100
AcDbLine
 10
126.604503
 20
143.798975
 30
0.0
 11
126.604503
 21
141.037042
 31
0.0
  0
LINE
  5
24F
100
AcDbEntity
  8
レイヤー_2
 62
     7
100
AcDbLine
 10
126.604503
 20
139.230433
 30
0.0
 11
126.604503
 21
125.701544
 31
0.0
  0
LINE
  5
24E
100
AcDbEntity
  8
レイヤー_2
 62
     7
100
AcDbLine
 10
122.810075
 20
148.261751
 30
0.0
 11
122.810075
 21
147.836282
 31
0.0
  0
LINE
  5
24D
100
AcDbEntity
  8
レイヤー_2
 62
     7
100
AcDbLine
 10
129.971739
 20
147.836282
 30
0.0
 11
129.971739
 21
148.261751
 31
0.0
  0
LINE
  5
24C
100
AcDbEntity
  8
レイヤー_2
 62
     7
100
AcDbLine
 10
123.522521
 20
138.847683
 30
0.0
 11
123.840847
 21
138.295435
 31
0.0
  0
LINE
  5
24B
100
AcDbEntity
  8
レイヤー_2
 62
     7
100
AcDbLine
 10
125.966471
 20
138.295435
 30
0.0
 11
126.285487
 21
138.847683
 31
0.0
  0
LINE
  5
24A
100
AcDbEntity
  8
レイヤー_2
 62
     7
100
AcDbLine
 10
126.285487
 20
138.847683
 30
0.0
 11
126.285487
 21
139.158775
 31
0.0
  0
LINE
  5
249
100
AcDbEntity
  8
レイヤー_2
 62
     7
100
AcDbLine
 10
123.522521
 20
139.158775
 30
0.0
 11
123.522521
 21
138.847683
 31
0.0
  0
LINE
  5
248
100
AcDbEntity
  8
レイヤー_2
 62
     7
100
AcDbLine
 10
126.285487
 20
139.158775
 30
0.0
 11
125.878277
 21
139.230433
 31
0.0
  0
LINE
  5
247
100
AcDbEntity
  8
レイヤー_2
 62
     7
100
AcDbLine
 10
123.929731
 20
139.230433
 30
0.0
 11
123.522521
 21
139.158775
 31
0.0
  0
LINE
  5
246
100
AcDbEntity
  8
レイヤー_2
 62
     7
100
AcDbLine
 10
125.966471
 20
133.322784
 30
0.0
 11
125.966471
 21
138.295435
 31
0.0
  0
LINE
  5
245
100
AcDbEntity
  8
レイヤー_2
 62
     7
100
AcDbLine
 10
123.840847
 20
138.295435
 30
0.0
 11
123.840847
 21
133.322784
 31
0.0
  0
LINE
  5
244
100
AcDbEntity
  8
レイヤー_2
 62
     7
100
AcDbLine
 10
126.293755
 20
133.317616
 30
0.0
 11
126.285487
 21
133.322784
 31
0.0
  0
LINE
  5
243
100
AcDbEntity
  8
レイヤー_2
 62
     7
100
AcDbLine
 10
126.285487
 20
130.773069
 30
0.0
 11
126.293755
 21
130.777892
 31
0.0
  0
LINE
  5
242
100
AcDbEntity
  8
レイヤー_2
 62
     7
100
AcDbLine
 10
123.513563
 20
130.777892
 30
0.0
 11
123.522521
 21
130.773069
 31
0.0
  0
LINE
  5
241
100
AcDbEntity
  8
レイヤー_2
 62
     7
100
AcDbLine
 10
123.522521
 20
133.322784
 30
0.0
 11
123.513563
 21
133.317616
 31
0.0
  0
LINE
  5
240
100
AcDbEntity
  8
レイヤー_2
 62
     7
100
AcDbLine
 10
120.654134
 20
140.611917
 30
0.0
 11
120.654134
 21
139.336542
 31
0.0
  0
SPLINE
  5
23F
100
AcDbEntity
  8
レイヤー_2
 62
     7
100
AcDbSpline
210
0.0
220
0.0
230
1.0
 70
     8
 71
     3
 72
     8
 73
     4
 74
     0
 42
0.00000001
 43
0.00000001
 40
0.0
 40
0.0
 40
0.0
 40
0.0
 40
1.0
 40
1.0
 40
1.0
 40
1.0
 10
120.76024305555555
 20
140.71802571614583
 30
0.0
 10
120.70167643229165
 20
140.71802571614583
 30
0.0
 10
120.65413411458333
 20
140.67013888888889
 30
0.0
 10
120.65413411458333
 20
140.6119167751736
 30
0.0
  0
SPLINE
  5
23E
100
AcDbEntity
  8
レイヤー_2
 62
     7
100
AcDbSpline
210
0.0
220
0.0
230
1.0
 70
     8
 71
     3
 72
     8
 73
     4
 74
     0
 42
0.00000001
 43
0.00000001
 40
0.0
 40
0.0
 40
0.0
 40
0.0
 40
1.0
 40
1.0
 40
1.0
 40
1.0
 10
120.65413411458333
 20
139.33654242621526
 30
0.0
 10
120.65413411458333
 20
139.27763129340278
 30
0.0
 10
120.70167643229165
 20
139.23043348524305
 30
0.0
 10
120.76024305555555
 20
139.23043348524305
 30
0.0
  0
SPLINE
  5
23D
100
AcDbEntity
  8
レイヤー_2
 62
     7
100
AcDbSpline
210
0.0
220
0.0
230
1.0
 70
     8
 71
     3
 72
     8
 73
     4
 74
     0
 42
0.00000001
 43
0.00000001
 40
0.0
 40
0.0
 40
0.0
 40
0.0
 40
1.0
 40
1.0
 40
1.0
 40
1.0
 10
131.28776584201387
 20
140.6119167751736
 30
0.0
 10
131.28776584201387
 20
140.67013888888889
 30
0.0
 10
131.24022352430555
 20
140.71802571614583
 30
0.0
 10
131.18165690104166
 20
140.71802571614583
 30
0.0
  0
LINE
  5
23C
100
AcDbEntity
  8
レイヤー_2
 62
     7
100
AcDbLine
 10
131.287766
 20
139.336542
 30
0.0
 11
131.287766
 21
140.611917
 31
0.0
  0
SPLINE
  5
23B
100
AcDbEntity
  8
レイヤー_2
 62
     7
100
AcDbSpline
210
0.0
220
0.0
230
1.0
 70
     8
 71
     3
 72
     8
 73
     4
 74
     0
 42
0.00000001
 43
0.00000001
 40
0.0
 40
0.0
 40
0.0
 40
0.0
 40
1.0
 40
1.0
 40
1.0
 40
1.0
 10
131.18165690104166
 20
139.23043348524305
 30
0.0
 10
131.24022352430555
 20
139.23043348524305
 30
0.0
 10
131.28776584201387
 20
139.27763129340278
 30
0.0
 10
131.28776584201387
 20
139.33654242621526
 30
0.0
  0
LINE
  5
23A
100
AcDbEntity
  8
レイヤー_2
 62
     7
100
AcDbLine
 10
131.278809
 20
140.654636
 30
0.0
 11
131.278809
 21
141.037042
 31
0.0
  0
LINE
  5
239
100
AcDbEntity
  8
レイヤー_2
 62
     7
100
AcDbLine
 10
121.07857
 20
141.037042
 30
0.0
 11
121.07857
 21
140.718026
 31
0.0
  0
SPLINE
  5
238
100
AcDbEntity
  8
レイヤー_2
 62
     7
100
AcDbSpline
210
0.0
220
0.0
230
1.0
 70
     8
 71
     3
 72
     8
 73
     4
 74
     0
 42
0.00000001
 43
0.00000001
 40
0.0
 40
0.0
 40
0.0
 40
0.0
 40
1.0
 40
1.0
 40
1.0
 40
1.0
 10
121.98600802951388
 20
148.47431369357636
 30
0.0
 10
122.06386718749999
 20
148.3389214409722
 30
0.0
 10
122.20511610243055
 20
148.26244032118055
 30
0.0
 10
122.35394422743055
 20
148.26175130208333
 30
0.0
  0
SPLINE
  5
237
100
AcDbEntity
  8
レイヤー_2
 62
     7
100
AcDbSpline
210
0.0
220
0.0
230
1.0
 70
     8
 71
     3
 72
     8
 73
     4
 74
     0
 42
0.00000001
 43
0.00000001
 40
0.0
 40
0.0
 40
0.0
 40
0.0
 40
1.0
 40
1.0
 40
1.0
 40
1.0
 10
130.42855902777777
 20
148.26175130208333
 30
0.0
 10
130.58565538194443
 20
148.26175130208333
 30
0.0
 10
130.72208116319445
 20
148.34650065104165
 30
0.0
 10
130.79718424479165
 20
148.47431369357636
 30
0.0
  0
LINE
  5
236
100
AcDbEntity
  8
レイヤー_2
 62
     7
100
AcDbLine
 10
122.353944
 20
148.261751
 30
0.0
 11
130.428559
 21
148.261751
 31
0.0
  0
LINE
  5
235
100
AcDbEntity
  8
レイヤー_2
 62
     7
100
AcDbLine
 10
166.484928
 20
202.979169
 30
0.0
 11
166.611019
 21
199.368537
 31
0.0
  0
LINE
  5
234
100
AcDbEntity
  8
レイヤー_2
 62
     7
100
AcDbLine
 10
171.517524
 20
199.539586
 30
0.0
 11
171.390744
 21
203.150046
 31
0.0
  0
SPLINE
  5
233
100
AcDbEntity
  8
レイヤー_2
 62
     7
100
AcDbSpline
210
0.0
220
0.0
230
1.0
 70
     8
 71
     3
 72
    11
 73
     7
 74
     0
 42
0.00000001
 43
0.00000001
 40
0.0
 40
0.0
 40
0.0
 40
0.0
 40
1.0
 40
1.0
 40
1.0
 40
2.0
 40
2.0
 40
2.0
 40
2.0
 10
166.43600802951389
 20
204.67794596354165
 30
0.0
 10
166.08185221354165
 20
214.82736952039929
 30
0.0
 10
157.74747721354166
 20
222.81689046223957
 30
0.0
 10
147.64163411458333
 20
222.82774251302081
 30
0.0
 10
137.25467122395833
 20
222.82774251302081
 30
0.0
 10
128.83485785590275
 20
214.40792914496527
 30
0.0
 10
128.83485785590275
 20
204.02148301866319
 30
0.0
  0
SPLINE
  5
232
100
AcDbEntity
  8
レイヤー_2
 62
     7
100
AcDbSpline
210
0.0
220
0.0
230
1.0
 70
     8
 71
     3
 72
    11
 73
     7
 74
     0
 42
0.00000001
 43
0.00000001
 40
0.0
 40
0.0
 40
0.0
 40
0.0
 40
1.0
 40
1.0
 40
1.0
 40
2.0
 40
2.0
 40
2.0
 40
2.0
 10
171.32046440972221
 20
204.84813368055555
 30
0.0
 10
170.87398003472219
 20
217.63546685112846
 30
0.0
 10
160.37401801215276
 20
227.70151909722219
 30
0.0
 10
147.64163411458333
 20
227.71529947916665
 30
0.0
 10
134.5564724392361
 20
227.71529947916665
 30
0.0
 10
123.94764539930554
 20
217.10733371310761
 30
0.0
 10
123.94764539930554
 20
204.02148301866319
 30
0.0
  0
LINE
  5
231
100
AcDbEntity
  8
レイヤー_2
 62
     7
100
AcDbLine
 10
128.834858
 20
173.868113
 30
0.0
 11
128.834858
 21
204.021483
 31
0.0
  0
LINE
  5
230
100
AcDbEntity
  8
レイヤー_2
 62
     7
100
AcDbLine
 10
123.947645
 20
204.021483
 30
0.0
 11
123.947645
 21
173.868113
 31
0.0
  0
LINE
  5
22F
100
AcDbEntity
  8
レイヤー_2
 62
     7
100
AcDbLine
 10
171.37972
 20
203.150046
 30
0.0
 11
171.320464
 21
204.848134
 31
0.0
  0
LINE
  5
22E
100
AcDbEntity
  8
レイヤー_2
 62
     7
100
AcDbLine
 10
166.436008
 20
204.677946
 30
0.0
 11
166.495264
 21
202.979169
 31
0.0
  0
SPLINE
  5
22D
100
AcDbEntity
  8
レイヤー_2
 62
     7
100
AcDbSpline
210
0.0
220
0.0
230
1.0
 70
     8
 71
     3
 72
     8
 73
     4
 74
     0
 42
0.00000001
 43
0.00000001
 40
0.0
 40
0.0
 40
0.0
 40
0.0
 40
1.0
 40
1.0
 40
1.0
 40
1.0
 10
121.50369466145833
 20
148.49980740017361
 30
0.0
 10
121.50369466145833
 20
148.49119466145831
 30
0.0
 10
121.50438368055555
 20
148.48189290364581
 30
0.0
 10
121.50507269965277
 20
148.47431369357636
 30
0.0
  0
SPLINE
  5
22C
100
AcDbEntity
  8
レイヤー_2
 62
     7
100
AcDbSpline
210
0.0
220
0.0
230
1.0
 70
     8
 71
     3
 72
     8
 73
     4
 74
     0
 42
0.00000001
 43
0.00000001
 40
0.0
 40
0.0
 40
0.0
 40
0.0
 40
1.0
 40
1.0
 40
1.0
 40
1.0
 10
131.27811957465278
 20
148.47431369357636
 30
0.0
 10
131.27880859375
 20
148.48361545138889
 30
0.0
 10
131.27880859375
 20
148.49188368055553
 30
0.0
 10
131.27880859375
 20
148.49980740017361
 30
0.0
  0
LINE
  5
22B
100
AcDbEntity
  8
レイヤー_2
 62
     7
100
AcDbLine
 10
121.503695
 20
170.553931
 30
0.0
 11
121.503695
 21
148.499807
 31
0.0
  0
LINE
  5
22A
100
AcDbEntity
  8
レイヤー_2
 62
     7
100
AcDbLine
 10
121.503695
 20
173.868113
 30
0.0
 11
121.503695
 21
172.07339
 31
0.0
  0
LINE
  5
229
100
AcDbEntity
  8
レイヤー_2
 62
     7
100
AcDbLine
 10
131.278809
 20
148.499807
 30
0.0
 11
131.278809
 21
173.868113
 31
0.0
  0
LINE
  5
228
100
AcDbEntity
  8
レイヤー_2
 62
     7
100
AcDbLine
 10
124.071669
 20
147.836282
 30
0.0
 11
124.071669
 21
144.861787
 31
0.0
  0
LINE
  5
227
100
AcDbEntity
  8
レイヤー_2
 62
     7
100
AcDbLine
 10
124.071669
 20
143.798975
 30
0.0
 11
124.071669
 21
141.037042
 31
0.0
  0
LINE
  5
226
100
AcDbEntity
  8
レイヤー_2
 62
     7
100
AcDbLine
 10
125.73565
 20
141.037042
 30
0.0
 11
125.73565
 21
143.798975
 31
0.0
  0
LINE
  5
225
100
AcDbEntity
  8
レイヤー_2
 62
     7
100
AcDbLine
 10
125.73565
 20
144.861787
 30
0.0
 11
125.73565
 21
147.836282
 31
0.0
  0
LINE
  5
224
100
AcDbEntity
  8
レイヤー_2
 62
     7
100
AcDbLine
 10
121.453396
 20
144.861787
 30
0.0
 11
131.329107
 21
144.861787
 31
0.0
  0
LINE
  5
223
100
AcDbEntity
  8
レイヤー_2
 62
     7
100
AcDbLine
 10
121.397586
 20
143.798975
 30
0.0
 11
131.384918
 21
143.798975
 31
0.0
  0
LINE
  5
222
100
AcDbEntity
  8
レイヤー_2
 62
     7
100
AcDbLine
 10
126.78916
 20
146.901972
 30
0.0
 11
126.391596
 21
146.901972
 31
0.0
  0
LINE
  5
221
100
AcDbEntity
  8
レイヤー_2
 62
     7
100
AcDbLine
 10
128.940967
 20
146.901972
 30
0.0
 11
126.78916
 21
146.901972
 31
0.0
  0
LINE
  5
220
100
AcDbEntity
  8
レイヤー_2
 62
     7
100
AcDbLine
 10
122.810075
 20
147.836282
 30
0.0
 11
129.971739
 21
147.836282
 31
0.0
  0
LINE
  5
21F
100
AcDbEntity
  8
レイヤー_2
 62
     7
100
AcDbLine
 10
125.083838
 20
130.896403
 30
0.0
 11
124.352789
 21
130.773069
 31
0.0
  0
SPLINE
  5
21E
100
AcDbEntity
  8
レイヤー_2
 62
     7
100
AcDbSpline
210
0.0
220
0.0
230
1.0
 70
     8
 71
     3
 72
    11
 73
     7
 74
     0
 42
0.00000001
 43
0.00000001
 40
0.0
 40
0.0
 40
0.0
 40
0.0
 40
1.0
 40
1.0
 40
1.0
 40
2.0
 40
2.0
 40
2.0
 40
2.0
 10
124.35278862847221
 20
130.77306857638888
 30
0.0
 10
124.33556315104165
 20
130.77341308593748
 30
0.0
 10
124.3183376736111
 20
130.77341308593748
 30
0.0
 10
124.30111219618054
 20
130.77341308593748
 30
0.0
 10
124.07166883680554
 20
130.77926974826389
 30
0.0
 10
123.84704861111111
 20
130.83783637152777
 30
0.0
 10
123.62105034722221
 20
130.89640299479166
 30
0.0
  0
LINE
  5
21D
100
AcDbEntity
  8
レイヤー_2
 62
     7
100
AcDbLine
 10
123.62105
 20
130.896403
 30
0.0
 11
123.62105
 21
133.199794
 31
0.0
  0
SPLINE
  5
21C
100
AcDbEntity
  8
レイヤー_2
 62
     7
100
AcDbSpline
210
0.0
220
0.0
230
1.0
 70
     8
 71
     3
 72
    11
 73
     7
 74
     0
 42
0.00000001
 43
0.00000001
 40
0.0
 40
0.0
 40
0.0
 40
0.0
 40
1.0
 40
1.0
 40
1.0
 40
2.0
 40
2.0
 40
2.0
 40
2.0
 10
124.35278862847221
 20
133.32278374565971
 30
0.0
 10
124.33556315104165
 20
133.32278374565971
 30
0.0
 10
124.3183376736111
 20
133.32278374565971
 30
0.0
 10
124.30111219618054
 20
133.32243923611111
 30
0.0
 10
124.07166883680554
 20
133.3165825737847
 30
0.0
 10
123.84704861111111
 20
133.25836046006944
 30
0.0
 10
123.62105034722221
 20
133.19979383680555
 30
0.0
  0
LINE
  5
21B
100
AcDbEntity
  8
レイヤー_2
 62
     7
100
AcDbLine
 10
125.083838
 20
133.199794
 30
0.0
 11
124.352789
 21
133.322784
 31
0.0
  0
LINE
  5
21A
100
AcDbEntity
  8
レイヤー_2
 62
     7
100
AcDbLine
 10
125.083838
 20
130.896403
 30
0.0
 11
125.083838
 21
133.199794
 31
0.0
  0
SPLINE
  5
219
100
AcDbEntity
  8
レイヤー_2
 62
     7
100
AcDbSpline
210
0.0
220
0.0
230
1.0
 70
     8
 71
     3
 72
    11
 73
     7
 74
     0
 42
0.00000001
 43
0.00000001
 40
0.0
 40
0.0
 40
0.0
 40
0.0
 40
1.0
 40
1.0
 40
1.0
 40
2.0
 40
2.0
 40
2.0
 40
2.0
 10
125.72531467013887
 20
133.32278374565971
 30
0.0
 10
125.71015624999998
 20
133.32278374565971
 30
0.0
 10
125.69430881076387
 20
133.32278374565971
 30
0.0
 10
125.67983940972221
 20
133.32243923611111
 30
0.0
 10
125.47864583333332
 20
133.3165825737847
 30
0.0
 10
125.28089735243054
 20
133.25836046006944
 30
0.0
 10
125.08383789062499
 20
133.19979383680555
 30
0.0
  0
LINE
  5
218
100
AcDbEntity
  8
レイヤー_2
 62
     7
100
AcDbLine
 10
125.725315
 20
133.322784
 30
0.0
 11
124.352789
 21
133.322784
 31
0.0
  0
LINE
  5
217
100
AcDbEntity
  8
レイヤー_2
 62
     7
100
AcDbLine
 10
125.725315
 20
130.773069
 30
0.0
 11
124.352789
 21
130.773069
 31
0.0
  0
SPLINE
  5
216
100
AcDbEntity
  8
レイヤー_2
 62
     7
100
AcDbSpline
210
0.0
220
0.0
230
1.0
 70
     8
 71
     3
 72
    11
 73
     7
 74
     0
 42
0.00000001
 43
0.00000001
 40
0.0
 40
0.0
 40
0.0
 40
0.0
 40
1.0
 40
1.0
 40
1.0
 40
2.0
 40
2.0
 40
2.0
 40
2.0
 10
125.72531467013887
 20
130.77306857638888
 30
0.0
 10
125.71015624999998
 20
130.77341308593748
 30
0.0
 10
125.69430881076387
 20
130.77341308593748
 30
0.0
 10
125.67983940972221
 20
130.77341308593748
 30
0.0
 10
125.47864583333332
 20
130.77926974826389
 30
0.0
 10
125.28089735243054
 20
130.83783637152777
 30
0.0
 10
125.08383789062499
 20
130.89640299479166
 30
0.0
  0
LINE
  5
215
100
AcDbEntity
  8
レイヤー_2
 62
     7
100
AcDbLine
 10
126.366791
 20
130.896403
 30
0.0
 11
125.725315
 21
130.773069
 31
0.0
  0
LINE
  5
214
100
AcDbEntity
  8
レイヤー_2
 62
     7
100
AcDbLine
 10
126.366791
 20
133.199794
 30
0.0
 11
125.725315
 21
133.322784
 31
0.0
  0
LINE
  5
213
100
AcDbEntity
  8
レイヤー_2
 62
     7
100
AcDbLine
 10
126.366791
 20
130.896403
 30
0.0
 11
126.366791
 21
133.199794
 31
0.0
  0
LINE
  5
212
100
AcDbEntity
  8
レイヤー_2
 62
     7
100
AcDbLine
 10
126.285487
 20
138.847683
 30
0.0
 11
123.522521
 21
138.847683
 31
0.0
  0
LINE
  5
211
100
AcDbEntity
  8
レイヤー_2
 62
     7
100
AcDbLine
 10
125.966471
 20
138.295435
 30
0.0
 11
123.840847
 21
138.295435
 31
0.0
  0
LINE
  5
210
100
AcDbEntity
  8
レイヤー_2
 62
     7
100
AcDbLine
 10
126.285487
 20
139.158775
 30
0.0
 11
123.522521
 21
139.158775
 31
0.0
  0
SPLINE
  5
20F
100
AcDbEntity
  8
レイヤー_2
 62
     7
100
AcDbSpline
210
0.0
220
0.0
230
1.0
 70
     8
 71
     3
 72
    11
 73
     7
 74
     0
 42
0.00000001
 43
0.00000001
 40
0.0
 40
0.0
 40
0.0
 40
0.0
 40
1.0
 40
1.0
 40
1.0
 40
2.0
 40
2.0
 40
2.0
 40
2.0
 10
123.62105034722221
 20
133.19979383680555
 30
0.0
 10
123.59969075520833
 20
133.2480251736111
 30
0.0
 10
123.57833116319443
 20
133.29625651041667
 30
0.0
 10
123.55559353298609
 20
133.31313747829859
 30
0.0
 10
123.55559353298609
 20
133.31313747829859
 30
0.0
 10
123.53147786458332
 20
133.32278374565971
 30
0.0
 10
123.53147786458332
 20
133.32278374565971
 30
0.0
  0
LINE
  5
20E
100
AcDbEntity
  8
レイヤー_2
 62
     7
100
AcDbLine
 10
124.352789
 20
133.322784
 30
0.0
 11
123.531478
 21
133.322784
 31
0.0
  0
SPLINE
  5
20D
100
AcDbEntity
  8
レイヤー_2
 62
     7
100
AcDbSpline
210
0.0
220
0.0
230
1.0
 70
     8
 71
     3
 72
    11
 73
     7
 74
     0
 42
0.00000001
 43
0.00000001
 40
0.0
 40
0.0
 40
0.0
 40
0.0
 40
1.0
 40
1.0
 40
1.0
 40
2.0
 40
2.0
 40
2.0
 40
2.0
 10
123.62105034722221
 20
130.89640299479166
 30
0.0
 10
123.59969075520833
 20
130.84748263888886
 30
0.0
 10
123.57833116319443
 20
130.79890679253472
 30
0.0
 10
123.55559353298609
 20
130.7830593532986
 30
0.0
 10
123.55559353298609
 20
130.7830593532986
 30
0.0
 10
123.53147786458332
 20
130.77306857638888
 30
0.0
 10
123.53147786458332
 20
130.77306857638888
 30
0.0
  0
LINE
  5
20C
100
AcDbEntity
  8
レイヤー_2
 62
     7
100
AcDbLine
 10
124.352789
 20
130.773069
 30
0.0
 11
123.531478
 21
130.773069
 31
0.0
  0
SPLINE
  5
20B
100
AcDbEntity
  8
レイヤー_2
 62
     7
100
AcDbSpline
210
0.0
220
0.0
230
1.0
 70
     8
 71
     3
 72
    11
 73
     7
 74
     0
 42
0.00000001
 43
0.00000001
 40
0.0
 40
0.0
 40
0.0
 40
0.0
 40
1.0
 40
1.0
 40
1.0
 40
2.0
 40
2.0
 40
2.0
 40
2.0
 10
126.27584092881943
 20
133.32278374565971
 30
0.0
 10
126.27584092881943
 20
133.32278374565971
 30
0.0
 10
126.29995659722221
 20
133.31313747829859
 30
0.0
 10
126.29995659722221
 20
133.31313747829859
 30
0.0
 10
126.32269422743055
 20
133.29625651041667
 30
0.0
 10
126.34474283854165
 20
133.2480251736111
 30
0.0
 10
126.36679144965277
 20
133.19979383680555
 30
0.0
  0
LINE
  5
20A
100
AcDbEntity
  8
レイヤー_2
 62
     7
100
AcDbLine
 10
125.725315
 20
133.322784
 30
0.0
 11
126.284798
 21
133.322784
 31
0.0
  0
SPLINE
  5
209
100
AcDbEntity
  8
レイヤー_2
 62
     7
100
AcDbSpline
210
0.0
220
0.0
230
1.0
 70
     8
 71
     3
 72
    11
 73
     7
 74
     0
 42
0.00000001
 43
0.00000001
 40
0.0
 40
0.0
 40
0.0
 40
0.0
 40
1.0
 40
1.0
 40
1.0
 40
2.0
 40
2.0
 40
2.0
 40
2.0
 10
126.29375542534721
 20
130.77995876736111
 30
0.0
 10
126.29375542534721
 20
130.77995876736111
 30
0.0
 10
126.29995659722221
 20
130.7830593532986
 30
0.0
 10
126.29995659722221
 20
130.7830593532986
 30
0.0
 10
126.32269422743055
 20
130.79442816840276
 30
0.0
 10
126.34474283854165
 20
130.84541558159722
 30
0.0
 10
126.36679144965277
 20
130.89640299479166
 30
0.0
  0
LINE
  5
208
100
AcDbEntity
  8
レイヤー_2
 62
     7
100
AcDbLine
 10
126.285487
 20
130.773069
 30
0.0
 11
125.725315
 21
130.773069
 31
0.0
  0
LINE
  5
207
100
AcDbEntity
  8
レイヤー_2
 62
     7
100
AcDbLine
 10
123.531478
 20
130.773069
 30
0.0
 11
123.513563
 21
130.791328
 31
0.0
  0
LINE
  5
206
100
AcDbEntity
  8
レイヤー_2
 62
     7
100
AcDbLine
 10
123.531478
 20
133.322784
 30
0.0
 11
123.513563
 21
133.304525
 31
0.0
  0
LINE
  5
205
100
AcDbEntity
  8
レイヤー_2
 62
     7
100
AcDbLine
 10
131.279498
 20
139.336542
 30
0.0
 11
131.279498
 21
140.611917
 31
0.0
  0
LINE
  5
204
100
AcDbEntity
  8
レイヤー_2
 62
     7
100
AcDbLine
 10
120.760243
 20
140.718026
 30
0.0
 11
131.181657
 21
140.718026
 31
0.0
  0
SPLINE
  5
203
100
AcDbEntity
  8
レイヤー_2
 62
     7
100
AcDbSpline
210
0.0
220
0.0
230
1.0
 70
     8
 71
     3
 72
     8
 73
     4
 74
     0
 42
0.00000001
 43
0.00000001
 40
0.0
 40
0.0
 40
0.0
 40
0.0
 40
1.0
 40
1.0
 40
1.0
 40
1.0
 10
131.27949761284722
 20
140.61570638020831
 30
0.0
 10
131.27949761284722
 20
140.67082790798611
 30
0.0
 10
131.23677842881943
 20
140.71595865885416
 30
0.0
 10
131.18165690104166
 20
140.71802571614583
 30
0.0
  0
SPLINE
  5
202
100
AcDbEntity
  8
レイヤー_2
 62
     7
100
AcDbSpline
210
0.0
220
0.0
230
1.0
 70
     8
 71
     3
 72
     8
 73
     4
 74
     0
 42
0.00000001
 43
0.00000001
 40
0.0
 40
0.0
 40
0.0
 40
0.0
 40
1.0
 40
1.0
 40
1.0
 40
1.0
 10
131.27949761284722
 20
140.6119167751736
 30
0.0
 10
131.27949761284722
 20
140.61260579427082
 30
0.0
 10
131.27949761284722
 20
140.61432834201386
 30
0.0
 10
131.27949761284722
 20
140.61570638020831
 30
0.0
  0
SPLINE
  5
201
100
AcDbEntity
  8
レイヤー_2
 62
     7
100
AcDbSpline
210
0.0
220
0.0
230
1.0
 70
     8
 71
     3
 72
     8
 73
     4
 74
     0
 42
0.00000001
 43
0.00000001
 40
0.0
 40
0.0
 40
0.0
 40
0.0
 40
1.0
 40
1.0
 40
1.0
 40
1.0
 10
131.27949761284722
 20
139.33240831163192
 30
0.0
 10
131.27949761284722
 20
139.33413085937499
 30
0.0
 10
131.27949761284722
 20
139.33550889756944
 30
0.0
 10
131.27949761284722
 20
139.33654242621526
 30
0.0
  0
SPLINE
  5
200
100
AcDbEntity
  8
レイヤー_2
 62
     7
100
AcDbSpline
210
0.0
220
0.0
230
1.0
 70
     8
 71
     3
 72
     8
 73
     4
 74
     0
 42
0.00000001
 43
0.00000001
 40
0.0
 40
0.0
 40
0.0
 40
0.0
 40
1.0
 40
1.0
 40
1.0
 40
1.0
 10
131.18165690104166
 20
139.23043348524305
 30
0.0
 10
131.23677842881943
 20
139.23250054253472
 30
0.0
 10
131.27949761284722
 20
139.27763129340278
 30
0.0
 10
131.27949761284722
 20
139.33240831163192
 30
0.0
  0
LINE
  5
1FF
100
AcDbEntity
  8
レイヤー_2
 62
     7
100
AcDbLine
 10
131.181657
 20
139.230433
 30
0.0
 11
120.760243
 21
139.230433
 31
0.0
  0
LINE
  5
1FE
100
AcDbEntity
  8
レイヤー_2
 62
     7
100
AcDbLine
 10
120.972461
 20
140.718026
 30
0.0
 11
121.07857
 21
140.718026
 31
0.0
  0
LINE
  5
1FD
100
AcDbEntity
  8
レイヤー_2
 62
     7
100
AcDbLine
 10
124.587744
 20
139.230433
 30
0.0
 11
122.368414
 21
139.230433
 31
0.0
  0
LINE
  5
1FC
100
AcDbEntity
  8
レイヤー_2
 62
     7
100
AcDbLine
 10
126.267573
 20
139.230433
 30
0.0
 11
124.587744
 21
139.230433
 31
0.0
  0
LINE
  5
1FB
100
AcDbEntity
  8
レイヤー_2
 62
     7
100
AcDbLine
 10
129.498383
 20
139.230433
 30
0.0
 11
128.728749
 21
139.230433
 31
0.0
  0
LINE
  5
1FA
100
AcDbEntity
  8
レイヤー_2
 62
     7
100
AcDbLine
 10
126.604503
 20
139.230433
 30
0.0
 11
126.267573
 21
139.230433
 31
0.0
  0
LINE
  5
1F9
100
AcDbEntity
  8
レイヤー_2
 62
     7
100
AcDbLine
 10
131.014914
 20
139.230433
 30
0.0
 11
129.710601
 21
139.230433
 31
0.0
  0
LINE
  5
1F8
100
AcDbEntity
  8
レイヤー_2
 62
     7
100
AcDbLine
 10
129.710601
 20
139.230433
 30
0.0
 11
129.498383
 21
139.230433
 31
0.0
  0
LINE
  5
1F7
100
AcDbEntity
  8
レイヤー_2
 62
     7
100
AcDbLine
 10
121.07857
 20
141.037042
 30
0.0
 11
131.278809
 21
141.037042
 31
0.0
  0
LINE
  5
1F6
100
AcDbEntity
  8
レイヤー_2
 62
     7
100
AcDbLine
 10
170.186339
 20
203.10836
 30
0.0
 11
171.390744
 21
203.150046
 31
0.0
  0
LINE
  5
1F5
100
AcDbEntity
  8
レイヤー_2
 62
     7
100
AcDbLine
 10
166.484928
 20
202.979169
 30
0.0
 11
170.186339
 21
203.10836
 31
0.0
  0
LINE
  5
1F4
100
AcDbEntity
  8
レイヤー_2
 62
     7
100
AcDbLine
 10
170.312429
 20
199.497728
 30
0.0
 11
171.517524
 21
199.539586
 31
0.0
  0
LINE
  5
1F3
100
AcDbEntity
  8
レイヤー_2
 62
     7
100
AcDbLine
 10
166.611019
 20
199.368537
 30
0.0
 11
170.312429
 21
199.497728
 31
0.0
  0
LINE
  5
1F2
100
AcDbEntity
  8
レイヤー_2
 62
     7
100
AcDbLine
 10
121.505073
 20
148.474314
 30
0.0
 11
131.27812
 21
148.474314
 31
0.0
  0
SPLINE
  5
1F1
100
AcDbEntity
  8
レイヤー_2
 62
     7
100
AcDbSpline
210
0.0
220
0.0
230
1.0
 70
     8
 71
     3
 72
    20
 73
    16
 74
     0
 42
0.00000001
 43
0.00000001
 40
0.0
 40
0.0
 40
0.0
 40
0.0
 40
1.0
 40
1.0
 40
1.0
 40
2.0
 40
2.0
 40
2.0
 40
3.0
 40
3.0
 40
3.0
 40
4.0
 40
4.0
 40
4.0
 40
5.0
 40
5.0
 40
5.0
 40
5.0
 10
121.56432834201388
 20
171.31770833333331
 30
0.0
 10
121.56226128472221
 20
171.40366346571179
 30
0.0
 10
121.56088324652777
 20
171.48858506944444
 30
0.0
 10
121.55743815104165
 20
171.56954481336803
 30
0.0
 10
121.55399305555555
 20
171.64981553819442
 30
0.0
 10
121.54710286458332
 20
171.72577989366317
 30
0.0
 10
121.54090169270832
 20
171.79244249131943
 30
0.0
 10
121.5340115017361
 20
171.85962185329859
 30
0.0
 10
121.52712131076387
 20
171.91681043836803
 30
0.0
 10
121.52092013888888
 20
171.96366373697916
 30
0.0
 10
121.51402994791665
 20
172.01120605468748
 30
0.0
 10
121.50920681423609
 20
172.04858534071178
 30
0.0
 10
121.50713975694444
 20
172.06322699652776
 30
0.0
 10
121.50576171874999
 20
172.07339002821178
 30
0.0
 10
121.50576171874999
 20
172.07339002821178
 30
0.0
 10
121.50576171874999
 20
172.07339002821178
 30
0.0
  0
SPLINE
  5
1F0
100
AcDbEntity
  8
レイヤー_2
 62
     7
100
AcDbSpline
210
0.0
220
0.0
230
1.0
 70
     8
 71
     3
 72
    20
 73
    16
 74
     0
 42
0.00000001
 43
0.00000001
 40
0.0
 40
0.0
 40
0.0
 40
0.0
 40
1.0
 40
1.0
 40
1.0
 40
2.0
 40
2.0
 40
2.0
 40
3.0
 40
3.0
 40
3.0
 40
4.0
 40
4.0
 40
4.0
 40
5.0
 40
5.0
 40
5.0
 40
5.0
 10
121.50369466145833
 20
170.55393066406248
 30
0.0
 10
121.50369466145833
 20
170.55393066406248
 30
0.0
 10
121.50645073784722
 20
170.56891682942708
 30
0.0
 10
121.50989583333332
 20
170.59337700737845
 30
0.0
 10
121.51334092881943
 20
170.61783718532985
 30
0.0
 10
121.51954210069444
 20
170.66055636935764
 30
0.0
 10
121.52643229166665
 20
170.71292182074652
 30
0.0
 10
121.53263346354166
 20
170.76649305555554
 30
0.0
 10
121.53952365451387
 20
170.82988281249999
 30
0.0
 10
121.54572482638888
 20
170.90154079861111
 30
0.0
 10
121.55261501736111
 20
170.97388780381942
 30
0.0
 10
121.55743815104165
 20
171.05484754774304
 30
0.0
 10
121.56088324652777
 20
171.13856336805554
 30
0.0
 10
121.56226128472221
 20
171.19730224609373
 30
0.0
 10
121.56363932291666
 20
171.25776367187498
 30
0.0
 10
121.56432834201388
 20
171.31770833333331
 30
0.0
  0
LINE
  5
1EF
100
AcDbEntity
  8
レイヤー_2
 62
     7
100
AcDbLine
 10
126.391596
 20
173.868113
 30
0.0
 11
121.503695
 21
173.868113
 31
0.0
  0
LINE
  5
1EE
100
AcDbEntity
  8
レイヤー_2
 62
     7
100
AcDbLine
 10
131.278809
 20
173.868113
 30
0.0
 11
126.391596
 21
173.868113
 31
0.0
  0
LINE
  5
1ED
100
AcDbEntity
  8
レイヤー_2
 62
     7
100
AcDbLine
 10
126.78916
 20
147.687454
 30
0.0
 11
126.391596
 21
147.687454
 31
0.0
  0
LINE
  5
1EC
100
AcDbEntity
  8
レイヤー_2
 62
     7
100
AcDbLine
 10
128.940967
 20
147.687454
 30
0.0
 11
126.78916
 21
147.687454
 31
0.0
  0
LINE
  5
1EB
100
AcDbEntity
  8
レイヤー_2
 62
     7
100
AcDbLine
 10
131.287766
 20
140.611917
 30
0.0
 11
131.279498
 21
140.611917
 31
0.0
  0
LINE
  5
1EA
100
AcDbEntity
  8
レイヤー_2
 62
     7
100
AcDbLine
 10
131.287766
 20
139.336542
 30
0.0
 11
131.279498
 21
139.336542
 31
0.0
  0
LINE
  5
1E9
100
AcDbEntity
  8
レイヤー_2
 62
     7
100
AcDbLine
 10
182.446745
 20
199.119112
 30
0.0
 11
171.516146
 21
199.119112
 31
0.0
  0
LINE
  5
1E8
100
AcDbEntity
  8
レイヤー_2
 62
     7
100
AcDbLine
 10
182.461903
 20
198.367565
 30
0.0
 11
180.959153
 21
199.87066
 31
0.0
  0
SPLINE
  5
1E7
100
AcDbEntity
  8
レイヤー_2
 62
     7
100
AcDbSpline
210
0.0
220
0.0
230
1.0
 70
     8
 71
     3
 72
     8
 73
     4
 74
     0
 42
0.00000001
 43
0.00000001
 40
0.0
 40
0.0
 40
0.0
 40
0.0
 40
1.0
 40
1.0
 40
1.0
 40
1.0
 10
73.800318739149304
 20
169.06857774522567
 30
0.0
 10
73.800318739149304
 20
169.06857774522567
 30
0.0
 10
70.67837320963541
 20
165.89512803819443
 30
0.0
 10
70.578809950086793
 20
164.6233710394965
 30
0.0
  0
SPLINE
  5
1E6
100
AcDbEntity
  8
レイヤー_2
 62
     7
100
AcDbSpline
210
0.0
220
0.0
230
1.0
 70
     8
 71
     3
 72
     8
 73
     4
 74
     0
 42
0.00000001
 43
0.00000001
 40
0.0
 40
0.0
 40
0.0
 40
0.0
 40
1.0
 40
1.0
 40
1.0
 40
1.0
 10
73.71160753038194
 20
159.82865939670137
 30
0.0
 10
73.71160753038194
 20
159.82865939670137
 30
0.0
 10
70.191753472222217
 20
163.27186008029511
 30
0.0
 10
70.578809950086793
 20
164.6233710394965
 30
0.0
  0
LINE
  5
1E5
100
AcDbEntity
  8
レイヤー_2
 62
     7
100
AcDbLine
 10
73.820128
 20
137.874444
 30
0.0
 11
73.764834
 21
138.937256
 31
0.0
  0
LINE
  5
1E4
100
AcDbEntity
  8
レイヤー_2
 62
     7
100
AcDbLine
 10
63.888435
 20
138.937256
 30
0.0
 11
63.833141
 21
137.874444
 31
0.0
  0
LINE
  5
1E3
100
AcDbEntity
  8
レイヤー_2
 62
     7
100
AcDbLine
 10
73.759322
 20
138.937256
 30
0.0
 11
73.764834
 21
138.937256
 31
0.0
  0
LINE
  5
1E2
100
AcDbEntity
  8
レイヤー_2
 62
     7
100
AcDbLine
 10
63.888435
 20
138.937256
 30
0.0
 11
73.759322
 21
138.937256
 31
0.0
  0
LINE
  5
1E1
100
AcDbEntity
  8
レイヤー_2
 62
     7
100
AcDbLine
 10
73.814271
 20
137.874444
 30
0.0
 11
73.820128
 21
137.874444
 31
0.0
  0
LINE
  5
1E0
100
AcDbEntity
  8
レイヤー_2
 62
     7
100
AcDbLine
 10
63.833141
 20
137.874444
 30
0.0
 11
73.814271
 21
137.874444
 31
0.0
  0
SPLINE
  5
1DF
100
AcDbEntity
  8
レイヤー_2
 62
     7
100
AcDbSpline
210
0.0
220
0.0
230
1.0
 70
     8
 71
     3
 72
    14
 73
    10
 74
     0
 42
0.00000001
 43
0.00000001
 40
0.0
 40
0.0
 40
0.0
 40
0.0
 40
1.0
 40
1.0
 40
1.0
 40
2.0
 40
2.0
 40
2.0
 40
3.0
 40
3.0
 40
3.0
 40
3.0
 10
66.278297254774301
 20
125.75356445312499
 30
0.0
 10
66.623495822482639
 20
125.67536078559027
 30
0.0
 10
66.891524251302073
 20
125.54410264756943
 30
0.0
 10
67.044658745659717
 20
125.39079589843749
 30
0.0
 10
67.453936089409723
 20
124.98117404513887
 30
0.0
 10
69.090700954861106
 20
124.72520345052082
 30
0.0
 10
69.602297634548606
 20
125.08383789062499
 30
0.0
 10
69.939227973090269
 20
125.31982693142361
 30
0.0
 10
70.765706380208329
 20
125.40009765624998
 30
0.0
 10
71.377727593315967
 20
125.32499457465276
 30
0.0
  0
LINE
  5
1DE
100
AcDbEntity
  8
レイヤー_2
 62
     7
100
AcDbLine
 10
68.614244
 20
146.901972
 30
0.0
 11
68.614244
 21
147.687454
 31
0.0
  0
LINE
  5
1DD
100
AcDbEntity
  8
レイヤー_2
 62
     7
100
AcDbLine
 10
66.064012
 20
147.687454
 30
0.0
 11
66.064012
 21
146.901972
 31
0.0
  0
SPLINE
  5
1DC
100
AcDbEntity
  8
レイヤー_2
 62
     7
100
AcDbSpline
210
0.0
220
0.0
230
1.0
 70
     8
 71
     3
 72
     8
 73
     4
 74
     0
 42
0.00000001
 43
0.00000001
 40
0.0
 40
0.0
 40
0.0
 40
0.0
 40
1.0
 40
1.0
 40
1.0
 40
1.0
 10
68.614244249131943
 20
147.6874538845486
 30
0.0
 10
68.614244249131943
 20
147.74016384548611
 30
0.0
 10
68.608387586805549
 20
147.79149576822914
 30
0.0
 10
68.598913574218741
 20
147.8362820095486
 30
0.0
  0
SPLINE
  5
1DB
100
AcDbEntity
  8
レイヤー_2
 62
     7
100
AcDbSpline
210
0.0
220
0.0
230
1.0
 70
     8
 71
     3
 72
     8
 73
     4
 74
     0
 42
0.00000001
 43
0.00000001
 40
0.0
 40
0.0
 40
0.0
 40
0.0
 40
1.0
 40
1.0
 40
1.0
 40
1.0
 10
66.079170735677081
 20
147.8362820095486
 30
0.0
 10
66.068318684895829
 20
147.78495008680554
 30
0.0
 10
66.064012315538193
 20
147.73361816406248
 30
0.0
 10
66.064012315538193
 20
147.6874538845486
 30
0.0
  0
LINE
  5
1DA
100
AcDbEntity
  8
レイヤー_2
 62
     7
100
AcDbLine
 10
68.401854
 20
124.935354
 30
0.0
 11
68.401854
 21
137.237101
 31
0.0
  0
LINE
  5
1D9
100
AcDbEntity
  8
レイヤー_2
 62
     7
100
AcDbLine
 10
68.401854
 20
138.937256
 30
0.0
 11
68.401854
 21
146.901972
 31
0.0
  0
LINE
  5
1D8
100
AcDbEntity
  8
レイヤー_2
 62
     7
100
AcDbLine
 10
66.276575
 20
146.901972
 30
0.0
 11
66.276575
 21
138.937256
 31
0.0
  0
LINE
  5
1D7
100
AcDbEntity
  8
レイヤー_2
 62
     7
100
AcDbLine
 10
66.276575
 20
136.06818
 30
0.0
 11
66.276575
 21
125.753564
 31
0.0
  0
SPLINE
  5
1D6
100
AcDbEntity
  8
レイヤー_2
 62
     7
100
AcDbSpline
210
0.0
220
0.0
230
1.0
 70
     8
 71
     3
 72
     8
 73
     4
 74
     0
 42
0.00000001
 43
0.00000001
 40
0.0
 40
0.0
 40
0.0
 40
0.0
 40
1.0
 40
1.0
 40
1.0
 40
1.0
 10
71.588739691840274
 20
147.6874538845486
 30
0.0
 10
71.588739691840274
 20
147.74464246961804
 30
0.0
 10
71.58236626519097
 20
147.80148654513889
 30
0.0
 10
71.570997450086793
 20
147.85006239149305
 30
0.0
  0
SPLINE
  5
1D5
100
AcDbEntity
  8
レイヤー_2
 62
     7
100
AcDbSpline
210
0.0
220
0.0
230
1.0
 70
     8
 71
     3
 72
     8
 73
     4
 74
     0
 42
0.00000001
 43
0.00000001
 40
0.0
 40
0.0
 40
0.0
 40
0.0
 40
1.0
 40
1.0
 40
1.0
 40
1.0
 10
69.054699707031247
 20
147.8362820095486
 30
0.0
 10
69.043503146701383
 20
147.78495008680554
 30
0.0
 10
69.038163248697913
 20
147.73361816406248
 30
0.0
 10
69.039369032118046
 20
147.6874538845486
 30
0.0
  0
LINE
  5
1D4
100
AcDbEntity
  8
レイヤー_2
 62
     7
100
AcDbLine
 10
71.58874
 20
146.901972
 30
0.0
 11
71.58874
 21
147.687454
 31
0.0
  0
LINE
  5
1D3
100
AcDbEntity
  8
レイヤー_2
 62
     7
100
AcDbLine
 10
69.039369
 20
147.687454
 30
0.0
 11
69.039369
 21
146.901972
 31
0.0
  0
LINE
  5
1D2
100
AcDbEntity
  8
レイヤー_2
 62
     7
100
AcDbLine
 10
71.376522
 20
125.324995
 30
0.0
 11
71.376522
 21
136.06818
 31
0.0
  0
LINE
  5
1D1
100
AcDbEntity
  8
レイヤー_2
 62
     7
100
AcDbLine
 10
71.376522
 20
138.937256
 30
0.0
 11
71.376522
 21
146.901972
 31
0.0
  0
LINE
  5
1D0
100
AcDbEntity
  8
レイヤー_2
 62
     7
100
AcDbLine
 10
69.251415
 20
146.901972
 30
0.0
 11
69.251415
 21
138.937256
 31
0.0
  0
LINE
  5
1CF
100
AcDbEntity
  8
レイヤー_2
 62
     7
100
AcDbLine
 10
69.251415
 20
137.130648
 30
0.0
 11
69.251415
 21
124.951891
 31
0.0
  0
LINE
  5
1CE
100
AcDbEntity
  8
レイヤー_2
 62
     7
100
AcDbLine
 10
65.245974
 20
148.261751
 30
0.0
 11
65.245974
 21
147.836282
 31
0.0
  0
LINE
  5
1CD
100
AcDbEntity
  8
レイヤー_2
 62
     7
100
AcDbLine
 10
72.40695
 20
147.836282
 30
0.0
 11
72.40695
 21
148.261751
 31
0.0
  0
LINE
  5
1CC
100
AcDbEntity
  8
レイヤー_2
 62
     7
100
AcDbLine
 10
72.119973
 20
135.686119
 30
0.0
 11
72.119973
 21
135.996522
 31
0.0
  0
LINE
  5
1CB
100
AcDbEntity
  8
レイヤー_2
 62
     7
100
AcDbLine
 10
72.119973
 20
135.996522
 30
0.0
 11
71.712935
 21
136.06818
 31
0.0
  0
LINE
  5
1CA
100
AcDbEntity
  8
レイヤー_2
 62
     7
100
AcDbLine
 10
71.801474
 20
135.134215
 30
0.0
 11
72.119973
 21
135.686119
 31
0.0
  0
LINE
  5
1C9
100
AcDbEntity
  8
レイヤー_2
 62
     7
100
AcDbLine
 10
71.801474
 20
130.160531
 30
0.0
 11
71.801474
 21
135.134215
 31
0.0
  0
LINE
  5
1C8
100
AcDbEntity
  8
レイヤー_2
 62
     7
100
AcDbLine
 10
69.251415
 20
130.099552
 30
0.0
 11
69.223337
 21
130.08336
 31
0.0
  0
LINE
  5
1C7
100
AcDbEntity
  8
レイヤー_2
 62
     7
100
AcDbLine
 10
69.223337
 20
127.68833
 30
0.0
 11
69.251415
 21
127.672138
 31
0.0
  0
LINE
  5
1C6
100
AcDbEntity
  8
レイヤー_2
 62
     7
100
AcDbLine
 10
72.255021
 20
130.08336
 30
0.0
 11
72.119973
 21
130.160531
 31
0.0
  0
LINE
  5
1C5
100
AcDbEntity
  8
レイヤー_2
 62
     7
100
AcDbLine
 10
72.119973
 20
127.610815
 30
0.0
 11
72.255021
 21
127.68833
 31
0.0
  0
LINE
  5
1C4
100
AcDbEntity
  8
レイヤー_2
 62
     7
100
AcDbLine
 10
74.363075
 20
136.174634
 30
0.0
 11
74.363075
 21
137.449664
 31
0.0
  0
LINE
  5
1C3
100
AcDbEntity
  8
レイヤー_2
 62
     7
100
AcDbLine
 10
63.31362
 20
137.449664
 30
0.0
 11
63.31362
 21
136.174634
 31
0.0
  0
SPLINE
  5
1C2
100
AcDbEntity
  8
レイヤー_2
 62
     7
100
AcDbSpline
210
0.0
220
0.0
230
1.0
 70
     8
 71
     3
 72
     8
 73
     4
 74
     0
 42
0.00000001
 43
0.00000001
 40
0.0
 40
0.0
 40
0.0
 40
0.0
 40
1.0
 40
1.0
 40
1.0
 40
1.0
 10
63.419729275173609
 20
137.55646158854165
 30
0.0
 10
63.361334906684021
 20
137.55646158854165
 30
0.0
 10
63.313620334201381
 20
137.50857476128471
 30
0.0
 10
63.313620334201381
 20
137.44966362847222
 30
0.0
  0
SPLINE
  5
1C1
100
AcDbEntity
  8
レイヤー_2
 62
     7
100
AcDbSpline
210
0.0
220
0.0
230
1.0
 70
     8
 71
     3
 72
     8
 73
     4
 74
     0
 42
0.00000001
 43
0.00000001
 40
0.0
 40
0.0
 40
0.0
 40
0.0
 40
1.0
 40
1.0
 40
1.0
 40
1.0
 10
74.363075086805551
 20
137.44966362847222
 30
0.0
 10
74.363075086805551
 20
137.50857476128471
 30
0.0
 10
74.315705023871516
 20
137.55646158854165
 30
0.0
 10
74.257482910156241
 20
137.55646158854165
 30
0.0
  0
SPLINE
  5
1C0
100
AcDbEntity
  8
レイヤー_2
 62
     7
100
AcDbSpline
210
0.0
220
0.0
230
1.0
 70
     8
 71
     3
 72
     8
 73
     4
 74
     0
 42
0.00000001
 43
0.00000001
 40
0.0
 40
0.0
 40
0.0
 40
0.0
 40
1.0
 40
1.0
 40
1.0
 40
1.0
 10
63.313620334201381
 20
136.17463378906248
 30
0.0
 10
63.313620334201381
 20
136.11641167534722
 30
0.0
 10
63.361334906684021
 20
136.06818033854165
 30
0.0
 10
63.419729275173609
 20
136.06818033854165
 30
0.0
  0
SPLINE
  5
1BF
100
AcDbEntity
  8
レイヤー_2
 62
     7
100
AcDbSpline
210
0.0
220
0.0
230
1.0
 70
     8
 71
     3
 72
     8
 73
     4
 74
     0
 42
0.00000001
 43
0.00000001
 40
0.0
 40
0.0
 40
0.0
 40
0.0
 40
1.0
 40
1.0
 40
1.0
 40
1.0
 10
74.257482910156241
 20
136.06818033854165
 30
0.0
 10
74.315705023871516
 20
136.06818033854165
 30
0.0
 10
74.363075086805551
 20
136.11641167534722
 30
0.0
 10
74.363075086805551
 20
136.17463378906248
 30
0.0
  0
SPLINE
  5
1BE
100
AcDbEntity
  8
レイヤー_2
 62
     7
100
AcDbSpline
210
0.0
220
0.0
230
1.0
 70
     8
 71
     3
 72
     8
 73
     4
 74
     0
 42
0.00000001
 43
0.00000001
 40
0.0
 40
0.0
 40
0.0
 40
0.0
 40
1.0
 40
1.0
 40
1.0
 40
1.0
 10
66.862757703993054
 20
137.44966362847222
 30
0.0
 10
66.862757703993054
 20
137.50857476128471
 30
0.0
 10
66.815387641059019
 20
137.55646158854165
 30
0.0
 10
66.756821017795133
 20
137.55646158854165
 30
0.0
  0
LINE
  5
1BD
100
AcDbEntity
  8
レイヤー_2
 62
     7
100
AcDbLine
 10
66.862758
 20
136.174634
 30
0.0
 11
66.862758
 21
137.449664
 31
0.0
  0
LINE
  5
1BC
100
AcDbEntity
  8
レイヤー_2
 62
     7
100
AcDbLine
 10
71.13192
 20
137.449664
 30
0.0
 11
71.13192
 21
137.174745
 31
0.0
  0
SPLINE
  5
1BB
100
AcDbEntity
  8
レイヤー_2
 62
     7
100
AcDbSpline
210
0.0
220
0.0
230
1.0
 70
     8
 71
     3
 72
     8
 73
     4
 74
     0
 42
0.00000001
 43
0.00000001
 40
0.0
 40
0.0
 40
0.0
 40
0.0
 40
1.0
 40
1.0
 40
1.0
 40
1.0
 10
71.238028971354154
 20
137.55646158854165
 30
0.0
 10
71.179462348090269
 20
137.55646158854165
 30
0.0
 10
71.131920030381934
 20
137.50857476128471
 30
0.0
 10
71.131920030381934
 20
137.44966362847222
 30
0.0
  0
LINE
  5
1BA
100
AcDbEntity
  8
レイヤー_2
 62
     7
100
AcDbLine
 10
70.898859
 20
137.130648
 30
0.0
 11
70.898859
 21
136.174634
 31
0.0
  0
SPLINE
  5
1B9
100
AcDbEntity
  8
レイヤー_2
 62
     7
100
AcDbSpline
210
0.0
220
0.0
230
1.0
 70
     8
 71
     3
 72
     8
 73
     4
 74
     0
 42
0.00000001
 43
0.00000001
 40
0.0
 40
0.0
 40
0.0
 40
0.0
 40
1.0
 40
1.0
 40
1.0
 40
1.0
 10
71.005829535590266
 20
137.23710123697916
 30
0.0
 10
70.946918402777769
 20
137.23710123697916
 30
0.0
 10
70.898859320746524
 20
137.18921440972221
 30
0.0
 10
70.898859320746524
 20
137.13064778645833
 30
0.0
  0
SPLINE
  5
1B8
100
AcDbEntity
  8
レイヤー_2
 62
     7
100
AcDbSpline
210
0.0
220
0.0
230
1.0
 70
     8
 71
     3
 72
     8
 73
     4
 74
     0
 42
0.00000001
 43
0.00000001
 40
0.0
 40
0.0
 40
0.0
 40
0.0
 40
1.0
 40
1.0
 40
1.0
 40
1.0
 10
70.898859320746524
 20
136.17463378906248
 30
0.0
 10
70.898859320746524
 20
136.11641167534722
 30
0.0
 10
70.946918402777769
 20
136.06818033854165
 30
0.0
 10
71.005829535590266
 20
136.06818033854165
 30
0.0
  0
LINE
  5
1B7
100
AcDbEntity
  8
レイヤー_2
 62
     7
100
AcDbLine
 10
73.938812
 20
137.556462
 30
0.0
 11
73.938812
 21
137.874444
 31
0.0
  0
LINE
  5
1B6
100
AcDbEntity
  8
レイヤー_2
 62
     7
100
AcDbLine
 10
63.738228
 20
137.874444
 30
0.0
 11
63.738228
 21
137.556462
 31
0.0
  0
SPLINE
  5
1B5
100
AcDbEntity
  8
レイヤー_2
 62
     7
100
AcDbSpline
210
0.0
220
0.0
230
1.0
 70
     8
 71
     3
 72
     8
 73
     4
 74
     0
 42
0.00000001
 43
0.00000001
 40
0.0
 40
0.0
 40
0.0
 40
0.0
 40
1.0
 40
1.0
 40
1.0
 40
1.0
 10
64.420874023437491
 20
148.47431369357636
 30
0.0
 10
64.499077690972214
 20
148.3389214409722
 30
0.0
 10
64.640843370225681
 20
148.26244032118055
 30
0.0
 10
64.788982476128467
 20
148.26175130208333
 30
0.0
  0
SPLINE
  5
1B4
100
AcDbEntity
  8
レイヤー_2
 62
     7
100
AcDbSpline
210
0.0
220
0.0
230
1.0
 70
     8
 71
     3
 72
     8
 73
     4
 74
     0
 42
0.00000001
 43
0.00000001
 40
0.0
 40
0.0
 40
0.0
 40
0.0
 40
1.0
 40
1.0
 40
1.0
 40
1.0
 10
72.864114040798611
 20
148.26175130208333
 30
0.0
 10
73.020176866319431
 20
148.26175130208333
 30
0.0
 10
73.157291666666666
 20
148.34650065104165
 30
0.0
 10
73.232222493489573
 20
148.47431369357636
 30
0.0
  0
LINE
  5
1B3
100
AcDbEntity
  8
レイヤー_2
 62
     7
100
AcDbLine
 10
64.788982
 20
148.261751
 30
0.0
 11
72.864114
 21
148.261751
 31
0.0
  0
LINE
  5
1B2
100
AcDbEntity
  8
レイヤー_2
 62
     7
100
AcDbLine
 10
82.557235
 20
159.894977
 30
0.0
 11
83.544255
 21
159.90893
 31
0.0
  0
LINE
  5
1B1
100
AcDbEntity
  8
レイヤー_2
 62
     7
100
AcDbLine
 10
80.982654
 20
159.873273
 30
0.0
 11
81.465484
 21
159.879991
 31
0.0
  0
LINE
  5
1B0
100
AcDbEntity
  8
レイヤー_2
 62
     7
100
AcDbLine
 10
79.139183
 20
168.975905
 30
0.0
 11
78.889069
 21
168.979694
 31
0.0
  0
SPLINE
  5
1AF
100
AcDbEntity
  8
レイヤー_2
 62
     7
100
AcDbSpline
210
0.0
220
0.0
230
1.0
 70
     8
 71
     3
 72
     8
 73
     4
 74
     0
 42
0.00000001
 43
0.00000001
 40
0.0
 40
0.0
 40
0.0
 40
0.0
 40
1.0
 40
1.0
 40
1.0
 40
1.0
 10
80.924087185329853
 20
159.90961914062498
 30
0.0
 10
80.934939236111106
 20
159.88636474609373
 30
0.0
 10
80.957676866319431
 20
159.8729288736979
 30
0.0
 10
80.982653808593739
 20
159.87327338324653
 30
0.0
  0
SPLINE
  5
1AE
100
AcDbEntity
  8
レイヤー_2
 62
     7
100
AcDbSpline
210
0.0
220
0.0
230
1.0
 70
     8
 71
     3
 72
     8
 73
     4
 74
     0
 42
0.00000001
 43
0.00000001
 40
0.0
 40
0.0
 40
0.0
 40
0.0
 40
1.0
 40
1.0
 40
1.0
 40
1.0
 10
83.712375217013886
 20
160.08669704861109
 30
0.0
 10
83.712375217013886
 20
160.09324273003472
 30
0.0
 10
83.712375217013886
 20
160.09996066623262
 30
0.0
 10
83.71151394314235
 20
160.1054728190104
 30
0.0
  0
SPLINE
  5
1AD
100
AcDbEntity
  8
レイヤー_2
 62
     7
100
AcDbSpline
210
0.0
220
0.0
230
1.0
 70
     8
 71
     3
 72
     8
 73
     4
 74
     0
 42
0.00000001
 43
0.00000001
 40
0.0
 40
0.0
 40
0.0
 40
0.0
 40
1.0
 40
1.0
 40
1.0
 40
1.0
 10
83.544599066840277
 20
159.91168619791665
 30
0.0
 10
83.638650173611097
 20
159.91547580295136
 30
0.0
 10
83.712375217013886
 20
159.99299045138886
 30
0.0
 10
83.712375217013886
 20
160.08669704861109
 30
0.0
  0
SPLINE
  5
1AC
100
AcDbEntity
  8
レイヤー_2
 62
     7
100
AcDbSpline
210
0.0
220
0.0
230
1.0
 70
     8
 71
     3
 72
    11
 73
     7
 74
     0
 42
0.00000001
 43
0.00000001
 40
0.0
 40
0.0
 40
0.0
 40
0.0
 40
1.0
 40
1.0
 40
1.0
 40
2.0
 40
2.0
 40
2.0
 40
2.0
 10
78.889069281684016
 20
168.979694281684
 30
0.0
 10
78.889069281684016
 20
168.979694281684
 30
0.0
 10
78.888552517361106
 20
168.979694281684
 30
0.0
 10
78.888552517361106
 20
168.979694281684
 30
0.0
 10
78.853068033854157
 20
168.979694281684
 30
0.0
 10
78.824473741319437
 20
168.95075547960067
 30
0.0
 10
78.824473741319437
 20
168.91596001519096
 30
0.0
  0
LINE
  5
1AB
100
AcDbEntity
  8
レイヤー_2
 62
     7
100
AcDbLine
 10
83.712375
 20
160.092037
 30
0.0
 11
83.712375
 21
184.995426
 31
0.0
  0
SPLINE
  5
1AA
100
AcDbEntity
  8
レイヤー_2
 62
     7
100
AcDbSpline
210
0.0
220
0.0
230
1.0
 70
     8
 71
     3
 72
    11
 73
     7
 74
     0
 42
0.00000001
 43
0.00000001
 40
0.0
 40
0.0
 40
0.0
 40
0.0
 40
1.0
 40
1.0
 40
1.0
 40
2.0
 40
2.0
 40
2.0
 40
2.0
 10
79.139183213975684
 20
168.97590467664929
 30
0.0
 10
79.140733506944443
 20
168.97590467664929
 30
0.0
 10
79.142111545138889
 20
168.97590467664929
 30
0.0
 10
79.143317328559021
 20
168.97590467664929
 30
0.0
 10
79.319533962673603
 20
168.97590467664929
 30
0.0
 10
79.462505425347217
 20
169.11887613932291
 30
0.0
 10
79.462505425347217
 20
169.29474826388886
 30
0.0
  0
SPLINE
  5
1A9
100
AcDbEntity
  8
レイヤー_2
 62
     7
100
AcDbSpline
210
0.0
220
0.0
230
1.0
 70
     8
 71
     3
 72
     8
 73
     4
 74
     0
 42
0.00000001
 43
0.00000001
 40
0.0
 40
0.0
 40
0.0
 40
0.0
 40
1.0
 40
1.0
 40
1.0
 40
1.0
 10
83.712375217013886
 20
184.99542643229165
 30
0.0
 10
83.712030707465274
 20
185.08827175564235
 30
0.0
 10
83.637444390190964
 20
185.16371934678818
 30
0.0
 10
83.544943576388874
 20
185.16526963975693
 30
0.0
  0
LINE
  5
1A8
100
AcDbEntity
  8
レイヤー_2
 62
     7
100
AcDbLine
 10
78.389014
 20
160.427245
 30
0.0
 11
78.941262
 21
160.427245
 31
0.0
  0
LINE
  5
1A7
100
AcDbEntity
  8
レイヤー_2
 62
     7
100
AcDbLine
 10
78.824474
 20
168.396267
 30
0.0
 11
78.389014
 21
168.396267
 31
0.0
  0
SPLINE
  5
1A6
100
AcDbEntity
  8
レイヤー_2
 62
     7
100
AcDbSpline
210
0.0
220
0.0
230
1.0
 70
     8
 71
     3
 72
     8
 73
     4
 74
     0
 42
0.00000001
 43
0.00000001
 40
0.0
 40
0.0
 40
0.0
 40
0.0
 40
1.0
 40
1.0
 40
1.0
 40
1.0
 10
78.941262478298597
 20
160.42724473741319
 30
0.0
 10
79.51555989583332
 20
160.42724473741319
 30
0.0
 10
80.061435275607636
 20
160.54902886284719
 30
0.0
 10
80.529279242621527
 20
160.75694037543403
 30
0.0
  0
LINE
  5
1A5
100
AcDbEntity
  8
レイヤー_2
 62
     7
100
AcDbLine
 10
66.372348
 20
203.064091
 30
0.0
 11
66.372348
 21
199.453975
 31
0.0
  0
LINE
  5
1A4
100
AcDbEntity
  8
レイヤー_2
 62
     7
100
AcDbLine
 10
71.281093
 20
199.453975
 30
0.0
 11
71.281093
 21
203.064091
 31
0.0
  0
LINE
  5
1A3
100
AcDbEntity
  8
レイヤー_2
 62
     7
100
AcDbLine
 10
71.270585
 20
203.072359
 30
0.0
 11
71.270585
 21
204.763212
 31
0.0
  0
LINE
  5
1A2
100
AcDbEntity
  8
レイヤー_2
 62
     7
100
AcDbLine
 10
66.382856
 20
204.763212
 30
0.0
 11
66.382856
 21
203.072359
 31
0.0
  0
SPLINE
  5
1A1
100
AcDbEntity
  8
レイヤー_2
 62
     7
100
AcDbSpline
210
0.0
220
0.0
230
1.0
 70
     8
 71
     3
 72
    11
 73
     7
 74
     0
 42
0.00000001
 43
0.00000001
 40
0.0
 40
0.0
 40
0.0
 40
0.0
 40
1.0
 40
1.0
 40
1.0
 40
2.0
 40
2.0
 40
2.0
 40
2.0
 10
71.270585123697913
 20
225.27186550564235
 30
0.0
 10
71.270585123697913
 20
226.62113715277775
 30
0.0
 10
70.176250542534717
 20
227.71529947916665
 30
0.0
 10
68.826806640624994
 20
227.71529947916665
 30
0.0
 10
67.47650146484375
 20
227.71529947916665
 30
0.0
 10
66.382855902777777
 20
226.62113715277775
 30
0.0
 10
66.382855902777777
 20
225.27186550564235
 30
0.0
  0
LINE
  5
1A0
100
AcDbEntity
  8
レイヤー_2
 62
     7
100
AcDbLine
 10
66.382856
 20
225.271866
 30
0.0
 11
66.382856
 21
204.763212
 31
0.0
  0
LINE
  5
19F
100
AcDbEntity
  8
レイヤー_2
 62
     7
100
AcDbLine
 10
71.270585
 20
204.763212
 30
0.0
 11
71.270585
 21
225.271866
 31
0.0
  0
LINE
  5
19E
100
AcDbEntity
  8
レイヤー_2
 62
     7
100
AcDbLine
 10
71.270585
 20
173.868113
 30
0.0
 11
71.270585
 21
199.446224
 31
0.0
  0
LINE
  5
19D
100
AcDbEntity
  8
レイヤー_2
 62
     7
100
AcDbLine
 10
66.382856
 20
199.446224
 30
0.0
 11
66.382856
 21
173.868113
 31
0.0
  0
SPLINE
  5
19C
100
AcDbEntity
  8
レイヤー_2
 62
     7
100
AcDbSpline
210
0.0
220
0.0
230
1.0
 70
     8
 71
     3
 72
    14
 73
    10
 74
     0
 42
0.00000001
 43
0.00000001
 40
0.0
 40
0.0
 40
0.0
 40
0.0
 40
1.0
 40
1.0
 40
1.0
 40
2.0
 40
2.0
 40
2.0
 40
3.0
 40
3.0
 40
3.0
 40
3.0
 10
74.026661512586799
 20
159.84226752387153
 30
0.0
 10
74.025111219618054
 20
159.84312879774305
 30
0.0
 10
74.02459445529513
 20
159.84312879774305
 30
0.0
 10
74.023388671874997
 20
159.84312879774305
 30
0.0
 10
73.854406738281241
 20
159.84312879774305
 30
0.0
 10
73.716775173611111
 20
159.70515272352429
 30
0.0
 10
73.716775173611111
 20
159.53651529947916
 30
0.0
 10
73.716775173611111
 20
159.53444824218749
 30
0.0
 10
73.716775173611111
 20
159.53324245876735
 30
0.0
 10
73.717636447482633
 20
159.5315199110243
 30
0.0
  0
SPLINE
  5
19B
100
AcDbEntity
  8
レイヤー_2
 62
     7
100
AcDbSpline
210
0.0
220
0.0
230
1.0
 70
     8
 71
     3
 72
    14
 73
    10
 74
     0
 42
0.00000001
 43
0.00000001
 40
0.0
 40
0.0
 40
0.0
 40
0.0
 40
1.0
 40
1.0
 40
1.0
 40
2.0
 40
2.0
 40
2.0
 40
3.0
 40
3.0
 40
3.0
 40
3.0
 10
73.715052625868054
 20
169.28648003472222
 30
0.0
 10
73.71453586154513
 20
169.2828626844618
 30
0.0
 10
73.71453586154513
 20
169.27855631510414
 30
0.0
 10
73.71453586154513
 20
169.27493896484373
 30
0.0
 10
73.71453586154513
 20
169.11370849609372
 30
0.0
 10
73.845621744791657
 20
168.9824503580729
 30
0.0
 10
74.007541232638886
 20
168.9824503580729
 30
0.0
 10
74.012364366319431
 20
168.9824503580729
 30
0.0
 10
74.01632622612847
 20
168.9824503580729
 30
0.0
 10
74.020288085937494
 20
168.9824503580729
 30
0.0
  0
LINE
  5
19A
100
AcDbEntity
  8
レイヤー_2
 62
     7
100
AcDbLine
 10
63.939077
 20
173.868113
 30
0.0
 11
63.939077
 21
148.499807
 31
0.0
  0
LINE
  5
199
100
AcDbEntity
  8
レイヤー_2
 62
     7
100
AcDbLine
 10
73.713847
 20
169.28648
 30
0.0
 11
73.713847
 21
173.868113
 31
0.0
  0
LINE
  5
198
100
AcDbEntity
  8
レイヤー_2
 62
     7
100
AcDbLine
 10
73.713847
 20
148.499807
 30
0.0
 11
73.713847
 21
159.533242
 31
0.0
  0
SPLINE
  5
197
100
AcDbEntity
  8
レイヤー_2
 62
     7
100
AcDbSpline
210
0.0
220
0.0
230
1.0
 70
     8
 71
     3
 72
     8
 73
     4
 74
     0
 42
0.00000001
 43
0.00000001
 40
0.0
 40
0.0
 40
0.0
 40
0.0
 40
1.0
 40
1.0
 40
1.0
 40
1.0
 10
63.939077419704859
 20
148.49980740017361
 30
0.0
 10
63.939077419704859
 20
148.49119466145831
 30
0.0
 10
63.939421929253463
 20
148.48189290364581
 30
0.0
 10
63.940283203124991
 20
148.47431369357636
 30
0.0
  0
SPLINE
  5
196
100
AcDbEntity
  8
レイヤー_2
 62
     7
100
AcDbSpline
210
0.0
220
0.0
230
1.0
 70
     8
 71
     3
 72
     8
 73
     4
 74
     0
 42
0.00000001
 43
0.00000001
 40
0.0
 40
0.0
 40
0.0
 40
0.0
 40
1.0
 40
1.0
 40
1.0
 40
1.0
 10
73.712985568576386
 20
148.47431369357636
 30
0.0
 10
73.713846842447907
 20
148.48361545138889
 30
0.0
 10
73.713846842447907
 20
148.49188368055553
 30
0.0
 10
73.713846842447907
 20
148.49980740017361
 30
0.0
  0
LINE
  5
195
100
AcDbEntity
  8
レイヤー_2
 62
     7
100
AcDbLine
 10
78.389014
 20
168.979867
 30
0.0
 11
74.021149
 21
168.979867
 31
0.0
  0
LINE
  5
194
100
AcDbEntity
  8
レイヤー_2
 62
     7
100
AcDbLine
 10
74.025111
 20
159.843129
 30
0.0
 11
78.389014
 21
159.843129
 31
0.0
  0
LINE
  5
193
100
AcDbEntity
  8
レイヤー_2
 62
     7
100
AcDbLine
 10
71.570997
 20
138.937256
 30
0.0
 11
71.570997
 21
146.901972
 31
0.0
  0
LINE
  5
192
100
AcDbEntity
  8
レイヤー_2
 62
     7
100
AcDbLine
 10
68.614244
 20
146.901972
 30
0.0
 11
66.064012
 21
146.901972
 31
0.0
  0
LINE
  5
191
100
AcDbEntity
  8
レイヤー_2
 62
     7
100
AcDbLine
 10
69.517376
 20
146.901972
 30
0.0
 11
69.039369
 21
146.901972
 31
0.0
  0
LINE
  5
190
100
AcDbEntity
  8
レイヤー_2
 62
     7
100
AcDbLine
 10
71.58874
 20
146.901972
 30
0.0
 11
69.517376
 21
146.901972
 31
0.0
  0
LINE
  5
18F
100
AcDbEntity
  8
レイヤー_2
 62
     7
100
AcDbLine
 10
69.719948
 20
147.836282
 30
0.0
 11
72.40695
 21
147.836282
 31
0.0
  0
LINE
  5
18E
100
AcDbEntity
  8
レイヤー_2
 62
     7
100
AcDbLine
 10
65.245974
 20
147.836282
 30
0.0
 11
69.719948
 21
147.836282
 31
0.0
  0
LINE
  5
18D
100
AcDbEntity
  8
レイヤー_2
 62
     7
100
AcDbLine
 10
69.251415
 20
127.706934
 30
0.0
 11
69.154435
 21
127.734494
 31
0.0
  0
LINE
  5
18C
100
AcDbEntity
  8
レイヤー_2
 62
     7
100
AcDbLine
 10
69.154435
 20
127.734494
 30
0.0
 11
69.154435
 21
130.037196
 31
0.0
  0
LINE
  5
18B
100
AcDbEntity
  8
レイヤー_2
 62
     7
100
AcDbLine
 10
69.251415
 20
130.064412
 30
0.0
 11
69.154435
 21
130.037196
 31
0.0
  0
LINE
  5
18A
100
AcDbEntity
  8
レイヤー_2
 62
     7
100
AcDbLine
 10
72.119973
 20
135.996522
 30
0.0
 11
71.376522
 21
135.996522
 31
0.0
  0
LINE
  5
189
100
AcDbEntity
  8
レイヤー_2
 62
     7
100
AcDbLine
 10
72.119973
 20
135.686119
 30
0.0
 11
71.376522
 21
135.686119
 31
0.0
  0
LINE
  5
188
100
AcDbEntity
  8
レイヤー_2
 62
     7
100
AcDbLine
 10
71.801474
 20
135.134215
 30
0.0
 11
71.376522
 21
135.134215
 31
0.0
  0
SPLINE
  5
187
100
AcDbEntity
  8
レイヤー_2
 62
     7
100
AcDbSpline
210
0.0
220
0.0
230
1.0
 70
     8
 71
     3
 72
    11
 73
     7
 74
     0
 42
0.00000001
 43
0.00000001
 40
0.0
 40
0.0
 40
0.0
 40
0.0
 40
1.0
 40
1.0
 40
1.0
 40
2.0
 40
2.0
 40
2.0
 40
2.0
 10
71.687786187065967
 20
127.73449435763888
 30
0.0
 10
71.621295844184019
 20
127.71416829427082
 30
0.0
 10
71.555150010850681
 20
127.69315321180554
 30
0.0
 10
71.48693712022569
 20
127.68178439670137
 30
0.0
 10
71.45059136284722
 20
127.67558322482638
 30
0.0
 10
71.413728841145826
 20
127.67213812934027
 30
0.0
 10
71.37652180989582
 20
127.66869303385415
 30
0.0
  0
SPLINE
  5
186
100
AcDbEntity
  8
レイヤー_2
 62
     7
100
AcDbSpline
210
0.0
220
0.0
230
1.0
 70
     8
 71
     3
 72
    11
 73
     7
 74
     0
 42
0.00000001
 43
0.00000001
 40
0.0
 40
0.0
 40
0.0
 40
0.0
 40
1.0
 40
1.0
 40
1.0
 40
2.0
 40
2.0
 40
2.0
 40
2.0
 10
71.687786187065967
 20
130.03719618055555
 30
0.0
 10
71.621295844184019
 20
130.05821126302081
 30
0.0
 10
71.555150010850681
 20
130.07819281684027
 30
0.0
 10
71.48693712022569
 20
130.08990614149303
 30
0.0
 10
71.45059136284722
 20
130.09576280381944
 30
0.0
 10
71.413728841145826
 20
130.09955240885415
 30
0.0
 10
71.37652180989582
 20
130.10334201388886
 30
0.0
  0
LINE
  5
185
100
AcDbEntity
  8
レイヤー_2
 62
     7
100
AcDbLine
 10
71.687786
 20
127.734494
 30
0.0
 11
71.687786
 21
130.037196
 31
0.0
  0
SPLINE
  5
184
100
AcDbEntity
  8
レイヤー_2
 62
     7
100
AcDbSpline
210
0.0
220
0.0
230
1.0
 70
     8
 71
     3
 72
    11
 73
     7
 74
     0
 42
0.00000001
 43
0.00000001
 40
0.0
 40
0.0
 40
0.0
 40
0.0
 40
1.0
 40
1.0
 40
1.0
 40
2.0
 40
2.0
 40
2.0
 40
2.0
 10
72.005596245659717
 20
130.16053059895833
 30
0.0
 10
72.005596245659717
 20
130.16053059895833
 30
0.0
 10
71.983203124999989
 20
130.16018608940971
 30
0.0
 10
71.983203124999989
 20
130.16018608940971
 30
0.0
 10
71.883467610677073
 20
130.15432942708333
 30
0.0
 10
71.785282389322916
 20
130.09576280381944
 30
0.0
 10
71.687786187065967
 20
130.03719618055555
 30
0.0
  0
LINE
  5
183
100
AcDbEntity
  8
レイヤー_2
 62
     7
100
AcDbLine
 10
72.005596
 20
130.160531
 30
0.0
 11
71.376522
 21
130.160531
 31
0.0
  0
SPLINE
  5
182
100
AcDbEntity
  8
レイヤー_2
 62
     7
100
AcDbSpline
210
0.0
220
0.0
230
1.0
 70
     8
 71
     3
 72
    11
 73
     7
 74
     0
 42
0.00000001
 43
0.00000001
 40
0.0
 40
0.0
 40
0.0
 40
0.0
 40
1.0
 40
1.0
 40
1.0
 40
2.0
 40
2.0
 40
2.0
 40
2.0
 10
72.005596245659717
 20
127.61081542968749
 30
0.0
 10
72.005596245659717
 20
127.61081542968749
 30
0.0
 10
71.983203124999989
 20
127.6111599392361
 30
0.0
 10
71.983203124999989
 20
127.6111599392361
 30
0.0
 10
71.883467610677073
 20
127.61701660156248
 30
0.0
 10
71.785282389322916
 20
127.67523871527777
 30
0.0
 10
71.687786187065967
 20
127.73449435763888
 30
0.0
  0
LINE
  5
181
100
AcDbEntity
  8
レイヤー_2
 62
     7
100
AcDbLine
 10
72.005596
 20
127.610815
 30
0.0
 11
71.376522
 21
127.610815
 31
0.0
  0
LINE
  5
180
100
AcDbEntity
  8
レイヤー_2
 62
     7
100
AcDbLine
 10
72.324095
 20
127.734494
 30
0.0
 11
72.005596
 21
127.610815
 31
0.0
  0
LINE
  5
17F
100
AcDbEntity
  8
レイヤー_2
 62
     7
100
AcDbLine
 10
72.324095
 20
130.037196
 30
0.0
 11
72.005596
 21
130.160531
 31
0.0
  0
LINE
  5
17E
100
AcDbEntity
  8
レイヤー_2
 62
     7
100
AcDbLine
 10
72.324095
 20
127.734494
 30
0.0
 11
72.324095
 21
130.037196
 31
0.0
  0
LINE
  5
17D
100
AcDbEntity
  8
レイヤー_2
 62
     7
100
AcDbLine
 10
69.154435
 20
130.037196
 30
0.0
 11
69.232467
 21
130.067513
 31
0.0
  0
LINE
  5
17C
100
AcDbEntity
  8
レイヤー_2
 62
     7
100
AcDbLine
 10
69.154435
 20
127.734494
 30
0.0
 11
69.232467
 21
127.704178
 31
0.0
  0
LINE
  5
17B
100
AcDbEntity
  8
レイヤー_2
 62
     7
100
AcDbLine
 10
72.119973
 20
130.160531
 30
0.0
 11
72.005596
 21
130.160531
 31
0.0
  0
LINE
  5
17A
100
AcDbEntity
  8
レイヤー_2
 62
     7
100
AcDbLine
 10
72.119973
 20
127.610815
 30
0.0
 11
72.005596
 21
127.610815
 31
0.0
  0
LINE
  5
179
100
AcDbEntity
  8
レイヤー_2
 62
     7
100
AcDbLine
 10
71.283676
 20
137.556462
 30
0.0
 11
74.257483
 21
137.556462
 31
0.0
  0
LINE
  5
178
100
AcDbEntity
  8
レイヤー_2
 62
     7
100
AcDbLine
 10
63.419729
 20
137.556462
 30
0.0
 11
66.756821
 21
137.556462
 31
0.0
  0
LINE
  5
177
100
AcDbEntity
  8
レイヤー_2
 62
     7
100
AcDbLine
 10
66.756821
 20
136.06818
 30
0.0
 11
63.419729
 21
136.06818
 31
0.0
  0
LINE
  5
176
100
AcDbEntity
  8
レイヤー_2
 62
     7
100
AcDbLine
 10
74.257483
 20
136.06818
 30
0.0
 11
71.283676
 21
136.06818
 31
0.0
  0
LINE
  5
175
100
AcDbEntity
  8
レイヤー_2
 62
     7
100
AcDbLine
 10
63.632464
 20
137.556462
 30
0.0
 11
63.738228
 21
137.556462
 31
0.0
  0
LINE
  5
174
100
AcDbEntity
  8
レイヤー_2
 62
     7
100
AcDbLine
 10
73.938812
 20
137.556462
 30
0.0
 11
74.044748
 21
137.556462
 31
0.0
  0
SPLINE
  5
173
100
AcDbEntity
  8
レイヤー_2
 62
     7
100
AcDbSpline
210
0.0
220
0.0
230
1.0
 70
     8
 71
     3
 72
     8
 73
     4
 74
     0
 42
0.00000001
 43
0.00000001
 40
0.0
 40
0.0
 40
0.0
 40
0.0
 40
1.0
 40
1.0
 40
1.0
 40
1.0
 10
66.860173882378461
 20
136.17360026041666
 30
0.0
 10
66.860173882378461
 20
136.17394476996526
 30
0.0
 10
66.860173882378461
 20
136.17394476996526
 30
0.0
 10
66.860173882378461
 20
136.17463378906248
 30
0.0
  0
SPLINE
  5
172
100
AcDbEntity
  8
レイヤー_2
 62
     7
100
AcDbSpline
210
0.0
220
0.0
230
1.0
 70
     8
 71
     3
 72
     8
 73
     4
 74
     0
 42
0.00000001
 43
0.00000001
 40
0.0
 40
0.0
 40
0.0
 40
0.0
 40
1.0
 40
1.0
 40
1.0
 40
1.0
 10
66.756821017795133
 20
136.06818033854165
 30
0.0
 10
66.814181857638886
 20
136.0692138671875
 30
0.0
 10
66.860173882378461
 20
136.11641167534722
 30
0.0
 10
66.860173882378461
 20
136.17360026041666
 30
0.0
  0
SPLINE
  5
171
100
AcDbEntity
  8
レイヤー_2
 62
     7
100
AcDbSpline
210
0.0
220
0.0
230
1.0
 70
     8
 71
     3
 72
     8
 73
     4
 74
     0
 42
0.00000001
 43
0.00000001
 40
0.0
 40
0.0
 40
0.0
 40
0.0
 40
1.0
 40
1.0
 40
1.0
 40
1.0
 10
71.283676486545133
 20
137.55646158854165
 30
0.0
 10
71.225971137152769
 20
137.55508355034721
 30
0.0
 10
71.179462348090269
 20
137.50788574218748
 30
0.0
 10
71.179979112413193
 20
137.44966362847222
 30
0.0
  0
LINE
  5
170
100
AcDbEntity
  8
レイヤー_2
 62
     7
100
AcDbLine
 10
71.179979
 20
136.174634
 30
0.0
 11
71.179979
 21
137.449664
 31
0.0
  0
SPLINE
  5
16F
100
AcDbEntity
  8
レイヤー_2
 62
     7
100
AcDbSpline
210
0.0
220
0.0
230
1.0
 70
     8
 71
     3
 72
     8
 73
     4
 74
     0
 42
0.00000001
 43
0.00000001
 40
0.0
 40
0.0
 40
0.0
 40
0.0
 40
1.0
 40
1.0
 40
1.0
 40
1.0
 10
71.179979112413193
 20
136.17463378906248
 30
0.0
 10
71.179462348090269
 20
136.11641167534722
 30
0.0
 10
71.225971137152769
 20
136.0692138671875
 30
0.0
 10
71.283676486545133
 20
136.06818033854165
 30
0.0
  0
SPLINE
  5
16E
100
AcDbEntity
  8
レイヤー_2
 62
     7
100
AcDbSpline
210
0.0
220
0.0
230
1.0
 70
     8
 71
     3
 72
     8
 73
     4
 74
     0
 42
0.00000001
 43
0.00000001
 40
0.0
 40
0.0
 40
0.0
 40
0.0
 40
1.0
 40
1.0
 40
1.0
 40
1.0
 10
71.238028971354154
 20
137.55646158854165
 30
0.0
 10
71.179979112413193
 20
137.55508355034721
 30
0.0
 10
71.133125813802081
 20
137.50788574218748
 30
0.0
 10
71.133814832899304
 20
137.44966362847222
 30
0.0
  0
LINE
  5
16D
100
AcDbEntity
  8
レイヤー_2
 62
     7
100
AcDbLine
 10
71.238029
 20
137.556462
 30
0.0
 11
71.283676
 21
137.556462
 31
0.0
  0
LINE
  5
16C
100
AcDbEntity
  8
レイヤー_2
 62
     7
100
AcDbLine
 10
71.133815
 20
137.449664
 30
0.0
 11
71.133815
 21
137.130648
 31
0.0
  0
LINE
  5
16B
100
AcDbEntity
  8
レイヤー_2
 62
     7
100
AcDbLine
 10
70.901788
 20
137.130648
 30
0.0
 11
70.901788
 21
136.174634
 31
0.0
  0
LINE
  5
16A
100
AcDbEntity
  8
レイヤー_2
 62
     7
100
AcDbLine
 10
71.133815
 20
137.130648
 30
0.0
 11
70.901788
 21
137.130648
 31
0.0
  0
LINE
  5
169
100
AcDbEntity
  8
レイヤー_2
 62
     7
100
AcDbLine
 10
71.283676
 20
136.06818
 30
0.0
 11
71.00583
 21
136.06818
 31
0.0
  0
SPLINE
  5
168
100
AcDbEntity
  8
レイヤー_2
 62
     7
100
AcDbSpline
210
0.0
220
0.0
230
1.0
 70
     8
 71
     3
 72
     8
 73
     4
 74
     0
 42
0.00000001
 43
0.00000001
 40
0.0
 40
0.0
 40
0.0
 40
0.0
 40
1.0
 40
1.0
 40
1.0
 40
1.0
 10
71.131920030381934
 20
137.20333930121527
 30
0.0
 10
71.121756998697904
 20
137.18335774739583
 30
0.0
 10
71.12313503689235
 20
137.15683051215277
 30
0.0
 10
71.133814832899304
 20
137.13064778645833
 30
0.0
  0
SPLINE
  5
167
100
AcDbEntity
  8
レイヤー_2
 62
     7
100
AcDbSpline
210
0.0
220
0.0
230
1.0
 70
     8
 71
     3
 72
     8
 73
     4
 74
     0
 42
0.00000001
 43
0.00000001
 40
0.0
 40
0.0
 40
0.0
 40
0.0
 40
1.0
 40
1.0
 40
1.0
 40
1.0
 10
71.005485026041654
 20
137.23710123697916
 30
0.0
 10
70.94726291232638
 20
137.23641221788193
 30
0.0
 10
70.901270887586804
 20
137.18886990017359
 30
0.0
 10
70.901787651909714
 20
137.13064778645833
 30
0.0
  0
SPLINE
  5
166
100
AcDbEntity
  8
レイヤー_2
 62
     7
100
AcDbSpline
210
0.0
220
0.0
230
1.0
 70
     8
 71
     3
 72
     8
 73
     4
 74
     0
 42
0.00000001
 43
0.00000001
 40
0.0
 40
0.0
 40
0.0
 40
0.0
 40
1.0
 40
1.0
 40
1.0
 40
1.0
 10
71.131920030381934
 20
137.17474500868053
 30
0.0
 10
71.131920030381934
 20
137.16027560763888
 30
0.0
 10
71.132609049479157
 20
137.14442816840275
 30
0.0
 10
71.133814832899304
 20
137.13064778645833
 30
0.0
  0
LINE
  5
165
100
AcDbEntity
  8
レイヤー_2
 62
     7
100
AcDbLine
 10
66.276575
 20
136.06818
 30
0.0
 11
64.694931
 21
136.06818
 31
0.0
  0
LINE
  5
164
100
AcDbEntity
  8
レイヤー_2
 62
     7
100
AcDbLine
 10
72.043665
 20
136.06818
 30
0.0
 11
71.376522
 21
136.06818
 31
0.0
  0
LINE
  5
163
100
AcDbEntity
  8
レイヤー_2
 62
     7
100
AcDbLine
 10
69.251415
 20
136.06818
 30
0.0
 11
68.401854
 21
136.06818
 31
0.0
  0
LINE
  5
162
100
AcDbEntity
  8
レイヤー_2
 62
     7
100
AcDbLine
 10
66.862758
 20
137.237101
 30
0.0
 11
71.13192
 21
137.237101
 31
0.0
  0
LINE
  5
161
100
AcDbEntity
  8
レイヤー_2
 62
     7
100
AcDbLine
 10
72.996406
 20
137.874444
 30
0.0
 11
73.938812
 21
137.874444
 31
0.0
  0
LINE
  5
160
100
AcDbEntity
  8
レイヤー_2
 62
     7
100
AcDbLine
 10
63.738228
 20
137.874444
 30
0.0
 11
72.996406
 21
137.874444
 31
0.0
  0
SPLINE
  5
15F
100
AcDbEntity
  8
レイヤー_2
 62
     7
100
AcDbSpline
210
0.0
220
0.0
230
1.0
 70
     8
 71
     3
 72
    35
 73
    31
 74
     0
 42
0.00000001
 43
0.00000001
 40
0.0
 40
0.0
 40
0.0
 40
0.0
 40
1.0
 40
1.0
 40
1.0
 40
2.0
 40
2.0
 40
2.0
 40
3.0
 40
3.0
 40
3.0
 40
4.0
 40
4.0
 40
4.0
 40
5.0
 40
5.0
 40
5.0
 40
6.0
 40
6.0
 40
6.0
 40
7.0
 40
7.0
 40
7.0
 40
8.0
 40
8.0
 40
8.0
 40
9.0
 40
9.0
 40
9.0
 40
10.0
 40
10.0
 40
10.0
 40
10.0
 10
81.46548394097222
 20
159.88050808376735
 30
0.0
 10
81.46548394097222
 20
159.88050808376735
 30
0.0
 10
81.467895507812486
 20
159.88050808376735
 30
0.0
 10
81.476335991753459
 20
159.88171386718747
 30
0.0
 10
81.488566080729157
 20
159.88378092447914
 30
0.0
 10
81.515782335069431
 20
159.88705376519096
 30
0.0
 10
81.550405544704859
 20
159.89118787977429
 30
0.0
 10
81.58520100911457
 20
159.894977484809
 30
0.0
 10
81.627403428819434
 20
159.89997287326386
 30
0.0
 10
81.675979275173603
 20
159.90427924262153
 30
0.0
 10
81.725760904947904
 20
159.90806884765624
 30
0.0
 10
81.7813991970486
 20
159.91220296223958
 30
0.0
 10
81.840827094184021
 20
159.91599256727429
 30
0.0
 10
81.900427246093741
 20
159.91892089843748
 30
0.0
 10
81.962783474392353
 20
159.92098795572915
 30
0.0
 10
82.024795193142353
 20
159.92150472005207
 30
0.0
 10
82.086290147569443
 20
159.92219373914929
 30
0.0
 10
82.14812961154513
 20
159.92150472005207
 30
0.0
 10
82.206007215711793
 20
159.92012668185762
 30
0.0
 10
82.264057074652769
 20
159.91771511501736
 30
0.0
 10
82.317972819010407
 20
159.91547580295136
 30
0.0
 10
82.364998372395831
 20
159.91220296223958
 30
0.0
 10
82.412540690104166
 20
159.90927463107639
 30
0.0
 10
82.45284830729166
 20
159.90582953559027
 30
0.0
 10
82.486093478732627
 20
159.90307345920138
 30
0.0
 10
82.518821885850684
 20
159.89997287326386
 30
0.0
 10
82.544315592447916
 20
159.89704454210067
 30
0.0
 10
82.553445095486097
 20
159.89635552300345
 30
0.0
 10
82.553445095486097
 20
159.89635552300345
 30
0.0
 10
82.557234700520823
 20
159.89583875868055
 30
0.0
 10
82.557234700520823
 20
159.89583875868055
 30
0.0
  0
LINE
  5
15E
100
AcDbEntity
  8
レイヤー_2
 62
     7
100
AcDbLine
 10
80.924087
 20
159.909619
 30
0.0
 11
78.824474
 21
164.411842
 31
0.0
  0
LINE
  5
15D
100
AcDbEntity
  8
レイヤー_2
 62
     7
100
AcDbLine
 10
83.711514
 20
160.105473
 30
0.0
 11
83.712031
 21
160.092209
 31
0.0
  0
LINE
  5
15C
100
AcDbEntity
  8
レイヤー_2
 62
     7
100
AcDbLine
 10
78.824474
 20
164.411842
 30
0.0
 11
78.824474
 21
168.91596
 31
0.0
  0
SPLINE
  5
15B
100
AcDbEntity
  8
レイヤー_2
 62
     7
100
AcDbSpline
210
0.0
220
0.0
230
1.0
 70
     8
 71
     3
 72
    17
 73
    13
 74
     0
 42
0.00000001
 43
0.00000001
 40
0.0
 40
0.0
 40
0.0
 40
0.0
 40
1.0
 40
1.0
 40
1.0
 40
2.0
 40
2.0
 40
2.0
 40
3.0
 40
3.0
 40
3.0
 40
4.0
 40
4.0
 40
4.0
 40
4.0
 10
83.71099717881944
 20
169.00983886718748
 30
0.0
 10
83.71099717881944
 20
168.96729193793402
 30
0.0
 10
83.71099717881944
 20
168.92405598958331
 30
0.0
 10
83.71099717881944
 20
168.88409288194444
 30
0.0
 10
83.71099717881944
 20
168.84361300998262
 30
0.0
 10
83.71099717881944
 20
168.80588921440972
 30
0.0
 10
83.71099717881944
 20
168.7717827690972
 30
0.0
 10
83.71099717881944
 20
168.73767632378471
 30
0.0
 10
83.71099717881944
 20
168.70787624782986
 30
0.0
 10
83.710652669270829
 20
168.68634440104165
 30
0.0
 10
83.710652669270829
 20
168.66446804470485
 30
0.0
 10
83.709791395399293
 20
168.65103217230902
 30
0.0
 10
83.709791395399293
 20
168.63707953559026
 30
0.0
  0
LINE
  5
15A
100
AcDbEntity
  8
レイヤー_2
 62
     7
100
AcDbLine
 10
83.710997
 20
184.995426
 30
0.0
 11
83.710997
 21
169.009839
 31
0.0
  0
LINE
  5
159
100
AcDbEntity
  8
レイヤー_2
 62
     7
100
AcDbLine
 10
78.824474
 20
168.396267
 30
0.0
 11
78.824474
 21
168.698574
 31
0.0
  0
SPLINE
  5
158
100
AcDbEntity
  8
レイヤー_2
 62
     7
100
AcDbSpline
210
0.0
220
0.0
230
1.0
 70
     8
 71
     3
 72
    11
 73
     7
 74
     0
 42
0.00000001
 43
0.00000001
 40
0.0
 40
0.0
 40
0.0
 40
0.0
 40
1.0
 40
1.0
 40
1.0
 40
2.0
 40
2.0
 40
2.0
 40
2.0
 10
79.635621473524296
 20
185.23399929470483
 30
0.0
 10
79.634071180555551
 20
185.23399929470483
 30
0.0
 10
79.633209906684016
 20
185.23399929470483
 30
0.0
 10
79.63183186848957
 20
185.23399929470483
 30
0.0
 10
79.538125271267347
 20
185.23399929470483
 30
0.0
 10
79.462505425347217
 20
185.15769042968748
 30
0.0
 10
79.462505425347217
 20
185.06381157769096
 30
0.0
  0
LINE
  5
157
100
AcDbEntity
  8
レイヤー_2
 62
     7
100
AcDbLine
 10
79.462505
 20
169.239627
 30
0.0
 11
79.462505
 21
185.063812
 31
0.0
  0
LINE
  5
156
100
AcDbEntity
  8
レイヤー_2
 62
     7
100
AcDbLine
 10
79.635621
 20
185.233999
 30
0.0
 11
83.544255
 21
185.16527
 31
0.0
  0
SPLINE
  5
155
100
AcDbEntity
  8
レイヤー_2
 62
     7
100
AcDbSpline
210
0.0
220
0.0
230
1.0
 70
     8
 71
     3
 72
     8
 73
     4
 74
     0
 42
0.00000001
 43
0.00000001
 40
0.0
 40
0.0
 40
0.0
 40
0.0
 40
1.0
 40
1.0
 40
1.0
 40
1.0
 10
83.71099717881944
 20
184.99542643229165
 30
0.0
 10
83.71099717881944
 20
185.08827175564235
 30
0.0
 10
83.636927625868054
 20
185.16371934678818
 30
0.0
 10
83.544254557291666
 20
185.16526963975693
 30
0.0
  0
LINE
  5
154
100
AcDbEntity
  8
レイヤー_2
 62
     7
100
AcDbLine
 10
78.389014
 20
162.730636
 30
0.0
 11
78.941262
 21
162.730636
 31
0.0
  0
POLYLINE
  5
14F
100
AcDbEntity
  8
レイヤー_2
 62
     7
100
AcDb2dPolyline
 66
     1
 10
0.0
 20
0.0
 30
0.0
  0
VERTEX
  5
150
100
AcDbEntity
  8
レイヤー_2
 62
     7
100
AcDbVertex
100
AcDb2dVertex
 10
79.554489
 20
162.846735
 30
0.0
  0
VERTEX
  5
151
100
AcDbEntity
  8
レイヤー_2
 62
     7
100
AcDbVertex
100
AcDb2dVertex
 10
79.315228
 20
162.773183
 30
0.0
  0
VERTEX
  5
152
100
AcDbEntity
  8
レイヤー_2
 62
     7
100
AcDbVertex
100
AcDb2dVertex
 10
78.941262
 20
162.730636
 30
0.0
  0
SEQEND
  5
153
100
AcDbEntity
  8
レイヤー_2
 62
     7
  0
LINE
  5
14E
100
AcDbEntity
  8
レイヤー_2
 62
     7
100
AcDbLine
 10
78.824474
 20
166.092704
 30
0.0
 11
78.389014
 21
166.092704
 31
0.0
  0
POLYLINE
  5
127
100
AcDbEntity
  8
レイヤー_2
 62
     7
100
AcDb2dPolyline
 66
     1
 10
0.0
 20
0.0
 30
0.0
  0
VERTEX
  5
128
100
AcDbEntity
  8
レイヤー_2
 62
     7
100
AcDbVertex
100
AcDb2dVertex
 10
66.714274
 20
199.497728
 30
0.0
  0
VERTEX
  5
129
100
AcDbEntity
  8
レイヤー_2
 62
     7
100
AcDbVertex
100
AcDb2dVertex
 10
66.963527
 20
199.509958
 30
0.0
  0
VERTEX
  5
12A
100
AcDbEntity
  8
レイヤー_2
 62
     7
100
AcDbVertex
100
AcDb2dVertex
 10
67.268934
 20
199.520121
 30
0.0
  0
VERTEX
  5
12B
100
AcDbEntity
  8
レイヤー_2
 62
     7
100
AcDbVertex
100
AcDb2dVertex
 10
67.622401
 20
199.528734
 30
0.0
  0
VERTEX
  5
12C
100
AcDbEntity
  8
レイヤー_2
 62
     7
100
AcDbVertex
100
AcDb2dVertex
 10
68.011869
 20
199.535107
 30
0.0
  0
VERTEX
  5
12D
100
AcDbEntity
  8
レイヤー_2
 62
     7
100
AcDbVertex
100
AcDb2dVertex
 10
68.42597
 20
199.538897
 30
0.0
  0
VERTEX
  5
12E
100
AcDbEntity
  8
レイヤー_2
 62
     7
100
AcDbVertex
100
AcDb2dVertex
 10
68.853162
 20
199.539586
 30
0.0
  0
VERTEX
  5
12F
100
AcDbEntity
  8
レイヤー_2
 62
     7
100
AcDbVertex
100
AcDb2dVertex
 10
69.278631
 20
199.538036
 30
0.0
  0
VERTEX
  5
130
100
AcDbEntity
  8
レイヤー_2
 62
     7
100
AcDbVertex
100
AcDb2dVertex
 10
69.691009
 20
199.534418
 30
0.0
  0
VERTEX
  5
131
100
AcDbEntity
  8
レイヤー_2
 62
     7
100
AcDbVertex
100
AcDb2dVertex
 10
70.076343
 20
199.528045
 30
0.0
  0
VERTEX
  5
132
100
AcDbEntity
  8
レイヤー_2
 62
     7
100
AcDbVertex
100
AcDb2dVertex
 10
70.423953
 20
199.519088
 30
0.0
  0
VERTEX
  5
133
100
AcDbEntity
  8
レイヤー_2
 62
     7
100
AcDbVertex
100
AcDb2dVertex
 10
70.723848
 20
199.50858
 30
0.0
  0
VERTEX
  5
134
100
AcDbEntity
  8
レイヤー_2
 62
     7
100
AcDbVertex
100
AcDb2dVertex
 10
70.96535
 20
199.495833
 30
0.0
  0
VERTEX
  5
135
100
AcDbEntity
  8
レイヤー_2
 62
     7
100
AcDbVertex
100
AcDb2dVertex
 10
71.141911
 20
199.482225
 30
0.0
  0
VERTEX
  5
136
100
AcDbEntity
  8
レイヤー_2
 62
     7
100
AcDbVertex
100
AcDb2dVertex
 10
71.247675
 20
199.467756
 30
0.0
  0
VERTEX
  5
137
100
AcDbEntity
  8
レイヤー_2
 62
     7
100
AcDbVertex
100
AcDb2dVertex
 10
71.280404
 20
199.45277
 30
0.0
  0
VERTEX
  5
138
100
AcDbEntity
  8
レイヤー_2
 62
     7
100
AcDbVertex
100
AcDb2dVertex
 10
71.239235
 20
199.438645
 30
0.0
  0
VERTEX
  5
139
100
AcDbEntity
  8
レイヤー_2
 62
     7
100
AcDbVertex
100
AcDb2dVertex
 10
71.123824
 20
199.424003
 30
0.0
  0
VERTEX
  5
13A
100
AcDbEntity
  8
レイヤー_2
 62
     7
100
AcDbVertex
100
AcDb2dVertex
 10
70.93865
 20
199.410223
 30
0.0
  0
VERTEX
  5
13B
100
AcDbEntity
  8
レイヤー_2
 62
     7
100
AcDbVertex
100
AcDb2dVertex
 10
70.68957
 20
199.398165
 30
0.0
  0
VERTEX
  5
13C
100
AcDbEntity
  8
レイヤー_2
 62
     7
100
AcDbVertex
100
AcDb2dVertex
 10
70.384162
 20
199.387485
 30
0.0
  0
VERTEX
  5
13D
100
AcDbEntity
  8
レイヤー_2
 62
     7
100
AcDbVertex
100
AcDb2dVertex
 10
70.031212
 20
199.379389
 30
0.0
  0
VERTEX
  5
13E
100
AcDbEntity
  8
レイヤー_2
 62
     7
100
AcDbVertex
100
AcDb2dVertex
 10
69.641227
 20
199.373705
 30
0.0
  0
VERTEX
  5
13F
100
AcDbEntity
  8
レイヤー_2
 62
     7
100
AcDbVertex
100
AcDb2dVertex
 10
69.22661
 20
199.369226
 30
0.0
  0
VERTEX
  5
140
100
AcDbEntity
  8
レイヤー_2
 62
     7
100
AcDbVertex
100
AcDb2dVertex
 10
68.800107
 20
199.368537
 30
0.0
  0
VERTEX
  5
141
100
AcDbEntity
  8
レイヤー_2
 62
     7
100
AcDbVertex
100
AcDb2dVertex
 10
68.374121
 20
199.369743
 30
0.0
  0
VERTEX
  5
142
100
AcDbEntity
  8
レイヤー_2
 62
     7
100
AcDbVertex
100
AcDb2dVertex
 10
67.962088
 20
199.373705
 30
0.0
  0
VERTEX
  5
143
100
AcDbEntity
  8
レイヤー_2
 62
     7
100
AcDbVertex
100
AcDb2dVertex
 10
67.576754
 20
199.380078
 30
0.0
  0
VERTEX
  5
144
100
AcDbEntity
  8
レイヤー_2
 62
     7
100
AcDbVertex
100
AcDb2dVertex
 10
67.229144
 20
199.388691
 30
0.0
  0
VERTEX
  5
145
100
AcDbEntity
  8
レイヤー_2
 62
     7
100
AcDbVertex
100
AcDb2dVertex
 10
66.929765
 20
199.399543
 30
0.0
  0
VERTEX
  5
146
100
AcDbEntity
  8
レイヤー_2
 62
     7
100
AcDbVertex
100
AcDb2dVertex
 10
66.687919
 20
199.411773
 30
0.0
  0
VERTEX
  5
147
100
AcDbEntity
  8
レイヤー_2
 62
     7
100
AcDbVertex
100
AcDb2dVertex
 10
66.511702
 20
199.425726
 30
0.0
  0
VERTEX
  5
148
100
AcDbEntity
  8
レイヤー_2
 62
     7
100
AcDbVertex
100
AcDb2dVertex
 10
66.405077
 20
199.439851
 30
0.0
  0
VERTEX
  5
149
100
AcDbEntity
  8
レイヤー_2
 62
     7
100
AcDbVertex
100
AcDb2dVertex
 10
66.372348
 20
199.454837
 30
0.0
  0
VERTEX
  5
14A
100
AcDbEntity
  8
レイヤー_2
 62
     7
100
AcDbVertex
100
AcDb2dVertex
 10
66.414206
 20
199.469995
 30
0.0
  0
VERTEX
  5
14B
100
AcDbEntity
  8
レイヤー_2
 62
     7
100
AcDbVertex
100
AcDb2dVertex
 10
66.529617
 20
199.484465
 30
0.0
  0
VERTEX
  5
14C
100
AcDbEntity
  8
レイヤー_2
 62
     7
100
AcDbVertex
100
AcDb2dVertex
 10
66.714274
 20
199.497728
 30
0.0
  0
SEQEND
  5
14D
100
AcDbEntity
  8
レイヤー_2
 62
     7
  0
SPLINE
  5
126
100
AcDbEntity
  8
レイヤー_2
 62
     7
100
AcDbSpline
210
0.0
220
0.0
230
1.0
 70
     8
 71
     3
 72
     8
 73
     4
 74
     0
 42
0.00000001
 43
0.00000001
 40
0.0
 40
0.0
 40
0.0
 40
0.0
 40
1.0
 40
1.0
 40
1.0
 40
1.0
 10
71.281092664930554
 20
203.0640909830729
 30
0.0
 10
69.679295518663181
 20
203.19328206380206
 30
0.0
 10
68.095240614149304
 20
203.20327284071178
 30
0.0
 10
66.714274088541657
 20
203.10836046006943
 30
0.0
  0
SPLINE
  5
125
100
AcDbEntity
  8
レイヤー_2
 62
     7
100
AcDbSpline
210
0.0
220
0.0
230
1.0
 70
     8
 71
     3
 72
     8
 73
     4
 74
     0
 42
0.00000001
 43
0.00000001
 40
0.0
 40
0.0
 40
0.0
 40
0.0
 40
1.0
 40
1.0
 40
1.0
 40
1.0
 10
66.714274088541657
 20
203.10836046006943
 30
0.0
 10
66.592489963107639
 20
203.12093505859374
 30
0.0
 10
66.474495442708331
 20
203.1040540907118
 30
0.0
 10
66.372348361545136
 20
203.0640909830729
 30
0.0
  0
POLYLINE
  5
110
100
AcDbEntity
  8
レイヤー_2
 62
     7
100
AcDb2dPolyline
 66
     1
 10
0.0
 20
0.0
 30
0.0
  0
VERTEX
  5
111
100
AcDbEntity
  8
レイヤー_2
 62
     7
100
AcDbVertex
100
AcDb2dVertex
 10
71.270585
 20
203.064091
 30
0.0
  0
VERTEX
  5
112
100
AcDbEntity
  8
レイヤー_2
 62
     7
100
AcDbVertex
100
AcDb2dVertex
 10
71.230622
 20
203.079422
 30
0.0
  0
VERTEX
  5
113
100
AcDbEntity
  8
レイヤー_2
 62
     7
100
AcDbVertex
100
AcDb2dVertex
 10
71.114695
 20
203.094236
 30
0.0
  0
VERTEX
  5
114
100
AcDbEntity
  8
レイヤー_2
 62
     7
100
AcDbVertex
100
AcDb2dVertex
 10
70.924353
 20
203.10836
 30
0.0
  0
VERTEX
  5
115
100
AcDbEntity
  8
レイヤー_2
 62
     7
100
AcDbVertex
100
AcDb2dVertex
 10
70.667004
 20
203.120591
 30
0.0
  0
VERTEX
  5
116
100
AcDbEntity
  8
レイヤー_2
 62
     7
100
AcDbVertex
100
AcDb2dVertex
 10
70.3504
 20
203.130581
 30
0.0
  0
VERTEX
  5
117
100
AcDbEntity
  8
レイヤー_2
 62
     7
100
AcDbVertex
100
AcDb2dVertex
 10
69.984703
 20
203.139711
 30
0.0
  0
VERTEX
  5
118
100
AcDbEntity
  8
レイヤー_2
 62
     7
100
AcDbVertex
100
AcDb2dVertex
 10
69.581455
 20
203.14574
 30
0.0
  0
VERTEX
  5
119
100
AcDbEntity
  8
レイヤー_2
 62
     7
100
AcDbVertex
100
AcDb2dVertex
 10
69.154435
 20
203.148496
 30
0.0
  0
VERTEX
  5
11A
100
AcDbEntity
  8
レイヤー_2
 62
     7
100
AcDbVertex
100
AcDb2dVertex
 10
68.71708
 20
203.149357
 30
0.0
  0
VERTEX
  5
11B
100
AcDbEntity
  8
レイヤー_2
 62
     7
100
AcDbVertex
100
AcDb2dVertex
 10
68.282654
 20
203.147118
 30
0.0
  0
VERTEX
  5
11C
100
AcDbEntity
  8
レイヤー_2
 62
     7
100
AcDbVertex
100
AcDb2dVertex
 10
67.866314
 20
203.142811
 30
0.0
  0
VERTEX
  5
11D
100
AcDbEntity
  8
レイヤー_2
 62
     7
100
AcDbVertex
100
AcDb2dVertex
 10
67.480291
 20
203.135232
 30
0.0
  0
VERTEX
  5
11E
100
AcDbEntity
  8
レイヤー_2
 62
     7
100
AcDbVertex
100
AcDb2dVertex
 10
67.137676
 20
203.126275
 30
0.0
  0
VERTEX
  5
11F
100
AcDbEntity
  8
レイヤー_2
 62
     7
100
AcDbVertex
100
AcDb2dVertex
 10
66.849666
 20
203.114389
 30
0.0
  0
VERTEX
  5
120
100
AcDbEntity
  8
レイヤー_2
 62
     7
100
AcDbVertex
100
AcDb2dVertex
 10
66.624702
 20
203.101126
 30
0.0
  0
VERTEX
  5
121
100
AcDbEntity
  8
レイヤー_2
 62
     7
100
AcDbVertex
100
AcDb2dVertex
 10
66.47105
 20
203.087001
 30
0.0
  0
VERTEX
  5
122
100
AcDbEntity
  8
レイヤー_2
 62
     7
100
AcDbVertex
100
AcDb2dVertex
 10
66.392847
 20
203.072359
 30
0.0
  0
VERTEX
  5
123
100
AcDbEntity
  8
レイヤー_2
 62
     7
100
AcDbVertex
100
AcDb2dVertex
 10
66.382856
 20
203.064091
 30
0.0
  0
SEQEND
  5
124
100
AcDbEntity
  8
レイヤー_2
 62
     7
  0
LINE
  5
10F
100
AcDbEntity
  8
レイヤー_2
 62
     7
100
AcDbLine
 10
73.713847
 20
173.868113
 30
0.0
 11
63.939077
 21
173.868113
 31
0.0
  0
LINE
  5
10E
100
AcDbEntity
  8
レイヤー_2
 62
     7
100
AcDbLine
 10
63.940283
 20
148.474314
 30
0.0
 11
73.712986
 21
148.474314
 31
0.0
  0
LINE
  5
10D
100
AcDbEntity
  8
レイヤー_2
 62
     7
100
AcDbLine
 10
78.389014
 20
168.979867
 30
0.0
 11
78.389014
 21
159.843129
 31
0.0
  0
LINE
  5
10C
100
AcDbEntity
  8
レイヤー_2
 62
     7
100
AcDbLine
 10
68.614244
 20
147.687454
 30
0.0
 11
66.064012
 21
147.687454
 31
0.0
  0
LINE
  5
10B
100
AcDbEntity
  8
レイヤー_2
 62
     7
100
AcDbLine
 10
69.517376
 20
147.687454
 30
0.0
 11
69.039369
 21
147.687454
 31
0.0
  0
LINE
  5
10A
100
AcDbEntity
  8
レイヤー_2
 62
     7
100
AcDbLine
 10
71.58874
 20
147.687454
 30
0.0
 11
69.517376
 21
147.687454
 31
0.0
  0
LINE
  5
109
100
AcDbEntity
  8
レイヤー_2
 62
     7
100
AcDbLine
 10
71.133815
 20
137.449664
 30
0.0
 11
71.13192
 21
137.449664
 31
0.0
  0
LINE
  5
108
100
AcDbEntity
  8
レイヤー_2
 62
     7
100
AcDbLine
 10
70.901788
 20
136.174634
 30
0.0
 11
70.898859
 21
136.174634
 31
0.0
  0
LINE
  5
107
100
AcDbEntity
  8
レイヤー_2
 62
     7
100
AcDbLine
 10
70.901788
 20
137.130648
 30
0.0
 11
70.898859
 21
137.130648
 31
0.0
  0
LINE
  5
106
100
AcDbEntity
  8
レイヤー_2
 62
     7
100
AcDbLine
 10
69.251415
 20
137.130648
 30
0.0
 11
68.401854
 21
137.130648
 31
0.0
  0
LINE
  5
105
100
AcDbEntity
  8
レイヤー_2
 62
     7
100
AcDbLine
 10
83.711514
 20
160.108918
 30
0.0
 11
83.711514
 21
160.105473
 31
0.0
  0
LINE
  5
104
100
AcDbEntity
  8
レイヤー_2
 62
     7
100
AcDbLine
 10
83.712375
 20
184.995426
 30
0.0
 11
83.710997
 21
184.995426
 31
0.0
  0
LINE
  5
103
100
AcDbEntity
  8
レイヤー_2
 62
     7
100
AcDbLine
 10
63.939077
 20
148.499807
 30
0.0
 11
68.826807
 21
148.499807
 31
0.0
  0
LINE
  5
102
100
AcDbEntity
  8
レイヤー_2
  6
AI9-LType2
 62
     7
100
AcDbLine
 10
126.408133
 20
121.56674
 30
0.0
 11
126.408133
 21
205.718193
 31
0.0
  0
LINE
  5
101
100
AcDbEntity
  8
レイヤー_2
 62
     7
100
AcDbLine
 10
126.408133
 20
205.718193
 30
0.0
 11
126.408133
 21
206.568098
 31
0.0
  0
LINE
  5
100
100
AcDbEntity
  8
レイヤー_2
  6
AI9-LType2
 62
     7
100
AcDbLine
 10
68.826807
 20
99.673847
 30
0.0
 11
68.826807
 21
227.515656
 31
0.0
  0
LINE
  5
FF
100
AcDbEntity
  8
レイヤー_2
 62
     7
100
AcDbLine
 10
68.826807
 20
227.515656
 30
0.0
 11
68.826807
 21
228.365734
 31
0.0
  0
LINE
  5
FE
100
AcDbEntity
  8
レイヤー_2
  6
AI9-LType2
 62
     7
100
AcDbLine
 10
169.070128
 20
198.819044
 30
0.0
 11
168.915788
 21
203.242891
 31
0.0
  0
LINE
  5
FD
100
AcDbEntity
  8
レイヤー_2
 62
     7
100
AcDbLine
 10
168.915788
 20
203.242891
 30
0.0
 11
168.88616
 21
204.092107
 31
0.0
  0
LINE
  5
FC
100
AcDbEntity
  8
レイヤー_2
  6
AI9-LType2
 62
     7
100
AcDbLine
 10
63.873621
 20
104.219995
 30
0.0
 11
73.442718
 21
104.219995
 31
0.0
  0
LINE
  5
FA
100
AcDbEntity
  8
レイヤー_2
 62
     7
100
AcDbLine
 10
73.442718
 20
104.219995
 30
0.0
 11
74.293484
 21
104.219995
 31
0.0
  0
LINE
  5
F9
100
AcDbEntity
  8
レイヤー_2
 62
     7
100
AcDbLine
 10
181.71225
 20
199.852573
 30
0.0
 11
181.71225
 21
147.580656
 31
0.0
  0
LINE
  5
F8
100
AcDbEntity
  8
レイヤー_2
 62
     7
100
AcDbLine
 10
168.915099
 20
217.911936
 30
0.0
 11
168.915099
 21
242.085999
 31
0.0
  0
LINE
  5
F7
100
AcDbEntity
  8
レイヤー_2
 62
     7
100
AcDbLine
 10
126.408133
 20
217.873351
 30
0.0
 11
126.408133
 21
242.174882
 31
0.0
  0
LINE
  5
F6
100
AcDbEntity
  8
レイヤー_2
 62
     7
100
AcDbLine
 10
63.918579
 20
174.337162
 30
0.0
 11
63.918579
 21
233.783663
 31
0.0
  0
LINE
  5
F5
100
AcDbEntity
  8
レイヤー_2
 62
     7
100
AcDbLine
 10
73.751743
 20
174.412265
 30
0.0
 11
73.751743
 21
233.783663
 31
0.0
  0
LINE
  5
F4
100
AcDbEntity
  8
レイヤー_2
 62
     7
100
AcDbLine
 10
125.628163
 20
241.37562
 30
0.0
 11
170.030621
 21
241.37562
 31
0.0
  0
LINE
  5
F3
100
AcDbEntity
  8
レイヤー_2
 62
     7
100
AcDbLine
 10
46.397168
 20
232.887938
 30
0.0
 11
74.589418
 21
232.887938
 31
0.0
  0
LINE
  5
F2
100
AcDbEntity
  8
レイヤー_2
 62
     7
100
AcDbLine
 10
68.805103
 20
229.373252
 30
0.0
 11
68.805103
 21
242.015202
 31
0.0
  0
LINE
  5
F1
100
AcDbEntity
  8
レイヤー_2
 62
     7
100
AcDbLine
 10
83.714442
 20
185.500305
 30
0.0
 11
83.714442
 21
242.069979
 31
0.0
  0
LINE
  5
F0
100
AcDbEntity
  8
レイヤー_2
 62
     7
100
AcDbLine
 10
84.65013
 20
241.396807
 30
0.0
 11
67.884745
 21
241.396807
 31
0.0
  0
LINE
  5
EF
100
AcDbEntity
  8
レイヤー_2
 62
     7
100
AcDbLine
 10
67.392441
 20
227.611774
 30
0.0
 11
51.489019
 21
227.611774
 31
0.0
  0
LINE
  5
EE
100
AcDbEntity
  8
レイヤー_2
 62
     7
100
AcDbLine
 10
52.551487
 20
228.315263
 30
0.0
 11
52.551487
 21
112.982595
 31
0.0
  0
LINE
  5
ED
100
AcDbEntity
  8
レイヤー_2
 62
     7
100
AcDbLine
 10
57.051987
 20
148.499807
 30
0.0
 11
51.489019
 21
148.499807
 31
0.0
  0
LINE
  5
EC
100
AcDbEntity
  8
レイヤー_2
 62
     7
100
AcDbLine
 10
62.519526
 20
139.08195
 30
0.0
 11
51.34467
 21
139.08195
 31
0.0
  0
LINE
  5
EB
100
AcDbEntity
  8
レイヤー_2
 62
     7
100
AcDbLine
 10
53.285809
 20
138.33023
 30
0.0
 11
51.783403
 21
139.832636
 31
0.0
  0
LINE
  5
EA
100
AcDbEntity
  8
レイヤー_2
 62
     7
100
AcDbLine
 10
53.302862
 20
147.872456
 30
0.0
 11
51.800628
 21
149.374862
 31
0.0
  0
LINE
  5
E9
100
AcDbEntity
  8
レイヤー_2
 62
     7
100
AcDbLine
 10
53.302862
 20
226.811651
 30
0.0
 11
51.800628
 21
228.313885
 31
0.0
  0
LINE
  5
E8
100
AcDbEntity
  8
レイヤー_2
 62
     7
100
AcDbLine
 10
68.059584
 20
240.622522
 30
0.0
 11
69.50773
 21
242.070323
 31
0.0
  0
LINE
  5
E7
100
AcDbEntity
  8
レイヤー_2
 62
     7
100
AcDbLine
 10
82.990628
 20
240.673165
 30
0.0
 11
84.438085
 21
242.120449
 31
0.0
  0
LINE
  5
E6
100
AcDbEntity
  8
レイヤー_2
 62
     7
100
AcDbLine
 10
127.131603
 20
242.099262
 30
0.0
 11
125.684663
 21
240.651461
 31
0.0
  0
LINE
  5
E5
100
AcDbEntity
  8
レイヤー_2
 62
     7
100
AcDbLine
 10
169.650971
 20
242.085999
 30
0.0
 11
168.204031
 21
240.638542
 31
0.0
  0
LINE
  5
E4
100
AcDbEntity
  8
レイヤー_2
 62
     7
100
AcDbLine
 10
64.639293
 20
233.617782
 30
0.0
 11
63.191836
 21
232.170497
 31
0.0
  0
LINE
  5
E3
100
AcDbEntity
  8
レイヤー_2
 62
     7
100
AcDbLine
 10
74.4635
 20
233.599006
 30
0.0
 11
73.015526
 21
232.151204
 31
0.0
  0
LINE
  5
E2
100
AcDbEntity
  8
レイヤー_2
 62
     7
100
AcDbLine
 10
182.427452
 20
147.776682
 30
0.0
 11
180.924702
 21
149.279088
 31
0.0
  0
LINE
  5
E1
100
AcDbEntity
  8
レイヤー_2
 62
     7
100
AcDbLine
 10
137.298079
 20
148.499807
 30
0.0
 11
182.709261
 21
148.499807
 31
0.0
  0
LINE
  5
E0
100
AcDbEntity
  8
レイヤー_2
 62
     7
100
AcDbLine
 10
75.588668
 20
97.526864
 30
0.0
 11
65.043747
 21
108.071267
 31
0.0
  0
LINE
  5
DF
100
AcDbEntity
  8
レイヤー_2
 62
     7
100
AcDbLine
 10
75.588668
 20
97.526864
 30
0.0
 11
89.573861
 21
97.526864
 31
0.0
  0
LINE
  5
DE
100
AcDbEntity
  8
レイヤー_2
 62
     7
100
AcDbLine
 10
64.91714
 20
106.798994
 30
0.0
 11
67.699055
 21
106.798994
 31
0.0
  0
LINE
  5
DD
100
AcDbEntity
  8
レイヤー_2
 62
     7
100
AcDbLine
 10
70.090123
 20
101.55108
 30
0.0
 11
72.871349
 21
101.55108
 31
0.0
  0
LINE
  5
DC
100
AcDbEntity
  8
レイヤー_2
 62
     7
100
AcDbLine
 10
58.378177
 20
148.499807
 30
0.0
 11
79.376378
 21
148.499807
 31
0.0
  0
LINE
  5
DB
100
AcDbEntity
  8
レイヤー_2
 62
     7
100
AcDbLine
 10
116.759798
 20
148.499807
 30
0.0
 11
136.513976
 21
148.499807
 31
0.0
  0
MTEXT
  5
DA
100
AcDbEntity
  8
レイヤー_2
  6
AI9-LType1
 62
     7
100
AcDbMText
 10
45.929152
 20
114.412999
 30
0.0
 40
5.512152
 41
0.0
 71
     1
 72
     2
  1
\fMS Gothic|b0|i0|c128;\H5.5122;\C7;\U+006D\U+0061\U+0078\U+002E\U+0034\U+0035
  7
STD
210
0.0
220
0.0
230
1.0
 11
0.0
 21
1.0
 31
0.0
 73
     1
 44
1.0
  0
INSERT
  5
D6
100
AcDbEntity
  8
レイヤー_2
  6
AI9-LType1
 62
     7
100
AcDbBlockReference
  2
AI9-BLK8
 10
81.780882
 20
101.494925
 30
0.0
  0
INSERT
  5
83
100
AcDbEntity
  8
レイヤー_2
  6
AI9-LType1
 62
     7
100
AcDbBlockReference
  2
AI9-BLK5
 10
136.578227
 20
112.467984
 30
0.0
  0
INSERT
  5
30
100
AcDbEntity
  8
レイヤー_2
 62
     7
100
AcDbBlockReference
  2
AI9-BLK2
 10
145.011131
 20
98.736092
 30
0.0
  0
INSERT
  5
2A
100
AcDbEntity
  8
レイヤー_2
 62
     7
100
AcDbBlockReference
  2
AI9-BLK1
 10
168.098267
 20
91.322591
 30
0.0
  0
ENDSEC
  0
SECTION
  2
OBJECTS
  0
DICTIONARY
  5
19
100
AcDbDictionary
280
     0
281
     1
  3
ACAD_GROUP
350
1A
  3
ACAD_MLINESTYLE
350
1B
  3
ACAD_LAYOUT
350
1E
  3
ACAD_PLOTSETTINGS
350
22
  3
ACAD_PLOTSTYLENAME
350
1F
  3
ACAD_WIPEOUT_VARS
350
23
  0
DICTIONARY
  5
1A
102
{ACAD_REACTORS
330
19
102
}
100
AcDbDictionary
280
     0
281
     1
  0
DICTIONARY
  5
1B
102
{ACAD_REACTORS
330
19
102
}
100
AcDbDictionary
280
     0
281
     1
  3
Standard
350
1C
  0
MLINESTYLE
  5
1C
102
{ACAD_REACTORS
330
1B
102
}
100
AcDbMlineStyle
  2
Standard
 70
     0
  3

 62
     0
 51
90.0
 52
90.0
 71
     2
 49
0.5
 62
   256
  6
ByLayer
 49
-0.5
 62
   256
  6
ByLayer
  0
ACDBDICTIONARYWDFLT
  5
1F
102
{ACAD_REACTORS
330
19
102
}
100
AcDbDictionary
281
     1
  3
Normal
350
1D
100
AcDbDictionaryWithDefault
340
1D
  0
ACDBPLACEHOLDER
  5
1D
102
{ACAD_REACTORS
330
1F
102
}
  0
LAYOUT
  5
20
102
{ACAD_REACTORS
330
1E
102
}
100
AcDbPlotSettings
  1

  2

  4

  6

 40
0.0
 41
0.0
 42
0.0
 43
0.0
 44
0.0
 45
0.0
 46
0.0
 47
0.0
 48
0.0
 49
0.0
140
0.0
141
0.0
142
1.0
143
1.0
 70
  1024
 72
     0
 73
     0
 74
     0
  7

 75
     0
147
1.0
148
0.0
149
0.0
100
AcDbLayout
  1
Model
 70
     0
 71
     0
 10
0.0
 20
0.0
 11
0.0
 21
0.0
 12
0.0
 22
0.0
 32
0.0
 14
0.0
 24
0.0
 34
0.0
 15
0.0
 25
0.0
 35
0.0
146
0.0
 13
0.0
 23
0.0
 33
0.0
 16
0.0
 26
0.0
 36
0.0
 17
0.0
 27
0.0
 37
0.0
 76
     0
330
A
331
0
345
0
346
0
  0
LAYOUT
  5
21
102
{ACAD_REACTORS
330
1E
102
}
100
AcDbPlotSettings
  1

  2

  4

  6

 40
0.0
 41
0.0
 42
0.0
 43
0.0
 44
0.0
 45
0.0
 46
0.0
 47
0.0
 48
0.0
 49
0.0
140
0.0
141
0.0
142
1.0
143
1.0
 70
     0
 72
     0
 73
     0
 74
     0
  7

 75
     0
147
1.0
148
0.0
149
0.0
100
AcDbLayout
  1
Layout1
 70
     0
 71
     0
 10
0.0
 20
0.0
 11
0.0
 21
0.0
 12
0.0
 22
0.0
 32
0.0
 14
0.0
 24
0.0
 34
0.0
 15
0.0
 25
0.0
 35
0.0
146
0.0
 13
0.0
 23
0.0
 33
0.0
 16
0.0
 26
0.0
 36
0.0
 17
0.0
 27
0.0
 37
0.0
 76
     0
330
B
331
0
345
0
346
0
  0
DICTIONARY
  5
1E
102
{ACAD_REACTORS
330
19
102
}
100
AcDbDictionary
280
     0
281
     1
  3
Layout1
350
21
  3
Model
350
20
  0
DICTIONARY
  5
22
102
{ACAD_REACTORS
330
19
102
}
100
AcDbDictionary
280
     0
281
     1
  0
WIPEOUTVARIABLES
  5
23
100
AcDbWipeoutVariables
 70
     1
  0
IMAGEDEF_REACTOR
  5
266
100
AcDbRasterImageDefReactor
 90
        2
330
265
  0
IMAGEDEF
  5
267
100
AcDbRasterImageDef
 90
        0
  1
\\192.168.6.3\free(2009_04\一過性\DB_WEB用DXF_丸茂\KITCHEN\33800875_1.bmp
 10
70.0
 20
9.0
 11
0.352778
 21
0.352778
280
     1
281
     0
  0
IMAGEDEF_REACTOR
  5
269
100
AcDbRasterImageDefReactor
 90
        2
330
268
  0
IMAGEDEF
  5
26A
100
AcDbRasterImageDef
 90
        0
  1
\\192.168.6.3\free(2009_04\一過性\DB_WEB用DXF_丸茂\KITCHEN\33800875_2.bmp
 10
70.0
 20
9.0
 11
0.352778
 21
0.352778
280
     1
281
     0
  0
ENDSEC
  0
EOF
