  0
SECTION
  2
HEADER
  9
$ACADVER
  1
AC1014
  9
$ACADMAINTVER
 70
       0
  9
$DWGCODEPAGE
  3
ANSI_932
  9
$INSBASE
 10
0.0
 20
0.0
 30
0.0
  9
$EXTMIN
 10
-2580.0
 20
-1842.0
 30
0.0
  9
$EXTMAX
 10
2580.0
 20
1842.0
 30
0.0
  9
$LIMMIN
 10
-840.0
 20
-594.0
  9
$LIMMAX
 10
840.0
 20
594.0
  9
$ORTHOMODE
 70
       0
  9
$REGENMODE
 70
       1
  9
$FILLMODE
 70
       1
  9
$QTEXTMODE
 70
       0
  9
$MIRRTEXT
 70
       1
  9
$DRAGMODE
 70
       2
  9
$LTSCALE
 40
4.0
  9
$OSMODE
 70
       0
  9
$ATTMODE
 70
       1
  9
$TEXTSIZE
 40
0.2
  9
$TRACEWID
 40
0.05
  9
$TEXTSTYLE
  7
STANDARD
  9
$CLAYER
  8
0
  9
$CELTYPE
  6
CONTINUOUS
  9
$CECOLOR
 62
     256
  9
$CELTSCALE
 40
1.0
  9
$DELOBJ
 70
       1
  9
$DISPSILH
 70
       0
  9
$DIMSCALE
 40
1.0
  9
$DIMASZ
 40
8.0
  9
$DIMEXO
 40
0.0625
  9
$DIMDLI
 40
0.38
  9
$DIMRND
 40
0.0
  9
$DIMDLE
 40
0.0
  9
$DIMEXE
 40
0.18
  9
$DIMTP
 40
0.0
  9
$DIMTM
 40
0.0
  9
$DIMTXT
 40
8.0
  9
$DIMCEN
 40
0.09
  9
$DIMTSZ
 40
0.0
  9
$DIMTOL
 70
       0
  9
$DIMLIM
 70
       0
  9
$DIMTIH
 70
       1
  9
$DIMTOH
 70
       1
  9
$DIMSE1
 70
       0
  9
$DIMSE2
 70
       0
  9
$DIMTAD
 70
       0
  9
$DIMZIN
 70
       0
  9
$DIMBLK
  1

  9
$DIMASO
 70
       1
  9
$DIMSHO
 70
       1
  9
$DIMPOST
  1

  9
$DIMAPOST
  1

  9
$DIMALT
 70
       0
  9
$DIMALTD
 70
       2
  9
$DIMALTF
 40
25.4
  9
$DIMLFAC
 40
1.0
  9
$DIMTOFL
 70
       0
  9
$DIMTVP
 40
0.0
  9
$DIMTIX
 70
       0
  9
$DIMSOXD
 70
       0
  9
$DIMSAH
 70
       0
  9
$DIMBLK1
  1

  9
$DIMBLK2
  1

  9
$DIMSTYLE
  2
STANDARD
  9
$DIMCLRD
 70
       0
  9
$DIMCLRE
 70
       0
  9
$DIMCLRT
 70
       0
  9
$DIMTFAC
 40
1.0
  9
$DIMGAP
 40
0.09
  9
$DIMJUST
 70
       0
  9
$DIMSD1
 70
       0
  9
$DIMSD2
 70
       0
  9
$DIMTOLJ
 70
       1
  9
$DIMTZIN
 70
       0
  9
$DIMALTZ
 70
       0
  9
$DIMALTTZ
 70
       0
  9
$DIMFIT
 70
       3
  9
$DIMUPT
 70
       0
  9
$DIMUNIT
 70
       2
  9
$DIMDEC
 70
       4
  9
$DIMTDEC
 70
       4
  9
$DIMALTU
 70
       2
  9
$DIMALTTD
 70
       2
  9
$DIMTXSTY
  7
STANDARD
  9
$DIMAUNIT
 70
       0
  9
$LUNITS
 70
       2
  9
$LUPREC
 70
       4
  9
$SKETCHINC
 40
0.1
  9
$FILLETRAD
 40
0.0
  9
$AUNITS
 70
       0
  9
$AUPREC
 70
       0
  9
$MENU
  1
acad
  9
$ELEVATION
 40
0.0
  9
$PELEVATION
 40
0.0
  9
$THICKNESS
 40
0.0
  9
$LIMCHECK
 70
       0
  9
$BLIPMODE
 70
       1
  9
$CHAMFERA
 40
0.0
  9
$CHAMFERB
 40
0.0
  9
$CHAMFERC
 40
0.0
  9
$CHAMFERD
 40
0.0
  9
$SKPOLY
 70
       0
  9
$TDCREATE
 40
0.000000000
  9
$TDUPDATE
 40
0.000000000
  9
$TDINDWG
 40
0.0000000000
  9
$TDUSRTIMER
 40
0.0000000000
  9
$USRTIMER
 70
       1
  9
$ANGBASE
 50
0.0
  9
$ANGDIR
 70
       0
  9
$PDMODE
 70
       0
  9
$PDSIZE
 40
1.0
  9
$PLINEWID
 40
0.0
  9
$COORDS
 70
       1
  9
$SPLFRAME
 70
       0
  9
$SPLINETYPE
 70
       6
  9
$SPLINESEGS
 70
       8
  9
$ATTDIA
 70
       0
  9
$ATTREQ
 70
       1
  9
$HANDLING
 70
       1
  9
$HANDSEED
  5
7CE
  9
$SURFTAB1
 70
       6
  9
$SURFTAB2
 70
       6
  9
$SURFTYPE
 70
       6
  9
$SURFU
 70
       6
  9
$SURFV
 70
       6
  9
$UCSNAME
  2

  9
$UCSORG
 10
0.0
 20
0.0
 30
0.0
  9
$UCSXDIR
 10
1.0
 20
0.0
 30
0.0
  9
$UCSYDIR
 10
0.0
 20
1.0
 30
0.0
  9
$PUCSNAME
  2

  9
$PUCSORG
 10
0.0
 20
0.0
 30
0.0
  9
$PUCSXDIR
 10
1.0
 20
0.0
 30
0.0
  9
$PUCSYDIR
 10
0.0
 20
1.0
 30
0.0
  9
$USERI1
 70
       0
  9
$USERI2
 70
       0
  9
$USERI3
 70
       0
  9
$USERI4
 70
       0
  9
$USERI5
 70
       0
  9
$USERR1
 40
0.0
  9
$USERR2
 40
0.0
  9
$USERR3
 40
0.0
  9
$USERR4
 40
0.0
  9
$USERR5
 40
0.0
  9
$WORLDVIEW
 70
       1
  9
$SHADEDGE
 70
       3
  9
$SHADEDIF
 70
      70
  9
$TILEMODE
 70
       1
  9
$MAXACTVP
 70
      16
  9
$PINSBASE
 10
0.0
 20
0.0
 30
0.0
  9
$PLIMCHECK
 70
       0
  9
$PEXTMIN
 10
1.00000000E+20
 20
1.00000000E+20
 30
1.00000000E+20
  9
$PEXTMAX
 10
-1.00000000E+20
 20
-1.00000000E+20
 30
-1.00000000E+20
  9
$PLIMMIN
 10
0.0
 20
0.0
  9
$PLIMMAX
 10
12.0
 20
9.0
  9
$UNITMODE
 70
       0
  9
$VISRETAIN
 70
       0
  9
$PLINEGEN
 70
       1
  9
$PSLTSCALE
 70
       0
  9
$TREEDEPTH
 70
    3020
  9
$PICKSTYLE
 70
       1
  9
$CMLSTYLE
  2
STANDARD
  9
$CMLJUST
 70
       0
  9
$CMLSCALE
 40
1.0
  9
$PROXYGRAPHICS
 70
       0
  9
$MEASUREMENT
 70
       0
  0
ENDSEC
  0
SECTION
  2
CLASSES
  0
CLASS
  1
LWPOLYLINE
  2
AcDbPolyline
  3
"AutoCAD"
 90
        0
280
       0
281
       1
  0
CLASS
  1
IMAGE
  2
AcDbRasterImage
  3
ISM
 90
      127
280
       0
281
       1
  0
CLASS
  1
OLE2FRAME
  2
AcDbOle2Frame
  3
""
 90
        0
280
       0
281
       1
  0
CLASS
  1
HATCH
  2
AcDbHatch
  3
"ACAD_SEDONA"
 90
        0
280
       0
281
       1
  0
CLASS
  1
DICTIONARYVAR
  2
AcDbDictionaryVar
  3
"AutoCAD"
 90
        0
280
       0
281
       0
  0
CLASS
  1
RASTERVARIABLES
  2
AcDbRasterVariables
  3
ISM
 90
        0
280
       0
281
       0
  0
CLASS
  1
IMAGEDEF
  2
AcDbRasterImageDef
  3
ISM
 90
        0
280
       0
281
       0
  0
CLASS
  1
IMAGEDEF_REACTOR
  2
AcDbRasterImageDefReactor
  3
ISM
 90
        1
280
       0
281
       0
  0
CLASS
  1
IDBUFFER
  2
AcDbIdBuffer
  3
"Acad"
 90
        0
280
       0
281
       0
  0
CLASS
  1
SPATIAL_FILTER
  2
AcDbSpatialFilter
  3
"Acad"
 90
        0
280
       0
281
       0
  0
CLASS
  1
XRECORD
  2
AcDbXrecord
  3
"<Built In>"
 90
        0
280
       0
281
       0
  0
CLASS
  1
SORTENTSTABLE
  2
AcDbSortentsTable
  3
"AutoCAD"
 90
        0
280
       0
281
       0
  0
CLASS
  1
LAYER_INDEX
  2
AcDbLayerIndex
  3
"Acad"
 90
        0
280
       0
281
       0
  0
CLASS
  1
SPATIAL_INDEX
  2
AcDbSpatialIndex
  3
"Acad"
 90
        0
280
       0
281
       0
  0
CLASS
  1
OBJECT_PTR
  2
CAseDLPNTableRecord
  3
"ASE-LPNTableRecord"
 90
        1
280
       0
281
       0
  0
CLASS
  1
LAYOUT
  2
AcDbLayout
  3
"AutoCAD 2000"
 90
        0
280
       0
281
       0
  0
CLASS
  1
PLOTSETTINGS
  2
AcDbPlotSettings
  3
"AutoCAD 2000"
 90
        0
280
       0
281
       0
  0
CLASS
  1
ACDBDICTIONARYWDFLT
  2
AcDbDictionaryWithDefault
  3
"AutoCAD 2000"
 90
        0
280
       0
281
       0
  0
CLASS
  1
ACDBPLACEHOLDER
  2
AcDbPlaceHolder
  3
"AutoCAD 2000"
 90
        0
280
       0
281
       0
  0
CLASS
  1
VBA_PROJECT
  2
AcDbVbaProject
  3
"acadvba"
 90
        0
280
       0
281
       0
  0
CLASS
  1
WIPEOUT
  2
AcDbWipeout
  3
WipeOut|AutoCAD Express Tool|expresstools@autodesk.com
 90
      127
280
       0
281
       1
  0
CLASS
  1
WIPEOUTVARIABLES
  2
AcDbWipeoutVariables
  3
WipeOut|AutoCAD Express Tool|expresstools@autodesk.com
 90
        0
280
       0
281
       0
  0
CLASS
  1
RTEXT
  2
RText
  3
RText|AutoCAD Express Tool|expresstools@autodesk.com
 90
        0
280
       0
281
       1
  0
CLASS
  1
ARCALIGNEDTEXT
  2
AcDbArcAlignedText
  3
ATEXT|AutoCAD Express Tool|expresstools@autodesk.com
 90
        0
280
       0
281
       1
  0
ENDSEC
  0
SECTION
  2
TABLES
  0
TABLE
  2
VPORT
  5
7
100
AcDbSymbolTable
 70
       1
  0
VPORT
  5
15
100
AcDbSymbolTableRecord
100
AcDbViewportTableRecord
  2
*ACTIVE
 70
       0
 10
0.0
 20
0.0
 11
1.0
 21
1.0
 12
0.0
 22
0.0
 13
0.0
 23
0.0
 14
1.0
 24
1.0
 15
0.0
 25
0.0
 16
0.0
 26
0.0
 36
1.0
 17
0.0
 27
0.0
 37
0.0
 40
1188.0
 41
1.41414141
 42
50.0
 43
0.0
 44
0.0
 50
0.0
 51
0.0
 71
       0
 72
     100
 73
       1
 74
       1
 75
       0
 76
       0
 77
       0
 78
       0
  0
ENDTAB
  0
TABLE
  2
LTYPE
  5
4
100
AcDbSymbolTable
 70
      30
  0
LTYPE
  5
11
100
AcDbSymbolTableRecord
100
AcDbLinetypeTableRecord
  2
BYBLOCK
 70
      64
  3

 72
      65
 73
       0
 40
0.0
  0
LTYPE
  5
12
100
AcDbSymbolTableRecord
100
AcDbLinetypeTableRecord
  2
BYLAYER
 70
      64
  3

 72
      65
 73
       0
 40
0.0
  0
LTYPE
  5
13
100
AcDbSymbolTableRecord
100
AcDbLinetypeTableRecord
  2
CONTINUOUS
 70
      64
  3
Solid line
 72
      65
 73
       0
 40
0.0
  0
LTYPE
  5
1D
100
AcDbSymbolTableRecord
100
AcDbLinetypeTableRecord
  2
HIDDENX2
 70
      64
  3
CADPAC LINETYPE
 72
      65
 73
       2
 40
5.88701685
 49
4.41526264
 74
       0
 49
-1.47175421
 74
       0
  0
LTYPE
  5
1E
100
AcDbSymbolTableRecord
100
AcDbLinetypeTableRecord
  2
HIDDEN
 70
      64
  3
CADPAC LINETYPE
 72
      65
 73
       2
 40
4.41526264
 49
2.94350842
 74
       0
 49
-1.47175421
 74
       0
  0
LTYPE
  5
1F
100
AcDbSymbolTableRecord
100
AcDbLinetypeTableRecord
  2
HIDDEN2
 70
      64
  3
CADPAC LINETYPE
 72
      65
 73
       2
 40
3.67938553
 49
2.20763132
 74
       0
 49
-1.47175421
 74
       0
  0
LTYPE
  5
20
100
AcDbSymbolTableRecord
100
AcDbLinetypeTableRecord
  2
DASHED
 70
      64
  3
CADPAC LINETYPE
 72
      65
 73
       2
 40
4.12091179
 49
2.94350842
 74
       0
 49
-1.17740337
 74
       0
  0
LTYPE
  5
21
100
AcDbSymbolTableRecord
100
AcDbLinetypeTableRecord
  2
DASHED2
 70
      64
  3
CADPAC LINETYPE
 72
      65
 73
       2
 40
2.64915758
 49
1.76610505
 74
       0
 49
-0.88305253
 74
       0
  0
LTYPE
  5
22
100
AcDbSymbolTableRecord
100
AcDbLinetypeTableRecord
  2
DASHEDX2
 70
      64
  3
CADPAC LINETYPE
 72
      65
 73
       2
 40
7.06442022
 49
5.88701685
 74
       0
 49
-1.17740337
 74
       0
  0
LTYPE
  5
23
100
AcDbSymbolTableRecord
100
AcDbLinetypeTableRecord
  2
DOTX2
 70
      64
  3
CADPAC LINETYPE
 72
      65
 73
       2
 40
2.57556987
 49
0.0
 74
       0
 49
-2.57556987
 74
       0
  0
LTYPE
  5
24
100
AcDbSymbolTableRecord
100
AcDbLinetypeTableRecord
  2
DOT
 70
      64
  3
CADPAC LINETYPE
 72
      65
 73
       2
 40
2.0604559
 49
0.0
 74
       0
 49
-2.0604559
 74
       0
  0
LTYPE
  5
25
100
AcDbSymbolTableRecord
100
AcDbLinetypeTableRecord
  2
DOT2
 70
      64
  3
CADPAC LINETYPE
 72
      65
 73
       2
 40
1.54534192
 49
0.0
 74
       0
 49
-1.54534192
 74
       0
  0
LTYPE
  5
26
100
AcDbSymbolTableRecord
100
AcDbLinetypeTableRecord
  2
CENTERX2
 70
      64
  3
CADPAC LINETYPE
 72
      65
 73
       4
 40
8.83052527
 49
3.67938553
 74
       0
 49
-1.83969277
 74
       0
 49
1.47175421
 74
       0
 49
-1.83969277
 74
       0
  0
LTYPE
  5
27
100
AcDbSymbolTableRecord
100
AcDbLinetypeTableRecord
  2
CENTER
 70
      64
  3
CADPAC LINETYPE
 72
      65
 73
       4
 40
6.77006938
 49
2.94350842
 74
       0
 49
-1.47175421
 74
       0
 49
0.88305253
 74
       0
 49
-1.47175421
 74
       0
  0
LTYPE
  5
28
100
AcDbSymbolTableRecord
100
AcDbLinetypeTableRecord
  2
CENTER2
 70
      64
  3
CADPAC LINETYPE
 72
      65
 73
       4
 40
4.70961348
 49
2.20763132
 74
       0
 49
-1.10381566
 74
       0
 49
0.29435084
 74
       0
 49
-1.10381566
 74
       0
  0
LTYPE
  5
29
100
AcDbSymbolTableRecord
100
AcDbLinetypeTableRecord
  2
DASHDOTX2
 70
      64
  3
CADPAC LINETYPE
 72
      65
 73
       4
 40
14.12884044
 49
7.06442022
 74
       0
 49
-2.35480674
 74
       0
 49
2.35480674
 74
       0
 49
-2.35480674
 74
       0
  0
LTYPE
  5
2A
100
AcDbSymbolTableRecord
100
AcDbLinetypeTableRecord
  2
DASHDOT
 70
      64
  3
CADPAC LINETYPE
 72
      65
 73
       4
 40
7.06442022
 49
3.53221011
 74
       0
 49
-1.17740337
 74
       0
 49
1.17740337
 74
       0
 49
-1.17740337
 74
       0
  0
LTYPE
  5
2B
100
AcDbSymbolTableRecord
100
AcDbLinetypeTableRecord
  2
DASHDOT2
 70
      64
  3
CADPAC LINETYPE
 72
      65
 73
       4
 40
4.53300297
 49
2.64915758
 74
       0
 49
-0.88305253
 74
       0
 49
0.11774034
 74
       0
 49
-0.88305253
 74
       0
  0
LTYPE
  5
2C
100
AcDbSymbolTableRecord
100
AcDbLinetypeTableRecord
  2
DIVIDEX2
 70
      64
  3
CADPAC LINETYPE
 72
      65
 73
       6
 40
18.83845391
 49
7.06442022
 74
       0
 49
-2.35480674
 74
       0
 49
2.35480674
 74
       0
 49
-2.35480674
 74
       0
 49
2.35480674
 74
       0
 49
-2.35480674
 74
       0
  0
LTYPE
  5
2D
100
AcDbSymbolTableRecord
100
AcDbLinetypeTableRecord
  2
DIVIDE
 70
      64
  3
CADPAC LINETYPE
 72
      65
 73
       6
 40
9.41922696
 49
3.53221011
 74
       0
 49
-1.17740337
 74
       0
 49
1.17740337
 74
       0
 49
-1.17740337
 74
       0
 49
1.17740337
 74
       0
 49
-1.17740337
 74
       0
  0
LTYPE
  5
2E
100
AcDbSymbolTableRecord
100
AcDbLinetypeTableRecord
  2
DIVIDE2
 70
      64
  3
CADPAC LINETYPE
 72
      65
 73
       6
 40
7.06442022
 49
2.64915758
 74
       0
 49
-0.88305253
 74
       0
 49
0.88305253
 74
       0
 49
-0.88305253
 74
       0
 49
0.88305253
 74
       0
 49
-0.88305253
 74
       0
  0
LTYPE
  5
2F
100
AcDbSymbolTableRecord
100
AcDbLinetypeTableRecord
  2
BORDERX2
 70
      64
  3
CADPAC LINETYPE
 72
      65
 73
       6
 40
12.87784936
 49
3.67938553
 74
       0
 49
-1.83969277
 74
       0
 49
3.67938553
 74
       0
 49
-1.83969277
 74
       0
 49
0.0
 74
       0
 49
-1.83969277
 74
       0
  0
LTYPE
  5
30
100
AcDbSymbolTableRecord
100
AcDbLinetypeTableRecord
  2
BORDER
 70
      64
  3
CADPAC LINETYPE
 72
      65
 73
       6
 40
10.30227948
 49
2.94350842
 74
       0
 49
-1.47175421
 74
       0
 49
2.94350842
 74
       0
 49
-1.47175421
 74
       0
 49
0.0
 74
       0
 49
-1.47175421
 74
       0
  0
LTYPE
  5
31
100
AcDbSymbolTableRecord
100
AcDbLinetypeTableRecord
  2
BORDER2
 70
      64
  3
CADPAC LINETYPE
 72
      65
 73
       6
 40
7.6531219
 49
2.35480674
 74
       0
 49
-1.47175421
 74
       0
 49
0.88305253
 74
       0
 49
-1.47175421
 74
       0
 49
0.0
 74
       0
 49
-1.47175421
 74
       0
  0
LTYPE
  5
32
100
AcDbSymbolTableRecord
100
AcDbLinetypeTableRecord
  2
PHANTOMX2
 70
      64
  3
CADPAC LINETYPE
 72
      65
 73
       6
 40
11.03815659
 49
3.67938553
 74
       0
 49
-1.47175421
 74
       0
 49
1.47175421
 74
       0
 49
-1.47175421
 74
       0
 49
1.47175421
 74
       0
 49
-1.47175421
 74
       0
  0
LTYPE
  5
33
100
AcDbSymbolTableRecord
100
AcDbLinetypeTableRecord
  2
PHANTOM
 70
      64
  3
CADPAC LINETYPE
 72
      65
 73
       6
 40
9.12487611
 49
2.94350842
 74
       0
 49
-1.47175421
 74
       0
 49
0.88305253
 74
       0
 49
-1.47175421
 74
       0
 49
0.88305253
 74
       0
 49
-1.47175421
 74
       0
  0
LTYPE
  5
34
100
AcDbSymbolTableRecord
100
AcDbLinetypeTableRecord
  2
PHANTOM2
 70
      64
  3
CADPAC LINETYPE
 72
      65
 73
       6
 40
7.80029732
 49
2.20763132
 74
       0
 49
-1.47175421
 74
       0
 49
0.58870168
 74
       0
 49
-1.47175421
 74
       0
 49
0.58870168
 74
       0
 49
-1.47175421
 74
       0
  0
LTYPE
  5
35
100
AcDbSymbolTableRecord
100
AcDbLinetypeTableRecord
  2
ACAD_ISO06W100
 70
      64
  3
CADPAC LINETYPE
 72
      65
 73
       8
 40
15.60059465
 49
7.06442022
 74
       0
 49
-1.47175421
 74
       0
 49
0.88305253
 74
       0
 49
-1.47175421
 74
       0
 49
0.88305253
 74
       0
 49
-1.47175421
 74
       0
 49
0.88305253
 74
       0
 49
-1.47175421
 74
       0
  0
LTYPE
  5
36
100
AcDbSymbolTableRecord
100
AcDbLinetypeTableRecord
  2
ACAD_ISO13W100
 70
      64
  3
CADPAC LINETYPE
 72
      65
 73
       8
 40
11.7740337
 49
2.94350842
 74
       0
 49
-1.47175421
 74
       0
 49
2.94350842
 74
       0
 49
-1.47175421
 74
       0
 49
0.0
 74
       0
 49
-1.47175421
 74
       0
 49
0.0
 74
       0
 49
-1.47175421
 74
       0
  0
LTYPE
  5
37
100
AcDbSymbolTableRecord
100
AcDbLinetypeTableRecord
  2
ACAD_ISO14W100
 70
      64
  3
CADPAC LINETYPE
 72
      65
 73
       8
 40
8.83052527
 49
2.94350842
 74
       0
 49
-1.47175421
 74
       0
 49
0.0
 74
       0
 49
-1.47175421
 74
       0
 49
0.0
 74
       0
 49
-1.47175421
 74
       0
 49
0.0
 74
       0
 49
-1.47175421
 74
       0
  0
ENDTAB
  0
TABLE
  2
LAYER
  5
2
100
AcDbSymbolTable
 70
       4
  0
LAYER
  5
14
100
AcDbSymbolTableRecord
100
AcDbLayerTableRecord
  2
0
 70
       0
 62
       7
  6
CONTINUOUS
  0
LAYER
  5
38
100
AcDbSymbolTableRecord
100
AcDbLayerTableRecord
  2
レイヤー_1
 70
       0
 62
       7
  6
CONTINUOUS
  0
LAYER
  5
39
100
AcDbSymbolTableRecord
100
AcDbLayerTableRecord
  2
LAYER0240
 70
       0
 62
       7
  6
CONTINUOUS
  0
LAYER
  5
3A
100
AcDbSymbolTableRecord
100
AcDbLayerTableRecord
  2
ZUWAKU
 70
       0
 62
       7
  6
CONTINUOUS
  0
ENDTAB
  0
TABLE
  2
STYLE
  5
3
100
AcDbSymbolTable
 70
       1
  0
STYLE
  5
17
100
AcDbSymbolTableRecord
100
AcDbTextStyleTableRecord
  2
STANDARD
 70
       0
 40
16.0
 41
0.6
 50
0.0
 71
       0
 42
16.0
  3
txt.shx
  4
bigfont.shx
  0
ENDTAB
  0
TABLE
  2
VIEW
  5
5
100
AcDbSymbolTable
 70
       1
  0
VIEW
  5
3B
100
AcDbSymbolTableRecord
100
AcDbViewTableRecord
  2
QQQQ
 70
       0
 40
1188.0
 10
0.0
 20
0.0
 41
1680.0
 11
0.0
 21
0.0
 31
1.0
 12
100.0
 22
100.0
 32
0.0
 42
50.0
 43
0.0
 44
0.0
 50
0.0
 71
       0
  0
ENDTAB
  0
TABLE
  2
UCS
  5
6
100
AcDbSymbolTable
 70
       0
  0
ENDTAB
  0
TABLE
  2
APPID
  5
8
100
AcDbSymbolTable
 70
       1
  0
APPID
  5
16
100
AcDbSymbolTableRecord
100
AcDbRegAppTableRecord
  2
ACAD
 70
       0
  0
ENDTAB
  0
TABLE
  2
DIMSTYLE
  5
9
100
AcDbSymbolTable
 70
       1
  0
DIMSTYLE
105
18
100
AcDbSymbolTableRecord
100
AcDbDimStyleTableRecord
  2
STANDARD
 70
       0
  3

  4

  5

  6

  7

 40
1.0
 41
0.18
 42
0.0625
 43
0.38
 44
0.18
 45
0.0
 46
0.0
 47
0.0
 48
0.0
 71
       0
 72
       0
 73
       1
 74
       1
 75
       0
 76
       0
 77
       0
 78
       0
140
0.18
141
0.09
142
0.0
143
25.4
144
1.0
145
0.0
146
1.0
147
0.09
170
       0
171
       2
172
       0
173
       0
174
       0
175
       0
176
       0
177
       0
178
       0
270
       2
271
       4
272
       4
273
       2
274
       2
275
       0
280
       0
281
       0
282
       0
283
       1
284
       0
285
       0
286
       0
287
       3
288
       0
340
17
  0
ENDTAB
  0
TABLE
  2
BLOCK_RECORD
  5
1
100
AcDbSymbolTable
 70
      50
  0
BLOCK_RECORD
  5
A
100
AcDbSymbolTableRecord
100
AcDbBlockTableRecord
  2
*MODEL_SPACE
  0
BLOCK_RECORD
  5
B
100
AcDbSymbolTableRecord
100
AcDbBlockTableRecord
  2
*PAPER_SPACE
  0
BLOCK_RECORD
  5
3C
100
AcDbSymbolTableRecord
100
AcDbBlockTableRecord
  2
GROUP_1
  0
BLOCK_RECORD
  5
3D
100
AcDbSymbolTableRecord
100
AcDbBlockTableRecord
  2
GROUP_2
  0
BLOCK_RECORD
  5
3E
100
AcDbSymbolTableRecord
100
AcDbBlockTableRecord
  2
GROUP_3
  0
BLOCK_RECORD
  5
3F
100
AcDbSymbolTableRecord
100
AcDbBlockTableRecord
  2
GROUP_4
  0
BLOCK_RECORD
  5
40
100
AcDbSymbolTableRecord
100
AcDbBlockTableRecord
  2
GROUP_5
  0
BLOCK_RECORD
  5
41
100
AcDbSymbolTableRecord
100
AcDbBlockTableRecord
  2
GROUP_6
  0
BLOCK_RECORD
  5
42
100
AcDbSymbolTableRecord
100
AcDbBlockTableRecord
  2
GROUP_7
  0
BLOCK_RECORD
  5
43
100
AcDbSymbolTableRecord
100
AcDbBlockTableRecord
  2
GROUP_8
  0
BLOCK_RECORD
  5
44
100
AcDbSymbolTableRecord
100
AcDbBlockTableRecord
  2
GROUP_9
  0
BLOCK_RECORD
  5
45
100
AcDbSymbolTableRecord
100
AcDbBlockTableRecord
  2
GROUP_10
  0
BLOCK_RECORD
  5
46
100
AcDbSymbolTableRecord
100
AcDbBlockTableRecord
  2
GROUP_11
  0
BLOCK_RECORD
  5
47
100
AcDbSymbolTableRecord
100
AcDbBlockTableRecord
  2
GROUP_12
  0
BLOCK_RECORD
  5
48
100
AcDbSymbolTableRecord
100
AcDbBlockTableRecord
  2
GROUP_13
  0
BLOCK_RECORD
  5
49
100
AcDbSymbolTableRecord
100
AcDbBlockTableRecord
  2
GROUP_14
  0
BLOCK_RECORD
  5
4A
100
AcDbSymbolTableRecord
100
AcDbBlockTableRecord
  2
GROUP_15
  0
BLOCK_RECORD
  5
4B
100
AcDbSymbolTableRecord
100
AcDbBlockTableRecord
  2
GROUP_16
  0
BLOCK_RECORD
  5
4C
100
AcDbSymbolTableRecord
100
AcDbBlockTableRecord
  2
GROUP_17
  0
BLOCK_RECORD
  5
4D
100
AcDbSymbolTableRecord
100
AcDbBlockTableRecord
  2
GROUP_18
  0
BLOCK_RECORD
  5
4E
100
AcDbSymbolTableRecord
100
AcDbBlockTableRecord
  2
GROUP_19
  0
BLOCK_RECORD
  5
4F
100
AcDbSymbolTableRecord
100
AcDbBlockTableRecord
  2
GROUP_20
  0
BLOCK_RECORD
  5
50
100
AcDbSymbolTableRecord
100
AcDbBlockTableRecord
  2
GROUP_21
  0
BLOCK_RECORD
  5
51
100
AcDbSymbolTableRecord
100
AcDbBlockTableRecord
  2
GROUP_22
  0
BLOCK_RECORD
  5
52
100
AcDbSymbolTableRecord
100
AcDbBlockTableRecord
  2
GROUP_23
  0
BLOCK_RECORD
  5
53
100
AcDbSymbolTableRecord
100
AcDbBlockTableRecord
  2
GROUP_24
  0
BLOCK_RECORD
  5
54
100
AcDbSymbolTableRecord
100
AcDbBlockTableRecord
  2
GROUP_25
  0
BLOCK_RECORD
  5
55
100
AcDbSymbolTableRecord
100
AcDbBlockTableRecord
  2
GROUP_26
  0
BLOCK_RECORD
  5
56
100
AcDbSymbolTableRecord
100
AcDbBlockTableRecord
  2
GROUP_27
  0
BLOCK_RECORD
  5
57
100
AcDbSymbolTableRecord
100
AcDbBlockTableRecord
  2
GROUP_28
  0
BLOCK_RECORD
  5
58
100
AcDbSymbolTableRecord
100
AcDbBlockTableRecord
  2
GROUP_29
  0
BLOCK_RECORD
  5
59
100
AcDbSymbolTableRecord
100
AcDbBlockTableRecord
  2
GROUP_30
  0
BLOCK_RECORD
  5
5A
100
AcDbSymbolTableRecord
100
AcDbBlockTableRecord
  2
GROUP_31
  0
BLOCK_RECORD
  5
5B
100
AcDbSymbolTableRecord
100
AcDbBlockTableRecord
  2
GROUP_32
  0
BLOCK_RECORD
  5
5C
100
AcDbSymbolTableRecord
100
AcDbBlockTableRecord
  2
GROUP_33
  0
BLOCK_RECORD
  5
5D
100
AcDbSymbolTableRecord
100
AcDbBlockTableRecord
  2
GROUP_34
  0
BLOCK_RECORD
  5
5E
100
AcDbSymbolTableRecord
100
AcDbBlockTableRecord
  2
GROUP_35
  0
BLOCK_RECORD
  5
5F
100
AcDbSymbolTableRecord
100
AcDbBlockTableRecord
  2
GROUP_36
  0
BLOCK_RECORD
  5
60
100
AcDbSymbolTableRecord
100
AcDbBlockTableRecord
  2
GROUP_37
  0
BLOCK_RECORD
  5
61
100
AcDbSymbolTableRecord
100
AcDbBlockTableRecord
  2
_OPEN30
  0
BLOCK_RECORD
  5
62
100
AcDbSymbolTableRecord
100
AcDbBlockTableRecord
  2
DA_IMAGEDIMGROUP_1
  0
BLOCK_RECORD
  5
63
100
AcDbSymbolTableRecord
100
AcDbBlockTableRecord
  2
DA_IMAGEDIMGROUP_2
  0
BLOCK_RECORD
  5
64
100
AcDbSymbolTableRecord
100
AcDbBlockTableRecord
  2
DA_IMAGEDIMGROUP_3
  0
BLOCK_RECORD
  5
65
100
AcDbSymbolTableRecord
100
AcDbBlockTableRecord
  2
DA_IMAGEDIMGROUP_4
  0
BLOCK_RECORD
  5
66
100
AcDbSymbolTableRecord
100
AcDbBlockTableRecord
  2
DA_IMAGEDIMGROUP_5
  0
BLOCK_RECORD
  5
67
100
AcDbSymbolTableRecord
100
AcDbBlockTableRecord
  2
DA_IMAGEDIMGROUP_6
  0
BLOCK_RECORD
  5
68
100
AcDbSymbolTableRecord
100
AcDbBlockTableRecord
  2
DA_IMAGEDIMGROUP_7
  0
BLOCK_RECORD
  5
69
100
AcDbSymbolTableRecord
100
AcDbBlockTableRecord
  2
DA_IMAGEDIMGROUP_8
  0
BLOCK_RECORD
  5
6A
100
AcDbSymbolTableRecord
100
AcDbBlockTableRecord
  2
DA_IMAGEDIMGROUP_9
  0
BLOCK_RECORD
  5
6B
100
AcDbSymbolTableRecord
100
AcDbBlockTableRecord
  2
DA_IMAGEDIMGROUP_10
  0
BLOCK_RECORD
  5
6C
100
AcDbSymbolTableRecord
100
AcDbBlockTableRecord
  2
GROUP_38
  0
BLOCK_RECORD
  5
6D
100
AcDbSymbolTableRecord
100
AcDbBlockTableRecord
  2
GROUP_39
  0
ENDTAB
  0
ENDSEC
  0
SECTION
  2
BLOCKS
  0
BLOCK
  5
D
100
AcDbEntity
  8
0
100
AcDbBlockBegin
  2
*MODEL_SPACE
 70
       0
 10
0.0
 20
0.0
 30
0.0
  3
*MODEL_SPACE
  1

  0
ENDBLK
  5
E
100
AcDbEntity
  8
0
100
AcDbBlockEnd
  0
BLOCK
  5
F
100
AcDbEntity
 67
       1
  8
0
100
AcDbBlockBegin
  2
*PAPER_SPACE
 70
       0
 10
0.0
 20
0.0
 30
0.0
  3
*PAPER_SPACE
  1

  0
ENDBLK
  5
10
100
AcDbEntity
 67
       1
  8
0
100
AcDbBlockEnd
  0
BLOCK
  5
6E
100
AcDbEntity
  8
0
100
AcDbBlockBegin
  2
GROUP_1
 70
       0
 10
0.0
 20
0.0
 30
0.0
  3
GROUP_1
  1

  0
LINE
  5
6F
100
AcDbEntity
  8
0
  6
CONTINUOUS
 62
       3
100
AcDbLine
 10
-474.63386103
 20
-285.87234317
 30
0.0
 11
-474.36023764
 21
-285.93906351
 31
0.0
  0
LINE
  5
70
100
AcDbEntity
  8
0
  6
CONTINUOUS
 62
       3
100
AcDbLine
 10
-474.36023764
 20
-285.93906351
 30
0.0
 11
-474.08592268
 21
-286.00235118
 31
0.0
  0
LINE
  5
71
100
AcDbEntity
  8
0
  6
CONTINUOUS
 62
       3
100
AcDbLine
 10
-474.08592268
 20
-286.00235118
 30
0.0
 11
-473.81094496
 21
-286.0622074
 31
0.0
  0
LINE
  5
72
100
AcDbEntity
  8
0
  6
CONTINUOUS
 62
       3
100
AcDbLine
 10
-473.81094496
 20
-286.0622074
 30
0.0
 11
-473.5353333
 21
-286.11863336
 31
0.0
  0
LINE
  5
73
100
AcDbEntity
  8
0
  6
CONTINUOUS
 62
       3
100
AcDbLine
 10
-473.5353333
 20
-286.11863336
 30
0.0
 11
-473.25911651
 21
-286.17163026
 31
0.0
  0
LINE
  5
74
100
AcDbEntity
  8
0
  6
CONTINUOUS
 62
       3
100
AcDbLine
 10
-473.25911651
 20
-286.17163026
 30
0.0
 11
-472.98232341
 21
-286.2211993
 31
0.0
  0
LINE
  5
75
100
AcDbEntity
  8
0
  6
CONTINUOUS
 62
       3
100
AcDbLine
 10
-472.98232341
 20
-286.2211993
 30
0.0
 11
-472.70498282
 21
-286.26734169
 31
0.0
  0
LINE
  5
76
100
AcDbEntity
  8
0
  6
CONTINUOUS
 62
       3
100
AcDbLine
 10
-472.70498282
 20
-286.26734169
 30
0.0
 11
-472.42712354
 21
-286.31005862
 31
0.0
  0
LINE
  5
77
100
AcDbEntity
  8
0
  6
CONTINUOUS
 62
       3
100
AcDbLine
 10
-472.42712354
 20
-286.31005862
 30
0.0
 11
-472.14877439
 21
-286.3493513
 31
0.0
  0
LINE
  5
78
100
AcDbEntity
  8
0
  6
CONTINUOUS
 62
       3
100
AcDbLine
 10
-472.14877439
 20
-286.3493513
 30
0.0
 11
-471.8699642
 21
-286.38522093
 31
0.0
  0
LINE
  5
79
100
AcDbEntity
  8
0
  6
CONTINUOUS
 62
       3
100
AcDbLine
 10
-471.8699642
 20
-286.38522093
 30
0.0
 11
-471.59072177
 21
-286.4176687
 31
0.0
  0
LINE
  5
7A
100
AcDbEntity
  8
0
  6
CONTINUOUS
 62
       3
100
AcDbLine
 10
-471.59072177
 20
-286.4176687
 30
0.0
 11
-471.31107593
 21
-286.44669582
 31
0.0
  0
LINE
  5
7B
100
AcDbEntity
  8
0
  6
CONTINUOUS
 62
       3
100
AcDbLine
 10
-471.31107593
 20
-286.44669582
 30
0.0
 11
-471.03105548
 21
-286.47230349
 31
0.0
  0
LINE
  5
7C
100
AcDbEntity
  8
0
  6
CONTINUOUS
 62
       3
100
AcDbLine
 10
-471.03105548
 20
-286.47230349
 30
0.0
 11
-470.75068924
 21
-286.49449291
 31
0.0
  0
LINE
  5
7D
100
AcDbEntity
  8
0
  6
CONTINUOUS
 62
       3
100
AcDbLine
 10
-470.75068924
 20
-286.49449291
 30
0.0
 11
-470.47000604
 21
-286.51326527
 31
0.0
  0
LINE
  5
7E
100
AcDbEntity
  8
0
  6
CONTINUOUS
 62
       3
100
AcDbLine
 10
-470.47000604
 20
-286.51326527
 30
0.0
 11
-470.18903467
 21
-286.52862179
 31
0.0
  0
LINE
  5
7F
100
AcDbEntity
  8
0
  6
CONTINUOUS
 62
       3
100
AcDbLine
 10
-470.18903467
 20
-286.52862179
 30
0.0
 11
-469.90780397
 21
-286.54056366
 31
0.0
  0
LINE
  5
80
100
AcDbEntity
  8
0
  6
CONTINUOUS
 62
       3
100
AcDbLine
 10
-469.90780397
 20
-286.54056366
 30
0.0
 11
-469.62634274
 21
-286.54909208
 31
0.0
  0
LINE
  5
81
100
AcDbEntity
  8
0
  6
CONTINUOUS
 62
       3
100
AcDbLine
 10
-469.62634274
 20
-286.54909208
 30
0.0
 11
-469.3446798
 21
-286.55420825
 31
0.0
  0
LINE
  5
82
100
AcDbEntity
  8
0
  6
CONTINUOUS
 62
       3
100
AcDbLine
 10
-469.3446798
 20
-286.55420825
 30
0.0
 11
-469.06284397
 21
-286.55591337
 31
0.0
  0
ENDBLK
  5
83
100
AcDbEntity
  8
0
100
AcDbBlockEnd
  0
BLOCK
  5
84
100
AcDbEntity
  8
0
100
AcDbBlockBegin
  2
GROUP_2
 70
       0
 10
0.0
 20
0.0
 30
0.0
  3
GROUP_2
  1

  0
LINE
  5
85
100
AcDbEntity
  8
0
  6
CONTINUOUS
 62
       3
100
AcDbLine
 10
-482.72144096
 20
-285.87234317
 30
0.0
 11
-482.45344302
 21
-286.00260172
 31
0.0
  0
LINE
  5
86
100
AcDbEntity
  8
0
  6
CONTINUOUS
 62
       3
100
AcDbLine
 10
-482.45344302
 20
-286.00260172
 30
0.0
 11
-482.18094985
 21
-286.11914883
 31
0.0
  0
LINE
  5
87
100
AcDbEntity
  8
0
  6
CONTINUOUS
 62
       3
100
AcDbLine
 10
-482.18094985
 20
-286.11914883
 30
0.0
 11
-481.90446091
 21
-286.22198453
 31
0.0
  0
LINE
  5
88
100
AcDbEntity
  8
0
  6
CONTINUOUS
 62
       3
100
AcDbLine
 10
-481.90446091
 20
-286.22198453
 30
0.0
 11
-481.62447568
 21
-286.31110879
 31
0.0
  0
LINE
  5
89
100
AcDbEntity
  8
0
  6
CONTINUOUS
 62
       3
100
AcDbLine
 10
-481.62447568
 20
-286.31110879
 30
0.0
 11
-481.34149363
 21
-286.38652163
 31
0.0
  0
LINE
  5
8A
100
AcDbEntity
  8
0
  6
CONTINUOUS
 62
       3
100
AcDbLine
 10
-481.34149363
 20
-286.38652163
 30
0.0
 11
-481.05601423
 21
-286.44822305
 31
0.0
  0
LINE
  5
8B
100
AcDbEntity
  8
0
  6
CONTINUOUS
 62
       3
100
AcDbLine
 10
-481.05601423
 20
-286.44822305
 30
0.0
 11
-480.76853694
 21
-286.49621304
 31
0.0
  0
LINE
  5
8C
100
AcDbEntity
  8
0
  6
CONTINUOUS
 62
       3
100
AcDbLine
 10
-480.76853694
 20
-286.49621304
 30
0.0
 11
-480.47956124
 21
-286.5304916
 31
0.0
  0
LINE
  5
8D
100
AcDbEntity
  8
0
  6
CONTINUOUS
 62
       3
100
AcDbLine
 10
-480.47956124
 20
-286.5304916
 30
0.0
 11
-480.1895866
 21
-286.55105874
 31
0.0
  0
LINE
  5
8E
100
AcDbEntity
  8
0
  6
CONTINUOUS
 62
       3
100
AcDbLine
 10
-480.1895866
 20
-286.55105874
 30
0.0
 11
-479.89911249
 21
-286.55791445
 31
0.0
  0
LINE
  5
8F
100
AcDbEntity
  8
0
  6
CONTINUOUS
 62
       3
100
AcDbLine
 10
-479.89911249
 20
-286.55791445
 30
0.0
 11
-479.60863838
 21
-286.55105874
 31
0.0
  0
LINE
  5
90
100
AcDbEntity
  8
0
  6
CONTINUOUS
 62
       3
100
AcDbLine
 10
-479.60863838
 20
-286.55105874
 30
0.0
 11
-479.31866374
 21
-286.5304916
 31
0.0
  0
LINE
  5
91
100
AcDbEntity
  8
0
  6
CONTINUOUS
 62
       3
100
AcDbLine
 10
-479.31866374
 20
-286.5304916
 30
0.0
 11
-479.02968804
 21
-286.49621304
 31
0.0
  0
LINE
  5
92
100
AcDbEntity
  8
0
  6
CONTINUOUS
 62
       3
100
AcDbLine
 10
-479.02968804
 20
-286.49621304
 30
0.0
 11
-478.74221076
 21
-286.44822305
 31
0.0
  0
LINE
  5
93
100
AcDbEntity
  8
0
  6
CONTINUOUS
 62
       3
100
AcDbLine
 10
-478.74221076
 20
-286.44822305
 30
0.0
 11
-478.45673135
 21
-286.38652163
 31
0.0
  0
LINE
  5
94
100
AcDbEntity
  8
0
  6
CONTINUOUS
 62
       3
100
AcDbLine
 10
-478.45673135
 20
-286.38652163
 30
0.0
 11
-478.1737493
 21
-286.31110879
 31
0.0
  0
LINE
  5
95
100
AcDbEntity
  8
0
  6
CONTINUOUS
 62
       3
100
AcDbLine
 10
-478.1737493
 20
-286.31110879
 30
0.0
 11
-477.89376407
 21
-286.22198453
 31
0.0
  0
LINE
  5
96
100
AcDbEntity
  8
0
  6
CONTINUOUS
 62
       3
100
AcDbLine
 10
-477.89376407
 20
-286.22198453
 30
0.0
 11
-477.61727513
 21
-286.11914883
 31
0.0
  0
LINE
  5
97
100
AcDbEntity
  8
0
  6
CONTINUOUS
 62
       3
100
AcDbLine
 10
-477.61727513
 20
-286.11914883
 30
0.0
 11
-477.34478196
 21
-286.00260172
 31
0.0
  0
LINE
  5
98
100
AcDbEntity
  8
0
  6
CONTINUOUS
 62
       3
100
AcDbLine
 10
-477.34478196
 20
-286.00260172
 30
0.0
 11
-477.07678402
 21
-285.87234317
 31
0.0
  0
ENDBLK
  5
99
100
AcDbEntity
  8
0
100
AcDbBlockEnd
  0
BLOCK
  5
9A
100
AcDbEntity
  8
0
100
AcDbBlockBegin
  2
GROUP_3
 70
       0
 10
0.0
 20
0.0
 30
0.0
  3
GROUP_3
  1

  0
LINE
  5
9B
100
AcDbEntity
  8
0
  6
CONTINUOUS
 62
       3
100
AcDbLine
 10
-469.06284397
 20
-271.35087888
 30
0.0
 11
-469.36870121
 21
-271.35632563
 31
0.0
  0
LINE
  5
9C
100
AcDbEntity
  8
0
  6
CONTINUOUS
 62
       3
100
AcDbLine
 10
-469.36870121
 20
-271.35632563
 30
0.0
 11
-469.67328336
 21
-271.37260105
 31
0.0
  0
LINE
  5
9D
100
AcDbEntity
  8
0
  6
CONTINUOUS
 62
       3
100
AcDbLine
 10
-469.67328336
 20
-271.37260105
 30
0.0
 11
-469.97632388
 21
-271.39960787
 31
0.0
  0
LINE
  5
9E
100
AcDbEntity
  8
0
  6
CONTINUOUS
 62
       3
100
AcDbLine
 10
-469.97632388
 20
-271.39960787
 30
0.0
 11
-470.27755621
 21
-271.43724886
 31
0.0
  0
LINE
  5
9F
100
AcDbEntity
  8
0
  6
CONTINUOUS
 62
       3
100
AcDbLine
 10
-470.27755621
 20
-271.43724886
 30
0.0
 11
-470.57671382
 21
-271.48542675
 31
0.0
  0
LINE
  5
A0
100
AcDbEntity
  8
0
  6
CONTINUOUS
 62
       3
100
AcDbLine
 10
-470.57671382
 20
-271.48542675
 30
0.0
 11
-470.87353017
 21
-271.5440443
 31
0.0
  0
LINE
  5
A1
100
AcDbEntity
  8
0
  6
CONTINUOUS
 62
       3
100
AcDbLine
 10
-470.87353017
 20
-271.5440443
 30
0.0
 11
-471.1677387
 21
-271.61300424
 31
0.0
  0
LINE
  5
A2
100
AcDbEntity
  8
0
  6
CONTINUOUS
 62
       3
100
AcDbLine
 10
-471.1677387
 20
-271.61300424
 30
0.0
 11
-471.45907288
 21
-271.69220934
 31
0.0
  0
LINE
  5
A3
100
AcDbEntity
  8
0
  6
CONTINUOUS
 62
       3
100
AcDbLine
 10
-471.45907288
 20
-271.69220934
 30
0.0
 11
-471.74726615
 21
-271.78156233
 31
0.0
  0
LINE
  5
A4
100
AcDbEntity
  8
0
  6
CONTINUOUS
 62
       3
100
AcDbLine
 10
-471.74726615
 20
-271.78156233
 30
0.0
 11
-472.03205198
 21
-271.88096596
 31
0.0
  0
LINE
  5
A5
100
AcDbEntity
  8
0
  6
CONTINUOUS
 62
       3
100
AcDbLine
 10
-472.03205198
 20
-271.88096596
 30
0.0
 11
-472.31316382
 21
-271.99032298
 31
0.0
  0
LINE
  5
A6
100
AcDbEntity
  8
0
  6
CONTINUOUS
 62
       3
100
AcDbLine
 10
-472.31316382
 20
-271.99032298
 30
0.0
 11
-472.59033513
 21
-272.10953615
 31
0.0
  0
LINE
  5
A7
100
AcDbEntity
  8
0
  6
CONTINUOUS
 62
       3
100
AcDbLine
 10
-472.59033513
 20
-272.10953615
 30
0.0
 11
-472.86329935
 21
-272.23850819
 31
0.0
  0
LINE
  5
A8
100
AcDbEntity
  8
0
  6
CONTINUOUS
 62
       3
100
AcDbLine
 10
-472.86329935
 20
-272.23850819
 30
0.0
 11
-473.13178996
 21
-272.37714187
 31
0.0
  0
LINE
  5
A9
100
AcDbEntity
  8
0
  6
CONTINUOUS
 62
       3
100
AcDbLine
 10
-473.13178996
 20
-272.37714187
 30
0.0
 11
-473.3955404
 21
-272.52533993
 31
0.0
  0
LINE
  5
AA
100
AcDbEntity
  8
0
  6
CONTINUOUS
 62
       3
100
AcDbLine
 10
-473.3955404
 20
-272.52533993
 30
0.0
 11
-473.65428412
 21
-272.68300512
 31
0.0
  0
LINE
  5
AB
100
AcDbEntity
  8
0
  6
CONTINUOUS
 62
       3
100
AcDbLine
 10
-473.65428412
 20
-272.68300512
 30
0.0
 11
-473.90775459
 21
-272.85004018
 31
0.0
  0
LINE
  5
AC
100
AcDbEntity
  8
0
  6
CONTINUOUS
 62
       3
100
AcDbLine
 10
-473.90775459
 20
-272.85004018
 30
0.0
 11
-474.15568526
 21
-273.02634786
 31
0.0
  0
LINE
  5
AD
100
AcDbEntity
  8
0
  6
CONTINUOUS
 62
       3
100
AcDbLine
 10
-474.15568526
 20
-273.02634786
 30
0.0
 11
-474.39780959
 21
-273.21183091
 31
0.0
  0
LINE
  5
AE
100
AcDbEntity
  8
0
  6
CONTINUOUS
 62
       3
100
AcDbLine
 10
-474.39780959
 20
-273.21183091
 30
0.0
 11
-474.63386103
 21
-273.40639207
 31
0.0
  0
ENDBLK
  5
AF
100
AcDbEntity
  8
0
100
AcDbBlockEnd
  0
BLOCK
  5
B0
100
AcDbEntity
  8
0
100
AcDbBlockBegin
  2
GROUP_4
 70
       0
 10
0.0
 20
0.0
 30
0.0
  3
GROUP_4
  1

  0
LINE
  5
B1
100
AcDbEntity
  8
0
  6
CONTINUOUS
 62
       3
100
AcDbLine
 10
-477.07678402
 20
-273.40639207
 30
0.0
 11
-477.17146887
 21
-273.14623557
 31
0.0
  0
LINE
  5
B2
100
AcDbEntity
  8
0
  6
CONTINUOUS
 62
       3
100
AcDbLine
 10
-477.17146887
 20
-273.14623557
 30
0.0
 11
-477.28771508
 21
-272.90031469
 31
0.0
  0
LINE
  5
B3
100
AcDbEntity
  8
0
  6
CONTINUOUS
 62
       3
100
AcDbLine
 10
-477.28771508
 20
-272.90031469
 30
0.0
 11
-477.42409423
 21
-272.66937861
 31
0.0
  0
LINE
  5
B4
100
AcDbEntity
  8
0
  6
CONTINUOUS
 62
       3
100
AcDbLine
 10
-477.42409423
 20
-272.66937861
 30
0.0
 11
-477.57917793
 21
-272.45417646
 31
0.0
  0
LINE
  5
B5
100
AcDbEntity
  8
0
  6
CONTINUOUS
 62
       3
100
AcDbLine
 10
-477.57917793
 20
-272.45417646
 30
0.0
 11
-477.75153778
 21
-272.2554574
 31
0.0
  0
LINE
  5
B6
100
AcDbEntity
  8
0
  6
CONTINUOUS
 62
       3
100
AcDbLine
 10
-477.75153778
 20
-272.2554574
 30
0.0
 11
-477.93974537
 21
-272.07397058
 31
0.0
  0
LINE
  5
B7
100
AcDbEntity
  8
0
  6
CONTINUOUS
 62
       3
100
AcDbLine
 10
-477.93974537
 20
-272.07397058
 30
0.0
 11
-478.14237231
 21
-271.91046514
 31
0.0
  0
LINE
  5
B8
100
AcDbEntity
  8
0
  6
CONTINUOUS
 62
       3
100
AcDbLine
 10
-478.14237231
 20
-271.91046514
 30
0.0
 11
-478.35799018
 21
-271.76569023
 31
0.0
  0
LINE
  5
B9
100
AcDbEntity
  8
0
  6
CONTINUOUS
 62
       3
100
AcDbLine
 10
-478.35799018
 20
-271.76569023
 30
0.0
 11
-478.58517058
 21
-271.64039501
 31
0.0
  0
LINE
  5
BA
100
AcDbEntity
  8
0
  6
CONTINUOUS
 62
       3
100
AcDbLine
 10
-478.58517058
 20
-271.64039501
 30
0.0
 11
-478.82248512
 21
-271.53532863
 31
0.0
  0
LINE
  5
BB
100
AcDbEntity
  8
0
  6
CONTINUOUS
 62
       3
100
AcDbLine
 10
-478.82248512
 20
-271.53532863
 30
0.0
 11
-479.06850538
 21
-271.45124023
 31
0.0
  0
LINE
  5
BC
100
AcDbEntity
  8
0
  6
CONTINUOUS
 62
       3
100
AcDbLine
 10
-479.06850538
 20
-271.45124023
 30
0.0
 11
-479.32180297
 21
-271.38887897
 31
0.0
  0
LINE
  5
BD
100
AcDbEntity
  8
0
  6
CONTINUOUS
 62
       3
100
AcDbLine
 10
-479.32180297
 20
-271.38887897
 30
0.0
 11
-479.58094949
 21
-271.34899399
 31
0.0
  0
LINE
  5
BE
100
AcDbEntity
  8
0
  6
CONTINUOUS
 62
       3
100
AcDbLine
 10
-479.58094949
 20
-271.34899399
 30
0.0
 11
-479.84451652
 21
-271.33233444
 31
0.0
  0
LINE
  5
BF
100
AcDbEntity
  8
0
  6
CONTINUOUS
 62
       3
100
AcDbLine
 10
-479.84451652
 20
-271.33233444
 30
0.0
 11
-480.11107568
 21
-271.33964948
 31
0.0
  0
LINE
  5
C0
100
AcDbEntity
  8
0
  6
CONTINUOUS
 62
       3
100
AcDbLine
 10
-480.11107568
 20
-271.33964948
 30
0.0
 11
-480.37919855
 21
-271.37168825
 31
0.0
  0
LINE
  5
C1
100
AcDbEntity
  8
0
  6
CONTINUOUS
 62
       3
100
AcDbLine
 10
-480.37919855
 20
-271.37168825
 30
0.0
 11
-480.64745673
 21
-271.42919991
 31
0.0
  0
LINE
  5
C2
100
AcDbEntity
  8
0
  6
CONTINUOUS
 62
       3
100
AcDbLine
 10
-480.64745673
 20
-271.42919991
 30
0.0
 11
-480.82360109
 21
-271.48110238
 31
0.0
  0
LINE
  5
C3
100
AcDbEntity
  8
0
  6
CONTINUOUS
 62
       3
100
AcDbLine
 10
-480.82360109
 20
-271.48110238
 30
0.0
 11
-480.90764685
 21
-271.50975549
 31
0.0
  0
LINE
  5
C4
100
AcDbEntity
  8
0
  6
CONTINUOUS
 62
       3
100
AcDbLine
 10
-480.90764685
 20
-271.50975549
 30
0.0
 11
-480.99061906
 21
-271.54095267
 31
0.0
  0
LINE
  5
C5
100
AcDbEntity
  8
0
  6
CONTINUOUS
 62
       3
100
AcDbLine
 10
-480.99061906
 20
-271.54095267
 30
0.0
 11
-481.07247114
 21
-271.57465447
 31
0.0
  0
LINE
  5
C6
100
AcDbEntity
  8
0
  6
CONTINUOUS
 62
       3
100
AcDbLine
 10
-481.07247114
 20
-271.57465447
 30
0.0
 11
-481.15315648
 21
-271.61082148
 31
0.0
  0
LINE
  5
C7
100
AcDbEntity
  8
0
  6
CONTINUOUS
 62
       3
100
AcDbLine
 10
-481.15315648
 20
-271.61082148
 30
0.0
 11
-481.23262848
 21
-271.64941427
 31
0.0
  0
LINE
  5
C8
100
AcDbEntity
  8
0
  6
CONTINUOUS
 62
       3
100
AcDbLine
 10
-481.23262848
 20
-271.64941427
 30
0.0
 11
-481.31084055
 21
-271.6903934
 31
0.0
  0
LINE
  5
C9
100
AcDbEntity
  8
0
  6
CONTINUOUS
 62
       3
100
AcDbLine
 10
-481.31084055
 20
-271.6903934
 30
0.0
 11
-481.38774609
 21
-271.73371945
 31
0.0
  0
LINE
  5
CA
100
AcDbEntity
  8
0
  6
CONTINUOUS
 62
       3
100
AcDbLine
 10
-481.38774609
 20
-271.73371945
 30
0.0
 11
-481.46329849
 21
-271.77935299
 31
0.0
  0
LINE
  5
CB
100
AcDbEntity
  8
0
  6
CONTINUOUS
 62
       3
100
AcDbLine
 10
-481.46329849
 20
-271.77935299
 30
0.0
 11
-481.53745117
 21
-271.82725459
 31
0.0
  0
LINE
  5
CC
100
AcDbEntity
  8
0
  6
CONTINUOUS
 62
       3
100
AcDbLine
 10
-481.53745117
 20
-271.82725459
 30
0.0
 11
-481.61015753
 21
-271.87738482
 31
0.0
  0
LINE
  5
CD
100
AcDbEntity
  8
0
  6
CONTINUOUS
 62
       3
100
AcDbLine
 10
-481.61015753
 20
-271.87738482
 30
0.0
 11
-481.68137096
 21
-271.92970425
 31
0.0
  0
LINE
  5
CE
100
AcDbEntity
  8
0
  6
CONTINUOUS
 62
       3
100
AcDbLine
 10
-481.68137096
 20
-271.92970425
 30
0.0
 11
-481.75104488
 21
-271.98417346
 31
0.0
  0
LINE
  5
CF
100
AcDbEntity
  8
0
  6
CONTINUOUS
 62
       3
100
AcDbLine
 10
-481.75104488
 20
-271.98417346
 30
0.0
 11
-481.81913267
 21
-272.04075301
 31
0.0
  0
LINE
  5
D0
100
AcDbEntity
  8
0
  6
CONTINUOUS
 62
       3
100
AcDbLine
 10
-481.81913267
 20
-272.04075301
 30
0.0
 11
-481.88558775
 21
-272.09940347
 31
0.0
  0
LINE
  5
D1
100
AcDbEntity
  8
0
  6
CONTINUOUS
 62
       3
100
AcDbLine
 10
-481.88558775
 20
-272.09940347
 30
0.0
 11
-481.95036351
 21
-272.16008542
 31
0.0
  0
LINE
  5
D2
100
AcDbEntity
  8
0
  6
CONTINUOUS
 62
       3
100
AcDbLine
 10
-481.95036351
 20
-272.16008542
 30
0.0
 11
-482.01341336
 21
-272.22275943
 31
0.0
  0
LINE
  5
D3
100
AcDbEntity
  8
0
  6
CONTINUOUS
 62
       3
100
AcDbLine
 10
-482.01341336
 20
-272.22275943
 30
0.0
 11
-482.0746907
 21
-272.28738606
 31
0.0
  0
ENDBLK
  5
D4
100
AcDbEntity
  8
0
100
AcDbBlockEnd
  0
BLOCK
  5
D5
100
AcDbEntity
  8
0
100
AcDbBlockBegin
  2
GROUP_5
 70
       0
 10
0.0
 20
0.0
 30
0.0
  3
GROUP_5
  1

  0
LINE
  5
D6
100
AcDbEntity
  8
0
  6
CONTINUOUS
 62
       3
100
AcDbLine
 10
-469.06284397
 20
-286.55591337
 30
0.0
 11
-468.78122485
 21
-286.55420825
 31
0.0
  0
LINE
  5
D7
100
AcDbEntity
  8
0
  6
CONTINUOUS
 62
       3
100
AcDbLine
 10
-468.78122485
 20
-286.55420825
 30
0.0
 11
-468.49973421
 21
-286.54909208
 31
0.0
  0
LINE
  5
D8
100
AcDbEntity
  8
0
  6
CONTINUOUS
 62
       3
100
AcDbLine
 10
-468.49973421
 20
-286.54909208
 30
0.0
 11
-468.21840445
 21
-286.54056366
 31
0.0
  0
LINE
  5
D9
100
AcDbEntity
  8
0
  6
CONTINUOUS
 62
       3
100
AcDbLine
 10
-468.21840445
 20
-286.54056366
 30
0.0
 11
-467.937268
 21
-286.52862179
 31
0.0
  0
LINE
  5
DA
100
AcDbEntity
  8
0
  6
CONTINUOUS
 62
       3
100
AcDbLine
 10
-467.937268
 20
-286.52862179
 30
0.0
 11
-467.65635727
 21
-286.51326527
 31
0.0
  0
LINE
  5
DB
100
AcDbEntity
  8
0
  6
CONTINUOUS
 62
       3
100
AcDbLine
 10
-467.65635727
 20
-286.51326527
 30
0.0
 11
-467.37570468
 21
-286.49449291
 31
0.0
  0
LINE
  5
DC
100
AcDbEntity
  8
0
  6
CONTINUOUS
 62
       3
100
AcDbLine
 10
-467.37570468
 20
-286.49449291
 30
0.0
 11
-467.09534264
 21
-286.47230349
 31
0.0
  0
LINE
  5
DD
100
AcDbEntity
  8
0
  6
CONTINUOUS
 62
       3
100
AcDbLine
 10
-467.09534264
 20
-286.47230349
 30
0.0
 11
-466.81530358
 21
-286.44669582
 31
0.0
  0
LINE
  5
DE
100
AcDbEntity
  8
0
  6
CONTINUOUS
 62
       3
100
AcDbLine
 10
-466.81530358
 20
-286.44669582
 30
0.0
 11
-466.53561992
 21
-286.4176687
 31
0.0
  0
LINE
  5
DF
100
AcDbEntity
  8
0
  6
CONTINUOUS
 62
       3
100
AcDbLine
 10
-466.53561992
 20
-286.4176687
 30
0.0
 11
-466.25632406
 21
-286.38522093
 31
0.0
  0
LINE
  5
E0
100
AcDbEntity
  8
0
  6
CONTINUOUS
 62
       3
100
AcDbLine
 10
-466.25632406
 20
-286.38522093
 30
0.0
 11
-465.97744843
 21
-286.3493513
 31
0.0
  0
LINE
  5
E1
100
AcDbEntity
  8
0
  6
CONTINUOUS
 62
       3
100
AcDbLine
 10
-465.97744843
 20
-286.3493513
 30
0.0
 11
-465.69902545
 21
-286.31005862
 31
0.0
  0
LINE
  5
E2
100
AcDbEntity
  8
0
  6
CONTINUOUS
 62
       3
100
AcDbLine
 10
-465.69902545
 20
-286.31005862
 30
0.0
 11
-465.42108753
 21
-286.26734169
 31
0.0
  0
LINE
  5
E3
100
AcDbEntity
  8
0
  6
CONTINUOUS
 62
       3
100
AcDbLine
 10
-465.42108753
 20
-286.26734169
 30
0.0
 11
-465.14366709
 21
-286.2211993
 31
0.0
  0
LINE
  5
E4
100
AcDbEntity
  8
0
  6
CONTINUOUS
 62
       3
100
AcDbLine
 10
-465.14366709
 20
-286.2211993
 30
0.0
 11
-464.86679654
 21
-286.17163026
 31
0.0
  0
LINE
  5
E5
100
AcDbEntity
  8
0
  6
CONTINUOUS
 62
       3
100
AcDbLine
 10
-464.86679654
 20
-286.17163026
 30
0.0
 11
-464.59050832
 21
-286.11863336
 31
0.0
  0
LINE
  5
E6
100
AcDbEntity
  8
0
  6
CONTINUOUS
 62
       3
100
AcDbLine
 10
-464.59050832
 20
-286.11863336
 30
0.0
 11
-464.31483482
 21
-286.0622074
 31
0.0
  0
LINE
  5
E7
100
AcDbEntity
  8
0
  6
CONTINUOUS
 62
       3
100
AcDbLine
 10
-464.31483482
 20
-286.0622074
 30
0.0
 11
-464.03980848
 21
-286.00235118
 31
0.0
  0
LINE
  5
E8
100
AcDbEntity
  8
0
  6
CONTINUOUS
 62
       3
100
AcDbLine
 10
-464.03980848
 20
-286.00235118
 30
0.0
 11
-463.7654617
 21
-285.93906351
 31
0.0
  0
LINE
  5
E9
100
AcDbEntity
  8
0
  6
CONTINUOUS
 62
       3
100
AcDbLine
 10
-463.7654617
 20
-285.93906351
 30
0.0
 11
-463.49182691
 21
-285.87234317
 31
0.0
  0
ENDBLK
  5
EA
100
AcDbEntity
  8
0
100
AcDbBlockEnd
  0
BLOCK
  5
EB
100
AcDbEntity
  8
0
100
AcDbBlockBegin
  2
GROUP_6
 70
       0
 10
0.0
 20
0.0
 30
0.0
  3
GROUP_6
  1

  0
LINE
  5
EC
100
AcDbEntity
  8
0
  6
CONTINUOUS
 62
       3
100
AcDbLine
 10
-461.04890391
 20
-285.87234317
 30
0.0
 11
-460.78089457
 21
-286.00260172
 31
0.0
  0
LINE
  5
ED
100
AcDbEntity
  8
0
  6
CONTINUOUS
 62
       3
100
AcDbLine
 10
-460.78089457
 20
-286.00260172
 30
0.0
 11
-460.50836958
 21
-286.11914883
 31
0.0
  0
LINE
  5
EE
100
AcDbEntity
  8
0
  6
CONTINUOUS
 62
       3
100
AcDbLine
 10
-460.50836958
 20
-286.11914883
 30
0.0
 11
-460.23183202
 21
-286.22198453
 31
0.0
  0
LINE
  5
EF
100
AcDbEntity
  8
0
  6
CONTINUOUS
 62
       3
100
AcDbLine
 10
-460.23183202
 20
-286.22198453
 30
0.0
 11
-459.95178495
 21
-286.31110879
 31
0.0
  0
LINE
  5
F0
100
AcDbEntity
  8
0
  6
CONTINUOUS
 62
       3
100
AcDbLine
 10
-459.95178495
 20
-286.31110879
 30
0.0
 11
-459.66873146
 21
-286.38652163
 31
0.0
  0
LINE
  5
F1
100
AcDbEntity
  8
0
  6
CONTINUOUS
 62
       3
100
AcDbLine
 10
-459.66873146
 20
-286.38652163
 30
0.0
 11
-459.38317462
 21
-286.44822305
 31
0.0
  0
LINE
  5
F2
100
AcDbEntity
  8
0
  6
CONTINUOUS
 62
       3
100
AcDbLine
 10
-459.38317462
 20
-286.44822305
 30
0.0
 11
-459.09561749
 21
-286.49621304
 31
0.0
  0
LINE
  5
F3
100
AcDbEntity
  8
0
  6
CONTINUOUS
 62
       3
100
AcDbLine
 10
-459.09561749
 20
-286.49621304
 30
0.0
 11
-458.80656315
 21
-286.5304916
 31
0.0
  0
LINE
  5
F4
100
AcDbEntity
  8
0
  6
CONTINUOUS
 62
       3
100
AcDbLine
 10
-458.80656315
 20
-286.5304916
 30
0.0
 11
-458.51651467
 21
-286.55105874
 31
0.0
  0
LINE
  5
F5
100
AcDbEntity
  8
0
  6
CONTINUOUS
 62
       3
100
AcDbLine
 10
-458.51651467
 20
-286.55105874
 30
0.0
 11
-458.22597512
 21
-286.55791445
 31
0.0
  0
LINE
  5
F6
100
AcDbEntity
  8
0
  6
CONTINUOUS
 62
       3
100
AcDbLine
 10
-458.22597512
 20
-286.55791445
 30
0.0
 11
-457.93544758
 21
-286.55105874
 31
0.0
  0
LINE
  5
F7
100
AcDbEntity
  8
0
  6
CONTINUOUS
 62
       3
100
AcDbLine
 10
-457.93544758
 20
-286.55105874
 30
0.0
 11
-457.64543512
 21
-286.5304916
 31
0.0
  0
LINE
  5
F8
100
AcDbEntity
  8
0
  6
CONTINUOUS
 62
       3
100
AcDbLine
 10
-457.64543512
 20
-286.5304916
 30
0.0
 11
-457.35644081
 21
-286.49621304
 31
0.0
  0
LINE
  5
F9
100
AcDbEntity
  8
0
  6
CONTINUOUS
 62
       3
100
AcDbLine
 10
-457.35644081
 20
-286.49621304
 30
0.0
 11
-457.06896773
 21
-286.44822305
 31
0.0
  0
LINE
  5
FA
100
AcDbEntity
  8
0
  6
CONTINUOUS
 62
       3
100
AcDbLine
 10
-457.06896773
 20
-286.44822305
 30
0.0
 11
-456.78351894
 21
-286.38652163
 31
0.0
  0
LINE
  5
FB
100
AcDbEntity
  8
0
  6
CONTINUOUS
 62
       3
100
AcDbLine
 10
-456.78351894
 20
-286.38652163
 30
0.0
 11
-456.50059752
 21
-286.31110879
 31
0.0
  0
LINE
  5
FC
100
AcDbEntity
  8
0
  6
CONTINUOUS
 62
       3
100
AcDbLine
 10
-456.50059752
 20
-286.31110879
 30
0.0
 11
-456.22070654
 21
-286.22198453
 31
0.0
  0
LINE
  5
FD
100
AcDbEntity
  8
0
  6
CONTINUOUS
 62
       3
100
AcDbLine
 10
-456.22070654
 20
-286.22198453
 30
0.0
 11
-455.94434908
 21
-286.11914883
 31
0.0
  0
LINE
  5
FE
100
AcDbEntity
  8
0
  6
CONTINUOUS
 62
       3
100
AcDbLine
 10
-455.94434908
 20
-286.11914883
 30
0.0
 11
-455.6720282
 21
-286.00260172
 31
0.0
  0
LINE
  5
FF
100
AcDbEntity
  8
0
  6
CONTINUOUS
 62
       3
100
AcDbLine
 10
-455.6720282
 20
-286.00260172
 30
0.0
 11
-455.40424698
 21
-285.87234317
 31
0.0
  0
ENDBLK
  5
100
100
AcDbEntity
  8
0
100
AcDbBlockEnd
  0
BLOCK
  5
101
100
AcDbEntity
  8
0
100
AcDbBlockBegin
  2
GROUP_7
 70
       0
 10
0.0
 20
0.0
 30
0.0
  3
GROUP_7
  1

  0
LINE
  5
102
100
AcDbEntity
  8
0
  6
CONTINUOUS
 62
       3
100
AcDbLine
 10
-463.49182691
 20
-273.40639207
 30
0.0
 11
-463.72787835
 21
-273.21183091
 31
0.0
  0
LINE
  5
103
100
AcDbEntity
  8
0
  6
CONTINUOUS
 62
       3
100
AcDbLine
 10
-463.72787835
 20
-273.21183091
 30
0.0
 11
-463.97000267
 21
-273.02634786
 31
0.0
  0
LINE
  5
104
100
AcDbEntity
  8
0
  6
CONTINUOUS
 62
       3
100
AcDbLine
 10
-463.97000267
 20
-273.02634786
 30
0.0
 11
-464.21793334
 21
-272.85004018
 31
0.0
  0
LINE
  5
105
100
AcDbEntity
  8
0
  6
CONTINUOUS
 62
       3
100
AcDbLine
 10
-464.21793334
 20
-272.85004018
 30
0.0
 11
-464.47140381
 21
-272.68300512
 31
0.0
  0
LINE
  5
106
100
AcDbEntity
  8
0
  6
CONTINUOUS
 62
       3
100
AcDbLine
 10
-464.47140381
 20
-272.68300512
 30
0.0
 11
-464.73014754
 21
-272.52533993
 31
0.0
  0
LINE
  5
107
100
AcDbEntity
  8
0
  6
CONTINUOUS
 62
       3
100
AcDbLine
 10
-464.73014754
 20
-272.52533993
 30
0.0
 11
-464.99389798
 21
-272.37714187
 31
0.0
  0
LINE
  5
108
100
AcDbEntity
  8
0
  6
CONTINUOUS
 62
       3
100
AcDbLine
 10
-464.99389798
 20
-272.37714187
 30
0.0
 11
-465.26238858
 21
-272.23850819
 31
0.0
  0
LINE
  5
109
100
AcDbEntity
  8
0
  6
CONTINUOUS
 62
       3
100
AcDbLine
 10
-465.26238858
 20
-272.23850819
 30
0.0
 11
-465.53535281
 21
-272.10953615
 31
0.0
  0
LINE
  5
10A
100
AcDbEntity
  8
0
  6
CONTINUOUS
 62
       3
100
AcDbLine
 10
-465.53535281
 20
-272.10953615
 30
0.0
 11
-465.81252412
 21
-271.99032298
 31
0.0
  0
LINE
  5
10B
100
AcDbEntity
  8
0
  6
CONTINUOUS
 62
       3
100
AcDbLine
 10
-465.81252412
 20
-271.99032298
 30
0.0
 11
-466.09363595
 21
-271.88096596
 31
0.0
  0
LINE
  5
10C
100
AcDbEntity
  8
0
  6
CONTINUOUS
 62
       3
100
AcDbLine
 10
-466.09363595
 20
-271.88096596
 30
0.0
 11
-466.37842178
 21
-271.78156233
 31
0.0
  0
LINE
  5
10D
100
AcDbEntity
  8
0
  6
CONTINUOUS
 62
       3
100
AcDbLine
 10
-466.37842178
 20
-271.78156233
 30
0.0
 11
-466.66661506
 21
-271.69220934
 31
0.0
  0
LINE
  5
10E
100
AcDbEntity
  8
0
  6
CONTINUOUS
 62
       3
100
AcDbLine
 10
-466.66661506
 20
-271.69220934
 30
0.0
 11
-466.95794924
 21
-271.61300424
 31
0.0
  0
LINE
  5
10F
100
AcDbEntity
  8
0
  6
CONTINUOUS
 62
       3
100
AcDbLine
 10
-466.95794924
 20
-271.61300424
 30
0.0
 11
-467.25215777
 21
-271.5440443
 31
0.0
  0
LINE
  5
110
100
AcDbEntity
  8
0
  6
CONTINUOUS
 62
       3
100
AcDbLine
 10
-467.25215777
 20
-271.5440443
 30
0.0
 11
-467.54897411
 21
-271.48542675
 31
0.0
  0
LINE
  5
111
100
AcDbEntity
  8
0
  6
CONTINUOUS
 62
       3
100
AcDbLine
 10
-467.54897411
 20
-271.48542675
 30
0.0
 11
-467.84813173
 21
-271.43724886
 31
0.0
  0
LINE
  5
112
100
AcDbEntity
  8
0
  6
CONTINUOUS
 62
       3
100
AcDbLine
 10
-467.84813173
 20
-271.43724886
 30
0.0
 11
-468.14936406
 21
-271.39960787
 31
0.0
  0
LINE
  5
113
100
AcDbEntity
  8
0
  6
CONTINUOUS
 62
       3
100
AcDbLine
 10
-468.14936406
 20
-271.39960787
 30
0.0
 11
-468.45240458
 21
-271.37260105
 31
0.0
  0
LINE
  5
114
100
AcDbEntity
  8
0
  6
CONTINUOUS
 62
       3
100
AcDbLine
 10
-468.45240458
 20
-271.37260105
 30
0.0
 11
-468.75698673
 21
-271.35632563
 31
0.0
  0
LINE
  5
115
100
AcDbEntity
  8
0
  6
CONTINUOUS
 62
       3
100
AcDbLine
 10
-468.75698673
 20
-271.35632563
 30
0.0
 11
-469.06284397
 21
-271.35087888
 31
0.0
  0
ENDBLK
  5
116
100
AcDbEntity
  8
0
100
AcDbBlockEnd
  0
BLOCK
  5
117
100
AcDbEntity
  8
0
100
AcDbBlockBegin
  2
GROUP_8
 70
       0
 10
0.0
 20
0.0
 30
0.0
  3
GROUP_8
  1

  0
LINE
  5
118
100
AcDbEntity
  8
0
  6
CONTINUOUS
 62
       3
100
AcDbLine
 10
-455.40424698
 20
-273.40639207
 30
0.0
 11
-455.49891704
 21
-273.14623557
 31
0.0
  0
LINE
  5
119
100
AcDbEntity
  8
0
  6
CONTINUOUS
 62
       3
100
AcDbLine
 10
-455.49891704
 20
-273.14623557
 30
0.0
 11
-455.61512247
 21
-272.90031469
 31
0.0
  0
LINE
  5
11A
100
AcDbEntity
  8
0
  6
CONTINUOUS
 62
       3
100
AcDbLine
 10
-455.61512247
 20
-272.90031469
 30
0.0
 11
-455.75144024
 21
-272.66937861
 31
0.0
  0
LINE
  5
11B
100
AcDbEntity
  8
0
  6
CONTINUOUS
 62
       3
100
AcDbLine
 10
-455.75144024
 20
-272.66937861
 30
0.0
 11
-455.90644733
 21
-272.45417646
 31
0.0
  0
LINE
  5
11C
100
AcDbEntity
  8
0
  6
CONTINUOUS
 62
       3
100
AcDbLine
 10
-455.90644733
 20
-272.45417646
 30
0.0
 11
-456.0787207
 21
-272.2554574
 31
0.0
  0
LINE
  5
11D
100
AcDbEntity
  8
0
  6
CONTINUOUS
 62
       3
100
AcDbLine
 10
-456.0787207
 20
-272.2554574
 30
0.0
 11
-456.26683734
 21
-272.07397058
 31
0.0
  0
LINE
  5
11E
100
AcDbEntity
  8
0
  6
CONTINUOUS
 62
       3
100
AcDbLine
 10
-456.26683734
 20
-272.07397058
 30
0.0
 11
-456.46937421
 21
-271.91046514
 31
0.0
  0
LINE
  5
11F
100
AcDbEntity
  8
0
  6
CONTINUOUS
 62
       3
100
AcDbLine
 10
-456.46937421
 20
-271.91046514
 30
0.0
 11
-456.68490829
 21
-271.76569023
 31
0.0
  0
LINE
  5
120
100
AcDbEntity
  8
0
  6
CONTINUOUS
 62
       3
100
AcDbLine
 10
-456.68490829
 20
-271.76569023
 30
0.0
 11
-456.91201656
 21
-271.64039501
 31
0.0
  0
LINE
  5
121
100
AcDbEntity
  8
0
  6
CONTINUOUS
 62
       3
100
AcDbLine
 10
-456.91201656
 20
-271.64039501
 30
0.0
 11
-457.14927598
 21
-271.53532863
 31
0.0
  0
LINE
  5
122
100
AcDbEntity
  8
0
  6
CONTINUOUS
 62
       3
100
AcDbLine
 10
-457.14927598
 20
-271.53532863
 30
0.0
 11
-457.39526354
 21
-271.45124023
 31
0.0
  0
LINE
  5
123
100
AcDbEntity
  8
0
  6
CONTINUOUS
 62
       3
100
AcDbLine
 10
-457.39526354
 20
-271.45124023
 30
0.0
 11
-457.6485562
 21
-271.38887897
 31
0.0
  0
LINE
  5
124
100
AcDbEntity
  8
0
  6
CONTINUOUS
 62
       3
100
AcDbLine
 10
-457.6485562
 20
-271.38887897
 30
0.0
 11
-457.90773095
 21
-271.34899399
 31
0.0
  0
LINE
  5
125
100
AcDbEntity
  8
0
  6
CONTINUOUS
 62
       3
100
AcDbLine
 10
-457.90773095
 20
-271.34899399
 30
0.0
 11
-458.17136475
 21
-271.33233444
 31
0.0
  0
LINE
  5
126
100
AcDbEntity
  8
0
  6
CONTINUOUS
 62
       3
100
AcDbLine
 10
-458.17136475
 20
-271.33233444
 30
0.0
 11
-458.43803457
 21
-271.33964948
 31
0.0
  0
LINE
  5
127
100
AcDbEntity
  8
0
  6
CONTINUOUS
 62
       3
100
AcDbLine
 10
-458.43803457
 20
-271.33964948
 30
0.0
 11
-458.7063174
 21
-271.37168825
 31
0.0
  0
LINE
  5
128
100
AcDbEntity
  8
0
  6
CONTINUOUS
 62
       3
100
AcDbLine
 10
-458.7063174
 20
-271.37168825
 30
0.0
 11
-458.9747902
 21
-271.42919991
 31
0.0
  0
LINE
  5
129
100
AcDbEntity
  8
0
  6
CONTINUOUS
 62
       3
100
AcDbLine
 10
-458.9747902
 20
-271.42919991
 30
0.0
 11
-459.18746531
 21
-271.49350984
 31
0.0
  0
LINE
  5
12A
100
AcDbEntity
  8
0
  6
CONTINUOUS
 62
       3
100
AcDbLine
 10
-459.18746531
 20
-271.49350984
 30
0.0
 11
-459.34199671
 21
-271.55135515
 31
0.0
  0
LINE
  5
12B
100
AcDbEntity
  8
0
  6
CONTINUOUS
 62
       3
100
AcDbLine
 10
-459.34199671
 20
-271.55135515
 30
0.0
 11
-459.49218913
 21
-271.61738823
 31
0.0
  0
LINE
  5
12C
100
AcDbEntity
  8
0
  6
CONTINUOUS
 62
       3
100
AcDbLine
 10
-459.49218913
 20
-271.61738823
 30
0.0
 11
-459.6377845
 21
-271.69133847
 31
0.0
  0
LINE
  5
12D
100
AcDbEntity
  8
0
  6
CONTINUOUS
 62
       3
100
AcDbLine
 10
-459.6377845
 20
-271.69133847
 30
0.0
 11
-459.77852474
 21
-271.77293522
 31
0.0
  0
LINE
  5
12E
100
AcDbEntity
  8
0
  6
CONTINUOUS
 62
       3
100
AcDbLine
 10
-459.77852474
 20
-271.77293522
 30
0.0
 11
-459.91415176
 21
-271.86190788
 31
0.0
  0
LINE
  5
12F
100
AcDbEntity
  8
0
  6
CONTINUOUS
 62
       3
100
AcDbLine
 10
-459.91415176
 20
-271.86190788
 30
0.0
 11
-460.04440748
 21
-271.95798581
 31
0.0
  0
LINE
  5
130
100
AcDbEntity
  8
0
  6
CONTINUOUS
 62
       3
100
AcDbLine
 10
-460.04440748
 20
-271.95798581
 30
0.0
 11
-460.16903382
 21
-272.06089839
 31
0.0
  0
LINE
  5
131
100
AcDbEntity
  8
0
  6
CONTINUOUS
 62
       3
100
AcDbLine
 10
-460.16903382
 20
-272.06089839
 30
0.0
 11
-460.28777271
 21
-272.17037499
 31
0.0
  0
LINE
  5
132
100
AcDbEntity
  8
0
  6
CONTINUOUS
 62
       3
100
AcDbLine
 10
-460.28777271
 20
-272.17037499
 30
0.0
 11
-460.40036606
 21
-272.28614498
 31
0.0
  0
LINE
  5
133
100
AcDbEntity
  8
0
  6
CONTINUOUS
 62
       3
100
AcDbLine
 10
-460.40036606
 20
-272.28614498
 30
0.0
 11
-460.5065558
 21
-272.40793775
 31
0.0
  0
LINE
  5
134
100
AcDbEntity
  8
0
  6
CONTINUOUS
 62
       3
100
AcDbLine
 10
-460.5065558
 20
-272.40793775
 30
0.0
 11
-460.60608384
 21
-272.53548266
 31
0.0
  0
LINE
  5
135
100
AcDbEntity
  8
0
  6
CONTINUOUS
 62
       3
100
AcDbLine
 10
-460.60608384
 20
-272.53548266
 30
0.0
 11
-460.69869209
 21
-272.66850908
 31
0.0
  0
LINE
  5
136
100
AcDbEntity
  8
0
  6
CONTINUOUS
 62
       3
100
AcDbLine
 10
-460.69869209
 20
-272.66850908
 30
0.0
 11
-460.7841225
 21
-272.8067464
 31
0.0
  0
LINE
  5
137
100
AcDbEntity
  8
0
  6
CONTINUOUS
 62
       3
100
AcDbLine
 10
-460.7841225
 20
-272.8067464
 30
0.0
 11
-460.86211696
 21
-272.94992398
 31
0.0
  0
LINE
  5
138
100
AcDbEntity
  8
0
  6
CONTINUOUS
 62
       3
100
AcDbLine
 10
-460.86211696
 20
-272.94992398
 30
0.0
 11
-460.9324174
 21
-273.09777121
 31
0.0
  0
LINE
  5
139
100
AcDbEntity
  8
0
  6
CONTINUOUS
 62
       3
100
AcDbLine
 10
-460.9324174
 20
-273.09777121
 30
0.0
 11
-460.99476575
 21
-273.25001745
 31
0.0
  0
LINE
  5
13A
100
AcDbEntity
  8
0
  6
CONTINUOUS
 62
       3
100
AcDbLine
 10
-460.99476575
 20
-273.25001745
 30
0.0
 11
-461.04890391
 21
-273.40639207
 31
0.0
  0
ENDBLK
  5
13B
100
AcDbEntity
  8
0
100
AcDbBlockEnd
  0
BLOCK
  5
13C
100
AcDbEntity
  8
0
100
AcDbBlockBegin
  2
GROUP_9
 70
       0
 10
0.0
 20
0.0
 30
0.0
  3
GROUP_9
  1

  0
LINE
  5
13D
100
AcDbEntity
  8
0
  6
CONTINUOUS
 62
       3
100
AcDbLine
 10
-478.43752095
 20
-295.79291579
 30
0.0
 11
-478.62930241
 21
-295.6112288
 31
0.0
  0
LINE
  5
13E
100
AcDbEntity
  8
0
  6
CONTINUOUS
 62
       3
100
AcDbLine
 10
-478.62930241
 20
-295.6112288
 30
0.0
 11
-478.83048256
 21
-295.44421014
 31
0.0
  0
LINE
  5
13F
100
AcDbEntity
  8
0
  6
CONTINUOUS
 62
       3
100
AcDbLine
 10
-478.83048256
 20
-295.44421014
 30
0.0
 11
-479.04027858
 21
-295.2919763
 31
0.0
  0
LINE
  5
140
100
AcDbEntity
  8
0
  6
CONTINUOUS
 62
       3
100
AcDbLine
 10
-479.04027858
 20
-295.2919763
 30
0.0
 11
-479.25790764
 21
-295.15464373
 31
0.0
  0
LINE
  5
141
100
AcDbEntity
  8
0
  6
CONTINUOUS
 62
       3
100
AcDbLine
 10
-479.25790764
 20
-295.15464373
 30
0.0
 11
-479.48258692
 21
-295.03232888
 31
0.0
  0
LINE
  5
142
100
AcDbEntity
  8
0
  6
CONTINUOUS
 62
       3
100
AcDbLine
 10
-479.48258692
 20
-295.03232888
 30
0.0
 11
-479.71353359
 21
-294.92514824
 31
0.0
  0
LINE
  5
143
100
AcDbEntity
  8
0
  6
CONTINUOUS
 62
       3
100
AcDbLine
 10
-479.71353359
 20
-294.92514824
 30
0.0
 11
-479.94996483
 21
-294.83321825
 31
0.0
  0
LINE
  5
144
100
AcDbEntity
  8
0
  6
CONTINUOUS
 62
       3
100
AcDbLine
 10
-479.94996483
 20
-294.83321825
 30
0.0
 11
-480.19109782
 21
-294.75665539
 31
0.0
  0
LINE
  5
145
100
AcDbEntity
  8
0
  6
CONTINUOUS
 62
       3
100
AcDbLine
 10
-480.19109782
 20
-294.75665539
 30
0.0
 11
-480.43614973
 21
-294.69557611
 31
0.0
  0
LINE
  5
146
100
AcDbEntity
  8
0
  6
CONTINUOUS
 62
       3
100
AcDbLine
 10
-480.43614973
 20
-294.69557611
 30
0.0
 11
-480.68433774
 21
-294.65009688
 31
0.0
  0
LINE
  5
147
100
AcDbEntity
  8
0
  6
CONTINUOUS
 62
       3
100
AcDbLine
 10
-480.68433774
 20
-294.65009688
 30
0.0
 11
-480.93487902
 21
-294.62033416
 31
0.0
  0
LINE
  5
148
100
AcDbEntity
  8
0
  6
CONTINUOUS
 62
       3
100
AcDbLine
 10
-480.93487902
 20
-294.62033416
 30
0.0
 11
-481.18699076
 21
-294.60640442
 31
0.0
  0
LINE
  5
149
100
AcDbEntity
  8
0
  6
CONTINUOUS
 62
       3
100
AcDbLine
 10
-481.18699076
 20
-294.60640442
 30
0.0
 11
-481.43989012
 21
-294.60842411
 31
0.0
  0
LINE
  5
14A
100
AcDbEntity
  8
0
  6
CONTINUOUS
 62
       3
100
AcDbLine
 10
-481.43989012
 20
-294.60842411
 30
0.0
 11
-481.69279428
 21
-294.62650971
 31
0.0
  0
LINE
  5
14B
100
AcDbEntity
  8
0
  6
CONTINUOUS
 62
       3
100
AcDbLine
 10
-481.69279428
 20
-294.62650971
 30
0.0
 11
-481.94492043
 21
-294.66077767
 31
0.0
  0
LINE
  5
14C
100
AcDbEntity
  8
0
  6
CONTINUOUS
 62
       3
100
AcDbLine
 10
-481.94492043
 20
-294.66077767
 30
0.0
 11
-482.19548572
 21
-294.71134445
 31
0.0
  0
LINE
  5
14D
100
AcDbEntity
  8
0
  6
CONTINUOUS
 62
       3
100
AcDbLine
 10
-482.19548572
 20
-294.71134445
 30
0.0
 11
-482.44370735
 21
-294.77832653
 31
0.0
  0
LINE
  5
14E
100
AcDbEntity
  8
0
  6
CONTINUOUS
 62
       3
100
AcDbLine
 10
-482.44370735
 20
-294.77832653
 30
0.0
 11
-482.68880248
 21
-294.86184035
 31
0.0
  0
LINE
  5
14F
100
AcDbEntity
  8
0
  6
CONTINUOUS
 62
       3
100
AcDbLine
 10
-482.68880248
 20
-294.86184035
 30
0.0
 11
-482.9299883
 21
-294.9620024
 31
0.0
  0
LINE
  5
150
100
AcDbEntity
  8
0
  6
CONTINUOUS
 62
       3
100
AcDbLine
 10
-482.9299883
 20
-294.9620024
 30
0.0
 11
-483.16648198
 21
-295.07892912
 31
0.0
  0
ENDBLK
  5
151
100
AcDbEntity
  8
0
100
AcDbBlockEnd
  0
BLOCK
  5
152
100
AcDbEntity
  8
0
100
AcDbBlockBegin
  2
GROUP_10
 70
       0
 10
0.0
 20
0.0
 30
0.0
  3
GROUP_10
  1

  0
LINE
  5
153
100
AcDbEntity
  8
0
  6
CONTINUOUS
 62
       3
100
AcDbLine
 10
-454.95920596
 20
-295.07892912
 30
0.0
 11
-455.19569963
 21
-294.9620024
 31
0.0
  0
LINE
  5
154
100
AcDbEntity
  8
0
  6
CONTINUOUS
 62
       3
100
AcDbLine
 10
-455.19569963
 20
-294.9620024
 30
0.0
 11
-455.43688545
 21
-294.86184035
 31
0.0
  0
LINE
  5
155
100
AcDbEntity
  8
0
  6
CONTINUOUS
 62
       3
100
AcDbLine
 10
-455.43688545
 20
-294.86184035
 30
0.0
 11
-455.68198059
 21
-294.77832653
 31
0.0
  0
LINE
  5
156
100
AcDbEntity
  8
0
  6
CONTINUOUS
 62
       3
100
AcDbLine
 10
-455.68198059
 20
-294.77832653
 30
0.0
 11
-455.93020221
 21
-294.71134445
 31
0.0
  0
LINE
  5
157
100
AcDbEntity
  8
0
  6
CONTINUOUS
 62
       3
100
AcDbLine
 10
-455.93020221
 20
-294.71134445
 30
0.0
 11
-456.18076751
 21
-294.66077767
 31
0.0
  0
LINE
  5
158
100
AcDbEntity
  8
0
  6
CONTINUOUS
 62
       3
100
AcDbLine
 10
-456.18076751
 20
-294.66077767
 30
0.0
 11
-456.43289365
 21
-294.62650971
 31
0.0
  0
LINE
  5
159
100
AcDbEntity
  8
0
  6
CONTINUOUS
 62
       3
100
AcDbLine
 10
-456.43289365
 20
-294.62650971
 30
0.0
 11
-456.68579782
 21
-294.60842411
 31
0.0
  0
LINE
  5
15A
100
AcDbEntity
  8
0
  6
CONTINUOUS
 62
       3
100
AcDbLine
 10
-456.68579782
 20
-294.60842411
 30
0.0
 11
-456.93869718
 21
-294.60640442
 31
0.0
  0
LINE
  5
15B
100
AcDbEntity
  8
0
  6
CONTINUOUS
 62
       3
100
AcDbLine
 10
-456.93869718
 20
-294.60640442
 30
0.0
 11
-457.19080891
 21
-294.62033416
 31
0.0
  0
LINE
  5
15C
100
AcDbEntity
  8
0
  6
CONTINUOUS
 62
       3
100
AcDbLine
 10
-457.19080891
 20
-294.62033416
 30
0.0
 11
-457.4413502
 21
-294.65009688
 31
0.0
  0
LINE
  5
15D
100
AcDbEntity
  8
0
  6
CONTINUOUS
 62
       3
100
AcDbLine
 10
-457.4413502
 20
-294.65009688
 30
0.0
 11
-457.68953821
 21
-294.69557611
 31
0.0
  0
LINE
  5
15E
100
AcDbEntity
  8
0
  6
CONTINUOUS
 62
       3
100
AcDbLine
 10
-457.68953821
 20
-294.69557611
 30
0.0
 11
-457.93459012
 21
-294.75665539
 31
0.0
  0
LINE
  5
15F
100
AcDbEntity
  8
0
  6
CONTINUOUS
 62
       3
100
AcDbLine
 10
-457.93459012
 20
-294.75665539
 30
0.0
 11
-458.17572311
 21
-294.83321825
 31
0.0
  0
LINE
  5
160
100
AcDbEntity
  8
0
  6
CONTINUOUS
 62
       3
100
AcDbLine
 10
-458.17572311
 20
-294.83321825
 30
0.0
 11
-458.41215435
 21
-294.92514824
 31
0.0
  0
LINE
  5
161
100
AcDbEntity
  8
0
  6
CONTINUOUS
 62
       3
100
AcDbLine
 10
-458.41215435
 20
-294.92514824
 30
0.0
 11
-458.64310102
 21
-295.03232888
 31
0.0
  0
LINE
  5
162
100
AcDbEntity
  8
0
  6
CONTINUOUS
 62
       3
100
AcDbLine
 10
-458.64310102
 20
-295.03232888
 30
0.0
 11
-458.8677803
 21
-295.15464373
 31
0.0
  0
LINE
  5
163
100
AcDbEntity
  8
0
  6
CONTINUOUS
 62
       3
100
AcDbLine
 10
-458.8677803
 20
-295.15464373
 30
0.0
 11
-459.08540936
 21
-295.2919763
 31
0.0
  0
LINE
  5
164
100
AcDbEntity
  8
0
  6
CONTINUOUS
 62
       3
100
AcDbLine
 10
-459.08540936
 20
-295.2919763
 30
0.0
 11
-459.29520538
 21
-295.44421014
 31
0.0
  0
LINE
  5
165
100
AcDbEntity
  8
0
  6
CONTINUOUS
 62
       3
100
AcDbLine
 10
-459.29520538
 20
-295.44421014
 30
0.0
 11
-459.49638553
 21
-295.6112288
 31
0.0
  0
LINE
  5
166
100
AcDbEntity
  8
0
  6
CONTINUOUS
 62
       3
100
AcDbLine
 10
-459.49638553
 20
-295.6112288
 30
0.0
 11
-459.68816699
 21
-295.79291579
 31
0.0
  0
ENDBLK
  5
167
100
AcDbEntity
  8
0
100
AcDbBlockEnd
  0
BLOCK
  5
168
100
AcDbEntity
  8
0
100
AcDbBlockBegin
  2
GROUP_11
 70
       0
 10
0.0
 20
0.0
 30
0.0
  3
GROUP_11
  1

  0
LINE
  5
169
100
AcDbEntity
  8
0
  6
CONTINUOUS
 62
       3
100
AcDbLine
 10
-463.12362751
 20
-295.79291579
 30
0.0
 11
-463.69715491
 21
-295.56752973
 31
0.0
  0
LINE
  5
16A
100
AcDbEntity
  8
0
  6
CONTINUOUS
 62
       3
100
AcDbLine
 10
-463.69715491
 20
-295.56752973
 30
0.0
 11
-464.2771226
 21
-295.36586852
 31
0.0
  0
LINE
  5
16B
100
AcDbEntity
  8
0
  6
CONTINUOUS
 62
       3
100
AcDbLine
 10
-464.2771226
 20
-295.36586852
 30
0.0
 11
-464.86281499
 21
-295.18793215
 31
0.0
  0
LINE
  5
16C
100
AcDbEntity
  8
0
  6
CONTINUOUS
 62
       3
100
AcDbLine
 10
-464.86281499
 20
-295.18793215
 30
0.0
 11
-465.45351649
 21
-295.03372064
 31
0.0
  0
LINE
  5
16D
100
AcDbEntity
  8
0
  6
CONTINUOUS
 62
       3
100
AcDbLine
 10
-465.45351649
 20
-295.03372064
 30
0.0
 11
-466.04851152
 21
-294.90323397
 31
0.0
  0
LINE
  5
16E
100
AcDbEntity
  8
0
  6
CONTINUOUS
 62
       3
100
AcDbLine
 10
-466.04851152
 20
-294.90323397
 30
0.0
 11
-466.64708448
 21
-294.79647215
 31
0.0
  0
LINE
  5
16F
100
AcDbEntity
  8
0
  6
CONTINUOUS
 62
       3
100
AcDbLine
 10
-466.64708448
 20
-294.79647215
 30
0.0
 11
-467.2485198
 21
-294.71343518
 31
0.0
  0
LINE
  5
170
100
AcDbEntity
  8
0
  6
CONTINUOUS
 62
       3
100
AcDbLine
 10
-467.2485198
 20
-294.71343518
 30
0.0
 11
-467.85210188
 21
-294.65412306
 31
0.0
  0
LINE
  5
171
100
AcDbEntity
  8
0
  6
CONTINUOUS
 62
       3
100
AcDbLine
 10
-467.85210188
 20
-294.65412306
 30
0.0
 11
-468.45711513
 21
-294.61853579
 31
0.0
  0
LINE
  5
172
100
AcDbEntity
  8
0
  6
CONTINUOUS
 62
       3
100
AcDbLine
 10
-468.45711513
 20
-294.61853579
 30
0.0
 11
-469.06284397
 21
-294.60667336
 31
0.0
  0
LINE
  5
173
100
AcDbEntity
  8
0
  6
CONTINUOUS
 62
       3
100
AcDbLine
 10
-469.06284397
 20
-294.60667336
 30
0.0
 11
-469.66857281
 21
-294.61853579
 31
0.0
  0
LINE
  5
174
100
AcDbEntity
  8
0
  6
CONTINUOUS
 62
       3
100
AcDbLine
 10
-469.66857281
 20
-294.61853579
 30
0.0
 11
-470.27358606
 21
-294.65412306
 31
0.0
  0
LINE
  5
175
100
AcDbEntity
  8
0
  6
CONTINUOUS
 62
       3
100
AcDbLine
 10
-470.27358606
 20
-294.65412306
 30
0.0
 11
-470.87716814
 21
-294.71343518
 31
0.0
  0
LINE
  5
176
100
AcDbEntity
  8
0
  6
CONTINUOUS
 62
       3
100
AcDbLine
 10
-470.87716814
 20
-294.71343518
 30
0.0
 11
-471.47860345
 21
-294.79647215
 31
0.0
  0
LINE
  5
177
100
AcDbEntity
  8
0
  6
CONTINUOUS
 62
       3
100
AcDbLine
 10
-471.47860345
 20
-294.79647215
 30
0.0
 11
-472.07717642
 21
-294.90323397
 31
0.0
  0
LINE
  5
178
100
AcDbEntity
  8
0
  6
CONTINUOUS
 62
       3
100
AcDbLine
 10
-472.07717642
 20
-294.90323397
 30
0.0
 11
-472.67217145
 21
-295.03372064
 31
0.0
  0
LINE
  5
179
100
AcDbEntity
  8
0
  6
CONTINUOUS
 62
       3
100
AcDbLine
 10
-472.67217145
 20
-295.03372064
 30
0.0
 11
-473.26287295
 21
-295.18793215
 31
0.0
  0
LINE
  5
17A
100
AcDbEntity
  8
0
  6
CONTINUOUS
 62
       3
100
AcDbLine
 10
-473.26287295
 20
-295.18793215
 30
0.0
 11
-473.84856534
 21
-295.36586852
 31
0.0
  0
LINE
  5
17B
100
AcDbEntity
  8
0
  6
CONTINUOUS
 62
       3
100
AcDbLine
 10
-473.84856534
 20
-295.36586852
 30
0.0
 11
-474.42853303
 21
-295.56752973
 31
0.0
  0
LINE
  5
17C
100
AcDbEntity
  8
0
  6
CONTINUOUS
 62
       3
100
AcDbLine
 10
-474.42853303
 20
-295.56752973
 30
0.0
 11
-475.00206043
 21
-295.79291579
 31
0.0
  0
ENDBLK
  5
17D
100
AcDbEntity
  8
0
100
AcDbBlockEnd
  0
BLOCK
  5
17E
100
AcDbEntity
  8
0
100
AcDbBlockBegin
  2
GROUP_12
 70
       0
 10
0.0
 20
0.0
 30
0.0
  3
GROUP_12
  1

  0
LINE
  5
17F
100
AcDbEntity
  8
0
  6
CONTINUOUS
 62
       3
100
AcDbLine
 10
-483.16648198
 20
-320.26697003
 30
0.0
 11
-482.9299883
 21
-320.3834285
 31
0.0
  0
LINE
  5
180
100
AcDbEntity
  8
0
  6
CONTINUOUS
 62
       3
100
AcDbLine
 10
-482.9299883
 20
-320.3834285
 30
0.0
 11
-482.68880248
 21
-320.48314631
 31
0.0
  0
LINE
  5
181
100
AcDbEntity
  8
0
  6
CONTINUOUS
 62
       3
100
AcDbLine
 10
-482.68880248
 20
-320.48314631
 30
0.0
 11
-482.44370735
 21
-320.56623991
 31
0.0
  0
LINE
  5
182
100
AcDbEntity
  8
0
  6
CONTINUOUS
 62
       3
100
AcDbLine
 10
-482.44370735
 20
-320.56623991
 30
0.0
 11
-482.19548572
 21
-320.63282577
 31
0.0
  0
LINE
  5
183
100
AcDbEntity
  8
0
  6
CONTINUOUS
 62
       3
100
AcDbLine
 10
-482.19548572
 20
-320.63282577
 30
0.0
 11
-481.94492043
 21
-320.68302035
 31
0.0
  0
LINE
  5
184
100
AcDbEntity
  8
0
  6
CONTINUOUS
 62
       3
100
AcDbLine
 10
-481.94492043
 20
-320.68302035
 30
0.0
 11
-481.69279428
 21
-320.71694012
 31
0.0
  0
LINE
  5
185
100
AcDbEntity
  8
0
  6
CONTINUOUS
 62
       3
100
AcDbLine
 10
-481.69279428
 20
-320.71694012
 30
0.0
 11
-481.43989012
 21
-320.73470154
 31
0.0
  0
LINE
  5
186
100
AcDbEntity
  8
0
  6
CONTINUOUS
 62
       3
100
AcDbLine
 10
-481.43989012
 20
-320.73470154
 30
0.0
 11
-481.18699076
 21
-320.73642107
 31
0.0
  0
LINE
  5
187
100
AcDbEntity
  8
0
  6
CONTINUOUS
 62
       3
100
AcDbLine
 10
-481.18699076
 20
-320.73642107
 30
0.0
 11
-480.93487902
 21
-320.72221518
 31
0.0
  0
LINE
  5
188
100
AcDbEntity
  8
0
  6
CONTINUOUS
 62
       3
100
AcDbLine
 10
-480.93487902
 20
-320.72221518
 30
0.0
 11
-480.68433774
 21
-320.69220032
 31
0.0
  0
LINE
  5
189
100
AcDbEntity
  8
0
  6
CONTINUOUS
 62
       3
100
AcDbLine
 10
-480.68433774
 20
-320.69220032
 30
0.0
 11
-480.43614973
 21
-320.64649297
 31
0.0
  0
LINE
  5
18A
100
AcDbEntity
  8
0
  6
CONTINUOUS
 62
       3
100
AcDbLine
 10
-480.43614973
 20
-320.64649297
 30
0.0
 11
-480.19109782
 21
-320.58520958
 31
0.0
  0
LINE
  5
18B
100
AcDbEntity
  8
0
  6
CONTINUOUS
 62
       3
100
AcDbLine
 10
-480.19109782
 20
-320.58520958
 30
0.0
 11
-479.94996483
 21
-320.50846662
 31
0.0
  0
LINE
  5
18C
100
AcDbEntity
  8
0
  6
CONTINUOUS
 62
       3
100
AcDbLine
 10
-479.94996483
 20
-320.50846662
 30
0.0
 11
-479.71353359
 21
-320.41638055
 31
0.0
  0
LINE
  5
18D
100
AcDbEntity
  8
0
  6
CONTINUOUS
 62
       3
100
AcDbLine
 10
-479.71353359
 20
-320.41638055
 30
0.0
 11
-479.48258692
 21
-320.30906783
 31
0.0
  0
LINE
  5
18E
100
AcDbEntity
  8
0
  6
CONTINUOUS
 62
       3
100
AcDbLine
 10
-479.48258692
 20
-320.30906783
 30
0.0
 11
-479.25790764
 21
-320.18664493
 31
0.0
  0
LINE
  5
18F
100
AcDbEntity
  8
0
  6
CONTINUOUS
 62
       3
100
AcDbLine
 10
-479.25790764
 20
-320.18664493
 30
0.0
 11
-479.04027858
 21
-320.04922831
 31
0.0
  0
LINE
  5
190
100
AcDbEntity
  8
0
  6
CONTINUOUS
 62
       3
100
AcDbLine
 10
-479.04027858
 20
-320.04922831
 30
0.0
 11
-478.83048256
 21
-319.89693444
 31
0.0
  0
LINE
  5
191
100
AcDbEntity
  8
0
  6
CONTINUOUS
 62
       3
100
AcDbLine
 10
-478.83048256
 20
-319.89693444
 30
0.0
 11
-478.62930241
 21
-319.72987977
 31
0.0
  0
LINE
  5
192
100
AcDbEntity
  8
0
  6
CONTINUOUS
 62
       3
100
AcDbLine
 10
-478.62930241
 20
-319.72987977
 30
0.0
 11
-478.43752095
 21
-319.54818077
 31
0.0
  0
ENDBLK
  5
193
100
AcDbEntity
  8
0
100
AcDbBlockEnd
  0
BLOCK
  5
194
100
AcDbEntity
  8
0
100
AcDbBlockBegin
  2
GROUP_13
 70
       0
 10
0.0
 20
0.0
 30
0.0
  3
GROUP_13
  1

  0
LINE
  5
195
100
AcDbEntity
  8
0
  6
CONTINUOUS
 62
       3
100
AcDbLine
 10
-459.68816699
 20
-319.54818077
 30
0.0
 11
-459.49638553
 21
-319.72987977
 31
0.0
  0
LINE
  5
196
100
AcDbEntity
  8
0
  6
CONTINUOUS
 62
       3
100
AcDbLine
 10
-459.49638553
 20
-319.72987977
 30
0.0
 11
-459.29520538
 21
-319.89693444
 31
0.0
  0
LINE
  5
197
100
AcDbEntity
  8
0
  6
CONTINUOUS
 62
       3
100
AcDbLine
 10
-459.29520538
 20
-319.89693444
 30
0.0
 11
-459.08540936
 21
-320.04922831
 31
0.0
  0
LINE
  5
198
100
AcDbEntity
  8
0
  6
CONTINUOUS
 62
       3
100
AcDbLine
 10
-459.08540936
 20
-320.04922831
 30
0.0
 11
-458.8677803
 21
-320.18664493
 31
0.0
  0
LINE
  5
199
100
AcDbEntity
  8
0
  6
CONTINUOUS
 62
       3
100
AcDbLine
 10
-458.8677803
 20
-320.18664493
 30
0.0
 11
-458.64310102
 21
-320.30906783
 31
0.0
  0
LINE
  5
19A
100
AcDbEntity
  8
0
  6
CONTINUOUS
 62
       3
100
AcDbLine
 10
-458.64310102
 20
-320.30906783
 30
0.0
 11
-458.41215435
 21
-320.41638055
 31
0.0
  0
LINE
  5
19B
100
AcDbEntity
  8
0
  6
CONTINUOUS
 62
       3
100
AcDbLine
 10
-458.41215435
 20
-320.41638055
 30
0.0
 11
-458.17572311
 21
-320.50846662
 31
0.0
  0
LINE
  5
19C
100
AcDbEntity
  8
0
  6
CONTINUOUS
 62
       3
100
AcDbLine
 10
-458.17572311
 20
-320.50846662
 30
0.0
 11
-457.93459012
 21
-320.58520958
 31
0.0
  0
LINE
  5
19D
100
AcDbEntity
  8
0
  6
CONTINUOUS
 62
       3
100
AcDbLine
 10
-457.93459012
 20
-320.58520958
 30
0.0
 11
-457.68953821
 21
-320.64649297
 31
0.0
  0
LINE
  5
19E
100
AcDbEntity
  8
0
  6
CONTINUOUS
 62
       3
100
AcDbLine
 10
-457.68953821
 20
-320.64649297
 30
0.0
 11
-457.4413502
 21
-320.69220032
 31
0.0
  0
LINE
  5
19F
100
AcDbEntity
  8
0
  6
CONTINUOUS
 62
       3
100
AcDbLine
 10
-457.4413502
 20
-320.69220032
 30
0.0
 11
-457.19080891
 21
-320.72221518
 31
0.0
  0
LINE
  5
1A0
100
AcDbEntity
  8
0
  6
CONTINUOUS
 62
       3
100
AcDbLine
 10
-457.19080891
 20
-320.72221518
 30
0.0
 11
-456.93869718
 21
-320.73642107
 31
0.0
  0
LINE
  5
1A1
100
AcDbEntity
  8
0
  6
CONTINUOUS
 62
       3
100
AcDbLine
 10
-456.93869718
 20
-320.73642107
 30
0.0
 11
-456.68579782
 21
-320.73470154
 31
0.0
  0
LINE
  5
1A2
100
AcDbEntity
  8
0
  6
CONTINUOUS
 62
       3
100
AcDbLine
 10
-456.68579782
 20
-320.73470154
 30
0.0
 11
-456.43289365
 21
-320.71694012
 31
0.0
  0
LINE
  5
1A3
100
AcDbEntity
  8
0
  6
CONTINUOUS
 62
       3
100
AcDbLine
 10
-456.43289365
 20
-320.71694012
 30
0.0
 11
-456.18076751
 21
-320.68302035
 31
0.0
  0
LINE
  5
1A4
100
AcDbEntity
  8
0
  6
CONTINUOUS
 62
       3
100
AcDbLine
 10
-456.18076751
 20
-320.68302035
 30
0.0
 11
-455.93020221
 21
-320.63282577
 31
0.0
  0
LINE
  5
1A5
100
AcDbEntity
  8
0
  6
CONTINUOUS
 62
       3
100
AcDbLine
 10
-455.93020221
 20
-320.63282577
 30
0.0
 11
-455.68198059
 21
-320.56623991
 31
0.0
  0
LINE
  5
1A6
100
AcDbEntity
  8
0
  6
CONTINUOUS
 62
       3
100
AcDbLine
 10
-455.68198059
 20
-320.56623991
 30
0.0
 11
-455.43688545
 21
-320.48314631
 31
0.0
  0
LINE
  5
1A7
100
AcDbEntity
  8
0
  6
CONTINUOUS
 62
       3
100
AcDbLine
 10
-455.43688545
 20
-320.48314631
 30
0.0
 11
-455.19569963
 21
-320.3834285
 31
0.0
  0
LINE
  5
1A8
100
AcDbEntity
  8
0
  6
CONTINUOUS
 62
       3
100
AcDbLine
 10
-455.19569963
 20
-320.3834285
 30
0.0
 11
-454.95920596
 21
-320.26697003
 31
0.0
  0
ENDBLK
  5
1A9
100
AcDbEntity
  8
0
100
AcDbBlockEnd
  0
BLOCK
  5
1AA
100
AcDbEntity
  8
0
100
AcDbBlockBegin
  2
GROUP_14
 70
       0
 10
0.0
 20
0.0
 30
0.0
  3
GROUP_14
  1

  0
LINE
  5
1AB
100
AcDbEntity
  8
0
  6
CONTINUOUS
 62
       3
100
AcDbLine
 10
-475.00206043
 20
-319.54818077
 30
0.0
 11
-474.42853303
 21
-319.77379495
 31
0.0
  0
LINE
  5
1AC
100
AcDbEntity
  8
0
  6
CONTINUOUS
 62
       3
100
AcDbLine
 10
-474.42853303
 20
-319.77379495
 30
0.0
 11
-473.84856534
 21
-319.97566027
 31
0.0
  0
LINE
  5
1AD
100
AcDbEntity
  8
0
  6
CONTINUOUS
 62
       3
100
AcDbLine
 10
-473.84856534
 20
-319.97566027
 30
0.0
 11
-473.26287295
 21
-320.15377673
 31
0.0
  0
LINE
  5
1AE
100
AcDbEntity
  8
0
  6
CONTINUOUS
 62
       3
100
AcDbLine
 10
-473.26287295
 20
-320.15377673
 30
0.0
 11
-472.67217145
 21
-320.30814433
 31
0.0
  0
LINE
  5
1AF
100
AcDbEntity
  8
0
  6
CONTINUOUS
 62
       3
100
AcDbLine
 10
-472.67217145
 20
-320.30814433
 30
0.0
 11
-472.07717642
 21
-320.43876307
 31
0.0
  0
LINE
  5
1B0
100
AcDbEntity
  8
0
  6
CONTINUOUS
 62
       3
100
AcDbLine
 10
-472.07717642
 20
-320.43876307
 30
0.0
 11
-471.47860345
 21
-320.54563295
 31
0.0
  0
LINE
  5
1B1
100
AcDbEntity
  8
0
  6
CONTINUOUS
 62
       3
100
AcDbLine
 10
-471.47860345
 20
-320.54563295
 30
0.0
 11
-470.87716814
 21
-320.62875396
 31
0.0
  0
LINE
  5
1B2
100
AcDbEntity
  8
0
  6
CONTINUOUS
 62
       3
100
AcDbLine
 10
-470.87716814
 20
-320.62875396
 30
0.0
 11
-470.27358606
 21
-320.68812612
 31
0.0
  0
LINE
  5
1B3
100
AcDbEntity
  8
0
  6
CONTINUOUS
 62
       3
100
AcDbLine
 10
-470.27358606
 20
-320.68812612
 30
0.0
 11
-469.66857281
 21
-320.72374941
 31
0.0
  0
LINE
  5
1B4
100
AcDbEntity
  8
0
  6
CONTINUOUS
 62
       3
100
AcDbLine
 10
-469.66857281
 20
-320.72374941
 30
0.0
 11
-469.06284397
 21
-320.73562384
 31
0.0
  0
LINE
  5
1B5
100
AcDbEntity
  8
0
  6
CONTINUOUS
 62
       3
100
AcDbLine
 10
-469.06284397
 20
-320.73562384
 30
0.0
 11
-468.45711513
 21
-320.72374941
 31
0.0
  0
LINE
  5
1B6
100
AcDbEntity
  8
0
  6
CONTINUOUS
 62
       3
100
AcDbLine
 10
-468.45711513
 20
-320.72374941
 30
0.0
 11
-467.85210188
 21
-320.68812612
 31
0.0
  0
LINE
  5
1B7
100
AcDbEntity
  8
0
  6
CONTINUOUS
 62
       3
100
AcDbLine
 10
-467.85210188
 20
-320.68812612
 30
0.0
 11
-467.2485198
 21
-320.62875396
 31
0.0
  0
LINE
  5
1B8
100
AcDbEntity
  8
0
  6
CONTINUOUS
 62
       3
100
AcDbLine
 10
-467.2485198
 20
-320.62875396
 30
0.0
 11
-466.64708448
 21
-320.54563295
 31
0.0
  0
LINE
  5
1B9
100
AcDbEntity
  8
0
  6
CONTINUOUS
 62
       3
100
AcDbLine
 10
-466.64708448
 20
-320.54563295
 30
0.0
 11
-466.04851152
 21
-320.43876307
 31
0.0
  0
LINE
  5
1BA
100
AcDbEntity
  8
0
  6
CONTINUOUS
 62
       3
100
AcDbLine
 10
-466.04851152
 20
-320.43876307
 30
0.0
 11
-465.45351649
 21
-320.30814433
 31
0.0
  0
LINE
  5
1BB
100
AcDbEntity
  8
0
  6
CONTINUOUS
 62
       3
100
AcDbLine
 10
-465.45351649
 20
-320.30814433
 30
0.0
 11
-464.86281499
 21
-320.15377673
 31
0.0
  0
LINE
  5
1BC
100
AcDbEntity
  8
0
  6
CONTINUOUS
 62
       3
100
AcDbLine
 10
-464.86281499
 20
-320.15377673
 30
0.0
 11
-464.2771226
 21
-319.97566027
 31
0.0
  0
LINE
  5
1BD
100
AcDbEntity
  8
0
  6
CONTINUOUS
 62
       3
100
AcDbLine
 10
-464.2771226
 20
-319.97566027
 30
0.0
 11
-463.69715491
 21
-319.77379495
 31
0.0
  0
LINE
  5
1BE
100
AcDbEntity
  8
0
  6
CONTINUOUS
 62
       3
100
AcDbLine
 10
-463.69715491
 20
-319.77379495
 30
0.0
 11
-463.12362751
 21
-319.54818077
 31
0.0
  0
ENDBLK
  5
1BF
100
AcDbEntity
  8
0
100
AcDbBlockEnd
  0
BLOCK
  5
1C0
100
AcDbEntity
  8
0
100
AcDbBlockBegin
  2
GROUP_15
 70
       0
 10
0.0
 20
0.0
 30
0.0
  3
GROUP_15
  1

  0
LINE
  5
1C1
100
AcDbEntity
  8
0
  6
CONTINUOUS
 62
       3
100
AcDbLine
 10
-329.41438453
 20
-285.87234317
 30
0.0
 11
-329.68800791
 21
-285.93906351
 31
0.0
  0
LINE
  5
1C2
100
AcDbEntity
  8
0
  6
CONTINUOUS
 62
       3
100
AcDbLine
 10
-329.68800791
 20
-285.93906351
 30
0.0
 11
-329.96232287
 21
-286.00235118
 31
0.0
  0
LINE
  5
1C3
100
AcDbEntity
  8
0
  6
CONTINUOUS
 62
       3
100
AcDbLine
 10
-329.96232287
 20
-286.00235118
 30
0.0
 11
-330.23730059
 21
-286.0622074
 31
0.0
  0
LINE
  5
1C4
100
AcDbEntity
  8
0
  6
CONTINUOUS
 62
       3
100
AcDbLine
 10
-330.23730059
 20
-286.0622074
 30
0.0
 11
-330.51291225
 21
-286.11863336
 31
0.0
  0
LINE
  5
1C5
100
AcDbEntity
  8
0
  6
CONTINUOUS
 62
       3
100
AcDbLine
 10
-330.51291225
 20
-286.11863336
 30
0.0
 11
-330.78912904
 21
-286.17163026
 31
0.0
  0
LINE
  5
1C6
100
AcDbEntity
  8
0
  6
CONTINUOUS
 62
       3
100
AcDbLine
 10
-330.78912904
 20
-286.17163026
 30
0.0
 11
-331.06592214
 21
-286.2211993
 31
0.0
  0
LINE
  5
1C7
100
AcDbEntity
  8
0
  6
CONTINUOUS
 62
       3
100
AcDbLine
 10
-331.06592214
 20
-286.2211993
 30
0.0
 11
-331.34326274
 21
-286.26734169
 31
0.0
  0
LINE
  5
1C8
100
AcDbEntity
  8
0
  6
CONTINUOUS
 62
       3
100
AcDbLine
 10
-331.34326274
 20
-286.26734169
 30
0.0
 11
-331.62112201
 21
-286.31005862
 31
0.0
  0
LINE
  5
1C9
100
AcDbEntity
  8
0
  6
CONTINUOUS
 62
       3
100
AcDbLine
 10
-331.62112201
 20
-286.31005862
 30
0.0
 11
-331.89947116
 21
-286.3493513
 31
0.0
  0
LINE
  5
1CA
100
AcDbEntity
  8
0
  6
CONTINUOUS
 62
       3
100
AcDbLine
 10
-331.89947116
 20
-286.3493513
 30
0.0
 11
-332.17828135
 21
-286.38522093
 31
0.0
  0
LINE
  5
1CB
100
AcDbEntity
  8
0
  6
CONTINUOUS
 62
       3
100
AcDbLine
 10
-332.17828135
 20
-286.38522093
 30
0.0
 11
-332.45752378
 21
-286.4176687
 31
0.0
  0
LINE
  5
1CC
100
AcDbEntity
  8
0
  6
CONTINUOUS
 62
       3
100
AcDbLine
 10
-332.45752378
 20
-286.4176687
 30
0.0
 11
-332.73716962
 21
-286.44669582
 31
0.0
  0
LINE
  5
1CD
100
AcDbEntity
  8
0
  6
CONTINUOUS
 62
       3
100
AcDbLine
 10
-332.73716962
 20
-286.44669582
 30
0.0
 11
-333.01719007
 21
-286.47230349
 31
0.0
  0
LINE
  5
1CE
100
AcDbEntity
  8
0
  6
CONTINUOUS
 62
       3
100
AcDbLine
 10
-333.01719007
 20
-286.47230349
 30
0.0
 11
-333.29755631
 21
-286.49449291
 31
0.0
  0
LINE
  5
1CF
100
AcDbEntity
  8
0
  6
CONTINUOUS
 62
       3
100
AcDbLine
 10
-333.29755631
 20
-286.49449291
 30
0.0
 11
-333.57823952
 21
-286.51326527
 31
0.0
  0
LINE
  5
1D0
100
AcDbEntity
  8
0
  6
CONTINUOUS
 62
       3
100
AcDbLine
 10
-333.57823952
 20
-286.51326527
 30
0.0
 11
-333.85921088
 21
-286.52862179
 31
0.0
  0
LINE
  5
1D1
100
AcDbEntity
  8
0
  6
CONTINUOUS
 62
       3
100
AcDbLine
 10
-333.85921088
 20
-286.52862179
 30
0.0
 11
-334.14044158
 21
-286.54056366
 31
0.0
  0
LINE
  5
1D2
100
AcDbEntity
  8
0
  6
CONTINUOUS
 62
       3
100
AcDbLine
 10
-334.14044158
 20
-286.54056366
 30
0.0
 11
-334.42190281
 21
-286.54909208
 31
0.0
  0
LINE
  5
1D3
100
AcDbEntity
  8
0
  6
CONTINUOUS
 62
       3
100
AcDbLine
 10
-334.42190281
 20
-286.54909208
 30
0.0
 11
-334.70356575
 21
-286.55420825
 31
0.0
  0
LINE
  5
1D4
100
AcDbEntity
  8
0
  6
CONTINUOUS
 62
       3
100
AcDbLine
 10
-334.70356575
 20
-286.55420825
 30
0.0
 11
-334.98540158
 21
-286.55591337
 31
0.0
  0
ENDBLK
  5
1D5
100
AcDbEntity
  8
0
100
AcDbBlockEnd
  0
BLOCK
  5
1D6
100
AcDbEntity
  8
0
100
AcDbBlockBegin
  2
GROUP_16
 70
       0
 10
0.0
 20
0.0
 30
0.0
  3
GROUP_16
  1

  0
LINE
  5
1D7
100
AcDbEntity
  8
0
  6
CONTINUOUS
 62
       3
100
AcDbLine
 10
-321.32680459
 20
-285.87234317
 30
0.0
 11
-321.59480253
 21
-286.00260172
 31
0.0
  0
LINE
  5
1D8
100
AcDbEntity
  8
0
  6
CONTINUOUS
 62
       3
100
AcDbLine
 10
-321.59480253
 20
-286.00260172
 30
0.0
 11
-321.8672957
 21
-286.11914883
 31
0.0
  0
LINE
  5
1D9
100
AcDbEntity
  8
0
  6
CONTINUOUS
 62
       3
100
AcDbLine
 10
-321.8672957
 20
-286.11914883
 30
0.0
 11
-322.14378464
 21
-286.22198453
 31
0.0
  0
LINE
  5
1DA
100
AcDbEntity
  8
0
  6
CONTINUOUS
 62
       3
100
AcDbLine
 10
-322.14378464
 20
-286.22198453
 30
0.0
 11
-322.42376987
 21
-286.31110879
 31
0.0
  0
LINE
  5
1DB
100
AcDbEntity
  8
0
  6
CONTINUOUS
 62
       3
100
AcDbLine
 10
-322.42376987
 20
-286.31110879
 30
0.0
 11
-322.70675192
 21
-286.38652163
 31
0.0
  0
LINE
  5
1DC
100
AcDbEntity
  8
0
  6
CONTINUOUS
 62
       3
100
AcDbLine
 10
-322.70675192
 20
-286.38652163
 30
0.0
 11
-322.99223133
 21
-286.44822305
 31
0.0
  0
LINE
  5
1DD
100
AcDbEntity
  8
0
  6
CONTINUOUS
 62
       3
100
AcDbLine
 10
-322.99223133
 20
-286.44822305
 30
0.0
 11
-323.27970861
 21
-286.49621304
 31
0.0
  0
LINE
  5
1DE
100
AcDbEntity
  8
0
  6
CONTINUOUS
 62
       3
100
AcDbLine
 10
-323.27970861
 20
-286.49621304
 30
0.0
 11
-323.56868431
 21
-286.5304916
 31
0.0
  0
LINE
  5
1DF
100
AcDbEntity
  8
0
  6
CONTINUOUS
 62
       3
100
AcDbLine
 10
-323.56868431
 20
-286.5304916
 30
0.0
 11
-323.85865895
 21
-286.55105874
 31
0.0
  0
LINE
  5
1E0
100
AcDbEntity
  8
0
  6
CONTINUOUS
 62
       3
100
AcDbLine
 10
-323.85865895
 20
-286.55105874
 30
0.0
 11
-324.14913306
 21
-286.55791445
 31
0.0
  0
LINE
  5
1E1
100
AcDbEntity
  8
0
  6
CONTINUOUS
 62
       3
100
AcDbLine
 10
-324.14913306
 20
-286.55791445
 30
0.0
 11
-324.43960717
 21
-286.55105874
 31
0.0
  0
LINE
  5
1E2
100
AcDbEntity
  8
0
  6
CONTINUOUS
 62
       3
100
AcDbLine
 10
-324.43960717
 20
-286.55105874
 30
0.0
 11
-324.72958181
 21
-286.5304916
 31
0.0
  0
LINE
  5
1E3
100
AcDbEntity
  8
0
  6
CONTINUOUS
 62
       3
100
AcDbLine
 10
-324.72958181
 20
-286.5304916
 30
0.0
 11
-325.01855751
 21
-286.49621304
 31
0.0
  0
LINE
  5
1E4
100
AcDbEntity
  8
0
  6
CONTINUOUS
 62
       3
100
AcDbLine
 10
-325.01855751
 20
-286.49621304
 30
0.0
 11
-325.3060348
 21
-286.44822305
 31
0.0
  0
LINE
  5
1E5
100
AcDbEntity
  8
0
  6
CONTINUOUS
 62
       3
100
AcDbLine
 10
-325.3060348
 20
-286.44822305
 30
0.0
 11
-325.5915142
 21
-286.38652163
 31
0.0
  0
LINE
  5
1E6
100
AcDbEntity
  8
0
  6
CONTINUOUS
 62
       3
100
AcDbLine
 10
-325.5915142
 20
-286.38652163
 30
0.0
 11
-325.87449625
 21
-286.31110879
 31
0.0
  0
LINE
  5
1E7
100
AcDbEntity
  8
0
  6
CONTINUOUS
 62
       3
100
AcDbLine
 10
-325.87449625
 20
-286.31110879
 30
0.0
 11
-326.15448148
 21
-286.22198453
 31
0.0
  0
LINE
  5
1E8
100
AcDbEntity
  8
0
  6
CONTINUOUS
 62
       3
100
AcDbLine
 10
-326.15448148
 20
-286.22198453
 30
0.0
 11
-326.43097042
 21
-286.11914883
 31
0.0
  0
LINE
  5
1E9
100
AcDbEntity
  8
0
  6
CONTINUOUS
 62
       3
100
AcDbLine
 10
-326.43097042
 20
-286.11914883
 30
0.0
 11
-326.70346359
 21
-286.00260172
 31
0.0
  0
LINE
  5
1EA
100
AcDbEntity
  8
0
  6
CONTINUOUS
 62
       3
100
AcDbLine
 10
-326.70346359
 20
-286.00260172
 30
0.0
 11
-326.97146153
 21
-285.87234317
 31
0.0
  0
ENDBLK
  5
1EB
100
AcDbEntity
  8
0
100
AcDbBlockEnd
  0
BLOCK
  5
1EC
100
AcDbEntity
  8
0
100
AcDbBlockBegin
  2
GROUP_17
 70
       0
 10
0.0
 20
0.0
 30
0.0
  3
GROUP_17
  1

  0
LINE
  5
1ED
100
AcDbEntity
  8
0
  6
CONTINUOUS
 62
       3
100
AcDbLine
 10
-334.98540158
 20
-271.35087888
 30
0.0
 11
-334.67954434
 21
-271.35632563
 31
0.0
  0
LINE
  5
1EE
100
AcDbEntity
  8
0
  6
CONTINUOUS
 62
       3
100
AcDbLine
 10
-334.67954434
 20
-271.35632563
 30
0.0
 11
-334.37496219
 21
-271.37260105
 31
0.0
  0
LINE
  5
1EF
100
AcDbEntity
  8
0
  6
CONTINUOUS
 62
       3
100
AcDbLine
 10
-334.37496219
 20
-271.37260105
 30
0.0
 11
-334.07192168
 21
-271.39960787
 31
0.0
  0
LINE
  5
1F0
100
AcDbEntity
  8
0
  6
CONTINUOUS
 62
       3
100
AcDbLine
 10
-334.07192168
 20
-271.39960787
 30
0.0
 11
-333.77068934
 21
-271.43724886
 31
0.0
  0
LINE
  5
1F1
100
AcDbEntity
  8
0
  6
CONTINUOUS
 62
       3
100
AcDbLine
 10
-333.77068934
 20
-271.43724886
 30
0.0
 11
-333.47153173
 21
-271.48542675
 31
0.0
  0
LINE
  5
1F2
100
AcDbEntity
  8
0
  6
CONTINUOUS
 62
       3
100
AcDbLine
 10
-333.47153173
 20
-271.48542675
 30
0.0
 11
-333.17471538
 21
-271.5440443
 31
0.0
  0
LINE
  5
1F3
100
AcDbEntity
  8
0
  6
CONTINUOUS
 62
       3
100
AcDbLine
 10
-333.17471538
 20
-271.5440443
 30
0.0
 11
-332.88050685
 21
-271.61300424
 31
0.0
  0
LINE
  5
1F4
100
AcDbEntity
  8
0
  6
CONTINUOUS
 62
       3
100
AcDbLine
 10
-332.88050685
 20
-271.61300424
 30
0.0
 11
-332.58917267
 21
-271.69220934
 31
0.0
  0
LINE
  5
1F5
100
AcDbEntity
  8
0
  6
CONTINUOUS
 62
       3
100
AcDbLine
 10
-332.58917267
 20
-271.69220934
 30
0.0
 11
-332.3009794
 21
-271.78156233
 31
0.0
  0
LINE
  5
1F6
100
AcDbEntity
  8
0
  6
CONTINUOUS
 62
       3
100
AcDbLine
 10
-332.3009794
 20
-271.78156233
 30
0.0
 11
-332.01619357
 21
-271.88096596
 31
0.0
  0
LINE
  5
1F7
100
AcDbEntity
  8
0
  6
CONTINUOUS
 62
       3
100
AcDbLine
 10
-332.01619357
 20
-271.88096596
 30
0.0
 11
-331.73508173
 21
-271.99032298
 31
0.0
  0
LINE
  5
1F8
100
AcDbEntity
  8
0
  6
CONTINUOUS
 62
       3
100
AcDbLine
 10
-331.73508173
 20
-271.99032298
 30
0.0
 11
-331.45791043
 21
-272.10953615
 31
0.0
  0
LINE
  5
1F9
100
AcDbEntity
  8
0
  6
CONTINUOUS
 62
       3
100
AcDbLine
 10
-331.45791043
 20
-272.10953615
 30
0.0
 11
-331.1849462
 21
-272.23850819
 31
0.0
  0
LINE
  5
1FA
100
AcDbEntity
  8
0
  6
CONTINUOUS
 62
       3
100
AcDbLine
 10
-331.1849462
 20
-272.23850819
 30
0.0
 11
-330.91645559
 21
-272.37714187
 31
0.0
  0
LINE
  5
1FB
100
AcDbEntity
  8
0
  6
CONTINUOUS
 62
       3
100
AcDbLine
 10
-330.91645559
 20
-272.37714187
 30
0.0
 11
-330.65270516
 21
-272.52533993
 31
0.0
  0
LINE
  5
1FC
100
AcDbEntity
  8
0
  6
CONTINUOUS
 62
       3
100
AcDbLine
 10
-330.65270516
 20
-272.52533993
 30
0.0
 11
-330.39396143
 21
-272.68300512
 31
0.0
  0
LINE
  5
1FD
100
AcDbEntity
  8
0
  6
CONTINUOUS
 62
       3
100
AcDbLine
 10
-330.39396143
 20
-272.68300512
 30
0.0
 11
-330.14049096
 21
-272.85004018
 31
0.0
  0
LINE
  5
1FE
100
AcDbEntity
  8
0
  6
CONTINUOUS
 62
       3
100
AcDbLine
 10
-330.14049096
 20
-272.85004018
 30
0.0
 11
-329.89256029
 21
-273.02634786
 31
0.0
  0
LINE
  5
1FF
100
AcDbEntity
  8
0
  6
CONTINUOUS
 62
       3
100
AcDbLine
 10
-329.89256029
 20
-273.02634786
 30
0.0
 11
-329.65043596
 21
-273.21183091
 31
0.0
  0
LINE
  5
200
100
AcDbEntity
  8
0
  6
CONTINUOUS
 62
       3
100
AcDbLine
 10
-329.65043596
 20
-273.21183091
 30
0.0
 11
-329.41438453
 21
-273.40639207
 31
0.0
  0
ENDBLK
  5
201
100
AcDbEntity
  8
0
100
AcDbBlockEnd
  0
BLOCK
  5
202
100
AcDbEntity
  8
0
100
AcDbBlockBegin
  2
GROUP_18
 70
       0
 10
0.0
 20
0.0
 30
0.0
  3
GROUP_18
  1

  0
LINE
  5
203
100
AcDbEntity
  8
0
  6
CONTINUOUS
 62
       3
100
AcDbLine
 10
-326.97146153
 20
-273.40639207
 30
0.0
 11
-326.87677668
 21
-273.14623557
 31
0.0
  0
LINE
  5
204
100
AcDbEntity
  8
0
  6
CONTINUOUS
 62
       3
100
AcDbLine
 10
-326.87677668
 20
-273.14623557
 30
0.0
 11
-326.76053048
 21
-272.90031469
 31
0.0
  0
LINE
  5
205
100
AcDbEntity
  8
0
  6
CONTINUOUS
 62
       3
100
AcDbLine
 10
-326.76053048
 20
-272.90031469
 30
0.0
 11
-326.62415132
 21
-272.66937861
 31
0.0
  0
LINE
  5
206
100
AcDbEntity
  8
0
  6
CONTINUOUS
 62
       3
100
AcDbLine
 10
-326.62415132
 20
-272.66937861
 30
0.0
 11
-326.46906762
 21
-272.45417646
 31
0.0
  0
LINE
  5
207
100
AcDbEntity
  8
0
  6
CONTINUOUS
 62
       3
100
AcDbLine
 10
-326.46906762
 20
-272.45417646
 30
0.0
 11
-326.29670777
 21
-272.2554574
 31
0.0
  0
LINE
  5
208
100
AcDbEntity
  8
0
  6
CONTINUOUS
 62
       3
100
AcDbLine
 10
-326.29670777
 20
-272.2554574
 30
0.0
 11
-326.10850018
 21
-272.07397058
 31
0.0
  0
LINE
  5
209
100
AcDbEntity
  8
0
  6
CONTINUOUS
 62
       3
100
AcDbLine
 10
-326.10850018
 20
-272.07397058
 30
0.0
 11
-325.90587325
 21
-271.91046514
 31
0.0
  0
LINE
  5
20A
100
AcDbEntity
  8
0
  6
CONTINUOUS
 62
       3
100
AcDbLine
 10
-325.90587325
 20
-271.91046514
 30
0.0
 11
-325.69025538
 21
-271.76569023
 31
0.0
  0
LINE
  5
20B
100
AcDbEntity
  8
0
  6
CONTINUOUS
 62
       3
100
AcDbLine
 10
-325.69025538
 20
-271.76569023
 30
0.0
 11
-325.46307497
 21
-271.64039501
 31
0.0
  0
LINE
  5
20C
100
AcDbEntity
  8
0
  6
CONTINUOUS
 62
       3
100
AcDbLine
 10
-325.46307497
 20
-271.64039501
 30
0.0
 11
-325.22576044
 21
-271.53532863
 31
0.0
  0
LINE
  5
20D
100
AcDbEntity
  8
0
  6
CONTINUOUS
 62
       3
100
AcDbLine
 10
-325.22576044
 20
-271.53532863
 30
0.0
 11
-324.97974017
 21
-271.45124023
 31
0.0
  0
LINE
  5
20E
100
AcDbEntity
  8
0
  6
CONTINUOUS
 62
       3
100
AcDbLine
 10
-324.97974017
 20
-271.45124023
 30
0.0
 11
-324.72644258
 21
-271.38887897
 31
0.0
  0
LINE
  5
20F
100
AcDbEntity
  8
0
  6
CONTINUOUS
 62
       3
100
AcDbLine
 10
-324.72644258
 20
-271.38887897
 30
0.0
 11
-324.46729606
 21
-271.34899399
 31
0.0
  0
LINE
  5
210
100
AcDbEntity
  8
0
  6
CONTINUOUS
 62
       3
100
AcDbLine
 10
-324.46729606
 20
-271.34899399
 30
0.0
 11
-324.20372903
 21
-271.33233444
 31
0.0
  0
LINE
  5
211
100
AcDbEntity
  8
0
  6
CONTINUOUS
 62
       3
100
AcDbLine
 10
-324.20372903
 20
-271.33233444
 30
0.0
 11
-323.93716987
 21
-271.33964948
 31
0.0
  0
LINE
  5
212
100
AcDbEntity
  8
0
  6
CONTINUOUS
 62
       3
100
AcDbLine
 10
-323.93716987
 20
-271.33964948
 30
0.0
 11
-323.669047
 21
-271.37168825
 31
0.0
  0
LINE
  5
213
100
AcDbEntity
  8
0
  6
CONTINUOUS
 62
       3
100
AcDbLine
 10
-323.669047
 20
-271.37168825
 30
0.0
 11
-323.40078882
 21
-271.42919991
 31
0.0
  0
LINE
  5
214
100
AcDbEntity
  8
0
  6
CONTINUOUS
 62
       3
100
AcDbLine
 10
-323.40078882
 20
-271.42919991
 30
0.0
 11
-323.22464446
 21
-271.48110238
 31
0.0
  0
LINE
  5
215
100
AcDbEntity
  8
0
  6
CONTINUOUS
 62
       3
100
AcDbLine
 10
-323.22464446
 20
-271.48110238
 30
0.0
 11
-323.14059871
 21
-271.50975549
 31
0.0
  0
LINE
  5
216
100
AcDbEntity
  8
0
  6
CONTINUOUS
 62
       3
100
AcDbLine
 10
-323.14059871
 20
-271.50975549
 30
0.0
 11
-323.05762649
 21
-271.54095267
 31
0.0
  0
LINE
  5
217
100
AcDbEntity
  8
0
  6
CONTINUOUS
 62
       3
100
AcDbLine
 10
-323.05762649
 20
-271.54095267
 30
0.0
 11
-322.97577441
 21
-271.57465447
 31
0.0
  0
LINE
  5
218
100
AcDbEntity
  8
0
  6
CONTINUOUS
 62
       3
100
AcDbLine
 10
-322.97577441
 20
-271.57465447
 30
0.0
 11
-322.89508907
 21
-271.61082148
 31
0.0
  0
LINE
  5
219
100
AcDbEntity
  8
0
  6
CONTINUOUS
 62
       3
100
AcDbLine
 10
-322.89508907
 20
-271.61082148
 30
0.0
 11
-322.81561707
 21
-271.64941427
 31
0.0
  0
LINE
  5
21A
100
AcDbEntity
  8
0
  6
CONTINUOUS
 62
       3
100
AcDbLine
 10
-322.81561707
 20
-271.64941427
 30
0.0
 11
-322.737405
 21
-271.6903934
 31
0.0
  0
LINE
  5
21B
100
AcDbEntity
  8
0
  6
CONTINUOUS
 62
       3
100
AcDbLine
 10
-322.737405
 20
-271.6903934
 30
0.0
 11
-322.66049947
 21
-271.73371945
 31
0.0
  0
LINE
  5
21C
100
AcDbEntity
  8
0
  6
CONTINUOUS
 62
       3
100
AcDbLine
 10
-322.66049947
 20
-271.73371945
 30
0.0
 11
-322.58494706
 21
-271.77935299
 31
0.0
  0
LINE
  5
21D
100
AcDbEntity
  8
0
  6
CONTINUOUS
 62
       3
100
AcDbLine
 10
-322.58494706
 20
-271.77935299
 30
0.0
 11
-322.51079438
 21
-271.82725459
 31
0.0
  0
LINE
  5
21E
100
AcDbEntity
  8
0
  6
CONTINUOUS
 62
       3
100
AcDbLine
 10
-322.51079438
 20
-271.82725459
 30
0.0
 11
-322.43808802
 21
-271.87738482
 31
0.0
  0
LINE
  5
21F
100
AcDbEntity
  8
0
  6
CONTINUOUS
 62
       3
100
AcDbLine
 10
-322.43808802
 20
-271.87738482
 30
0.0
 11
-322.36687459
 21
-271.92970425
 31
0.0
  0
LINE
  5
220
100
AcDbEntity
  8
0
  6
CONTINUOUS
 62
       3
100
AcDbLine
 10
-322.36687459
 20
-271.92970425
 30
0.0
 11
-322.29720068
 21
-271.98417346
 31
0.0
  0
LINE
  5
221
100
AcDbEntity
  8
0
  6
CONTINUOUS
 62
       3
100
AcDbLine
 10
-322.29720068
 20
-271.98417346
 30
0.0
 11
-322.22911288
 21
-272.04075301
 31
0.0
  0
LINE
  5
222
100
AcDbEntity
  8
0
  6
CONTINUOUS
 62
       3
100
AcDbLine
 10
-322.22911288
 20
-272.04075301
 30
0.0
 11
-322.1626578
 21
-272.09940347
 31
0.0
  0
LINE
  5
223
100
AcDbEntity
  8
0
  6
CONTINUOUS
 62
       3
100
AcDbLine
 10
-322.1626578
 20
-272.09940347
 30
0.0
 11
-322.09788204
 21
-272.16008542
 31
0.0
  0
LINE
  5
224
100
AcDbEntity
  8
0
  6
CONTINUOUS
 62
       3
100
AcDbLine
 10
-322.09788204
 20
-272.16008542
 30
0.0
 11
-322.03483219
 21
-272.22275943
 31
0.0
  0
LINE
  5
225
100
AcDbEntity
  8
0
  6
CONTINUOUS
 62
       3
100
AcDbLine
 10
-322.03483219
 20
-272.22275943
 30
0.0
 11
-321.97355485
 21
-272.28738606
 31
0.0
  0
ENDBLK
  5
226
100
AcDbEntity
  8
0
100
AcDbBlockEnd
  0
BLOCK
  5
227
100
AcDbEntity
  8
0
100
AcDbBlockBegin
  2
GROUP_19
 70
       0
 10
0.0
 20
0.0
 30
0.0
  3
GROUP_19
  1

  0
LINE
  5
228
100
AcDbEntity
  8
0
  6
CONTINUOUS
 62
       3
100
AcDbLine
 10
-334.98540158
 20
-286.55591337
 30
0.0
 11
-335.2670207
 21
-286.55420825
 31
0.0
  0
LINE
  5
229
100
AcDbEntity
  8
0
  6
CONTINUOUS
 62
       3
100
AcDbLine
 10
-335.2670207
 20
-286.55420825
 30
0.0
 11
-335.54851134
 21
-286.54909208
 31
0.0
  0
LINE
  5
22A
100
AcDbEntity
  8
0
  6
CONTINUOUS
 62
       3
100
AcDbLine
 10
-335.54851134
 20
-286.54909208
 30
0.0
 11
-335.8298411
 21
-286.54056366
 31
0.0
  0
LINE
  5
22B
100
AcDbEntity
  8
0
  6
CONTINUOUS
 62
       3
100
AcDbLine
 10
-335.8298411
 20
-286.54056366
 30
0.0
 11
-336.11097755
 21
-286.52862179
 31
0.0
  0
LINE
  5
22C
100
AcDbEntity
  8
0
  6
CONTINUOUS
 62
       3
100
AcDbLine
 10
-336.11097755
 20
-286.52862179
 30
0.0
 11
-336.39188829
 21
-286.51326527
 31
0.0
  0
LINE
  5
22D
100
AcDbEntity
  8
0
  6
CONTINUOUS
 62
       3
100
AcDbLine
 10
-336.39188829
 20
-286.51326527
 30
0.0
 11
-336.67254088
 21
-286.49449291
 31
0.0
  0
LINE
  5
22E
100
AcDbEntity
  8
0
  6
CONTINUOUS
 62
       3
100
AcDbLine
 10
-336.67254088
 20
-286.49449291
 30
0.0
 11
-336.95290291
 21
-286.47230349
 31
0.0
  0
LINE
  5
22F
100
AcDbEntity
  8
0
  6
CONTINUOUS
 62
       3
100
AcDbLine
 10
-336.95290291
 20
-286.47230349
 30
0.0
 11
-337.23294197
 21
-286.44669582
 31
0.0
  0
LINE
  5
230
100
AcDbEntity
  8
0
  6
CONTINUOUS
 62
       3
100
AcDbLine
 10
-337.23294197
 20
-286.44669582
 30
0.0
 11
-337.51262564
 21
-286.4176687
 31
0.0
  0
LINE
  5
231
100
AcDbEntity
  8
0
  6
CONTINUOUS
 62
       3
100
AcDbLine
 10
-337.51262564
 20
-286.4176687
 30
0.0
 11
-337.79192149
 21
-286.38522093
 31
0.0
  0
LINE
  5
232
100
AcDbEntity
  8
0
  6
CONTINUOUS
 62
       3
100
AcDbLine
 10
-337.79192149
 20
-286.38522093
 30
0.0
 11
-338.07079712
 21
-286.3493513
 31
0.0
  0
LINE
  5
233
100
AcDbEntity
  8
0
  6
CONTINUOUS
 62
       3
100
AcDbLine
 10
-338.07079712
 20
-286.3493513
 30
0.0
 11
-338.3492201
 21
-286.31005862
 31
0.0
  0
LINE
  5
234
100
AcDbEntity
  8
0
  6
CONTINUOUS
 62
       3
100
AcDbLine
 10
-338.3492201
 20
-286.31005862
 30
0.0
 11
-338.62715803
 21
-286.26734169
 31
0.0
  0
LINE
  5
235
100
AcDbEntity
  8
0
  6
CONTINUOUS
 62
       3
100
AcDbLine
 10
-338.62715803
 20
-286.26734169
 30
0.0
 11
-338.90457847
 21
-286.2211993
 31
0.0
  0
LINE
  5
236
100
AcDbEntity
  8
0
  6
CONTINUOUS
 62
       3
100
AcDbLine
 10
-338.90457847
 20
-286.2211993
 30
0.0
 11
-339.18144901
 21
-286.17163026
 31
0.0
  0
LINE
  5
237
100
AcDbEntity
  8
0
  6
CONTINUOUS
 62
       3
100
AcDbLine
 10
-339.18144901
 20
-286.17163026
 30
0.0
 11
-339.45773724
 21
-286.11863336
 31
0.0
  0
LINE
  5
238
100
AcDbEntity
  8
0
  6
CONTINUOUS
 62
       3
100
AcDbLine
 10
-339.45773724
 20
-286.11863336
 30
0.0
 11
-339.73341073
 21
-286.0622074
 31
0.0
  0
LINE
  5
239
100
AcDbEntity
  8
0
  6
CONTINUOUS
 62
       3
100
AcDbLine
 10
-339.73341073
 20
-286.0622074
 30
0.0
 11
-340.00843707
 21
-286.00235118
 31
0.0
  0
LINE
  5
23A
100
AcDbEntity
  8
0
  6
CONTINUOUS
 62
       3
100
AcDbLine
 10
-340.00843707
 20
-286.00235118
 30
0.0
 11
-340.28278385
 21
-285.93906351
 31
0.0
  0
LINE
  5
23B
100
AcDbEntity
  8
0
  6
CONTINUOUS
 62
       3
100
AcDbLine
 10
-340.28278385
 20
-285.93906351
 30
0.0
 11
-340.55641864
 21
-285.87234317
 31
0.0
  0
ENDBLK
  5
23C
100
AcDbEntity
  8
0
100
AcDbBlockEnd
  0
BLOCK
  5
23D
100
AcDbEntity
  8
0
100
AcDbBlockBegin
  2
GROUP_20
 70
       0
 10
0.0
 20
0.0
 30
0.0
  3
GROUP_20
  1

  0
LINE
  5
23E
100
AcDbEntity
  8
0
  6
CONTINUOUS
 62
       3
100
AcDbLine
 10
-342.99934164
 20
-285.87234317
 30
0.0
 11
-343.26735098
 21
-286.00260172
 31
0.0
  0
LINE
  5
23F
100
AcDbEntity
  8
0
  6
CONTINUOUS
 62
       3
100
AcDbLine
 10
-343.26735098
 20
-286.00260172
 30
0.0
 11
-343.53987597
 21
-286.11914883
 31
0.0
  0
LINE
  5
240
100
AcDbEntity
  8
0
  6
CONTINUOUS
 62
       3
100
AcDbLine
 10
-343.53987597
 20
-286.11914883
 30
0.0
 11
-343.81641353
 21
-286.22198453
 31
0.0
  0
LINE
  5
241
100
AcDbEntity
  8
0
  6
CONTINUOUS
 62
       3
100
AcDbLine
 10
-343.81641353
 20
-286.22198453
 30
0.0
 11
-344.0964606
 21
-286.31110879
 31
0.0
  0
LINE
  5
242
100
AcDbEntity
  8
0
  6
CONTINUOUS
 62
       3
100
AcDbLine
 10
-344.0964606
 20
-286.31110879
 30
0.0
 11
-344.37951409
 21
-286.38652163
 31
0.0
  0
LINE
  5
243
100
AcDbEntity
  8
0
  6
CONTINUOUS
 62
       3
100
AcDbLine
 10
-344.37951409
 20
-286.38652163
 30
0.0
 11
-344.66507094
 21
-286.44822305
 31
0.0
  0
LINE
  5
244
100
AcDbEntity
  8
0
  6
CONTINUOUS
 62
       3
100
AcDbLine
 10
-344.66507094
 20
-286.44822305
 30
0.0
 11
-344.95262807
 21
-286.49621304
 31
0.0
  0
LINE
  5
245
100
AcDbEntity
  8
0
  6
CONTINUOUS
 62
       3
100
AcDbLine
 10
-344.95262807
 20
-286.49621304
 30
0.0
 11
-345.24168241
 21
-286.5304916
 31
0.0
  0
LINE
  5
246
100
AcDbEntity
  8
0
  6
CONTINUOUS
 62
       3
100
AcDbLine
 10
-345.24168241
 20
-286.5304916
 30
0.0
 11
-345.53173089
 21
-286.55105874
 31
0.0
  0
LINE
  5
247
100
AcDbEntity
  8
0
  6
CONTINUOUS
 62
       3
100
AcDbLine
 10
-345.53173089
 20
-286.55105874
 30
0.0
 11
-345.82227043
 21
-286.55791445
 31
0.0
  0
LINE
  5
248
100
AcDbEntity
  8
0
  6
CONTINUOUS
 62
       3
100
AcDbLine
 10
-345.82227043
 20
-286.55791445
 30
0.0
 11
-346.11279797
 21
-286.55105874
 31
0.0
  0
LINE
  5
249
100
AcDbEntity
  8
0
  6
CONTINUOUS
 62
       3
100
AcDbLine
 10
-346.11279797
 20
-286.55105874
 30
0.0
 11
-346.40281043
 21
-286.5304916
 31
0.0
  0
LINE
  5
24A
100
AcDbEntity
  8
0
  6
CONTINUOUS
 62
       3
100
AcDbLine
 10
-346.40281043
 20
-286.5304916
 30
0.0
 11
-346.69180474
 21
-286.49621304
 31
0.0
  0
LINE
  5
24B
100
AcDbEntity
  8
0
  6
CONTINUOUS
 62
       3
100
AcDbLine
 10
-346.69180474
 20
-286.49621304
 30
0.0
 11
-346.97927782
 21
-286.44822305
 31
0.0
  0
LINE
  5
24C
100
AcDbEntity
  8
0
  6
CONTINUOUS
 62
       3
100
AcDbLine
 10
-346.97927782
 20
-286.44822305
 30
0.0
 11
-347.26472661
 21
-286.38652163
 31
0.0
  0
LINE
  5
24D
100
AcDbEntity
  8
0
  6
CONTINUOUS
 62
       3
100
AcDbLine
 10
-347.26472661
 20
-286.38652163
 30
0.0
 11
-347.54764803
 21
-286.31110879
 31
0.0
  0
LINE
  5
24E
100
AcDbEntity
  8
0
  6
CONTINUOUS
 62
       3
100
AcDbLine
 10
-347.54764803
 20
-286.31110879
 30
0.0
 11
-347.82753901
 21
-286.22198453
 31
0.0
  0
LINE
  5
24F
100
AcDbEntity
  8
0
  6
CONTINUOUS
 62
       3
100
AcDbLine
 10
-347.82753901
 20
-286.22198453
 30
0.0
 11
-348.10389648
 21
-286.11914883
 31
0.0
  0
LINE
  5
250
100
AcDbEntity
  8
0
  6
CONTINUOUS
 62
       3
100
AcDbLine
 10
-348.10389648
 20
-286.11914883
 30
0.0
 11
-348.37621736
 21
-286.00260172
 31
0.0
  0
LINE
  5
251
100
AcDbEntity
  8
0
  6
CONTINUOUS
 62
       3
100
AcDbLine
 10
-348.37621736
 20
-286.00260172
 30
0.0
 11
-348.64399858
 21
-285.87234317
 31
0.0
  0
ENDBLK
  5
252
100
AcDbEntity
  8
0
100
AcDbBlockEnd
  0
BLOCK
  5
253
100
AcDbEntity
  8
0
100
AcDbBlockBegin
  2
GROUP_21
 70
       0
 10
0.0
 20
0.0
 30
0.0
  3
GROUP_21
  1

  0
LINE
  5
254
100
AcDbEntity
  8
0
  6
CONTINUOUS
 62
       3
100
AcDbLine
 10
-340.55641864
 20
-273.40639207
 30
0.0
 11
-340.3203672
 21
-273.21183091
 31
0.0
  0
LINE
  5
255
100
AcDbEntity
  8
0
  6
CONTINUOUS
 62
       3
100
AcDbLine
 10
-340.3203672
 20
-273.21183091
 30
0.0
 11
-340.07824288
 21
-273.02634786
 31
0.0
  0
LINE
  5
256
100
AcDbEntity
  8
0
  6
CONTINUOUS
 62
       3
100
AcDbLine
 10
-340.07824288
 20
-273.02634786
 30
0.0
 11
-339.83031221
 21
-272.85004018
 31
0.0
  0
LINE
  5
257
100
AcDbEntity
  8
0
  6
CONTINUOUS
 62
       3
100
AcDbLine
 10
-339.83031221
 20
-272.85004018
 30
0.0
 11
-339.57684174
 21
-272.68300512
 31
0.0
  0
LINE
  5
258
100
AcDbEntity
  8
0
  6
CONTINUOUS
 62
       3
100
AcDbLine
 10
-339.57684174
 20
-272.68300512
 30
0.0
 11
-339.31809801
 21
-272.52533993
 31
0.0
  0
LINE
  5
259
100
AcDbEntity
  8
0
  6
CONTINUOUS
 62
       3
100
AcDbLine
 10
-339.31809801
 20
-272.52533993
 30
0.0
 11
-339.05434758
 21
-272.37714187
 31
0.0
  0
LINE
  5
25A
100
AcDbEntity
  8
0
  6
CONTINUOUS
 62
       3
100
AcDbLine
 10
-339.05434758
 20
-272.37714187
 30
0.0
 11
-338.78585697
 21
-272.23850819
 31
0.0
  0
LINE
  5
25B
100
AcDbEntity
  8
0
  6
CONTINUOUS
 62
       3
100
AcDbLine
 10
-338.78585697
 20
-272.23850819
 30
0.0
 11
-338.51289274
 21
-272.10953615
 31
0.0
  0
LINE
  5
25C
100
AcDbEntity
  8
0
  6
CONTINUOUS
 62
       3
100
AcDbLine
 10
-338.51289274
 20
-272.10953615
 30
0.0
 11
-338.23572144
 21
-271.99032298
 31
0.0
  0
LINE
  5
25D
100
AcDbEntity
  8
0
  6
CONTINUOUS
 62
       3
100
AcDbLine
 10
-338.23572144
 20
-271.99032298
 30
0.0
 11
-337.9546096
 21
-271.88096596
 31
0.0
  0
LINE
  5
25E
100
AcDbEntity
  8
0
  6
CONTINUOUS
 62
       3
100
AcDbLine
 10
-337.9546096
 20
-271.88096596
 30
0.0
 11
-337.66982377
 21
-271.78156233
 31
0.0
  0
LINE
  5
25F
100
AcDbEntity
  8
0
  6
CONTINUOUS
 62
       3
100
AcDbLine
 10
-337.66982377
 20
-271.78156233
 30
0.0
 11
-337.38163049
 21
-271.69220934
 31
0.0
  0
LINE
  5
260
100
AcDbEntity
  8
0
  6
CONTINUOUS
 62
       3
100
AcDbLine
 10
-337.38163049
 20
-271.69220934
 30
0.0
 11
-337.09029632
 21
-271.61300424
 31
0.0
  0
LINE
  5
261
100
AcDbEntity
  8
0
  6
CONTINUOUS
 62
       3
100
AcDbLine
 10
-337.09029632
 20
-271.61300424
 30
0.0
 11
-336.79608778
 21
-271.5440443
 31
0.0
  0
LINE
  5
262
100
AcDbEntity
  8
0
  6
CONTINUOUS
 62
       3
100
AcDbLine
 10
-336.79608778
 20
-271.5440443
 30
0.0
 11
-336.49927144
 21
-271.48542675
 31
0.0
  0
LINE
  5
263
100
AcDbEntity
  8
0
  6
CONTINUOUS
 62
       3
100
AcDbLine
 10
-336.49927144
 20
-271.48542675
 30
0.0
 11
-336.20011383
 21
-271.43724886
 31
0.0
  0
LINE
  5
264
100
AcDbEntity
  8
0
  6
CONTINUOUS
 62
       3
100
AcDbLine
 10
-336.20011383
 20
-271.43724886
 30
0.0
 11
-335.89888149
 21
-271.39960787
 31
0.0
  0
LINE
  5
265
100
AcDbEntity
  8
0
  6
CONTINUOUS
 62
       3
100
AcDbLine
 10
-335.89888149
 20
-271.39960787
 30
0.0
 11
-335.59584098
 21
-271.37260105
 31
0.0
  0
LINE
  5
266
100
AcDbEntity
  8
0
  6
CONTINUOUS
 62
       3
100
AcDbLine
 10
-335.59584098
 20
-271.37260105
 30
0.0
 11
-335.29125883
 21
-271.35632563
 31
0.0
  0
LINE
  5
267
100
AcDbEntity
  8
0
  6
CONTINUOUS
 62
       3
100
AcDbLine
 10
-335.29125883
 20
-271.35632563
 30
0.0
 11
-334.98540158
 21
-271.35087888
 31
0.0
  0
ENDBLK
  5
268
100
AcDbEntity
  8
0
100
AcDbBlockEnd
  0
BLOCK
  5
269
100
AcDbEntity
  8
0
100
AcDbBlockBegin
  2
GROUP_22
 70
       0
 10
0.0
 20
0.0
 30
0.0
  3
GROUP_22
  1

  0
LINE
  5
26A
100
AcDbEntity
  8
0
  6
CONTINUOUS
 62
       3
100
AcDbLine
 10
-348.64399858
 20
-273.40639207
 30
0.0
 11
-348.54932851
 21
-273.14623557
 31
0.0
  0
LINE
  5
26B
100
AcDbEntity
  8
0
  6
CONTINUOUS
 62
       3
100
AcDbLine
 10
-348.54932851
 20
-273.14623557
 30
0.0
 11
-348.43312308
 21
-272.90031469
 31
0.0
  0
LINE
  5
26C
100
AcDbEntity
  8
0
  6
CONTINUOUS
 62
       3
100
AcDbLine
 10
-348.43312308
 20
-272.90031469
 30
0.0
 11
-348.29680531
 21
-272.66937861
 31
0.0
  0
LINE
  5
26D
100
AcDbEntity
  8
0
  6
CONTINUOUS
 62
       3
100
AcDbLine
 10
-348.29680531
 20
-272.66937861
 30
0.0
 11
-348.14179823
 21
-272.45417646
 31
0.0
  0
LINE
  5
26E
100
AcDbEntity
  8
0
  6
CONTINUOUS
 62
       3
100
AcDbLine
 10
-348.14179823
 20
-272.45417646
 30
0.0
 11
-347.96952485
 21
-272.2554574
 31
0.0
  0
LINE
  5
26F
100
AcDbEntity
  8
0
  6
CONTINUOUS
 62
       3
100
AcDbLine
 10
-347.96952485
 20
-272.2554574
 30
0.0
 11
-347.78140822
 21
-272.07397058
 31
0.0
  0
LINE
  5
270
100
AcDbEntity
  8
0
  6
CONTINUOUS
 62
       3
100
AcDbLine
 10
-347.78140822
 20
-272.07397058
 30
0.0
 11
-347.57887134
 21
-271.91046514
 31
0.0
  0
LINE
  5
271
100
AcDbEntity
  8
0
  6
CONTINUOUS
 62
       3
100
AcDbLine
 10
-347.57887134
 20
-271.91046514
 30
0.0
 11
-347.36333726
 21
-271.76569023
 31
0.0
  0
LINE
  5
272
100
AcDbEntity
  8
0
  6
CONTINUOUS
 62
       3
100
AcDbLine
 10
-347.36333726
 20
-271.76569023
 30
0.0
 11
-347.13622899
 21
-271.64039501
 31
0.0
  0
LINE
  5
273
100
AcDbEntity
  8
0
  6
CONTINUOUS
 62
       3
100
AcDbLine
 10
-347.13622899
 20
-271.64039501
 30
0.0
 11
-346.89896957
 21
-271.53532863
 31
0.0
  0
LINE
  5
274
100
AcDbEntity
  8
0
  6
CONTINUOUS
 62
       3
100
AcDbLine
 10
-346.89896957
 20
-271.53532863
 30
0.0
 11
-346.65298201
 21
-271.45124023
 31
0.0
  0
LINE
  5
275
100
AcDbEntity
  8
0
  6
CONTINUOUS
 62
       3
100
AcDbLine
 10
-346.65298201
 20
-271.45124023
 30
0.0
 11
-346.39968935
 21
-271.38887897
 31
0.0
  0
LINE
  5
276
100
AcDbEntity
  8
0
  6
CONTINUOUS
 62
       3
100
AcDbLine
 10
-346.39968935
 20
-271.38887897
 30
0.0
 11
-346.1405146
 21
-271.34899399
 31
0.0
  0
LINE
  5
277
100
AcDbEntity
  8
0
  6
CONTINUOUS
 62
       3
100
AcDbLine
 10
-346.1405146
 20
-271.34899399
 30
0.0
 11
-345.87688081
 21
-271.33233444
 31
0.0
  0
LINE
  5
278
100
AcDbEntity
  8
0
  6
CONTINUOUS
 62
       3
100
AcDbLine
 10
-345.87688081
 20
-271.33233444
 30
0.0
 11
-345.61021098
 21
-271.33964948
 31
0.0
  0
LINE
  5
279
100
AcDbEntity
  8
0
  6
CONTINUOUS
 62
       3
100
AcDbLine
 10
-345.61021098
 20
-271.33964948
 30
0.0
 11
-345.34192816
 21
-271.37168825
 31
0.0
  0
LINE
  5
27A
100
AcDbEntity
  8
0
  6
CONTINUOUS
 62
       3
100
AcDbLine
 10
-345.34192816
 20
-271.37168825
 30
0.0
 11
-345.07345535
 21
-271.42919991
 31
0.0
  0
LINE
  5
27B
100
AcDbEntity
  8
0
  6
CONTINUOUS
 62
       3
100
AcDbLine
 10
-345.07345535
 20
-271.42919991
 30
0.0
 11
-344.86078024
 21
-271.49350984
 31
0.0
  0
LINE
  5
27C
100
AcDbEntity
  8
0
  6
CONTINUOUS
 62
       3
100
AcDbLine
 10
-344.86078024
 20
-271.49350984
 30
0.0
 11
-344.70624884
 21
-271.55135515
 31
0.0
  0
LINE
  5
27D
100
AcDbEntity
  8
0
  6
CONTINUOUS
 62
       3
100
AcDbLine
 10
-344.70624884
 20
-271.55135515
 30
0.0
 11
-344.55605642
 21
-271.61738823
 31
0.0
  0
LINE
  5
27E
100
AcDbEntity
  8
0
  6
CONTINUOUS
 62
       3
100
AcDbLine
 10
-344.55605642
 20
-271.61738823
 30
0.0
 11
-344.41046105
 21
-271.69133847
 31
0.0
  0
LINE
  5
27F
100
AcDbEntity
  8
0
  6
CONTINUOUS
 62
       3
100
AcDbLine
 10
-344.41046105
 20
-271.69133847
 30
0.0
 11
-344.26972081
 21
-271.77293522
 31
0.0
  0
LINE
  5
280
100
AcDbEntity
  8
0
  6
CONTINUOUS
 62
       3
100
AcDbLine
 10
-344.26972081
 20
-271.77293522
 30
0.0
 11
-344.1340938
 21
-271.86190788
 31
0.0
  0
LINE
  5
281
100
AcDbEntity
  8
0
  6
CONTINUOUS
 62
       3
100
AcDbLine
 10
-344.1340938
 20
-271.86190788
 30
0.0
 11
-344.00383808
 21
-271.95798581
 31
0.0
  0
LINE
  5
282
100
AcDbEntity
  8
0
  6
CONTINUOUS
 62
       3
100
AcDbLine
 10
-344.00383808
 20
-271.95798581
 30
0.0
 11
-343.87921173
 21
-272.06089839
 31
0.0
  0
LINE
  5
283
100
AcDbEntity
  8
0
  6
CONTINUOUS
 62
       3
100
AcDbLine
 10
-343.87921173
 20
-272.06089839
 30
0.0
 11
-343.76047284
 21
-272.17037499
 31
0.0
  0
LINE
  5
284
100
AcDbEntity
  8
0
  6
CONTINUOUS
 62
       3
100
AcDbLine
 10
-343.76047284
 20
-272.17037499
 30
0.0
 11
-343.64787949
 21
-272.28614498
 31
0.0
  0
LINE
  5
285
100
AcDbEntity
  8
0
  6
CONTINUOUS
 62
       3
100
AcDbLine
 10
-343.64787949
 20
-272.28614498
 30
0.0
 11
-343.54168975
 21
-272.40793775
 31
0.0
  0
LINE
  5
286
100
AcDbEntity
  8
0
  6
CONTINUOUS
 62
       3
100
AcDbLine
 10
-343.54168975
 20
-272.40793775
 30
0.0
 11
-343.44216172
 21
-272.53548266
 31
0.0
  0
LINE
  5
287
100
AcDbEntity
  8
0
  6
CONTINUOUS
 62
       3
100
AcDbLine
 10
-343.44216172
 20
-272.53548266
 30
0.0
 11
-343.34955346
 21
-272.66850908
 31
0.0
  0
LINE
  5
288
100
AcDbEntity
  8
0
  6
CONTINUOUS
 62
       3
100
AcDbLine
 10
-343.34955346
 20
-272.66850908
 30
0.0
 11
-343.26412306
 21
-272.8067464
 31
0.0
  0
LINE
  5
289
100
AcDbEntity
  8
0
  6
CONTINUOUS
 62
       3
100
AcDbLine
 10
-343.26412306
 20
-272.8067464
 30
0.0
 11
-343.18612859
 21
-272.94992398
 31
0.0
  0
LINE
  5
28A
100
AcDbEntity
  8
0
  6
CONTINUOUS
 62
       3
100
AcDbLine
 10
-343.18612859
 20
-272.94992398
 30
0.0
 11
-343.11582815
 21
-273.09777121
 31
0.0
  0
LINE
  5
28B
100
AcDbEntity
  8
0
  6
CONTINUOUS
 62
       3
100
AcDbLine
 10
-343.11582815
 20
-273.09777121
 30
0.0
 11
-343.0534798
 21
-273.25001745
 31
0.0
  0
LINE
  5
28C
100
AcDbEntity
  8
0
  6
CONTINUOUS
 62
       3
100
AcDbLine
 10
-343.0534798
 20
-273.25001745
 30
0.0
 11
-342.99934164
 21
-273.40639207
 31
0.0
  0
ENDBLK
  5
28D
100
AcDbEntity
  8
0
100
AcDbBlockEnd
  0
BLOCK
  5
28E
100
AcDbEntity
  8
0
100
AcDbBlockBegin
  2
GROUP_23
 70
       0
 10
0.0
 20
0.0
 30
0.0
  3
GROUP_23
  1

  0
LINE
  5
28F
100
AcDbEntity
  8
0
  6
CONTINUOUS
 62
       3
100
AcDbLine
 10
-325.6107246
 20
-295.79291579
 30
0.0
 11
-325.41894314
 21
-295.6112288
 31
0.0
  0
LINE
  5
290
100
AcDbEntity
  8
0
  6
CONTINUOUS
 62
       3
100
AcDbLine
 10
-325.41894314
 20
-295.6112288
 30
0.0
 11
-325.21776299
 21
-295.44421014
 31
0.0
  0
LINE
  5
291
100
AcDbEntity
  8
0
  6
CONTINUOUS
 62
       3
100
AcDbLine
 10
-325.21776299
 20
-295.44421014
 30
0.0
 11
-325.00796697
 21
-295.2919763
 31
0.0
  0
LINE
  5
292
100
AcDbEntity
  8
0
  6
CONTINUOUS
 62
       3
100
AcDbLine
 10
-325.00796697
 20
-295.2919763
 30
0.0
 11
-324.79033791
 21
-295.15464373
 31
0.0
  0
LINE
  5
293
100
AcDbEntity
  8
0
  6
CONTINUOUS
 62
       3
100
AcDbLine
 10
-324.79033791
 20
-295.15464373
 30
0.0
 11
-324.56565864
 21
-295.03232888
 31
0.0
  0
LINE
  5
294
100
AcDbEntity
  8
0
  6
CONTINUOUS
 62
       3
100
AcDbLine
 10
-324.56565864
 20
-295.03232888
 30
0.0
 11
-324.33471196
 21
-294.92514824
 31
0.0
  0
LINE
  5
295
100
AcDbEntity
  8
0
  6
CONTINUOUS
 62
       3
100
AcDbLine
 10
-324.33471196
 20
-294.92514824
 30
0.0
 11
-324.09828072
 21
-294.83321825
 31
0.0
  0
LINE
  5
296
100
AcDbEntity
  8
0
  6
CONTINUOUS
 62
       3
100
AcDbLine
 10
-324.09828072
 20
-294.83321825
 30
0.0
 11
-323.85714773
 21
-294.75665539
 31
0.0
  0
LINE
  5
297
100
AcDbEntity
  8
0
  6
CONTINUOUS
 62
       3
100
AcDbLine
 10
-323.85714773
 20
-294.75665539
 30
0.0
 11
-323.61209582
 21
-294.69557611
 31
0.0
  0
LINE
  5
298
100
AcDbEntity
  8
0
  6
CONTINUOUS
 62
       3
100
AcDbLine
 10
-323.61209582
 20
-294.69557611
 30
0.0
 11
-323.36390781
 21
-294.65009688
 31
0.0
  0
LINE
  5
299
100
AcDbEntity
  8
0
  6
CONTINUOUS
 62
       3
100
AcDbLine
 10
-323.36390781
 20
-294.65009688
 30
0.0
 11
-323.11336653
 21
-294.62033416
 31
0.0
  0
LINE
  5
29A
100
AcDbEntity
  8
0
  6
CONTINUOUS
 62
       3
100
AcDbLine
 10
-323.11336653
 20
-294.62033416
 30
0.0
 11
-322.86125479
 21
-294.60640442
 31
0.0
  0
LINE
  5
29B
100
AcDbEntity
  8
0
  6
CONTINUOUS
 62
       3
100
AcDbLine
 10
-322.86125479
 20
-294.60640442
 30
0.0
 11
-322.60835543
 21
-294.60842411
 31
0.0
  0
LINE
  5
29C
100
AcDbEntity
  8
0
  6
CONTINUOUS
 62
       3
100
AcDbLine
 10
-322.60835543
 20
-294.60842411
 30
0.0
 11
-322.35545127
 21
-294.62650971
 31
0.0
  0
LINE
  5
29D
100
AcDbEntity
  8
0
  6
CONTINUOUS
 62
       3
100
AcDbLine
 10
-322.35545127
 20
-294.62650971
 30
0.0
 11
-322.10332513
 21
-294.66077767
 31
0.0
  0
LINE
  5
29E
100
AcDbEntity
  8
0
  6
CONTINUOUS
 62
       3
100
AcDbLine
 10
-322.10332513
 20
-294.66077767
 30
0.0
 11
-321.85275983
 21
-294.71134445
 31
0.0
  0
LINE
  5
29F
100
AcDbEntity
  8
0
  6
CONTINUOUS
 62
       3
100
AcDbLine
 10
-321.85275983
 20
-294.71134445
 30
0.0
 11
-321.6045382
 21
-294.77832653
 31
0.0
  0
LINE
  5
2A0
100
AcDbEntity
  8
0
  6
CONTINUOUS
 62
       3
100
AcDbLine
 10
-321.6045382
 20
-294.77832653
 30
0.0
 11
-321.35944307
 21
-294.86184035
 31
0.0
  0
LINE
  5
2A1
100
AcDbEntity
  8
0
  6
CONTINUOUS
 62
       3
100
AcDbLine
 10
-321.35944307
 20
-294.86184035
 30
0.0
 11
-321.11825725
 21
-294.9620024
 31
0.0
  0
LINE
  5
2A2
100
AcDbEntity
  8
0
  6
CONTINUOUS
 62
       3
100
AcDbLine
 10
-321.11825725
 20
-294.9620024
 30
0.0
 11
-320.88176357
 21
-295.07892912
 31
0.0
  0
ENDBLK
  5
2A3
100
AcDbEntity
  8
0
100
AcDbBlockEnd
  0
BLOCK
  5
2A4
100
AcDbEntity
  8
0
100
AcDbBlockBegin
  2
GROUP_24
 70
       0
 10
0.0
 20
0.0
 30
0.0
  3
GROUP_24
  1

  0
LINE
  5
2A5
100
AcDbEntity
  8
0
  6
CONTINUOUS
 62
       3
100
AcDbLine
 10
-349.08903959
 20
-295.07892912
 30
0.0
 11
-348.85254592
 21
-294.9620024
 31
0.0
  0
LINE
  5
2A6
100
AcDbEntity
  8
0
  6
CONTINUOUS
 62
       3
100
AcDbLine
 10
-348.85254592
 20
-294.9620024
 30
0.0
 11
-348.6113601
 21
-294.86184035
 31
0.0
  0
LINE
  5
2A7
100
AcDbEntity
  8
0
  6
CONTINUOUS
 62
       3
100
AcDbLine
 10
-348.6113601
 20
-294.86184035
 30
0.0
 11
-348.36626497
 21
-294.77832653
 31
0.0
  0
LINE
  5
2A8
100
AcDbEntity
  8
0
  6
CONTINUOUS
 62
       3
100
AcDbLine
 10
-348.36626497
 20
-294.77832653
 30
0.0
 11
-348.11804334
 21
-294.71134445
 31
0.0
  0
LINE
  5
2A9
100
AcDbEntity
  8
0
  6
CONTINUOUS
 62
       3
100
AcDbLine
 10
-348.11804334
 20
-294.71134445
 30
0.0
 11
-347.86747804
 21
-294.66077767
 31
0.0
  0
LINE
  5
2AA
100
AcDbEntity
  8
0
  6
CONTINUOUS
 62
       3
100
AcDbLine
 10
-347.86747804
 20
-294.66077767
 30
0.0
 11
-347.6153519
 21
-294.62650971
 31
0.0
  0
LINE
  5
2AB
100
AcDbEntity
  8
0
  6
CONTINUOUS
 62
       3
100
AcDbLine
 10
-347.6153519
 20
-294.62650971
 30
0.0
 11
-347.36244774
 21
-294.60842411
 31
0.0
  0
LINE
  5
2AC
100
AcDbEntity
  8
0
  6
CONTINUOUS
 62
       3
100
AcDbLine
 10
-347.36244774
 20
-294.60842411
 30
0.0
 11
-347.10954837
 21
-294.60640442
 31
0.0
  0
LINE
  5
2AD
100
AcDbEntity
  8
0
  6
CONTINUOUS
 62
       3
100
AcDbLine
 10
-347.10954837
 20
-294.60640442
 30
0.0
 11
-346.85743664
 21
-294.62033416
 31
0.0
  0
LINE
  5
2AE
100
AcDbEntity
  8
0
  6
CONTINUOUS
 62
       3
100
AcDbLine
 10
-346.85743664
 20
-294.62033416
 30
0.0
 11
-346.60689536
 21
-294.65009688
 31
0.0
  0
LINE
  5
2AF
100
AcDbEntity
  8
0
  6
CONTINUOUS
 62
       3
100
AcDbLine
 10
-346.60689536
 20
-294.65009688
 30
0.0
 11
-346.35870735
 21
-294.69557611
 31
0.0
  0
LINE
  5
2B0
100
AcDbEntity
  8
0
  6
CONTINUOUS
 62
       3
100
AcDbLine
 10
-346.35870735
 20
-294.69557611
 30
0.0
 11
-346.11365544
 21
-294.75665539
 31
0.0
  0
LINE
  5
2B1
100
AcDbEntity
  8
0
  6
CONTINUOUS
 62
       3
100
AcDbLine
 10
-346.11365544
 20
-294.75665539
 30
0.0
 11
-345.87252245
 21
-294.83321825
 31
0.0
  0
LINE
  5
2B2
100
AcDbEntity
  8
0
  6
CONTINUOUS
 62
       3
100
AcDbLine
 10
-345.87252245
 20
-294.83321825
 30
0.0
 11
-345.6360912
 21
-294.92514824
 31
0.0
  0
LINE
  5
2B3
100
AcDbEntity
  8
0
  6
CONTINUOUS
 62
       3
100
AcDbLine
 10
-345.6360912
 20
-294.92514824
 30
0.0
 11
-345.40514453
 21
-295.03232888
 31
0.0
  0
LINE
  5
2B4
100
AcDbEntity
  8
0
  6
CONTINUOUS
 62
       3
100
AcDbLine
 10
-345.40514453
 20
-295.03232888
 30
0.0
 11
-345.18046525
 21
-295.15464373
 31
0.0
  0
LINE
  5
2B5
100
AcDbEntity
  8
0
  6
CONTINUOUS
 62
       3
100
AcDbLine
 10
-345.18046525
 20
-295.15464373
 30
0.0
 11
-344.96283619
 21
-295.2919763
 31
0.0
  0
LINE
  5
2B6
100
AcDbEntity
  8
0
  6
CONTINUOUS
 62
       3
100
AcDbLine
 10
-344.96283619
 20
-295.2919763
 30
0.0
 11
-344.75304018
 21
-295.44421014
 31
0.0
  0
LINE
  5
2B7
100
AcDbEntity
  8
0
  6
CONTINUOUS
 62
       3
100
AcDbLine
 10
-344.75304018
 20
-295.44421014
 30
0.0
 11
-344.55186003
 21
-295.6112288
 31
0.0
  0
LINE
  5
2B8
100
AcDbEntity
  8
0
  6
CONTINUOUS
 62
       3
100
AcDbLine
 10
-344.55186003
 20
-295.6112288
 30
0.0
 11
-344.36007856
 21
-295.79291579
 31
0.0
  0
ENDBLK
  5
2B9
100
AcDbEntity
  8
0
100
AcDbBlockEnd
  0
BLOCK
  5
2BA
100
AcDbEntity
  8
0
100
AcDbBlockBegin
  2
GROUP_25
 70
       0
 10
0.0
 20
0.0
 30
0.0
  3
GROUP_25
  1

  0
LINE
  5
2BB
100
AcDbEntity
  8
0
  6
CONTINUOUS
 62
       3
100
AcDbLine
 10
-340.92461804
 20
-295.79291579
 30
0.0
 11
-340.35109064
 21
-295.56752973
 31
0.0
  0
LINE
  5
2BC
100
AcDbEntity
  8
0
  6
CONTINUOUS
 62
       3
100
AcDbLine
 10
-340.35109064
 20
-295.56752973
 30
0.0
 11
-339.77112295
 21
-295.36586852
 31
0.0
  0
LINE
  5
2BD
100
AcDbEntity
  8
0
  6
CONTINUOUS
 62
       3
100
AcDbLine
 10
-339.77112295
 20
-295.36586852
 30
0.0
 11
-339.18543056
 21
-295.18793215
 31
0.0
  0
LINE
  5
2BE
100
AcDbEntity
  8
0
  6
CONTINUOUS
 62
       3
100
AcDbLine
 10
-339.18543056
 20
-295.18793215
 30
0.0
 11
-338.59472906
 21
-295.03372064
 31
0.0
  0
LINE
  5
2BF
100
AcDbEntity
  8
0
  6
CONTINUOUS
 62
       3
100
AcDbLine
 10
-338.59472906
 20
-295.03372064
 30
0.0
 11
-337.99973404
 21
-294.90323397
 31
0.0
  0
LINE
  5
2C0
100
AcDbEntity
  8
0
  6
CONTINUOUS
 62
       3
100
AcDbLine
 10
-337.99973404
 20
-294.90323397
 30
0.0
 11
-337.40116107
 21
-294.79647215
 31
0.0
  0
LINE
  5
2C1
100
AcDbEntity
  8
0
  6
CONTINUOUS
 62
       3
100
AcDbLine
 10
-337.40116107
 20
-294.79647215
 30
0.0
 11
-336.79972576
 21
-294.71343518
 31
0.0
  0
LINE
  5
2C2
100
AcDbEntity
  8
0
  6
CONTINUOUS
 62
       3
100
AcDbLine
 10
-336.79972576
 20
-294.71343518
 30
0.0
 11
-336.19614368
 21
-294.65412306
 31
0.0
  0
LINE
  5
2C3
100
AcDbEntity
  8
0
  6
CONTINUOUS
 62
       3
100
AcDbLine
 10
-336.19614368
 20
-294.65412306
 30
0.0
 11
-335.59113042
 21
-294.61853579
 31
0.0
  0
LINE
  5
2C4
100
AcDbEntity
  8
0
  6
CONTINUOUS
 62
       3
100
AcDbLine
 10
-335.59113042
 20
-294.61853579
 30
0.0
 11
-334.98540158
 21
-294.60667336
 31
0.0
  0
LINE
  5
2C5
100
AcDbEntity
  8
0
  6
CONTINUOUS
 62
       3
100
AcDbLine
 10
-334.98540158
 20
-294.60667336
 30
0.0
 11
-334.37967274
 21
-294.61853579
 31
0.0
  0
LINE
  5
2C6
100
AcDbEntity
  8
0
  6
CONTINUOUS
 62
       3
100
AcDbLine
 10
-334.37967274
 20
-294.61853579
 30
0.0
 11
-333.77465949
 21
-294.65412306
 31
0.0
  0
LINE
  5
2C7
100
AcDbEntity
  8
0
  6
CONTINUOUS
 62
       3
100
AcDbLine
 10
-333.77465949
 20
-294.65412306
 30
0.0
 11
-333.17107741
 21
-294.71343518
 31
0.0
  0
LINE
  5
2C8
100
AcDbEntity
  8
0
  6
CONTINUOUS
 62
       3
100
AcDbLine
 10
-333.17107741
 20
-294.71343518
 30
0.0
 11
-332.5696421
 21
-294.79647215
 31
0.0
  0
LINE
  5
2C9
100
AcDbEntity
  8
0
  6
CONTINUOUS
 62
       3
100
AcDbLine
 10
-332.5696421
 20
-294.79647215
 30
0.0
 11
-331.97106913
 21
-294.90323397
 31
0.0
  0
LINE
  5
2CA
100
AcDbEntity
  8
0
  6
CONTINUOUS
 62
       3
100
AcDbLine
 10
-331.97106913
 20
-294.90323397
 30
0.0
 11
-331.37607411
 21
-295.03372064
 31
0.0
  0
LINE
  5
2CB
100
AcDbEntity
  8
0
  6
CONTINUOUS
 62
       3
100
AcDbLine
 10
-331.37607411
 20
-295.03372064
 30
0.0
 11
-330.7853726
 21
-295.18793215
 31
0.0
  0
LINE
  5
2CC
100
AcDbEntity
  8
0
  6
CONTINUOUS
 62
       3
100
AcDbLine
 10
-330.7853726
 20
-295.18793215
 30
0.0
 11
-330.19968021
 21
-295.36586852
 31
0.0
  0
LINE
  5
2CD
100
AcDbEntity
  8
0
  6
CONTINUOUS
 62
       3
100
AcDbLine
 10
-330.19968021
 20
-295.36586852
 30
0.0
 11
-329.61971252
 21
-295.56752973
 31
0.0
  0
LINE
  5
2CE
100
AcDbEntity
  8
0
  6
CONTINUOUS
 62
       3
100
AcDbLine
 10
-329.61971252
 20
-295.56752973
 30
0.0
 11
-329.04618512
 21
-295.79291579
 31
0.0
  0
ENDBLK
  5
2CF
100
AcDbEntity
  8
0
100
AcDbBlockEnd
  0
BLOCK
  5
2D0
100
AcDbEntity
  8
0
100
AcDbBlockBegin
  2
GROUP_26
 70
       0
 10
0.0
 20
0.0
 30
0.0
  3
GROUP_26
  1

  0
LINE
  5
2D1
100
AcDbEntity
  8
0
  6
CONTINUOUS
 62
       3
100
AcDbLine
 10
-320.88176357
 20
-320.26697003
 30
0.0
 11
-321.11825725
 21
-320.3834285
 31
0.0
  0
LINE
  5
2D2
100
AcDbEntity
  8
0
  6
CONTINUOUS
 62
       3
100
AcDbLine
 10
-321.11825725
 20
-320.3834285
 30
0.0
 11
-321.35944307
 21
-320.48314631
 31
0.0
  0
LINE
  5
2D3
100
AcDbEntity
  8
0
  6
CONTINUOUS
 62
       3
100
AcDbLine
 10
-321.35944307
 20
-320.48314631
 30
0.0
 11
-321.6045382
 21
-320.56623991
 31
0.0
  0
LINE
  5
2D4
100
AcDbEntity
  8
0
  6
CONTINUOUS
 62
       3
100
AcDbLine
 10
-321.6045382
 20
-320.56623991
 30
0.0
 11
-321.85275983
 21
-320.63282577
 31
0.0
  0
LINE
  5
2D5
100
AcDbEntity
  8
0
  6
CONTINUOUS
 62
       3
100
AcDbLine
 10
-321.85275983
 20
-320.63282577
 30
0.0
 11
-322.10332513
 21
-320.68302035
 31
0.0
  0
LINE
  5
2D6
100
AcDbEntity
  8
0
  6
CONTINUOUS
 62
       3
100
AcDbLine
 10
-322.10332513
 20
-320.68302035
 30
0.0
 11
-322.35545127
 21
-320.71694012
 31
0.0
  0
LINE
  5
2D7
100
AcDbEntity
  8
0
  6
CONTINUOUS
 62
       3
100
AcDbLine
 10
-322.35545127
 20
-320.71694012
 30
0.0
 11
-322.60835543
 21
-320.73470154
 31
0.0
  0
LINE
  5
2D8
100
AcDbEntity
  8
0
  6
CONTINUOUS
 62
       3
100
AcDbLine
 10
-322.60835543
 20
-320.73470154
 30
0.0
 11
-322.86125479
 21
-320.73642107
 31
0.0
  0
LINE
  5
2D9
100
AcDbEntity
  8
0
  6
CONTINUOUS
 62
       3
100
AcDbLine
 10
-322.86125479
 20
-320.73642107
 30
0.0
 11
-323.11336653
 21
-320.72221518
 31
0.0
  0
LINE
  5
2DA
100
AcDbEntity
  8
0
  6
CONTINUOUS
 62
       3
100
AcDbLine
 10
-323.11336653
 20
-320.72221518
 30
0.0
 11
-323.36390781
 21
-320.69220032
 31
0.0
  0
LINE
  5
2DB
100
AcDbEntity
  8
0
  6
CONTINUOUS
 62
       3
100
AcDbLine
 10
-323.36390781
 20
-320.69220032
 30
0.0
 11
-323.61209582
 21
-320.64649297
 31
0.0
  0
LINE
  5
2DC
100
AcDbEntity
  8
0
  6
CONTINUOUS
 62
       3
100
AcDbLine
 10
-323.61209582
 20
-320.64649297
 30
0.0
 11
-323.85714773
 21
-320.58520958
 31
0.0
  0
LINE
  5
2DD
100
AcDbEntity
  8
0
  6
CONTINUOUS
 62
       3
100
AcDbLine
 10
-323.85714773
 20
-320.58520958
 30
0.0
 11
-324.09828072
 21
-320.50846662
 31
0.0
  0
LINE
  5
2DE
100
AcDbEntity
  8
0
  6
CONTINUOUS
 62
       3
100
AcDbLine
 10
-324.09828072
 20
-320.50846662
 30
0.0
 11
-324.33471196
 21
-320.41638055
 31
0.0
  0
LINE
  5
2DF
100
AcDbEntity
  8
0
  6
CONTINUOUS
 62
       3
100
AcDbLine
 10
-324.33471196
 20
-320.41638055
 30
0.0
 11
-324.56565864
 21
-320.30906783
 31
0.0
  0
LINE
  5
2E0
100
AcDbEntity
  8
0
  6
CONTINUOUS
 62
       3
100
AcDbLine
 10
-324.56565864
 20
-320.30906783
 30
0.0
 11
-324.79033791
 21
-320.18664493
 31
0.0
  0
LINE
  5
2E1
100
AcDbEntity
  8
0
  6
CONTINUOUS
 62
       3
100
AcDbLine
 10
-324.79033791
 20
-320.18664493
 30
0.0
 11
-325.00796697
 21
-320.04922831
 31
0.0
  0
LINE
  5
2E2
100
AcDbEntity
  8
0
  6
CONTINUOUS
 62
       3
100
AcDbLine
 10
-325.00796697
 20
-320.04922831
 30
0.0
 11
-325.21776299
 21
-319.89693444
 31
0.0
  0
LINE
  5
2E3
100
AcDbEntity
  8
0
  6
CONTINUOUS
 62
       3
100
AcDbLine
 10
-325.21776299
 20
-319.89693444
 30
0.0
 11
-325.41894314
 21
-319.72987977
 31
0.0
  0
LINE
  5
2E4
100
AcDbEntity
  8
0
  6
CONTINUOUS
 62
       3
100
AcDbLine
 10
-325.41894314
 20
-319.72987977
 30
0.0
 11
-325.6107246
 21
-319.54818077
 31
0.0
  0
ENDBLK
  5
2E5
100
AcDbEntity
  8
0
100
AcDbBlockEnd
  0
BLOCK
  5
2E6
100
AcDbEntity
  8
0
100
AcDbBlockBegin
  2
GROUP_27
 70
       0
 10
0.0
 20
0.0
 30
0.0
  3
GROUP_27
  1

  0
LINE
  5
2E7
100
AcDbEntity
  8
0
  6
CONTINUOUS
 62
       3
100
AcDbLine
 10
-344.36007856
 20
-319.54818077
 30
0.0
 11
-344.55186003
 21
-319.72987977
 31
0.0
  0
LINE
  5
2E8
100
AcDbEntity
  8
0
  6
CONTINUOUS
 62
       3
100
AcDbLine
 10
-344.55186003
 20
-319.72987977
 30
0.0
 11
-344.75304018
 21
-319.89693444
 31
0.0
  0
LINE
  5
2E9
100
AcDbEntity
  8
0
  6
CONTINUOUS
 62
       3
100
AcDbLine
 10
-344.75304018
 20
-319.89693444
 30
0.0
 11
-344.96283619
 21
-320.04922831
 31
0.0
  0
LINE
  5
2EA
100
AcDbEntity
  8
0
  6
CONTINUOUS
 62
       3
100
AcDbLine
 10
-344.96283619
 20
-320.04922831
 30
0.0
 11
-345.18046525
 21
-320.18664493
 31
0.0
  0
LINE
  5
2EB
100
AcDbEntity
  8
0
  6
CONTINUOUS
 62
       3
100
AcDbLine
 10
-345.18046525
 20
-320.18664493
 30
0.0
 11
-345.40514453
 21
-320.30906783
 31
0.0
  0
LINE
  5
2EC
100
AcDbEntity
  8
0
  6
CONTINUOUS
 62
       3
100
AcDbLine
 10
-345.40514453
 20
-320.30906783
 30
0.0
 11
-345.6360912
 21
-320.41638055
 31
0.0
  0
LINE
  5
2ED
100
AcDbEntity
  8
0
  6
CONTINUOUS
 62
       3
100
AcDbLine
 10
-345.6360912
 20
-320.41638055
 30
0.0
 11
-345.87252245
 21
-320.50846662
 31
0.0
  0
LINE
  5
2EE
100
AcDbEntity
  8
0
  6
CONTINUOUS
 62
       3
100
AcDbLine
 10
-345.87252245
 20
-320.50846662
 30
0.0
 11
-346.11365544
 21
-320.58520958
 31
0.0
  0
LINE
  5
2EF
100
AcDbEntity
  8
0
  6
CONTINUOUS
 62
       3
100
AcDbLine
 10
-346.11365544
 20
-320.58520958
 30
0.0
 11
-346.35870735
 21
-320.64649297
 31
0.0
  0
LINE
  5
2F0
100
AcDbEntity
  8
0
  6
CONTINUOUS
 62
       3
100
AcDbLine
 10
-346.35870735
 20
-320.64649297
 30
0.0
 11
-346.60689536
 21
-320.69220032
 31
0.0
  0
LINE
  5
2F1
100
AcDbEntity
  8
0
  6
CONTINUOUS
 62
       3
100
AcDbLine
 10
-346.60689536
 20
-320.69220032
 30
0.0
 11
-346.85743664
 21
-320.72221518
 31
0.0
  0
LINE
  5
2F2
100
AcDbEntity
  8
0
  6
CONTINUOUS
 62
       3
100
AcDbLine
 10
-346.85743664
 20
-320.72221518
 30
0.0
 11
-347.10954837
 21
-320.73642107
 31
0.0
  0
LINE
  5
2F3
100
AcDbEntity
  8
0
  6
CONTINUOUS
 62
       3
100
AcDbLine
 10
-347.10954837
 20
-320.73642107
 30
0.0
 11
-347.36244774
 21
-320.73470154
 31
0.0
  0
LINE
  5
2F4
100
AcDbEntity
  8
0
  6
CONTINUOUS
 62
       3
100
AcDbLine
 10
-347.36244774
 20
-320.73470154
 30
0.0
 11
-347.6153519
 21
-320.71694012
 31
0.0
  0
LINE
  5
2F5
100
AcDbEntity
  8
0
  6
CONTINUOUS
 62
       3
100
AcDbLine
 10
-347.6153519
 20
-320.71694012
 30
0.0
 11
-347.86747804
 21
-320.68302035
 31
0.0
  0
LINE
  5
2F6
100
AcDbEntity
  8
0
  6
CONTINUOUS
 62
       3
100
AcDbLine
 10
-347.86747804
 20
-320.68302035
 30
0.0
 11
-348.11804334
 21
-320.63282577
 31
0.0
  0
LINE
  5
2F7
100
AcDbEntity
  8
0
  6
CONTINUOUS
 62
       3
100
AcDbLine
 10
-348.11804334
 20
-320.63282577
 30
0.0
 11
-348.36626497
 21
-320.56623991
 31
0.0
  0
LINE
  5
2F8
100
AcDbEntity
  8
0
  6
CONTINUOUS
 62
       3
100
AcDbLine
 10
-348.36626497
 20
-320.56623991
 30
0.0
 11
-348.6113601
 21
-320.48314631
 31
0.0
  0
LINE
  5
2F9
100
AcDbEntity
  8
0
  6
CONTINUOUS
 62
       3
100
AcDbLine
 10
-348.6113601
 20
-320.48314631
 30
0.0
 11
-348.85254592
 21
-320.3834285
 31
0.0
  0
LINE
  5
2FA
100
AcDbEntity
  8
0
  6
CONTINUOUS
 62
       3
100
AcDbLine
 10
-348.85254592
 20
-320.3834285
 30
0.0
 11
-349.08903959
 21
-320.26697003
 31
0.0
  0
ENDBLK
  5
2FB
100
AcDbEntity
  8
0
100
AcDbBlockEnd
  0
BLOCK
  5
2FC
100
AcDbEntity
  8
0
100
AcDbBlockBegin
  2
GROUP_28
 70
       0
 10
0.0
 20
0.0
 30
0.0
  3
GROUP_28
  1

  0
LINE
  5
2FD
100
AcDbEntity
  8
0
  6
CONTINUOUS
 62
       3
100
AcDbLine
 10
-329.04618512
 20
-319.54818077
 30
0.0
 11
-329.61971252
 21
-319.77379495
 31
0.0
  0
LINE
  5
2FE
100
AcDbEntity
  8
0
  6
CONTINUOUS
 62
       3
100
AcDbLine
 10
-329.61971252
 20
-319.77379495
 30
0.0
 11
-330.19968021
 21
-319.97566027
 31
0.0
  0
LINE
  5
2FF
100
AcDbEntity
  8
0
  6
CONTINUOUS
 62
       3
100
AcDbLine
 10
-330.19968021
 20
-319.97566027
 30
0.0
 11
-330.7853726
 21
-320.15377673
 31
0.0
  0
LINE
  5
300
100
AcDbEntity
  8
0
  6
CONTINUOUS
 62
       3
100
AcDbLine
 10
-330.7853726
 20
-320.15377673
 30
0.0
 11
-331.37607411
 21
-320.30814433
 31
0.0
  0
LINE
  5
301
100
AcDbEntity
  8
0
  6
CONTINUOUS
 62
       3
100
AcDbLine
 10
-331.37607411
 20
-320.30814433
 30
0.0
 11
-331.97106913
 21
-320.43876307
 31
0.0
  0
LINE
  5
302
100
AcDbEntity
  8
0
  6
CONTINUOUS
 62
       3
100
AcDbLine
 10
-331.97106913
 20
-320.43876307
 30
0.0
 11
-332.5696421
 21
-320.54563295
 31
0.0
  0
LINE
  5
303
100
AcDbEntity
  8
0
  6
CONTINUOUS
 62
       3
100
AcDbLine
 10
-332.5696421
 20
-320.54563295
 30
0.0
 11
-333.17107741
 21
-320.62875396
 31
0.0
  0
LINE
  5
304
100
AcDbEntity
  8
0
  6
CONTINUOUS
 62
       3
100
AcDbLine
 10
-333.17107741
 20
-320.62875396
 30
0.0
 11
-333.77465949
 21
-320.68812612
 31
0.0
  0
LINE
  5
305
100
AcDbEntity
  8
0
  6
CONTINUOUS
 62
       3
100
AcDbLine
 10
-333.77465949
 20
-320.68812612
 30
0.0
 11
-334.37967274
 21
-320.72374941
 31
0.0
  0
LINE
  5
306
100
AcDbEntity
  8
0
  6
CONTINUOUS
 62
       3
100
AcDbLine
 10
-334.37967274
 20
-320.72374941
 30
0.0
 11
-334.98540158
 21
-320.73562384
 31
0.0
  0
LINE
  5
307
100
AcDbEntity
  8
0
  6
CONTINUOUS
 62
       3
100
AcDbLine
 10
-334.98540158
 20
-320.73562384
 30
0.0
 11
-335.59113042
 21
-320.72374941
 31
0.0
  0
LINE
  5
308
100
AcDbEntity
  8
0
  6
CONTINUOUS
 62
       3
100
AcDbLine
 10
-335.59113042
 20
-320.72374941
 30
0.0
 11
-336.19614368
 21
-320.68812612
 31
0.0
  0
LINE
  5
309
100
AcDbEntity
  8
0
  6
CONTINUOUS
 62
       3
100
AcDbLine
 10
-336.19614368
 20
-320.68812612
 30
0.0
 11
-336.79972576
 21
-320.62875396
 31
0.0
  0
LINE
  5
30A
100
AcDbEntity
  8
0
  6
CONTINUOUS
 62
       3
100
AcDbLine
 10
-336.79972576
 20
-320.62875396
 30
0.0
 11
-337.40116107
 21
-320.54563295
 31
0.0
  0
LINE
  5
30B
100
AcDbEntity
  8
0
  6
CONTINUOUS
 62
       3
100
AcDbLine
 10
-337.40116107
 20
-320.54563295
 30
0.0
 11
-337.99973404
 21
-320.43876307
 31
0.0
  0
LINE
  5
30C
100
AcDbEntity
  8
0
  6
CONTINUOUS
 62
       3
100
AcDbLine
 10
-337.99973404
 20
-320.43876307
 30
0.0
 11
-338.59472906
 21
-320.30814433
 31
0.0
  0
LINE
  5
30D
100
AcDbEntity
  8
0
  6
CONTINUOUS
 62
       3
100
AcDbLine
 10
-338.59472906
 20
-320.30814433
 30
0.0
 11
-339.18543056
 21
-320.15377673
 31
0.0
  0
LINE
  5
30E
100
AcDbEntity
  8
0
  6
CONTINUOUS
 62
       3
100
AcDbLine
 10
-339.18543056
 20
-320.15377673
 30
0.0
 11
-339.77112295
 21
-319.97566027
 31
0.0
  0
LINE
  5
30F
100
AcDbEntity
  8
0
  6
CONTINUOUS
 62
       3
100
AcDbLine
 10
-339.77112295
 20
-319.97566027
 30
0.0
 11
-340.35109064
 21
-319.77379495
 31
0.0
  0
LINE
  5
310
100
AcDbEntity
  8
0
  6
CONTINUOUS
 62
       3
100
AcDbLine
 10
-340.35109064
 20
-319.77379495
 30
0.0
 11
-340.92461804
 21
-319.54818077
 31
0.0
  0
ENDBLK
  5
311
100
AcDbEntity
  8
0
100
AcDbBlockEnd
  0
BLOCK
  5
312
100
AcDbEntity
  8
0
100
AcDbBlockBegin
  2
GROUP_29
 70
       0
 10
0.0
 20
0.0
 30
0.0
  3
GROUP_29
  1

  0
LINE
  5
313
100
AcDbEntity
  8
ZUWAKU
  6
CONTINUOUS
 62
       9
100
AcDbLine
 10
-840.0
 20
-9.23760431
 30
0.0
 11
-824.0
 21
0.0
 31
0.0
  0
LINE
  5
314
100
AcDbEntity
  8
ZUWAKU
  6
CONTINUOUS
 62
       9
100
AcDbLine
 10
-840.0
 20
9.23760431
 30
0.0
 11
-840.0
 21
-9.23760431
 31
0.0
  0
LINE
  5
315
100
AcDbEntity
  8
ZUWAKU
  6
CONTINUOUS
 62
       9
100
AcDbLine
 10
-824.0
 20
0.0
 30
0.0
 11
-840.0
 21
9.23760431
 31
0.0
  0
ENDBLK
  5
316
100
AcDbEntity
  8
0
100
AcDbBlockEnd
  0
BLOCK
  5
317
100
AcDbEntity
  8
0
100
AcDbBlockBegin
  2
GROUP_30
 70
       0
 10
0.0
 20
0.0
 30
0.0
  3
GROUP_30
  1

  0
POINT
  5
318
100
AcDbEntity
  8
ZUWAKU
  6
CONTINUOUS
 62
       7
100
AcDbPoint
 10
422.04277493
 20
460.15862492
 30
0.0
  0
POINT
  5
319
100
AcDbEntity
  8
ZUWAKU
  6
CONTINUOUS
 62
       7
100
AcDbPoint
 10
423.36394814
 20
470.0
 30
0.0
  0
INSERT
  5
31A
100
AcDbEntity
  8
0
  6
CONTINUOUS
100
AcDbBlockReference
  2
GROUP_31
 10
0.0
 20
0.0
 30
0.0
  0
ENDBLK
  5
31B
100
AcDbEntity
  8
0
100
AcDbBlockEnd
  0
BLOCK
  5
31C
100
AcDbEntity
  8
0
100
AcDbBlockBegin
  2
GROUP_31
 70
       0
 10
0.0
 20
0.0
 30
0.0
  3
GROUP_31
  1

  0
LINE
  5
31D
100
AcDbEntity
  8
ZUWAKU
  6
CONTINUOUS
 62
       9
100
AcDbLine
 10
398.38398625
 20
463.22649731
 30
0.0
 11
408.38398625
 21
480.54700538
 31
0.0
  0
LINE
  5
31E
100
AcDbEntity
  8
ZUWAKU
  6
CONTINUOUS
 62
       9
100
AcDbLine
 10
398.38398625
 20
463.22649731
 30
0.0
 11
418.38398625
 21
463.22649731
 31
0.0
  0
LINE
  5
31F
100
AcDbEntity
  8
ZUWAKU
  6
CONTINUOUS
 62
       9
100
AcDbLine
 10
408.38398625
 20
480.54700538
 30
0.0
 11
418.38398625
 21
463.22649731
 31
0.0
  0
TEXT
  5
320
100
AcDbEntity
  8
ZUWAKU
 62
       4
100
AcDbText
 10
403.58398625
 20
464.0
 30
0.0
 40
12.0
  1
3
 72
       5
 11
413.18398625
 21
464.0
 31
0.0
100
AcDbText
  0
ENDBLK
  5
321
100
AcDbEntity
  8
0
100
AcDbBlockEnd
  0
BLOCK
  5
322
100
AcDbEntity
  8
0
100
AcDbBlockBegin
  2
GROUP_32
 70
       0
 10
0.0
 20
0.0
 30
0.0
  3
GROUP_32
  1

  0
POINT
  5
323
100
AcDbEntity
  8
ZUWAKU
  6
CONTINUOUS
 62
       7
100
AcDbPoint
 10
422.04277493
 20
508.15862492
 30
0.0
  0
POINT
  5
324
100
AcDbEntity
  8
ZUWAKU
  6
CONTINUOUS
 62
       7
100
AcDbPoint
 10
423.36394814
 20
518.0
 30
0.0
  0
INSERT
  5
325
100
AcDbEntity
  8
0
  6
CONTINUOUS
100
AcDbBlockReference
  2
GROUP_33
 10
0.0
 20
0.0
 30
0.0
  0
ENDBLK
  5
326
100
AcDbEntity
  8
0
100
AcDbBlockEnd
  0
BLOCK
  5
327
100
AcDbEntity
  8
0
100
AcDbBlockBegin
  2
GROUP_33
 70
       0
 10
0.0
 20
0.0
 30
0.0
  3
GROUP_33
  1

  0
LINE
  5
328
100
AcDbEntity
  8
ZUWAKU
  6
CONTINUOUS
 62
       9
100
AcDbLine
 10
398.38398625
 20
511.22649731
 30
0.0
 11
408.38398625
 21
528.54700538
 31
0.0
  0
LINE
  5
329
100
AcDbEntity
  8
ZUWAKU
  6
CONTINUOUS
 62
       9
100
AcDbLine
 10
398.38398625
 20
511.22649731
 30
0.0
 11
418.38398625
 21
511.22649731
 31
0.0
  0
LINE
  5
32A
100
AcDbEntity
  8
ZUWAKU
  6
CONTINUOUS
 62
       9
100
AcDbLine
 10
408.38398625
 20
528.54700538
 30
0.0
 11
418.38398625
 21
511.22649731
 31
0.0
  0
TEXT
  5
32B
100
AcDbEntity
  8
ZUWAKU
 62
       4
100
AcDbText
 10
403.58398625
 20
512.0
 30
0.0
 40
12.0
  1
1
 72
       5
 11
413.18398625
 21
512.0
 31
0.0
100
AcDbText
  0
ENDBLK
  5
32C
100
AcDbEntity
  8
0
100
AcDbBlockEnd
  0
BLOCK
  5
32D
100
AcDbEntity
  8
0
100
AcDbBlockBegin
  2
GROUP_34
 70
       0
 10
0.0
 20
0.0
 30
0.0
  3
GROUP_34
  1

  0
POINT
  5
32E
100
AcDbEntity
  8
ZUWAKU
  6
CONTINUOUS
 62
       7
100
AcDbPoint
 10
422.04277493
 20
484.15862492
 30
0.0
  0
POINT
  5
32F
100
AcDbEntity
  8
ZUWAKU
  6
CONTINUOUS
 62
       7
100
AcDbPoint
 10
423.36394814
 20
494.0
 30
0.0
  0
INSERT
  5
330
100
AcDbEntity
  8
0
  6
CONTINUOUS
100
AcDbBlockReference
  2
GROUP_35
 10
0.0
 20
0.0
 30
0.0
  0
ENDBLK
  5
331
100
AcDbEntity
  8
0
100
AcDbBlockEnd
  0
BLOCK
  5
332
100
AcDbEntity
  8
0
100
AcDbBlockBegin
  2
GROUP_35
 70
       0
 10
0.0
 20
0.0
 30
0.0
  3
GROUP_35
  1

  0
LINE
  5
333
100
AcDbEntity
  8
ZUWAKU
  6
CONTINUOUS
 62
       9
100
AcDbLine
 10
398.38398625
 20
487.22649731
 30
0.0
 11
408.38398625
 21
504.54700538
 31
0.0
  0
LINE
  5
334
100
AcDbEntity
  8
ZUWAKU
  6
CONTINUOUS
 62
       9
100
AcDbLine
 10
398.38398625
 20
487.22649731
 30
0.0
 11
418.38398625
 21
487.22649731
 31
0.0
  0
LINE
  5
335
100
AcDbEntity
  8
ZUWAKU
  6
CONTINUOUS
 62
       9
100
AcDbLine
 10
408.38398625
 20
504.54700538
 30
0.0
 11
418.38398625
 21
487.22649731
 31
0.0
  0
TEXT
  5
336
100
AcDbEntity
  8
ZUWAKU
 62
       4
100
AcDbText
 10
403.58398625
 20
488.0
 30
0.0
 40
12.0
  1
2
 72
       5
 11
413.18398625
 21
488.0
 31
0.0
100
AcDbText
  0
ENDBLK
  5
337
100
AcDbEntity
  8
0
100
AcDbBlockEnd
  0
BLOCK
  5
338
100
AcDbEntity
  8
0
100
AcDbBlockBegin
  2
GROUP_36
 70
       0
 10
0.0
 20
0.0
 30
0.0
  3
GROUP_36
  1

  0
POINT
  5
339
100
AcDbEntity
  8
ZUWAKU
  6
CONTINUOUS
 62
       2
100
AcDbPoint
 10
594.38398625
 20
-470.0
 30
0.0
  0
POINT
  5
33A
100
AcDbEntity
  8
ZUWAKU
  6
CONTINUOUS
 62
       2
100
AcDbPoint
 10
594.38398625
 20
-446.0
 30
0.0
  0
POINT
  5
33B
100
AcDbEntity
  8
ZUWAKU
  6
CONTINUOUS
 62
       2
100
AcDbPoint
 10
594.38398625
 20
-422.0
 30
0.0
  0
POINT
  5
33C
100
AcDbEntity
  8
ZUWAKU
  6
CONTINUOUS
 62
       2
100
AcDbPoint
 10
774.38398625
 20
-530.0
 30
0.0
  0
POINT
  5
33D
100
AcDbEntity
  8
ZUWAKU
  6
CONTINUOUS
 62
       2
100
AcDbPoint
 10
722.38398625
 20
-530.0
 30
0.0
  0
POINT
  5
33E
100
AcDbEntity
  8
ZUWAKU
  6
CONTINUOUS
 62
       2
100
AcDbPoint
 10
594.38398625
 20
-398.0
 30
0.0
  0
POINT
  5
33F
100
AcDbEntity
  8
ZUWAKU
  6
CONTINUOUS
 62
       2
100
AcDbPoint
 10
594.38398625
 20
-374.0
 30
0.0
  0
ENDBLK
  5
340
100
AcDbEntity
  8
0
100
AcDbBlockEnd
  0
BLOCK
  5
341
100
AcDbEntity
  8
0
100
AcDbBlockBegin
  2
GROUP_37
 70
       0
 10
0.0
 20
0.0
 30
0.0
  3
GROUP_37
  1

  0
TEXT
  5
342
100
AcDbEntity
  8
LAYER0240
 62
       4
100
AcDbText
 10
128.99815641
 20
-239.62906135
 30
0.0
 40
16.0
  1
取付開口寸法
 41
0.6667
 72
       5
 11
205.79815641
 21
-239.62906135
 31
0.0
100
AcDbText
  0
LINE
  5
343
100
AcDbEntity
  8
LAYER0240
  6
CONTINUOUS
 62
       4
100
AcDbLine
 10
127.39815641
 20
-241.22906135
 30
0.0
 11
207.39815641
 21
-241.22906135
 31
0.0
  0
ENDBLK
  5
344
100
AcDbEntity
  8
0
100
AcDbBlockEnd
  0
BLOCK
  5
345
100
AcDbEntity
  8
0
100
AcDbBlockBegin
  2
_OPEN30
 70
       0
 10
0.0
 20
0.0
 30
0.0
  3
_OPEN30
  1

  0
LINE
  5
346
100
AcDbEntity
  8
0
  6
CONTINUOUS
 62
       0
100
AcDbLine
 10
0.0
 20
0.0
 30
0.0
 11
-0.96592583
 21
0.25881905
 31
0.0
  0
LINE
  5
347
100
AcDbEntity
  8
0
  6
CONTINUOUS
 62
       0
100
AcDbLine
 10
0.0
 20
0.0
 30
0.0
 11
-0.96592583
 21
-0.25881905
 31
0.0
  0
ENDBLK
  5
348
100
AcDbEntity
  8
0
100
AcDbBlockEnd
  0
BLOCK
  5
349
100
AcDbEntity
  8
0
100
AcDbBlockBegin
  2
DA_IMAGEDIMGROUP_1
 70
       0
 10
0.0
 20
0.0
 30
0.0
  3
DA_IMAGEDIMGROUP_1
  1

  0
LINE
  5
34A
100
AcDbEntity
  8
0
  6
CONTINUOUS
 62
       9
100
AcDbLine
 10
48.64229172
 20
175.40025883
 30
0.0
 11
-21.27225874
 21
175.40025883
 31
0.0
  0
LINE
  5
34B
100
AcDbEntity
  8
0
  6
CONTINUOUS
 62
       9
100
AcDbLine
 10
129.1133059
 20
-39.59974143
 30
0.0
 11
-21.27225874
 21
-39.59974143
 31
0.0
  0
LINE
  5
34C
100
AcDbEntity
  8
0
  6
CONTINUOUS
 62
       9
100
AcDbLine
 10
-17.27225874
 20
-39.59974143
 30
0.0
 11
-17.27225874
 21
-4.59974143
 31
0.0
  0
LINE
  5
34D
100
AcDbEntity
  8
0
  6
CONTINUOUS
 62
       9
100
AcDbLine
 10
129.1133059
 20
-4.59974143
 30
0.0
 11
-21.27225874
 21
-4.59974143
 31
0.0
  0
LINE
  5
34E
100
AcDbEntity
  8
0
  6
CONTINUOUS
 62
       9
100
AcDbLine
 10
-17.27225874
 20
-4.59974143
 30
0.0
 11
-17.27225874
 21
175.40025883
 31
0.0
  0
INSERT
  5
34F
100
AcDbEntity
  8
0
  6
CONTINUOUS
 62
       9
100
AcDbBlockReference
  2
_OPEN30
 10
-17.27225874
 20
-4.59974143
 30
0.0
 41
12.00001115
 42
11.9999571
 50
270.0
  0
INSERT
  5
350
100
AcDbEntity
  8
0
  6
CONTINUOUS
 62
       9
100
AcDbBlockReference
  2
_OPEN30
 10
-17.27225874
 20
175.40025883
 30
0.0
 41
12.00001115
 42
11.9999571
 50
90.0
  0
LINE
  5
351
100
AcDbEntity
  8
0
  6
CONTINUOUS
 62
       9
100
AcDbLine
 10
-17.27225874
 20
-135.99086143
 30
0.0
 11
-17.27225874
 21
-39.59974143
 31
0.0
  0
INSERT
  5
352
100
AcDbEntity
  8
0
  6
CONTINUOUS
 62
       9
100
AcDbBlockReference
  2
_OPEN30
 10
-17.27225874
 20
-39.59974143
 30
0.0
 41
12.00001115
 42
11.9999571
 50
90.0
  0
TEXT
  5
353
100
AcDbEntity
  8
0
 62
       7
100
AcDbText
 10
-21.27225874
 20
-131.99086143
 30
0.0
 40
16.0
  1
max.35
 50
90.0
 72
       5
 11
-21.27225874
 21
-55.19086143
 31
0.0
100
AcDbText
  0
TEXT
  5
354
100
AcDbEntity
  8
0
 62
       7
100
AcDbText
 10
-21.27225874
 20
66.2002587
 30
0.0
 40
16.0
  1
180
 50
90.0
 72
       5
 11
-21.27225874
 21
104.6002587
 31
0.0
100
AcDbText
  0
ENDBLK
  5
355
100
AcDbEntity
  8
0
100
AcDbBlockEnd
  0
BLOCK
  5
356
100
AcDbEntity
  8
0
100
AcDbBlockBegin
  2
DA_IMAGEDIMGROUP_2
 70
       0
 10
0.0
 20
0.0
 30
0.0
  3
DA_IMAGEDIMGROUP_2
  1

  0
LINE
  5
357
100
AcDbEntity
  8
0
  6
CONTINUOUS
 62
       9
100
AcDbLine
 10
52.64229172
 20
179.40025883
 30
0.0
 11
52.64229172
 21
384.40025857
 31
0.0
  0
LINE
  5
358
100
AcDbEntity
  8
0
  6
CONTINUOUS
 62
       9
100
AcDbLine
 10
252.64232672
 20
217.63516345
 30
0.0
 11
252.64232672
 21
384.40025857
 31
0.0
  0
LINE
  5
359
100
AcDbEntity
  8
0
  6
CONTINUOUS
 62
       9
100
AcDbLine
 10
52.64229172
 20
380.40025857
 30
0.0
 11
252.64232672
 21
380.40025857
 31
0.0
  0
INSERT
  5
35A
100
AcDbEntity
  8
0
  6
CONTINUOUS
 62
       9
100
AcDbBlockReference
  2
_OPEN30
 10
52.64229172
 20
380.40025857
 30
0.0
 41
12.00001115
 42
11.9999571
 50
180.0
  0
INSERT
  5
35B
100
AcDbEntity
  8
0
  6
CONTINUOUS
 62
       9
100
AcDbBlockReference
  2
_OPEN30
 10
252.64232672
 20
380.40025857
 30
0.0
 41
12.00001115
 42
11.9999571
 50
360.0
  0
TEXT
  5
35C
100
AcDbEntity
  8
0
 62
       7
100
AcDbText
 10
133.44230922
 20
384.40025857
 30
0.0
 40
16.0
  1
200
 72
       5
 11
171.84230922
 21
384.40025857
 31
0.0
100
AcDbText
  0
ENDBLK
  5
35D
100
AcDbEntity
  8
0
100
AcDbBlockEnd
  0
BLOCK
  5
35E
100
AcDbEntity
  8
0
100
AcDbBlockBegin
  2
DA_IMAGEDIMGROUP_3
 70
       0
 10
0.0
 20
0.0
 30
0.0
  3
DA_IMAGEDIMGROUP_3
  1

  0
LINE
  5
35F
100
AcDbEntity
  8
0
  6
CONTINUOUS
 62
       9
100
AcDbLine
 10
129.1133059
 20
-4.59974143
 30
0.0
 11
-61.27225874
 21
-4.59974143
 31
0.0
  0
LINE
  5
360
100
AcDbEntity
  8
0
  6
CONTINUOUS
 62
       9
100
AcDbLine
 10
149.31071598
 20
320.40025857
 30
0.0
 11
-61.27225874
 21
320.40025857
 31
0.0
  0
LINE
  5
361
100
AcDbEntity
  8
0
  6
CONTINUOUS
 62
       9
100
AcDbLine
 10
-57.27225874
 20
-4.59974143
 30
0.0
 11
-57.27225874
 21
320.40025857
 31
0.0
  0
INSERT
  5
362
100
AcDbEntity
  8
0
  6
CONTINUOUS
 62
       9
100
AcDbBlockReference
  2
_OPEN30
 10
-57.27225874
 20
-4.59974143
 30
0.0
 41
12.00001115
 42
11.9999571
 50
270.0
  0
INSERT
  5
363
100
AcDbEntity
  8
0
  6
CONTINUOUS
 62
       9
100
AcDbBlockReference
  2
_OPEN30
 10
-57.27225874
 20
320.40025857
 30
0.0
 41
12.00001115
 42
11.9999571
 50
90.0
  0
TEXT
  5
364
100
AcDbEntity
  8
0
 62
       7
100
AcDbText
 10
-61.27225874
 20
138.70025857
 30
0.0
 40
16.0
  1
325
 50
90.0
 72
       5
 11
-61.27225874
 21
177.10025857
 31
0.0
100
AcDbText
  0
ENDBLK
  5
365
100
AcDbEntity
  8
0
100
AcDbBlockEnd
  0
BLOCK
  5
366
100
AcDbEntity
  8
0
100
AcDbBlockBegin
  2
DA_IMAGEDIMGROUP_4
 70
       0
 10
0.0
 20
0.0
 30
0.0
  3
DA_IMAGEDIMGROUP_4
  1

  0
LINE
  5
367
100
AcDbEntity
  8
0
  6
CONTINUOUS
 62
       9
100
AcDbLine
 10
-422.37900034
 20
9.40025857
 30
0.0
 11
-422.37900034
 21
24.68538306
 31
0.0
  0
LINE
  5
368
100
AcDbEntity
  8
0
  6
CONTINUOUS
 62
       9
100
AcDbLine
 10
-362.37900034
 20
9.40025857
 30
0.0
 11
-362.37900034
 21
24.68538306
 31
0.0
  0
LINE
  5
369
100
AcDbEntity
  8
0
  6
CONTINUOUS
 62
       9
100
AcDbLine
 10
-422.37900034
 20
20.68538306
 30
0.0
 11
-362.37900034
 21
20.68538306
 31
0.0
  0
LINE
  5
36A
100
AcDbEntity
  8
0
  6
CONTINUOUS
 62
       9
100
AcDbLine
 10
-480.37012034
 20
20.68538306
 30
0.0
 11
-422.37900034
 21
20.68538306
 31
0.0
  0
INSERT
  5
36B
100
AcDbEntity
  8
0
  6
CONTINUOUS
 62
       9
100
AcDbBlockReference
  2
_OPEN30
 10
-422.37900034
 20
20.68538306
 30
0.0
 41
12.00001115
 42
11.9999571
 50
360.0
  0
LINE
  5
36C
100
AcDbEntity
  8
0
  6
CONTINUOUS
 62
       9
100
AcDbLine
 10
-342.37900034
 20
20.68538306
 30
0.0
 11
-362.37900034
 21
20.68538306
 31
0.0
  0
INSERT
  5
36D
100
AcDbEntity
  8
0
  6
CONTINUOUS
 62
       9
100
AcDbBlockReference
  2
_OPEN30
 10
-362.37900034
 20
20.68538306
 30
0.0
 41
12.00001115
 42
11.9999571
 50
180.0
  0
TEXT
  5
36E
100
AcDbEntity
  8
0
 62
       7
100
AcDbText
 10
-476.37012034
 20
24.68538306
 30
0.0
 40
16.0
  1
φ60
 41
0.8
 72
       5
 11
-437.97012034
 21
24.68538306
 31
0.0
100
AcDbText
  0
ENDBLK
  5
36F
100
AcDbEntity
  8
0
100
AcDbBlockEnd
  0
BLOCK
  5
370
100
AcDbEntity
  8
0
100
AcDbBlockBegin
  2
DA_IMAGEDIMGROUP_5
 70
       0
 10
0.0
 20
0.0
 30
0.0
  3
DA_IMAGEDIMGROUP_5
  1

  0
LINE
  5
371
100
AcDbEntity
  8
0
  6
CONTINUOUS
 62
       9
100
AcDbLine
 10
-392.37900034
 20
420.40025857
 30
0.0
 11
-317.37900034
 21
420.40025857
 31
0.0
  0
INSERT
  5
372
100
AcDbEntity
  8
0
  6
CONTINUOUS
 62
       9
100
AcDbBlockReference
  2
_OPEN30
 10
-392.37900034
 20
420.40025857
 30
0.0
 41
12.00001115
 42
11.9999571
 50
180.0
  0
INSERT
  5
373
100
AcDbEntity
  8
0
  6
CONTINUOUS
 62
       9
100
AcDbBlockReference
  2
_OPEN30
 10
-317.37900034
 20
420.40025857
 30
0.0
 41
12.00001115
 42
11.9999571
 50
360.0
  0
LINE
  5
374
100
AcDbEntity
  8
0
  6
CONTINUOUS
 62
       9
100
AcDbLine
 10
-392.37900034
 20
341.70939601
 30
0.0
 11
-392.37900034
 21
424.40025857
 31
0.0
  0
LINE
  5
375
100
AcDbEntity
  8
0
  6
CONTINUOUS
 62
       9
100
AcDbLine
 10
-317.37900034
 20
61.28773594
 30
0.0
 11
-317.37900034
 21
424.40025857
 31
0.0
  0
TEXT
  5
376
100
AcDbEntity
  8
0
 62
       7
100
AcDbText
 10
-367.67900034
 20
424.40025857
 30
0.0
 40
16.0
  1
75
 72
       5
 11
-342.07900034
 21
424.40025857
 31
0.0
100
AcDbText
  0
ENDBLK
  5
377
100
AcDbEntity
  8
0
100
AcDbBlockEnd
  0
BLOCK
  5
378
100
AcDbEntity
  8
0
100
AcDbBlockBegin
  2
DA_IMAGEDIMGROUP_6
 70
       0
 10
0.0
 20
0.0
 30
0.0
  3
DA_IMAGEDIMGROUP_6
  1

  0
LINE
  5
379
100
AcDbEntity
  8
0
  6
CONTINUOUS
 62
       9
100
AcDbLine
 10
-392.37900034
 20
460.40025857
 30
0.0
 11
-277.36784002
 21
460.40025857
 31
0.0
  0
INSERT
  5
37A
100
AcDbEntity
  8
0
  6
CONTINUOUS
 62
       9
100
AcDbBlockReference
  2
_OPEN30
 10
-392.37900034
 20
460.40025857
 30
0.0
 41
12.00001115
 42
11.9999571
 50
180.0
  0
INSERT
  5
37B
100
AcDbEntity
  8
0
  6
CONTINUOUS
 62
       9
100
AcDbBlockReference
  2
_OPEN30
 10
-277.36784002
 20
460.40025857
 30
0.0
 41
12.00001115
 42
11.9999571
 50
360.0
  0
LINE
  5
37C
100
AcDbEntity
  8
0
  6
CONTINUOUS
 62
       9
100
AcDbLine
 10
-392.37900034
 20
341.70939601
 30
0.0
 11
-392.37900034
 21
464.40025857
 31
0.0
  0
LINE
  5
37D
100
AcDbEntity
  8
0
  6
CONTINUOUS
 62
       9
100
AcDbLine
 10
-277.36784002
 20
153.02088309
 30
0.0
 11
-277.36784002
 21
464.40025857
 31
0.0
  0
TEXT
  5
37E
100
AcDbEntity
  8
0
 62
       7
100
AcDbText
 10
-366.87342018
 20
464.40025857
 30
0.0
 40
16.0
  1
(115)
 72
       5
 11
-302.87342018
 21
464.40025857
 31
0.0
100
AcDbText
  0
ENDBLK
  5
37F
100
AcDbEntity
  8
0
100
AcDbBlockEnd
  0
BLOCK
  5
380
100
AcDbEntity
  8
0
100
AcDbBlockBegin
  2
DA_IMAGEDIMGROUP_7
 70
       0
 10
0.0
 20
0.0
 30
0.0
  3
DA_IMAGEDIMGROUP_7
  1

  0
LINE
  5
381
100
AcDbEntity
  8
0
  6
CONTINUOUS
 62
       9
100
AcDbLine
 10
-179.54503988
 20
-321.32994338
 30
0.0
 11
-179.54503988
 21
-4.59974143
 31
0.0
  0
INSERT
  5
382
100
AcDbEntity
  8
0
  6
CONTINUOUS
 62
       9
100
AcDbBlockReference
  2
_OPEN30
 10
-179.54503988
 20
-321.32994338
 30
0.0
 41
12.00001115
 42
11.9999571
 50
270.0
  0
INSERT
  5
383
100
AcDbEntity
  8
0
  6
CONTINUOUS
 62
       9
100
AcDbBlockReference
  2
_OPEN30
 10
-179.54503988
 20
-4.59974143
 30
0.0
 41
12.00001115
 42
11.9999571
 50
90.0
  0
LINE
  5
384
100
AcDbEntity
  8
0
  6
CONTINUOUS
 62
       9
100
AcDbLine
 10
-317.32680422
 20
-321.32994338
 30
0.0
 11
-175.54503988
 21
-321.32994338
 31
0.0
  0
LINE
  5
385
100
AcDbEntity
  8
0
  6
CONTINUOUS
 62
       9
100
AcDbLine
 10
-209.55932203
 20
-4.59974143
 30
0.0
 11
-175.54503988
 21
-4.59974143
 31
0.0
  0
TEXT
  5
386
100
AcDbEntity
  8
0
 62
       7
100
AcDbText
 10
-183.54503988
 20
-194.96484241
 30
0.0
 40
16.0
  1
(430)
 50
90.0
 72
       5
 11
-183.54503988
 21
-130.96484241
 31
0.0
100
AcDbText
  0
ENDBLK
  5
387
100
AcDbEntity
  8
0
100
AcDbBlockEnd
  0
BLOCK
  5
388
100
AcDbEntity
  8
0
100
AcDbBlockBegin
  2
DA_IMAGEDIMGROUP_8
 70
       0
 10
0.0
 20
0.0
 30
0.0
  3
DA_IMAGEDIMGROUP_8
  1

  0
LINE
  5
389
100
AcDbEntity
  8
0
  6
CONTINUOUS
 62
       9
100
AcDbLine
 10
238.16086774
 20
-298.38410999
 30
0.0
 11
267.1237857
 21
-278.73342595
 31
0.0
  0
LINE
  5
38A
100
AcDbEntity
  8
0
  6
CONTINUOUS
 62
       9
100
AcDbLine
 10
339.50528078
 20
-261.10556983
 30
0.0
 11
293.10528078
 21
-261.10556983
 31
0.0
  0
LINE
  5
38B
100
AcDbEntity
  8
0
  6
CONTINUOUS
 62
       9
100
AcDbLine
 10
293.10528078
 20
-261.10556983
 30
0.0
 11
267.1237857
 21
-278.73342595
 31
0.0
  0
INSERT
  5
38C
100
AcDbEntity
  8
0
  6
CONTINUOUS
 62
       9
100
AcDbBlockReference
  2
_OPEN30
 10
267.1237857
 20
-278.73342595
 30
0.0
 41
12.00001115
 42
11.9999571
 50
214.15600383
  0
LINE
  5
38D
100
AcDbEntity
  8
0
  6
CONTINUOUS
 62
       9
100
AcDbLine
 10
221.6106289
 20
-309.61307229
 30
0.0
 11
238.16086774
 21
-298.38410999
 31
0.0
  0
INSERT
  5
38E
100
AcDbEntity
  8
0
  6
CONTINUOUS
 62
       9
100
AcDbBlockReference
  2
_OPEN30
 10
238.16086774
 20
-298.38410999
 30
0.0
 41
12.00001115
 42
11.9999571
 50
34.15600383
  0
TEXT
  5
38F
100
AcDbEntity
  8
0
 62
       7
100
AcDbText
 10
297.10528078
 20
-257.10556983
 30
0.0
 40
16.0
  1
φ35
 41
0.8
 72
       5
 11
335.50528078
 21
-257.10556983
 31
0.0
100
AcDbText
  0
ENDBLK
  5
390
100
AcDbEntity
  8
0
100
AcDbBlockEnd
  0
BLOCK
  5
391
100
AcDbEntity
  8
0
100
AcDbBlockBegin
  2
DA_IMAGEDIMGROUP_9
 70
       0
 10
0.0
 20
0.0
 30
0.0
  3
DA_IMAGEDIMGROUP_9
  1

  0
LINE
  5
392
100
AcDbEntity
  8
0
  6
CONTINUOUS
 62
       9
100
AcDbLine
 10
143.16297427
 20
199.8277552
 30
0.0
 11
252.64232672
 21
199.8277552
 31
0.0
  0
INSERT
  5
393
100
AcDbEntity
  8
0
  6
CONTINUOUS
 62
       9
100
AcDbBlockReference
  2
_OPEN30
 10
143.16297427
 20
199.8277552
 30
0.0
 41
12.00001115
 42
11.9999571
 50
180.0
  0
INSERT
  5
394
100
AcDbEntity
  8
0
  6
CONTINUOUS
 62
       9
100
AcDbBlockReference
  2
_OPEN30
 10
252.64232672
 20
199.8277552
 30
0.0
 41
12.00001115
 42
11.9999571
 50
360.0
  0
LINE
  5
395
100
AcDbEntity
  8
0
  6
CONTINUOUS
 62
       9
100
AcDbLine
 10
143.16297427
 20
70.30119984
 30
0.0
 11
143.16297427
 21
203.8277552
 31
0.0
  0
TEXT
  5
396
100
AcDbEntity
  8
0
 62
       7
100
AcDbText
 10
165.9026505
 20
203.8277552
 30
0.0
 40
16.0
  1
(110)
 72
       5
 11
229.9026505
 21
203.8277552
 31
0.0
100
AcDbText
  0
ENDBLK
  5
397
100
AcDbEntity
  8
0
100
AcDbBlockEnd
  0
BLOCK
  5
398
100
AcDbEntity
  8
0
100
AcDbBlockBegin
  2
DA_IMAGEDIMGROUP_10
 70
       0
 10
0.0
 20
0.0
 30
0.0
  3
DA_IMAGEDIMGROUP_10
  1

  0
LINE
  5
399
100
AcDbEntity
  8
0
  6
CONTINUOUS
 62
       9
100
AcDbLine
 10
-402.37900034
 20
314.40025857
 30
0.0
 11
-402.37900034
 21
384.40025857
 31
0.0
  0
LINE
  5
39A
100
AcDbEntity
  8
0
  6
CONTINUOUS
 62
       9
100
AcDbLine
 10
-382.37900034
 20
314.40025857
 30
0.0
 11
-382.37900034
 21
384.40025857
 31
0.0
  0
LINE
  5
39B
100
AcDbEntity
  8
0
  6
CONTINUOUS
 62
       9
100
AcDbLine
 10
-402.37900034
 20
380.40025857
 30
0.0
 11
-382.37900034
 21
380.40025857
 31
0.0
  0
LINE
  5
39C
100
AcDbEntity
  8
0
  6
CONTINUOUS
 62
       9
100
AcDbLine
 10
-324.38788034
 20
380.40025857
 30
0.0
 11
-382.37900034
 21
380.40025857
 31
0.0
  0
INSERT
  5
39D
100
AcDbEntity
  8
0
  6
CONTINUOUS
 62
       9
100
AcDbBlockReference
  2
_OPEN30
 10
-382.37900034
 20
380.40025857
 30
0.0
 41
12.00001115
 42
11.9999571
 50
180.0
  0
LINE
  5
39E
100
AcDbEntity
  8
0
  6
CONTINUOUS
 62
       9
100
AcDbLine
 10
-422.37900034
 20
380.40025857
 30
0.0
 11
-402.37900034
 21
380.40025857
 31
0.0
  0
INSERT
  5
39F
100
AcDbEntity
  8
0
  6
CONTINUOUS
 62
       9
100
AcDbBlockReference
  2
_OPEN30
 10
-402.37900034
 20
380.40025857
 30
0.0
 41
12.00001115
 42
11.9999571
 50
360.0
  0
TEXT
  5
3A0
100
AcDbEntity
  8
0
 62
       7
100
AcDbText
 10
-366.78788034
 20
384.40025857
 30
0.0
 40
16.0
  1
φ20
 41
0.8
 72
       5
 11
-328.38788034
 21
384.40025857
 31
0.0
100
AcDbText
  0
ENDBLK
  5
3A1
100
AcDbEntity
  8
0
100
AcDbBlockEnd
  0
BLOCK
  5
3A2
100
AcDbEntity
  8
0
100
AcDbBlockBegin
  2
GROUP_38
 70
       0
 10
0.0
 20
0.0
 30
0.0
  3
GROUP_38
  1

  0
LINE
  5
3A3
100
AcDbEntity
  8
0
  6
CONTINUOUS
 62
       9
100
AcDbLine
 10
-334.98540368
 20
-343.07113298
 30
0.0
 11
-334.98540368
 21
-390.50228417
 31
0.0
  0
INSERT
  5
3A4
100
AcDbEntity
  8
0
  6
CONTINUOUS
 62
       9
100
AcDbBlockReference
  2
_OPEN30
 10
-334.98540368
 20
-343.07113298
 30
0.0
 41
12.00001115
 42
11.9999571
 50
90.0
  0
LINE
  5
3A5
100
AcDbEntity
  8
0
  6
CONTINUOUS
 62
       9
100
AcDbLine
 10
-334.98540368
 20
-390.50228417
 30
0.0
 11
-316.80047577
 21
-390.50228417
 31
0.0
  0
LINE
  5
3A6
100
AcDbEntity
  8
0
  6
CONTINUOUS
 62
       9
100
AcDbLine
 10
-316.80047577
 20
-390.50228417
 30
0.0
 11
-240.00047577
 21
-390.50228417
 31
0.0
  0
TEXT
  5
3A7
100
AcDbEntity
  8
0
 62
       4
100
AcDbText
 10
-316.80047577
 20
-390.50228417
 30
0.0
 40
16.0
  1
給水G1/2
 41
0.6571
 72
       5
 11
-240.00047577
 21
-390.50228417
 31
0.0
100
AcDbText
  0
ENDBLK
  5
3A8
100
AcDbEntity
  8
0
100
AcDbBlockEnd
  0
BLOCK
  5
3A9
100
AcDbEntity
  8
0
100
AcDbBlockBegin
  2
GROUP_39
 70
       0
 10
0.0
 20
0.0
 30
0.0
  3
GROUP_39
  1

  0
LINE
  5
3AA
100
AcDbEntity
  8
0
  6
CONTINUOUS
 62
       9
100
AcDbLine
 10
-469.06284187
 20
-343.07113298
 30
0.0
 11
-469.06284187
 21
-390.50228417
 31
0.0
  0
INSERT
  5
3AB
100
AcDbEntity
  8
0
  6
CONTINUOUS
 62
       9
100
AcDbBlockReference
  2
_OPEN30
 10
-469.06284187
 20
-343.07113298
 30
0.0
 41
12.00001115
 42
11.9999571
 50
90.0
  0
LINE
  5
3AC
100
AcDbEntity
  8
0
  6
CONTINUOUS
 62
       9
100
AcDbLine
 10
-469.06284187
 20
-390.50228417
 30
0.0
 11
-487.24776979
 21
-390.50228417
 31
0.0
  0
LINE
  5
3AD
100
AcDbEntity
  8
0
  6
CONTINUOUS
 62
       9
100
AcDbLine
 10
-487.24776979
 20
-390.50228417
 30
0.0
 11
-564.04776979
 21
-390.50228417
 31
0.0
  0
TEXT
  5
3AE
100
AcDbEntity
  8
0
 62
       4
100
AcDbText
 10
-564.04776979
 20
-390.50228417
 30
0.0
 40
16.0
  1
給湯G1/2
 41
0.6571
 72
       5
 11
-487.24776979
 21
-390.50228417
 31
0.0
100
AcDbText
  0
ENDBLK
  5
3AF
100
AcDbEntity
  8
0
100
AcDbBlockEnd
  0
ENDSEC
  0
SECTION
  2
ENTITIES
  0
TEXT
  5
3B0
100
AcDbEntity
  8
LAYER0240
 62
       4
100
AcDbText
 10
594.38398625
 20
-454.0
 30
0.0
 40
16.0
  1
1穴型 シングルレバー洗面用混合栓
 41
0.4957
 72
       5
 11
747.98398625
 21
-454.0
 31
0.0
100
AcDbText
  0
TEXT
  5
3B1
100
AcDbEntity
  8
LAYER0240
 62
       4
100
AcDbText
 10
594.38398625
 20
-478.0
 30
0.0
 40
16.0
  1
DB-0357
 72
       5
 11
683.98398625
 21
-478.0
 31
0.0
100
AcDbText
  0
TEXT
  5
3B2
100
AcDbEntity
  8
LAYER0240
 62
       4
100
AcDbText
 10
488.86539089
 20
-550.0
 30
0.0
 40
16.0
  1
07.01.19
 72
       5
 11
591.26539089
 21
-550.0
 31
0.0
100
AcDbText
  0
TEXT
  5
3B3
100
AcDbEntity
  8
LAYER0240
 62
       4
100
AcDbText
 10
544.02609923
 20
-502.0
 30
0.0
 40
16.0
  1
1/4
 72
       5
 11
582.42609923
 21
-502.0
 31
0.0
100
AcDbText
  0
TEXT
  5
3B4
100
AcDbEntity
  8
LAYER0240
 62
       4
100
AcDbText
 10
761.58398625
 20
-538.0
 30
0.0
 40
16.0
  1
丸茂
 41
0.6667
 72
       5
 11
787.18398625
 21
-538.0
 31
0.0
100
AcDbText
  0
TEXT
  5
3B5
100
AcDbEntity
  8
LAYER0240
 62
       4
100
AcDbText
 10
-435.88393436
 20
-345.97167462
 30
0.0
 40
16.0
  1
接続ソケット
 41
0.6667
 72
       5
 11
-359.08393436
 21
-345.97167462
 31
0.0
100
AcDbText
  0
TEXT
  5
3B6
100
AcDbEntity
  8
LAYER0240
 62
       4
100
AcDbText
 10
-435.88393436
 20
-365.58396336
 30
0.0
 40
16.0
  1
(逆止弁付)
 41
0.75
 72
       5
 11
-359.08393436
 21
-365.58396336
 31
0.0
100
AcDbText
  0
TEXT
  5
3B7
100
AcDbEntity
  8
LAYER0240
 62
       4
100
AcDbText
 10
86.06598059
 20
-526.0
 30
0.0
 40
16.0
  1
1穴型 シングルレバーキッチン用混合栓
 41
0.4923
 72
       5
 11
230.06598059
 21
-526.0
 31
0.0
100
AcDbText
  0
TEXT
  5
3B8
100
AcDbEntity
  8
LAYER0240
 62
       4
100
AcDbText
 10
364.16445258
 20
-526.0
 30
0.0
 40
16.0
  1
33.800.888.00
 41
0.55
 72
       5
 11
478.56445258
 21
-526.0
 31
0.0
100
AcDbText
  0
TEXT
  5
3B9
100
AcDbEntity
  8
LAYER0240
 62
       4
100
AcDbText
 10
327.95460538
 20
-526.0
 30
0.0
 40
16.0
  1
1
 72
       5
 11
340.75460538
 21
-526.0
 31
0.0
100
AcDbText
  0
TEXT
  5
3BA
100
AcDbEntity
  8
LAYER0240
 62
       4
100
AcDbText
 10
-271.81903897
 20
150.62200538
 30
0.0
 40
16.0
  1
吐水
 41
0.6667
 72
       5
 11
-246.21903897
 21
150.62200538
 31
0.0
100
AcDbText
  0
TEXT
  5
3BB
100
AcDbEntity
  8
LAYER0240
 62
       4
100
AcDbText
 10
-346.5200148
 20
180.88082428
 30
0.0
 40
16.0
  1
止水
 41
0.6667
 72
       5
 11
-320.9200148
 21
180.88082428
 31
0.0
100
AcDbText
  0
TEXT
  5
3BC
100
AcDbEntity
  8
LAYER0240
 62
       4
100
AcDbText
 10
594.38398625
 20
-430.0
 30
0.0
 40
16.0
  1
33.800.888.00
 72
       5
 11
760.78398625
 21
-430.0
 31
0.0
100
AcDbText
  0
TEXT
  5
3BD
100
AcDbEntity
  8
LAYER0240
 62
       4
100
AcDbText
 10
115.72404373
 20
49.36389905
 30
0.0
 40
16.0
  1
湯
 41
0.8
 72
       5
 11
128.52404373
 21
49.36389905
 31
0.0
100
AcDbText
  0
TEXT
  5
3BE
100
AcDbEntity
  8
LAYER0240
 62
       4
100
AcDbText
 10
219.13117636
 20
165.60479273
 30
0.0
 40
16.0
  1
水
 41
0.8
 72
       5
 11
231.93117636
 21
165.60479273
 31
0.0
100
AcDbText
  0
LINE
  5
3BF
100
AcDbEntity
  8
0
  6
CONTINUOUS
 62
       9
100
AcDbLine
 10
-458.96777575
 20
-291.85158284
 30
0.0
 11
-459.5600987
 21
-291.85158284
 31
0.0
  0
LINE
  5
3C0
100
AcDbEntity
  8
0
  6
CONTINUOUS
 62
       9
100
AcDbLine
 10
-459.5600987
 20
-286.42944567
 30
0.0
 11
-459.5600987
 21
-291.85158284
 31
0.0
  0
LINE
  5
3C1
100
AcDbEntity
  8
0
  6
CONTINUOUS
 62
       9
100
AcDbLine
 10
-459.5600987
 20
-291.85158284
 30
0.0
 11
-458.96777575
 21
-292.87933883
 31
0.0
  0
LINE
  5
3C2
100
AcDbEntity
  8
0
  6
CONTINUOUS
 62
       9
100
AcDbLine
 10
-478.56558969
 20
-291.85158284
 30
0.0
 11
-479.15791264
 21
-291.85158284
 31
0.0
  0
LINE
  5
3C3
100
AcDbEntity
  8
0
  6
CONTINUOUS
 62
       9
100
AcDbLine
 10
-478.56558969
 20
-291.85158284
 30
0.0
 11
-478.56558969
 21
-286.42944567
 31
0.0
  0
LINE
  5
3C4
100
AcDbEntity
  8
0
  6
CONTINUOUS
 62
       9
100
AcDbLine
 10
-479.15791264
 20
-292.87933883
 30
0.0
 11
-478.56558969
 21
-291.85158284
 31
0.0
  0
LINE
  5
3C5
100
AcDbEntity
  8
0
  6
CONTINUOUS
 62
       9
100
AcDbLine
 10
-478.56558969
 20
-291.85158284
 30
0.0
 11
-459.5600987
 21
-291.85158284
 31
0.0
  0
LINE
  5
3C6
100
AcDbEntity
  8
0
  6
CONTINUOUS
 62
       9
100
AcDbLine
 10
-345.08046981
 20
-291.85158284
 30
0.0
 11
-344.48814686
 21
-291.85158284
 31
0.0
  0
LINE
  5
3C7
100
AcDbEntity
  8
0
  6
CONTINUOUS
 62
       9
100
AcDbLine
 10
-344.48814686
 20
-286.42944567
 30
0.0
 11
-344.48814686
 21
-291.85158284
 31
0.0
  0
LINE
  5
3C8
100
AcDbEntity
  8
0
  6
CONTINUOUS
 62
       9
100
AcDbLine
 10
-344.48814686
 20
-291.85158284
 30
0.0
 11
-345.08046981
 21
-292.87933883
 31
0.0
  0
LINE
  5
3C9
100
AcDbEntity
  8
0
  6
CONTINUOUS
 62
       9
100
AcDbLine
 10
-325.48265586
 20
-291.85158284
 30
0.0
 11
-324.89033291
 21
-291.85158284
 31
0.0
  0
LINE
  5
3CA
100
AcDbEntity
  8
0
  6
CONTINUOUS
 62
       9
100
AcDbLine
 10
-325.48265586
 20
-291.85158284
 30
0.0
 11
-325.48265586
 21
-286.42944567
 31
0.0
  0
LINE
  5
3CB
100
AcDbEntity
  8
0
  6
CONTINUOUS
 62
       9
100
AcDbLine
 10
-324.89033291
 20
-292.87933883
 30
0.0
 11
-325.48265586
 21
-291.85158284
 31
0.0
  0
LINE
  5
3CC
100
AcDbEntity
  8
0
  6
CONTINUOUS
 62
       9
100
AcDbLine
 10
-325.48265586
 20
-291.85158284
 30
0.0
 11
-344.48814686
 21
-291.85158284
 31
0.0
  0
ARC
  5
3CD
100
AcDbEntity
  8
0
  6
CONTINUOUS
 62
       9
100
AcDbCircle
 10
-332.53910396
 20
-257.49065471
 30
0.0
 40
3.2617297
100
AcDbArc
 50
41.40955714
 51
138.59044286
  0
ARC
  5
3CE
100
AcDbEntity
  8
0
  6
CONTINUOUS
 62
       9
100
AcDbCircle
 10
-337.43170341
 20
-253.17579743
 30
0.0
 40
3.2617297
100
AcDbArc
 50
221.40955714
 51
318.59044286
  0
ARC
  5
3CF
100
AcDbEntity
  8
0
  6
CONTINUOUS
 62
       9
100
AcDbCircle
 10
-337.43170341
 20
-257.49065471
 30
0.0
 40
3.2617297
100
AcDbArc
 50
41.40955714
 51
138.59044286
  0
ARC
  5
3D0
100
AcDbEntity
  8
0
  6
CONTINUOUS
 62
       9
100
AcDbCircle
 10
-471.5091416
 20
-253.17579743
 30
0.0
 40
3.2617297
100
AcDbArc
 50
221.40955714
 51
318.59044286
  0
ARC
  5
3D1
100
AcDbEntity
  8
0
  6
CONTINUOUS
 62
       9
100
AcDbCircle
 10
-471.5091416
 20
-257.49065471
 30
0.0
 40
3.2617297
100
AcDbArc
 50
41.40955714
 51
138.59044286
  0
ARC
  5
3D2
100
AcDbEntity
  8
0
  6
CONTINUOUS
 62
       9
100
AcDbCircle
 10
-466.61654215
 20
-257.49065471
 30
0.0
 40
3.2617297
100
AcDbArc
 50
41.40955714
 51
138.59044286
  0
ARC
  5
3D3
100
AcDbEntity
  8
0
  6
CONTINUOUS
 62
       9
100
AcDbCircle
 10
253.63363507
 20
-127.3504071
 30
0.0
 40
3.36474827
100
AcDbArc
 50
221.40955714
 51
318.59044286
  0
ARC
  5
3D4
100
AcDbEntity
  8
0
  6
CONTINUOUS
 62
       9
100
AcDbCircle
 10
258.68076251
 20
-131.80154495
 30
0.0
 40
3.36474827
100
AcDbArc
 50
41.40955714
 51
138.59044286
  0
ARC
  5
3D5
100
AcDbEntity
  8
0
  6
CONTINUOUS
 62
       9
100
AcDbCircle
 10
258.68076251
 20
-127.3504071
 30
0.0
 40
3.36474827
100
AcDbArc
 50
221.40955714
 51
318.59044286
  0
ARC
  5
3D6
100
AcDbEntity
  8
0
  6
CONTINUOUS
 62
       9
100
AcDbCircle
 10
241.19552089
 20
-123.98484641
 30
0.0
 40
3.36523726
100
AcDbArc
 50
221.40955714
 51
318.59044286
  0
ARC
  5
3D7
100
AcDbEntity
  8
0
  6
CONTINUOUS
 62
       9
100
AcDbCircle
 10
246.24338182
 20
-128.43663113
 30
0.0
 40
3.36523726
100
AcDbArc
 50
41.40955714
 51
138.59044286
  0
ARC
  5
3D8
100
AcDbEntity
  8
0
  6
CONTINUOUS
 62
       9
100
AcDbCircle
 10
246.24338182
 20
-123.98484641
 30
0.0
 40
3.36523726
100
AcDbArc
 50
221.40955714
 51
318.59044286
  0
ARC
  5
3D9
100
AcDbEntity
  8
0
  6
CONTINUOUS
 62
       9
100
AcDbCircle
 10
-397.96707481
 20
-131.80154495
 30
0.0
 40
3.36474827
100
AcDbArc
 50
41.40955714
 51
138.59044286
  0
ARC
  5
3DA
100
AcDbEntity
  8
0
  6
CONTINUOUS
 62
       9
100
AcDbCircle
 10
-397.96707481
 20
-127.3504071
 30
0.0
 40
3.36474827
100
AcDbArc
 50
221.40955714
 51
318.59044286
  0
ARC
  5
3DB
100
AcDbEntity
  8
0
  6
CONTINUOUS
 62
       9
100
AcDbCircle
 10
-403.01420226
 20
-127.3504071
 30
0.0
 40
3.36474827
100
AcDbArc
 50
221.40955714
 51
318.59044286
  0
ARC
  5
3DC
100
AcDbEntity
  8
0
  6
CONTINUOUS
 62
       9
100
AcDbCircle
 10
-406.98016914
 20
-127.3504071
 30
0.0
 40
3.36474827
100
AcDbArc
 50
221.40955714
 51
306.11024342
  0
LINE
  5
3DD
100
AcDbEntity
  8
0
  6
CENTER
 62
       9
100
AcDbLine
 10
-469.06284187
 20
-167.78692907
 30
0.0
 11
-469.06284187
 21
-337.13372789
 31
0.0
  0
LINE
  5
3DE
100
AcDbEntity
  8
0
  6
CENTER
 62
       9
100
AcDbLine
 10
-334.98540368
 20
-167.78692907
 30
0.0
 11
-334.98540368
 21
-337.13372789
 31
0.0
  0
LINE
  5
3DF
100
AcDbEntity
  8
0
  6
CENTER
 62
       9
100
AcDbLine
 10
-400.49063854
 20
-225.15663835
 30
0.0
 11
-334.98540368
 21
-167.78692907
 31
0.0
  0
LINE
  5
3E0
100
AcDbEntity
  8
0
  6
CENTER
 62
       9
100
AcDbLine
 10
-404.45660542
 20
-225.15663835
 30
0.0
 11
-469.06284187
 21
-167.78692907
 31
0.0
  0
LINE
  5
3E1
100
AcDbEntity
  8
0
  6
CENTER
 62
       9
100
AcDbLine
 10
252.64232672
 20
213.63516345
 30
0.0
 11
252.64232672
 21
-321.32994338
 31
0.0
  0
LINE
  5
3E2
100
AcDbEntity
  8
0
  6
CENTER
 62
       9
100
AcDbLine
 10
52.34781441
 20
167.2786999
 30
0.0
 11
53.55430782
 21
200.55327478
 31
0.0
  0
LINE
  5
3E3
100
AcDbEntity
  8
0
  6
CENTER
 62
       9
100
AcDbLine
 10
-392.37900034
 20
337.70939601
 30
0.0
 11
-392.37900034
 21
-63.17815883
 31
0.0
  0
LINE
  5
3E4
100
AcDbEntity
  8
0
  6
CENTER
 62
       9
100
AcDbLine
 10
-294.69942752
 20
57.28847226
 30
0.0
 11
-397.62397654
 21
57.28847226
 31
0.0
  0
LINE
  5
3E5
100
AcDbEntity
  8
0
  6
CENTER
 62
       9
100
AcDbLine
 10
243.71945135
 20
-4.59974143
 30
0.0
 11
243.71945135
 21
-145.5321399
 31
0.0
  0
LINE
  5
3E6
100
AcDbEntity
  8
0
  6
CENTER
 62
       9
100
AcDbLine
 10
256.15719879
 20
-4.59974143
 30
0.0
 11
256.15719879
 21
-150.6399783
 31
0.0
  0
LINE
  5
3E7
100
AcDbEntity
  8
0
  6
CENTER
 62
       9
100
AcDbLine
 10
-400.49063854
 20
-4.59974143
 30
0.0
 11
-400.49063854
 21
-225.15663835
 31
0.0
  0
LINE
  5
3E8
100
AcDbEntity
  8
0
  6
CENTER
 62
       9
100
AcDbLine
 10
-404.45660542
 20
-4.59974143
 30
0.0
 11
-404.45660542
 21
-225.15663835
 31
0.0
  0
LINE
  5
3E9
100
AcDbEntity
  8
0
  6
CENTER
 62
       9
100
AcDbLine
 10
135.49992292
 20
57.28847226
 30
0.0
 11
291.22053168
 21
57.28847226
 31
0.0
  0
LINE
  5
3EA
100
AcDbEntity
  8
0
  6
CENTER
 62
       9
100
AcDbLine
 10
217.12186427
 20
-288.55876797
 30
0.0
 11
290.3035576
 21
-288.55876797
 31
0.0
  0
ARC
  5
3EB
100
AcDbEntity
  8
0
  6
CONTINUOUS
 62
       9
100
AcDbCircle
 10
-351.16691145
 20
88.24181287
 30
0.0
 40
106.20382559
100
AcDbArc
 50
49.41831393
 51
68.53801722
  0
INSERT
  5
3EC
100
AcDbEntity
  8
0
  6
CONTINUOUS
 62
       9
100
AcDbBlockReference
  2
_OPEN30
 10
-282.07797837
 20
168.90141796
 30
0.0
 41
12.00001115
 42
11.9999571
 50
322.65524905
  0
INSERT
  5
3ED
100
AcDbEntity
  8
0
  6
CONTINUOUS
 62
       9
100
AcDbBlockReference
  2
_OPEN30
 10
-312.30865321
 20
187.08152318
 30
0.0
 41
12.00001115
 42
11.9999571
 50
155.3010821
  0
ARC
  5
3EE
100
AcDbEntity
  8
0
  6
CONTINUOUS
 62
       9
100
AcDbCircle
 10
252.64232672
 20
57.28847226
 30
0.0
 40
100.80331584
100
AcDbArc
 50
102.14861333
 51
168.0530452
  0
INSERT
  5
3EF
100
AcDbEntity
  8
0
  6
CONTINUOUS
 62
       9
100
AcDbBlockReference
  2
_OPEN30
 10
231.42846044
 20
155.83430099
 30
0.0
 41
12.00001115
 42
11.9999571
 50
15.55896635
  0
INSERT
  5
3F0
100
AcDbEntity
  8
0
  6
CONTINUOUS
 62
       9
100
AcDbBlockReference
  2
_OPEN30
 10
154.02244407
 20
78.15536545
 30
0.0
 41
12.00001115
 42
11.9999571
 50
254.64269217
  0
LINE
  5
3F1
100
AcDbEntity
  8
0
  6
CONTINUOUS
 62
       3
100
AcDbLine
 10
-474.63386251
 20
-285.87234547
 30
0.0
 11
-477.07678285
 21
-285.87234547
 31
0.0
  0
LINE
  5
3F2
100
AcDbEntity
  8
0
  6
CONTINUOUS
 62
       3
100
AcDbLine
 10
-474.63386251
 20
-273.40639369
 30
0.0
 11
-474.63386251
 21
-285.87234547
 31
0.0
  0
LINE
  5
3F3
100
AcDbEntity
  8
0
  6
CONTINUOUS
 62
       3
100
AcDbLine
 10
-477.07678285
 20
-273.40639369
 30
0.0
 11
-474.63386251
 21
-273.40639369
 31
0.0
  0
LINE
  5
3F4
100
AcDbEntity
  8
0
  6
CONTINUOUS
 62
       3
100
AcDbLine
 10
-477.07678285
 20
-273.40639369
 30
0.0
 11
-477.07678285
 21
-285.87234547
 31
0.0
  0
LINE
  5
3F5
100
AcDbEntity
  8
0
  6
CONTINUOUS
 62
       3
100
AcDbLine
 10
-477.97006974
 20
-265.17633469
 30
0.0
 11
-469.06284187
 21
-265.17633469
 31
0.0
  0
LINE
  5
3F6
100
AcDbEntity
  8
0
  6
CONTINUOUS
 62
       3
100
AcDbLine
 10
-481.53519693
 20
-286.55591298
 30
0.0
 11
-469.06284187
 21
-286.55591298
 31
0.0
  0
LINE
  5
3F7
100
AcDbEntity
  8
0
  6
CONTINUOUS
 62
       3
100
AcDbLine
 10
-482.72144133
 20
-285.87234547
 30
0.0
 11
-481.53519693
 21
-286.55591298
 31
0.0
  0
LINE
  5
3F8
100
AcDbEntity
  8
0
  6
CONTINUOUS
 62
       3
100
AcDbLine
 10
-477.97006974
 20
-265.17633469
 30
0.0
 11
-482.07469041
 21
-272.28738384
 31
0.0
  0
LINE
  5
3F9
100
AcDbEntity
  8
0
  6
CONTINUOUS
 62
       3
100
AcDbLine
 10
-482.72144133
 20
-273.40639369
 30
0.0
 11
-482.72144133
 21
-285.87234547
 31
0.0
  0
LINE
  5
3FA
100
AcDbEntity
  8
0
  6
CONTINUOUS
 62
       3
100
AcDbLine
 10
-463.06599777
 20
-265.17633469
 30
0.0
 11
-469.06284187
 21
-265.17633469
 31
0.0
  0
LINE
  5
3FB
100
AcDbEntity
  8
0
  6
CONTINUOUS
 62
       3
100
AcDbLine
 10
-458.67001345
 20
-286.55591298
 30
0.0
 11
-469.06284187
 21
-286.55591298
 31
0.0
  0
LINE
  5
3FC
100
AcDbEntity
  8
0
  6
CONTINUOUS
 62
       3
100
AcDbLine
 10
-461.04890554
 20
-285.87234547
 30
0.0
 11
-463.49182588
 21
-285.87234547
 31
0.0
  0
LINE
  5
3FD
100
AcDbEntity
  8
0
  6
CONTINUOUS
 62
       3
100
AcDbLine
 10
-463.49182588
 20
-285.87234547
 30
0.0
 11
-463.49182588
 21
-273.40639369
 31
0.0
  0
LINE
  5
3FE
100
AcDbEntity
  8
0
  6
CONTINUOUS
 62
       3
100
AcDbLine
 10
-463.49182588
 20
-273.40639369
 30
0.0
 11
-461.04890554
 21
-273.40639369
 31
0.0
  0
LINE
  5
3FF
100
AcDbEntity
  8
0
  6
CONTINUOUS
 62
       3
100
AcDbLine
 10
-461.04890554
 20
-285.87234547
 30
0.0
 11
-461.04890554
 21
-273.40639369
 31
0.0
  0
LINE
  5
400
100
AcDbEntity
  8
0
  6
CONTINUOUS
 62
       3
100
AcDbLine
 10
-469.06284187
 20
-265.17633469
 30
0.0
 11
-460.15561864
 21
-265.17633469
 31
0.0
  0
LINE
  5
401
100
AcDbEntity
  8
0
  6
CONTINUOUS
 62
       3
100
AcDbLine
 10
-469.06284187
 20
-286.55591298
 30
0.0
 11
-456.59208995
 21
-286.55591298
 31
0.0
  0
LINE
  5
402
100
AcDbEntity
  8
0
  6
CONTINUOUS
 62
       3
100
AcDbLine
 10
-456.59208995
 20
-286.55591298
 30
0.0
 11
-455.40424706
 21
-285.87234547
 31
0.0
  0
LINE
  5
403
100
AcDbEntity
  8
0
  6
CONTINUOUS
 62
       3
100
AcDbLine
 10
-455.40424706
 20
-273.40639369
 30
0.0
 11
-460.15561864
 21
-265.17633469
 31
0.0
  0
LINE
  5
404
100
AcDbEntity
  8
0
  6
CONTINUOUS
 62
       3
100
AcDbLine
 10
-455.40424706
 20
-285.87234547
 30
0.0
 11
-455.40424706
 21
-273.40639369
 31
0.0
  0
LINE
  5
405
100
AcDbEntity
  8
0
  6
CONTINUOUS
 62
       3
100
AcDbLine
 10
-482.07469041
 20
-272.28738384
 30
0.0
 11
-482.72144133
 21
-273.40639369
 31
0.0
  0
LINE
  5
406
100
AcDbEntity
  8
0
  6
CONTINUOUS
 62
       3
100
AcDbLine
 10
-483.16648395
 20
-320.2669693
 30
0.0
 11
-484.50320568
 21
-319.54817904
 31
0.0
  0
LINE
  5
407
100
AcDbEntity
  8
0
  6
CONTINUOUS
 62
       3
100
AcDbLine
 10
-453.62087957
 20
-319.54817904
 30
0.0
 11
-454.95920443
 21
-320.2669693
 31
0.0
  0
LINE
  5
408
100
AcDbEntity
  8
0
  6
CONTINUOUS
 62
       3
100
AcDbLine
 10
-484.50320568
 20
-295.79291496
 30
0.0
 11
-483.16648395
 21
-295.07892949
 31
0.0
  0
LINE
  5
409
100
AcDbEntity
  8
0
  6
CONTINUOUS
 62
       3
100
AcDbLine
 10
-454.95920443
 20
-295.07892949
 30
0.0
 11
-453.62087957
 21
-295.79291496
 31
0.0
  0
LINE
  5
40A
100
AcDbEntity
  8
0
  6
CONTINUOUS
 62
       3
100
AcDbLine
 10
-478.43751924
 20
-319.54817904
 30
0.0
 11
-475.002061
 21
-319.54817904
 31
0.0
  0
LINE
  5
40B
100
AcDbEntity
  8
0
  6
CONTINUOUS
 62
       3
100
AcDbLine
 10
-463.12362739
 20
-319.54817904
 30
0.0
 11
-459.68816915
 21
-319.54817904
 31
0.0
  0
LINE
  5
40C
100
AcDbEntity
  8
0
  6
CONTINUOUS
 62
       3
100
AcDbLine
 10
-455.40424706
 20
-294.01115061
 30
0.0
 11
-482.72144133
 21
-294.01115061
 31
0.0
  0
LINE
  5
40D
100
AcDbEntity
  8
0
  6
CONTINUOUS
 62
       3
100
AcDbLine
 10
-455.40424706
 20
-294.01115061
 30
0.0
 11
-453.62087957
 21
-295.79291496
 31
0.0
  0
LINE
  5
40E
100
AcDbEntity
  8
0
  6
CONTINUOUS
 62
       3
100
AcDbLine
 10
-459.68816915
 20
-295.79291496
 30
0.0
 11
-463.12362739
 21
-295.79291496
 31
0.0
  0
LINE
  5
40F
100
AcDbEntity
  8
0
  6
CONTINUOUS
 62
       3
100
AcDbLine
 10
-475.002061
 20
-295.79291496
 30
0.0
 11
-478.43751924
 21
-295.79291496
 31
0.0
  0
LINE
  5
410
100
AcDbEntity
  8
0
  6
CONTINUOUS
 62
       3
100
AcDbLine
 10
-482.72144133
 20
-294.01115061
 30
0.0
 11
-484.50320568
 21
-295.79291496
 31
0.0
  0
LINE
  5
411
100
AcDbEntity
  8
0
  6
CONTINUOUS
 62
       3
100
AcDbLine
 10
-484.50320568
 20
-319.54817904
 30
0.0
 11
-484.50320568
 21
-295.79291496
 31
0.0
  0
LINE
  5
412
100
AcDbEntity
  8
0
  6
CONTINUOUS
 62
       3
100
AcDbLine
 10
-478.43751924
 20
-319.54817904
 30
0.0
 11
-478.43751924
 21
-295.79291496
 31
0.0
  0
LINE
  5
413
100
AcDbEntity
  8
0
  6
CONTINUOUS
 62
       3
100
AcDbLine
 10
-475.002061
 20
-319.54817904
 30
0.0
 11
-475.002061
 21
-295.79291496
 31
0.0
  0
LINE
  5
414
100
AcDbEntity
  8
0
  6
CONTINUOUS
 62
       3
100
AcDbLine
 10
-463.12362739
 20
-319.54817904
 30
0.0
 11
-463.12362739
 21
-295.79291496
 31
0.0
  0
LINE
  5
415
100
AcDbEntity
  8
0
  6
CONTINUOUS
 62
       3
100
AcDbLine
 10
-459.68816915
 20
-319.54817904
 30
0.0
 11
-459.68816915
 21
-295.79291496
 31
0.0
  0
LINE
  5
416
100
AcDbEntity
  8
0
  6
CONTINUOUS
 62
       3
100
AcDbLine
 10
-453.62087957
 20
-319.54817904
 30
0.0
 11
-453.62087957
 21
-295.79291496
 31
0.0
  0
LINE
  5
417
100
AcDbEntity
  8
0
  6
CONTINUOUS
 62
       3
100
AcDbLine
 10
-458.96777575
 20
-294.01115061
 30
0.0
 11
-458.96777575
 21
-286.55591298
 31
0.0
  0
LINE
  5
418
100
AcDbEntity
  8
0
  6
CONTINUOUS
 62
       3
100
AcDbLine
 10
-479.15791264
 20
-286.55591298
 30
0.0
 11
-479.15791264
 21
-294.01115061
 31
0.0
  0
LINE
  5
419
100
AcDbEntity
  8
0
  6
CONTINUOUS
 62
       3
100
AcDbLine
 10
-482.72144133
 20
-321.32994338
 30
0.0
 11
-455.40424706
 21
-321.32994338
 31
0.0
  0
LINE
  5
41A
100
AcDbEntity
  8
0
  6
CONTINUOUS
 62
       3
100
AcDbLine
 10
-453.62087957
 20
-319.54817904
 30
0.0
 11
-455.40424706
 21
-321.32994338
 31
0.0
  0
LINE
  5
41B
100
AcDbEntity
  8
0
  6
CONTINUOUS
 62
       3
100
AcDbLine
 10
-484.50320568
 20
-319.54817904
 30
0.0
 11
-482.72144133
 21
-321.32994338
 31
0.0
  0
LINE
  5
41C
100
AcDbEntity
  8
0
  6
CONTINUOUS
 62
       3
100
AcDbLine
 10
-329.41438304
 20
-285.87234547
 30
0.0
 11
-326.9714627
 21
-285.87234547
 31
0.0
  0
LINE
  5
41D
100
AcDbEntity
  8
0
  6
CONTINUOUS
 62
       3
100
AcDbLine
 10
-329.41438304
 20
-273.40639369
 30
0.0
 11
-329.41438304
 21
-285.87234547
 31
0.0
  0
LINE
  5
41E
100
AcDbEntity
  8
0
  6
CONTINUOUS
 62
       3
100
AcDbLine
 10
-326.9714627
 20
-273.40639369
 30
0.0
 11
-329.41438304
 21
-273.40639369
 31
0.0
  0
LINE
  5
41F
100
AcDbEntity
  8
0
  6
CONTINUOUS
 62
       3
100
AcDbLine
 10
-326.9714627
 20
-273.40639369
 30
0.0
 11
-326.9714627
 21
-285.87234547
 31
0.0
  0
LINE
  5
420
100
AcDbEntity
  8
0
  6
CONTINUOUS
 62
       3
100
AcDbLine
 10
-326.07817581
 20
-265.17633469
 30
0.0
 11
-334.98540368
 21
-265.17633469
 31
0.0
  0
LINE
  5
421
100
AcDbEntity
  8
0
  6
CONTINUOUS
 62
       3
100
AcDbLine
 10
-322.51304862
 20
-286.55591298
 30
0.0
 11
-334.98540368
 21
-286.55591298
 31
0.0
  0
LINE
  5
422
100
AcDbEntity
  8
0
  6
CONTINUOUS
 62
       3
100
AcDbLine
 10
-321.32680422
 20
-285.87234547
 30
0.0
 11
-322.51304862
 21
-286.55591298
 31
0.0
  0
LINE
  5
423
100
AcDbEntity
  8
0
  6
CONTINUOUS
 62
       3
100
AcDbLine
 10
-326.07817581
 20
-265.17633469
 30
0.0
 11
-321.97355514
 21
-272.28738384
 31
0.0
  0
LINE
  5
424
100
AcDbEntity
  8
0
  6
CONTINUOUS
 62
       3
100
AcDbLine
 10
-321.32680422
 20
-273.40639369
 30
0.0
 11
-321.32680422
 21
-285.87234547
 31
0.0
  0
LINE
  5
425
100
AcDbEntity
  8
0
  6
CONTINUOUS
 62
       3
100
AcDbLine
 10
-340.98224778
 20
-265.17633469
 30
0.0
 11
-334.98540368
 21
-265.17633469
 31
0.0
  0
LINE
  5
426
100
AcDbEntity
  8
0
  6
CONTINUOUS
 62
       3
100
AcDbLine
 10
-345.3782321
 20
-286.55591298
 30
0.0
 11
-334.98540368
 21
-286.55591298
 31
0.0
  0
LINE
  5
427
100
AcDbEntity
  8
0
  6
CONTINUOUS
 62
       3
100
AcDbLine
 10
-342.99934002
 20
-285.87234547
 30
0.0
 11
-340.55641967
 21
-285.87234547
 31
0.0
  0
LINE
  5
428
100
AcDbEntity
  8
0
  6
CONTINUOUS
 62
       3
100
AcDbLine
 10
-340.55641967
 20
-285.87234547
 30
0.0
 11
-340.55641967
 21
-273.40639369
 31
0.0
  0
LINE
  5
429
100
AcDbEntity
  8
0
  6
CONTINUOUS
 62
       3
100
AcDbLine
 10
-340.55641967
 20
-273.40639369
 30
0.0
 11
-342.99934002
 21
-273.40639369
 31
0.0
  0
LINE
  5
42A
100
AcDbEntity
  8
0
  6
CONTINUOUS
 62
       3
100
AcDbLine
 10
-342.99934002
 20
-285.87234547
 30
0.0
 11
-342.99934002
 21
-273.40639369
 31
0.0
  0
LINE
  5
42B
100
AcDbEntity
  8
0
  6
CONTINUOUS
 62
       3
100
AcDbLine
 10
-334.98540368
 20
-265.17633469
 30
0.0
 11
-343.89262691
 21
-265.17633469
 31
0.0
  0
LINE
  5
42C
100
AcDbEntity
  8
0
  6
CONTINUOUS
 62
       3
100
AcDbLine
 10
-334.98540368
 20
-286.55591298
 30
0.0
 11
-347.4561556
 21
-286.55591298
 31
0.0
  0
LINE
  5
42D
100
AcDbEntity
  8
0
  6
CONTINUOUS
 62
       3
100
AcDbLine
 10
-347.4561556
 20
-286.55591298
 30
0.0
 11
-348.6439985
 21
-285.87234547
 31
0.0
  0
LINE
  5
42E
100
AcDbEntity
  8
0
  6
CONTINUOUS
 62
       3
100
AcDbLine
 10
-348.6439985
 20
-273.40639369
 30
0.0
 11
-343.89262691
 21
-265.17633469
 31
0.0
  0
LINE
  5
42F
100
AcDbEntity
  8
0
  6
CONTINUOUS
 62
       3
100
AcDbLine
 10
-348.6439985
 20
-285.87234547
 30
0.0
 11
-348.6439985
 21
-273.40639369
 31
0.0
  0
LINE
  5
430
100
AcDbEntity
  8
0
  6
CONTINUOUS
 62
       3
100
AcDbLine
 10
-321.97355514
 20
-272.28738384
 30
0.0
 11
-321.32680422
 21
-273.40639369
 31
0.0
  0
LINE
  5
431
100
AcDbEntity
  8
0
  6
CONTINUOUS
 62
       3
100
AcDbLine
 10
-320.8817616
 20
-320.2669693
 30
0.0
 11
-319.54503988
 21
-319.54817904
 31
0.0
  0
LINE
  5
432
100
AcDbEntity
  8
0
  6
CONTINUOUS
 62
       3
100
AcDbLine
 10
-350.42736599
 20
-319.54817904
 30
0.0
 11
-349.08904112
 21
-320.2669693
 31
0.0
  0
LINE
  5
433
100
AcDbEntity
  8
0
  6
CONTINUOUS
 62
       3
100
AcDbLine
 10
-319.54503988
 20
-295.79291496
 30
0.0
 11
-320.8817616
 21
-295.07892949
 31
0.0
  0
LINE
  5
434
100
AcDbEntity
  8
0
  6
CONTINUOUS
 62
       3
100
AcDbLine
 10
-349.08904112
 20
-295.07892949
 30
0.0
 11
-350.42736599
 21
-295.79291496
 31
0.0
  0
LINE
  5
435
100
AcDbEntity
  8
0
  6
CONTINUOUS
 62
       3
100
AcDbLine
 10
-325.61072632
 20
-319.54817904
 30
0.0
 11
-329.04618455
 21
-319.54817904
 31
0.0
  0
LINE
  5
436
100
AcDbEntity
  8
0
  6
CONTINUOUS
 62
       3
100
AcDbLine
 10
-340.92461817
 20
-319.54817904
 30
0.0
 11
-344.3600764
 21
-319.54817904
 31
0.0
  0
LINE
  5
437
100
AcDbEntity
  8
0
  6
CONTINUOUS
 62
       3
100
AcDbLine
 10
-348.6439985
 20
-294.01115061
 30
0.0
 11
-321.32680422
 21
-294.01115061
 31
0.0
  0
LINE
  5
438
100
AcDbEntity
  8
0
  6
CONTINUOUS
 62
       3
100
AcDbLine
 10
-348.6439985
 20
-294.01115061
 30
0.0
 11
-350.42736599
 21
-295.79291496
 31
0.0
  0
LINE
  5
439
100
AcDbEntity
  8
0
  6
CONTINUOUS
 62
       3
100
AcDbLine
 10
-344.3600764
 20
-295.79291496
 30
0.0
 11
-340.92461817
 21
-295.79291496
 31
0.0
  0
LINE
  5
43A
100
AcDbEntity
  8
0
  6
CONTINUOUS
 62
       3
100
AcDbLine
 10
-329.04618455
 20
-295.79291496
 30
0.0
 11
-325.61072632
 21
-295.79291496
 31
0.0
  0
LINE
  5
43B
100
AcDbEntity
  8
0
  6
CONTINUOUS
 62
       3
100
AcDbLine
 10
-321.32680422
 20
-294.01115061
 30
0.0
 11
-319.54503988
 21
-295.79291496
 31
0.0
  0
LINE
  5
43C
100
AcDbEntity
  8
0
  6
CONTINUOUS
 62
       3
100
AcDbLine
 10
-319.54503988
 20
-319.54817904
 30
0.0
 11
-319.54503988
 21
-295.79291496
 31
0.0
  0
LINE
  5
43D
100
AcDbEntity
  8
0
  6
CONTINUOUS
 62
       3
100
AcDbLine
 10
-325.61072632
 20
-319.54817904
 30
0.0
 11
-325.61072632
 21
-295.79291496
 31
0.0
  0
LINE
  5
43E
100
AcDbEntity
  8
0
  6
CONTINUOUS
 62
       3
100
AcDbLine
 10
-329.04618455
 20
-319.54817904
 30
0.0
 11
-329.04618455
 21
-295.79291496
 31
0.0
  0
LINE
  5
43F
100
AcDbEntity
  8
0
  6
CONTINUOUS
 62
       3
100
AcDbLine
 10
-340.92461817
 20
-319.54817904
 30
0.0
 11
-340.92461817
 21
-295.79291496
 31
0.0
  0
LINE
  5
440
100
AcDbEntity
  8
0
  6
CONTINUOUS
 62
       3
100
AcDbLine
 10
-344.3600764
 20
-319.54817904
 30
0.0
 11
-344.3600764
 21
-295.79291496
 31
0.0
  0
LINE
  5
441
100
AcDbEntity
  8
0
  6
CONTINUOUS
 62
       3
100
AcDbLine
 10
-350.42736599
 20
-319.54817904
 30
0.0
 11
-350.42736599
 21
-295.79291496
 31
0.0
  0
LINE
  5
442
100
AcDbEntity
  8
0
  6
CONTINUOUS
 62
       3
100
AcDbLine
 10
-345.08046981
 20
-294.01115061
 30
0.0
 11
-345.08046981
 21
-286.55591298
 31
0.0
  0
LINE
  5
443
100
AcDbEntity
  8
0
  6
CONTINUOUS
 62
       3
100
AcDbLine
 10
-324.89033291
 20
-286.55591298
 30
0.0
 11
-324.89033291
 21
-294.01115061
 31
0.0
  0
LINE
  5
444
100
AcDbEntity
  8
0
  6
CONTINUOUS
 62
       3
100
AcDbLine
 10
-321.32680422
 20
-321.32994338
 30
0.0
 11
-348.6439985
 21
-321.32994338
 31
0.0
  0
LINE
  5
445
100
AcDbEntity
  8
0
  6
CONTINUOUS
 62
       3
100
AcDbLine
 10
-350.42736599
 20
-319.54817904
 30
0.0
 11
-348.6439985
 21
-321.32994338
 31
0.0
  0
LINE
  5
446
100
AcDbEntity
  8
0
  6
CONTINUOUS
 62
       3
100
AcDbLine
 10
-319.54503988
 20
-319.54817904
 30
0.0
 11
-321.32680422
 21
-321.32994338
 31
0.0
  0
LINE
  5
447
100
AcDbEntity
  8
0
  6
CONTINUOUS
 62
       3
100
AcDbLine
 10
-339.87800313
 20
-255.33322607
 30
0.0
 11
-339.87800313
 21
-265.17633469
 31
0.0
  0
LINE
  5
448
100
AcDbEntity
  8
0
  6
CONTINUOUS
 62
       3
100
AcDbLine
 10
-330.09280423
 20
-255.33322607
 30
0.0
 11
-330.09280423
 21
-265.17633469
 31
0.0
  0
LINE
  5
449
100
AcDbEntity
  8
0
  6
CONTINUOUS
 62
       3
100
AcDbLine
 10
-464.17024242
 20
-265.17633469
 30
0.0
 11
-464.17024242
 21
-255.33322607
 31
0.0
  0
LINE
  5
44A
100
AcDbEntity
  8
0
  6
CONTINUOUS
 62
       3
100
AcDbLine
 10
-473.95544132
 20
-255.33322607
 30
0.0
 11
-473.95544132
 21
-265.17633469
 31
0.0
  0
LINE
  5
44B
100
AcDbEntity
  8
0
  6
CONTINUOUS
 62
       3
100
AcDbLine
 10
43.26758806
 20
194.58206338
 30
0.0
 11
63.27002031
 21
193.8511937
 31
0.0
  0
LINE
  5
44C
100
AcDbEntity
  8
0
  6
CONTINUOUS
 62
       3
100
AcDbLine
 10
275.14232672
 20
100.35641323
 30
0.0
 11
275.14232672
 21
5.35379717
 31
0.0
  0
LINE
  5
44D
100
AcDbEntity
  8
0
  6
CONTINUOUS
 62
       3
100
AcDbLine
 10
230.14232672
 20
100.35641323
 30
0.0
 11
230.14232672
 21
5.35379717
 31
0.0
  0
LINE
  5
44E
100
AcDbEntity
  8
0
  6
CONTINUOUS
 62
       3
100
AcDbLine
 10
280.14232672
 20
-4.59974143
 30
0.0
 11
225.14232672
 21
-4.59974143
 31
0.0
  0
LINE
  5
44F
100
AcDbEntity
  8
0
  6
CONTINUOUS
 62
       3
100
AcDbLine
 10
280.14232672
 20
5.40025857
 30
0.0
 11
225.14232672
 21
5.40025857
 31
0.0
  0
LINE
  5
450
100
AcDbEntity
  8
0
  6
CONTINUOUS
 62
       3
100
AcDbLine
 10
225.14232672
 20
-4.59974143
 30
0.0
 11
225.14232672
 21
5.40025857
 31
0.0
  0
LINE
  5
451
100
AcDbEntity
  8
0
  6
CONTINUOUS
 62
       3
100
AcDbLine
 10
280.14232672
 20
-4.59974143
 30
0.0
 11
280.14232672
 21
5.40025857
 31
0.0
  0
CIRCLE
  5
452
100
AcDbEntity
  8
0
  6
CONTINUOUS
 62
       3
100
AcDbCircle
 10
252.64232672
 20
57.28847226
 30
0.0
 40
21.71773509
  0
ARC
  5
453
100
AcDbEntity
  8
0
  6
CONTINUOUS
 62
       3
100
AcDbCircle
 10
-329.81711452
 20
87.79961801
 30
0.0
 40
10.14169685
100
AcDbArc
 50
240.152235
 51
299.847765
  0
LINE
  5
454
100
AcDbEntity
  8
0
  6
CONTINUOUS
 62
       3
100
AcDbLine
 10
-382.37900034
 20
310.40025857
 30
0.0
 11
-382.37900034
 21
99.99414507
 31
0.0
  0
LINE
  5
455
100
AcDbEntity
  8
0
  6
CONTINUOUS
 62
       3
100
AcDbLine
 10
-402.37900034
 20
310.40025857
 30
0.0
 11
-402.37900034
 21
99.99414507
 31
0.0
  0
ARC
  5
456
100
AcDbEntity
  8
0
  6
CONTINUOUS
 62
       3
100
AcDbCircle
 10
-392.37900034
 20
40.51045299
 30
0.0
 40
138.20043992
100
AcDbArc
 50
85.85052727
 51
94.14947273
  0
ARC
  5
457
100
AcDbEntity
  8
0
  6
CONTINUOUS
 62
       3
100
AcDbCircle
 10
-392.37900034
 20
59.41079101
 30
0.0
 40
138.48117014
100
AcDbArc
 50
85.85895381
 51
94.14104619
  0
ARC
  5
458
100
AcDbEntity
  8
0
  6
CONTINUOUS
 62
       3
100
AcDbCircle
 10
-392.37900034
 20
310.40025857
 30
0.0
 40
10.0
100
AcDbArc
 50
0.0
 51
180.0
  0
ARC
  5
459
100
AcDbEntity
  8
0
  6
CONTINUOUS
 62
       3
100
AcDbCircle
 10
153.22836573
 20
210.94995952
 30
0.0
 40
89.45017638
100
AcDbArc
 50
1.71891094
 51
169.64255173
  0
ARC
  5
45A
100
AcDbEntity
  8
0
  6
CONTINUOUS
 62
       3
100
AcDbCircle
 10
143.93217746
 20
212.65103631
 30
0.0
 40
80.0
100
AcDbArc
 50
169.64255173
 51
178.11721469
  0
ARC
  5
45B
100
AcDbEntity
  8
0
  6
CONTINUOUS
 62
       3
100
AcDbCircle
 10
153.31071598
 20
211.03371645
 30
0.0
 40
109.36654212
100
AcDbArc
 50
1.36192411
 51
171.7076446
  0
ARC
  5
45C
100
AcDbEntity
  8
0
  6
CONTINUOUS
 62
       3
100
AcDbCircle
 10
124.25119987
 20
215.27112427
 30
0.0
 40
80.0
100
AcDbArc
 50
171.7076446
 51
177.49032188
  0
LINE
  5
45D
100
AcDbEntity
  8
0
  6
CONTINUOUS
 62
       3
100
AcDbLine
 10
-422.37900034
 20
-4.59974143
 30
0.0
 11
-362.37900034
 21
-4.59974143
 31
0.0
  0
LINE
  5
45E
100
AcDbEntity
  8
0
  6
CONTINUOUS
 62
       3
100
AcDbLine
 10
-362.37900034
 20
5.40025857
 30
0.0
 11
-422.37900034
 21
5.40025857
 31
0.0
  0
LINE
  5
45F
100
AcDbEntity
  8
0
  6
CONTINUOUS
 62
       3
100
AcDbLine
 10
-422.37900034
 20
5.40025857
 30
0.0
 11
-422.37900034
 21
-4.59974143
 31
0.0
  0
LINE
  5
460
100
AcDbEntity
  8
0
  6
CONTINUOUS
 62
       3
100
AcDbLine
 10
-362.37900034
 20
-4.59974143
 30
0.0
 11
-362.37900034
 21
5.40025857
 31
0.0
  0
ARC
  5
461
100
AcDbEntity
  8
0
  6
CONTINUOUS
 62
       3
100
AcDbCircle
 10
-366.94774862
 20
32.47913095
 30
0.0
 40
3.28153081
100
AcDbArc
 50
93.40464042
 51
173.34077808
  0
ARC
  5
462
100
AcDbEntity
  8
0
  6
CONTINUOUS
 62
       3
100
AcDbCircle
 10
-366.89726454
 20
82.13172494
 30
0.0
 40
3.31028715
100
AcDbArc
 50
180.90322757
 51
268.8761426
  0
CIRCLE
  5
463
100
AcDbEntity
  8
0
  6
CONTINUOUS
 62
       3
100
AcDbCircle
 10
252.64232672
 20
-288.55876797
 30
0.0
 40
17.5
  0
INSERT
  5
464
100
AcDbEntity
  8
0
  6
CONTINUOUS
100
AcDbBlockReference
  2
GROUP_1
 10
0.0
 20
0.0
 30
0.0
  0
INSERT
  5
465
100
AcDbEntity
  8
0
  6
CONTINUOUS
100
AcDbBlockReference
  2
GROUP_2
 10
0.0
 20
0.0
 30
0.0
  0
INSERT
  5
466
100
AcDbEntity
  8
0
  6
CONTINUOUS
100
AcDbBlockReference
  2
GROUP_3
 10
0.0
 20
0.0
 30
0.0
  0
INSERT
  5
467
100
AcDbEntity
  8
0
  6
CONTINUOUS
100
AcDbBlockReference
  2
GROUP_4
 10
0.0
 20
0.0
 30
0.0
  0
INSERT
  5
468
100
AcDbEntity
  8
0
  6
CONTINUOUS
100
AcDbBlockReference
  2
GROUP_5
 10
0.0
 20
0.0
 30
0.0
  0
INSERT
  5
469
100
AcDbEntity
  8
0
  6
CONTINUOUS
100
AcDbBlockReference
  2
GROUP_6
 10
0.0
 20
0.0
 30
0.0
  0
INSERT
  5
46A
100
AcDbEntity
  8
0
  6
CONTINUOUS
100
AcDbBlockReference
  2
GROUP_7
 10
0.0
 20
0.0
 30
0.0
  0
INSERT
  5
46B
100
AcDbEntity
  8
0
  6
CONTINUOUS
100
AcDbBlockReference
  2
GROUP_8
 10
0.0
 20
0.0
 30
0.0
  0
INSERT
  5
46C
100
AcDbEntity
  8
0
  6
CONTINUOUS
100
AcDbBlockReference
  2
GROUP_9
 10
0.0
 20
0.0
 30
0.0
  0
INSERT
  5
46D
100
AcDbEntity
  8
0
  6
CONTINUOUS
100
AcDbBlockReference
  2
GROUP_10
 10
0.0
 20
0.0
 30
0.0
  0
INSERT
  5
46E
100
AcDbEntity
  8
0
  6
CONTINUOUS
100
AcDbBlockReference
  2
GROUP_11
 10
0.0
 20
0.0
 30
0.0
  0
INSERT
  5
46F
100
AcDbEntity
  8
0
  6
CONTINUOUS
100
AcDbBlockReference
  2
GROUP_12
 10
0.0
 20
0.0
 30
0.0
  0
INSERT
  5
470
100
AcDbEntity
  8
0
  6
CONTINUOUS
100
AcDbBlockReference
  2
GROUP_13
 10
0.0
 20
0.0
 30
0.0
  0
INSERT
  5
471
100
AcDbEntity
  8
0
  6
CONTINUOUS
100
AcDbBlockReference
  2
GROUP_14
 10
0.0
 20
0.0
 30
0.0
  0
INSERT
  5
472
100
AcDbEntity
  8
0
  6
CONTINUOUS
100
AcDbBlockReference
  2
GROUP_15
 10
0.0
 20
0.0
 30
0.0
  0
INSERT
  5
473
100
AcDbEntity
  8
0
  6
CONTINUOUS
100
AcDbBlockReference
  2
GROUP_16
 10
0.0
 20
0.0
 30
0.0
  0
INSERT
  5
474
100
AcDbEntity
  8
0
  6
CONTINUOUS
100
AcDbBlockReference
  2
GROUP_17
 10
0.0
 20
0.0
 30
0.0
  0
INSERT
  5
475
100
AcDbEntity
  8
0
  6
CONTINUOUS
100
AcDbBlockReference
  2
GROUP_18
 10
0.0
 20
0.0
 30
0.0
  0
INSERT
  5
476
100
AcDbEntity
  8
0
  6
CONTINUOUS
100
AcDbBlockReference
  2
GROUP_19
 10
0.0
 20
0.0
 30
0.0
  0
INSERT
  5
477
100
AcDbEntity
  8
0
  6
CONTINUOUS
100
AcDbBlockReference
  2
GROUP_20
 10
0.0
 20
0.0
 30
0.0
  0
INSERT
  5
478
100
AcDbEntity
  8
0
  6
CONTINUOUS
100
AcDbBlockReference
  2
GROUP_21
 10
0.0
 20
0.0
 30
0.0
  0
INSERT
  5
479
100
AcDbEntity
  8
0
  6
CONTINUOUS
100
AcDbBlockReference
  2
GROUP_22
 10
0.0
 20
0.0
 30
0.0
  0
INSERT
  5
47A
100
AcDbEntity
  8
0
  6
CONTINUOUS
100
AcDbBlockReference
  2
GROUP_23
 10
0.0
 20
0.0
 30
0.0
  0
INSERT
  5
47B
100
AcDbEntity
  8
0
  6
CONTINUOUS
100
AcDbBlockReference
  2
GROUP_24
 10
0.0
 20
0.0
 30
0.0
  0
INSERT
  5
47C
100
AcDbEntity
  8
0
  6
CONTINUOUS
100
AcDbBlockReference
  2
GROUP_25
 10
0.0
 20
0.0
 30
0.0
  0
INSERT
  5
47D
100
AcDbEntity
  8
0
  6
CONTINUOUS
100
AcDbBlockReference
  2
GROUP_26
 10
0.0
 20
0.0
 30
0.0
  0
INSERT
  5
47E
100
AcDbEntity
  8
0
  6
CONTINUOUS
100
AcDbBlockReference
  2
GROUP_27
 10
0.0
 20
0.0
 30
0.0
  0
INSERT
  5
47F
100
AcDbEntity
  8
0
  6
CONTINUOUS
100
AcDbBlockReference
  2
GROUP_28
 10
0.0
 20
0.0
 30
0.0
  0
INSERT
  5
480
100
AcDbEntity
  8
0
  6
CONTINUOUS
100
AcDbBlockReference
  2
GROUP_29
 10
0.0
 20
0.0
 30
0.0
  0
INSERT
  5
481
100
AcDbEntity
  8
0
  6
CONTINUOUS
100
AcDbBlockReference
  2
GROUP_30
 10
0.0
 20
0.0
 30
0.0
  0
INSERT
  5
482
100
AcDbEntity
  8
0
  6
CONTINUOUS
100
AcDbBlockReference
  2
GROUP_32
 10
0.0
 20
0.0
 30
0.0
  0
INSERT
  5
483
100
AcDbEntity
  8
0
  6
CONTINUOUS
100
AcDbBlockReference
  2
GROUP_34
 10
0.0
 20
0.0
 30
0.0
  0
INSERT
  5
484
100
AcDbEntity
  8
0
  6
CONTINUOUS
100
AcDbBlockReference
  2
GROUP_36
 10
0.0
 20
0.0
 30
0.0
  0
INSERT
  5
485
100
AcDbEntity
  8
0
  6
CONTINUOUS
100
AcDbBlockReference
  2
GROUP_37
 10
0.0
 20
0.0
 30
0.0
  0
INSERT
  5
486
100
AcDbEntity
  8
0
  6
CONTINUOUS
100
AcDbBlockReference
  2
DA_IMAGEDIMGROUP_1
 10
0.0
 20
0.0
 30
0.0
  0
INSERT
  5
487
100
AcDbEntity
  8
0
  6
CONTINUOUS
100
AcDbBlockReference
  2
DA_IMAGEDIMGROUP_2
 10
0.0
 20
0.0
 30
0.0
  0
INSERT
  5
488
100
AcDbEntity
  8
0
  6
CONTINUOUS
100
AcDbBlockReference
  2
DA_IMAGEDIMGROUP_3
 10
0.0
 20
0.0
 30
0.0
  0
INSERT
  5
489
100
AcDbEntity
  8
0
  6
CONTINUOUS
100
AcDbBlockReference
  2
DA_IMAGEDIMGROUP_4
 10
0.0
 20
0.0
 30
0.0
  0
INSERT
  5
48A
100
AcDbEntity
  8
0
  6
CONTINUOUS
100
AcDbBlockReference
  2
DA_IMAGEDIMGROUP_5
 10
0.0
 20
0.0
 30
0.0
  0
INSERT
  5
48B
100
AcDbEntity
  8
0
  6
CONTINUOUS
100
AcDbBlockReference
  2
DA_IMAGEDIMGROUP_6
 10
0.0
 20
0.0
 30
0.0
  0
INSERT
  5
48C
100
AcDbEntity
  8
0
  6
CONTINUOUS
100
AcDbBlockReference
  2
DA_IMAGEDIMGROUP_7
 10
0.0
 20
0.0
 30
0.0
  0
INSERT
  5
48D
100
AcDbEntity
  8
0
  6
CONTINUOUS
100
AcDbBlockReference
  2
DA_IMAGEDIMGROUP_8
 10
0.0
 20
0.0
 30
0.0
  0
INSERT
  5
48E
100
AcDbEntity
  8
0
  6
CONTINUOUS
100
AcDbBlockReference
  2
DA_IMAGEDIMGROUP_9
 10
0.0
 20
0.0
 30
0.0
  0
INSERT
  5
48F
100
AcDbEntity
  8
0
  6
CONTINUOUS
100
AcDbBlockReference
  2
DA_IMAGEDIMGROUP_10
 10
0.0
 20
0.0
 30
0.0
  0
INSERT
  5
490
100
AcDbEntity
  8
0
  6
CONTINUOUS
100
AcDbBlockReference
  2
GROUP_38
 10
0.0
 20
0.0
 30
0.0
  0
INSERT
  5
491
100
AcDbEntity
  8
0
  6
CONTINUOUS
100
AcDbBlockReference
  2
GROUP_39
 10
0.0
 20
0.0
 30
0.0
  0
LINE
  5
492
100
AcDbEntity
  8
ZUWAKU
  6
CONTINUOUS
 62
      43
100
AcDbLine
 10
40.38398625
 20
-530.0
 30
0.0
 11
592.38398625
 21
-530.0
 31
0.0
  0
LINE
  5
493
100
AcDbEntity
  8
ZUWAKU
  6
CONTINUOUS
 62
      43
100
AcDbLine
 10
40.38398625
 20
-506.0
 30
0.0
 11
800.38398625
 21
-506.0
 31
0.0
  0
LINE
  5
494
100
AcDbEntity
  8
ZUWAKU
  6
CONTINUOUS
 62
      43
100
AcDbLine
 10
40.38398625
 20
-482.0
 30
0.0
 11
800.38398625
 21
-482.0
 31
0.0
  0
LINE
  5
495
100
AcDbEntity
  8
ZUWAKU
  6
CONTINUOUS
 62
      43
100
AcDbLine
 10
40.38398625
 20
-458.0
 30
0.0
 11
800.38398625
 21
-458.0
 31
0.0
  0
LINE
  5
496
100
AcDbEntity
  8
ZUWAKU
  6
CONTINUOUS
 62
      43
100
AcDbLine
 10
644.38398625
 20
-482.0
 30
0.0
 11
644.38398625
 21
-554.0
 31
0.0
  0
LINE
  5
497
100
AcDbEntity
  8
ZUWAKU
  6
CONTINUOUS
 62
      43
100
AcDbLine
 10
696.38398625
 20
-482.0
 30
0.0
 11
696.38398625
 21
-554.0
 31
0.0
  0
LINE
  5
498
100
AcDbEntity
  8
ZUWAKU
  6
CONTINUOUS
 62
      43
100
AcDbLine
 10
748.38398625
 20
-482.0
 30
0.0
 11
748.38398625
 21
-554.0
 31
0.0
  0
LINE
  5
499
100
AcDbEntity
  8
ZUWAKU
  6
CONTINUOUS
 62
      43
100
AcDbLine
 10
534.0682122
 20
-482.0
 30
0.0
 11
534.0682122
 21
-506.0
 31
0.0
  0
LINE
  5
49A
100
AcDbEntity
  8
ZUWAKU
  6
CONTINUOUS
 62
      43
100
AcDbLine
 10
752.38398625
 20
458.0
 30
0.0
 11
752.38398625
 21
554.0
 31
0.0
  0
LINE
  5
49B
100
AcDbEntity
  8
ZUWAKU
  6
CONTINUOUS
 62
      43
100
AcDbLine
 10
704.38398625
 20
458.0
 30
0.0
 11
704.38398625
 21
554.0
 31
0.0
  0
LINE
  5
49C
100
AcDbEntity
  8
ZUWAKU
  6
CONTINUOUS
 62
      43
100
AcDbLine
 10
544.38398625
 20
458.0
 30
0.0
 11
544.38398625
 21
554.0
 31
0.0
  0
LINE
  5
49D
100
AcDbEntity
  8
ZUWAKU
  6
CONTINUOUS
 62
      43
100
AcDbLine
 10
440.38398625
 20
458.0
 30
0.0
 11
440.38398625
 21
554.0
 31
0.0
  0
LINE
  5
49E
100
AcDbEntity
  8
ZUWAKU
  6
CONTINUOUS
 62
      43
100
AcDbLine
 10
376.38398625
 20
458.0
 30
0.0
 11
376.38398625
 21
554.0
 31
0.0
  0
LINE
  5
49F
100
AcDbEntity
  8
ZUWAKU
  6
CONTINUOUS
 62
      43
100
AcDbLine
 10
800.38398625
 20
530.0
 30
0.0
 11
376.38398625
 21
530.0
 31
0.0
  0
LINE
  5
4A0
100
AcDbEntity
  8
ZUWAKU
  6
CONTINUOUS
 62
      43
100
AcDbLine
 10
800.38398625
 20
506.0
 30
0.0
 11
376.38398625
 21
506.0
 31
0.0
  0
LINE
  5
4A1
100
AcDbEntity
  8
ZUWAKU
  6
CONTINUOUS
 62
      43
100
AcDbLine
 10
800.38398625
 20
482.0
 30
0.0
 11
376.38398625
 21
482.0
 31
0.0
  0
LINE
  5
4A2
100
AcDbEntity
  8
ZUWAKU
  6
CONTINUOUS
 62
      43
100
AcDbLine
 10
800.38398625
 20
458.0
 30
0.0
 11
376.38398625
 21
458.0
 31
0.0
  0
LINE
  5
4A3
100
AcDbEntity
  8
ZUWAKU
  6
CONTINUOUS
 62
      43
100
AcDbLine
 10
487.74679553
 20
-362.0
 30
0.0
 11
487.74679553
 21
-554.68590832
 31
0.0
  0
LINE
  5
4A4
100
AcDbEntity
  8
ZUWAKU
  6
CONTINUOUS
 62
      43
100
AcDbLine
 10
592.38398625
 20
-362.0
 30
0.0
 11
592.38398625
 21
-554.68590832
 31
0.0
  0
LINE
  5
4A5
100
AcDbEntity
  8
ZUWAKU
  6
CONTINUOUS
 62
      43
100
AcDbLine
 10
487.74679553
 20
-386.0
 30
0.0
 11
800.38398625
 21
-386.0
 31
0.0
  0
LINE
  5
4A6
100
AcDbEntity
  8
ZUWAKU
  6
CONTINUOUS
 62
      43
100
AcDbLine
 10
487.74679553
 20
-362.0
 30
0.0
 11
800.38398625
 21
-362.0
 31
0.0
  0
LINE
  5
4A7
100
AcDbEntity
  8
ZUWAKU
  6
CONTINUOUS
 62
      43
100
AcDbLine
 10
40.38398625
 20
-458.0
 30
0.0
 11
40.38398625
 21
-554.0
 31
0.0
  0
LINE
  5
4A8
100
AcDbEntity
  8
ZUWAKU
  6
CONTINUOUS
 62
      43
100
AcDbLine
 10
84.06598059
 20
-458.0
 30
0.0
 11
84.06598059
 21
-554.68590832
 31
0.0
  0
LINE
  5
4A9
100
AcDbEntity
  8
ZUWAKU
  6
CONTINUOUS
 62
      43
100
AcDbLine
 10
238.08974969
 20
-458.0
 30
0.0
 11
238.08974969
 21
-554.68590832
 31
0.0
  0
LINE
  5
4AA
100
AcDbEntity
  8
ZUWAKU
  6
CONTINUOUS
 62
      43
100
AcDbLine
 10
306.54475818
 20
-458.0
 30
0.0
 11
306.54475818
 21
-554.68590832
 31
0.0
  0
LINE
  5
4AB
100
AcDbEntity
  8
ZUWAKU
  6
CONTINUOUS
 62
      43
100
AcDbLine
 10
362.16445258
 20
-458.0
 30
0.0
 11
362.16445258
 21
-554.68590832
 31
0.0
  0
LINE
  5
4AC
100
AcDbEntity
  8
ZUWAKU
  6
CONTINUOUS
 62
      43
100
AcDbLine
 10
487.74679553
 20
-410.0
 30
0.0
 11
800.38398625
 21
-410.0
 31
0.0
  0
LINE
  5
4AD
100
AcDbEntity
  8
ZUWAKU
  6
CONTINUOUS
 62
      43
100
AcDbLine
 10
487.74679553
 20
-434.0
 30
0.0
 11
800.38398625
 21
-434.0
 31
0.0
  0
TEXT
  5
4AE
100
AcDbEntity
  8
ZUWAKU
 62
      32
100
AcDbText
 10
55.19746607
 20
-528.99996338
 30
0.0
 40
20.0
  1
1
 72
       5
 11
71.19746607
 21
-528.99996338
 31
0.0
100
AcDbText
  0
TEXT
  5
4AF
100
AcDbEntity
  8
ZUWAKU
 62
      32
100
AcDbText
 10
55.19746607
 20
-504.99996338
 30
0.0
 40
20.0
  1
2
 72
       5
 11
71.19746607
 21
-504.99996338
 31
0.0
100
AcDbText
  0
TEXT
  5
4B0
100
AcDbEntity
  8
ZUWAKU
 62
      32
100
AcDbText
 10
55.19746607
 20
-480.99996338
 30
0.0
 40
20.0
  1
3
 72
       5
 11
71.19746607
 21
-480.99996338
 31
0.0
100
AcDbText
  0
TEXT
  5
4B1
100
AcDbEntity
  8
ZUWAKU
 62
      32
100
AcDbText
 10
47.19746607
 20
-550.31771968
 30
0.0
 40
20.0
  1
部番
 41
0.6667
 72
       5
 11
79.19746607
 21
-550.31771968
 31
0.0
100
AcDbText
  0
TEXT
  5
4B2
100
AcDbEntity
  8
ZUWAKU
 62
      32
100
AcDbText
 10
121.9292148
 20
-550.31771968
 30
0.0
 40
20.0
  1
部 品 名
 41
0.6333
 72
       5
 11
201.9292148
 21
-550.31771968
 31
0.0
100
AcDbText
  0
TEXT
  5
4B3
100
AcDbEntity
  8
ZUWAKU
 62
      32
100
AcDbText
 10
249.1686036
 20
-550.31771968
 30
0.0
 40
20.0
  1
材 質
 41
0.75
 72
       5
 11
297.1686036
 21
-550.31771968
 31
0.0
100
AcDbText
  0
TEXT
  5
4B4
100
AcDbEntity
  8
ZUWAKU
 62
      32
100
AcDbText
 10
319.20595504
 20
-550.31771968
 30
0.0
 40
20.0
  1
個数
 41
0.6667
 72
       5
 11
351.20595504
 21
-550.31771968
 31
0.0
100
AcDbText
  0
TEXT
  5
4B5
100
AcDbEntity
  8
ZUWAKU
 62
      32
100
AcDbText
 10
400.95562406
 20
-551.6
 30
0.0
 40
20.0
  1
備　考
 41
0.75
 72
       5
 11
448.95562406
 21
-551.6
 31
0.0
100
AcDbText
  0
TEXT
  5
4B6
100
AcDbEntity
  8
ZUWAKU
 62
      32
100
AcDbText
 10
508.06539089
 20
-432.08262412
 30
0.0
 40
20.0
  1
品名番号
 41
0.6667
 72
       5
 11
572.06539089
 21
-432.08262412
 31
0.0
100
AcDbText
  0
TEXT
  5
4B7
100
AcDbEntity
  8
ZUWAKU
 62
      32
100
AcDbText
 10
493.97991155
 20
-504.89983022
 30
0.0
 40
20.0
  1
尺度
 41
0.6667
 72
       5
 11
525.97991155
 21
-504.89983022
 31
0.0
100
AcDbText
  0
TEXT
  5
4B8
100
AcDbEntity
  8
ZUWAKU
 62
      32
100
AcDbText
 10
525.23131787
 20
-455.54388226
 30
0.0
 40
20.0
  1
名称
 41
0.6667
 72
       5
 11
557.23131787
 21
-455.54388226
 31
0.0
100
AcDbText
  0
TEXT
  5
4B9
100
AcDbEntity
  8
ZUWAKU
 62
      32
100
AcDbText
 10
758.38398625
 20
-502.8
 30
0.0
 40
20.0
  1
製図
 41
0.6667
 72
       5
 11
790.38398625
 21
-502.8
 31
0.0
100
AcDbText
  0
TEXT
  5
4BA
100
AcDbEntity
  8
ZUWAKU
 62
      32
100
AcDbText
 10
706.38398625
 20
-502.8
 30
0.0
 40
20.0
  1
改訂
 41
0.6667
 72
       5
 11
738.38398625
 21
-502.8
 31
0.0
100
AcDbText
  0
TEXT
  5
4BB
100
AcDbEntity
  8
ZUWAKU
 62
      32
100
AcDbText
 10
654.38398625
 20
-502.8
 30
0.0
 40
20.0
  1
検図
 41
0.6667
 72
       5
 11
686.38398625
 21
-502.8
 31
0.0
100
AcDbText
  0
TEXT
  5
4BC
100
AcDbEntity
  8
ZUWAKU
 62
      32
100
AcDbText
 10
602.38398625
 20
-502.8
 30
0.0
 40
20.0
  1
検図
 41
0.6667
 72
       5
 11
634.38398625
 21
-502.8
 31
0.0
100
AcDbText
  0
TEXT
  5
4BD
100
AcDbEntity
  8
ZUWAKU
 62
      32
100
AcDbText
 10
505.39223626
 20
-477.98419453
 30
0.0
 40
20.0
  1
図面番号
 41
0.6667
 72
       5
 11
569.39223626
 21
-477.98419453
 31
0.0
100
AcDbText
  0
TEXT
  5
4BE
100
AcDbEntity
  8
ZUWAKU
 62
      32
100
AcDbText
 10
500.06539089
 20
-527.6
 30
0.0
 40
20.0
  1
作成年月日
 41
0.7143
 72
       5
 11
580.06539089
 21
-527.6
 31
0.0
100
AcDbText
  0
TEXT
  5
4BF
100
AcDbEntity
  8
ZUWAKU
 62
      32
100
AcDbText
 10
-93.00103429
 20
-581.44426494
 30
0.0
 40
13.6
  1
株式会社
 41
0.6667
 72
       5
 11
-49.48103429
 21
-581.44426494
 31
0.0
100
AcDbText
  0
TEXT
  5
4C0
100
AcDbEntity
  8
ZUWAKU
 62
      32
100
AcDbText
 10
382.78398625
 20
534.0
 30
0.0
 40
16.0
  1
改訂番号
 41
0.6667
 72
       5
 11
433.98398625
 21
534.0
 31
0.0
100
AcDbText
  0
TEXT
  5
4C1
100
AcDbEntity
  8
ZUWAKU
 62
      32
100
AcDbText
 10
568.38398625
 20
534.0
 30
0.0
 40
16.0
  1
改 訂 履 歴
 41
0.7778
 72
       5
 11
680.38398625
 21
534.0
 31
0.0
100
AcDbText
  0
TEXT
  5
4C2
100
AcDbEntity
  8
ZUWAKU
 62
      32
100
AcDbText
 10
712.38398625
 20
534.0
 30
0.0
 40
16.0
  1
担当
 41
0.6667
 72
       5
 11
744.38398625
 21
534.0
 31
0.0
100
AcDbText
  0
TEXT
  5
4C3
100
AcDbEntity
  8
ZUWAKU
 62
      32
100
AcDbText
 10
760.38398625
 20
534.0
 30
0.0
 40
16.0
  1
承認
 41
0.6667
 72
       5
 11
792.38398625
 21
534.0
 31
0.0
100
AcDbText
  0
TEXT
  5
4C4
100
AcDbEntity
  8
ZUWAKU
 62
      32
100
AcDbText
 10
460.38398625
 20
534.0
 30
0.0
 40
16.0
  1
作成年月日
 41
0.7143
 72
       5
 11
524.38398625
 21
534.0
 31
0.0
100
AcDbText
  0
TEXT
  5
4C5
100
AcDbEntity
  8
ZUWAKU
 62
      32
100
AcDbText
 10
516.06539089
 20
-408.08262412
 30
0.0
 40
20.0
  1
顧客名
 41
0.75
 72
       5
 11
564.06539089
 21
-408.08262412
 31
0.0
100
AcDbText
  0
TEXT
  5
4C6
100
AcDbEntity
  8
ZUWAKU
 62
      32
100
AcDbText
 10
516.06539089
 20
-384.08262412
 30
0.0
 40
20.0
  1
物件名
 41
0.75
 72
       5
 11
564.06539089
 21
-384.08262412
 31
0.0
100
AcDbText
  0
LINE
  5
4C7
100
AcDbEntity
  8
ZUWAKU
  6
CONTINUOUS
 62
      32
100
AcDbLine
 10
16.65371633
 20
-581.44426494
 30
0.0
 11
18.90371633
 21
-575.19426494
 31
0.0
  0
LINE
  5
4C8
100
AcDbEntity
  8
ZUWAKU
  6
CONTINUOUS
 62
      32
100
AcDbLine
 10
0.00371633
 20
-581.44426494
 30
0.0
 11
3.50371633
 21
-571.94426494
 31
0.0
  0
LINE
  5
4C9
100
AcDbEntity
  8
ZUWAKU
  6
CONTINUOUS
 62
      32
100
AcDbLine
 10
-3.24628367
 20
-568.44426494
 30
0.0
 11
-4.49628367
 21
-571.94426494
 31
0.0
  0
LINE
  5
4CA
100
AcDbEntity
  8
ZUWAKU
  6
CONTINUOUS
 62
      32
100
AcDbLine
 10
8.25371633
 20
-581.44426494
 30
0.0
 11
12.00371633
 21
-570.44426494
 31
0.0
  0
LINE
  5
4CB
100
AcDbEntity
  8
ZUWAKU
  6
CONTINUOUS
 62
      32
100
AcDbLine
 10
60.70371633
 20
-581.44426494
 30
0.0
 11
56.45371633
 21
-574.44426494
 31
0.0
  0
LINE
  5
4CC
100
AcDbEntity
  8
ZUWAKU
  6
CONTINUOUS
 62
      32
100
AcDbLine
 10
-3.24628367
 20
-568.44426494
 30
0.0
 11
1.50371633
 21
-568.44426494
 31
0.0
  0
LINE
  5
4CD
100
AcDbEntity
  8
ZUWAKU
  6
CONTINUOUS
 62
      32
100
AcDbLine
 10
22.15371633
 20
-566.19426494
 30
0.0
 11
30.40371633
 21
-566.19426494
 31
0.0
  0
LINE
  5
4CE
100
AcDbEntity
  8
ZUWAKU
  6
CONTINUOUS
 62
      32
100
AcDbLine
 10
39.90371633
 20
-565.44426494
 30
0.0
 11
42.40371633
 21
-565.44426494
 31
0.0
  0
LINE
  5
4CF
100
AcDbEntity
  8
ZUWAKU
  6
CONTINUOUS
 62
      32
100
AcDbLine
 10
23.90371633
 20
-561.69426494
 30
0.0
 11
22.15371633
 21
-566.19426494
 31
0.0
  0
LINE
  5
4D0
100
AcDbEntity
  8
ZUWAKU
  6
CONTINUOUS
 62
      32
100
AcDbLine
 10
31.90371633
 20
-561.69426494
 30
0.0
 11
30.40371633
 21
-566.19426494
 31
0.0
  0
LINE
  5
4D1
100
AcDbEntity
  8
ZUWAKU
  6
CONTINUOUS
 62
      32
100
AcDbLine
 10
0.00371633
 20
-581.44426494
 30
0.0
 11
8.25371633
 21
-581.44426494
 31
0.0
  0
LINE
  5
4D2
100
AcDbEntity
  8
ZUWAKU
  6
CONTINUOUS
 62
      32
100
AcDbLine
 10
12.75371633
 20
-561.69426494
 30
0.0
 11
22.00371633
 21
-561.69426494
 31
0.0
  0
LINE
  5
4D3
100
AcDbEntity
  8
ZUWAKU
  6
CONTINUOUS
 62
      32
100
AcDbLine
 10
53.53341889
 20
-566.19426494
 30
0.0
 11
44.70371633
 21
-566.19426494
 31
0.0
  0
LINE
  5
4D4
100
AcDbEntity
  8
ZUWAKU
  6
CONTINUOUS
 62
      32
100
AcDbLine
 10
63.20371633
 20
-561.69426494
 30
0.0
 11
46.20371633
 21
-561.69426494
 31
0.0
  0
LINE
  5
4D5
100
AcDbEntity
  8
ZUWAKU
  6
CONTINUOUS
 62
      32
100
AcDbLine
 10
-4.49628367
 20
-571.94426494
 30
0.0
 11
3.50371633
 21
-571.94426494
 31
0.0
  0
LINE
  5
4D6
100
AcDbEntity
  8
ZUWAKU
  6
CONTINUOUS
 62
      32
100
AcDbLine
 10
16.65371633
 20
-581.44426494
 30
0.0
 11
29.90371633
 21
-581.44426494
 31
0.0
  0
LINE
  5
4D7
100
AcDbEntity
  8
ZUWAKU
  6
CONTINUOUS
 62
      32
100
AcDbLine
 10
18.90371633
 20
-575.19426494
 30
0.0
 11
30.90371633
 21
-575.19426494
 31
0.0
  0
LINE
  5
4D8
100
AcDbEntity
  8
ZUWAKU
  6
CONTINUOUS
 62
      32
100
AcDbLine
 10
60.70371633
 20
-581.44426494
 30
0.0
 11
54.45371633
 21
-581.44426494
 31
0.0
  0
LINE
  5
4D9
100
AcDbEntity
  8
ZUWAKU
  6
CONTINUOUS
 62
      32
100
AcDbLine
 10
44.70371633
 20
-566.19426494
 30
0.0
 11
46.20371633
 21
-561.69426494
 31
0.0
  0
LINE
  5
4DA
100
AcDbEntity
  8
ZUWAKU
  6
CONTINUOUS
 62
      32
100
AcDbLine
 10
-42.24628367
 20
-561.69426494
 30
0.0
 11
-46.49628367
 21
-573.69426494
 31
0.0
  0
LINE
  5
4DB
100
AcDbEntity
  8
ZUWAKU
  6
CONTINUOUS
 62
      32
100
AcDbLine
 10
-46.49628367
 20
-573.69426494
 30
0.0
 11
-40.74628367
 21
-573.69426494
 31
0.0
  0
LINE
  5
4DC
100
AcDbEntity
  8
ZUWAKU
  6
CONTINUOUS
 62
      32
100
AcDbLine
 10
-40.74628367
 20
-573.69426494
 30
0.0
 11
-36.24628367
 21
-561.69426494
 31
0.0
  0
LINE
  5
4DD
100
AcDbEntity
  8
ZUWAKU
  6
CONTINUOUS
 62
      32
100
AcDbLine
 10
-36.24628367
 20
-561.69426494
 30
0.0
 11
-42.24628367
 21
-561.69426494
 31
0.0
  0
LINE
  5
4DE
100
AcDbEntity
  8
ZUWAKU
  6
CONTINUOUS
 62
      32
100
AcDbLine
 10
33.90371633
 20
-573.69426494
 30
0.0
 11
36.65371633
 21
-571.44426494
 31
0.0
  0
LINE
  5
4DF
100
AcDbEntity
  8
ZUWAKU
  6
CONTINUOUS
 62
      32
100
AcDbLine
 10
36.65371633
 20
-571.44426494
 30
0.0
 11
38.65371633
 21
-568.69426494
 31
0.0
  0
LINE
  5
4E0
100
AcDbEntity
  8
ZUWAKU
  6
CONTINUOUS
 62
      32
100
AcDbLine
 10
38.65371633
 20
-568.69426494
 30
0.0
 11
39.90371633
 21
-565.44426494
 31
0.0
  0
LINE
  5
4E1
100
AcDbEntity
  8
ZUWAKU
  6
CONTINUOUS
 62
      32
100
AcDbLine
 10
-21.69628367
 20
-561.69426494
 30
0.0
 11
-3.44628367
 21
-561.69426494
 31
0.0
  0
LINE
  5
4E2
100
AcDbEntity
  8
ZUWAKU
  6
CONTINUOUS
 62
      32
100
AcDbLine
 10
-3.44628367
 20
-561.69426494
 30
0.0
 11
-4.94628367
 21
-566.19426494
 31
0.0
  0
LINE
  5
4E3
100
AcDbEntity
  8
ZUWAKU
  6
CONTINUOUS
 62
      32
100
AcDbLine
 10
-3.44628367
 20
-561.69426494
 30
0.0
 11
-4.94628367
 21
-566.19426494
 31
0.0
  0
LINE
  5
4E4
100
AcDbEntity
  8
ZUWAKU
  6
CONTINUOUS
 62
      32
100
AcDbLine
 10
-4.94628367
 20
-566.19426494
 30
0.0
 11
-23.19628367
 21
-566.19426494
 31
0.0
  0
LINE
  5
4E5
100
AcDbEntity
  8
ZUWAKU
  6
CONTINUOUS
 62
      32
100
AcDbLine
 10
-23.19628367
 20
-566.19426494
 30
0.0
 11
-21.69628367
 21
-561.69426494
 31
0.0
  0
LINE
  5
4E6
100
AcDbEntity
  8
ZUWAKU
  6
CONTINUOUS
 62
      32
100
AcDbLine
 10
-23.19628367
 20
-566.19426494
 30
0.0
 11
-21.69628367
 21
-561.69426494
 31
0.0
  0
LINE
  5
4E7
100
AcDbEntity
  8
ZUWAKU
  6
CONTINUOUS
 62
      32
100
AcDbLine
 10
-3.44628367
 20
-561.69426494
 30
0.0
 11
-21.69628367
 21
-561.69426494
 31
0.0
  0
LINE
  5
4E8
100
AcDbEntity
  8
ZUWAKU
  6
CONTINUOUS
 62
      32
100
AcDbLine
 10
-21.69628367
 20
-561.69426494
 30
0.0
 11
-23.19628367
 21
-566.19426494
 31
0.0
  0
LINE
  5
4E9
100
AcDbEntity
  8
ZUWAKU
  6
CONTINUOUS
 62
      32
100
AcDbLine
 10
-23.19628367
 20
-566.19426494
 30
0.0
 11
-4.94628367
 21
-566.19426494
 31
0.0
  0
LINE
  5
4EA
100
AcDbEntity
  8
ZUWAKU
  6
CONTINUOUS
 62
      32
100
AcDbLine
 10
-13.94628367
 20
-580.94426494
 30
0.0
 11
-11.94628367
 21
-579.94426494
 31
0.0
  0
LINE
  5
4EB
100
AcDbEntity
  8
ZUWAKU
  6
CONTINUOUS
 62
      32
100
AcDbLine
 10
-11.94628367
 20
-579.94426494
 30
0.0
 11
-10.44628367
 21
-578.44426494
 31
0.0
  0
LINE
  5
4EC
100
AcDbEntity
  8
ZUWAKU
  6
CONTINUOUS
 62
      32
100
AcDbLine
 10
-10.44628367
 20
-578.44426494
 30
0.0
 11
-8.69628367
 21
-576.69426494
 31
0.0
  0
LINE
  5
4ED
100
AcDbEntity
  8
ZUWAKU
  6
CONTINUOUS
 62
      32
100
AcDbLine
 10
-8.69628367
 20
-576.69426494
 30
0.0
 11
-5.69628367
 21
-568.44426494
 31
0.0
  0
LINE
  5
4EE
100
AcDbEntity
  8
ZUWAKU
  6
CONTINUOUS
 62
      32
100
AcDbLine
 10
-5.69628367
 20
-568.44426494
 30
0.0
 11
-23.69628367
 21
-568.44426494
 31
0.0
  0
LINE
  5
4EF
100
AcDbEntity
  8
ZUWAKU
  6
CONTINUOUS
 62
      32
100
AcDbLine
 10
-23.69628367
 20
-568.44426494
 30
0.0
 11
-24.69628367
 21
-571.94426494
 31
0.0
  0
LINE
  5
4F0
100
AcDbEntity
  8
ZUWAKU
  6
CONTINUOUS
 62
      32
100
AcDbLine
 10
-24.69628367
 20
-571.94426494
 30
0.0
 11
-14.19628367
 21
-571.94426494
 31
0.0
  0
LINE
  5
4F1
100
AcDbEntity
  8
ZUWAKU
  6
CONTINUOUS
 62
      32
100
AcDbLine
 10
-14.19628367
 20
-571.94426494
 30
0.0
 11
-14.69628367
 21
-573.69426494
 31
0.0
  0
LINE
  5
4F2
100
AcDbEntity
  8
ZUWAKU
  6
CONTINUOUS
 62
      32
100
AcDbLine
 10
-14.69628367
 20
-573.69426494
 30
0.0
 11
-15.94628367
 21
-575.19426494
 31
0.0
  0
LINE
  5
4F3
100
AcDbEntity
  8
ZUWAKU
  6
CONTINUOUS
 62
      32
100
AcDbLine
 10
-15.94628367
 20
-575.19426494
 30
0.0
 11
-17.19628367
 21
-576.44426494
 31
0.0
  0
LINE
  5
4F4
100
AcDbEntity
  8
ZUWAKU
  6
CONTINUOUS
 62
      32
100
AcDbLine
 10
-17.19628367
 20
-576.44426494
 30
0.0
 11
-18.94628367
 21
-577.69426494
 31
0.0
  0
LINE
  5
4F5
100
AcDbEntity
  8
ZUWAKU
  6
CONTINUOUS
 62
      32
100
AcDbLine
 10
-18.94628367
 20
-577.69426494
 30
0.0
 11
-27.19628367
 21
-577.69426494
 31
0.0
  0
LINE
  5
4F6
100
AcDbEntity
  8
ZUWAKU
  6
CONTINUOUS
 62
      32
100
AcDbLine
 10
-27.19628367
 20
-577.69426494
 30
0.0
 11
-28.69628367
 21
-581.44426494
 31
0.0
  0
LINE
  5
4F7
100
AcDbEntity
  8
ZUWAKU
  6
CONTINUOUS
 62
      32
100
AcDbLine
 10
-44.74628367
 20
-581.44426494
 30
0.0
 11
-43.49628367
 21
-577.69426494
 31
0.0
  0
LINE
  5
4F8
100
AcDbEntity
  8
ZUWAKU
  6
CONTINUOUS
 62
      32
100
AcDbLine
 10
-43.49628367
 20
-577.69426494
 30
0.0
 11
-41.24628367
 21
-577.69426494
 31
0.0
  0
LINE
  5
4F9
100
AcDbEntity
  8
ZUWAKU
  6
CONTINUOUS
 62
      32
100
AcDbLine
 10
-41.24628367
 20
-577.69426494
 30
0.0
 11
-39.24628367
 21
-577.44426494
 31
0.0
  0
LINE
  5
4FA
100
AcDbEntity
  8
ZUWAKU
  6
CONTINUOUS
 62
      32
100
AcDbLine
 10
-39.24628367
 20
-577.44426494
 30
0.0
 11
-37.24628367
 21
-576.44426494
 31
0.0
  0
LINE
  5
4FB
100
AcDbEntity
  8
ZUWAKU
  6
CONTINUOUS
 62
      32
100
AcDbLine
 10
-37.24628367
 20
-576.44426494
 30
0.0
 11
-35.99628367
 21
-574.44426494
 31
0.0
  0
LINE
  5
4FC
100
AcDbEntity
  8
ZUWAKU
  6
CONTINUOUS
 62
      32
100
AcDbLine
 10
-35.99628367
 20
-574.44426494
 30
0.0
 11
-31.24628367
 21
-561.69426494
 31
0.0
  0
LINE
  5
4FD
100
AcDbEntity
  8
ZUWAKU
  6
CONTINUOUS
 62
      32
100
AcDbLine
 10
-31.24628367
 20
-561.69426494
 30
0.0
 11
-24.49628367
 21
-561.69426494
 31
0.0
  0
LINE
  5
4FE
100
AcDbEntity
  8
ZUWAKU
  6
CONTINUOUS
 62
      32
100
AcDbLine
 10
-24.49628367
 20
-561.69426494
 30
0.0
 11
-29.49628367
 21
-576.44426494
 31
0.0
  0
LINE
  5
4FF
100
AcDbEntity
  8
ZUWAKU
  6
CONTINUOUS
 62
      32
100
AcDbLine
 10
-29.49628367
 20
-576.44426494
 30
0.0
 11
-31.49628367
 21
-578.44426494
 31
0.0
  0
LINE
  5
500
100
AcDbEntity
  8
ZUWAKU
  6
CONTINUOUS
 62
      32
100
AcDbLine
 10
-31.49628367
 20
-578.44426494
 30
0.0
 11
-33.49628367
 21
-580.19426494
 31
0.0
  0
LINE
  5
501
100
AcDbEntity
  8
ZUWAKU
  6
CONTINUOUS
 62
      32
100
AcDbLine
 10
-33.49628367
 20
-580.19426494
 30
0.0
 11
-35.99628367
 21
-581.19426494
 31
0.0
  0
LINE
  5
502
100
AcDbEntity
  8
ZUWAKU
  6
CONTINUOUS
 62
      32
100
AcDbLine
 10
22.00371633
 20
-561.69426494
 30
0.0
 11
20.50371633
 21
-564.94426494
 31
0.0
  0
LINE
  5
503
100
AcDbEntity
  8
ZUWAKU
  6
CONTINUOUS
 62
      32
100
AcDbLine
 10
20.50371633
 20
-564.94426494
 30
0.0
 11
18.00371633
 21
-567.44426494
 31
0.0
  0
LINE
  5
504
100
AcDbEntity
  8
ZUWAKU
  6
CONTINUOUS
 62
      32
100
AcDbLine
 10
20.50371633
 20
-564.94426494
 30
0.0
 11
18.00371633
 21
-567.44426494
 31
0.0
  0
LINE
  5
505
100
AcDbEntity
  8
ZUWAKU
  6
CONTINUOUS
 62
      32
100
AcDbLine
 10
18.00371633
 20
-567.44426494
 30
0.0
 11
15.25371633
 21
-569.44426494
 31
0.0
  0
LINE
  5
506
100
AcDbEntity
  8
ZUWAKU
  6
CONTINUOUS
 62
      32
100
AcDbLine
 10
15.25371633
 20
-569.44426494
 30
0.0
 11
12.00371633
 21
-570.44426494
 31
0.0
  0
LINE
  5
507
100
AcDbEntity
  8
ZUWAKU
  6
CONTINUOUS
 62
      32
100
AcDbLine
 10
15.25371633
 20
-569.44426494
 30
0.0
 11
12.00371633
 21
-570.44426494
 31
0.0
  0
LINE
  5
508
100
AcDbEntity
  8
ZUWAKU
  6
CONTINUOUS
 62
      32
100
AcDbLine
 10
12.00371633
 20
-570.44426494
 30
0.0
 11
8.25371633
 21
-581.44426494
 31
0.0
  0
LINE
  5
509
100
AcDbEntity
  8
ZUWAKU
  6
CONTINUOUS
 62
      32
100
AcDbLine
 10
8.25371633
 20
-581.44426494
 30
0.0
 11
0.00371633
 21
-581.44426494
 31
0.0
  0
LINE
  5
50A
100
AcDbEntity
  8
ZUWAKU
  6
CONTINUOUS
 62
      32
100
AcDbLine
 10
8.25371633
 20
-581.44426494
 30
0.0
 11
0.00371633
 21
-581.44426494
 31
0.0
  0
LINE
  5
50B
100
AcDbEntity
  8
ZUWAKU
  6
CONTINUOUS
 62
      32
100
AcDbLine
 10
3.10371633
 20
-571.94426494
 30
0.0
 11
-4.49628367
 21
-571.94426494
 31
0.0
  0
LINE
  5
50C
100
AcDbEntity
  8
ZUWAKU
  6
CONTINUOUS
 62
      32
100
AcDbLine
 10
-4.49628367
 20
-571.94426494
 30
0.0
 11
-3.24628367
 21
-568.44426494
 31
0.0
  0
LINE
  5
50D
100
AcDbEntity
  8
ZUWAKU
  6
CONTINUOUS
 62
      32
100
AcDbLine
 10
0.00371633
 20
-581.44426494
 30
0.0
 11
3.50371633
 21
-571.94426494
 31
0.0
  0
LINE
  5
50E
100
AcDbEntity
  8
ZUWAKU
  6
CONTINUOUS
 62
      32
100
AcDbLine
 10
0.00371633
 20
-581.44426494
 30
0.0
 11
3.50371633
 21
-571.94426494
 31
0.0
  0
LINE
  5
50F
100
AcDbEntity
  8
ZUWAKU
  6
CONTINUOUS
 62
      32
100
AcDbLine
 10
-3.24628367
 20
-568.44426494
 30
0.0
 11
1.50371633
 21
-568.44426494
 31
0.0
  0
LINE
  5
510
100
AcDbEntity
  8
ZUWAKU
  6
CONTINUOUS
 62
      32
100
AcDbLine
 10
-3.24628367
 20
-568.44426494
 30
0.0
 11
1.50371633
 21
-568.44426494
 31
0.0
  0
LINE
  5
511
100
AcDbEntity
  8
ZUWAKU
  6
CONTINUOUS
 62
      32
100
AcDbLine
 10
1.50371633
 20
-568.44426494
 30
0.0
 11
4.75371633
 21
-568.19426494
 31
0.0
  0
LINE
  5
512
100
AcDbEntity
  8
ZUWAKU
  6
CONTINUOUS
 62
      32
100
AcDbLine
 10
1.50371633
 20
-568.44426494
 30
0.0
 11
4.75371633
 21
-568.19426494
 31
0.0
  0
LINE
  5
513
100
AcDbEntity
  8
ZUWAKU
  6
CONTINUOUS
 62
      32
100
AcDbLine
 10
4.75371633
 20
-568.19426494
 30
0.0
 11
8.25371633
 21
-566.69426494
 31
0.0
  0
LINE
  5
514
100
AcDbEntity
  8
ZUWAKU
  6
CONTINUOUS
 62
      32
100
AcDbLine
 10
4.75371633
 20
-568.19426494
 30
0.0
 11
8.25371633
 21
-566.69426494
 31
0.0
  0
LINE
  5
515
100
AcDbEntity
  8
ZUWAKU
  6
CONTINUOUS
 62
      32
100
AcDbLine
 10
8.25371633
 20
-566.69426494
 30
0.0
 11
10.75371633
 21
-564.44426494
 31
0.0
  0
LINE
  5
516
100
AcDbEntity
  8
ZUWAKU
  6
CONTINUOUS
 62
      32
100
AcDbLine
 10
8.25371633
 20
-566.69426494
 30
0.0
 11
10.75371633
 21
-564.44426494
 31
0.0
  0
LINE
  5
517
100
AcDbEntity
  8
ZUWAKU
  6
CONTINUOUS
 62
      32
100
AcDbLine
 10
-36.24628367
 20
-561.69426494
 30
0.0
 11
-40.74628367
 21
-573.69426494
 31
0.0
  0
LINE
  5
518
100
AcDbEntity
  8
ZUWAKU
  6
CONTINUOUS
 62
      32
100
AcDbLine
 10
-40.74628367
 20
-573.69426494
 30
0.0
 11
-46.49628367
 21
-573.69426494
 31
0.0
  0
LINE
  5
519
100
AcDbEntity
  8
ZUWAKU
  6
CONTINUOUS
 62
      32
100
AcDbLine
 10
-40.74628367
 20
-573.69426494
 30
0.0
 11
-46.49628367
 21
-573.69426494
 31
0.0
  0
LINE
  5
51A
100
AcDbEntity
  8
ZUWAKU
  6
CONTINUOUS
 62
      32
100
AcDbLine
 10
-46.49628367
 20
-573.69426494
 30
0.0
 11
-42.24628367
 21
-561.69426494
 31
0.0
  0
LINE
  5
51B
100
AcDbEntity
  8
ZUWAKU
  6
CONTINUOUS
 62
      32
100
AcDbLine
 10
-42.24628367
 20
-561.69426494
 30
0.0
 11
-36.24628367
 21
-561.69426494
 31
0.0
  0
LINE
  5
51C
100
AcDbEntity
  8
ZUWAKU
  6
CONTINUOUS
 62
      32
100
AcDbLine
 10
-42.24628367
 20
-561.69426494
 30
0.0
 11
-36.24628367
 21
-561.69426494
 31
0.0
  0
LINE
  5
51D
100
AcDbEntity
  8
ZUWAKU
  6
CONTINUOUS
 62
      32
100
AcDbLine
 10
46.20371633
 20
-561.69426494
 30
0.0
 11
44.70371633
 21
-566.19426494
 31
0.0
  0
LINE
  5
51E
100
AcDbEntity
  8
ZUWAKU
  6
CONTINUOUS
 62
      32
100
AcDbLine
 10
44.70371633
 20
-566.19426494
 30
0.0
 11
52.70371633
 21
-566.19426494
 31
0.0
  0
LINE
  5
51F
100
AcDbEntity
  8
ZUWAKU
  6
CONTINUOUS
 62
      32
100
AcDbLine
 10
44.70371633
 20
-566.19426494
 30
0.0
 11
52.70371633
 21
-566.19426494
 31
0.0
  0
LINE
  5
520
100
AcDbEntity
  8
ZUWAKU
  6
CONTINUOUS
 62
      32
100
AcDbLine
 10
39.20371633
 20
-577.44426494
 30
0.0
 11
37.70371633
 21
-581.69426494
 31
0.0
  0
LINE
  5
521
100
AcDbEntity
  8
ZUWAKU
  6
CONTINUOUS
 62
      32
100
AcDbLine
 10
39.20371633
 20
-577.44426494
 30
0.0
 11
37.70371633
 21
-581.69426494
 31
0.0
  0
LINE
  5
522
100
AcDbEntity
  8
ZUWAKU
  6
CONTINUOUS
 62
      32
100
AcDbLine
 10
37.70371633
 20
-581.69426494
 30
0.0
 11
45.20371633
 21
-580.44426494
 31
0.0
  0
LINE
  5
523
100
AcDbEntity
  8
ZUWAKU
  6
CONTINUOUS
 62
      32
100
AcDbLine
 10
45.20371633
 20
-580.44426494
 30
0.0
 11
48.70371633
 21
-579.44426494
 31
0.0
  0
LINE
  5
524
100
AcDbEntity
  8
ZUWAKU
  6
CONTINUOUS
 62
      32
100
AcDbLine
 10
45.20371633
 20
-580.44426494
 30
0.0
 11
48.70371633
 21
-579.44426494
 31
0.0
  0
LINE
  5
525
100
AcDbEntity
  8
ZUWAKU
  6
CONTINUOUS
 62
      32
100
AcDbLine
 10
52.45371633
 20
-578.19426494
 30
0.0
 11
54.45371633
 21
-581.44426494
 31
0.0
  0
LINE
  5
526
100
AcDbEntity
  8
ZUWAKU
  6
CONTINUOUS
 62
      32
100
AcDbLine
 10
54.45371633
 20
-581.44426494
 30
0.0
 11
60.70371633
 21
-581.44426494
 31
0.0
  0
LINE
  5
527
100
AcDbEntity
  8
ZUWAKU
  6
CONTINUOUS
 62
      32
100
AcDbLine
 10
54.45371633
 20
-581.44426494
 30
0.0
 11
60.70371633
 21
-581.44426494
 31
0.0
  0
LINE
  5
528
100
AcDbEntity
  8
ZUWAKU
  6
CONTINUOUS
 62
      32
100
AcDbLine
 10
56.45371633
 20
-574.44426494
 30
0.0
 11
58.70371633
 21
-571.44426494
 31
0.0
  0
LINE
  5
529
100
AcDbEntity
  8
ZUWAKU
  6
CONTINUOUS
 62
      32
100
AcDbLine
 10
58.70371633
 20
-571.44426494
 30
0.0
 11
60.70371633
 21
-568.44426494
 31
0.0
  0
LINE
  5
52A
100
AcDbEntity
  8
ZUWAKU
  6
CONTINUOUS
 62
      32
100
AcDbLine
 10
60.70371633
 20
-568.44426494
 30
0.0
 11
62.20371633
 21
-565.19426494
 31
0.0
  0
LINE
  5
52B
100
AcDbEntity
  8
ZUWAKU
  6
CONTINUOUS
 62
      32
100
AcDbLine
 10
62.20371633
 20
-565.19426494
 30
0.0
 11
63.20371633
 21
-561.69426494
 31
0.0
  0
LINE
  5
52C
100
AcDbEntity
  8
ZUWAKU
  6
CONTINUOUS
 62
      32
100
AcDbLine
 10
62.20371633
 20
-565.19426494
 30
0.0
 11
63.20371633
 21
-561.69426494
 31
0.0
  0
LINE
  5
52D
100
AcDbEntity
  8
ZUWAKU
  6
CONTINUOUS
 62
      32
100
AcDbLine
 10
63.20371633
 20
-561.69426494
 30
0.0
 11
46.20371633
 21
-561.69426494
 31
0.0
  0
LINE
  5
52E
100
AcDbEntity
  8
ZUWAKU
  6
CONTINUOUS
 62
      32
100
AcDbLine
 10
47.95371633
 20
-574.19426494
 30
0.0
 11
43.95371633
 21
-576.44426494
 31
0.0
  0
LINE
  5
52F
100
AcDbEntity
  8
ZUWAKU
  6
CONTINUOUS
 62
      32
100
AcDbLine
 10
48.70371633
 20
-579.44426494
 30
0.0
 11
52.45371633
 21
-578.19426494
 31
0.0
  0
LINE
  5
530
100
AcDbEntity
  8
ZUWAKU
  6
CONTINUOUS
 62
      32
100
AcDbLine
 10
48.70371633
 20
-579.44426494
 30
0.0
 11
52.45371633
 21
-578.19426494
 31
0.0
  0
LINE
  5
531
100
AcDbEntity
  8
ZUWAKU
  6
CONTINUOUS
 62
      32
100
AcDbLine
 10
60.70371633
 20
-581.44426494
 30
0.0
 11
56.45371633
 21
-574.44426494
 31
0.0
  0
LINE
  5
532
100
AcDbEntity
  8
ZUWAKU
  6
CONTINUOUS
 62
      32
100
AcDbLine
 10
60.70371633
 20
-581.44426494
 30
0.0
 11
56.45371633
 21
-574.44426494
 31
0.0
  0
LINE
  5
533
100
AcDbEntity
  8
ZUWAKU
  6
CONTINUOUS
 62
      32
100
AcDbLine
 10
51.20371633
 20
-570.44426494
 30
0.0
 11
47.95371633
 21
-574.19426494
 31
0.0
  0
LINE
  5
534
100
AcDbEntity
  8
ZUWAKU
  6
CONTINUOUS
 62
      32
100
AcDbLine
 10
51.20371633
 20
-570.44426494
 30
0.0
 11
47.95371633
 21
-574.19426494
 31
0.0
  0
LINE
  5
535
100
AcDbEntity
  8
ZUWAKU
  6
CONTINUOUS
 62
      32
100
AcDbLine
 10
1.50371633
 20
-568.44426494
 30
0.0
 11
4.75371633
 21
-568.19426494
 31
0.0
  0
LINE
  5
536
100
AcDbEntity
  8
ZUWAKU
  6
CONTINUOUS
 62
      32
100
AcDbLine
 10
4.75371633
 20
-568.19426494
 30
0.0
 11
8.25371633
 21
-566.69426494
 31
0.0
  0
LINE
  5
537
100
AcDbEntity
  8
ZUWAKU
  6
CONTINUOUS
 62
      32
100
AcDbLine
 10
8.25371633
 20
-566.69426494
 30
0.0
 11
10.75371633
 21
-564.44426494
 31
0.0
  0
LINE
  5
538
100
AcDbEntity
  8
ZUWAKU
  6
CONTINUOUS
 62
      32
100
AcDbLine
 10
10.75371633
 20
-564.44426494
 30
0.0
 11
12.75371633
 21
-561.69426494
 31
0.0
  0
LINE
  5
539
100
AcDbEntity
  8
ZUWAKU
  6
CONTINUOUS
 62
      32
100
AcDbLine
 10
29.90371633
 20
-581.44426494
 30
0.0
 11
34.40371633
 21
-579.44426494
 31
0.0
  0
LINE
  5
53A
100
AcDbEntity
  8
ZUWAKU
  6
CONTINUOUS
 62
      32
100
AcDbLine
 10
34.40371633
 20
-579.44426494
 30
0.0
 11
38.40371633
 21
-575.69426494
 31
0.0
  0
LINE
  5
53B
100
AcDbEntity
  8
ZUWAKU
  6
CONTINUOUS
 62
      32
100
AcDbLine
 10
38.40371633
 20
-575.69426494
 30
0.0
 11
41.40371633
 21
-570.69426494
 31
0.0
  0
LINE
  5
53C
100
AcDbEntity
  8
ZUWAKU
  6
CONTINUOUS
 62
      32
100
AcDbLine
 10
41.40371633
 20
-570.69426494
 30
0.0
 11
42.40371633
 21
-565.44426494
 31
0.0
  0
LINE
  5
53D
100
AcDbEntity
  8
ZUWAKU
  6
CONTINUOUS
 62
      32
100
AcDbLine
 10
39.20371633
 20
-577.44426494
 30
0.0
 11
43.95371633
 21
-576.44426494
 31
0.0
  0
LINE
  5
53E
100
AcDbEntity
  8
ZUWAKU
  6
CONTINUOUS
 62
      32
100
AcDbLine
 10
43.95371633
 20
-576.44426494
 30
0.0
 11
47.95371633
 21
-574.19426494
 31
0.0
  0
LINE
  5
53F
100
AcDbEntity
  8
ZUWAKU
  6
CONTINUOUS
 62
      32
100
AcDbLine
 10
47.95371633
 20
-574.19426494
 30
0.0
 11
51.20371633
 21
-570.44426494
 31
0.0
  0
LINE
  5
540
100
AcDbEntity
  8
ZUWAKU
  6
CONTINUOUS
 62
      32
100
AcDbLine
 10
12.00371633
 20
-570.44426494
 30
0.0
 11
15.25371633
 21
-569.44426494
 31
0.0
  0
LINE
  5
541
100
AcDbEntity
  8
ZUWAKU
  6
CONTINUOUS
 62
      32
100
AcDbLine
 10
15.25371633
 20
-569.44426494
 30
0.0
 11
18.00371633
 21
-567.44426494
 31
0.0
  0
LINE
  5
542
100
AcDbEntity
  8
ZUWAKU
  6
CONTINUOUS
 62
      32
100
AcDbLine
 10
18.00371633
 20
-567.44426494
 30
0.0
 11
20.50371633
 21
-564.94426494
 31
0.0
  0
LINE
  5
543
100
AcDbEntity
  8
ZUWAKU
  6
CONTINUOUS
 62
      32
100
AcDbLine
 10
20.50371633
 20
-564.94426494
 30
0.0
 11
22.00371633
 21
-561.69426494
 31
0.0
  0
LINE
  5
544
100
AcDbEntity
  8
ZUWAKU
  6
CONTINUOUS
 62
      32
100
AcDbLine
 10
56.45371633
 20
-574.44426494
 30
0.0
 11
58.70371633
 21
-571.44426494
 31
0.0
  0
LINE
  5
545
100
AcDbEntity
  8
ZUWAKU
  6
CONTINUOUS
 62
      32
100
AcDbLine
 10
58.70371633
 20
-571.44426494
 30
0.0
 11
60.70371633
 21
-568.44426494
 31
0.0
  0
LINE
  5
546
100
AcDbEntity
  8
ZUWAKU
  6
CONTINUOUS
 62
      32
100
AcDbLine
 10
60.70371633
 20
-568.44426494
 30
0.0
 11
62.20371633
 21
-565.19426494
 31
0.0
  0
LINE
  5
547
100
AcDbEntity
  8
ZUWAKU
  6
CONTINUOUS
 62
      32
100
AcDbLine
 10
62.20371633
 20
-565.19426494
 30
0.0
 11
63.20371633
 21
-561.69426494
 31
0.0
  0
LINE
  5
548
100
AcDbEntity
  8
ZUWAKU
  6
CONTINUOUS
 62
      32
100
AcDbLine
 10
45.20371633
 20
-580.44426494
 30
0.0
 11
48.70371633
 21
-579.44426494
 31
0.0
  0
LINE
  5
549
100
AcDbEntity
  8
ZUWAKU
  6
CONTINUOUS
 62
      32
100
AcDbLine
 10
48.70371633
 20
-579.44426494
 30
0.0
 11
52.45371633
 21
-578.19426494
 31
0.0
  0
LINE
  5
54A
100
AcDbEntity
  8
ZUWAKU
  6
CONTINUOUS
 62
      32
100
AcDbLine
 10
38.65371633
 20
-568.69426494
 30
0.0
 11
39.90371633
 21
-565.44426494
 31
0.0
  0
LINE
  5
54B
100
AcDbEntity
  8
ZUWAKU
  6
CONTINUOUS
 62
      32
100
AcDbLine
 10
39.90371633
 20
-565.44426494
 30
0.0
 11
42.40371633
 21
-565.44426494
 31
0.0
  0
LINE
  5
54C
100
AcDbEntity
  8
ZUWAKU
  6
CONTINUOUS
 62
      32
100
AcDbLine
 10
39.90371633
 20
-565.44426494
 30
0.0
 11
42.40371633
 21
-565.44426494
 31
0.0
  0
LINE
  5
54D
100
AcDbEntity
  8
ZUWAKU
  6
CONTINUOUS
 62
      32
100
AcDbLine
 10
42.40371633
 20
-565.44426494
 30
0.0
 11
41.40371633
 21
-570.69426494
 31
0.0
  0
LINE
  5
54E
100
AcDbEntity
  8
ZUWAKU
  6
CONTINUOUS
 62
      32
100
AcDbLine
 10
41.40371633
 20
-570.69426494
 30
0.0
 11
38.40371633
 21
-575.69426494
 31
0.0
  0
LINE
  5
54F
100
AcDbEntity
  8
ZUWAKU
  6
CONTINUOUS
 62
      32
100
AcDbLine
 10
41.40371633
 20
-570.69426494
 30
0.0
 11
38.40371633
 21
-575.69426494
 31
0.0
  0
LINE
  5
550
100
AcDbEntity
  8
ZUWAKU
  6
CONTINUOUS
 62
      32
100
AcDbLine
 10
38.40371633
 20
-575.69426494
 30
0.0
 11
34.40371633
 21
-579.44426494
 31
0.0
  0
LINE
  5
551
100
AcDbEntity
  8
ZUWAKU
  6
CONTINUOUS
 62
      32
100
AcDbLine
 10
29.40371633
 20
-581.44426494
 30
0.0
 11
16.65371633
 21
-581.44426494
 31
0.0
  0
LINE
  5
552
100
AcDbEntity
  8
ZUWAKU
  6
CONTINUOUS
 62
      32
100
AcDbLine
 10
16.65371633
 20
-581.44426494
 30
0.0
 11
18.90371633
 21
-575.19426494
 31
0.0
  0
LINE
  5
553
100
AcDbEntity
  8
ZUWAKU
  6
CONTINUOUS
 62
      32
100
AcDbLine
 10
16.65371633
 20
-581.44426494
 30
0.0
 11
18.90371633
 21
-575.19426494
 31
0.0
  0
LINE
  5
554
100
AcDbEntity
  8
ZUWAKU
  6
CONTINUOUS
 62
      32
100
AcDbLine
 10
36.65371633
 20
-571.44426494
 30
0.0
 11
38.65371633
 21
-568.69426494
 31
0.0
  0
LINE
  5
555
100
AcDbEntity
  8
ZUWAKU
  6
CONTINUOUS
 62
      32
100
AcDbLine
 10
18.90371633
 20
-575.19426494
 30
0.0
 11
30.90371633
 21
-575.19426494
 31
0.0
  0
LINE
  5
556
100
AcDbEntity
  8
ZUWAKU
  6
CONTINUOUS
 62
      32
100
AcDbLine
 10
18.90371633
 20
-575.19426494
 30
0.0
 11
30.90371633
 21
-575.19426494
 31
0.0
  0
LINE
  5
557
100
AcDbEntity
  8
ZUWAKU
  6
CONTINUOUS
 62
      32
100
AcDbLine
 10
30.90371633
 20
-575.19426494
 30
0.0
 11
33.90371633
 21
-573.69426494
 31
0.0
  0
LINE
  5
558
100
AcDbEntity
  8
ZUWAKU
  6
CONTINUOUS
 62
      32
100
AcDbLine
 10
30.90371633
 20
-575.19426494
 30
0.0
 11
33.90371633
 21
-573.69426494
 31
0.0
  0
LINE
  5
559
100
AcDbEntity
  8
ZUWAKU
  6
CONTINUOUS
 62
      32
100
AcDbLine
 10
33.90371633
 20
-573.69426494
 30
0.0
 11
36.65371633
 21
-571.44426494
 31
0.0
  0
LINE
  5
55A
100
AcDbEntity
  8
ZUWAKU
  6
CONTINUOUS
 62
      32
100
AcDbLine
 10
-5.69628367
 20
-568.44426494
 30
0.0
 11
-8.69628367
 21
-576.69426494
 31
0.0
  0
LINE
  5
55B
100
AcDbEntity
  8
ZUWAKU
  6
CONTINUOUS
 62
      32
100
AcDbLine
 10
-8.69628367
 20
-576.69426494
 30
0.0
 11
-10.44628367
 21
-578.44426494
 31
0.0
  0
LINE
  5
55C
100
AcDbEntity
  8
ZUWAKU
  6
CONTINUOUS
 62
      32
100
AcDbLine
 10
-8.69628367
 20
-576.69426494
 30
0.0
 11
-10.44628367
 21
-578.44426494
 31
0.0
  0
LINE
  5
55D
100
AcDbEntity
  8
ZUWAKU
  6
CONTINUOUS
 62
      32
100
AcDbLine
 10
-10.44628367
 20
-578.44426494
 30
0.0
 11
-11.94628367
 21
-579.94426494
 31
0.0
  0
LINE
  5
55E
100
AcDbEntity
  8
ZUWAKU
  6
CONTINUOUS
 62
      32
100
AcDbLine
 10
-11.94628367
 20
-579.94426494
 30
0.0
 11
-13.94628367
 21
-580.94426494
 31
0.0
  0
LINE
  5
55F
100
AcDbEntity
  8
ZUWAKU
  6
CONTINUOUS
 62
      32
100
AcDbLine
 10
-11.94628367
 20
-579.94426494
 30
0.0
 11
-13.94628367
 21
-580.94426494
 31
0.0
  0
LINE
  5
560
100
AcDbEntity
  8
ZUWAKU
  6
CONTINUOUS
 62
      32
100
AcDbLine
 10
-13.94628367
 20
-580.94426494
 30
0.0
 11
-15.94628367
 21
-581.44426494
 31
0.0
  0
LINE
  5
561
100
AcDbEntity
  8
ZUWAKU
  6
CONTINUOUS
 62
      32
100
AcDbLine
 10
-15.94628367
 20
-581.44426494
 30
0.0
 11
-28.69628367
 21
-581.44426494
 31
0.0
  0
LINE
  5
562
100
AcDbEntity
  8
ZUWAKU
  6
CONTINUOUS
 62
      32
100
AcDbLine
 10
-15.94628367
 20
-581.44426494
 30
0.0
 11
-28.69628367
 21
-581.44426494
 31
0.0
  0
LINE
  5
563
100
AcDbEntity
  8
ZUWAKU
  6
CONTINUOUS
 62
      32
100
AcDbLine
 10
-28.69628367
 20
-581.44426494
 30
0.0
 11
-27.19628367
 21
-577.69426494
 31
0.0
  0
LINE
  5
564
100
AcDbEntity
  8
ZUWAKU
  6
CONTINUOUS
 62
      32
100
AcDbLine
 10
-27.19628367
 20
-577.69426494
 30
0.0
 11
-18.94628367
 21
-577.69426494
 31
0.0
  0
LINE
  5
565
100
AcDbEntity
  8
ZUWAKU
  6
CONTINUOUS
 62
      32
100
AcDbLine
 10
-27.19628367
 20
-577.69426494
 30
0.0
 11
-18.94628367
 21
-577.69426494
 31
0.0
  0
LINE
  5
566
100
AcDbEntity
  8
ZUWAKU
  6
CONTINUOUS
 62
      32
100
AcDbLine
 10
-14.19628367
 20
-571.94426494
 30
0.0
 11
-24.69628367
 21
-571.94426494
 31
0.0
  0
LINE
  5
567
100
AcDbEntity
  8
ZUWAKU
  6
CONTINUOUS
 62
      32
100
AcDbLine
 10
-24.69628367
 20
-571.94426494
 30
0.0
 11
-23.69628367
 21
-568.44426494
 31
0.0
  0
LINE
  5
568
100
AcDbEntity
  8
ZUWAKU
  6
CONTINUOUS
 62
      32
100
AcDbLine
 10
-24.69628367
 20
-571.94426494
 30
0.0
 11
-23.69628367
 21
-568.44426494
 31
0.0
  0
LINE
  5
569
100
AcDbEntity
  8
ZUWAKU
  6
CONTINUOUS
 62
      32
100
AcDbLine
 10
-18.94628367
 20
-577.69426494
 30
0.0
 11
-17.19628367
 21
-576.44426494
 31
0.0
  0
LINE
  5
56A
100
AcDbEntity
  8
ZUWAKU
  6
CONTINUOUS
 62
      32
100
AcDbLine
 10
-18.94628367
 20
-577.69426494
 30
0.0
 11
-17.19628367
 21
-576.44426494
 31
0.0
  0
LINE
  5
56B
100
AcDbEntity
  8
ZUWAKU
  6
CONTINUOUS
 62
      32
100
AcDbLine
 10
-17.19628367
 20
-576.44426494
 30
0.0
 11
-15.94628367
 21
-575.19426494
 31
0.0
  0
LINE
  5
56C
100
AcDbEntity
  8
ZUWAKU
  6
CONTINUOUS
 62
      32
100
AcDbLine
 10
-17.19628367
 20
-576.44426494
 30
0.0
 11
-15.94628367
 21
-575.19426494
 31
0.0
  0
LINE
  5
56D
100
AcDbEntity
  8
ZUWAKU
  6
CONTINUOUS
 62
      32
100
AcDbLine
 10
-15.94628367
 20
-575.19426494
 30
0.0
 11
-14.69628367
 21
-573.69426494
 31
0.0
  0
LINE
  5
56E
100
AcDbEntity
  8
ZUWAKU
  6
CONTINUOUS
 62
      32
100
AcDbLine
 10
-15.94628367
 20
-575.19426494
 30
0.0
 11
-14.69628367
 21
-573.69426494
 31
0.0
  0
LINE
  5
56F
100
AcDbEntity
  8
ZUWAKU
  6
CONTINUOUS
 62
      32
100
AcDbLine
 10
-14.69628367
 20
-573.69426494
 30
0.0
 11
-14.19628367
 21
-571.94426494
 31
0.0
  0
LINE
  5
570
100
AcDbEntity
  8
ZUWAKU
  6
CONTINUOUS
 62
      32
100
AcDbLine
 10
-14.69628367
 20
-573.69426494
 30
0.0
 11
-14.19628367
 21
-571.94426494
 31
0.0
  0
LINE
  5
571
100
AcDbEntity
  8
ZUWAKU
  6
CONTINUOUS
 62
      32
100
AcDbLine
 10
-30.44628367
 20
-561.69426494
 30
0.0
 11
-24.94826872
 21
-561.69426494
 31
0.0
  0
LINE
  5
572
100
AcDbEntity
  8
ZUWAKU
  6
CONTINUOUS
 62
      32
100
AcDbLine
 10
-29.49628367
 20
-576.44426494
 30
0.0
 11
-31.49628367
 21
-578.44426494
 31
0.0
  0
LINE
  5
573
100
AcDbEntity
  8
ZUWAKU
  6
CONTINUOUS
 62
      32
100
AcDbLine
 10
-31.49628367
 20
-578.44426494
 30
0.0
 11
-33.49628367
 21
-580.19426494
 31
0.0
  0
LINE
  5
574
100
AcDbEntity
  8
ZUWAKU
  6
CONTINUOUS
 62
      32
100
AcDbLine
 10
-31.49628367
 20
-578.44426494
 30
0.0
 11
-33.49628367
 21
-580.19426494
 31
0.0
  0
LINE
  5
575
100
AcDbEntity
  8
ZUWAKU
  6
CONTINUOUS
 62
      32
100
AcDbLine
 10
-33.49628367
 20
-580.19426494
 30
0.0
 11
-35.99628367
 21
-581.19426494
 31
0.0
  0
LINE
  5
576
100
AcDbEntity
  8
ZUWAKU
  6
CONTINUOUS
 62
      32
100
AcDbLine
 10
-35.99628367
 20
-581.19426494
 30
0.0
 11
-38.49628367
 21
-581.44426494
 31
0.0
  0
LINE
  5
577
100
AcDbEntity
  8
ZUWAKU
  6
CONTINUOUS
 62
      32
100
AcDbLine
 10
-38.49628367
 20
-581.44426494
 30
0.0
 11
-44.74628367
 21
-581.44426494
 31
0.0
  0
LINE
  5
578
100
AcDbEntity
  8
ZUWAKU
  6
CONTINUOUS
 62
      32
100
AcDbLine
 10
-44.74628367
 20
-581.44426494
 30
0.0
 11
-43.49628367
 21
-577.69426494
 31
0.0
  0
LINE
  5
579
100
AcDbEntity
  8
ZUWAKU
  6
CONTINUOUS
 62
      32
100
AcDbLine
 10
-44.74628367
 20
-581.44426494
 30
0.0
 11
-43.49628367
 21
-577.69426494
 31
0.0
  0
LINE
  5
57A
100
AcDbEntity
  8
ZUWAKU
  6
CONTINUOUS
 62
      32
100
AcDbLine
 10
-35.99628367
 20
-574.44426494
 30
0.0
 11
-31.24628367
 21
-561.69426494
 31
0.0
  0
LINE
  5
57B
100
AcDbEntity
  8
ZUWAKU
  6
CONTINUOUS
 62
      32
100
AcDbLine
 10
-43.49628367
 20
-577.69426494
 30
0.0
 11
-41.24628367
 21
-577.69426494
 31
0.0
  0
LINE
  5
57C
100
AcDbEntity
  8
ZUWAKU
  6
CONTINUOUS
 62
      32
100
AcDbLine
 10
-43.49628367
 20
-577.69426494
 30
0.0
 11
-41.24628367
 21
-577.69426494
 31
0.0
  0
LINE
  5
57D
100
AcDbEntity
  8
ZUWAKU
  6
CONTINUOUS
 62
      32
100
AcDbLine
 10
-37.24628367
 20
-576.44426494
 30
0.0
 11
-35.99628367
 21
-574.44426494
 31
0.0
  0
LINE
  5
57E
100
AcDbEntity
  8
ZUWAKU
  6
CONTINUOUS
 62
      32
100
AcDbLine
 10
-39.24628367
 20
-577.44426494
 30
0.0
 11
-37.24628367
 21
-576.44426494
 31
0.0
  0
LINE
  5
57F
100
AcDbEntity
  8
ZUWAKU
  6
CONTINUOUS
 62
      32
100
AcDbLine
 10
-41.24628367
 20
-577.69426494
 30
0.0
 11
-39.24628367
 21
-577.44426494
 31
0.0
  0
LINE
  5
580
100
AcDbEntity
  8
ZUWAKU
  6
CONTINUOUS
 62
      32
100
AcDbLine
 10
-41.24628367
 20
-577.69426494
 30
0.0
 11
-39.24628367
 21
-577.44426494
 31
0.0
  0
LINE
  5
581
100
AcDbEntity
  8
ZUWAKU
  6
CONTINUOUS
 62
      32
100
AcDbLine
 10
23.90371633
 20
-561.69426494
 30
0.0
 11
31.90371633
 21
-561.69426494
 31
0.0
  0
LINE
  5
582
100
AcDbEntity
  8
ZUWAKU
  6
CONTINUOUS
 62
      32
100
AcDbLine
 10
31.90371633
 20
-561.69426494
 30
0.0
 11
30.40371633
 21
-566.19426494
 31
0.0
  0
LINE
  5
583
100
AcDbEntity
  8
ZUWAKU
  6
CONTINUOUS
 62
      32
100
AcDbLine
 10
31.90371633
 20
-561.69426494
 30
0.0
 11
30.40371633
 21
-566.19426494
 31
0.0
  0
LINE
  5
584
100
AcDbEntity
  8
ZUWAKU
  6
CONTINUOUS
 62
      32
100
AcDbLine
 10
30.00371633
 20
-566.19426494
 30
0.0
 11
22.15371633
 21
-566.19426494
 31
0.0
  0
LINE
  5
585
100
AcDbEntity
  8
ZUWAKU
  6
CONTINUOUS
 62
      32
100
AcDbLine
 10
53.53341889
 20
-566.16100705
 30
0.0
 11
51.20371633
 21
-570.44426494
 31
0.0
  0
LINE
  5
586
100
AcDbEntity
  8
ZUWAKU
  6
CONTINUOUS
 62
      32
100
AcDbLine
 10
60.45371633
 20
-561.69426494
 30
0.0
 11
47.95371633
 21
-574.19426494
 31
0.0
  0
LINE
  5
587
100
AcDbEntity
  8
ZUWAKU
  6
CONTINUOUS
 62
      32
100
AcDbLine
 10
47.95371633
 20
-574.19426494
 30
0.0
 11
41.00371633
 21
-581.14426494
 31
0.0
  0
LINE
  5
588
100
AcDbEntity
  8
ZUWAKU
  6
CONTINUOUS
 62
      32
100
AcDbLine
 10
59.32234548
 20
-561.69426494
 30
0.0
 11
51.95665445
 21
-569.05995597
 31
0.0
  0
LINE
  5
589
100
AcDbEntity
  8
ZUWAKU
  6
CONTINUOUS
 62
      32
100
AcDbLine
 10
45.36772582
 20
-575.64888461
 30
0.0
 11
39.64607131
 21
-581.37053911
 31
0.0
  0
LINE
  5
58A
100
AcDbEntity
  8
ZUWAKU
  6
CONTINUOUS
 62
      32
100
AcDbLine
 10
58.19097463
 20
-561.69426494
 30
0.0
 11
53.30586506
 21
-566.57937452
 31
0.0
  0
LINE
  5
58B
100
AcDbEntity
  8
ZUWAKU
  6
CONTINUOUS
 62
      32
100
AcDbLine
 10
43.30424351
 20
-576.58099606
 30
0.0
 11
38.28842629
 21
-581.59681328
 31
0.0
  0
LINE
  5
58C
100
AcDbEntity
  8
ZUWAKU
  6
CONTINUOUS
 62
      32
100
AcDbLine
 10
57.05960378
 20
-561.69426494
 30
0.0
 11
52.55960378
 21
-566.19426494
 31
0.0
  0
LINE
  5
58D
100
AcDbEntity
  8
ZUWAKU
  6
CONTINUOUS
 62
      32
100
AcDbLine
 10
41.87117377
 20
-576.88269496
 30
0.0
 11
38.05505045
 21
-580.69881828
 31
0.0
  0
LINE
  5
58E
100
AcDbEntity
  8
ZUWAKU
  6
CONTINUOUS
 62
      32
100
AcDbLine
 10
55.92823293
 20
-561.69426494
 30
0.0
 11
51.42823293
 21
-566.19426494
 31
0.0
  0
LINE
  5
58F
100
AcDbEntity
  8
ZUWAKU
  6
CONTINUOUS
 62
      32
100
AcDbLine
 10
40.43810402
 20
-577.18439385
 30
0.0
 11
38.67216182
 21
-578.95033605
 31
0.0
  0
LINE
  5
590
100
AcDbEntity
  8
ZUWAKU
  6
CONTINUOUS
 62
      32
100
AcDbLine
 10
54.79686208
 20
-561.69426494
 30
0.0
 11
50.29686208
 21
-566.19426494
 31
0.0
  0
LINE
  5
591
100
AcDbEntity
  8
ZUWAKU
  6
CONTINUOUS
 62
      32
100
AcDbLine
 10
53.66549123
 20
-561.69426494
 30
0.0
 11
49.16549123
 21
-566.19426494
 31
0.0
  0
LINE
  5
592
100
AcDbEntity
  8
ZUWAKU
  6
CONTINUOUS
 62
      32
100
AcDbLine
 10
52.53412038
 20
-561.69426494
 30
0.0
 11
48.03412038
 21
-566.19426494
 31
0.0
  0
LINE
  5
593
100
AcDbEntity
  8
ZUWAKU
  6
CONTINUOUS
 62
      32
100
AcDbLine
 10
51.40274953
 20
-561.69426494
 30
0.0
 11
46.90274953
 21
-566.19426494
 31
0.0
  0
LINE
  5
594
100
AcDbEntity
  8
ZUWAKU
  6
CONTINUOUS
 62
      32
100
AcDbLine
 10
50.27137868
 20
-561.69426494
 30
0.0
 11
45.77137868
 21
-566.19426494
 31
0.0
  0
LINE
  5
595
100
AcDbEntity
  8
ZUWAKU
  6
CONTINUOUS
 62
      32
100
AcDbLine
 10
49.14000783
 20
-561.69426494
 30
0.0
 11
44.73557058
 21
-566.09870219
 31
0.0
  0
LINE
  5
596
100
AcDbEntity
  8
ZUWAKU
  6
CONTINUOUS
 62
      32
100
AcDbLine
 10
48.00863698
 20
-561.69426494
 30
0.0
 11
45.301256
 21
-564.40164592
 31
0.0
  0
LINE
  5
597
100
AcDbEntity
  8
ZUWAKU
  6
CONTINUOUS
 62
      32
100
AcDbLine
 10
46.87726613
 20
-561.69426494
 30
0.0
 11
45.86694143
 21
-562.70458965
 31
0.0
  0
LINE
  5
598
100
AcDbEntity
  8
ZUWAKU
  6
CONTINUOUS
 62
      32
100
AcDbLine
 10
61.58508718
 20
-561.69426494
 30
0.0
 11
42.36136135
 21
-580.91799077
 31
0.0
  0
LINE
  5
599
100
AcDbEntity
  8
ZUWAKU
  6
CONTINUOUS
 62
      32
100
AcDbLine
 10
62.71645803
 20
-561.69426494
 30
0.0
 11
43.71900637
 21
-580.6917166
 31
0.0
  0
LINE
  5
59A
100
AcDbEntity
  8
ZUWAKU
  6
CONTINUOUS
 62
      32
100
AcDbLine
 10
62.94607131
 20
-562.59602251
 30
0.0
 11
45.07665139
 21
-580.46544243
 31
0.0
  0
LINE
  5
59B
100
AcDbEntity
  8
ZUWAKU
  6
CONTINUOUS
 62
      32
100
AcDbLine
 10
62.49352297
 20
-564.1799417
 30
0.0
 11
46.63939309
 21
-580.03407158
 31
0.0
  0
LINE
  5
59C
100
AcDbEntity
  8
ZUWAKU
  6
CONTINUOUS
 62
      32
100
AcDbLine
 10
61.85498412
 20
-565.94985141
 30
0.0
 11
48.22331228
 21
-579.58152324
 31
0.0
  0
LINE
  5
59D
100
AcDbEntity
  8
ZUWAKU
  6
CONTINUOUS
 62
      32
100
AcDbLine
 10
60.88523767
 20
-568.0509687
 30
0.0
 11
49.88605398
 21
-579.05015239
 31
0.0
  0
LINE
  5
59E
100
AcDbEntity
  8
ZUWAKU
  6
CONTINUOUS
 62
      32
100
AcDbLine
 10
58.86452443
 20
-571.20305279
 30
0.0
 11
51.58311025
 21
-578.48446697
 31
0.0
  0
LINE
  5
59F
100
AcDbEntity
  8
ZUWAKU
  6
CONTINUOUS
 62
      32
100
AcDbLine
 10
56.5674149
 20
-574.63153317
 30
0.0
 11
52.66360844
 21
-578.53533963
 31
0.0
  0
LINE
  5
5A0
100
AcDbEntity
  8
ZUWAKU
  6
CONTINUOUS
 62
      32
100
AcDbLine
 10
56.99482166
 20
-575.33549726
 30
0.0
 11
53.09460686
 21
-579.23571206
 31
0.0
  0
LINE
  5
5A1
100
AcDbEntity
  8
ZUWAKU
  6
CONTINUOUS
 62
      32
100
AcDbLine
 10
57.42222843
 20
-576.03946134
 30
0.0
 11
53.52560528
 21
-579.93608449
 31
0.0
  0
LINE
  5
5A2
100
AcDbEntity
  8
ZUWAKU
  6
CONTINUOUS
 62
      32
100
AcDbLine
 10
57.84963519
 20
-576.74342543
 30
0.0
 11
53.9566037
 21
-580.63645692
 31
0.0
  0
LINE
  5
5A3
100
AcDbEntity
  8
ZUWAKU
  6
CONTINUOUS
 62
      32
100
AcDbLine
 10
58.27704196
 20
-577.44738951
 30
0.0
 11
54.38760212
 21
-581.33682935
 31
0.0
  0
LINE
  5
5A4
100
AcDbEntity
  8
ZUWAKU
  6
CONTINUOUS
 62
      32
100
AcDbLine
 10
58.70444873
 20
-578.1513536
 30
0.0
 11
55.41153738
 21
-581.44426494
 31
0.0
  0
LINE
  5
5A5
100
AcDbEntity
  8
ZUWAKU
  6
CONTINUOUS
 62
      32
100
AcDbLine
 10
59.13185549
 20
-578.85531768
 30
0.0
 11
56.54290823
 21
-581.44426494
 31
0.0
  0
LINE
  5
5A6
100
AcDbEntity
  8
ZUWAKU
  6
CONTINUOUS
 62
      32
100
AcDbLine
 10
59.55926226
 20
-579.55928176
 30
0.0
 11
57.67427908
 21
-581.44426494
 31
0.0
  0
LINE
  5
5A7
100
AcDbEntity
  8
ZUWAKU
  6
CONTINUOUS
 62
      32
100
AcDbLine
 10
59.98666902
 20
-580.26324585
 30
0.0
 11
58.80564993
 21
-581.44426494
 31
0.0
  0
LINE
  5
5A8
100
AcDbEntity
  8
ZUWAKU
  6
CONTINUOUS
 62
      32
100
AcDbLine
 10
60.41407579
 20
-580.96720993
 30
0.0
 11
59.93702078
 21
-581.44426494
 31
0.0
  0
LINE
  5
5A9
100
AcDbEntity
  8
ZUWAKU
  6
CONTINUOUS
 62
      32
100
AcDbLine
 10
29.27871633
 20
-561.69426494
 30
0.0
 11
24.77871633
 21
-566.19426494
 31
0.0
  0
LINE
  5
5AA
100
AcDbEntity
  8
ZUWAKU
  6
CONTINUOUS
 62
      32
100
AcDbLine
 10
28.14734548
 20
-561.69426494
 30
0.0
 11
23.64734548
 21
-566.19426494
 31
0.0
  0
LINE
  5
5AB
100
AcDbEntity
  8
ZUWAKU
  6
CONTINUOUS
 62
      32
100
AcDbLine
 10
27.01597463
 20
-561.69426494
 30
0.0
 11
22.51597463
 21
-566.19426494
 31
0.0
  0
LINE
  5
5AC
100
AcDbEntity
  8
ZUWAKU
  6
CONTINUOUS
 62
      32
100
AcDbLine
 10
25.88460378
 20
-561.69426494
 30
0.0
 11
22.64315159
 21
-564.93571713
 31
0.0
  0
LINE
  5
5AD
100
AcDbEntity
  8
ZUWAKU
  6
CONTINUOUS
 62
      32
100
AcDbLine
 10
24.75323293
 20
-561.69426494
 30
0.0
 11
23.36311486
 21
-563.08438302
 31
0.0
  0
LINE
  5
5AE
100
AcDbEntity
  8
ZUWAKU
  6
CONTINUOUS
 62
      32
100
AcDbLine
 10
30.41008718
 20
-561.69426494
 30
0.0
 11
25.91008718
 21
-566.19426494
 31
0.0
  0
LINE
  5
5AF
100
AcDbEntity
  8
ZUWAKU
  6
CONTINUOUS
 62
      32
100
AcDbLine
 10
31.54145803
 20
-561.69426494
 30
0.0
 11
27.04145803
 21
-566.19426494
 31
0.0
  0
LINE
  5
5B0
100
AcDbEntity
  8
ZUWAKU
  6
CONTINUOUS
 62
      32
100
AcDbLine
 10
31.51916005
 20
-562.84793377
 30
0.0
 11
28.17282888
 21
-566.19426494
 31
0.0
  0
LINE
  5
5B1
100
AcDbEntity
  8
ZUWAKU
  6
CONTINUOUS
 62
      32
100
AcDbLine
 10
30.95347463
 20
-564.54499004
 30
0.0
 11
29.30419973
 21
-566.19426494
 31
0.0
  0
LINE
  5
5B2
100
AcDbEntity
  8
ZUWAKU
  6
CONTINUOUS
 62
      32
100
AcDbLine
 10
30.43557058
 20
-566.19426494
 30
0.0
 11
30.3877892
 21
-566.24204632
 31
0.0
  0
LINE
  5
5B3
100
AcDbEntity
  8
ZUWAKU
  6
CONTINUOUS
 62
      32
100
AcDbLine
 10
27.77871633
 20
-575.19426494
 30
0.0
 11
21.52871633
 21
-581.44426494
 31
0.0
  0
LINE
  5
5B4
100
AcDbEntity
  8
ZUWAKU
  6
CONTINUOUS
 62
      32
100
AcDbLine
 10
26.64734548
 20
-575.19426494
 30
0.0
 11
20.39734548
 21
-581.44426494
 31
0.0
  0
LINE
  5
5B5
100
AcDbEntity
  8
ZUWAKU
  6
CONTINUOUS
 62
      32
100
AcDbLine
 10
25.51597463
 20
-575.19426494
 30
0.0
 11
19.26597463
 21
-581.44426494
 31
0.0
  0
LINE
  5
5B6
100
AcDbEntity
  8
ZUWAKU
  6
CONTINUOUS
 62
      32
100
AcDbLine
 10
24.38460378
 20
-575.19426494
 30
0.0
 11
18.13460378
 21
-581.44426494
 31
0.0
  0
LINE
  5
5B7
100
AcDbEntity
  8
ZUWAKU
  6
CONTINUOUS
 62
      32
100
AcDbLine
 10
23.25323293
 20
-575.19426494
 30
0.0
 11
17.00323293
 21
-581.44426494
 31
0.0
  0
LINE
  5
5B8
100
AcDbEntity
  8
ZUWAKU
  6
CONTINUOUS
 62
      32
100
AcDbLine
 10
22.12186208
 20
-575.19426494
 30
0.0
 11
17.09350934
 21
-580.22261768
 31
0.0
  0
LINE
  5
5B9
100
AcDbEntity
  8
ZUWAKU
  6
CONTINUOUS
 62
      32
100
AcDbLine
 10
20.99049123
 20
-575.19426494
 30
0.0
 11
17.72990545
 21
-578.45485073
 31
0.0
  0
LINE
  5
5BA
100
AcDbEntity
  8
ZUWAKU
  6
CONTINUOUS
 62
      32
100
AcDbLine
 10
19.85912038
 20
-575.19426494
 30
0.0
 11
18.36630155
 21
-576.68708377
 31
0.0
  0
LINE
  5
5BB
100
AcDbEntity
  8
ZUWAKU
  6
CONTINUOUS
 62
      32
100
AcDbLine
 10
28.91008718
 20
-575.19426494
 30
0.0
 11
22.66008718
 21
-581.44426494
 31
0.0
  0
LINE
  5
5BC
100
AcDbEntity
  8
ZUWAKU
  6
CONTINUOUS
 62
      32
100
AcDbLine
 10
30.04145803
 20
-575.19426494
 30
0.0
 11
23.79145803
 21
-581.44426494
 31
0.0
  0
LINE
  5
5BD
100
AcDbEntity
  8
ZUWAKU
  6
CONTINUOUS
 62
      32
100
AcDbLine
 10
40.92282888
 20
-565.44426494
 30
0.0
 11
39.26677099
 21
-567.10032284
 31
0.0
  0
LINE
  5
5BE
100
AcDbEntity
  8
ZUWAKU
  6
CONTINUOUS
 62
      32
100
AcDbLine
 10
31.44194143
 20
-574.92515239
 30
0.0
 11
24.92282888
 21
-581.44426494
 31
0.0
  0
LINE
  5
5BF
100
AcDbEntity
  8
ZUWAKU
  6
CONTINUOUS
 62
      32
100
AcDbLine
 10
42.05419973
 20
-565.44426494
 30
0.0
 11
38.25242726
 21
-569.24603741
 31
0.0
  0
LINE
  5
5C0
100
AcDbEntity
  8
ZUWAKU
  6
CONTINUOUS
 62
      32
100
AcDbLine
 10
33.70468313
 20
-573.79378154
 30
0.0
 11
26.05419973
 21
-581.44426494
 31
0.0
  0
LINE
  5
5C1
100
AcDbEntity
  8
ZUWAKU
  6
CONTINUOUS
 62
      32
100
AcDbLine
 10
42.21975062
 20
-566.4100849
 30
0.0
 11
27.18557058
 21
-581.44426494
 31
0.0
  0
LINE
  5
5C2
100
AcDbEntity
  8
ZUWAKU
  6
CONTINUOUS
 62
      32
100
AcDbLine
 10
41.95354572
 20
-567.80766065
 30
0.0
 11
28.31694143
 21
-581.44426494
 31
0.0
  0
LINE
  5
5C3
100
AcDbEntity
  8
ZUWAKU
  6
CONTINUOUS
 62
      32
100
AcDbLine
 10
41.68734081
 20
-569.20523641
 30
0.0
 11
29.44831228
 21
-581.44426494
 31
0.0
  0
LINE
  5
5C4
100
AcDbEntity
  8
ZUWAKU
  6
CONTINUOUS
 62
      32
100
AcDbLine
 10
41.42113591
 20
-570.60281217
 30
0.0
 11
31.12045657
 21
-580.9034915
 31
0.0
  0
LINE
  5
5C5
100
AcDbEntity
  8
ZUWAKU
  6
CONTINUOUS
 62
      32
100
AcDbLine
 10
39.81770986
 20
-573.33760907
 30
0.0
 11
33.1569241
 21
-579.99839482
 31
0.0
  0
LINE
  5
5C6
100
AcDbEntity
  8
ZUWAKU
  6
CONTINUOUS
 62
      32
100
AcDbLine
 10
18.62871633
 20
-561.69426494
 30
0.0
 11
0.65996633
 21
-579.66301494
 31
0.0
  0
LINE
  5
5C7
100
AcDbEntity
  8
ZUWAKU
  6
CONTINUOUS
 62
      32
100
AcDbLine
 10
17.49734548
 20
-561.69426494
 30
0.0
 11
1.31993266
 21
-577.87167776
 31
0.0
  0
LINE
  5
5C8
100
AcDbEntity
  8
ZUWAKU
  6
CONTINUOUS
 62
      32
100
AcDbLine
 10
16.36597463
 20
-561.69426494
 30
0.0
 11
1.97989899
 21
-576.08034059
 31
0.0
  0
LINE
  5
5C9
100
AcDbEntity
  8
ZUWAKU
  6
CONTINUOUS
 62
      32
100
AcDbLine
 10
15.23460378
 20
-561.69426494
 30
0.0
 11
2.63986532
 21
-574.28900341
 31
0.0
  0
LINE
  5
5CA
100
AcDbEntity
  8
ZUWAKU
  6
CONTINUOUS
 62
      32
100
AcDbLine
 10
14.10323293
 20
-561.69426494
 30
0.0
 11
3.29983165
 21
-572.49766623
 31
0.0
  0
LINE
  5
5CB
100
AcDbEntity
  8
ZUWAKU
  6
CONTINUOUS
 62
      32
100
AcDbLine
 10
12.97186208
 20
-561.69426494
 30
0.0
 11
12.17199433
 21
-562.4941327
 31
0.0
  0
LINE
  5
5CC
100
AcDbEntity
  8
ZUWAKU
  6
CONTINUOUS
 62
      32
100
AcDbLine
 10
7.76047139
 20
-566.90565563
 30
0.0
 11
2.72186208
 21
-571.94426494
 31
0.0
  0
LINE
  5
5CD
100
AcDbEntity
  8
ZUWAKU
  6
CONTINUOUS
 62
      32
100
AcDbLine
 10
5.78057241
 20
-567.75418377
 30
0.0
 11
1.59049123
 21
-571.94426494
 31
0.0
  0
LINE
  5
5CE
100
AcDbEntity
  8
ZUWAKU
  6
CONTINUOUS
 62
      32
100
AcDbLine
 10
4.16373738
 20
-568.23964794
 30
0.0
 11
0.45912038
 21
-571.94426494
 31
0.0
  0
LINE
  5
5CF
100
AcDbEntity
  8
ZUWAKU
  6
CONTINUOUS
 62
      32
100
AcDbLine
 10
2.93808563
 20
-568.33392884
 30
0.0
 11
-0.67225047
 21
-571.94426494
 31
0.0
  0
LINE
  5
5D0
100
AcDbEntity
  8
ZUWAKU
  6
CONTINUOUS
 62
      32
100
AcDbLine
 10
1.71243388
 20
-568.42820975
 30
0.0
 11
-1.80362132
 21
-571.94426494
 31
0.0
  0
LINE
  5
5D1
100
AcDbEntity
  8
ZUWAKU
  6
CONTINUOUS
 62
      32
100
AcDbLine
 10
0.56500783
 20
-568.44426494
 30
0.0
 11
-2.93499217
 21
-571.94426494
 31
0.0
  0
LINE
  5
5D2
100
AcDbEntity
  8
ZUWAKU
  6
CONTINUOUS
 62
      32
100
AcDbLine
 10
-0.56636302
 20
-568.44426494
 30
0.0
 11
-4.06636302
 21
-571.94426494
 31
0.0
  0
LINE
  5
5D3
100
AcDbEntity
  8
ZUWAKU
  6
CONTINUOUS
 62
      32
100
AcDbLine
 10
-1.69773387
 20
-568.44426494
 30
0.0
 11
-4.10658912
 21
-570.85312019
 31
0.0
  0
LINE
  5
5D4
100
AcDbEntity
  8
ZUWAKU
  6
CONTINUOUS
 62
      32
100
AcDbLine
 10
-2.82910472
 20
-568.44426494
 30
0.0
 11
-3.47804975
 21
-569.09320998
 31
0.0
  0
LINE
  5
5D5
100
AcDbEntity
  8
ZUWAKU
  6
CONTINUOUS
 62
      32
100
AcDbLine
 10
19.76008718
 20
-561.69426494
 30
0.0
 11
0.0
 21
-581.45435212
 31
0.0
  0
LINE
  5
5D6
100
AcDbEntity
  8
ZUWAKU
  6
CONTINUOUS
 62
      32
100
AcDbLine
 10
20.89145803
 20
-561.69426494
 30
0.0
 11
12.20267656
 21
-570.38304641
 31
0.0
  0
LINE
  5
5D7
100
AcDbEntity
  8
ZUWAKU
  6
CONTINUOUS
 62
      32
100
AcDbLine
 10
11.93247062
 20
-570.65325235
 30
0.0
 11
1.14145803
 21
-581.44426494
 31
0.0
  0
LINE
  5
5D8
100
AcDbEntity
  8
ZUWAKU
  6
CONTINUOUS
 62
      32
100
AcDbLine
 10
22.02282888
 20
-561.69426494
 30
0.0
 11
13.8368789
 21
-569.88021492
 31
0.0
  0
LINE
  5
5D9
100
AcDbEntity
  8
ZUWAKU
  6
CONTINUOUS
 62
      32
100
AcDbLine
 10
11.3472788
 20
-572.36981502
 30
0.0
 11
2.27282888
 21
-581.44426494
 31
0.0
  0
LINE
  5
5DA
100
AcDbEntity
  8
ZUWAKU
  6
CONTINUOUS
 62
      32
100
AcDbLine
 10
21.0175877
 20
-563.83087697
 30
0.0
 11
15.80548879
 21
-569.04297588
 31
0.0
  0
LINE
  5
5DB
100
AcDbEntity
  8
ZUWAKU
  6
CONTINUOUS
 62
      32
100
AcDbLine
 10
10.76208698
 20
-574.08637769
 30
0.0
 11
3.40419973
 21
-581.44426494
 31
0.0
  0
LINE
  5
5DC
100
AcDbEntity
  8
ZUWAKU
  6
CONTINUOUS
 62
      32
100
AcDbLine
 10
10.17689517
 20
-575.80294036
 30
0.0
 11
4.53557058
 21
-581.44426494
 31
0.0
  0
LINE
  5
5DD
100
AcDbEntity
  8
ZUWAKU
  6
CONTINUOUS
 62
      32
100
AcDbLine
 10
9.59170335
 20
-577.51950303
 30
0.0
 11
5.66694143
 21
-581.44426494
 31
0.0
  0
LINE
  5
5DE
100
AcDbEntity
  8
ZUWAKU
  6
CONTINUOUS
 62
      32
100
AcDbLine
 10
9.00651153
 20
-579.23606569
 30
0.0
 11
6.79831228
 21
-581.44426494
 31
0.0
  0
LINE
  5
5DF
100
AcDbEntity
  8
ZUWAKU
  6
CONTINUOUS
 62
      32
100
AcDbLine
 10
8.42131971
 20
-580.95262836
 30
0.0
 11
7.92968313
 21
-581.44426494
 31
0.0
  0
LINE
  5
5E0
100
AcDbEntity
  8
ZUWAKU
  6
CONTINUOUS
 62
      32
100
AcDbLine
 10
-11.07128367
 20
-561.69426494
 30
0.0
 11
-15.57128367
 21
-566.19426494
 31
0.0
  0
LINE
  5
5E1
100
AcDbEntity
  8
ZUWAKU
  6
CONTINUOUS
 62
      32
100
AcDbLine
 10
-12.20265452
 20
-561.69426494
 30
0.0
 11
-16.70265452
 21
-566.19426494
 31
0.0
  0
LINE
  5
5E2
100
AcDbEntity
  8
ZUWAKU
  6
CONTINUOUS
 62
      32
100
AcDbLine
 10
-13.33402537
 20
-561.69426494
 30
0.0
 11
-17.83402537
 21
-566.19426494
 31
0.0
  0
LINE
  5
5E3
100
AcDbEntity
  8
ZUWAKU
  6
CONTINUOUS
 62
      32
100
AcDbLine
 10
-14.46539622
 20
-561.69426494
 30
0.0
 11
-18.96539622
 21
-566.19426494
 31
0.0
  0
LINE
  5
5E4
100
AcDbEntity
  8
ZUWAKU
  6
CONTINUOUS
 62
      32
100
AcDbLine
 10
-15.59676707
 20
-561.69426494
 30
0.0
 11
-20.09676707
 21
-566.19426494
 31
0.0
  0
LINE
  5
5E5
100
AcDbEntity
  8
ZUWAKU
  6
CONTINUOUS
 62
      32
100
AcDbLine
 10
-16.72813792
 20
-561.69426494
 30
0.0
 11
-21.22813792
 21
-566.19426494
 31
0.0
  0
LINE
  5
5E6
100
AcDbEntity
  8
ZUWAKU
  6
CONTINUOUS
 62
      32
100
AcDbLine
 10
-17.85950877
 20
-561.69426494
 30
0.0
 11
-22.35950877
 21
-566.19426494
 31
0.0
  0
LINE
  5
5E7
100
AcDbEntity
  8
ZUWAKU
  6
CONTINUOUS
 62
      32
100
AcDbLine
 10
-18.99087962
 20
-561.69426494
 30
0.0
 11
-23.0489857
 21
-565.75237102
 31
0.0
  0
LINE
  5
5E8
100
AcDbEntity
  8
ZUWAKU
  6
CONTINUOUS
 62
      32
100
AcDbLine
 10
-20.12225047
 20
-561.69426494
 30
0.0
 11
-22.48330027
 21
-564.05531474
 31
0.0
  0
LINE
  5
5E9
100
AcDbEntity
  8
ZUWAKU
  6
CONTINUOUS
 62
      32
100
AcDbLine
 10
-21.25362132
 20
-561.69426494
 30
0.0
 11
-21.91761485
 21
-562.35825847
 31
0.0
  0
LINE
  5
5EA
100
AcDbEntity
  8
ZUWAKU
  6
CONTINUOUS
 62
      32
100
AcDbLine
 10
-9.93991282
 20
-561.69426494
 30
0.0
 11
-14.43991282
 21
-566.19426494
 31
0.0
  0
LINE
  5
5EB
100
AcDbEntity
  8
ZUWAKU
  6
CONTINUOUS
 62
      32
100
AcDbLine
 10
-8.80854197
 20
-561.69426494
 30
0.0
 11
-13.30854197
 21
-566.19426494
 31
0.0
  0
LINE
  5
5EC
100
AcDbEntity
  8
ZUWAKU
  6
CONTINUOUS
 62
      32
100
AcDbLine
 10
-7.67717112
 20
-561.69426494
 30
0.0
 11
-12.17717112
 21
-566.19426494
 31
0.0
  0
LINE
  5
5ED
100
AcDbEntity
  8
ZUWAKU
  6
CONTINUOUS
 62
      32
100
AcDbLine
 10
-6.54580027
 20
-561.69426494
 30
0.0
 11
-11.04580027
 21
-566.19426494
 31
0.0
  0
LINE
  5
5EE
100
AcDbEntity
  8
ZUWAKU
  6
CONTINUOUS
 62
      32
100
AcDbLine
 10
-5.41442942
 20
-561.69426494
 30
0.0
 11
-9.91442942
 21
-566.19426494
 31
0.0
  0
LINE
  5
5EF
100
AcDbEntity
  8
ZUWAKU
  6
CONTINUOUS
 62
      32
100
AcDbLine
 10
-4.28305857
 20
-561.69426494
 30
0.0
 11
-8.78305857
 21
-566.19426494
 31
0.0
  0
LINE
  5
5F0
100
AcDbEntity
  8
ZUWAKU
  6
CONTINUOUS
 62
      32
100
AcDbLine
 10
-3.59358165
 20
-562.13615887
 30
0.0
 11
-7.65168772
 21
-566.19426494
 31
0.0
  0
LINE
  5
5F1
100
AcDbEntity
  8
ZUWAKU
  6
CONTINUOUS
 62
      32
100
AcDbLine
 10
-4.15926707
 20
-563.83321514
 30
0.0
 11
-6.52031687
 21
-566.19426494
 31
0.0
  0
LINE
  5
5F2
100
AcDbEntity
  8
ZUWAKU
  6
CONTINUOUS
 62
      32
100
AcDbLine
 10
-4.7249525
 20
-565.53027142
 30
0.0
 11
-5.38894602
 21
-566.19426494
 31
0.0
  0
LINE
  5
5F3
100
AcDbEntity
  8
ZUWAKU
  6
CONTINUOUS
 62
      32
100
AcDbLine
 10
-10.69628367
 20
-568.44426494
 30
0.0
 11
-14.19628367
 21
-571.94426494
 31
0.0
  0
LINE
  5
5F4
100
AcDbEntity
  8
ZUWAKU
  6
CONTINUOUS
 62
      32
100
AcDbLine
 10
-19.94628367
 20
-577.69426494
 30
0.0
 11
-23.69628367
 21
-581.44426494
 31
0.0
  0
LINE
  5
5F5
100
AcDbEntity
  8
ZUWAKU
  6
CONTINUOUS
 62
      32
100
AcDbLine
 10
-11.82765452
 20
-568.44426494
 30
0.0
 11
-15.32765452
 21
-571.94426494
 31
0.0
  0
LINE
  5
5F6
100
AcDbEntity
  8
ZUWAKU
  6
CONTINUOUS
 62
      32
100
AcDbLine
 10
-21.07765452
 20
-577.69426494
 30
0.0
 11
-24.82765452
 21
-581.44426494
 31
0.0
  0
LINE
  5
5F7
100
AcDbEntity
  8
ZUWAKU
  6
CONTINUOUS
 62
      32
100
AcDbLine
 10
-12.95902537
 20
-568.44426494
 30
0.0
 11
-16.45902537
 21
-571.94426494
 31
0.0
  0
LINE
  5
5F8
100
AcDbEntity
  8
ZUWAKU
  6
CONTINUOUS
 62
      32
100
AcDbLine
 10
-22.20902537
 20
-577.69426494
 30
0.0
 11
-25.95902537
 21
-581.44426494
 31
0.0
  0
LINE
  5
5F9
100
AcDbEntity
  8
ZUWAKU
  6
CONTINUOUS
 62
      32
100
AcDbLine
 10
-14.09039622
 20
-568.44426494
 30
0.0
 11
-17.59039622
 21
-571.94426494
 31
0.0
  0
LINE
  5
5FA
100
AcDbEntity
  8
ZUWAKU
  6
CONTINUOUS
 62
      32
100
AcDbLine
 10
-23.34039622
 20
-577.69426494
 30
0.0
 11
-27.09039622
 21
-581.44426494
 31
0.0
  0
LINE
  5
5FB
100
AcDbEntity
  8
ZUWAKU
  6
CONTINUOUS
 62
      32
100
AcDbLine
 10
-15.22176707
 20
-568.44426494
 30
0.0
 11
-18.72176707
 21
-571.94426494
 31
0.0
  0
LINE
  5
5FC
100
AcDbEntity
  8
ZUWAKU
  6
CONTINUOUS
 62
      32
100
AcDbLine
 10
-24.47176707
 20
-577.69426494
 30
0.0
 11
-28.22176707
 21
-581.44426494
 31
0.0
  0
LINE
  5
5FD
100
AcDbEntity
  8
ZUWAKU
  6
CONTINUOUS
 62
      32
100
AcDbLine
 10
-16.35313792
 20
-568.44426494
 30
0.0
 11
-19.85313792
 21
-571.94426494
 31
0.0
  0
LINE
  5
5FE
100
AcDbEntity
  8
ZUWAKU
  6
CONTINUOUS
 62
      32
100
AcDbLine
 10
-25.60313792
 20
-577.69426494
 30
0.0
 11
-28.25838084
 21
-580.34950786
 31
0.0
  0
LINE
  5
5FF
100
AcDbEntity
  8
ZUWAKU
  6
CONTINUOUS
 62
      32
100
AcDbLine
 10
-17.48450877
 20
-568.44426494
 30
0.0
 11
-20.98450877
 21
-571.94426494
 31
0.0
  0
LINE
  5
600
100
AcDbEntity
  8
ZUWAKU
  6
CONTINUOUS
 62
      32
100
AcDbLine
 10
-26.73450877
 20
-577.69426494
 30
0.0
 11
-27.5041336
 21
-578.46388978
 31
0.0
  0
LINE
  5
601
100
AcDbEntity
  8
ZUWAKU
  6
CONTINUOUS
 62
      32
100
AcDbLine
 10
-18.61587962
 20
-568.44426494
 30
0.0
 11
-22.11587962
 21
-571.94426494
 31
0.0
  0
LINE
  5
602
100
AcDbEntity
  8
ZUWAKU
  6
CONTINUOUS
 62
      32
100
AcDbLine
 10
-19.74725047
 20
-568.44426494
 30
0.0
 11
-23.24725047
 21
-571.94426494
 31
0.0
  0
LINE
  5
603
100
AcDbEntity
  8
ZUWAKU
  6
CONTINUOUS
 62
      32
100
AcDbLine
 10
-20.87862132
 20
-568.44426494
 30
0.0
 11
-24.37862132
 21
-571.94426494
 31
0.0
  0
LINE
  5
604
100
AcDbEntity
  8
ZUWAKU
  6
CONTINUOUS
 62
      32
100
AcDbLine
 10
-22.00999217
 20
-568.44426494
 30
0.0
 11
-24.37080027
 21
-570.80507304
 31
0.0
  0
LINE
  5
605
100
AcDbEntity
  8
ZUWAKU
  6
CONTINUOUS
 62
      32
100
AcDbLine
 10
-23.14136302
 20
-568.44426494
 30
0.0
 11
-23.91825193
 21
-569.22115386
 31
0.0
  0
LINE
  5
606
100
AcDbEntity
  8
ZUWAKU
  6
CONTINUOUS
 62
      32
100
AcDbLine
 10
-9.56491282
 20
-568.44426494
 30
0.0
 11
-14.64883201
 21
-573.52818413
 31
0.0
  0
LINE
  5
607
100
AcDbEntity
  8
ZUWAKU
  6
CONTINUOUS
 62
      32
100
AcDbLine
 10
-18.4864857
 20
-577.36583782
 30
0.0
 11
-22.56491282
 21
-581.44426494
 31
0.0
  0
LINE
  5
608
100
AcDbEntity
  8
ZUWAKU
  6
CONTINUOUS
 62
      32
100
AcDbLine
 10
-8.43354197
 20
-568.44426494
 30
0.0
 11
-21.43354197
 21
-581.44426494
 31
0.0
  0
LINE
  5
609
100
AcDbEntity
  8
ZUWAKU
  6
CONTINUOUS
 62
      32
100
AcDbLine
 10
-7.30217112
 20
-568.44426494
 30
0.0
 11
-20.30217112
 21
-581.44426494
 31
0.0
  0
LINE
  5
60A
100
AcDbEntity
  8
ZUWAKU
  6
CONTINUOUS
 62
      32
100
AcDbLine
 10
-6.17080027
 20
-568.44426494
 30
0.0
 11
-19.17080027
 21
-581.44426494
 31
0.0
  0
LINE
  5
60B
100
AcDbEntity
  8
ZUWAKU
  6
CONTINUOUS
 62
      32
100
AcDbLine
 10
-6.07162896
 20
-569.47646448
 30
0.0
 11
-18.03942942
 21
-581.44426494
 31
0.0
  0
LINE
  5
60C
100
AcDbEntity
  8
ZUWAKU
  6
CONTINUOUS
 62
      32
100
AcDbLine
 10
-6.71812658
 20
-571.25433296
 30
0.0
 11
-16.90805857
 21
-581.44426494
 31
0.0
  0
LINE
  5
60D
100
AcDbEntity
  8
ZUWAKU
  6
CONTINUOUS
 62
      32
100
AcDbLine
 10
-7.36462421
 20
-573.03220144
 30
0.0
 11
-15.72015574
 21
-581.38773296
 31
0.0
  0
LINE
  5
60E
100
AcDbEntity
  8
ZUWAKU
  6
CONTINUOUS
 62
      32
100
AcDbLine
 10
-8.01112184
 20
-574.81006991
 30
0.0
 11
-14.21166127
 21
-581.01060934
 31
0.0
  0
LINE
  5
60F
100
AcDbEntity
  8
ZUWAKU
  6
CONTINUOUS
 62
      32
100
AcDbLine
 10
-8.65761947
 20
-576.58793839
 30
0.0
 11
-12.08160837
 21
-580.01192729
 31
0.0
  0
LINE
  5
610
100
AcDbEntity
  8
ZUWAKU
  6
CONTINUOUS
 62
      32
100
AcDbLine
 10
-24.74628367
 20
-561.69426494
 30
0.0
 11
-35.10565867
 21
-572.05363994
 31
0.0
  0
LINE
  5
611
100
AcDbEntity
  8
ZUWAKU
  6
CONTINUOUS
 62
      32
100
AcDbLine
 10
-40.6748551
 20
-577.62283637
 30
0.0
 11
-44.49628367
 21
-581.44426494
 31
0.0
  0
LINE
  5
612
100
AcDbEntity
  8
ZUWAKU
  6
CONTINUOUS
 62
      32
100
AcDbLine
 10
-25.87765452
 20
-561.69426494
 30
0.0
 11
-34.43390723
 21
-570.25051765
 31
0.0
  0
LINE
  5
613
100
AcDbEntity
  8
ZUWAKU
  6
CONTINUOUS
 62
      32
100
AcDbLine
 10
-41.87765452
 20
-577.69426494
 30
0.0
 11
-44.30559825
 21
-580.12220867
 31
0.0
  0
LINE
  5
614
100
AcDbEntity
  8
ZUWAKU
  6
CONTINUOUS
 62
      32
100
AcDbLine
 10
-27.00902537
 20
-561.69426494
 30
0.0
 11
-33.76215579
 21
-568.44739536
 31
0.0
  0
LINE
  5
615
100
AcDbEntity
  8
ZUWAKU
  6
CONTINUOUS
 62
      32
100
AcDbLine
 10
-43.00902537
 20
-577.69426494
 30
0.0
 11
-43.73991282
 21
-578.42515239
 31
0.0
  0
LINE
  5
616
100
AcDbEntity
  8
ZUWAKU
  6
CONTINUOUS
 62
      32
100
AcDbLine
 10
-28.14039622
 20
-561.69426494
 30
0.0
 11
-33.09040434
 21
-566.64427307
 31
0.0
  0
LINE
  5
617
100
AcDbEntity
  8
ZUWAKU
  6
CONTINUOUS
 62
      32
100
AcDbLine
 10
-29.27176707
 20
-561.69426494
 30
0.0
 11
-32.4186529
 21
-564.84115078
 31
0.0
  0
LINE
  5
618
100
AcDbEntity
  8
ZUWAKU
  6
CONTINUOUS
 62
      32
100
AcDbLine
 10
-30.40313792
 20
-561.69426494
 30
0.0
 11
-31.74690146
 21
-563.03802848
 31
0.0
  0
LINE
  5
619
100
AcDbEntity
  8
ZUWAKU
  6
CONTINUOUS
 62
      32
100
AcDbLine
 10
-24.94826872
 20
-563.02762084
 30
0.0
 11
-35.77741011
 21
-573.85676224
 31
0.0
  0
LINE
  5
61A
100
AcDbEntity
  8
ZUWAKU
  6
CONTINUOUS
 62
      32
100
AcDbLine
 10
-39.38185984
 20
-577.46121196
 30
0.0
 11
-43.36491282
 21
-581.44426494
 31
0.0
  0
LINE
  5
61B
100
AcDbEntity
  8
ZUWAKU
  6
CONTINUOUS
 62
      32
100
AcDbLine
 10
-25.5284589
 20
-564.73918187
 30
0.0
 11
-37.22080027
 21
-576.43152324
 31
0.0
  0
LINE
  5
61C
100
AcDbEntity
  8
ZUWAKU
  6
CONTINUOUS
 62
      32
100
AcDbLine
 10
-37.26751984
 20
-576.47824281
 30
0.0
 11
-42.23354197
 21
-581.44426494
 31
0.0
  0
LINE
  5
61D
100
AcDbEntity
  8
ZUWAKU
  6
CONTINUOUS
 62
      32
100
AcDbLine
 10
-26.10864908
 20
-566.4507429
 30
0.0
 11
-41.10217112
 21
-581.44426494
 31
0.0
  0
LINE
  5
61E
100
AcDbEntity
  8
ZUWAKU
  6
CONTINUOUS
 62
      32
100
AcDbLine
 10
-26.68883926
 20
-568.16230393
 30
0.0
 11
-39.97080027
 21
-581.44426494
 31
0.0
  0
LINE
  5
61F
100
AcDbEntity
  8
ZUWAKU
  6
CONTINUOUS
 62
      32
100
AcDbLine
 10
-27.26902944
 20
-569.87386496
 30
0.0
 11
-38.83942942
 21
-581.44426494
 31
0.0
  0
LINE
  5
620
100
AcDbEntity
  8
ZUWAKU
  6
CONTINUOUS
 62
      32
100
AcDbLine
 10
-27.84921962
 20
-571.58542599
 30
0.0
 11
-37.620478
 21
-581.35668438
 31
0.0
  0
LINE
  5
621
100
AcDbEntity
  8
ZUWAKU
  6
CONTINUOUS
 62
      32
100
AcDbLine
 10
-28.4294098
 20
-573.29698702
 30
0.0
 11
-36.36339928
 21
-581.2309765
 31
0.0
  0
LINE
  5
622
100
AcDbEntity
  8
ZUWAKU
  6
CONTINUOUS
 62
      32
100
AcDbLine
 10
-29.00959998
 20
-575.00854805
 30
0.0
 11
-34.66133901
 21
-580.66028708
 31
0.0
  0
LINE
  5
623
100
AcDbEntity
  8
ZUWAKU
  6
CONTINUOUS
 62
      32
100
AcDbLine
 10
-36.77128367
 20
-563.09426494
 30
0.0
 11
-46.01644496
 21
-572.33942623
 31
0.0
  0
LINE
  5
624
100
AcDbEntity
  8
ZUWAKU
  6
CONTINUOUS
 62
      32
100
AcDbLine
 10
-36.50265452
 20
-561.69426494
 30
0.0
 11
-45.39601579
 21
-570.58762621
 31
0.0
  0
LINE
  5
625
100
AcDbEntity
  8
ZUWAKU
  6
CONTINUOUS
 62
      32
100
AcDbLine
 10
-37.63402537
 20
-561.69426494
 30
0.0
 11
-44.77558661
 21
-568.83582618
 31
0.0
  0
LINE
  5
626
100
AcDbEntity
  8
ZUWAKU
  6
CONTINUOUS
 62
      32
100
AcDbLine
 10
-38.76539622
 20
-561.69426494
 30
0.0
 11
-44.15515743
 21
-567.08402616
 31
0.0
  0
LINE
  5
627
100
AcDbEntity
  8
ZUWAKU
  6
CONTINUOUS
 62
      32
100
AcDbLine
 10
-39.89676707
 20
-561.69426494
 30
0.0
 11
-43.53472826
 21
-565.33222613
 31
0.0
  0
LINE
  5
628
100
AcDbEntity
  8
ZUWAKU
  6
CONTINUOUS
 62
      32
100
AcDbLine
 10
-41.02813792
 20
-561.69426494
 30
0.0
 11
-42.91429908
 21
-563.58042611
 31
0.0
  0
LINE
  5
629
100
AcDbEntity
  8
ZUWAKU
  6
CONTINUOUS
 62
      32
100
AcDbLine
 10
-42.15950877
 20
-561.69426494
 30
0.0
 11
-42.29386991
 21
-561.82862608
 31
0.0
  0
LINE
  5
62A
100
AcDbEntity
  8
ZUWAKU
  6
CONTINUOUS
 62
      32
100
AcDbLine
 10
-37.45010618
 20
-564.9044583
 30
0.0
 11
-46.23991282
 21
-573.69426494
 31
0.0
  0
LINE
  5
62B
100
AcDbEntity
  8
ZUWAKU
  6
CONTINUOUS
 62
      32
100
AcDbLine
 10
-38.12892869
 20
-566.71465166
 30
0.0
 11
-45.10854197
 21
-573.69426494
 31
0.0
  0
LINE
  5
62C
100
AcDbEntity
  8
ZUWAKU
  6
CONTINUOUS
 62
      32
100
AcDbLine
 10
-38.8077512
 20
-568.52484502
 30
0.0
 11
-43.97717112
 21
-573.69426494
 31
0.0
  0
LINE
  5
62D
100
AcDbEntity
  8
ZUWAKU
  6
CONTINUOUS
 62
      32
100
AcDbLine
 10
-39.48657371
 20
-570.33503838
 30
0.0
 11
-42.84580027
 21
-573.69426494
 31
0.0
  0
LINE
  5
62E
100
AcDbEntity
  8
ZUWAKU
  6
CONTINUOUS
 62
      32
100
AcDbLine
 10
-40.16539622
 20
-572.14523174
 30
0.0
 11
-41.71442942
 21
-573.69426494
 31
0.0
  0
LINE
  5
62F
100
AcDbEntity
  8
ZUWAKU
  6
CONTINUOUS
 62
       8
100
AcDbLine
 10
800.38398625
 20
554.0
 30
0.0
 11
-758.62542955
 21
554.0
 31
0.0
  0
LINE
  5
630
100
AcDbEntity
  8
ZUWAKU
  6
CONTINUOUS
 62
       8
100
AcDbLine
 10
800.38398625
 20
-554.0
 30
0.0
 11
800.38398625
 21
554.0
 31
0.0
  0
LINE
  5
631
100
AcDbEntity
  8
ZUWAKU
  6
CONTINUOUS
 62
       8
100
AcDbLine
 10
-758.62542955
 20
-554.0
 30
0.0
 11
800.38398625
 21
-554.0
 31
0.0
  0
LINE
  5
632
100
AcDbEntity
  8
ZUWAKU
  6
CONTINUOUS
 62
       8
100
AcDbLine
 10
-758.62542955
 20
554.0
 30
0.0
 11
-758.62542955
 21
-554.0
 31
0.0
  0
POINT
  5
633
100
AcDbEntity
  8
ZUWAKU
  6
CONTINUOUS
 62
       9
100
AcDbPoint
 10
86.06598059
 20
-518.0
 30
0.0
  0
POINT
  5
634
100
AcDbEntity
  8
ZUWAKU
  6
CONTINUOUS
 62
       9
100
AcDbPoint
 10
272.31725394
 20
-518.0
 30
0.0
  0
POINT
  5
635
100
AcDbEntity
  8
ZUWAKU
  6
CONTINUOUS
 62
       9
100
AcDbPoint
 10
334.35460538
 20
-518.0
 30
0.0
  0
POINT
  5
636
100
AcDbEntity
  8
ZUWAKU
  6
CONTINUOUS
 62
       9
100
AcDbPoint
 10
364.16445258
 20
-518.0
 30
0.0
  0
POINT
  5
637
100
AcDbEntity
  8
ZUWAKU
  6
CONTINUOUS
 62
       9
100
AcDbPoint
 10
540.06539089
 20
-542.0
 30
0.0
  0
POINT
  5
638
100
AcDbEntity
  8
ZUWAKU
  6
CONTINUOUS
 62
       9
100
AcDbPoint
 10
563.22609923
 20
-494.0
 30
0.0
  0
POINT
  5
639
100
AcDbEntity
  8
ZUWAKU
  6
CONTINUOUS
 62
       9
100
AcDbPoint
 10
594.38398625
 20
-470.0
 30
0.0
  0
POINT
  5
63A
100
AcDbEntity
  8
ZUWAKU
  6
CONTINUOUS
 62
       9
100
AcDbPoint
 10
594.38398625
 20
-446.0
 30
0.0
  0
POINT
  5
63B
100
AcDbEntity
  8
ZUWAKU
  6
CONTINUOUS
 62
       9
100
AcDbPoint
 10
594.38398625
 20
-422.0
 30
0.0
  0
POINT
  5
63C
100
AcDbEntity
  8
ZUWAKU
  6
CONTINUOUS
 62
       9
100
AcDbPoint
 10
774.38398625
 20
-530.0
 30
0.0
  0
LINE
  5
63D
100
AcDbEntity
  8
ZUWAKU
  6
CONTINUOUS
 62
       9
100
AcDbLine
 10
-840.0
 20
614.0
 30
0.0
 11
-840.0
 21
594.0
 31
0.0
  0
LINE
  5
63E
100
AcDbEntity
  8
ZUWAKU
  6
CONTINUOUS
 62
       9
100
AcDbLine
 10
-840.0
 20
594.0
 30
0.0
 11
-860.0
 21
594.0
 31
0.0
  0
LINE
  5
63F
100
AcDbEntity
  8
ZUWAKU
  6
CONTINUOUS
 62
       9
100
AcDbLine
 10
840.0
 20
-614.0
 30
0.0
 11
840.0
 21
-594.0
 31
0.0
  0
LINE
  5
640
100
AcDbEntity
  8
ZUWAKU
  6
CONTINUOUS
 62
       9
100
AcDbLine
 10
-860.0
 20
-594.0
 30
0.0
 11
-839.90750762
 21
-594.0
 31
0.0
  0
POINT
  5
641
100
AcDbEntity
  8
ZUWAKU
  6
CONTINUOUS
 62
       9
100
AcDbPoint
 10
-840.0
 20
0.0
 30
0.0
  0
LINE
  5
642
100
AcDbEntity
  8
ZUWAKU
  6
CONTINUOUS
 62
       9
100
AcDbLine
 10
-839.55589098
 20
-8.98119785
 30
0.0
 11
-840.0
 21
-8.98119785
 31
0.0
  0
LINE
  5
643
100
AcDbEntity
  8
ZUWAKU
  6
CONTINUOUS
 62
       9
100
AcDbLine
 10
-838.86307066
 20
-8.58119785
 30
0.0
 11
-840.0
 21
-8.58119785
 31
0.0
  0
LINE
  5
644
100
AcDbEntity
  8
ZUWAKU
  6
CONTINUOUS
 62
       9
100
AcDbLine
 10
-838.17025034
 20
-8.18119785
 30
0.0
 11
-840.0
 21
-8.18119785
 31
0.0
  0
LINE
  5
645
100
AcDbEntity
  8
ZUWAKU
  6
CONTINUOUS
 62
       9
100
AcDbLine
 10
-837.47743001
 20
-7.78119785
 30
0.0
 11
-840.0
 21
-7.78119785
 31
0.0
  0
LINE
  5
646
100
AcDbEntity
  8
ZUWAKU
  6
CONTINUOUS
 62
       9
100
AcDbLine
 10
-836.78460969
 20
-7.38119785
 30
0.0
 11
-840.0
 21
-7.38119785
 31
0.0
  0
LINE
  5
647
100
AcDbEntity
  8
ZUWAKU
  6
CONTINUOUS
 62
       9
100
AcDbLine
 10
-836.09178937
 20
-6.98119785
 30
0.0
 11
-840.0
 21
-6.98119785
 31
0.0
  0
LINE
  5
648
100
AcDbEntity
  8
ZUWAKU
  6
CONTINUOUS
 62
       9
100
AcDbLine
 10
-835.39896904
 20
-6.58119785
 30
0.0
 11
-840.0
 21
-6.58119785
 31
0.0
  0
LINE
  5
649
100
AcDbEntity
  8
ZUWAKU
  6
CONTINUOUS
 62
       9
100
AcDbLine
 10
-834.70614872
 20
-6.18119785
 30
0.0
 11
-840.0
 21
-6.18119785
 31
0.0
  0
LINE
  5
64A
100
AcDbEntity
  8
ZUWAKU
  6
CONTINUOUS
 62
       9
100
AcDbLine
 10
-834.0133284
 20
-5.78119785
 30
0.0
 11
-840.0
 21
-5.78119785
 31
0.0
  0
LINE
  5
64B
100
AcDbEntity
  8
ZUWAKU
  6
CONTINUOUS
 62
       9
100
AcDbLine
 10
-833.32050808
 20
-5.38119785
 30
0.0
 11
-840.0
 21
-5.38119785
 31
0.0
  0
LINE
  5
64C
100
AcDbEntity
  8
ZUWAKU
  6
CONTINUOUS
 62
       9
100
AcDbLine
 10
-832.62768775
 20
-4.98119785
 30
0.0
 11
-840.0
 21
-4.98119785
 31
0.0
  0
LINE
  5
64D
100
AcDbEntity
  8
ZUWAKU
  6
CONTINUOUS
 62
       9
100
AcDbLine
 10
-831.93486743
 20
-4.58119785
 30
0.0
 11
-840.0
 21
-4.58119785
 31
0.0
  0
LINE
  5
64E
100
AcDbEntity
  8
ZUWAKU
  6
CONTINUOUS
 62
       9
100
AcDbLine
 10
-831.24204711
 20
-4.18119785
 30
0.0
 11
-840.0
 21
-4.18119785
 31
0.0
  0
LINE
  5
64F
100
AcDbEntity
  8
ZUWAKU
  6
CONTINUOUS
 62
       9
100
AcDbLine
 10
-830.54922678
 20
-3.78119785
 30
0.0
 11
-840.0
 21
-3.78119785
 31
0.0
  0
LINE
  5
650
100
AcDbEntity
  8
ZUWAKU
  6
CONTINUOUS
 62
       9
100
AcDbLine
 10
-829.85640646
 20
-3.38119785
 30
0.0
 11
-840.0
 21
-3.38119785
 31
0.0
  0
LINE
  5
651
100
AcDbEntity
  8
ZUWAKU
  6
CONTINUOUS
 62
       9
100
AcDbLine
 10
-829.16358614
 20
-2.98119785
 30
0.0
 11
-840.0
 21
-2.98119785
 31
0.0
  0
LINE
  5
652
100
AcDbEntity
  8
ZUWAKU
  6
CONTINUOUS
 62
       9
100
AcDbLine
 10
-828.47076581
 20
-2.58119785
 30
0.0
 11
-840.0
 21
-2.58119785
 31
0.0
  0
LINE
  5
653
100
AcDbEntity
  8
ZUWAKU
  6
CONTINUOUS
 62
       9
100
AcDbLine
 10
-827.77794549
 20
-2.18119785
 30
0.0
 11
-840.0
 21
-2.18119785
 31
0.0
  0
LINE
  5
654
100
AcDbEntity
  8
ZUWAKU
  6
CONTINUOUS
 62
       9
100
AcDbLine
 10
-827.08512517
 20
-1.78119785
 30
0.0
 11
-840.0
 21
-1.78119785
 31
0.0
  0
LINE
  5
655
100
AcDbEntity
  8
ZUWAKU
  6
CONTINUOUS
 62
       9
100
AcDbLine
 10
-826.39230485
 20
-1.38119785
 30
0.0
 11
-840.0
 21
-1.38119785
 31
0.0
  0
LINE
  5
656
100
AcDbEntity
  8
ZUWAKU
  6
CONTINUOUS
 62
       9
100
AcDbLine
 10
-825.69948452
 20
-0.98119785
 30
0.0
 11
-840.0
 21
-0.98119785
 31
0.0
  0
LINE
  5
657
100
AcDbEntity
  8
ZUWAKU
  6
CONTINUOUS
 62
       9
100
AcDbLine
 10
-825.0066642
 20
-0.58119785
 30
0.0
 11
-840.0
 21
-0.58119785
 31
0.0
  0
LINE
  5
658
100
AcDbEntity
  8
ZUWAKU
  6
CONTINUOUS
 62
       9
100
AcDbLine
 10
-824.31384388
 20
-0.18119785
 30
0.0
 11
-840.0
 21
-0.18119785
 31
0.0
  0
LINE
  5
659
100
AcDbEntity
  8
ZUWAKU
  6
CONTINUOUS
 62
       9
100
AcDbLine
 10
-824.37897645
 20
0.21880215
 30
0.0
 11
-840.0
 21
0.21880215
 31
0.0
  0
LINE
  5
65A
100
AcDbEntity
  8
ZUWAKU
  6
CONTINUOUS
 62
       9
100
AcDbLine
 10
-825.07179677
 20
0.61880215
 30
0.0
 11
-840.0
 21
0.61880215
 31
0.0
  0
LINE
  5
65B
100
AcDbEntity
  8
ZUWAKU
  6
CONTINUOUS
 62
       9
100
AcDbLine
 10
-825.76461709
 20
1.01880215
 30
0.0
 11
-840.0
 21
1.01880215
 31
0.0
  0
LINE
  5
65C
100
AcDbEntity
  8
ZUWAKU
  6
CONTINUOUS
 62
       9
100
AcDbLine
 10
-826.45743742
 20
1.41880215
 30
0.0
 11
-840.0
 21
1.41880215
 31
0.0
  0
LINE
  5
65D
100
AcDbEntity
  8
ZUWAKU
  6
CONTINUOUS
 62
       9
100
AcDbLine
 10
-827.15025774
 20
1.81880215
 30
0.0
 11
-840.0
 21
1.81880215
 31
0.0
  0
LINE
  5
65E
100
AcDbEntity
  8
ZUWAKU
  6
CONTINUOUS
 62
       9
100
AcDbLine
 10
-827.84307806
 20
2.21880215
 30
0.0
 11
-840.0
 21
2.21880215
 31
0.0
  0
LINE
  5
65F
100
AcDbEntity
  8
ZUWAKU
  6
CONTINUOUS
 62
       9
100
AcDbLine
 10
-828.53589838
 20
2.61880215
 30
0.0
 11
-840.0
 21
2.61880215
 31
0.0
  0
LINE
  5
660
100
AcDbEntity
  8
ZUWAKU
  6
CONTINUOUS
 62
       9
100
AcDbLine
 10
-829.22871871
 20
3.01880215
 30
0.0
 11
-840.0
 21
3.01880215
 31
0.0
  0
LINE
  5
661
100
AcDbEntity
  8
ZUWAKU
  6
CONTINUOUS
 62
       9
100
AcDbLine
 10
-829.92153903
 20
3.41880215
 30
0.0
 11
-840.0
 21
3.41880215
 31
0.0
  0
LINE
  5
662
100
AcDbEntity
  8
ZUWAKU
  6
CONTINUOUS
 62
       9
100
AcDbLine
 10
-830.61435935
 20
3.81880215
 30
0.0
 11
-840.0
 21
3.81880215
 31
0.0
  0
LINE
  5
663
100
AcDbEntity
  8
ZUWAKU
  6
CONTINUOUS
 62
       9
100
AcDbLine
 10
-831.30717968
 20
4.21880215
 30
0.0
 11
-840.0
 21
4.21880215
 31
0.0
  0
LINE
  5
664
100
AcDbEntity
  8
ZUWAKU
  6
CONTINUOUS
 62
       9
100
AcDbLine
 10
-832.0
 20
4.61880215
 30
0.0
 11
-840.0
 21
4.61880215
 31
0.0
  0
LINE
  5
665
100
AcDbEntity
  8
ZUWAKU
  6
CONTINUOUS
 62
       9
100
AcDbLine
 10
-832.69282032
 20
5.01880215
 30
0.0
 11
-840.0
 21
5.01880215
 31
0.0
  0
LINE
  5
666
100
AcDbEntity
  8
ZUWAKU
  6
CONTINUOUS
 62
       9
100
AcDbLine
 10
-833.38564065
 20
5.41880215
 30
0.0
 11
-840.0
 21
5.41880215
 31
0.0
  0
LINE
  5
667
100
AcDbEntity
  8
ZUWAKU
  6
CONTINUOUS
 62
       9
100
AcDbLine
 10
-834.07846097
 20
5.81880215
 30
0.0
 11
-840.0
 21
5.81880215
 31
0.0
  0
LINE
  5
668
100
AcDbEntity
  8
ZUWAKU
  6
CONTINUOUS
 62
       9
100
AcDbLine
 10
-834.77128129
 20
6.21880215
 30
0.0
 11
-840.0
 21
6.21880215
 31
0.0
  0
LINE
  5
669
100
AcDbEntity
  8
ZUWAKU
  6
CONTINUOUS
 62
       9
100
AcDbLine
 10
-835.46410162
 20
6.61880215
 30
0.0
 11
-840.0
 21
6.61880215
 31
0.0
  0
LINE
  5
66A
100
AcDbEntity
  8
ZUWAKU
  6
CONTINUOUS
 62
       9
100
AcDbLine
 10
-836.15692194
 20
7.01880215
 30
0.0
 11
-840.0
 21
7.01880215
 31
0.0
  0
LINE
  5
66B
100
AcDbEntity
  8
ZUWAKU
  6
CONTINUOUS
 62
       9
100
AcDbLine
 10
-836.84974226
 20
7.41880215
 30
0.0
 11
-840.0
 21
7.41880215
 31
0.0
  0
LINE
  5
66C
100
AcDbEntity
  8
ZUWAKU
  6
CONTINUOUS
 62
       9
100
AcDbLine
 10
-837.54256258
 20
7.81880215
 30
0.0
 11
-840.0
 21
7.81880215
 31
0.0
  0
LINE
  5
66D
100
AcDbEntity
  8
ZUWAKU
  6
CONTINUOUS
 62
       9
100
AcDbLine
 10
-838.23538291
 20
8.21880215
 30
0.0
 11
-840.0
 21
8.21880215
 31
0.0
  0
LINE
  5
66E
100
AcDbEntity
  8
ZUWAKU
  6
CONTINUOUS
 62
       9
100
AcDbLine
 10
-838.92820323
 20
8.61880215
 30
0.0
 11
-840.0
 21
8.61880215
 31
0.0
  0
LINE
  5
66F
100
AcDbEntity
  8
ZUWAKU
  6
CONTINUOUS
 62
       9
100
AcDbLine
 10
-839.62102355
 20
9.01880215
 30
0.0
 11
-840.0
 21
9.01880215
 31
0.0
  0
LINE
  5
670
100
AcDbEntity
  8
ZUWAKU
  6
CONTINUOUS
 62
       9
100
AcDbLine
 10
-839.90750762
 20
-594.1380426
 30
0.0
 11
-839.90750762
 21
-613.99978613
 31
0.0
  0
LINE
  5
671
100
AcDbEntity
  8
ZUWAKU
  6
CONTINUOUS
 62
       9
100
AcDbLine
 10
840.0
 20
-594.0
 30
0.0
 11
860.0
 21
-594.0
 31
0.0
  0
LINE
  5
672
100
AcDbEntity
  8
ZUWAKU
  6
CONTINUOUS
 62
       9
100
AcDbLine
 10
840.0
 20
594.0
 30
0.0
 11
860.0
 21
594.0
 31
0.0
  0
LINE
  5
673
100
AcDbEntity
  8
ZUWAKU
  6
CONTINUOUS
 62
       9
100
AcDbLine
 10
840.0
 20
594.0
 30
0.0
 11
840.0
 21
614.0
 31
0.0
  0
POINT
  5
674
100
AcDbEntity
  8
ZUWAKU
  6
CONTINUOUS
 62
       9
100
AcDbPoint
 10
774.38398625
 20
-519.23284619
 30
0.0
  0
POINT
  5
675
100
AcDbEntity
  8
ZUWAKU
  6
CONTINUOUS
 62
       9
100
AcDbPoint
 10
774.38398625
 20
-542.0
 30
0.0
  0
POINT
  5
676
100
AcDbEntity
  8
ZUWAKU
  6
CONTINUOUS
 62
       9
100
AcDbPoint
 10
722.38398625
 20
-530.0
 30
0.0
  0
POINT
  5
677
100
AcDbEntity
  8
ZUWAKU
  6
CONTINUOUS
 62
       9
100
AcDbPoint
 10
722.38398625
 20
-519.23284619
 30
0.0
  0
POINT
  5
678
100
AcDbEntity
  8
ZUWAKU
  6
CONTINUOUS
 62
       9
100
AcDbPoint
 10
722.38398625
 20
-542.0
 30
0.0
  0
POINT
  5
679
100
AcDbEntity
  8
ZUWAKU
  6
CONTINUOUS
 62
       9
100
AcDbPoint
 10
670.38398625
 20
-530.0
 30
0.0
  0
POINT
  5
67A
100
AcDbEntity
  8
ZUWAKU
  6
CONTINUOUS
 62
       9
100
AcDbPoint
 10
670.38398625
 20
-519.23284619
 30
0.0
  0
POINT
  5
67B
100
AcDbEntity
  8
ZUWAKU
  6
CONTINUOUS
 62
       9
100
AcDbPoint
 10
670.38398625
 20
-542.0
 30
0.0
  0
POINT
  5
67C
100
AcDbEntity
  8
ZUWAKU
  6
CONTINUOUS
 62
       9
100
AcDbPoint
 10
618.38398625
 20
-530.0
 30
0.0
  0
POINT
  5
67D
100
AcDbEntity
  8
ZUWAKU
  6
CONTINUOUS
 62
       9
100
AcDbPoint
 10
618.38398625
 20
-519.23284619
 30
0.0
  0
POINT
  5
67E
100
AcDbEntity
  8
ZUWAKU
  6
CONTINUOUS
 62
       9
100
AcDbPoint
 10
618.38398625
 20
-542.0
 30
0.0
  0
POINT
  5
67F
100
AcDbEntity
  8
ZUWAKU
  6
CONTINUOUS
 62
       9
100
AcDbPoint
 10
86.06598059
 20
-494.0
 30
0.0
  0
POINT
  5
680
100
AcDbEntity
  8
ZUWAKU
  6
CONTINUOUS
 62
       9
100
AcDbPoint
 10
272.31725394
 20
-494.0
 30
0.0
  0
POINT
  5
681
100
AcDbEntity
  8
ZUWAKU
  6
CONTINUOUS
 62
       9
100
AcDbPoint
 10
334.35460538
 20
-494.0
 30
0.0
  0
POINT
  5
682
100
AcDbEntity
  8
ZUWAKU
  6
CONTINUOUS
 62
       9
100
AcDbPoint
 10
364.16445258
 20
-494.0
 30
0.0
  0
POINT
  5
683
100
AcDbEntity
  8
ZUWAKU
  6
CONTINUOUS
 62
       9
100
AcDbPoint
 10
86.06598059
 20
-470.0
 30
0.0
  0
POINT
  5
684
100
AcDbEntity
  8
ZUWAKU
  6
CONTINUOUS
 62
       9
100
AcDbPoint
 10
272.31725394
 20
-470.0
 30
0.0
  0
POINT
  5
685
100
AcDbEntity
  8
ZUWAKU
  6
CONTINUOUS
 62
       9
100
AcDbPoint
 10
334.35460538
 20
-470.0
 30
0.0
  0
POINT
  5
686
100
AcDbEntity
  8
ZUWAKU
  6
CONTINUOUS
 62
       9
100
AcDbPoint
 10
364.16445258
 20
-470.0
 30
0.0
  0
POINT
  5
687
100
AcDbEntity
  8
ZUWAKU
  6
CONTINUOUS
 62
       9
100
AcDbPoint
 10
800.38398625
 20
554.0
 30
0.0
  0
POINT
  5
688
100
AcDbEntity
  8
ZUWAKU
  6
CONTINUOUS
 62
       9
100
AcDbPoint
 10
774.38398625
 20
518.0
 30
0.0
  0
POINT
  5
689
100
AcDbEntity
  8
ZUWAKU
  6
CONTINUOUS
 62
       9
100
AcDbPoint
 10
726.38398625
 20
518.0
 30
0.0
  0
POINT
  5
68A
100
AcDbEntity
  8
ZUWAKU
  6
CONTINUOUS
 62
       9
100
AcDbPoint
 10
774.38398625
 20
494.0
 30
0.0
  0
POINT
  5
68B
100
AcDbEntity
  8
ZUWAKU
  6
CONTINUOUS
 62
       9
100
AcDbPoint
 10
726.38398625
 20
494.0
 30
0.0
  0
POINT
  5
68C
100
AcDbEntity
  8
ZUWAKU
  6
CONTINUOUS
 62
       9
100
AcDbPoint
 10
774.38398625
 20
470.0
 30
0.0
  0
POINT
  5
68D
100
AcDbEntity
  8
ZUWAKU
  6
CONTINUOUS
 62
       9
100
AcDbPoint
 10
726.38398625
 20
470.0
 30
0.0
  0
POINT
  5
68E
100
AcDbEntity
  8
ZUWAKU
  6
CONTINUOUS
 62
       9
100
AcDbPoint
 10
594.38398625
 20
-398.0
 30
0.0
  0
POINT
  5
68F
100
AcDbEntity
  8
ZUWAKU
  6
CONTINUOUS
 62
       9
100
AcDbPoint
 10
594.38398625
 20
-374.0
 30
0.0
  0
POINT
  5
690
100
AcDbEntity
  8
ZUWAKU
  6
CONTINUOUS
 62
       7
100
AcDbPoint
 10
800.38398625
 20
554.0
 30
0.0
  0
POINT
  5
691
100
AcDbEntity
  8
ZUWAKU
  6
CONTINUOUS
 62
       7
100
AcDbPoint
 10
376.38398625
 20
554.0
 30
0.0
  0
POINT
  5
692
100
AcDbEntity
  8
ZUWAKU
  6
CONTINUOUS
 62
       7
100
AcDbPoint
 10
546.38398625
 20
518.0
 30
0.0
  0
POINT
  5
693
100
AcDbEntity
  8
ZUWAKU
  6
CONTINUOUS
 62
       7
100
AcDbPoint
 10
408.38398625
 20
518.0
 30
0.0
  0
POINT
  5
694
100
AcDbEntity
  8
ZUWAKU
  6
CONTINUOUS
 62
       7
100
AcDbPoint
 10
492.38398625
 20
518.0
 30
0.0
  0
POINT
  5
695
100
AcDbEntity
  8
ZUWAKU
  6
CONTINUOUS
 62
       7
100
AcDbPoint
 10
546.38398625
 20
494.0
 30
0.0
  0
POINT
  5
696
100
AcDbEntity
  8
ZUWAKU
  6
CONTINUOUS
 62
       7
100
AcDbPoint
 10
408.38398625
 20
494.0
 30
0.0
  0
POINT
  5
697
100
AcDbEntity
  8
ZUWAKU
  6
CONTINUOUS
 62
       7
100
AcDbPoint
 10
492.38398625
 20
494.0
 30
0.0
  0
POINT
  5
698
100
AcDbEntity
  8
ZUWAKU
  6
CONTINUOUS
 62
       7
100
AcDbPoint
 10
546.38398625
 20
470.0
 30
0.0
  0
POINT
  5
699
100
AcDbEntity
  8
ZUWAKU
  6
CONTINUOUS
 62
       7
100
AcDbPoint
 10
408.38398625
 20
470.0
 30
0.0
  0
POINT
  5
69A
100
AcDbEntity
  8
ZUWAKU
  6
CONTINUOUS
 62
       7
100
AcDbPoint
 10
492.38398625
 20
470.0
 30
0.0
  0
LINE
  5
69B
100
AcDbEntity
  8
レイヤー_1
  6
CONTINUOUS
 62
       3
100
AcDbLine
 10
-370.20714037
 20
32.49740176
 30
0.0
 11
-370.20714037
 21
32.85966992
 31
0.0
  0
LINE
  5
69C
100
AcDbEntity
  8
レイヤー_1
  6
CONTINUOUS
 62
       3
100
AcDbLine
 10
-367.14262962
 20
35.75486993
 30
0.0
 11
-366.9621917
 21
35.75486993
 31
0.0
  0
LINE
  5
69D
100
AcDbEntity
  8
レイヤー_1
  6
CONTINUOUS
 62
       3
100
AcDbLine
 10
-370.20714037
 20
82.07954276
 30
0.0
 11
-370.20714037
 21
99.99414507
 31
0.0
  0
LINE
  5
69E
100
AcDbEntity
  8
レイヤー_1
  6
CONTINUOUS
 62
       3
100
AcDbLine
 10
-366.9621917
 20
35.75486993
 30
0.0
 11
-348.74439256
 21
35.75486993
 31
0.0
  0
LINE
  5
69F
100
AcDbEntity
  8
レイヤー_1
  6
CONTINUOUS
 62
       3
100
AcDbLine
 10
-348.74439256
 20
78.82207458
 30
0.0
 11
-366.9621917
 21
78.82207458
 31
0.0
  0
LINE
  5
6A0
100
AcDbEntity
  8
レイヤー_1
  6
CONTINUOUS
 62
       3
100
AcDbLine
 10
-346.04075766
 20
38.46893586
 30
0.0
 11
-343.87770304
 21
38.65006994
 31
0.0
  0
LINE
  5
6A1
100
AcDbEntity
  8
レイヤー_1
  6
CONTINUOUS
 62
       3
100
AcDbLine
 10
-348.74439256
 20
38.46893586
 30
0.0
 11
-346.04075766
 21
38.46893586
 31
0.0
  0
LINE
  5
6A2
100
AcDbEntity
  8
レイヤー_1
  6
CONTINUOUS
 62
       3
100
AcDbLine
 10
-346.4016335
 20
76.10800865
 30
0.0
 11
-348.74439256
 21
76.10800865
 31
0.0
  0
LINE
  5
6A3
100
AcDbEntity
  8
レイヤー_1
  6
CONTINUOUS
 62
       3
100
AcDbLine
 10
-339.19071795
 20
35.75486993
 30
0.0
 11
-317.73987619
 21
35.75486993
 31
0.0
  0
LINE
  5
6A4
100
AcDbEntity
  8
レイヤー_1
  6
CONTINUOUS
 62
       3
100
AcDbLine
 10
-317.73987619
 20
79.00320866
 30
0.0
 11
-324.76962033
 21
79.00320866
 31
0.0
  0
LINE
  5
6A5
100
AcDbEntity
  8
レイヤー_1
  6
CONTINUOUS
 62
       3
100
AcDbLine
 10
-334.86460871
 20
79.00320866
 30
0.0
 11
-346.4016335
 21
79.00320866
 31
0.0
  0
LINE
  5
6A6
100
AcDbEntity
  8
レイヤー_1
  6
CONTINUOUS
 62
       3
100
AcDbLine
 10
-317.37900034
 20
57.28773594
 30
0.0
 11
-317.73987619
 21
79.00320866
 31
0.0
  0
LINE
  5
6A7
100
AcDbEntity
  8
レイヤー_1
  6
CONTINUOUS
 62
       3
100
AcDbLine
 10
-317.73987619
 20
35.75486993
 30
0.0
 11
-317.37900034
 21
57.28773594
 31
0.0
  0
LINE
  5
6A8
100
AcDbEntity
  8
レイヤー_1
  6
CONTINUOUS
 62
       3
100
AcDbLine
 10
-370.20714037
 20
-41.04881407
 30
0.0
 11
-370.20714037
 21
-39.59974143
 31
0.0
  0
LINE
  5
6A9
100
AcDbEntity
  8
レイヤー_1
  6
CONTINUOUS
 62
       3
100
AcDbLine
 10
-418.15668483
 20
-39.59974143
 30
0.0
 11
-418.15668483
 21
-41.04881407
 31
0.0
  0
LINE
  5
6AA
100
AcDbEntity
  8
レイヤー_1
  6
CONTINUOUS
 62
       3
100
AcDbLine
 10
-368.04408575
 20
-47.56227778
 30
0.0
 11
-368.04408575
 21
-41.59074368
 31
0.0
  0
LINE
  5
6AB
100
AcDbEntity
  8
レイヤー_1
  6
CONTINUOUS
 62
       3
100
AcDbLine
 10
-420.13930153
 20
-41.59074368
 30
0.0
 11
-420.13930153
 21
-47.56227778
 31
0.0
  0
LINE
  5
6AC
100
AcDbEntity
  8
レイヤー_1
  6
CONTINUOUS
 62
       3
100
AcDbLine
 10
-419.59872124
 20
-41.04881407
 30
0.0
 11
-419.9588636
 21
-41.22847552
 31
0.0
  0
LINE
  5
6AD
100
AcDbEntity
  8
レイヤー_1
  6
CONTINUOUS
 62
       3
100
AcDbLine
 10
-419.9588636
 20
-41.22847552
 30
0.0
 11
-420.13930153
 21
-41.59074368
 31
0.0
  0
LINE
  5
6AE
100
AcDbEntity
  8
レイヤー_1
  6
CONTINUOUS
 62
       3
100
AcDbLine
 10
-368.04408575
 20
-41.59074368
 30
0.0
 11
-368.22379019
 21
-41.22847552
 31
0.0
  0
LINE
  5
6AF
100
AcDbEntity
  8
レイヤー_1
  6
CONTINUOUS
 62
       3
100
AcDbLine
 10
-368.22379019
 20
-41.22847552
 30
0.0
 11
-368.58466603
 21
-41.04881407
 31
0.0
  0
LINE
  5
6B0
100
AcDbEntity
  8
レイヤー_1
  6
CONTINUOUS
 62
       3
100
AcDbLine
 10
-420.13930153
 20
-47.56227778
 30
0.0
 11
-419.9588636
 21
-47.92454594
 31
0.0
  0
LINE
  5
6B1
100
AcDbEntity
  8
レイヤー_1
  6
CONTINUOUS
 62
       3
100
AcDbLine
 10
-419.9588636
 20
-47.92454594
 30
0.0
 11
-419.59872124
 21
-48.10568002
 31
0.0
  0
LINE
  5
6B2
100
AcDbEntity
  8
レイヤー_1
  6
CONTINUOUS
 62
       3
100
AcDbLine
 10
-368.58466603
 20
-48.10568002
 30
0.0
 11
-368.22379019
 21
-47.92454594
 31
0.0
  0
LINE
  5
6B3
100
AcDbEntity
  8
レイヤー_1
  6
CONTINUOUS
 62
       3
100
AcDbLine
 10
-368.22379019
 20
-47.92454594
 30
0.0
 11
-368.04408575
 21
-47.56227778
 31
0.0
  0
LINE
  5
6B4
100
AcDbEntity
  8
レイヤー_1
  6
CONTINUOUS
 62
       3
100
AcDbLine
 10
-396.8855475
 20
-41.59074368
 30
0.0
 11
-396.8855475
 21
-47.56227778
 31
0.0
  0
LINE
  5
6B5
100
AcDbEntity
  8
レイヤー_1
  6
CONTINUOUS
 62
       3
100
AcDbLine
 10
-396.8855475
 20
-47.56227778
 30
0.0
 11
-396.70510958
 21
-47.92454594
 31
0.0
  0
LINE
  5
6B6
100
AcDbEntity
  8
レイヤー_1
  6
CONTINUOUS
 62
       3
100
AcDbLine
 10
-396.70510958
 20
-47.92454594
 30
0.0
 11
-396.34496722
 21
-48.10568002
 31
0.0
  0
LINE
  5
6B7
100
AcDbEntity
  8
レイヤー_1
  6
CONTINUOUS
 62
       3
100
AcDbLine
 10
-396.34496722
 20
-41.04881407
 30
0.0
 11
-396.70510958
 21
-41.22847552
 31
0.0
  0
LINE
  5
6B8
100
AcDbEntity
  8
レイヤー_1
  6
CONTINUOUS
 62
       3
100
AcDbLine
 10
-396.70510958
 20
-41.22847552
 30
0.0
 11
-396.8855475
 21
-41.59074368
 31
0.0
  0
LINE
  5
6B9
100
AcDbEntity
  8
レイヤー_1
  6
CONTINUOUS
 62
       3
100
AcDbLine
 10
-414.01028003
 20
-41.59074368
 30
0.0
 11
-414.19071795
 21
-41.22847552
 31
0.0
  0
LINE
  5
6BA
100
AcDbEntity
  8
レイヤー_1
  6
CONTINUOUS
 62
       3
100
AcDbLine
 10
-414.19071795
 20
-41.22847552
 30
0.0
 11
-414.5515938
 21
-41.04881407
 31
0.0
  0
LINE
  5
6BB
100
AcDbEntity
  8
レイヤー_1
  6
CONTINUOUS
 62
       3
100
AcDbLine
 10
-411.66678748
 20
-43.03834368
 30
0.0
 11
-411.84722541
 21
-42.8572096
 31
0.0
  0
LINE
  5
6BC
100
AcDbEntity
  8
レイヤー_1
  6
CONTINUOUS
 62
       3
100
AcDbLine
 10
-411.84722541
 20
-42.8572096
 30
0.0
 11
-412.20810125
 21
-42.67607552
 31
0.0
  0
LINE
  5
6BD
100
AcDbEntity
  8
レイヤー_1
  6
CONTINUOUS
 62
       3
100
AcDbLine
 10
-411.66678748
 20
-47.56227778
 30
0.0
 11
-411.66678748
 21
-43.03834368
 31
0.0
  0
LINE
  5
6BE
100
AcDbEntity
  8
レイヤー_1
  6
CONTINUOUS
 62
       3
100
AcDbLine
 10
-412.20810125
 20
-48.10568002
 30
0.0
 11
-411.84722541
 21
-47.92454594
 31
0.0
  0
LINE
  5
6BF
100
AcDbEntity
  8
レイヤー_1
  6
CONTINUOUS
 62
       3
100
AcDbLine
 10
-411.84722541
 20
-47.92454594
 30
0.0
 11
-411.66678748
 21
-47.56227778
 31
0.0
  0
LINE
  5
6C0
100
AcDbEntity
  8
レイヤー_1
  6
CONTINUOUS
 62
       3
100
AcDbLine
 10
-389.85506987
 20
-49.91554819
 30
0.0
 11
-388.41303346
 21
-52.62961412
 31
0.0
  0
LINE
  5
6C1
100
AcDbEntity
  8
レイヤー_1
  6
CONTINUOUS
 62
       3
100
AcDbLine
 10
-378.31877857
 20
-52.62961412
 30
0.0
 11
-376.87674215
 21
-49.91554819
 31
0.0
  0
LINE
  5
6C2
100
AcDbEntity
  8
レイヤー_1
  6
CONTINUOUS
 62
       3
100
AcDbLine
 10
-376.87674215
 20
-49.91554819
 30
0.0
 11
-376.87674215
 21
-48.46794818
 31
0.0
  0
LINE
  5
6C3
100
AcDbEntity
  8
レイヤー_1
  6
CONTINUOUS
 62
       3
100
AcDbLine
 10
-389.85506987
 20
-48.46794818
 30
0.0
 11
-389.85506987
 21
-49.91554819
 31
0.0
  0
LINE
  5
6C4
100
AcDbEntity
  8
レイヤー_1
  6
CONTINUOUS
 62
       3
100
AcDbLine
 10
-376.87674215
 20
-48.46794818
 30
0.0
 11
-378.85935885
 21
-48.10568002
 31
0.0
  0
LINE
  5
6C5
100
AcDbEntity
  8
レイヤー_1
  6
CONTINUOUS
 62
       3
100
AcDbLine
 10
-387.87245318
 20
-48.10568002
 30
0.0
 11
-389.85506987
 21
-48.46794818
 31
0.0
  0
LINE
  5
6C6
100
AcDbEntity
  8
レイヤー_1
  6
CONTINUOUS
 62
       3
100
AcDbLine
 10
-378.31877857
 20
-76.15348238
 30
0.0
 11
-378.31877857
 21
-52.62961412
 31
0.0
  0
LINE
  5
6C7
100
AcDbEntity
  8
レイヤー_1
  6
CONTINUOUS
 62
       3
100
AcDbLine
 10
-388.41303346
 20
-52.62961412
 30
0.0
 11
-388.41303346
 21
-76.15348238
 31
0.0
  0
LINE
  5
6C8
100
AcDbEntity
  8
レイヤー_1
  6
CONTINUOUS
 62
       3
100
AcDbLine
 10
-370.20714037
 20
99.99414507
 30
0.0
 11
-414.5515938
 21
99.99414507
 31
0.0
  0
LINE
  5
6C9
100
AcDbEntity
  8
レイヤー_1
  6
CONTINUOUS
 62
       3
100
AcDbLine
 10
-348.74439256
 20
49.32667222
 30
0.0
 11
-346.4016335
 21
49.32667222
 31
0.0
  0
LINE
  5
6CA
100
AcDbEntity
  8
レイヤー_1
  6
CONTINUOUS
 62
       3
100
AcDbLine
 10
-346.4016335
 20
65.25027229
 30
0.0
 11
-348.74439256
 21
65.25027229
 31
0.0
  0
LINE
  5
6CB
100
AcDbEntity
  8
レイヤー_1
  6
CONTINUOUS
 62
       3
100
AcDbLine
 10
-339.19071795
 20
35.75486993
 30
0.0
 11
-339.5515938
 21
35.75486993
 31
0.0
  0
LINE
  5
6CC
100
AcDbEntity
  8
レイヤー_1
  6
CONTINUOUS
 62
       3
100
AcDbLine
 10
-339.5515938
 20
35.75486993
 30
0.0
 11
-340.272612
 21
35.93600401
 31
0.0
  0
LINE
  5
6CD
100
AcDbEntity
  8
レイヤー_1
  6
CONTINUOUS
 62
       3
100
AcDbLine
 10
-340.272612
 20
35.93600401
 30
0.0
 11
-341.17406813
 21
36.29679953
 31
0.0
  0
LINE
  5
6CE
100
AcDbEntity
  8
レイヤー_1
  6
CONTINUOUS
 62
       3
100
AcDbLine
 10
-341.17406813
 20
36.29679953
 30
0.0
 11
-341.89508634
 21
36.84020177
 31
0.0
  0
LINE
  5
6CF
100
AcDbEntity
  8
レイヤー_1
  6
CONTINUOUS
 62
       3
100
AcDbLine
 10
-341.89508634
 20
36.84020177
 30
0.0
 11
-342.79580898
 21
37.56326546
 31
0.0
  0
LINE
  5
6D0
100
AcDbEntity
  8
レイヤー_1
  6
CONTINUOUS
 62
       3
100
AcDbLine
 10
-342.79580898
 20
37.56326546
 30
0.0
 11
-343.69726511
 21
38.46893586
 31
0.0
  0
LINE
  5
6D1
100
AcDbEntity
  8
レイヤー_1
  6
CONTINUOUS
 62
       3
100
AcDbLine
 10
-343.69726511
 20
38.46893586
 30
0.0
 11
-345.50017737
 21
40.63959955
 31
0.0
  0
LINE
  5
6D2
100
AcDbEntity
  8
レイヤー_1
  6
CONTINUOUS
 62
       3
100
AcDbLine
 10
-345.50017737
 20
40.63959955
 30
0.0
 11
-346.4016335
 21
42.08719956
 31
0.0
  0
LINE
  5
6D3
100
AcDbEntity
  8
レイヤー_1
  6
CONTINUOUS
 62
       3
100
AcDbLine
 10
-346.4016335
 20
42.08719956
 30
0.0
 11
-346.4016335
 21
79.00320866
 31
0.0
  0
LINE
  5
6D4
100
AcDbEntity
  8
レイヤー_1
  6
CONTINUOUS
 62
       3
100
AcDbLine
 10
-414.01028003
 20
-42.67607552
 30
0.0
 11
-396.8855475
 21
-42.67607552
 31
0.0
  0
LINE
  5
6D5
100
AcDbEntity
  8
レイヤー_1
  6
CONTINUOUS
 62
       3
100
AcDbLine
 10
-418.15668483
 20
-39.59974143
 30
0.0
 11
-370.20714037
 21
-39.59974143
 31
0.0
  0
LINE
  5
6D6
100
AcDbEntity
  8
レイヤー_1
  6
CONTINUOUS
 62
       3
100
AcDbLine
 10
-396.34496722
 20
-41.04881407
 30
0.0
 11
-368.58466603
 21
-41.04881407
 31
0.0
  0
LINE
  5
6D7
100
AcDbEntity
  8
レイヤー_1
  6
CONTINUOUS
 62
       3
100
AcDbLine
 10
-419.59872124
 20
-41.04881407
 30
0.0
 11
-414.91173616
 21
-41.04881407
 31
0.0
  0
LINE
  5
6D8
100
AcDbEntity
  8
レイヤー_1
  6
CONTINUOUS
 62
       3
100
AcDbLine
 10
-414.91173616
 20
-48.10568002
 30
0.0
 11
-419.59872124
 21
-48.10568002
 31
0.0
  0
LINE
  5
6D9
100
AcDbEntity
  8
レイヤー_1
  6
CONTINUOUS
 62
       3
100
AcDbLine
 10
-368.58466603
 20
-48.10568002
 30
0.0
 11
-396.34496722
 21
-48.10568002
 31
0.0
  0
LINE
  5
6DA
100
AcDbEntity
  8
レイヤー_1
  6
CONTINUOUS
 62
       3
100
AcDbLine
 10
-418.69726511
 20
-41.04881407
 30
0.0
 11
-418.15668483
 21
-41.04881407
 31
0.0
  0
LINE
  5
6DB
100
AcDbEntity
  8
レイヤー_1
  6
CONTINUOUS
 62
       3
100
AcDbLine
 10
-370.20714037
 20
-41.04881407
 30
0.0
 11
-369.6658266
 21
-41.04881407
 31
0.0
  0
LINE
  5
6DC
100
AcDbEntity
  8
レイヤー_1
  6
CONTINUOUS
 62
       3
100
AcDbLine
 10
-384.6275045
 20
-48.10568002
 30
0.0
 11
-387.69201525
 21
-48.10568002
 31
0.0
  0
LINE
  5
6DD
100
AcDbEntity
  8
レイヤー_1
  6
CONTINUOUS
 62
       3
100
AcDbLine
 10
-412.20810125
 20
-48.10568002
 30
0.0
 11
-414.91173616
 21
-48.10568002
 31
0.0
  0
LINE
  5
6DE
100
AcDbEntity
  8
レイヤー_1
  6
CONTINUOUS
 62
       3
100
AcDbLine
 10
-414.91173616
 20
-41.04881407
 30
0.0
 11
-414.5515938
 21
-41.04881407
 31
0.0
  0
LINE
  5
6DF
100
AcDbEntity
  8
レイヤー_1
  6
CONTINUOUS
 62
       3
100
AcDbLine
 10
-394.36161704
 20
-48.10568002
 30
0.0
 11
-395.44351109
 21
-48.10568002
 31
0.0
  0
LINE
  5
6E0
100
AcDbEntity
  8
レイヤー_1
  6
CONTINUOUS
 62
       3
100
AcDbLine
 10
-409.32402843
 20
-48.10568002
 30
0.0
 11
-413.65013767
 21
-48.10568002
 31
0.0
  0
LINE
  5
6E1
100
AcDbEntity
  8
レイヤー_1
  6
CONTINUOUS
 62
       3
100
AcDbLine
 10
-387.69201525
 20
-48.10568002
 30
0.0
 11
-389.85506987
 21
-48.10568002
 31
0.0
  0
LINE
  5
6E2
100
AcDbEntity
  8
レイヤー_1
  6
CONTINUOUS
 62
       3
100
AcDbLine
 10
-387.87245318
 20
-48.10568002
 30
0.0
 11
-390.39638364
 21
-48.10568002
 31
0.0
  0
LINE
  5
6E3
100
AcDbEntity
  8
レイヤー_1
  6
CONTINUOUS
 62
       3
100
AcDbLine
 10
-381.74343168
 20
-87.55462098
 30
0.0
 11
-385.34852271
 21
-88.09655059
 31
0.0
  0
LINE
  5
6E4
100
AcDbEntity
  8
レイヤー_1
  6
CONTINUOUS
 62
       3
100
AcDbLine
 10
-385.34852271
 20
-88.09655059
 30
0.0
 11
-385.52896063
 21
-88.09655059
 31
0.0
  0
LINE
  5
6E5
100
AcDbEntity
  8
レイヤー_1
  6
CONTINUOUS
 62
       3
100
AcDbLine
 10
-385.52896063
 20
-88.09655059
 30
0.0
 11
-388.95434723
 21
-87.55462098
 31
0.0
  0
LINE
  5
6E6
100
AcDbEntity
  8
レイヤー_1
  6
CONTINUOUS
 62
       3
100
AcDbLine
 10
-388.95434723
 20
-87.55462098
 30
0.0
 11
-388.95434723
 21
-76.69688462
 31
0.0
  0
LINE
  5
6E7
100
AcDbEntity
  8
レイヤー_1
  6
CONTINUOUS
 62
       3
100
AcDbLine
 10
-385.34852271
 20
-76.15348238
 30
0.0
 11
-385.52896063
 21
-76.15348238
 31
0.0
  0
LINE
  5
6E8
100
AcDbEntity
  8
レイヤー_1
  6
CONTINUOUS
 62
       3
100
AcDbLine
 10
-385.52896063
 20
-76.15348238
 30
0.0
 11
-388.95434723
 21
-76.69688462
 31
0.0
  0
LINE
  5
6E9
100
AcDbEntity
  8
レイヤー_1
  6
CONTINUOUS
 62
       3
100
AcDbLine
 10
-381.74343168
 20
-76.69688462
 30
0.0
 11
-385.34852271
 21
-76.15348238
 31
0.0
  0
LINE
  5
6EA
100
AcDbEntity
  8
レイヤー_1
  6
CONTINUOUS
 62
       3
100
AcDbLine
 10
-381.74343168
 20
-87.55462098
 30
0.0
 11
-381.74343168
 21
-76.69688462
 31
0.0
  0
LINE
  5
6EB
100
AcDbEntity
  8
レイヤー_1
  6
CONTINUOUS
 62
       3
100
AcDbLine
 10
-376.87674215
 20
-49.91554819
 30
0.0
 11
-389.85506987
 21
-49.91554819
 31
0.0
  0
LINE
  5
6EC
100
AcDbEntity
  8
レイヤー_1
  6
CONTINUOUS
 62
       3
100
AcDbLine
 10
-378.31877857
 20
-52.62961412
 30
0.0
 11
-388.41303346
 21
-52.62961412
 31
0.0
  0
LINE
  5
6ED
100
AcDbEntity
  8
レイヤー_1
  6
CONTINUOUS
 62
       3
100
AcDbLine
 10
-378.85935885
 20
-76.15348238
 30
0.0
 11
-381.02241347
 21
-76.33461646
 31
0.0
  0
LINE
  5
6EE
100
AcDbEntity
  8
レイヤー_1
  6
CONTINUOUS
 62
       3
100
AcDbLine
 10
-381.02241347
 20
-76.33461646
 30
0.0
 11
-381.74343168
 21
-76.69688462
 31
0.0
  0
LINE
  5
6EF
100
AcDbEntity
  8
レイヤー_1
  6
CONTINUOUS
 62
       3
100
AcDbLine
 10
-378.85935885
 20
-76.15348238
 30
0.0
 11
-385.34852271
 21
-76.15348238
 31
0.0
  0
LINE
  5
6F0
100
AcDbEntity
  8
レイヤー_1
  6
CONTINUOUS
 62
       3
100
AcDbLine
 10
-378.85935885
 20
-88.09655059
 30
0.0
 11
-381.02241347
 21
-87.73575506
 31
0.0
  0
LINE
  5
6F1
100
AcDbEntity
  8
レイヤー_1
  6
CONTINUOUS
 62
       3
100
AcDbLine
 10
-381.02241347
 20
-87.73575506
 30
0.0
 11
-381.74343168
 21
-87.55462098
 31
0.0
  0
LINE
  5
6F2
100
AcDbEntity
  8
レイヤー_1
  6
CONTINUOUS
 62
       3
100
AcDbLine
 10
-378.85935885
 20
-88.09655059
 30
0.0
 11
-385.34852271
 21
-88.09655059
 31
0.0
  0
LINE
  5
6F3
100
AcDbEntity
  8
レイヤー_1
  6
CONTINUOUS
 62
       3
100
AcDbLine
 10
-388.95434723
 20
-76.69688462
 30
0.0
 11
-389.67536544
 21
-76.15348238
 31
0.0
  0
LINE
  5
6F4
100
AcDbEntity
  8
レイヤー_1
  6
CONTINUOUS
 62
       3
100
AcDbLine
 10
-385.34852271
 20
-76.15348238
 30
0.0
 11
-389.67536544
 21
-76.15348238
 31
0.0
  0
LINE
  5
6F5
100
AcDbEntity
  8
レイヤー_1
  6
CONTINUOUS
 62
       3
100
AcDbLine
 10
-388.95434723
 20
-87.55462098
 30
0.0
 11
-389.67536544
 21
-88.09655059
 31
0.0
  0
LINE
  5
6F6
100
AcDbEntity
  8
レイヤー_1
  6
CONTINUOUS
 62
       3
100
AcDbLine
 10
-385.34852271
 20
-88.09655059
 30
0.0
 11
-389.67536544
 21
-88.09655059
 31
0.0
  0
LINE
  5
6F7
100
AcDbEntity
  8
レイヤー_1
  6
CONTINUOUS
 62
       3
100
AcDbLine
 10
-376.15572395
 20
-87.55462098
 30
0.0
 11
-378.13834064
 21
-88.09655059
 31
0.0
  0
LINE
  5
6F8
100
AcDbEntity
  8
レイヤー_1
  6
CONTINUOUS
 62
       3
100
AcDbLine
 10
-378.13834064
 20
-88.09655059
 30
0.0
 11
-378.85935885
 21
-88.09655059
 31
0.0
  0
LINE
  5
6F9
100
AcDbEntity
  8
レイヤー_1
  6
CONTINUOUS
 62
       3
100
AcDbLine
 10
-376.15572395
 20
-76.69688462
 30
0.0
 11
-378.13834064
 21
-76.15348238
 31
0.0
  0
LINE
  5
6FA
100
AcDbEntity
  8
レイヤー_1
  6
CONTINUOUS
 62
       3
100
AcDbLine
 10
-378.13834064
 20
-76.15348238
 30
0.0
 11
-378.85935885
 21
-76.15348238
 31
0.0
  0
LINE
  5
6FB
100
AcDbEntity
  8
レイヤー_1
  6
CONTINUOUS
 62
       3
100
AcDbLine
 10
-376.15572395
 20
-87.55462098
 30
0.0
 11
-376.15572395
 21
-76.69688462
 31
0.0
  0
LINE
  5
6FC
100
AcDbEntity
  8
レイヤー_1
  6
CONTINUOUS
 62
       3
100
AcDbLine
 10
-389.67536544
 20
-88.09655059
 30
0.0
 11
-389.85506987
 21
-88.09655059
 31
0.0
  0
LINE
  5
6FD
100
AcDbEntity
  8
レイヤー_1
  6
CONTINUOUS
 62
       3
100
AcDbLine
 10
-389.85506987
 20
-88.09655059
 30
0.0
 11
-390.57682157
 21
-87.55462098
 31
0.0
  0
LINE
  5
6FE
100
AcDbEntity
  8
レイヤー_1
  6
CONTINUOUS
 62
       3
100
AcDbLine
 10
-390.57682157
 20
-87.55462098
 30
0.0
 11
-390.57682157
 21
-76.69688462
 31
0.0
  0
LINE
  5
6FF
100
AcDbEntity
  8
レイヤー_1
  6
CONTINUOUS
 62
       3
100
AcDbLine
 10
-389.67536544
 20
-76.15348238
 30
0.0
 11
-389.85506987
 21
-76.15348238
 31
0.0
  0
LINE
  5
700
100
AcDbEntity
  8
レイヤー_1
  6
CONTINUOUS
 62
       3
100
AcDbLine
 10
-389.85506987
 20
-76.15348238
 30
0.0
 11
-390.57682157
 21
-76.69688462
 31
0.0
  0
LINE
  5
701
100
AcDbEntity
  8
レイヤー_1
  6
CONTINUOUS
 62
       3
100
AcDbLine
 10
-376.69630423
 20
-76.33461646
 30
0.0
 11
-376.15572395
 21
-76.69688462
 31
0.0
  0
LINE
  5
702
100
AcDbEntity
  8
レイヤー_1
  6
CONTINUOUS
 62
       3
100
AcDbLine
 10
-376.87674215
 20
-76.15348238
 30
0.0
 11
-378.85935885
 21
-76.15348238
 31
0.0
  0
LINE
  5
703
100
AcDbEntity
  8
レイヤー_1
  6
CONTINUOUS
 62
       3
100
AcDbLine
 10
-376.69630423
 20
-87.91541651
 30
0.0
 11
-376.15572395
 21
-87.55462098
 31
0.0
  0
LINE
  5
704
100
AcDbEntity
  8
レイヤー_1
  6
CONTINUOUS
 62
       3
100
AcDbLine
 10
-376.87674215
 20
-88.09655059
 30
0.0
 11
-378.85935885
 21
-88.09655059
 31
0.0
  0
LINE
  5
705
100
AcDbEntity
  8
レイヤー_1
  6
CONTINUOUS
 62
       3
100
AcDbLine
 10
-389.67536544
 20
-76.15348238
 30
0.0
 11
-389.85506987
 21
-76.15348238
 31
0.0
  0
LINE
  5
706
100
AcDbEntity
  8
レイヤー_1
  6
CONTINUOUS
 62
       3
100
AcDbLine
 10
-389.67536544
 20
-88.09655059
 30
0.0
 11
-389.85506987
 21
-88.09655059
 31
0.0
  0
LINE
  5
707
100
AcDbEntity
  8
レイヤー_1
  6
CONTINUOUS
 62
       3
100
AcDbLine
 10
242.63829079
 20
100.53681099
 30
0.0
 11
242.63829079
 21
213.63312091
 31
0.0
  0
LINE
  5
708
100
AcDbEntity
  8
レイヤー_1
  6
CONTINUOUS
 62
       3
100
AcDbLine
 10
248.76731229
 20
-39.59974143
 30
0.0
 11
248.76731229
 21
-7.20913906
 31
0.0
  0
LINE
  5
709
100
AcDbEntity
  8
レイヤー_1
  6
CONTINUOUS
 62
       3
100
AcDbLine
 10
228.3968976
 20
-41.22847552
 30
0.0
 11
228.3968976
 21
-39.59974143
 31
0.0
  0
LINE
  5
70A
100
AcDbEntity
  8
レイヤー_1
  6
CONTINUOUS
 62
       3
100
AcDbLine
 10
276.34644206
 20
-39.59974143
 30
0.0
 11
276.34644206
 21
-41.04881407
 31
0.0
  0
LINE
  5
70B
100
AcDbEntity
  8
レイヤー_1
  6
CONTINUOUS
 62
       3
100
AcDbLine
 10
226.23457647
 20
-47.56227778
 30
0.0
 11
226.23457647
 21
-41.59074368
 31
0.0
  0
LINE
  5
70C
100
AcDbEntity
  8
レイヤー_1
  6
CONTINUOUS
 62
       3
100
AcDbLine
 10
278.32979225
 20
-41.59074368
 30
0.0
 11
278.32979225
 21
-47.56227778
 31
0.0
  0
LINE
  5
70D
100
AcDbEntity
  8
レイヤー_1
  6
CONTINUOUS
 62
       3
100
AcDbLine
 10
277.78847848
 20
-41.04881407
 30
0.0
 11
278.14935432
 21
-41.22847552
 31
0.0
  0
LINE
  5
70E
100
AcDbEntity
  8
レイヤー_1
  6
CONTINUOUS
 62
       3
100
AcDbLine
 10
278.14935432
 20
-41.22847552
 30
0.0
 11
278.32979225
 21
-41.59074368
 31
0.0
  0
LINE
  5
70F
100
AcDbEntity
  8
レイヤー_1
  6
CONTINUOUS
 62
       3
100
AcDbLine
 10
226.23457647
 20
-41.59074368
 30
0.0
 11
226.41501439
 21
-41.22847552
 31
0.0
  0
LINE
  5
710
100
AcDbEntity
  8
レイヤー_1
  6
CONTINUOUS
 62
       3
100
AcDbLine
 10
226.41501439
 20
-41.22847552
 30
0.0
 11
226.77442327
 21
-41.04881407
 31
0.0
  0
LINE
  5
711
100
AcDbEntity
  8
レイヤー_1
  6
CONTINUOUS
 62
       3
100
AcDbLine
 10
278.32979225
 20
-47.56227778
 30
0.0
 11
278.14935432
 21
-47.92454594
 31
0.0
  0
LINE
  5
712
100
AcDbEntity
  8
レイヤー_1
  6
CONTINUOUS
 62
       3
100
AcDbLine
 10
278.14935432
 20
-47.92454594
 30
0.0
 11
277.78847848
 21
-48.10568002
 31
0.0
  0
LINE
  5
713
100
AcDbEntity
  8
レイヤー_1
  6
CONTINUOUS
 62
       3
100
AcDbLine
 10
226.77442327
 20
-48.10568002
 30
0.0
 11
226.41501439
 21
-47.92454594
 31
0.0
  0
LINE
  5
714
100
AcDbEntity
  8
レイヤー_1
  6
CONTINUOUS
 62
       3
100
AcDbLine
 10
226.41501439
 20
-47.92454594
 30
0.0
 11
226.23457647
 21
-47.56227778
 31
0.0
  0
LINE
  5
715
100
AcDbEntity
  8
レイヤー_1
  6
CONTINUOUS
 62
       3
100
AcDbLine
 10
237.40999193
 20
-48.10568002
 30
0.0
 11
237.22955401
 21
-47.92454594
 31
0.0
  0
LINE
  5
716
100
AcDbEntity
  8
レイヤー_1
  6
CONTINUOUS
 62
       3
100
AcDbLine
 10
237.22955401
 20
-47.92454594
 30
0.0
 11
237.04911608
 21
-47.56227778
 31
0.0
  0
LINE
  5
717
100
AcDbEntity
  8
レイヤー_1
  6
CONTINUOUS
 62
       3
100
AcDbLine
 10
237.04911608
 20
-47.56227778
 30
0.0
 11
237.04911608
 21
-41.59074368
 31
0.0
  0
LINE
  5
718
100
AcDbEntity
  8
レイヤー_1
  6
CONTINUOUS
 62
       3
100
AcDbLine
 10
237.04911608
 20
-41.59074368
 30
0.0
 11
237.22955401
 21
-41.22847552
 31
0.0
  0
LINE
  5
719
100
AcDbEntity
  8
レイヤー_1
  6
CONTINUOUS
 62
       3
100
AcDbLine
 10
237.22955401
 20
-41.22847552
 30
0.0
 11
237.40999193
 21
-41.04881407
 31
0.0
  0
LINE
  5
71A
100
AcDbEntity
  8
レイヤー_1
  6
CONTINUOUS
 62
       3
100
AcDbLine
 10
228.3968976
 20
-41.59074368
 30
0.0
 11
228.3968976
 21
-42.13414592
 31
0.0
  0
LINE
  5
71B
100
AcDbEntity
  8
レイヤー_1
  6
CONTINUOUS
 62
       3
100
AcDbLine
 10
227.85705081
 20
-41.04881407
 30
0.0
 11
228.21645968
 21
-41.22847552
 31
0.0
  0
LINE
  5
71C
100
AcDbEntity
  8
レイヤー_1
  6
CONTINUOUS
 62
       3
100
AcDbLine
 10
228.21645968
 20
-41.22847552
 30
0.0
 11
228.3968976
 21
-41.59074368
 31
0.0
  0
LINE
  5
71D
100
AcDbEntity
  8
レイヤー_1
  6
CONTINUOUS
 62
       3
100
AcDbLine
 10
237.04911608
 20
-42.49641408
 30
0.0
 11
228.3968976
 21
-42.49641408
 31
0.0
  0
LINE
  5
71E
100
AcDbEntity
  8
レイヤー_1
  6
CONTINUOUS
 62
       3
100
AcDbLine
 10
276.34644206
 20
-39.59974143
 30
0.0
 11
228.3968976
 21
-39.59974143
 31
0.0
  0
LINE
  5
71F
100
AcDbEntity
  8
レイヤー_1
  6
CONTINUOUS
 62
       3
100
AcDbLine
 10
226.95486119
 20
-41.04881407
 30
0.0
 11
226.77442327
 21
-41.04881407
 31
0.0
  0
LINE
  5
720
100
AcDbEntity
  8
レイヤー_1
  6
CONTINUOUS
 62
       3
100
AcDbLine
 10
277.78847848
 20
-41.04881407
 30
0.0
 11
237.40999193
 21
-41.04881407
 31
0.0
  0
LINE
  5
721
100
AcDbEntity
  8
レイヤー_1
  6
CONTINUOUS
 62
       3
100
AcDbLine
 10
226.41501439
 20
-41.59074368
 30
0.0
 11
226.41501439
 21
-41.22847552
 31
0.0
  0
LINE
  5
722
100
AcDbEntity
  8
レイヤー_1
  6
CONTINUOUS
 62
       3
100
AcDbLine
 10
226.41501439
 20
-41.22847552
 30
0.0
 11
226.59398534
 21
-41.22847552
 31
0.0
  0
LINE
  5
723
100
AcDbEntity
  8
レイヤー_1
  6
CONTINUOUS
 62
       3
100
AcDbLine
 10
226.59398534
 20
-41.22847552
 30
0.0
 11
226.77442327
 21
-41.04881407
 31
0.0
  0
LINE
  5
724
100
AcDbEntity
  8
レイヤー_1
  6
CONTINUOUS
 62
       3
100
AcDbLine
 10
226.77442327
 20
-41.04881407
 30
0.0
 11
226.95486119
 21
-41.04881407
 31
0.0
  0
LINE
  5
725
100
AcDbEntity
  8
レイヤー_1
  6
CONTINUOUS
 62
       3
100
AcDbLine
 10
226.41501439
 20
-47.56227778
 30
0.0
 11
226.41501439
 21
-47.92454594
 31
0.0
  0
LINE
  5
726
100
AcDbEntity
  8
レイヤー_1
  6
CONTINUOUS
 62
       3
100
AcDbLine
 10
226.41501439
 20
-47.92454594
 30
0.0
 11
226.59398534
 21
-47.92454594
 31
0.0
  0
LINE
  5
727
100
AcDbEntity
  8
レイヤー_1
  6
CONTINUOUS
 62
       3
100
AcDbLine
 10
226.59398534
 20
-47.92454594
 30
0.0
 11
226.59398534
 21
-48.10568002
 31
0.0
  0
LINE
  5
728
100
AcDbEntity
  8
レイヤー_1
  6
CONTINUOUS
 62
       3
100
AcDbLine
 10
226.59398534
 20
-48.10568002
 30
0.0
 11
226.95486119
 21
-48.10568002
 31
0.0
  0
LINE
  5
729
100
AcDbEntity
  8
レイヤー_1
  6
CONTINUOUS
 62
       3
100
AcDbLine
 10
237.40999193
 20
-48.10568002
 30
0.0
 11
277.78847848
 21
-48.10568002
 31
0.0
  0
LINE
  5
72A
100
AcDbEntity
  8
レイヤー_1
  6
CONTINUOUS
 62
       3
100
AcDbLine
 10
226.77442327
 20
-48.10568002
 30
0.0
 11
226.95486119
 21
-48.10568002
 31
0.0
  0
LINE
  5
72B
100
AcDbEntity
  8
レイヤー_1
  6
CONTINUOUS
 62
       3
100
AcDbLine
 10
276.88775583
 20
-41.04881407
 30
0.0
 11
276.34644206
 21
-41.04881407
 31
0.0
  0
LINE
  5
72C
100
AcDbEntity
  8
レイヤー_1
  6
CONTINUOUS
 62
       3
100
AcDbLine
 10
228.3968976
 20
-41.04881407
 30
0.0
 11
227.85705081
 21
-41.04881407
 31
0.0
  0
LINE
  5
72D
100
AcDbEntity
  8
レイヤー_1
  6
CONTINUOUS
 62
       3
100
AcDbLine
 10
261.20432624
 20
-48.10568002
 30
0.0
 11
262.64636265
 21
-48.10568002
 31
0.0
  0
LINE
  5
72E
100
AcDbEntity
  8
レイヤー_1
  6
CONTINUOUS
 62
       3
100
AcDbLine
 10
266.79350094
 20
-48.10568002
 30
0.0
 11
271.8398949
 21
-48.10568002
 31
0.0
  0
LINE
  5
72F
100
AcDbEntity
  8
レイヤー_1
  6
CONTINUOUS
 62
       3
100
AcDbLine
 10
227.85705081
 20
-41.04881407
 30
0.0
 11
226.95486119
 21
-41.04881407
 31
0.0
  0
LINE
  5
730
100
AcDbEntity
  8
レイヤー_1
  6
CONTINUOUS
 62
       3
100
AcDbLine
 10
226.95486119
 20
-48.10568002
 30
0.0
 11
232.72300684
 21
-48.10568002
 31
0.0
  0
LINE
  5
731
100
AcDbEntity
  8
レイヤー_1
  6
CONTINUOUS
 62
       3
100
AcDbLine
 10
232.72300684
 20
-42.49641408
 30
0.0
 11
232.90344477
 21
-42.67607552
 31
0.0
  0
LINE
  5
732
100
AcDbEntity
  8
レイヤー_1
  6
CONTINUOUS
 62
       3
100
AcDbLine
 10
232.90344477
 20
-42.67607552
 30
0.0
 11
233.08388269
 21
-42.67607552
 31
0.0
  0
LINE
  5
733
100
AcDbEntity
  8
レイヤー_1
  6
CONTINUOUS
 62
       3
100
AcDbLine
 10
233.08388269
 20
-42.67607552
 30
0.0
 11
233.26432061
 21
-42.8572096
 31
0.0
  0
LINE
  5
734
100
AcDbEntity
  8
レイヤー_1
  6
CONTINUOUS
 62
       3
100
AcDbLine
 10
233.26432061
 20
-42.8572096
 30
0.0
 11
233.26432061
 21
-43.03834368
 31
0.0
  0
LINE
  5
735
100
AcDbEntity
  8
レイヤー_1
  6
CONTINUOUS
 62
       3
100
AcDbLine
 10
232.72300684
 20
-48.10568002
 30
0.0
 11
233.08388269
 21
-48.10568002
 31
0.0
  0
LINE
  5
736
100
AcDbEntity
  8
レイヤー_1
  6
CONTINUOUS
 62
       3
100
AcDbLine
 10
233.08388269
 20
-48.10568002
 30
0.0
 11
233.08388269
 21
-47.92454594
 31
0.0
  0
LINE
  5
737
100
AcDbEntity
  8
レイヤー_1
  6
CONTINUOUS
 62
       3
100
AcDbLine
 10
233.08388269
 20
-47.92454594
 30
0.0
 11
233.26432061
 21
-47.92454594
 31
0.0
  0
LINE
  5
738
100
AcDbEntity
  8
レイヤー_1
  6
CONTINUOUS
 62
       3
100
AcDbLine
 10
233.26432061
 20
-47.92454594
 30
0.0
 11
233.26432061
 21
-47.56227778
 31
0.0
  0
LINE
  5
739
100
AcDbEntity
  8
レイヤー_1
  6
CONTINUOUS
 62
       3
100
AcDbLine
 10
233.26432061
 20
-47.56227778
 30
0.0
 11
233.26432061
 21
-43.03834368
 31
0.0
  0
LINE
  5
73A
100
AcDbEntity
  8
レイヤー_1
  6
CONTINUOUS
 62
       3
100
AcDbLine
 10
232.90344477
 20
-48.10568002
 30
0.0
 11
232.72300684
 21
-48.10568002
 31
0.0
  0
LINE
  5
73B
100
AcDbEntity
  8
レイヤー_1
  6
CONTINUOUS
 62
       3
100
AcDbLine
 10
232.90344477
 20
-48.10568002
 30
0.0
 11
238.67159042
 21
-48.10568002
 31
0.0
  0
LINE
  5
73C
100
AcDbEntity
  8
レイヤー_1
  6
CONTINUOUS
 62
       3
100
AcDbLine
 10
248.76731229
 20
-48.10568002
 30
0.0
 11
251.11007134
 21
-48.10568002
 31
0.0
  0
LINE
  5
73D
100
AcDbEntity
  8
レイヤー_1
  6
CONTINUOUS
 62
       3
100
AcDbLine
 10
-324.76962033
 20
79.00320866
 30
0.0
 11
-324.76962033
 21
96.55627914
 31
0.0
  0
LINE
  5
73E
100
AcDbEntity
  8
レイヤー_1
  6
CONTINUOUS
 62
       3
100
AcDbLine
 10
-338.83057559
 20
166.7678247
 30
0.0
 11
-338.83057559
 21
96.55627914
 31
0.0
  0
LINE
  5
73F
100
AcDbEntity
  8
レイヤー_1
  6
CONTINUOUS
 62
       3
100
AcDbLine
 10
-320.80438694
 20
96.55627914
 30
0.0
 11
-320.80438694
 21
166.7678247
 31
0.0
  0
LINE
  5
740
100
AcDbEntity
  8
レイヤー_1
  6
CONTINUOUS
 62
       3
100
AcDbLine
 10
-338.83057559
 20
166.7678247
 30
0.0
 11
-320.80438694
 21
166.7678247
 31
0.0
  0
LINE
  5
741
100
AcDbEntity
  8
レイヤー_1
  6
CONTINUOUS
 62
       3
100
AcDbLine
 10
-338.83057559
 20
96.55627914
 30
0.0
 11
-320.80438694
 21
96.55627914
 31
0.0
  0
LINE
  5
742
100
AcDbEntity
  8
レイヤー_1
  6
CONTINUOUS
 62
       3
100
AcDbLine
 10
-370.20714037
 20
32.85966992
 30
0.0
 11
-370.38684481
 21
33.22046544
 31
0.0
  0
LINE
  5
743
100
AcDbEntity
  8
レイヤー_1
  6
CONTINUOUS
 62
       3
100
AcDbLine
 10
-370.38684481
 20
33.22046544
 30
0.0
 11
-370.92815858
 21
33.76386768
 31
0.0
  0
LINE
  5
744
100
AcDbEntity
  8
レイヤー_1
  6
CONTINUOUS
 62
       3
100
AcDbLine
 10
-370.92815858
 20
33.76386768
 30
0.0
 11
-371.64917678
 21
34.66806545
 31
0.0
  0
LINE
  5
745
100
AcDbEntity
  8
レイヤー_1
  6
CONTINUOUS
 62
       3
100
AcDbLine
 10
-371.64917678
 20
34.66806545
 30
0.0
 11
-372.73033735
 21
35.75486993
 31
0.0
  0
LINE
  5
746
100
AcDbEntity
  8
レイヤー_1
  6
CONTINUOUS
 62
       3
100
AcDbLine
 10
-372.73033735
 20
35.75486993
 30
0.0
 11
-374.53324961
 21
37.92553362
 31
0.0
  0
LINE
  5
747
100
AcDbEntity
  8
レイヤー_1
  6
CONTINUOUS
 62
       3
100
AcDbLine
 10
-374.53324961
 20
37.92553362
 30
0.0
 11
-376.69630423
 21
40.45993811
 31
0.0
  0
LINE
  5
748
100
AcDbEntity
  8
レイヤー_1
  6
CONTINUOUS
 62
       3
100
AcDbLine
 10
-376.69630423
 20
40.45993811
 30
0.0
 11
-380.12095734
 21
44.44046996
 31
0.0
  0
LINE
  5
749
100
AcDbEntity
  8
レイヤー_1
  6
CONTINUOUS
 62
       3
100
AcDbLine
 10
-380.12095734
 20
44.44046996
 30
0.0
 11
-383.54634394
 21
48.78326998
 31
0.0
  0
LINE
  5
74A
100
AcDbEntity
  8
レイヤー_1
  6
CONTINUOUS
 62
       3
100
AcDbLine
 10
-383.54634394
 20
48.78326998
 30
0.0
 11
-385.88983648
 21
52.5841404
 31
0.0
  0
LINE
  5
74B
100
AcDbEntity
  8
レイヤー_1
  6
CONTINUOUS
 62
       3
100
AcDbLine
 10
-385.88983648
 20
52.5841404
 30
0.0
 11
-386.97099705
 21
55.29820633
 31
0.0
  0
LINE
  5
74C
100
AcDbEntity
  8
レイヤー_1
  6
CONTINUOUS
 62
       3
100
AcDbLine
 10
-386.97099705
 20
55.29820633
 30
0.0
 11
-386.97099705
 21
57.46887002
 31
0.0
  0
LINE
  5
74D
100
AcDbEntity
  8
レイヤー_1
  6
CONTINUOUS
 62
       3
100
AcDbLine
 10
-386.97099705
 20
57.46887002
 30
0.0
 11
-386.43041676
 21
59.64100635
 31
0.0
  0
LINE
  5
74E
100
AcDbEntity
  8
レイヤー_1
  6
CONTINUOUS
 62
       3
100
AcDbLine
 10
-386.43041676
 20
59.64100635
 30
0.0
 11
-384.98838035
 21
62.53620636
 31
0.0
  0
LINE
  5
74F
100
AcDbEntity
  8
レイヤー_1
  6
CONTINUOUS
 62
       3
100
AcDbLine
 10
-384.98838035
 20
62.53620636
 30
0.0
 11
-383.18546809
 21
65.06913821
 31
0.0
  0
LINE
  5
750
100
AcDbEntity
  8
レイヤー_1
  6
CONTINUOUS
 62
       3
100
AcDbLine
 10
-383.18546809
 20
65.06913821
 30
0.0
 11
-379.58037706
 21
69.59307231
 31
0.0
  0
LINE
  5
751
100
AcDbEntity
  8
レイヤー_1
  6
CONTINUOUS
 62
       3
100
AcDbLine
 10
-379.58037706
 20
69.59307231
 30
0.0
 11
-375.97528602
 21
73.75473825
 31
0.0
  0
LINE
  5
752
100
AcDbEntity
  8
レイヤー_1
  6
CONTINUOUS
 62
       3
100
AcDbLine
 10
-375.97528602
 20
73.75473825
 30
0.0
 11
-374.17237376
 21
75.92687457
 31
0.0
  0
LINE
  5
753
100
AcDbEntity
  8
レイヤー_1
  6
CONTINUOUS
 62
       3
100
AcDbLine
 10
-374.17237376
 20
75.92687457
 30
0.0
 11
-372.55063291
 21
77.91787682
 31
0.0
  0
LINE
  5
754
100
AcDbEntity
  8
レイヤー_1
  6
CONTINUOUS
 62
       3
100
AcDbLine
 10
-372.55063291
 20
77.91787682
 30
0.0
 11
-370.56728273
 21
79.90740643
 31
0.0
  0
LINE
  5
755
100
AcDbEntity
  8
レイヤー_1
  6
CONTINUOUS
 62
       3
100
AcDbLine
 10
-370.56728273
 20
79.90740643
 30
0.0
 11
-370.20714037
 21
80.45080867
 31
0.0
  0
LINE
  5
756
100
AcDbEntity
  8
レイヤー_1
  6
CONTINUOUS
 62
       3
100
AcDbLine
 10
-370.20714037
 20
80.45080867
 30
0.0
 11
-370.02670245
 21
80.63194275
 31
0.0
  0
LINE
  5
757
100
AcDbEntity
  8
レイヤー_1
  6
CONTINUOUS
 62
       3
100
AcDbLine
 10
63.2771269
 20
194.03866114
 30
0.0
 11
62.55684218
 21
175.03799067
 31
0.0
  0
LINE
  5
758
100
AcDbEntity
  8
レイヤー_1
  6
CONTINUOUS
 62
       3
100
AcDbLine
 10
42.72774126
 20
175.76252699
 30
0.0
 11
43.26758806
 21
194.58206338
 31
0.0
  0
LINE
  5
759
100
AcDbEntity
  8
レイヤー_1
  6
CONTINUOUS
 62
       3
100
AcDbLine
 10
43.26758806
 20
194.58206338
 30
0.0
 11
53.36330993
 21
194.21979522
 31
0.0
  0
LINE
  5
75A
100
AcDbEntity
  8
レイヤー_1
  6
CONTINUOUS
 62
       3
100
AcDbLine
 10
62.55684218
 20
175.03799067
 30
0.0
 11
42.72774126
 21
175.76252699
 31
0.0
  0
LINE
  5
75B
100
AcDbEntity
  8
レイヤー_1
  6
CONTINUOUS
 62
       3
100
AcDbLine
 10
262.64636265
 20
213.63312091
 30
0.0
 11
262.64636265
 21
100.53681099
 31
0.0
  0
LINE
  5
75C
100
AcDbEntity
  8
レイヤー_1
  6
CONTINUOUS
 62
       3
100
AcDbLine
 10
238.67159042
 20
-39.59974143
 30
0.0
 11
238.67159042
 21
-4.59974143
 31
0.0
  0
LINE
  5
75D
100
AcDbEntity
  8
レイヤー_1
  6
CONTINUOUS
 62
       3
100
AcDbLine
 10
248.76731229
 20
-4.59974143
 30
0.0
 11
248.76731229
 21
-39.59974143
 31
0.0
  0
LINE
  5
75E
100
AcDbEntity
  8
レイヤー_1
  6
CONTINUOUS
 62
       3
100
AcDbLine
 10
261.20432624
 20
-4.59974143
 30
0.0
 11
261.20432624
 21
-39.59974143
 31
0.0
  0
LINE
  5
75F
100
AcDbEntity
  8
レイヤー_1
  6
CONTINUOUS
 62
       3
100
AcDbLine
 10
-348.74439256
 20
35.75486993
 30
0.0
 11
-348.74439256
 21
78.82207458
 31
0.0
  0
LINE
  5
760
100
AcDbEntity
  8
レイヤー_1
  6
CONTINUOUS
 62
       3
100
AcDbLine
 10
-379.39993913
 20
-39.59974143
 30
0.0
 11
-379.39993913
 21
-4.59974143
 31
0.0
  0
LINE
  5
761
100
AcDbEntity
  8
レイヤー_1
  6
CONTINUOUS
 62
       3
100
AcDbLine
 10
-387.33187289
 20
-4.59974143
 30
0.0
 11
-387.33187289
 21
-39.59974143
 31
0.0
  0
LINE
  5
762
100
AcDbEntity
  8
レイヤー_1
  6
CONTINUOUS
 62
       3
100
AcDbLine
 10
-390.39638364
 20
-39.59974143
 30
0.0
 11
-390.39638364
 21
-4.59974143
 31
0.0
  0
LINE
  5
763
100
AcDbEntity
  8
レイヤー_1
  6
CONTINUOUS
 62
       3
100
AcDbLine
 10
-394.36161704
 20
-4.59974143
 30
0.0
 11
-394.36161704
 21
-39.59974143
 31
0.0
  0
LINE
  5
764
100
AcDbEntity
  8
レイヤー_1
  6
CONTINUOUS
 62
       3
100
AcDbLine
 10
-395.44351109
 20
-39.59974143
 30
0.0
 11
-395.44351109
 21
-4.59974143
 31
0.0
  0
LINE
  5
765
100
AcDbEntity
  8
レイヤー_1
  6
CONTINUOUS
 62
       3
100
AcDbLine
 10
-409.32402843
 20
-4.59974143
 30
0.0
 11
-409.32402843
 21
-39.59974143
 31
0.0
  0
LINE
  5
766
100
AcDbEntity
  8
レイヤー_1
  6
CONTINUOUS
 62
       3
100
AcDbLine
 10
-405.35806155
 20
-4.59974143
 30
0.0
 11
-405.35806155
 21
-39.59974143
 31
0.0
  0
LINE
  5
767
100
AcDbEntity
  8
レイヤー_1
  6
CONTINUOUS
 62
       3
100
AcDbLine
 10
-334.86460871
 20
96.55627914
 30
0.0
 11
-334.86460871
 21
79.00320866
 31
0.0
  0
LINE
  5
768
100
AcDbEntity
  8
レイヤー_1
  6
CONTINUOUS
 62
       3
100
AcDbLine
 10
243.62886565
 20
166.7678247
 30
0.0
 11
243.62886565
 21
96.55627914
 31
0.0
  0
LINE
  5
769
100
AcDbEntity
  8
レイヤー_1
  6
CONTINUOUS
 62
       3
100
AcDbLine
 10
261.6550543
 20
96.55627914
 30
0.0
 11
261.6550543
 21
166.7678247
 31
0.0
  0
LINE
  5
76A
100
AcDbEntity
  8
レイヤー_1
  6
CONTINUOUS
 62
       3
100
AcDbLine
 10
243.62886565
 20
166.7678247
 30
0.0
 11
261.6550543
 21
166.7678247
 31
0.0
  0
LINE
  5
76B
100
AcDbEntity
  8
レイヤー_1
  6
CONTINUOUS
 62
       3
100
AcDbLine
 10
243.62886565
 20
96.55627914
 30
0.0
 11
261.6550543
 21
96.55627914
 31
0.0
  0
LINE
  5
76C
100
AcDbEntity
  8
レイヤー_1
  6
CONTINUOUS
 62
       3
100
AcDbLine
 10
247.59483253
 20
96.55627914
 30
0.0
 11
247.59483253
 21
78.41151228
 31
0.0
  0
LINE
  5
76D
100
AcDbEntity
  8
レイヤー_1
  6
CONTINUOUS
 62
       3
100
AcDbLine
 10
257.68982091
 20
78.41151228
 30
0.0
 11
257.68982091
 21
96.55627914
 31
0.0
  0
LINE
  5
76E
100
AcDbEntity
  8
レイヤー_1
  6
CONTINUOUS
 62
       3
100
AcDbLine
 10
230.14232672
 20
100.35641323
 30
0.0
 11
243.62886565
 21
100.35641323
 31
0.0
  0
LINE
  5
76F
100
AcDbEntity
  8
レイヤー_1
  6
CONTINUOUS
 62
       3
100
AcDbLine
 10
261.6550543
 20
100.35641323
 30
0.0
 11
275.14232672
 21
100.35641323
 31
0.0
  0
LINE
  5
770
100
AcDbEntity
  8
レイヤー_1
  6
CONTINUOUS
 62
       3
100
AcDbLine
 10
261.20432624
 20
-129.57597603
 30
0.0
 11
261.20432624
 21
-48.10568002
 31
0.0
  0
LINE
  5
771
100
AcDbEntity
  8
レイヤー_1
  6
CONTINUOUS
 62
       3
100
AcDbLine
 10
251.11007134
 20
-129.57597603
 30
0.0
 11
251.11007134
 21
-88.09655059
 31
0.0
  0
LINE
  5
772
100
AcDbEntity
  8
レイヤー_1
  6
CONTINUOUS
 62
       3
100
AcDbLine
 10
248.76731229
 20
-126.21073877
 30
0.0
 11
248.76731229
 21
-88.09655059
 31
0.0
  0
LINE
  5
773
100
AcDbEntity
  8
レイヤー_1
  6
CONTINUOUS
 62
       3
100
AcDbLine
 10
238.67159042
 20
-126.21073877
 30
0.0
 11
238.67159042
 21
-48.10568002
 31
0.0
  0
LINE
  5
774
100
AcDbEntity
  8
レイヤー_1
  6
CONTINUOUS
 62
       3
100
AcDbLine
 10
-395.44351109
 20
-129.57597603
 30
0.0
 11
-395.44351109
 21
-48.10568002
 31
0.0
  0
LINE
  5
775
100
AcDbEntity
  8
レイヤー_1
  6
CONTINUOUS
 62
       3
100
AcDbLine
 10
-409.50373286
 20
-42.67607552
 30
0.0
 11
-409.50373286
 21
-129.57597603
 31
0.0
  0
LINE
  5
776
100
AcDbEntity
  8
レイヤー_1
  6
CONTINUOUS
 62
       3
100
AcDbLine
 10
-405.53776598
 20
-42.67607552
 30
0.0
 11
-405.53776598
 21
-129.57597603
 31
0.0
  0
LINE
  5
777
100
AcDbEntity
  8
レイヤー_1
  6
CONTINUOUS
 62
       3
100
AcDbLine
 10
-414.01028003
 20
-42.67607552
 30
0.0
 11
-414.01028003
 21
-41.59074368
 31
0.0
  0
LINE
  5
778
100
AcDbEntity
  8
レイヤー_1
  6
CONTINUOUS
 62
       3
100
AcDbLine
 10
63.97536687
 20
215.27942743
 30
0.0
 11
63.2771269
 21
194.03866114
 31
0.0
  0
LINE
  5
779
100
AcDbEntity
  8
レイヤー_1
  6
CONTINUOUS
 62
       3
100
AcDbLine
 10
44.32793272
 20
218.77417554
 30
0.0
 11
43.26758806
 21
194.58206338
 31
0.0
  0
LINE
  5
77A
100
AcDbEntity
  8
レイヤー_1
  6
CONTINUOUS
 62
       3
100
AcDbLine
 10
-414.5515938
 20
99.99414507
 30
0.0
 11
-414.5515938
 21
5.40025857
 31
0.0
  0
LINE
  5
77B
100
AcDbEntity
  8
レイヤー_1
  6
CONTINUOUS
 62
       3
100
AcDbLine
 10
-370.20714037
 20
32.85966992
 30
0.0
 11
-370.20714037
 21
5.40025857
 31
0.0
  0
LINE
  5
77C
100
AcDbEntity
  8
レイヤー_1
  6
CONTINUOUS
 62
       3
100
AcDbLine
 10
254.8956003
 20
-87.55462098
 30
0.0
 11
251.29050927
 21
-88.09655059
 31
0.0
  0
LINE
  5
77D
100
AcDbEntity
  8
レイヤー_1
  6
CONTINUOUS
 62
       3
100
AcDbLine
 10
251.29050927
 20
-88.09655059
 30
0.0
 11
251.11007134
 21
-88.09655059
 31
0.0
  0
LINE
  5
77E
100
AcDbEntity
  8
レイヤー_1
  6
CONTINUOUS
 62
       3
100
AcDbLine
 10
251.11007134
 20
-88.09655059
 30
0.0
 11
247.68468475
 21
-87.55462098
 31
0.0
  0
LINE
  5
77F
100
AcDbEntity
  8
レイヤー_1
  6
CONTINUOUS
 62
       3
100
AcDbLine
 10
247.68468475
 20
-87.55462098
 30
0.0
 11
247.68468475
 21
-76.69688462
 31
0.0
  0
LINE
  5
780
100
AcDbEntity
  8
レイヤー_1
  6
CONTINUOUS
 62
       3
100
AcDbLine
 10
251.29050927
 20
-76.15348238
 30
0.0
 11
251.11007134
 21
-76.15348238
 31
0.0
  0
LINE
  5
781
100
AcDbEntity
  8
レイヤー_1
  6
CONTINUOUS
 62
       3
100
AcDbLine
 10
251.11007134
 20
-76.15348238
 30
0.0
 11
247.68468475
 21
-76.69688462
 31
0.0
  0
LINE
  5
782
100
AcDbEntity
  8
レイヤー_1
  6
CONTINUOUS
 62
       3
100
AcDbLine
 10
254.8956003
 20
-76.69688462
 30
0.0
 11
251.29050927
 21
-76.15348238
 31
0.0
  0
LINE
  5
783
100
AcDbEntity
  8
レイヤー_1
  6
CONTINUOUS
 62
       3
100
AcDbLine
 10
254.8956003
 20
-87.55462098
 30
0.0
 11
254.8956003
 21
-76.69688462
 31
0.0
  0
LINE
  5
784
100
AcDbEntity
  8
レイヤー_1
  6
CONTINUOUS
 62
       3
100
AcDbLine
 10
257.77967313
 20
-76.15348238
 30
0.0
 11
255.61661851
 21
-76.33461646
 31
0.0
  0
LINE
  5
785
100
AcDbEntity
  8
レイヤー_1
  6
CONTINUOUS
 62
       3
100
AcDbLine
 10
255.61661851
 20
-76.33461646
 30
0.0
 11
254.8956003
 21
-76.69688462
 31
0.0
  0
LINE
  5
786
100
AcDbEntity
  8
レイヤー_1
  6
CONTINUOUS
 62
       3
100
AcDbLine
 10
257.77967313
 20
-76.15348238
 30
0.0
 11
251.29050927
 21
-76.15348238
 31
0.0
  0
LINE
  5
787
100
AcDbEntity
  8
レイヤー_1
  6
CONTINUOUS
 62
       3
100
AcDbLine
 10
257.77967313
 20
-88.09655059
 30
0.0
 11
255.61661851
 21
-87.73575506
 31
0.0
  0
LINE
  5
788
100
AcDbEntity
  8
レイヤー_1
  6
CONTINUOUS
 62
       3
100
AcDbLine
 10
255.61661851
 20
-87.73575506
 30
0.0
 11
254.8956003
 21
-87.55462098
 31
0.0
  0
LINE
  5
789
100
AcDbEntity
  8
レイヤー_1
  6
CONTINUOUS
 62
       3
100
AcDbLine
 10
257.77967313
 20
-88.09655059
 30
0.0
 11
251.29050927
 21
-88.09655059
 31
0.0
  0
LINE
  5
78A
100
AcDbEntity
  8
レイヤー_1
  6
CONTINUOUS
 62
       3
100
AcDbLine
 10
247.68468475
 20
-76.69688462
 30
0.0
 11
246.96366654
 21
-76.15348238
 31
0.0
  0
LINE
  5
78B
100
AcDbEntity
  8
レイヤー_1
  6
CONTINUOUS
 62
       3
100
AcDbLine
 10
251.29050927
 20
-76.15348238
 30
0.0
 11
246.96366654
 21
-76.15348238
 31
0.0
  0
LINE
  5
78C
100
AcDbEntity
  8
レイヤー_1
  6
CONTINUOUS
 62
       3
100
AcDbLine
 10
247.68468475
 20
-87.55462098
 30
0.0
 11
246.96366654
 21
-88.09655059
 31
0.0
  0
LINE
  5
78D
100
AcDbEntity
  8
レイヤー_1
  6
CONTINUOUS
 62
       3
100
AcDbLine
 10
251.29050927
 20
-88.09655059
 30
0.0
 11
246.96366654
 21
-88.09655059
 31
0.0
  0
LINE
  5
78E
100
AcDbEntity
  8
レイヤー_1
  6
CONTINUOUS
 62
       3
100
AcDbLine
 10
260.48330803
 20
-87.55462098
 30
0.0
 11
258.50069133
 21
-88.09655059
 31
0.0
  0
LINE
  5
78F
100
AcDbEntity
  8
レイヤー_1
  6
CONTINUOUS
 62
       3
100
AcDbLine
 10
258.50069133
 20
-88.09655059
 30
0.0
 11
257.77967313
 21
-88.09655059
 31
0.0
  0
LINE
  5
790
100
AcDbEntity
  8
レイヤー_1
  6
CONTINUOUS
 62
       3
100
AcDbLine
 10
260.48330803
 20
-76.69688462
 30
0.0
 11
258.50069133
 21
-76.15348238
 31
0.0
  0
LINE
  5
791
100
AcDbEntity
  8
レイヤー_1
  6
CONTINUOUS
 62
       3
100
AcDbLine
 10
258.50069133
 20
-76.15348238
 30
0.0
 11
257.77967313
 21
-76.15348238
 31
0.0
  0
LINE
  5
792
100
AcDbEntity
  8
レイヤー_1
  6
CONTINUOUS
 62
       3
100
AcDbLine
 10
260.48330803
 20
-87.55462098
 30
0.0
 11
260.48330803
 21
-76.69688462
 31
0.0
  0
LINE
  5
793
100
AcDbEntity
  8
レイヤー_1
  6
CONTINUOUS
 62
       3
100
AcDbLine
 10
246.96366654
 20
-88.09655059
 30
0.0
 11
246.7839621
 21
-88.09655059
 31
0.0
  0
LINE
  5
794
100
AcDbEntity
  8
レイヤー_1
  6
CONTINUOUS
 62
       3
100
AcDbLine
 10
246.7839621
 20
-88.09655059
 30
0.0
 11
246.06221041
 21
-87.55462098
 31
0.0
  0
LINE
  5
795
100
AcDbEntity
  8
レイヤー_1
  6
CONTINUOUS
 62
       3
100
AcDbLine
 10
246.06221041
 20
-87.55462098
 30
0.0
 11
246.06221041
 21
-76.69688462
 31
0.0
  0
LINE
  5
796
100
AcDbEntity
  8
レイヤー_1
  6
CONTINUOUS
 62
       3
100
AcDbLine
 10
246.96366654
 20
-76.15348238
 30
0.0
 11
246.7839621
 21
-76.15348238
 31
0.0
  0
LINE
  5
797
100
AcDbEntity
  8
レイヤー_1
  6
CONTINUOUS
 62
       3
100
AcDbLine
 10
246.7839621
 20
-76.15348238
 30
0.0
 11
246.06221041
 21
-76.69688462
 31
0.0
  0
LINE
  5
798
100
AcDbEntity
  8
レイヤー_1
  6
CONTINUOUS
 62
       3
100
AcDbLine
 10
259.94272775
 20
-76.33461646
 30
0.0
 11
260.48330803
 21
-76.69688462
 31
0.0
  0
LINE
  5
799
100
AcDbEntity
  8
レイヤー_1
  6
CONTINUOUS
 62
       3
100
AcDbLine
 10
259.76228982
 20
-76.15348238
 30
0.0
 11
257.77967313
 21
-76.15348238
 31
0.0
  0
LINE
  5
79A
100
AcDbEntity
  8
レイヤー_1
  6
CONTINUOUS
 62
       3
100
AcDbLine
 10
259.94272775
 20
-87.91541651
 30
0.0
 11
260.48330803
 21
-87.55462098
 31
0.0
  0
LINE
  5
79B
100
AcDbEntity
  8
レイヤー_1
  6
CONTINUOUS
 62
       3
100
AcDbLine
 10
259.76228982
 20
-88.09655059
 30
0.0
 11
257.77967313
 21
-88.09655059
 31
0.0
  0
LINE
  5
79C
100
AcDbEntity
  8
レイヤー_1
  6
CONTINUOUS
 62
       3
100
AcDbLine
 10
246.96366654
 20
-76.15348238
 30
0.0
 11
246.7839621
 21
-76.15348238
 31
0.0
  0
LINE
  5
79D
100
AcDbEntity
  8
レイヤー_1
  6
CONTINUOUS
 62
       3
100
AcDbLine
 10
246.96366654
 20
-88.09655059
 30
0.0
 11
246.7839621
 21
-88.09655059
 31
0.0
  0
LINE
  5
79E
100
AcDbEntity
  8
レイヤー_1
  6
CONTINUOUS
 62
       3
100
AcDbLine
 10
258.32025341
 20
-52.62961412
 30
0.0
 11
259.76228982
 21
-49.91554819
 31
0.0
  0
LINE
  5
79F
100
AcDbEntity
  8
レイヤー_1
  6
CONTINUOUS
 62
       3
100
AcDbLine
 10
259.76228982
 20
-49.91554819
 30
0.0
 11
259.76228982
 21
-48.46794818
 31
0.0
  0
LINE
  5
7A0
100
AcDbEntity
  8
レイヤー_1
  6
CONTINUOUS
 62
       3
100
AcDbLine
 10
246.7839621
 20
-49.91554819
 30
0.0
 11
248.22599852
 21
-52.62961412
 31
0.0
  0
LINE
  5
7A1
100
AcDbEntity
  8
レイヤー_1
  6
CONTINUOUS
 62
       3
100
AcDbLine
 10
246.7839621
 20
-48.46794818
 30
0.0
 11
246.7839621
 21
-49.91554819
 31
0.0
  0
LINE
  5
7A2
100
AcDbEntity
  8
レイヤー_1
  6
CONTINUOUS
 62
       3
100
AcDbLine
 10
258.32025341
 20
-76.15348238
 30
0.0
 11
258.32025341
 21
-52.62961412
 31
0.0
  0
LINE
  5
7A3
100
AcDbEntity
  8
レイヤー_1
  6
CONTINUOUS
 62
       3
100
AcDbLine
 10
248.22599852
 20
-52.62961412
 30
0.0
 11
248.22599852
 21
-76.15348238
 31
0.0
  0
LINE
  5
7A4
100
AcDbEntity
  8
レイヤー_1
  6
CONTINUOUS
 62
       3
100
AcDbLine
 10
259.76228982
 20
-48.46794818
 30
0.0
 11
257.77967313
 21
-48.10568002
 31
0.0
  0
LINE
  5
7A5
100
AcDbEntity
  8
レイヤー_1
  6
CONTINUOUS
 62
       3
100
AcDbLine
 10
248.7665788
 20
-48.10568002
 30
0.0
 11
246.7839621
 21
-48.46794818
 31
0.0
  0
LINE
  5
7A6
100
AcDbEntity
  8
レイヤー_1
  6
CONTINUOUS
 62
       3
100
AcDbLine
 10
259.76228982
 20
-49.91554819
 30
0.0
 11
246.7839621
 21
-49.91554819
 31
0.0
  0
LINE
  5
7A7
100
AcDbEntity
  8
レイヤー_1
  6
CONTINUOUS
 62
       3
100
AcDbLine
 10
258.32025341
 20
-52.62961412
 30
0.0
 11
248.22599852
 21
-52.62961412
 31
0.0
  0
LINE
  5
7A8
100
AcDbEntity
  8
レイヤー_1
  6
CONTINUOUS
 62
       3
100
AcDbLine
 10
257.23909284
 20
-39.59974143
 30
0.0
 11
257.23909284
 21
-4.59974143
 31
0.0
  0
LINE
  5
7A9
100
AcDbEntity
  8
レイヤー_1
  6
CONTINUOUS
 62
       3
100
AcDbLine
 10
249.30715908
 20
-4.59974143
 30
0.0
 11
249.30715908
 21
-39.59974143
 31
0.0
  0
LINE
  5
7AA
100
AcDbEntity
  8
0
  6
DIVIDE
 62
       6
100
AcDbLine
 10
-520.97672364
 20
-4.59974143
 30
0.0
 11
-213.55932203
 21
-4.59974143
 31
0.0
  0
LINE
  5
7AB
100
AcDbEntity
  8
0
  6
DIVIDE
 62
       6
100
AcDbLine
 10
-520.97672364
 20
-39.59974143
 30
0.0
 11
-213.55932203
 21
-39.59974143
 31
0.0
  0
LINE
  5
7AC
100
AcDbEntity
  8
0
  6
DIVIDE
 62
       6
100
AcDbLine
 10
366.27129895
 20
-4.59974143
 30
0.0
 11
133.1133059
 21
-4.59974143
 31
0.0
  0
LINE
  5
7AD
100
AcDbEntity
  8
0
  6
DIVIDE
 62
       6
100
AcDbLine
 10
366.27129895
 20
-39.59974143
 30
0.0
 11
133.1133059
 21
-39.59974143
 31
0.0
  0
ARC
  5
7AE
100
AcDbEntity
  8
0
  6
DIVIDE
 62
       6
100
AcDbCircle
 10
-314.38093357
 20
78.6842793
 30
0.0
 40
10.14169685
100
AcDbArc
 50
218.90868792
 51
278.60421792
  0
CIRCLE
  5
7AF
100
AcDbEntity
  8
0
  6
DIVIDE
 62
       6
100
AcDbCircle
 10
252.64232672
 20
57.28847226
 30
0.0
 40
21.71773509
  0
LINE
  5
7B0
100
AcDbEntity
  8
0
  6
DIVIDE
 62
       6
100
AcDbLine
 10
270.14232672
 20
-4.59974143
 30
0.0
 11
270.14232672
 21
-39.59974143
 31
0.0
  0
LINE
  5
7B1
100
AcDbEntity
  8
0
  6
DIVIDE
 62
       6
100
AcDbLine
 10
235.14232672
 20
-4.59974143
 30
0.0
 11
235.14232672
 21
-39.59974143
 31
0.0
  0
LINE
  5
7B2
100
AcDbEntity
  8
0
  6
DIVIDE
 62
       6
100
AcDbLine
 10
-409.87900034
 20
-4.59974143
 30
0.0
 11
-409.87900034
 21
-39.59974143
 31
0.0
  0
LINE
  5
7B3
100
AcDbEntity
  8
0
  6
DIVIDE
 62
       6
100
AcDbLine
 10
-374.87900034
 20
-4.59974143
 30
0.0
 11
-374.87900034
 21
-39.59974143
 31
0.0
  0
LINE
  5
7B4
100
AcDbEntity
  8
レイヤー_1
  6
DIVIDE
 62
       6
100
AcDbLine
 10
-294.16912541
 20
155.55236735
 30
0.0
 11
-277.36784002
 21
149.02088309
 31
0.0
  0
LINE
  5
7B5
100
AcDbEntity
  8
レイヤー_1
  6
DIVIDE
 62
       6
100
AcDbLine
 10
-306.31158948
 20
66.10961473
 30
0.0
 11
-312.86365325
 21
68.6567235
 31
0.0
  0
LINE
  5
7B6
100
AcDbEntity
  8
レイヤー_1
  6
DIVIDE
 62
       6
100
AcDbLine
 10
-341.97512159
 20
33.5724069
 30
0.0
 11
-342.31147545
 21
33.70316416
 31
0.0
  0
LINE
  5
7B7
100
AcDbEntity
  8
レイヤー_1
  6
DIVIDE
 62
       6
100
AcDbLine
 10
-342.31147545
 20
33.70316416
 30
0.0
 11
-342.91786865
 21
34.13323868
 31
0.0
  0
LINE
  5
7B8
100
AcDbEntity
  8
レイヤー_1
  6
DIVIDE
 62
       6
100
AcDbLine
 10
-342.91786865
 20
34.13323868
 30
0.0
 11
-343.6273415
 21
34.79614504
 31
0.0
  0
LINE
  5
7B9
100
AcDbEntity
  8
レイヤー_1
  6
DIVIDE
 62
       6
100
AcDbLine
 10
-343.6273415
 20
34.79614504
 30
0.0
 11
-344.10247297
 21
35.56387112
 31
0.0
  0
LINE
  5
7BA
100
AcDbEntity
  8
レイヤー_1
  6
DIVIDE
 62
       6
100
AcDbLine
 10
-344.68000043
 20
36.56416328
 30
0.0
 11
-345.1920471
 21
37.73491955
 31
0.0
  0
LINE
  5
7BB
100
AcDbEntity
  8
レイヤー_1
  6
DIVIDE
 62
       6
100
AcDbLine
 10
-294.16912541
 20
155.55236735
 30
0.0
 11
-319.60909018
 21
90.11178878
 31
0.0
  0
LINE
  5
7BC
100
AcDbEntity
  8
レイヤー_1
  6
DIVIDE
 62
       6
100
AcDbLine
 10
-302.80780479
 20
83.58030453
 30
0.0
 11
-277.36784002
 21
149.02088309
 31
0.0
  0
LINE
  5
7BD
100
AcDbEntity
  8
レイヤー_1
  6
DIVIDE
 62
       6
100
AcDbLine
 10
-312.86365325
 20
68.6567235
 30
0.0
 11
-306.50359535
 21
85.01703971
 31
0.0
  0
LINE
  5
7BE
100
AcDbEntity
  8
レイヤー_1
  6
DIVIDE
 62
       6
100
AcDbLine
 10
-319.60909018
 20
90.11178878
 30
0.0
 11
-302.80780479
 21
83.58030453
 31
0.0
  0
LINE
  5
7BF
100
AcDbEntity
  8
レイヤー_1
  6
DIVIDE
 62
       6
100
AcDbLine
 10
-315.91261598
 20
88.67478783
 30
0.0
 11
-322.27267387
 21
72.31447162
 31
0.0
  0
LINE
  5
7C0
100
AcDbEntity
  8
レイヤー_1
  6
DIVIDE
 62
       6
100
AcDbLine
 10
-313.84346949
 20
45.73897973
 30
0.0
 11
-306.31158948
 21
66.10961473
 31
0.0
  0
LINE
  5
7C1
100
AcDbEntity
  8
レイヤー_1
  6
DIVIDE
 62
       6
100
AcDbLine
 10
-322.27267387
 20
72.31447162
 30
0.0
 11
-333.02574263
 21
76.49471722
 31
0.0
  0
LINE
  5
7C2
100
AcDbEntity
  8
レイヤー_1
  6
DIVIDE
 62
       6
100
AcDbLine
 10
-341.97512159
 20
33.5724069
 30
0.0
 11
-321.98189278
 21
25.80005758
 31
0.0
  0
LINE
  5
7C3
100
AcDbEntity
  8
レイヤー_1
  6
DIVIDE
 62
       6
100
AcDbLine
 10
-321.98189278
 20
25.80005758
 30
0.0
 11
-313.84346949
 21
45.73897973
 31
0.0
  0
LINE
  5
7C4
100
AcDbEntity
  8
レイヤー_1
  6
DIVIDE
 62
       6
100
AcDbLine
 10
-344.10247297
 20
35.56387112
 30
0.0
 11
-344.68000043
 21
36.56416328
 31
0.0
  0
LINE
  5
7C5
100
AcDbEntity
  8
レイヤー_1
  6
DIVIDE
 62
       6
100
AcDbLine
 10
-345.1920471
 20
37.73491955
 30
0.0
 11
-346.08594586
 21
40.41133851
 31
0.0
  0
LINE
  5
7C6
100
AcDbEntity
  8
レイヤー_1
  6
DIVIDE
 62
       6
100
AcDbLine
 10
-346.08594586
 20
40.41133851
 30
0.0
 11
-346.4016335
 21
42.08719956
 31
0.0
  0
LINE
  5
7C7
100
AcDbEntity
  8
レイヤー_1
  6
DIVIDE
 62
       6
100
AcDbLine
 10
-346.4016335
 20
42.08719956
 30
0.0
 11
-333.02574263
 21
76.49471722
 31
0.0
  0
LINE
  5
7C8
100
AcDbEntity
  8
レイヤー_1
  6
DIVIDE
 62
       6
100
AcDbLine
 10
143.16297427
 20
48.27501119
 30
0.0
 11
213.37451984
 21
48.27501119
 31
0.0
  0
LINE
  5
7C9
100
AcDbEntity
  8
レイヤー_1
  6
DIVIDE
 62
       6
100
AcDbLine
 10
213.37451984
 20
48.27501119
 30
0.0
 11
213.37451984
 21
66.30119984
 31
0.0
  0
LINE
  5
7CA
100
AcDbEntity
  8
レイヤー_1
  6
DIVIDE
 62
       6
100
AcDbLine
 10
213.37451984
 20
52.24097807
 30
0.0
 11
231.51928669
 21
52.24097807
 31
0.0
  0
LINE
  5
7CB
100
AcDbEntity
  8
レイヤー_1
  6
DIVIDE
 62
       6
100
AcDbLine
 10
213.37451984
 20
66.30119984
 30
0.0
 11
143.16297427
 21
66.30119984
 31
0.0
  0
LINE
  5
7CC
100
AcDbEntity
  8
レイヤー_1
  6
DIVIDE
 62
       6
100
AcDbLine
 10
231.51928669
 20
62.33596645
 30
0.0
 11
213.37451984
 21
62.33596645
 31
0.0
  0
LINE
  5
7CD
100
AcDbEntity
  8
レイヤー_1
  6
DIVIDE
 62
       6
100
AcDbLine
 10
143.16297427
 20
48.27501119
 30
0.0
 11
143.16297427
 21
66.30119984
 31
0.0
  0
ENDSEC
  0
SECTION
  2
OBJECTS
  0
DICTIONARY
  5
19
100
AcDbDictionary
  3
ACAD_GROUP
350
1A
  3
ACAD_MLINESTYLE
350
1B
  0
DICTIONARY
  5
1A
102
{ACAD_REACTORS
330
19
102
}
100
AcDbDictionary
  0
DICTIONARY
  5
1B
102
{ACAD_REACTORS
330
19
102
}
100
AcDbDictionary
  3
STANDARD
350
1C
  0
MLINESTYLE
  5
1C
102
{ACAD_REACTORS
330
1B
102
}
100
AcDbMlineStyle
  2
STANDARD
 70
       0
  3

 62
       0
 51
90.0
 52
90.0
 71
       2
 49
0.5
 62
     256
  6
BYLAYER
 49
-0.5
 62
     256
  6
BYLAYER
  0
ENDSEC
  0
EOF
