  0
SECTION
  2
HEADER
  9
$ACADVER
  1
AC1015
  9
$ACADMAINTVER
 70
     6
  9
$DWGCODEPAGE
  3
ANSI_932
  9
$INSBASE
 10
0.0
 20
0.0
 30
0.0
  9
$EXTMIN
 10
23.283333
 20
25.752778
 30
1.000000E+20
  9
$EXTMAX
 10
198.966667
 20
276.930556
 30
-1.000000E+20
  9
$LIMMIN
 10
23.283333
 20
25.752778
  9
$LIMMAX
 10
198.966667
 20
276.930556
  9
$ORTHOMODE
 70
     0
  9
$REGENMODE
 70
     1
  9
$FILLMODE
 70
     1
  9
$QTEXTMODE
 70
     0
  9
$MIRRTEXT
 70
     1
  9
$LTSCALE
 40
1.0
  9
$ATTMODE
 70
     1
  9
$TEXTSIZE
 40
0.2
  9
$TRACEWID
 40
0.05
  9
$TEXTSTYLE
  7
Standard
  9
$CLAYER
  8
0
  9
$CELTYPE
  6
Continuous
  9
$CECOLOR
 62
   256
  9
$CELTSCALE
 40
1.0
  9
$DISPSILH
 70
     0
  9
$DIMSCALE
 40
1.0
  9
$DIMASZ
 40
0.18
  9
$DIMEXO
 40
0.0625
  9
$DIMDLI
 40
0.38
  9
$DIMRND
 40
0.0
  9
$DIMDLE
 40
0.0
  9
$DIMEXE
 40
0.18
  9
$DIMTP
 40
0.0
  9
$DIMTM
 40
0.0
  9
$DIMTXT
 40
0.18
  9
$DIMCEN
 40
0.09
  9
$DIMTSZ
 40
0.0
  9
$DIMTOL
 70
     0
  9
$DIMLIM
 70
     0
  9
$DIMTIH
 70
     1
  9
$DIMTOH
 70
     1
  9
$DIMSE1
 70
     0
  9
$DIMSE2
 70
     0
  9
$DIMTAD
 70
     0
  9
$DIMZIN
 70
     0
  9
$DIMBLK
  1

  9
$DIMASO
 70
     1
  9
$DIMSHO
 70
     1
  9
$DIMPOST
  1

  9
$DIMAPOST
  1

  9
$DIMALT
 70
     0
  9
$DIMALTD
 70
     2
  9
$DIMALTF
 40
25.4
  9
$DIMLFAC
 40
1.0
  9
$DIMTOFL
 70
     0
  9
$DIMTVP
 40
0.0
  9
$DIMTIX
 70
     0
  9
$DIMSOXD
 70
     0
  9
$DIMSAH
 70
     0
  9
$DIMBLK1
  1

  9
$DIMBLK2
  1

  9
$DIMSTYLE
  2
Standard
  9
$DIMCLRD
 70
     0
  9
$DIMCLRE
 70
     0
  9
$DIMCLRT
 70
     0
  9
$DIMTFAC
 40
1.0
  9
$DIMGAP
 40
0.09
  9
$DIMJUST
 70
     0
  9
$DIMSD1
 70
     0
  9
$DIMSD2
 70
     0
  9
$DIMTOLJ
 70
     1
  9
$DIMTZIN
 70
     0
  9
$DIMALTZ
 70
     0
  9
$DIMALTTZ
 70
     0
  9
$DIMUPT
 70
     0
  9
$DIMDEC
 70
     4
  9
$DIMTDEC
 70
     4
  9
$DIMALTU
 70
     2
  9
$DIMALTTD
 70
     2
  9
$DIMTXSTY
  7
Standard
  9
$DIMAUNIT
 70
     0
  9
$DIMADEC
 70
     0
  9
$DIMALTRND
 40
0.0
  9
$DIMAZIN
 70
     0
  9
$DIMDSEP
 70
     0
  9
$DIMATFIT
 70
     3
  9
$DIMFRAC
 70
     0
  9
$DIMLDRBLK
  1

  9
$DIMLUNIT
 70
     2
  9
$DIMLWD
 70
     0
  9
$DIMLWE
 70
     0
  9
$DIMTMOVE
 70
     0
  9
$LUNITS
 70
     2
  9
$LUPREC
 70
     4
  9
$SKETCHINC
 40
0.1
  9
$FILLETRAD
 40
0.0
  9
$AUNITS
 70
     0
  9
$AUPREC
 70
     0
  9
$MENU
  1
acad
  9
$ELEVATION
 40
0.0
  9
$PELEVATION
 40
0.0
  9
$THICKNESS
 40
0.0
  9
$LIMCHECK
 70
     0
  9
$CHAMFERA
 40
0.0
  9
$CHAMFERB
 40
0.0
  9
$CHAMFERC
 40
0.0
  9
$CHAMFERD
 40
0.0
  9
$SKPOLY
 70
     0
  9
$TDCREATE
 40
0.000000000
  9
$TDUCREATE
 40
0.000000000
  9
$TDUPDATE
 40
0.000000000
  9
$TDUUPDATE
 40
0.000000000
  9
$TDINDWG
 40
0.0000000000
  9
$TDUSRTIMER
 40
0.0000000000
  9
$USRTIMER
 70
     1
  9
$ANGBASE
 50
0.0
  9
$ANGDIR
 70
     0
  9
$PDMODE
 70
     0
  9
$PDSIZE
 40
0.0
  9
$PLINEWID
 40
0.0
  9
$SPLFRAME
 70
     0
  9
$SPLINETYPE
 70
     6
  9
$SPLINESEGS
 70
     8
  9
$HANDSEED
  5
2A7
  9
$SURFTAB1
 70
     6
  9
$SURFTAB2
 70
     6
  9
$SURFTYPE
 70
     6
  9
$SURFU
 70
     6
  9
$SURFV
 70
     6
  9
$UCSBASE
  2

  9
$UCSNAME
  2

  9
$UCSORG
 10
0.0
 20
0.0
 30
0.0
  9
$UCSXDIR
 10
1.0
 20
0.0
 30
0.0
  9
$UCSYDIR
 10
0.0
 20
1.0
 30
0.0
  9
$UCSORTHOREF
  2

  9
$UCSORTHOVIEW
 70
     0
  9
$UCSORGTOP
 10
0.0
 20
0.0
 30
0.0
  9
$UCSORGBOTTOM
 10
0.0
 20
0.0
 30
0.0
  9
$UCSORGLEFT
 10
0.0
 20
0.0
 30
0.0
  9
$UCSORGRIGHT
 10
0.0
 20
0.0
 30
0.0
  9
$UCSORGFRONT
 10
0.0
 20
0.0
 30
0.0
  9
$UCSORGBACK
 10
0.0
 20
0.0
 30
0.0
  9
$PUCSBASE
  2

  9
$PUCSNAME
  2

  9
$PUCSORG
 10
0.0
 20
0.0
 30
0.0
  9
$PUCSXDIR
 10
1.0
 20
0.0
 30
0.0
  9
$PUCSYDIR
 10
0.0
 20
1.0
 30
0.0
  9
$PUCSORTHOREF
  2

  9
$PUCSORTHOVIEW
 70
     0
  9
$PUCSORGTOP
 10
0.0
 20
0.0
 30
0.0
  9
$PUCSORGBOTTOM
 10
0.0
 20
0.0
 30
0.0
  9
$PUCSORGLEFT
 10
0.0
 20
0.0
 30
0.0
  9
$PUCSORGRIGHT
 10
0.0
 20
0.0
 30
0.0
  9
$PUCSORGFRONT
 10
0.0
 20
0.0
 30
0.0
  9
$PUCSORGBACK
 10
0.0
 20
0.0
 30
0.0
  9
$USERI1
 70
     0
  9
$USERI2
 70
     0
  9
$USERI3
 70
     0
  9
$USERI4
 70
     0
  9
$USERI5
 70
     0
  9
$USERR1
 40
0.0
  9
$USERR2
 40
0.0
  9
$USERR3
 40
0.0
  9
$USERR4
 40
0.0
  9
$USERR5
 40
0.0
  9
$WORLDVIEW
 70
     1
  9
$SHADEDGE
 70
     3
  9
$SHADEDIF
 70
    70
  9
$TILEMODE
 70
     1
  9
$MAXACTVP
 70
    16
  9
$PINSBASE
 10
0.0
 20
0.0
 30
0.0
  9
$PLIMCHECK
 70
     0
  9
$PEXTMIN
 10
1.000000E+20
 20
1.000000E+20
 30
1.000000E+20
  9
$PEXTMAX
 10
-1.000000E+20
 20
-1.000000E+20
 30
-1.000000E+20
  9
$PLIMMIN
 10
0.0
 20
0.0
  9
$PLIMMAX
 10
12.0
 20
9.0
  9
$UNITMODE
 70
     0
  9
$VISRETAIN
 70
     0
  9
$PLINEGEN
 70
     1
  9
$PSLTSCALE
 70
     0
  9
$TREEDEPTH
 70
  3020
  9
$CMLSTYLE
  2
Standard
  9
$CMLJUST
 70
     0
  9
$CMLSCALE
 40
1.0
  9
$PROXYGRAPHICS
 70
     0
  9
$MEASUREMENT
 70
     1
  9
$CELWEIGHT
370
     0
  9
$ENDCAPS
280
     0
  9
$JOINSTYLE
280
     0
  9
$LWDISPLAY
290
     0
  9
$INSUNITS
 70
     0
  9
$HYPERLINKBASE
  1

  9
$STYLESHEET
  1

  9
$XEDIT
290
     1
  9
$CEPSNTYPE
380
     0
  9
$PSTYLEMODE
290
     1
  9
$FINGERPRINTGUID
  2

  9
$VERSIONGUID
  2

  9
$EXTNAMES
290
     1
  9
$PSVPSCALE
 40
0.0
  0
ENDSEC
  0
SECTION
  2
CLASSES
  0
CLASS
  1
LWPOLYLINE
  2
AcDbPolyline
  3
AutoCAD 2000
 90
    32768
280
     0
281
     1
  0
CLASS
  1
IMAGE
  2
AcDbRasterImage
  3
ISM
 90
      127
280
     0
281
     1
  0
CLASS
  1
OLE2FRAME
  2
AcDbOle2Frame
  3
AutoCAD 2000
 90
    32768
280
     0
281
     1
  0
CLASS
  1
HATCH
  2
AcDbHatch
  3
AutoCAD 2000
 90
    32768
280
     0
281
     1
  0
CLASS
  1
DICTIONARYVAR
  2
AcDbDictionaryVar
  3
AutoCAD 2000
 90
    32768
280
     0
281
     0
  0
CLASS
  1
RASTERVARIABLES
  2
AcDbRasterVariables
  3
ISM
 90
    32768
280
     0
281
     0
  0
CLASS
  1
IMAGEDEF
  2
AcDbRasterImageDef
  3
ISM
 90
        0
280
     0
281
     0
  0
CLASS
  1
IMAGEDEF_REACTOR
  2
AcDbRasterImageDefReactor
  3
ISM
 90
        1
280
     0
281
     0
  0
CLASS
  1
IDBUFFER
  2
AcDbIdBuffer
  3
AutoCAD 2000
 90
    32768
280
     0
281
     0
  0
CLASS
  1
SPATIAL_FILTER
  2
AcDbSpatialFilter
  3
AutoCAD 2000
 90
    32768
280
     0
281
     0
  0
CLASS
  1
XRECORD
  2
AcDbXrecord
  3
AutoCAD 2000
 90
    32768
280
     0
281
     0
  0
CLASS
  1
SORTENTSTABLE
  2
AcDbSortentsTable
  3
AutoCAD 2000
 90
    32768
280
     0
281
     0
  0
CLASS
  1
LAYER_INDEX
  2
AcDbLayerIndex
  3
AutoCAD 2000
 90
    32768
280
     0
281
     0
  0
CLASS
  1
SPATIAL_INDEX
  2
AcDbSpatialIndex
  3
AutoCAD 2000
 90
    32768
280
     0
281
     0
  0
CLASS
  1
OBJECT_PTR
  2
CAseDLPNTableRecord
  3
"ASE-LPNTableRecord"
 90
    32769
280
     0
281
     0
  0
CLASS
  1
LAYOUT
  2
AcDbLayout
  3
AutoCAD 2000
 90
        0
280
     0
281
     0
  0
CLASS
  1
PLOTSETTINGS
  2
AcDbPlotSettings
  3
AutoCAD 2000
 90
    32768
280
     0
281
     0
  0
CLASS
  1
ACDBDICTIONARYWDFLT
  2
AcDbDictionaryWithDefault
  3
AutoCAD 2000
 90
        0
280
     0
281
     0
  0
CLASS
  1
ACDBPLACEHOLDER
  2
AcDbPlaceHolder
  3
AutoCAD 2000
 90
        0
280
     0
281
     0
  0
CLASS
  1
VBA_PROJECT
  2
AcDbVbaProject
  3
acadvba
 90
    32768
280
     0
281
     0
  0
CLASS
  1
WIPEOUT
  2
AcDbWipeout
  3
WipeOut|AutoCAD Express Tool|expresstools@autodesk.com
 90
    32895
280
     0
281
     1
  0
CLASS
  1
WIPEOUTVARIABLES
  2
AcDbWipeoutVariables
  3
WipeOut|AutoCAD Express Tool|expresstools@autodesk.com
 90
        0
280
     0
281
     0
  0
CLASS
  1
RTEXT
  2
RText
  3
RText|AutoCAD Express Tool|expresstools@autodesk.com
 90
    32768
280
     0
281
     1
  0
CLASS
  1
ARCALIGNEDTEXT
  2
AcDbArcAlignedText
  3
ATEXT|AutoCAD Express Tool|expresstools@autodesk.com
 90
    32768
280
     0
281
     1
  0
ENDSEC
  0
SECTION
  2
TABLES
  0
TABLE
  2
VPORT
  5
7
100
AcDbSymbolTable
 70
     1
  0
VPORT
  5
15
100
AcDbSymbolTableRecord
100
AcDbViewportTableRecord
  2
*ACTIVE
 70
     0
 10
0.0
 20
0.0
 11
1.0
 21
1.0
 12
6.591288
 22
4.579184
 13
0.0
 23
0.0
 14
1.0
 24
1.0
 15
0.0
 25
0.0
 16
0.0
 26
0.0
 36
1.0
 17
0.0
 27
0.0
 37
0.0
 40
9.158369
 41
0.688564
 42
50.0
 43
0.0
 44
0.0
 50
0.0
 51
0.0
 71
     0
 72
   100
 73
     1
 74
     1
 75
     0
 76
     0
 77
     0
 78
     0
281
     0
 65
     0
110
0.0
120
0.0
130
0.0
111
1.0
121
0.0
131
0.0
112
0.0
122
1.0
132
0.0
345
0
346
0
 79
     0
146
0.0
  0
ENDTAB
  0
TABLE
  2
LTYPE
  5
4
100
AcDbSymbolTable
 70
     5
  0
LTYPE
  5
11
100
AcDbSymbolTableRecord
100
AcDbLinetypeTableRecord
  2
ByBlock
 70
    64
  3

 72
    65
 73
     0
 40
0.0
  0
LTYPE
  5
12
100
AcDbSymbolTableRecord
100
AcDbLinetypeTableRecord
  2
ByLayer
 70
    64
  3

 72
    65
 73
     0
 40
0.0
  0
LTYPE
  5
13
100
AcDbSymbolTableRecord
100
AcDbLinetypeTableRecord
  2
Continuous
 70
    64
  3
Solid line
 72
    65
 73
     0
 40
0.0
  0
LTYPE
  5
53
100
AcDbSymbolTableRecord
100
AcDbLinetypeTableRecord
  2
AI9-LType1
 70
    64
  3
Illustrator Dash Style No.1
 72
    65
 73
     4
 40
8.000295
 49
4.99992
 74
     0
 49
-1.000125
 74
     0
 49
1.000125
 74
     0
 49
-1.000125
 74
     0
  0
LTYPE
  5
1EC
100
AcDbSymbolTableRecord
100
AcDbLinetypeTableRecord
  2
AI9-LType2
 70
    64
  3
Illustrator Dash Style No.2
 72
    65
 73
     4
 40
14.795182
 49
9.246975
 74
     0
 49
-1.849402
 74
     0
 49
1.849402
 74
     0
 49
-1.849402
 74
     0
  0
ENDTAB
  0
TABLE
  2
LAYER
  5
2
100
AcDbSymbolTable
 70
     3
  0
LAYER
  5
14
100
AcDbSymbolTableRecord
100
AcDbLayerTableRecord
  2
0
 70
     0
 62
     7
  6
Continuous
290
     1
370
    -3
390
1D
  0
LAYER
  5
28
100
AcDbSymbolTableRecord
100
AcDbLayerTableRecord
  2
レイヤー_2
 70
     0
 62
     1
  6
Continuous
290
     1
370
    -3
390
1D
  0
LAYER
  5
28C
100
AcDbSymbolTableRecord
100
AcDbLayerTableRecord
  2
レイヤー_1
 70
     4
 62
   160
  6
Continuous
290
     1
370
    -3
390
1D
  0
ENDTAB
  0
TABLE
  2
STYLE
  5
3
100
AcDbSymbolTable
 70
     5
  0
STYLE
  5
17
100
AcDbSymbolTableRecord
100
AcDbTextStyleTableRecord
  2
Standard
 70
     0
 40
0.0
 41
1.0
 50
0.0
 71
     0
 42
0.0
  3
txt
  4

  0
STYLE
  5
24
100
AcDbSymbolTableRecord
100
AcDbTextStyleTableRecord
  2
STD
 70
     0
 40
0.0
 41
1.0
 50
0.0
 71
     0
 42
0.0
  3
txt
  4

  0
STYLE
  5
25
100
AcDbSymbolTableRecord
100
AcDbTextStyleTableRecord
  2
TATESTD
 70
     4
 40
0.0
 41
1.0
 50
0.0
 71
     0
 42
0.0
  3
txt
  4

  0
STYLE
  5
26
100
AcDbSymbolTableRecord
100
AcDbTextStyleTableRecord
  2
KANJISTD
 70
     0
 40
0.0
 41
1.0
 50
0.0
 71
     0
 42
0.0
  3
txt
  4
extfont
  0
STYLE
  5
27
100
AcDbSymbolTableRecord
100
AcDbTextStyleTableRecord
  2
KANJITATE
 70
     4
 40
0.0
 41
1.0
 50
0.0
 71
     0
 42
0.0
  3
txt
  4
extfont
  0
ENDTAB
  0
TABLE
  2
VIEW
  5
5
100
AcDbSymbolTable
 70
     0
  0
ENDTAB
  0
TABLE
  2
UCS
  5
6
100
AcDbSymbolTable
 70
     0
  0
ENDTAB
  0
TABLE
  2
APPID
  5
8
100
AcDbSymbolTable
 70
     1
  0
APPID
  5
16
100
AcDbSymbolTableRecord
100
AcDbRegAppTableRecord
  2
ACAD
 70
     0
  0
ENDTAB
  0
TABLE
  2
DIMSTYLE
  5
9
100
AcDbSymbolTable
 70
     1
100
AcDbDimStyleTable
 71
     0
  0
DIMSTYLE
105
18
100
AcDbSymbolTableRecord
100
AcDbDimStyleTableRecord
  2
Standard
 70
     0
  3

  4

 40
1.0
 41
0.18
 42
0.0625
 43
0.38
 44
0.18
 45
0.0
 46
0.0
 47
0.0
 48
0.0
 71
     0
 72
     0
 73
     1
 74
     1
 75
     0
 76
     0
 77
     0
 78
     0
 79
     0
140
0.18
141
0.09
142
0.0
143
25.4
144
1.0
145
0.0
146
1.0
147
0.09
148
0.0
170
     0
171
     2
172
     0
173
     0
174
     0
175
     0
176
     0
177
     0
178
     0
179
     0
271
     4
272
     4
273
     2
274
     2
275
     0
276
     0
277
     2
278
    46
279
     0
280
     0
281
     0
282
     0
283
     1
284
     0
285
     0
286
     0
288
     0
340
17
341
0
342
0
343
0
344
0
371
    -2
372
    -2
  0
ENDTAB
  0
TABLE
  2
BLOCK_RECORD
  5
1
100
AcDbSymbolTable
 70
     7
  0
BLOCK_RECORD
  5
A
100
AcDbSymbolTableRecord
100
AcDbBlockTableRecord
  2
*MODEL_SPACE
340
20
  0
BLOCK_RECORD
  5
B
100
AcDbSymbolTableRecord
100
AcDbBlockTableRecord
  2
*PAPER_SPACE
340
21
  0
BLOCK_RECORD
  5
1E0
100
AcDbSymbolTableRecord
100
AcDbBlockTableRecord
  2
AI9-BLK1
340
0
102
{BLKREFS
331
1E1
102
}
  0
BLOCK_RECORD
  5
1E6
100
AcDbSymbolTableRecord
100
AcDbBlockTableRecord
  2
AI9-BLK2
340
0
102
{BLKREFS
331
1E7
102
}
  0
BLOCK_RECORD
  5
1E9
100
AcDbSymbolTableRecord
100
AcDbBlockTableRecord
  2
AI9-BLK3
340
0
102
{BLKREFS
331
1EA
102
}
  0
BLOCK_RECORD
  5
1EE
100
AcDbSymbolTableRecord
100
AcDbBlockTableRecord
  2
AI9-BLK4
340
0
102
{BLKREFS
331
1EF
102
}
  0
BLOCK_RECORD
  5
239
100
AcDbSymbolTableRecord
100
AcDbBlockTableRecord
  2
AI9-BLK5
340
0
102
{BLKREFS
331
23A
102
}
  0
BLOCK_RECORD
  5
23C
100
AcDbSymbolTableRecord
100
AcDbBlockTableRecord
  2
AI9-BLK6
340
0
102
{BLKREFS
331
23D
102
}
  0
BLOCK_RECORD
  5
23F
100
AcDbSymbolTableRecord
100
AcDbBlockTableRecord
  2
AI9-BLK7
340
0
102
{BLKREFS
331
240
102
}
  0
ENDTAB
  0
ENDSEC
  0
SECTION
  2
BLOCKS
  0
BLOCK
  5
D
100
AcDbEntity
  8
0
100
AcDbBlockBegin
  2
*MODEL_SPACE
 70
     0
 10
0.0
 20
0.0
 30
0.0
  3
*MODEL_SPACE
  1

  0
ENDBLK
  5
E
100
AcDbEntity
  8
0
100
AcDbBlockEnd
  0
BLOCK
  5
F
100
AcDbEntity
 67
     1
  8
0
100
AcDbBlockBegin
  2
*PAPER_SPACE
 70
     0
 10
0.0
 20
0.0
 30
0.0
  3
*PAPER_SPACE
  1

  0
ENDBLK
  5
10
100
AcDbEntity
 67
     1
  8
0
100
AcDbBlockEnd
  0
BLOCK
  5
1E2
100
AcDbEntity
  8
レイヤー_2
 62
     7
100
AcDbBlockBegin
  2
AI9-BLK1
 70
     0
 10
0.0
 20
0.0
 30
0.0
  3
AI9-BLK1
  1

  0
MTEXT
  5
1E4
100
AcDbEntity
  8
レイヤー_2
 62
     7
100
AcDbMText
 10
-8.123535
 20
3.155412
 30
0.0
 40
2.362351
 41
0.0
 71
     1
 72
     2
  1
\fMS PGothic|b0|i0|c128;\H2.3624;\C7;\U+63A5\U+7D9A\U+30BD\U+30B1\U+30C3\U+30C8
  7
STD
210
0.0
220
0.0
230
1.0
 73
     1
 44
1.0
  0
MTEXT
  5
1E3
100
AcDbEntity
  8
レイヤー_2
 62
     7
100
AcDbMText
 10
-8.123535
 20
-0.725143
 30
0.0
 40
2.362351
 41
0.0
 71
     1
 72
     2
  1
\fMS PGothic|b0|i0|c128;\H2.3624;\C7;\U+FF08\U+9006\U+6B62\U+5F01\U+4ED8\U+FF09
  7
STD
210
0.0
220
0.0
230
1.0
 73
     1
 44
1.0
  0
ENDBLK
  5
1E5
100
AcDbEntity
  8
レイヤー_2
100
AcDbBlockEnd
  0
BLOCK
  5
1E8
100
AcDbEntity
  8
レイヤー_2
 62
     7
100
AcDbBlockBegin
  2
AI9-BLK2
 70
     0
 10
0.0
 20
0.0
 30
0.0
  3
AI9-BLK2
  1

  0
MTEXT
  5
237
100
AcDbEntity
  8
レイヤー_2
  6
AI9-LType2
 62
     7
100
AcDbMText
 10
4.568713
 20
-16.697418
 30
0.0
 40
4.724702
 41
0.0
 71
     1
 72
     2
  1
\fMS PGothic|b0|i0|c128;\H4.7247;\C7;\U+0047\U+0031\U+002F\U+0032
  7
STD
210
0.0
220
0.0
230
1.0
 73
     1
 44
1.0
  0
INSERT
  5
1EA
100
AcDbEntity
  8
レイヤー_2
 62
     7
100
AcDbBlockReference
  2
AI9-BLK3
 10
-3.199977
 20
3.717947
 30
0.0
  0
ENDBLK
  5
238
100
AcDbEntity
  8
レイヤー_2
100
AcDbBlockEnd
  0
BLOCK
  5
1EB
100
AcDbEntity
  8
レイヤー_2
 62
     7
100
AcDbBlockBegin
  2
AI9-BLK3
 70
     0
 10
0.0
 20
0.0
 30
0.0
  3
AI9-BLK3
  1

  0
LINE
  5
235
100
AcDbEntity
  8
レイヤー_2
  6
AI9-LType2
 62
     7
100
AcDbLine
 10
10.979519
 20
18.484143
 30
0.0
 11
10.979519
 21
-18.484143
 31
0.0
  0
INSERT
  5
1EF
100
AcDbEntity
  8
レイヤー_2
  6
AI9-LType2
 62
     7
100
AcDbBlockReference
  2
AI9-BLK4
 10
10.979519
 20
-11.441334
 30
0.0
  0
LINE
  5
1ED
100
AcDbEntity
  8
レイヤー_2
  6
AI9-LType2
 62
     7
100
AcDbLine
 10
-14.105599
 20
-2.586061
 30
0.0
 11
10.979519
 21
18.484143
 31
0.0
  0
ENDBLK
  5
236
100
AcDbEntity
  8
レイヤー_2
100
AcDbBlockEnd
  0
BLOCK
  5
1F0
100
AcDbEntity
  8
レイヤー_2
  6
AI9-LType2
 62
     7
100
AcDbBlockBegin
  2
AI9-BLK4
 70
     0
 10
0.0
 20
0.0
 30
0.0
  3
AI9-BLK4
  1

  0
SPLINE
  5
233
100
AcDbEntity
  8
レイヤー_2
 62
     7
100
AcDbSpline
210
0.0
220
0.0
230
1.0
 70
     8
 71
     3
 72
    95
 73
    91
 74
     0
 42
0.00000001
 43
0.00000001
 40
0.0
 40
0.0
 40
0.0
 40
0.0
 40
1.0
 40
1.0
 40
1.0
 40
2.0
 40
2.0
 40
2.0
 40
3.0
 40
3.0
 40
3.0
 40
4.0
 40
4.0
 40
4.0
 40
5.0
 40
5.0
 40
5.0
 40
6.0
 40
6.0
 40
6.0
 40
7.0
 40
7.0
 40
7.0
 40
8.0
 40
8.0
 40
8.0
 40
9.0
 40
9.0
 40
9.0
 40
10.0
 40
10.0
 40
10.0
 40
11.0
 40
11.0
 40
11.0
 40
12.0
 40
12.0
 40
12.0
 40
13.0
 40
13.0
 40
13.0
 40
14.0
 40
14.0
 40
14.0
 40
15.0
 40
15.0
 40
15.0
 40
16.0
 40
16.0
 40
16.0
 40
17.0
 40
17.0
 40
17.0
 40
18.0
 40
18.0
 40
18.0
 40
19.0
 40
19.0
 40
19.0
 40
20.0
 40
20.0
 40
20.0
 40
21.0
 40
21.0
 40
21.0
 40
22.0
 40
22.0
 40
22.0
 40
23.0
 40
23.0
 40
23.0
 40
24.0
 40
24.0
 40
24.0
 40
25.0
 40
25.0
 40
25.0
 40
26.0
 40
26.0
 40
26.0
 40
27.0
 40
27.0
 40
27.0
 40
28.0
 40
28.0
 40
28.0
 40
29.0
 40
29.0
 40
29.0
 40
30.0
 40
30.0
 40
30.0
 40
30.0
 10
1.1100097656249999
 20
6.2993570963541661
 30
0.0
 10
1.0976074218749998
 20
6.2959120008680554
 30
0.0
 10
1.085205078125
 20
6.2924669053819438
 30
0.0
 10
1.072802734375
 20
6.289021809895833
 30
0.0
 10
1.0604003906249999
 20
6.2855767144097214
 30
0.0
 10
1.0479980468749999
 20
6.2828206380208327
 30
0.0
 10
1.0355957031249998
 20
6.2800645616319439
 30
0.0
 10
1.023193359375
 20
6.2766194661458323
 30
0.0
 10
1.010791015625
 20
6.2745524088541664
 30
0.0
 10
0.9983886718749999
 20
6.2724853515624996
 30
0.0
 10
0.9859863281249999
 20
6.2704182942708329
 30
0.0
 10
0.9735839843749999
 20
6.2683512369791661
 30
0.0
 10
0.9611816406249999
 20
6.2676622178819441
 30
0.0
 10
0.9480902777777777
 20
6.2662841796874993
 30
0.0
 10
0.9356879340277777
 20
6.2662841796874993
 30
0.0
 10
0.9232855902777777
 20
6.2662841796874993
 30
0.0
 10
0.8943467881944444
 20
6.2669731987847213
 30
0.0
 10
0.8660970052083332
 20
6.2704182942708329
 30
0.0
 10
0.8385362413194444
 20
6.2773084852430552
 30
0.0
 10
0.8102864583333332
 20
6.2841986762152775
 30
0.0
 10
0.7820366753472221
 20
6.2917778862847218
 30
0.0
 10
0.7537868923611111
 20
6.2993570963541661
 30
0.0
 10
0.7255371093749999
 20
6.3083143446180552
 30
0.0
 10
0.6979763454861111
 20
6.3158935546874995
 30
0.0
 10
0.6697265625
 20
6.3234727647569438
 30
0.0
 10
0.6428548177083333
 20
6.331051974826388
 30
0.0
 10
0.6152940538194444
 20
6.3365641276041664
 30
0.0
 10
0.5877332899305555
 20
6.3393202039930552
 30
0.0
 10
0.5622395833333332
 20
6.3427652994791659
 30
0.0
 10
0.5360568576388889
 20
6.341387261284722
 30
0.0
 10
0.5098741319444444
 20
6.3365641276041664
 30
0.0
 10
0.4712890625
 20
6.3282958984374993
 30
0.0
 10
0.4347710503472222
 20
6.3110704210069439
 30
0.0
 10
0.4030761718749999
 20
6.2876437717013882
 30
0.0
 10
0.3672471788194444
 20
6.2621500651041657
 30
0.0
 10
0.3334852430555556
 20
6.2339002821180554
 30
0.0
 10
0.3024793836805556
 20
6.2028944227430554
 30
0.0
 10
0.2700954861111111
 20
6.1705105251736105
 30
0.0
 10
0.2377115885416667
 20
6.1388156467013886
 30
0.0
 10
0.204638671875
 20
6.1071207682291657
 30
0.0
 10
0.1743218315972222
 20
6.0774929470486105
 30
0.0
 10
0.1405598958333333
 20
6.0506212022569441
 30
0.0
 10
0.105419921875
 20
6.0265055338541664
 30
0.0
 10
0.0737250434027778
 20
6.0051459418402775
 30
0.0
 10
0.0378960503472222
 20
5.9913655598958329
 30
0.0
 10
0.0
 20
5.9865424262152773
 30
0.0
 10
-0.0365180121527778
 20
5.9817192925347218
 30
0.0
 10
-0.0737250434027778
 20
5.9872314453124993
 30
0.0
 10
-0.1081759982638889
 20
6.0023898654513888
 30
0.0
 10
-0.1453830295138889
 20
6.0189263237847213
 30
0.0
 10
-0.1832790798611111
 20
6.0361518012152775
 30
0.0
 10
-0.2211751302083333
 20
6.0533772786458329
 30
0.0
 10
-0.26044921875
 20
6.0712917751736102
 30
0.0
 10
-0.2990342881944444
 20
6.0919623480902771
 30
0.0
 10
-0.3355523003472222
 20
6.1153889973958329
 30
0.0
 10
-0.3720703124999999
 20
6.135370551215277
 30
0.0
 10
-0.40927734375
 20
6.1519070095486104
 30
0.0
 10
-0.4485514322916666
 20
6.1643093532986102
 30
0.0
 10
-0.4823133680555555
 20
6.1767116970486109
 30
0.0
 10
-0.5195203993055555
 20
6.1808458116319436
 30
0.0
 10
-0.555349392361111
 20
6.1767116970486109
 30
0.0
 10
-0.5815321180555555
 20
6.1718885633680554
 30
0.0
 10
-0.6063368055555555
 20
6.1629313151041663
 30
0.0
 10
-0.6297634548611111
 20
6.1498399522569436
 30
0.0
 10
-0.6545681423611111
 20
6.1360595703124998
 30
0.0
 10
-0.6786838107638888
 20
6.1195231119791664
 30
0.0
 10
-0.700732421875
 20
6.1016086154513882
 30
0.0
 10
-0.7248480902777778
 20
6.0823160807291661
 30
0.0
 10
-0.7489637586805555
 20
6.062334526909722
 30
0.0
 10
-0.7717013888888888
 20
6.042352973090277
 30
0.0
 10
-0.7958170572916666
 20
6.0223714192708329
 30
0.0
 10
-0.8199327256944444
 20
6.0030788845486107
 30
0.0
 10
-0.8454264322916666
 20
5.9844753689236105
 30
0.0
 10
-0.8695421006944444
 20
5.9672498914930552
 30
0.0
 10
-0.8957248263888888
 20
5.9527804904513886
 30
0.0
 10
-0.9232855902777777
 20
5.9403781467013888
 30
0.0
 10
-0.9349989149305554
 20
5.9355550130208332
 30
0.0
 10
-0.9467122395833333
 20
5.9314208984374996
 30
0.0
 10
-0.9591145833333332
 20
5.9286648220486109
 30
0.0
 10
-0.9715169270833333
 20
5.9252197265624993
 30
0.0
 10
-0.983230251736111
 20
5.9224636501736105
 30
0.0
 10
-0.9956325954861111
 20
5.9197075737847218
 30
0.0
 10
-1.008034939236111
 20
5.916951497395833
 30
0.0
 10
-1.0211263020833332
 20
5.9155734592013882
 30
0.0
 10
-1.0335286458333333
 20
5.9141954210069443
 30
0.0
 10
-1.0459309895833333
 20
5.9128173828124995
 30
0.0
 10
-1.0590223524305555
 20
5.9114393446180546
 30
0.0
 10
-1.0714246961805554
 20
5.9107503255208327
 30
0.0
 10
-1.0845160590277776
 20
5.9093722873263888
 30
0.0
 10
-1.0976074218749998
 20
5.9079942491319439
 30
0.0
 10
-1.1100097656249999
 20
5.9079942491319439
 30
0.0
  0
LINE
  5
232
100
AcDbEntity
  8
レイヤー_2
 62
     7
100
AcDbLine
 10
-1.986442
 20
-0.541225
 30
0.0
 11
-1.869998
 21
-0.541225
 31
0.0
  0
LINE
  5
231
100
AcDbEntity
  8
レイヤー_2
 62
     7
100
AcDbLine
 10
-1.869998
 20
0.525377
 30
0.0
 11
-1.869998
 21
-0.541225
 31
0.0
  0
LINE
  5
230
100
AcDbEntity
  8
レイヤー_2
 62
     7
100
AcDbLine
 10
-1.869998
 20
-0.541225
 30
0.0
 11
-1.986442
 21
-0.743796
 31
0.0
  0
LINE
  5
22F
100
AcDbEntity
  8
レイヤー_2
 62
     7
100
AcDbLine
 10
1.869309
 20
-0.541225
 30
0.0
 11
1.986442
 21
-0.541225
 31
0.0
  0
LINE
  5
22E
100
AcDbEntity
  8
レイヤー_2
 62
     7
100
AcDbLine
 10
1.869309
 20
-0.541225
 30
0.0
 11
1.869309
 21
0.525377
 31
0.0
  0
LINE
  5
22D
100
AcDbEntity
  8
レイヤー_2
 62
     7
100
AcDbLine
 10
1.986442
 20
-0.743796
 30
0.0
 11
1.869309
 21
-0.541225
 31
0.0
  0
LINE
  5
22C
100
AcDbEntity
  8
レイヤー_2
 62
     7
100
AcDbLine
 10
1.096229
 20
0.634931
 30
0.0
 11
1.577165
 21
0.634931
 31
0.0
  0
LINE
  5
22B
100
AcDbEntity
  8
レイヤー_2
 62
     7
100
AcDbLine
 10
1.096229
 20
3.087839
 30
0.0
 11
1.096229
 21
0.634931
 31
0.0
  0
LINE
  5
22A
100
AcDbEntity
  8
レイヤー_2
 62
     7
100
AcDbLine
 10
1.577165
 20
3.087839
 30
0.0
 11
1.096229
 21
3.087839
 31
0.0
  0
LINE
  5
229
100
AcDbEntity
  8
レイヤー_2
 62
     7
100
AcDbLine
 10
1.577165
 20
3.087839
 30
0.0
 11
1.577165
 21
0.634931
 31
0.0
  0
LINE
  5
228
100
AcDbEntity
  8
レイヤー_2
 62
     7
100
AcDbLine
 10
1.752865
 20
4.707034
 30
0.0
 11
0.0
 21
4.707034
 31
0.0
  0
LINE
  5
227
100
AcDbEntity
  8
レイヤー_2
 62
     7
100
AcDbLine
 10
2.453597
 20
0.500572
 30
0.0
 11
0.0
 21
0.500572
 31
0.0
  0
LINE
  5
226
100
AcDbEntity
  8
レイヤー_2
 62
     7
100
AcDbLine
 10
2.687174
 20
0.634931
 30
0.0
 11
2.453597
 21
0.500572
 31
0.0
  0
LINE
  5
225
100
AcDbEntity
  8
レイヤー_2
 62
     7
100
AcDbLine
 10
1.752865
 20
4.707034
 30
0.0
 11
2.560395
 21
3.308325
 31
0.0
  0
LINE
  5
224
100
AcDbEntity
  8
レイヤー_2
 62
     7
100
AcDbLine
 10
2.687174
 20
3.087839
 30
0.0
 11
2.687174
 21
0.634931
 31
0.0
  0
LINE
  5
223
100
AcDbEntity
  8
レイヤー_2
 62
     7
100
AcDbLine
 10
-1.18029
 20
4.707034
 30
0.0
 11
0.0
 21
4.707034
 31
0.0
  0
LINE
  5
222
100
AcDbEntity
  8
レイヤー_2
 62
     7
100
AcDbLine
 10
-2.045009
 20
0.500572
 30
0.0
 11
0.0
 21
0.500572
 31
0.0
  0
LINE
  5
221
100
AcDbEntity
  8
レイヤー_2
 62
     7
100
AcDbLine
 10
-1.577165
 20
0.634931
 30
0.0
 11
-1.096229
 21
0.634931
 31
0.0
  0
LINE
  5
220
100
AcDbEntity
  8
レイヤー_2
 62
     7
100
AcDbLine
 10
-1.096229
 20
0.634931
 30
0.0
 11
-1.096229
 21
3.087839
 31
0.0
  0
LINE
  5
21F
100
AcDbEntity
  8
レイヤー_2
 62
     7
100
AcDbLine
 10
-1.096229
 20
3.087839
 30
0.0
 11
-1.577165
 21
3.087839
 31
0.0
  0
LINE
  5
21E
100
AcDbEntity
  8
レイヤー_2
 62
     7
100
AcDbLine
 10
-1.577165
 20
0.634931
 30
0.0
 11
-1.577165
 21
3.087839
 31
0.0
  0
LINE
  5
21D
100
AcDbEntity
  8
レイヤー_2
 62
     7
100
AcDbLine
 10
0.0
 20
4.707034
 30
0.0
 11
-1.752865
 21
4.707034
 31
0.0
  0
LINE
  5
21C
100
AcDbEntity
  8
レイヤー_2
 62
     7
100
AcDbLine
 10
0.0
 20
0.500572
 30
0.0
 11
-2.453597
 21
0.500572
 31
0.0
  0
LINE
  5
21B
100
AcDbEntity
  8
レイヤー_2
 62
     7
100
AcDbLine
 10
-2.453597
 20
0.500572
 30
0.0
 11
-2.687863
 21
0.634931
 31
0.0
  0
LINE
  5
21A
100
AcDbEntity
  8
レイヤー_2
 62
     7
100
AcDbLine
 10
-2.687863
 20
3.087839
 30
0.0
 11
-1.752865
 21
4.707034
 31
0.0
  0
LINE
  5
219
100
AcDbEntity
  8
レイヤー_2
 62
     7
100
AcDbLine
 10
-2.687863
 20
0.634931
 30
0.0
 11
-2.687863
 21
3.087839
 31
0.0
  0
LINE
  5
218
100
AcDbEntity
  8
レイヤー_2
 62
     7
100
AcDbLine
 10
2.560395
 20
3.308325
 30
0.0
 11
2.687174
 21
3.087839
 31
0.0
  0
SPLINE
  5
217
100
AcDbEntity
  8
レイヤー_2
 62
     7
100
AcDbSpline
210
0.0
220
0.0
230
1.0
 70
     8
 71
     3
 72
     8
 73
     4
 74
     0
 42
0.00000001
 43
0.00000001
 40
0.0
 40
0.0
 40
0.0
 40
0.0
 40
1.0
 40
1.0
 40
1.0
 40
1.0
 10
1.0962293836805554
 20
0.6349310980902777
 30
0.0
 10
0.737939453125
 20
0.5453586154513889
 30
0.0
 10
0.3693142361111111
 20
0.5005723741319444
 30
0.0
 10
0.0
 20
0.5005723741319444
 30
0.0
  0
SPLINE
  5
216
100
AcDbEntity
  8
レイヤー_2
 62
     7
100
AcDbSpline
210
0.0
220
0.0
230
1.0
 70
     8
 71
     3
 72
     8
 73
     4
 74
     0
 42
0.00000001
 43
0.00000001
 40
0.0
 40
0.0
 40
0.0
 40
0.0
 40
1.0
 40
1.0
 40
1.0
 40
1.0
 10
2.6871744791666665
 20
0.6349310980902777
 30
0.0
 10
2.3392198350694442
 20
0.4550971137152777
 30
0.0
 10
1.9251193576388888
 20
0.4550971137152777
 30
0.0
 10
1.5771647135416664
 20
0.6349310980902777
 30
0.0
  0
SPLINE
  5
215
100
AcDbEntity
  8
レイヤー_2
 62
     7
100
AcDbSpline
210
0.0
220
0.0
230
1.0
 70
     8
 71
     3
 72
     8
 73
     4
 74
     0
 42
0.00000001
 43
0.00000001
 40
0.0
 40
0.0
 40
0.0
 40
0.0
 40
1.0
 40
1.0
 40
1.0
 40
1.0
 10
0.0
 20
3.4922932942708331
 30
0.0
 10
0.4016981336805555
 20
3.4922932942708331
 30
0.0
 10
0.7903049045138888
 20
3.348977322048611
 30
0.0
 10
1.0962293836805554
 20
3.0878390842013888
 30
0.0
  0
SPLINE
  5
214
100
AcDbEntity
  8
レイヤー_2
 62
     7
100
AcDbSpline
210
0.0
220
0.0
230
1.0
 70
     8
 71
     3
 72
    11
 73
     7
 74
     0
 42
0.00000001
 43
0.00000001
 40
0.0
 40
0.0
 40
0.0
 40
0.0
 40
1.0
 40
1.0
 40
1.0
 40
2.0
 40
2.0
 40
2.0
 40
2.0
 10
1.5771647135416664
 20
3.0878390842013888
 30
0.0
 10
1.6729383680555554
 20
3.3944525824652776
 30
0.0
 10
1.9988444010416664
 20
3.5653293185763886
 30
0.0
 10
2.3054578993055554
 20
3.4695556640624998
 30
0.0
 10
2.403298611111111
 20
3.4392388237847218
 30
0.0
 10
2.490804036458333
 20
3.3834282769097217
 30
0.0
 10
2.5603949652777773
 20
3.3083251953124999
 30
0.0
  0
SPLINE
  5
213
100
AcDbEntity
  8
レイヤー_2
 62
     7
100
AcDbSpline
210
0.0
220
0.0
230
1.0
 70
     8
 71
     3
 72
     8
 73
     4
 74
     0
 42
0.00000001
 43
0.00000001
 40
0.0
 40
0.0
 40
0.0
 40
0.0
 40
1.0
 40
1.0
 40
1.0
 40
1.0
 10
0.0
 20
0.5005723741319444
 30
0.0
 10
-0.3693142361111111
 20
0.5005723741319444
 30
0.0
 10
-0.737939453125
 20
0.5453586154513889
 30
0.0
 10
-1.0962293836805554
 20
0.6349310980902777
 30
0.0
  0
SPLINE
  5
212
100
AcDbEntity
  8
レイヤー_2
 62
     7
100
AcDbSpline
210
0.0
220
0.0
230
1.0
 70
     8
 71
     3
 72
     8
 73
     4
 74
     0
 42
0.00000001
 43
0.00000001
 40
0.0
 40
0.0
 40
0.0
 40
0.0
 40
1.0
 40
1.0
 40
1.0
 40
1.0
 10
-1.5771647135416664
 20
0.6349310980902777
 30
0.0
 10
-1.9251193576388888
 20
0.4550971137152777
 30
0.0
 10
-2.3392198350694442
 20
0.4550971137152777
 30
0.0
 10
-2.6878634982638885
 20
0.6349310980902777
 30
0.0
  0
SPLINE
  5
211
100
AcDbEntity
  8
レイヤー_2
 62
     7
100
AcDbSpline
210
0.0
220
0.0
230
1.0
 70
     8
 71
     3
 72
     8
 73
     4
 74
     0
 42
0.00000001
 43
0.00000001
 40
0.0
 40
0.0
 40
0.0
 40
0.0
 40
1.0
 40
1.0
 40
1.0
 40
1.0
 10
-1.0962293836805554
 20
3.0878390842013888
 30
0.0
 10
-0.7909939236111111
 20
3.348977322048611
 30
0.0
 10
-0.4016981336805555
 20
3.4922932942708331
 30
0.0
 10
0.0
 20
3.4922932942708331
 30
0.0
  0
SPLINE
  5
210
100
AcDbEntity
  8
レイヤー_2
 62
     7
100
AcDbSpline
210
0.0
220
0.0
230
1.0
 70
     8
 71
     3
 72
    11
 73
     7
 74
     0
 42
0.00000001
 43
0.00000001
 40
0.0
 40
0.0
 40
0.0
 40
0.0
 40
1.0
 40
1.0
 40
1.0
 40
2.0
 40
2.0
 40
2.0
 40
2.0
 10
-2.6878634982638885
 20
3.0878390842013888
 30
0.0
 10
-2.5920898437499997
 20
3.3944525824652776
 30
0.0
 10
-2.2654947916666663
 20
3.5653293185763886
 30
0.0
 10
-1.9588812934027775
 20
3.4695556640624998
 30
0.0
 10
-1.7769802517361108
 20
3.4123670789930554
 30
0.0
 10
-1.6343532986111109
 20
3.2697401258680552
 30
0.0
 10
-1.5771647135416664
 20
3.0878390842013888
 30
0.0
  0
LINE
  5
20F
100
AcDbEntity
  8
レイヤー_2
 62
     7
100
AcDbLine
 10
2.775369
 20
-6.131925
 30
0.0
 11
3.037885
 21
-5.990677
 31
0.0
  0
LINE
  5
20E
100
AcDbEntity
  8
レイヤー_2
 62
     7
100
AcDbLine
 10
-3.037885
 20
-5.990677
 30
0.0
 11
-2.775369
 21
-6.131925
 31
0.0
  0
LINE
  5
20D
100
AcDbEntity
  8
レイヤー_2
 62
     7
100
AcDbLine
 10
3.037885
 20
-1.31706
 30
0.0
 11
2.775369
 21
-1.1765
 31
0.0
  0
LINE
  5
20C
100
AcDbEntity
  8
レイヤー_2
 62
     7
100
AcDbLine
 10
-2.775369
 20
-1.1765
 30
0.0
 11
-3.037885
 21
-1.31706
 31
0.0
  0
LINE
  5
20B
100
AcDbEntity
  8
レイヤー_2
 62
     7
100
AcDbLine
 10
2.687174
 20
-6.341387
 30
0.0
 11
-2.687863
 21
-6.341387
 31
0.0
  0
LINE
  5
20A
100
AcDbEntity
  8
レイヤー_2
 62
     7
100
AcDbLine
 10
1.844504
 20
-5.990677
 30
0.0
 11
1.168576
 21
-5.990677
 31
0.0
  0
LINE
  5
209
100
AcDbEntity
  8
レイヤー_2
 62
     7
100
AcDbLine
 10
-1.168576
 20
-5.990677
 30
0.0
 11
-1.844504
 21
-5.990677
 31
0.0
  0
LINE
  5
208
100
AcDbEntity
  8
レイヤー_2
 62
     7
100
AcDbLine
 10
-3.037885
 20
-5.990677
 30
0.0
 11
-2.687863
 21
-6.341387
 31
0.0
  0
LINE
  5
207
100
AcDbEntity
  8
レイヤー_2
 62
     7
100
AcDbLine
 10
3.037885
 20
-5.990677
 30
0.0
 11
2.687174
 21
-6.341387
 31
0.0
  0
LINE
  5
206
100
AcDbEntity
  8
レイヤー_2
 62
     7
100
AcDbLine
 10
-2.687863
 20
-0.966349
 30
0.0
 11
2.687174
 21
-0.966349
 31
0.0
  0
LINE
  5
205
100
AcDbEntity
  8
レイヤー_2
 62
     7
100
AcDbLine
 10
-2.687863
 20
-0.966349
 30
0.0
 11
-3.037885
 21
-1.31706
 31
0.0
  0
LINE
  5
204
100
AcDbEntity
  8
レイヤー_2
 62
     7
100
AcDbLine
 10
-1.844504
 20
-1.31706
 30
0.0
 11
-1.168576
 21
-1.31706
 31
0.0
  0
LINE
  5
203
100
AcDbEntity
  8
レイヤー_2
 62
     7
100
AcDbLine
 10
1.168576
 20
-1.31706
 30
0.0
 11
1.844504
 21
-1.31706
 31
0.0
  0
LINE
  5
202
100
AcDbEntity
  8
レイヤー_2
 62
     7
100
AcDbLine
 10
2.687174
 20
-0.966349
 30
0.0
 11
3.037885
 21
-1.31706
 31
0.0
  0
LINE
  5
201
100
AcDbEntity
  8
レイヤー_2
 62
     7
100
AcDbLine
 10
3.037885
 20
-5.990677
 30
0.0
 11
3.037885
 21
-1.31706
 31
0.0
  0
LINE
  5
200
100
AcDbEntity
  8
レイヤー_2
 62
     7
100
AcDbLine
 10
1.844504
 20
-5.990677
 30
0.0
 11
1.844504
 21
-1.31706
 31
0.0
  0
LINE
  5
1FF
100
AcDbEntity
  8
レイヤー_2
 62
     7
100
AcDbLine
 10
1.168576
 20
-5.990677
 30
0.0
 11
1.168576
 21
-1.31706
 31
0.0
  0
LINE
  5
1FE
100
AcDbEntity
  8
レイヤー_2
 62
     7
100
AcDbLine
 10
-1.168576
 20
-5.990677
 30
0.0
 11
-1.168576
 21
-1.31706
 31
0.0
  0
LINE
  5
1FD
100
AcDbEntity
  8
レイヤー_2
 62
     7
100
AcDbLine
 10
-1.844504
 20
-5.990677
 30
0.0
 11
-1.844504
 21
-1.31706
 31
0.0
  0
LINE
  5
1FC
100
AcDbEntity
  8
レイヤー_2
 62
     7
100
AcDbLine
 10
-3.037885
 20
-5.990677
 30
0.0
 11
-3.037885
 21
-1.31706
 31
0.0
  0
SPLINE
  5
1FB
100
AcDbEntity
  8
レイヤー_2
 62
     7
100
AcDbSpline
210
0.0
220
0.0
230
1.0
 70
     8
 71
     3
 72
     8
 73
     4
 74
     0
 42
0.00000001
 43
0.00000001
 40
0.0
 40
0.0
 40
0.0
 40
0.0
 40
1.0
 40
1.0
 40
1.0
 40
1.0
 10
2.775368923611111
 20
-6.1319254557291663
 30
0.0
 10
2.4680664062499997
 20
-6.2959120008680554
 30
0.0
 10
2.0891059027777774
 20
-6.2387234157986109
 30
0.0
 10
1.8445041232638888
 20
-5.9906765407986109
 30
0.0
  0
SPLINE
  5
1FA
100
AcDbEntity
  8
レイヤー_2
 62
     7
100
AcDbSpline
210
0.0
220
0.0
230
1.0
 70
     8
 71
     3
 72
     8
 73
     4
 74
     0
 42
0.00000001
 43
0.00000001
 40
0.0
 40
0.0
 40
0.0
 40
0.0
 40
1.0
 40
1.0
 40
1.0
 40
1.0
 10
-1.8445041232638888
 20
-5.9906765407986109
 30
0.0
 10
-2.0891059027777774
 20
-6.2387234157986109
 30
0.0
 10
-2.4680664062499997
 20
-6.2959120008680554
 30
0.0
 10
-2.775368923611111
 20
-6.1319254557291663
 30
0.0
  0
SPLINE
  5
1F9
100
AcDbEntity
  8
レイヤー_2
 62
     7
100
AcDbSpline
210
0.0
220
0.0
230
1.0
 70
     8
 71
     3
 72
     8
 73
     4
 74
     0
 42
0.00000001
 43
0.00000001
 40
0.0
 40
0.0
 40
0.0
 40
0.0
 40
1.0
 40
1.0
 40
1.0
 40
1.0
 10
1.1685763888888887
 20
-5.9906765407986109
 30
0.0
 10
0.4203016493055555
 20
-6.3028021918402768
 30
0.0
 10
-0.4209906684027777
 20
-6.3028021918402768
 30
0.0
 10
-1.1685763888888887
 20
-5.9906765407986109
 30
0.0
  0
SPLINE
  5
1F8
100
AcDbEntity
  8
レイヤー_2
 62
     7
100
AcDbSpline
210
0.0
220
0.0
230
1.0
 70
     8
 71
     3
 72
     8
 73
     4
 74
     0
 42
0.00000001
 43
0.00000001
 40
0.0
 40
0.0
 40
0.0
 40
0.0
 40
1.0
 40
1.0
 40
1.0
 40
1.0
 10
1.8445041232638888
 20
-1.3170600043402776
 30
0.0
 10
2.0891059027777774
 20
-1.0690131293402776
 30
0.0
 10
2.4680664062499997
 20
-1.0118245442708333
 30
0.0
 10
2.775368923611111
 20
-1.1765001085069444
 30
0.0
  0
SPLINE
  5
1F7
100
AcDbEntity
  8
レイヤー_2
 62
     7
100
AcDbSpline
210
0.0
220
0.0
230
1.0
 70
     8
 71
     3
 72
     8
 73
     4
 74
     0
 42
0.00000001
 43
0.00000001
 40
0.0
 40
0.0
 40
0.0
 40
0.0
 40
1.0
 40
1.0
 40
1.0
 40
1.0
 10
-2.775368923611111
 20
-1.1765001085069444
 30
0.0
 10
-2.4680664062499997
 20
-1.0118245442708333
 30
0.0
 10
-2.0891059027777774
 20
-1.0690131293402776
 30
0.0
 10
-1.8445041232638888
 20
-1.3170600043402776
 30
0.0
  0
SPLINE
  5
1F6
100
AcDbEntity
  8
レイヤー_2
 62
     7
100
AcDbSpline
210
0.0
220
0.0
230
1.0
 70
     8
 71
     3
 72
     8
 73
     4
 74
     0
 42
0.00000001
 43
0.00000001
 40
0.0
 40
0.0
 40
0.0
 40
0.0
 40
1.0
 40
1.0
 40
1.0
 40
1.0
 10
-1.1685763888888887
 20
-1.3170600043402776
 30
0.0
 10
-0.4209906684027777
 20
-1.0056233723958332
 30
0.0
 10
0.4203016493055555
 20
-1.0056233723958332
 30
0.0
 10
1.1685763888888887
 20
-1.3170600043402776
 30
0.0
  0
LINE
  5
1F5
100
AcDbEntity
  8
レイヤー_2
 62
     7
100
AcDbLine
 10
1.11001
 20
4.707034
 30
0.0
 11
1.11001
 21
6.306247
 31
0.0
  0
LINE
  5
1F4
100
AcDbEntity
  8
レイヤー_2
 62
     7
100
AcDbLine
 10
-1.11001
 20
4.707034
 30
0.0
 11
-1.11001
 21
5.907994
 31
0.0
  0
LINE
  5
1F3
100
AcDbEntity
  8
レイヤー_2
 62
     7
100
AcDbLine
 10
-1.986442
 20
-0.743796
 30
0.0
 11
-1.986442
 21
0.500572
 31
0.0
  0
LINE
  5
1F2
100
AcDbEntity
  8
レイヤー_2
 62
     7
100
AcDbLine
 10
1.986442
 20
0.500572
 30
0.0
 11
1.986442
 21
-0.743796
 31
0.0
  0
LINE
  5
1F1
100
AcDbEntity
  8
レイヤー_2
 62
     7
100
AcDbLine
 10
1.869309
 20
-0.541225
 30
0.0
 11
-1.869998
 21
-0.541225
 31
0.0
  0
ENDBLK
  5
234
100
AcDbEntity
  8
レイヤー_2
100
AcDbBlockEnd
  0
BLOCK
  5
23B
100
AcDbEntity
  8
レイヤー_2
  6
AI9-LType2
 62
     7
100
AcDbBlockBegin
  2
AI9-BLK5
 70
     0
 10
0.0
 20
0.0
 30
0.0
  3
AI9-BLK5
  1

  0
MTEXT
  5
28A
100
AcDbEntity
  8
レイヤー_2
  6
AI9-LType2
 62
     7
100
AcDbMText
 10
-3.864191
 20
-30.429224
 30
0.0
 40
4.724702
 41
0.0
 71
     1
 72
     2
  1
\fMS PGothic|b0|i0|c128;\H4.7247;\C7;\U+0047\U+0031\U+002F\U+0032
  7
STD
210
0.0
220
0.0
230
1.0
 73
     1
 44
1.0
  0
INSERT
  5
23D
100
AcDbEntity
  8
レイヤー_2
  6
AI9-LType2
 62
     7
100
AcDbBlockReference
  2
AI9-BLK6
 10
-0.178284
 20
3.65938
 30
0.0
  0
ENDBLK
  5
28B
100
AcDbEntity
  8
レイヤー_2
100
AcDbBlockEnd
  0
BLOCK
  5
23E
100
AcDbEntity
  8
レイヤー_2
  6
AI9-LType2
 62
     7
100
AcDbBlockBegin
  2
AI9-BLK6
 70
     0
 10
0.0
 20
0.0
 30
0.0
  3
AI9-BLK6
  1

  0
LINE
  5
288
100
AcDbEntity
  8
レイヤー_2
  6
AI9-LType2
 62
     7
100
AcDbLine
 10
-8.694387
 20
-23.043727
 30
0.0
 11
-8.694387
 21
32.274516
 31
0.0
  0
LINE
  5
287
100
AcDbEntity
  8
レイヤー_2
  6
AI9-LType2
 62
     7
100
AcDbLine
 10
-8.570364
 20
-22.962423
 30
0.0
 11
5.567619
 21
-11.322134
 31
0.0
  0
LINE
  5
286
100
AcDbEntity
  8
レイヤー_2
  6
AI9-LType2
 62
     7
100
AcDbLine
 10
5.567619
 20
-11.322134
 30
0.0
 11
5.567619
 21
-32.274516
 31
0.0
  0
INSERT
  5
240
100
AcDbEntity
  8
レイヤー_2
  6
AI9-LType2
 62
     7
100
AcDbBlockReference
  2
AI9-BLK7
 10
5.567963
 20
-25.232224
 30
0.0
  0
ENDBLK
  5
289
100
AcDbEntity
  8
レイヤー_2
100
AcDbBlockEnd
  0
BLOCK
  5
241
100
AcDbEntity
  8
レイヤー_2
  6
AI9-LType2
 62
     7
100
AcDbBlockBegin
  2
AI9-BLK7
 70
     0
 10
0.0
 20
0.0
 30
0.0
  3
AI9-BLK7
  1

  0
SPLINE
  5
284
100
AcDbEntity
  8
レイヤー_2
 62
     7
100
AcDbSpline
210
0.0
220
0.0
230
1.0
 70
     8
 71
     3
 72
    95
 73
    91
 74
     0
 42
0.00000001
 43
0.00000001
 40
0.0
 40
0.0
 40
0.0
 40
0.0
 40
1.0
 40
1.0
 40
1.0
 40
2.0
 40
2.0
 40
2.0
 40
3.0
 40
3.0
 40
3.0
 40
4.0
 40
4.0
 40
4.0
 40
5.0
 40
5.0
 40
5.0
 40
6.0
 40
6.0
 40
6.0
 40
7.0
 40
7.0
 40
7.0
 40
8.0
 40
8.0
 40
8.0
 40
9.0
 40
9.0
 40
9.0
 40
10.0
 40
10.0
 40
10.0
 40
11.0
 40
11.0
 40
11.0
 40
12.0
 40
12.0
 40
12.0
 40
13.0
 40
13.0
 40
13.0
 40
14.0
 40
14.0
 40
14.0
 40
15.0
 40
15.0
 40
15.0
 40
16.0
 40
16.0
 40
16.0
 40
17.0
 40
17.0
 40
17.0
 40
18.0
 40
18.0
 40
18.0
 40
19.0
 40
19.0
 40
19.0
 40
20.0
 40
20.0
 40
20.0
 40
21.0
 40
21.0
 40
21.0
 40
22.0
 40
22.0
 40
22.0
 40
23.0
 40
23.0
 40
23.0
 40
24.0
 40
24.0
 40
24.0
 40
25.0
 40
25.0
 40
25.0
 40
26.0
 40
26.0
 40
26.0
 40
27.0
 40
27.0
 40
27.0
 40
28.0
 40
28.0
 40
28.0
 40
29.0
 40
29.0
 40
29.0
 40
30.0
 40
30.0
 40
30.0
 40
30.0
 10
-1.1103542751736111
 20
6.2991848415798604
 30
0.0
 10
-1.097951931423611
 20
6.2957397460937496
 30
0.0
 10
-1.085549587673611
 20
6.292294650607638
 30
0.0
 10
-1.0731472439236109
 20
6.2888495551215273
 30
0.0
 10
-1.0607449001736111
 20
6.2854044596354157
 30
0.0
 10
-1.0483425564236111
 20
6.282648383246527
 30
0.0
 10
-1.035940212673611
 20
6.2798923068576382
 30
0.0
 10
-1.023537868923611
 20
6.2771362304687495
 30
0.0
 10
-1.0111355251736109
 20
6.2743801540798607
 30
0.0
 10
-0.998733181423611
 20
6.2723130967881939
 30
0.0
 10
-0.9863308376736111
 20
6.2702460394965271
 30
0.0
 10
-0.973928493923611
 20
6.2688680013020823
 30
0.0
 10
-0.9608371310763888
 20
6.2674899631076384
 30
0.0
 10
-0.9484347873263888
 20
6.2661119249131936
 30
0.0
 10
-0.9360324435763888
 20
6.2661119249131936
 30
0.0
 10
-0.9229410807291666
 20
6.2661119249131936
 30
0.0
 10
-0.8946912977430555
 20
6.2668009440104164
 30
0.0
 10
-0.8664415147569444
 20
6.2702460394965271
 30
0.0
 10
-0.8388807508680555
 20
6.2771362304687495
 30
0.0
 10
-0.8099419487847221
 20
6.2840264214409718
 30
0.0
 10
-0.781692165798611
 20
6.2916056315104161
 30
0.0
 10
-0.7541314019097222
 20
6.2998738606770823
 30
0.0
 10
-0.725881618923611
 20
6.3081420898437495
 30
0.0
 10
-0.6976318359374999
 20
6.3164103190104157
 30
0.0
 10
-0.6700710720486111
 20
6.3239895290798609
 30
0.0
 10
-0.6431993272569444
 20
6.3308797200520823
 30
0.0
 10
-0.6156385633680555
 20
6.3363918728298607
 30
0.0
 10
-0.5880777994791666
 20
6.3398369683159714
 30
0.0
 10
-0.5625840928819444
 20
6.3425930447048602
 30
0.0
 10
-0.5357123480902777
 20
6.3419040256076382
 30
0.0
 10
-0.5102186414930555
 20
6.3370808919270827
 30
0.0
 10
-0.4716335720486111
 20
6.3281236436631936
 30
0.0
 10
-0.4351155598958333
 20
6.3115871853298602
 30
0.0
 10
-0.4034206814236111
 20
6.2881605360243054
 30
0.0
 10
-0.3675916883680555
 20
6.2619778103298609
 30
0.0
 10
-0.3338297526041666
 20
6.2337280273437496
 30
0.0
 10
-0.3028238932291666
 20
6.2027221679687496
 30
0.0
 10
-0.2704399956597222
 20
6.1703382703993048
 30
0.0
 10
-0.2373670789930555
 20
6.1386433919270829
 30
0.0
 10
-0.2049831814236111
 20
6.1069485134548609
 30
0.0
 10
-0.1739773220486111
 20
6.0773206922743048
 30
0.0
 10
-0.1409044053819444
 20
6.0504489474826384
 30
0.0
 10
-0.1050754123263889
 20
6.0263332790798607
 30
0.0
 10
-0.0740695529513889
 20
6.0049736870659718
 30
0.0
 10
-0.0375515407986111
 20
5.9918823242187491
 30
0.0
 10
-0.0003445095486111
 20
5.9863701714409716
 30
0.0
 10
0.0368625217013889
 20
5.982236056857638
 30
0.0
 10
0.0740695529513889
 20
5.9870591905381936
 30
0.0
 10
0.1078314887152778
 20
6.002217610677083
 30
0.0
 10
0.1457275390625
 20
6.0187540690104164
 30
0.0
 10
0.1829345703125
 20
6.0359795464409718
 30
0.0
 10
0.2208306206597222
 20
6.0532050238715271
 30
0.0
 10
0.2601047092013888
 20
6.0718085394965273
 30
0.0
 10
0.2986897786458333
 20
6.0924791124131943
 30
0.0
 10
0.3358968098958333
 20
6.1152167426215271
 30
0.0
 10
0.3717258029513889
 20
6.1351982964409713
 30
0.0
 10
0.4096218532986111
 20
6.1517347547743046
 30
0.0
 10
0.4482069227430555
 20
6.1648261176215273
 30
0.0
 10
0.4826578776041666
 20
6.1765394422743052
 30
0.0
 10
0.5191758897569444
 20
6.1806735568576388
 30
0.0
 10
0.5550048828124999
 20
6.1765394422743052
 30
0.0
 10
0.5811876085069444
 20
6.1724053276909716
 30
0.0
 10
0.6066813151041666
 20
6.1634480794270825
 30
0.0
 10
0.6294189453125
 20
6.1503567165798607
 30
0.0
 10
0.6542236328125
 20
6.1358873155381941
 30
0.0
 10
0.6783393012152778
 20
6.1193508572048607
 30
0.0
 10
0.7010769314236111
 20
6.1014363606770825
 30
0.0
 10
0.7245035807291667
 20
6.0821438259548604
 30
0.0
 10
0.7486192491319443
 20
6.0621622721354163
 30
0.0
 10
0.7720458984374999
 20
6.0421807183159713
 30
0.0
 10
0.7954725477430555
 20
6.0221991644965271
 30
0.0
 10
0.8195882161458332
 20
6.002906629774305
 30
0.0
 10
0.8450819227430555
 20
5.9849921332465268
 30
0.0
 10
0.8691975911458333
 20
5.9670776367187495
 30
0.0
 10
0.8953803168402778
 20
5.9526082356770829
 30
0.0
 10
0.9229410807291666
 20
5.940894911024305
 30
0.0
 10
0.9346544053819443
 20
5.9353827582465275
 30
0.0
 10
0.9463677300347222
 20
5.9312486436631939
 30
0.0
 10
0.9587700737847221
 20
5.9284925672743052
 30
0.0
 10
0.9711724175347222
 20
5.9250474717881936
 30
0.0
 10
0.9835747612847221
 20
5.9222913953993048
 30
0.0
 10
0.9959771050347221
 20
5.9195353190104161
 30
0.0
 10
1.0083794487847222
 20
5.9174682617187493
 30
0.0
 10
1.0207817925347222
 20
5.9154012044270825
 30
0.0
 10
1.0331841362847221
 20
5.9140231662326386
 30
0.0
 10
1.0462754991319443
 20
5.9126451280381938
 30
0.0
 10
1.0586778428819443
 20
5.9119561089409718
 30
0.0
 10
1.0717692057291666
 20
5.910578070746527
 30
0.0
 10
1.0841715494791666
 20
5.909200032552083
 30
0.0
 10
1.0972629123263888
 20
5.9085110134548602
 30
0.0
 10
1.1096652560763889
 20
5.9078219943576382
 30
0.0
  0
LINE
  5
283
100
AcDbEntity
  8
レイヤー_2
 62
     7
100
AcDbLine
 10
1.986098
 20
-0.541397
 30
0.0
 11
1.869653
 21
-0.541397
 31
0.0
  0
LINE
  5
282
100
AcDbEntity
  8
レイヤー_2
 62
     7
100
AcDbLine
 10
1.869653
 20
0.525894
 30
0.0
 11
1.869653
 21
-0.541397
 31
0.0
  0
LINE
  5
281
100
AcDbEntity
  8
レイヤー_2
 62
     7
100
AcDbLine
 10
1.869653
 20
-0.541397
 30
0.0
 11
1.986098
 21
-0.743279
 31
0.0
  0
LINE
  5
280
100
AcDbEntity
  8
レイヤー_2
 62
     7
100
AcDbLine
 10
-1.869653
 20
-0.541397
 30
0.0
 11
-1.986787
 21
-0.541397
 31
0.0
  0
LINE
  5
27F
100
AcDbEntity
  8
レイヤー_2
 62
     7
100
AcDbLine
 10
-1.869653
 20
-0.541397
 30
0.0
 11
-1.869653
 21
0.525894
 31
0.0
  0
LINE
  5
27E
100
AcDbEntity
  8
レイヤー_2
 62
     7
100
AcDbLine
 10
-1.986787
 20
-0.743279
 30
0.0
 11
-1.869653
 21
-0.541397
 31
0.0
  0
LINE
  5
27D
100
AcDbEntity
  8
レイヤー_2
 62
     7
100
AcDbLine
 10
-1.096574
 20
0.635448
 30
0.0
 11
-1.57682
 21
0.635448
 31
0.0
  0
LINE
  5
27C
100
AcDbEntity
  8
レイヤー_2
 62
     7
100
AcDbLine
 10
-1.096574
 20
3.087667
 30
0.0
 11
-1.096574
 21
0.635448
 31
0.0
  0
LINE
  5
27B
100
AcDbEntity
  8
レイヤー_2
 62
     7
100
AcDbLine
 10
-1.57682
 20
3.087667
 30
0.0
 11
-1.096574
 21
3.087667
 31
0.0
  0
LINE
  5
27A
100
AcDbEntity
  8
レイヤー_2
 62
     7
100
AcDbLine
 10
-1.57682
 20
3.087667
 30
0.0
 11
-1.57682
 21
0.635448
 31
0.0
  0
LINE
  5
279
100
AcDbEntity
  8
レイヤー_2
 62
     7
100
AcDbLine
 10
-1.75252
 20
4.706862
 30
0.0
 11
-0.000345
 21
4.706862
 31
0.0
  0
LINE
  5
278
100
AcDbEntity
  8
レイヤー_2
 62
     7
100
AcDbLine
 10
-2.453942
 20
0.5004
 30
0.0
 11
-0.000345
 21
0.5004
 31
0.0
  0
LINE
  5
277
100
AcDbEntity
  8
レイヤー_2
 62
     7
100
AcDbLine
 10
-2.687519
 20
0.635448
 30
0.0
 11
-2.453942
 21
0.5004
 31
0.0
  0
LINE
  5
276
100
AcDbEntity
  8
レイヤー_2
 62
     7
100
AcDbLine
 10
-1.75252
 20
4.706862
 30
0.0
 11
-2.56005
 21
3.308842
 31
0.0
  0
LINE
  5
275
100
AcDbEntity
  8
レイヤー_2
 62
     7
100
AcDbLine
 10
-2.687519
 20
3.087667
 30
0.0
 11
-2.687519
 21
0.635448
 31
0.0
  0
LINE
  5
274
100
AcDbEntity
  8
レイヤー_2
 62
     7
100
AcDbLine
 10
1.179945
 20
4.706862
 30
0.0
 11
-0.000345
 21
4.706862
 31
0.0
  0
LINE
  5
273
100
AcDbEntity
  8
レイヤー_2
 62
     7
100
AcDbLine
 10
2.044664
 20
0.5004
 30
0.0
 11
-0.000345
 21
0.5004
 31
0.0
  0
LINE
  5
272
100
AcDbEntity
  8
レイヤー_2
 62
     7
100
AcDbLine
 10
1.57682
 20
0.635448
 30
0.0
 11
1.095885
 21
0.635448
 31
0.0
  0
LINE
  5
271
100
AcDbEntity
  8
レイヤー_2
 62
     7
100
AcDbLine
 10
1.095885
 20
0.635448
 30
0.0
 11
1.095885
 21
3.087667
 31
0.0
  0
LINE
  5
270
100
AcDbEntity
  8
レイヤー_2
 62
     7
100
AcDbLine
 10
1.095885
 20
3.087667
 30
0.0
 11
1.57682
 21
3.087667
 31
0.0
  0
LINE
  5
26F
100
AcDbEntity
  8
レイヤー_2
 62
     7
100
AcDbLine
 10
1.57682
 20
0.635448
 30
0.0
 11
1.57682
 21
3.087667
 31
0.0
  0
LINE
  5
26E
100
AcDbEntity
  8
レイヤー_2
 62
     7
100
AcDbLine
 10
-0.000345
 20
4.706862
 30
0.0
 11
1.75252
 21
4.706862
 31
0.0
  0
LINE
  5
26D
100
AcDbEntity
  8
レイヤー_2
 62
     7
100
AcDbLine
 10
-0.000345
 20
0.5004
 30
0.0
 11
2.453942
 21
0.5004
 31
0.0
  0
LINE
  5
26C
100
AcDbEntity
  8
レイヤー_2
 62
     7
100
AcDbLine
 10
2.453942
 20
0.5004
 30
0.0
 11
2.687519
 21
0.635448
 31
0.0
  0
LINE
  5
26B
100
AcDbEntity
  8
レイヤー_2
 62
     7
100
AcDbLine
 10
2.687519
 20
3.087667
 30
0.0
 11
1.75252
 21
4.706862
 31
0.0
  0
LINE
  5
26A
100
AcDbEntity
  8
レイヤー_2
 62
     7
100
AcDbLine
 10
2.687519
 20
0.635448
 30
0.0
 11
2.687519
 21
3.087667
 31
0.0
  0
LINE
  5
269
100
AcDbEntity
  8
レイヤー_2
 62
     7
100
AcDbLine
 10
-2.56005
 20
3.308842
 30
0.0
 11
-2.687519
 21
3.087667
 31
0.0
  0
SPLINE
  5
268
100
AcDbEntity
  8
レイヤー_2
 62
     7
100
AcDbSpline
210
0.0
220
0.0
230
1.0
 70
     8
 71
     3
 72
     8
 73
     4
 74
     0
 42
0.00000001
 43
0.00000001
 40
0.0
 40
0.0
 40
0.0
 40
0.0
 40
1.0
 40
1.0
 40
1.0
 40
1.0
 10
-1.0965738932291667
 20
0.6354478624131944
 30
0.0
 10
-0.7375949435763888
 20
0.5458753797743056
 30
0.0
 10
-0.3696587456597222
 20
0.5004001193576388
 30
0.0
 10
-0.0003445095486111
 20
0.5004001193576388
 30
0.0
  0
SPLINE
  5
267
100
AcDbEntity
  8
レイヤー_2
 62
     7
100
AcDbSpline
210
0.0
220
0.0
230
1.0
 70
     8
 71
     3
 72
     8
 73
     4
 74
     0
 42
0.00000001
 43
0.00000001
 40
0.0
 40
0.0
 40
0.0
 40
0.0
 40
1.0
 40
1.0
 40
1.0
 40
1.0
 10
-2.6875189887152775
 20
0.6354478624131944
 30
0.0
 10
-2.3395643446180552
 20
0.4549248589409722
 30
0.0
 10
-1.9254638671874997
 20
0.4549248589409722
 30
0.0
 10
-1.5768202039930554
 20
0.6354478624131944
 30
0.0
  0
SPLINE
  5
266
100
AcDbEntity
  8
レイヤー_2
 62
     7
100
AcDbSpline
210
0.0
220
0.0
230
1.0
 70
     8
 71
     3
 72
     8
 73
     4
 74
     0
 42
0.00000001
 43
0.00000001
 40
0.0
 40
0.0
 40
0.0
 40
0.0
 40
1.0
 40
1.0
 40
1.0
 40
1.0
 10
-0.0003445095486111
 20
3.4928100585937498
 30
0.0
 10
-0.4020426432291666
 20
3.4928100585937498
 30
0.0
 10
-0.7906494140624999
 20
3.3494940863715277
 30
0.0
 10
-1.0965738932291667
 20
3.087666829427083
 30
0.0
  0
SPLINE
  5
265
100
AcDbEntity
  8
レイヤー_2
 62
     7
100
AcDbSpline
210
0.0
220
0.0
230
1.0
 70
     8
 71
     3
 72
    11
 73
     7
 74
     0
 42
0.00000001
 43
0.00000001
 40
0.0
 40
0.0
 40
0.0
 40
0.0
 40
1.0
 40
1.0
 40
1.0
 40
2.0
 40
2.0
 40
2.0
 40
2.0
 10
-1.5768202039930554
 20
3.087666829427083
 30
0.0
 10
-1.6725938585069442
 20
3.3949693467881943
 30
0.0
 10
-1.9991889105902776
 20
3.5658460828993053
 30
0.0
 10
-2.3058024088541664
 20
3.4693834092881941
 30
0.0
 10
-2.403643120659722
 20
3.4390665690104165
 30
0.0
 10
-2.491148546006944
 20
3.3839450412326384
 30
0.0
 10
-2.5600504557291663
 20
3.3088419596354162
 30
0.0
  0
SPLINE
  5
264
100
AcDbEntity
  8
レイヤー_2
 62
     7
100
AcDbSpline
210
0.0
220
0.0
230
1.0
 70
     8
 71
     3
 72
     8
 73
     4
 74
     0
 42
0.00000001
 43
0.00000001
 40
0.0
 40
0.0
 40
0.0
 40
0.0
 40
1.0
 40
1.0
 40
1.0
 40
1.0
 10
-0.0003445095486111
 20
0.5004001193576388
 30
0.0
 10
0.3696587456597222
 20
0.5004001193576388
 30
0.0
 10
0.7375949435763888
 20
0.5458753797743056
 30
0.0
 10
1.0958848741319442
 20
0.6354478624131944
 30
0.0
  0
SPLINE
  5
263
100
AcDbEntity
  8
レイヤー_2
 62
     7
100
AcDbSpline
210
0.0
220
0.0
230
1.0
 70
     8
 71
     3
 72
     8
 73
     4
 74
     0
 42
0.00000001
 43
0.00000001
 40
0.0
 40
0.0
 40
0.0
 40
0.0
 40
1.0
 40
1.0
 40
1.0
 40
1.0
 10
1.5768202039930554
 20
0.6354478624131944
 30
0.0
 10
1.9254638671874997
 20
0.4549248589409722
 30
0.0
 10
2.3395643446180552
 20
0.4549248589409722
 30
0.0
 10
2.6875189887152775
 20
0.6354478624131944
 30
0.0
  0
SPLINE
  5
262
100
AcDbEntity
  8
レイヤー_2
 62
     7
100
AcDbSpline
210
0.0
220
0.0
230
1.0
 70
     8
 71
     3
 72
     8
 73
     4
 74
     0
 42
0.00000001
 43
0.00000001
 40
0.0
 40
0.0
 40
0.0
 40
0.0
 40
1.0
 40
1.0
 40
1.0
 40
1.0
 10
1.0958848741319442
 20
3.087666829427083
 30
0.0
 10
0.7906494140624999
 20
3.3494940863715277
 30
0.0
 10
0.4020426432291666
 20
3.4928100585937498
 30
0.0
 10
-0.0003445095486111
 20
3.4928100585937498
 30
0.0
  0
SPLINE
  5
261
100
AcDbEntity
  8
レイヤー_2
 62
     7
100
AcDbSpline
210
0.0
220
0.0
230
1.0
 70
     8
 71
     3
 72
    11
 73
     7
 74
     0
 42
0.00000001
 43
0.00000001
 40
0.0
 40
0.0
 40
0.0
 40
0.0
 40
1.0
 40
1.0
 40
1.0
 40
2.0
 40
2.0
 40
2.0
 40
2.0
 10
2.6875189887152775
 20
3.087666829427083
 30
0.0
 10
2.5917453342013888
 20
3.3949693467881943
 30
0.0
 10
2.2651502821180554
 20
3.5658460828993053
 30
0.0
 10
1.9585367838541665
 20
3.4693834092881941
 30
0.0
 10
1.7766357421874999
 20
3.4128838433159721
 30
0.0
 10
1.6340087890624999
 20
3.2702568901909719
 30
0.0
 10
1.5768202039930554
 20
3.087666829427083
 30
0.0
  0
LINE
  5
260
100
AcDbEntity
  8
レイヤー_2
 62
     7
100
AcDbLine
 10
-2.775024
 20
-6.131409
 30
0.0
 11
-3.03823
 21
-5.990849
 31
0.0
  0
LINE
  5
25F
100
AcDbEntity
  8
レイヤー_2
 62
     7
100
AcDbLine
 10
3.03823
 20
-5.990849
 30
0.0
 11
2.775024
 21
-6.131409
 31
0.0
  0
LINE
  5
25E
100
AcDbEntity
  8
レイヤー_2
 62
     7
100
AcDbLine
 10
-3.03823
 20
-1.316543
 30
0.0
 11
-2.775024
 21
-1.175983
 31
0.0
  0
LINE
  5
25D
100
AcDbEntity
  8
レイヤー_2
 62
     7
100
AcDbLine
 10
2.775024
 20
-1.175983
 30
0.0
 11
3.03823
 21
-1.316543
 31
0.0
  0
LINE
  5
25C
100
AcDbEntity
  8
レイヤー_2
 62
     7
100
AcDbLine
 10
-2.687519
 20
-6.34156
 30
0.0
 11
2.687519
 21
-6.34156
 31
0.0
  0
LINE
  5
25B
100
AcDbEntity
  8
レイヤー_2
 62
     7
100
AcDbLine
 10
-1.844849
 20
-5.990849
 30
0.0
 11
-1.168921
 21
-5.990849
 31
0.0
  0
LINE
  5
25A
100
AcDbEntity
  8
レイヤー_2
 62
     7
100
AcDbLine
 10
1.168232
 20
-5.990849
 30
0.0
 11
1.84416
 21
-5.990849
 31
0.0
  0
LINE
  5
259
100
AcDbEntity
  8
レイヤー_2
 62
     7
100
AcDbLine
 10
3.03823
 20
-5.990849
 30
0.0
 11
2.687519
 21
-6.34156
 31
0.0
  0
LINE
  5
258
100
AcDbEntity
  8
レイヤー_2
 62
     7
100
AcDbLine
 10
-3.03823
 20
-5.990849
 30
0.0
 11
-2.687519
 21
-6.34156
 31
0.0
  0
LINE
  5
257
100
AcDbEntity
  8
レイヤー_2
 62
     7
100
AcDbLine
 10
2.687519
 20
-0.965833
 30
0.0
 11
-2.687519
 21
-0.965833
 31
0.0
  0
LINE
  5
256
100
AcDbEntity
  8
レイヤー_2
 62
     7
100
AcDbLine
 10
2.687519
 20
-0.965833
 30
0.0
 11
3.03823
 21
-1.316543
 31
0.0
  0
LINE
  5
255
100
AcDbEntity
  8
レイヤー_2
 62
     7
100
AcDbLine
 10
1.84416
 20
-1.316543
 30
0.0
 11
1.168232
 21
-1.316543
 31
0.0
  0
LINE
  5
254
100
AcDbEntity
  8
レイヤー_2
 62
     7
100
AcDbLine
 10
-1.168921
 20
-1.316543
 30
0.0
 11
-1.844849
 21
-1.316543
 31
0.0
  0
LINE
  5
253
100
AcDbEntity
  8
レイヤー_2
 62
     7
100
AcDbLine
 10
-2.687519
 20
-0.965833
 30
0.0
 11
-3.03823
 21
-1.316543
 31
0.0
  0
LINE
  5
252
100
AcDbEntity
  8
レイヤー_2
 62
     7
100
AcDbLine
 10
-3.03823
 20
-5.990849
 30
0.0
 11
-3.03823
 21
-1.316543
 31
0.0
  0
LINE
  5
251
100
AcDbEntity
  8
レイヤー_2
 62
     7
100
AcDbLine
 10
-1.844849
 20
-5.990849
 30
0.0
 11
-1.844849
 21
-1.316543
 31
0.0
  0
LINE
  5
250
100
AcDbEntity
  8
レイヤー_2
 62
     7
100
AcDbLine
 10
-1.168921
 20
-5.990849
 30
0.0
 11
-1.168921
 21
-1.316543
 31
0.0
  0
LINE
  5
24F
100
AcDbEntity
  8
レイヤー_2
 62
     7
100
AcDbLine
 10
1.168232
 20
-5.990849
 30
0.0
 11
1.168232
 21
-1.316543
 31
0.0
  0
LINE
  5
24E
100
AcDbEntity
  8
レイヤー_2
 62
     7
100
AcDbLine
 10
1.84416
 20
-5.990849
 30
0.0
 11
1.84416
 21
-1.316543
 31
0.0
  0
LINE
  5
24D
100
AcDbEntity
  8
レイヤー_2
 62
     7
100
AcDbLine
 10
3.03823
 20
-5.990849
 30
0.0
 11
3.03823
 21
-1.316543
 31
0.0
  0
SPLINE
  5
24C
100
AcDbEntity
  8
レイヤー_2
 62
     7
100
AcDbSpline
210
0.0
220
0.0
230
1.0
 70
     8
 71
     3
 72
     8
 73
     4
 74
     0
 42
0.00000001
 43
0.00000001
 40
0.0
 40
0.0
 40
0.0
 40
0.0
 40
1.0
 40
1.0
 40
1.0
 40
1.0
 10
-2.7750244140624996
 20
-6.1314086914062491
 30
0.0
 10
-2.4684109157986107
 20
-6.2960842556423602
 30
0.0
 10
-2.0894504123263888
 20
-6.2388956705729157
 30
0.0
 10
-1.8448486328124998
 20
-5.9908487955729157
 30
0.0
  0
SPLINE
  5
24B
100
AcDbEntity
  8
レイヤー_2
 62
     7
100
AcDbSpline
210
0.0
220
0.0
230
1.0
 70
     8
 71
     3
 72
     8
 73
     4
 74
     0
 42
0.00000001
 43
0.00000001
 40
0.0
 40
0.0
 40
0.0
 40
0.0
 40
1.0
 40
1.0
 40
1.0
 40
1.0
 10
1.8441596137152776
 20
-5.9908487955729157
 30
0.0
 10
2.0894504123263888
 20
-6.2388956705729157
 30
0.0
 10
2.4677218967013888
 20
-6.2960842556423602
 30
0.0
 10
2.7750244140624996
 20
-6.1314086914062491
 30
0.0
  0
SPLINE
  5
24A
100
AcDbEntity
  8
レイヤー_2
 62
     7
100
AcDbSpline
210
0.0
220
0.0
230
1.0
 70
     8
 71
     3
 72
     8
 73
     4
 74
     0
 42
0.00000001
 43
0.00000001
 40
0.0
 40
0.0
 40
0.0
 40
0.0
 40
1.0
 40
1.0
 40
1.0
 40
1.0
 10
-1.1689208984374999
 20
-5.9908487955729157
 30
0.0
 10
-0.4206461588541666
 20
-6.3022854275173605
 30
0.0
 10
0.4206461588541666
 20
-6.3022854275173605
 30
0.0
 10
1.1682318793402777
 20
-5.9908487955729157
 30
0.0
  0
SPLINE
  5
249
100
AcDbEntity
  8
レイヤー_2
 62
     7
100
AcDbSpline
210
0.0
220
0.0
230
1.0
 70
     8
 71
     3
 72
     8
 73
     4
 74
     0
 42
0.00000001
 43
0.00000001
 40
0.0
 40
0.0
 40
0.0
 40
0.0
 40
1.0
 40
1.0
 40
1.0
 40
1.0
 10
-1.8448486328124998
 20
-1.3165432400173609
 30
0.0
 10
-2.0894504123263888
 20
-1.0691853841145833
 30
0.0
 10
-2.4684109157986107
 20
-1.0119967990451388
 30
0.0
 10
-2.7750244140624996
 20
-1.1759833441840277
 30
0.0
  0
SPLINE
  5
248
100
AcDbEntity
  8
レイヤー_2
 62
     7
100
AcDbSpline
210
0.0
220
0.0
230
1.0
 70
     8
 71
     3
 72
     8
 73
     4
 74
     0
 42
0.00000001
 43
0.00000001
 40
0.0
 40
0.0
 40
0.0
 40
0.0
 40
1.0
 40
1.0
 40
1.0
 40
1.0
 10
2.7750244140624996
 20
-1.1759833441840277
 30
0.0
 10
2.4677218967013888
 20
-1.0119967990451388
 30
0.0
 10
2.0894504123263888
 20
-1.0691853841145833
 30
0.0
 10
1.8441596137152776
 20
-1.3165432400173609
 30
0.0
  0
SPLINE
  5
247
100
AcDbEntity
  8
レイヤー_2
 62
     7
100
AcDbSpline
210
0.0
220
0.0
230
1.0
 70
     8
 71
     3
 72
     8
 73
     4
 74
     0
 42
0.00000001
 43
0.00000001
 40
0.0
 40
0.0
 40
0.0
 40
0.0
 40
1.0
 40
1.0
 40
1.0
 40
1.0
 10
1.1682318793402777
 20
-1.3165432400173609
 30
0.0
 10
0.4206461588541666
 20
-1.0051066080729165
 30
0.0
 10
-0.4206461588541666
 20
-1.0051066080729165
 30
0.0
 10
-1.1689208984374999
 20
-1.3165432400173609
 30
0.0
  0
LINE
  5
246
100
AcDbEntity
  8
レイヤー_2
 62
     7
100
AcDbLine
 10
-1.110354
 20
4.706862
 30
0.0
 11
-1.110354
 21
6.306764
 31
0.0
  0
LINE
  5
245
100
AcDbEntity
  8
レイヤー_2
 62
     7
100
AcDbLine
 10
1.109665
 20
4.706862
 30
0.0
 11
1.109665
 21
5.907822
 31
0.0
  0
LINE
  5
244
100
AcDbEntity
  8
レイヤー_2
 62
     7
100
AcDbLine
 10
1.986098
 20
-0.743279
 30
0.0
 11
1.986098
 21
0.5004
 31
0.0
  0
LINE
  5
243
100
AcDbEntity
  8
レイヤー_2
 62
     7
100
AcDbLine
 10
-1.986787
 20
0.5004
 30
0.0
 11
-1.986787
 21
-0.743279
 31
0.0
  0
LINE
  5
242
100
AcDbEntity
  8
レイヤー_2
 62
     7
100
AcDbLine
 10
-1.869653
 20
-0.541397
 30
0.0
 11
1.869653
 21
-0.541397
 31
0.0
  0
ENDBLK
  5
285
100
AcDbEntity
  8
レイヤー_2
100
AcDbBlockEnd
  0
ENDSEC
  0
SECTION
  2
ENTITIES
  0
MTEXT
  5
2A6
100
AcDbEntity
  8
レイヤー_1
 62
     7
100
AcDbMText
 10
47.801389
 20
54.121991
 30
0.0
 40
3.674768
 41
0.0
 71
     1
 72
     2
  1
\fOsaka|b0|i0|c128;\H3.6748;\C7;\U+0033\U+0033\U+002E\U+0038\U+0031\U+0036\U+002E\U+0038\U+0037\U+0035\U+002E\U+0058\U+0058
  7
STD
210
0.0
220
0.0
230
1.0
 73
     1
 44
1.0
  0
MTEXT
  5
2A5
100
AcDbEntity
  8
レイヤー_1
 62
     7
100
AcDbMText
 10
39.6875
 20
56.608234
 30
0.0
 40
1.574901
 41
0.0
 71
     1
 72
     2
  1
\fOsaka|b0|i0|c128;\H1.5749;\C7;\U+54C1\U+756A
  7
STD
210
0.0
220
0.0
230
1.0
 73
     1
 44
1.0
  0
MTEXT
  5
2A4
100
AcDbEntity
  8
レイヤー_1
 62
     7
100
AcDbMText
 10
47.801389
 20
32.959209
 30
0.0
 40
3.149486
 41
0.0
 71
     1
 72
     2
  1
\fOsaka|b0|i0|c128;\H3.1495;\C7;\U+FF11\U+7A74\U+578B\U+30B7\U+30F3\U+30B0\U+30EB\U+30EC\U+30D0\U+30FC\U+30AD\U+30C3\U+30C1\U+30F3\U+7528\U+6DF7\U+5408\U+6813
  7
STD
210
0.0
220
0.0
230
1.0
 73
     1
 44
1.0
  0
MTEXT
  5
2A3
100
AcDbEntity
  8
レイヤー_1
 62
     7
100
AcDbMText
 10
39.6875
 20
35.441567
 30
0.0
 40
1.574901
 41
0.0
 71
     1
 72
     2
  1
\fOsaka|b0|i0|c128;\H1.5749;\C7;\U+54C1
  7
STD
210
0.0
220
0.0
230
1.0
 73
     1
 44
1.0
  0
MTEXT
  5
2A2
100
AcDbEntity
  8
レイヤー_1
 62
     7
100
AcDbMText
 10
47.801389
 20
42.954809
 30
0.0
 40
3.149486
 41
0.0
 71
     1
 72
     2
  1
\fOsaka|b0|i0|c128;\H3.1495;\C7;\U+0054\U+0041\U+0052\U+0041\U+0020\U+0055\U+004C\U+0054\U+0052\U+0041
  7
STD
210
0.0
220
0.0
230
1.0
 73
     1
 44
1.0
  0
POLYLINE
  5
29C
100
AcDbEntity
  8
レイヤー_1
 62
     7
100
AcDb2dPolyline
 66
     1
 10
0.0
 20
0.0
 30
0.0
 70
     1
  0
VERTEX
  5
29D
100
AcDbEntity
  8
レイヤー_1
 62
     7
100
AcDbVertex
100
AcDb2dVertex
 10
23.636111
 20
26.105556
 30
0.0
  0
VERTEX
  5
29E
100
AcDbEntity
  8
レイヤー_1
 62
     7
100
AcDbVertex
100
AcDb2dVertex
 10
198.613889
 20
26.105556
 30
0.0
  0
VERTEX
  5
29F
100
AcDbEntity
  8
レイヤー_1
 62
     7
100
AcDbVertex
100
AcDb2dVertex
 10
198.613889
 20
276.577778
 30
0.0
  0
VERTEX
  5
2A0
100
AcDbEntity
  8
レイヤー_1
 62
     7
100
AcDbVertex
100
AcDb2dVertex
 10
23.636111
 20
276.577778
 30
0.0
  0
SEQEND
  5
2A1
100
AcDbEntity
  8
レイヤー_1
 62
     7
  0
LINE
  5
29B
100
AcDbEntity
  8
レイヤー_1
 62
     7
100
AcDbLine
 10
170.568056
 20
36.5125
 30
0.0
 11
27.693056
 21
36.5125
 31
0.0
  0
LINE
  5
29A
100
AcDbEntity
  8
レイヤー_1
 62
     7
100
AcDbLine
 10
170.568056
 20
47.095833
 30
0.0
 11
27.693056
 21
47.095833
 31
0.0
  0
LINE
  5
299
100
AcDbEntity
  8
レイヤー_1
 62
     7
100
AcDbLine
 10
23.636111
 20
57.855556
 30
0.0
 11
198.261111
 21
57.855556
 31
0.0
  0
LINE
  5
298
100
AcDbEntity
  8
レイヤー_1
 62
     7
100
AcDbLine
 10
170.744444
 20
57.855556
 30
0.0
 11
170.744444
 21
26.458333
 31
0.0
  0
MTEXT
  5
297
100
AcDbEntity
  8
レイヤー_1
 62
     7
100
AcDbMText
 10
33.3375
 20
46.024901
 30
0.0
 40
1.574901
 41
0.0
 71
     1
 72
     2
  1
\fOsaka|b0|i0|c128;\H1.5749;\C7;\U+30B7\U+30EA\U+30FC\U+30BA
  7
STD
210
0.0
220
0.0
230
1.0
 73
     1
 44
1.0
  0
MTEXT
  5
296
100
AcDbEntity
  8
レイヤー_1
 62
     7
100
AcDbMText
 10
174.095833
 20
54.655042
 30
0.0
 40
3.149486
 41
0.0
 71
     1
 72
     2
  1
\fHeiseiKakuGothicCAN W9|b0|i0|c128;\H3.1495;\C253;\U+5BF8\U+6CD5\U+53C2\U+8003\U+56F3
  7
STD
210
0.0
220
0.0
230
1.0
 73
     1
 44
1.0
  0
LINE
  5
295
100
AcDbEntity
  8
レイヤー_1
 62
     7
100
AcDbLine
 10
27.516667
 20
57.855556
 30
0.0
 11
27.516667
 21
26.458333
 31
0.0
  0
IMAGE
  5
292
100
AcDbEntity
  8
レイヤー_1
  6
AI9-LType2
 62
     7
 92
        0
100
AcDbRasterImage
 90
        0
 10
172.155556
 20
28.574682
 30
0.0
 11
0.352531
 21
0.0
 31
0.0
 12
0.0
 22
0.352813
 32
0.0
 13
70.0
 23
9.0
340
294
 70
     7
280
     0
281
    50
282
    50
283
     0
360
293
 71
     1
 91
        2
 14
-0.5
 24
-0.5
 14
69.5
 24
8.5
  0
IMAGE
  5
28F
100
AcDbEntity
  8
レイヤー_1
  6
AI9-LType2
 62
     7
 92
        0
100
AcDbRasterImage
 90
        0
 10
172.155556
 20
28.574682
 30
0.0
 11
0.352531
 21
0.0
 31
0.0
 12
0.0
 22
0.352813
 32
0.0
 13
70.0
 23
9.0
340
291
 70
     7
280
     0
281
    50
282
    50
283
     0
360
290
 71
     1
 91
        2
 14
-0.5
 24
-0.5
 14
69.5
 24
8.5
  0
MTEXT
  5
28E
100
AcDbEntity
  8
レイヤー_1
  6
AI9-LType2
 62
     7
100
AcDbMText
 10
113.418056
 20
46.024901
 30
0.0
 40
1.574901
 41
0.0
 71
     1
 72
     2
  1
\fOsaka|b0|i0|c128;\H1.5749;\C7;\U+4ED5\U+4E0A
  7
STD
210
0.0
220
0.0
230
1.0
 73
     1
 44
1.0
  0
MTEXT
  5
28D
100
AcDbEntity
  8
レイヤー_1
  6
AI9-LType2
 62
     7
100
AcDbMText
 10
124.765511
 20
40.968164
 30
0.0
 40
1.162842
 41
0.0
 71
     1
 72
     2
  1
\fOsaka|b0|i0|c128;\H1.1628;\W2.71;\C7;
  7
STD
210
0.0
220
0.0
230
1.0
 73
     1
 44
1.0
  0
INSERT
  5
23A
100
AcDbEntity
  8
レイヤー_2
  6
AI9-LType2
 62
     7
100
AcDbBlockReference
  2
AI9-BLK5
 10
131.169082
 20
115.551086
 30
0.0
  0
INSERT
  5
1E7
100
AcDbEntity
  8
レイヤー_2
 62
     7
100
AcDbBlockReference
  2
AI9-BLK2
 10
139.601987
 20
101.81928
 30
0.0
  0
INSERT
  5
1E1
100
AcDbEntity
  8
レイヤー_2
 62
     7
100
AcDbBlockReference
  2
AI9-BLK1
 10
162.689122
 20
94.405952
 30
0.0
  0
SPLINE
  5
1DF
100
AcDbEntity
  8
レイヤー_2
 62
     7
100
AcDbSpline
210
0.0
220
0.0
230
1.0
 70
     8
 71
     3
 72
    11
 73
     7
 74
     0
 42
0.00000001
 43
0.00000001
 40
0.0
 40
0.0
 40
0.0
 40
0.0
 40
1.0
 40
1.0
 40
1.0
 40
2.0
 40
2.0
 40
2.0
 40
2.0
 10
169.32644314236109
 20
207.59887017144095
 30
0.0
 10
168.89167209201386
 20
220.04186604817707
 30
0.0
 10
158.67489691840277
 20
229.83713378906248
 30
0.0
 10
146.28426649305555
 20
229.85056966145831
 30
0.0
 10
133.55084906684027
 20
229.85056966145831
 30
0.0
 10
123.22830946180555
 20
219.52768554687498
 30
0.0
 10
123.22830946180555
 20
206.7939236111111
 30
0.0
  0
SPLINE
  5
1DE
100
AcDbEntity
  8
レイヤー_2
 62
     7
100
AcDbSpline
210
0.0
220
0.0
230
1.0
 70
     8
 71
     3
 72
    11
 73
     7
 74
     0
 42
0.00000001
 43
0.00000001
 40
0.0
 40
0.0
 40
0.0
 40
0.0
 40
1.0
 40
1.0
 40
1.0
 40
2.0
 40
2.0
 40
2.0
 40
2.0
 10
174.21158854166666
 20
207.76905788845485
 30
0.0
 10
173.68448893229166
 20
222.85013563368054
 30
0.0
 10
161.30143771701387
 20
234.7212456597222
 30
0.0
 10
146.28426649305555
 20
234.73760986328122
 30
0.0
 10
130.8516167534722
 20
234.73760986328122
 30
0.0
 10
118.34109700520833
 20
222.22657335069442
 30
0.0
 10
118.34109700520833
 20
206.7939236111111
 30
0.0
  0
LINE
  5
1DD
100
AcDbEntity
  8
レイヤー_2
 62
     7
100
AcDbLine
 10
123.228309
 20
176.853116
 30
0.0
 11
123.228309
 21
206.793924
 31
0.0
  0
LINE
  5
1DC
100
AcDbEntity
  8
レイヤー_2
 62
     7
100
AcDbLine
 10
118.341097
 20
206.793924
 30
0.0
 11
118.341097
 21
176.853116
 31
0.0
  0
LINE
  5
1DB
100
AcDbEntity
  8
レイヤー_2
 62
     7
100
AcDbLine
 10
174.270844
 20
206.069076
 30
0.0
 11
174.211589
 21
207.769058
 31
0.0
  0
LINE
  5
1DA
100
AcDbEntity
  8
レイヤー_2
 62
     7
100
AcDbLine
 10
169.326443
 20
207.59887
 30
0.0
 11
169.386388
 21
205.898543
 31
0.0
  0
LINE
  5
1D9
100
AcDbEntity
  8
レイヤー_2
 62
     7
100
AcDbLine
 10
169.375363
 20
205.898543
 30
0.0
 11
169.500765
 21
202.288083
 31
0.0
  0
LINE
  5
1D8
100
AcDbEntity
  8
レイヤー_2
 62
     7
100
AcDbLine
 10
174.407959
 20
202.459649
 30
0.0
 11
174.281179
 21
206.069592
 31
0.0
  0
POLYLINE
  5
1CF
100
AcDbEntity
  8
レイヤー_2
 62
     7
100
AcDb2dPolyline
 66
     1
 10
0.0
 20
0.0
 30
0.0
  0
VERTEX
  5
1D0
100
AcDbEntity
  8
レイヤー_2
 62
     7
100
AcDbVertex
100
AcDb2dVertex
 10
173.203554
 20
202.417619
 30
0.0
  0
VERTEX
  5
1D1
100
AcDbEntity
  8
レイヤー_2
 62
     7
100
AcDbVertex
100
AcDb2dVertex
 10
173.550819
 20
202.429849
 30
0.0
  0
VERTEX
  5
1D2
100
AcDbEntity
  8
レイヤー_2
 62
     7
100
AcDbVertex
100
AcDb2dVertex
 10
173.850543
 20
202.43984
 30
0.0
  0
VERTEX
  5
1D3
100
AcDbEntity
  8
レイヤー_2
 62
     7
100
AcDbVertex
100
AcDb2dVertex
 10
174.091699
 20
202.448625
 30
0.0
  0
VERTEX
  5
1D4
100
AcDbEntity
  8
レイヤー_2
 62
     7
100
AcDbVertex
100
AcDb2dVertex
 10
174.268777
 20
202.454309
 30
0.0
  0
VERTEX
  5
1D5
100
AcDbEntity
  8
レイヤー_2
 62
     7
100
AcDbVertex
100
AcDb2dVertex
 10
174.374197
 20
202.458615
 30
0.0
  0
VERTEX
  5
1D6
100
AcDbEntity
  8
レイヤー_2
 62
     7
100
AcDbVertex
100
AcDb2dVertex
 10
174.407959
 20
202.459649
 30
0.0
  0
SEQEND
  5
1D7
100
AcDbEntity
  8
レイヤー_2
 62
     7
  0
POLYLINE
  5
1BF
100
AcDbEntity
  8
レイヤー_2
 62
     7
100
AcDb2dPolyline
 66
     1
 10
0.0
 20
0.0
 30
0.0
  0
VERTEX
  5
1C0
100
AcDbEntity
  8
レイヤー_2
 62
     7
100
AcDbVertex
100
AcDb2dVertex
 10
169.500765
 20
202.288083
 30
0.0
  0
VERTEX
  5
1C1
100
AcDbEntity
  8
レイヤー_2
 62
     7
100
AcDbVertex
100
AcDb2dVertex
 10
169.501454
 20
202.288083
 30
0.0
  0
VERTEX
  5
1C2
100
AcDbEntity
  8
レイヤー_2
 62
     7
100
AcDbVertex
100
AcDb2dVertex
 10
169.543484
 20
202.289461
 30
0.0
  0
VERTEX
  5
1C3
100
AcDbEntity
  8
レイヤー_2
 62
     7
100
AcDbVertex
100
AcDb2dVertex
 10
169.65855
 20
202.293768
 30
0.0
  0
VERTEX
  5
1C4
100
AcDbEntity
  8
レイヤー_2
 62
     7
100
AcDbVertex
100
AcDb2dVertex
 10
169.843207
 20
202.300313
 30
0.0
  0
VERTEX
  5
1C5
100
AcDbEntity
  8
レイヤー_2
 62
     7
100
AcDbVertex
100
AcDb2dVertex
 10
170.092632
 20
202.308926
 30
0.0
  0
VERTEX
  5
1C6
100
AcDbEntity
  8
レイヤー_2
 62
     7
100
AcDbVertex
100
AcDb2dVertex
 10
170.397868
 20
202.319778
 30
0.0
  0
VERTEX
  5
1C7
100
AcDbEntity
  8
レイヤー_2
 62
     7
100
AcDbVertex
100
AcDb2dVertex
 10
170.751335
 20
202.332008
 30
0.0
  0
VERTEX
  5
1C8
100
AcDbEntity
  8
レイヤー_2
 62
     7
100
AcDbVertex
100
AcDb2dVertex
 10
171.139941
 20
202.345616
 30
0.0
  0
VERTEX
  5
1C9
100
AcDbEntity
  8
レイヤー_2
 62
     7
100
AcDbVertex
100
AcDb2dVertex
 10
171.554042
 20
202.359913
 30
0.0
  0
VERTEX
  5
1CA
100
AcDbEntity
  8
レイヤー_2
 62
     7
100
AcDbVertex
100
AcDb2dVertex
 10
171.980545
 20
202.374727
 30
0.0
  0
VERTEX
  5
1CB
100
AcDbEntity
  8
レイヤー_2
 62
     7
100
AcDbVertex
100
AcDb2dVertex
 10
172.406359
 20
202.389541
 30
0.0
  0
VERTEX
  5
1CC
100
AcDbEntity
  8
レイヤー_2
 62
     7
100
AcDbVertex
100
AcDb2dVertex
 10
172.818392
 20
202.403838
 30
0.0
  0
VERTEX
  5
1CD
100
AcDbEntity
  8
レイヤー_2
 62
     7
100
AcDbVertex
100
AcDb2dVertex
 10
173.203554
 20
202.417619
 30
0.0
  0
SEQEND
  5
1CE
100
AcDbEntity
  8
レイヤー_2
 62
     7
  0
POLYLINE
  5
1B6
100
AcDbEntity
  8
レイヤー_2
 62
     7
100
AcDb2dPolyline
 66
     1
 10
0.0
 20
0.0
 30
0.0
  0
VERTEX
  5
1B7
100
AcDbEntity
  8
レイヤー_2
 62
     7
100
AcDbVertex
100
AcDb2dVertex
 10
173.078152
 20
206.02739
 30
0.0
  0
VERTEX
  5
1B8
100
AcDbEntity
  8
レイヤー_2
 62
     7
100
AcDbVertex
100
AcDb2dVertex
 10
173.425418
 20
206.039964
 30
0.0
  0
VERTEX
  5
1B9
100
AcDbEntity
  8
レイヤー_2
 62
     7
100
AcDbVertex
100
AcDb2dVertex
 10
173.723763
 20
206.050127
 30
0.0
  0
VERTEX
  5
1BA
100
AcDbEntity
  8
レイヤー_2
 62
     7
100
AcDbVertex
100
AcDb2dVertex
 10
173.966298
 20
206.05874
 30
0.0
  0
VERTEX
  5
1BB
100
AcDbEntity
  8
レイヤー_2
 62
     7
100
AcDbVertex
100
AcDb2dVertex
 10
174.141998
 20
206.064941
 30
0.0
  0
VERTEX
  5
1BC
100
AcDbEntity
  8
レイヤー_2
 62
     7
100
AcDbVertex
100
AcDb2dVertex
 10
174.248796
 20
206.068387
 30
0.0
  0
VERTEX
  5
1BD
100
AcDbEntity
  8
レイヤー_2
 62
     7
100
AcDbVertex
100
AcDb2dVertex
 10
174.281179
 20
206.069592
 30
0.0
  0
SEQEND
  5
1BE
100
AcDbEntity
  8
レイヤー_2
 62
     7
  0
POLYLINE
  5
1A6
100
AcDbEntity
  8
レイヤー_2
 62
     7
100
AcDb2dPolyline
 66
     1
 10
0.0
 20
0.0
 30
0.0
  0
VERTEX
  5
1A7
100
AcDbEntity
  8
レイヤー_2
 62
     7
100
AcDbVertex
100
AcDb2dVertex
 10
169.375363
 20
205.898543
 30
0.0
  0
VERTEX
  5
1A8
100
AcDbEntity
  8
レイヤー_2
 62
     7
100
AcDbVertex
100
AcDb2dVertex
 10
169.375363
 20
205.898543
 30
0.0
  0
VERTEX
  5
1A9
100
AcDbEntity
  8
レイヤー_2
 62
     7
100
AcDbVertex
100
AcDb2dVertex
 10
169.418083
 20
205.900094
 30
0.0
  0
VERTEX
  5
1AA
100
AcDbEntity
  8
レイヤー_2
 62
     7
100
AcDbVertex
100
AcDb2dVertex
 10
169.533149
 20
205.903711
 30
0.0
  0
VERTEX
  5
1AB
100
AcDbEntity
  8
レイヤー_2
 62
     7
100
AcDbVertex
100
AcDb2dVertex
 10
169.717117
 20
205.910601
 30
0.0
  0
VERTEX
  5
1AC
100
AcDbEntity
  8
レイヤー_2
 62
     7
100
AcDbVertex
100
AcDb2dVertex
 10
169.966542
 20
205.919214
 30
0.0
  0
VERTEX
  5
1AD
100
AcDbEntity
  8
レイヤー_2
 62
     7
100
AcDbVertex
100
AcDb2dVertex
 10
170.272466
 20
205.929549
 30
0.0
  0
VERTEX
  5
1AE
100
AcDbEntity
  8
レイヤー_2
 62
     7
100
AcDbVertex
100
AcDb2dVertex
 10
170.624555
 20
205.942124
 30
0.0
  0
VERTEX
  5
1AF
100
AcDbEntity
  8
レイヤー_2
 62
     7
100
AcDbVertex
100
AcDb2dVertex
 10
171.01454
 20
205.95556
 30
0.0
  0
VERTEX
  5
1B0
100
AcDbEntity
  8
レイヤー_2
 62
     7
100
AcDbVertex
100
AcDb2dVertex
 10
171.42864
 20
205.969857
 30
0.0
  0
VERTEX
  5
1B1
100
AcDbEntity
  8
レイヤー_2
 62
     7
100
AcDbVertex
100
AcDb2dVertex
 10
171.854454
 20
205.985015
 30
0.0
  0
VERTEX
  5
1B2
100
AcDbEntity
  8
レイヤー_2
 62
     7
100
AcDbVertex
100
AcDb2dVertex
 10
172.280268
 20
205.999657
 30
0.0
  0
VERTEX
  5
1B3
100
AcDbEntity
  8
レイヤー_2
 62
     7
100
AcDbVertex
100
AcDb2dVertex
 10
172.691612
 20
206.014126
 30
0.0
  0
VERTEX
  5
1B4
100
AcDbEntity
  8
レイヤー_2
 62
     7
100
AcDbVertex
100
AcDb2dVertex
 10
173.078152
 20
206.02739
 30
0.0
  0
SEQEND
  5
1B5
100
AcDbEntity
  8
レイヤー_2
 62
     7
  0
SPLINE
  5
1A5
100
AcDbEntity
  8
レイヤー_2
 62
     7
100
AcDbSpline
210
0.0
220
0.0
230
1.0
 70
     8
 71
     3
 72
     8
 73
     4
 74
     0
 42
0.00000001
 43
0.00000001
 40
0.0
 40
0.0
 40
0.0
 40
0.0
 40
1.0
 40
1.0
 40
1.0
 40
1.0
 10
120.99795464409721
 20
128.68637424045139
 30
0.0
 10
121.86336263020833
 20
128.90651584201387
 30
0.0
 10
122.64367675781249
 20
128.81728786892359
 30
0.0
 10
123.12288953993054
 20
128.60231391059025
 30
0.0
  0
LINE
  5
1A4
100
AcDbEntity
  8
レイヤー_2
 62
     7
100
AcDbLine
 10
125.778369
 20
140.91543
 30
0.0
 11
125.722559
 21
141.977897
 31
0.0
  0
LINE
  5
1A3
100
AcDbEntity
  8
レイヤー_2
 62
     7
100
AcDbLine
 10
115.846503
 20
141.977897
 30
0.0
 11
115.790693
 21
140.91543
 31
0.0
  0
SPLINE
  5
1A2
100
AcDbEntity
  8
レイヤー_2
 62
     7
100
AcDbSpline
210
0.0
220
0.0
230
1.0
 70
     8
 71
     3
 72
     8
 73
     4
 74
     0
 42
0.00000001
 43
0.00000001
 40
0.0
 40
0.0
 40
0.0
 40
0.0
 40
1.0
 40
1.0
 40
1.0
 40
1.0
 10
123.33441840277777
 20
150.67262912326387
 30
0.0
 10
123.33441840277777
 20
150.72499457465275
 30
0.0
 10
123.32890624999999
 20
150.77632649739581
 30
0.0
 10
123.31994900173611
 20
150.82145724826387
 30
0.0
  0
SPLINE
  5
1A1
100
AcDbEntity
  8
レイヤー_2
 62
     7
100
AcDbSpline
210
0.0
220
0.0
230
1.0
 70
     8
 71
     3
 72
     8
 73
     4
 74
     0
 42
0.00000001
 43
0.00000001
 40
0.0
 40
0.0
 40
0.0
 40
0.0
 40
1.0
 40
1.0
 40
1.0
 40
1.0
 10
120.79951714409721
 20
150.82145724826387
 30
0.0
 10
120.78883734809027
 20
150.76978081597221
 30
0.0
 10
120.78401421440971
 20
150.71844889322915
 30
0.0
 10
120.78504774305554
 20
150.67262912326387
 30
0.0
  0
LINE
  5
1A0
100
AcDbEntity
  8
レイヤー_2
 62
     7
100
AcDbLine
 10
123.334418
 20
149.886803
 30
0.0
 11
123.334418
 21
150.672629
 31
0.0
  0
LINE
  5
19F
100
AcDbEntity
  8
レイヤー_2
 62
     7
100
AcDbLine
 10
120.785048
 20
150.672629
 30
0.0
 11
120.785048
 21
149.886803
 31
0.0
  0
LINE
  5
19E
100
AcDbEntity
  8
レイヤー_2
 62
     7
100
AcDbLine
 10
123.122201
 20
128.603003
 30
0.0
 11
123.122201
 21
139.108822
 31
0.0
  0
LINE
  5
19D
100
AcDbEntity
  8
レイヤー_2
 62
     7
100
AcDbLine
 10
123.122201
 20
141.977897
 30
0.0
 11
123.122201
 21
149.886803
 31
0.0
  0
LINE
  5
19C
100
AcDbEntity
  8
レイヤー_2
 62
     7
100
AcDbLine
 10
120.997266
 20
149.886803
 30
0.0
 11
120.997266
 21
141.977897
 31
0.0
  0
LINE
  5
19B
100
AcDbEntity
  8
レイヤー_2
 62
     7
100
AcDbLine
 10
120.997266
 20
139.108822
 30
0.0
 11
120.997266
 21
128.686374
 31
0.0
  0
LINE
  5
19A
100
AcDbEntity
  8
レイヤー_2
 62
     7
100
AcDbLine
 10
117.203526
 20
151.246582
 30
0.0
 11
117.203526
 21
150.821457
 31
0.0
  0
LINE
  5
199
100
AcDbEntity
  8
レイヤー_2
 62
     7
100
AcDbLine
 10
124.365191
 20
150.821457
 30
0.0
 11
124.365191
 21
151.246582
 31
0.0
  0
LINE
  5
198
100
AcDbEntity
  8
レイヤー_2
 62
     7
100
AcDbLine
 10
117.915972
 20
138.726761
 30
0.0
 11
118.234299
 21
138.175201
 31
0.0
  0
LINE
  5
197
100
AcDbEntity
  8
レイヤー_2
 62
     7
100
AcDbLine
 10
120.359234
 20
138.175201
 30
0.0
 11
120.678594
 21
138.726761
 31
0.0
  0
LINE
  5
196
100
AcDbEntity
  8
レイヤー_2
 62
     7
100
AcDbLine
 10
120.678594
 20
138.726761
 30
0.0
 11
120.678594
 21
139.037164
 31
0.0
  0
LINE
  5
195
100
AcDbEntity
  8
レイヤー_2
 62
     7
100
AcDbLine
 10
117.915972
 20
139.037164
 30
0.0
 11
117.915972
 21
138.726761
 31
0.0
  0
LINE
  5
194
100
AcDbEntity
  8
レイヤー_2
 62
     7
100
AcDbLine
 10
120.678594
 20
139.037164
 30
0.0
 11
120.271384
 21
139.108822
 31
0.0
  0
LINE
  5
193
100
AcDbEntity
  8
レイヤー_2
 62
     7
100
AcDbLine
 10
118.323183
 20
139.108822
 30
0.0
 11
117.915972
 21
139.037164
 31
0.0
  0
LINE
  5
192
100
AcDbEntity
  8
レイヤー_2
 62
     7
100
AcDbLine
 10
120.359234
 20
133.201861
 30
0.0
 11
120.359234
 21
138.175201
 31
0.0
  0
LINE
  5
191
100
AcDbEntity
  8
レイヤー_2
 62
     7
100
AcDbLine
 10
118.234299
 20
138.175201
 30
0.0
 11
118.234299
 21
133.201861
 31
0.0
  0
LINE
  5
190
100
AcDbEntity
  8
レイヤー_2
 62
     7
100
AcDbLine
 10
120.687207
 20
133.197038
 30
0.0
 11
120.678594
 21
133.201861
 31
0.0
  0
LINE
  5
18F
100
AcDbEntity
  8
レイヤー_2
 62
     7
100
AcDbLine
 10
120.678594
 20
130.651801
 30
0.0
 11
120.687207
 21
130.656969
 31
0.0
  0
LINE
  5
18E
100
AcDbEntity
  8
レイヤー_2
 62
     7
100
AcDbLine
 10
117.907015
 20
130.656969
 30
0.0
 11
117.915972
 21
130.651801
 31
0.0
  0
LINE
  5
18D
100
AcDbEntity
  8
レイヤー_2
 62
     7
100
AcDbLine
 10
117.915972
 20
133.201861
 30
0.0
 11
117.907015
 21
133.197038
 31
0.0
  0
LINE
  5
18C
100
AcDbEntity
  8
レイヤー_2
 62
     7
100
AcDbLine
 10
115.047586
 20
140.490305
 30
0.0
 11
115.047586
 21
139.215275
 31
0.0
  0
SPLINE
  5
18B
100
AcDbEntity
  8
レイヤー_2
 62
     7
100
AcDbSpline
210
0.0
220
0.0
230
1.0
 70
     8
 71
     3
 72
     8
 73
     4
 74
     0
 42
0.00000001
 43
0.00000001
 40
0.0
 40
0.0
 40
0.0
 40
0.0
 40
1.0
 40
1.0
 40
1.0
 40
1.0
 10
115.15369466145832
 20
140.59675835503472
 30
0.0
 10
115.09512803819443
 20
140.59675835503472
 30
0.0
 10
115.0475857204861
 20
140.54887152777778
 30
0.0
 10
115.0475857204861
 20
140.49030490451386
 30
0.0
  0
SPLINE
  5
18A
100
AcDbEntity
  8
レイヤー_2
 62
     7
100
AcDbSpline
210
0.0
220
0.0
230
1.0
 70
     8
 71
     3
 72
     8
 73
     4
 74
     0
 42
0.00000001
 43
0.00000001
 40
0.0
 40
0.0
 40
0.0
 40
0.0
 40
1.0
 40
1.0
 40
1.0
 40
1.0
 10
115.0475857204861
 20
139.21527506510415
 30
0.0
 10
115.0475857204861
 20
139.15670844184027
 30
0.0
 10
115.09512803819443
 20
139.10882161458332
 30
0.0
 10
115.15369466145832
 20
139.10882161458332
 30
0.0
  0
SPLINE
  5
189
100
AcDbEntity
  8
レイヤー_2
 62
     7
100
AcDbSpline
210
0.0
220
0.0
230
1.0
 70
     8
 71
     3
 72
     8
 73
     4
 74
     0
 42
0.00000001
 43
0.00000001
 40
0.0
 40
0.0
 40
0.0
 40
0.0
 40
1.0
 40
1.0
 40
1.0
 40
1.0
 10
125.68121744791665
 20
140.49030490451386
 30
0.0
 10
125.68121744791665
 20
140.54887152777778
 30
0.0
 10
125.63367513020832
 20
140.59675835503472
 30
0.0
 10
125.57510850694443
 20
140.59675835503472
 30
0.0
  0
LINE
  5
188
100
AcDbEntity
  8
レイヤー_2
 62
     7
100
AcDbLine
 10
125.681217
 20
139.215275
 30
0.0
 11
125.681217
 21
140.490305
 31
0.0
  0
SPLINE
  5
187
100
AcDbEntity
  8
レイヤー_2
 62
     7
100
AcDbSpline
210
0.0
220
0.0
230
1.0
 70
     8
 71
     3
 72
     8
 73
     4
 74
     0
 42
0.00000001
 43
0.00000001
 40
0.0
 40
0.0
 40
0.0
 40
0.0
 40
1.0
 40
1.0
 40
1.0
 40
1.0
 10
125.57510850694443
 20
139.10882161458332
 30
0.0
 10
125.63367513020832
 20
139.10882161458332
 30
0.0
 10
125.68121744791665
 20
139.15670844184027
 30
0.0
 10
125.68121744791665
 20
139.21527506510415
 30
0.0
  0
LINE
  5
186
100
AcDbEntity
  8
レイヤー_2
 62
     7
100
AcDbLine
 10
125.67226
 20
140.533713
 30
0.0
 11
125.67226
 21
140.91543
 31
0.0
  0
LINE
  5
185
100
AcDbEntity
  8
レイヤー_2
 62
     7
100
AcDbLine
 10
115.472021
 20
140.91543
 30
0.0
 11
115.472021
 21
140.596758
 31
0.0
  0
SPLINE
  5
184
100
AcDbEntity
  8
レイヤー_2
 62
     7
100
AcDbSpline
210
0.0
220
0.0
230
1.0
 70
     8
 71
     3
 72
     8
 73
     4
 74
     0
 42
0.00000001
 43
0.00000001
 40
0.0
 40
0.0
 40
0.0
 40
0.0
 40
1.0
 40
1.0
 40
1.0
 40
1.0
 10
116.37945963541665
 20
151.45914442274304
 30
0.0
 10
116.45731879340276
 20
151.3240966796875
 30
0.0
 10
116.59856770833332
 20
151.24727105034719
 30
0.0
 10
116.74739583333333
 20
151.24658203125
 30
0.0
  0
SPLINE
  5
183
100
AcDbEntity
  8
レイヤー_2
 62
     7
100
AcDbSpline
210
0.0
220
0.0
230
1.0
 70
     8
 71
     3
 72
     8
 73
     4
 74
     0
 42
0.00000001
 43
0.00000001
 40
0.0
 40
0.0
 40
0.0
 40
0.0
 40
1.0
 40
1.0
 40
1.0
 40
1.0
 10
124.82201063368055
 20
151.24658203125
 30
0.0
 10
124.97841796874999
 20
151.24658203125
 30
0.0
 10
125.11553276909721
 20
151.33167588975692
 30
0.0
 10
125.18994683159721
 20
151.45914442274304
 30
0.0
  0
LINE
  5
182
100
AcDbEntity
  8
レイヤー_2
 62
     7
100
AcDbLine
 10
116.747396
 20
151.246582
 30
0.0
 11
124.822011
 21
151.246582
 31
0.0
  0
LINE
  5
181
100
AcDbEntity
  8
レイヤー_2
 62
     7
100
AcDbLine
 10
123.228309
 20
176.853116
 30
0.0
 11
123.228309
 21
207.006486
 31
0.0
  0
LINE
  5
180
100
AcDbEntity
  8
レイヤー_2
 62
     7
100
AcDbLine
 10
118.341097
 20
207.006486
 30
0.0
 11
118.341097
 21
176.853116
 31
0.0
  0
SPLINE
  5
17F
100
AcDbEntity
  8
レイヤー_2
 62
     7
100
AcDbSpline
210
0.0
220
0.0
230
1.0
 70
     8
 71
     3
 72
     8
 73
     4
 74
     0
 42
0.00000001
 43
0.00000001
 40
0.0
 40
0.0
 40
0.0
 40
0.0
 40
1.0
 40
1.0
 40
1.0
 40
1.0
 10
115.89680175781248
 20
151.48498263888888
 30
0.0
 10
115.89680175781248
 20
151.47636990017361
 30
0.0
 10
115.89783528645832
 20
151.46672363281249
 30
0.0
 10
115.89817979600693
 20
151.45914442274304
 30
0.0
  0
SPLINE
  5
17E
100
AcDbEntity
  8
レイヤー_2
 62
     7
100
AcDbSpline
210
0.0
220
0.0
230
1.0
 70
     8
 71
     3
 72
     8
 73
     4
 74
     0
 42
0.00000001
 43
0.00000001
 40
0.0
 40
0.0
 40
0.0
 40
0.0
 40
1.0
 40
1.0
 40
1.0
 40
1.0
 10
125.67157118055555
 20
151.45914442274304
 30
0.0
 10
125.67226019965277
 20
151.46879069010416
 30
0.0
 10
125.67226019965277
 20
151.47671440972221
 30
0.0
 10
125.67226019965277
 20
151.48498263888888
 30
0.0
  0
LINE
  5
17D
100
AcDbEntity
  8
レイヤー_2
 62
     7
100
AcDbLine
 10
115.896802
 20
173.538934
 30
0.0
 11
115.896802
 21
151.484983
 31
0.0
  0
LINE
  5
17C
100
AcDbEntity
  8
レイヤー_2
 62
     7
100
AcDbLine
 10
115.896802
 20
176.853116
 30
0.0
 11
115.896802
 21
175.058393
 31
0.0
  0
LINE
  5
17B
100
AcDbEntity
  8
レイヤー_2
 62
     7
100
AcDbLine
 10
125.67226
 20
151.484983
 30
0.0
 11
125.67226
 21
176.853116
 31
0.0
  0
LINE
  5
17A
100
AcDbEntity
  8
レイヤー_2
 62
     7
100
AcDbLine
 10
118.46512
 20
150.821457
 30
0.0
 11
118.46512
 21
141.977897
 31
0.0
  0
LINE
  5
179
100
AcDbEntity
  8
レイヤー_2
 62
     7
100
AcDbLine
 10
120.128757
 20
141.977897
 30
0.0
 11
120.128757
 21
150.821457
 31
0.0
  0
LINE
  5
178
100
AcDbEntity
  8
レイヤー_2
 62
     7
100
AcDbLine
 10
115.846503
 20
141.977897
 30
0.0
 11
125.722559
 21
141.977897
 31
0.0
  0
LINE
  5
177
100
AcDbEntity
  8
レイヤー_2
 62
     7
100
AcDbLine
 10
115.790693
 20
140.91543
 30
0.0
 11
125.778369
 21
140.91543
 31
0.0
  0
LINE
  5
176
100
AcDbEntity
  8
レイヤー_2
 62
     7
100
AcDbLine
 10
121.182612
 20
149.886803
 30
0.0
 11
120.785048
 21
149.886803
 31
0.0
  0
LINE
  5
175
100
AcDbEntity
  8
レイヤー_2
 62
     7
100
AcDbLine
 10
123.334418
 20
149.886803
 30
0.0
 11
121.182612
 21
149.886803
 31
0.0
  0
LINE
  5
174
100
AcDbEntity
  8
レイヤー_2
 62
     7
100
AcDbLine
 10
117.203526
 20
150.821457
 30
0.0
 11
124.365191
 21
150.821457
 31
0.0
  0
LINE
  5
173
100
AcDbEntity
  8
レイヤー_2
 62
     7
100
AcDbLine
 10
119.477289
 20
130.774791
 30
0.0
 11
118.74624
 21
130.651801
 31
0.0
  0
SPLINE
  5
172
100
AcDbEntity
  8
レイヤー_2
 62
     7
100
AcDbSpline
210
0.0
220
0.0
230
1.0
 70
     8
 71
     3
 72
    11
 73
     7
 74
     0
 42
0.00000001
 43
0.00000001
 40
0.0
 40
0.0
 40
0.0
 40
0.0
 40
1.0
 40
1.0
 40
1.0
 40
2.0
 40
2.0
 40
2.0
 40
2.0
 10
118.74624023437499
 20
130.65180121527777
 30
0.0
 10
118.72867024739583
 20
130.65180121527777
 30
0.0
 10
118.71144476996527
 20
130.65180121527777
 30
0.0
 10
118.69421929253471
 20
130.65214572482637
 30
0.0
 10
118.46512044270833
 20
130.65800238715278
 30
0.0
 10
118.24015570746526
 20
130.71656901041666
 30
0.0
 10
118.01450195312499
 20
130.77479112413192
 30
0.0
  0
LINE
  5
171
100
AcDbEntity
  8
レイヤー_2
 62
     7
100
AcDbLine
 10
118.014502
 20
130.774791
 30
0.0
 11
118.014502
 21
133.078871
 31
0.0
  0
SPLINE
  5
170
100
AcDbEntity
  8
レイヤー_2
 62
     7
100
AcDbSpline
210
0.0
220
0.0
230
1.0
 70
     8
 71
     3
 72
    11
 73
     7
 74
     0
 42
0.00000001
 43
0.00000001
 40
0.0
 40
0.0
 40
0.0
 40
0.0
 40
1.0
 40
1.0
 40
1.0
 40
2.0
 40
2.0
 40
2.0
 40
2.0
 10
118.74624023437499
 20
133.20186089409722
 30
0.0
 10
118.72867024739583
 20
133.20186089409722
 30
0.0
 10
118.71144476996527
 20
133.20186089409722
 30
0.0
 10
118.69421929253471
 20
133.20048285590278
 30
0.0
 10
118.46512044270833
 20
133.19531521267359
 30
0.0
 10
118.24015570746526
 20
133.13674858940971
 30
0.0
 10
118.01450195312499
 20
133.07887098524304
 30
0.0
  0
LINE
  5
16F
100
AcDbEntity
  8
レイヤー_2
 62
     7
100
AcDbLine
 10
119.477289
 20
133.078871
 30
0.0
 11
118.74624
 21
133.201861
 31
0.0
  0
LINE
  5
16E
100
AcDbEntity
  8
レイヤー_2
 62
     7
100
AcDbLine
 10
119.477289
 20
130.774791
 30
0.0
 11
119.477289
 21
133.078871
 31
0.0
  0
SPLINE
  5
16D
100
AcDbEntity
  8
レイヤー_2
 62
     7
100
AcDbSpline
210
0.0
220
0.0
230
1.0
 70
     8
 71
     3
 72
    11
 73
     7
 74
     0
 42
0.00000001
 43
0.00000001
 40
0.0
 40
0.0
 40
0.0
 40
0.0
 40
1.0
 40
1.0
 40
1.0
 40
2.0
 40
2.0
 40
2.0
 40
2.0
 10
120.11876627604165
 20
133.20186089409722
 30
0.0
 10
120.10360785590277
 20
133.20186089409722
 30
0.0
 10
120.08776041666665
 20
133.20186089409722
 30
0.0
 10
120.07329101562499
 20
133.20048285590278
 30
0.0
 10
119.8720974392361
 20
133.19531521267359
 30
0.0
 10
119.67469346788194
 20
133.13674858940971
 30
0.0
 10
119.47728949652776
 20
133.07887098524304
 30
0.0
  0
LINE
  5
16C
100
AcDbEntity
  8
レイヤー_2
 62
     7
100
AcDbLine
 10
120.118766
 20
133.201861
 30
0.0
 11
118.74624
 21
133.201861
 31
0.0
  0
LINE
  5
16B
100
AcDbEntity
  8
レイヤー_2
 62
     7
100
AcDbLine
 10
120.118766
 20
130.651801
 30
0.0
 11
118.74624
 21
130.651801
 31
0.0
  0
SPLINE
  5
16A
100
AcDbEntity
  8
レイヤー_2
 62
     7
100
AcDbSpline
210
0.0
220
0.0
230
1.0
 70
     8
 71
     3
 72
    11
 73
     7
 74
     0
 42
0.00000001
 43
0.00000001
 40
0.0
 40
0.0
 40
0.0
 40
0.0
 40
1.0
 40
1.0
 40
1.0
 40
2.0
 40
2.0
 40
2.0
 40
2.0
 10
120.11876627604165
 20
130.65180121527777
 30
0.0
 10
120.10360785590277
 20
130.65180121527777
 30
0.0
 10
120.08776041666665
 20
130.65180121527777
 30
0.0
 10
120.07329101562499
 20
130.65214572482637
 30
0.0
 10
119.8720974392361
 20
130.65800238715278
 30
0.0
 10
119.67469346788194
 20
130.71656901041666
 30
0.0
 10
119.47728949652776
 20
130.77479112413192
 30
0.0
  0
LINE
  5
169
100
AcDbEntity
  8
レイヤー_2
 62
     7
100
AcDbLine
 10
120.759554
 20
130.774791
 30
0.0
 11
120.118766
 21
130.651801
 31
0.0
  0
LINE
  5
168
100
AcDbEntity
  8
レイヤー_2
 62
     7
100
AcDbLine
 10
120.759554
 20
133.078871
 30
0.0
 11
120.118766
 21
133.201861
 31
0.0
  0
LINE
  5
167
100
AcDbEntity
  8
レイヤー_2
 62
     7
100
AcDbLine
 10
120.759554
 20
130.774791
 30
0.0
 11
120.759554
 21
133.078871
 31
0.0
  0
LINE
  5
166
100
AcDbEntity
  8
レイヤー_2
 62
     7
100
AcDbLine
 10
120.678594
 20
138.726761
 30
0.0
 11
117.915972
 21
138.726761
 31
0.0
  0
LINE
  5
165
100
AcDbEntity
  8
レイヤー_2
 62
     7
100
AcDbLine
 10
120.359234
 20
138.175201
 30
0.0
 11
118.234299
 21
138.175201
 31
0.0
  0
LINE
  5
164
100
AcDbEntity
  8
レイヤー_2
 62
     7
100
AcDbLine
 10
120.678594
 20
139.037164
 30
0.0
 11
117.915972
 21
139.037164
 31
0.0
  0
SPLINE
  5
163
100
AcDbEntity
  8
レイヤー_2
 62
     7
100
AcDbSpline
210
0.0
220
0.0
230
1.0
 70
     8
 71
     3
 72
    11
 73
     7
 74
     0
 42
0.00000001
 43
0.00000001
 40
0.0
 40
0.0
 40
0.0
 40
0.0
 40
1.0
 40
1.0
 40
1.0
 40
2.0
 40
2.0
 40
2.0
 40
2.0
 10
118.01450195312499
 20
133.07887098524304
 30
0.0
 10
117.99279785156249
 20
133.12675781249999
 30
0.0
 10
117.97178276909722
 20
133.17533365885416
 30
0.0
 10
117.94904513888888
 20
133.19187011718748
 30
0.0
 10
117.94904513888888
 20
133.19187011718748
 30
0.0
 10
117.92424045138888
 20
133.20186089409722
 30
0.0
 10
117.92424045138888
 20
133.20186089409722
 30
0.0
  0
LINE
  5
162
100
AcDbEntity
  8
レイヤー_2
 62
     7
100
AcDbLine
 10
118.74624
 20
133.201861
 30
0.0
 11
117.92424
 21
133.201861
 31
0.0
  0
SPLINE
  5
161
100
AcDbEntity
  8
レイヤー_2
 62
     7
100
AcDbSpline
210
0.0
220
0.0
230
1.0
 70
     8
 71
     3
 72
    11
 73
     7
 74
     0
 42
0.00000001
 43
0.00000001
 40
0.0
 40
0.0
 40
0.0
 40
0.0
 40
1.0
 40
1.0
 40
1.0
 40
2.0
 40
2.0
 40
2.0
 40
2.0
 10
118.01450195312499
 20
130.77479112413192
 30
0.0
 10
117.99279785156249
 20
130.72655978732638
 30
0.0
 10
117.97178276909722
 20
130.67798394097221
 30
0.0
 10
117.94904513888888
 20
130.66179199218749
 30
0.0
 10
117.94904513888888
 20
130.66179199218749
 30
0.0
 10
117.92424045138888
 20
130.65180121527777
 30
0.0
 10
117.92424045138888
 20
130.65180121527777
 30
0.0
  0
LINE
  5
160
100
AcDbEntity
  8
レイヤー_2
 62
     7
100
AcDbLine
 10
118.74624
 20
130.651801
 30
0.0
 11
117.92424
 21
130.651801
 31
0.0
  0
SPLINE
  5
15F
100
AcDbEntity
  8
レイヤー_2
 62
     7
100
AcDbSpline
210
0.0
220
0.0
230
1.0
 70
     8
 71
     3
 72
    11
 73
     7
 74
     0
 42
0.00000001
 43
0.00000001
 40
0.0
 40
0.0
 40
0.0
 40
0.0
 40
1.0
 40
1.0
 40
1.0
 40
2.0
 40
2.0
 40
2.0
 40
2.0
 10
120.66929253472222
 20
133.20186089409722
 30
0.0
 10
120.66929253472222
 20
133.20186089409722
 30
0.0
 10
120.6937527126736
 20
133.19187011718748
 30
0.0
 10
120.6937527126736
 20
133.19187011718748
 30
0.0
 10
120.71614583333333
 20
133.17533365885416
 30
0.0
 10
120.73819444444443
 20
133.12675781249999
 30
0.0
 10
120.75955403645833
 20
133.07887098524304
 30
0.0
  0
LINE
  5
15E
100
AcDbEntity
  8
レイヤー_2
 62
     7
100
AcDbLine
 10
120.118766
 20
133.201861
 30
0.0
 11
120.677905
 21
133.201861
 31
0.0
  0
SPLINE
  5
15D
100
AcDbEntity
  8
レイヤー_2
 62
     7
100
AcDbSpline
210
0.0
220
0.0
230
1.0
 70
     8
 71
     3
 72
    11
 73
     7
 74
     0
 42
0.00000001
 43
0.00000001
 40
0.0
 40
0.0
 40
0.0
 40
0.0
 40
1.0
 40
1.0
 40
1.0
 40
2.0
 40
2.0
 40
2.0
 40
2.0
 10
120.68720703124998
 20
130.65869140625
 30
0.0
 10
120.68720703124998
 20
130.65869140625
 30
0.0
 10
120.6937527126736
 20
130.66179199218749
 30
0.0
 10
120.6937527126736
 20
130.66179199218749
 30
0.0
 10
120.71614583333333
 20
130.67281629774305
 30
0.0
 10
120.73819444444443
 20
130.72449273003471
 30
0.0
 10
120.75955403645833
 20
130.77479112413192
 30
0.0
  0
LINE
  5
15C
100
AcDbEntity
  8
レイヤー_2
 62
     7
100
AcDbLine
 10
120.678594
 20
130.651801
 30
0.0
 11
120.118766
 21
130.651801
 31
0.0
  0
LINE
  5
15B
100
AcDbEntity
  8
レイヤー_2
 62
     7
100
AcDbLine
 10
117.92424
 20
130.651801
 30
0.0
 11
117.907015
 21
130.669716
 31
0.0
  0
LINE
  5
15A
100
AcDbEntity
  8
レイヤー_2
 62
     7
100
AcDbLine
 10
117.92424
 20
133.201861
 30
0.0
 11
117.907015
 21
133.182913
 31
0.0
  0
LINE
  5
159
100
AcDbEntity
  8
レイヤー_2
 62
     7
100
AcDbLine
 10
125.672949
 20
139.215275
 30
0.0
 11
125.672949
 21
140.490305
 31
0.0
  0
LINE
  5
158
100
AcDbEntity
  8
レイヤー_2
 62
     7
100
AcDbLine
 10
115.153695
 20
140.596758
 30
0.0
 11
125.575109
 21
140.596758
 31
0.0
  0
SPLINE
  5
157
100
AcDbEntity
  8
レイヤー_2
 62
     7
100
AcDbSpline
210
0.0
220
0.0
230
1.0
 70
     8
 71
     3
 72
     8
 73
     4
 74
     0
 42
0.00000001
 43
0.00000001
 40
0.0
 40
0.0
 40
0.0
 40
0.0
 40
1.0
 40
1.0
 40
1.0
 40
1.0
 10
125.67294921874999
 20
140.4944390190972
 30
0.0
 10
125.67294921874999
 20
140.549560546875
 30
0.0
 10
125.62988552517361
 20
140.59469129774305
 30
0.0
 10
125.57510850694443
 20
140.59675835503472
 30
0.0
  0
SPLINE
  5
156
100
AcDbEntity
  8
レイヤー_2
 62
     7
100
AcDbSpline
210
0.0
220
0.0
230
1.0
 70
     8
 71
     3
 72
     8
 73
     4
 74
     0
 42
0.00000001
 43
0.00000001
 40
0.0
 40
0.0
 40
0.0
 40
0.0
 40
1.0
 40
1.0
 40
1.0
 40
1.0
 10
125.67294921874999
 20
140.49030490451386
 30
0.0
 10
125.67294921874999
 20
140.49133843315971
 30
0.0
 10
125.67294921874999
 20
140.49340549045138
 30
0.0
 10
125.67294921874999
 20
140.4944390190972
 30
0.0
  0
SPLINE
  5
155
100
AcDbEntity
  8
レイヤー_2
 62
     7
100
AcDbSpline
210
0.0
220
0.0
230
1.0
 70
     8
 71
     3
 72
     8
 73
     4
 74
     0
 42
0.00000001
 43
0.00000001
 40
0.0
 40
0.0
 40
0.0
 40
0.0
 40
1.0
 40
1.0
 40
1.0
 40
1.0
 10
125.67294921874999
 20
139.21182996961804
 30
0.0
 10
125.67294921874999
 20
139.21286349826389
 30
0.0
 10
125.67294921874999
 20
139.21424153645833
 30
0.0
 10
125.67294921874999
 20
139.21527506510415
 30
0.0
  0
SPLINE
  5
154
100
AcDbEntity
  8
レイヤー_2
 62
     7
100
AcDbSpline
210
0.0
220
0.0
230
1.0
 70
     8
 71
     3
 72
     8
 73
     4
 74
     0
 42
0.00000001
 43
0.00000001
 40
0.0
 40
0.0
 40
0.0
 40
0.0
 40
1.0
 40
1.0
 40
1.0
 40
1.0
 10
125.57510850694443
 20
139.10882161458332
 30
0.0
 10
125.62988552517361
 20
139.11157769097221
 30
0.0
 10
125.67294921874999
 20
139.15670844184027
 30
0.0
 10
125.67294921874999
 20
139.21182996961804
 30
0.0
  0
LINE
  5
153
100
AcDbEntity
  8
レイヤー_2
 62
     7
100
AcDbLine
 10
125.575109
 20
139.108822
 30
0.0
 11
115.153695
 21
139.108822
 31
0.0
  0
LINE
  5
152
100
AcDbEntity
  8
レイヤー_2
 62
     7
100
AcDbLine
 10
115.365913
 20
140.596758
 30
0.0
 11
115.472021
 21
140.596758
 31
0.0
  0
LINE
  5
151
100
AcDbEntity
  8
レイヤー_2
 62
     7
100
AcDbLine
 10
118.981196
 20
139.108822
 30
0.0
 11
116.761865
 21
139.108822
 31
0.0
  0
LINE
  5
150
100
AcDbEntity
  8
レイヤー_2
 62
     7
100
AcDbLine
 10
120.66068
 20
139.108822
 30
0.0
 11
118.981196
 21
139.108822
 31
0.0
  0
LINE
  5
14F
100
AcDbEntity
  8
レイヤー_2
 62
     7
100
AcDbLine
 10
123.891835
 20
139.108822
 30
0.0
 11
123.122201
 21
139.108822
 31
0.0
  0
LINE
  5
14E
100
AcDbEntity
  8
レイヤー_2
 62
     7
100
AcDbLine
 10
120.997266
 20
139.108822
 30
0.0
 11
120.66068
 21
139.108822
 31
0.0
  0
LINE
  5
14D
100
AcDbEntity
  8
レイヤー_2
 62
     7
100
AcDbLine
 10
125.407677
 20
139.108822
 30
0.0
 11
124.104053
 21
139.108822
 31
0.0
  0
LINE
  5
14C
100
AcDbEntity
  8
レイヤー_2
 62
     7
100
AcDbLine
 10
124.104053
 20
139.108822
 30
0.0
 11
123.891835
 21
139.108822
 31
0.0
  0
LINE
  5
14B
100
AcDbEntity
  8
レイヤー_2
 62
     7
100
AcDbLine
 10
115.472021
 20
140.91543
 30
0.0
 11
125.67226
 21
140.91543
 31
0.0
  0
LINE
  5
14A
100
AcDbEntity
  8
レイヤー_2
 62
     7
100
AcDbLine
 10
115.89818
 20
151.459144
 30
0.0
 11
125.671571
 21
151.459144
 31
0.0
  0
SPLINE
  5
149
100
AcDbEntity
  8
レイヤー_2
 62
     7
100
AcDbSpline
210
0.0
220
0.0
230
1.0
 70
     8
 71
     3
 72
    20
 73
    16
 74
     0
 42
0.00000001
 43
0.00000001
 40
0.0
 40
0.0
 40
0.0
 40
0.0
 40
1.0
 40
1.0
 40
1.0
 40
2.0
 40
2.0
 40
2.0
 40
3.0
 40
3.0
 40
3.0
 40
4.0
 40
4.0
 40
4.0
 40
5.0
 40
5.0
 40
5.0
 40
5.0
 10
115.95709092881944
 20
174.30271131727429
 30
0.0
 10
115.95571289062499
 20
174.38866644965276
 30
0.0
 10
115.95433485243055
 20
174.47358805338541
 30
0.0
 10
115.95088975694443
 20
174.554547797309
 30
0.0
 10
115.94744466145832
 20
174.63481852213539
 30
0.0
 10
115.94055447048611
 20
174.71078287760415
 30
0.0
 10
115.9343532986111
 20
174.77744547526041
 30
0.0
 10
115.92746310763887
 20
174.84462483723956
 30
0.0
 10
115.92057291666666
 20
174.901813422309
 30
0.0
 10
115.91437174479165
 20
174.94866672092013
 30
0.0
 10
115.90748155381944
 20
174.99620903862845
 30
0.0
 10
115.90265842013888
 20
175.03358832465275
 30
0.0
 10
115.90059136284721
 20
175.04822998046873
 30
0.0
 10
115.89852430555554
 20
175.05839301215275
 30
0.0
 10
115.89852430555554
 20
175.05839301215275
 30
0.0
 10
115.89852430555554
 20
175.05839301215275
 30
0.0
  0
SPLINE
  5
148
100
AcDbEntity
  8
レイヤー_2
 62
     7
100
AcDbSpline
210
0.0
220
0.0
230
1.0
 70
     8
 71
     3
 72
    20
 73
    16
 74
     0
 42
0.00000001
 43
0.00000001
 40
0.0
 40
0.0
 40
0.0
 40
0.0
 40
1.0
 40
1.0
 40
1.0
 40
2.0
 40
2.0
 40
2.0
 40
3.0
 40
3.0
 40
3.0
 40
4.0
 40
4.0
 40
4.0
 40
5.0
 40
5.0
 40
5.0
 40
5.0
 10
115.89680175781248
 20
173.53893364800345
 30
0.0
 10
115.89680175781248
 20
173.53893364800345
 30
0.0
 10
115.89955783420137
 20
173.55391981336803
 30
0.0
 10
115.9033474392361
 20
173.57837999131942
 30
0.0
 10
115.90679253472221
 20
173.60284016927082
 30
0.0
 10
115.91299370659721
 20
173.64555935329861
 30
0.0
 10
115.91988389756943
 20
173.69792480468749
 30
0.0
 10
115.92608506944444
 20
173.75149603949652
 30
0.0
 10
115.93297526041665
 20
173.81488579644096
 30
0.0
 10
115.93917643229166
 20
173.88654378255208
 30
0.0
 10
115.94572211371526
 20
173.9588907877604
 30
0.0
 10
115.95088975694443
 20
174.03985053168401
 30
0.0
 10
115.95433485243055
 20
174.12356635199652
 30
0.0
 10
115.95571289062499
 20
174.1823052300347
 30
0.0
 10
115.95640190972222
 20
174.24276665581596
 30
0.0
 10
115.95709092881944
 20
174.30271131727429
 30
0.0
  0
LINE
  5
147
100
AcDbEntity
  8
レイヤー_2
 62
     7
100
AcDbLine
 10
120.785048
 20
176.853116
 30
0.0
 11
115.896802
 21
176.853116
 31
0.0
  0
LINE
  5
146
100
AcDbEntity
  8
レイヤー_2
 62
     7
100
AcDbLine
 10
125.67226
 20
176.853116
 30
0.0
 11
120.785048
 21
176.853116
 31
0.0
  0
LINE
  5
145
100
AcDbEntity
  8
レイヤー_2
 62
     7
100
AcDbLine
 10
121.182612
 20
150.672629
 30
0.0
 11
120.785048
 21
150.672629
 31
0.0
  0
LINE
  5
144
100
AcDbEntity
  8
レイヤー_2
 62
     7
100
AcDbLine
 10
123.334418
 20
150.672629
 30
0.0
 11
121.182612
 21
150.672629
 31
0.0
  0
LINE
  5
143
100
AcDbEntity
  8
レイヤー_2
 62
     7
100
AcDbLine
 10
125.681217
 20
140.490305
 30
0.0
 11
125.672949
 21
140.490305
 31
0.0
  0
LINE
  5
142
100
AcDbEntity
  8
レイヤー_2
 62
     7
100
AcDbLine
 10
125.681217
 20
139.215275
 30
0.0
 11
125.672949
 21
139.215275
 31
0.0
  0
LINE
  5
141
100
AcDbEntity
  8
レイヤー_2
 62
     7
100
AcDbLine
 10
65.663864
 20
205.992078
 30
0.0
 11
65.663864
 21
207.684136
 31
0.0
  0
LINE
  5
140
100
AcDbEntity
  8
レイヤー_2
 62
     7
100
AcDbLine
 10
60.776135
 20
207.684136
 30
0.0
 11
60.776135
 21
205.992078
 31
0.0
  0
SPLINE
  5
13F
100
AcDbEntity
  8
レイヤー_2
 62
     7
100
AcDbSpline
210
0.0
220
0.0
230
1.0
 70
     8
 71
     3
 72
    11
 73
     7
 74
     0
 42
0.00000001
 43
0.00000001
 40
0.0
 40
0.0
 40
0.0
 40
0.0
 40
1.0
 40
1.0
 40
1.0
 40
2.0
 40
2.0
 40
2.0
 40
2.0
 10
65.663864474826383
 20
232.29417588975693
 30
0.0
 10
65.663864474826383
 20
233.64361979166665
 30
0.0
 10
64.569529893663187
 20
234.73760986328122
 30
0.0
 10
63.220085991753464
 20
234.73760986328122
 30
0.0
 10
61.869953070746519
 20
234.73760986328122
 30
0.0
 10
60.776135253906247
 20
233.64361979166665
 30
0.0
 10
60.776135253906247
 20
232.29417588975693
 30
0.0
  0
LINE
  5
13E
100
AcDbEntity
  8
レイヤー_2
 62
     7
100
AcDbLine
 10
60.776135
 20
232.294176
 30
0.0
 11
60.776135
 21
207.684136
 31
0.0
  0
LINE
  5
13D
100
AcDbEntity
  8
レイヤー_2
 62
     7
100
AcDbLine
 10
65.663864
 20
207.684136
 30
0.0
 11
65.663864
 21
232.294176
 31
0.0
  0
LINE
  5
13C
100
AcDbEntity
  8
レイヤー_2
 62
     7
100
AcDbLine
 10
65.663864
 20
176.853116
 30
0.0
 11
65.663864
 21
202.36577
 31
0.0
  0
LINE
  5
13B
100
AcDbEntity
  8
レイヤー_2
 62
     7
100
AcDbLine
 10
60.776135
 20
202.36577
 30
0.0
 11
60.776135
 21
176.853116
 31
0.0
  0
LINE
  5
13A
100
AcDbEntity
  8
レイヤー_2
 62
     7
100
AcDbLine
 10
60.765628
 20
205.984154
 30
0.0
 11
60.765628
 21
202.373694
 31
0.0
  0
LINE
  5
139
100
AcDbEntity
  8
レイヤー_2
 62
     7
100
AcDbLine
 10
65.674372
 20
202.373694
 30
0.0
 11
65.674372
 21
205.984154
 31
0.0
  0
POLYLINE
  5
123
100
AcDbEntity
  8
レイヤー_2
 62
     7
100
AcDb2dPolyline
 66
     1
 10
0.0
 20
0.0
 30
0.0
  0
VERTEX
  5
124
100
AcDbEntity
  8
レイヤー_2
 62
     7
100
AcDbVertex
100
AcDb2dVertex
 10
65.663864
 20
205.984154
 30
0.0
  0
VERTEX
  5
125
100
AcDbEntity
  8
レイヤー_2
 62
     7
100
AcDbVertex
100
AcDb2dVertex
 10
65.661108
 20
205.987944
 30
0.0
  0
VERTEX
  5
126
100
AcDbEntity
  8
レイヤー_2
 62
     7
100
AcDbVertex
100
AcDb2dVertex
 10
65.602025
 20
206.00293
 30
0.0
  0
VERTEX
  5
127
100
AcDbEntity
  8
レイヤー_2
 62
     7
100
AcDbVertex
100
AcDb2dVertex
 10
65.466805
 20
206.017399
 30
0.0
  0
VERTEX
  5
128
100
AcDbEntity
  8
レイヤー_2
 62
     7
100
AcDbVertex
100
AcDb2dVertex
 10
65.259066
 20
206.031007
 30
0.0
  0
VERTEX
  5
129
100
AcDbEntity
  8
レイヤー_2
 62
     7
100
AcDbVertex
100
AcDb2dVertex
 10
64.986214
 20
206.042893
 30
0.0
  0
VERTEX
  5
12A
100
AcDbEntity
  8
レイヤー_2
 62
     7
100
AcDbVertex
100
AcDb2dVertex
 10
64.656519
 20
206.0534
 30
0.0
  0
VERTEX
  5
12B
100
AcDbEntity
  8
レイヤー_2
 62
     7
100
AcDbVertex
100
AcDb2dVertex
 10
64.280486
 20
206.06098
 30
0.0
  0
VERTEX
  5
12C
100
AcDbEntity
  8
レイヤー_2
 62
     7
100
AcDbVertex
100
AcDb2dVertex
 10
63.870176
 20
206.066319
 30
0.0
  0
VERTEX
  5
12D
100
AcDbEntity
  8
レイヤー_2
 62
     7
100
AcDbVertex
100
AcDb2dVertex
 10
63.43885
 20
206.069076
 30
0.0
  0
VERTEX
  5
12E
100
AcDbEntity
  8
レイヤー_2
 62
     7
100
AcDbVertex
100
AcDb2dVertex
 10
63.00115
 20
206.069076
 30
0.0
  0
VERTEX
  5
12F
100
AcDbEntity
  8
レイヤー_2
 62
     7
100
AcDbVertex
100
AcDb2dVertex
 10
62.56948
 20
206.066319
 30
0.0
  0
VERTEX
  5
130
100
AcDbEntity
  8
レイヤー_2
 62
     7
100
AcDbVertex
100
AcDb2dVertex
 10
62.159858
 20
206.06098
 30
0.0
  0
VERTEX
  5
131
100
AcDbEntity
  8
レイヤー_2
 62
     7
100
AcDbVertex
100
AcDb2dVertex
 10
61.783481
 20
206.0534
 30
0.0
  0
VERTEX
  5
132
100
AcDbEntity
  8
レイヤー_2
 62
     7
100
AcDbVertex
100
AcDb2dVertex
 10
61.453786
 20
206.042893
 30
0.0
  0
VERTEX
  5
133
100
AcDbEntity
  8
レイヤー_2
 62
     7
100
AcDbVertex
100
AcDb2dVertex
 10
61.180589
 20
206.031007
 30
0.0
  0
VERTEX
  5
134
100
AcDbEntity
  8
レイヤー_2
 62
     7
100
AcDbVertex
100
AcDb2dVertex
 10
60.97285
 20
206.017399
 30
0.0
  0
VERTEX
  5
135
100
AcDbEntity
  8
レイヤー_2
 62
     7
100
AcDbVertex
100
AcDb2dVertex
 10
60.83763
 20
206.00293
 30
0.0
  0
VERTEX
  5
136
100
AcDbEntity
  8
レイヤー_2
 62
     7
100
AcDbVertex
100
AcDb2dVertex
 10
60.778547
 20
205.987944
 30
0.0
  0
VERTEX
  5
137
100
AcDbEntity
  8
レイヤー_2
 62
     7
100
AcDbVertex
100
AcDb2dVertex
 10
60.776135
 20
205.984154
 30
0.0
  0
SEQEND
  5
138
100
AcDbEntity
  8
レイヤー_2
 62
     7
  0
POLYLINE
  5
FC
100
AcDbEntity
  8
レイヤー_2
 62
     7
100
AcDb2dPolyline
 66
     1
 10
0.0
 20
0.0
 30
0.0
  0
VERTEX
  5
FD
100
AcDbEntity
  8
レイヤー_2
 62
     7
100
AcDbVertex
100
AcDb2dVertex
 10
61.107553
 20
202.417619
 30
0.0
  0
VERTEX
  5
FE
100
AcDbEntity
  8
レイヤー_2
 62
     7
100
AcDbVertex
100
AcDb2dVertex
 10
61.356806
 20
202.429849
 30
0.0
  0
VERTEX
  5
FF
100
AcDbEntity
  8
レイヤー_2
 62
     7
100
AcDbVertex
100
AcDb2dVertex
 10
61.662214
 20
202.43984
 30
0.0
  0
VERTEX
  5
100
100
AcDbEntity
  8
レイヤー_2
 62
     7
100
AcDbVertex
100
AcDb2dVertex
 10
62.015681
 20
202.448625
 30
0.0
  0
VERTEX
  5
101
100
AcDbEntity
  8
レイヤー_2
 62
     7
100
AcDbVertex
100
AcDb2dVertex
 10
62.405149
 20
202.454309
 30
0.0
  0
VERTEX
  5
102
100
AcDbEntity
  8
レイヤー_2
 62
     7
100
AcDbVertex
100
AcDb2dVertex
 10
62.819249
 20
202.458615
 30
0.0
  0
VERTEX
  5
103
100
AcDbEntity
  8
レイヤー_2
 62
     7
100
AcDbVertex
100
AcDb2dVertex
 10
63.246441
 20
202.459649
 30
0.0
  0
VERTEX
  5
104
100
AcDbEntity
  8
レイヤー_2
 62
     7
100
AcDbVertex
100
AcDb2dVertex
 10
63.67191
 20
202.457926
 30
0.0
  0
VERTEX
  5
105
100
AcDbEntity
  8
レイヤー_2
 62
     7
100
AcDbVertex
100
AcDb2dVertex
 10
64.084288
 20
202.453448
 30
0.0
  0
VERTEX
  5
106
100
AcDbEntity
  8
レイヤー_2
 62
     7
100
AcDbVertex
100
AcDb2dVertex
 10
64.469622
 20
202.447763
 30
0.0
  0
VERTEX
  5
107
100
AcDbEntity
  8
レイヤー_2
 62
     7
100
AcDbVertex
100
AcDb2dVertex
 10
64.817232
 20
202.438806
 30
0.0
  0
VERTEX
  5
108
100
AcDbEntity
  8
レイヤー_2
 62
     7
100
AcDbVertex
100
AcDb2dVertex
 10
65.117128
 20
202.428299
 30
0.0
  0
VERTEX
  5
109
100
AcDbEntity
  8
レイヤー_2
 62
     7
100
AcDbVertex
100
AcDb2dVertex
 10
65.358629
 20
202.415724
 30
0.0
  0
VERTEX
  5
10A
100
AcDbEntity
  8
レイヤー_2
 62
     7
100
AcDbVertex
100
AcDb2dVertex
 10
65.53519
 20
202.40246
 30
0.0
  0
VERTEX
  5
10B
100
AcDbEntity
  8
レイヤー_2
 62
     7
100
AcDbVertex
100
AcDb2dVertex
 10
65.640955
 20
202.387819
 30
0.0
  0
VERTEX
  5
10C
100
AcDbEntity
  8
レイヤー_2
 62
     7
100
AcDbVertex
100
AcDb2dVertex
 10
65.673855
 20
202.373005
 30
0.0
  0
VERTEX
  5
10D
100
AcDbEntity
  8
レイヤー_2
 62
     7
100
AcDbVertex
100
AcDb2dVertex
 10
65.632514
 20
202.357846
 30
0.0
  0
VERTEX
  5
10E
100
AcDbEntity
  8
レイヤー_2
 62
     7
100
AcDbVertex
100
AcDb2dVertex
 10
65.517103
 20
202.343377
 30
0.0
  0
VERTEX
  5
10F
100
AcDbEntity
  8
レイヤー_2
 62
     7
100
AcDbVertex
100
AcDb2dVertex
 10
65.332102
 20
202.329769
 30
0.0
  0
VERTEX
  5
110
100
AcDbEntity
  8
レイヤー_2
 62
     7
100
AcDbVertex
100
AcDb2dVertex
 10
65.082849
 20
202.318228
 30
0.0
  0
VERTEX
  5
111
100
AcDbEntity
  8
レイヤー_2
 62
     7
100
AcDbVertex
100
AcDb2dVertex
 10
64.777441
 20
202.307548
 30
0.0
  0
VERTEX
  5
112
100
AcDbEntity
  8
レイヤー_2
 62
     7
100
AcDbVertex
100
AcDb2dVertex
 10
64.424491
 20
202.29928
 30
0.0
  0
VERTEX
  5
113
100
AcDbEntity
  8
レイヤー_2
 62
     7
100
AcDbVertex
100
AcDb2dVertex
 10
64.034507
 20
202.293079
 30
0.0
  0
VERTEX
  5
114
100
AcDbEntity
  8
レイヤー_2
 62
     7
100
AcDbVertex
100
AcDb2dVertex
 10
63.619889
 20
202.289461
 30
0.0
  0
VERTEX
  5
115
100
AcDbEntity
  8
レイヤー_2
 62
     7
100
AcDbVertex
100
AcDb2dVertex
 10
63.193559
 20
202.288083
 30
0.0
  0
VERTEX
  5
116
100
AcDbEntity
  8
レイヤー_2
 62
     7
100
AcDbVertex
100
AcDb2dVertex
 10
62.7674
 20
202.289461
 30
0.0
  0
VERTEX
  5
117
100
AcDbEntity
  8
レイヤー_2
 62
     7
100
AcDbVertex
100
AcDb2dVertex
 10
62.355367
 20
202.293768
 30
0.0
  0
VERTEX
  5
118
100
AcDbEntity
  8
レイヤー_2
 62
     7
100
AcDbVertex
100
AcDb2dVertex
 10
61.970033
 20
202.300313
 30
0.0
  0
VERTEX
  5
119
100
AcDbEntity
  8
レイヤー_2
 62
     7
100
AcDbVertex
100
AcDb2dVertex
 10
61.622423
 20
202.308926
 30
0.0
  0
VERTEX
  5
11A
100
AcDbEntity
  8
レイヤー_2
 62
     7
100
AcDbVertex
100
AcDb2dVertex
 10
61.323216
 20
202.319434
 30
0.0
  0
VERTEX
  5
11B
100
AcDbEntity
  8
レイヤー_2
 62
     7
100
AcDbVertex
100
AcDb2dVertex
 10
61.081198
 20
202.332008
 30
0.0
  0
VERTEX
  5
11C
100
AcDbEntity
  8
レイヤー_2
 62
     7
100
AcDbVertex
100
AcDb2dVertex
 10
60.904982
 20
202.345616
 30
0.0
  0
VERTEX
  5
11D
100
AcDbEntity
  8
レイヤー_2
 62
     7
100
AcDbVertex
100
AcDb2dVertex
 10
60.798356
 20
202.359913
 30
0.0
  0
VERTEX
  5
11E
100
AcDbEntity
  8
レイヤー_2
 62
     7
100
AcDbVertex
100
AcDb2dVertex
 10
60.765628
 20
202.374727
 30
0.0
  0
VERTEX
  5
11F
100
AcDbEntity
  8
レイヤー_2
 62
     7
100
AcDbVertex
100
AcDb2dVertex
 10
60.807486
 20
202.389541
 30
0.0
  0
VERTEX
  5
120
100
AcDbEntity
  8
レイヤー_2
 62
     7
100
AcDbVertex
100
AcDb2dVertex
 10
60.922896
 20
202.403838
 30
0.0
  0
VERTEX
  5
121
100
AcDbEntity
  8
レイヤー_2
 62
     7
100
AcDbVertex
100
AcDb2dVertex
 10
61.107553
 20
202.417619
 30
0.0
  0
SEQEND
  5
122
100
AcDbEntity
  8
レイヤー_2
 62
     7
  0
SPLINE
  5
FB
100
AcDbEntity
  8
レイヤー_2
 62
     7
100
AcDbSpline
210
0.0
220
0.0
230
1.0
 70
     8
 71
     3
 72
     8
 73
     4
 74
     0
 42
0.00000001
 43
0.00000001
 40
0.0
 40
0.0
 40
0.0
 40
0.0
 40
1.0
 40
1.0
 40
1.0
 40
1.0
 10
65.6738552517361
 20
205.98415391710068
 30
0.0
 10
64.072574869791666
 20
206.11300048828124
 30
0.0
 10
62.48869222005208
 20
206.12281901041663
 30
0.0
 10
61.107036675347217
 20
206.02738986545137
 30
0.0
  0
SPLINE
  5
FA
100
AcDbEntity
  8
レイヤー_2
 62
     7
100
AcDbSpline
210
0.0
220
0.0
230
1.0
 70
     8
 71
     3
 72
     8
 73
     4
 74
     0
 42
0.00000001
 43
0.00000001
 40
0.0
 40
0.0
 40
0.0
 40
0.0
 40
1.0
 40
1.0
 40
1.0
 40
1.0
 10
61.107553439670134
 20
206.02738986545137
 30
0.0
 10
60.985769314236109
 20
206.04117024739583
 30
0.0
 10
60.867774793836801
 20
206.02394476996525
 30
0.0
 10
60.765627712673606
 20
205.98415391710068
 30
0.0
  0
SPLINE
  5
F9
100
AcDbEntity
  8
レイヤー_2
 62
     7
100
AcDbSpline
210
0.0
220
0.0
230
1.0
 70
     8
 71
     3
 72
     8
 73
     4
 74
     0
 42
0.00000001
 43
0.00000001
 40
0.0
 40
0.0
 40
0.0
 40
0.0
 40
1.0
 40
1.0
 40
1.0
 40
1.0
 10
68.193598090277774
 20
172.05358072916664
 30
0.0
 10
68.193598090277774
 20
172.05358072916664
 30
0.0
 10
65.07165256076388
 20
168.8799587673611
 30
0.0
 10
64.972089301215277
 20
167.60837402343748
 30
0.0
  0
SPLINE
  5
F8
100
AcDbEntity
  8
レイヤー_2
 62
     7
100
AcDbSpline
210
0.0
220
0.0
230
1.0
 70
     8
 71
     3
 72
     8
 73
     4
 74
     0
 42
0.00000001
 43
0.00000001
 40
0.0
 40
0.0
 40
0.0
 40
0.0
 40
1.0
 40
1.0
 40
1.0
 40
1.0
 10
68.10488688151041
 20
162.81349012586804
 30
0.0
 10
68.10488688151041
 20
162.81349012586804
 30
0.0
 10
64.585032823350687
 20
166.25686306423609
 30
0.0
 10
64.972089301215277
 20
167.60837402343748
 30
0.0
  0
LINE
  5
F7
100
AcDbEntity
  8
レイヤー_2
 62
     7
100
AcDbLine
 10
68.21358
 20
140.91543
 30
0.0
 11
68.158114
 21
141.977897
 31
0.0
  0
LINE
  5
F6
100
AcDbEntity
  8
レイヤー_2
 62
     7
100
AcDbLine
 10
58.281714
 20
141.977897
 30
0.0
 11
58.22642
 21
140.91543
 31
0.0
  0
LINE
  5
F5
100
AcDbEntity
  8
レイヤー_2
 62
     7
100
AcDbLine
 10
68.152601
 20
141.977897
 30
0.0
 11
68.158114
 21
141.977897
 31
0.0
  0
LINE
  5
F4
100
AcDbEntity
  8
レイヤー_2
 62
     7
100
AcDbLine
 10
58.281714
 20
141.977897
 30
0.0
 11
68.152601
 21
141.977897
 31
0.0
  0
LINE
  5
F3
100
AcDbEntity
  8
レイヤー_2
 62
     7
100
AcDbLine
 10
68.207723
 20
140.91543
 30
0.0
 11
68.21358
 21
140.91543
 31
0.0
  0
LINE
  5
F2
100
AcDbEntity
  8
レイヤー_2
 62
     7
100
AcDbLine
 10
58.22642
 20
140.91543
 30
0.0
 11
68.207723
 21
140.91543
 31
0.0
  0
SPLINE
  5
F1
100
AcDbEntity
  8
レイヤー_2
 62
     7
100
AcDbSpline
210
0.0
220
0.0
230
1.0
 70
     8
 71
     3
 72
    14
 73
    10
 74
     0
 42
0.00000001
 43
0.00000001
 40
0.0
 40
0.0
 40
0.0
 40
0.0
 40
1.0
 40
1.0
 40
1.0
 40
2.0
 40
2.0
 40
2.0
 40
3.0
 40
3.0
 40
3.0
 40
3.0
 10
60.671576605902771
 20
128.73839518229167
 30
0.0
 10
61.016775173611109
 20
128.66053602430554
 30
0.0
 10
61.28480360243055
 20
128.52927788628472
 30
0.0
 10
61.437938096788187
 20
128.37597113715276
 30
0.0
 10
61.847387695312491
 20
127.96634928385416
 30
0.0
 10
63.483980305989576
 20
127.71037868923609
 30
0.0
 10
63.995576985677076
 20
128.06901312934028
 30
0.0
 10
64.332679578993051
 20
128.30500217013889
 30
0.0
 10
65.158985731336799
 20
128.38527289496525
 30
0.0
 10
65.771006944444437
 20
128.31016981336805
 30
0.0
  0
LINE
  5
F0
100
AcDbEntity
  8
レイヤー_2
 62
     7
100
AcDbLine
 10
63.007524
 20
149.886803
 30
0.0
 11
63.007524
 21
150.672629
 31
0.0
  0
LINE
  5
EF
100
AcDbEntity
  8
レイヤー_2
 62
     7
100
AcDbLine
 10
60.457292
 20
150.672629
 30
0.0
 11
60.457292
 21
149.886803
 31
0.0
  0
SPLINE
  5
EE
100
AcDbEntity
  8
レイヤー_2
 62
     7
100
AcDbSpline
210
0.0
220
0.0
230
1.0
 70
     8
 71
     3
 72
     8
 73
     4
 74
     0
 42
0.00000001
 43
0.00000001
 40
0.0
 40
0.0
 40
0.0
 40
0.0
 40
1.0
 40
1.0
 40
1.0
 40
1.0
 10
63.007523600260413
 20
150.67262912326387
 30
0.0
 10
63.007523600260413
 20
150.72499457465275
 30
0.0
 10
63.001666937934019
 20
150.77632649739581
 30
0.0
 10
62.992365180121524
 20
150.82145724826387
 30
0.0
  0
SPLINE
  5
ED
100
AcDbEntity
  8
レイヤー_2
 62
     7
100
AcDbSpline
210
0.0
220
0.0
230
1.0
 70
     8
 71
     3
 72
     8
 73
     4
 74
     0
 42
0.00000001
 43
0.00000001
 40
0.0
 40
0.0
 40
0.0
 40
0.0
 40
1.0
 40
1.0
 40
1.0
 40
1.0
 10
60.472450086805551
 20
150.82145724826387
 30
0.0
 10
60.461598036024299
 20
150.76978081597221
 30
0.0
 10
60.457291666666663
 20
150.71844889322915
 30
0.0
 10
60.457291666666663
 20
150.67262912326387
 30
0.0
  0
LINE
  5
EC
100
AcDbEntity
  8
レイヤー_2
 62
     7
100
AcDbLine
 10
62.795306
 20
127.920185
 30
0.0
 11
62.795306
 21
140.172323
 31
0.0
  0
LINE
  5
EB
100
AcDbEntity
  8
レイヤー_2
 62
     7
100
AcDbLine
 10
62.795306
 20
141.977897
 30
0.0
 11
62.795306
 21
149.886803
 31
0.0
  0
LINE
  5
EA
100
AcDbEntity
  8
レイヤー_2
 62
     7
100
AcDbLine
 10
60.669854
 20
149.886803
 30
0.0
 11
60.669854
 21
141.977897
 31
0.0
  0
LINE
  5
E9
100
AcDbEntity
  8
レイヤー_2
 62
     7
100
AcDbLine
 10
60.669854
 20
139.108822
 30
0.0
 11
60.669854
 21
128.738395
 31
0.0
  0
SPLINE
  5
E8
100
AcDbEntity
  8
レイヤー_2
 62
     7
100
AcDbSpline
210
0.0
220
0.0
230
1.0
 70
     8
 71
     3
 72
     8
 73
     4
 74
     0
 42
0.00000001
 43
0.00000001
 40
0.0
 40
0.0
 40
0.0
 40
0.0
 40
1.0
 40
1.0
 40
1.0
 40
1.0
 10
65.982191297743043
 20
150.67262912326387
 30
0.0
 10
65.982191297743043
 20
150.72947319878472
 30
0.0
 10
65.97564561631944
 20
150.78631727430553
 30
0.0
 10
65.964276801215277
 20
150.8348931206597
 30
0.0
  0
SPLINE
  5
E7
100
AcDbEntity
  8
レイヤー_2
 62
     7
100
AcDbSpline
210
0.0
220
0.0
230
1.0
 70
     8
 71
     3
 72
     8
 73
     4
 74
     0
 42
0.00000001
 43
0.00000001
 40
0.0
 40
0.0
 40
0.0
 40
0.0
 40
1.0
 40
1.0
 40
1.0
 40
1.0
 10
63.447979058159717
 20
150.82145724826387
 30
0.0
 10
63.436782497829853
 20
150.76978081597221
 30
0.0
 10
63.431614854600689
 20
150.71844889322915
 30
0.0
 10
63.432648383246523
 20
150.67262912326387
 30
0.0
  0
LINE
  5
E6
100
AcDbEntity
  8
レイヤー_2
 62
     7
100
AcDbLine
 10
65.982191
 20
149.886803
 30
0.0
 11
65.982191
 21
150.672629
 31
0.0
  0
LINE
  5
E5
100
AcDbEntity
  8
レイヤー_2
 62
     7
100
AcDbLine
 10
63.432648
 20
150.672629
 30
0.0
 11
63.432648
 21
149.886803
 31
0.0
  0
LINE
  5
E4
100
AcDbEntity
  8
レイヤー_2
 62
     7
100
AcDbLine
 10
65.769801
 20
128.31017
 30
0.0
 11
65.769801
 21
139.108822
 31
0.0
  0
LINE
  5
E3
100
AcDbEntity
  8
レイヤー_2
 62
     7
100
AcDbLine
 10
65.769801
 20
141.977897
 30
0.0
 11
65.769801
 21
149.886803
 31
0.0
  0
LINE
  5
E2
100
AcDbEntity
  8
レイヤー_2
 62
     7
100
AcDbLine
 10
63.644694
 20
149.886803
 30
0.0
 11
63.644694
 21
141.977897
 31
0.0
  0
LINE
  5
E1
100
AcDbEntity
  8
レイヤー_2
 62
     7
100
AcDbLine
 10
63.644694
 20
140.277743
 30
0.0
 11
63.644694
 21
127.936721
 31
0.0
  0
LINE
  5
E0
100
AcDbEntity
  8
レイヤー_2
 62
     7
100
AcDbLine
 10
59.639426
 20
151.246582
 30
0.0
 11
59.639426
 21
150.821457
 31
0.0
  0
LINE
  5
DF
100
AcDbEntity
  8
レイヤー_2
 62
     7
100
AcDbLine
 10
66.800229
 20
150.821457
 30
0.0
 11
66.800229
 21
151.246582
 31
0.0
  0
LINE
  5
DE
100
AcDbEntity
  8
レイヤー_2
 62
     7
100
AcDbLine
 10
66.513253
 20
138.726761
 30
0.0
 11
66.513253
 21
139.037164
 31
0.0
  0
LINE
  5
DD
100
AcDbEntity
  8
レイヤー_2
 62
     7
100
AcDbLine
 10
66.513253
 20
139.037164
 30
0.0
 11
66.106215
 21
139.108822
 31
0.0
  0
LINE
  5
DC
100
AcDbEntity
  8
レイヤー_2
 62
     7
100
AcDbLine
 10
66.194754
 20
138.175201
 30
0.0
 11
66.513253
 21
138.726761
 31
0.0
  0
LINE
  5
DB
100
AcDbEntity
  8
レイヤー_2
 62
     7
100
AcDbLine
 10
66.194754
 20
133.201861
 30
0.0
 11
66.194754
 21
138.175201
 31
0.0
  0
LINE
  5
DA
100
AcDbEntity
  8
レイヤー_2
 62
     7
100
AcDbLine
 10
63.644694
 20
133.140194
 30
0.0
 11
63.616616
 21
133.123657
 31
0.0
  0
LINE
  5
D9
100
AcDbEntity
  8
レイヤー_2
 62
     7
100
AcDbLine
 10
63.616616
 20
130.72966
 30
0.0
 11
63.644694
 21
130.712779
 31
0.0
  0
LINE
  5
D8
100
AcDbEntity
  8
レイヤー_2
 62
     7
100
AcDbLine
 10
66.648301
 20
133.123657
 30
0.0
 11
66.513253
 21
133.201861
 31
0.0
  0
LINE
  5
D7
100
AcDbEntity
  8
レイヤー_2
 62
     7
100
AcDbLine
 10
66.513253
 20
130.651801
 30
0.0
 11
66.648301
 21
130.72966
 31
0.0
  0
LINE
  5
D6
100
AcDbEntity
  8
レイヤー_2
 62
     7
100
AcDbLine
 10
68.756354
 20
139.215275
 30
0.0
 11
68.756354
 21
140.490305
 31
0.0
  0
LINE
  5
D5
100
AcDbEntity
  8
レイヤー_2
 62
     7
100
AcDbLine
 10
57.7069
 20
140.490305
 30
0.0
 11
57.7069
 21
139.215275
 31
0.0
  0
SPLINE
  5
D4
100
AcDbEntity
  8
レイヤー_2
 62
     7
100
AcDbSpline
210
0.0
220
0.0
230
1.0
 70
     8
 71
     3
 72
     8
 73
     4
 74
     0
 42
0.00000001
 43
0.00000001
 40
0.0
 40
0.0
 40
0.0
 40
0.0
 40
1.0
 40
1.0
 40
1.0
 40
1.0
 10
57.813008626302079
 20
140.59675835503472
 30
0.0
 10
57.754614257812491
 20
140.59675835503472
 30
0.0
 10
57.706899685329859
 20
140.54887152777778
 30
0.0
 10
57.706899685329859
 20
140.49030490451386
 30
0.0
  0
SPLINE
  5
D3
100
AcDbEntity
  8
レイヤー_2
 62
     7
100
AcDbSpline
210
0.0
220
0.0
230
1.0
 70
     8
 71
     3
 72
     8
 73
     4
 74
     0
 42
0.00000001
 43
0.00000001
 40
0.0
 40
0.0
 40
0.0
 40
0.0
 40
1.0
 40
1.0
 40
1.0
 40
1.0
 10
68.756354437934021
 20
140.49030490451386
 30
0.0
 10
68.756354437934021
 20
140.54887152777778
 30
0.0
 10
68.708984375
 20
140.59675835503472
 30
0.0
 10
68.650762261284711
 20
140.59675835503472
 30
0.0
  0
SPLINE
  5
D2
100
AcDbEntity
  8
レイヤー_2
 62
     7
100
AcDbSpline
210
0.0
220
0.0
230
1.0
 70
     8
 71
     3
 72
     8
 73
     4
 74
     0
 42
0.00000001
 43
0.00000001
 40
0.0
 40
0.0
 40
0.0
 40
0.0
 40
1.0
 40
1.0
 40
1.0
 40
1.0
 10
57.706899685329859
 20
139.21527506510415
 30
0.0
 10
57.706899685329859
 20
139.15670844184027
 30
0.0
 10
57.754614257812491
 20
139.10882161458332
 30
0.0
 10
57.813008626302079
 20
139.10882161458332
 30
0.0
  0
SPLINE
  5
D1
100
AcDbEntity
  8
レイヤー_2
 62
     7
100
AcDbSpline
210
0.0
220
0.0
230
1.0
 70
     8
 71
     3
 72
     8
 73
     4
 74
     0
 42
0.00000001
 43
0.00000001
 40
0.0
 40
0.0
 40
0.0
 40
0.0
 40
1.0
 40
1.0
 40
1.0
 40
1.0
 10
68.650762261284711
 20
139.10882161458332
 30
0.0
 10
68.708984375
 20
139.10882161458332
 30
0.0
 10
68.756354437934021
 20
139.15670844184027
 30
0.0
 10
68.756354437934021
 20
139.21527506510415
 30
0.0
  0
SPLINE
  5
D0
100
AcDbEntity
  8
レイヤー_2
 62
     7
100
AcDbSpline
210
0.0
220
0.0
230
1.0
 70
     8
 71
     3
 72
     8
 73
     4
 74
     0
 42
0.00000001
 43
0.00000001
 40
0.0
 40
0.0
 40
0.0
 40
0.0
 40
1.0
 40
1.0
 40
1.0
 40
1.0
 10
61.256037055121524
 20
140.49030490451386
 30
0.0
 10
61.256037055121524
 20
140.54887152777778
 30
0.0
 10
61.208666992187496
 20
140.59675835503472
 30
0.0
 10
61.150100368923603
 20
140.59675835503472
 30
0.0
  0
LINE
  5
CF
100
AcDbEntity
  8
レイヤー_2
 62
     7
100
AcDbLine
 10
61.256037
 20
139.215275
 30
0.0
 11
61.256037
 21
140.490305
 31
0.0
  0
LINE
  5
CE
100
AcDbEntity
  8
レイヤー_2
 62
     7
100
AcDbLine
 10
65.525372
 20
140.490305
 30
0.0
 11
65.525372
 21
140.216075
 31
0.0
  0
SPLINE
  5
CD
100
AcDbEntity
  8
レイヤー_2
 62
     7
100
AcDbSpline
210
0.0
220
0.0
230
1.0
 70
     8
 71
     3
 72
     8
 73
     4
 74
     0
 42
0.00000001
 43
0.00000001
 40
0.0
 40
0.0
 40
0.0
 40
0.0
 40
1.0
 40
1.0
 40
1.0
 40
1.0
 10
65.631308322482639
 20
140.59675835503472
 30
0.0
 10
65.572741699218739
 20
140.59675835503472
 30
0.0
 10
65.525371636284717
 20
140.54887152777778
 30
0.0
 10
65.525371636284717
 20
140.49030490451386
 30
0.0
  0
LINE
  5
CC
100
AcDbEntity
  8
レイヤー_2
 62
     7
100
AcDbLine
 10
65.292139
 20
140.172323
 30
0.0
 11
65.292139
 21
139.215275
 31
0.0
  0
SPLINE
  5
CB
100
AcDbEntity
  8
レイヤー_2
 62
     7
100
AcDbSpline
210
0.0
220
0.0
230
1.0
 70
     8
 71
     3
 72
     8
 73
     4
 74
     0
 42
0.00000001
 43
0.00000001
 40
0.0
 40
0.0
 40
0.0
 40
0.0
 40
1.0
 40
1.0
 40
1.0
 40
1.0
 10
65.39910888671875
 20
140.27774251302083
 30
0.0
 10
65.340197753906239
 20
140.27774251302083
 30
0.0
 10
65.292138671874994
 20
140.23020019531248
 30
0.0
 10
65.292138671874994
 20
140.17232259114581
 30
0.0
  0
SPLINE
  5
CA
100
AcDbEntity
  8
レイヤー_2
 62
     7
100
AcDbSpline
210
0.0
220
0.0
230
1.0
 70
     8
 71
     3
 72
     8
 73
     4
 74
     0
 42
0.00000001
 43
0.00000001
 40
0.0
 40
0.0
 40
0.0
 40
0.0
 40
1.0
 40
1.0
 40
1.0
 40
1.0
 10
65.292138671874994
 20
139.21527506510415
 30
0.0
 10
65.292138671874994
 20
139.15670844184027
 30
0.0
 10
65.340197753906239
 20
139.10882161458332
 30
0.0
 10
65.39910888671875
 20
139.10882161458332
 30
0.0
  0
LINE
  5
C9
100
AcDbEntity
  8
レイヤー_2
 62
     7
100
AcDbLine
 10
68.332091
 20
140.596758
 30
0.0
 11
68.332091
 21
140.91543
 31
0.0
  0
LINE
  5
C8
100
AcDbEntity
  8
レイヤー_2
 62
     7
100
AcDbLine
 10
58.131508
 20
140.91543
 30
0.0
 11
58.131508
 21
140.596758
 31
0.0
  0
SPLINE
  5
C7
100
AcDbEntity
  8
レイヤー_2
 62
     7
100
AcDbSpline
210
0.0
220
0.0
230
1.0
 70
     8
 71
     3
 72
     8
 73
     4
 74
     0
 42
0.00000001
 43
0.00000001
 40
0.0
 40
0.0
 40
0.0
 40
0.0
 40
1.0
 40
1.0
 40
1.0
 40
1.0
 10
58.814153374565969
 20
151.45914442274304
 30
0.0
 10
58.892357042100691
 20
151.3240966796875
 30
0.0
 10
59.034122721354159
 20
151.24727105034719
 30
0.0
 10
59.182261827256937
 20
151.24658203125
 30
0.0
  0
SPLINE
  5
C6
100
AcDbEntity
  8
レイヤー_2
 62
     7
100
AcDbSpline
210
0.0
220
0.0
230
1.0
 70
     8
 71
     3
 72
     8
 73
     4
 74
     0
 42
0.00000001
 43
0.00000001
 40
0.0
 40
0.0
 40
0.0
 40
0.0
 40
1.0
 40
1.0
 40
1.0
 40
1.0
 10
67.257393391927081
 20
151.24658203125
 30
0.0
 10
67.413456217447916
 20
151.24658203125
 30
0.0
 10
67.550571017795136
 20
151.33167588975692
 30
0.0
 10
67.625501844618043
 20
151.45914442274304
 30
0.0
  0
LINE
  5
C5
100
AcDbEntity
  8
レイヤー_2
 62
     7
100
AcDbLine
 10
59.182262
 20
151.246582
 30
0.0
 11
67.257393
 21
151.246582
 31
0.0
  0
LINE
  5
C4
100
AcDbEntity
  8
レイヤー_2
 62
     7
100
AcDbLine
 10
76.950514
 20
162.879636
 30
0.0
 11
77.937706
 21
162.893761
 31
0.0
  0
LINE
  5
C3
100
AcDbEntity
  8
レイヤー_2
 62
     7
100
AcDbLine
 10
75.375933
 20
162.857932
 30
0.0
 11
75.858763
 21
162.865167
 31
0.0
  0
LINE
  5
C2
100
AcDbEntity
  8
レイヤー_2
 62
     7
100
AcDbLine
 10
73.532463
 20
171.960908
 30
0.0
 11
73.282521
 21
171.964697
 31
0.0
  0
SPLINE
  5
C1
100
AcDbEntity
  8
レイヤー_2
 62
     7
100
AcDbSpline
210
0.0
220
0.0
230
1.0
 70
     8
 71
     3
 72
     8
 73
     4
 74
     0
 42
0.00000001
 43
0.00000001
 40
0.0
 40
0.0
 40
0.0
 40
0.0
 40
1.0
 40
1.0
 40
1.0
 40
1.0
 10
75.317366536458323
 20
162.89444986979166
 30
0.0
 10
75.328218587239576
 20
162.87171223958333
 30
0.0
 10
75.350956217447916
 20
162.85793185763887
 30
0.0
 10
75.375933159722209
 20
162.85793185763887
 30
0.0
  0
SPLINE
  5
C0
100
AcDbEntity
  8
レイヤー_2
 62
     7
100
AcDbSpline
210
0.0
220
0.0
230
1.0
 70
     8
 71
     3
 72
     8
 73
     4
 74
     0
 42
0.00000001
 43
0.00000001
 40
0.0
 40
0.0
 40
0.0
 40
0.0
 40
1.0
 40
1.0
 40
1.0
 40
1.0
 10
78.105654568142356
 20
163.07187228732639
 30
0.0
 10
78.105654568142356
 20
163.07841796874999
 30
0.0
 10
78.105654568142356
 20
163.08461914062499
 30
0.0
 10
78.10479329427082
 20
163.09047580295137
 30
0.0
  0
SPLINE
  5
BF
100
AcDbEntity
  8
レイヤー_2
 62
     7
100
AcDbSpline
210
0.0
220
0.0
230
1.0
 70
     8
 71
     3
 72
     8
 73
     4
 74
     0
 42
0.00000001
 43
0.00000001
 40
0.0
 40
0.0
 40
0.0
 40
0.0
 40
1.0
 40
1.0
 40
1.0
 40
1.0
 10
77.937878417968747
 20
162.89686143663192
 30
0.0
 10
78.031929524739581
 20
162.90030653211804
 30
0.0
 10
78.105654568142356
 20
162.97816569010416
 30
0.0
 10
78.105654568142356
 20
163.07187228732639
 30
0.0
  0
SPLINE
  5
BE
100
AcDbEntity
  8
レイヤー_2
 62
     7
100
AcDbSpline
210
0.0
220
0.0
230
1.0
 70
     8
 71
     3
 72
    11
 73
     7
 74
     0
 42
0.00000001
 43
0.00000001
 40
0.0
 40
0.0
 40
0.0
 40
0.0
 40
1.0
 40
1.0
 40
1.0
 40
2.0
 40
2.0
 40
2.0
 40
2.0
 10
73.282520887586799
 20
171.96469726562498
 30
0.0
 10
73.282520887586799
 20
171.96469726562498
 30
0.0
 10
73.281831868489576
 20
171.96469726562498
 30
0.0
 10
73.281831868489576
 20
171.96469726562498
 30
0.0
 10
73.24651963975694
 20
171.96469726562498
 30
0.0
 10
73.217753092447907
 20
171.93575846354165
 30
0.0
 10
73.217753092447907
 20
171.90096299913193
 30
0.0
  0
LINE
  5
BD
100
AcDbEntity
  8
レイヤー_2
 62
     7
100
AcDbLine
 10
78.105655
 20
163.07704
 30
0.0
 11
78.105655
 21
187.980429
 31
0.0
  0
SPLINE
  5
BC
100
AcDbEntity
  8
レイヤー_2
 62
     7
100
AcDbSpline
210
0.0
220
0.0
230
1.0
 70
     8
 71
     3
 72
    11
 73
     7
 74
     0
 42
0.00000001
 43
0.00000001
 40
0.0
 40
0.0
 40
0.0
 40
0.0
 40
1.0
 40
1.0
 40
1.0
 40
2.0
 40
2.0
 40
2.0
 40
2.0
 10
73.532462565104154
 20
171.96090766059027
 30
0.0
 10
73.534012858072913
 20
171.96090766059027
 30
0.0
 10
73.535390896267359
 20
171.96090766059027
 30
0.0
 10
73.536596679687491
 20
171.96090766059027
 30
0.0
 10
73.712985568576386
 20
171.96090766059027
 30
0.0
 10
73.855784776475687
 20
172.10387912326388
 30
0.0
 10
73.855784776475687
 20
172.27975124782984
 30
0.0
  0
SPLINE
  5
BB
100
AcDbEntity
  8
レイヤー_2
 62
     7
100
AcDbSpline
210
0.0
220
0.0
230
1.0
 70
     8
 71
     3
 72
     8
 73
     4
 74
     0
 42
0.00000001
 43
0.00000001
 40
0.0
 40
0.0
 40
0.0
 40
0.0
 40
1.0
 40
1.0
 40
1.0
 40
1.0
 10
78.105654568142356
 20
187.98042941623262
 30
0.0
 10
78.105482313368043
 20
188.07327473958333
 30
0.0
 10
78.030723741319434
 20
188.14872233072916
 30
0.0
 10
77.938222927517359
 20
188.1502726236979
 30
0.0
  0
LINE
  5
BA
100
AcDbEntity
  8
レイヤー_2
 62
     7
100
AcDbLine
 10
72.782293
 20
163.412248
 30
0.0
 11
73.334542
 21
163.412248
 31
0.0
  0
LINE
  5
B9
100
AcDbEntity
  8
レイヤー_2
 62
     7
100
AcDbLine
 10
73.217753
 20
171.38127
 30
0.0
 11
72.782293
 21
171.38127
 31
0.0
  0
SPLINE
  5
B8
100
AcDbEntity
  8
レイヤー_2
 62
     7
100
AcDbSpline
210
0.0
220
0.0
230
1.0
 70
     8
 71
     3
 72
     8
 73
     4
 74
     0
 42
0.00000001
 43
0.00000001
 40
0.0
 40
0.0
 40
0.0
 40
0.0
 40
1.0
 40
1.0
 40
1.0
 40
1.0
 10
73.334541829427081
 20
163.41224772135416
 30
0.0
 10
73.908839246961804
 20
163.41224772135416
 30
0.0
 10
74.454714626736106
 20
163.53385959201387
 30
0.0
 10
74.922558593749997
 20
163.74194335937497
 30
0.0
  0
SPLINE
  5
B7
100
AcDbEntity
  8
レイヤー_2
 62
     7
100
AcDbSpline
210
0.0
220
0.0
230
1.0
 70
     8
 71
     3
 72
    14
 73
    10
 74
     0
 42
0.00000001
 43
0.00000001
 40
0.0
 40
0.0
 40
0.0
 40
0.0
 40
1.0
 40
1.0
 40
1.0
 40
2.0
 40
2.0
 40
2.0
 40
3.0
 40
3.0
 40
3.0
 40
3.0
 10
68.419940863715269
 20
162.82692599826387
 30
0.0
 10
68.418562825520823
 20
162.82830403645832
 30
0.0
 10
68.4178738064236
 20
162.82830403645832
 30
0.0
 10
68.416668023003467
 20
162.82830403645832
 30
0.0
 10
68.247858344184024
 20
162.82830403645832
 30
0.0
 10
68.11022677951388
 20
162.69015570746527
 30
0.0
 10
68.11022677951388
 20
162.52134602864581
 30
0.0
 10
68.11022677951388
 20
162.51962348090277
 30
0.0
 10
68.11022677951388
 20
162.51824544270832
 30
0.0
 10
68.111088053385416
 20
162.51652289496528
 30
0.0
  0
SPLINE
  5
B6
100
AcDbEntity
  8
レイヤー_2
 62
     7
100
AcDbSpline
210
0.0
220
0.0
230
1.0
 70
     8
 71
     3
 72
    14
 73
    10
 74
     0
 42
0.00000001
 43
0.00000001
 40
0.0
 40
0.0
 40
0.0
 40
0.0
 40
1.0
 40
1.0
 40
1.0
 40
2.0
 40
2.0
 40
2.0
 40
3.0
 40
3.0
 40
3.0
 40
3.0
 10
68.108331976996524
 20
172.27148301866319
 30
0.0
 10
68.1078152126736
 20
172.26786566840275
 30
0.0
 10
68.1078152126736
 20
172.26355929904511
 30
0.0
 10
68.1078152126736
 20
172.2599419487847
 30
0.0
 10
68.1078152126736
 20
172.09871148003469
 30
0.0
 10
68.23907335069444
 20
171.96745334201387
 30
0.0
 10
68.400992838541654
 20
171.96745334201387
 30
0.0
 10
68.405643717447916
 20
171.96745334201387
 30
0.0
 10
68.409777832031239
 20
171.96745334201387
 30
0.0
 10
68.413567437065964
 20
171.96745334201387
 30
0.0
  0
LINE
  5
B5
100
AcDbEntity
  8
レイヤー_2
 62
     7
100
AcDbLine
 10
58.332529
 20
176.853116
 30
0.0
 11
58.332529
 21
151.484983
 31
0.0
  0
LINE
  5
B4
100
AcDbEntity
  8
レイヤー_2
 62
     7
100
AcDbLine
 10
68.107298
 20
172.271483
 30
0.0
 11
68.107298
 21
176.853116
 31
0.0
  0
LINE
  5
B3
100
AcDbEntity
  8
レイヤー_2
 62
     7
100
AcDbLine
 10
68.107298
 20
151.484983
 30
0.0
 11
68.107298
 21
162.518245
 31
0.0
  0
SPLINE
  5
B2
100
AcDbEntity
  8
レイヤー_2
 62
     7
100
AcDbSpline
210
0.0
220
0.0
230
1.0
 70
     8
 71
     3
 72
     8
 73
     4
 74
     0
 42
0.00000001
 43
0.00000001
 40
0.0
 40
0.0
 40
0.0
 40
0.0
 40
1.0
 40
1.0
 40
1.0
 40
1.0
 10
58.332529025607634
 20
151.48498263888888
 30
0.0
 10
58.332529025607634
 20
151.47636990017361
 30
0.0
 10
58.33270128038194
 20
151.46672363281249
 30
0.0
 10
58.333562554253469
 20
151.45914442274304
 30
0.0
  0
SPLINE
  5
B1
100
AcDbEntity
  8
レイヤー_2
 62
     7
100
AcDbSpline
210
0.0
220
0.0
230
1.0
 70
     8
 71
     3
 72
     8
 73
     4
 74
     0
 42
0.00000001
 43
0.00000001
 40
0.0
 40
0.0
 40
0.0
 40
0.0
 40
1.0
 40
1.0
 40
1.0
 40
1.0
 10
68.106264919704856
 20
151.45914442274304
 30
0.0
 10
68.10729844835069
 20
151.46879069010416
 30
0.0
 10
68.10729844835069
 20
151.47671440972221
 30
0.0
 10
68.10729844835069
 20
151.48498263888888
 30
0.0
  0
LINE
  5
B0
100
AcDbEntity
  8
レイヤー_2
 62
     7
100
AcDbLine
 10
72.782293
 20
171.96487
 30
0.0
 11
68.414429
 21
171.96487
 31
0.0
  0
LINE
  5
AF
100
AcDbEntity
  8
レイヤー_2
 62
     7
100
AcDbLine
 10
68.418563
 20
162.828304
 30
0.0
 11
72.782293
 21
162.828304
 31
0.0
  0
LINE
  5
AE
100
AcDbEntity
  8
レイヤー_2
 62
     7
100
AcDbLine
 10
65.964277
 20
141.977897
 30
0.0
 11
65.964277
 21
149.886803
 31
0.0
  0
LINE
  5
AD
100
AcDbEntity
  8
レイヤー_2
 62
     7
100
AcDbLine
 10
63.007524
 20
149.886803
 30
0.0
 11
60.457292
 21
149.886803
 31
0.0
  0
LINE
  5
AC
100
AcDbEntity
  8
レイヤー_2
 62
     7
100
AcDbLine
 10
63.910655
 20
149.886803
 30
0.0
 11
63.432648
 21
149.886803
 31
0.0
  0
LINE
  5
AB
100
AcDbEntity
  8
レイヤー_2
 62
     7
100
AcDbLine
 10
65.982191
 20
149.886803
 30
0.0
 11
63.910655
 21
149.886803
 31
0.0
  0
LINE
  5
AA
100
AcDbEntity
  8
レイヤー_2
 62
     7
100
AcDbLine
 10
64.113227
 20
150.821457
 30
0.0
 11
66.800229
 21
150.821457
 31
0.0
  0
LINE
  5
A9
100
AcDbEntity
  8
レイヤー_2
 62
     7
100
AcDbLine
 10
59.639426
 20
150.821457
 30
0.0
 11
64.113227
 21
150.821457
 31
0.0
  0
LINE
  5
A8
100
AcDbEntity
  8
レイヤー_2
 62
     7
100
AcDbLine
 10
63.644694
 20
130.747919
 30
0.0
 11
63.547887
 21
130.774791
 31
0.0
  0
LINE
  5
A7
100
AcDbEntity
  8
レイヤー_2
 62
     7
100
AcDbLine
 10
63.547887
 20
130.774791
 30
0.0
 11
63.547887
 21
133.078871
 31
0.0
  0
LINE
  5
A6
100
AcDbEntity
  8
レイヤー_2
 62
     7
100
AcDbLine
 10
63.644694
 20
133.105743
 30
0.0
 11
63.547887
 21
133.078871
 31
0.0
  0
LINE
  5
A5
100
AcDbEntity
  8
レイヤー_2
 62
     7
100
AcDbLine
 10
66.513253
 20
139.037164
 30
0.0
 11
65.769801
 21
139.037164
 31
0.0
  0
LINE
  5
A4
100
AcDbEntity
  8
レイヤー_2
 62
     7
100
AcDbLine
 10
66.513253
 20
138.726761
 30
0.0
 11
65.769801
 21
138.726761
 31
0.0
  0
LINE
  5
A3
100
AcDbEntity
  8
レイヤー_2
 62
     7
100
AcDbLine
 10
66.194754
 20
138.175201
 30
0.0
 11
65.769801
 21
138.175201
 31
0.0
  0
SPLINE
  5
A2
100
AcDbEntity
  8
レイヤー_2
 62
     7
100
AcDbSpline
210
0.0
220
0.0
230
1.0
 70
     8
 71
     3
 72
    11
 73
     7
 74
     0
 42
0.00000001
 43
0.00000001
 40
0.0
 40
0.0
 40
0.0
 40
0.0
 40
1.0
 40
1.0
 40
1.0
 40
2.0
 40
2.0
 40
2.0
 40
2.0
 10
66.081065538194437
 20
130.77479112413192
 30
0.0
 10
66.014575195312489
 20
130.75480957031249
 30
0.0
 10
65.948429361979166
 20
130.73413899739583
 30
0.0
 10
65.88021647135416
 20
130.72311469184027
 30
0.0
 10
65.84387071397569
 20
130.71656901041666
 30
0.0
 10
65.807008192274296
 20
130.71277940538192
 30
0.0
 10
65.769801161024304
 20
130.70898980034721
 30
0.0
  0
SPLINE
  5
A1
100
AcDbEntity
  8
レイヤー_2
 62
     7
100
AcDbSpline
210
0.0
220
0.0
230
1.0
 70
     8
 71
     3
 72
    11
 73
     7
 74
     0
 42
0.00000001
 43
0.00000001
 40
0.0
 40
0.0
 40
0.0
 40
0.0
 40
1.0
 40
1.0
 40
1.0
 40
2.0
 40
2.0
 40
2.0
 40
2.0
 10
66.081065538194437
 20
133.07887098524304
 30
0.0
 10
66.014575195312489
 20
133.09850802951388
 30
0.0
 10
65.948429361979166
 20
133.11917860243054
 30
0.0
 10
65.88021647135416
 20
133.13089192708333
 30
0.0
 10
65.84387071397569
 20
133.13674858940971
 30
0.0
 10
65.807008192274296
 20
133.14019368489582
 30
0.0
 10
65.769801161024304
 20
133.14363878038193
 30
0.0
  0
LINE
  5
A0
100
AcDbEntity
  8
レイヤー_2
 62
     7
100
AcDbLine
 10
66.081066
 20
130.774791
 30
0.0
 11
66.081066
 21
133.078871
 31
0.0
  0
SPLINE
  5
9F
100
AcDbEntity
  8
レイヤー_2
 62
     7
100
AcDbSpline
210
0.0
220
0.0
230
1.0
 70
     8
 71
     3
 72
    11
 73
     7
 74
     0
 42
0.00000001
 43
0.00000001
 40
0.0
 40
0.0
 40
0.0
 40
0.0
 40
1.0
 40
1.0
 40
1.0
 40
2.0
 40
2.0
 40
2.0
 40
2.0
 10
66.398875596788187
 20
133.20186089409722
 30
0.0
 10
66.398875596788187
 20
133.20186089409722
 30
0.0
 10
66.376654730902771
 20
133.20048285590278
 30
0.0
 10
66.376654730902771
 20
133.20048285590278
 30
0.0
 10
66.276746961805543
 20
133.19531521267359
 30
0.0
 10
66.178561740451386
 20
133.13674858940971
 30
0.0
 10
66.081065538194437
 20
133.07887098524304
 30
0.0
  0
LINE
  5
9E
100
AcDbEntity
  8
レイヤー_2
 62
     7
100
AcDbLine
 10
66.398876
 20
133.201861
 30
0.0
 11
65.769801
 21
133.201861
 31
0.0
  0
SPLINE
  5
9D
100
AcDbEntity
  8
レイヤー_2
 62
     7
100
AcDbSpline
210
0.0
220
0.0
230
1.0
 70
     8
 71
     3
 72
    11
 73
     7
 74
     0
 42
0.00000001
 43
0.00000001
 40
0.0
 40
0.0
 40
0.0
 40
0.0
 40
1.0
 40
1.0
 40
1.0
 40
2.0
 40
2.0
 40
2.0
 40
2.0
 10
66.398875596788187
 20
130.65180121527777
 30
0.0
 10
66.398875596788187
 20
130.65180121527777
 30
0.0
 10
66.376654730902771
 20
130.65214572482637
 30
0.0
 10
66.376654730902771
 20
130.65214572482637
 30
0.0
 10
66.276746961805543
 20
130.65800238715278
 30
0.0
 10
66.178561740451386
 20
130.71656901041666
 30
0.0
 10
66.081065538194437
 20
130.77479112413192
 30
0.0
  0
LINE
  5
9C
100
AcDbEntity
  8
レイヤー_2
 62
     7
100
AcDbLine
 10
66.398876
 20
130.651801
 30
0.0
 11
65.769801
 21
130.651801
 31
0.0
  0
LINE
  5
9B
100
AcDbEntity
  8
レイヤー_2
 62
     7
100
AcDbLine
 10
66.717375
 20
130.774791
 30
0.0
 11
66.398876
 21
130.651801
 31
0.0
  0
LINE
  5
9A
100
AcDbEntity
  8
レイヤー_2
 62
     7
100
AcDbLine
 10
66.717375
 20
133.078871
 30
0.0
 11
66.398876
 21
133.201861
 31
0.0
  0
LINE
  5
99
100
AcDbEntity
  8
レイヤー_2
 62
     7
100
AcDbLine
 10
66.717375
 20
130.774791
 30
0.0
 11
66.717375
 21
133.078871
 31
0.0
  0
LINE
  5
98
100
AcDbEntity
  8
レイヤー_2
 62
     7
100
AcDbLine
 10
63.547887
 20
133.078871
 30
0.0
 11
63.625746
 21
133.108499
 31
0.0
  0
LINE
  5
97
100
AcDbEntity
  8
レイヤー_2
 62
     7
100
AcDbLine
 10
63.547887
 20
130.774791
 30
0.0
 11
63.625746
 21
130.744819
 31
0.0
  0
LINE
  5
96
100
AcDbEntity
  8
レイヤー_2
 62
     7
100
AcDbLine
 10
66.513253
 20
133.201861
 30
0.0
 11
66.398876
 21
133.201861
 31
0.0
  0
LINE
  5
95
100
AcDbEntity
  8
レイヤー_2
 62
     7
100
AcDbLine
 10
66.513253
 20
130.651801
 30
0.0
 11
66.398876
 21
130.651801
 31
0.0
  0
LINE
  5
94
100
AcDbEntity
  8
レイヤー_2
 62
     7
100
AcDbLine
 10
65.676956
 20
140.596758
 30
0.0
 11
68.650762
 21
140.596758
 31
0.0
  0
LINE
  5
93
100
AcDbEntity
  8
レイヤー_2
 62
     7
100
AcDbLine
 10
57.813009
 20
140.596758
 30
0.0
 11
61.1501
 21
140.596758
 31
0.0
  0
LINE
  5
92
100
AcDbEntity
  8
レイヤー_2
 62
     7
100
AcDbLine
 10
61.1501
 20
139.108822
 30
0.0
 11
57.813009
 21
139.108822
 31
0.0
  0
LINE
  5
91
100
AcDbEntity
  8
レイヤー_2
 62
     7
100
AcDbLine
 10
68.650762
 20
139.108822
 30
0.0
 11
65.676956
 21
139.108822
 31
0.0
  0
LINE
  5
90
100
AcDbEntity
  8
レイヤー_2
 62
     7
100
AcDbLine
 10
58.025916
 20
140.596758
 30
0.0
 11
58.131508
 21
140.596758
 31
0.0
  0
LINE
  5
8F
100
AcDbEntity
  8
レイヤー_2
 62
     7
100
AcDbLine
 10
68.332091
 20
140.596758
 30
0.0
 11
68.4382
 21
140.596758
 31
0.0
  0
SPLINE
  5
8E
100
AcDbEntity
  8
レイヤー_2
 62
     7
100
AcDbSpline
210
0.0
220
0.0
230
1.0
 70
     8
 71
     3
 72
     8
 73
     4
 74
     0
 42
0.00000001
 43
0.00000001
 40
0.0
 40
0.0
 40
0.0
 40
0.0
 40
1.0
 40
1.0
 40
1.0
 40
1.0
 10
61.253453233506939
 20
139.21424153645833
 30
0.0
 10
61.253453233506939
 20
139.21458604600693
 30
0.0
 10
61.253453233506939
 20
139.21458604600693
 30
0.0
 10
61.253453233506939
 20
139.21527506510415
 30
0.0
  0
SPLINE
  5
8D
100
AcDbEntity
  8
レイヤー_2
 62
     7
100
AcDbSpline
210
0.0
220
0.0
230
1.0
 70
     8
 71
     3
 72
     8
 73
     4
 74
     0
 42
0.00000001
 43
0.00000001
 40
0.0
 40
0.0
 40
0.0
 40
0.0
 40
1.0
 40
1.0
 40
1.0
 40
1.0
 10
61.150100368923603
 20
139.10882161458332
 30
0.0
 10
61.207461208767356
 20
139.10985514322914
 30
0.0
 10
61.253453233506939
 20
139.15670844184027
 30
0.0
 10
61.253453233506939
 20
139.21424153645833
 30
0.0
  0
SPLINE
  5
8C
100
AcDbEntity
  8
レイヤー_2
 62
     7
100
AcDbSpline
210
0.0
220
0.0
230
1.0
 70
     8
 71
     3
 72
     8
 73
     4
 74
     0
 42
0.00000001
 43
0.00000001
 40
0.0
 40
0.0
 40
0.0
 40
0.0
 40
1.0
 40
1.0
 40
1.0
 40
1.0
 10
65.676955837673603
 20
140.59675835503472
 30
0.0
 10
65.619250488281239
 20
140.5964138454861
 30
0.0
 10
65.572741699218739
 20
140.54818250868055
 30
0.0
 10
65.573258463541663
 20
140.49030490451386
 30
0.0
  0
LINE
  5
8B
100
AcDbEntity
  8
レイヤー_2
 62
     7
100
AcDbLine
 10
65.573258
 20
139.215275
 30
0.0
 11
65.573258
 21
140.490305
 31
0.0
  0
SPLINE
  5
8A
100
AcDbEntity
  8
レイヤー_2
 62
     7
100
AcDbSpline
210
0.0
220
0.0
230
1.0
 70
     8
 71
     3
 72
     8
 73
     4
 74
     0
 42
0.00000001
 43
0.00000001
 40
0.0
 40
0.0
 40
0.0
 40
0.0
 40
1.0
 40
1.0
 40
1.0
 40
1.0
 10
65.573258463541663
 20
139.21527506510415
 30
0.0
 10
65.572741699218739
 20
139.15739746093749
 30
0.0
 10
65.619250488281239
 20
139.10985514322914
 30
0.0
 10
65.676955837673603
 20
139.10882161458332
 30
0.0
  0
SPLINE
  5
89
100
AcDbEntity
  8
レイヤー_2
 62
     7
100
AcDbSpline
210
0.0
220
0.0
230
1.0
 70
     8
 71
     3
 72
     8
 73
     4
 74
     0
 42
0.00000001
 43
0.00000001
 40
0.0
 40
0.0
 40
0.0
 40
0.0
 40
1.0
 40
1.0
 40
1.0
 40
1.0
 10
65.631308322482639
 20
140.59675835503472
 30
0.0
 10
65.573258463541663
 20
140.5964138454861
 30
0.0
 10
65.526405164930551
 20
140.54818250868055
 30
0.0
 10
65.527094184027774
 20
140.49030490451386
 30
0.0
  0
LINE
  5
88
100
AcDbEntity
  8
レイヤー_2
 62
     7
100
AcDbLine
 10
65.631308
 20
140.596758
 30
0.0
 11
65.676956
 21
140.596758
 31
0.0
  0
LINE
  5
87
100
AcDbEntity
  8
レイヤー_2
 62
     7
100
AcDbLine
 10
65.527094
 20
140.490305
 30
0.0
 11
65.527094
 21
140.172323
 31
0.0
  0
LINE
  5
86
100
AcDbEntity
  8
レイヤー_2
 62
     7
100
AcDbLine
 10
65.295067
 20
140.172323
 30
0.0
 11
65.295067
 21
139.215275
 31
0.0
  0
LINE
  5
85
100
AcDbEntity
  8
レイヤー_2
 62
     7
100
AcDbLine
 10
65.527094
 20
140.172323
 30
0.0
 11
65.295067
 21
140.172323
 31
0.0
  0
LINE
  5
84
100
AcDbEntity
  8
レイヤー_2
 62
     7
100
AcDbLine
 10
65.676956
 20
139.108822
 30
0.0
 11
65.399109
 21
139.108822
 31
0.0
  0
SPLINE
  5
83
100
AcDbEntity
  8
レイヤー_2
 62
     7
100
AcDbSpline
210
0.0
220
0.0
230
1.0
 70
     8
 71
     3
 72
     8
 73
     4
 74
     0
 42
0.00000001
 43
0.00000001
 40
0.0
 40
0.0
 40
0.0
 40
0.0
 40
1.0
 40
1.0
 40
1.0
 40
1.0
 10
65.525371636284717
 20
140.24432508680553
 30
0.0
 10
65.515036349826389
 20
140.2239990234375
 30
0.0
 10
65.516586642795133
 20
140.19747178819443
 30
0.0
 10
65.527094184027774
 20
140.17232259114581
 30
0.0
  0
SPLINE
  5
82
100
AcDbEntity
  8
レイヤー_2
 62
     7
100
AcDbSpline
210
0.0
220
0.0
230
1.0
 70
     8
 71
     3
 72
     8
 73
     4
 74
     0
 42
0.00000001
 43
0.00000001
 40
0.0
 40
0.0
 40
0.0
 40
0.0
 40
1.0
 40
1.0
 40
1.0
 40
1.0
 10
65.398764377170139
 20
140.27774251302083
 30
0.0
 10
65.34054226345485
 20
140.27774251302083
 30
0.0
 10
65.294550238715274
 20
140.22985568576388
 30
0.0
 10
65.295067003038184
 20
140.17232259114581
 30
0.0
  0
SPLINE
  5
81
100
AcDbEntity
  8
レイヤー_2
 62
     7
100
AcDbSpline
210
0.0
220
0.0
230
1.0
 70
     8
 71
     3
 72
     8
 73
     4
 74
     0
 42
0.00000001
 43
0.00000001
 40
0.0
 40
0.0
 40
0.0
 40
0.0
 40
1.0
 40
1.0
 40
1.0
 40
1.0
 10
65.525371636284717
 20
140.21607530381942
 30
0.0
 10
65.525371636284717
 20
140.20057237413192
 30
0.0
 10
65.525888400607627
 20
140.18506944444442
 30
0.0
 10
65.527094184027774
 20
140.17232259114581
 30
0.0
  0
LINE
  5
80
100
AcDbEntity
  8
レイヤー_2
 62
     7
100
AcDbLine
 10
60.669854
 20
139.108822
 30
0.0
 11
59.088211
 21
139.108822
 31
0.0
  0
LINE
  5
7F
100
AcDbEntity
  8
レイヤー_2
 62
     7
100
AcDbLine
 10
66.436944
 20
139.108822
 30
0.0
 11
65.769801
 21
139.108822
 31
0.0
  0
LINE
  5
7E
100
AcDbEntity
  8
レイヤー_2
 62
     7
100
AcDbLine
 10
63.644694
 20
139.108822
 30
0.0
 11
62.795306
 21
139.108822
 31
0.0
  0
LINE
  5
7D
100
AcDbEntity
  8
レイヤー_2
 62
     7
100
AcDbLine
 10
61.256037
 20
140.277743
 30
0.0
 11
65.525372
 21
140.277743
 31
0.0
  0
LINE
  5
7C
100
AcDbEntity
  8
レイヤー_2
 62
     7
100
AcDbLine
 10
67.389857
 20
140.91543
 30
0.0
 11
68.332091
 21
140.91543
 31
0.0
  0
LINE
  5
7B
100
AcDbEntity
  8
レイヤー_2
 62
     7
100
AcDbLine
 10
58.131508
 20
140.91543
 30
0.0
 11
67.389857
 21
140.91543
 31
0.0
  0
SPLINE
  5
7A
100
AcDbEntity
  8
レイヤー_2
 62
     7
100
AcDbSpline
210
0.0
220
0.0
230
1.0
 70
     8
 71
     3
 72
    35
 73
    31
 74
     0
 42
0.00000001
 43
0.00000001
 40
0.0
 40
0.0
 40
0.0
 40
0.0
 40
1.0
 40
1.0
 40
1.0
 40
2.0
 40
2.0
 40
2.0
 40
3.0
 40
3.0
 40
3.0
 40
4.0
 40
4.0
 40
4.0
 40
5.0
 40
5.0
 40
5.0
 40
6.0
 40
6.0
 40
6.0
 40
7.0
 40
7.0
 40
7.0
 40
8.0
 40
8.0
 40
8.0
 40
9.0
 40
9.0
 40
9.0
 40
10.0
 40
10.0
 40
10.0
 40
10.0
 10
75.85876329210069
 20
162.86585557725692
 30
0.0
 10
75.85876329210069
 20
162.86585557725692
 30
0.0
 10
75.86117485894097
 20
162.86585557725692
 30
0.0
 10
75.869615342881943
 20
162.86688910590277
 30
0.0
 10
75.88201768663194
 20
162.86861165364581
 30
0.0
 10
75.909233940972214
 20
162.87205674913193
 30
0.0
 10
75.943684895833329
 20
162.87619086371527
 30
0.0
 10
75.978652615017353
 20
162.87963595920138
 30
0.0
 10
76.020682779947904
 20
162.88514811197916
 30
0.0
 10
76.069430881076386
 20
162.88928222656247
 30
0.0
 10
76.119212510850687
 20
162.89307183159721
 30
0.0
 10
76.174850802951383
 20
162.89720594618055
 30
0.0
 10
76.234278700086804
 20
162.90099555121526
 30
0.0
 10
76.293706597222211
 20
162.90375162760415
 30
0.0
 10
76.356062825520823
 20
162.90616319444442
 30
0.0
 10
76.418074544270823
 20
162.90685221354164
 30
0.0
 10
76.479569498697913
 20
162.90719672309027
 30
0.0
 10
76.5414089626736
 20
162.90685221354164
 30
0.0
 10
76.599458821614576
 20
162.90478515624997
 30
0.0
 10
76.657336425781239
 20
162.90271809895833
 30
0.0
 10
76.711252170138877
 20
162.90030653211804
 30
0.0
 10
76.7584499782986
 20
162.89720594618055
 30
0.0
 10
76.805820041232636
 20
162.89444986979166
 30
0.0
 10
76.846299913194443
 20
162.89100477430554
 30
0.0
 10
76.879372829861097
 20
162.88790418836805
 30
0.0
 10
76.912101236979154
 20
162.88514811197916
 30
0.0
 10
76.937594943576386
 20
162.88204752604165
 30
0.0
 10
76.946724446614581
 20
162.88135850694442
 30
0.0
 10
76.946724446614581
 20
162.88135850694442
 30
0.0
 10
76.950514051649293
 20
162.88101399739583
 30
0.0
 10
76.950514051649293
 20
162.88101399739583
 30
0.0
  0
LINE
  5
79
100
AcDbEntity
  8
レイヤー_2
 62
     7
100
AcDbLine
 10
75.317367
 20
162.89445
 30
0.0
 11
73.217753
 21
167.396845
 31
0.0
  0
LINE
  5
78
100
AcDbEntity
  8
レイヤー_2
 62
     7
100
AcDbLine
 10
78.104793
 20
163.090476
 30
0.0
 11
78.105482
 21
163.07704
 31
0.0
  0
LINE
  5
77
100
AcDbEntity
  8
レイヤー_2
 62
     7
100
AcDbLine
 10
73.217753
 20
167.396845
 30
0.0
 11
73.217753
 21
171.900963
 31
0.0
  0
SPLINE
  5
76
100
AcDbEntity
  8
レイヤー_2
 62
     7
100
AcDbSpline
210
0.0
220
0.0
230
1.0
 70
     8
 71
     3
 72
    17
 73
    13
 74
     0
 42
0.00000001
 43
0.00000001
 40
0.0
 40
0.0
 40
0.0
 40
0.0
 40
1.0
 40
1.0
 40
1.0
 40
2.0
 40
2.0
 40
2.0
 40
3.0
 40
3.0
 40
3.0
 40
4.0
 40
4.0
 40
4.0
 40
4.0
 10
78.10427652994791
 20
171.99484185112846
 30
0.0
 10
78.10427652994791
 20
171.95229492187499
 30
0.0
 10
78.10427652994791
 20
171.90905897352428
 30
0.0
 10
78.10427652994791
 20
171.86909586588541
 30
0.0
 10
78.10427652994791
 20
171.82861599392359
 30
0.0
 10
78.10427652994791
 20
171.79089219835069
 30
0.0
 10
78.10427652994791
 20
171.75678575303817
 30
0.0
 10
78.10427652994791
 20
171.72267930772568
 30
0.0
 10
78.10427652994791
 20
171.69287923177083
 30
0.0
 10
78.103932020399299
 20
171.67134738498262
 30
0.0
 10
78.103932020399299
 20
171.64947102864582
 30
0.0
 10
78.103070746527777
 20
171.63603515624999
 30
0.0
 10
78.103070746527777
 20
171.62208251953123
 30
0.0
  0
LINE
  5
75
100
AcDbEntity
  8
レイヤー_2
 62
     7
100
AcDbLine
 10
78.104277
 20
187.980429
 30
0.0
 11
78.104277
 21
171.994842
 31
0.0
  0
LINE
  5
74
100
AcDbEntity
  8
レイヤー_2
 62
     7
100
AcDbLine
 10
73.217753
 20
171.38127
 30
0.0
 11
73.217753
 21
171.683577
 31
0.0
  0
SPLINE
  5
73
100
AcDbEntity
  8
レイヤー_2
 62
     7
100
AcDbSpline
210
0.0
220
0.0
230
1.0
 70
     8
 71
     3
 72
    11
 73
     7
 74
     0
 42
0.00000001
 43
0.00000001
 40
0.0
 40
0.0
 40
0.0
 40
0.0
 40
1.0
 40
1.0
 40
1.0
 40
2.0
 40
2.0
 40
2.0
 40
2.0
 10
74.028900824652766
 20
188.2188300238715
 30
0.0
 10
74.027350531684021
 20
188.2188300238715
 30
0.0
 10
74.0264892578125
 20
188.2188300238715
 30
0.0
 10
74.025111219618054
 20
188.2188300238715
 30
0.0
 10
73.931404622395831
 20
188.2188300238715
 30
0.0
 10
73.855784776475687
 20
188.14269341362845
 30
0.0
 10
73.855784776475687
 20
188.04881456163193
 30
0.0
  0
LINE
  5
72
100
AcDbEntity
  8
レイヤー_2
 62
     7
100
AcDbLine
 10
73.855785
 20
172.22463
 30
0.0
 11
73.855785
 21
188.048815
 31
0.0
  0
LINE
  5
71
100
AcDbEntity
  8
レイヤー_2
 62
     7
100
AcDbLine
 10
74.028901
 20
188.21883
 30
0.0
 11
77.937706
 21
188.150273
 31
0.0
  0
SPLINE
  5
70
100
AcDbEntity
  8
レイヤー_2
 62
     7
100
AcDbSpline
210
0.0
220
0.0
230
1.0
 70
     8
 71
     3
 72
     8
 73
     4
 74
     0
 42
0.00000001
 43
0.00000001
 40
0.0
 40
0.0
 40
0.0
 40
0.0
 40
1.0
 40
1.0
 40
1.0
 40
1.0
 10
78.10427652994791
 20
187.98042941623262
 30
0.0
 10
78.10427652994791
 20
188.07327473958333
 30
0.0
 10
78.030206976996524
 20
188.14872233072916
 30
0.0
 10
77.937706163194434
 20
188.1502726236979
 30
0.0
  0
LINE
  5
6F
100
AcDbEntity
  8
レイヤー_2
 62
     7
100
AcDbLine
 10
72.782293
 20
165.715639
 30
0.0
 11
73.334542
 21
165.715639
 31
0.0
  0
POLYLINE
  5
6A
100
AcDbEntity
  8
レイヤー_2
 62
     7
100
AcDb2dPolyline
 66
     1
 10
0.0
 20
0.0
 30
0.0
  0
VERTEX
  5
6B
100
AcDbEntity
  8
レイヤー_2
 62
     7
100
AcDbVertex
100
AcDb2dVertex
 10
73.947769
 20
165.831394
 30
0.0
  0
VERTEX
  5
6C
100
AcDbEntity
  8
レイヤー_2
 62
     7
100
AcDbVertex
100
AcDb2dVertex
 10
73.708507
 20
165.758358
 30
0.0
  0
VERTEX
  5
6D
100
AcDbEntity
  8
レイヤー_2
 62
     7
100
AcDbVertex
100
AcDb2dVertex
 10
73.334542
 20
165.715639
 30
0.0
  0
SEQEND
  5
6E
100
AcDbEntity
  8
レイヤー_2
 62
     7
  0
LINE
  5
69
100
AcDbEntity
  8
レイヤー_2
 62
     7
100
AcDbLine
 10
73.217753
 20
169.077707
 30
0.0
 11
72.782293
 21
169.077707
 31
0.0
  0
LINE
  5
68
100
AcDbEntity
  8
レイヤー_2
 62
     7
100
AcDbLine
 10
68.107298
 20
176.853116
 30
0.0
 11
58.332529
 21
176.853116
 31
0.0
  0
LINE
  5
67
100
AcDbEntity
  8
レイヤー_2
 62
     7
100
AcDbLine
 10
58.333563
 20
151.459144
 30
0.0
 11
68.106265
 21
151.459144
 31
0.0
  0
LINE
  5
66
100
AcDbEntity
  8
レイヤー_2
 62
     7
100
AcDbLine
 10
72.782293
 20
171.96487
 30
0.0
 11
72.782293
 21
162.828304
 31
0.0
  0
LINE
  5
65
100
AcDbEntity
  8
レイヤー_2
 62
     7
100
AcDbLine
 10
63.007524
 20
150.672629
 30
0.0
 11
60.457292
 21
150.672629
 31
0.0
  0
LINE
  5
64
100
AcDbEntity
  8
レイヤー_2
 62
     7
100
AcDbLine
 10
63.910655
 20
150.672629
 30
0.0
 11
63.432648
 21
150.672629
 31
0.0
  0
LINE
  5
63
100
AcDbEntity
  8
レイヤー_2
 62
     7
100
AcDbLine
 10
65.982191
 20
150.672629
 30
0.0
 11
63.910655
 21
150.672629
 31
0.0
  0
LINE
  5
62
100
AcDbEntity
  8
レイヤー_2
 62
     7
100
AcDbLine
 10
65.527094
 20
140.490305
 30
0.0
 11
65.525372
 21
140.490305
 31
0.0
  0
LINE
  5
61
100
AcDbEntity
  8
レイヤー_2
 62
     7
100
AcDbLine
 10
65.295067
 20
139.215275
 30
0.0
 11
65.292139
 21
139.215275
 31
0.0
  0
LINE
  5
60
100
AcDbEntity
  8
レイヤー_2
 62
     7
100
AcDbLine
 10
65.295067
 20
140.172323
 30
0.0
 11
65.292139
 21
140.172323
 31
0.0
  0
LINE
  5
5F
100
AcDbEntity
  8
レイヤー_2
 62
     7
100
AcDbLine
 10
63.644694
 20
140.172323
 30
0.0
 11
62.795306
 21
140.172323
 31
0.0
  0
LINE
  5
5E
100
AcDbEntity
  8
レイヤー_2
 62
     7
100
AcDbLine
 10
78.104793
 20
163.094265
 30
0.0
 11
78.104793
 21
163.090476
 31
0.0
  0
LINE
  5
5D
100
AcDbEntity
  8
レイヤー_2
 62
     7
100
AcDbLine
 10
78.105655
 20
187.980429
 30
0.0
 11
78.104277
 21
187.980429
 31
0.0
  0
LINE
  5
5C
100
AcDbEntity
  8
レイヤー_2
 62
     7
100
AcDbLine
 10
58.332529
 20
151.484983
 30
0.0
 11
63.220086
 21
151.484983
 31
0.0
  0
LINE
  5
5B
100
AcDbEntity
  8
レイヤー_2
 62
     7
100
AcDbLine
 10
117.907015
 20
133.182913
 30
0.0
 11
117.907015
 21
130.669716
 31
0.0
  0
LINE
  5
5A
100
AcDbEntity
  8
レイヤー_2
  6
AI9-LType1
 62
     7
100
AcDbLine
 10
120.801584
 20
124.551571
 30
0.0
 11
120.801584
 21
208.703196
 31
0.0
  0
LINE
  5
59
100
AcDbEntity
  8
レイヤー_2
 62
     7
100
AcDbLine
 10
120.801584
 20
208.703196
 30
0.0
 11
120.801584
 21
209.553101
 31
0.0
  0
LINE
  5
58
100
AcDbEntity
  8
レイヤー_2
  6
AI9-LType1
 62
     7
100
AcDbLine
 10
63.220086
 20
102.658678
 30
0.0
 11
63.220086
 21
234.652516
 31
0.0
  0
LINE
  5
57
100
AcDbEntity
  8
レイヤー_2
 62
     7
100
AcDbLine
 10
63.220086
 20
234.652516
 30
0.0
 11
63.220086
 21
235.502593
 31
0.0
  0
LINE
  5
56
100
AcDbEntity
  8
レイヤー_2
  6
AI9-LType1
 62
     7
100
AcDbLine
 10
171.964008
 20
201.804047
 30
0.0
 11
171.808979
 21
206.227894
 31
0.0
  0
LINE
  5
55
100
AcDbEntity
  8
レイヤー_2
 62
     7
100
AcDbLine
 10
171.808979
 20
206.227894
 30
0.0
 11
171.778662
 21
207.07711
 31
0.0
  0
LINE
  5
54
100
AcDbEntity
  8
レイヤー_2
  6
AI9-LType1
 62
     7
100
AcDbLine
 10
58.2669
 20
107.20517
 30
0.0
 11
67.835997
 21
107.20517
 31
0.0
  0
LINE
  5
52
100
AcDbEntity
  8
レイヤー_2
 62
     7
100
AcDbLine
 10
67.835997
 20
107.20517
 30
0.0
 11
68.686764
 21
107.20517
 31
0.0
  0
LINE
  5
51
100
AcDbEntity
  8
レイヤー_2
 62
     7
100
AcDbLine
 10
184.605442
 20
202.837576
 30
0.0
 11
184.605442
 21
150.565487
 31
0.0
  0
LINE
  5
50
100
AcDbEntity
  8
レイヤー_2
 62
     7
100
AcDbLine
 10
171.914399
 20
220.896939
 30
0.0
 11
171.914399
 21
245.071002
 31
0.0
  0
LINE
  5
4F
100
AcDbEntity
  8
レイヤー_2
 62
     7
100
AcDbLine
 10
120.801584
 20
220.858354
 30
0.0
 11
120.801584
 21
245.159885
 31
0.0
  0
LINE
  5
4E
100
AcDbEntity
  8
レイヤー_2
 62
     7
100
AcDbLine
 10
58.312031
 20
177.322165
 30
0.0
 11
58.312031
 21
238.990063
 31
0.0
  0
LINE
  5
4D
100
AcDbEntity
  8
レイヤー_2
 62
     7
100
AcDbLine
 10
68.145022
 20
177.397268
 30
0.0
 11
68.145022
 21
238.85002
 31
0.0
  0
LINE
  5
4C
100
AcDbEntity
  8
レイヤー_2
 62
     7
100
AcDbLine
 10
120.02127
 20
244.360623
 30
0.0
 11
172.720551
 21
244.360623
 31
0.0
  0
LINE
  5
4B
100
AcDbEntity
  8
レイヤー_2
 62
     7
100
AcDbLine
 10
41.496003
 20
238.101573
 30
0.0
 11
68.982869
 21
238.101573
 31
0.0
  0
LINE
  5
4A
100
AcDbEntity
  8
レイヤー_2
 62
     7
100
AcDbLine
 10
63.198382
 20
235.926685
 30
0.0
 11
63.198382
 21
245.000205
 31
0.0
  0
LINE
  5
49
100
AcDbEntity
  8
レイヤー_2
 62
     7
100
AcDbLine
 10
78.107722
 20
188.485308
 30
0.0
 11
78.107722
 21
245.054982
 31
0.0
  0
LINE
  5
48
100
AcDbEntity
  8
レイヤー_2
 62
     7
100
AcDbLine
 10
79.04341
 20
244.38181
 30
0.0
 11
62.278025
 21
244.38181
 31
0.0
  0
LINE
  5
47
100
AcDbEntity
  8
レイヤー_2
 62
     7
100
AcDbLine
 10
61.785893
 20
234.764998
 30
0.0
 11
45.882298
 21
234.764998
 31
0.0
  0
LINE
  5
46
100
AcDbEntity
  8
レイヤー_2
 62
     7
100
AcDbLine
 10
46.944766
 20
235.425423
 30
0.0
 11
46.944766
 21
115.223975
 31
0.0
  0
LINE
  5
45
100
AcDbEntity
  8
レイヤー_2
 62
     7
100
AcDbLine
 10
51.445266
 20
151.484983
 30
0.0
 11
45.882298
 21
151.484983
 31
0.0
  0
LINE
  5
44
100
AcDbEntity
  8
レイヤー_2
 62
     7
100
AcDbLine
 10
57.057155
 20
141.89487
 30
0.0
 11
45.882298
 21
141.89487
 31
0.0
  0
LINE
  5
43
100
AcDbEntity
  8
レイヤー_2
 62
     7
100
AcDbLine
 10
47.696141
 20
141.14384
 30
0.0
 11
46.193907
 21
142.646246
 31
0.0
  0
LINE
  5
42
100
AcDbEntity
  8
レイヤー_2
 62
     7
100
AcDbLine
 10
47.696141
 20
150.857286
 30
0.0
 11
46.193907
 21
152.360037
 31
0.0
  0
LINE
  5
41
100
AcDbEntity
  8
レイヤー_2
 62
     7
100
AcDbLine
 10
47.696141
 20
233.964875
 30
0.0
 11
46.193907
 21
235.467626
 31
0.0
  0
LINE
  5
40
100
AcDbEntity
  8
レイヤー_2
 62
     7
100
AcDbLine
 10
62.452863
 20
243.607525
 30
0.0
 11
63.901009
 21
245.055326
 31
0.0
  0
LINE
  5
3F
100
AcDbEntity
  8
レイヤー_2
 62
     7
100
AcDbLine
 10
77.383907
 20
243.657996
 30
0.0
 11
78.831364
 21
245.105452
 31
0.0
  0
LINE
  5
3E
100
AcDbEntity
  8
レイヤー_2
 62
     7
100
AcDbLine
 10
121.525054
 20
245.084093
 30
0.0
 11
120.07777
 21
243.636464
 31
0.0
  0
LINE
  5
3D
100
AcDbEntity
  8
レイヤー_2
 62
     7
100
AcDbLine
 10
172.651649
 20
245.071002
 30
0.0
 11
171.203331
 21
243.623545
 31
0.0
  0
LINE
  5
3C
100
AcDbEntity
  8
レイヤー_2
 62
     7
100
AcDbLine
 10
59.032572
 20
238.831245
 30
0.0
 11
57.585116
 21
237.38396
 31
0.0
  0
LINE
  5
3B
100
AcDbEntity
  8
レイヤー_2
 62
     7
100
AcDbLine
 10
68.856951
 20
238.812641
 30
0.0
 11
67.408805
 21
237.36484
 31
0.0
  0
LINE
  5
3A
100
AcDbEntity
  8
レイヤー_2
 62
     7
100
AcDbLine
 10
185.321332
 20
150.761857
 30
0.0
 11
183.817893
 21
152.263919
 31
0.0
  0
LINE
  5
39
100
AcDbEntity
  8
レイヤー_2
 62
     7
100
AcDbLine
 10
131.691187
 20
151.484983
 30
0.0
 11
185.398503
 21
151.484983
 31
0.0
  0
LINE
  5
38
100
AcDbEntity
  8
レイヤー_2
 62
     7
100
AcDbLine
 10
69.981947
 20
100.511694
 30
0.0
 11
59.437027
 21
111.056443
 31
0.0
  0
LINE
  5
37
100
AcDbEntity
  8
レイヤー_2
 62
     7
100
AcDbLine
 10
69.981947
 20
100.511694
 30
0.0
 11
83.96714
 21
100.511694
 31
0.0
  0
LINE
  5
36
100
AcDbEntity
  8
レイヤー_2
 62
     7
100
AcDbLine
 10
59.310592
 20
109.783824
 30
0.0
 11
62.092506
 21
109.783824
 31
0.0
  0
LINE
  5
35
100
AcDbEntity
  8
レイヤー_2
 62
     7
100
AcDbLine
 10
64.483403
 20
104.536255
 30
0.0
 11
67.2648
 21
104.536255
 31
0.0
  0
SPLINE
  5
34
100
AcDbEntity
  8
レイヤー_2
 62
     7
100
AcDbSpline
210
0.0
220
0.0
230
1.0
 70
     8
 71
     3
 72
    17
 73
    13
 74
     0
 42
0.00000001
 43
0.00000001
 40
0.0
 40
0.0
 40
0.0
 40
0.0
 40
1.0
 40
1.0
 40
1.0
 40
2.0
 40
2.0
 40
2.0
 40
3.0
 40
3.0
 40
3.0
 40
4.0
 40
4.0
 40
4.0
 40
4.0
 10
66.938549804687497
 20
107.20517035590277
 30
0.0
 10
66.938549804687497
 20
109.25913628472222
 30
0.0
 10
65.273707411024304
 20
110.92415093315971
 30
0.0
 10
63.220085991753464
 20
110.92415093315971
 30
0.0
 10
61.16612006293402
 20
110.92415093315971
 30
0.0
 10
59.500933159722216
 20
109.25913628472222
 30
0.0
 10
59.500933159722216
 20
107.20517035590277
 30
0.0
 10
59.500933159722216
 20
105.15120442708333
 30
0.0
 10
61.16612006293402
 20
103.48687879774305
 30
0.0
 10
63.220085991753464
 20
103.48687879774305
 30
0.0
 10
65.273707411024304
 20
103.48687879774305
 30
0.0
 10
66.938549804687497
 20
105.15120442708333
 30
0.0
 10
66.938549804687497
 20
107.20517035590277
 30
0.0
  0
LINE
  5
33
100
AcDbEntity
  8
レイヤー_2
 62
     7
100
AcDbLine
 10
185.340625
 20
202.104115
 30
0.0
 11
174.410026
 21
202.104115
 31
0.0
  0
LINE
  5
32
100
AcDbEntity
  8
レイヤー_2
 62
     7
100
AcDbLine
 10
185.355783
 20
201.352395
 30
0.0
 11
183.853033
 21
202.855663
 31
0.0
  0
LINE
  5
31
100
AcDbEntity
  8
レイヤー_2
 62
     7
100
AcDbLine
 10
52.771628
 20
151.484983
 30
0.0
 11
73.769657
 21
151.484983
 31
0.0
  0
LINE
  5
30
100
AcDbEntity
  8
レイヤー_2
 62
     7
100
AcDbLine
 10
111.15325
 20
151.484983
 30
0.0
 11
130.906738
 21
151.484983
 31
0.0
  0
MTEXT
  5
2F
100
AcDbEntity
  8
レイヤー_2
 62
     7
100
AcDbMText
 10
140.856863
 20
252.018799
 30
0.0
 40
6.299603
 41
0.0
 71
     1
 72
     2
  1
\fMS Gothic|b0|i0|c128;\H6.2996;\C7;\U+0032\U+0034\U+0030
  7
STD
210
0.0
220
0.0
230
1.0
 73
     1
 44
1.0
  0
MTEXT
  5
2E
100
AcDbEntity
  8
レイヤー_2
 62
     7
100
AcDbMText
 10
66.381306
 20
251.883751
 30
0.0
 40
6.299603
 41
0.0
 71
     1
 72
     2
  1
\fMS Gothic|b0|i0|c128;\H6.2996;\C7;\U+0037\U+0030
  7
STD
210
0.0
220
0.0
230
1.0
 73
     1
 44
1.0
  0
MTEXT
  5
2D
100
AcDbEntity
  8
レイヤー_2
 62
     7
100
AcDbMText
 10
39.927968
 20
245.81177
 30
0.0
 40
6.299603
 41
0.0
 71
     1
 72
     2
  1
\fMS Gothic|b0|i0|c128;\H6.2996;\C7;\U+03C6\U+0034\U+0036
  7
STD
210
0.0
220
0.0
230
1.0
 73
     1
 44
1.0
  0
MTEXT
  5
2C
100
AcDbEntity
  8
レイヤー_2
 62
     7
100
AcDbMText
 10
67.848055
 20
108.21035
 30
0.0
 40
6.299603
 41
0.0
 71
     1
 72
     2
  1
\fMS Gothic|b0|i0|c128;\H6.2996;\C7;\U+03C6\U+0033\U+0035
  7
STD
210
0.0
220
0.0
230
1.0
 73
     1
 44
1.0
  0
MTEXT
  5
2B
100
AcDbEntity
  8
レイヤー_2
 62
     7
100
AcDbMText
 10
176.451689
 20
171.560588
 30
0.0
 40
6.299603
 41
0.0
 71
     1
 72
     2
  1
\fMS Gothic|b0|i0|c128;\H6.2996;\C7;\U+0032\U+0034\U+0030
  7
STD
210
0.0
220
0.0
230
1.0
 11
0.0
 21
1.0
 31
0.0
 73
     1
 44
1.0
  0
MTEXT
  5
2A
100
AcDbEntity
  8
レイヤー_2
 62
     7
100
AcDbMText
 10
38.698512
 20
188.8529
 30
0.0
 40
6.299603
 41
0.0
 71
     1
 72
     2
  1
\fMS Gothic|b0|i0|c128;\H6.2996;\C7;\U+0033\U+0039\U+0033
  7
STD
210
0.0
220
0.0
230
1.0
 11
0.0
 21
1.0
 31
0.0
 73
     1
 44
1.0
  0
MTEXT
  5
29
100
AcDbEntity
  8
レイヤー_2
 62
     7
100
AcDbMText
 10
39.783274
 20
116.854538
 30
0.0
 40
5.512152
 41
0.0
 71
     1
 72
     2
  1
\fMS Gothic|b0|i0|c128;\H5.5122;\C7;\U+006D\U+0061\U+0078\U+002E\U+0034\U+0035
  7
STD
210
0.0
220
0.0
230
1.0
 11
0.0
 21
1.0
 31
0.0
 73
     1
 44
1.0
  0
ENDSEC
  0
SECTION
  2
OBJECTS
  0
DICTIONARY
  5
19
100
AcDbDictionary
280
     0
281
     1
  3
ACAD_GROUP
350
1A
  3
ACAD_MLINESTYLE
350
1B
  3
ACAD_LAYOUT
350
1E
  3
ACAD_PLOTSETTINGS
350
22
  3
ACAD_PLOTSTYLENAME
350
1F
  3
ACAD_WIPEOUT_VARS
350
23
  0
DICTIONARY
  5
1A
102
{ACAD_REACTORS
330
19
102
}
100
AcDbDictionary
280
     0
281
     1
  0
DICTIONARY
  5
1B
102
{ACAD_REACTORS
330
19
102
}
100
AcDbDictionary
280
     0
281
     1
  3
Standard
350
1C
  0
MLINESTYLE
  5
1C
102
{ACAD_REACTORS
330
1B
102
}
100
AcDbMlineStyle
  2
Standard
 70
     0
  3

 62
     0
 51
90.0
 52
90.0
 71
     2
 49
0.5
 62
   256
  6
ByLayer
 49
-0.5
 62
   256
  6
ByLayer
  0
ACDBDICTIONARYWDFLT
  5
1F
102
{ACAD_REACTORS
330
19
102
}
100
AcDbDictionary
281
     1
  3
Normal
350
1D
100
AcDbDictionaryWithDefault
340
1D
  0
ACDBPLACEHOLDER
  5
1D
102
{ACAD_REACTORS
330
1F
102
}
  0
LAYOUT
  5
20
102
{ACAD_REACTORS
330
1E
102
}
100
AcDbPlotSettings
  1

  2

  4

  6

 40
0.0
 41
0.0
 42
0.0
 43
0.0
 44
0.0
 45
0.0
 46
0.0
 47
0.0
 48
0.0
 49
0.0
140
0.0
141
0.0
142
1.0
143
1.0
 70
  1024
 72
     0
 73
     0
 74
     0
  7

 75
     0
147
1.0
148
0.0
149
0.0
100
AcDbLayout
  1
Model
 70
     0
 71
     0
 10
0.0
 20
0.0
 11
0.0
 21
0.0
 12
0.0
 22
0.0
 32
0.0
 14
0.0
 24
0.0
 34
0.0
 15
0.0
 25
0.0
 35
0.0
146
0.0
 13
0.0
 23
0.0
 33
0.0
 16
0.0
 26
0.0
 36
0.0
 17
0.0
 27
0.0
 37
0.0
 76
     0
330
A
331
0
345
0
346
0
  0
LAYOUT
  5
21
102
{ACAD_REACTORS
330
1E
102
}
100
AcDbPlotSettings
  1

  2

  4

  6

 40
0.0
 41
0.0
 42
0.0
 43
0.0
 44
0.0
 45
0.0
 46
0.0
 47
0.0
 48
0.0
 49
0.0
140
0.0
141
0.0
142
1.0
143
1.0
 70
     0
 72
     0
 73
     0
 74
     0
  7

 75
     0
147
1.0
148
0.0
149
0.0
100
AcDbLayout
  1
Layout1
 70
     0
 71
     0
 10
0.0
 20
0.0
 11
0.0
 21
0.0
 12
0.0
 22
0.0
 32
0.0
 14
0.0
 24
0.0
 34
0.0
 15
0.0
 25
0.0
 35
0.0
146
0.0
 13
0.0
 23
0.0
 33
0.0
 16
0.0
 26
0.0
 36
0.0
 17
0.0
 27
0.0
 37
0.0
 76
     0
330
B
331
0
345
0
346
0
  0
DICTIONARY
  5
1E
102
{ACAD_REACTORS
330
19
102
}
100
AcDbDictionary
280
     0
281
     1
  3
Layout1
350
21
  3
Model
350
20
  0
DICTIONARY
  5
22
102
{ACAD_REACTORS
330
19
102
}
100
AcDbDictionary
280
     0
281
     1
  0
WIPEOUTVARIABLES
  5
23
100
AcDbWipeoutVariables
 70
     1
  0
IMAGEDEF_REACTOR
  5
290
100
AcDbRasterImageDefReactor
 90
        2
330
28F
  0
IMAGEDEF
  5
291
100
AcDbRasterImageDef
 90
        0
  1
\\192.168.6.3\free(2009_04\一過性\DB_WEB用DXF_丸茂\KITCHEN\33816875_1.bmp
 10
70.0
 20
9.0
 11
0.352778
 21
0.352778
280
     1
281
     0
  0
IMAGEDEF_REACTOR
  5
293
100
AcDbRasterImageDefReactor
 90
        2
330
292
  0
IMAGEDEF
  5
294
100
AcDbRasterImageDef
 90
        0
  1
\\192.168.6.3\free(2009_04\一過性\DB_WEB用DXF_丸茂\KITCHEN\33816875_2.bmp
 10
70.0
 20
9.0
 11
0.352778
 21
0.352778
280
     1
281
     0
  0
ENDSEC
  0
EOF
