  0
SECTION
  2
HEADER
  9
$ACADVER
  1
AC1015
  9
$ACADMAINTVER
 70
     6
  9
$DWGCODEPAGE
  3
ANSI_932
  9
$INSBASE
 10
0.0
 20
0.0
 30
0.0
  9
$EXTMIN
 10
23.283333
 20
25.752778
 30
1.000000E+20
  9
$EXTMAX
 10
198.966667
 20
276.930556
 30
-1.000000E+20
  9
$LIMMIN
 10
23.283333
 20
25.752778
  9
$LIMMAX
 10
198.966667
 20
276.930556
  9
$ORTHOMODE
 70
     0
  9
$REGENMODE
 70
     1
  9
$FILLMODE
 70
     1
  9
$QTEXTMODE
 70
     0
  9
$MIRRTEXT
 70
     1
  9
$LTSCALE
 40
1.0
  9
$ATTMODE
 70
     1
  9
$TEXTSIZE
 40
0.2
  9
$TRACEWID
 40
0.05
  9
$TEXTSTYLE
  7
Standard
  9
$CLAYER
  8
0
  9
$CELTYPE
  6
Continuous
  9
$CECOLOR
 62
   256
  9
$CELTSCALE
 40
1.0
  9
$DISPSILH
 70
     0
  9
$DIMSCALE
 40
1.0
  9
$DIMASZ
 40
0.18
  9
$DIMEXO
 40
0.0625
  9
$DIMDLI
 40
0.38
  9
$DIMRND
 40
0.0
  9
$DIMDLE
 40
0.0
  9
$DIMEXE
 40
0.18
  9
$DIMTP
 40
0.0
  9
$DIMTM
 40
0.0
  9
$DIMTXT
 40
0.18
  9
$DIMCEN
 40
0.09
  9
$DIMTSZ
 40
0.0
  9
$DIMTOL
 70
     0
  9
$DIMLIM
 70
     0
  9
$DIMTIH
 70
     1
  9
$DIMTOH
 70
     1
  9
$DIMSE1
 70
     0
  9
$DIMSE2
 70
     0
  9
$DIMTAD
 70
     0
  9
$DIMZIN
 70
     0
  9
$DIMBLK
  1

  9
$DIMASO
 70
     1
  9
$DIMSHO
 70
     1
  9
$DIMPOST
  1

  9
$DIMAPOST
  1

  9
$DIMALT
 70
     0
  9
$DIMALTD
 70
     2
  9
$DIMALTF
 40
25.4
  9
$DIMLFAC
 40
1.0
  9
$DIMTOFL
 70
     0
  9
$DIMTVP
 40
0.0
  9
$DIMTIX
 70
     0
  9
$DIMSOXD
 70
     0
  9
$DIMSAH
 70
     0
  9
$DIMBLK1
  1

  9
$DIMBLK2
  1

  9
$DIMSTYLE
  2
Standard
  9
$DIMCLRD
 70
     0
  9
$DIMCLRE
 70
     0
  9
$DIMCLRT
 70
     0
  9
$DIMTFAC
 40
1.0
  9
$DIMGAP
 40
0.09
  9
$DIMJUST
 70
     0
  9
$DIMSD1
 70
     0
  9
$DIMSD2
 70
     0
  9
$DIMTOLJ
 70
     1
  9
$DIMTZIN
 70
     0
  9
$DIMALTZ
 70
     0
  9
$DIMALTTZ
 70
     0
  9
$DIMUPT
 70
     0
  9
$DIMDEC
 70
     4
  9
$DIMTDEC
 70
     4
  9
$DIMALTU
 70
     2
  9
$DIMALTTD
 70
     2
  9
$DIMTXSTY
  7
Standard
  9
$DIMAUNIT
 70
     0
  9
$DIMADEC
 70
     0
  9
$DIMALTRND
 40
0.0
  9
$DIMAZIN
 70
     0
  9
$DIMDSEP
 70
     0
  9
$DIMATFIT
 70
     3
  9
$DIMFRAC
 70
     0
  9
$DIMLDRBLK
  1

  9
$DIMLUNIT
 70
     2
  9
$DIMLWD
 70
     0
  9
$DIMLWE
 70
     0
  9
$DIMTMOVE
 70
     0
  9
$LUNITS
 70
     2
  9
$LUPREC
 70
     4
  9
$SKETCHINC
 40
0.1
  9
$FILLETRAD
 40
0.0
  9
$AUNITS
 70
     0
  9
$AUPREC
 70
     0
  9
$MENU
  1
acad
  9
$ELEVATION
 40
0.0
  9
$PELEVATION
 40
0.0
  9
$THICKNESS
 40
0.0
  9
$LIMCHECK
 70
     0
  9
$CHAMFERA
 40
0.0
  9
$CHAMFERB
 40
0.0
  9
$CHAMFERC
 40
0.0
  9
$CHAMFERD
 40
0.0
  9
$SKPOLY
 70
     0
  9
$TDCREATE
 40
0.000000000
  9
$TDUCREATE
 40
0.000000000
  9
$TDUPDATE
 40
0.000000000
  9
$TDUUPDATE
 40
0.000000000
  9
$TDINDWG
 40
0.0000000000
  9
$TDUSRTIMER
 40
0.0000000000
  9
$USRTIMER
 70
     1
  9
$ANGBASE
 50
0.0
  9
$ANGDIR
 70
     0
  9
$PDMODE
 70
     0
  9
$PDSIZE
 40
0.0
  9
$PLINEWID
 40
0.0
  9
$SPLFRAME
 70
     0
  9
$SPLINETYPE
 70
     6
  9
$SPLINESEGS
 70
     8
  9
$HANDSEED
  5
7C0
  9
$SURFTAB1
 70
     6
  9
$SURFTAB2
 70
     6
  9
$SURFTYPE
 70
     6
  9
$SURFU
 70
     6
  9
$SURFV
 70
     6
  9
$UCSBASE
  2

  9
$UCSNAME
  2

  9
$UCSORG
 10
0.0
 20
0.0
 30
0.0
  9
$UCSXDIR
 10
1.0
 20
0.0
 30
0.0
  9
$UCSYDIR
 10
0.0
 20
1.0
 30
0.0
  9
$UCSORTHOREF
  2

  9
$UCSORTHOVIEW
 70
     0
  9
$UCSORGTOP
 10
0.0
 20
0.0
 30
0.0
  9
$UCSORGBOTTOM
 10
0.0
 20
0.0
 30
0.0
  9
$UCSORGLEFT
 10
0.0
 20
0.0
 30
0.0
  9
$UCSORGRIGHT
 10
0.0
 20
0.0
 30
0.0
  9
$UCSORGFRONT
 10
0.0
 20
0.0
 30
0.0
  9
$UCSORGBACK
 10
0.0
 20
0.0
 30
0.0
  9
$PUCSBASE
  2

  9
$PUCSNAME
  2

  9
$PUCSORG
 10
0.0
 20
0.0
 30
0.0
  9
$PUCSXDIR
 10
1.0
 20
0.0
 30
0.0
  9
$PUCSYDIR
 10
0.0
 20
1.0
 30
0.0
  9
$PUCSORTHOREF
  2

  9
$PUCSORTHOVIEW
 70
     0
  9
$PUCSORGTOP
 10
0.0
 20
0.0
 30
0.0
  9
$PUCSORGBOTTOM
 10
0.0
 20
0.0
 30
0.0
  9
$PUCSORGLEFT
 10
0.0
 20
0.0
 30
0.0
  9
$PUCSORGRIGHT
 10
0.0
 20
0.0
 30
0.0
  9
$PUCSORGFRONT
 10
0.0
 20
0.0
 30
0.0
  9
$PUCSORGBACK
 10
0.0
 20
0.0
 30
0.0
  9
$USERI1
 70
     0
  9
$USERI2
 70
     0
  9
$USERI3
 70
     0
  9
$USERI4
 70
     0
  9
$USERI5
 70
     0
  9
$USERR1
 40
0.0
  9
$USERR2
 40
0.0
  9
$USERR3
 40
0.0
  9
$USERR4
 40
0.0
  9
$USERR5
 40
0.0
  9
$WORLDVIEW
 70
     1
  9
$SHADEDGE
 70
     3
  9
$SHADEDIF
 70
    70
  9
$TILEMODE
 70
     1
  9
$MAXACTVP
 70
    16
  9
$PINSBASE
 10
0.0
 20
0.0
 30
0.0
  9
$PLIMCHECK
 70
     0
  9
$PEXTMIN
 10
1.000000E+20
 20
1.000000E+20
 30
1.000000E+20
  9
$PEXTMAX
 10
-1.000000E+20
 20
-1.000000E+20
 30
-1.000000E+20
  9
$PLIMMIN
 10
0.0
 20
0.0
  9
$PLIMMAX
 10
12.0
 20
9.0
  9
$UNITMODE
 70
     0
  9
$VISRETAIN
 70
     0
  9
$PLINEGEN
 70
     1
  9
$PSLTSCALE
 70
     0
  9
$TREEDEPTH
 70
  3020
  9
$CMLSTYLE
  2
Standard
  9
$CMLJUST
 70
     0
  9
$CMLSCALE
 40
1.0
  9
$PROXYGRAPHICS
 70
     0
  9
$MEASUREMENT
 70
     1
  9
$CELWEIGHT
370
     0
  9
$ENDCAPS
280
     0
  9
$JOINSTYLE
280
     0
  9
$LWDISPLAY
290
     0
  9
$INSUNITS
 70
     0
  9
$HYPERLINKBASE
  1

  9
$STYLESHEET
  1

  9
$XEDIT
290
     1
  9
$CEPSNTYPE
380
     0
  9
$PSTYLEMODE
290
     1
  9
$FINGERPRINTGUID
  2

  9
$VERSIONGUID
  2

  9
$EXTNAMES
290
     1
  9
$PSVPSCALE
 40
0.0
  0
ENDSEC
  0
SECTION
  2
CLASSES
  0
CLASS
  1
LWPOLYLINE
  2
AcDbPolyline
  3
AutoCAD 2000
 90
    32768
280
     0
281
     1
  0
CLASS
  1
IMAGE
  2
AcDbRasterImage
  3
ISM
 90
      127
280
     0
281
     1
  0
CLASS
  1
OLE2FRAME
  2
AcDbOle2Frame
  3
AutoCAD 2000
 90
    32768
280
     0
281
     1
  0
CLASS
  1
HATCH
  2
AcDbHatch
  3
AutoCAD 2000
 90
        0
280
     0
281
     1
  0
CLASS
  1
DICTIONARYVAR
  2
AcDbDictionaryVar
  3
AutoCAD 2000
 90
    32768
280
     0
281
     0
  0
CLASS
  1
RASTERVARIABLES
  2
AcDbRasterVariables
  3
ISM
 90
    32768
280
     0
281
     0
  0
CLASS
  1
IMAGEDEF
  2
AcDbRasterImageDef
  3
ISM
 90
        0
280
     0
281
     0
  0
CLASS
  1
IMAGEDEF_REACTOR
  2
AcDbRasterImageDefReactor
  3
ISM
 90
        1
280
     0
281
     0
  0
CLASS
  1
IDBUFFER
  2
AcDbIdBuffer
  3
AutoCAD 2000
 90
    32768
280
     0
281
     0
  0
CLASS
  1
SPATIAL_FILTER
  2
AcDbSpatialFilter
  3
AutoCAD 2000
 90
    32768
280
     0
281
     0
  0
CLASS
  1
XRECORD
  2
AcDbXrecord
  3
AutoCAD 2000
 90
    32768
280
     0
281
     0
  0
CLASS
  1
SORTENTSTABLE
  2
AcDbSortentsTable
  3
AutoCAD 2000
 90
    32768
280
     0
281
     0
  0
CLASS
  1
LAYER_INDEX
  2
AcDbLayerIndex
  3
AutoCAD 2000
 90
    32768
280
     0
281
     0
  0
CLASS
  1
SPATIAL_INDEX
  2
AcDbSpatialIndex
  3
AutoCAD 2000
 90
    32768
280
     0
281
     0
  0
CLASS
  1
OBJECT_PTR
  2
CAseDLPNTableRecord
  3
"ASE-LPNTableRecord"
 90
    32769
280
     0
281
     0
  0
CLASS
  1
LAYOUT
  2
AcDbLayout
  3
AutoCAD 2000
 90
        0
280
     0
281
     0
  0
CLASS
  1
PLOTSETTINGS
  2
AcDbPlotSettings
  3
AutoCAD 2000
 90
    32768
280
     0
281
     0
  0
CLASS
  1
ACDBDICTIONARYWDFLT
  2
AcDbDictionaryWithDefault
  3
AutoCAD 2000
 90
        0
280
     0
281
     0
  0
CLASS
  1
ACDBPLACEHOLDER
  2
AcDbPlaceHolder
  3
AutoCAD 2000
 90
        0
280
     0
281
     0
  0
CLASS
  1
VBA_PROJECT
  2
AcDbVbaProject
  3
acadvba
 90
    32768
280
     0
281
     0
  0
CLASS
  1
WIPEOUT
  2
AcDbWipeout
  3
WipeOut|AutoCAD Express Tool|expresstools@autodesk.com
 90
    32895
280
     0
281
     1
  0
CLASS
  1
WIPEOUTVARIABLES
  2
AcDbWipeoutVariables
  3
WipeOut|AutoCAD Express Tool|expresstools@autodesk.com
 90
        0
280
     0
281
     0
  0
CLASS
  1
RTEXT
  2
RText
  3
RText|AutoCAD Express Tool|expresstools@autodesk.com
 90
    32768
280
     0
281
     1
  0
CLASS
  1
ARCALIGNEDTEXT
  2
AcDbArcAlignedText
  3
ATEXT|AutoCAD Express Tool|expresstools@autodesk.com
 90
    32768
280
     0
281
     1
  0
ENDSEC
  0
SECTION
  2
TABLES
  0
TABLE
  2
VPORT
  5
7
100
AcDbSymbolTable
 70
     1
  0
VPORT
  5
15
100
AcDbSymbolTableRecord
100
AcDbViewportTableRecord
  2
*ACTIVE
 70
     0
 10
0.0
 20
0.0
 11
1.0
 21
1.0
 12
6.591288
 22
4.579184
 13
0.0
 23
0.0
 14
1.0
 24
1.0
 15
0.0
 25
0.0
 16
0.0
 26
0.0
 36
1.0
 17
0.0
 27
0.0
 37
0.0
 40
9.158369
 41
0.688564
 42
50.0
 43
0.0
 44
0.0
 50
0.0
 51
0.0
 71
     0
 72
   100
 73
     1
 74
     1
 75
     0
 76
     0
 77
     0
 78
     0
281
     0
 65
     0
110
0.0
120
0.0
130
0.0
111
1.0
121
0.0
131
0.0
112
0.0
122
1.0
132
0.0
345
0
346
0
 79
     0
146
0.0
  0
ENDTAB
  0
TABLE
  2
LTYPE
  5
4
100
AcDbSymbolTable
 70
     6
  0
LTYPE
  5
11
100
AcDbSymbolTableRecord
100
AcDbLinetypeTableRecord
  2
ByBlock
 70
    64
  3

 72
    65
 73
     0
 40
0.0
  0
LTYPE
  5
12
100
AcDbSymbolTableRecord
100
AcDbLinetypeTableRecord
  2
ByLayer
 70
    64
  3

 72
    65
 73
     0
 40
0.0
  0
LTYPE
  5
13
100
AcDbSymbolTableRecord
100
AcDbLinetypeTableRecord
  2
Continuous
 70
    64
  3
Solid line
 72
    65
 73
     0
 40
0.0
  0
LTYPE
  5
125
100
AcDbSymbolTableRecord
100
AcDbLinetypeTableRecord
  2
AI9-LType1
 70
    64
  3
Illustrator Dash Style No.1
 72
    65
 73
     4
 40
13.963015
 49
8.726911
 74
     0
 49
-1.745368
 74
     0
 49
1.745368
 74
     0
 49
-1.745368
 74
     0
  0
LTYPE
  5
2F2
100
AcDbSymbolTableRecord
100
AcDbLinetypeTableRecord
  2
AI9-LType2
 70
    64
  3
Illustrator Dash Style No.2
 72
    65
 73
     4
 40
36.599884
 49
22.874888
 74
     0
 49
-4.574999
 74
     0
 49
4.574999
 74
     0
 49
-4.574999
 74
     0
  0
LTYPE
  5
39F
100
AcDbSymbolTableRecord
100
AcDbLinetypeTableRecord
  2
AI9-LType3
 70
    64
  3
Illustrator Dash Style No.3
 72
    65
 73
     4
 40
164.923674
 49
103.071712
 74
     0
 49
-20.617321
 74
     0
 49
20.617321
 74
     0
 49
-20.617321
 74
     0
  0
ENDTAB
  0
TABLE
  2
LAYER
  5
2
100
AcDbSymbolTable
 70
     3
  0
LAYER
  5
14
100
AcDbSymbolTableRecord
100
AcDbLayerTableRecord
  2
0
 70
     0
 62
     7
  6
Continuous
290
     1
370
    -3
390
1D
  0
LAYER
  5
28
100
AcDbSymbolTableRecord
100
AcDbLayerTableRecord
  2
レイヤー_2
 70
     0
 62
     1
  6
Continuous
290
     1
370
    -3
390
1D
  0
LAYER
  5
7A5
100
AcDbSymbolTableRecord
100
AcDbLayerTableRecord
  2
レイヤー_1
 70
     0
 62
   160
  6
Continuous
290
     1
370
    -3
390
1D
  0
ENDTAB
  0
TABLE
  2
STYLE
  5
3
100
AcDbSymbolTable
 70
     5
  0
STYLE
  5
17
100
AcDbSymbolTableRecord
100
AcDbTextStyleTableRecord
  2
Standard
 70
     0
 40
0.0
 41
1.0
 50
0.0
 71
     0
 42
0.0
  3
txt
  4

  0
STYLE
  5
24
100
AcDbSymbolTableRecord
100
AcDbTextStyleTableRecord
  2
STD
 70
     0
 40
0.0
 41
1.0
 50
0.0
 71
     0
 42
0.0
  3
txt
  4

  0
STYLE
  5
25
100
AcDbSymbolTableRecord
100
AcDbTextStyleTableRecord
  2
TATESTD
 70
     4
 40
0.0
 41
1.0
 50
0.0
 71
     0
 42
0.0
  3
txt
  4

  0
STYLE
  5
26
100
AcDbSymbolTableRecord
100
AcDbTextStyleTableRecord
  2
KANJISTD
 70
     0
 40
0.0
 41
1.0
 50
0.0
 71
     0
 42
0.0
  3
txt
  4
extfont
  0
STYLE
  5
27
100
AcDbSymbolTableRecord
100
AcDbTextStyleTableRecord
  2
KANJITATE
 70
     4
 40
0.0
 41
1.0
 50
0.0
 71
     0
 42
0.0
  3
txt
  4
extfont
  0
ENDTAB
  0
TABLE
  2
VIEW
  5
5
100
AcDbSymbolTable
 70
     0
  0
ENDTAB
  0
TABLE
  2
UCS
  5
6
100
AcDbSymbolTable
 70
     0
  0
ENDTAB
  0
TABLE
  2
APPID
  5
8
100
AcDbSymbolTable
 70
     1
  0
APPID
  5
16
100
AcDbSymbolTableRecord
100
AcDbRegAppTableRecord
  2
ACAD
 70
     0
  0
ENDTAB
  0
TABLE
  2
DIMSTYLE
  5
9
100
AcDbSymbolTable
 70
     1
100
AcDbDimStyleTable
 71
     0
  0
DIMSTYLE
105
18
100
AcDbSymbolTableRecord
100
AcDbDimStyleTableRecord
  2
Standard
 70
     0
  3

  4

 40
1.0
 41
0.18
 42
0.0625
 43
0.38
 44
0.18
 45
0.0
 46
0.0
 47
0.0
 48
0.0
 71
     0
 72
     0
 73
     1
 74
     1
 75
     0
 76
     0
 77
     0
 78
     0
 79
     0
140
0.18
141
0.09
142
0.0
143
25.4
144
1.0
145
0.0
146
1.0
147
0.09
148
0.0
170
     0
171
     2
172
     0
173
     0
174
     0
175
     0
176
     0
177
     0
178
     0
179
     0
271
     4
272
     4
273
     2
274
     2
275
     0
276
     0
277
     2
278
    46
279
     0
280
     0
281
     0
282
     0
283
     1
284
     0
285
     0
286
     0
288
     0
340
17
341
0
342
0
343
0
344
0
371
    -2
372
    -2
  0
ENDTAB
  0
TABLE
  2
BLOCK_RECORD
  5
1
100
AcDbSymbolTable
 70
     1
  0
BLOCK_RECORD
  5
A
100
AcDbSymbolTableRecord
100
AcDbBlockTableRecord
  2
*MODEL_SPACE
340
20
  0
BLOCK_RECORD
  5
B
100
AcDbSymbolTableRecord
100
AcDbBlockTableRecord
  2
*PAPER_SPACE
340
21
  0
BLOCK_RECORD
  5
29
100
AcDbSymbolTableRecord
100
AcDbBlockTableRecord
  2
AI9-BLK1
340
0
102
{BLKREFS
331
2A
102
}
  0
ENDTAB
  0
ENDSEC
  0
SECTION
  2
BLOCKS
  0
BLOCK
  5
D
100
AcDbEntity
  8
0
100
AcDbBlockBegin
  2
*MODEL_SPACE
 70
     0
 10
0.0
 20
0.0
 30
0.0
  3
*MODEL_SPACE
  1

  0
ENDBLK
  5
E
100
AcDbEntity
  8
0
100
AcDbBlockEnd
  0
BLOCK
  5
F
100
AcDbEntity
 67
     1
  8
0
100
AcDbBlockBegin
  2
*PAPER_SPACE
 70
     0
 10
0.0
 20
0.0
 30
0.0
  3
*PAPER_SPACE
  1

  0
ENDBLK
  5
10
100
AcDbEntity
 67
     1
  8
0
100
AcDbBlockEnd
  0
BLOCK
  5
2B
100
AcDbEntity
  8
レイヤー_2
 62
     7
100
AcDbBlockBegin
  2
AI9-BLK1
 70
     0
 10
0.0
 20
0.0
 30
0.0
  3
AI9-BLK1
  1

  0
SPLINE
  5
33
100
AcDbEntity
  8
レイヤー_2
 62
     7
100
AcDbSpline
210
0.0
220
0.0
230
1.0
 70
     8
 71
     3
 72
    17
 73
    13
 74
     0
 42
0.00000001
 43
0.00000001
 40
0.0
 40
0.0
 40
0.0
 40
0.0
 40
1.0
 40
1.0
 40
1.0
 40
2.0
 40
2.0
 40
2.0
 40
3.0
 40
3.0
 40
3.0
 40
4.0
 40
4.0
 40
4.0
 40
4.0
 10
0.8457709418402777
 20
-2.7752827962239581
 30
0.0
 10
2.7583157009548609
 20
-3.1669901529947913
 30
0.0
 10
4.1985378689236104
 20
-4.8599100748697914
 30
0.0
 10
4.1985378689236104
 20
-6.8885545518663189
 30
0.0
 10
4.1985378689236104
 20
-9.2065870496961804
 30
0.0
 10
2.3185492621527777
 20
-11.086747911241318
 30
0.0
 10
-0.0003445095486111
 20
-11.086747911241318
 30
0.0
 10
-2.3192382812499996
 20
-11.086747911241318
 30
0.0
 10
-4.1985378689236104
 20
-9.2065870496961804
 30
0.0
 10
-4.1985378689236104
 20
-6.8885545518663189
 30
0.0
 10
-4.1985378689236104
 20
-4.9763543023003471
 30
0.0
 10
-2.9192016601562498
 20
-3.362843831380208
 30
0.0
 10
-1.17047119140625
 20
-2.8558980305989579
 30
0.0
  0
LINE
  5
32
100
AcDbEntity
  8
レイヤー_2
 62
     7
100
AcDbLine
 10
0.869714
 20
1.388804
 30
0.0
 11
0.869714
 21
-2.780795
 31
0.0
  0
POLYLINE
  5
2C
100
AcDbEntity
  8
レイヤー_2
 62
     7
100
AcDb2dPolyline
 66
     1
 10
0.0
 20
0.0
 30
0.0
  0
VERTEX
  5
2D
100
AcDbEntity
  8
レイヤー_2
 62
     7
100
AcDbVertex
100
AcDb2dVertex
 10
-1.170471
 20
-2.856587
 30
0.0
  0
VERTEX
  5
2E
100
AcDbEntity
  8
レイヤー_2
 62
     7
100
AcDbVertex
100
AcDb2dVertex
 10
-1.170471
 20
11.086748
 30
0.0
  0
VERTEX
  5
2F
100
AcDbEntity
  8
レイヤー_2
 62
     7
100
AcDbVertex
100
AcDb2dVertex
 10
0.869714
 20
11.086748
 30
0.0
  0
VERTEX
  5
30
100
AcDbEntity
  8
レイヤー_2
 62
     7
100
AcDbVertex
100
AcDb2dVertex
 10
0.869714
 20
1.388804
 30
0.0
  0
SEQEND
  5
31
100
AcDbEntity
  8
レイヤー_2
 62
     7
  0
ENDBLK
  5
34
100
AcDbEntity
  8
レイヤー_2
100
AcDbBlockEnd
  0
ENDSEC
  0
SECTION
  2
ENTITIES
  0
MTEXT
  5
7BF
100
AcDbEntity
  8
レイヤー_1
 62
     7
100
AcDbMText
 10
47.801389
 20
54.121991
 30
0.0
 40
3.674768
 41
0.0
 71
     1
 72
     2
  1
\fOsaka|b0|i0|c128;\H3.6748;\C7;\U+0033\U+0033\U+002E\U+0038\U+0032\U+0036\U+002E\U+0037\U+0039\U+0030\U+002E\U+0058\U+0058\U+0020\U+002B\U+0020\U+0032\U+0037\U+002E\U+0037\U+0031\U+0039\U+002E\U+0039\U+0037\U+0030\U+002E\U+0058\U+0058
  7
STD
210
0.0
220
0.0
230
1.0
 73
     1
 44
1.0
  0
MTEXT
  5
7BE
100
AcDbEntity
  8
レイヤー_1
 62
     7
100
AcDbMText
 10
39.6875
 20
56.608234
 30
0.0
 40
1.574901
 41
0.0
 71
     1
 72
     2
  1
\fOsaka|b0|i0|c128;\H1.5749;\C7;\U+54C1\U+756A
  7
STD
210
0.0
220
0.0
230
1.0
 73
     1
 44
1.0
  0
MTEXT
  5
7BD
100
AcDbEntity
  8
レイヤー_1
 62
     7
100
AcDbMText
 10
47.801389
 20
32.959208
 30
0.0
 40
3.149486
 41
0.0
 71
     1
 72
     2
  1
\fOsaka|b0|i0|c128;\H3.1495;\C7;\U+0032\U+7A74\U+578B\U+30B7\U+30F3\U+30B0\U+30EB\U+30EC\U+30D0\U+30FC\U+30AD\U+30C3\U+30C1\U+30F3\U+7528\U+6DF7\U+5408\U+6813
  7
STD
210
0.0
220
0.0
230
1.0
 73
     1
 44
1.0
  0
MTEXT
  5
7BC
100
AcDbEntity
  8
レイヤー_1
 62
     7
100
AcDbMText
 10
39.6875
 20
35.441567
 30
0.0
 40
1.574901
 41
0.0
 71
     1
 72
     2
  1
\fOsaka|b0|i0|c128;\H1.5749;\C7;\U+54C1
  7
STD
210
0.0
220
0.0
230
1.0
 73
     1
 44
1.0
  0
MTEXT
  5
7BB
100
AcDbEntity
  8
レイヤー_1
 62
     7
100
AcDbMText
 10
47.801389
 20
42.954808
 30
0.0
 40
3.149486
 41
0.0
 71
     1
 72
     2
  1
\fOsaka|b0|i0|c128;\H3.1495;\C7;\U+004B\U+0049\U+0054\U+0043\U+0048\U+0045\U+004E\U+0020\U+0020\H2.6248;\U+0045\U+004C\U+0049\U+004F
  7
STD
210
0.0
220
0.0
230
1.0
 73
     1
 44
1.0
  0
POLYLINE
  5
7B5
100
AcDbEntity
  8
レイヤー_1
 62
     7
100
AcDb2dPolyline
 66
     1
 10
0.0
 20
0.0
 30
0.0
 70
     1
  0
VERTEX
  5
7B6
100
AcDbEntity
  8
レイヤー_1
 62
     7
100
AcDbVertex
100
AcDb2dVertex
 10
23.636111
 20
26.105556
 30
0.0
  0
VERTEX
  5
7B7
100
AcDbEntity
  8
レイヤー_1
 62
     7
100
AcDbVertex
100
AcDb2dVertex
 10
198.613889
 20
26.105556
 30
0.0
  0
VERTEX
  5
7B8
100
AcDbEntity
  8
レイヤー_1
 62
     7
100
AcDbVertex
100
AcDb2dVertex
 10
198.613889
 20
276.577778
 30
0.0
  0
VERTEX
  5
7B9
100
AcDbEntity
  8
レイヤー_1
 62
     7
100
AcDbVertex
100
AcDb2dVertex
 10
23.636111
 20
276.577778
 30
0.0
  0
SEQEND
  5
7BA
100
AcDbEntity
  8
レイヤー_1
 62
     7
  0
LINE
  5
7B4
100
AcDbEntity
  8
レイヤー_1
 62
     7
100
AcDbLine
 10
170.568056
 20
36.5125
 30
0.0
 11
27.693056
 21
36.5125
 31
0.0
  0
LINE
  5
7B3
100
AcDbEntity
  8
レイヤー_1
 62
     7
100
AcDbLine
 10
170.568056
 20
47.095833
 30
0.0
 11
27.693056
 21
47.095833
 31
0.0
  0
LINE
  5
7B2
100
AcDbEntity
  8
レイヤー_1
 62
     7
100
AcDbLine
 10
23.636111
 20
57.855556
 30
0.0
 11
198.261111
 21
57.855556
 31
0.0
  0
LINE
  5
7B1
100
AcDbEntity
  8
レイヤー_1
 62
     7
100
AcDbLine
 10
170.744444
 20
57.855556
 30
0.0
 11
170.744444
 21
26.458333
 31
0.0
  0
MTEXT
  5
7B0
100
AcDbEntity
  8
レイヤー_1
 62
     7
100
AcDbMText
 10
33.3375
 20
46.024901
 30
0.0
 40
1.574901
 41
0.0
 71
     1
 72
     2
  1
\fOsaka|b0|i0|c128;\H1.5749;\C7;\U+30B7\U+30EA\U+30FC\U+30BA
  7
STD
210
0.0
220
0.0
230
1.0
 73
     1
 44
1.0
  0
MTEXT
  5
7AF
100
AcDbEntity
  8
レイヤー_1
 62
     7
100
AcDbMText
 10
174.095833
 20
54.655042
 30
0.0
 40
3.149486
 41
0.0
 71
     1
 72
     2
  1
\fHeiseiKakuGothicCAN W9|b0|i0|c128;\H3.1495;\C253;\U+5BF8\U+6CD5\U+53C2\U+8003\U+56F3
  7
STD
210
0.0
220
0.0
230
1.0
 73
     1
 44
1.0
  0
LINE
  5
7AE
100
AcDbEntity
  8
レイヤー_1
 62
     7
100
AcDbLine
 10
27.516667
 20
57.855556
 30
0.0
 11
27.516667
 21
26.458333
 31
0.0
  0
IMAGE
  5
7AB
100
AcDbEntity
  8
レイヤー_1
 62
     7
 92
        0
100
AcDbRasterImage
 90
        0
 10
172.155556
 20
28.574682
 30
0.0
 11
0.352531
 21
0.0
 31
0.0
 12
0.0
 22
0.352813
 32
0.0
 13
70.0
 23
9.0
340
7AD
 70
     7
280
     0
281
    50
282
    50
283
     0
360
7AC
 71
     1
 91
        2
 14
-0.5
 24
-0.5
 14
69.5
 24
8.5
  0
IMAGE
  5
7A8
100
AcDbEntity
  8
レイヤー_1
 62
     7
 92
        0
100
AcDbRasterImage
 90
        0
 10
172.155556
 20
28.574682
 30
0.0
 11
0.352531
 21
0.0
 31
0.0
 12
0.0
 22
0.352813
 32
0.0
 13
70.0
 23
9.0
340
7AA
 70
     7
280
     0
281
    50
282
    50
283
     0
360
7A9
 71
     1
 91
        2
 14
-0.5
 24
-0.5
 14
69.5
 24
8.5
  0
MTEXT
  5
7A7
100
AcDbEntity
  8
レイヤー_1
 62
     7
100
AcDbMText
 10
113.418056
 20
46.024901
 30
0.0
 40
1.574901
 41
0.0
 71
     1
 72
     2
  1
\fOsaka|b0|i0|c128;\H1.5749;\C7;\U+4ED5\U+4E0A
  7
STD
210
0.0
220
0.0
230
1.0
 73
     1
 44
1.0
  0
MTEXT
  5
7A6
100
AcDbEntity
  8
レイヤー_1
 62
     7
100
AcDbMText
 10
124.765511
 20
40.968165
 30
0.0
 40
1.162843
 41
0.0
 71
     1
 72
     2
  1
\fOsaka|b0|i0|c128;\H1.1628;\W2.71;\C7;
  7
STD
210
0.0
220
0.0
230
1.0
 73
     1
 44
1.0
  0
LINE
  5
7A4
100
AcDbEntity
  8
レイヤー_2
 62
     7
100
AcDbLine
 10
170.79302
 20
159.270898
 30
0.0
 11
175.297138
 21
159.270898
 31
0.0
  0
LINE
  5
7A3
100
AcDbEntity
  8
レイヤー_2
 62
     7
100
AcDbLine
 10
166.289247
 20
159.270898
 30
0.0
 11
170.79302
 21
159.270898
 31
0.0
  0
LINE
  5
7A2
100
AcDbEntity
  8
レイヤー_2
 62
     7
100
AcDbLine
 10
170.79302
 20
160.908697
 30
0.0
 11
170.79302
 21
160.207275
 31
0.0
  0
POLYLINE
  5
787
100
AcDbEntity
  8
レイヤー_2
 62
     7
100
AcDb2dPolyline
 66
     1
 10
0.0
 20
0.0
 30
0.0
  0
VERTEX
  5
788
100
AcDbEntity
  8
レイヤー_2
 62
     7
100
AcDbVertex
100
AcDb2dVertex
 10
173.776128
 20
87.753817
 30
0.0
  0
VERTEX
  5
789
100
AcDbEntity
  8
レイヤー_2
 62
     7
100
AcDbVertex
100
AcDb2dVertex
 10
173.717562
 20
88.513805
 30
0.0
  0
VERTEX
  5
78A
100
AcDbEntity
  8
レイヤー_2
 62
     7
100
AcDbVertex
100
AcDb2dVertex
 10
173.367196
 20
89.274137
 30
0.0
  0
VERTEX
  5
78B
100
AcDbEntity
  8
レイヤー_2
 62
     7
100
AcDbVertex
100
AcDb2dVertex
 10
172.899007
 20
89.859459
 30
0.0
  0
VERTEX
  5
78C
100
AcDbEntity
  8
レイヤー_2
 62
     7
100
AcDbVertex
100
AcDb2dVertex
 10
172.314719
 20
90.385181
 30
0.0
  0
VERTEX
  5
78D
100
AcDbEntity
  8
レイヤー_2
 62
     7
100
AcDbVertex
100
AcDb2dVertex
 10
171.553353
 20
90.678358
 30
0.0
  0
VERTEX
  5
78E
100
AcDbEntity
  8
レイヤー_2
 62
     7
100
AcDbVertex
100
AcDb2dVertex
 10
170.79302
 20
90.794458
 30
0.0
  0
VERTEX
  5
78F
100
AcDbEntity
  8
レイヤー_2
 62
     7
100
AcDbVertex
100
AcDb2dVertex
 10
169.974466
 20
90.678358
 30
0.0
  0
VERTEX
  5
790
100
AcDbEntity
  8
レイヤー_2
 62
     7
100
AcDbVertex
100
AcDb2dVertex
 10
169.272011
 20
90.385181
 30
0.0
  0
VERTEX
  5
791
100
AcDbEntity
  8
レイヤー_2
 62
     7
100
AcDbVertex
100
AcDb2dVertex
 10
168.628811
 20
89.859459
 30
0.0
  0
VERTEX
  5
792
100
AcDbEntity
  8
レイヤー_2
 62
     7
100
AcDbVertex
100
AcDb2dVertex
 10
168.160967
 20
89.274137
 30
0.0
  0
VERTEX
  5
793
100
AcDbEntity
  8
レイヤー_2
 62
     7
100
AcDbVertex
100
AcDb2dVertex
 10
167.868479
 20
88.513805
 30
0.0
  0
VERTEX
  5
794
100
AcDbEntity
  8
レイヤー_2
 62
     7
100
AcDbVertex
100
AcDb2dVertex
 10
167.751001
 20
87.753817
 30
0.0
  0
VERTEX
  5
795
100
AcDbEntity
  8
レイヤー_2
 62
     7
100
AcDbVertex
100
AcDb2dVertex
 10
167.868479
 20
86.992795
 30
0.0
  0
VERTEX
  5
796
100
AcDbEntity
  8
レイヤー_2
 62
     7
100
AcDbVertex
100
AcDb2dVertex
 10
168.160967
 20
86.232463
 30
0.0
  0
VERTEX
  5
797
100
AcDbEntity
  8
レイヤー_2
 62
     7
100
AcDbVertex
100
AcDb2dVertex
 10
168.628811
 20
85.588919
 30
0.0
  0
VERTEX
  5
798
100
AcDbEntity
  8
レイヤー_2
 62
     7
100
AcDbVertex
100
AcDb2dVertex
 10
169.272011
 20
85.120386
 30
0.0
  0
VERTEX
  5
799
100
AcDbEntity
  8
レイヤー_2
 62
     7
100
AcDbVertex
100
AcDb2dVertex
 10
169.974466
 20
84.828586
 30
0.0
  0
VERTEX
  5
79A
100
AcDbEntity
  8
レイヤー_2
 62
     7
100
AcDbVertex
100
AcDb2dVertex
 10
170.79302
 20
84.711108
 30
0.0
  0
VERTEX
  5
79B
100
AcDbEntity
  8
レイヤー_2
 62
     7
100
AcDbVertex
100
AcDb2dVertex
 10
171.553353
 20
84.828586
 30
0.0
  0
VERTEX
  5
79C
100
AcDbEntity
  8
レイヤー_2
 62
     7
100
AcDbVertex
100
AcDb2dVertex
 10
172.314719
 20
85.120386
 30
0.0
  0
VERTEX
  5
79D
100
AcDbEntity
  8
レイヤー_2
 62
     7
100
AcDbVertex
100
AcDb2dVertex
 10
172.899007
 20
85.588919
 30
0.0
  0
VERTEX
  5
79E
100
AcDbEntity
  8
レイヤー_2
 62
     7
100
AcDbVertex
100
AcDb2dVertex
 10
173.367196
 20
86.232463
 30
0.0
  0
VERTEX
  5
79F
100
AcDbEntity
  8
レイヤー_2
 62
     7
100
AcDbVertex
100
AcDb2dVertex
 10
173.717562
 20
86.992795
 30
0.0
  0
VERTEX
  5
7A0
100
AcDbEntity
  8
レイヤー_2
 62
     7
100
AcDbVertex
100
AcDb2dVertex
 10
173.776128
 20
87.753817
 30
0.0
  0
SEQEND
  5
7A1
100
AcDbEntity
  8
レイヤー_2
 62
     7
  0
LINE
  5
786
100
AcDbEntity
  8
レイヤー_2
 62
     7
100
AcDbLine
 10
170.79302
 20
90.444436
 30
0.0
 11
170.79302
 21
89.741981
 31
0.0
  0
LINE
  5
785
100
AcDbEntity
  8
レイヤー_2
 62
     7
100
AcDbLine
 10
170.79302
 20
89.040215
 30
0.0
 11
170.79302
 21
85.588919
 31
0.0
  0
LINE
  5
784
100
AcDbEntity
  8
レイヤー_2
 62
     7
100
AcDbLine
 10
170.79302
 20
84.886808
 30
0.0
 11
170.79302
 21
84.242575
 31
0.0
  0
LINE
  5
783
100
AcDbEntity
  8
レイヤー_2
 62
     7
100
AcDbLine
 10
170.79302
 20
83.833298
 30
0.0
 11
170.79302
 21
84.535409
 31
0.0
  0
LINE
  5
782
100
AcDbEntity
  8
レイヤー_2
 62
     7
100
AcDbLine
 10
166.756057
 20
87.753817
 30
0.0
 11
170.207699
 21
87.753817
 31
0.0
  0
LINE
  5
781
100
AcDbEntity
  8
レイヤー_2
 62
     7
100
AcDbLine
 10
170.910154
 20
87.753817
 30
0.0
 11
171.612264
 21
87.753817
 31
0.0
  0
LINE
  5
780
100
AcDbEntity
  8
レイヤー_2
 62
     7
100
AcDbLine
 10
172.255808
 20
87.753817
 30
0.0
 11
174.53715
 21
87.753817
 31
0.0
  0
LINE
  5
77F
100
AcDbEntity
  8
レイヤー_2
 62
     7
100
AcDbLine
 10
174.53715
 20
87.753817
 30
0.0
 11
173.83504
 21
87.753817
 31
0.0
  0
LINE
  5
77E
100
AcDbEntity
  8
レイヤー_2
 62
     7
100
AcDbLine
 10
176.292771
 20
82.312977
 30
0.0
 11
167.69209
 21
90.853025
 31
0.0
  0
LINE
  5
77D
100
AcDbEntity
  8
レイヤー_2
 62
     7
100
AcDbLine
 10
176.292771
 20
82.312977
 30
0.0
 11
187.97509
 21
82.312977
 31
0.0
  0
LINE
  5
77C
100
AcDbEntity
  8
レイヤー_2
 62
     7
100
AcDbLine
 10
167.57599
 20
89.859459
 30
0.0
 11
169.857332
 21
89.859459
 31
0.0
  0
LINE
  5
77B
100
AcDbEntity
  8
レイヤー_2
 62
     7
100
AcDbLine
 10
171.787964
 20
85.588919
 30
0.0
 11
174.069306
 21
85.588919
 31
0.0
  0
LINE
  5
77A
100
AcDbEntity
  8
レイヤー_2
 62
     7
100
AcDbLine
 10
143.80552
 20
159.270898
 30
0.0
 11
185.758515
 21
159.270898
 31
0.0
  0
LINE
  5
779
100
AcDbEntity
  8
レイヤー_2
 62
     7
100
AcDbLine
 10
149.783105
 20
143.331475
 30
0.0
 11
149.783105
 21
143.031407
 31
0.0
  0
LINE
  5
778
100
AcDbEntity
  8
レイヤー_2
 62
     7
100
AcDbLine
 10
152.053423
 20
143.340777
 30
0.0
 11
149.622909
 21
143.009359
 31
0.0
  0
LINE
  5
777
100
AcDbEntity
  8
レイヤー_2
 62
     7
100
AcDbLine
 10
151.937668
 20
143.62293
 30
0.0
 11
151.937668
 21
143.321829
 31
0.0
  0
LINE
  5
776
100
AcDbEntity
  8
レイヤー_2
 62
     7
100
AcDbLine
 10
149.622909
 20
143.009359
 30
0.0
 11
149.622909
 21
142.434717
 31
0.0
  0
LINE
  5
775
100
AcDbEntity
  8
レイヤー_2
 62
     7
100
AcDbLine
 10
152.053423
 20
142.765446
 30
0.0
 11
152.053423
 21
143.340777
 31
0.0
  0
LINE
  5
774
100
AcDbEntity
  8
レイヤー_2
 62
     7
100
AcDbLine
 10
152.053423
 20
142.765446
 30
0.0
 11
149.622909
 21
142.434717
 31
0.0
  0
LINE
  5
773
100
AcDbEntity
  8
レイヤー_2
 62
     7
100
AcDbLine
 10
149.783105
 20
142.451942
 30
0.0
 11
149.783105
 21
142.153597
 31
0.0
  0
LINE
  5
772
100
AcDbEntity
  8
レイヤー_2
 62
     7
100
AcDbLine
 10
152.053423
 20
142.462278
 30
0.0
 11
149.622909
 21
142.131548
 31
0.0
  0
LINE
  5
771
100
AcDbEntity
  8
レイヤー_2
 62
     7
100
AcDbLine
 10
151.937668
 20
142.74512
 30
0.0
 11
151.937668
 21
142.44333
 31
0.0
  0
LINE
  5
770
100
AcDbEntity
  8
レイヤー_2
 62
     7
100
AcDbLine
 10
149.622909
 20
142.131548
 30
0.0
 11
149.622909
 21
141.556906
 31
0.0
  0
LINE
  5
76F
100
AcDbEntity
  8
レイヤー_2
 62
     7
100
AcDbLine
 10
152.053423
 20
141.885913
 30
0.0
 11
152.053423
 21
142.462278
 31
0.0
  0
LINE
  5
76E
100
AcDbEntity
  8
レイヤー_2
 62
     7
100
AcDbLine
 10
152.053423
 20
141.885913
 30
0.0
 11
149.622909
 21
141.556906
 31
0.0
  0
LINE
  5
76D
100
AcDbEntity
  8
レイヤー_2
 62
     7
100
AcDbLine
 10
149.783105
 20
141.574132
 30
0.0
 11
149.783105
 21
141.275787
 31
0.0
  0
LINE
  5
76C
100
AcDbEntity
  8
レイヤー_2
 62
     7
100
AcDbLine
 10
152.053423
 20
141.582745
 30
0.0
 11
149.622909
 21
141.252705
 31
0.0
  0
LINE
  5
76B
100
AcDbEntity
  8
レイヤー_2
 62
     7
100
AcDbLine
 10
151.937668
 20
141.865587
 30
0.0
 11
151.937668
 21
141.565519
 31
0.0
  0
LINE
  5
76A
100
AcDbEntity
  8
レイヤー_2
 62
     7
100
AcDbLine
 10
149.622909
 20
141.252705
 30
0.0
 11
149.622909
 21
140.677718
 31
0.0
  0
LINE
  5
769
100
AcDbEntity
  8
レイヤー_2
 62
     7
100
AcDbLine
 10
152.053423
 20
141.008103
 30
0.0
 11
152.053423
 21
141.582745
 31
0.0
  0
LINE
  5
768
100
AcDbEntity
  8
レイヤー_2
 62
     7
100
AcDbLine
 10
152.053423
 20
141.008103
 30
0.0
 11
149.622909
 21
140.677718
 31
0.0
  0
LINE
  5
767
100
AcDbEntity
  8
レイヤー_2
 62
     7
100
AcDbLine
 10
149.783105
 20
140.696322
 30
0.0
 11
149.783105
 21
140.396254
 31
0.0
  0
LINE
  5
766
100
AcDbEntity
  8
レイヤー_2
 62
     7
100
AcDbLine
 10
152.053423
 20
140.704934
 30
0.0
 11
149.622909
 21
140.374205
 31
0.0
  0
LINE
  5
765
100
AcDbEntity
  8
レイヤー_2
 62
     7
100
AcDbLine
 10
151.937668
 20
140.987777
 30
0.0
 11
151.937668
 21
140.686675
 31
0.0
  0
LINE
  5
764
100
AcDbEntity
  8
レイヤー_2
 62
     7
100
AcDbLine
 10
149.622909
 20
140.374205
 30
0.0
 11
149.622909
 21
139.798874
 31
0.0
  0
LINE
  5
763
100
AcDbEntity
  8
レイヤー_2
 62
     7
100
AcDbLine
 10
152.053423
 20
140.130292
 30
0.0
 11
152.053423
 21
140.704934
 31
0.0
  0
LINE
  5
762
100
AcDbEntity
  8
レイヤー_2
 62
     7
100
AcDbLine
 10
152.053423
 20
140.130292
 30
0.0
 11
149.622909
 21
139.798874
 31
0.0
  0
LINE
  5
761
100
AcDbEntity
  8
レイヤー_2
 62
     7
100
AcDbLine
 10
149.783105
 20
148.594548
 30
0.0
 11
149.783105
 21
148.294824
 31
0.0
  0
LINE
  5
760
100
AcDbEntity
  8
レイヤー_2
 62
     7
100
AcDbLine
 10
152.103033
 20
148.908396
 30
0.0
 11
149.629799
 21
148.573532
 31
0.0
  0
LINE
  5
75F
100
AcDbEntity
  8
レイヤー_2
 62
     7
100
AcDbLine
 10
152.053423
 20
148.60316
 30
0.0
 11
149.622909
 21
148.272431
 31
0.0
  0
LINE
  5
75E
100
AcDbEntity
  8
レイヤー_2
 62
     7
100
AcDbLine
 10
152.053423
 20
148.066414
 30
0.0
 11
152.053423
 21
148.60316
 31
0.0
  0
LINE
  5
75D
100
AcDbEntity
  8
レイヤー_2
 62
     7
100
AcDbLine
 10
151.937668
 20
148.886347
 30
0.0
 11
151.937668
 21
148.584557
 31
0.0
  0
LINE
  5
75C
100
AcDbEntity
  8
レイヤー_2
 62
     7
100
AcDbLine
 10
149.622909
 20
148.272431
 30
0.0
 11
149.622909
 21
147.697445
 31
0.0
  0
LINE
  5
75B
100
AcDbEntity
  8
レイヤー_2
 62
     7
100
AcDbLine
 10
152.053423
 20
148.02714
 30
0.0
 11
152.053423
 21
148.60316
 31
0.0
  0
LINE
  5
75A
100
AcDbEntity
  8
レイヤー_2
 62
     7
100
AcDbLine
 10
152.053423
 20
148.02714
 30
0.0
 11
149.622909
 21
147.697445
 31
0.0
  0
LINE
  5
759
100
AcDbEntity
  8
レイヤー_2
 62
     7
100
AcDbLine
 10
149.783105
 20
147.723627
 30
0.0
 11
149.783105
 21
147.424938
 31
0.0
  0
LINE
  5
758
100
AcDbEntity
  8
レイヤー_2
 62
     7
100
AcDbLine
 10
152.053423
 20
147.73224
 30
0.0
 11
149.622909
 21
147.401511
 31
0.0
  0
LINE
  5
757
100
AcDbEntity
  8
レイヤー_2
 62
     7
100
AcDbLine
 10
151.937668
 20
148.015427
 30
0.0
 11
151.937668
 21
147.71467
 31
0.0
  0
LINE
  5
756
100
AcDbEntity
  8
レイヤー_2
 62
     7
100
AcDbLine
 10
149.622909
 20
147.401511
 30
0.0
 11
149.622909
 21
146.827558
 31
0.0
  0
LINE
  5
755
100
AcDbEntity
  8
レイヤー_2
 62
     7
100
AcDbLine
 10
152.053423
 20
147.157943
 30
0.0
 11
152.053423
 21
147.73224
 31
0.0
  0
LINE
  5
754
100
AcDbEntity
  8
レイヤー_2
 62
     7
100
AcDbLine
 10
152.053423
 20
147.157943
 30
0.0
 11
149.622909
 21
146.827558
 31
0.0
  0
LINE
  5
753
100
AcDbEntity
  8
レイヤー_2
 62
     7
100
AcDbLine
 10
149.783105
 20
147.723627
 30
0.0
 11
149.783105
 21
147.424938
 31
0.0
  0
LINE
  5
752
100
AcDbEntity
  8
レイヤー_2
 62
     7
100
AcDbLine
 10
152.053423
 20
147.73224
 30
0.0
 11
149.622909
 21
147.401511
 31
0.0
  0
LINE
  5
751
100
AcDbEntity
  8
レイヤー_2
 62
     7
100
AcDbLine
 10
151.937668
 20
148.015427
 30
0.0
 11
151.937668
 21
147.71467
 31
0.0
  0
LINE
  5
750
100
AcDbEntity
  8
レイヤー_2
 62
     7
100
AcDbLine
 10
149.622909
 20
147.401511
 30
0.0
 11
149.622909
 21
146.827558
 31
0.0
  0
LINE
  5
74F
100
AcDbEntity
  8
レイヤー_2
 62
     7
100
AcDbLine
 10
152.053423
 20
147.157943
 30
0.0
 11
152.053423
 21
147.73224
 31
0.0
  0
LINE
  5
74E
100
AcDbEntity
  8
レイヤー_2
 62
     7
100
AcDbLine
 10
152.053423
 20
147.157943
 30
0.0
 11
149.622909
 21
146.827558
 31
0.0
  0
LINE
  5
74D
100
AcDbEntity
  8
レイヤー_2
 62
     7
100
AcDbLine
 10
149.783105
 20
146.844439
 30
0.0
 11
149.783105
 21
146.546094
 31
0.0
  0
LINE
  5
74C
100
AcDbEntity
  8
レイヤー_2
 62
     7
100
AcDbLine
 10
152.053423
 20
146.85443
 30
0.0
 11
149.622909
 21
146.523701
 31
0.0
  0
LINE
  5
74B
100
AcDbEntity
  8
レイヤー_2
 62
     7
100
AcDbLine
 10
151.937668
 20
147.136928
 30
0.0
 11
151.937668
 21
146.835826
 31
0.0
  0
LINE
  5
74A
100
AcDbEntity
  8
レイヤー_2
 62
     7
100
AcDbLine
 10
149.622909
 20
146.523701
 30
0.0
 11
149.622909
 21
145.94837
 31
0.0
  0
LINE
  5
749
100
AcDbEntity
  8
レイヤー_2
 62
     7
100
AcDbLine
 10
152.053423
 20
146.27841
 30
0.0
 11
152.053423
 21
146.85443
 31
0.0
  0
LINE
  5
748
100
AcDbEntity
  8
レイヤー_2
 62
     7
100
AcDbLine
 10
152.053423
 20
146.27841
 30
0.0
 11
149.622909
 21
145.94837
 31
0.0
  0
LINE
  5
747
100
AcDbEntity
  8
レイヤー_2
 62
     7
100
AcDbLine
 10
149.783105
 20
145.966629
 30
0.0
 11
149.783105
 21
145.668283
 31
0.0
  0
LINE
  5
746
100
AcDbEntity
  8
レイヤー_2
 62
     7
100
AcDbLine
 10
152.053423
 20
145.974897
 30
0.0
 11
149.622909
 21
145.645201
 31
0.0
  0
LINE
  5
745
100
AcDbEntity
  8
レイヤー_2
 62
     7
100
AcDbLine
 10
151.937668
 20
146.257739
 30
0.0
 11
151.937668
 21
145.958016
 31
0.0
  0
LINE
  5
744
100
AcDbEntity
  8
レイヤー_2
 62
     7
100
AcDbLine
 10
149.622909
 20
145.645201
 30
0.0
 11
149.622909
 21
145.06987
 31
0.0
  0
LINE
  5
743
100
AcDbEntity
  8
レイヤー_2
 62
     7
100
AcDbLine
 10
152.053423
 20
145.4006
 30
0.0
 11
152.053423
 21
145.974897
 31
0.0
  0
LINE
  5
742
100
AcDbEntity
  8
レイヤー_2
 62
     7
100
AcDbLine
 10
152.053423
 20
145.4006
 30
0.0
 11
149.622909
 21
145.06987
 31
0.0
  0
LINE
  5
741
100
AcDbEntity
  8
レイヤー_2
 62
     7
100
AcDbLine
 10
149.783105
 20
145.087785
 30
0.0
 11
149.783105
 21
144.788751
 31
0.0
  0
LINE
  5
740
100
AcDbEntity
  8
レイヤー_2
 62
     7
100
AcDbLine
 10
152.053423
 20
145.097087
 30
0.0
 11
149.622909
 21
144.766357
 31
0.0
  0
LINE
  5
73F
100
AcDbEntity
  8
レイヤー_2
 62
     7
100
AcDbLine
 10
151.937668
 20
145.37924
 30
0.0
 11
151.937668
 21
145.078483
 31
0.0
  0
LINE
  5
73E
100
AcDbEntity
  8
レイヤー_2
 62
     7
100
AcDbLine
 10
149.622909
 20
144.766357
 30
0.0
 11
149.622909
 21
144.19206
 31
0.0
  0
LINE
  5
73D
100
AcDbEntity
  8
レイヤー_2
 62
     7
100
AcDbLine
 10
152.053423
 20
144.521756
 30
0.0
 11
152.053423
 21
145.097087
 31
0.0
  0
LINE
  5
73C
100
AcDbEntity
  8
レイヤー_2
 62
     7
100
AcDbLine
 10
152.053423
 20
144.521756
 30
0.0
 11
149.622909
 21
144.19206
 31
0.0
  0
LINE
  5
73B
100
AcDbEntity
  8
レイヤー_2
 62
     7
100
AcDbLine
 10
149.783105
 20
144.209285
 30
0.0
 11
149.783105
 21
143.91094
 31
0.0
  0
LINE
  5
73A
100
AcDbEntity
  8
レイヤー_2
 62
     7
100
AcDbLine
 10
152.053423
 20
144.218587
 30
0.0
 11
149.622909
 21
143.888547
 31
0.0
  0
LINE
  5
739
100
AcDbEntity
  8
レイヤー_2
 62
     7
100
AcDbLine
 10
151.937668
 20
144.502119
 30
0.0
 11
151.937668
 21
144.200673
 31
0.0
  0
LINE
  5
738
100
AcDbEntity
  8
レイヤー_2
 62
     7
100
AcDbLine
 10
149.622909
 20
143.888547
 30
0.0
 11
149.622909
 21
143.312527
 31
0.0
  0
LINE
  5
737
100
AcDbEntity
  8
レイヤー_2
 62
     7
100
AcDbLine
 10
152.053423
 20
143.643256
 30
0.0
 11
152.053423
 21
144.218587
 31
0.0
  0
LINE
  5
736
100
AcDbEntity
  8
レイヤー_2
 62
     7
100
AcDbLine
 10
152.053423
 20
143.643256
 30
0.0
 11
149.622909
 21
143.312527
 31
0.0
  0
SPLINE
  5
735
100
AcDbEntity
  8
レイヤー_2
 62
     7
100
AcDbSpline
210
0.0
220
0.0
230
1.0
 70
     8
 71
     3
 72
    11
 73
     7
 74
     0
 42
0.00000001
 43
0.00000001
 40
0.0
 40
0.0
 40
0.0
 40
0.0
 40
1.0
 40
1.0
 40
1.0
 40
2.0
 40
2.0
 40
2.0
 40
2.0
 10
149.63393283420137
 20
148.57353244357637
 30
0.0
 10
149.63393283420137
 20
148.61590711805553
 30
0.0
 10
149.63393283420137
 20
148.78575032552081
 30
0.0
 10
149.63393283420137
 20
148.78575032552081
 30
0.0
 10
149.63393283420137
 20
148.78575032552081
 30
0.0
 10
149.63255479600693
 20
149.0517116970486
 30
0.0
 10
149.63255479600693
 20
149.0517116970486
 30
0.0
  0
LINE
  5
734
100
AcDbEntity
  8
レイヤー_2
 62
     7
100
AcDbLine
 10
152.10131
 20
149.061013
 30
0.0
 11
152.10131
 21
148.908396
 31
0.0
  0
LINE
  5
733
100
AcDbEntity
  8
レイヤー_2
 62
     7
100
AcDbLine
 10
149.783105
 20
139.807487
 30
0.0
 11
149.783105
 21
139.508108
 31
0.0
  0
LINE
  5
732
100
AcDbEntity
  8
レイヤー_2
 62
     7
100
AcDbLine
 10
152.053423
 20
139.816789
 30
0.0
 11
149.622909
 21
139.48606
 31
0.0
  0
LINE
  5
731
100
AcDbEntity
  8
レイヤー_2
 62
     7
100
AcDbLine
 10
151.937668
 20
140.098598
 30
0.0
 11
151.937668
 21
139.798874
 31
0.0
  0
LINE
  5
730
100
AcDbEntity
  8
レイヤー_2
 62
     7
100
AcDbLine
 10
149.622909
 20
139.48606
 30
0.0
 11
149.622909
 21
138.911762
 31
0.0
  0
LINE
  5
72F
100
AcDbEntity
  8
レイヤー_2
 62
     7
100
AcDbLine
 10
152.053423
 20
139.240424
 30
0.0
 11
152.053423
 21
139.816789
 31
0.0
  0
LINE
  5
72E
100
AcDbEntity
  8
レイヤー_2
 62
     7
100
AcDbLine
 10
152.053423
 20
139.240424
 30
0.0
 11
149.622909
 21
138.911762
 31
0.0
  0
LINE
  5
72D
100
AcDbEntity
  8
レイヤー_2
 62
     7
100
AcDbLine
 10
149.796541
 20
138.935533
 30
0.0
 11
149.82548
 21
138.596536
 31
0.0
  0
LINE
  5
72C
100
AcDbEntity
  8
レイヤー_2
 62
     7
100
AcDbLine
 10
152.060314
 20
139.101931
 30
0.0
 11
149.667006
 21
138.560707
 31
0.0
  0
LINE
  5
72B
100
AcDbEntity
  8
レイヤー_2
 62
     7
100
AcDbLine
 10
151.93319
 20
139.225266
 30
0.0
 11
151.945936
 21
139.073682
 31
0.0
  0
LINE
  5
72A
100
AcDbEntity
  8
レイヤー_2
 62
     7
100
AcDbLine
 10
149.667006
 20
138.560707
 30
0.0
 11
149.718338
 21
137.987788
 31
0.0
  0
LINE
  5
729
100
AcDbEntity
  8
レイヤー_2
 62
     7
100
AcDbLine
 10
152.110612
 20
138.527979
 30
0.0
 11
152.060314
 21
139.101931
 31
0.0
  0
LINE
  5
728
100
AcDbEntity
  8
レイヤー_2
 62
     7
100
AcDbLine
 10
152.110612
 20
138.527979
 30
0.0
 11
149.718338
 21
137.987788
 31
0.0
  0
LINE
  5
727
100
AcDbEntity
  8
レイヤー_2
 62
     7
100
AcDbLine
 10
149.905062
 20
138.030507
 30
0.0
 11
149.963973
 21
137.699778
 31
0.0
  0
LINE
  5
726
100
AcDbEntity
  8
レイヤー_2
 62
     7
100
AcDbLine
 10
152.144718
 20
138.398443
 30
0.0
 11
149.808599
 21
137.650168
 31
0.0
  0
LINE
  5
725
100
AcDbEntity
  8
レイヤー_2
 62
     7
100
AcDbLine
 10
152.007604
 20
138.50593
 30
0.0
 11
152.033097
 21
138.359513
 31
0.0
  0
LINE
  5
724
100
AcDbEntity
  8
レイヤー_2
 62
     7
100
AcDbLine
 10
149.808599
 20
137.650168
 30
0.0
 11
149.908507
 21
137.084828
 31
0.0
  0
LINE
  5
723
100
AcDbEntity
  8
レイヤー_2
 62
     7
100
AcDbLine
 10
152.244626
 20
137.831725
 30
0.0
 11
152.144718
 21
138.398443
 31
0.0
  0
LINE
  5
722
100
AcDbEntity
  8
レイヤー_2
 62
     7
100
AcDbLine
 10
152.244626
 20
137.831725
 30
0.0
 11
149.908507
 21
137.084828
 31
0.0
  0
LINE
  5
721
100
AcDbEntity
  8
レイヤー_2
 62
     7
100
AcDbLine
 10
150.072149
 20
137.137538
 30
0.0
 11
150.167578
 21
136.780971
 31
0.0
  0
LINE
  5
720
100
AcDbEntity
  8
レイヤー_2
 62
     7
100
AcDbLine
 10
152.280455
 20
137.665671
 30
0.0
 11
150.017372
 21
136.71827
 31
0.0
  0
LINE
  5
71F
100
AcDbEntity
  8
レイヤー_2
 62
     7
100
AcDbLine
 10
152.125081
 20
137.793484
 30
0.0
 11
152.171935
 21
137.618129
 31
0.0
  0
LINE
  5
71E
100
AcDbEntity
  8
レイヤー_2
 62
     7
100
AcDbLine
 10
150.017372
 20
136.71827
 30
0.0
 11
150.165856
 21
136.162231
 31
0.0
  0
LINE
  5
71D
100
AcDbEntity
  8
レイヤー_2
 62
     7
100
AcDbLine
 10
152.428594
 20
137.109977
 30
0.0
 11
152.280455
 21
137.665671
 31
0.0
  0
LINE
  5
71C
100
AcDbEntity
  8
レイヤー_2
 62
     7
100
AcDbLine
 10
152.428594
 20
137.109977
 30
0.0
 11
150.165856
 21
136.162231
 31
0.0
  0
LINE
  5
71B
100
AcDbEntity
  8
レイヤー_2
 62
     7
100
AcDbLine
 10
150.320196
 20
136.226999
 30
0.0
 11
150.456277
 21
135.852862
 31
0.0
  0
LINE
  5
71A
100
AcDbEntity
  8
レイヤー_2
 62
     7
100
AcDbLine
 10
152.483027
 20
136.918085
 30
0.0
 11
150.312272
 21
135.77707
 31
0.0
  0
LINE
  5
719
100
AcDbEntity
  8
レイヤー_2
 62
     7
100
AcDbLine
 10
152.30836
 20
137.060712
 30
0.0
 11
152.381052
 21
136.861241
 31
0.0
  0
LINE
  5
718
100
AcDbEntity
  8
レイヤー_2
 62
     7
100
AcDbLine
 10
150.312272
 20
135.77707
 30
0.0
 11
150.510365
 21
135.236879
 31
0.0
  0
LINE
  5
717
100
AcDbEntity
  8
レイヤー_2
 62
     7
100
AcDbLine
 10
152.679742
 20
136.377894
 30
0.0
 11
152.483027
 21
136.918085
 31
0.0
  0
LINE
  5
716
100
AcDbEntity
  8
レイヤー_2
 62
     7
100
AcDbLine
 10
152.679742
 20
136.377894
 30
0.0
 11
150.510365
 21
135.236879
 31
0.0
  0
LINE
  5
715
100
AcDbEntity
  8
レイヤー_2
 62
     7
100
AcDbLine
 10
150.652303
 20
135.311637
 30
0.0
 11
150.898972
 21
134.849306
 31
0.0
  0
LINE
  5
714
100
AcDbEntity
  8
レイヤー_2
 62
     7
100
AcDbLine
 10
152.757601
 20
136.186347
 30
0.0
 11
150.76668
 21
134.754565
 31
0.0
  0
LINE
  5
713
100
AcDbEntity
  8
レイヤー_2
 62
     7
100
AcDbLine
 10
152.55813
 20
136.313816
 30
0.0
 11
152.664583
 21
136.115723
 31
0.0
  0
LINE
  5
712
100
AcDbEntity
  8
レイヤー_2
 62
     7
100
AcDbLine
 10
150.76668
 20
134.754565
 30
0.0
 11
151.037809
 21
134.246414
 31
0.0
  0
LINE
  5
711
100
AcDbEntity
  8
レイヤー_2
 62
     7
100
AcDbLine
 10
153.02873
 20
135.678196
 30
0.0
 11
152.757601
 21
136.186347
 31
0.0
  0
LINE
  5
710
100
AcDbEntity
  8
レイヤー_2
 62
     7
100
AcDbLine
 10
153.02873
 20
135.678196
 30
0.0
 11
151.037809
 21
134.246414
 31
0.0
  0
LINE
  5
70F
100
AcDbEntity
  8
レイヤー_2
 62
     7
100
AcDbLine
 10
154.804332
 20
152.719705
 30
0.0
 11
154.804332
 21
152.402412
 31
0.0
  0
LINE
  5
70E
100
AcDbEntity
  8
レイヤー_2
 62
     7
100
AcDbLine
 10
146.872
 20
152.402412
 30
0.0
 11
146.872
 21
152.719705
 31
0.0
  0
LINE
  5
70D
100
AcDbEntity
  8
レイヤー_2
 62
     7
100
AcDbLine
 10
146.606727
 20
152.736586
 30
0.0
 11
146.606727
 21
153.265063
 31
0.0
  0
LINE
  5
70C
100
AcDbEntity
  8
レイヤー_2
 62
     7
100
AcDbLine
 10
155.068571
 20
153.265063
 30
0.0
 11
155.068571
 21
152.736586
 31
0.0
  0
LINE
  5
70B
100
AcDbEntity
  8
レイヤー_2
 62
     7
100
AcDbLine
 10
146.430683
 20
159.270898
 30
0.0
 11
146.430683
 21
161.034098
 31
0.0
  0
LINE
  5
70A
100
AcDbEntity
  8
レイヤー_2
 62
     7
100
AcDbLine
 10
155.245993
 20
161.034098
 30
0.0
 11
155.245993
 21
159.270898
 31
0.0
  0
LINE
  5
709
100
AcDbEntity
  8
レイヤー_2
 62
     7
100
AcDbLine
 10
148.193883
 20
149.18607
 30
0.0
 11
148.193883
 21
151.344078
 31
0.0
  0
LINE
  5
708
100
AcDbEntity
  8
レイヤー_2
 62
     7
100
AcDbLine
 10
148.193883
 20
153.265063
 30
0.0
 11
148.193883
 21
159.270898
 31
0.0
  0
LINE
  5
707
100
AcDbEntity
  8
レイヤー_2
 62
     7
100
AcDbLine
 10
153.482794
 20
159.270898
 30
0.0
 11
153.482794
 21
153.265063
 31
0.0
  0
LINE
  5
706
100
AcDbEntity
  8
レイヤー_2
 62
     7
100
AcDbLine
 10
153.482794
 20
151.344078
 30
0.0
 11
153.482794
 21
149.18607
 31
0.0
  0
LINE
  5
705
100
AcDbEntity
  8
レイヤー_2
 62
     7
100
AcDbLine
 10
153.482794
 20
149.18607
 30
0.0
 11
153.360148
 21
149.062736
 31
0.0
  0
LINE
  5
704
100
AcDbEntity
  8
レイヤー_2
 62
     7
100
AcDbLine
 10
148.317562
 20
149.062736
 30
0.0
 11
148.193883
 21
149.18607
 31
0.0
  0
LINE
  5
703
100
AcDbEntity
  8
レイヤー_2
 62
     7
100
AcDbLine
 10
154.804332
 20
152.402412
 30
0.0
 11
146.872
 21
152.402412
 31
0.0
  0
LINE
  5
702
100
AcDbEntity
  8
レイヤー_2
 62
     7
100
AcDbLine
 10
155.068571
 20
152.736586
 30
0.0
 11
146.606727
 21
152.736586
 31
0.0
  0
LINE
  5
701
100
AcDbEntity
  8
レイヤー_2
 62
     7
100
AcDbLine
 10
155.068571
 20
153.265063
 30
0.0
 11
146.606727
 21
153.265063
 31
0.0
  0
LINE
  5
700
100
AcDbEntity
  8
レイヤー_2
 62
     7
100
AcDbLine
 10
146.430683
 20
161.034098
 30
0.0
 11
155.245993
 21
161.034098
 31
0.0
  0
LINE
  5
6FF
100
AcDbEntity
  8
レイヤー_2
 62
     7
100
AcDbLine
 10
153.482794
 20
149.18607
 30
0.0
 11
148.193883
 21
149.18607
 31
0.0
  0
LINE
  5
6FE
100
AcDbEntity
  8
レイヤー_2
 62
     7
100
AcDbLine
 10
148.317562
 20
149.062736
 30
0.0
 11
153.360148
 21
149.062736
 31
0.0
  0
LINE
  5
6FD
100
AcDbEntity
  8
レイヤー_2
 62
     7
100
AcDbLine
 10
148.905295
 20
151.344078
 30
0.0
 11
151.908729
 21
151.344078
 31
0.0
  0
LINE
  5
6FC
100
AcDbEntity
  8
レイヤー_2
 62
     7
100
AcDbLine
 10
152.694211
 20
151.344078
 30
0.0
 11
152.694211
 21
152.402412
 31
0.0
  0
LINE
  5
6FB
100
AcDbEntity
  8
レイヤー_2
 62
     7
100
AcDbLine
 10
152.333165
 20
151.344078
 30
0.0
 11
151.908729
 21
151.344078
 31
0.0
  0
LINE
  5
6FA
100
AcDbEntity
  8
レイヤー_2
 62
     7
100
AcDbLine
 10
154.202818
 20
151.344078
 30
0.0
 11
152.333165
 21
151.344078
 31
0.0
  0
LINE
  5
6F9
100
AcDbEntity
  8
レイヤー_2
 62
     7
100
AcDbLine
 10
148.905295
 20
151.344078
 30
0.0
 11
148.905295
 21
152.402412
 31
0.0
  0
LINE
  5
6F8
100
AcDbEntity
  8
レイヤー_2
 62
     7
100
AcDbLine
 10
148.905295
 20
151.344078
 30
0.0
 11
148.543905
 21
151.344078
 31
0.0
  0
LINE
  5
6F7
100
AcDbEntity
  8
レイヤー_2
 62
     7
100
AcDbLine
 10
147.410468
 20
151.344078
 30
0.0
 11
147.410468
 21
152.402412
 31
0.0
  0
LINE
  5
6F6
100
AcDbEntity
  8
レイヤー_2
 62
     7
100
AcDbLine
 10
147.410468
 20
151.344078
 30
0.0
 11
148.543905
 21
151.344078
 31
0.0
  0
LINE
  5
6F5
100
AcDbEntity
  8
レイヤー_2
 62
     7
100
AcDbLine
 10
154.266897
 20
151.344078
 30
0.0
 11
154.266897
 21
152.402412
 31
0.0
  0
LINE
  5
6F4
100
AcDbEntity
  8
レイヤー_2
 62
     7
100
AcDbLine
 10
154.266897
 20
151.344078
 30
0.0
 11
154.202818
 21
151.344078
 31
0.0
  0
LINE
  5
6F3
100
AcDbEntity
  8
レイヤー_2
 62
     7
100
AcDbLine
 10
150.838338
 20
159.270898
 30
0.0
 11
155.245993
 21
159.270898
 31
0.0
  0
LINE
  5
6F2
100
AcDbEntity
  8
レイヤー_2
 62
     7
100
AcDbLine
 10
146.430683
 20
159.270898
 30
0.0
 11
150.838338
 21
159.270898
 31
0.0
  0
LINE
  5
6F1
100
AcDbEntity
  8
レイヤー_2
 62
     7
100
AcDbLine
 10
153.130705
 20
159.270898
 30
0.0
 11
153.130705
 21
153.265063
 31
0.0
  0
LINE
  5
6F0
100
AcDbEntity
  8
レイヤー_2
 62
     7
100
AcDbLine
 10
153.130705
 20
151.344078
 30
0.0
 11
153.130705
 21
149.18607
 31
0.0
  0
LINE
  5
6EF
100
AcDbEntity
  8
レイヤー_2
 62
     7
100
AcDbLine
 10
148.545972
 20
149.18607
 30
0.0
 11
148.545972
 21
151.344078
 31
0.0
  0
LINE
  5
6EE
100
AcDbEntity
  8
レイヤー_2
 62
     7
100
AcDbLine
 10
148.545972
 20
153.265063
 30
0.0
 11
148.545972
 21
159.270898
 31
0.0
  0
SPLINE
  5
6ED
100
AcDbEntity
  8
レイヤー_2
 62
     7
100
AcDbSpline
210
0.0
220
0.0
230
1.0
 70
     8
 71
     3
 72
    17
 73
    13
 74
     0
 42
0.00000001
 43
0.00000001
 40
0.0
 40
0.0
 40
0.0
 40
0.0
 40
1.0
 40
1.0
 40
1.0
 40
2.0
 40
2.0
 40
2.0
 40
3.0
 40
3.0
 40
3.0
 40
4.0
 40
4.0
 40
4.0
 40
4.0
 10
148.23212348090277
 20
87.907123480902769
 30
0.0
 10
148.23212348090277
 20
89.367843967013883
 30
0.0
 10
149.41689181857637
 20
90.552612304687486
 30
0.0
 10
150.87657877604164
 20
90.552612304687486
 30
0.0
 10
152.33729926215275
 20
90.552612304687486
 30
0.0
 10
153.52103407118054
 20
89.367843967013883
 30
0.0
 10
153.52103407118054
 20
87.907123480902769
 30
0.0
 10
153.52103407118054
 20
86.447092013888877
 30
0.0
 10
152.33729926215275
 20
85.26370171440972
 30
0.0
 10
150.87657877604164
 20
85.26370171440972
 30
0.0
 10
149.41689181857637
 20
85.26370171440972
 30
0.0
 10
148.23212348090277
 20
86.447092013888877
 30
0.0
 10
148.23212348090277
 20
87.907123480902769
 30
0.0
  0
LINE
  5
6EC
100
AcDbEntity
  8
レイヤー_2
 62
     7
100
AcDbLine
 10
155.935701
 20
185.086377
 30
0.0
 11
156.000469
 21
185.082587
 31
0.0
  0
LINE
  5
6EB
100
AcDbEntity
  8
レイヤー_2
 62
     7
100
AcDbLine
 10
156.000469
 20
184.620083
 30
0.0
 11
155.935701
 21
184.616294
 31
0.0
  0
POLYLINE
  5
6E0
100
AcDbEntity
  8
レイヤー_2
 62
     7
100
AcDb2dPolyline
 66
     1
 10
0.0
 20
0.0
 30
0.0
  0
VERTEX
  5
6E1
100
AcDbEntity
  8
レイヤー_2
 62
     7
100
AcDbVertex
100
AcDb2dVertex
 10
156.000469
 20
185.081554
 30
0.0
  0
VERTEX
  5
6E2
100
AcDbEntity
  8
レイヤー_2
 62
     7
100
AcDbVertex
100
AcDb2dVertex
 10
156.011149
 20
185.080004
 30
0.0
  0
VERTEX
  5
6E3
100
AcDbEntity
  8
レイヤー_2
 62
     7
100
AcDbVertex
100
AcDb2dVertex
 10
156.021484
 20
185.074319
 30
0.0
  0
VERTEX
  5
6E4
100
AcDbEntity
  8
レイヤー_2
 62
     7
100
AcDbVertex
100
AcDb2dVertex
 10
156.025618
 20
185.067084
 30
0.0
  0
VERTEX
  5
6E5
100
AcDbEntity
  8
レイヤー_2
 62
     7
100
AcDbVertex
100
AcDb2dVertex
 10
156.031131
 20
185.061572
 30
0.0
  0
VERTEX
  5
6E6
100
AcDbEntity
  8
レイヤー_2
 62
     7
100
AcDbVertex
100
AcDb2dVertex
 10
156.032509
 20
185.056405
 30
0.0
  0
VERTEX
  5
6E7
100
AcDbEntity
  8
レイヤー_2
 62
     7
100
AcDbVertex
100
AcDb2dVertex
 10
156.03492
 20
185.04917
 30
0.0
  0
VERTEX
  5
6E8
100
AcDbEntity
  8
レイヤー_2
 62
     7
100
AcDbVertex
100
AcDb2dVertex
 10
156.03871
 20
185.023676
 30
0.0
  0
VERTEX
  5
6E9
100
AcDbEntity
  8
レイヤー_2
 62
     7
100
AcDbVertex
100
AcDb2dVertex
 10
156.041121
 20
184.977167
 30
0.0
  0
SEQEND
  5
6EA
100
AcDbEntity
  8
レイヤー_2
 62
     7
  0
POLYLINE
  5
6D5
100
AcDbEntity
  8
レイヤー_2
 62
     7
100
AcDb2dPolyline
 66
     1
 10
0.0
 20
0.0
 30
0.0
  0
VERTEX
  5
6D6
100
AcDbEntity
  8
レイヤー_2
 62
     7
100
AcDbVertex
100
AcDb2dVertex
 10
156.043877
 20
184.851077
 30
0.0
  0
VERTEX
  5
6D7
100
AcDbEntity
  8
レイヤー_2
 62
     7
100
AcDbVertex
100
AcDb2dVertex
 10
156.042844
 20
184.798711
 30
0.0
  0
VERTEX
  5
6D8
100
AcDbEntity
  8
レイヤー_2
 62
     7
100
AcDbVertex
100
AcDb2dVertex
 10
156.041121
 20
184.732221
 30
0.0
  0
VERTEX
  5
6D9
100
AcDbEntity
  8
レイヤー_2
 62
     7
100
AcDbVertex
100
AcDb2dVertex
 10
156.03871
 20
184.679856
 30
0.0
  0
VERTEX
  5
6DA
100
AcDbEntity
  8
レイヤー_2
 62
     7
100
AcDbVertex
100
AcDb2dVertex
 10
156.032509
 20
184.644888
 30
0.0
  0
VERTEX
  5
6DB
100
AcDbEntity
  8
レイヤー_2
 62
     7
100
AcDbVertex
100
AcDb2dVertex
 10
156.02803
 20
184.637309
 30
0.0
  0
VERTEX
  5
6DC
100
AcDbEntity
  8
レイヤー_2
 62
     7
100
AcDbVertex
100
AcDb2dVertex
 10
156.023207
 20
184.630074
 30
0.0
  0
VERTEX
  5
6DD
100
AcDbEntity
  8
レイヤー_2
 62
     7
100
AcDbVertex
100
AcDb2dVertex
 10
156.012872
 20
184.623184
 30
0.0
  0
VERTEX
  5
6DE
100
AcDbEntity
  8
レイヤー_2
 62
     7
100
AcDbVertex
100
AcDb2dVertex
 10
156.005981
 20
184.621978
 30
0.0
  0
SEQEND
  5
6DF
100
AcDbEntity
  8
レイヤー_2
 62
     7
  0
LINE
  5
6D4
100
AcDbEntity
  8
レイヤー_2
 62
     7
100
AcDbLine
 10
155.935701
 20
185.940244
 30
0.0
 11
155.995302
 21
185.938694
 31
0.0
  0
LINE
  5
6D3
100
AcDbEntity
  8
レイヤー_2
 62
     7
100
AcDbLine
 10
156.004603
 20
185.47619
 30
0.0
 11
155.936391
 21
185.470505
 31
0.0
  0
LINE
  5
6D2
100
AcDbEntity
  8
レイヤー_2
 62
     7
100
AcDbLine
 10
155.936391
 20
184.231477
 30
0.0
 11
156.004603
 21
184.227342
 31
0.0
  0
LINE
  5
6D1
100
AcDbEntity
  8
レイヤー_2
 62
     7
100
AcDbLine
 10
155.995302
 20
183.764494
 30
0.0
 11
155.935701
 21
183.762082
 31
0.0
  0
POLYLINE
  5
6C5
100
AcDbEntity
  8
レイヤー_2
 62
     7
100
AcDb2dPolyline
 66
     1
 10
0.0
 20
0.0
 30
0.0
  0
VERTEX
  5
6C6
100
AcDbEntity
  8
レイヤー_2
 62
     7
100
AcDbVertex
100
AcDb2dVertex
 10
156.004603
 20
184.226826
 30
0.0
  0
VERTEX
  5
6C7
100
AcDbEntity
  8
レイヤー_2
 62
     7
100
AcDbVertex
100
AcDb2dVertex
 10
156.004603
 20
184.227342
 30
0.0
  0
VERTEX
  5
6C8
100
AcDbEntity
  8
レイヤー_2
 62
     7
100
AcDbVertex
100
AcDb2dVertex
 10
156.018039
 20
184.223036
 30
0.0
  0
VERTEX
  5
6C9
100
AcDbEntity
  8
レイヤー_2
 62
     7
100
AcDbVertex
100
AcDb2dVertex
 10
156.025618
 20
184.217007
 30
0.0
  0
VERTEX
  5
6CA
100
AcDbEntity
  8
レイヤー_2
 62
     7
100
AcDbVertex
100
AcDb2dVertex
 10
156.032509
 20
184.210634
 30
0.0
  0
VERTEX
  5
6CB
100
AcDbEntity
  8
レイヤー_2
 62
     7
100
AcDbVertex
100
AcDb2dVertex
 10
156.03492
 20
184.205122
 30
0.0
  0
VERTEX
  5
6CC
100
AcDbEntity
  8
レイヤー_2
 62
     7
100
AcDbVertex
100
AcDb2dVertex
 10
156.036987
 20
184.199093
 30
0.0
  0
VERTEX
  5
6CD
100
AcDbEntity
  8
レイヤー_2
 62
     7
100
AcDbVertex
100
AcDb2dVertex
 10
156.03871
 20
184.192202
 30
0.0
  0
VERTEX
  5
6CE
100
AcDbEntity
  8
レイヤー_2
 62
     7
100
AcDbVertex
100
AcDb2dVertex
 10
156.041121
 20
184.166709
 30
0.0
  0
VERTEX
  5
6CF
100
AcDbEntity
  8
レイヤー_2
 62
     7
100
AcDbVertex
100
AcDb2dVertex
 10
156.042844
 20
184.122439
 30
0.0
  0
SEQEND
  5
6D0
100
AcDbEntity
  8
レイヤー_2
 62
     7
  0
POLYLINE
  5
6BB
100
AcDbEntity
  8
レイヤー_2
 62
     7
100
AcDb2dPolyline
 66
     1
 10
0.0
 20
0.0
 30
0.0
  0
VERTEX
  5
6BC
100
AcDbEntity
  8
レイヤー_2
 62
     7
100
AcDbVertex
100
AcDb2dVertex
 10
156.040432
 20
183.925897
 30
0.0
  0
VERTEX
  5
6BD
100
AcDbEntity
  8
レイヤー_2
 62
     7
100
AcDbVertex
100
AcDb2dVertex
 10
156.03871
 20
183.875254
 30
0.0
  0
VERTEX
  5
6BE
100
AcDbEntity
  8
レイヤー_2
 62
     7
100
AcDbVertex
100
AcDb2dVertex
 10
156.03492
 20
183.823749
 30
0.0
  0
VERTEX
  5
6BF
100
AcDbEntity
  8
レイヤー_2
 62
     7
100
AcDbVertex
100
AcDb2dVertex
 10
156.02803
 20
183.789988
 30
0.0
  0
VERTEX
  5
6C0
100
AcDbEntity
  8
レイヤー_2
 62
     7
100
AcDbVertex
100
AcDb2dVertex
 10
156.025618
 20
183.782408
 30
0.0
  0
VERTEX
  5
6C1
100
AcDbEntity
  8
レイヤー_2
 62
     7
100
AcDbVertex
100
AcDb2dVertex
 10
156.019762
 20
183.775518
 30
0.0
  0
VERTEX
  5
6C2
100
AcDbEntity
  8
レイヤー_2
 62
     7
100
AcDbVertex
100
AcDb2dVertex
 10
156.01046
 20
183.768283
 30
0.0
  0
VERTEX
  5
6C3
100
AcDbEntity
  8
レイヤー_2
 62
     7
100
AcDbVertex
100
AcDb2dVertex
 10
155.998402
 20
183.764494
 30
0.0
  0
SEQEND
  5
6C4
100
AcDbEntity
  8
レイヤー_2
 62
     7
  0
POLYLINE
  5
6AF
100
AcDbEntity
  8
レイヤー_2
 62
     7
100
AcDb2dPolyline
 66
     1
 10
0.0
 20
0.0
 30
0.0
  0
VERTEX
  5
6B0
100
AcDbEntity
  8
レイヤー_2
 62
     7
100
AcDbVertex
100
AcDb2dVertex
 10
155.995302
 20
185.938694
 30
0.0
  0
VERTEX
  5
6B1
100
AcDbEntity
  8
レイヤー_2
 62
     7
100
AcDbVertex
100
AcDb2dVertex
 10
155.99668
 20
185.938694
 30
0.0
  0
VERTEX
  5
6B2
100
AcDbEntity
  8
レイヤー_2
 62
     7
100
AcDbVertex
100
AcDb2dVertex
 10
156.008738
 20
185.935248
 30
0.0
  0
VERTEX
  5
6B3
100
AcDbEntity
  8
レイヤー_2
 62
     7
100
AcDbVertex
100
AcDb2dVertex
 10
156.018039
 20
185.929564
 30
0.0
  0
VERTEX
  5
6B4
100
AcDbEntity
  8
レイヤー_2
 62
     7
100
AcDbVertex
100
AcDb2dVertex
 10
156.023207
 20
185.923191
 30
0.0
  0
VERTEX
  5
6B5
100
AcDbEntity
  8
レイヤー_2
 62
     7
100
AcDbVertex
100
AcDb2dVertex
 10
156.025618
 20
185.917334
 30
0.0
  0
VERTEX
  5
6B6
100
AcDbEntity
  8
レイヤー_2
 62
     7
100
AcDbVertex
100
AcDb2dVertex
 10
156.02803
 20
185.912511
 30
0.0
  0
VERTEX
  5
6B7
100
AcDbEntity
  8
レイヤー_2
 62
     7
100
AcDbVertex
100
AcDb2dVertex
 10
156.031131
 20
185.905276
 30
0.0
  0
VERTEX
  5
6B8
100
AcDbEntity
  8
レイヤー_2
 62
     7
100
AcDbVertex
100
AcDb2dVertex
 10
156.03492
 20
185.880127
 30
0.0
  0
VERTEX
  5
6B9
100
AcDbEntity
  8
レイヤー_2
 62
     7
100
AcDbVertex
100
AcDb2dVertex
 10
156.036987
 20
185.836719
 30
0.0
  0
SEQEND
  5
6BA
100
AcDbEntity
  8
レイヤー_2
 62
     7
  0
POLYLINE
  5
6A5
100
AcDbEntity
  8
レイヤー_2
 62
     7
100
AcDb2dPolyline
 66
     1
 10
0.0
 20
0.0
 30
0.0
  0
VERTEX
  5
6A6
100
AcDbEntity
  8
レイヤー_2
 62
     7
100
AcDbVertex
100
AcDb2dVertex
 10
156.043877
 20
185.63897
 30
0.0
  0
VERTEX
  5
6A7
100
AcDbEntity
  8
レイヤー_2
 62
     7
100
AcDbVertex
100
AcDb2dVertex
 10
156.042844
 20
185.588672
 30
0.0
  0
VERTEX
  5
6A8
100
AcDbEntity
  8
レイヤー_2
 62
     7
100
AcDbVertex
100
AcDb2dVertex
 10
156.041121
 20
185.536306
 30
0.0
  0
VERTEX
  5
6A9
100
AcDbEntity
  8
レイヤー_2
 62
     7
100
AcDbVertex
100
AcDb2dVertex
 10
156.036987
 20
185.502544
 30
0.0
  0
VERTEX
  5
6AA
100
AcDbEntity
  8
レイヤー_2
 62
     7
100
AcDbVertex
100
AcDb2dVertex
 10
156.033542
 20
185.494965
 30
0.0
  0
VERTEX
  5
6AB
100
AcDbEntity
  8
レイヤー_2
 62
     7
100
AcDbVertex
100
AcDb2dVertex
 10
156.02803
 20
185.488075
 30
0.0
  0
VERTEX
  5
6AC
100
AcDbEntity
  8
レイヤー_2
 62
     7
100
AcDbVertex
100
AcDb2dVertex
 10
156.019762
 20
185.48084
 30
0.0
  0
VERTEX
  5
6AD
100
AcDbEntity
  8
レイヤー_2
 62
     7
100
AcDbVertex
100
AcDb2dVertex
 10
156.008049
 20
185.47619
 30
0.0
  0
SEQEND
  5
6AE
100
AcDbEntity
  8
レイヤー_2
 62
     7
  0
LINE
  5
6A4
100
AcDbEntity
  8
レイヤー_2
 62
     7
100
AcDbLine
 10
156.040432
 20
185.781425
 30
0.0
 11
156.04181
 21
185.7375
 31
0.0
  0
LINE
  5
6A3
100
AcDbEntity
  8
レイヤー_2
 62
     7
100
AcDbLine
 10
156.043877
 20
185.678589
 30
0.0
 11
156.043877
 21
185.634664
 31
0.0
  0
LINE
  5
6A2
100
AcDbEntity
  8
レイヤー_2
 62
     7
100
AcDbLine
 10
156.043877
 20
184.068351
 30
0.0
 11
156.043877
 21
184.024254
 31
0.0
  0
LINE
  5
6A1
100
AcDbEntity
  8
レイヤー_2
 62
     7
100
AcDbLine
 10
156.04181
 20
183.965171
 30
0.0
 11
156.040432
 21
183.920901
 31
0.0
  0
LINE
  5
6A0
100
AcDbEntity
  8
レイヤー_2
 62
     7
100
AcDbLine
 10
155.934323
 20
186.664575
 30
0.0
 11
155.990823
 21
186.663714
 31
0.0
  0
LINE
  5
69F
100
AcDbEntity
  8
レイヤー_2
 62
     7
100
AcDbLine
 10
156.008049
 20
186.201554
 30
0.0
 11
155.938113
 21
186.195181
 31
0.0
  0
LINE
  5
69E
100
AcDbEntity
  8
レイヤー_2
 62
     7
100
AcDbLine
 10
155.938113
 20
183.507662
 30
0.0
 11
156.008049
 21
183.501116
 31
0.0
  0
LINE
  5
69D
100
AcDbEntity
  8
レイヤー_2
 62
     7
100
AcDbLine
 10
155.990823
 20
183.039301
 30
0.0
 11
155.934323
 21
183.038268
 31
0.0
  0
POLYLINE
  5
691
100
AcDbEntity
  8
レイヤー_2
 62
     7
100
AcDb2dPolyline
 66
     1
 10
0.0
 20
0.0
 30
0.0
  0
VERTEX
  5
692
100
AcDbEntity
  8
レイヤー_2
 62
     7
100
AcDbVertex
100
AcDb2dVertex
 10
155.990823
 20
186.663025
 30
0.0
  0
VERTEX
  5
693
100
AcDbEntity
  8
レイヤー_2
 62
     7
100
AcDbVertex
100
AcDb2dVertex
 10
155.993579
 20
186.663714
 30
0.0
  0
VERTEX
  5
694
100
AcDbEntity
  8
レイヤー_2
 62
     7
100
AcDbVertex
100
AcDb2dVertex
 10
156.004603
 20
186.660441
 30
0.0
  0
VERTEX
  5
695
100
AcDbEntity
  8
レイヤー_2
 62
     7
100
AcDbVertex
100
AcDb2dVertex
 10
156.014939
 20
186.654929
 30
0.0
  0
VERTEX
  5
696
100
AcDbEntity
  8
レイヤー_2
 62
     7
100
AcDbVertex
100
AcDb2dVertex
 10
156.019762
 20
186.648556
 30
0.0
  0
VERTEX
  5
697
100
AcDbEntity
  8
レイヤー_2
 62
     7
100
AcDbVertex
100
AcDb2dVertex
 10
156.023207
 20
186.643905
 30
0.0
  0
VERTEX
  5
698
100
AcDbEntity
  8
レイヤー_2
 62
     7
100
AcDbVertex
100
AcDb2dVertex
 10
156.024929
 20
186.638565
 30
0.0
  0
VERTEX
  5
699
100
AcDbEntity
  8
レイヤー_2
 62
     7
100
AcDbVertex
100
AcDb2dVertex
 10
156.025618
 20
186.634431
 30
0.0
  0
VERTEX
  5
69A
100
AcDbEntity
  8
レイヤー_2
 62
     7
100
AcDbVertex
100
AcDb2dVertex
 10
156.027341
 20
186.624095
 30
0.0
  0
VERTEX
  5
69B
100
AcDbEntity
  8
レイヤー_2
 62
     7
100
AcDbVertex
100
AcDb2dVertex
 10
156.030097
 20
186.611521
 30
0.0
  0
SEQEND
  5
69C
100
AcDbEntity
  8
レイヤー_2
 62
     7
  0
POLYLINE
  5
687
100
AcDbEntity
  8
レイヤー_2
 62
     7
100
AcDb2dPolyline
 66
     1
 10
0.0
 20
0.0
 30
0.0
  0
VERTEX
  5
688
100
AcDbEntity
  8
レイヤー_2
 62
     7
100
AcDbVertex
100
AcDb2dVertex
 10
156.043877
 20
186.304218
 30
0.0
  0
VERTEX
  5
689
100
AcDbEntity
  8
レイヤー_2
 62
     7
100
AcDbVertex
100
AcDb2dVertex
 10
156.042844
 20
186.263738
 30
0.0
  0
VERTEX
  5
68A
100
AcDbEntity
  8
レイヤー_2
 62
     7
100
AcDbVertex
100
AcDb2dVertex
 10
156.040432
 20
186.231354
 30
0.0
  0
VERTEX
  5
68B
100
AcDbEntity
  8
レイヤー_2
 62
     7
100
AcDbVertex
100
AcDb2dVertex
 10
156.03871
 20
186.224464
 30
0.0
  0
VERTEX
  5
68C
100
AcDbEntity
  8
レイヤー_2
 62
     7
100
AcDbVertex
100
AcDb2dVertex
 10
156.03492
 20
186.217574
 30
0.0
  0
VERTEX
  5
68D
100
AcDbEntity
  8
レイヤー_2
 62
     7
100
AcDbVertex
100
AcDb2dVertex
 10
156.02803
 20
186.20965
 30
0.0
  0
VERTEX
  5
68E
100
AcDbEntity
  8
レイヤー_2
 62
     7
100
AcDbVertex
100
AcDb2dVertex
 10
156.018039
 20
186.203966
 30
0.0
  0
VERTEX
  5
68F
100
AcDbEntity
  8
レイヤー_2
 62
     7
100
AcDbVertex
100
AcDb2dVertex
 10
156.008049
 20
186.201554
 30
0.0
  0
SEQEND
  5
690
100
AcDbEntity
  8
レイヤー_2
 62
     7
  0
LINE
  5
686
100
AcDbEntity
  8
レイヤー_2
 62
     7
100
AcDbLine
 10
156.043877
 20
183.40741
 30
0.0
 11
156.043877
 21
183.324727
 31
0.0
  0
LINE
  5
685
100
AcDbEntity
  8
レイヤー_2
 62
     7
100
AcDbLine
 10
156.03871
 20
183.212245
 30
0.0
 11
156.033542
 21
183.130079
 31
0.0
  0
LINE
  5
684
100
AcDbEntity
  8
レイヤー_2
 62
     7
100
AcDbLine
 10
156.033542
 20
186.573108
 30
0.0
 11
156.03871
 21
186.489909
 31
0.0
  0
LINE
  5
683
100
AcDbEntity
  8
レイヤー_2
 62
     7
100
AcDbLine
 10
156.043877
 20
186.377943
 30
0.0
 11
156.043877
 21
186.294916
 31
0.0
  0
POLYLINE
  5
678
100
AcDbEntity
  8
レイヤー_2
 62
     7
100
AcDb2dPolyline
 66
     1
 10
0.0
 20
0.0
 30
0.0
  0
VERTEX
  5
679
100
AcDbEntity
  8
レイヤー_2
 62
     7
100
AcDbVertex
100
AcDb2dVertex
 10
155.998402
 20
184.621978
 30
0.0
  0
VERTEX
  5
67A
100
AcDbEntity
  8
レイヤー_2
 62
     7
100
AcDbVertex
100
AcDb2dVertex
 10
156.008738
 20
184.620083
 30
0.0
  0
VERTEX
  5
67B
100
AcDbEntity
  8
レイヤー_2
 62
     7
100
AcDbVertex
100
AcDb2dVertex
 10
156.018039
 20
184.614743
 30
0.0
  0
VERTEX
  5
67C
100
AcDbEntity
  8
レイヤー_2
 62
     7
100
AcDbVertex
100
AcDb2dVertex
 10
156.024929
 20
184.608198
 30
0.0
  0
VERTEX
  5
67D
100
AcDbEntity
  8
レイヤー_2
 62
     7
100
AcDbVertex
100
AcDb2dVertex
 10
156.027341
 20
184.60303
 30
0.0
  0
VERTEX
  5
67E
100
AcDbEntity
  8
レイヤー_2
 62
     7
100
AcDbVertex
100
AcDb2dVertex
 10
156.030097
 20
184.598035
 30
0.0
  0
VERTEX
  5
67F
100
AcDbEntity
  8
レイヤー_2
 62
     7
100
AcDbVertex
100
AcDb2dVertex
 10
156.031131
 20
184.593728
 30
0.0
  0
VERTEX
  5
680
100
AcDbEntity
  8
レイヤー_2
 62
     7
100
AcDbVertex
100
AcDb2dVertex
 10
156.032509
 20
184.588216
 30
0.0
  0
VERTEX
  5
681
100
AcDbEntity
  8
レイヤー_2
 62
     7
100
AcDbVertex
100
AcDb2dVertex
 10
156.033542
 20
184.56944
 30
0.0
  0
SEQEND
  5
682
100
AcDbEntity
  8
レイヤー_2
 62
     7
  0
LINE
  5
677
100
AcDbEntity
  8
レイヤー_2
 62
     7
100
AcDbLine
 10
156.029408
 20
185.496343
 30
0.0
 11
156.03871
 21
185.385583
 31
0.0
  0
LINE
  5
676
100
AcDbEntity
  8
レイヤー_2
 62
     7
100
AcDbLine
 10
156.041121
 20
185.238822
 30
0.0
 11
156.033542
 21
185.127546
 31
0.0
  0
LINE
  5
675
100
AcDbEntity
  8
レイヤー_2
 62
     7
100
AcDbLine
 10
156.033542
 20
184.575125
 30
0.0
 11
156.041121
 21
184.464193
 31
0.0
  0
LINE
  5
674
100
AcDbEntity
  8
レイヤー_2
 62
     7
100
AcDbLine
 10
156.03871
 20
184.317604
 30
0.0
 11
156.029408
 21
184.206844
 31
0.0
  0
LINE
  5
673
100
AcDbEntity
  8
レイヤー_2
 62
     7
100
AcDbLine
 10
155.933634
 20
187.148267
 30
0.0
 11
155.9891
 21
187.148267
 31
0.0
  0
LINE
  5
672
100
AcDbEntity
  8
レイヤー_2
 62
     7
100
AcDbLine
 10
156.011149
 20
186.686279
 30
0.0
 11
155.939836
 21
186.6787
 31
0.0
  0
LINE
  5
671
100
AcDbEntity
  8
レイヤー_2
 62
     7
100
AcDbLine
 10
155.939836
 20
183.023798
 30
0.0
 11
156.011149
 21
183.016564
 31
0.0
  0
LINE
  5
670
100
AcDbEntity
  8
レイヤー_2
 62
     7
100
AcDbLine
 10
155.9891
 20
182.554404
 30
0.0
 11
155.933634
 21
182.554404
 31
0.0
  0
LINE
  5
66F
100
AcDbEntity
  8
レイヤー_2
 62
     7
100
AcDbLine
 10
156.02803
 20
186.210856
 30
0.0
 11
156.036987
 21
186.134203
 31
0.0
  0
LINE
  5
66E
100
AcDbEntity
  8
レイヤー_2
 62
     7
100
AcDbLine
 10
156.04181
 20
185.981068
 30
0.0
 11
156.03492
 21
185.863935
 31
0.0
  0
LINE
  5
66D
100
AcDbEntity
  8
レイヤー_2
 62
     7
100
AcDbLine
 10
156.03492
 20
183.83908
 30
0.0
 11
156.04181
 21
183.722464
 31
0.0
  0
LINE
  5
66C
100
AcDbEntity
  8
レイヤー_2
 62
     7
100
AcDbLine
 10
156.036987
 20
183.567779
 30
0.0
 11
156.024929
 21
183.452024
 31
0.0
  0
LINE
  5
66B
100
AcDbEntity
  8
レイヤー_2
 62
     7
100
AcDbLine
 10
156.025618
 20
187.10193
 30
0.0
 11
156.036987
 21
186.992204
 31
0.0
  0
LINE
  5
66A
100
AcDbEntity
  8
レイヤー_2
 62
     7
100
AcDbLine
 10
156.043877
 20
186.846304
 30
0.0
 11
156.043877
 21
186.736578
 31
0.0
  0
LINE
  5
669
100
AcDbEntity
  8
レイヤー_2
 62
     7
100
AcDbLine
 10
156.043877
 20
182.966265
 30
0.0
 11
156.043877
 21
182.856883
 31
0.0
  0
LINE
  5
668
100
AcDbEntity
  8
レイヤー_2
 62
     7
100
AcDbLine
 10
156.036987
 20
182.710295
 30
0.0
 11
156.025618
 21
182.601257
 31
0.0
  0
LINE
  5
667
100
AcDbEntity
  8
レイヤー_2
 62
     7
100
AcDbLine
 10
156.040432
 20
185.146322
 30
0.0
 11
156.033542
 21
185.03005
 31
0.0
  0
LINE
  5
666
100
AcDbEntity
  8
レイヤー_2
 62
     7
100
AcDbLine
 10
156.033542
 20
184.672621
 30
0.0
 11
156.040432
 21
184.556177
 31
0.0
  0
LINE
  5
665
100
AcDbEntity
  8
レイヤー_2
 62
     7
100
AcDbLine
 10
155.933634
 20
187.318799
 30
0.0
 11
155.987378
 21
187.318799
 31
0.0
  0
LINE
  5
664
100
AcDbEntity
  8
レイヤー_2
 62
     7
100
AcDbLine
 10
155.987378
 20
182.384389
 30
0.0
 11
155.933634
 21
182.384389
 31
0.0
  0
SPLINE
  5
663
100
AcDbEntity
  8
レイヤー_2
 62
     7
100
AcDbSpline
210
0.0
220
0.0
230
1.0
 70
     8
 71
     3
 72
     8
 73
     4
 74
     0
 42
0.00000001
 43
0.00000001
 40
0.0
 40
0.0
 40
0.0
 40
0.0
 40
1.0
 40
1.0
 40
1.0
 40
1.0
 10
155.98737792968748
 20
187.31879882812498
 30
0.0
 10
156.00460340711805
 20
187.31879882812498
 30
0.0
 10
156.021484375
 20
187.30467393663193
 30
0.0
 10
156.02320692274304
 20
187.28675944010416
 30
0.0
  0
SPLINE
  5
662
100
AcDbEntity
  8
レイヤー_2
 62
     7
100
AcDbSpline
210
0.0
220
0.0
230
1.0
 70
     8
 71
     3
 72
     8
 73
     4
 74
     0
 42
0.00000001
 43
0.00000001
 40
0.0
 40
0.0
 40
0.0
 40
0.0
 40
1.0
 40
1.0
 40
1.0
 40
1.0
 10
156.02320692274304
 20
182.41573893229165
 30
0.0
 10
156.021484375
 20
182.39713541666666
 30
0.0
 10
156.00460340711805
 20
182.38438856336805
 30
0.0
 10
155.98737792968748
 20
182.38438856336805
 30
0.0
  0
LINE
  5
661
100
AcDbEntity
  8
レイヤー_2
 62
     7
100
AcDbLine
 10
156.040432
 20
186.230493
 30
0.0
 11
156.03492
 21
186.148328
 31
0.0
  0
LINE
  5
660
100
AcDbEntity
  8
レイヤー_2
 62
     7
100
AcDbLine
 10
156.03492
 20
183.555721
 30
0.0
 11
156.04181
 21
183.438932
 31
0.0
  0
LINE
  5
65F
100
AcDbEntity
  8
レイヤー_2
 62
     7
100
AcDbLine
 10
156.03492
 20
184.277985
 30
0.0
 11
156.040432
 21
184.185484
 31
0.0
  0
LINE
  5
65E
100
AcDbEntity
  8
レイヤー_2
 62
     7
100
AcDbLine
 10
156.040432
 20
185.517703
 30
0.0
 11
156.03492
 21
185.42503
 31
0.0
  0
LINE
  5
65D
100
AcDbEntity
  8
レイヤー_2
 62
     7
100
AcDbLine
 10
156.023207
 20
187.286759
 30
0.0
 11
156.03492
 21
187.169282
 31
0.0
  0
LINE
  5
65C
100
AcDbEntity
  8
レイヤー_2
 62
     7
100
AcDbLine
 10
156.043877
 20
187.010807
 30
0.0
 11
156.043877
 21
186.891262
 31
0.0
  0
LINE
  5
65B
100
AcDbEntity
  8
レイヤー_2
 62
     7
100
AcDbLine
 10
156.043877
 20
182.810891
 30
0.0
 11
156.043877
 21
182.692725
 31
0.0
  0
LINE
  5
65A
100
AcDbEntity
  8
レイヤー_2
 62
     7
100
AcDbLine
 10
156.03492
 20
182.533906
 30
0.0
 11
156.023207
 21
182.415739
 31
0.0
  0
LINE
  5
659
100
AcDbEntity
  8
レイヤー_2
 62
     7
100
AcDbLine
 10
155.888504
 20
181.765994
 30
0.0
 11
154.364738
 21
181.765994
 31
0.0
  0
LINE
  5
658
100
AcDbEntity
  8
レイヤー_2
 62
     7
100
AcDbLine
 10
154.364738
 20
187.936677
 30
0.0
 11
155.888504
 21
187.936677
 31
0.0
  0
LINE
  5
657
100
AcDbEntity
  8
レイヤー_2
 62
     7
100
AcDbLine
 10
155.933634
 20
182.346837
 30
0.0
 11
155.924333
 21
181.80234
 31
0.0
  0
LINE
  5
656
100
AcDbEntity
  8
レイヤー_2
 62
     7
100
AcDbLine
 10
155.924333
 20
187.900848
 30
0.0
 11
155.933634
 21
187.354972
 31
0.0
  0
LINE
  5
655
100
AcDbEntity
  8
レイヤー_2
 62
     7
100
AcDbLine
 10
148.545972
 20
161.051152
 30
0.0
 11
148.545972
 21
161.492641
 31
0.0
  0
LINE
  5
654
100
AcDbEntity
  8
レイヤー_2
 62
     7
100
AcDbLine
 10
153.130705
 20
161.492641
 30
0.0
 11
153.130705
 21
161.051152
 31
0.0
  0
LINE
  5
653
100
AcDbEntity
  8
レイヤー_2
 62
     7
100
AcDbLine
 10
147.313317
 20
187.936677
 30
0.0
 11
154.364738
 21
187.936677
 31
0.0
  0
LINE
  5
652
100
AcDbEntity
  8
レイヤー_2
 62
     7
100
AcDbLine
 10
148.235224
 20
181.765994
 30
0.0
 11
147.313317
 21
181.765994
 31
0.0
  0
LINE
  5
651
100
AcDbEntity
  8
レイヤー_2
 62
     7
100
AcDbLine
 10
154.364738
 20
181.765994
 30
0.0
 11
153.441797
 21
181.765994
 31
0.0
  0
SPLINE
  5
650
100
AcDbEntity
  8
レイヤー_2
 62
     7
100
AcDbSpline
210
0.0
220
0.0
230
1.0
 70
     8
 71
     3
 72
     8
 73
     4
 74
     0
 42
0.00000001
 43
0.00000001
 40
0.0
 40
0.0
 40
0.0
 40
0.0
 40
1.0
 40
1.0
 40
1.0
 40
1.0
 10
153.13311631944444
 20
181.45714111328124
 30
0.0
 10
153.13414984809026
 20
181.62715657552081
 30
0.0
 10
153.27195366753472
 20
181.7630655924479
 30
0.0
 10
153.44007432725692
 20
181.76461588541665
 30
0.0
  0
SPLINE
  5
64F
100
AcDbEntity
  8
レイヤー_2
 62
     7
100
AcDbSpline
210
0.0
220
0.0
230
1.0
 70
     8
 71
     3
 72
     8
 73
     4
 74
     0
 42
0.00000001
 43
0.00000001
 40
0.0
 40
0.0
 40
0.0
 40
0.0
 40
1.0
 40
1.0
 40
1.0
 40
1.0
 10
148.23522406684026
 20
181.76427137586805
 30
0.0
 10
148.40575629340276
 20
181.7630655924479
 30
0.0
 10
148.54390462239581
 20
181.62508951822915
 30
0.0
 10
148.54459364149304
 20
181.45455729166665
 30
0.0
  0
LINE
  5
64E
100
AcDbEntity
  8
レイヤー_2
 62
     7
100
AcDbLine
 10
153.130705
 20
181.457141
 30
0.0
 11
153.130705
 21
180.531961
 31
0.0
  0
LINE
  5
64D
100
AcDbEntity
  8
レイヤー_2
 62
     7
100
AcDbLine
 10
148.545972
 20
180.531961
 30
0.0
 11
148.545972
 21
181.453696
 31
0.0
  0
LINE
  5
64C
100
AcDbEntity
  8
レイヤー_2
 62
     7
100
AcDbLine
 10
153.130705
 20
180.531961
 30
0.0
 11
153.130705
 21
161.492641
 31
0.0
  0
LINE
  5
64B
100
AcDbEntity
  8
レイヤー_2
 62
     7
100
AcDbLine
 10
148.545972
 20
161.492641
 30
0.0
 11
148.545972
 21
180.531961
 31
0.0
  0
POLYLINE
  5
63E
100
AcDbEntity
  8
レイヤー_2
 62
     7
100
AcDb2dPolyline
 66
     1
 10
0.0
 20
0.0
 30
0.0
  0
VERTEX
  5
63F
100
AcDbEntity
  8
レイヤー_2
 62
     7
100
AcDbVertex
100
AcDb2dVertex
 10
156.000469
 20
185.082587
 30
0.0
  0
VERTEX
  5
640
100
AcDbEntity
  8
レイヤー_2
 62
     7
100
AcDbVertex
100
AcDb2dVertex
 10
156.000469
 20
185.082587
 30
0.0
  0
VERTEX
  5
641
100
AcDbEntity
  8
レイヤー_2
 62
     7
100
AcDbVertex
100
AcDb2dVertex
 10
155.995302
 20
185.065017
 30
0.0
  0
VERTEX
  5
642
100
AcDbEntity
  8
レイヤー_2
 62
     7
100
AcDbVertex
100
AcDb2dVertex
 10
155.990823
 20
185.01558
 30
0.0
  0
VERTEX
  5
643
100
AcDbEntity
  8
レイヤー_2
 62
     7
100
AcDbVertex
100
AcDb2dVertex
 10
155.9891
 20
184.939788
 30
0.0
  0
VERTEX
  5
644
100
AcDbEntity
  8
レイヤー_2
 62
     7
100
AcDbVertex
100
AcDb2dVertex
 10
155.987378
 20
184.851077
 30
0.0
  0
VERTEX
  5
645
100
AcDbEntity
  8
レイヤー_2
 62
     7
100
AcDbVertex
100
AcDb2dVertex
 10
155.9891
 20
184.762882
 30
0.0
  0
VERTEX
  5
646
100
AcDbEntity
  8
レイヤー_2
 62
     7
100
AcDbVertex
100
AcDb2dVertex
 10
155.990823
 20
184.688296
 30
0.0
  0
VERTEX
  5
647
100
AcDbEntity
  8
レイヤー_2
 62
     7
100
AcDbVertex
100
AcDb2dVertex
 10
155.995302
 20
184.637309
 30
0.0
  0
VERTEX
  5
648
100
AcDbEntity
  8
レイヤー_2
 62
     7
100
AcDbVertex
100
AcDb2dVertex
 10
156.000469
 20
184.620083
 30
0.0
  0
VERTEX
  5
649
100
AcDbEntity
  8
レイヤー_2
 62
     7
100
AcDbVertex
100
AcDb2dVertex
 10
156.000469
 20
184.620083
 30
0.0
  0
SEQEND
  5
64A
100
AcDbEntity
  8
レイヤー_2
 62
     7
  0
POLYLINE
  5
639
100
AcDbEntity
  8
レイヤー_2
 62
     7
100
AcDb2dPolyline
 66
     1
 10
0.0
 20
0.0
 30
0.0
  0
VERTEX
  5
63A
100
AcDbEntity
  8
レイヤー_2
 62
     7
100
AcDbVertex
100
AcDb2dVertex
 10
156.041121
 20
184.978201
 30
0.0
  0
VERTEX
  5
63B
100
AcDbEntity
  8
レイヤー_2
 62
     7
100
AcDbVertex
100
AcDb2dVertex
 10
156.042844
 20
184.927558
 30
0.0
  0
VERTEX
  5
63C
100
AcDbEntity
  8
レイヤー_2
 62
     7
100
AcDbVertex
100
AcDb2dVertex
 10
156.043877
 20
184.851077
 30
0.0
  0
SEQEND
  5
63D
100
AcDbEntity
  8
レイヤー_2
 62
     7
  0
POLYLINE
  5
626
100
AcDbEntity
  8
レイヤー_2
 62
     7
100
AcDb2dPolyline
 66
     1
 10
0.0
 20
0.0
 30
0.0
  0
VERTEX
  5
627
100
AcDbEntity
  8
レイヤー_2
 62
     7
100
AcDbVertex
100
AcDb2dVertex
 10
156.03492
 20
184.851077
 30
0.0
  0
VERTEX
  5
628
100
AcDbEntity
  8
レイヤー_2
 62
     7
100
AcDbVertex
100
AcDb2dVertex
 10
156.03492
 20
184.881911
 30
0.0
  0
VERTEX
  5
629
100
AcDbEntity
  8
レイヤー_2
 62
     7
100
AcDbVertex
100
AcDb2dVertex
 10
156.036987
 20
184.907749
 30
0.0
  0
VERTEX
  5
62A
100
AcDbEntity
  8
レイヤー_2
 62
     7
100
AcDbVertex
100
AcDb2dVertex
 10
156.036987
 20
184.924802
 30
0.0
  0
VERTEX
  5
62B
100
AcDbEntity
  8
レイヤー_2
 62
     7
100
AcDbVertex
100
AcDb2dVertex
 10
156.03871
 20
184.930659
 30
0.0
  0
VERTEX
  5
62C
100
AcDbEntity
  8
レイヤー_2
 62
     7
100
AcDbVertex
100
AcDb2dVertex
 10
156.041121
 20
184.924802
 30
0.0
  0
VERTEX
  5
62D
100
AcDbEntity
  8
レイヤー_2
 62
     7
100
AcDbVertex
100
AcDb2dVertex
 10
156.04181
 20
184.907749
 30
0.0
  0
VERTEX
  5
62E
100
AcDbEntity
  8
レイヤー_2
 62
     7
100
AcDbVertex
100
AcDb2dVertex
 10
156.042844
 20
184.881911
 30
0.0
  0
VERTEX
  5
62F
100
AcDbEntity
  8
レイヤー_2
 62
     7
100
AcDbVertex
100
AcDb2dVertex
 10
156.043877
 20
184.851077
 30
0.0
  0
VERTEX
  5
630
100
AcDbEntity
  8
レイヤー_2
 62
     7
100
AcDbVertex
100
AcDb2dVertex
 10
156.042844
 20
184.821277
 30
0.0
  0
VERTEX
  5
631
100
AcDbEntity
  8
レイヤー_2
 62
     7
100
AcDbVertex
100
AcDb2dVertex
 10
156.04181
 20
184.795266
 30
0.0
  0
VERTEX
  5
632
100
AcDbEntity
  8
レイヤー_2
 62
     7
100
AcDbVertex
100
AcDb2dVertex
 10
156.041121
 20
184.778213
 30
0.0
  0
VERTEX
  5
633
100
AcDbEntity
  8
レイヤー_2
 62
     7
100
AcDbVertex
100
AcDb2dVertex
 10
156.03871
 20
184.77184
 30
0.0
  0
VERTEX
  5
634
100
AcDbEntity
  8
レイヤー_2
 62
     7
100
AcDbVertex
100
AcDb2dVertex
 10
156.036987
 20
184.778213
 30
0.0
  0
VERTEX
  5
635
100
AcDbEntity
  8
レイヤー_2
 62
     7
100
AcDbVertex
100
AcDb2dVertex
 10
156.036987
 20
184.795266
 30
0.0
  0
VERTEX
  5
636
100
AcDbEntity
  8
レイヤー_2
 62
     7
100
AcDbVertex
100
AcDb2dVertex
 10
156.03492
 20
184.821277
 30
0.0
  0
VERTEX
  5
637
100
AcDbEntity
  8
レイヤー_2
 62
     7
100
AcDbVertex
100
AcDb2dVertex
 10
156.03492
 20
184.851077
 30
0.0
  0
SEQEND
  5
638
100
AcDbEntity
  8
レイヤー_2
 62
     7
  0
POLYLINE
  5
61A
100
AcDbEntity
  8
レイヤー_2
 62
     7
100
AcDb2dPolyline
 66
     1
 10
0.0
 20
0.0
 30
0.0
  0
VERTEX
  5
61B
100
AcDbEntity
  8
レイヤー_2
 62
     7
100
AcDbVertex
100
AcDb2dVertex
 10
155.995302
 20
185.938694
 30
0.0
  0
VERTEX
  5
61C
100
AcDbEntity
  8
レイヤー_2
 62
     7
100
AcDbVertex
100
AcDb2dVertex
 10
155.990823
 20
185.920779
 30
0.0
  0
VERTEX
  5
61D
100
AcDbEntity
  8
レイヤー_2
 62
     7
100
AcDbVertex
100
AcDb2dVertex
 10
155.9891
 20
185.870481
 30
0.0
  0
VERTEX
  5
61E
100
AcDbEntity
  8
レイヤー_2
 62
     7
100
AcDbVertex
100
AcDb2dVertex
 10
155.987378
 20
185.795894
 30
0.0
  0
VERTEX
  5
61F
100
AcDbEntity
  8
レイヤー_2
 62
     7
100
AcDbVertex
100
AcDb2dVertex
 10
155.9891
 20
185.706666
 30
0.0
  0
VERTEX
  5
620
100
AcDbEntity
  8
レイヤー_2
 62
     7
100
AcDbVertex
100
AcDb2dVertex
 10
155.990823
 20
185.618644
 30
0.0
  0
VERTEX
  5
621
100
AcDbEntity
  8
レイヤー_2
 62
     7
100
AcDbVertex
100
AcDb2dVertex
 10
155.995302
 20
185.543541
 30
0.0
  0
VERTEX
  5
622
100
AcDbEntity
  8
レイヤー_2
 62
     7
100
AcDbVertex
100
AcDb2dVertex
 10
156.000469
 20
185.493759
 30
0.0
  0
VERTEX
  5
623
100
AcDbEntity
  8
レイヤー_2
 62
     7
100
AcDbVertex
100
AcDb2dVertex
 10
156.004603
 20
185.47619
 30
0.0
  0
VERTEX
  5
624
100
AcDbEntity
  8
レイヤー_2
 62
     7
100
AcDbVertex
100
AcDb2dVertex
 10
156.004603
 20
185.47619
 30
0.0
  0
SEQEND
  5
625
100
AcDbEntity
  8
レイヤー_2
 62
     7
  0
POLYLINE
  5
60E
100
AcDbEntity
  8
レイヤー_2
 62
     7
100
AcDb2dPolyline
 66
     1
 10
0.0
 20
0.0
 30
0.0
  0
VERTEX
  5
60F
100
AcDbEntity
  8
レイヤー_2
 62
     7
100
AcDbVertex
100
AcDb2dVertex
 10
156.004603
 20
184.227342
 30
0.0
  0
VERTEX
  5
610
100
AcDbEntity
  8
レイヤー_2
 62
     7
100
AcDbVertex
100
AcDb2dVertex
 10
156.004603
 20
184.227342
 30
0.0
  0
VERTEX
  5
611
100
AcDbEntity
  8
レイヤー_2
 62
     7
100
AcDbVertex
100
AcDb2dVertex
 10
156.000469
 20
184.209428
 30
0.0
  0
VERTEX
  5
612
100
AcDbEntity
  8
レイヤー_2
 62
     7
100
AcDbVertex
100
AcDb2dVertex
 10
155.995302
 20
184.15913
 30
0.0
  0
VERTEX
  5
613
100
AcDbEntity
  8
レイヤー_2
 62
     7
100
AcDbVertex
100
AcDb2dVertex
 10
155.990823
 20
184.084543
 30
0.0
  0
VERTEX
  5
614
100
AcDbEntity
  8
レイヤー_2
 62
     7
100
AcDbVertex
100
AcDb2dVertex
 10
155.9891
 20
183.995315
 30
0.0
  0
VERTEX
  5
615
100
AcDbEntity
  8
レイヤー_2
 62
     7
100
AcDbVertex
100
AcDb2dVertex
 10
155.987378
 20
183.907293
 30
0.0
  0
VERTEX
  5
616
100
AcDbEntity
  8
レイヤー_2
 62
     7
100
AcDbVertex
100
AcDb2dVertex
 10
155.9891
 20
183.831845
 30
0.0
  0
VERTEX
  5
617
100
AcDbEntity
  8
レイヤー_2
 62
     7
100
AcDbVertex
100
AcDb2dVertex
 10
155.990823
 20
183.781892
 30
0.0
  0
VERTEX
  5
618
100
AcDbEntity
  8
レイヤー_2
 62
     7
100
AcDbVertex
100
AcDb2dVertex
 10
155.995302
 20
183.764494
 30
0.0
  0
SEQEND
  5
619
100
AcDbEntity
  8
レイヤー_2
 62
     7
  0
POLYLINE
  5
609
100
AcDbEntity
  8
レイヤー_2
 62
     7
100
AcDb2dPolyline
 66
     1
 10
0.0
 20
0.0
 30
0.0
  0
VERTEX
  5
60A
100
AcDbEntity
  8
レイヤー_2
 62
     7
100
AcDbVertex
100
AcDb2dVertex
 10
156.042844
 20
184.124162
 30
0.0
  0
VERTEX
  5
60B
100
AcDbEntity
  8
レイヤー_2
 62
     7
100
AcDbVertex
100
AcDb2dVertex
 10
156.043877
 20
184.070418
 30
0.0
  0
VERTEX
  5
60C
100
AcDbEntity
  8
レイヤー_2
 62
     7
100
AcDbVertex
100
AcDb2dVertex
 10
156.043877
 20
184.068351
 30
0.0
  0
SEQEND
  5
60D
100
AcDbEntity
  8
レイヤー_2
 62
     7
  0
POLYLINE
  5
604
100
AcDbEntity
  8
レイヤー_2
 62
     7
100
AcDb2dPolyline
 66
     1
 10
0.0
 20
0.0
 30
0.0
  0
VERTEX
  5
605
100
AcDbEntity
  8
レイヤー_2
 62
     7
100
AcDbVertex
100
AcDb2dVertex
 10
156.036987
 20
185.838097
 30
0.0
  0
VERTEX
  5
606
100
AcDbEntity
  8
レイヤー_2
 62
     7
100
AcDbVertex
100
AcDb2dVertex
 10
156.040432
 20
185.784009
 30
0.0
  0
VERTEX
  5
607
100
AcDbEntity
  8
レイヤー_2
 62
     7
100
AcDbVertex
100
AcDb2dVertex
 10
156.040432
 20
185.781425
 30
0.0
  0
SEQEND
  5
608
100
AcDbEntity
  8
レイヤー_2
 62
     7
  0
POLYLINE
  5
5F1
100
AcDbEntity
  8
レイヤー_2
 62
     7
100
AcDb2dPolyline
 66
     1
 10
0.0
 20
0.0
 30
0.0
  0
VERTEX
  5
5F2
100
AcDbEntity
  8
レイヤー_2
 62
     7
100
AcDbVertex
100
AcDb2dVertex
 10
156.03492
 20
185.7375
 30
0.0
  0
VERTEX
  5
5F3
100
AcDbEntity
  8
レイヤー_2
 62
     7
100
AcDbVertex
100
AcDb2dVertex
 10
156.03492
 20
185.76351
 30
0.0
  0
VERTEX
  5
5F4
100
AcDbEntity
  8
レイヤー_2
 62
     7
100
AcDbVertex
100
AcDb2dVertex
 10
156.036987
 20
185.780564
 30
0.0
  0
VERTEX
  5
5F5
100
AcDbEntity
  8
レイヤー_2
 62
     7
100
AcDbVertex
100
AcDb2dVertex
 10
156.036987
 20
185.786765
 30
0.0
  0
VERTEX
  5
5F6
100
AcDbEntity
  8
レイヤー_2
 62
     7
100
AcDbVertex
100
AcDb2dVertex
 10
156.03871
 20
185.780564
 30
0.0
  0
VERTEX
  5
5F7
100
AcDbEntity
  8
レイヤー_2
 62
     7
100
AcDbVertex
100
AcDb2dVertex
 10
156.041121
 20
185.76351
 30
0.0
  0
VERTEX
  5
5F8
100
AcDbEntity
  8
レイヤー_2
 62
     7
100
AcDbVertex
100
AcDb2dVertex
 10
156.04181
 20
185.738361
 30
0.0
  0
VERTEX
  5
5F9
100
AcDbEntity
  8
レイヤー_2
 62
     7
100
AcDbVertex
100
AcDb2dVertex
 10
156.042844
 20
185.708561
 30
0.0
  0
VERTEX
  5
5FA
100
AcDbEntity
  8
レイヤー_2
 62
     7
100
AcDbVertex
100
AcDb2dVertex
 10
156.043877
 20
185.677728
 30
0.0
  0
VERTEX
  5
5FB
100
AcDbEntity
  8
レイヤー_2
 62
     7
100
AcDbVertex
100
AcDb2dVertex
 10
156.042844
 20
185.652234
 30
0.0
  0
VERTEX
  5
5FC
100
AcDbEntity
  8
レイヤー_2
 62
     7
100
AcDbVertex
100
AcDb2dVertex
 10
156.04181
 20
185.634664
 30
0.0
  0
VERTEX
  5
5FD
100
AcDbEntity
  8
レイヤー_2
 62
     7
100
AcDbVertex
100
AcDb2dVertex
 10
156.041121
 20
185.628635
 30
0.0
  0
VERTEX
  5
5FE
100
AcDbEntity
  8
レイヤー_2
 62
     7
100
AcDbVertex
100
AcDb2dVertex
 10
156.03871
 20
185.634664
 30
0.0
  0
VERTEX
  5
5FF
100
AcDbEntity
  8
レイヤー_2
 62
     7
100
AcDbVertex
100
AcDb2dVertex
 10
156.036987
 20
185.652234
 30
0.0
  0
VERTEX
  5
600
100
AcDbEntity
  8
レイヤー_2
 62
     7
100
AcDbVertex
100
AcDb2dVertex
 10
156.036987
 20
185.677728
 30
0.0
  0
VERTEX
  5
601
100
AcDbEntity
  8
レイヤー_2
 62
     7
100
AcDbVertex
100
AcDb2dVertex
 10
156.03492
 20
185.707528
 30
0.0
  0
VERTEX
  5
602
100
AcDbEntity
  8
レイヤー_2
 62
     7
100
AcDbVertex
100
AcDb2dVertex
 10
156.03492
 20
185.7375
 30
0.0
  0
SEQEND
  5
603
100
AcDbEntity
  8
レイヤー_2
 62
     7
  0
POLYLINE
  5
5DE
100
AcDbEntity
  8
レイヤー_2
 62
     7
100
AcDb2dPolyline
 66
     1
 10
0.0
 20
0.0
 30
0.0
  0
VERTEX
  5
5DF
100
AcDbEntity
  8
レイヤー_2
 62
     7
100
AcDbVertex
100
AcDb2dVertex
 10
156.03492
 20
183.964309
 30
0.0
  0
VERTEX
  5
5E0
100
AcDbEntity
  8
レイヤー_2
 62
     7
100
AcDbVertex
100
AcDb2dVertex
 10
156.03492
 20
183.995315
 30
0.0
  0
VERTEX
  5
5E1
100
AcDbEntity
  8
レイヤー_2
 62
     7
100
AcDbVertex
100
AcDb2dVertex
 10
156.036987
 20
184.025288
 30
0.0
  0
VERTEX
  5
5E2
100
AcDbEntity
  8
レイヤー_2
 62
     7
100
AcDbVertex
100
AcDb2dVertex
 10
156.036987
 20
184.051298
 30
0.0
  0
VERTEX
  5
5E3
100
AcDbEntity
  8
レイヤー_2
 62
     7
100
AcDbVertex
100
AcDb2dVertex
 10
156.03871
 20
184.068351
 30
0.0
  0
VERTEX
  5
5E4
100
AcDbEntity
  8
レイヤー_2
 62
     7
100
AcDbVertex
100
AcDb2dVertex
 10
156.041121
 20
184.074208
 30
0.0
  0
VERTEX
  5
5E5
100
AcDbEntity
  8
レイヤー_2
 62
     7
100
AcDbVertex
100
AcDb2dVertex
 10
156.04181
 20
184.068351
 30
0.0
  0
VERTEX
  5
5E6
100
AcDbEntity
  8
レイヤー_2
 62
     7
100
AcDbVertex
100
AcDb2dVertex
 10
156.042844
 20
184.051298
 30
0.0
  0
VERTEX
  5
5E7
100
AcDbEntity
  8
レイヤー_2
 62
     7
100
AcDbVertex
100
AcDb2dVertex
 10
156.043877
 20
184.025288
 30
0.0
  0
VERTEX
  5
5E8
100
AcDbEntity
  8
レイヤー_2
 62
     7
100
AcDbVertex
100
AcDb2dVertex
 10
156.042844
 20
183.995315
 30
0.0
  0
VERTEX
  5
5E9
100
AcDbEntity
  8
レイヤー_2
 62
     7
100
AcDbVertex
100
AcDb2dVertex
 10
156.04181
 20
183.964309
 30
0.0
  0
VERTEX
  5
5EA
100
AcDbEntity
  8
レイヤー_2
 62
     7
100
AcDbVertex
100
AcDb2dVertex
 10
156.041121
 20
183.938816
 30
0.0
  0
VERTEX
  5
5EB
100
AcDbEntity
  8
レイヤー_2
 62
     7
100
AcDbVertex
100
AcDb2dVertex
 10
156.03871
 20
183.921762
 30
0.0
  0
VERTEX
  5
5EC
100
AcDbEntity
  8
レイヤー_2
 62
     7
100
AcDbVertex
100
AcDb2dVertex
 10
156.036987
 20
183.915389
 30
0.0
  0
VERTEX
  5
5ED
100
AcDbEntity
  8
レイヤー_2
 62
     7
100
AcDbVertex
100
AcDb2dVertex
 10
156.036987
 20
183.921762
 30
0.0
  0
VERTEX
  5
5EE
100
AcDbEntity
  8
レイヤー_2
 62
     7
100
AcDbVertex
100
AcDb2dVertex
 10
156.03492
 20
183.938816
 30
0.0
  0
VERTEX
  5
5EF
100
AcDbEntity
  8
レイヤー_2
 62
     7
100
AcDbVertex
100
AcDb2dVertex
 10
156.03492
 20
183.964309
 30
0.0
  0
SEQEND
  5
5F0
100
AcDbEntity
  8
レイヤー_2
 62
     7
  0
POLYLINE
  5
5D2
100
AcDbEntity
  8
レイヤー_2
 62
     7
100
AcDb2dPolyline
 66
     1
 10
0.0
 20
0.0
 30
0.0
  0
VERTEX
  5
5D3
100
AcDbEntity
  8
レイヤー_2
 62
     7
100
AcDbVertex
100
AcDb2dVertex
 10
155.990823
 20
186.663714
 30
0.0
  0
VERTEX
  5
5D4
100
AcDbEntity
  8
レイヤー_2
 62
     7
100
AcDbVertex
100
AcDb2dVertex
 10
155.9891
 20
186.646661
 30
0.0
  0
VERTEX
  5
5D5
100
AcDbEntity
  8
レイヤー_2
 62
     7
100
AcDbVertex
100
AcDb2dVertex
 10
155.987378
 20
186.595673
 30
0.0
  0
VERTEX
  5
5D6
100
AcDbEntity
  8
レイヤー_2
 62
     7
100
AcDbVertex
100
AcDb2dVertex
 10
155.9891
 20
186.52057
 30
0.0
  0
VERTEX
  5
5D7
100
AcDbEntity
  8
レイヤー_2
 62
     7
100
AcDbVertex
100
AcDb2dVertex
 10
155.990823
 20
186.432893
 30
0.0
  0
VERTEX
  5
5D8
100
AcDbEntity
  8
レイヤー_2
 62
     7
100
AcDbVertex
100
AcDb2dVertex
 10
155.995302
 20
186.344181
 30
0.0
  0
VERTEX
  5
5D9
100
AcDbEntity
  8
レイヤー_2
 62
     7
100
AcDbVertex
100
AcDb2dVertex
 10
156.000469
 20
186.269767
 30
0.0
  0
VERTEX
  5
5DA
100
AcDbEntity
  8
レイヤー_2
 62
     7
100
AcDbVertex
100
AcDb2dVertex
 10
156.004603
 20
186.21878
 30
0.0
  0
VERTEX
  5
5DB
100
AcDbEntity
  8
レイヤー_2
 62
     7
100
AcDbVertex
100
AcDb2dVertex
 10
156.008049
 20
186.201554
 30
0.0
  0
VERTEX
  5
5DC
100
AcDbEntity
  8
レイヤー_2
 62
     7
100
AcDbVertex
100
AcDb2dVertex
 10
156.008049
 20
186.201554
 30
0.0
  0
SEQEND
  5
5DD
100
AcDbEntity
  8
レイヤー_2
 62
     7
  0
POLYLINE
  5
5C7
100
AcDbEntity
  8
レイヤー_2
 62
     7
100
AcDb2dPolyline
 66
     1
 10
0.0
 20
0.0
 30
0.0
  0
VERTEX
  5
5C8
100
AcDbEntity
  8
レイヤー_2
 62
     7
100
AcDbVertex
100
AcDb2dVertex
 10
156.008049
 20
183.501116
 30
0.0
  0
VERTEX
  5
5C9
100
AcDbEntity
  8
レイヤー_2
 62
     7
100
AcDbVertex
100
AcDb2dVertex
 10
156.004603
 20
183.483719
 30
0.0
  0
VERTEX
  5
5CA
100
AcDbEntity
  8
レイヤー_2
 62
     7
100
AcDbVertex
100
AcDb2dVertex
 10
156.000469
 20
183.433765
 30
0.0
  0
VERTEX
  5
5CB
100
AcDbEntity
  8
レイヤー_2
 62
     7
100
AcDbVertex
100
AcDb2dVertex
 10
155.995302
 20
183.359006
 30
0.0
  0
VERTEX
  5
5CC
100
AcDbEntity
  8
レイヤー_2
 62
     7
100
AcDbVertex
100
AcDb2dVertex
 10
155.990823
 20
183.270295
 30
0.0
  0
VERTEX
  5
5CD
100
AcDbEntity
  8
レイヤー_2
 62
     7
100
AcDbVertex
100
AcDb2dVertex
 10
155.9891
 20
183.182273
 30
0.0
  0
VERTEX
  5
5CE
100
AcDbEntity
  8
レイヤー_2
 62
     7
100
AcDbVertex
100
AcDb2dVertex
 10
155.987378
 20
183.106136
 30
0.0
  0
VERTEX
  5
5CF
100
AcDbEntity
  8
レイヤー_2
 62
     7
100
AcDbVertex
100
AcDb2dVertex
 10
155.9891
 20
183.056871
 30
0.0
  0
VERTEX
  5
5D0
100
AcDbEntity
  8
レイヤー_2
 62
     7
100
AcDbVertex
100
AcDb2dVertex
 10
155.990823
 20
183.039301
 30
0.0
  0
SEQEND
  5
5D1
100
AcDbEntity
  8
レイヤー_2
 62
     7
  0
POLYLINE
  5
5C2
100
AcDbEntity
  8
レイヤー_2
 62
     7
100
AcDb2dPolyline
 66
     1
 10
0.0
 20
0.0
 30
0.0
  0
VERTEX
  5
5C3
100
AcDbEntity
  8
レイヤー_2
 62
     7
100
AcDbVertex
100
AcDb2dVertex
 10
156.030097
 20
186.612727
 30
0.0
  0
VERTEX
  5
5C4
100
AcDbEntity
  8
レイヤー_2
 62
     7
100
AcDbVertex
100
AcDb2dVertex
 10
156.032509
 20
186.573108
 30
0.0
  0
VERTEX
  5
5C5
100
AcDbEntity
  8
レイヤー_2
 62
     7
100
AcDbVertex
100
AcDb2dVertex
 10
156.033542
 20
186.573108
 30
0.0
  0
SEQEND
  5
5C6
100
AcDbEntity
  8
レイヤー_2
 62
     7
  0
POLYLINE
  5
5AF
100
AcDbEntity
  8
レイヤー_2
 62
     7
100
AcDb2dPolyline
 66
     1
 10
0.0
 20
0.0
 30
0.0
  0
VERTEX
  5
5B0
100
AcDbEntity
  8
レイヤー_2
 62
     7
100
AcDbVertex
100
AcDb2dVertex
 10
156.03492
 20
183.212245
 30
0.0
  0
VERTEX
  5
5B1
100
AcDbEntity
  8
レイヤー_2
 62
     7
100
AcDbVertex
100
AcDb2dVertex
 10
156.03492
 20
183.238255
 30
0.0
  0
VERTEX
  5
5B2
100
AcDbEntity
  8
レイヤー_2
 62
     7
100
AcDbVertex
100
AcDb2dVertex
 10
156.036987
 20
183.268745
 30
0.0
  0
VERTEX
  5
5B3
100
AcDbEntity
  8
レイヤー_2
 62
     7
100
AcDbVertex
100
AcDb2dVertex
 10
156.036987
 20
183.299234
 30
0.0
  0
VERTEX
  5
5B4
100
AcDbEntity
  8
レイヤー_2
 62
     7
100
AcDbVertex
100
AcDb2dVertex
 10
156.03871
 20
183.324727
 30
0.0
  0
VERTEX
  5
5B5
100
AcDbEntity
  8
レイヤー_2
 62
     7
100
AcDbVertex
100
AcDb2dVertex
 10
156.041121
 20
183.341781
 30
0.0
  0
VERTEX
  5
5B6
100
AcDbEntity
  8
レイヤー_2
 62
     7
100
AcDbVertex
100
AcDb2dVertex
 10
156.04181
 20
183.348326
 30
0.0
  0
VERTEX
  5
5B7
100
AcDbEntity
  8
レイヤー_2
 62
     7
100
AcDbVertex
100
AcDb2dVertex
 10
156.042844
 20
183.341781
 30
0.0
  0
VERTEX
  5
5B8
100
AcDbEntity
  8
レイヤー_2
 62
     7
100
AcDbVertex
100
AcDb2dVertex
 10
156.043877
 20
183.324727
 30
0.0
  0
VERTEX
  5
5B9
100
AcDbEntity
  8
レイヤー_2
 62
     7
100
AcDbVertex
100
AcDb2dVertex
 10
156.042844
 20
183.299234
 30
0.0
  0
VERTEX
  5
5BA
100
AcDbEntity
  8
レイヤー_2
 62
     7
100
AcDbVertex
100
AcDb2dVertex
 10
156.04181
 20
183.268745
 30
0.0
  0
VERTEX
  5
5BB
100
AcDbEntity
  8
レイヤー_2
 62
     7
100
AcDbVertex
100
AcDb2dVertex
 10
156.041121
 20
183.238255
 30
0.0
  0
VERTEX
  5
5BC
100
AcDbEntity
  8
レイヤー_2
 62
     7
100
AcDbVertex
100
AcDb2dVertex
 10
156.03871
 20
183.212245
 30
0.0
  0
VERTEX
  5
5BD
100
AcDbEntity
  8
レイヤー_2
 62
     7
100
AcDbVertex
100
AcDb2dVertex
 10
156.036987
 20
183.195192
 30
0.0
  0
VERTEX
  5
5BE
100
AcDbEntity
  8
レイヤー_2
 62
     7
100
AcDbVertex
100
AcDb2dVertex
 10
156.036987
 20
183.189507
 30
0.0
  0
VERTEX
  5
5BF
100
AcDbEntity
  8
レイヤー_2
 62
     7
100
AcDbVertex
100
AcDb2dVertex
 10
156.03492
 20
183.195192
 30
0.0
  0
VERTEX
  5
5C0
100
AcDbEntity
  8
レイヤー_2
 62
     7
100
AcDbVertex
100
AcDb2dVertex
 10
156.03492
 20
183.212245
 30
0.0
  0
SEQEND
  5
5C1
100
AcDbEntity
  8
レイヤー_2
 62
     7
  0
POLYLINE
  5
59C
100
AcDbEntity
  8
レイヤー_2
 62
     7
100
AcDb2dPolyline
 66
     1
 10
0.0
 20
0.0
 30
0.0
  0
VERTEX
  5
59D
100
AcDbEntity
  8
レイヤー_2
 62
     7
100
AcDbVertex
100
AcDb2dVertex
 10
156.03492
 20
186.490426
 30
0.0
  0
VERTEX
  5
59E
100
AcDbEntity
  8
レイヤー_2
 62
     7
100
AcDbVertex
100
AcDb2dVertex
 10
156.03492
 20
186.507479
 30
0.0
  0
VERTEX
  5
59F
100
AcDbEntity
  8
レイヤー_2
 62
     7
100
AcDbVertex
100
AcDb2dVertex
 10
156.036987
 20
186.513336
 30
0.0
  0
VERTEX
  5
5A0
100
AcDbEntity
  8
レイヤー_2
 62
     7
100
AcDbVertex
100
AcDb2dVertex
 10
156.036987
 20
186.507479
 30
0.0
  0
VERTEX
  5
5A1
100
AcDbEntity
  8
レイヤー_2
 62
     7
100
AcDbVertex
100
AcDb2dVertex
 10
156.03871
 20
186.490426
 30
0.0
  0
VERTEX
  5
5A2
100
AcDbEntity
  8
レイヤー_2
 62
     7
100
AcDbVertex
100
AcDb2dVertex
 10
156.041121
 20
186.464932
 30
0.0
  0
VERTEX
  5
5A3
100
AcDbEntity
  8
レイヤー_2
 62
     7
100
AcDbVertex
100
AcDb2dVertex
 10
156.04181
 20
186.434098
 30
0.0
  0
VERTEX
  5
5A4
100
AcDbEntity
  8
レイヤー_2
 62
     7
100
AcDbVertex
100
AcDb2dVertex
 10
156.042844
 20
186.403437
 30
0.0
  0
VERTEX
  5
5A5
100
AcDbEntity
  8
レイヤー_2
 62
     7
100
AcDbVertex
100
AcDb2dVertex
 10
156.043877
 20
186.377943
 30
0.0
  0
VERTEX
  5
5A6
100
AcDbEntity
  8
レイヤー_2
 62
     7
100
AcDbVertex
100
AcDb2dVertex
 10
156.042844
 20
186.36089
 30
0.0
  0
VERTEX
  5
5A7
100
AcDbEntity
  8
レイヤー_2
 62
     7
100
AcDbVertex
100
AcDb2dVertex
 10
156.04181
 20
186.354517
 30
0.0
  0
VERTEX
  5
5A8
100
AcDbEntity
  8
レイヤー_2
 62
     7
100
AcDbVertex
100
AcDb2dVertex
 10
156.041121
 20
186.36089
 30
0.0
  0
VERTEX
  5
5A9
100
AcDbEntity
  8
レイヤー_2
 62
     7
100
AcDbVertex
100
AcDb2dVertex
 10
156.03871
 20
186.377943
 30
0.0
  0
VERTEX
  5
5AA
100
AcDbEntity
  8
レイヤー_2
 62
     7
100
AcDbVertex
100
AcDb2dVertex
 10
156.036987
 20
186.403437
 30
0.0
  0
VERTEX
  5
5AB
100
AcDbEntity
  8
レイヤー_2
 62
     7
100
AcDbVertex
100
AcDb2dVertex
 10
156.036987
 20
186.434098
 30
0.0
  0
VERTEX
  5
5AC
100
AcDbEntity
  8
レイヤー_2
 62
     7
100
AcDbVertex
100
AcDb2dVertex
 10
156.03492
 20
186.464415
 30
0.0
  0
VERTEX
  5
5AD
100
AcDbEntity
  8
レイヤー_2
 62
     7
100
AcDbVertex
100
AcDb2dVertex
 10
156.03492
 20
186.490426
 30
0.0
  0
SEQEND
  5
5AE
100
AcDbEntity
  8
レイヤー_2
 62
     7
  0
POLYLINE
  5
595
100
AcDbEntity
  8
レイヤー_2
 62
     7
100
AcDb2dPolyline
 66
     1
 10
0.0
 20
0.0
 30
0.0
  0
VERTEX
  5
596
100
AcDbEntity
  8
レイヤー_2
 62
     7
100
AcDbVertex
100
AcDb2dVertex
 10
155.987378
 20
185.311686
 30
0.0
  0
VERTEX
  5
597
100
AcDbEntity
  8
レイヤー_2
 62
     7
100
AcDbVertex
100
AcDb2dVertex
 10
155.9891
 20
185.223147
 30
0.0
  0
VERTEX
  5
598
100
AcDbEntity
  8
レイヤー_2
 62
     7
100
AcDbVertex
100
AcDb2dVertex
 10
155.992546
 20
185.1477
 30
0.0
  0
VERTEX
  5
599
100
AcDbEntity
  8
レイヤー_2
 62
     7
100
AcDbVertex
100
AcDb2dVertex
 10
155.995302
 20
185.097918
 30
0.0
  0
VERTEX
  5
59A
100
AcDbEntity
  8
レイヤー_2
 62
     7
100
AcDbVertex
100
AcDb2dVertex
 10
155.99668
 20
185.082587
 30
0.0
  0
SEQEND
  5
59B
100
AcDbEntity
  8
レイヤー_2
 62
     7
  0
POLYLINE
  5
590
100
AcDbEntity
  8
レイヤー_2
 62
     7
100
AcDb2dPolyline
 66
     1
 10
0.0
 20
0.0
 30
0.0
  0
VERTEX
  5
591
100
AcDbEntity
  8
レイヤー_2
 62
     7
100
AcDbVertex
100
AcDb2dVertex
 10
155.9891
 20
185.475328
 30
0.0
  0
VERTEX
  5
592
100
AcDbEntity
  8
レイヤー_2
 62
     7
100
AcDbVertex
100
AcDb2dVertex
 10
155.987378
 20
185.400397
 30
0.0
  0
VERTEX
  5
593
100
AcDbEntity
  8
レイヤー_2
 62
     7
100
AcDbVertex
100
AcDb2dVertex
 10
155.987378
 20
185.311686
 30
0.0
  0
SEQEND
  5
594
100
AcDbEntity
  8
レイヤー_2
 62
     7
  0
POLYLINE
  5
58B
100
AcDbEntity
  8
レイヤー_2
 62
     7
100
AcDb2dPolyline
 66
     1
 10
0.0
 20
0.0
 30
0.0
  0
VERTEX
  5
58C
100
AcDbEntity
  8
レイヤー_2
 62
     7
100
AcDbVertex
100
AcDb2dVertex
 10
156.033542
 20
184.575125
 30
0.0
  0
VERTEX
  5
58D
100
AcDbEntity
  8
レイヤー_2
 62
     7
100
AcDbVertex
100
AcDb2dVertex
 10
156.033542
 20
184.575125
 30
0.0
  0
VERTEX
  5
58E
100
AcDbEntity
  8
レイヤー_2
 62
     7
100
AcDbVertex
100
AcDb2dVertex
 10
156.033542
 20
184.56944
 30
0.0
  0
SEQEND
  5
58F
100
AcDbEntity
  8
レイヤー_2
 62
     7
  0
POLYLINE
  5
578
100
AcDbEntity
  8
レイヤー_2
 62
     7
100
AcDb2dPolyline
 66
     1
 10
0.0
 20
0.0
 30
0.0
  0
VERTEX
  5
579
100
AcDbEntity
  8
レイヤー_2
 62
     7
100
AcDbVertex
100
AcDb2dVertex
 10
156.04181
 20
185.287571
 30
0.0
  0
VERTEX
  5
57A
100
AcDbEntity
  8
レイヤー_2
 62
     7
100
AcDbVertex
100
AcDb2dVertex
 10
156.04181
 20
185.31806
 30
0.0
  0
VERTEX
  5
57B
100
AcDbEntity
  8
レイヤー_2
 62
     7
100
AcDbVertex
100
AcDb2dVertex
 10
156.041121
 20
185.348204
 30
0.0
  0
VERTEX
  5
57C
100
AcDbEntity
  8
レイヤー_2
 62
     7
100
AcDbVertex
100
AcDb2dVertex
 10
156.040432
 20
185.372664
 30
0.0
  0
VERTEX
  5
57D
100
AcDbEntity
  8
レイヤー_2
 62
     7
100
AcDbVertex
100
AcDb2dVertex
 10
156.03871
 20
185.387478
 30
0.0
  0
VERTEX
  5
57E
100
AcDbEntity
  8
レイヤー_2
 62
     7
100
AcDbVertex
100
AcDb2dVertex
 10
156.03871
 20
185.391268
 30
0.0
  0
VERTEX
  5
57F
100
AcDbEntity
  8
レイヤー_2
 62
     7
100
AcDbVertex
100
AcDb2dVertex
 10
156.036987
 20
185.382483
 30
0.0
  0
VERTEX
  5
580
100
AcDbEntity
  8
レイヤー_2
 62
     7
100
AcDbVertex
100
AcDb2dVertex
 10
156.036987
 20
185.363707
 30
0.0
  0
VERTEX
  5
581
100
AcDbEntity
  8
レイヤー_2
 62
     7
100
AcDbVertex
100
AcDb2dVertex
 10
156.036987
 20
185.336835
 30
0.0
  0
VERTEX
  5
582
100
AcDbEntity
  8
レイヤー_2
 62
     7
100
AcDbVertex
100
AcDb2dVertex
 10
156.036987
 20
185.305485
 30
0.0
  0
VERTEX
  5
583
100
AcDbEntity
  8
レイヤー_2
 62
     7
100
AcDbVertex
100
AcDb2dVertex
 10
156.036987
 20
185.275857
 30
0.0
  0
VERTEX
  5
584
100
AcDbEntity
  8
レイヤー_2
 62
     7
100
AcDbVertex
100
AcDb2dVertex
 10
156.03871
 20
185.251742
 30
0.0
  0
VERTEX
  5
585
100
AcDbEntity
  8
レイヤー_2
 62
     7
100
AcDbVertex
100
AcDb2dVertex
 10
156.03871
 20
185.236239
 30
0.0
  0
VERTEX
  5
586
100
AcDbEntity
  8
レイヤー_2
 62
     7
100
AcDbVertex
100
AcDb2dVertex
 10
156.040432
 20
185.233483
 30
0.0
  0
VERTEX
  5
587
100
AcDbEntity
  8
レイヤー_2
 62
     7
100
AcDbVertex
100
AcDb2dVertex
 10
156.041121
 20
185.241406
 30
0.0
  0
VERTEX
  5
588
100
AcDbEntity
  8
レイヤー_2
 62
     7
100
AcDbVertex
100
AcDb2dVertex
 10
156.04181
 20
185.259838
 30
0.0
  0
VERTEX
  5
589
100
AcDbEntity
  8
レイヤー_2
 62
     7
100
AcDbVertex
100
AcDb2dVertex
 10
156.04181
 20
185.287571
 30
0.0
  0
SEQEND
  5
58A
100
AcDbEntity
  8
レイヤー_2
 62
     7
  0
POLYLINE
  5
565
100
AcDbEntity
  8
レイヤー_2
 62
     7
100
AcDb2dPolyline
 66
     1
 10
0.0
 20
0.0
 30
0.0
  0
VERTEX
  5
566
100
AcDbEntity
  8
レイヤー_2
 62
     7
100
AcDbVertex
100
AcDb2dVertex
 10
156.04181
 20
184.415617
 30
0.0
  0
VERTEX
  5
567
100
AcDbEntity
  8
レイヤー_2
 62
     7
100
AcDbVertex
100
AcDb2dVertex
 10
156.04181
 20
184.442489
 30
0.0
  0
VERTEX
  5
568
100
AcDbEntity
  8
レイヤー_2
 62
     7
100
AcDbVertex
100
AcDb2dVertex
 10
156.041121
 20
184.461609
 30
0.0
  0
VERTEX
  5
569
100
AcDbEntity
  8
レイヤー_2
 62
     7
100
AcDbVertex
100
AcDb2dVertex
 10
156.040432
 20
184.469705
 30
0.0
  0
VERTEX
  5
56A
100
AcDbEntity
  8
レイヤー_2
 62
     7
100
AcDbVertex
100
AcDb2dVertex
 10
156.03871
 20
184.46626
 30
0.0
  0
VERTEX
  5
56B
100
AcDbEntity
  8
レイヤー_2
 62
     7
100
AcDbVertex
100
AcDb2dVertex
 10
156.03871
 20
184.450585
 30
0.0
  0
VERTEX
  5
56C
100
AcDbEntity
  8
レイヤー_2
 62
     7
100
AcDbVertex
100
AcDb2dVertex
 10
156.036987
 20
184.426641
 30
0.0
  0
VERTEX
  5
56D
100
AcDbEntity
  8
レイヤー_2
 62
     7
100
AcDbVertex
100
AcDb2dVertex
 10
156.036987
 20
184.396841
 30
0.0
  0
VERTEX
  5
56E
100
AcDbEntity
  8
レイヤー_2
 62
     7
100
AcDbVertex
100
AcDb2dVertex
 10
156.036987
 20
184.366352
 30
0.0
  0
VERTEX
  5
56F
100
AcDbEntity
  8
レイヤー_2
 62
     7
100
AcDbVertex
100
AcDb2dVertex
 10
156.036987
 20
184.339308
 30
0.0
  0
VERTEX
  5
570
100
AcDbEntity
  8
レイヤー_2
 62
     7
100
AcDbVertex
100
AcDb2dVertex
 10
156.036987
 20
184.320188
 30
0.0
  0
VERTEX
  5
571
100
AcDbEntity
  8
レイヤー_2
 62
     7
100
AcDbVertex
100
AcDb2dVertex
 10
156.03871
 20
184.31123
 30
0.0
  0
VERTEX
  5
572
100
AcDbEntity
  8
レイヤー_2
 62
     7
100
AcDbVertex
100
AcDb2dVertex
 10
156.03871
 20
184.31502
 30
0.0
  0
VERTEX
  5
573
100
AcDbEntity
  8
レイヤー_2
 62
     7
100
AcDbVertex
100
AcDb2dVertex
 10
156.040432
 20
184.330523
 30
0.0
  0
VERTEX
  5
574
100
AcDbEntity
  8
レイヤー_2
 62
     7
100
AcDbVertex
100
AcDb2dVertex
 10
156.041121
 20
184.354639
 30
0.0
  0
VERTEX
  5
575
100
AcDbEntity
  8
レイヤー_2
 62
     7
100
AcDbVertex
100
AcDb2dVertex
 10
156.04181
 20
184.383922
 30
0.0
  0
VERTEX
  5
576
100
AcDbEntity
  8
レイヤー_2
 62
     7
100
AcDbVertex
100
AcDb2dVertex
 10
156.04181
 20
184.415617
 30
0.0
  0
SEQEND
  5
577
100
AcDbEntity
  8
レイヤー_2
 62
     7
  0
POLYLINE
  5
55E
100
AcDbEntity
  8
レイヤー_2
 62
     7
100
AcDb2dPolyline
 66
     1
 10
0.0
 20
0.0
 30
0.0
  0
VERTEX
  5
55F
100
AcDbEntity
  8
レイヤー_2
 62
     7
100
AcDbVertex
100
AcDb2dVertex
 10
155.987378
 20
186.199315
 30
0.0
  0
VERTEX
  5
560
100
AcDbEntity
  8
レイヤー_2
 62
     7
100
AcDbVertex
100
AcDb2dVertex
 10
155.9891
 20
186.144883
 30
0.0
  0
VERTEX
  5
561
100
AcDbEntity
  8
レイヤー_2
 62
     7
100
AcDbVertex
100
AcDb2dVertex
 10
155.990823
 20
186.055655
 30
0.0
  0
VERTEX
  5
562
100
AcDbEntity
  8
レイヤー_2
 62
     7
100
AcDbVertex
100
AcDb2dVertex
 10
155.993579
 20
185.966943
 30
0.0
  0
VERTEX
  5
563
100
AcDbEntity
  8
レイヤー_2
 62
     7
100
AcDbVertex
100
AcDb2dVertex
 10
155.995302
 20
185.936799
 30
0.0
  0
SEQEND
  5
564
100
AcDbEntity
  8
レイヤー_2
 62
     7
  0
POLYLINE
  5
557
100
AcDbEntity
  8
レイヤー_2
 62
     7
100
AcDb2dPolyline
 66
     1
 10
0.0
 20
0.0
 30
0.0
  0
VERTEX
  5
558
100
AcDbEntity
  8
レイヤー_2
 62
     7
100
AcDbVertex
100
AcDb2dVertex
 10
155.995302
 20
183.767078
 30
0.0
  0
VERTEX
  5
559
100
AcDbEntity
  8
レイヤー_2
 62
     7
100
AcDbVertex
100
AcDb2dVertex
 10
155.993579
 20
183.735555
 30
0.0
  0
VERTEX
  5
55A
100
AcDbEntity
  8
レイヤー_2
 62
     7
100
AcDbVertex
100
AcDb2dVertex
 10
155.990823
 20
183.646327
 30
0.0
  0
VERTEX
  5
55B
100
AcDbEntity
  8
レイヤー_2
 62
     7
100
AcDbVertex
100
AcDb2dVertex
 10
155.9891
 20
183.55796
 30
0.0
  0
VERTEX
  5
55C
100
AcDbEntity
  8
レイヤー_2
 62
     7
100
AcDbVertex
100
AcDb2dVertex
 10
155.987378
 20
183.503011
 30
0.0
  0
SEQEND
  5
55D
100
AcDbEntity
  8
レイヤー_2
 62
     7
  0
POLYLINE
  5
54C
100
AcDbEntity
  8
レイヤー_2
 62
     7
100
AcDb2dPolyline
 66
     1
 10
0.0
 20
0.0
 30
0.0
  0
VERTEX
  5
54D
100
AcDbEntity
  8
レイヤー_2
 62
     7
100
AcDbVertex
100
AcDb2dVertex
 10
155.9891
 20
187.148267
 30
0.0
  0
VERTEX
  5
54E
100
AcDbEntity
  8
レイヤー_2
 62
     7
100
AcDbVertex
100
AcDb2dVertex
 10
155.987378
 20
187.130869
 30
0.0
  0
VERTEX
  5
54F
100
AcDbEntity
  8
レイヤー_2
 62
     7
100
AcDbVertex
100
AcDb2dVertex
 10
155.9891
 20
187.080915
 30
0.0
  0
VERTEX
  5
550
100
AcDbEntity
  8
レイヤー_2
 62
     7
100
AcDbVertex
100
AcDb2dVertex
 10
155.990823
 20
187.005467
 30
0.0
  0
VERTEX
  5
551
100
AcDbEntity
  8
レイヤー_2
 62
     7
100
AcDbVertex
100
AcDb2dVertex
 10
155.995302
 20
186.917445
 30
0.0
  0
VERTEX
  5
552
100
AcDbEntity
  8
レイヤー_2
 62
     7
100
AcDbVertex
100
AcDb2dVertex
 10
156.000469
 20
186.829079
 30
0.0
  0
VERTEX
  5
553
100
AcDbEntity
  8
レイヤー_2
 62
     7
100
AcDbVertex
100
AcDb2dVertex
 10
156.004603
 20
186.754148
 30
0.0
  0
VERTEX
  5
554
100
AcDbEntity
  8
レイヤー_2
 62
     7
100
AcDbVertex
100
AcDb2dVertex
 10
156.008049
 20
186.703333
 30
0.0
  0
VERTEX
  5
555
100
AcDbEntity
  8
レイヤー_2
 62
     7
100
AcDbVertex
100
AcDb2dVertex
 10
156.011149
 20
186.686279
 30
0.0
  0
SEQEND
  5
556
100
AcDbEntity
  8
レイヤー_2
 62
     7
  0
POLYLINE
  5
541
100
AcDbEntity
  8
レイヤー_2
 62
     7
100
AcDb2dPolyline
 66
     1
 10
0.0
 20
0.0
 30
0.0
  0
VERTEX
  5
542
100
AcDbEntity
  8
レイヤー_2
 62
     7
100
AcDbVertex
100
AcDb2dVertex
 10
156.011149
 20
183.016564
 30
0.0
  0
VERTEX
  5
543
100
AcDbEntity
  8
レイヤー_2
 62
     7
100
AcDbVertex
100
AcDb2dVertex
 10
156.008049
 20
182.999683
 30
0.0
  0
VERTEX
  5
544
100
AcDbEntity
  8
レイヤー_2
 62
     7
100
AcDbVertex
100
AcDb2dVertex
 10
156.004603
 20
182.949384
 30
0.0
  0
VERTEX
  5
545
100
AcDbEntity
  8
レイヤー_2
 62
     7
100
AcDbVertex
100
AcDb2dVertex
 10
156.000469
 20
182.873937
 30
0.0
  0
VERTEX
  5
546
100
AcDbEntity
  8
レイヤー_2
 62
     7
100
AcDbVertex
100
AcDb2dVertex
 10
155.995302
 20
182.785742
 30
0.0
  0
VERTEX
  5
547
100
AcDbEntity
  8
レイヤー_2
 62
     7
100
AcDbVertex
100
AcDb2dVertex
 10
155.990823
 20
182.696514
 30
0.0
  0
VERTEX
  5
548
100
AcDbEntity
  8
レイヤー_2
 62
     7
100
AcDbVertex
100
AcDb2dVertex
 10
155.9891
 20
182.622617
 30
0.0
  0
VERTEX
  5
549
100
AcDbEntity
  8
レイヤー_2
 62
     7
100
AcDbVertex
100
AcDb2dVertex
 10
155.987378
 20
182.571802
 30
0.0
  0
VERTEX
  5
54A
100
AcDbEntity
  8
レイヤー_2
 62
     7
100
AcDbVertex
100
AcDb2dVertex
 10
155.9891
 20
182.554404
 30
0.0
  0
SEQEND
  5
54B
100
AcDbEntity
  8
レイヤー_2
 62
     7
  0
POLYLINE
  5
52E
100
AcDbEntity
  8
レイヤー_2
 62
     7
100
AcDb2dPolyline
 66
     1
 10
0.0
 20
0.0
 30
0.0
  0
VERTEX
  5
52F
100
AcDbEntity
  8
レイヤー_2
 62
     7
100
AcDbVertex
100
AcDb2dVertex
 10
156.04181
 20
185.993471
 30
0.0
  0
VERTEX
  5
530
100
AcDbEntity
  8
レイヤー_2
 62
     7
100
AcDbVertex
100
AcDb2dVertex
 10
156.04181
 20
186.016036
 30
0.0
  0
VERTEX
  5
531
100
AcDbEntity
  8
レイヤー_2
 62
     7
100
AcDbVertex
100
AcDb2dVertex
 10
156.041121
 20
186.045492
 30
0.0
  0
VERTEX
  5
532
100
AcDbEntity
  8
レイヤー_2
 62
     7
100
AcDbVertex
100
AcDb2dVertex
 10
156.040432
 20
186.076153
 30
0.0
  0
VERTEX
  5
533
100
AcDbEntity
  8
レイヤー_2
 62
     7
100
AcDbVertex
100
AcDb2dVertex
 10
156.03871
 20
186.104403
 30
0.0
  0
VERTEX
  5
534
100
AcDbEntity
  8
レイヤー_2
 62
     7
100
AcDbVertex
100
AcDb2dVertex
 10
156.03871
 20
186.125073
 30
0.0
  0
VERTEX
  5
535
100
AcDbEntity
  8
レイヤー_2
 62
     7
100
AcDbVertex
100
AcDb2dVertex
 10
156.036987
 20
186.135753
 30
0.0
  0
VERTEX
  5
536
100
AcDbEntity
  8
レイヤー_2
 62
     7
100
AcDbVertex
100
AcDb2dVertex
 10
156.036987
 20
186.134203
 30
0.0
  0
VERTEX
  5
537
100
AcDbEntity
  8
レイヤー_2
 62
     7
100
AcDbVertex
100
AcDb2dVertex
 10
156.036987
 20
186.1218
 30
0.0
  0
VERTEX
  5
538
100
AcDbEntity
  8
レイヤー_2
 62
     7
100
AcDbVertex
100
AcDb2dVertex
 10
156.036987
 20
186.09958
 30
0.0
  0
VERTEX
  5
539
100
AcDbEntity
  8
レイヤー_2
 62
     7
100
AcDbVertex
100
AcDb2dVertex
 10
156.036987
 20
186.070124
 30
0.0
  0
VERTEX
  5
53A
100
AcDbEntity
  8
レイヤー_2
 62
     7
100
AcDbVertex
100
AcDb2dVertex
 10
156.03871
 20
186.039635
 30
0.0
  0
VERTEX
  5
53B
100
AcDbEntity
  8
レイヤー_2
 62
     7
100
AcDbVertex
100
AcDb2dVertex
 10
156.03871
 20
186.011385
 30
0.0
  0
VERTEX
  5
53C
100
AcDbEntity
  8
レイヤー_2
 62
     7
100
AcDbVertex
100
AcDb2dVertex
 10
156.040432
 20
185.990198
 30
0.0
  0
VERTEX
  5
53D
100
AcDbEntity
  8
レイヤー_2
 62
     7
100
AcDbVertex
100
AcDb2dVertex
 10
156.041121
 20
185.979001
 30
0.0
  0
VERTEX
  5
53E
100
AcDbEntity
  8
レイヤー_2
 62
     7
100
AcDbVertex
100
AcDb2dVertex
 10
156.04181
 20
185.980379
 30
0.0
  0
VERTEX
  5
53F
100
AcDbEntity
  8
レイヤー_2
 62
     7
100
AcDbVertex
100
AcDb2dVertex
 10
156.04181
 20
185.993471
 30
0.0
  0
SEQEND
  5
540
100
AcDbEntity
  8
レイヤー_2
 62
     7
  0
POLYLINE
  5
51B
100
AcDbEntity
  8
レイヤー_2
 62
     7
100
AcDb2dPolyline
 66
     1
 10
0.0
 20
0.0
 30
0.0
  0
VERTEX
  5
51C
100
AcDbEntity
  8
レイヤー_2
 62
     7
100
AcDbVertex
100
AcDb2dVertex
 10
156.04181
 20
183.7092
 30
0.0
  0
VERTEX
  5
51D
100
AcDbEntity
  8
レイヤー_2
 62
     7
100
AcDbVertex
100
AcDb2dVertex
 10
156.04181
 20
183.722464
 30
0.0
  0
VERTEX
  5
51E
100
AcDbEntity
  8
レイヤー_2
 62
     7
100
AcDbVertex
100
AcDb2dVertex
 10
156.041121
 20
183.723153
 30
0.0
  0
VERTEX
  5
51F
100
AcDbEntity
  8
レイヤー_2
 62
     7
100
AcDbVertex
100
AcDb2dVertex
 10
156.040432
 20
183.71299
 30
0.0
  0
VERTEX
  5
520
100
AcDbEntity
  8
レイヤー_2
 62
     7
100
AcDbVertex
100
AcDb2dVertex
 10
156.03871
 20
183.69163
 30
0.0
  0
VERTEX
  5
521
100
AcDbEntity
  8
レイヤー_2
 62
     7
100
AcDbVertex
100
AcDb2dVertex
 10
156.03871
 20
183.663553
 30
0.0
  0
VERTEX
  5
522
100
AcDbEntity
  8
レイヤー_2
 62
     7
100
AcDbVertex
100
AcDb2dVertex
 10
156.036987
 20
183.633236
 30
0.0
  0
VERTEX
  5
523
100
AcDbEntity
  8
レイヤー_2
 62
     7
100
AcDbVertex
100
AcDb2dVertex
 10
156.036987
 20
183.603952
 30
0.0
  0
VERTEX
  5
524
100
AcDbEntity
  8
レイヤー_2
 62
     7
100
AcDbVertex
100
AcDb2dVertex
 10
156.036987
 20
183.58087
 30
0.0
  0
VERTEX
  5
525
100
AcDbEntity
  8
レイヤー_2
 62
     7
100
AcDbVertex
100
AcDb2dVertex
 10
156.036987
 20
183.567779
 30
0.0
  0
VERTEX
  5
526
100
AcDbEntity
  8
レイヤー_2
 62
     7
100
AcDbVertex
100
AcDb2dVertex
 10
156.036987
 20
183.56709
 30
0.0
  0
VERTEX
  5
527
100
AcDbEntity
  8
レイヤー_2
 62
     7
100
AcDbVertex
100
AcDb2dVertex
 10
156.03871
 20
183.577425
 30
0.0
  0
VERTEX
  5
528
100
AcDbEntity
  8
レイヤー_2
 62
     7
100
AcDbVertex
100
AcDb2dVertex
 10
156.03871
 20
183.598785
 30
0.0
  0
VERTEX
  5
529
100
AcDbEntity
  8
レイヤー_2
 62
     7
100
AcDbVertex
100
AcDb2dVertex
 10
156.040432
 20
183.626001
 30
0.0
  0
VERTEX
  5
52A
100
AcDbEntity
  8
レイヤー_2
 62
     7
100
AcDbVertex
100
AcDb2dVertex
 10
156.041121
 20
183.657696
 30
0.0
  0
VERTEX
  5
52B
100
AcDbEntity
  8
レイヤー_2
 62
     7
100
AcDbVertex
100
AcDb2dVertex
 10
156.04181
 20
183.685946
 30
0.0
  0
VERTEX
  5
52C
100
AcDbEntity
  8
レイヤー_2
 62
     7
100
AcDbVertex
100
AcDb2dVertex
 10
156.04181
 20
183.7092
 30
0.0
  0
SEQEND
  5
52D
100
AcDbEntity
  8
レイヤー_2
 62
     7
  0
POLYLINE
  5
508
100
AcDbEntity
  8
レイヤー_2
 62
     7
100
AcDb2dPolyline
 66
     1
 10
0.0
 20
0.0
 30
0.0
  0
VERTEX
  5
509
100
AcDbEntity
  8
レイヤー_2
 62
     7
100
AcDbVertex
100
AcDb2dVertex
 10
156.03492
 20
186.992204
 30
0.0
  0
VERTEX
  5
50A
100
AcDbEntity
  8
レイヤー_2
 62
     7
100
AcDbVertex
100
AcDb2dVertex
 10
156.03492
 20
186.998233
 30
0.0
  0
VERTEX
  5
50B
100
AcDbEntity
  8
レイヤー_2
 62
     7
100
AcDbVertex
100
AcDb2dVertex
 10
156.036987
 20
186.992204
 30
0.0
  0
VERTEX
  5
50C
100
AcDbEntity
  8
レイヤー_2
 62
     7
100
AcDbVertex
100
AcDb2dVertex
 10
156.036987
 20
186.97584
 30
0.0
  0
VERTEX
  5
50D
100
AcDbEntity
  8
レイヤー_2
 62
     7
100
AcDbVertex
100
AcDb2dVertex
 10
156.03871
 20
186.949829
 30
0.0
  0
VERTEX
  5
50E
100
AcDbEntity
  8
レイヤー_2
 62
     7
100
AcDbVertex
100
AcDb2dVertex
 10
156.041121
 20
186.919512
 30
0.0
  0
VERTEX
  5
50F
100
AcDbEntity
  8
レイヤー_2
 62
     7
100
AcDbVertex
100
AcDb2dVertex
 10
156.04181
 20
186.888851
 30
0.0
  0
VERTEX
  5
510
100
AcDbEntity
  8
レイヤー_2
 62
     7
100
AcDbVertex
100
AcDb2dVertex
 10
156.042844
 20
186.863357
 30
0.0
  0
VERTEX
  5
511
100
AcDbEntity
  8
レイヤー_2
 62
     7
100
AcDbVertex
100
AcDb2dVertex
 10
156.043877
 20
186.846304
 30
0.0
  0
VERTEX
  5
512
100
AcDbEntity
  8
レイヤー_2
 62
     7
100
AcDbVertex
100
AcDb2dVertex
 10
156.042844
 20
186.840103
 30
0.0
  0
VERTEX
  5
513
100
AcDbEntity
  8
レイヤー_2
 62
     7
100
AcDbVertex
100
AcDb2dVertex
 10
156.04181
 20
186.846304
 30
0.0
  0
VERTEX
  5
514
100
AcDbEntity
  8
レイヤー_2
 62
     7
100
AcDbVertex
100
AcDb2dVertex
 10
156.041121
 20
186.862668
 30
0.0
  0
VERTEX
  5
515
100
AcDbEntity
  8
レイヤー_2
 62
     7
100
AcDbVertex
100
AcDb2dVertex
 10
156.03871
 20
186.888851
 30
0.0
  0
VERTEX
  5
516
100
AcDbEntity
  8
レイヤー_2
 62
     7
100
AcDbVertex
100
AcDb2dVertex
 10
156.036987
 20
186.919512
 30
0.0
  0
VERTEX
  5
517
100
AcDbEntity
  8
レイヤー_2
 62
     7
100
AcDbVertex
100
AcDb2dVertex
 10
156.036987
 20
186.949829
 30
0.0
  0
VERTEX
  5
518
100
AcDbEntity
  8
レイヤー_2
 62
     7
100
AcDbVertex
100
AcDb2dVertex
 10
156.03492
 20
186.97584
 30
0.0
  0
VERTEX
  5
519
100
AcDbEntity
  8
レイヤー_2
 62
     7
100
AcDbVertex
100
AcDb2dVertex
 10
156.03492
 20
186.992204
 30
0.0
  0
SEQEND
  5
51A
100
AcDbEntity
  8
レイヤー_2
 62
     7
  0
POLYLINE
  5
4F5
100
AcDbEntity
  8
レイヤー_2
 62
     7
100
AcDb2dPolyline
 66
     1
 10
0.0
 20
0.0
 30
0.0
  0
VERTEX
  5
4F6
100
AcDbEntity
  8
レイヤー_2
 62
     7
100
AcDbVertex
100
AcDb2dVertex
 10
156.03492
 20
182.710295
 30
0.0
  0
VERTEX
  5
4F7
100
AcDbEntity
  8
レイヤー_2
 62
     7
100
AcDbVertex
100
AcDb2dVertex
 10
156.03492
 20
182.727348
 30
0.0
  0
VERTEX
  5
4F8
100
AcDbEntity
  8
レイヤー_2
 62
     7
100
AcDbVertex
100
AcDb2dVertex
 10
156.036987
 20
182.753358
 30
0.0
  0
VERTEX
  5
4F9
100
AcDbEntity
  8
レイヤー_2
 62
     7
100
AcDbVertex
100
AcDb2dVertex
 10
156.036987
 20
182.783331
 30
0.0
  0
VERTEX
  5
4FA
100
AcDbEntity
  8
レイヤー_2
 62
     7
100
AcDbVertex
100
AcDb2dVertex
 10
156.03871
 20
182.814164
 30
0.0
  0
VERTEX
  5
4FB
100
AcDbEntity
  8
レイヤー_2
 62
     7
100
AcDbVertex
100
AcDb2dVertex
 10
156.041121
 20
182.839313
 30
0.0
  0
VERTEX
  5
4FC
100
AcDbEntity
  8
レイヤー_2
 62
     7
100
AcDbVertex
100
AcDb2dVertex
 10
156.04181
 20
182.856883
 30
0.0
  0
VERTEX
  5
4FD
100
AcDbEntity
  8
レイヤー_2
 62
     7
100
AcDbVertex
100
AcDb2dVertex
 10
156.042844
 20
182.862912
 30
0.0
  0
VERTEX
  5
4FE
100
AcDbEntity
  8
レイヤー_2
 62
     7
100
AcDbVertex
100
AcDb2dVertex
 10
156.043877
 20
182.856883
 30
0.0
  0
VERTEX
  5
4FF
100
AcDbEntity
  8
レイヤー_2
 62
     7
100
AcDbVertex
100
AcDb2dVertex
 10
156.042844
 20
182.839313
 30
0.0
  0
VERTEX
  5
500
100
AcDbEntity
  8
レイヤー_2
 62
     7
100
AcDbVertex
100
AcDb2dVertex
 10
156.04181
 20
182.814164
 30
0.0
  0
VERTEX
  5
501
100
AcDbEntity
  8
レイヤー_2
 62
     7
100
AcDbVertex
100
AcDb2dVertex
 10
156.041121
 20
182.783331
 30
0.0
  0
VERTEX
  5
502
100
AcDbEntity
  8
レイヤー_2
 62
     7
100
AcDbVertex
100
AcDb2dVertex
 10
156.03871
 20
182.753358
 30
0.0
  0
VERTEX
  5
503
100
AcDbEntity
  8
レイヤー_2
 62
     7
100
AcDbVertex
100
AcDb2dVertex
 10
156.036987
 20
182.727348
 30
0.0
  0
VERTEX
  5
504
100
AcDbEntity
  8
レイヤー_2
 62
     7
100
AcDbVertex
100
AcDb2dVertex
 10
156.036987
 20
182.710295
 30
0.0
  0
VERTEX
  5
505
100
AcDbEntity
  8
レイヤー_2
 62
     7
100
AcDbVertex
100
AcDb2dVertex
 10
156.03492
 20
182.703749
 30
0.0
  0
VERTEX
  5
506
100
AcDbEntity
  8
レイヤー_2
 62
     7
100
AcDbVertex
100
AcDb2dVertex
 10
156.03492
 20
182.710295
 30
0.0
  0
SEQEND
  5
507
100
AcDbEntity
  8
レイヤー_2
 62
     7
  0
LINE
  5
4F4
100
AcDbEntity
  8
レイヤー_2
 62
     7
100
AcDbLine
 10
156.040432
 20
185.18439
 30
0.0
 11
156.040432
 21
185.229004
 31
0.0
  0
POLYLINE
  5
4EB
100
AcDbEntity
  8
レイヤー_2
 62
     7
100
AcDb2dPolyline
 66
     1
 10
0.0
 20
0.0
 30
0.0
  0
VERTEX
  5
4EC
100
AcDbEntity
  8
レイヤー_2
 62
     7
100
AcDbVertex
100
AcDb2dVertex
 10
156.03871
 20
185.200065
 30
0.0
  0
VERTEX
  5
4ED
100
AcDbEntity
  8
レイヤー_2
 62
     7
100
AcDbVertex
100
AcDb2dVertex
 10
156.03871
 20
185.176294
 30
0.0
  0
VERTEX
  5
4EE
100
AcDbEntity
  8
レイヤー_2
 62
     7
100
AcDbVertex
100
AcDb2dVertex
 10
156.03871
 20
185.154934
 30
0.0
  0
VERTEX
  5
4EF
100
AcDbEntity
  8
レイヤー_2
 62
     7
100
AcDbVertex
100
AcDb2dVertex
 10
156.040432
 20
185.145977
 30
0.0
  0
VERTEX
  5
4F0
100
AcDbEntity
  8
レイヤー_2
 62
     7
100
AcDbVertex
100
AcDb2dVertex
 10
156.040432
 20
185.147355
 30
0.0
  0
VERTEX
  5
4F1
100
AcDbEntity
  8
レイヤー_2
 62
     7
100
AcDbVertex
100
AcDb2dVertex
 10
156.040432
 20
185.160791
 30
0.0
  0
VERTEX
  5
4F2
100
AcDbEntity
  8
レイヤー_2
 62
     7
100
AcDbVertex
100
AcDb2dVertex
 10
156.040432
 20
185.18439
 30
0.0
  0
SEQEND
  5
4F3
100
AcDbEntity
  8
レイヤー_2
 62
     7
  0
POLYLINE
  5
4E2
100
AcDbEntity
  8
レイヤー_2
 62
     7
100
AcDb2dPolyline
 66
     1
 10
0.0
 20
0.0
 30
0.0
  0
VERTEX
  5
4E3
100
AcDbEntity
  8
レイヤー_2
 62
     7
100
AcDbVertex
100
AcDb2dVertex
 10
156.040432
 20
184.518797
 30
0.0
  0
VERTEX
  5
4E4
100
AcDbEntity
  8
レイヤー_2
 62
     7
100
AcDbVertex
100
AcDb2dVertex
 10
156.040432
 20
184.542052
 30
0.0
  0
VERTEX
  5
4E5
100
AcDbEntity
  8
レイヤー_2
 62
     7
100
AcDbVertex
100
AcDb2dVertex
 10
156.040432
 20
184.555315
 30
0.0
  0
VERTEX
  5
4E6
100
AcDbEntity
  8
レイヤー_2
 62
     7
100
AcDbVertex
100
AcDb2dVertex
 10
156.040432
 20
184.557899
 30
0.0
  0
VERTEX
  5
4E7
100
AcDbEntity
  8
レイヤー_2
 62
     7
100
AcDbVertex
100
AcDb2dVertex
 10
156.03871
 20
184.54722
 30
0.0
  0
VERTEX
  5
4E8
100
AcDbEntity
  8
レイヤー_2
 62
     7
100
AcDbVertex
100
AcDb2dVertex
 10
156.03871
 20
184.527238
 30
0.0
  0
VERTEX
  5
4E9
100
AcDbEntity
  8
レイヤー_2
 62
     7
100
AcDbVertex
100
AcDb2dVertex
 10
156.03871
 20
184.503122
 30
0.0
  0
SEQEND
  5
4EA
100
AcDbEntity
  8
レイヤー_2
 62
     7
  0
LINE
  5
4E1
100
AcDbEntity
  8
レイヤー_2
 62
     7
100
AcDbLine
 10
156.040432
 20
184.473494
 30
0.0
 11
156.040432
 21
184.518797
 31
0.0
  0
LINE
  5
4E0
100
AcDbEntity
  8
レイヤー_2
 62
     7
100
AcDbLine
 10
156.043877
 20
187.010807
 30
0.0
 11
156.03492
 21
187.169282
 31
0.0
  0
LINE
  5
4DF
100
AcDbEntity
  8
レイヤー_2
 62
     7
100
AcDbLine
 10
156.03492
 20
182.533906
 30
0.0
 11
156.043877
 21
182.692725
 31
0.0
  0
LINE
  5
4DE
100
AcDbEntity
  8
レイヤー_2
 62
     7
100
AcDbLine
 10
155.888504
 20
187.936677
 30
0.0
 11
155.888504
 21
181.765994
 31
0.0
  0
LINE
  5
4DD
100
AcDbEntity
  8
レイヤー_2
 62
     7
100
AcDbLine
 10
154.364738
 20
181.765994
 30
0.0
 11
154.364738
 21
187.936677
 31
0.0
  0
LINE
  5
4DC
100
AcDbEntity
  8
レイヤー_2
 62
     7
100
AcDbLine
 10
155.924333
 20
181.80234
 30
0.0
 11
155.924333
 21
187.900848
 31
0.0
  0
POLYLINE
  5
4D5
100
AcDbEntity
  8
レイヤー_2
 62
     7
100
AcDb2dPolyline
 66
     1
 10
0.0
 20
0.0
 30
0.0
  0
VERTEX
  5
4D6
100
AcDbEntity
  8
レイヤー_2
 62
     7
100
AcDbVertex
100
AcDb2dVertex
 10
155.936391
 20
182.554404
 30
0.0
  0
VERTEX
  5
4D7
100
AcDbEntity
  8
レイヤー_2
 62
     7
100
AcDbVertex
100
AcDb2dVertex
 10
155.935701
 20
182.523226
 30
0.0
  0
VERTEX
  5
4D8
100
AcDbEntity
  8
レイヤー_2
 62
     7
100
AcDbVertex
100
AcDb2dVertex
 10
155.933634
 20
182.429519
 30
0.0
  0
VERTEX
  5
4D9
100
AcDbEntity
  8
レイヤー_2
 62
     7
100
AcDbVertex
100
AcDb2dVertex
 10
155.933634
 20
182.368024
 30
0.0
  0
VERTEX
  5
4DA
100
AcDbEntity
  8
レイヤー_2
 62
     7
100
AcDbVertex
100
AcDb2dVertex
 10
155.933634
 20
182.346837
 30
0.0
  0
SEQEND
  5
4DB
100
AcDbEntity
  8
レイヤー_2
 62
     7
  0
POLYLINE
  5
4CA
100
AcDbEntity
  8
レイヤー_2
 62
     7
100
AcDb2dPolyline
 66
     1
 10
0.0
 20
0.0
 30
0.0
  0
VERTEX
  5
4CB
100
AcDbEntity
  8
レイヤー_2
 62
     7
100
AcDbVertex
100
AcDb2dVertex
 10
155.939836
 20
183.039301
 30
0.0
  0
VERTEX
  5
4CC
100
AcDbEntity
  8
レイヤー_2
 62
     7
100
AcDbVertex
100
AcDb2dVertex
 10
155.938113
 20
182.99796
 30
0.0
  0
VERTEX
  5
4CD
100
AcDbEntity
  8
レイヤー_2
 62
     7
100
AcDbVertex
100
AcDb2dVertex
 10
155.936391
 20
182.905976
 30
0.0
  0
VERTEX
  5
4CE
100
AcDbEntity
  8
レイヤー_2
 62
     7
100
AcDbVertex
100
AcDb2dVertex
 10
155.935701
 20
182.798489
 30
0.0
  0
VERTEX
  5
4CF
100
AcDbEntity
  8
レイヤー_2
 62
     7
100
AcDbVertex
100
AcDb2dVertex
 10
155.933634
 20
182.690658
 30
0.0
  0
VERTEX
  5
4D0
100
AcDbEntity
  8
レイヤー_2
 62
     7
100
AcDbVertex
100
AcDb2dVertex
 10
155.933634
 20
182.598674
 30
0.0
  0
VERTEX
  5
4D1
100
AcDbEntity
  8
レイヤー_2
 62
     7
100
AcDbVertex
100
AcDb2dVertex
 10
155.933634
 20
182.51668
 30
0.0
  0
VERTEX
  5
4D2
100
AcDbEntity
  8
レイヤー_2
 62
     7
100
AcDbVertex
100
AcDb2dVertex
 10
155.933634
 20
182.53804
 30
0.0
  0
VERTEX
  5
4D3
100
AcDbEntity
  8
レイヤー_2
 62
     7
100
AcDbVertex
100
AcDb2dVertex
 10
155.934323
 20
182.554404
 30
0.0
  0
SEQEND
  5
4D4
100
AcDbEntity
  8
レイヤー_2
 62
     7
  0
POLYLINE
  5
4BC
100
AcDbEntity
  8
レイヤー_2
 62
     7
100
AcDb2dPolyline
 66
     1
 10
0.0
 20
0.0
 30
0.0
  0
VERTEX
  5
4BD
100
AcDbEntity
  8
レイヤー_2
 62
     7
100
AcDbVertex
100
AcDb2dVertex
 10
155.939836
 20
183.507662
 30
0.0
  0
VERTEX
  5
4BE
100
AcDbEntity
  8
レイヤー_2
 62
     7
100
AcDbVertex
100
AcDb2dVertex
 10
155.939836
 20
183.541252
 30
0.0
  0
VERTEX
  5
4BF
100
AcDbEntity
  8
レイヤー_2
 62
     7
100
AcDbVertex
100
AcDb2dVertex
 10
155.939836
 20
183.562956
 30
0.0
  0
VERTEX
  5
4C0
100
AcDbEntity
  8
レイヤー_2
 62
     7
100
AcDbVertex
100
AcDb2dVertex
 10
155.938113
 20
183.541252
 30
0.0
  0
VERTEX
  5
4C1
100
AcDbEntity
  8
レイヤー_2
 62
     7
100
AcDbVertex
100
AcDb2dVertex
 10
155.936391
 20
183.479412
 30
0.0
  0
VERTEX
  5
4C2
100
AcDbEntity
  8
レイヤー_2
 62
     7
100
AcDbVertex
100
AcDb2dVertex
 10
155.935701
 20
183.389495
 30
0.0
  0
VERTEX
  5
4C3
100
AcDbEntity
  8
レイヤー_2
 62
     7
100
AcDbVertex
100
AcDb2dVertex
 10
155.933634
 20
183.280113
 30
0.0
  0
VERTEX
  5
4C4
100
AcDbEntity
  8
レイヤー_2
 62
     7
100
AcDbVertex
100
AcDb2dVertex
 10
155.933634
 20
183.171937
 30
0.0
  0
VERTEX
  5
4C5
100
AcDbEntity
  8
レイヤー_2
 62
     7
100
AcDbVertex
100
AcDb2dVertex
 10
155.933634
 20
183.018803
 30
0.0
  0
VERTEX
  5
4C6
100
AcDbEntity
  8
レイヤー_2
 62
     7
100
AcDbVertex
100
AcDb2dVertex
 10
155.933634
 20
182.99796
 30
0.0
  0
VERTEX
  5
4C7
100
AcDbEntity
  8
レイヤー_2
 62
     7
100
AcDbVertex
100
AcDb2dVertex
 10
155.935701
 20
183.019664
 30
0.0
  0
VERTEX
  5
4C8
100
AcDbEntity
  8
レイヤー_2
 62
     7
100
AcDbVertex
100
AcDb2dVertex
 10
155.936391
 20
183.038268
 30
0.0
  0
SEQEND
  5
4C9
100
AcDbEntity
  8
レイヤー_2
 62
     7
  0
POLYLINE
  5
4AE
100
AcDbEntity
  8
レイヤー_2
 62
     7
100
AcDb2dPolyline
 66
     1
 10
0.0
 20
0.0
 30
0.0
  0
VERTEX
  5
4AF
100
AcDbEntity
  8
レイヤー_2
 62
     7
100
AcDbVertex
100
AcDb2dVertex
 10
155.939836
 20
184.231477
 30
0.0
  0
VERTEX
  5
4B0
100
AcDbEntity
  8
レイヤー_2
 62
     7
100
AcDbVertex
100
AcDb2dVertex
 10
155.939836
 20
184.26231
 30
0.0
  0
VERTEX
  5
4B1
100
AcDbEntity
  8
レイヤー_2
 62
     7
100
AcDbVertex
100
AcDb2dVertex
 10
155.938113
 20
184.28367
 30
0.0
  0
VERTEX
  5
4B2
100
AcDbEntity
  8
レイヤー_2
 62
     7
100
AcDbVertex
100
AcDb2dVertex
 10
155.936391
 20
184.260932
 30
0.0
  0
VERTEX
  5
4B3
100
AcDbEntity
  8
レイヤー_2
 62
     7
100
AcDbVertex
100
AcDb2dVertex
 10
155.935701
 20
184.199954
 30
0.0
  0
VERTEX
  5
4B4
100
AcDbEntity
  8
レイヤー_2
 62
     7
100
AcDbVertex
100
AcDb2dVertex
 10
155.933634
 20
184.109692
 30
0.0
  0
VERTEX
  5
4B5
100
AcDbEntity
  8
レイヤー_2
 62
     7
100
AcDbVertex
100
AcDb2dVertex
 10
155.933634
 20
184.000655
 30
0.0
  0
VERTEX
  5
4B6
100
AcDbEntity
  8
レイヤー_2
 62
     7
100
AcDbVertex
100
AcDb2dVertex
 10
155.933634
 20
183.802045
 30
0.0
  0
VERTEX
  5
4B7
100
AcDbEntity
  8
レイヤー_2
 62
     7
100
AcDbVertex
100
AcDb2dVertex
 10
155.933634
 20
183.739345
 30
0.0
  0
VERTEX
  5
4B8
100
AcDbEntity
  8
レイヤー_2
 62
     7
100
AcDbVertex
100
AcDb2dVertex
 10
155.935701
 20
183.719363
 30
0.0
  0
VERTEX
  5
4B9
100
AcDbEntity
  8
レイヤー_2
 62
     7
100
AcDbVertex
100
AcDb2dVertex
 10
155.936391
 20
183.741067
 30
0.0
  0
VERTEX
  5
4BA
100
AcDbEntity
  8
レイヤー_2
 62
     7
100
AcDbVertex
100
AcDb2dVertex
 10
155.936391
 20
183.762771
 30
0.0
  0
SEQEND
  5
4BB
100
AcDbEntity
  8
レイヤー_2
 62
     7
  0
POLYLINE
  5
4A0
100
AcDbEntity
  8
レイヤー_2
 62
     7
100
AcDb2dPolyline
 66
     1
 10
0.0
 20
0.0
 30
0.0
  0
VERTEX
  5
4A1
100
AcDbEntity
  8
レイヤー_2
 62
     7
100
AcDbVertex
100
AcDb2dVertex
 10
155.939836
 20
185.081209
 30
0.0
  0
VERTEX
  5
4A2
100
AcDbEntity
  8
レイヤー_2
 62
     7
100
AcDbVertex
100
AcDb2dVertex
 10
155.938113
 20
185.111182
 30
0.0
  0
VERTEX
  5
4A3
100
AcDbEntity
  8
レイヤー_2
 62
     7
100
AcDbVertex
100
AcDb2dVertex
 10
155.936391
 20
185.13323
 30
0.0
  0
VERTEX
  5
4A4
100
AcDbEntity
  8
レイヤー_2
 62
     7
100
AcDbVertex
100
AcDb2dVertex
 10
155.935701
 20
185.113076
 30
0.0
  0
VERTEX
  5
4A5
100
AcDbEntity
  8
レイヤー_2
 62
     7
100
AcDbVertex
100
AcDb2dVertex
 10
155.933634
 20
185.050203
 30
0.0
  0
VERTEX
  5
4A6
100
AcDbEntity
  8
レイヤー_2
 62
     7
100
AcDbVertex
100
AcDb2dVertex
 10
155.933634
 20
184.959597
 30
0.0
  0
VERTEX
  5
4A7
100
AcDbEntity
  8
レイヤー_2
 62
     7
100
AcDbVertex
100
AcDb2dVertex
 10
155.933634
 20
184.742384
 30
0.0
  0
VERTEX
  5
4A8
100
AcDbEntity
  8
レイヤー_2
 62
     7
100
AcDbVertex
100
AcDb2dVertex
 10
155.933634
 20
184.651778
 30
0.0
  0
VERTEX
  5
4A9
100
AcDbEntity
  8
レイヤー_2
 62
     7
100
AcDbVertex
100
AcDb2dVertex
 10
155.935701
 20
184.588905
 30
0.0
  0
VERTEX
  5
4AA
100
AcDbEntity
  8
レイヤー_2
 62
     7
100
AcDbVertex
100
AcDb2dVertex
 10
155.936391
 20
184.56944
 30
0.0
  0
VERTEX
  5
4AB
100
AcDbEntity
  8
レイヤー_2
 62
     7
100
AcDbVertex
100
AcDb2dVertex
 10
155.938113
 20
184.591144
 30
0.0
  0
VERTEX
  5
4AC
100
AcDbEntity
  8
レイヤー_2
 62
     7
100
AcDbVertex
100
AcDb2dVertex
 10
155.938113
 20
184.616294
 30
0.0
  0
SEQEND
  5
4AD
100
AcDbEntity
  8
レイヤー_2
 62
     7
  0
POLYLINE
  5
492
100
AcDbEntity
  8
レイヤー_2
 62
     7
100
AcDb2dPolyline
 66
     1
 10
0.0
 20
0.0
 30
0.0
  0
VERTEX
  5
493
100
AcDbEntity
  8
レイヤー_2
 62
     7
100
AcDbVertex
100
AcDb2dVertex
 10
155.936391
 20
185.940244
 30
0.0
  0
VERTEX
  5
494
100
AcDbEntity
  8
レイヤー_2
 62
     7
100
AcDbVertex
100
AcDb2dVertex
 10
155.936391
 20
185.961948
 30
0.0
  0
VERTEX
  5
495
100
AcDbEntity
  8
レイヤー_2
 62
     7
100
AcDbVertex
100
AcDb2dVertex
 10
155.935701
 20
185.982963
 30
0.0
  0
VERTEX
  5
496
100
AcDbEntity
  8
レイヤー_2
 62
     7
100
AcDbVertex
100
AcDb2dVertex
 10
155.933634
 20
185.963843
 30
0.0
  0
VERTEX
  5
497
100
AcDbEntity
  8
レイヤー_2
 62
     7
100
AcDbVertex
100
AcDb2dVertex
 10
155.933634
 20
185.900281
 30
0.0
  0
VERTEX
  5
498
100
AcDbEntity
  8
レイヤー_2
 62
     7
100
AcDbVertex
100
AcDb2dVertex
 10
155.933634
 20
185.701671
 30
0.0
  0
VERTEX
  5
499
100
AcDbEntity
  8
レイヤー_2
 62
     7
100
AcDbVertex
100
AcDb2dVertex
 10
155.933634
 20
185.592461
 30
0.0
  0
VERTEX
  5
49A
100
AcDbEntity
  8
レイヤー_2
 62
     7
100
AcDbVertex
100
AcDb2dVertex
 10
155.935701
 20
185.502544
 30
0.0
  0
VERTEX
  5
49B
100
AcDbEntity
  8
レイヤー_2
 62
     7
100
AcDbVertex
100
AcDb2dVertex
 10
155.936391
 20
185.441222
 30
0.0
  0
VERTEX
  5
49C
100
AcDbEntity
  8
レイヤー_2
 62
     7
100
AcDbVertex
100
AcDb2dVertex
 10
155.938113
 20
185.419862
 30
0.0
  0
VERTEX
  5
49D
100
AcDbEntity
  8
レイヤー_2
 62
     7
100
AcDbVertex
100
AcDb2dVertex
 10
155.939836
 20
185.441222
 30
0.0
  0
VERTEX
  5
49E
100
AcDbEntity
  8
レイヤー_2
 62
     7
100
AcDbVertex
100
AcDb2dVertex
 10
155.939836
 20
185.45483
 30
0.0
  0
SEQEND
  5
49F
100
AcDbEntity
  8
レイヤー_2
 62
     7
  0
POLYLINE
  5
484
100
AcDbEntity
  8
レイヤー_2
 62
     7
100
AcDb2dPolyline
 66
     1
 10
0.0
 20
0.0
 30
0.0
  0
VERTEX
  5
485
100
AcDbEntity
  8
レイヤー_2
 62
     7
100
AcDbVertex
100
AcDb2dVertex
 10
155.936391
 20
186.664575
 30
0.0
  0
VERTEX
  5
486
100
AcDbEntity
  8
レイヤー_2
 62
     7
100
AcDbVertex
100
AcDb2dVertex
 10
155.935701
 20
186.683523
 30
0.0
  0
VERTEX
  5
487
100
AcDbEntity
  8
レイヤー_2
 62
     7
100
AcDbVertex
100
AcDb2dVertex
 10
155.933634
 20
186.703849
 30
0.0
  0
VERTEX
  5
488
100
AcDbEntity
  8
レイヤー_2
 62
     7
100
AcDbVertex
100
AcDb2dVertex
 10
155.933634
 20
186.683523
 30
0.0
  0
VERTEX
  5
489
100
AcDbEntity
  8
レイヤー_2
 62
     7
100
AcDbVertex
100
AcDb2dVertex
 10
155.933634
 20
186.530389
 30
0.0
  0
VERTEX
  5
48A
100
AcDbEntity
  8
レイヤー_2
 62
     7
100
AcDbVertex
100
AcDb2dVertex
 10
155.933634
 20
186.422557
 30
0.0
  0
VERTEX
  5
48B
100
AcDbEntity
  8
レイヤー_2
 62
     7
100
AcDbVertex
100
AcDb2dVertex
 10
155.935701
 20
186.312142
 30
0.0
  0
VERTEX
  5
48C
100
AcDbEntity
  8
レイヤー_2
 62
     7
100
AcDbVertex
100
AcDb2dVertex
 10
155.936391
 20
186.223258
 30
0.0
  0
VERTEX
  5
48D
100
AcDbEntity
  8
レイヤー_2
 62
     7
100
AcDbVertex
100
AcDb2dVertex
 10
155.938113
 20
186.16228
 30
0.0
  0
VERTEX
  5
48E
100
AcDbEntity
  8
レイヤー_2
 62
     7
100
AcDbVertex
100
AcDb2dVertex
 10
155.939836
 20
186.141093
 30
0.0
  0
VERTEX
  5
48F
100
AcDbEntity
  8
レイヤー_2
 62
     7
100
AcDbVertex
100
AcDb2dVertex
 10
155.939836
 20
186.16228
 30
0.0
  0
VERTEX
  5
490
100
AcDbEntity
  8
レイヤー_2
 62
     7
100
AcDbVertex
100
AcDb2dVertex
 10
155.939836
 20
186.223258
 30
0.0
  0
SEQEND
  5
491
100
AcDbEntity
  8
レイヤー_2
 62
     7
  0
POLYLINE
  5
479
100
AcDbEntity
  8
レイヤー_2
 62
     7
100
AcDb2dPolyline
 66
     1
 10
0.0
 20
0.0
 30
0.0
  0
VERTEX
  5
47A
100
AcDbEntity
  8
レイヤー_2
 62
     7
100
AcDbVertex
100
AcDb2dVertex
 10
155.934323
 20
187.148267
 30
0.0
  0
VERTEX
  5
47B
100
AcDbEntity
  8
レイヤー_2
 62
     7
100
AcDbVertex
100
AcDb2dVertex
 10
155.933634
 20
187.164459
 30
0.0
  0
VERTEX
  5
47C
100
AcDbEntity
  8
レイヤー_2
 62
     7
100
AcDbVertex
100
AcDb2dVertex
 10
155.933634
 20
187.185818
 30
0.0
  0
VERTEX
  5
47D
100
AcDbEntity
  8
レイヤー_2
 62
     7
100
AcDbVertex
100
AcDb2dVertex
 10
155.933634
 20
187.10348
 30
0.0
  0
VERTEX
  5
47E
100
AcDbEntity
  8
レイヤー_2
 62
     7
100
AcDbVertex
100
AcDb2dVertex
 10
155.933634
 20
187.012013
 30
0.0
  0
VERTEX
  5
47F
100
AcDbEntity
  8
レイヤー_2
 62
     7
100
AcDbVertex
100
AcDb2dVertex
 10
155.935701
 20
186.904182
 30
0.0
  0
VERTEX
  5
480
100
AcDbEntity
  8
レイヤー_2
 62
     7
100
AcDbVertex
100
AcDb2dVertex
 10
155.936391
 20
186.796006
 30
0.0
  0
VERTEX
  5
481
100
AcDbEntity
  8
レイヤー_2
 62
     7
100
AcDbVertex
100
AcDb2dVertex
 10
155.938113
 20
186.705227
 30
0.0
  0
VERTEX
  5
482
100
AcDbEntity
  8
レイヤー_2
 62
     7
100
AcDbVertex
100
AcDb2dVertex
 10
155.939836
 20
186.664575
 30
0.0
  0
SEQEND
  5
483
100
AcDbEntity
  8
レイヤー_2
 62
     7
  0
POLYLINE
  5
472
100
AcDbEntity
  8
レイヤー_2
 62
     7
100
AcDb2dPolyline
 66
     1
 10
0.0
 20
0.0
 30
0.0
  0
VERTEX
  5
473
100
AcDbEntity
  8
レイヤー_2
 62
     7
100
AcDbVertex
100
AcDb2dVertex
 10
155.933634
 20
187.355317
 30
0.0
  0
VERTEX
  5
474
100
AcDbEntity
  8
レイヤー_2
 62
     7
100
AcDbVertex
100
AcDb2dVertex
 10
155.933634
 20
187.333957
 30
0.0
  0
VERTEX
  5
475
100
AcDbEntity
  8
レイヤー_2
 62
     7
100
AcDbVertex
100
AcDb2dVertex
 10
155.933634
 20
187.272635
 30
0.0
  0
VERTEX
  5
476
100
AcDbEntity
  8
レイヤー_2
 62
     7
100
AcDbVertex
100
AcDb2dVertex
 10
155.935701
 20
187.179272
 30
0.0
  0
VERTEX
  5
477
100
AcDbEntity
  8
レイヤー_2
 62
     7
100
AcDbVertex
100
AcDb2dVertex
 10
155.936391
 20
187.148267
 30
0.0
  0
SEQEND
  5
478
100
AcDbEntity
  8
レイヤー_2
 62
     7
  0
LINE
  5
471
100
AcDbEntity
  8
レイヤー_2
 62
     7
100
AcDbLine
 10
155.943281
 20
183.496465
 30
0.0
 11
155.943281
 21
183.762771
 31
0.0
  0
LINE
  5
470
100
AcDbEntity
  8
レイヤー_2
 62
     7
100
AcDbLine
 10
155.943281
 20
184.245601
 30
0.0
 11
155.943281
 21
184.617499
 31
0.0
  0
LINE
  5
46F
100
AcDbEntity
  8
レイヤー_2
 62
     7
100
AcDbLine
 10
155.943281
 20
185.086032
 30
0.0
 11
155.943281
 21
185.460859
 31
0.0
  0
LINE
  5
46E
100
AcDbEntity
  8
レイヤー_2
 62
     7
100
AcDbLine
 10
155.943281
 20
185.939899
 30
0.0
 11
155.943281
 21
186.195181
 31
0.0
  0
LINE
  5
46D
100
AcDbEntity
  8
レイヤー_2
 62
     7
100
AcDbLine
 10
152.205008
 20
161.492641
 30
0.0
 11
153.130705
 21
161.492641
 31
0.0
  0
LINE
  5
46C
100
AcDbEntity
  8
レイヤー_2
 62
     7
100
AcDbLine
 10
148.545972
 20
161.492641
 30
0.0
 11
152.205008
 21
161.492641
 31
0.0
  0
LINE
  5
46B
100
AcDbEntity
  8
レイヤー_2
 62
     7
100
AcDbLine
 10
154.364738
 20
187.936677
 30
0.0
 11
154.364738
 21
181.765994
 31
0.0
  0
LINE
  5
46A
100
AcDbEntity
  8
レイヤー_2
 62
     7
100
AcDbLine
 10
147.313317
 20
187.936677
 30
0.0
 11
147.313317
 21
181.765994
 31
0.0
  0
LINE
  5
469
100
AcDbEntity
  8
レイヤー_2
 62
     7
100
AcDbLine
 10
153.130705
 20
180.531961
 30
0.0
 11
148.545972
 21
180.531961
 31
0.0
  0
LINE
  5
468
100
AcDbEntity
  8
レイヤー_2
 62
     7
100
AcDbLine
 10
149.702835
 20
180.531961
 30
0.0
 11
148.545972
 21
180.531961
 31
0.0
  0
LINE
  5
467
100
AcDbEntity
  8
レイヤー_2
 62
     7
100
AcDbLine
 10
153.130705
 20
180.531961
 30
0.0
 11
149.702835
 21
180.531961
 31
0.0
  0
LINE
  5
466
100
AcDbEntity
  8
レイヤー_2
 62
     7
100
AcDbLine
 10
149.702835
 20
161.492641
 30
0.0
 11
148.545972
 21
161.492641
 31
0.0
  0
LINE
  5
465
100
AcDbEntity
  8
レイヤー_2
 62
     7
100
AcDbLine
 10
153.130705
 20
161.492641
 30
0.0
 11
149.702835
 21
161.492641
 31
0.0
  0
LINE
  5
464
100
AcDbEntity
  8
レイヤー_2
 62
     7
100
AcDbLine
 10
146.430683
 20
161.034098
 30
0.0
 11
150.838338
 21
161.034098
 31
0.0
  0
LINE
  5
463
100
AcDbEntity
  8
レイヤー_2
 62
     7
100
AcDbLine
 10
150.838338
 20
159.270898
 30
0.0
 11
155.245993
 21
159.270898
 31
0.0
  0
LINE
  5
462
100
AcDbEntity
  8
レイヤー_2
 62
     7
100
AcDbLine
 10
146.430683
 20
159.270898
 30
0.0
 11
150.838338
 21
159.270898
 31
0.0
  0
POLYLINE
  5
450
100
AcDbEntity
  8
レイヤー_2
 62
     7
100
AcDb2dPolyline
 66
     1
 10
0.0
 20
0.0
 30
0.0
  0
VERTEX
  5
451
100
AcDbEntity
  8
レイヤー_2
 62
     7
100
AcDbVertex
100
AcDb2dVertex
 10
156.043877
 20
184.851077
 30
0.0
  0
VERTEX
  5
452
100
AcDbEntity
  8
レイヤー_2
 62
     7
100
AcDbVertex
100
AcDb2dVertex
 10
156.042844
 20
184.775629
 30
0.0
  0
VERTEX
  5
453
100
AcDbEntity
  8
レイヤー_2
 62
     7
100
AcDbVertex
100
AcDb2dVertex
 10
156.040432
 20
184.711206
 30
0.0
  0
VERTEX
  5
454
100
AcDbEntity
  8
レイヤー_2
 62
     7
100
AcDbVertex
100
AcDb2dVertex
 10
156.036987
 20
184.668831
 30
0.0
  0
VERTEX
  5
455
100
AcDbEntity
  8
レイヤー_2
 62
     7
100
AcDbVertex
100
AcDb2dVertex
 10
156.032509
 20
184.653328
 30
0.0
  0
VERTEX
  5
456
100
AcDbEntity
  8
レイヤー_2
 62
     7
100
AcDbVertex
100
AcDb2dVertex
 10
156.029408
 20
184.668831
 30
0.0
  0
VERTEX
  5
457
100
AcDbEntity
  8
レイヤー_2
 62
     7
100
AcDbVertex
100
AcDb2dVertex
 10
156.025618
 20
184.711206
 30
0.0
  0
VERTEX
  5
458
100
AcDbEntity
  8
レイヤー_2
 62
     7
100
AcDbVertex
100
AcDb2dVertex
 10
156.023207
 20
184.775629
 30
0.0
  0
VERTEX
  5
459
100
AcDbEntity
  8
レイヤー_2
 62
     7
100
AcDbVertex
100
AcDb2dVertex
 10
156.023207
 20
184.851077
 30
0.0
  0
VERTEX
  5
45A
100
AcDbEntity
  8
レイヤー_2
 62
     7
100
AcDbVertex
100
AcDb2dVertex
 10
156.023207
 20
184.927558
 30
0.0
  0
VERTEX
  5
45B
100
AcDbEntity
  8
レイヤー_2
 62
     7
100
AcDbVertex
100
AcDb2dVertex
 10
156.025618
 20
184.991637
 30
0.0
  0
VERTEX
  5
45C
100
AcDbEntity
  8
レイヤー_2
 62
     7
100
AcDbVertex
100
AcDb2dVertex
 10
156.029408
 20
185.034356
 30
0.0
  0
VERTEX
  5
45D
100
AcDbEntity
  8
レイヤー_2
 62
     7
100
AcDbVertex
100
AcDb2dVertex
 10
156.032509
 20
185.04917
 30
0.0
  0
VERTEX
  5
45E
100
AcDbEntity
  8
レイヤー_2
 62
     7
100
AcDbVertex
100
AcDb2dVertex
 10
156.036987
 20
185.034356
 30
0.0
  0
VERTEX
  5
45F
100
AcDbEntity
  8
レイヤー_2
 62
     7
100
AcDbVertex
100
AcDb2dVertex
 10
156.040432
 20
184.991637
 30
0.0
  0
VERTEX
  5
460
100
AcDbEntity
  8
レイヤー_2
 62
     7
100
AcDbVertex
100
AcDb2dVertex
 10
156.041121
 20
184.978201
 30
0.0
  0
SEQEND
  5
461
100
AcDbEntity
  8
レイヤー_2
 62
     7
  0
POLYLINE
  5
43E
100
AcDbEntity
  8
レイヤー_2
 62
     7
100
AcDb2dPolyline
 66
     1
 10
0.0
 20
0.0
 30
0.0
  0
VERTEX
  5
43F
100
AcDbEntity
  8
レイヤー_2
 62
     7
100
AcDbVertex
100
AcDb2dVertex
 10
156.040432
 20
183.920901
 30
0.0
  0
VERTEX
  5
440
100
AcDbEntity
  8
レイヤー_2
 62
     7
100
AcDbVertex
100
AcDb2dVertex
 10
156.040432
 20
183.919179
 30
0.0
  0
VERTEX
  5
441
100
AcDbEntity
  8
レイヤー_2
 62
     7
100
AcDbVertex
100
AcDb2dVertex
 10
156.036987
 20
183.854411
 30
0.0
  0
VERTEX
  5
442
100
AcDbEntity
  8
レイヤー_2
 62
     7
100
AcDbVertex
100
AcDb2dVertex
 10
156.032509
 20
183.812381
 30
0.0
  0
VERTEX
  5
443
100
AcDbEntity
  8
レイヤー_2
 62
     7
100
AcDbVertex
100
AcDb2dVertex
 10
156.029408
 20
183.796878
 30
0.0
  0
VERTEX
  5
444
100
AcDbEntity
  8
レイヤー_2
 62
     7
100
AcDbVertex
100
AcDb2dVertex
 10
156.025618
 20
183.812381
 30
0.0
  0
VERTEX
  5
445
100
AcDbEntity
  8
レイヤー_2
 62
     7
100
AcDbVertex
100
AcDb2dVertex
 10
156.023207
 20
183.854411
 30
0.0
  0
VERTEX
  5
446
100
AcDbEntity
  8
レイヤー_2
 62
     7
100
AcDbVertex
100
AcDb2dVertex
 10
156.023207
 20
183.919179
 30
0.0
  0
VERTEX
  5
447
100
AcDbEntity
  8
レイヤー_2
 62
     7
100
AcDbVertex
100
AcDb2dVertex
 10
156.023207
 20
183.995315
 30
0.0
  0
VERTEX
  5
448
100
AcDbEntity
  8
レイヤー_2
 62
     7
100
AcDbVertex
100
AcDb2dVertex
 10
156.025618
 20
184.070418
 30
0.0
  0
VERTEX
  5
449
100
AcDbEntity
  8
レイヤー_2
 62
     7
100
AcDbVertex
100
AcDb2dVertex
 10
156.029408
 20
184.134325
 30
0.0
  0
VERTEX
  5
44A
100
AcDbEntity
  8
レイヤー_2
 62
     7
100
AcDbVertex
100
AcDb2dVertex
 10
156.032509
 20
184.177389
 30
0.0
  0
VERTEX
  5
44B
100
AcDbEntity
  8
レイヤー_2
 62
     7
100
AcDbVertex
100
AcDb2dVertex
 10
156.036987
 20
184.192202
 30
0.0
  0
VERTEX
  5
44C
100
AcDbEntity
  8
レイヤー_2
 62
     7
100
AcDbVertex
100
AcDb2dVertex
 10
156.040432
 20
184.177389
 30
0.0
  0
VERTEX
  5
44D
100
AcDbEntity
  8
レイヤー_2
 62
     7
100
AcDbVertex
100
AcDb2dVertex
 10
156.042844
 20
184.134325
 30
0.0
  0
VERTEX
  5
44E
100
AcDbEntity
  8
レイヤー_2
 62
     7
100
AcDbVertex
100
AcDb2dVertex
 10
156.042844
 20
184.124162
 30
0.0
  0
SEQEND
  5
44F
100
AcDbEntity
  8
レイヤー_2
 62
     7
  0
POLYLINE
  5
42C
100
AcDbEntity
  8
レイヤー_2
 62
     7
100
AcDb2dPolyline
 66
     1
 10
0.0
 20
0.0
 30
0.0
  0
VERTEX
  5
42D
100
AcDbEntity
  8
レイヤー_2
 62
     7
100
AcDbVertex
100
AcDb2dVertex
 10
156.043877
 20
185.634664
 30
0.0
  0
VERTEX
  5
42E
100
AcDbEntity
  8
レイヤー_2
 62
     7
100
AcDbVertex
100
AcDb2dVertex
 10
156.043877
 20
185.63208
 30
0.0
  0
VERTEX
  5
42F
100
AcDbEntity
  8
レイヤー_2
 62
     7
100
AcDbVertex
100
AcDb2dVertex
 10
156.042844
 20
185.567312
 30
0.0
  0
VERTEX
  5
430
100
AcDbEntity
  8
レイヤー_2
 62
     7
100
AcDbVertex
100
AcDb2dVertex
 10
156.040432
 20
185.524938
 30
0.0
  0
VERTEX
  5
431
100
AcDbEntity
  8
レイヤー_2
 62
     7
100
AcDbVertex
100
AcDb2dVertex
 10
156.036987
 20
185.510468
 30
0.0
  0
VERTEX
  5
432
100
AcDbEntity
  8
レイヤー_2
 62
     7
100
AcDbVertex
100
AcDb2dVertex
 10
156.032509
 20
185.524938
 30
0.0
  0
VERTEX
  5
433
100
AcDbEntity
  8
レイヤー_2
 62
     7
100
AcDbVertex
100
AcDb2dVertex
 10
156.029408
 20
185.567312
 30
0.0
  0
VERTEX
  5
434
100
AcDbEntity
  8
レイヤー_2
 62
     7
100
AcDbVertex
100
AcDb2dVertex
 10
156.025618
 20
185.63208
 30
0.0
  0
VERTEX
  5
435
100
AcDbEntity
  8
レイヤー_2
 62
     7
100
AcDbVertex
100
AcDb2dVertex
 10
156.023207
 20
185.707528
 30
0.0
  0
VERTEX
  5
436
100
AcDbEntity
  8
レイヤー_2
 62
     7
100
AcDbVertex
100
AcDb2dVertex
 10
156.023207
 20
185.784009
 30
0.0
  0
VERTEX
  5
437
100
AcDbEntity
  8
レイヤー_2
 62
     7
100
AcDbVertex
100
AcDb2dVertex
 10
156.023207
 20
185.847399
 30
0.0
  0
VERTEX
  5
438
100
AcDbEntity
  8
レイヤー_2
 62
     7
100
AcDbVertex
100
AcDb2dVertex
 10
156.025618
 20
185.890807
 30
0.0
  0
VERTEX
  5
439
100
AcDbEntity
  8
レイヤー_2
 62
     7
100
AcDbVertex
100
AcDb2dVertex
 10
156.029408
 20
185.905276
 30
0.0
  0
VERTEX
  5
43A
100
AcDbEntity
  8
レイヤー_2
 62
     7
100
AcDbVertex
100
AcDb2dVertex
 10
156.032509
 20
185.890807
 30
0.0
  0
VERTEX
  5
43B
100
AcDbEntity
  8
レイヤー_2
 62
     7
100
AcDbVertex
100
AcDb2dVertex
 10
156.036987
 20
185.847399
 30
0.0
  0
VERTEX
  5
43C
100
AcDbEntity
  8
レイヤー_2
 62
     7
100
AcDbVertex
100
AcDb2dVertex
 10
156.036987
 20
185.838097
 30
0.0
  0
SEQEND
  5
43D
100
AcDbEntity
  8
レイヤー_2
 62
     7
  0
POLYLINE
  5
41C
100
AcDbEntity
  8
レイヤー_2
 62
     7
100
AcDb2dPolyline
 66
     1
 10
0.0
 20
0.0
 30
0.0
  0
VERTEX
  5
41D
100
AcDbEntity
  8
レイヤー_2
 62
     7
100
AcDbVertex
100
AcDb2dVertex
 10
156.043877
 20
186.294916
 30
0.0
  0
VERTEX
  5
41E
100
AcDbEntity
  8
レイヤー_2
 62
     7
100
AcDbVertex
100
AcDb2dVertex
 10
156.043877
 20
186.293883
 30
0.0
  0
VERTEX
  5
41F
100
AcDbEntity
  8
レイヤー_2
 62
     7
100
AcDbVertex
100
AcDb2dVertex
 10
156.042844
 20
186.250819
 30
0.0
  0
VERTEX
  5
420
100
AcDbEntity
  8
レイヤー_2
 62
     7
100
AcDbVertex
100
AcDb2dVertex
 10
156.040432
 20
186.236005
 30
0.0
  0
VERTEX
  5
421
100
AcDbEntity
  8
レイヤー_2
 62
     7
100
AcDbVertex
100
AcDb2dVertex
 10
156.036987
 20
186.250819
 30
0.0
  0
VERTEX
  5
422
100
AcDbEntity
  8
レイヤー_2
 62
     7
100
AcDbVertex
100
AcDb2dVertex
 10
156.032509
 20
186.293883
 30
0.0
  0
VERTEX
  5
423
100
AcDbEntity
  8
レイヤー_2
 62
     7
100
AcDbVertex
100
AcDb2dVertex
 10
156.029408
 20
186.358651
 30
0.0
  0
VERTEX
  5
424
100
AcDbEntity
  8
レイヤー_2
 62
     7
100
AcDbVertex
100
AcDb2dVertex
 10
156.025618
 20
186.434098
 30
0.0
  0
VERTEX
  5
425
100
AcDbEntity
  8
レイヤー_2
 62
     7
100
AcDbVertex
100
AcDb2dVertex
 10
156.023207
 20
186.50989
 30
0.0
  0
VERTEX
  5
426
100
AcDbEntity
  8
レイヤー_2
 62
     7
100
AcDbVertex
100
AcDb2dVertex
 10
156.023207
 20
186.573108
 30
0.0
  0
VERTEX
  5
427
100
AcDbEntity
  8
レイヤー_2
 62
     7
100
AcDbVertex
100
AcDb2dVertex
 10
156.023207
 20
186.616861
 30
0.0
  0
VERTEX
  5
428
100
AcDbEntity
  8
レイヤー_2
 62
     7
100
AcDbVertex
100
AcDb2dVertex
 10
156.025618
 20
186.63133
 30
0.0
  0
VERTEX
  5
429
100
AcDbEntity
  8
レイヤー_2
 62
     7
100
AcDbVertex
100
AcDb2dVertex
 10
156.029408
 20
186.616861
 30
0.0
  0
VERTEX
  5
42A
100
AcDbEntity
  8
レイヤー_2
 62
     7
100
AcDbVertex
100
AcDb2dVertex
 10
156.030097
 20
186.612727
 30
0.0
  0
SEQEND
  5
42B
100
AcDbEntity
  8
レイヤー_2
 62
     7
  0
POLYLINE
  5
416
100
AcDbEntity
  8
レイヤー_2
 62
     7
100
AcDb2dPolyline
 66
     1
 10
0.0
 20
0.0
 30
0.0
  0
VERTEX
  5
417
100
AcDbEntity
  8
レイヤー_2
 62
     7
100
AcDbVertex
100
AcDb2dVertex
 10
156.040432
 20
183.466493
 30
0.0
  0
VERTEX
  5
418
100
AcDbEntity
  8
レイヤー_2
 62
     7
100
AcDbVertex
100
AcDb2dVertex
 10
156.042844
 20
183.451335
 30
0.0
  0
VERTEX
  5
419
100
AcDbEntity
  8
レイヤー_2
 62
     7
100
AcDbVertex
100
AcDb2dVertex
 10
156.043877
 20
183.408271
 30
0.0
  0
VERTEX
  5
41A
100
AcDbEntity
  8
レイヤー_2
 62
     7
100
AcDbVertex
100
AcDb2dVertex
 10
156.043877
 20
183.40741
 30
0.0
  0
SEQEND
  5
41B
100
AcDbEntity
  8
レイヤー_2
 62
     7
  0
POLYLINE
  5
408
100
AcDbEntity
  8
レイヤー_2
 62
     7
100
AcDb2dPolyline
 66
     1
 10
0.0
 20
0.0
 30
0.0
  0
VERTEX
  5
409
100
AcDbEntity
  8
レイヤー_2
 62
     7
100
AcDbVertex
100
AcDb2dVertex
 10
156.033542
 20
183.130079
 30
0.0
  0
VERTEX
  5
40A
100
AcDbEntity
  8
レイヤー_2
 62
     7
100
AcDbVertex
100
AcDb2dVertex
 10
156.032509
 20
183.128874
 30
0.0
  0
VERTEX
  5
40B
100
AcDbEntity
  8
レイヤー_2
 62
     7
100
AcDbVertex
100
AcDb2dVertex
 10
156.029408
 20
183.08581
 30
0.0
  0
VERTEX
  5
40C
100
AcDbEntity
  8
レイヤー_2
 62
     7
100
AcDbVertex
100
AcDb2dVertex
 10
156.025618
 20
183.070652
 30
0.0
  0
VERTEX
  5
40D
100
AcDbEntity
  8
レイヤー_2
 62
     7
100
AcDbVertex
100
AcDb2dVertex
 10
156.023207
 20
183.087016
 30
0.0
  0
VERTEX
  5
40E
100
AcDbEntity
  8
レイヤー_2
 62
     7
100
AcDbVertex
100
AcDb2dVertex
 10
156.023207
 20
183.130079
 30
0.0
  0
VERTEX
  5
40F
100
AcDbEntity
  8
レイヤー_2
 62
     7
100
AcDbVertex
100
AcDb2dVertex
 10
156.023207
 20
183.193986
 30
0.0
  0
VERTEX
  5
410
100
AcDbEntity
  8
レイヤー_2
 62
     7
100
AcDbVertex
100
AcDb2dVertex
 10
156.025618
 20
183.268745
 30
0.0
  0
VERTEX
  5
411
100
AcDbEntity
  8
レイヤー_2
 62
     7
100
AcDbVertex
100
AcDb2dVertex
 10
156.029408
 20
183.345226
 30
0.0
  0
VERTEX
  5
412
100
AcDbEntity
  8
レイヤー_2
 62
     7
100
AcDbVertex
100
AcDb2dVertex
 10
156.032509
 20
183.409132
 30
0.0
  0
VERTEX
  5
413
100
AcDbEntity
  8
レイヤー_2
 62
     7
100
AcDbVertex
100
AcDb2dVertex
 10
156.036987
 20
183.452024
 30
0.0
  0
VERTEX
  5
414
100
AcDbEntity
  8
レイヤー_2
 62
     7
100
AcDbVertex
100
AcDb2dVertex
 10
156.040432
 20
183.466493
 30
0.0
  0
SEQEND
  5
415
100
AcDbEntity
  8
レイヤー_2
 62
     7
  0
POLYLINE
  5
403
100
AcDbEntity
  8
レイヤー_2
 62
     7
100
AcDb2dPolyline
 66
     1
 10
0.0
 20
0.0
 30
0.0
  0
VERTEX
  5
404
100
AcDbEntity
  8
レイヤー_2
 62
     7
100
AcDbVertex
100
AcDb2dVertex
 10
155.987378
 20
184.391157
 30
0.0
  0
VERTEX
  5
405
100
AcDbEntity
  8
レイヤー_2
 62
     7
100
AcDbVertex
100
AcDb2dVertex
 10
155.987378
 20
184.302273
 30
0.0
  0
VERTEX
  5
406
100
AcDbEntity
  8
レイヤー_2
 62
     7
100
AcDbVertex
100
AcDb2dVertex
 10
155.9891
 20
184.227687
 30
0.0
  0
SEQEND
  5
407
100
AcDbEntity
  8
レイヤー_2
 62
     7
  0
POLYLINE
  5
3FC
100
AcDbEntity
  8
レイヤー_2
 62
     7
100
AcDb2dPolyline
 66
     1
 10
0.0
 20
0.0
 30
0.0
  0
VERTEX
  5
3FD
100
AcDbEntity
  8
レイヤー_2
 62
     7
100
AcDbVertex
100
AcDb2dVertex
 10
155.99668
 20
184.620083
 30
0.0
  0
VERTEX
  5
3FE
100
AcDbEntity
  8
レイヤー_2
 62
     7
100
AcDbVertex
100
AcDb2dVertex
 10
155.995302
 20
184.604753
 30
0.0
  0
VERTEX
  5
3FF
100
AcDbEntity
  8
レイヤー_2
 62
     7
100
AcDbVertex
100
AcDb2dVertex
 10
155.992546
 20
184.554971
 30
0.0
  0
VERTEX
  5
400
100
AcDbEntity
  8
レイヤー_2
 62
     7
100
AcDbVertex
100
AcDb2dVertex
 10
155.9891
 20
184.479523
 30
0.0
  0
VERTEX
  5
401
100
AcDbEntity
  8
レイヤー_2
 62
     7
100
AcDbVertex
100
AcDb2dVertex
 10
155.987378
 20
184.391157
 30
0.0
  0
SEQEND
  5
402
100
AcDbEntity
  8
レイヤー_2
 62
     7
  0
POLYLINE
  5
3F4
100
AcDbEntity
  8
レイヤー_2
 62
     7
100
AcDb2dPolyline
 66
     1
 10
0.0
 20
0.0
 30
0.0
  0
VERTEX
  5
3F5
100
AcDbEntity
  8
レイヤー_2
 62
     7
100
AcDbVertex
100
AcDb2dVertex
 10
156.021484
 20
184.390812
 30
0.0
  0
VERTEX
  5
3F6
100
AcDbEntity
  8
レイヤー_2
 62
     7
100
AcDbVertex
100
AcDb2dVertex
 10
156.023207
 20
184.46626
 30
0.0
  0
VERTEX
  5
3F7
100
AcDbEntity
  8
レイヤー_2
 62
     7
100
AcDbVertex
100
AcDb2dVertex
 10
156.025618
 20
184.532061
 30
0.0
  0
VERTEX
  5
3F8
100
AcDbEntity
  8
レイヤー_2
 62
     7
100
AcDbVertex
100
AcDb2dVertex
 10
156.02803
 20
184.575125
 30
0.0
  0
VERTEX
  5
3F9
100
AcDbEntity
  8
レイヤー_2
 62
     7
100
AcDbVertex
100
AcDb2dVertex
 10
156.031131
 20
184.590283
 30
0.0
  0
VERTEX
  5
3FA
100
AcDbEntity
  8
レイヤー_2
 62
     7
100
AcDbVertex
100
AcDb2dVertex
 10
156.033542
 20
184.575125
 30
0.0
  0
SEQEND
  5
3FB
100
AcDbEntity
  8
レイヤー_2
 62
     7
  0
POLYLINE
  5
3EC
100
AcDbEntity
  8
レイヤー_2
 62
     7
100
AcDb2dPolyline
 66
     1
 10
0.0
 20
0.0
 30
0.0
  0
VERTEX
  5
3ED
100
AcDbEntity
  8
レイヤー_2
 62
     7
100
AcDbVertex
100
AcDb2dVertex
 10
156.029408
 20
184.206844
 30
0.0
  0
VERTEX
  5
3EE
100
AcDbEntity
  8
レイヤー_2
 62
     7
100
AcDbVertex
100
AcDb2dVertex
 10
156.025618
 20
184.191169
 30
0.0
  0
VERTEX
  5
3EF
100
AcDbEntity
  8
レイヤー_2
 62
     7
100
AcDbVertex
100
AcDb2dVertex
 10
156.024929
 20
184.206844
 30
0.0
  0
VERTEX
  5
3F0
100
AcDbEntity
  8
レイヤー_2
 62
     7
100
AcDbVertex
100
AcDb2dVertex
 10
156.023207
 20
184.249391
 30
0.0
  0
VERTEX
  5
3F1
100
AcDbEntity
  8
レイヤー_2
 62
     7
100
AcDbVertex
100
AcDb2dVertex
 10
156.021484
 20
184.314159
 30
0.0
  0
VERTEX
  5
3F2
100
AcDbEntity
  8
レイヤー_2
 62
     7
100
AcDbVertex
100
AcDb2dVertex
 10
156.021484
 20
184.390812
 30
0.0
  0
SEQEND
  5
3F3
100
AcDbEntity
  8
レイヤー_2
 62
     7
  0
POLYLINE
  5
3E4
100
AcDbEntity
  8
レイヤー_2
 62
     7
100
AcDb2dPolyline
 66
     1
 10
0.0
 20
0.0
 30
0.0
  0
VERTEX
  5
3E5
100
AcDbEntity
  8
レイヤー_2
 62
     7
100
AcDbVertex
100
AcDb2dVertex
 10
156.021484
 20
185.312031
 30
0.0
  0
VERTEX
  5
3E6
100
AcDbEntity
  8
レイヤー_2
 62
     7
100
AcDbVertex
100
AcDb2dVertex
 10
156.021484
 20
185.388512
 30
0.0
  0
VERTEX
  5
3E7
100
AcDbEntity
  8
レイヤー_2
 62
     7
100
AcDbVertex
100
AcDb2dVertex
 10
156.023207
 20
185.452935
 30
0.0
  0
VERTEX
  5
3E8
100
AcDbEntity
  8
レイヤー_2
 62
     7
100
AcDbVertex
100
AcDb2dVertex
 10
156.024929
 20
185.49531
 30
0.0
  0
VERTEX
  5
3E9
100
AcDbEntity
  8
レイヤー_2
 62
     7
100
AcDbVertex
100
AcDb2dVertex
 10
156.025618
 20
185.511674
 30
0.0
  0
VERTEX
  5
3EA
100
AcDbEntity
  8
レイヤー_2
 62
     7
100
AcDbVertex
100
AcDb2dVertex
 10
156.029408
 20
185.496343
 30
0.0
  0
SEQEND
  5
3EB
100
AcDbEntity
  8
レイヤー_2
 62
     7
  0
POLYLINE
  5
3DC
100
AcDbEntity
  8
レイヤー_2
 62
     7
100
AcDb2dPolyline
 66
     1
 10
0.0
 20
0.0
 30
0.0
  0
VERTEX
  5
3DD
100
AcDbEntity
  8
レイヤー_2
 62
     7
100
AcDbVertex
100
AcDb2dVertex
 10
156.033542
 20
185.127546
 30
0.0
  0
VERTEX
  5
3DE
100
AcDbEntity
  8
レイヤー_2
 62
     7
100
AcDbVertex
100
AcDb2dVertex
 10
156.031131
 20
185.112732
 30
0.0
  0
VERTEX
  5
3DF
100
AcDbEntity
  8
レイヤー_2
 62
     7
100
AcDbVertex
100
AcDb2dVertex
 10
156.02803
 20
185.128063
 30
0.0
  0
VERTEX
  5
3E0
100
AcDbEntity
  8
レイヤー_2
 62
     7
100
AcDbVertex
100
AcDb2dVertex
 10
156.025618
 20
185.17061
 30
0.0
  0
VERTEX
  5
3E1
100
AcDbEntity
  8
レイヤー_2
 62
     7
100
AcDbVertex
100
AcDb2dVertex
 10
156.023207
 20
185.235377
 30
0.0
  0
VERTEX
  5
3E2
100
AcDbEntity
  8
レイヤー_2
 62
     7
100
AcDbVertex
100
AcDb2dVertex
 10
156.021484
 20
185.312031
 30
0.0
  0
SEQEND
  5
3E3
100
AcDbEntity
  8
レイヤー_2
 62
     7
  0
POLYLINE
  5
3D3
100
AcDbEntity
  8
レイヤー_2
 62
     7
100
AcDb2dPolyline
 66
     1
 10
0.0
 20
0.0
 30
0.0
  0
VERTEX
  5
3D4
100
AcDbEntity
  8
レイヤー_2
 62
     7
100
AcDbVertex
100
AcDb2dVertex
 10
156.031131
 20
185.903726
 30
0.0
  0
VERTEX
  5
3D5
100
AcDbEntity
  8
レイヤー_2
 62
     7
100
AcDbVertex
100
AcDb2dVertex
 10
156.030097
 20
185.915956
 30
0.0
  0
VERTEX
  5
3D6
100
AcDbEntity
  8
レイヤー_2
 62
     7
100
AcDbVertex
100
AcDb2dVertex
 10
156.027341
 20
185.981068
 30
0.0
  0
VERTEX
  5
3D7
100
AcDbEntity
  8
レイヤー_2
 62
     7
100
AcDbVertex
100
AcDb2dVertex
 10
156.024929
 20
186.057549
 30
0.0
  0
VERTEX
  5
3D8
100
AcDbEntity
  8
レイヤー_2
 62
     7
100
AcDbVertex
100
AcDb2dVertex
 10
156.023207
 20
186.133341
 30
0.0
  0
VERTEX
  5
3D9
100
AcDbEntity
  8
レイヤー_2
 62
     7
100
AcDbVertex
100
AcDb2dVertex
 10
156.021484
 20
186.198109
 30
0.0
  0
VERTEX
  5
3DA
100
AcDbEntity
  8
レイヤー_2
 62
     7
100
AcDbVertex
100
AcDb2dVertex
 10
156.021484
 20
186.20655
 30
0.0
  0
SEQEND
  5
3DB
100
AcDbEntity
  8
レイヤー_2
 62
     7
  0
POLYLINE
  5
3CE
100
AcDbEntity
  8
レイヤー_2
 62
     7
100
AcDb2dPolyline
 66
     1
 10
0.0
 20
0.0
 30
0.0
  0
VERTEX
  5
3CF
100
AcDbEntity
  8
レイヤー_2
 62
     7
100
AcDbVertex
100
AcDb2dVertex
 10
156.023207
 20
187.116399
 30
0.0
  0
VERTEX
  5
3D0
100
AcDbEntity
  8
レイヤー_2
 62
     7
100
AcDbVertex
100
AcDb2dVertex
 10
156.025618
 20
187.10193
 30
0.0
  0
VERTEX
  5
3D1
100
AcDbEntity
  8
レイヤー_2
 62
     7
100
AcDbVertex
100
AcDb2dVertex
 10
156.025618
 20
187.10193
 30
0.0
  0
SEQEND
  5
3D2
100
AcDbEntity
  8
レイヤー_2
 62
     7
  0
POLYLINE
  5
3C1
100
AcDbEntity
  8
レイヤー_2
 62
     7
100
AcDb2dPolyline
 66
     1
 10
0.0
 20
0.0
 30
0.0
  0
VERTEX
  5
3C2
100
AcDbEntity
  8
レイヤー_2
 62
     7
100
AcDbVertex
100
AcDb2dVertex
 10
156.043877
 20
186.736578
 30
0.0
  0
VERTEX
  5
3C3
100
AcDbEntity
  8
レイヤー_2
 62
     7
100
AcDbVertex
100
AcDb2dVertex
 10
156.043877
 20
186.736578
 30
0.0
  0
VERTEX
  5
3C4
100
AcDbEntity
  8
レイヤー_2
 62
     7
100
AcDbVertex
100
AcDb2dVertex
 10
156.042844
 20
186.721247
 30
0.0
  0
VERTEX
  5
3C5
100
AcDbEntity
  8
レイヤー_2
 62
     7
100
AcDbVertex
100
AcDb2dVertex
 10
156.040432
 20
186.735889
 30
0.0
  0
VERTEX
  5
3C6
100
AcDbEntity
  8
レイヤー_2
 62
     7
100
AcDbVertex
100
AcDb2dVertex
 10
156.036987
 20
186.77878
 30
0.0
  0
VERTEX
  5
3C7
100
AcDbEntity
  8
レイヤー_2
 62
     7
100
AcDbVertex
100
AcDb2dVertex
 10
156.032509
 20
186.842859
 30
0.0
  0
VERTEX
  5
3C8
100
AcDbEntity
  8
レイヤー_2
 62
     7
100
AcDbVertex
100
AcDb2dVertex
 10
156.029408
 20
186.918995
 30
0.0
  0
VERTEX
  5
3C9
100
AcDbEntity
  8
レイヤー_2
 62
     7
100
AcDbVertex
100
AcDb2dVertex
 10
156.025618
 20
186.994443
 30
0.0
  0
VERTEX
  5
3CA
100
AcDbEntity
  8
レイヤー_2
 62
     7
100
AcDbVertex
100
AcDb2dVertex
 10
156.023207
 20
187.058866
 30
0.0
  0
VERTEX
  5
3CB
100
AcDbEntity
  8
レイヤー_2
 62
     7
100
AcDbVertex
100
AcDb2dVertex
 10
156.023207
 20
187.10193
 30
0.0
  0
VERTEX
  5
3CC
100
AcDbEntity
  8
レイヤー_2
 62
     7
100
AcDbVertex
100
AcDb2dVertex
 10
156.023207
 20
187.116399
 30
0.0
  0
SEQEND
  5
3CD
100
AcDbEntity
  8
レイヤー_2
 62
     7
  0
POLYLINE
  5
3BC
100
AcDbEntity
  8
レイヤー_2
 62
     7
100
AcDb2dPolyline
 66
     1
 10
0.0
 20
0.0
 30
0.0
  0
VERTEX
  5
3BD
100
AcDbEntity
  8
レイヤー_2
 62
     7
100
AcDbVertex
100
AcDb2dVertex
 10
156.042844
 20
182.981424
 30
0.0
  0
VERTEX
  5
3BE
100
AcDbEntity
  8
レイヤー_2
 62
     7
100
AcDbVertex
100
AcDb2dVertex
 10
156.043877
 20
182.966265
 30
0.0
  0
VERTEX
  5
3BF
100
AcDbEntity
  8
レイヤー_2
 62
     7
100
AcDbVertex
100
AcDb2dVertex
 10
156.043877
 20
182.966265
 30
0.0
  0
SEQEND
  5
3C0
100
AcDbEntity
  8
レイヤー_2
 62
     7
  0
POLYLINE
  5
3AF
100
AcDbEntity
  8
レイヤー_2
 62
     7
100
AcDb2dPolyline
 66
     1
 10
0.0
 20
0.0
 30
0.0
  0
VERTEX
  5
3B0
100
AcDbEntity
  8
レイヤー_2
 62
     7
100
AcDbVertex
100
AcDb2dVertex
 10
156.025618
 20
182.601257
 30
0.0
  0
VERTEX
  5
3B1
100
AcDbEntity
  8
レイヤー_2
 62
     7
100
AcDbVertex
100
AcDb2dVertex
 10
156.025618
 20
182.601257
 30
0.0
  0
VERTEX
  5
3B2
100
AcDbEntity
  8
レイヤー_2
 62
     7
100
AcDbVertex
100
AcDb2dVertex
 10
156.023207
 20
182.585927
 30
0.0
  0
VERTEX
  5
3B3
100
AcDbEntity
  8
レイヤー_2
 62
     7
100
AcDbVertex
100
AcDb2dVertex
 10
156.023207
 20
182.601257
 30
0.0
  0
VERTEX
  5
3B4
100
AcDbEntity
  8
レイヤー_2
 62
     7
100
AcDbVertex
100
AcDb2dVertex
 10
156.023207
 20
182.644321
 30
0.0
  0
VERTEX
  5
3B5
100
AcDbEntity
  8
レイヤー_2
 62
     7
100
AcDbVertex
100
AcDb2dVertex
 10
156.025618
 20
182.708572
 30
0.0
  0
VERTEX
  5
3B6
100
AcDbEntity
  8
レイヤー_2
 62
     7
100
AcDbVertex
100
AcDb2dVertex
 10
156.029408
 20
182.78402
 30
0.0
  0
VERTEX
  5
3B7
100
AcDbEntity
  8
レイヤー_2
 62
     7
100
AcDbVertex
100
AcDb2dVertex
 10
156.032509
 20
182.859984
 30
0.0
  0
VERTEX
  5
3B8
100
AcDbEntity
  8
レイヤー_2
 62
     7
100
AcDbVertex
100
AcDb2dVertex
 10
156.036987
 20
182.923891
 30
0.0
  0
VERTEX
  5
3B9
100
AcDbEntity
  8
レイヤー_2
 62
     7
100
AcDbVertex
100
AcDb2dVertex
 10
156.040432
 20
182.966265
 30
0.0
  0
VERTEX
  5
3BA
100
AcDbEntity
  8
レイヤー_2
 62
     7
100
AcDbVertex
100
AcDb2dVertex
 10
156.042844
 20
182.981424
 30
0.0
  0
SEQEND
  5
3BB
100
AcDbEntity
  8
レイヤー_2
 62
     7
  0
LINE
  5
3AE
100
AcDbEntity
  8
レイヤー_2
 62
     7
100
AcDbLine
 10
156.031131
 20
185.077247
 30
0.0
 11
156.030097
 21
185.081554
 31
0.0
  0
LINE
  5
3AD
100
AcDbEntity
  8
レイヤー_2
 62
     7
100
AcDbLine
 10
156.03492
 20
186.153323
 30
0.0
 11
156.033542
 21
186.213784
 31
0.0
  0
LINE
  5
3AC
100
AcDbEntity
  8
レイヤー_2
 62
     7
100
AcDbLine
 10
156.032509
 20
184.210289
 30
0.0
 11
156.033542
 21
184.252492
 31
0.0
  0
LINE
  5
3AB
100
AcDbEntity
  8
レイヤー_2
 62
     7
100
AcDbLine
 10
156.033542
 20
185.45104
 30
0.0
 11
156.032509
 21
185.49152
 31
0.0
  0
LINE
  5
3AA
100
AcDbEntity
  8
レイヤー_2
 62
     7
100
AcDbLine
 10
156.043877
 20
186.891262
 30
0.0
 11
156.023207
 21
187.286759
 31
0.0
  0
LINE
  5
3A9
100
AcDbEntity
  8
レイヤー_2
 62
     7
100
AcDbLine
 10
156.023207
 20
182.415739
 30
0.0
 11
156.043877
 21
182.810891
 31
0.0
  0
POLYLINE
  5
3A4
100
AcDbEntity
  8
レイヤー_2
 62
     7
100
AcDb2dPolyline
 66
     1
 10
0.0
 20
0.0
 30
0.0
  0
VERTEX
  5
3A5
100
AcDbEntity
  8
レイヤー_2
 62
     7
100
AcDbVertex
100
AcDb2dVertex
 10
153.441797
 20
181.7703
 30
0.0
  0
VERTEX
  5
3A6
100
AcDbEntity
  8
レイヤー_2
 62
     7
100
AcDbVertex
100
AcDb2dVertex
 10
153.436629
 20
181.772884
 30
0.0
  0
VERTEX
  5
3A7
100
AcDbEntity
  8
レイヤー_2
 62
     7
100
AcDbVertex
100
AcDb2dVertex
 10
153.427327
 20
181.780119
 30
0.0
  0
SEQEND
  5
3A8
100
AcDbEntity
  8
レイヤー_2
 62
     7
  0
SPLINE
  5
3A3
100
AcDbEntity
  8
レイヤー_2
 62
     7
100
AcDbSpline
210
0.0
220
0.0
230
1.0
 70
     8
 71
     3
 72
    11
 73
     7
 74
     0
 42
0.00000001
 43
0.00000001
 40
0.0
 40
0.0
 40
0.0
 40
0.0
 40
1.0
 40
1.0
 40
1.0
 40
2.0
 40
2.0
 40
2.0
 40
2.0
 10
153.22372233072915
 20
181.67400987413194
 30
0.0
 10
153.22372233072915
 20
181.67400987413194
 30
0.0
 10
151.97349717881943
 20
182.74526231553818
 30
0.0
 10
150.83833821614581
 20
182.74526231553818
 30
0.0
 10
149.70490180121527
 20
182.74526231553818
 30
0.0
 10
148.45467664930555
 20
181.67314860026039
 30
0.0
 10
148.45467664930555
 20
181.67314860026039
 30
0.0
  0
SPLINE
  5
3A2
100
AcDbEntity
  8
レイヤー_2
  6
AI9-LType3
 62
     7
100
AcDbSpline
210
0.0
220
0.0
230
1.0
 70
     8
 71
     3
 72
     8
 73
     4
 74
     0
 42
0.00000001
 43
0.00000001
 40
0.0
 40
0.0
 40
0.0
 40
0.0
 40
1.0
 40
1.0
 40
1.0
 40
1.0
 10
150.86038682725692
 20
138.96791720920137
 30
0.0
 10
150.86038682725692
 20
138.96791720920137
 30
0.0
 10
150.94720323350694
 20
136.47160101996528
 30
0.0
 10
152.34832356770832
 20
134.45966525607636
 30
0.0
  0
SPLINE
  5
3A1
100
AcDbEntity
  8
レイヤー_2
 62
     7
100
AcDbSpline
210
0.0
220
0.0
230
1.0
 70
     8
 71
     3
 72
     8
 73
     4
 74
     0
 42
0.00000001
 43
0.00000001
 40
0.0
 40
0.0
 40
0.0
 40
0.0
 40
1.0
 40
1.0
 40
1.0
 40
1.0
 10
152.34832356770832
 20
134.45966525607636
 30
0.0
 10
152.47958170572915
 20
134.27018500434028
 30
0.0
 10
152.62427571614583
 20
134.0848388671875
 30
0.0
 10
152.77964952256943
 20
133.90741644965277
 30
0.0
  0
LINE
  5
3A0
100
AcDbEntity
  8
レイヤー_2
  6
AI9-LType3
 62
     7
100
AcDbLine
 10
154.446731
 20
87.907123
 30
0.0
 11
147.97822
 21
87.907123
 31
0.0
  0
LINE
  5
39E
100
AcDbEntity
  8
レイヤー_2
 62
     7
100
AcDbLine
 10
147.97822
 20
87.907123
 30
0.0
 11
147.274387
 21
87.907123
 31
0.0
  0
LINE
  5
39D
100
AcDbEntity
  8
レイヤー_2
  6
AI9-LType1
 62
     7
100
AcDbLine
 10
150.838338
 20
82.396349
 30
0.0
 11
150.838338
 21
190.415767
 31
0.0
  0
LINE
  5
39C
100
AcDbEntity
  8
レイヤー_2
 62
     7
100
AcDbLine
 10
150.838338
 20
187.615766
 30
0.0
 11
150.838338
 21
188.320977
 31
0.0
  0
LINE
  5
39B
100
AcDbEntity
  8
レイヤー_2
 62
     7
100
AcDbLine
 10
153.456955
 20
148.541838
 30
0.0
 11
153.456955
 21
116.314003
 31
0.0
  0
LINE
  5
39A
100
AcDbEntity
  8
レイヤー_2
 62
     7
100
AcDbLine
 10
148.233846
 20
148.649325
 30
0.0
 11
148.233846
 21
116.314003
 31
0.0
  0
LINE
  5
399
100
AcDbEntity
  8
レイヤー_2
 62
     7
100
AcDbLine
 10
154.53527
 20
117.292065
 30
0.0
 11
120.085349
 21
117.292065
 31
0.0
  0
LINE
  5
398
100
AcDbEntity
  8
レイヤー_2
 62
     7
100
AcDbLine
 10
152.72694
 20
118.154028
 30
0.0
 11
154.259318
 21
116.429758
 31
0.0
  0
LINE
  5
397
100
AcDbEntity
  8
レイヤー_2
 62
     7
100
AcDbLine
 10
147.50762
 20
118.154028
 30
0.0
 11
149.041721
 21
116.429758
 31
0.0
  0
LINE
  5
396
100
AcDbEntity
  8
レイヤー_2
 62
     7
100
AcDbLine
 10
123.463609
 20
153.251283
 30
0.0
 11
145.475014
 21
153.251283
 31
0.0
  0
LINE
  5
395
100
AcDbEntity
  8
レイヤー_2
 62
     7
100
AcDbLine
 10
125.30708
 20
153.998869
 30
0.0
 11
123.581087
 21
152.465457
 31
0.0
  0
LINE
  5
394
100
AcDbEntity
  8
レイヤー_2
 62
     7
100
AcDbLine
 10
123.50185
 20
159.270898
 30
0.0
 11
142.995923
 21
159.270898
 31
0.0
  0
LINE
  5
393
100
AcDbEntity
  8
レイヤー_2
 62
     7
100
AcDbLine
 10
125.289855
 20
160.108573
 30
0.0
 11
123.564895
 21
158.576195
 31
0.0
  0
LINE
  5
392
100
AcDbEntity
  8
レイヤー_2
 62
     7
100
AcDbLine
 10
155.221189
 20
161.502804
 30
0.0
 11
155.221189
 21
168.206443
 31
0.0
  0
LINE
  5
391
100
AcDbEntity
  8
レイヤー_2
 62
     7
100
AcDbLine
 10
156.159633
 20
167.524658
 30
0.0
 11
133.669016
 21
167.524658
 31
0.0
  0
LINE
  5
390
100
AcDbEntity
  8
レイヤー_2
 62
     7
100
AcDbLine
 10
123.474634
 20
187.936677
 30
0.0
 11
146.48167
 21
187.936677
 31
0.0
  0
LINE
  5
38F
100
AcDbEntity
  8
レイヤー_2
 62
     7
100
AcDbLine
 10
124.368636
 20
188.908194
 30
0.0
 11
124.368636
 21
130.805452
 31
0.0
  0
LINE
  5
38E
100
AcDbEntity
  8
レイヤー_2
 62
     7
100
AcDbLine
 10
154.472914
 20
168.353204
 30
0.0
 11
156.005981
 21
166.628933
 31
0.0
  0
LINE
  5
38D
100
AcDbEntity
  8
レイヤー_2
 62
     7
100
AcDbLine
 10
145.669661
 20
168.330811
 30
0.0
 11
147.202729
 21
166.606023
 31
0.0
  0
LINE
  5
38C
100
AcDbEntity
  8
レイヤー_2
 62
     7
100
AcDbLine
 10
125.24748
 20
188.759193
 30
0.0
 11
123.522521
 21
187.226126
 31
0.0
  0
LINE
  5
38B
100
AcDbEntity
  8
レイヤー_2
 62
     7
100
AcDbLine
 10
146.450665
 20
161.434763
 30
0.0
 11
146.450665
 21
168.198002
 31
0.0
  0
LINE
  5
38A
100
AcDbEntity
  8
レイヤー_2
 62
     7
100
AcDbLine
 10
145.266241
 20
82.355352
 30
0.0
 11
153.547561
 21
90.63495
 31
0.0
  0
LINE
  5
389
100
AcDbEntity
  8
レイヤー_2
 62
     7
100
AcDbLine
 10
145.266241
 20
82.355352
 30
0.0
 11
133.388585
 21
82.355352
 31
0.0
  0
LINE
  5
388
100
AcDbEntity
  8
レイヤー_2
 62
     7
100
AcDbLine
 10
153.790096
 20
89.78849
 30
0.0
 11
151.482571
 21
89.78849
 31
0.0
  0
LINE
  5
387
100
AcDbEntity
  8
レイヤー_2
 62
     7
100
AcDbLine
 10
150.040454
 20
86.069854
 30
0.0
 11
147.734307
 21
86.069854
 31
0.0
  0
MTEXT
  5
386
100
AcDbEntity
  8
レイヤー_2
  6
AI9-LType2
 62
     7
100
AcDbMText
 10
133.560151
 20
172.363697
 30
0.0
 40
3.674768
 41
0.0
 71
     1
 72
     2
  1
\fGothicBBB Medium|b0|i0|c128;\H3.6748;\C7;\U+03C6\U+0035\U+0030
  7
STD
210
0.0
220
0.0
230
1.0
 73
     1
 44
1.0
  0
MTEXT
  5
385
100
AcDbEntity
  8
レイヤー_2
  6
AI9-LType2
 62
     7
100
AcDbMText
 10
119.859466
 20
169.186572
 30
0.0
 40
3.674768
 41
0.0
 71
     1
 72
     2
  1
\fGothicBBB Medium|b0|i0|c128;\H3.6748;\C7;\U+0031\U+0036\U+0032
  7
STD
210
0.0
220
0.0
230
1.0
 11
0.0
 21
1.0
 31
0.0
 73
     1
 44
1.0
  0
MTEXT
  5
384
100
AcDbEntity
  8
レイヤー_2
  6
AI9-LType2
 62
     7
100
AcDbMText
 10
119.55423
 20
132.53179
 30
0.0
 40
3.674768
 41
0.0
 71
     1
 72
     2
  1
\fGothicBBB Medium|b0|i0|c128;\H3.6748;\C7;\U+006D\U+0061\U+0078\U+002E\U+0033\U+0035
  7
STD
210
0.0
220
0.0
230
1.0
 11
0.0
 21
1.0
 31
0.0
 73
     1
 44
1.0
  0
MTEXT
  5
383
100
AcDbEntity
  8
レイヤー_2
  6
AI9-LType2
 62
     7
100
AcDbMText
 10
120.447428
 20
121.486699
 30
0.0
 40
3.674768
 41
0.0
 71
     1
 72
     2
  1
\fGothicBBB Medium|b0|i0|c128;\H3.6748;\C7;\U+004D\U+0033\U+0030\U+00D7\U+0031\U+002E\U+0035
  7
STD
210
0.0
220
0.0
230
1.0
 73
     1
 44
1.0
  0
MTEXT
  5
382
100
AcDbEntity
  8
レイヤー_2
  6
AI9-LType2
 62
     7
100
AcDbMText
 10
175.525892
 20
86.533793
 30
0.0
 40
3.674768
 41
0.0
 71
     1
 72
     2
  1
\fGothicBBB Medium|b0|i0|c128;\H3.6748;\C7;\U+03C6\U+0033\U+0035
  7
STD
210
0.0
220
0.0
230
1.0
 73
     1
 44
1.0
  0
MTEXT
  5
381
100
AcDbEntity
  8
レイヤー_2
  6
AI9-LType2
 62
     7
100
AcDbMText
 10
132.767434
 20
86.582369
 30
0.0
 40
3.674768
 41
0.0
 71
     1
 72
     2
  1
\fGothicBBB Medium|b0|i0|c128;\H3.6748;\C7;\U+03C6\U+0033\U+0032
  7
STD
210
0.0
220
0.0
230
1.0
 73
     1
 44
1.0
  0
MTEXT
  5
380
100
AcDbEntity
  8
レイヤー_2
  6
AI9-LType2
 62
     7
100
AcDbMText
 10
152.092697
 20
101.034545
 30
0.0
 40
3.674768
 41
0.0
 71
     1
 72
     2
  1
\fGothicBBB Medium|b0|i0|c128;\H3.6748;\C7;\U+0047\U+0031\U+002F\U+0032
  7
STD
210
0.0
220
0.0
230
1.0
 73
     1
 44
1.0
  0
MTEXT
  5
37F
100
AcDbEntity
  8
レイヤー_2
  6
AI9-LType2
 62
     7
100
AcDbMText
 10
178.788398
 20
101.387667
 30
0.0
 40
3.674768
 41
0.0
 71
     1
 72
     2
  1
\fGothicBBB Medium|b0|i0|c128;\H3.6748;\C7;\U+0047\U+0031\U+002F\U+0032
  7
STD
210
0.0
220
0.0
230
1.0
 73
     1
 44
1.0
  0
LINE
  5
37E
100
AcDbEntity
  8
レイヤー_2
  6
AI9-LType2
 62
     7
100
AcDbLine
 10
172.346758
 20
116.271284
 30
0.0
 11
172.346758
 21
158.05478
 31
0.0
  0
LINE
  5
37D
100
AcDbEntity
  8
レイヤー_2
  6
AI9-LType2
 62
     7
100
AcDbLine
 10
172.449422
 20
116.337774
 30
0.0
 11
184.029422
 21
126.008846
 31
0.0
  0
SPLINE
  5
37C
100
AcDbEntity
  8
レイヤー_2
 62
     7
100
AcDbSpline
210
0.0
220
0.0
230
1.0
 70
     8
 71
     3
 72
    95
 73
    91
 74
     0
 42
0.00000001
 43
0.00000001
 40
0.0
 40
0.0
 40
0.0
 40
0.0
 40
1.0
 40
1.0
 40
1.0
 40
2.0
 40
2.0
 40
2.0
 40
3.0
 40
3.0
 40
3.0
 40
4.0
 40
4.0
 40
4.0
 40
5.0
 40
5.0
 40
5.0
 40
6.0
 40
6.0
 40
6.0
 40
7.0
 40
7.0
 40
7.0
 40
8.0
 40
8.0
 40
8.0
 40
9.0
 40
9.0
 40
9.0
 40
10.0
 40
10.0
 40
10.0
 40
11.0
 40
11.0
 40
11.0
 40
12.0
 40
12.0
 40
12.0
 40
13.0
 40
13.0
 40
13.0
 40
14.0
 40
14.0
 40
14.0
 40
15.0
 40
15.0
 40
15.0
 40
16.0
 40
16.0
 40
16.0
 40
17.0
 40
17.0
 40
17.0
 40
18.0
 40
18.0
 40
18.0
 40
19.0
 40
19.0
 40
19.0
 40
20.0
 40
20.0
 40
20.0
 40
21.0
 40
21.0
 40
21.0
 40
22.0
 40
22.0
 40
22.0
 40
23.0
 40
23.0
 40
23.0
 40
24.0
 40
24.0
 40
24.0
 40
25.0
 40
25.0
 40
25.0
 40
26.0
 40
26.0
 40
26.0
 40
27.0
 40
27.0
 40
27.0
 40
28.0
 40
28.0
 40
28.0
 40
29.0
 40
29.0
 40
29.0
 40
30.0
 40
30.0
 40
30.0
 40
30.0
 10
183.16539171006943
 20
119.6519558376736
 30
0.0
 10
183.17538248697915
 20
119.64851074218748
 30
0.0
 10
183.18571777343749
 20
119.64609917534722
 30
0.0
 10
183.1960530598958
 20
119.6426540798611
 30
0.0
 10
183.20638834635415
 20
119.64093153211805
 30
0.0
 10
183.21637912326386
 20
119.63851996527777
 30
0.0
 10
183.22636990017361
 20
119.63610839843749
 30
0.0
 10
183.23704969618055
 20
119.63335232204859
 30
0.0
 10
183.24704047309027
 20
119.63162977430555
 30
0.0
 10
183.25737575954861
 20
119.62990722656249
 30
0.0
 10
183.26736653645833
 20
119.6271511501736
 30
0.0
 10
183.27666829427082
 20
119.6271511501736
 30
0.0
 10
183.28803710937498
 20
119.62542860243055
 30
0.0
 10
183.2980278862847
 20
119.6240505642361
 30
0.0
 10
183.30836317274304
 20
119.6240505642361
 30
0.0
 10
183.31869845920139
 20
119.6240505642361
 30
0.0
 10
183.34281412760416
 20
119.62542860243055
 30
0.0
 10
183.36555175781248
 20
119.6271511501736
 30
0.0
 10
183.38863389756943
 20
119.63335232204859
 30
0.0
 10
183.41240505642361
 20
119.63920898437499
 30
0.0
 10
183.43445366753471
 20
119.64609917534722
 30
0.0
 10
183.45788031684026
 20
119.65298936631943
 30
0.0
 10
183.48061794704859
 20
119.65953504774305
 30
0.0
 10
183.50438910590276
 20
119.66573621961804
 30
0.0
 10
183.52747124565971
 20
119.67193739149305
 30
0.0
 10
183.54883083767359
 20
119.67813856336805
 30
0.0
 10
183.57156846788192
 20
119.68192816840276
 30
0.0
 10
183.59499511718749
 20
119.68502875434027
 30
0.0
 10
183.61497667100693
 20
119.68778483072916
 30
0.0
 10
183.63736979166666
 20
119.68709581163193
 30
0.0
 10
183.65769585503472
 20
119.68261718749999
 30
0.0
 10
183.69042426215276
 20
119.67503797743055
 30
0.0
 10
183.72074110243054
 20
119.66125759548611
 30
0.0
 10
183.74657931857638
 20
119.6426540798611
 30
0.0
 10
183.77551812065971
 20
119.62163899739582
 30
0.0
 10
183.80445692274304
 20
119.59821234809027
 30
0.0
 10
183.82926161024304
 20
119.57271864149304
 30
0.0
 10
183.8557888454861
 20
119.54550238715277
 30
0.0
 10
183.88369411892359
 20
119.51966417100694
 30
0.0
 10
183.9091878255208
 20
119.49451497395832
 30
0.0
 10
183.93571506076387
 20
119.46867675781249
 30
0.0
 10
183.96293131510416
 20
119.44662814670137
 30
0.0
 10
183.99187011718749
 20
119.42802463107638
 30
0.0
 10
184.01736382378471
 20
119.40976562499999
 30
0.0
 10
184.04630262586804
 20
119.39908582899305
 30
0.0
 10
184.07799750434026
 20
119.3946072048611
 30
0.0
 10
184.10865885416666
 20
119.3915066189236
 30
0.0
 10
184.13932020399304
 20
119.39529622395833
 30
0.0
 10
184.16756998697915
 20
119.40735405815971
 30
0.0
 10
184.19788682725692
 20
119.42113444010415
 30
0.0
 10
184.22889268663192
 20
119.4349148220486
 30
0.0
 10
184.25955403645833
 20
119.45007324218749
 30
0.0
 10
184.29159342447915
 20
119.46557617187499
 30
0.0
 10
184.32432183159722
 20
119.48245713975693
 30
0.0
 10
184.35498318142359
 20
119.50106065538193
 30
0.0
 10
184.38392198350692
 20
119.51656358506943
 30
0.0
 10
184.41561686197915
 20
119.52999945746527
 30
0.0
 10
184.44696723090277
 20
119.54102376302082
 30
0.0
 10
184.47521701388888
 20
119.55067003038194
 30
0.0
 10
184.50484483506943
 20
119.55377061631944
 30
0.0
 10
184.53378363715277
 20
119.55067003038194
 30
0.0
 10
184.55617675781249
 20
119.54722493489582
 30
0.0
 10
184.57753634982637
 20
119.54033474392359
 30
0.0
 10
184.59613986545136
 20
119.52931043836804
 30
0.0
 10
184.61749945746527
 20
119.51828613281249
 30
0.0
 10
184.63610297309026
 20
119.50381673177083
 30
0.0
 10
184.65505099826387
 20
119.48900282118055
 30
0.0
 10
184.67468804253471
 20
119.47315538194444
 30
0.0
 10
184.69398057725692
 20
119.45696343315971
 30
0.0
 10
184.71292860243054
 20
119.43973795572916
 30
0.0
 10
184.73359917534719
 20
119.42354600694443
 30
0.0
 10
184.75323621961803
 20
119.40838758680555
 30
0.0
 10
184.77321777343749
 20
119.39391818576388
 30
0.0
 10
184.7928548177083
 20
119.37841525607638
 30
0.0
 10
184.81524793836803
 20
119.36635742187499
 30
0.0
 10
184.83729654947916
 20
119.35705566406249
 30
0.0
 10
184.84763183593748
 20
119.35292154947916
 30
0.0
 10
184.85624457465275
 20
119.34947645399305
 30
0.0
 10
184.86692437065972
 20
119.34672037760416
 30
0.0
 10
184.87829318576388
 20
119.34430881076388
 30
0.0
 10
184.88759494357637
 20
119.3418972439236
 30
0.0
 10
184.89724121093749
 20
119.33914116753471
 30
0.0
 10
184.90723198784721
 20
119.33741861979166
 30
0.0
 10
184.91860080295137
 20
119.33604058159722
 30
0.0
 10
184.92790256076387
 20
119.33500705295138
 30
0.0
 10
184.93961588541666
 20
119.33431803385416
 30
0.0
 10
184.94891764322915
 20
119.33225097656249
 30
0.0
 10
184.95994194878472
 20
119.33225097656249
 30
0.0
 10
184.97027723524303
 20
119.33052842881943
 30
0.0
 10
184.9813015407986
 20
119.33052842881943
 30
0.0
 10
184.99094780815972
 20
119.32983940972221
 30
0.0
  0
LINE
  5
37B
100
AcDbEntity
  8
レイヤー_2
 62
     7
100
AcDbLine
 10
185.711662
 20
114.024737
 30
0.0
 11
185.616577
 21
114.024737
 31
0.0
  0
LINE
  5
37A
100
AcDbEntity
  8
レイヤー_2
 62
     7
100
AcDbLine
 10
185.616577
 20
114.903236
 30
0.0
 11
185.616577
 21
114.024737
 31
0.0
  0
LINE
  5
379
100
AcDbEntity
  8
レイヤー_2
 62
     7
100
AcDbLine
 10
185.616577
 20
114.024737
 30
0.0
 11
185.711662
 21
113.859372
 31
0.0
  0
LINE
  5
378
100
AcDbEntity
  8
レイヤー_2
 62
     7
100
AcDbLine
 10
182.539762
 20
114.024737
 30
0.0
 11
182.444333
 21
114.024737
 31
0.0
  0
LINE
  5
377
100
AcDbEntity
  8
レイヤー_2
 62
     7
100
AcDbLine
 10
182.539762
 20
114.024737
 30
0.0
 11
182.539762
 21
114.903236
 31
0.0
  0
LINE
  5
376
100
AcDbEntity
  8
レイヤー_2
 62
     7
100
AcDbLine
 10
182.444333
 20
113.859372
 30
0.0
 11
182.539762
 21
114.024737
 31
0.0
  0
LINE
  5
375
100
AcDbEntity
  8
レイヤー_2
  6
AI9-LType2
 62
     7
100
AcDbLine
 10
184.077998
 20
125.911694
 30
0.0
 11
184.077998
 21
108.677949
 31
0.0
  0
LINE
  5
374
100
AcDbEntity
  8
レイヤー_2
 62
     7
100
AcDbLine
 10
183.17745
 20
114.992809
 30
0.0
 11
182.781953
 21
114.992809
 31
0.0
  0
LINE
  5
373
100
AcDbEntity
  8
レイヤー_2
 62
     7
100
AcDbLine
 10
183.17745
 20
117.010257
 30
0.0
 11
183.17745
 21
114.992809
 31
0.0
  0
LINE
  5
372
100
AcDbEntity
  8
レイヤー_2
 62
     7
100
AcDbLine
 10
182.781953
 20
117.010257
 30
0.0
 11
183.17745
 21
117.010257
 31
0.0
  0
LINE
  5
371
100
AcDbEntity
  8
レイヤー_2
 62
     7
100
AcDbLine
 10
182.781953
 20
117.010257
 30
0.0
 11
182.781953
 21
114.992809
 31
0.0
  0
LINE
  5
370
100
AcDbEntity
  8
レイヤー_2
 62
     7
100
AcDbLine
 10
182.63657
 20
118.342131
 30
0.0
 11
184.077998
 21
118.342131
 31
0.0
  0
LINE
  5
36F
100
AcDbEntity
  8
レイヤー_2
 62
     7
100
AcDbLine
 10
182.06055
 20
114.882221
 30
0.0
 11
184.077998
 21
114.882221
 31
0.0
  0
LINE
  5
36E
100
AcDbEntity
  8
レイヤー_2
 62
     7
100
AcDbLine
 10
181.868313
 20
114.992809
 30
0.0
 11
182.06055
 21
114.882221
 31
0.0
  0
LINE
  5
36D
100
AcDbEntity
  8
レイヤー_2
 62
     7
100
AcDbLine
 10
182.63657
 20
118.342131
 30
0.0
 11
181.973044
 21
117.192502
 31
0.0
  0
LINE
  5
36C
100
AcDbEntity
  8
レイヤー_2
 62
     7
100
AcDbLine
 10
181.868313
 20
117.010257
 30
0.0
 11
181.868313
 21
114.992809
 31
0.0
  0
LINE
  5
36B
100
AcDbEntity
  8
レイヤー_2
 62
     7
100
AcDbLine
 10
185.049514
 20
118.342131
 30
0.0
 11
184.077998
 21
118.342131
 31
0.0
  0
LINE
  5
36A
100
AcDbEntity
  8
レイヤー_2
 62
     7
100
AcDbLine
 10
185.760582
 20
114.882221
 30
0.0
 11
184.077998
 21
114.882221
 31
0.0
  0
LINE
  5
369
100
AcDbEntity
  8
レイヤー_2
 62
     7
100
AcDbLine
 10
185.375765
 20
114.992809
 30
0.0
 11
184.979579
 21
114.992809
 31
0.0
  0
LINE
  5
368
100
AcDbEntity
  8
レイヤー_2
 62
     7
100
AcDbLine
 10
184.979579
 20
114.992809
 30
0.0
 11
184.979579
 21
117.010257
 31
0.0
  0
LINE
  5
367
100
AcDbEntity
  8
レイヤー_2
 62
     7
100
AcDbLine
 10
184.979579
 20
117.010257
 30
0.0
 11
185.375765
 21
117.010257
 31
0.0
  0
LINE
  5
366
100
AcDbEntity
  8
レイヤー_2
 62
     7
100
AcDbLine
 10
185.375765
 20
114.992809
 30
0.0
 11
185.375765
 21
117.010257
 31
0.0
  0
LINE
  5
365
100
AcDbEntity
  8
レイヤー_2
 62
     7
100
AcDbLine
 10
184.077998
 20
118.342131
 30
0.0
 11
185.519081
 21
118.342131
 31
0.0
  0
LINE
  5
364
100
AcDbEntity
  8
レイヤー_2
 62
     7
100
AcDbLine
 10
184.077998
 20
114.882221
 30
0.0
 11
186.096823
 21
114.882221
 31
0.0
  0
LINE
  5
363
100
AcDbEntity
  8
レイヤー_2
 62
     7
100
AcDbLine
 10
186.096823
 20
114.882221
 30
0.0
 11
186.288715
 21
114.992809
 31
0.0
  0
LINE
  5
362
100
AcDbEntity
  8
レイヤー_2
 62
     7
100
AcDbLine
 10
186.288715
 20
117.010257
 30
0.0
 11
185.519081
 21
118.342131
 31
0.0
  0
LINE
  5
361
100
AcDbEntity
  8
レイヤー_2
 62
     7
100
AcDbLine
 10
186.288715
 20
114.992809
 30
0.0
 11
186.288715
 21
117.010257
 31
0.0
  0
LINE
  5
360
100
AcDbEntity
  8
レイヤー_2
 62
     7
100
AcDbLine
 10
181.973044
 20
117.192502
 30
0.0
 11
181.868313
 21
117.010257
 31
0.0
  0
SPLINE
  5
35F
100
AcDbEntity
  8
レイヤー_2
 62
     7
100
AcDbSpline
210
0.0
220
0.0
230
1.0
 70
     8
 71
     3
 72
     8
 73
     4
 74
     0
 42
0.00000001
 43
0.00000001
 40
0.0
 40
0.0
 40
0.0
 40
0.0
 40
1.0
 40
1.0
 40
1.0
 40
1.0
 10
183.17744954427081
 20
114.99280870225694
 30
0.0
 10
183.47234971788194
 20
114.91942816840277
 30
0.0
 10
183.77345106336804
 20
114.88222113715277
 30
0.0
 10
184.07799750434026
 20
114.88222113715277
 30
0.0
  0
SPLINE
  5
35E
100
AcDbEntity
  8
レイヤー_2
 62
     7
100
AcDbSpline
210
0.0
220
0.0
230
1.0
 70
     8
 71
     3
 72
     8
 73
     4
 74
     0
 42
0.00000001
 43
0.00000001
 40
0.0
 40
0.0
 40
0.0
 40
0.0
 40
1.0
 40
1.0
 40
1.0
 40
1.0
 10
181.86831325954859
 20
114.99280870225694
 30
0.0
 10
182.15425618489581
 20
114.84466959635415
 30
0.0
 10
182.49394259982637
 20
114.84466959635415
 30
0.0
 10
182.78195258246527
 20
114.99280870225694
 30
0.0
  0
SPLINE
  5
35D
100
AcDbEntity
  8
レイヤー_2
 62
     7
100
AcDbSpline
210
0.0
220
0.0
230
1.0
 70
     8
 71
     3
 72
     8
 73
     4
 74
     0
 42
0.00000001
 43
0.00000001
 40
0.0
 40
0.0
 40
0.0
 40
0.0
 40
1.0
 40
1.0
 40
1.0
 40
1.0
 10
184.07799750434026
 20
117.34339735243054
 30
0.0
 10
183.7472683376736
 20
117.34339735243054
 30
0.0
 10
183.4285970052083
 20
117.22591959635416
 30
0.0
 10
183.17744954427081
 20
117.01025661892361
 30
0.0
  0
SPLINE
  5
35C
100
AcDbEntity
  8
レイヤー_2
 62
     7
100
AcDbSpline
210
0.0
220
0.0
230
1.0
 70
     8
 71
     3
 72
    11
 73
     7
 74
     0
 42
0.00000001
 43
0.00000001
 40
0.0
 40
0.0
 40
0.0
 40
0.0
 40
1.0
 40
1.0
 40
1.0
 40
2.0
 40
2.0
 40
2.0
 40
2.0
 10
182.78195258246527
 20
117.01025661892361
 30
0.0
 10
182.70340440538192
 20
117.26312662760415
 30
0.0
 10
182.43399793836804
 20
117.40368652343749
 30
0.0
 10
182.1818169487847
 20
117.32444932725693
 30
0.0
 10
182.10154622395831
 20
117.29895562065971
 30
0.0
 10
182.03023274739581
 20
117.25382486979166
 30
0.0
 10
181.97304416232637
 20
117.19250217013888
 30
0.0
  0
SPLINE
  5
35B
100
AcDbEntity
  8
レイヤー_2
 62
     7
100
AcDbSpline
210
0.0
220
0.0
230
1.0
 70
     8
 71
     3
 72
     8
 73
     4
 74
     0
 42
0.00000001
 43
0.00000001
 40
0.0
 40
0.0
 40
0.0
 40
0.0
 40
1.0
 40
1.0
 40
1.0
 40
1.0
 10
184.07799750434026
 20
114.88222113715277
 30
0.0
 10
184.38219943576388
 20
114.88222113715277
 30
0.0
 10
184.68571234809025
 20
114.91942816840277
 30
0.0
 10
184.97957899305553
 20
114.99280870225694
 30
0.0
  0
SPLINE
  5
35A
100
AcDbEntity
  8
レイヤー_2
 62
     7
100
AcDbSpline
210
0.0
220
0.0
230
1.0
 70
     8
 71
     3
 72
     8
 73
     4
 74
     0
 42
0.00000001
 43
0.00000001
 40
0.0
 40
0.0
 40
0.0
 40
0.0
 40
1.0
 40
1.0
 40
1.0
 40
1.0
 10
185.37576497395833
 20
114.99280870225694
 30
0.0
 10
185.66239691840275
 20
114.84466959635415
 30
0.0
 10
186.00311686197915
 20
114.84466959635415
 30
0.0
 10
186.28871527777775
 20
114.99280870225694
 30
0.0
  0
SPLINE
  5
359
100
AcDbEntity
  8
レイヤー_2
 62
     7
100
AcDbSpline
210
0.0
220
0.0
230
1.0
 70
     8
 71
     3
 72
     8
 73
     4
 74
     0
 42
0.00000001
 43
0.00000001
 40
0.0
 40
0.0
 40
0.0
 40
0.0
 40
1.0
 40
1.0
 40
1.0
 40
1.0
 10
184.97957899305553
 20
117.01025661892361
 30
0.0
 10
184.72808702256944
 20
117.22591959635416
 30
0.0
 10
184.40976019965277
 20
117.34339735243054
 30
0.0
 10
184.07799750434026
 20
117.34339735243054
 30
0.0
  0
SPLINE
  5
358
100
AcDbEntity
  8
レイヤー_2
 62
     7
100
AcDbSpline
210
0.0
220
0.0
230
1.0
 70
     8
 71
     3
 72
    11
 73
     7
 74
     0
 42
0.00000001
 43
0.00000001
 40
0.0
 40
0.0
 40
0.0
 40
0.0
 40
1.0
 40
1.0
 40
1.0
 40
2.0
 40
2.0
 40
2.0
 40
2.0
 10
186.28871527777775
 20
117.01025661892361
 30
0.0
 10
186.21016710069443
 20
117.26312662760415
 30
0.0
 10
185.94179416232637
 20
117.40368652343749
 30
0.0
 10
185.68961317274304
 20
117.32444932725693
 30
0.0
 10
185.53975151909719
 20
117.27759602864582
 30
0.0
 10
185.42227376302083
 20
117.16115180121527
 30
0.0
 10
185.37576497395833
 20
117.01025661892361
 30
0.0
  0
LINE
  5
357
100
AcDbEntity
  8
レイヤー_2
 62
     7
100
AcDbLine
 10
181.796655
 20
109.427601
 30
0.0
 11
181.57927
 21
109.543701
 31
0.0
  0
LINE
  5
356
100
AcDbEntity
  8
レイヤー_2
 62
     7
100
AcDbLine
 10
186.577759
 20
109.543701
 30
0.0
 11
186.361062
 21
109.427601
 31
0.0
  0
LINE
  5
355
100
AcDbEntity
  8
レイヤー_2
 62
     7
100
AcDbLine
 10
181.57927
 20
113.38705
 30
0.0
 11
181.796655
 21
113.503149
 31
0.0
  0
LINE
  5
354
100
AcDbEntity
  8
レイヤー_2
 62
     7
100
AcDbLine
 10
186.361062
 20
113.503149
 30
0.0
 11
186.577759
 21
113.38705
 31
0.0
  0
LINE
  5
353
100
AcDbEntity
  8
レイヤー_2
 62
     7
100
AcDbLine
 10
181.868313
 20
109.253969
 30
0.0
 11
186.288715
 21
109.253969
 31
0.0
  0
LINE
  5
352
100
AcDbEntity
  8
レイヤー_2
 62
     7
100
AcDbLine
 10
182.560088
 20
109.543701
 30
0.0
 11
183.116471
 21
109.543701
 31
0.0
  0
LINE
  5
351
100
AcDbEntity
  8
レイヤー_2
 62
     7
100
AcDbLine
 10
185.039868
 20
109.543701
 30
0.0
 11
185.595218
 21
109.543701
 31
0.0
  0
LINE
  5
350
100
AcDbEntity
  8
レイヤー_2
 62
     7
100
AcDbLine
 10
186.577759
 20
109.543701
 30
0.0
 11
186.288715
 21
109.253969
 31
0.0
  0
LINE
  5
34F
100
AcDbEntity
  8
レイヤー_2
 62
     7
100
AcDbLine
 10
181.57927
 20
109.543701
 30
0.0
 11
181.868313
 21
109.253969
 31
0.0
  0
LINE
  5
34E
100
AcDbEntity
  8
レイヤー_2
 62
     7
100
AcDbLine
 10
186.288715
 20
113.676093
 30
0.0
 11
181.868313
 21
113.676093
 31
0.0
  0
LINE
  5
34D
100
AcDbEntity
  8
レイヤー_2
 62
     7
100
AcDbLine
 10
186.288715
 20
113.676093
 30
0.0
 11
186.577759
 21
113.38705
 31
0.0
  0
LINE
  5
34C
100
AcDbEntity
  8
レイヤー_2
 62
     7
100
AcDbLine
 10
185.595218
 20
113.38705
 30
0.0
 11
185.039868
 21
113.38705
 31
0.0
  0
LINE
  5
34B
100
AcDbEntity
  8
レイヤー_2
 62
     7
100
AcDbLine
 10
183.116471
 20
113.38705
 30
0.0
 11
182.560088
 21
113.38705
 31
0.0
  0
LINE
  5
34A
100
AcDbEntity
  8
レイヤー_2
 62
     7
100
AcDbLine
 10
181.868313
 20
113.676093
 30
0.0
 11
181.57927
 21
113.38705
 31
0.0
  0
LINE
  5
349
100
AcDbEntity
  8
レイヤー_2
 62
     7
100
AcDbLine
 10
181.57927
 20
109.543701
 30
0.0
 11
181.57927
 21
113.38705
 31
0.0
  0
LINE
  5
348
100
AcDbEntity
  8
レイヤー_2
 62
     7
100
AcDbLine
 10
182.560088
 20
109.543701
 30
0.0
 11
182.560088
 21
113.38705
 31
0.0
  0
LINE
  5
347
100
AcDbEntity
  8
レイヤー_2
 62
     7
100
AcDbLine
 10
183.116471
 20
109.543701
 30
0.0
 11
183.116471
 21
113.38705
 31
0.0
  0
LINE
  5
346
100
AcDbEntity
  8
レイヤー_2
 62
     7
100
AcDbLine
 10
185.039868
 20
109.543701
 30
0.0
 11
185.039868
 21
113.38705
 31
0.0
  0
LINE
  5
345
100
AcDbEntity
  8
レイヤー_2
 62
     7
100
AcDbLine
 10
185.595218
 20
109.543701
 30
0.0
 11
185.595218
 21
113.38705
 31
0.0
  0
LINE
  5
344
100
AcDbEntity
  8
レイヤー_2
 62
     7
100
AcDbLine
 10
186.577759
 20
109.543701
 30
0.0
 11
186.577759
 21
113.38705
 31
0.0
  0
SPLINE
  5
343
100
AcDbEntity
  8
レイヤー_2
 62
     7
100
AcDbSpline
210
0.0
220
0.0
230
1.0
 70
     8
 71
     3
 72
     8
 73
     4
 74
     0
 42
0.00000001
 43
0.00000001
 40
0.0
 40
0.0
 40
0.0
 40
0.0
 40
1.0
 40
1.0
 40
1.0
 40
1.0
 10
181.79665527343749
 20
109.42760145399305
 30
0.0
 10
182.04814724392361
 20
109.29220920138889
 30
0.0
 10
182.35992838541665
 20
109.33940700954859
 30
0.0
 10
182.56008843315971
 20
109.54370117187499
 30
0.0
  0
SPLINE
  5
342
100
AcDbEntity
  8
レイヤー_2
 62
     7
100
AcDbSpline
210
0.0
220
0.0
230
1.0
 70
     8
 71
     3
 72
     8
 73
     4
 74
     0
 42
0.00000001
 43
0.00000001
 40
0.0
 40
0.0
 40
0.0
 40
0.0
 40
1.0
 40
1.0
 40
1.0
 40
1.0
 10
185.59521755642359
 20
109.54370117187499
 30
0.0
 10
185.79710015190972
 20
109.33940700954859
 30
0.0
 10
186.10888129340276
 20
109.29220920138889
 30
0.0
 10
186.3610622829861
 20
109.42760145399305
 30
0.0
  0
SPLINE
  5
341
100
AcDbEntity
  8
レイヤー_2
 62
     7
100
AcDbSpline
210
0.0
220
0.0
230
1.0
 70
     8
 71
     3
 72
     8
 73
     4
 74
     0
 42
0.00000001
 43
0.00000001
 40
0.0
 40
0.0
 40
0.0
 40
0.0
 40
1.0
 40
1.0
 40
1.0
 40
1.0
 10
183.11647135416666
 20
109.54370117187499
 30
0.0
 10
183.73279893663192
 20
109.28635253906249
 30
0.0
 10
184.42491861979164
 20
109.28635253906249
 30
0.0
 10
185.03986816406248
 20
109.54370117187499
 30
0.0
  0
SPLINE
  5
340
100
AcDbEntity
  8
レイヤー_2
 62
     7
100
AcDbSpline
210
0.0
220
0.0
230
1.0
 70
     8
 71
     3
 72
     8
 73
     4
 74
     0
 42
0.00000001
 43
0.00000001
 40
0.0
 40
0.0
 40
0.0
 40
0.0
 40
1.0
 40
1.0
 40
1.0
 40
1.0
 10
182.56008843315971
 20
113.38704969618054
 30
0.0
 10
182.35992838541665
 20
113.59203287760415
 30
0.0
 10
182.04814724392361
 20
113.63785264756943
 30
0.0
 10
181.79665527343749
 20
113.50314941406249
 30
0.0
  0
SPLINE
  5
33F
100
AcDbEntity
  8
レイヤー_2
 62
     7
100
AcDbSpline
210
0.0
220
0.0
230
1.0
 70
     8
 71
     3
 72
     8
 73
     4
 74
     0
 42
0.00000001
 43
0.00000001
 40
0.0
 40
0.0
 40
0.0
 40
0.0
 40
1.0
 40
1.0
 40
1.0
 40
1.0
 10
186.3610622829861
 20
113.50314941406249
 30
0.0
 10
186.10888129340276
 20
113.63785264756943
 30
0.0
 10
185.79710015190972
 20
113.59203287760415
 30
0.0
 10
185.59521755642359
 20
113.38704969618054
 30
0.0
  0
SPLINE
  5
33E
100
AcDbEntity
  8
レイヤー_2
 62
     7
100
AcDbSpline
210
0.0
220
0.0
230
1.0
 70
     8
 71
     3
 72
     8
 73
     4
 74
     0
 42
0.00000001
 43
0.00000001
 40
0.0
 40
0.0
 40
0.0
 40
0.0
 40
1.0
 40
1.0
 40
1.0
 40
1.0
 10
185.03986816406248
 20
113.38704969618054
 30
0.0
 10
184.42491861979164
 20
113.64370930989583
 30
0.0
 10
183.73279893663192
 20
113.64370930989583
 30
0.0
 10
183.11647135416666
 20
113.38704969618054
 30
0.0
  0
LINE
  5
33D
100
AcDbEntity
  8
レイヤー_2
 62
     7
100
AcDbLine
 10
183.165392
 20
118.342131
 30
0.0
 11
183.165392
 21
119.658157
 31
0.0
  0
LINE
  5
33C
100
AcDbEntity
  8
レイヤー_2
 62
     7
100
AcDbLine
 10
184.990948
 20
118.342131
 30
0.0
 11
184.990948
 21
119.329839
 31
0.0
  0
LINE
  5
33B
100
AcDbEntity
  8
レイヤー_2
 62
     7
100
AcDbLine
 10
185.711662
 20
113.859372
 30
0.0
 11
185.711662
 21
114.882221
 31
0.0
  0
LINE
  5
33A
100
AcDbEntity
  8
レイヤー_2
 62
     7
100
AcDbLine
 10
182.444333
 20
114.882221
 30
0.0
 11
182.444333
 21
113.859372
 31
0.0
  0
LINE
  5
339
100
AcDbEntity
  8
レイヤー_2
 62
     7
100
AcDbLine
 10
182.539762
 20
114.024737
 30
0.0
 11
185.616577
 21
114.024737
 31
0.0
  0
LINE
  5
338
100
AcDbEntity
  8
レイヤー_2
  6
AI9-LType2
 62
     7
100
AcDbLine
 10
169.156255
 20
116.173787
 30
0.0
 11
169.156255
 21
157.909741
 31
0.0
  0
SPLINE
  5
337
100
AcDbEntity
  8
レイヤー_2
 62
     7
100
AcDbSpline
210
0.0
220
0.0
230
1.0
 70
     8
 71
     3
 72
    95
 73
    91
 74
     0
 42
0.00000001
 43
0.00000001
 40
0.0
 40
0.0
 40
0.0
 40
0.0
 40
1.0
 40
1.0
 40
1.0
 40
2.0
 40
2.0
 40
2.0
 40
3.0
 40
3.0
 40
3.0
 40
4.0
 40
4.0
 40
4.0
 40
5.0
 40
5.0
 40
5.0
 40
6.0
 40
6.0
 40
6.0
 40
7.0
 40
7.0
 40
7.0
 40
8.0
 40
8.0
 40
8.0
 40
9.0
 40
9.0
 40
9.0
 40
10.0
 40
10.0
 40
10.0
 40
11.0
 40
11.0
 40
11.0
 40
12.0
 40
12.0
 40
12.0
 40
13.0
 40
13.0
 40
13.0
 40
14.0
 40
14.0
 40
14.0
 40
15.0
 40
15.0
 40
15.0
 40
16.0
 40
16.0
 40
16.0
 40
17.0
 40
17.0
 40
17.0
 40
18.0
 40
18.0
 40
18.0
 40
19.0
 40
19.0
 40
19.0
 40
20.0
 40
20.0
 40
20.0
 40
21.0
 40
21.0
 40
21.0
 40
22.0
 40
22.0
 40
22.0
 40
23.0
 40
23.0
 40
23.0
 40
24.0
 40
24.0
 40
24.0
 40
25.0
 40
25.0
 40
25.0
 40
26.0
 40
26.0
 40
26.0
 40
27.0
 40
27.0
 40
27.0
 40
28.0
 40
28.0
 40
28.0
 40
29.0
 40
29.0
 40
29.0
 40
30.0
 40
30.0
 40
30.0
 40
30.0
 10
157.72680664062497
 20
119.45868598090277
 30
0.0
 10
157.73783094618054
 20
119.45489637586805
 30
0.0
 10
157.74713270399303
 20
119.4535183376736
 30
0.0
 10
157.75746799045137
 20
119.45007324218749
 30
0.0
 10
157.76849229600694
 20
119.44662814670137
 30
0.0
 10
157.77813856336803
 20
119.44490559895833
 30
0.0
 10
157.7891628689236
 20
119.44318305121527
 30
0.0
 10
157.79949815538194
 20
119.43973795572916
 30
0.0
 10
157.80879991319443
 20
119.4380154079861
 30
0.0
 10
157.81810167100693
 20
119.43629286024304
 30
0.0
 10
157.82912597656249
 20
119.4349148220486
 30
0.0
 10
157.83946126302081
 20
119.43284776475693
 30
0.0
 10
157.84876302083333
 20
119.43284776475693
 30
0.0
 10
157.86047634548609
 20
119.43112521701387
 30
0.0
 10
157.87115614149303
 20
119.43112521701387
 30
0.0
 10
157.88114691840278
 20
119.43112521701387
 30
0.0
 10
157.9042290581597
 20
119.43112521701387
 30
0.0
 10
157.92696668836805
 20
119.4349148220486
 30
0.0
 10
157.95108235677083
 20
119.43973795572916
 30
0.0
 10
157.97416449652778
 20
119.44559461805555
 30
0.0
 10
157.9969021267361
 20
119.45179578993054
 30
0.0
 10
158.01998426649305
 20
119.45868598090277
 30
0.0
 10
158.04272189670138
 20
119.46557617187499
 30
0.0
 10
158.06614854600693
 20
119.4721218532986
 30
0.0
 10
158.08923068576388
 20
119.47832302517359
 30
0.0
 10
158.11127929687498
 20
119.48383517795138
 30
0.0
 10
158.13401692708331
 20
119.48900282118055
 30
0.0
 10
158.15709906684026
 20
119.49072536892361
 30
0.0
 10
158.17776963975692
 20
119.49451497395832
 30
0.0
 10
158.19912923177083
 20
119.49348144531248
 30
0.0
 10
158.22014431423611
 20
119.48900282118055
 30
0.0
 10
158.25287272135415
 20
119.48245713975693
 30
0.0
 10
158.28250054253471
 20
119.46867675781249
 30
0.0
 10
158.30868326822915
 20
119.44835069444443
 30
0.0
 10
158.33762207031248
 20
119.42802463107638
 30
0.0
 10
158.36518283420136
 20
119.40459798177082
 30
0.0
 10
158.39171006944443
 20
119.37944878472221
 30
0.0
 10
158.41823730468749
 20
119.35292154947916
 30
0.0
 10
158.44510904947916
 20
119.32673882378471
 30
0.0
 10
158.47163628472219
 20
119.30021158854166
 30
0.0
 10
158.49644097222222
 20
119.27644042968748
 30
0.0
 10
158.5243462456597
 20
119.25404730902777
 30
0.0
 10
158.55328504774303
 20
119.23441026475693
 30
0.0
 10
158.5798122829861
 20
119.21649576822915
 30
0.0
 10
158.60875108506943
 20
119.20478244357638
 30
0.0
 10
158.63941243489583
 20
119.20099283854165
 30
0.0
 10
158.67041829427083
 20
119.19720323350694
 30
0.0
 10
158.70107964409721
 20
119.20202636718749
 30
0.0
 10
158.72898491753472
 20
119.21408420138887
 30
0.0
 10
158.75895724826387
 20
119.22752007378472
 30
0.0
 10
158.79099663628472
 20
119.24198947482638
 30
0.0
 10
158.82200249565972
 20
119.25576985677083
 30
0.0
 10
158.85438639322916
 20
119.27092827690971
 30
0.0
 10
158.88677029079861
 20
119.28815375434027
 30
0.0
 10
158.91570909288194
 20
119.30675726996526
 30
0.0
 10
158.94637044270831
 20
119.32363823784721
 30
0.0
 10
158.97703179253472
 20
119.33741861979166
 30
0.0
 10
159.00872667100694
 20
119.34775390624999
 30
0.0
 10
159.03697645399305
 20
119.35808919270832
 30
0.0
 10
159.06763780381942
 20
119.36118977864582
 30
0.0
 10
159.09657660590275
 20
119.35808919270832
 30
0.0
 10
159.11862521701389
 20
119.35361056857637
 30
0.0
 10
159.13895128038192
 20
119.34603135850693
 30
0.0
 10
159.15755479600693
 20
119.33604058159722
 30
0.0
 10
159.17822536892359
 20
119.32363823784721
 30
0.0
 10
159.19855143229165
 20
119.31020236545137
 30
0.0
 10
159.21681043836804
 20
119.29573296440971
 30
0.0
 10
159.23610297309025
 20
119.27954101562499
 30
0.0
 10
159.25642903645831
 20
119.26334906684026
 30
0.0
 10
159.27537706163193
 20
119.24750162760415
 30
0.0
 10
159.29604763454859
 20
119.22993164062498
 30
0.0
 10
159.3146511501736
 20
119.21477322048609
 30
0.0
 10
159.33601074218748
 20
119.19961480034721
 30
0.0
 10
159.35564778645832
 20
119.18583441840276
 30
0.0
 10
159.3770073784722
 20
119.17377658420138
 30
0.0
 10
159.39974500868055
 20
119.16275227864583
 30
0.0
 10
159.40904676649305
 20
119.15930718315971
 30
0.0
 10
159.41869303385414
 20
119.15517306857637
 30
0.0
 10
159.42868381076389
 20
119.15345052083332
 30
0.0
 10
159.4386745876736
 20
119.15069444444444
 30
0.0
 10
159.44935438368054
 20
119.14828287760416
 30
0.0
 10
159.45865614149304
 20
119.14552680121527
 30
0.0
 10
159.4696804470486
 20
119.14414876302082
 30
0.0
 10
159.48001573350692
 20
119.14311523437499
 30
0.0
 10
159.49035101996526
 20
119.14139268663193
 30
0.0
 10
159.50034179687498
 20
119.14001464843749
 30
0.0
 10
159.51171061197914
 20
119.14001464843749
 30
0.0
 10
159.52239040798611
 20
119.13794759114582
 30
0.0
 10
159.53272569444442
 20
119.13794759114582
 30
0.0
 10
159.54306098090277
 20
119.13622504340276
 30
0.0
 10
159.55305175781248
 20
119.13622504340276
 30
0.0
  0
LINE
  5
336
100
AcDbEntity
  8
レイヤー_2
 62
     7
100
AcDbLine
 10
160.274455
 20
113.832156
 30
0.0
 11
160.178681
 21
113.832156
 31
0.0
  0
LINE
  5
335
100
AcDbEntity
  8
レイヤー_2
 62
     7
100
AcDbLine
 10
160.178681
 20
114.708933
 30
0.0
 11
160.178681
 21
113.832156
 31
0.0
  0
LINE
  5
334
100
AcDbEntity
  8
レイヤー_2
 62
     7
100
AcDbLine
 10
160.178681
 20
113.832156
 30
0.0
 11
160.274455
 21
113.665069
 31
0.0
  0
LINE
  5
333
100
AcDbEntity
  8
レイヤー_2
 62
     7
100
AcDbLine
 10
157.102211
 20
113.832156
 30
0.0
 11
157.006437
 21
113.832156
 31
0.0
  0
LINE
  5
332
100
AcDbEntity
  8
レイヤー_2
 62
     7
100
AcDbLine
 10
157.102211
 20
113.832156
 30
0.0
 11
157.102211
 21
114.708933
 31
0.0
  0
LINE
  5
331
100
AcDbEntity
  8
レイヤー_2
 62
     7
100
AcDbLine
 10
157.006437
 20
113.665069
 30
0.0
 11
157.102211
 21
113.832156
 31
0.0
  0
LINE
  5
330
100
AcDbEntity
  8
レイヤー_2
  6
AI9-LType2
 62
     7
100
AcDbLine
 10
158.531925
 20
125.790771
 30
0.0
 11
158.531925
 21
108.555992
 31
0.0
  0
LINE
  5
32F
100
AcDbEntity
  8
レイヤー_2
 62
     7
100
AcDbLine
 10
157.737831
 20
114.798505
 30
0.0
 11
157.342334
 21
114.798505
 31
0.0
  0
LINE
  5
32E
100
AcDbEntity
  8
レイヤー_2
 62
     7
100
AcDbLine
 10
157.737831
 20
116.816642
 30
0.0
 11
157.737831
 21
114.798505
 31
0.0
  0
LINE
  5
32D
100
AcDbEntity
  8
レイヤー_2
 62
     7
100
AcDbLine
 10
157.342334
 20
116.816642
 30
0.0
 11
157.737831
 21
116.816642
 31
0.0
  0
LINE
  5
32C
100
AcDbEntity
  8
レイヤー_2
 62
     7
100
AcDbLine
 10
157.342334
 20
116.816642
 30
0.0
 11
157.342334
 21
114.798505
 31
0.0
  0
LINE
  5
32B
100
AcDbEntity
  8
レイヤー_2
 62
     7
100
AcDbLine
 10
157.198329
 20
118.148861
 30
0.0
 11
158.639412
 21
118.148861
 31
0.0
  0
LINE
  5
32A
100
AcDbEntity
  8
レイヤー_2
 62
     7
100
AcDbLine
 10
156.62162
 20
114.689296
 30
0.0
 11
158.639412
 21
114.689296
 31
0.0
  0
LINE
  5
329
100
AcDbEntity
  8
レイヤー_2
 62
     7
100
AcDbLine
 10
156.429728
 20
114.798505
 30
0.0
 11
156.62162
 21
114.689296
 31
0.0
  0
LINE
  5
328
100
AcDbEntity
  8
レイヤー_2
 62
     7
100
AcDbLine
 10
157.198329
 20
118.148861
 30
0.0
 11
156.534804
 21
116.998199
 31
0.0
  0
LINE
  5
327
100
AcDbEntity
  8
レイヤー_2
 62
     7
100
AcDbLine
 10
156.429728
 20
116.816642
 30
0.0
 11
156.429728
 21
114.798505
 31
0.0
  0
LINE
  5
326
100
AcDbEntity
  8
レイヤー_2
 62
     7
100
AcDbLine
 10
159.610929
 20
118.148861
 30
0.0
 11
158.639412
 21
118.148861
 31
0.0
  0
LINE
  5
325
100
AcDbEntity
  8
レイヤー_2
 62
     7
100
AcDbLine
 10
160.321997
 20
114.689296
 30
0.0
 11
158.639412
 21
114.689296
 31
0.0
  0
LINE
  5
324
100
AcDbEntity
  8
レイヤー_2
 62
     7
100
AcDbLine
 10
159.936835
 20
114.798505
 30
0.0
 11
159.541338
 21
114.798505
 31
0.0
  0
LINE
  5
323
100
AcDbEntity
  8
レイヤー_2
 62
     7
100
AcDbLine
 10
159.541338
 20
114.798505
 30
0.0
 11
159.541338
 21
116.816642
 31
0.0
  0
LINE
  5
322
100
AcDbEntity
  8
レイヤー_2
 62
     7
100
AcDbLine
 10
159.541338
 20
116.816642
 30
0.0
 11
159.936835
 21
116.816642
 31
0.0
  0
LINE
  5
321
100
AcDbEntity
  8
レイヤー_2
 62
     7
100
AcDbLine
 10
159.936835
 20
114.798505
 30
0.0
 11
159.936835
 21
116.816642
 31
0.0
  0
LINE
  5
320
100
AcDbEntity
  8
レイヤー_2
 62
     7
100
AcDbLine
 10
158.639412
 20
118.148861
 30
0.0
 11
160.081529
 21
118.148861
 31
0.0
  0
LINE
  5
31F
100
AcDbEntity
  8
レイヤー_2
 62
     7
100
AcDbLine
 10
158.639412
 20
114.689296
 30
0.0
 11
160.658583
 21
114.689296
 31
0.0
  0
LINE
  5
31E
100
AcDbEntity
  8
レイヤー_2
 62
     7
100
AcDbLine
 10
160.658583
 20
114.689296
 30
0.0
 11
160.851164
 21
114.798505
 31
0.0
  0
LINE
  5
31D
100
AcDbEntity
  8
レイヤー_2
 62
     7
100
AcDbLine
 10
160.851164
 20
116.816642
 30
0.0
 11
160.081529
 21
118.148861
 31
0.0
  0
LINE
  5
31C
100
AcDbEntity
  8
レイヤー_2
 62
     7
100
AcDbLine
 10
160.851164
 20
114.798505
 30
0.0
 11
160.851164
 21
116.816642
 31
0.0
  0
LINE
  5
31B
100
AcDbEntity
  8
レイヤー_2
 62
     7
100
AcDbLine
 10
156.534804
 20
116.998199
 30
0.0
 11
156.429728
 21
116.816642
 31
0.0
  0
SPLINE
  5
31A
100
AcDbEntity
  8
レイヤー_2
 62
     7
100
AcDbSpline
210
0.0
220
0.0
230
1.0
 70
     8
 71
     3
 72
     8
 73
     4
 74
     0
 42
0.00000001
 43
0.00000001
 40
0.0
 40
0.0
 40
0.0
 40
0.0
 40
1.0
 40
1.0
 40
1.0
 40
1.0
 10
157.73783094618054
 20
114.79850531684026
 30
0.0
 10
158.03273111979166
 20
114.7251247829861
 30
0.0
 10
158.33624403211803
 20
114.68929578993054
 30
0.0
 10
158.63941243489583
 20
114.68929578993054
 30
0.0
  0
SPLINE
  5
319
100
AcDbEntity
  8
レイヤー_2
 62
     7
100
AcDbSpline
210
0.0
220
0.0
230
1.0
 70
     8
 71
     3
 72
     8
 73
     4
 74
     0
 42
0.00000001
 43
0.00000001
 40
0.0
 40
0.0
 40
0.0
 40
0.0
 40
1.0
 40
1.0
 40
1.0
 40
1.0
 10
156.42972819010416
 20
114.79850531684026
 30
0.0
 10
156.71532660590276
 20
114.65208875868055
 30
0.0
 10
157.05604654947916
 20
114.65208875868055
 30
0.0
 10
157.34233398437499
 20
114.79850531684026
 30
0.0
  0
SPLINE
  5
318
100
AcDbEntity
  8
レイヤー_2
 62
     7
100
AcDbSpline
210
0.0
220
0.0
230
1.0
 70
     8
 71
     3
 72
     8
 73
     4
 74
     0
 42
0.00000001
 43
0.00000001
 40
0.0
 40
0.0
 40
0.0
 40
0.0
 40
1.0
 40
1.0
 40
1.0
 40
1.0
 10
158.63941243489583
 20
117.14909396701388
 30
0.0
 10
158.31006130642359
 20
117.14909396701388
 30
0.0
 10
157.99001193576387
 20
117.03161621093749
 30
0.0
 10
157.73783094618054
 20
116.81664225260415
 30
0.0
  0
SPLINE
  5
317
100
AcDbEntity
  8
レイヤー_2
 62
     7
100
AcDbSpline
210
0.0
220
0.0
230
1.0
 70
     8
 71
     3
 72
    11
 73
     7
 74
     0
 42
0.00000001
 43
0.00000001
 40
0.0
 40
0.0
 40
0.0
 40
0.0
 40
1.0
 40
1.0
 40
1.0
 40
2.0
 40
2.0
 40
2.0
 40
2.0
 10
157.34233398437499
 20
116.81664225260415
 30
0.0
 10
157.26413031684027
 20
117.06882324218749
 30
0.0
 10
156.99644639756943
 20
117.21007215711805
 30
0.0
 10
156.74426540798609
 20
117.13014594184027
 30
0.0
 10
156.66330566406248
 20
117.10568576388887
 30
0.0
 10
156.59095865885416
 20
117.06055501302082
 30
0.0
 10
156.53480360243054
 20
116.99819878472221
 30
0.0
  0
SPLINE
  5
316
100
AcDbEntity
  8
レイヤー_2
 62
     7
100
AcDbSpline
210
0.0
220
0.0
230
1.0
 70
     8
 71
     3
 72
     8
 73
     4
 74
     0
 42
0.00000001
 43
0.00000001
 40
0.0
 40
0.0
 40
0.0
 40
0.0
 40
1.0
 40
1.0
 40
1.0
 40
1.0
 10
158.63941243489583
 20
114.68929578993054
 30
0.0
 10
158.94395887586805
 20
114.68929578993054
 30
0.0
 10
159.2464382595486
 20
114.7251247829861
 30
0.0
 10
159.54133843315969
 20
114.79850531684026
 30
0.0
  0
SPLINE
  5
315
100
AcDbEntity
  8
レイヤー_2
 62
     7
100
AcDbSpline
210
0.0
220
0.0
230
1.0
 70
     8
 71
     3
 72
     8
 73
     4
 74
     0
 42
0.00000001
 43
0.00000001
 40
0.0
 40
0.0
 40
0.0
 40
0.0
 40
1.0
 40
1.0
 40
1.0
 40
1.0
 10
159.93683539496527
 20
114.79850531684026
 30
0.0
 10
160.22415635850692
 20
114.65208875868055
 30
0.0
 10
160.56487630208332
 20
114.65208875868055
 30
0.0
 10
160.85116373697915
 20
114.79850531684026
 30
0.0
  0
SPLINE
  5
314
100
AcDbEntity
  8
レイヤー_2
 62
     7
100
AcDbSpline
210
0.0
220
0.0
230
1.0
 70
     8
 71
     3
 72
     8
 73
     4
 74
     0
 42
0.00000001
 43
0.00000001
 40
0.0
 40
0.0
 40
0.0
 40
0.0
 40
1.0
 40
1.0
 40
1.0
 40
1.0
 10
159.54133843315969
 20
116.81664225260415
 30
0.0
 10
159.29087999131943
 20
117.03161621093749
 30
0.0
 10
158.97014160156249
 20
117.14909396701388
 30
0.0
 10
158.63941243489583
 20
117.14909396701388
 30
0.0
  0
SPLINE
  5
313
100
AcDbEntity
  8
レイヤー_2
 62
     7
100
AcDbSpline
210
0.0
220
0.0
230
1.0
 70
     8
 71
     3
 72
    11
 73
     7
 74
     0
 42
0.00000001
 43
0.00000001
 40
0.0
 40
0.0
 40
0.0
 40
0.0
 40
1.0
 40
1.0
 40
1.0
 40
2.0
 40
2.0
 40
2.0
 40
2.0
 10
160.85116373697915
 20
116.81664225260415
 30
0.0
 10
160.7719265407986
 20
117.06882324218749
 30
0.0
 10
160.50252007378469
 20
117.21007215711805
 30
0.0
 10
160.25102810329861
 20
117.13014594184027
 30
0.0
 10
160.10219997829859
 20
117.08432617187499
 30
0.0
 10
159.98437771267359
 20
116.96684841579859
 30
0.0
 10
159.93683539496527
 20
116.81664225260415
 30
0.0
  0
LINE
  5
312
100
AcDbEntity
  8
レイヤー_2
 62
     7
100
AcDbLine
 10
156.357381
 20
109.233643
 30
0.0
 11
156.140685
 21
109.349398
 31
0.0
  0
LINE
  5
311
100
AcDbEntity
  8
レイヤー_2
 62
     7
100
AcDbLine
 10
161.138485
 20
109.349398
 30
0.0
 11
160.922822
 21
109.233643
 31
0.0
  0
LINE
  5
310
100
AcDbEntity
  8
レイヤー_2
 62
     7
100
AcDbLine
 10
156.140685
 20
113.19378
 30
0.0
 11
156.357381
 21
113.308846
 31
0.0
  0
LINE
  5
30F
100
AcDbEntity
  8
レイヤー_2
 62
     7
100
AcDbLine
 10
160.922822
 20
113.308846
 30
0.0
 11
161.138485
 21
113.19378
 31
0.0
  0
LINE
  5
30E
100
AcDbEntity
  8
レイヤー_2
 62
     7
100
AcDbLine
 10
156.429728
 20
109.061388
 30
0.0
 11
160.851164
 21
109.061388
 31
0.0
  0
LINE
  5
30D
100
AcDbEntity
  8
レイヤー_2
 62
     7
100
AcDbLine
 10
157.122881
 20
109.349398
 30
0.0
 11
157.679264
 21
109.349398
 31
0.0
  0
LINE
  5
30C
100
AcDbEntity
  8
レイヤー_2
 62
     7
100
AcDbLine
 10
159.600939
 20
109.349398
 30
0.0
 11
160.157322
 21
109.349398
 31
0.0
  0
LINE
  5
30B
100
AcDbEntity
  8
レイヤー_2
 62
     7
100
AcDbLine
 10
161.138485
 20
109.349398
 30
0.0
 11
160.851164
 21
109.061388
 31
0.0
  0
LINE
  5
30A
100
AcDbEntity
  8
レイヤー_2
 62
     7
100
AcDbLine
 10
156.140685
 20
109.349398
 30
0.0
 11
156.429728
 21
109.061388
 31
0.0
  0
LINE
  5
309
100
AcDbEntity
  8
レイヤー_2
 62
     7
100
AcDbLine
 10
160.851164
 20
113.482479
 30
0.0
 11
156.429728
 21
113.482479
 31
0.0
  0
LINE
  5
308
100
AcDbEntity
  8
レイヤー_2
 62
     7
100
AcDbLine
 10
160.851164
 20
113.482479
 30
0.0
 11
161.138485
 21
113.19378
 31
0.0
  0
LINE
  5
307
100
AcDbEntity
  8
レイヤー_2
 62
     7
100
AcDbLine
 10
159.8669
 20
113.19378
 30
0.0
 11
159.311206
 21
113.19378
 31
0.0
  0
LINE
  5
306
100
AcDbEntity
  8
レイヤー_2
 62
     7
100
AcDbLine
 10
157.388498
 20
113.19378
 30
0.0
 11
156.832804
 21
113.19378
 31
0.0
  0
LINE
  5
305
100
AcDbEntity
  8
レイヤー_2
 62
     7
100
AcDbLine
 10
156.429728
 20
113.482479
 30
0.0
 11
156.140685
 21
113.19378
 31
0.0
  0
LINE
  5
304
100
AcDbEntity
  8
レイヤー_2
 62
     7
100
AcDbLine
 10
156.140685
 20
109.349398
 30
0.0
 11
156.140685
 21
113.19378
 31
0.0
  0
LINE
  5
303
100
AcDbEntity
  8
レイヤー_2
 62
     7
100
AcDbLine
 10
157.122881
 20
109.349398
 30
0.0
 11
157.122881
 21
113.19378
 31
0.0
  0
LINE
  5
302
100
AcDbEntity
  8
レイヤー_2
 62
     7
100
AcDbLine
 10
157.679264
 20
109.349398
 30
0.0
 11
157.679264
 21
113.19378
 31
0.0
  0
LINE
  5
301
100
AcDbEntity
  8
レイヤー_2
 62
     7
100
AcDbLine
 10
159.600939
 20
109.349398
 30
0.0
 11
159.600939
 21
113.19378
 31
0.0
  0
LINE
  5
300
100
AcDbEntity
  8
レイヤー_2
 62
     7
100
AcDbLine
 10
160.157322
 20
109.349398
 30
0.0
 11
160.157322
 21
113.19378
 31
0.0
  0
LINE
  5
2FF
100
AcDbEntity
  8
レイヤー_2
 62
     7
100
AcDbLine
 10
161.138485
 20
109.349398
 30
0.0
 11
161.138485
 21
113.19378
 31
0.0
  0
SPLINE
  5
2FE
100
AcDbEntity
  8
レイヤー_2
 62
     7
100
AcDbSpline
210
0.0
220
0.0
230
1.0
 70
     8
 71
     3
 72
     8
 73
     4
 74
     0
 42
0.00000001
 43
0.00000001
 40
0.0
 40
0.0
 40
0.0
 40
0.0
 40
1.0
 40
1.0
 40
1.0
 40
1.0
 10
156.35738118489581
 20
109.23364257812499
 30
0.0
 10
156.61025119357637
 20
109.09859483506943
 30
0.0
 10
156.92168782552082
 20
109.14579264322916
 30
0.0
 10
157.12288140190969
 20
109.34939778645833
 30
0.0
  0
SPLINE
  5
2FD
100
AcDbEntity
  8
レイヤー_2
 62
     7
100
AcDbSpline
210
0.0
220
0.0
230
1.0
 70
     8
 71
     3
 72
     8
 73
     4
 74
     0
 42
0.00000001
 43
0.00000001
 40
0.0
 40
0.0
 40
0.0
 40
0.0
 40
1.0
 40
1.0
 40
1.0
 40
1.0
 10
160.15732150607639
 20
109.34939778645833
 30
0.0
 10
160.35782606336804
 20
109.14579264322916
 30
0.0
 10
160.66960720486111
 20
109.09859483506943
 30
0.0
 10
160.92282172309027
 20
109.23364257812499
 30
0.0
  0
SPLINE
  5
2FC
100
AcDbEntity
  8
レイヤー_2
 62
     7
100
AcDbSpline
210
0.0
220
0.0
230
1.0
 70
     8
 71
     3
 72
     8
 73
     4
 74
     0
 42
0.00000001
 43
0.00000001
 40
0.0
 40
0.0
 40
0.0
 40
0.0
 40
1.0
 40
1.0
 40
1.0
 40
1.0
 10
157.67926432291665
 20
109.34939778645833
 30
0.0
 10
158.29421386718749
 20
109.09273817274304
 30
0.0
 10
158.98564453124999
 20
109.09273817274304
 30
0.0
 10
159.60093858506943
 20
109.34939778645833
 30
0.0
  0
SPLINE
  5
2FB
100
AcDbEntity
  8
レイヤー_2
 62
     7
100
AcDbSpline
210
0.0
220
0.0
230
1.0
 70
     8
 71
     3
 72
     8
 73
     4
 74
     0
 42
0.00000001
 43
0.00000001
 40
0.0
 40
0.0
 40
0.0
 40
0.0
 40
1.0
 40
1.0
 40
1.0
 40
1.0
 10
157.12288140190969
 20
113.19377983940971
 30
0.0
 10
156.92168782552082
 20
113.39772949218749
 30
0.0
 10
156.61025119357637
 20
113.44527180989583
 30
0.0
 10
156.35738118489581
 20
113.30884602864582
 30
0.0
  0
SPLINE
  5
2FA
100
AcDbEntity
  8
レイヤー_2
 62
     7
100
AcDbSpline
210
0.0
220
0.0
230
1.0
 70
     8
 71
     3
 72
     8
 73
     4
 74
     0
 42
0.00000001
 43
0.00000001
 40
0.0
 40
0.0
 40
0.0
 40
0.0
 40
1.0
 40
1.0
 40
1.0
 40
1.0
 10
160.92282172309027
 20
113.30884602864582
 30
0.0
 10
160.66960720486111
 20
113.44527180989583
 30
0.0
 10
160.35782606336804
 20
113.39772949218749
 30
0.0
 10
160.15732150607639
 20
113.19377983940971
 30
0.0
  0
SPLINE
  5
2F9
100
AcDbEntity
  8
レイヤー_2
 62
     7
100
AcDbSpline
210
0.0
220
0.0
230
1.0
 70
     8
 71
     3
 72
     8
 73
     4
 74
     0
 42
0.00000001
 43
0.00000001
 40
0.0
 40
0.0
 40
0.0
 40
0.0
 40
1.0
 40
1.0
 40
1.0
 40
1.0
 10
159.60093858506943
 20
113.19377983940971
 30
0.0
 10
158.98564453124999
 20
113.45043945312499
 30
0.0
 10
158.29421386718749
 20
113.45043945312499
 30
0.0
 10
157.67926432291665
 20
113.19377983940971
 30
0.0
  0
LINE
  5
2F8
100
AcDbEntity
  8
レイヤー_2
 62
     7
100
AcDbLine
 10
157.726807
 20
118.148861
 30
0.0
 11
157.726807
 21
119.463854
 31
0.0
  0
LINE
  5
2F7
100
AcDbEntity
  8
レイヤー_2
 62
     7
100
AcDbLine
 10
159.553052
 20
118.148861
 30
0.0
 11
159.553052
 21
119.136225
 31
0.0
  0
LINE
  5
2F6
100
AcDbEntity
  8
レイヤー_2
 62
     7
100
AcDbLine
 10
160.274455
 20
113.665069
 30
0.0
 11
160.274455
 21
114.689296
 31
0.0
  0
LINE
  5
2F5
100
AcDbEntity
  8
レイヤー_2
 62
     7
100
AcDbLine
 10
157.006437
 20
114.689296
 30
0.0
 11
157.006437
 21
113.665069
 31
0.0
  0
LINE
  5
2F4
100
AcDbEntity
  8
レイヤー_2
 62
     7
100
AcDbLine
 10
157.102211
 20
113.832156
 30
0.0
 11
160.178681
 21
113.832156
 31
0.0
  0
LINE
  5
2F3
100
AcDbEntity
  8
レイヤー_2
  6
AI9-LType2
 62
     7
100
AcDbLine
 10
169.156255
 20
116.173787
 30
0.0
 11
158.531925
 21
125.790771
 31
0.0
  0
MTEXT
  5
2F1
100
AcDbEntity
  8
レイヤー_2
 62
     7
100
AcDbMText
 10
161.797876
 20
109.193696
 30
0.0
 40
2.624835
 41
0.0
 71
     1
 72
     2
  1
\fGothicBBB Medium|b0|i0|c128;\H2.6248;\C7;\U+63A5\U+7D9A\U+30BD\U+30B1\U+30C3\U+30C8
  7
STD
210
0.0
220
0.0
230
1.0
 73
     1
 44
1.0
  0
MTEXT
  5
2F0
100
AcDbEntity
  8
レイヤー_2
 62
     7
100
AcDbMText
 10
161.797876
 20
104.751934
 30
0.0
 40
2.624835
 41
0.0
 71
     1
 72
     2
  1
\fGothicBBB Medium|b0|i0|c128;\H2.6248;\C7;\U+FF08\U+9006\U+6B62\U+5F01\U+4ED8\U+FF09
  7
STD
210
0.0
220
0.0
230
1.0
 73
     1
 44
1.0
  0
LINE
  5
2EF
100
AcDbEntity
  8
レイヤー_2
 62
     7
100
AcDbLine
 10
170.79302
 20
216.917681
 30
0.0
 11
170.79302
 21
223.30196
 31
0.0
  0
LINE
  5
2EE
100
AcDbEntity
  8
レイヤー_2
 62
     7
100
AcDbLine
 10
150.838338
 20
190.415767
 30
0.0
 11
150.838338
 21
232.007199
 31
0.0
  0
LINE
  5
2ED
100
AcDbEntity
  8
レイヤー_2
 62
     7
100
AcDbLine
 10
149.733841
 20
231.039472
 30
0.0
 11
171.787275
 21
231.039472
 31
0.0
  0
LINE
  5
2EC
100
AcDbEntity
  8
レイヤー_2
 62
     7
100
AcDbLine
 10
171.615709
 20
231.861644
 30
0.0
 11
169.971021
 21
230.217817
 31
0.0
  0
LINE
  5
2EB
100
AcDbEntity
  8
レイヤー_2
 62
     7
100
AcDbLine
 10
151.709258
 20
231.861644
 30
0.0
 11
150.066292
 21
230.217817
 31
0.0
  0
MTEXT
  5
2EA
100
AcDbEntity
  8
レイヤー_2
 62
     7
100
AcDbMText
 10
147.803554
 20
236.358584
 30
0.0
 40
3.674768
 41
0.0
 71
     1
 72
     2
  1
\fGothicBBB Medium|b0|i0|c128;\H3.6748;\C7;\U+0031\U+0035\U+0030\U+FF5E\U+0035\U+0030\U+0030
  7
STD
210
0.0
220
0.0
230
1.0
 73
     1
 44
1.0
  0
LINE
  5
2E9
100
AcDbEntity
  8
レイヤー_2
 62
     7
100
AcDbLine
 10
173.178749
 20
214.328003
 30
0.0
 11
173.178749
 21
217.659066
 31
0.0
  0
LINE
  5
2E8
100
AcDbEntity
  8
レイヤー_2
 62
     7
100
AcDbLine
 10
173.49432
 20
218.664861
 30
0.0
 11
173.49432
 21
219.104628
 31
0.0
  0
LINE
  5
2E7
100
AcDbEntity
  8
レイヤー_2
 62
     7
100
AcDbLine
 10
173.49432
 20
217.910558
 30
0.0
 11
173.49432
 21
218.664861
 31
0.0
  0
LINE
  5
2E6
100
AcDbEntity
  8
レイヤー_2
 62
     7
100
AcDbLine
 10
167.962185
 20
217.910558
 30
0.0
 11
167.962185
 21
205.277909
 31
0.0
  0
LINE
  5
2E5
100
AcDbEntity
  8
レイヤー_2
 62
     7
100
AcDbLine
 10
173.49432
 20
205.277909
 30
0.0
 11
173.49432
 21
217.910558
 31
0.0
  0
LINE
  5
2E4
100
AcDbEntity
  8
レイヤー_2
 62
     7
100
AcDbLine
 10
173.49432
 20
184.474528
 30
0.0
 11
173.49432
 21
205.277909
 31
0.0
  0
LINE
  5
2E3
100
AcDbEntity
  8
レイヤー_2
 62
     7
100
AcDbLine
 10
167.962185
 20
205.277909
 30
0.0
 11
167.962185
 21
184.474528
 31
0.0
  0
POLYLINE
  5
2DE
100
AcDbEntity
  8
レイヤー_2
 62
     7
100
AcDb2dPolyline
 66
     1
 10
0.0
 20
0.0
 30
0.0
  0
VERTEX
  5
2DF
100
AcDbEntity
  8
レイヤー_2
 62
     7
100
AcDbVertex
100
AcDb2dVertex
 10
166.266165
 20
184.474528
 30
0.0
  0
VERTEX
  5
2E0
100
AcDbEntity
  8
レイヤー_2
 62
     7
100
AcDbVertex
100
AcDb2dVertex
 10
166.139385
 20
184.410966
 30
0.0
  0
VERTEX
  5
2E1
100
AcDbEntity
  8
レイヤー_2
 62
     7
100
AcDbVertex
100
AcDb2dVertex
 10
166.07634
 20
184.410966
 30
0.0
  0
SEQEND
  5
2E2
100
AcDbEntity
  8
レイヤー_2
 62
     7
  0
POLYLINE
  5
2D9
100
AcDbEntity
  8
レイヤー_2
 62
     7
100
AcDb2dPolyline
 66
     1
 10
0.0
 20
0.0
 30
0.0
  0
VERTEX
  5
2DA
100
AcDbEntity
  8
レイヤー_2
 62
     7
100
AcDbVertex
100
AcDb2dVertex
 10
175.379131
 20
184.410966
 30
0.0
  0
VERTEX
  5
2DB
100
AcDbEntity
  8
レイヤー_2
 62
     7
100
AcDbVertex
100
AcDb2dVertex
 10
175.316086
 20
184.410966
 30
0.0
  0
VERTEX
  5
2DC
100
AcDbEntity
  8
レイヤー_2
 62
     7
100
AcDbVertex
100
AcDb2dVertex
 10
175.19034
 20
184.474528
 30
0.0
  0
SEQEND
  5
2DD
100
AcDbEntity
  8
レイヤー_2
 62
     7
  0
LINE
  5
2D8
100
AcDbEntity
  8
レイヤー_2
 62
     7
100
AcDbLine
 10
166.07634
 20
184.410966
 30
0.0
 11
166.07634
 21
159.270898
 31
0.0
  0
LINE
  5
2D7
100
AcDbEntity
  8
レイヤー_2
 62
     7
100
AcDbLine
 10
175.379131
 20
180.200198
 30
0.0
 11
175.379131
 21
184.410966
 31
0.0
  0
LINE
  5
2D6
100
AcDbEntity
  8
レイヤー_2
 62
     7
100
AcDbLine
 10
175.379131
 20
159.270898
 30
0.0
 11
175.379131
 21
171.714411
 31
0.0
  0
POLYLINE
  5
2C9
100
AcDbEntity
  8
レイヤー_2
 62
     7
100
AcDb2dPolyline
 66
     1
 10
0.0
 20
0.0
 30
0.0
  0
VERTEX
  5
2CA
100
AcDbEntity
  8
レイヤー_2
 62
     7
100
AcDbVertex
100
AcDb2dVertex
 10
168.465169
 20
214.328003
 30
0.0
  0
VERTEX
  5
2CB
100
AcDbEntity
  8
レイヤー_2
 62
     7
100
AcDbVertex
100
AcDb2dVertex
 10
168.590915
 20
214.390876
 30
0.0
  0
VERTEX
  5
2CC
100
AcDbEntity
  8
レイヤー_2
 62
     7
100
AcDbVertex
100
AcDb2dVertex
 10
172.92829
 20
214.390876
 30
0.0
  0
VERTEX
  5
2CD
100
AcDbEntity
  8
レイヤー_2
 62
     7
100
AcDbVertex
100
AcDb2dVertex
 10
172.991336
 20
214.328003
 30
0.0
  0
VERTEX
  5
2CE
100
AcDbEntity
  8
レイヤー_2
 62
     7
100
AcDbVertex
100
AcDb2dVertex
 10
172.8022
 20
214.328003
 30
0.0
  0
VERTEX
  5
2CF
100
AcDbEntity
  8
レイヤー_2
 62
     7
100
AcDbVertex
100
AcDb2dVertex
 10
172.613753
 20
214.265647
 30
0.0
  0
VERTEX
  5
2D0
100
AcDbEntity
  8
レイヤー_2
 62
     7
100
AcDbVertex
100
AcDb2dVertex
 10
171.042101
 20
214.265647
 30
0.0
  0
VERTEX
  5
2D1
100
AcDbEntity
  8
レイヤー_2
 62
     7
100
AcDbVertex
100
AcDb2dVertex
 10
170.602507
 20
214.265647
 30
0.0
  0
VERTEX
  5
2D2
100
AcDbEntity
  8
レイヤー_2
 62
     7
100
AcDbVertex
100
AcDb2dVertex
 10
168.967809
 20
214.265647
 30
0.0
  0
VERTEX
  5
2D3
100
AcDbEntity
  8
レイヤー_2
 62
     7
100
AcDbVertex
100
AcDb2dVertex
 10
168.716661
 20
214.328003
 30
0.0
  0
VERTEX
  5
2D4
100
AcDbEntity
  8
レイヤー_2
 62
     7
100
AcDbVertex
100
AcDb2dVertex
 10
168.465169
 20
214.328003
 30
0.0
  0
SEQEND
  5
2D5
100
AcDbEntity
  8
レイヤー_2
 62
     7
  0
POLYLINE
  5
2B8
100
AcDbEntity
  8
レイヤー_2
 62
     7
100
AcDb2dPolyline
 66
     1
 10
0.0
 20
0.0
 30
0.0
  0
VERTEX
  5
2B9
100
AcDbEntity
  8
レイヤー_2
 62
     7
100
AcDbVertex
100
AcDb2dVertex
 10
168.276723
 20
214.328003
 30
0.0
  0
VERTEX
  5
2BA
100
AcDbEntity
  8
レイヤー_2
 62
     7
100
AcDbVertex
100
AcDb2dVertex
 10
168.40178
 20
214.390876
 30
0.0
  0
VERTEX
  5
2BB
100
AcDbEntity
  8
レイヤー_2
 62
     7
100
AcDbVertex
100
AcDb2dVertex
 10
169.722285
 20
214.390876
 30
0.0
  0
VERTEX
  5
2BC
100
AcDbEntity
  8
レイヤー_2
 62
     7
100
AcDbVertex
100
AcDb2dVertex
 10
170.099523
 20
214.454438
 30
0.0
  0
VERTEX
  5
2BD
100
AcDbEntity
  8
レイヤー_2
 62
     7
100
AcDbVertex
100
AcDb2dVertex
 10
171.356638
 20
214.454438
 30
0.0
  0
VERTEX
  5
2BE
100
AcDbEntity
  8
レイヤー_2
 62
     7
100
AcDbVertex
100
AcDb2dVertex
 10
171.733187
 20
214.390876
 30
0.0
  0
VERTEX
  5
2BF
100
AcDbEntity
  8
レイヤー_2
 62
     7
100
AcDbVertex
100
AcDb2dVertex
 10
173.052314
 20
214.390876
 30
0.0
  0
VERTEX
  5
2C0
100
AcDbEntity
  8
レイヤー_2
 62
     7
100
AcDbVertex
100
AcDb2dVertex
 10
173.178749
 20
214.328003
 30
0.0
  0
VERTEX
  5
2C1
100
AcDbEntity
  8
レイヤー_2
 62
     7
100
AcDbVertex
100
AcDb2dVertex
 10
172.864901
 20
214.328003
 30
0.0
  0
VERTEX
  5
2C2
100
AcDbEntity
  8
レイヤー_2
 62
     7
100
AcDbVertex
100
AcDb2dVertex
 10
172.676799
 20
214.265647
 30
0.0
  0
VERTEX
  5
2C3
100
AcDbEntity
  8
レイヤー_2
 62
     7
100
AcDbVertex
100
AcDb2dVertex
 10
171.356638
 20
214.265647
 30
0.0
  0
VERTEX
  5
2C4
100
AcDbEntity
  8
レイヤー_2
 62
     7
100
AcDbVertex
100
AcDb2dVertex
 10
170.917044
 20
214.265647
 30
0.0
  0
VERTEX
  5
2C5
100
AcDbEntity
  8
レイヤー_2
 62
     7
100
AcDbVertex
100
AcDb2dVertex
 10
168.779706
 20
214.265647
 30
0.0
  0
VERTEX
  5
2C6
100
AcDbEntity
  8
レイヤー_2
 62
     7
100
AcDbVertex
100
AcDb2dVertex
 10
168.590915
 20
214.328003
 30
0.0
  0
VERTEX
  5
2C7
100
AcDbEntity
  8
レイヤー_2
 62
     7
100
AcDbVertex
100
AcDb2dVertex
 10
168.276723
 20
214.328003
 30
0.0
  0
SEQEND
  5
2C8
100
AcDbEntity
  8
レイヤー_2
 62
     7
  0
POLYLINE
  5
28D
100
AcDbEntity
  8
レイヤー_2
 62
     7
100
AcDb2dPolyline
 66
     1
 10
0.0
 20
0.0
 30
0.0
  0
VERTEX
  5
28E
100
AcDbEntity
  8
レイヤー_2
 62
     7
100
AcDbVertex
100
AcDb2dVertex
 10
167.962185
 20
219.104628
 30
0.0
  0
VERTEX
  5
28F
100
AcDbEntity
  8
レイヤー_2
 62
     7
100
AcDbVertex
100
AcDb2dVertex
 10
167.962185
 20
219.544911
 30
0.0
  0
VERTEX
  5
290
100
AcDbEntity
  8
レイヤー_2
 62
     7
100
AcDbVertex
100
AcDb2dVertex
 10
168.087242
 20
219.92146
 30
0.0
  0
VERTEX
  5
291
100
AcDbEntity
  8
レイヤー_2
 62
     7
100
AcDbVertex
100
AcDb2dVertex
 10
168.213677
 20
220.362088
 30
0.0
  0
VERTEX
  5
292
100
AcDbEntity
  8
レイヤー_2
 62
     7
100
AcDbVertex
100
AcDb2dVertex
 10
168.465169
 20
220.676108
 30
0.0
  0
VERTEX
  5
293
100
AcDbEntity
  8
レイヤー_2
 62
     7
100
AcDbVertex
100
AcDb2dVertex
 10
168.716661
 20
221.053346
 30
0.0
  0
VERTEX
  5
294
100
AcDbEntity
  8
レイヤー_2
 62
     7
100
AcDbVertex
100
AcDb2dVertex
 10
169.031198
 20
221.304321
 30
0.0
  0
VERTEX
  5
295
100
AcDbEntity
  8
レイヤー_2
 62
     7
100
AcDbVertex
100
AcDb2dVertex
 10
169.408436
 20
221.555469
 30
0.0
  0
VERTEX
  5
296
100
AcDbEntity
  8
レイヤー_2
 62
     7
100
AcDbVertex
100
AcDb2dVertex
 10
169.784985
 20
221.744432
 30
0.0
  0
VERTEX
  5
297
100
AcDbEntity
  8
レイヤー_2
 62
     7
100
AcDbVertex
100
AcDb2dVertex
 10
170.224924
 20
221.806961
 30
0.0
  0
VERTEX
  5
298
100
AcDbEntity
  8
レイヤー_2
 62
     7
100
AcDbVertex
100
AcDb2dVertex
 10
170.602507
 20
221.870523
 30
0.0
  0
VERTEX
  5
299
100
AcDbEntity
  8
レイヤー_2
 62
     7
100
AcDbVertex
100
AcDb2dVertex
 10
171.042101
 20
221.870523
 30
0.0
  0
VERTEX
  5
29A
100
AcDbEntity
  8
レイヤー_2
 62
     7
100
AcDbVertex
100
AcDb2dVertex
 10
171.481006
 20
221.806961
 30
0.0
  0
VERTEX
  5
29B
100
AcDbEntity
  8
レイヤー_2
 62
     7
100
AcDbVertex
100
AcDb2dVertex
 10
172.236171
 20
221.430412
 30
0.0
  0
VERTEX
  5
29C
100
AcDbEntity
  8
レイヤー_2
 62
     7
100
AcDbVertex
100
AcDb2dVertex
 10
172.550019
 20
221.17892
 30
0.0
  0
VERTEX
  5
29D
100
AcDbEntity
  8
レイヤー_2
 62
     7
100
AcDbVertex
100
AcDb2dVertex
 10
172.864901
 20
220.864727
 30
0.0
  0
VERTEX
  5
29E
100
AcDbEntity
  8
レイヤー_2
 62
     7
100
AcDbVertex
100
AcDb2dVertex
 10
173.115704
 20
220.550879
 30
0.0
  0
VERTEX
  5
29F
100
AcDbEntity
  8
レイヤー_2
 62
     7
100
AcDbVertex
100
AcDb2dVertex
 10
173.305184
 20
220.173296
 30
0.0
  0
VERTEX
  5
2A0
100
AcDbEntity
  8
レイヤー_2
 62
     7
100
AcDbVertex
100
AcDb2dVertex
 10
173.43093
 20
219.73353
 30
0.0
  0
VERTEX
  5
2A1
100
AcDbEntity
  8
レイヤー_2
 62
     7
100
AcDbVertex
100
AcDb2dVertex
 10
173.49432
 20
219.293419
 30
0.0
  0
VERTEX
  5
2A2
100
AcDbEntity
  8
レイヤー_2
 62
     7
100
AcDbVertex
100
AcDb2dVertex
 10
173.49432
 20
218.915837
 30
0.0
  0
VERTEX
  5
2A3
100
AcDbEntity
  8
レイヤー_2
 62
     7
100
AcDbVertex
100
AcDb2dVertex
 10
173.43093
 20
218.476587
 30
0.0
  0
VERTEX
  5
2A4
100
AcDbEntity
  8
レイヤー_2
 62
     7
100
AcDbVertex
100
AcDb2dVertex
 10
173.305184
 20
218.036304
 30
0.0
  0
VERTEX
  5
2A5
100
AcDbEntity
  8
レイヤー_2
 62
     7
100
AcDbVertex
100
AcDb2dVertex
 10
173.115704
 20
217.659066
 30
0.0
  0
VERTEX
  5
2A6
100
AcDbEntity
  8
レイヤー_2
 62
     7
100
AcDbVertex
100
AcDb2dVertex
 10
172.864901
 20
217.345218
 30
0.0
  0
VERTEX
  5
2A7
100
AcDbEntity
  8
レイヤー_2
 62
     7
100
AcDbVertex
100
AcDb2dVertex
 10
172.550019
 20
217.031197
 30
0.0
  0
VERTEX
  5
2A8
100
AcDbEntity
  8
レイヤー_2
 62
     7
100
AcDbVertex
100
AcDb2dVertex
 10
172.236171
 20
216.778844
 30
0.0
  0
VERTEX
  5
2A9
100
AcDbEntity
  8
レイヤー_2
 62
     7
100
AcDbVertex
100
AcDb2dVertex
 10
171.859622
 20
216.591086
 30
0.0
  0
VERTEX
  5
2AA
100
AcDbEntity
  8
レイヤー_2
 62
     7
100
AcDbVertex
100
AcDb2dVertex
 10
171.481006
 20
216.402123
 30
0.0
  0
VERTEX
  5
2AB
100
AcDbEntity
  8
レイヤー_2
 62
     7
100
AcDbVertex
100
AcDb2dVertex
 10
171.042101
 20
216.33925
 30
0.0
  0
VERTEX
  5
2AC
100
AcDbEntity
  8
レイヤー_2
 62
     7
100
AcDbVertex
100
AcDb2dVertex
 10
170.602507
 20
216.33925
 30
0.0
  0
VERTEX
  5
2AD
100
AcDbEntity
  8
レイヤー_2
 62
     7
100
AcDbVertex
100
AcDb2dVertex
 10
170.224924
 20
216.402123
 30
0.0
  0
VERTEX
  5
2AE
100
AcDbEntity
  8
レイヤー_2
 62
     7
100
AcDbVertex
100
AcDb2dVertex
 10
169.784985
 20
216.46534
 30
0.0
  0
VERTEX
  5
2AF
100
AcDbEntity
  8
レイヤー_2
 62
     7
100
AcDbVertex
100
AcDb2dVertex
 10
169.408436
 20
216.653959
 30
0.0
  0
VERTEX
  5
2B0
100
AcDbEntity
  8
レイヤー_2
 62
     7
100
AcDbVertex
100
AcDb2dVertex
 10
169.031198
 20
216.904934
 30
0.0
  0
VERTEX
  5
2B1
100
AcDbEntity
  8
レイヤー_2
 62
     7
100
AcDbVertex
100
AcDb2dVertex
 10
168.716661
 20
217.156082
 30
0.0
  0
VERTEX
  5
2B2
100
AcDbEntity
  8
レイヤー_2
 62
     7
100
AcDbVertex
100
AcDb2dVertex
 10
168.465169
 20
217.533664
 30
0.0
  0
VERTEX
  5
2B3
100
AcDbEntity
  8
レイヤー_2
 62
     7
100
AcDbVertex
100
AcDb2dVertex
 10
168.213677
 20
217.847168
 30
0.0
  0
VERTEX
  5
2B4
100
AcDbEntity
  8
レイヤー_2
 62
     7
100
AcDbVertex
100
AcDb2dVertex
 10
168.087242
 20
218.287796
 30
0.0
  0
VERTEX
  5
2B5
100
AcDbEntity
  8
レイヤー_2
 62
     7
100
AcDbVertex
100
AcDb2dVertex
 10
167.962185
 20
218.664861
 30
0.0
  0
VERTEX
  5
2B6
100
AcDbEntity
  8
レイヤー_2
 62
     7
100
AcDbVertex
100
AcDb2dVertex
 10
167.962185
 20
219.104628
 30
0.0
  0
SEQEND
  5
2B7
100
AcDbEntity
  8
レイヤー_2
 62
     7
  0
POLYLINE
  5
286
100
AcDbEntity
  8
レイヤー_2
 62
     7
100
AcDb2dPolyline
 66
     1
 10
0.0
 20
0.0
 30
0.0
  0
VERTEX
  5
287
100
AcDbEntity
  8
レイヤー_2
 62
     7
100
AcDbVertex
100
AcDb2dVertex
 10
173.49432
 20
218.664861
 30
0.0
  0
VERTEX
  5
288
100
AcDbEntity
  8
レイヤー_2
 62
     7
100
AcDbVertex
100
AcDb2dVertex
 10
173.49432
 20
218.413369
 30
0.0
  0
VERTEX
  5
289
100
AcDbEntity
  8
レイヤー_2
 62
     7
100
AcDbVertex
100
AcDb2dVertex
 10
173.43093
 20
218.036304
 30
0.0
  0
VERTEX
  5
28A
100
AcDbEntity
  8
レイヤー_2
 62
     7
100
AcDbVertex
100
AcDb2dVertex
 10
173.305184
 20
217.596193
 30
0.0
  0
VERTEX
  5
28B
100
AcDbEntity
  8
レイヤー_2
 62
     7
100
AcDbVertex
100
AcDb2dVertex
 10
173.178749
 20
217.345218
 30
0.0
  0
SEQEND
  5
28C
100
AcDbEntity
  8
レイヤー_2
 62
     7
  0
POLYLINE
  5
27B
100
AcDbEntity
  8
レイヤー_2
 62
     7
100
AcDb2dPolyline
 66
     1
 10
0.0
 20
0.0
 30
0.0
  0
VERTEX
  5
27C
100
AcDbEntity
  8
レイヤー_2
 62
     7
100
AcDbVertex
100
AcDb2dVertex
 10
168.276723
 20
217.659066
 30
0.0
  0
VERTEX
  5
27D
100
AcDbEntity
  8
レイヤー_2
 62
     7
100
AcDbVertex
100
AcDb2dVertex
 10
168.716661
 20
217.093726
 30
0.0
  0
VERTEX
  5
27E
100
AcDbEntity
  8
レイヤー_2
 62
     7
100
AcDbVertex
100
AcDb2dVertex
 10
169.282001
 20
216.653959
 30
0.0
  0
VERTEX
  5
27F
100
AcDbEntity
  8
レイヤー_2
 62
     7
100
AcDbVertex
100
AcDb2dVertex
 10
169.974466
 20
216.402123
 30
0.0
  0
VERTEX
  5
280
100
AcDbEntity
  8
レイヤー_2
 62
     7
100
AcDbVertex
100
AcDb2dVertex
 10
170.727563
 20
216.276377
 30
0.0
  0
VERTEX
  5
281
100
AcDbEntity
  8
レイヤー_2
 62
     7
100
AcDbVertex
100
AcDb2dVertex
 10
171.481006
 20
216.402123
 30
0.0
  0
VERTEX
  5
282
100
AcDbEntity
  8
レイヤー_2
 62
     7
100
AcDbVertex
100
AcDb2dVertex
 10
172.173126
 20
216.653959
 30
0.0
  0
VERTEX
  5
283
100
AcDbEntity
  8
レイヤー_2
 62
     7
100
AcDbVertex
100
AcDb2dVertex
 10
172.739155
 20
217.093726
 30
0.0
  0
VERTEX
  5
284
100
AcDbEntity
  8
レイヤー_2
 62
     7
100
AcDbVertex
100
AcDb2dVertex
 10
173.178749
 20
217.659066
 30
0.0
  0
SEQEND
  5
285
100
AcDbEntity
  8
レイヤー_2
 62
     7
  0
POLYLINE
  5
274
100
AcDbEntity
  8
レイヤー_2
 62
     7
100
AcDb2dPolyline
 66
     1
 10
0.0
 20
0.0
 30
0.0
  0
VERTEX
  5
275
100
AcDbEntity
  8
レイヤー_2
 62
     7
100
AcDbVertex
100
AcDb2dVertex
 10
173.178749
 20
217.345218
 30
0.0
  0
VERTEX
  5
276
100
AcDbEntity
  8
レイヤー_2
 62
     7
100
AcDbVertex
100
AcDb2dVertex
 10
173.305184
 20
217.596193
 30
0.0
  0
VERTEX
  5
277
100
AcDbEntity
  8
レイヤー_2
 62
     7
100
AcDbVertex
100
AcDb2dVertex
 10
173.43093
 20
218.036304
 30
0.0
  0
VERTEX
  5
278
100
AcDbEntity
  8
レイヤー_2
 62
     7
100
AcDbVertex
100
AcDb2dVertex
 10
173.49432
 20
218.413369
 30
0.0
  0
VERTEX
  5
279
100
AcDbEntity
  8
レイヤー_2
 62
     7
100
AcDbVertex
100
AcDb2dVertex
 10
173.49432
 20
218.664861
 30
0.0
  0
SEQEND
  5
27A
100
AcDbEntity
  8
レイヤー_2
 62
     7
  0
LINE
  5
273
100
AcDbEntity
  8
レイヤー_2
 62
     7
100
AcDbLine
 10
170.727563
 20
184.474528
 30
0.0
 11
175.19034
 21
184.474528
 31
0.0
  0
LINE
  5
272
100
AcDbEntity
  8
レイヤー_2
 62
     7
100
AcDbLine
 10
166.266165
 20
184.474528
 30
0.0
 11
170.727563
 21
184.474528
 31
0.0
  0
LINE
  5
271
100
AcDbEntity
  8
レイヤー_2
 62
     7
100
AcDbLine
 10
175.379131
 20
184.410966
 30
0.0
 11
166.07634
 21
184.410966
 31
0.0
  0
POLYLINE
  5
26A
100
AcDbEntity
  8
レイヤー_2
 62
     7
100
AcDb2dPolyline
 66
     1
 10
0.0
 20
0.0
 30
0.0
  0
VERTEX
  5
26B
100
AcDbEntity
  8
レイヤー_2
 62
     7
100
AcDbVertex
100
AcDb2dVertex
 10
173.178749
 20
216.591086
 30
0.0
  0
VERTEX
  5
26C
100
AcDbEntity
  8
レイヤー_2
 62
     7
100
AcDbVertex
100
AcDb2dVertex
 10
173.305184
 20
216.842234
 30
0.0
  0
VERTEX
  5
26D
100
AcDbEntity
  8
レイヤー_2
 62
     7
100
AcDbVertex
100
AcDb2dVertex
 10
173.43093
 20
217.282172
 30
0.0
  0
VERTEX
  5
26E
100
AcDbEntity
  8
レイヤー_2
 62
     7
100
AcDbVertex
100
AcDb2dVertex
 10
173.49432
 20
217.659066
 30
0.0
  0
VERTEX
  5
26F
100
AcDbEntity
  8
レイヤー_2
 62
     7
100
AcDbVertex
100
AcDb2dVertex
 10
173.49432
 20
217.910558
 30
0.0
  0
SEQEND
  5
270
100
AcDbEntity
  8
レイヤー_2
 62
     7
  0
LINE
  5
269
100
AcDbEntity
  8
レイヤー_2
 62
     7
100
AcDbLine
 10
185.309619
 20
172.029465
 30
0.0
 11
186.188808
 21
172.029465
 31
0.0
  0
LINE
  5
268
100
AcDbEntity
  8
レイヤー_2
 62
     7
100
AcDbLine
 10
183.926413
 20
171.966592
 30
0.0
 11
184.366007
 21
172.029465
 31
0.0
  0
LINE
  5
267
100
AcDbEntity
  8
レイヤー_2
 62
     7
100
AcDbLine
 10
182.354761
 20
179.948706
 30
0.0
 11
182.103269
 21
179.948706
 31
0.0
  0
LINE
  5
266
100
AcDbEntity
  8
レイヤー_2
 62
     7
100
AcDbLine
 10
186.315243
 20
172.1559
 30
0.0
 11
186.315243
 21
193.965077
 31
0.0
  0
LINE
  5
265
100
AcDbEntity
  8
レイヤー_2
 62
     7
100
AcDbLine
 10
181.663675
 20
172.280957
 30
0.0
 11
181.663675
 21
172.344175
 31
0.0
  0
LINE
  5
264
100
AcDbEntity
  8
レイヤー_2
 62
     7
100
AcDbLine
 10
181.663675
 20
179.571468
 30
0.0
 11
181.663675
 21
179.634169
 31
0.0
  0
LINE
  5
263
100
AcDbEntity
  8
レイヤー_2
 62
     7
100
AcDbLine
 10
182.040568
 20
179.446239
 30
0.0
 11
181.789765
 21
179.446239
 31
0.0
  0
LINE
  5
262
100
AcDbEntity
  8
レイヤー_2
 62
     7
100
AcDbLine
 10
181.789765
 20
172.469404
 30
0.0
 11
182.166314
 21
172.469404
 31
0.0
  0
LINE
  5
261
100
AcDbEntity
  8
レイヤー_2
 62
     7
100
AcDbLine
 10
175.629934
 20
171.966592
 30
0.0
 11
181.537584
 21
171.966592
 31
0.0
  0
LINE
  5
260
100
AcDbEntity
  8
レイヤー_2
 62
     7
100
AcDbLine
 10
181.537584
 20
179.948706
 30
0.0
 11
175.629934
 21
179.948706
 31
0.0
  0
LINE
  5
25F
100
AcDbEntity
  8
レイヤー_2
 62
     7
100
AcDbLine
 10
183.863368
 20
172.029465
 30
0.0
 11
183.926413
 21
171.966592
 31
0.0
  0
LINE
  5
25E
100
AcDbEntity
  8
レイヤー_2
 62
     7
100
AcDbLine
 10
184.492098
 20
172.029465
 30
0.0
 11
184.429397
 21
172.029465
 31
0.0
  0
LINE
  5
25D
100
AcDbEntity
  8
レイヤー_2
 62
     7
100
AcDbLine
 10
183.863368
 20
172.029465
 30
0.0
 11
182.040568
 21
175.989086
 31
0.0
  0
LINE
  5
25C
100
AcDbEntity
  8
レイヤー_2
 62
     7
100
AcDbLine
 10
186.315243
 20
179.634169
 30
0.0
 11
186.315243
 21
179.571468
 31
0.0
  0
LINE
  5
25B
100
AcDbEntity
  8
レイヤー_2
 62
     7
100
AcDbLine
 10
186.315243
 20
172.344175
 30
0.0
 11
186.315243
 21
172.217223
 31
0.0
  0
LINE
  5
25A
100
AcDbEntity
  8
レイヤー_2
 62
     7
100
AcDbLine
 10
186.315243
 20
172.217223
 30
0.0
 11
186.315243
 21
172.1559
 31
0.0
  0
LINE
  5
259
100
AcDbEntity
  8
レイヤー_2
 62
     7
100
AcDbLine
 10
182.040568
 20
175.989086
 30
0.0
 11
182.040568
 21
179.886005
 31
0.0
  0
LINE
  5
258
100
AcDbEntity
  8
レイヤー_2
 62
     7
100
AcDbLine
 10
186.315243
 20
193.965077
 30
0.0
 11
186.315243
 21
179.948706
 31
0.0
  0
LINE
  5
257
100
AcDbEntity
  8
レイヤー_2
 62
     7
100
AcDbLine
 10
182.040568
 20
179.446239
 30
0.0
 11
182.040568
 21
179.697731
 31
0.0
  0
LINE
  5
256
100
AcDbEntity
  8
レイヤー_2
 62
     7
100
AcDbLine
 10
182.606253
 20
180.137325
 30
0.0
 11
182.606253
 21
180.200198
 31
0.0
  0
LINE
  5
255
100
AcDbEntity
  8
レイヤー_2
 62
     7
100
AcDbLine
 10
182.606253
 20
180.200198
 30
0.0
 11
182.606253
 21
193.965077
 31
0.0
  0
LINE
  5
254
100
AcDbEntity
  8
レイヤー_2
 62
     7
100
AcDbLine
 10
182.732343
 20
194.153352
 30
0.0
 11
186.188808
 21
194.089789
 31
0.0
  0
LINE
  5
253
100
AcDbEntity
  8
レイヤー_2
 62
     7
100
AcDbLine
 10
186.315243
 20
193.965077
 30
0.0
 11
186.315243
 21
194.027606
 31
0.0
  0
LINE
  5
252
100
AcDbEntity
  8
レイヤー_2
 62
     7
100
AcDbLine
 10
186.315243
 20
194.027606
 30
0.0
 11
186.252197
 21
194.027606
 31
0.0
  0
LINE
  5
251
100
AcDbEntity
  8
レイヤー_2
 62
     7
100
AcDbLine
 10
186.252197
 20
194.027606
 30
0.0
 11
186.252197
 21
194.089789
 31
0.0
  0
LINE
  5
250
100
AcDbEntity
  8
レイヤー_2
 62
     7
100
AcDbLine
 10
186.252197
 20
194.089789
 30
0.0
 11
186.188808
 21
194.089789
 31
0.0
  0
LINE
  5
24F
100
AcDbEntity
  8
レイヤー_2
 62
     7
100
AcDbLine
 10
181.663675
 20
175.989086
 30
0.0
 11
181.663675
 21
179.760259
 31
0.0
  0
LINE
  5
24E
100
AcDbEntity
  8
レイヤー_2
 62
     7
100
AcDbLine
 10
181.663675
 20
172.1559
 30
0.0
 11
181.663675
 21
175.989086
 31
0.0
  0
LINE
  5
24D
100
AcDbEntity
  8
レイヤー_2
 62
     7
100
AcDbLine
 10
175.379131
 20
171.714411
 30
0.0
 11
175.316086
 21
171.714411
 31
0.0
  0
LINE
  5
24C
100
AcDbEntity
  8
レイヤー_2
 62
     7
100
AcDbLine
 10
175.316086
 20
171.714411
 30
0.0
 11
175.253041
 21
171.778318
 31
0.0
  0
LINE
  5
24B
100
AcDbEntity
  8
レイヤー_2
 62
     7
100
AcDbLine
 10
175.253041
 20
171.778318
 30
0.0
 11
175.12695
 21
171.966592
 31
0.0
  0
LINE
  5
24A
100
AcDbEntity
  8
レイヤー_2
 62
     7
100
AcDbLine
 10
175.12695
 20
171.966592
 30
0.0
 11
174.938848
 21
172.1559
 31
0.0
  0
LINE
  5
249
100
AcDbEntity
  8
レイヤー_2
 62
     7
100
AcDbLine
 10
174.938848
 20
172.1559
 30
0.0
 11
174.750057
 21
172.469404
 31
0.0
  0
LINE
  5
248
100
AcDbEntity
  8
レイヤー_2
 62
     7
100
AcDbLine
 10
174.750057
 20
172.469404
 30
0.0
 11
174.372819
 21
172.972043
 31
0.0
  0
LINE
  5
247
100
AcDbEntity
  8
レイヤー_2
 62
     7
100
AcDbLine
 10
174.372819
 20
172.972043
 30
0.0
 11
173.996959
 21
173.538072
 31
0.0
  0
LINE
  5
246
100
AcDbEntity
  8
レイヤー_2
 62
     7
100
AcDbLine
 10
173.996959
 20
173.538072
 30
0.0
 11
173.555298
 21
174.229331
 31
0.0
  0
LINE
  5
245
100
AcDbEntity
  8
レイヤー_2
 62
     7
100
AcDbLine
 10
173.555298
 20
174.229331
 30
0.0
 11
173.178749
 21
174.983634
 31
0.0
  0
LINE
  5
244
100
AcDbEntity
  8
レイヤー_2
 62
     7
100
AcDbLine
 10
173.178749
 20
174.983634
 30
0.0
 11
173.115704
 21
175.360183
 31
0.0
  0
LINE
  5
243
100
AcDbEntity
  8
レイヤー_2
 62
     7
100
AcDbLine
 10
173.115704
 20
175.360183
 30
0.0
 11
173.052314
 21
175.737766
 31
0.0
  0
LINE
  5
242
100
AcDbEntity
  8
レイヤー_2
 62
     7
100
AcDbLine
 10
173.052314
 20
175.737766
 30
0.0
 11
173.052314
 21
176.303451
 31
0.0
  0
LINE
  5
241
100
AcDbEntity
  8
レイヤー_2
 62
     7
100
AcDbLine
 10
173.052314
 20
176.303451
 30
0.0
 11
173.115704
 21
176.743389
 31
0.0
  0
LINE
  5
240
100
AcDbEntity
  8
レイヤー_2
 62
     7
100
AcDbLine
 10
173.115704
 20
176.743389
 30
0.0
 11
173.305184
 21
177.246029
 31
0.0
  0
LINE
  5
23F
100
AcDbEntity
  8
レイヤー_2
 62
     7
100
AcDbLine
 10
173.305184
 20
177.246029
 30
0.0
 11
173.618343
 21
177.874586
 31
0.0
  0
LINE
  5
23E
100
AcDbEntity
  8
レイヤー_2
 62
     7
100
AcDbLine
 10
173.618343
 20
177.874586
 30
0.0
 11
173.996959
 21
178.440443
 31
0.0
  0
LINE
  5
23D
100
AcDbEntity
  8
レイヤー_2
 62
     7
100
AcDbLine
 10
173.996959
 20
178.440443
 30
0.0
 11
174.435864
 21
179.006128
 31
0.0
  0
LINE
  5
23C
100
AcDbEntity
  8
レイヤー_2
 62
     7
100
AcDbLine
 10
174.435864
 20
179.006128
 30
0.0
 11
174.750057
 21
179.509456
 31
0.0
  0
LINE
  5
23B
100
AcDbEntity
  8
レイヤー_2
 62
     7
100
AcDbLine
 10
174.750057
 20
179.509456
 30
0.0
 11
175.002238
 21
179.82296
 31
0.0
  0
LINE
  5
23A
100
AcDbEntity
  8
レイヤー_2
 62
     7
100
AcDbLine
 10
175.002238
 20
179.82296
 30
0.0
 11
175.19034
 21
180.012096
 31
0.0
  0
LINE
  5
239
100
AcDbEntity
  8
レイヤー_2
 62
     7
100
AcDbLine
 10
175.19034
 20
180.012096
 30
0.0
 11
175.316086
 21
180.137325
 31
0.0
  0
LINE
  5
238
100
AcDbEntity
  8
レイヤー_2
 62
     7
100
AcDbLine
 10
175.316086
 20
180.137325
 30
0.0
 11
175.379131
 21
180.200198
 31
0.0
  0
LINE
  5
237
100
AcDbEntity
  8
レイヤー_2
 62
     7
100
AcDbLine
 10
186.315243
 20
172.1559
 30
0.0
 11
186.315243
 21
172.217223
 31
0.0
  0
POLYLINE
  5
232
100
AcDbEntity
  8
レイヤー_2
 62
     7
100
AcDb2dPolyline
 66
     1
 10
0.0
 20
0.0
 30
0.0
  0
VERTEX
  5
233
100
AcDbEntity
  8
レイヤー_2
 62
     7
100
AcDbVertex
100
AcDb2dVertex
 10
186.188808
 20
172.029465
 30
0.0
  0
VERTEX
  5
234
100
AcDbEntity
  8
レイヤー_2
 62
     7
100
AcDbVertex
100
AcDb2dVertex
 10
186.252197
 20
172.092683
 30
0.0
  0
VERTEX
  5
235
100
AcDbEntity
  8
レイヤー_2
 62
     7
100
AcDbVertex
100
AcDb2dVertex
 10
186.315243
 20
172.1559
 30
0.0
  0
SEQEND
  5
236
100
AcDbEntity
  8
レイヤー_2
 62
     7
  0
POLYLINE
  5
22D
100
AcDbEntity
  8
レイヤー_2
 62
     7
100
AcDb2dPolyline
 66
     1
 10
0.0
 20
0.0
 30
0.0
  0
VERTEX
  5
22E
100
AcDbEntity
  8
レイヤー_2
 62
     7
100
AcDbVertex
100
AcDb2dVertex
 10
182.103269
 20
179.948706
 30
0.0
  0
VERTEX
  5
22F
100
AcDbEntity
  8
レイヤー_2
 62
     7
100
AcDbVertex
100
AcDb2dVertex
 10
182.040568
 20
179.948706
 30
0.0
  0
VERTEX
  5
230
100
AcDbEntity
  8
レイヤー_2
 62
     7
100
AcDbVertex
100
AcDb2dVertex
 10
182.040568
 20
179.886005
 30
0.0
  0
SEQEND
  5
231
100
AcDbEntity
  8
レイヤー_2
 62
     7
  0
POLYLINE
  5
228
100
AcDbEntity
  8
レイヤー_2
 62
     7
100
AcDb2dPolyline
 66
     1
 10
0.0
 20
0.0
 30
0.0
  0
VERTEX
  5
229
100
AcDbEntity
  8
レイヤー_2
 62
     7
100
AcDbVertex
100
AcDb2dVertex
 10
182.354761
 20
179.948706
 30
0.0
  0
VERTEX
  5
22A
100
AcDbEntity
  8
レイヤー_2
 62
     7
100
AcDbVertex
100
AcDb2dVertex
 10
182.542863
 20
180.012096
 30
0.0
  0
VERTEX
  5
22B
100
AcDbEntity
  8
レイヤー_2
 62
     7
100
AcDbVertex
100
AcDb2dVertex
 10
182.606253
 20
180.200198
 30
0.0
  0
SEQEND
  5
22C
100
AcDbEntity
  8
レイヤー_2
 62
     7
  0
POLYLINE
  5
223
100
AcDbEntity
  8
レイヤー_2
 62
     7
100
AcDb2dPolyline
 66
     1
 10
0.0
 20
0.0
 30
0.0
  0
VERTEX
  5
224
100
AcDbEntity
  8
レイヤー_2
 62
     7
100
AcDbVertex
100
AcDb2dVertex
 10
186.315243
 20
193.965077
 30
0.0
  0
VERTEX
  5
225
100
AcDbEntity
  8
レイヤー_2
 62
     7
100
AcDbVertex
100
AcDb2dVertex
 10
186.252197
 20
194.027606
 30
0.0
  0
VERTEX
  5
226
100
AcDbEntity
  8
レイヤー_2
 62
     7
100
AcDbVertex
100
AcDb2dVertex
 10
186.188808
 20
194.089789
 30
0.0
  0
SEQEND
  5
227
100
AcDbEntity
  8
レイヤー_2
 62
     7
  0
POLYLINE
  5
21E
100
AcDbEntity
  8
レイヤー_2
 62
     7
100
AcDb2dPolyline
 66
     1
 10
0.0
 20
0.0
 30
0.0
  0
VERTEX
  5
21F
100
AcDbEntity
  8
レイヤー_2
 62
     7
100
AcDbVertex
100
AcDb2dVertex
 10
181.663675
 20
179.571468
 30
0.0
  0
VERTEX
  5
220
100
AcDbEntity
  8
レイヤー_2
 62
     7
100
AcDbVertex
100
AcDb2dVertex
 10
181.72672
 20
179.446239
 30
0.0
  0
VERTEX
  5
221
100
AcDbEntity
  8
レイヤー_2
 62
     7
100
AcDbVertex
100
AcDb2dVertex
 10
181.789765
 20
179.446239
 30
0.0
  0
SEQEND
  5
222
100
AcDbEntity
  8
レイヤー_2
 62
     7
  0
POLYLINE
  5
219
100
AcDbEntity
  8
レイヤー_2
 62
     7
100
AcDb2dPolyline
 66
     1
 10
0.0
 20
0.0
 30
0.0
  0
VERTEX
  5
21A
100
AcDbEntity
  8
レイヤー_2
 62
     7
100
AcDbVertex
100
AcDb2dVertex
 10
181.789765
 20
172.469404
 30
0.0
  0
VERTEX
  5
21B
100
AcDbEntity
  8
レイヤー_2
 62
     7
100
AcDbVertex
100
AcDb2dVertex
 10
181.72672
 20
172.469404
 30
0.0
  0
VERTEX
  5
21C
100
AcDbEntity
  8
レイヤー_2
 62
     7
100
AcDbVertex
100
AcDb2dVertex
 10
181.663675
 20
172.344175
 30
0.0
  0
SEQEND
  5
21D
100
AcDbEntity
  8
レイヤー_2
 62
     7
  0
POLYLINE
  5
214
100
AcDbEntity
  8
レイヤー_2
 62
     7
100
AcDb2dPolyline
 66
     1
 10
0.0
 20
0.0
 30
0.0
  0
VERTEX
  5
215
100
AcDbEntity
  8
レイヤー_2
 62
     7
100
AcDbVertex
100
AcDb2dVertex
 10
182.166314
 20
172.469404
 30
0.0
  0
VERTEX
  5
216
100
AcDbEntity
  8
レイヤー_2
 62
     7
100
AcDbVertex
100
AcDb2dVertex
 10
183.045847
 20
172.595494
 30
0.0
  0
VERTEX
  5
217
100
AcDbEntity
  8
レイヤー_2
 62
     7
100
AcDbVertex
100
AcDb2dVertex
 10
183.550209
 20
172.78308
 30
0.0
  0
SEQEND
  5
218
100
AcDbEntity
  8
レイヤー_2
 62
     7
  0
POLYLINE
  5
20F
100
AcDbEntity
  8
レイヤー_2
 62
     7
100
AcDb2dPolyline
 66
     1
 10
0.0
 20
0.0
 30
0.0
  0
VERTEX
  5
210
100
AcDbEntity
  8
レイヤー_2
 62
     7
100
AcDbVertex
100
AcDb2dVertex
 10
175.629934
 20
171.966592
 30
0.0
  0
VERTEX
  5
211
100
AcDbEntity
  8
レイヤー_2
 62
     7
100
AcDbVertex
100
AcDb2dVertex
 10
175.441143
 20
171.903375
 30
0.0
  0
VERTEX
  5
212
100
AcDbEntity
  8
レイヤー_2
 62
     7
100
AcDbVertex
100
AcDb2dVertex
 10
175.379131
 20
171.714411
 30
0.0
  0
SEQEND
  5
213
100
AcDbEntity
  8
レイヤー_2
 62
     7
  0
POLYLINE
  5
20A
100
AcDbEntity
  8
レイヤー_2
 62
     7
100
AcDb2dPolyline
 66
     1
 10
0.0
 20
0.0
 30
0.0
  0
VERTEX
  5
20B
100
AcDbEntity
  8
レイヤー_2
 62
     7
100
AcDbVertex
100
AcDb2dVertex
 10
175.379131
 20
180.200198
 30
0.0
  0
VERTEX
  5
20C
100
AcDbEntity
  8
レイヤー_2
 62
     7
100
AcDbVertex
100
AcDb2dVertex
 10
175.441143
 20
180.012096
 30
0.0
  0
VERTEX
  5
20D
100
AcDbEntity
  8
レイヤー_2
 62
     7
100
AcDbVertex
100
AcDb2dVertex
 10
175.629934
 20
179.948706
 30
0.0
  0
SEQEND
  5
20E
100
AcDbEntity
  8
レイヤー_2
 62
     7
  0
POLYLINE
  5
205
100
AcDbEntity
  8
レイヤー_2
 62
     7
100
AcDb2dPolyline
 66
     1
 10
0.0
 20
0.0
 30
0.0
  0
VERTEX
  5
206
100
AcDbEntity
  8
レイヤー_2
 62
     7
100
AcDbVertex
100
AcDb2dVertex
 10
181.537584
 20
171.966592
 30
0.0
  0
VERTEX
  5
207
100
AcDbEntity
  8
レイヤー_2
 62
     7
100
AcDbVertex
100
AcDb2dVertex
 10
181.600285
 20
172.029465
 30
0.0
  0
VERTEX
  5
208
100
AcDbEntity
  8
レイヤー_2
 62
     7
100
AcDbVertex
100
AcDb2dVertex
 10
181.663675
 20
172.1559
 30
0.0
  0
SEQEND
  5
209
100
AcDbEntity
  8
レイヤー_2
 62
     7
  0
POLYLINE
  5
200
100
AcDbEntity
  8
レイヤー_2
 62
     7
100
AcDb2dPolyline
 66
     1
 10
0.0
 20
0.0
 30
0.0
  0
VERTEX
  5
201
100
AcDbEntity
  8
レイヤー_2
 62
     7
100
AcDbVertex
100
AcDb2dVertex
 10
181.663675
 20
179.760259
 30
0.0
  0
VERTEX
  5
202
100
AcDbEntity
  8
レイヤー_2
 62
     7
100
AcDbVertex
100
AcDb2dVertex
 10
181.600285
 20
179.886005
 30
0.0
  0
VERTEX
  5
203
100
AcDbEntity
  8
レイヤー_2
 62
     7
100
AcDbVertex
100
AcDb2dVertex
 10
181.537584
 20
179.948706
 30
0.0
  0
SEQEND
  5
204
100
AcDbEntity
  8
レイヤー_2
 62
     7
  0
POLYLINE
  5
1FB
100
AcDbEntity
  8
レイヤー_2
 62
     7
100
AcDb2dPolyline
 66
     1
 10
0.0
 20
0.0
 30
0.0
  0
VERTEX
  5
1FC
100
AcDbEntity
  8
レイヤー_2
 62
     7
100
AcDbVertex
100
AcDb2dVertex
 10
185.309619
 20
172.029465
 30
0.0
  0
VERTEX
  5
1FD
100
AcDbEntity
  8
レイヤー_2
 62
     7
100
AcDbVertex
100
AcDb2dVertex
 10
184.86968
 20
172.029465
 30
0.0
  0
VERTEX
  5
1FE
100
AcDbEntity
  8
レイヤー_2
 62
     7
100
AcDbVertex
100
AcDb2dVertex
 10
184.366007
 20
172.029465
 30
0.0
  0
SEQEND
  5
1FF
100
AcDbEntity
  8
レイヤー_2
 62
     7
  0
LINE
  5
1FA
100
AcDbEntity
  8
レイヤー_2
 62
     7
100
AcDbLine
 10
186.315243
 20
179.634169
 30
0.0
 11
186.315243
 21
179.948706
 31
0.0
  0
POLYLINE
  5
1F5
100
AcDbEntity
  8
レイヤー_2
 62
     7
100
AcDb2dPolyline
 66
     1
 10
0.0
 20
0.0
 30
0.0
  0
VERTEX
  5
1F6
100
AcDbEntity
  8
レイヤー_2
 62
     7
100
AcDbVertex
100
AcDb2dVertex
 10
182.732343
 20
194.153352
 30
0.0
  0
VERTEX
  5
1F7
100
AcDbEntity
  8
レイヤー_2
 62
     7
100
AcDbVertex
100
AcDb2dVertex
 10
182.669298
 20
194.089789
 30
0.0
  0
VERTEX
  5
1F8
100
AcDbEntity
  8
レイヤー_2
 62
     7
100
AcDbVertex
100
AcDb2dVertex
 10
182.606253
 20
193.965077
 30
0.0
  0
SEQEND
  5
1F9
100
AcDbEntity
  8
レイヤー_2
 62
     7
  0
LINE
  5
1F4
100
AcDbEntity
  8
レイヤー_2
 62
     7
100
AcDbLine
 10
168.276723
 20
214.328003
 30
0.0
 11
168.276723
 21
217.659066
 31
0.0
  0
LINE
  5
1F3
100
AcDbEntity
  8
レイヤー_2
 62
     7
100
AcDbLine
 10
167.962185
 20
218.664861
 30
0.0
 11
167.962185
 21
219.104628
 31
0.0
  0
LINE
  5
1F2
100
AcDbEntity
  8
レイヤー_2
 62
     7
100
AcDbLine
 10
167.962185
 20
217.910558
 30
0.0
 11
167.962185
 21
218.664861
 31
0.0
  0
POLYLINE
  5
1EB
100
AcDbEntity
  8
レイヤー_2
 62
     7
100
AcDb2dPolyline
 66
     1
 10
0.0
 20
0.0
 30
0.0
  0
VERTEX
  5
1EC
100
AcDbEntity
  8
レイヤー_2
 62
     7
100
AcDbVertex
100
AcDb2dVertex
 10
167.962185
 20
218.664861
 30
0.0
  0
VERTEX
  5
1ED
100
AcDbEntity
  8
レイヤー_2
 62
     7
100
AcDbVertex
100
AcDb2dVertex
 10
167.962185
 20
218.413369
 30
0.0
  0
VERTEX
  5
1EE
100
AcDbEntity
  8
レイヤー_2
 62
     7
100
AcDbVertex
100
AcDb2dVertex
 10
168.025231
 20
218.036304
 30
0.0
  0
VERTEX
  5
1EF
100
AcDbEntity
  8
レイヤー_2
 62
     7
100
AcDbVertex
100
AcDb2dVertex
 10
168.150632
 20
217.596193
 30
0.0
  0
VERTEX
  5
1F0
100
AcDbEntity
  8
レイヤー_2
 62
     7
100
AcDbVertex
100
AcDb2dVertex
 10
168.276723
 20
217.345218
 30
0.0
  0
SEQEND
  5
1F1
100
AcDbEntity
  8
レイヤー_2
 62
     7
  0
POLYLINE
  5
1E4
100
AcDbEntity
  8
レイヤー_2
 62
     7
100
AcDb2dPolyline
 66
     1
 10
0.0
 20
0.0
 30
0.0
  0
VERTEX
  5
1E5
100
AcDbEntity
  8
レイヤー_2
 62
     7
100
AcDbVertex
100
AcDb2dVertex
 10
168.276723
 20
217.345218
 30
0.0
  0
VERTEX
  5
1E6
100
AcDbEntity
  8
レイヤー_2
 62
     7
100
AcDbVertex
100
AcDb2dVertex
 10
168.150632
 20
217.596193
 30
0.0
  0
VERTEX
  5
1E7
100
AcDbEntity
  8
レイヤー_2
 62
     7
100
AcDbVertex
100
AcDb2dVertex
 10
168.025231
 20
218.036304
 30
0.0
  0
VERTEX
  5
1E8
100
AcDbEntity
  8
レイヤー_2
 62
     7
100
AcDbVertex
100
AcDb2dVertex
 10
167.962185
 20
218.413369
 30
0.0
  0
VERTEX
  5
1E9
100
AcDbEntity
  8
レイヤー_2
 62
     7
100
AcDbVertex
100
AcDb2dVertex
 10
167.962185
 20
218.664861
 30
0.0
  0
SEQEND
  5
1EA
100
AcDbEntity
  8
レイヤー_2
 62
     7
  0
POLYLINE
  5
1DD
100
AcDbEntity
  8
レイヤー_2
 62
     7
100
AcDb2dPolyline
 66
     1
 10
0.0
 20
0.0
 30
0.0
  0
VERTEX
  5
1DE
100
AcDbEntity
  8
レイヤー_2
 62
     7
100
AcDbVertex
100
AcDb2dVertex
 10
168.276723
 20
216.591086
 30
0.0
  0
VERTEX
  5
1DF
100
AcDbEntity
  8
レイヤー_2
 62
     7
100
AcDbVertex
100
AcDb2dVertex
 10
168.150632
 20
216.842234
 30
0.0
  0
VERTEX
  5
1E0
100
AcDbEntity
  8
レイヤー_2
 62
     7
100
AcDbVertex
100
AcDb2dVertex
 10
168.025231
 20
217.282172
 30
0.0
  0
VERTEX
  5
1E1
100
AcDbEntity
  8
レイヤー_2
 62
     7
100
AcDbVertex
100
AcDb2dVertex
 10
167.962185
 20
217.659066
 30
0.0
  0
VERTEX
  5
1E2
100
AcDbEntity
  8
レイヤー_2
 62
     7
100
AcDbVertex
100
AcDb2dVertex
 10
167.962185
 20
217.910558
 30
0.0
  0
SEQEND
  5
1E3
100
AcDbEntity
  8
レイヤー_2
 62
     7
  0
LINE
  5
1DC
100
AcDbEntity
  8
レイヤー_2
 62
     7
100
AcDbLine
 10
162.620565
 20
159.270898
 30
0.0
 11
178.83594
 21
159.270898
 31
0.0
  0
POLYLINE
  5
1CB
100
AcDbEntity
  8
レイヤー_2
 62
     7
100
AcDb2dPolyline
 66
     1
 10
0.0
 20
0.0
 30
0.0
  0
VERTEX
  5
1CC
100
AcDbEntity
  8
レイヤー_2
 62
     7
100
AcDbVertex
100
AcDb2dVertex
 10
167.774083
 20
131.490337
 30
0.0
  0
VERTEX
  5
1CD
100
AcDbEntity
  8
レイヤー_2
 62
     7
100
AcDbVertex
100
AcDb2dVertex
 10
167.899829
 20
131.427292
 30
0.0
  0
VERTEX
  5
1CE
100
AcDbEntity
  8
レイヤー_2
 62
     7
100
AcDbVertex
100
AcDb2dVertex
 10
167.962185
 20
131.36597
 30
0.0
  0
VERTEX
  5
1CF
100
AcDbEntity
  8
レイヤー_2
 62
     7
100
AcDbVertex
100
AcDb2dVertex
 10
168.087242
 20
131.36597
 30
0.0
  0
VERTEX
  5
1D0
100
AcDbEntity
  8
レイヤー_2
 62
     7
100
AcDbVertex
100
AcDb2dVertex
 10
168.213677
 20
131.302924
 30
0.0
  0
VERTEX
  5
1D1
100
AcDbEntity
  8
レイヤー_2
 62
     7
100
AcDbVertex
100
AcDb2dVertex
 10
168.339768
 20
131.302924
 30
0.0
  0
VERTEX
  5
1D2
100
AcDbEntity
  8
レイヤー_2
 62
     7
100
AcDbVertex
100
AcDb2dVertex
 10
168.465169
 20
131.239879
 30
0.0
  0
VERTEX
  5
1D3
100
AcDbEntity
  8
レイヤー_2
 62
     7
100
AcDbVertex
100
AcDb2dVertex
 10
169.408436
 20
131.239879
 30
0.0
  0
VERTEX
  5
1D4
100
AcDbEntity
  8
レイヤー_2
 62
     7
100
AcDbVertex
100
AcDb2dVertex
 10
169.533493
 20
131.302924
 30
0.0
  0
VERTEX
  5
1D5
100
AcDbEntity
  8
レイヤー_2
 62
     7
100
AcDbVertex
100
AcDb2dVertex
 10
169.722285
 20
131.302924
 30
0.0
  0
VERTEX
  5
1D6
100
AcDbEntity
  8
レイヤー_2
 62
     7
100
AcDbVertex
100
AcDb2dVertex
 10
169.848031
 20
131.36597
 30
0.0
  0
VERTEX
  5
1D7
100
AcDbEntity
  8
レイヤー_2
 62
     7
100
AcDbVertex
100
AcDb2dVertex
 10
170.036477
 20
131.36597
 30
0.0
  0
VERTEX
  5
1D8
100
AcDbEntity
  8
レイヤー_2
 62
     7
100
AcDbVertex
100
AcDb2dVertex
 10
170.161879
 20
131.427292
 30
0.0
  0
VERTEX
  5
1D9
100
AcDbEntity
  8
レイヤー_2
 62
     7
100
AcDbVertex
100
AcDb2dVertex
 10
170.287969
 20
131.427292
 30
0.0
  0
VERTEX
  5
1DA
100
AcDbEntity
  8
レイヤー_2
 62
     7
100
AcDbVertex
100
AcDb2dVertex
 10
170.476072
 20
131.490337
 30
0.0
  0
SEQEND
  5
1DB
100
AcDbEntity
  8
レイヤー_2
 62
     7
  0
POLYLINE
  5
1B9
100
AcDbEntity
  8
レイヤー_2
 62
     7
100
AcDb2dPolyline
 66
     1
 10
0.0
 20
0.0
 30
0.0
  0
VERTEX
  5
1BA
100
AcDbEntity
  8
レイヤー_2
 62
     7
100
AcDbVertex
100
AcDb2dVertex
 10
171.042101
 20
131.554416
 30
0.0
  0
VERTEX
  5
1BB
100
AcDbEntity
  8
レイヤー_2
 62
     7
100
AcDbVertex
100
AcDb2dVertex
 10
171.167158
 20
131.616772
 30
0.0
  0
VERTEX
  5
1BC
100
AcDbEntity
  8
レイヤー_2
 62
     7
100
AcDbVertex
100
AcDb2dVertex
 10
171.356638
 20
131.616772
 30
0.0
  0
VERTEX
  5
1BD
100
AcDbEntity
  8
レイヤー_2
 62
     7
100
AcDbVertex
100
AcDb2dVertex
 10
171.481006
 20
131.679473
 30
0.0
  0
VERTEX
  5
1BE
100
AcDbEntity
  8
レイヤー_2
 62
     7
100
AcDbVertex
100
AcDb2dVertex
 10
171.670831
 20
131.679473
 30
0.0
  0
VERTEX
  5
1BF
100
AcDbEntity
  8
レイヤー_2
 62
     7
100
AcDbVertex
100
AcDb2dVertex
 10
171.796577
 20
131.742518
 30
0.0
  0
VERTEX
  5
1C0
100
AcDbEntity
  8
レイヤー_2
 62
     7
100
AcDbVertex
100
AcDb2dVertex
 10
172.111114
 20
131.742518
 30
0.0
  0
VERTEX
  5
1C1
100
AcDbEntity
  8
レイヤー_2
 62
     7
100
AcDbVertex
100
AcDb2dVertex
 10
172.236171
 20
131.805908
 30
0.0
  0
VERTEX
  5
1C2
100
AcDbEntity
  8
レイヤー_2
 62
     7
100
AcDbVertex
100
AcDb2dVertex
 10
172.92829
 20
131.805908
 30
0.0
  0
VERTEX
  5
1C3
100
AcDbEntity
  8
レイヤー_2
 62
     7
100
AcDbVertex
100
AcDb2dVertex
 10
173.052314
 20
131.742518
 30
0.0
  0
VERTEX
  5
1C4
100
AcDbEntity
  8
レイヤー_2
 62
     7
100
AcDbVertex
100
AcDb2dVertex
 10
173.178749
 20
131.742518
 30
0.0
  0
VERTEX
  5
1C5
100
AcDbEntity
  8
レイヤー_2
 62
     7
100
AcDbVertex
100
AcDb2dVertex
 10
173.305184
 20
131.679473
 30
0.0
  0
VERTEX
  5
1C6
100
AcDbEntity
  8
レイヤー_2
 62
     7
100
AcDbVertex
100
AcDb2dVertex
 10
173.43093
 20
131.679473
 30
0.0
  0
VERTEX
  5
1C7
100
AcDbEntity
  8
レイヤー_2
 62
     7
100
AcDbVertex
100
AcDb2dVertex
 10
173.555298
 20
131.616772
 30
0.0
  0
VERTEX
  5
1C8
100
AcDbEntity
  8
レイヤー_2
 62
     7
100
AcDbVertex
100
AcDb2dVertex
 10
173.618343
 20
131.554416
 30
0.0
  0
VERTEX
  5
1C9
100
AcDbEntity
  8
レイヤー_2
 62
     7
100
AcDbVertex
100
AcDb2dVertex
 10
173.744778
 20
131.490337
 30
0.0
  0
SEQEND
  5
1CA
100
AcDbEntity
  8
レイヤー_2
 62
     7
  0
LINE
  5
1B8
100
AcDbEntity
  8
レイヤー_2
 62
     7
100
AcDbLine
 10
175.19034
 20
150.660571
 30
0.0
 11
175.19034
 21
150.974419
 31
0.0
  0
LINE
  5
1B7
100
AcDbEntity
  8
レイヤー_2
 62
     7
100
AcDbLine
 10
166.266165
 20
150.974419
 30
0.0
 11
166.266165
 21
150.723617
 31
0.0
  0
POLYLINE
  5
1B2
100
AcDbEntity
  8
レイヤー_2
 62
     7
100
AcDb2dPolyline
 66
     1
 10
0.0
 20
0.0
 30
0.0
  0
VERTEX
  5
1B3
100
AcDbEntity
  8
レイヤー_2
 62
     7
100
AcDbVertex
100
AcDb2dVertex
 10
165.950939
 20
149.465812
 30
0.0
  0
VERTEX
  5
1B4
100
AcDbEntity
  8
レイヤー_2
 62
     7
100
AcDbVertex
100
AcDb2dVertex
 10
165.950939
 20
149.402767
 30
0.0
  0
VERTEX
  5
1B5
100
AcDbEntity
  8
レイヤー_2
 62
     7
100
AcDbVertex
100
AcDb2dVertex
 10
166.013295
 20
149.402767
 30
0.0
  0
SEQEND
  5
1B6
100
AcDbEntity
  8
レイヤー_2
 62
     7
  0
POLYLINE
  5
1AD
100
AcDbEntity
  8
レイヤー_2
 62
     7
100
AcDb2dPolyline
 66
     1
 10
0.0
 20
0.0
 30
0.0
  0
VERTEX
  5
1AE
100
AcDbEntity
  8
レイヤー_2
 62
     7
100
AcDbVertex
100
AcDb2dVertex
 10
175.504533
 20
149.402767
 30
0.0
  0
VERTEX
  5
1AF
100
AcDbEntity
  8
レイヤー_2
 62
     7
100
AcDbVertex
100
AcDb2dVertex
 10
175.566889
 20
149.402767
 30
0.0
  0
VERTEX
  5
1B0
100
AcDbEntity
  8
レイヤー_2
 62
     7
100
AcDbVertex
100
AcDb2dVertex
 10
175.566889
 20
149.465812
 30
0.0
  0
SEQEND
  5
1B1
100
AcDbEntity
  8
レイヤー_2
 62
     7
  0
POLYLINE
  5
1A8
100
AcDbEntity
  8
レイヤー_2
 62
     7
100
AcDb2dPolyline
 66
     1
 10
0.0
 20
0.0
 30
0.0
  0
VERTEX
  5
1A9
100
AcDbEntity
  8
レイヤー_2
 62
     7
100
AcDbVertex
100
AcDb2dVertex
 10
166.013295
 20
150.723617
 30
0.0
  0
VERTEX
  5
1AA
100
AcDbEntity
  8
レイヤー_2
 62
     7
100
AcDbVertex
100
AcDb2dVertex
 10
165.950939
 20
150.660571
 30
0.0
  0
VERTEX
  5
1AB
100
AcDbEntity
  8
レイヤー_2
 62
     7
100
AcDbVertex
100
AcDb2dVertex
 10
165.950939
 20
150.597871
 30
0.0
  0
SEQEND
  5
1AC
100
AcDbEntity
  8
レイヤー_2
 62
     7
  0
POLYLINE
  5
1A3
100
AcDbEntity
  8
レイヤー_2
 62
     7
100
AcDb2dPolyline
 66
     1
 10
0.0
 20
0.0
 30
0.0
  0
VERTEX
  5
1A4
100
AcDbEntity
  8
レイヤー_2
 62
     7
100
AcDbVertex
100
AcDb2dVertex
 10
175.566889
 20
150.597871
 30
0.0
  0
VERTEX
  5
1A5
100
AcDbEntity
  8
レイヤー_2
 62
     7
100
AcDbVertex
100
AcDb2dVertex
 10
175.566889
 20
150.660571
 30
0.0
  0
VERTEX
  5
1A6
100
AcDbEntity
  8
レイヤー_2
 62
     7
100
AcDbVertex
100
AcDb2dVertex
 10
175.504533
 20
150.723617
 30
0.0
  0
SEQEND
  5
1A7
100
AcDbEntity
  8
レイヤー_2
 62
     7
  0
LINE
  5
1A2
100
AcDbEntity
  8
レイヤー_2
 62
     7
100
AcDbLine
 10
175.566889
 20
149.465812
 30
0.0
 11
175.566889
 21
150.597871
 31
0.0
  0
LINE
  5
1A1
100
AcDbEntity
  8
レイヤー_2
 62
     7
100
AcDbLine
 10
165.950939
 20
150.597871
 30
0.0
 11
165.950939
 21
149.465812
 31
0.0
  0
POLYLINE
  5
19C
100
AcDbEntity
  8
レイヤー_2
 62
     7
100
AcDb2dPolyline
 66
     1
 10
0.0
 20
0.0
 30
0.0
  0
VERTEX
  5
19D
100
AcDbEntity
  8
レイヤー_2
 62
     7
100
AcDbVertex
100
AcDb2dVertex
 10
173.43093
 20
150.597871
 30
0.0
  0
VERTEX
  5
19E
100
AcDbEntity
  8
レイヤー_2
 62
     7
100
AcDbVertex
100
AcDb2dVertex
 10
173.43093
 20
150.660571
 30
0.0
  0
VERTEX
  5
19F
100
AcDbEntity
  8
レイヤー_2
 62
     7
100
AcDbVertex
100
AcDb2dVertex
 10
173.367885
 20
150.723617
 30
0.0
  0
SEQEND
  5
1A0
100
AcDbEntity
  8
レイヤー_2
 62
     7
  0
LINE
  5
19B
100
AcDbEntity
  8
レイヤー_2
 62
     7
100
AcDbLine
 10
173.43093
 20
149.465812
 30
0.0
 11
173.43093
 21
150.597871
 31
0.0
  0
POLYLINE
  5
196
100
AcDbEntity
  8
レイヤー_2
 62
     7
100
AcDb2dPolyline
 66
     1
 10
0.0
 20
0.0
 30
0.0
  0
VERTEX
  5
197
100
AcDbEntity
  8
レイヤー_2
 62
     7
100
AcDbVertex
100
AcDb2dVertex
 10
173.367885
 20
149.402767
 30
0.0
  0
VERTEX
  5
198
100
AcDbEntity
  8
レイヤー_2
 62
     7
100
AcDbVertex
100
AcDb2dVertex
 10
173.43093
 20
149.402767
 30
0.0
  0
VERTEX
  5
199
100
AcDbEntity
  8
レイヤー_2
 62
     7
100
AcDbVertex
100
AcDb2dVertex
 10
173.43093
 20
149.465812
 30
0.0
  0
SEQEND
  5
19A
100
AcDbEntity
  8
レイヤー_2
 62
     7
  0
LINE
  5
195
100
AcDbEntity
  8
レイヤー_2
 62
     7
100
AcDbLine
 10
175.19034
 20
150.597871
 30
0.0
 11
175.19034
 21
150.471436
 31
0.0
  0
POLYLINE
  5
190
100
AcDbEntity
  8
レイヤー_2
 62
     7
100
AcDb2dPolyline
 66
     1
 10
0.0
 20
0.0
 30
0.0
  0
VERTEX
  5
191
100
AcDbEntity
  8
レイヤー_2
 62
     7
100
AcDbVertex
100
AcDb2dVertex
 10
175.253041
 20
150.723617
 30
0.0
  0
VERTEX
  5
192
100
AcDbEntity
  8
レイヤー_2
 62
     7
100
AcDbVertex
100
AcDb2dVertex
 10
175.19034
 20
150.660571
 30
0.0
  0
VERTEX
  5
193
100
AcDbEntity
  8
レイヤー_2
 62
     7
100
AcDbVertex
100
AcDb2dVertex
 10
175.19034
 20
150.597871
 30
0.0
  0
SEQEND
  5
194
100
AcDbEntity
  8
レイヤー_2
 62
     7
  0
POLYLINE
  5
18B
100
AcDbEntity
  8
レイヤー_2
 62
     7
100
AcDb2dPolyline
 66
     1
 10
0.0
 20
0.0
 30
0.0
  0
VERTEX
  5
18C
100
AcDbEntity
  8
レイヤー_2
 62
     7
100
AcDbVertex
100
AcDb2dVertex
 10
174.372819
 20
150.40839
 30
0.0
  0
VERTEX
  5
18D
100
AcDbEntity
  8
レイヤー_2
 62
     7
100
AcDbVertex
100
AcDb2dVertex
 10
174.310463
 20
150.40839
 30
0.0
  0
VERTEX
  5
18E
100
AcDbEntity
  8
レイヤー_2
 62
     7
100
AcDbVertex
100
AcDb2dVertex
 10
174.247762
 20
150.345345
 30
0.0
  0
SEQEND
  5
18F
100
AcDbEntity
  8
レイヤー_2
 62
     7
  0
LINE
  5
18A
100
AcDbEntity
  8
レイヤー_2
 62
     7
100
AcDbLine
 10
174.247762
 20
150.345345
 30
0.0
 11
174.247762
 21
149.465812
 31
0.0
  0
POLYLINE
  5
185
100
AcDbEntity
  8
レイヤー_2
 62
     7
100
AcDb2dPolyline
 66
     1
 10
0.0
 20
0.0
 30
0.0
  0
VERTEX
  5
186
100
AcDbEntity
  8
レイヤー_2
 62
     7
100
AcDbVertex
100
AcDb2dVertex
 10
174.247762
 20
149.465812
 30
0.0
  0
VERTEX
  5
187
100
AcDbEntity
  8
レイヤー_2
 62
     7
100
AcDbVertex
100
AcDb2dVertex
 10
174.310463
 20
149.402767
 30
0.0
  0
VERTEX
  5
188
100
AcDbEntity
  8
レイヤー_2
 62
     7
100
AcDbVertex
100
AcDb2dVertex
 10
174.372819
 20
149.402767
 30
0.0
  0
SEQEND
  5
189
100
AcDbEntity
  8
レイヤー_2
 62
     7
  0
LINE
  5
184
100
AcDbEntity
  8
レイヤー_2
 62
     7
100
AcDbLine
 10
171.042101
 20
159.270898
 30
0.0
 11
171.042101
 21
150.974419
 31
0.0
  0
LINE
  5
183
100
AcDbEntity
  8
レイヤー_2
 62
     7
100
AcDbLine
 10
171.042101
 20
149.402767
 30
0.0
 11
171.042101
 21
131.554416
 31
0.0
  0
LINE
  5
182
100
AcDbEntity
  8
レイヤー_2
 62
     7
100
AcDbLine
 10
172.864901
 20
131.805908
 30
0.0
 11
172.864901
 21
149.402767
 31
0.0
  0
LINE
  5
181
100
AcDbEntity
  8
レイヤー_2
 62
     7
100
AcDbLine
 10
172.864901
 20
150.974419
 30
0.0
 11
172.864901
 21
159.270898
 31
0.0
  0
LINE
  5
180
100
AcDbEntity
  8
レイヤー_2
 62
     7
100
AcDbLine
 10
167.774083
 20
159.270898
 30
0.0
 11
167.774083
 21
150.974419
 31
0.0
  0
LINE
  5
17F
100
AcDbEntity
  8
レイヤー_2
 62
     7
100
AcDbLine
 10
167.774083
 20
149.402767
 30
0.0
 11
167.774083
 21
131.490337
 31
0.0
  0
LINE
  5
17E
100
AcDbEntity
  8
レイヤー_2
 62
     7
100
AcDbLine
 10
168.590915
 20
159.270898
 30
0.0
 11
168.590915
 21
150.974419
 31
0.0
  0
LINE
  5
17D
100
AcDbEntity
  8
レイヤー_2
 62
     7
100
AcDbLine
 10
168.590915
 20
149.402767
 30
0.0
 11
168.590915
 21
131.239879
 31
0.0
  0
LINE
  5
17C
100
AcDbEntity
  8
レイヤー_2
 62
     7
100
AcDbLine
 10
170.476072
 20
131.490337
 30
0.0
 11
170.476072
 21
149.402767
 31
0.0
  0
LINE
  5
17B
100
AcDbEntity
  8
レイヤー_2
 62
     7
100
AcDbLine
 10
170.476072
 20
150.974419
 30
0.0
 11
170.476072
 21
159.270898
 31
0.0
  0
LINE
  5
17A
100
AcDbEntity
  8
レイヤー_2
 62
     7
100
AcDbLine
 10
173.744778
 20
131.490337
 30
0.0
 11
173.744778
 21
150.40839
 31
0.0
  0
LINE
  5
179
100
AcDbEntity
  8
レイヤー_2
 62
     7
100
AcDbLine
 10
173.744778
 20
150.974419
 30
0.0
 11
173.744778
 21
159.270898
 31
0.0
  0
LINE
  5
178
100
AcDbEntity
  8
レイヤー_2
 62
     7
100
AcDbLine
 10
170.727563
 20
144.187237
 30
0.0
 11
170.476072
 21
144.187237
 31
0.0
  0
LINE
  5
177
100
AcDbEntity
  8
レイヤー_2
 62
     7
100
AcDbLine
 10
170.727563
 20
144.187237
 30
0.0
 11
170.476072
 21
144.187237
 31
0.0
  0
POLYLINE
  5
172
100
AcDbEntity
  8
レイヤー_2
 62
     7
100
AcDb2dPolyline
 66
     1
 10
0.0
 20
0.0
 30
0.0
  0
VERTEX
  5
173
100
AcDbEntity
  8
レイヤー_2
 62
     7
100
AcDbVertex
100
AcDb2dVertex
 10
170.727563
 20
141.98651
 30
0.0
  0
VERTEX
  5
174
100
AcDbEntity
  8
レイヤー_2
 62
     7
100
AcDbVertex
100
AcDb2dVertex
 10
170.790609
 20
141.98651
 30
0.0
  0
VERTEX
  5
175
100
AcDbEntity
  8
レイヤー_2
 62
     7
100
AcDbVertex
100
AcDb2dVertex
 10
171.042101
 20
141.98651
 30
0.0
  0
SEQEND
  5
176
100
AcDbEntity
  8
レイヤー_2
 62
     7
  0
LINE
  5
171
100
AcDbEntity
  8
レイヤー_2
 62
     7
100
AcDbLine
 10
170.476072
 20
141.98651
 30
0.0
 11
170.727563
 21
141.98651
 31
0.0
  0
POLYLINE
  5
16C
100
AcDbEntity
  8
レイヤー_2
 62
     7
100
AcDb2dPolyline
 66
     1
 10
0.0
 20
0.0
 30
0.0
  0
VERTEX
  5
16D
100
AcDbEntity
  8
レイヤー_2
 62
     7
100
AcDbVertex
100
AcDb2dVertex
 10
171.042101
 20
144.187237
 30
0.0
  0
VERTEX
  5
16E
100
AcDbEntity
  8
レイヤー_2
 62
     7
100
AcDbVertex
100
AcDb2dVertex
 10
170.790609
 20
144.187237
 30
0.0
  0
VERTEX
  5
16F
100
AcDbEntity
  8
レイヤー_2
 62
     7
100
AcDbVertex
100
AcDb2dVertex
 10
170.727563
 20
144.187237
 30
0.0
  0
SEQEND
  5
170
100
AcDbEntity
  8
レイヤー_2
 62
     7
  0
LINE
  5
16B
100
AcDbEntity
  8
レイヤー_2
 62
     7
100
AcDbLine
 10
170.727563
 20
141.98651
 30
0.0
 11
170.476072
 21
141.98651
 31
0.0
  0
LINE
  5
16A
100
AcDbEntity
  8
レイヤー_2
 62
     7
100
AcDbLine
 10
171.042101
 20
144.187237
 30
0.0
 11
170.727563
 21
144.187237
 31
0.0
  0
LINE
  5
169
100
AcDbEntity
  8
レイヤー_2
 62
     7
100
AcDbLine
 10
171.042101
 20
149.278399
 30
0.0
 11
170.476072
 21
149.278399
 31
0.0
  0
LINE
  5
168
100
AcDbEntity
  8
レイヤー_2
 62
     7
100
AcDbLine
 10
171.042101
 20
149.025873
 30
0.0
 11
170.476072
 21
149.025873
 31
0.0
  0
LINE
  5
167
100
AcDbEntity
  8
レイヤー_2
 62
     7
100
AcDbLine
 10
171.042101
 20
148.523234
 30
0.0
 11
170.476072
 21
148.523234
 31
0.0
  0
LINE
  5
166
100
AcDbEntity
  8
レイヤー_2
 62
     7
100
AcDbLine
 10
171.042101
 20
141.98651
 30
0.0
 11
170.727563
 21
141.98651
 31
0.0
  0
LINE
  5
165
100
AcDbEntity
  8
レイヤー_2
 62
     7
100
AcDbLine
 10
173.43093
 20
150.40839
 30
0.0
 11
175.19034
 21
150.40839
 31
0.0
  0
LINE
  5
164
100
AcDbEntity
  8
レイヤー_2
 62
     7
100
AcDbLine
 10
166.266165
 20
150.974419
 30
0.0
 11
175.19034
 21
150.974419
 31
0.0
  0
LINE
  5
163
100
AcDbEntity
  8
レイヤー_2
 62
     7
100
AcDbLine
 10
173.367885
 20
149.402767
 30
0.0
 11
166.013295
 21
149.402767
 31
0.0
  0
LINE
  5
162
100
AcDbEntity
  8
レイヤー_2
 62
     7
100
AcDbLine
 10
175.504533
 20
149.402767
 30
0.0
 11
175.441143
 21
149.402767
 31
0.0
  0
LINE
  5
161
100
AcDbEntity
  8
レイヤー_2
 62
     7
100
AcDbLine
 10
175.441143
 20
150.723617
 30
0.0
 11
175.504533
 21
150.723617
 31
0.0
  0
LINE
  5
160
100
AcDbEntity
  8
レイヤー_2
 62
     7
100
AcDbLine
 10
166.013295
 20
150.723617
 30
0.0
 11
173.367885
 21
150.723617
 31
0.0
  0
LINE
  5
15F
100
AcDbEntity
  8
レイヤー_2
 62
     7
100
AcDbLine
 10
166.202086
 20
150.723617
 30
0.0
 11
166.266165
 21
150.723617
 31
0.0
  0
LINE
  5
15E
100
AcDbEntity
  8
レイヤー_2
 62
     7
100
AcDbLine
 10
175.19034
 20
150.723617
 30
0.0
 11
175.316086
 21
150.723617
 31
0.0
  0
LINE
  5
15D
100
AcDbEntity
  8
レイヤー_2
 62
     7
100
AcDbLine
 10
175.253041
 20
150.723617
 30
0.0
 11
175.441143
 21
150.723617
 31
0.0
  0
LINE
  5
15C
100
AcDbEntity
  8
レイヤー_2
 62
     7
100
AcDbLine
 10
175.441143
 20
149.402767
 30
0.0
 11
174.372819
 21
149.402767
 31
0.0
  0
LINE
  5
15B
100
AcDbEntity
  8
レイヤー_2
 62
     7
100
AcDbLine
 10
167.774083
 20
149.402767
 30
0.0
 11
167.144664
 21
149.402767
 31
0.0
  0
LINE
  5
15A
100
AcDbEntity
  8
レイヤー_2
 62
     7
100
AcDbLine
 10
175.19034
 20
150.534481
 30
0.0
 11
175.253041
 21
150.345345
 31
0.0
  0
LINE
  5
159
100
AcDbEntity
  8
レイヤー_2
 62
     7
100
AcDbLine
 10
175.065628
 20
150.40839
 30
0.0
 11
175.253041
 21
150.345345
 31
0.0
  0
LINE
  5
158
100
AcDbEntity
  8
レイヤー_2
 62
     7
100
AcDbLine
 10
174.247762
 20
149.465812
 30
0.0
 11
174.247762
 21
150.345345
 31
0.0
  0
LINE
  5
157
100
AcDbEntity
  8
レイヤー_2
 62
     7
100
AcDbLine
 10
174.372819
 20
149.402767
 30
0.0
 11
173.744778
 21
149.402767
 31
0.0
  0
LINE
  5
156
100
AcDbEntity
  8
レイヤー_2
 62
     7
100
AcDbLine
 10
171.042101
 20
149.402767
 30
0.0
 11
170.476072
 21
149.402767
 31
0.0
  0
LINE
  5
155
100
AcDbEntity
  8
レイヤー_2
 62
     7
100
AcDbLine
 10
175.12695
 20
150.40839
 30
0.0
 11
175.065628
 21
150.40839
 31
0.0
  0
LINE
  5
154
100
AcDbEntity
  8
レイヤー_2
 62
     7
100
AcDbLine
 10
170.727563
 20
134.004568
 30
0.0
 11
170.727563
 21
134.7587
 31
0.0
  0
LINE
  5
153
100
AcDbEntity
  8
レイヤー_2
 62
     7
100
AcDbLine
 10
170.727563
 20
135.512831
 30
0.0
 11
170.727563
 21
139.222165
 31
0.0
  0
LINE
  5
152
100
AcDbEntity
  8
レイヤー_2
 62
     7
100
AcDbLine
 10
170.727563
 20
139.975952
 30
0.0
 11
170.727563
 21
140.730428
 31
0.0
  0
LINE
  5
151
100
AcDbEntity
  8
レイヤー_2
 62
     7
100
AcDbLine
 10
170.727563
 20
141.420481
 30
0.0
 11
170.727563
 21
145.129815
 31
0.0
  0
LINE
  5
150
100
AcDbEntity
  8
レイヤー_2
 62
     7
100
AcDbLine
 10
170.727563
 20
145.882913
 30
0.0
 11
170.727563
 21
146.638078
 31
0.0
  0
LINE
  5
14F
100
AcDbEntity
  8
レイヤー_2
 62
     7
100
AcDbLine
 10
170.727563
 20
147.392209
 30
0.0
 11
170.727563
 21
151.100165
 31
0.0
  0
LINE
  5
14E
100
AcDbEntity
  8
レイヤー_2
 62
     7
100
AcDbLine
 10
170.727563
 20
151.854641
 30
0.0
 11
170.727563
 21
152.608773
 31
0.0
  0
LINE
  5
14D
100
AcDbEntity
  8
レイヤー_2
 62
     7
100
AcDbLine
 10
170.727563
 20
153.300892
 30
0.0
 11
170.727563
 21
157.007987
 31
0.0
  0
LINE
  5
14C
100
AcDbEntity
  8
レイヤー_2
 62
     7
100
AcDbLine
 10
170.727563
 20
157.763152
 30
0.0
 11
170.727563
 21
158.516423
 31
0.0
  0
LINE
  5
14B
100
AcDbEntity
  8
レイヤー_2
 62
     7
100
AcDbLine
 10
170.727563
 20
159.270898
 30
0.0
 11
170.727563
 21
162.978855
 31
0.0
  0
LINE
  5
14A
100
AcDbEntity
  8
レイヤー_2
 62
     7
100
AcDbLine
 10
170.727563
 20
163.732986
 30
0.0
 11
170.727563
 21
164.48729
 31
0.0
  0
LINE
  5
149
100
AcDbEntity
  8
レイヤー_2
 62
     7
100
AcDbLine
 10
170.727563
 20
165.179237
 30
0.0
 11
170.727563
 21
168.886677
 31
0.0
  0
LINE
  5
148
100
AcDbEntity
  8
レイヤー_2
 62
     7
100
AcDbLine
 10
170.727563
 20
169.641669
 30
0.0
 11
170.727563
 21
170.395112
 31
0.0
  0
LINE
  5
147
100
AcDbEntity
  8
レイヤー_2
 62
     7
100
AcDbLine
 10
170.727563
 20
171.150104
 30
0.0
 11
170.727563
 21
174.857199
 31
0.0
  0
LINE
  5
146
100
AcDbEntity
  8
レイヤー_2
 62
     7
100
AcDbLine
 10
170.727563
 20
175.612364
 30
0.0
 11
170.727563
 21
176.303451
 31
0.0
  0
LINE
  5
145
100
AcDbEntity
  8
レイヤー_2
 62
     7
100
AcDbLine
 10
170.727563
 20
177.057754
 30
0.0
 11
170.727563
 21
180.765883
 31
0.0
  0
LINE
  5
144
100
AcDbEntity
  8
レイヤー_2
 62
     7
100
AcDbLine
 10
170.727563
 20
181.520014
 30
0.0
 11
170.727563
 21
182.273973
 31
0.0
  0
LINE
  5
143
100
AcDbEntity
  8
レイヤー_2
 62
     7
100
AcDbLine
 10
170.727563
 20
183.028621
 30
0.0
 11
170.727563
 21
186.736578
 31
0.0
  0
LINE
  5
142
100
AcDbEntity
  8
レイヤー_2
 62
     7
100
AcDbLine
 10
170.727563
 20
187.490537
 30
0.0
 11
170.727563
 21
188.182484
 31
0.0
  0
LINE
  5
141
100
AcDbEntity
  8
レイヤー_2
 62
     7
100
AcDbLine
 10
170.727563
 20
188.936271
 30
0.0
 11
170.727563
 21
192.644227
 31
0.0
  0
LINE
  5
140
100
AcDbEntity
  8
レイヤー_2
 62
     7
100
AcDbLine
 10
170.727563
 20
193.399048
 30
0.0
 11
170.727563
 21
194.153352
 31
0.0
  0
LINE
  5
13F
100
AcDbEntity
  8
レイヤー_2
 62
     7
100
AcDbLine
 10
170.727563
 20
194.907655
 30
0.0
 11
170.727563
 21
198.615611
 31
0.0
  0
LINE
  5
13E
100
AcDbEntity
  8
レイヤー_2
 62
     7
100
AcDbLine
 10
170.727563
 20
199.369743
 30
0.0
 11
170.727563
 21
200.060484
 31
0.0
  0
LINE
  5
13D
100
AcDbEntity
  8
レイヤー_2
 62
     7
100
AcDbLine
 10
170.727563
 20
200.815305
 30
0.0
 11
170.727563
 21
204.523261
 31
0.0
  0
LINE
  5
13C
100
AcDbEntity
  8
レイヤー_2
 62
     7
100
AcDbLine
 10
170.727563
 20
205.277909
 30
0.0
 11
170.727563
 21
206.031868
 31
0.0
  0
LINE
  5
13B
100
AcDbEntity
  8
レイヤー_2
 62
     7
100
AcDbLine
 10
170.727563
 20
206.786
 30
0.0
 11
170.727563
 21
210.494473
 31
0.0
  0
LINE
  5
13A
100
AcDbEntity
  8
レイヤー_2
 62
     7
100
AcDbLine
 10
170.727563
 20
211.248777
 30
0.0
 11
170.727563
 21
211.939518
 31
0.0
  0
LINE
  5
139
100
AcDbEntity
  8
レイヤー_2
 62
     7
100
AcDbLine
 10
170.727563
 20
212.693994
 30
0.0
 11
170.727563
 21
216.402123
 31
0.0
  0
LINE
  5
138
100
AcDbEntity
  8
レイヤー_2
 62
     7
100
AcDbLine
 10
170.727563
 20
217.156082
 30
0.0
 11
170.727563
 21
217.910558
 31
0.0
  0
LINE
  5
137
100
AcDbEntity
  8
レイヤー_2
 62
     7
100
AcDbLine
 10
170.727563
 20
218.664861
 30
0.0
 11
170.727563
 21
222.37299
 31
0.0
  0
LINE
  5
136
100
AcDbEntity
  8
レイヤー_2
 62
     7
100
AcDbLine
 10
170.727563
 20
223.126777
 30
0.0
 11
170.727563
 21
223.190339
 31
0.0
  0
LINE
  5
135
100
AcDbEntity
  8
レイヤー_2
 62
     7
100
AcDbLine
 10
170.727563
 20
232.185483
 30
0.0
 11
170.727563
 21
222.436035
 31
0.0
  0
HATCH
  5
134
100
AcDbEntity
  8
レイヤー_2
 62
     7
100
AcDbHatch
 10
0.0
 20
0.0
 30
0.0
210
0.0
220
0.0
230
1.0
  2
SOLID
 70
     1
 71
     0
 91
        1
 92
        3
 72
     0
 73
     1
 93
        4
 10
152.06100260416665
 20
141.48387044270831
 10
152.68904351128469
 20
141.48387044270831
 10
152.68904351128469
 20
141.98650987413194
 10
152.06100260416665
 20
141.98650987413194
 97
        0
 75
     2
 76
     1
 98
        1
 10
0.0
 20
0.0
  0
LINE
  5
133
100
AcDbEntity
  8
レイヤー_2
 62
     7
100
AcDbLine
 10
170.727563
 20
224.573028
 30
0.0
 11
170.727563
 21
224.666734
 31
0.0
  0
LINE
  5
132
100
AcDbEntity
  8
レイヤー_2
 62
     7
100
AcDbLine
 10
186.377943
 20
194.718692
 30
0.0
 11
186.377943
 21
224.477943
 31
0.0
  0
LINE
  5
131
100
AcDbEntity
  8
レイヤー_2
 62
     7
100
AcDbLine
 10
187.131386
 20
223.724501
 30
0.0
 11
170.099523
 21
223.724501
 31
0.0
  0
LINE
  5
130
100
AcDbEntity
  8
レイヤー_2
 62
     7
100
AcDbLine
 10
170.099523
 20
223.095082
 30
0.0
 11
171.356638
 21
224.352714
 31
0.0
  0
LINE
  5
12F
100
AcDbEntity
  8
レイヤー_2
 62
     7
100
AcDbLine
 10
185.749213
 20
223.095082
 30
0.0
 11
187.006329
 21
224.352714
 31
0.0
  0
LINE
  5
12E
100
AcDbEntity
  8
レイヤー_2
 62
     7
100
AcDbLine
 10
166.139385
 20
185.16527
 30
0.0
 11
166.139385
 21
199.495144
 31
0.0
  0
LINE
  5
12D
100
AcDbEntity
  8
レイヤー_2
 62
     7
100
AcDbLine
 10
175.504533
 20
184.976306
 30
0.0
 11
175.504533
 21
199.495144
 31
0.0
  0
LINE
  5
12C
100
AcDbEntity
  8
レイヤー_2
 62
     7
100
AcDbLine
 10
153.506565
 20
198.741185
 30
0.0
 11
176.132918
 21
198.741185
 31
0.0
  0
LINE
  5
12B
100
AcDbEntity
  8
レイヤー_2
 62
     7
100
AcDbLine
 10
166.89455
 20
199.369743
 30
0.0
 11
165.636401
 21
198.112627
 31
0.0
  0
LINE
  5
12A
100
AcDbEntity
  8
レイヤー_2
 62
     7
100
AcDbLine
 10
176.007172
 20
199.369743
 30
0.0
 11
174.750057
 21
198.112627
 31
0.0
  0
LINE
  5
129
100
AcDbEntity
  8
レイヤー_2
 62
     7
100
AcDbLine
 10
153.06697
 20
159.270898
 30
0.0
 11
161.929479
 21
159.270898
 31
0.0
  0
LINE
  5
128
100
AcDbEntity
  8
レイヤー_2
 62
     7
100
AcDbLine
 10
167.334144
 20
112.887166
 30
0.0
 11
169.722285
 21
112.887166
 31
0.0
  0
LINE
  5
127
100
AcDbEntity
  8
レイヤー_2
  6
AI9-LType1
 62
     7
100
AcDbLine
 10
170.79302
 20
91.682604
 30
0.0
 11
170.79302
 21
105.706898
 31
0.0
  0
LINE
  5
126
100
AcDbEntity
  8
レイヤー_2
  6
AI9-LType1
 62
     7
100
AcDbLine
 10
170.79302
 20
114.798505
 30
0.0
 11
170.79302
 21
133.273174
 31
0.0
  0
MTEXT
  5
124
100
AcDbEntity
  8
レイヤー_2
 62
     7
100
AcDbMText
 10
152.534359
 20
203.735253
 30
0.0
 40
3.674768
 41
0.0
 71
     1
 72
     2
  1
\fGothicBBB Medium|b0|i0|c128;\H3.6748;\C7;\U+03C6\U+0035\U+0030
  7
STD
210
0.0
220
0.0
230
1.0
 73
     1
 44
1.0
  0
MTEXT
  5
123
100
AcDbEntity
  8
レイヤー_2
 62
     7
100
AcDbMText
 10
175.989602
 20
227.868147
 30
0.0
 40
3.674768
 41
0.0
 71
     1
 72
     2
  1
\fGothicBBB Medium|b0|i0|c128;\H3.6748;\C7;\U+0038\U+0034
  7
STD
210
0.0
220
0.0
230
1.0
 73
     1
 44
1.0
  0
LINE
  5
122
100
AcDbEntity
  8
レイヤー_2
 62
     7
100
AcDbLine
 10
59.148328
 20
216.088102
 30
0.0
 11
59.085455
 21
214.265647
 31
0.0
  0
LINE
  5
121
100
AcDbEntity
  8
レイヤー_2
 62
     7
100
AcDbLine
 10
54.182395
 20
214.454438
 30
0.0
 11
54.245612
 21
216.276377
 31
0.0
  0
LINE
  5
120
100
AcDbEntity
  8
レイヤー_2
 62
     7
100
AcDbLine
 10
54.245612
 20
216.276377
 30
0.0
 11
52.989358
 21
216.339939
 31
0.0
  0
LINE
  5
11F
100
AcDbEntity
  8
レイヤー_2
 62
     7
100
AcDbLine
 10
62.604275
 20
215.962356
 30
0.0
 11
59.148328
 21
216.088102
 31
0.0
  0
LINE
  5
11E
100
AcDbEntity
  8
レイヤー_2
 62
     7
100
AcDbLine
 10
65.936544
 20
215.899655
 30
0.0
 11
63.35944
 21
215.962356
 31
0.0
  0
LINE
  5
11D
100
AcDbEntity
  8
レイヤー_2
 62
     7
100
AcDbLine
 10
53.177633
 20
221.870523
 30
0.0
 11
66.124991
 21
221.430756
 31
0.0
  0
LINE
  5
11C
100
AcDbEntity
  8
レイヤー_2
 62
     7
100
AcDbLine
 10
66.061773
 20
216.213504
 30
0.0
 11
65.998728
 21
216.213504
 31
0.0
  0
LINE
  5
11B
100
AcDbEntity
  8
レイヤー_2
 62
     7
100
AcDbLine
 10
66.124991
 20
221.116219
 30
0.0
 11
66.250047
 21
221.116219
 31
0.0
  0
POLYLINE
  5
10F
100
AcDbEntity
  8
レイヤー_2
 62
     7
100
AcDb2dPolyline
 66
     1
 10
0.0
 20
0.0
 30
0.0
  0
VERTEX
  5
110
100
AcDbEntity
  8
レイヤー_2
 62
     7
100
AcDbVertex
100
AcDb2dVertex
 10
87.745204
 20
215.082479
 30
0.0
  0
VERTEX
  5
111
100
AcDbEntity
  8
レイヤー_2
 62
     7
100
AcDbVertex
100
AcDb2dVertex
 10
89.127549
 20
214.956733
 30
0.0
  0
VERTEX
  5
112
100
AcDbEntity
  8
レイヤー_2
 62
     7
100
AcDbVertex
100
AcDb2dVertex
 10
90.762246
 20
214.516966
 30
0.0
  0
VERTEX
  5
113
100
AcDbEntity
  8
レイヤー_2
 62
     7
100
AcDbVertex
100
AcDb2dVertex
 10
92.333727
 20
213.82588
 30
0.0
  0
VERTEX
  5
114
100
AcDbEntity
  8
レイヤー_2
 62
     7
100
AcDbVertex
100
AcDb2dVertex
 10
93.716071
 20
212.820085
 30
0.0
  0
VERTEX
  5
115
100
AcDbEntity
  8
レイヤー_2
 62
     7
100
AcDbVertex
100
AcDb2dVertex
 10
94.974048
 20
211.626359
 30
0.0
  0
VERTEX
  5
116
100
AcDbEntity
  8
レイヤー_2
 62
     7
100
AcDbVertex
100
AcDb2dVertex
 10
95.916626
 20
210.180108
 30
0.0
  0
VERTEX
  5
117
100
AcDbEntity
  8
レイヤー_2
 62
     7
100
AcDbVertex
100
AcDb2dVertex
 10
96.670068
 20
208.671845
 30
0.0
  0
VERTEX
  5
118
100
AcDbEntity
  8
レイヤー_2
 62
     7
100
AcDbVertex
100
AcDb2dVertex
 10
97.109835
 20
206.974791
 30
0.0
  0
VERTEX
  5
119
100
AcDbEntity
  8
レイヤー_2
 62
     7
100
AcDbVertex
100
AcDb2dVertex
 10
97.235925
 20
205.277909
 30
0.0
  0
SEQEND
  5
11A
100
AcDbEntity
  8
レイヤー_2
 62
     7
  0
POLYLINE
  5
103
100
AcDbEntity
  8
レイヤー_2
 62
     7
100
AcDb2dPolyline
 66
     1
 10
0.0
 20
0.0
 30
0.0
  0
VERTEX
  5
104
100
AcDbEntity
  8
レイヤー_2
 62
     7
100
AcDbVertex
100
AcDb2dVertex
 10
87.934512
 20
220.676625
 30
0.0
  0
VERTEX
  5
105
100
AcDbEntity
  8
レイヤー_2
 62
     7
100
AcDbVertex
100
AcDb2dVertex
 10
90.070127
 20
220.424272
 30
0.0
  0
VERTEX
  5
106
100
AcDbEntity
  8
レイヤー_2
 62
     7
100
AcDbVertex
100
AcDb2dVertex
 10
92.647403
 20
219.73353
 30
0.0
  0
VERTEX
  5
107
100
AcDbEntity
  8
レイヤー_2
 62
     7
100
AcDbVertex
100
AcDb2dVertex
 10
95.099277
 20
218.602677
 30
0.0
  0
VERTEX
  5
108
100
AcDbEntity
  8
レイヤー_2
 62
     7
100
AcDbVertex
100
AcDb2dVertex
 10
97.299143
 20
217.09407
 30
0.0
  0
VERTEX
  5
109
100
AcDbEntity
  8
レイヤー_2
 62
     7
100
AcDbVertex
100
AcDb2dVertex
 10
99.184299
 20
215.207708
 30
0.0
  0
VERTEX
  5
10A
100
AcDbEntity
  8
レイヤー_2
 62
     7
100
AcDbVertex
100
AcDb2dVertex
 10
100.755607
 20
213.008531
 30
0.0
  0
VERTEX
  5
10B
100
AcDbEntity
  8
レイヤー_2
 62
     7
100
AcDbVertex
100
AcDb2dVertex
 10
101.885771
 20
210.55769
 30
0.0
  0
VERTEX
  5
10C
100
AcDbEntity
  8
レイヤー_2
 62
     7
100
AcDbVertex
100
AcDb2dVertex
 10
102.577718
 20
207.980414
 30
0.0
  0
VERTEX
  5
10D
100
AcDbEntity
  8
レイヤー_2
 62
     7
100
AcDbVertex
100
AcDb2dVertex
 10
102.830071
 20
205.277909
 30
0.0
  0
SEQEND
  5
10E
100
AcDbEntity
  8
レイヤー_2
 62
     7
  0
LINE
  5
102
100
AcDbEntity
  8
レイヤー_2
 62
     7
100
AcDbLine
 10
97.235925
 20
184.474528
 30
0.0
 11
97.235925
 21
205.277909
 31
0.0
  0
LINE
  5
101
100
AcDbEntity
  8
レイヤー_2
 62
     7
100
AcDbLine
 10
102.830071
 20
205.277909
 30
0.0
 11
102.830071
 21
184.474528
 31
0.0
  0
LINE
  5
100
100
AcDbEntity
  8
レイヤー_2
 62
     7
100
AcDbLine
 10
66.250047
 20
221.430756
 30
0.0
 11
87.934512
 21
220.676625
 31
0.0
  0
LINE
  5
FF
100
AcDbEntity
  8
レイヤー_2
 62
     7
100
AcDbLine
 10
87.745204
 20
215.082479
 30
0.0
 11
66.061773
 21
215.836782
 31
0.0
  0
LINE
  5
FE
100
AcDbEntity
  8
レイヤー_2
 62
     7
100
AcDbLine
 10
104.52592
 20
184.474528
 30
0.0
 11
104.65201
 21
184.41131
 31
0.0
  0
LINE
  5
FD
100
AcDbEntity
  8
レイヤー_2
 62
     7
100
AcDbLine
 10
95.413987
 20
184.41131
 30
0.0
 11
95.538182
 21
184.474528
 31
0.0
  0
LINE
  5
FC
100
AcDbEntity
  8
レイヤー_2
 62
     7
100
AcDbLine
 10
104.65201
 20
180.765883
 30
0.0
 11
104.65201
 21
159.270898
 31
0.0
  0
LINE
  5
FB
100
AcDbEntity
  8
レイヤー_2
 62
     7
100
AcDbLine
 10
104.65201
 20
184.41131
 30
0.0
 11
104.65201
 21
180.640309
 31
0.0
  0
LINE
  5
FA
100
AcDbEntity
  8
レイヤー_2
 62
     7
100
AcDbLine
 10
95.413987
 20
159.270898
 30
0.0
 11
95.413987
 21
184.41131
 31
0.0
  0
LINE
  5
F9
100
AcDbEntity
  8
レイヤー_2
 62
     7
100
AcDbLine
 10
56.635303
 20
214.328692
 30
0.0
 11
54.182395
 21
214.454438
 31
0.0
  0
LINE
  5
F8
100
AcDbEntity
  8
レイヤー_2
 62
     7
100
AcDbLine
 10
59.085455
 20
214.265647
 30
0.0
 11
56.635303
 21
214.328692
 31
0.0
  0
POLYLINE
  5
F3
100
AcDbEntity
  8
レイヤー_2
 62
     7
100
AcDb2dPolyline
 66
     1
 10
0.0
 20
0.0
 30
0.0
  0
VERTEX
  5
F4
100
AcDbEntity
  8
レイヤー_2
 62
     7
100
AcDbVertex
100
AcDb2dVertex
 10
62.604275
 20
215.962356
 30
0.0
  0
VERTEX
  5
F5
100
AcDbEntity
  8
レイヤー_2
 62
     7
100
AcDbVertex
100
AcDb2dVertex
 10
62.919674
 20
216.025401
 30
0.0
  0
VERTEX
  5
F6
100
AcDbEntity
  8
レイヤー_2
 62
     7
100
AcDbVertex
100
AcDb2dVertex
 10
63.35944
 20
215.962356
 30
0.0
  0
SEQEND
  5
F7
100
AcDbEntity
  8
レイヤー_2
 62
     7
  0
LINE
  5
F2
100
AcDbEntity
  8
レイヤー_2
 62
     7
100
AcDbLine
 10
53.052403
 20
219.104628
 30
0.0
 11
53.177633
 21
221.870523
 31
0.0
  0
LINE
  5
F1
100
AcDbEntity
  8
レイヤー_2
 62
     7
100
AcDbLine
 10
52.989358
 20
216.339939
 30
0.0
 11
53.052403
 21
219.104628
 31
0.0
  0
LINE
  5
F0
100
AcDbEntity
  8
レイヤー_2
 62
     7
100
AcDbLine
 10
66.061773
 20
218.664861
 30
0.0
 11
66.124991
 21
221.430756
 31
0.0
  0
LINE
  5
EF
100
AcDbEntity
  8
レイヤー_2
 62
     7
100
AcDbLine
 10
65.936544
 20
215.899655
 30
0.0
 11
66.061773
 21
218.664861
 31
0.0
  0
POLYLINE
  5
E3
100
AcDbEntity
  8
レイヤー_2
 62
     7
100
AcDb2dPolyline
 66
     1
 10
0.0
 20
0.0
 30
0.0
  0
VERTEX
  5
E4
100
AcDbEntity
  8
レイヤー_2
 62
     7
100
AcDbVertex
100
AcDb2dVertex
 10
56.759498
 20
217.659755
 30
0.0
  0
VERTEX
  5
E5
100
AcDbEntity
  8
レイヤー_2
 62
     7
100
AcDbVertex
100
AcDb2dVertex
 10
57.199437
 20
217.596537
 30
0.0
  0
VERTEX
  5
E6
100
AcDbEntity
  8
レイヤー_2
 62
     7
100
AcDbVertex
100
AcDb2dVertex
 10
57.513802
 20
217.470791
 30
0.0
  0
VERTEX
  5
E7
100
AcDbEntity
  8
レイヤー_2
 62
     7
100
AcDbVertex
100
AcDb2dVertex
 10
57.765294
 20
217.282172
 30
0.0
  0
VERTEX
  5
E8
100
AcDbEntity
  8
レイヤー_2
 62
     7
100
AcDbVertex
100
AcDb2dVertex
 10
58.142015
 20
216.96798
 30
0.0
  0
VERTEX
  5
E9
100
AcDbEntity
  8
レイヤー_2
 62
     7
100
AcDbVertex
100
AcDb2dVertex
 10
58.519598
 20
216.716832
 30
0.0
  0
VERTEX
  5
EA
100
AcDbEntity
  8
レイヤー_2
 62
     7
100
AcDbVertex
100
AcDb2dVertex
 10
58.707872
 20
216.465685
 30
0.0
  0
VERTEX
  5
EB
100
AcDbEntity
  8
レイヤー_2
 62
     7
100
AcDbVertex
100
AcDb2dVertex
 10
58.960053
 20
216.339939
 30
0.0
  0
VERTEX
  5
EC
100
AcDbEntity
  8
レイヤー_2
 62
     7
100
AcDbVertex
100
AcDb2dVertex
 10
59.148328
 20
216.151147
 30
0.0
  0
VERTEX
  5
ED
100
AcDbEntity
  8
レイヤー_2
 62
     7
100
AcDbVertex
100
AcDb2dVertex
 10
59.148328
 20
216.088102
 30
0.0
  0
SEQEND
  5
EE
100
AcDbEntity
  8
レイヤー_2
 62
     7
  0
POLYLINE
  5
DA
100
AcDbEntity
  8
レイヤー_2
 62
     7
100
AcDb2dPolyline
 66
     1
 10
0.0
 20
0.0
 30
0.0
  0
VERTEX
  5
DB
100
AcDbEntity
  8
レイヤー_2
 62
     7
100
AcDbVertex
100
AcDb2dVertex
 10
54.245612
 20
216.276377
 30
0.0
  0
VERTEX
  5
DC
100
AcDbEntity
  8
レイヤー_2
 62
     7
100
AcDbVertex
100
AcDb2dVertex
 10
54.308485
 20
216.402123
 30
0.0
  0
VERTEX
  5
DD
100
AcDbEntity
  8
レイヤー_2
 62
     7
100
AcDbVertex
100
AcDb2dVertex
 10
54.622161
 20
216.591086
 30
0.0
  0
VERTEX
  5
DE
100
AcDbEntity
  8
レイヤー_2
 62
     7
100
AcDbVertex
100
AcDb2dVertex
 10
54.874342
 20
216.779361
 30
0.0
  0
VERTEX
  5
DF
100
AcDbEntity
  8
レイヤー_2
 62
     7
100
AcDbVertex
100
AcDb2dVertex
 10
55.502555
 20
217.282172
 30
0.0
  0
VERTEX
  5
E0
100
AcDbEntity
  8
レイヤー_2
 62
     7
100
AcDbVertex
100
AcDb2dVertex
 10
56.382949
 20
217.659755
 30
0.0
  0
VERTEX
  5
E1
100
AcDbEntity
  8
レイヤー_2
 62
     7
100
AcDbVertex
100
AcDb2dVertex
 10
56.759498
 20
217.659755
 30
0.0
  0
SEQEND
  5
E2
100
AcDbEntity
  8
レイヤー_2
 62
     7
  0
LINE
  5
D9
100
AcDbEntity
  8
レイヤー_2
 62
     7
100
AcDbLine
 10
66.124991
 20
218.664861
 30
0.0
 11
66.061773
 21
215.836782
 31
0.0
  0
LINE
  5
D8
100
AcDbEntity
  8
レイヤー_2
 62
     7
100
AcDbLine
 10
66.250047
 20
221.430756
 30
0.0
 11
66.124991
 21
218.664861
 31
0.0
  0
LINE
  5
D7
100
AcDbEntity
  8
レイヤー_2
 62
     7
100
AcDbLine
 10
98.768304
 20
184.474528
 30
0.0
 11
95.538182
 21
184.474528
 31
0.0
  0
LINE
  5
D6
100
AcDbEntity
  8
レイヤー_2
 62
     7
100
AcDbLine
 10
104.52592
 20
184.474528
 30
0.0
 11
100.808489
 21
184.474528
 31
0.0
  0
LINE
  5
D5
100
AcDbEntity
  8
レイヤー_2
 62
     7
100
AcDbLine
 10
107.543134
 20
159.270898
 30
0.0
 11
91.328103
 21
159.270898
 31
0.0
  0
POLYLINE
  5
C9
100
AcDbEntity
  8
レイヤー_2
 62
     7
100
AcDb2dPolyline
 66
     1
 10
0.0
 20
0.0
 30
0.0
  0
VERTEX
  5
CA
100
AcDbEntity
  8
レイヤー_2
 62
     7
100
AcDbVertex
100
AcDb2dVertex
 10
101.384682
 20
131.491371
 30
0.0
  0
VERTEX
  5
CB
100
AcDbEntity
  8
レイヤー_2
 62
     7
100
AcDbVertex
100
AcDb2dVertex
 10
101.258419
 20
131.491371
 30
0.0
  0
VERTEX
  5
CC
100
AcDbEntity
  8
レイヤー_2
 62
     7
100
AcDbVertex
100
AcDb2dVertex
 10
101.195546
 20
131.427292
 30
0.0
  0
VERTEX
  5
CD
100
AcDbEntity
  8
レイヤー_2
 62
     7
100
AcDbVertex
100
AcDb2dVertex
 10
100.881698
 20
131.427292
 30
0.0
  0
VERTEX
  5
CE
100
AcDbEntity
  8
レイヤー_2
 62
     7
100
AcDbVertex
100
AcDb2dVertex
 10
100.755607
 20
131.36597
 30
0.0
  0
VERTEX
  5
CF
100
AcDbEntity
  8
レイヤー_2
 62
     7
100
AcDbVertex
100
AcDb2dVertex
 10
100.503426
 20
131.36597
 30
0.0
  0
VERTEX
  5
D0
100
AcDbEntity
  8
レイヤー_2
 62
     7
100
AcDbVertex
100
AcDb2dVertex
 10
100.379058
 20
131.302924
 30
0.0
  0
VERTEX
  5
D1
100
AcDbEntity
  8
レイヤー_2
 62
     7
100
AcDbVertex
100
AcDb2dVertex
 10
99.875385
 20
131.302924
 30
0.0
  0
VERTEX
  5
D2
100
AcDbEntity
  8
レイヤー_2
 62
     7
100
AcDbVertex
100
AcDb2dVertex
 10
99.686938
 20
131.239879
 30
0.0
  0
VERTEX
  5
D3
100
AcDbEntity
  8
レイヤー_2
 62
     7
100
AcDbVertex
100
AcDb2dVertex
 10
99.560848
 20
131.239879
 30
0.0
  0
SEQEND
  5
D4
100
AcDbEntity
  8
レイヤー_2
 62
     7
  0
POLYLINE
  5
BD
100
AcDbEntity
  8
レイヤー_2
 62
     7
100
AcDb2dPolyline
 66
     1
 10
0.0
 20
0.0
 30
0.0
  0
VERTEX
  5
BE
100
AcDbEntity
  8
レイヤー_2
 62
     7
100
AcDbVertex
100
AcDb2dVertex
 10
99.184299
 20
131.239879
 30
0.0
  0
VERTEX
  5
BF
100
AcDbEntity
  8
レイヤー_2
 62
     7
100
AcDbVertex
100
AcDb2dVertex
 10
98.241721
 20
131.239879
 30
0.0
  0
VERTEX
  5
C0
100
AcDbEntity
  8
レイヤー_2
 62
     7
100
AcDbVertex
100
AcDb2dVertex
 10
98.178503
 20
131.302924
 30
0.0
  0
VERTEX
  5
C1
100
AcDbEntity
  8
レイヤー_2
 62
     7
100
AcDbVertex
100
AcDb2dVertex
 10
97.864827
 20
131.302924
 30
0.0
  0
VERTEX
  5
C2
100
AcDbEntity
  8
レイヤー_2
 62
     7
100
AcDbVertex
100
AcDb2dVertex
 10
97.801782
 20
131.36597
 30
0.0
  0
VERTEX
  5
C3
100
AcDbEntity
  8
レイヤー_2
 62
     7
100
AcDbVertex
100
AcDb2dVertex
 10
97.612646
 20
131.36597
 30
0.0
  0
VERTEX
  5
C4
100
AcDbEntity
  8
レイヤー_2
 62
     7
100
AcDbVertex
100
AcDb2dVertex
 10
97.549601
 20
131.427292
 30
0.0
  0
VERTEX
  5
C5
100
AcDbEntity
  8
レイヤー_2
 62
     7
100
AcDbVertex
100
AcDb2dVertex
 10
97.486556
 20
131.427292
 30
0.0
  0
VERTEX
  5
C6
100
AcDbEntity
  8
レイヤー_2
 62
     7
100
AcDbVertex
100
AcDb2dVertex
 10
97.4242
 20
131.491371
 30
0.0
  0
VERTEX
  5
C7
100
AcDbEntity
  8
レイヤー_2
 62
     7
100
AcDbVertex
100
AcDb2dVertex
 10
97.299143
 20
131.491371
 30
0.0
  0
SEQEND
  5
C8
100
AcDbEntity
  8
レイヤー_2
 62
     7
  0
LINE
  5
BC
100
AcDbEntity
  8
レイヤー_2
 62
     7
100
AcDbLine
 10
103.143575
 20
149.025873
 30
0.0
 11
102.893117
 21
148.523234
 31
0.0
  0
LINE
  5
BB
100
AcDbEntity
  8
レイヤー_2
 62
     7
100
AcDbLine
 10
103.143575
 20
149.278399
 30
0.0
 11
103.143575
 21
149.025873
 31
0.0
  0
LINE
  5
BA
100
AcDbEntity
  8
レイヤー_2
 62
     7
100
AcDbLine
 10
102.703981
 20
149.4038
 30
0.0
 11
103.143575
 21
149.278399
 31
0.0
  0
LINE
  5
B9
100
AcDbEntity
  8
レイヤー_2
 62
     7
100
AcDbLine
 10
102.893117
 20
148.523234
 30
0.0
 11
102.893117
 21
144.187237
 31
0.0
  0
LINE
  5
B8
100
AcDbEntity
  8
レイヤー_2
 62
     7
100
AcDbLine
 10
95.538182
 20
150.723617
 30
0.0
 11
95.538182
 21
150.975798
 31
0.0
  0
LINE
  5
B7
100
AcDbEntity
  8
レイヤー_2
 62
     7
100
AcDbLine
 10
104.401552
 20
150.975798
 30
0.0
 11
104.401552
 21
150.723617
 31
0.0
  0
POLYLINE
  5
B2
100
AcDbEntity
  8
レイヤー_2
 62
     7
100
AcDb2dPolyline
 66
     1
 10
0.0
 20
0.0
 30
0.0
  0
VERTEX
  5
B3
100
AcDbEntity
  8
レイヤー_2
 62
     7
100
AcDbVertex
100
AcDb2dVertex
 10
104.778273
 20
149.465812
 30
0.0
  0
VERTEX
  5
B4
100
AcDbEntity
  8
レイヤー_2
 62
     7
100
AcDbVertex
100
AcDb2dVertex
 10
104.778273
 20
149.4038
 30
0.0
  0
VERTEX
  5
B5
100
AcDbEntity
  8
レイヤー_2
 62
     7
100
AcDbVertex
100
AcDb2dVertex
 10
104.715228
 20
149.4038
 30
0.0
  0
SEQEND
  5
B6
100
AcDbEntity
  8
レイヤー_2
 62
     7
  0
POLYLINE
  5
AD
100
AcDbEntity
  8
レイヤー_2
 62
     7
100
AcDb2dPolyline
 66
     1
 10
0.0
 20
0.0
 30
0.0
  0
VERTEX
  5
AE
100
AcDbEntity
  8
レイヤー_2
 62
     7
100
AcDbVertex
100
AcDb2dVertex
 10
95.224679
 20
149.4038
 30
0.0
  0
VERTEX
  5
AF
100
AcDbEntity
  8
レイヤー_2
 62
     7
100
AcDbVertex
100
AcDb2dVertex
 10
95.161633
 20
149.4038
 30
0.0
  0
VERTEX
  5
B0
100
AcDbEntity
  8
レイヤー_2
 62
     7
100
AcDbVertex
100
AcDb2dVertex
 10
95.161633
 20
149.465812
 30
0.0
  0
SEQEND
  5
B1
100
AcDbEntity
  8
レイヤー_2
 62
     7
  0
LINE
  5
AC
100
AcDbEntity
  8
レイヤー_2
 62
     7
100
AcDbLine
 10
95.161633
 20
149.465812
 30
0.0
 11
95.161633
 21
150.597871
 31
0.0
  0
LINE
  5
AB
100
AcDbEntity
  8
レイヤー_2
 62
     7
100
AcDbLine
 10
104.778273
 20
150.597871
 30
0.0
 11
104.778273
 21
149.465812
 31
0.0
  0
POLYLINE
  5
A6
100
AcDbEntity
  8
レイヤー_2
 62
     7
100
AcDb2dPolyline
 66
     1
 10
0.0
 20
0.0
 30
0.0
  0
VERTEX
  5
A7
100
AcDbEntity
  8
レイヤー_2
 62
     7
100
AcDbVertex
100
AcDb2dVertex
 10
104.715228
 20
150.723617
 30
0.0
  0
VERTEX
  5
A8
100
AcDbEntity
  8
レイヤー_2
 62
     7
100
AcDbVertex
100
AcDb2dVertex
 10
104.778273
 20
150.660571
 30
0.0
  0
VERTEX
  5
A9
100
AcDbEntity
  8
レイヤー_2
 62
     7
100
AcDbVertex
100
AcDb2dVertex
 10
104.778273
 20
150.597871
 30
0.0
  0
SEQEND
  5
AA
100
AcDbEntity
  8
レイヤー_2
 62
     7
  0
POLYLINE
  5
A1
100
AcDbEntity
  8
レイヤー_2
 62
     7
100
AcDb2dPolyline
 66
     1
 10
0.0
 20
0.0
 30
0.0
  0
VERTEX
  5
A2
100
AcDbEntity
  8
レイヤー_2
 62
     7
100
AcDbVertex
100
AcDb2dVertex
 10
95.161633
 20
150.597871
 30
0.0
  0
VERTEX
  5
A3
100
AcDbEntity
  8
レイヤー_2
 62
     7
100
AcDbVertex
100
AcDb2dVertex
 10
95.161633
 20
150.660571
 30
0.0
  0
VERTEX
  5
A4
100
AcDbEntity
  8
レイヤー_2
 62
     7
100
AcDbVertex
100
AcDb2dVertex
 10
95.224679
 20
150.723617
 30
0.0
  0
SEQEND
  5
A5
100
AcDbEntity
  8
レイヤー_2
 62
     7
  0
LINE
  5
A0
100
AcDbEntity
  8
レイヤー_2
 62
     7
100
AcDbLine
 10
102.703981
 20
159.270898
 30
0.0
 11
102.703981
 21
150.975798
 31
0.0
  0
LINE
  5
9F
100
AcDbEntity
  8
レイヤー_2
 62
     7
100
AcDbLine
 10
101.384682
 20
159.270898
 30
0.0
 11
101.384682
 21
150.975798
 31
0.0
  0
LINE
  5
9E
100
AcDbEntity
  8
レイヤー_2
 62
     7
100
AcDbLine
 10
101.384682
 20
149.4038
 30
0.0
 11
101.384682
 21
131.491371
 31
0.0
  0
LINE
  5
9D
100
AcDbEntity
  8
レイヤー_2
 62
     7
100
AcDbLine
 10
99.560848
 20
131.239879
 30
0.0
 11
99.560848
 21
149.4038
 31
0.0
  0
LINE
  5
9C
100
AcDbEntity
  8
レイヤー_2
 62
     7
100
AcDbLine
 10
99.560848
 20
150.975798
 30
0.0
 11
99.560848
 21
159.270898
 31
0.0
  0
LINE
  5
9B
100
AcDbEntity
  8
レイヤー_2
 62
     7
100
AcDbLine
 10
99.184299
 20
159.270898
 30
0.0
 11
99.184299
 21
150.975798
 31
0.0
  0
LINE
  5
9A
100
AcDbEntity
  8
レイヤー_2
 62
     7
100
AcDbLine
 10
99.184299
 20
149.4038
 30
0.0
 11
99.184299
 21
131.239879
 31
0.0
  0
LINE
  5
99
100
AcDbEntity
  8
レイヤー_2
 62
     7
100
AcDbLine
 10
97.299143
 20
131.491371
 30
0.0
 11
97.299143
 21
149.4038
 31
0.0
  0
LINE
  5
98
100
AcDbEntity
  8
レイヤー_2
 62
     7
100
AcDbLine
 10
97.299143
 20
150.975798
 30
0.0
 11
97.299143
 21
159.270898
 31
0.0
  0
POLYLINE
  5
93
100
AcDbEntity
  8
レイヤー_2
 62
     7
100
AcDb2dPolyline
 66
     1
 10
0.0
 20
0.0
 30
0.0
  0
VERTEX
  5
94
100
AcDbEntity
  8
レイヤー_2
 62
     7
100
AcDbVertex
100
AcDb2dVertex
 10
101.949677
 20
142.113289
 30
0.0
  0
VERTEX
  5
95
100
AcDbEntity
  8
レイヤー_2
 62
     7
100
AcDbVertex
100
AcDb2dVertex
 10
102.264214
 20
141.987543
 30
0.0
  0
VERTEX
  5
96
100
AcDbEntity
  8
レイヤー_2
 62
     7
100
AcDbVertex
100
AcDb2dVertex
 10
102.577718
 20
141.987543
 30
0.0
  0
SEQEND
  5
97
100
AcDbEntity
  8
レイヤー_2
 62
     7
  0
POLYLINE
  5
8E
100
AcDbEntity
  8
レイヤー_2
 62
     7
100
AcDb2dPolyline
 66
     1
 10
0.0
 20
0.0
 30
0.0
  0
VERTEX
  5
8F
100
AcDbEntity
  8
レイヤー_2
 62
     7
100
AcDbVertex
100
AcDb2dVertex
 10
103.143575
 20
142.113289
 30
0.0
  0
VERTEX
  5
90
100
AcDbEntity
  8
レイヤー_2
 62
     7
100
AcDbVertex
100
AcDb2dVertex
 10
103.018346
 20
142.0499
 30
0.0
  0
VERTEX
  5
91
100
AcDbEntity
  8
レイヤー_2
 62
     7
100
AcDbVertex
100
AcDb2dVertex
 10
102.577718
 20
141.987543
 30
0.0
  0
SEQEND
  5
92
100
AcDbEntity
  8
レイヤー_2
 62
     7
  0
LINE
  5
8D
100
AcDbEntity
  8
レイヤー_2
 62
     7
100
AcDbLine
 10
103.143575
 20
142.113289
 30
0.0
 11
103.143575
 21
144.123847
 31
0.0
  0
POLYLINE
  5
88
100
AcDbEntity
  8
レイヤー_2
 62
     7
100
AcDb2dPolyline
 66
     1
 10
0.0
 20
0.0
 30
0.0
  0
VERTEX
  5
89
100
AcDbEntity
  8
レイヤー_2
 62
     7
100
AcDbVertex
100
AcDb2dVertex
 10
102.577718
 20
144.187237
 30
0.0
  0
VERTEX
  5
8A
100
AcDbEntity
  8
レイヤー_2
 62
     7
100
AcDbVertex
100
AcDb2dVertex
 10
103.018346
 20
144.123847
 30
0.0
  0
VERTEX
  5
8B
100
AcDbEntity
  8
レイヤー_2
 62
     7
100
AcDbVertex
100
AcDb2dVertex
 10
103.143575
 20
144.123847
 30
0.0
  0
SEQEND
  5
8C
100
AcDbEntity
  8
レイヤー_2
 62
     7
  0
POLYLINE
  5
83
100
AcDbEntity
  8
レイヤー_2
 62
     7
100
AcDb2dPolyline
 66
     1
 10
0.0
 20
0.0
 30
0.0
  0
VERTEX
  5
84
100
AcDbEntity
  8
レイヤー_2
 62
     7
100
AcDbVertex
100
AcDb2dVertex
 10
101.949677
 20
144.123847
 30
0.0
  0
VERTEX
  5
85
100
AcDbEntity
  8
レイヤー_2
 62
     7
100
AcDbVertex
100
AcDb2dVertex
 10
102.264214
 20
144.187237
 30
0.0
  0
VERTEX
  5
86
100
AcDbEntity
  8
レイヤー_2
 62
     7
100
AcDbVertex
100
AcDb2dVertex
 10
102.577718
 20
144.187237
 30
0.0
  0
SEQEND
  5
87
100
AcDbEntity
  8
レイヤー_2
 62
     7
  0
LINE
  5
82
100
AcDbEntity
  8
レイヤー_2
 62
     7
100
AcDbLine
 10
101.949677
 20
142.113289
 30
0.0
 11
101.949677
 21
144.123847
 31
0.0
  0
POLYLINE
  5
7D
100
AcDbEntity
  8
レイヤー_2
 62
     7
100
AcDb2dPolyline
 66
     1
 10
0.0
 20
0.0
 30
0.0
  0
VERTEX
  5
7E
100
AcDbEntity
  8
レイヤー_2
 62
     7
100
AcDbVertex
100
AcDb2dVertex
 10
101.384682
 20
144.187237
 30
0.0
  0
VERTEX
  5
7F
100
AcDbEntity
  8
レイヤー_2
 62
     7
100
AcDbVertex
100
AcDb2dVertex
 10
101.698185
 20
144.187237
 30
0.0
  0
VERTEX
  5
80
100
AcDbEntity
  8
レイヤー_2
 62
     7
100
AcDbVertex
100
AcDb2dVertex
 10
101.949677
 20
144.123847
 30
0.0
  0
SEQEND
  5
81
100
AcDbEntity
  8
レイヤー_2
 62
     7
  0
LINE
  5
7C
100
AcDbEntity
  8
レイヤー_2
 62
     7
100
AcDbLine
 10
101.384682
 20
144.187237
 30
0.0
 11
102.577718
 21
144.187237
 31
0.0
  0
LINE
  5
7B
100
AcDbEntity
  8
レイヤー_2
 62
     7
100
AcDbLine
 10
101.384682
 20
141.987543
 30
0.0
 11
102.577718
 21
141.987543
 31
0.0
  0
POLYLINE
  5
76
100
AcDbEntity
  8
レイヤー_2
 62
     7
100
AcDb2dPolyline
 66
     1
 10
0.0
 20
0.0
 30
0.0
  0
VERTEX
  5
77
100
AcDbEntity
  8
レイヤー_2
 62
     7
100
AcDbVertex
100
AcDb2dVertex
 10
101.384682
 20
141.987543
 30
0.0
  0
VERTEX
  5
78
100
AcDbEntity
  8
レイヤー_2
 62
     7
100
AcDbVertex
100
AcDb2dVertex
 10
101.698185
 20
141.987543
 30
0.0
  0
VERTEX
  5
79
100
AcDbEntity
  8
レイヤー_2
 62
     7
100
AcDbVertex
100
AcDb2dVertex
 10
101.949677
 20
142.113289
 30
0.0
  0
SEQEND
  5
7A
100
AcDbEntity
  8
レイヤー_2
 62
     7
  0
LINE
  5
75
100
AcDbEntity
  8
レイヤー_2
 62
     7
100
AcDbLine
 10
101.384682
 20
149.025873
 30
0.0
 11
103.143575
 21
149.025873
 31
0.0
  0
LINE
  5
74
100
AcDbEntity
  8
レイヤー_2
 62
     7
100
AcDbLine
 10
101.384682
 20
148.523234
 30
0.0
 11
102.893117
 21
148.523234
 31
0.0
  0
LINE
  5
73
100
AcDbEntity
  8
レイヤー_2
 62
     7
100
AcDbLine
 10
101.384682
 20
149.278399
 30
0.0
 11
103.143575
 21
149.278399
 31
0.0
  0
LINE
  5
72
100
AcDbEntity
  8
レイヤー_2
 62
     7
100
AcDbLine
 10
103.143575
 20
144.123847
 30
0.0
 11
103.143575
 21
144.187237
 31
0.0
  0
LINE
  5
71
100
AcDbEntity
  8
レイヤー_2
 62
     7
100
AcDbLine
 10
102.577718
 20
144.187237
 30
0.0
 11
103.143575
 21
144.187237
 31
0.0
  0
LINE
  5
70
100
AcDbEntity
  8
レイヤー_2
 62
     7
100
AcDbLine
 10
103.143575
 20
142.113289
 30
0.0
 11
103.143575
 21
141.987543
 31
0.0
  0
LINE
  5
6F
100
AcDbEntity
  8
レイヤー_2
 62
     7
100
AcDbLine
 10
102.577718
 20
141.987543
 30
0.0
 11
103.143575
 21
141.987543
 31
0.0
  0
LINE
  5
6E
100
AcDbEntity
  8
レイヤー_2
 62
     7
100
AcDbLine
 10
104.401552
 20
150.975798
 30
0.0
 11
95.538182
 21
150.975798
 31
0.0
  0
LINE
  5
6D
100
AcDbEntity
  8
レイヤー_2
 62
     7
100
AcDbLine
 10
95.224679
 20
149.4038
 30
0.0
 11
104.715228
 21
149.4038
 31
0.0
  0
LINE
  5
6C
100
AcDbEntity
  8
レイヤー_2
 62
     7
100
AcDbLine
 10
104.715228
 20
150.723617
 30
0.0
 11
95.224679
 21
150.723617
 31
0.0
  0
LINE
  5
6B
100
AcDbEntity
  8
レイヤー_2
 62
     7
100
AcDbLine
 10
95.538182
 20
150.723617
 30
0.0
 11
95.413987
 21
150.723617
 31
0.0
  0
LINE
  5
6A
100
AcDbEntity
  8
レイヤー_2
 62
     7
100
AcDbLine
 10
104.52592
 20
150.723617
 30
0.0
 11
104.401552
 21
150.723617
 31
0.0
  0
LINE
  5
69
100
AcDbEntity
  8
レイヤー_2
 62
     7
100
AcDbLine
 10
96.355531
 20
149.4038
 30
0.0
 11
96.543978
 21
149.4038
 31
0.0
  0
LINE
  5
68
100
AcDbEntity
  8
レイヤー_2
 62
     7
100
AcDbLine
 10
101.384682
 20
149.4038
 30
0.0
 11
101.63514
 21
149.4038
 31
0.0
  0
LINE
  5
67
100
AcDbEntity
  8
レイヤー_2
 62
     7
100
AcDbLine
 10
99.372574
 20
149.4038
 30
0.0
 11
99.560848
 21
149.4038
 31
0.0
  0
LINE
  5
66
100
AcDbEntity
  8
レイヤー_2
 62
     7
100
AcDbLine
 10
102.451628
 20
159.270898
 30
0.0
 11
102.451628
 21
150.975798
 31
0.0
  0
LINE
  5
65
100
AcDbEntity
  8
レイヤー_2
 62
     7
100
AcDbLine
 10
99.93843
 20
128.223009
 30
0.0
 11
99.93843
 21
131.930965
 31
0.0
  0
LINE
  5
64
100
AcDbEntity
  8
レイヤー_2
 62
     7
100
AcDbLine
 10
99.93843
 20
132.685097
 30
0.0
 11
99.93843
 21
133.376527
 31
0.0
  0
LINE
  5
63
100
AcDbEntity
  8
レイヤー_2
 62
     7
100
AcDbLine
 10
99.93843
 20
134.130659
 30
0.0
 11
99.93843
 21
137.839648
 31
0.0
  0
LINE
  5
62
100
AcDbEntity
  8
レイヤー_2
 62
     7
100
AcDbLine
 10
99.93843
 20
138.592746
 30
0.0
 11
99.93843
 21
139.347911
 31
0.0
  0
LINE
  5
61
100
AcDbEntity
  8
レイヤー_2
 62
     7
100
AcDbLine
 10
99.93843
 20
140.101354
 30
0.0
 11
99.93843
 21
143.80931
 31
0.0
  0
LINE
  5
60
100
AcDbEntity
  8
レイヤー_2
 62
     7
100
AcDbLine
 10
99.93843
 20
144.563786
 30
0.0
 11
99.93843
 21
145.255561
 31
0.0
  0
LINE
  5
5F
100
AcDbEntity
  8
レイヤー_2
 62
     7
100
AcDbLine
 10
99.93843
 20
146.009003
 30
0.0
 11
99.93843
 21
149.717993
 31
0.0
  0
LINE
  5
5E
100
AcDbEntity
  8
レイヤー_2
 62
     7
100
AcDbLine
 10
99.93843
 20
150.471436
 30
0.0
 11
99.93843
 21
151.2266
 31
0.0
  0
LINE
  5
5D
100
AcDbEntity
  8
レイヤー_2
 62
     7
100
AcDbLine
 10
99.93843
 20
151.980732
 30
0.0
 11
99.93843
 21
155.688688
 31
0.0
  0
LINE
  5
5C
100
AcDbEntity
  8
レイヤー_2
 62
     7
100
AcDbLine
 10
99.93843
 20
156.443164
 30
0.0
 11
99.93843
 21
157.13425
 31
0.0
  0
LINE
  5
5B
100
AcDbEntity
  8
レイヤー_2
 62
     7
100
AcDbLine
 10
99.93843
 20
157.887693
 30
0.0
 11
99.93843
 21
161.596682
 31
0.0
  0
LINE
  5
5A
100
AcDbEntity
  8
レイヤー_2
 62
     7
100
AcDbLine
 10
99.93843
 20
162.350814
 30
0.0
 11
99.93843
 21
163.105117
 31
0.0
  0
LINE
  5
59
100
AcDbEntity
  8
レイヤー_2
 62
     7
100
AcDbLine
 10
99.93843
 20
163.86011
 30
0.0
 11
99.93843
 21
167.567377
 31
0.0
  0
LINE
  5
58
100
AcDbEntity
  8
レイヤー_2
 62
     7
100
AcDbLine
 10
99.93843
 20
168.32237
 30
0.0
 11
99.93843
 21
169.012767
 31
0.0
  0
LINE
  5
57
100
AcDbEntity
  8
レイヤー_2
 62
     7
100
AcDbLine
 10
99.93843
 20
169.76776
 30
0.0
 11
99.93843
 21
173.475027
 31
0.0
  0
LINE
  5
56
100
AcDbEntity
  8
レイヤー_2
 62
     7
100
AcDbLine
 10
99.93843
 20
174.23002
 30
0.0
 11
99.93843
 21
174.983634
 31
0.0
  0
LINE
  5
55
100
AcDbEntity
  8
レイヤー_2
 62
     7
100
AcDbLine
 10
99.93843
 20
175.738455
 30
0.0
 11
99.93843
 21
179.446239
 31
0.0
  0
LINE
  5
54
100
AcDbEntity
  8
レイヤー_2
 62
     7
100
AcDbLine
 10
99.93843
 20
180.137325
 30
0.0
 11
99.93843
 21
180.892145
 31
0.0
  0
LINE
  5
53
100
AcDbEntity
  8
レイヤー_2
 62
     7
100
AcDbLine
 10
99.93843
 20
181.64576
 30
0.0
 11
99.93843
 21
185.353889
 31
0.0
  0
LINE
  5
52
100
AcDbEntity
  8
レイヤー_2
 62
     7
100
AcDbLine
 10
99.93843
 20
186.108537
 30
0.0
 11
99.93843
 21
186.862668
 31
0.0
  0
LINE
  5
51
100
AcDbEntity
  8
レイヤー_2
 62
     7
100
AcDbLine
 10
99.93843
 20
187.616627
 30
0.0
 11
99.93843
 21
191.3251
 31
0.0
  0
LINE
  5
50
100
AcDbEntity
  8
レイヤー_2
 62
     7
100
AcDbLine
 10
99.93843
 20
192.016703
 30
0.0
 11
99.93843
 21
192.771007
 31
0.0
  0
LINE
  5
4F
100
AcDbEntity
  8
レイヤー_2
 62
     7
100
AcDbLine
 10
99.93843
 20
193.525138
 30
0.0
 11
99.93843
 21
197.233267
 31
0.0
  0
LINE
  5
4E
100
AcDbEntity
  8
レイヤー_2
 62
     7
100
AcDbLine
 10
99.93843
 20
197.987226
 30
0.0
 11
99.93843
 21
198.741702
 31
0.0
  0
LINE
  5
4D
100
AcDbEntity
  8
レイヤー_2
 62
     7
100
AcDbLine
 10
99.93843
 20
199.495489
 30
0.0
 11
99.93843
 21
203.203445
 31
0.0
  0
LINE
  5
4C
100
AcDbEntity
  8
レイヤー_2
 62
     7
100
AcDbLine
 10
99.93843
 20
203.89522
 30
0.0
 11
99.93843
 21
204.649696
 31
0.0
  0
LINE
  5
4B
100
AcDbEntity
  8
レイヤー_2
 62
     7
100
AcDbLine
 10
99.93843
 20
205.277909
 30
0.0
 11
99.93843
 21
204.52395
 31
0.0
  0
LINE
  5
4A
100
AcDbEntity
  8
レイヤー_2
 62
     7
100
AcDbLine
 10
56.508351
 20
213.386114
 30
0.0
 11
56.635303
 21
217.09407
 31
0.0
  0
LINE
  5
49
100
AcDbEntity
  8
レイヤー_2
 62
     7
100
AcDbLine
 10
56.635303
 20
217.848029
 30
0.0
 11
56.696625
 21
218.602677
 31
0.0
  0
LINE
  5
48
100
AcDbEntity
  8
レイヤー_2
 62
     7
100
AcDbLine
 10
56.696625
 20
218.602677
 30
0.0
 11
56.635303
 21
217.848029
 31
0.0
  0
LINE
  5
47
100
AcDbEntity
  8
レイヤー_2
 62
     7
100
AcDbLine
 10
90.447709
 20
159.270898
 30
0.0
 11
34.008432
 21
159.270898
 31
0.0
  0
LINE
  5
46
100
AcDbEntity
  8
レイヤー_2
 62
     7
100
AcDbLine
 10
44.628973
 20
214.328692
 30
0.0
 11
53.429125
 21
214.328692
 31
0.0
  0
LINE
  5
45
100
AcDbEntity
  8
レイヤー_2
 62
     7
100
AcDbLine
 10
45.32092
 20
215.396672
 30
0.0
 11
45.32092
 21
158.516423
 31
0.0
  0
LINE
  5
44
100
AcDbEntity
  8
レイヤー_2
 62
     7
100
AcDbLine
 10
56.445133
 20
222.498736
 30
0.0
 11
56.445133
 21
233.183011
 31
0.0
  0
LINE
  5
43
100
AcDbEntity
  8
レイヤー_2
 62
     7
100
AcDbLine
 10
99.93843
 20
216.025401
 30
0.0
 11
99.93843
 21
233.120827
 31
0.0
  0
LINE
  5
42
100
AcDbEntity
  8
レイヤー_2
 62
     7
100
AcDbLine
 10
100.629517
 20
232.429396
 30
0.0
 11
55.754047
 21
232.429396
 31
0.0
  0
LINE
  5
41
100
AcDbEntity
  8
レイヤー_2
 62
     7
100
AcDbLine
 10
34.196707
 20
221.870523
 30
0.0
 11
52.612637
 21
221.870523
 31
0.0
  0
LINE
  5
40
100
AcDbEntity
  8
レイヤー_2
 62
     7
100
AcDbLine
 10
34.25958
 20
221.241965
 30
0.0
 11
35.57974
 21
222.561781
 31
0.0
  0
LINE
  5
3F
100
AcDbEntity
  8
レイヤー_2
 62
     7
100
AcDbLine
 10
99.31039
 20
233.057954
 30
0.0
 11
100.566471
 21
231.800321
 31
0.0
  0
LINE
  5
3E
100
AcDbEntity
  8
レイヤー_2
 62
     7
100
AcDbLine
 10
55.81692
 20
233.057954
 30
0.0
 11
57.074208
 21
231.800321
 31
0.0
  0
LINE
  5
3D
100
AcDbEntity
  8
レイヤー_2
 62
     7
100
AcDbLine
 10
44.755924
 20
213.762663
 30
0.0
 11
46.076085
 21
215.082479
 31
0.0
  0
LINE
  5
3C
100
AcDbEntity
  8
レイヤー_2
 62
     7
100
AcDbLine
 10
44.692707
 20
158.579812
 30
0.0
 11
46.012868
 21
159.899801
 31
0.0
  0
LINE
  5
3B
100
AcDbEntity
  8
レイヤー_2
 62
     7
100
AcDbLine
 10
34.887793
 20
222.624826
 30
0.0
 11
34.887793
 21
158.390504
 31
0.0
  0
LINE
  5
3A
100
AcDbEntity
  8
レイヤー_2
 62
     7
100
AcDbLine
 10
34.321936
 20
158.579812
 30
0.0
 11
35.641063
 21
159.899801
 31
0.0
  0
MTEXT
  5
39
100
AcDbEntity
  8
レイヤー_2
 62
     7
100
AcDbMText
 10
41.061347
 20
182.505656
 30
0.0
 40
3.674768
 41
0.0
 71
     1
 72
     2
  1
\fGothicBBB Medium|b0|i0|c128;\H3.6748;\C7;\U+0032\U+0039\U+0037
  7
STD
210
0.0
220
0.0
230
1.0
 11
0.0
 21
1.0
 31
0.0
 73
     1
 44
1.0
  0
MTEXT
  5
38
100
AcDbEntity
  8
レイヤー_2
 62
     7
100
AcDbMText
 10
30.149351
 20
184.633347
 30
0.0
 40
3.674768
 41
0.0
 71
     1
 72
     2
  1
\fGothicBBB Medium|b0|i0|c128;\H3.6748;\C7;\U+0033\U+0033\U+0037
  7
STD
210
0.0
220
0.0
230
1.0
 11
0.0
 21
1.0
 31
0.0
 73
     1
 44
1.0
  0
MTEXT
  5
37
100
AcDbEntity
  8
レイヤー_2
 62
     7
100
AcDbMText
 10
73.366237
 20
236.476062
 30
0.0
 40
3.674768
 41
0.0
 71
     1
 72
     2
  1
\fGothicBBB Medium|b0|i0|c128;\H3.6748;\C7;\U+0032\U+0033\U+0035
  7
STD
210
0.0
220
0.0
230
1.0
 73
     1
 44
1.0
  0
SPLINE
  5
36
100
AcDbEntity
  8
レイヤー_2
 62
     7
100
AcDbSpline
210
0.0
220
0.0
230
1.0
 70
     8
 71
     3
 72
    11
 73
     7
 74
     0
 42
0.00000001
 43
0.00000001
 40
0.0
 40
0.0
 40
0.0
 40
0.0
 40
1.0
 40
1.0
 40
1.0
 40
2.0
 40
2.0
 40
2.0
 40
2.0
 10
96.731391059027771
 20
184.47004937065969
 30
0.0
 10
96.688844129774296
 20
184.68330078124998
 30
0.0
 10
96.664900716145823
 20
184.9036146375868
 30
0.0
 10
96.664900716145823
 20
185.12978515624999
 30
0.0
 10
96.664900716145823
 20
185.80777994791666
 30
0.0
 10
96.871261935763883
 20
186.43754340277775
 30
0.0
 10
97.224039713541657
 20
186.95981987847222
 30
0.0
  0
SPLINE
  5
35
100
AcDbEntity
  8
レイヤー_2
 62
     7
100
AcDbSpline
210
0.0
220
0.0
230
1.0
 70
     8
 71
     3
 72
    11
 73
     7
 74
     0
 42
0.00000001
 43
0.00000001
 40
0.0
 40
0.0
 40
0.0
 40
0.0
 40
1.0
 40
1.0
 40
1.0
 40
2.0
 40
2.0
 40
2.0
 40
2.0
 10
102.83162163628471
 20
186.66371392144094
 30
0.0
 10
103.07381184895833
 20
186.20654975043402
 30
0.0
 10
103.21178792317707
 20
185.68410101996525
 30
0.0
 10
103.21178792317707
 20
185.12978515624999
 30
0.0
 10
103.21178792317707
 20
184.90516493055554
 30
0.0
 10
103.18973931206597
 20
184.68571234809025
 30
0.0
 10
103.14615885416666
 20
184.47452799479166
 30
0.0
  0
INSERT
  5
2A
100
AcDbEntity
  8
レイヤー_2
 62
     7
100
AcDbBlockReference
  2
AI9-BLK1
 10
99.938775
 20
183.085724
 30
0.0
  0
ENDSEC
  0
SECTION
  2
OBJECTS
  0
DICTIONARY
  5
19
100
AcDbDictionary
280
     0
281
     1
  3
ACAD_GROUP
350
1A
  3
ACAD_MLINESTYLE
350
1B
  3
ACAD_LAYOUT
350
1E
  3
ACAD_PLOTSETTINGS
350
22
  3
ACAD_PLOTSTYLENAME
350
1F
  3
ACAD_WIPEOUT_VARS
350
23
  0
DICTIONARY
  5
1A
102
{ACAD_REACTORS
330
19
102
}
100
AcDbDictionary
280
     0
281
     1
  0
DICTIONARY
  5
1B
102
{ACAD_REACTORS
330
19
102
}
100
AcDbDictionary
280
     0
281
     1
  3
Standard
350
1C
  0
MLINESTYLE
  5
1C
102
{ACAD_REACTORS
330
1B
102
}
100
AcDbMlineStyle
  2
Standard
 70
     0
  3

 62
     0
 51
90.0
 52
90.0
 71
     2
 49
0.5
 62
   256
  6
ByLayer
 49
-0.5
 62
   256
  6
ByLayer
  0
ACDBDICTIONARYWDFLT
  5
1F
102
{ACAD_REACTORS
330
19
102
}
100
AcDbDictionary
281
     1
  3
Normal
350
1D
100
AcDbDictionaryWithDefault
340
1D
  0
ACDBPLACEHOLDER
  5
1D
102
{ACAD_REACTORS
330
1F
102
}
  0
LAYOUT
  5
20
102
{ACAD_REACTORS
330
1E
102
}
100
AcDbPlotSettings
  1

  2

  4

  6

 40
0.0
 41
0.0
 42
0.0
 43
0.0
 44
0.0
 45
0.0
 46
0.0
 47
0.0
 48
0.0
 49
0.0
140
0.0
141
0.0
142
1.0
143
1.0
 70
  1024
 72
     0
 73
     0
 74
     0
  7

 75
     0
147
1.0
148
0.0
149
0.0
100
AcDbLayout
  1
Model
 70
     0
 71
     0
 10
0.0
 20
0.0
 11
0.0
 21
0.0
 12
0.0
 22
0.0
 32
0.0
 14
0.0
 24
0.0
 34
0.0
 15
0.0
 25
0.0
 35
0.0
146
0.0
 13
0.0
 23
0.0
 33
0.0
 16
0.0
 26
0.0
 36
0.0
 17
0.0
 27
0.0
 37
0.0
 76
     0
330
A
331
0
345
0
346
0
  0
LAYOUT
  5
21
102
{ACAD_REACTORS
330
1E
102
}
100
AcDbPlotSettings
  1

  2

  4

  6

 40
0.0
 41
0.0
 42
0.0
 43
0.0
 44
0.0
 45
0.0
 46
0.0
 47
0.0
 48
0.0
 49
0.0
140
0.0
141
0.0
142
1.0
143
1.0
 70
     0
 72
     0
 73
     0
 74
     0
  7

 75
     0
147
1.0
148
0.0
149
0.0
100
AcDbLayout
  1
Layout1
 70
     0
 71
     0
 10
0.0
 20
0.0
 11
0.0
 21
0.0
 12
0.0
 22
0.0
 32
0.0
 14
0.0
 24
0.0
 34
0.0
 15
0.0
 25
0.0
 35
0.0
146
0.0
 13
0.0
 23
0.0
 33
0.0
 16
0.0
 26
0.0
 36
0.0
 17
0.0
 27
0.0
 37
0.0
 76
     0
330
B
331
0
345
0
346
0
  0
DICTIONARY
  5
1E
102
{ACAD_REACTORS
330
19
102
}
100
AcDbDictionary
280
     0
281
     1
  3
Layout1
350
21
  3
Model
350
20
  0
DICTIONARY
  5
22
102
{ACAD_REACTORS
330
19
102
}
100
AcDbDictionary
280
     0
281
     1
  0
WIPEOUTVARIABLES
  5
23
100
AcDbWipeoutVariables
 70
     1
  0
IMAGEDEF_REACTOR
  5
7A9
100
AcDbRasterImageDefReactor
 90
        2
330
7A8
  0
IMAGEDEF
  5
7AA
100
AcDbRasterImageDef
 90
        0
  1
\\192.168.6.3\free(2009_04\一過性\DB_WEB用DXF_丸茂\KITCHEN\33826790+27719970_1.bmp
 10
70.0
 20
9.0
 11
0.352778
 21
0.352778
280
     1
281
     0
  0
IMAGEDEF_REACTOR
  5
7AC
100
AcDbRasterImageDefReactor
 90
        2
330
7AB
  0
IMAGEDEF
  5
7AD
100
AcDbRasterImageDef
 90
        0
  1
\\192.168.6.3\free(2009_04\一過性\DB_WEB用DXF_丸茂\KITCHEN\33826790+27719970_2.bmp
 10
70.0
 20
9.0
 11
0.352778
 21
0.352778
280
     1
281
     0
  0
ENDSEC
  0
EOF
